  0
SECTION
  2
HEADER
  9
$ACADVER
  1
AC1024
  9
$DWGCODEPAGE
  3
ANSI_1252
  9
$EXTMAX
 10
297.0
 20
210.0
 30
0.0
  9
$EXTMIN
 10
0.0
 20
0.0
 30
0.0
  9
$LIMMIN
 10
0.0
 20
0.0
  9
$LIMMAX
 10
297.0
 20
210.0
  9
$VIEWCTR
 10
148.5
 20
105.0
  9
$VIEWSIZE
 40
210.0
  9
$CLAYER
  8
0
  9
$LTSCALE
 40
16.335
  9
$CELTYPE
  6
BYLAYER
  9
$DIMSCALE
 40
1.0
  9
$DIMASZ
 40
3.0
  9
$DIMEXO
 40
0.5
  9
$DIMDLI
 40
11.286
  9
$DIMEXE
 40
1.5
  9
$DIMCEN
 40
2.673
  9
$DIMLFAC
 40
1.0
  9
$DIMBLK
  1
_FILLED
  9
$DIMALT
 70
0
  9
$DIMALTF
 40
0.0393700787
  9
$DIMTXT
 40
3.0
  9
$DIMTOL
 70
1
  9
$DIMLIM
 70
0
  9
$DIMTFAC
 40
1.0
  9
$DIMTP
 40
0.01
  9
$DIMTM
 40
0.01
  9
$DIMGAP
 40
0.625
  9
$DIMDSEP
 70
44
  9
$AUNITS
 70
0
  9
$PDMODE
 70
3
  9
$PDSIZE
 40
3.0
  9
$HANDSEED
  5
3B6
  9
$TILEMODE
 70
1
  9
$MEASUREMENT
 70
1
  9
$INSUNITS
 70
4
  0
ENDSEC
  0
SECTION
  2
CLASSES
  0
CLASS
  1
ACDBDICTIONARYWDFLT
  2
AcDbDictionaryWithDefault
  3
AutoCAD 2000
 90
0
 91
1
280
0
281
0
  0
CLASS
  1
ACDBPLACEHOLDER
  2
AcDbPlaceHolder
  3
AutoCAD 2000
 90
0
 91
1
280
0
281
0
  0
CLASS
  1
LAYOUT
  2
AcDbLayout
  3
AutoCAD 2000
 90
0
 91
0
280
0
281
0
  0
ENDSEC
  0
SECTION
  2
TABLES
  0
TABLE
  2
VPORT
  5
8
100
AcDbSymbolTable
 70
2
  0
VPORT
  5
1F4
100
AcDbSymbolTableRecord
100
AcDbViewportTableRecord
  2
*ACTIVE
 70
0
 10
0.0
 20
0.0
 11
1.0
 21
1.0
 12
148.5
 22
105.0
 13
0.0
 23
0.0
 14
1.0
 24
1.0
 15
0.0
 25
0.0
 16
0.0
 26
0.0
 36
1.0
 17
0.0
 27
0.0
 37
0.0
 40
210.0
 41
1.4142857143
 42
50.0
 43
0.0
 44
0.0
 50
0.0
 51
0.0
 71
0
 72
100
 73
1
 74
1
 75
0
 76
0
 77
0
 78
0
  0
ENDTAB
  0
TABLE
  2
LTYPE
  5
5
100
AcDbSymbolTable
 70
6
  0
LTYPE
  5
14
100
AcDbSymbolTableRecord
100
AcDbLinetypeTableRecord
  2
BYBLOCK
 70
0
  3

 72
65
 73
0
 40
0.0
  0
LTYPE
  5
15
100
AcDbSymbolTableRecord
100
AcDbLinetypeTableRecord
  2
BYLAYER
 70
0
  3

 72
65
 73
0
 40
0.0
  0
LTYPE
  5
16
100
AcDbSymbolTableRecord
100
AcDbLinetypeTableRecord
  2
CONTINUOUS
 70
64
  3
Solid line
 72
65
 73
0
 40
0.0
  0
LTYPE
  5
1F5
100
AcDbSymbolTableRecord
100
AcDbLinetypeTableRecord
  2
CENTER
 70
64
  3
____ _ ____ _ ____ _ ____ _ ____ _ ____ _ ____
 72
65
 73
4
 40
0.6
 49
0.375
 74
0
 49
-0.075
 74
0
 49
0.075
 74
0
 49
-0.075
 74
0
  0
LTYPE
  5
1F6
100
AcDbSymbolTableRecord
100
AcDbLinetypeTableRecord
  2
HIDDEN
 70
64
  3
- - - - - - - - - - - - - - - - - - - -
 72
65
 73
2
 40
0.2
 49
0.1
 74
0
 49
-0.1
 74
0
  0
LTYPE
  5
1F7
100
AcDbSymbolTableRecord
100
AcDbLinetypeTableRecord
  2
PHANTOM
 70
64
  3
_____ _ _ _____ _ _ _____ _ _ _____
 72
65
 73
6
 40
0.8
 49
0.45
 74
0
 49
-0.05
 74
0
 49
0.1
 74
0
 49
-0.05
 74
0
 49
0.1
 74
0
 49
-0.05
 74
0
  0
LTYPE
  5
1F8
100
AcDbSymbolTableRecord
100
AcDbLinetypeTableRecord
  2
DOT
 70
64
  3
. . . . . . . . . . . . . . . . . . . .
 72
65
 73
2
 40
0.2
 49
0.1
 74
0
 49
-0.1
 74
0
  0
LTYPE
  5
1F9
100
AcDbSymbolTableRecord
100
AcDbLinetypeTableRecord
  2
DASHED
 70
64
  3
- - - - - - - - - - - - - - - - - - - -
 72
65
 73
2
 40
0.2
 49
0.1
 74
0
 49
-0.1
 74
0
  0
ENDTAB
  0
TABLE
  2
LAYER
  5
2
100
AcDbSymbolTable
 70
36
  0
LAYER
  5
10
100
AcDbSymbolTableRecord
100
AcDbLayerTableRecord
  2
0
 70
0
 62
7
  6
CONTINUOUS
370
-3
390
F
  0
LAYER
  5
1FA
100
AcDbSymbolTableRecord
100
AcDbLayerTableRecord
  2
DEFAULT_1
 70
0
 62
7
  6
CENTER
370
-3
390
F
  0
LAYER
  5
1FB
100
AcDbSymbolTableRecord
100
AcDbLayerTableRecord
  2
DEFAULT_2
 70
0
 62
7
  6
HIDDEN
370
-3
390
F
  0
LAYER
  5
1FC
100
AcDbSymbolTableRecord
100
AcDbLayerTableRecord
  2
DEFAULT_3
 70
0
 62
7
  6
PHANTOM
370
-3
390
F
  0
LAYER
  5
1FD
100
AcDbSymbolTableRecord
100
AcDbLayerTableRecord
  2
ASSI
 70
0
 62
7
  6
CONTINUOUS
370
-3
390
F
  0
LAYER
  5
1FE
100
AcDbSymbolTableRecord
100
AcDbLayerTableRecord
  2
COORDINATE
 70
0
 62
7
  6
CONTINUOUS
370
-3
390
F
  0
LAYER
  5
1FF
100
AcDbSymbolTableRecord
100
AcDbLayerTableRecord
  2
COORD_ORIGINE
 70
0
 62
7
  6
CONTINUOUS
370
-3
390
F
  0
LAYER
  5
200
100
AcDbSymbolTableRecord
100
AcDbLayerTableRecord
  2
COPY_PUBLISH
 70
0
 62
7
  6
CONTINUOUS
370
-3
390
F
  0
LAYER
  5
201
100
AcDbSymbolTableRecord
100
AcDbLayerTableRecord
  2
COSMETIC
 70
0
 62
7
  6
CONTINUOUS
370
-3
390
F
  0
LAYER
  5
202
100
AcDbSymbolTableRecord
100
AcDbLayerTableRecord
  2
COSMETICI
 70
0
 62
7
  6
CONTINUOUS
370
-3
390
F
  0
LAYER
  5
203
100
AcDbSymbolTableRecord
100
AcDbLayerTableRecord
  2
CURVA_TASSELLO
 70
0
 62
7
  6
CONTINUOUS
370
-3
390
F
  0
LAYER
  5
204
100
AcDbSymbolTableRecord
100
AcDbLayerTableRecord
  2
CURVE
 70
0
 62
7
  6
CONTINUOUS
370
-3
390
F
  0
LAYER
  5
205
100
AcDbSymbolTableRecord
100
AcDbLayerTableRecord
  2
DRAFT
 70
0
 62
7
  6
CONTINUOUS
370
-3
390
F
  0
LAYER
  5
206
100
AcDbSymbolTableRecord
100
AcDbLayerTableRecord
  2
IMPORT_IGES
 70
0
 62
7
  6
CONTINUOUS
370
-3
390
F
  0
LAYER
  5
207
100
AcDbSymbolTableRecord
100
AcDbLayerTableRecord
  2
INTFCLR_2
 70
0
 62
7
  6
CONTINUOUS
370
-3
390
F
  0
LAYER
  5
208
100
AcDbSymbolTableRecord
100
AcDbLayerTableRecord
  2
INTF_1
 70
0
 62
7
  6
CONTINUOUS
370
-3
390
F
  0
LAYER
  5
209
100
AcDbSymbolTableRecord
100
AcDbLayerTableRecord
  2
INTF_7
 70
0
 62
7
  6
CONTINUOUS
370
-3
390
F
  0
LAYER
  5
20A
100
AcDbSymbolTableRecord
100
AcDbLayerTableRecord
  2
LINEA_CHIUSURA
 70
0
 62
7
  6
CONTINUOUS
370
-3
390
F
  0
LAYER
  5
20B
100
AcDbSymbolTableRecord
100
AcDbLayerTableRecord
  2
NOTE
 70
0
 62
7
  6
CONTINUOUS
370
-3
390
F
  0
LAYER
  5
20C
100
AcDbSymbolTableRecord
100
AcDbLayerTableRecord
  2
PIANI
 70
0
 62
7
  6
CONTINUOUS
370
-3
390
F
  0
LAYER
  5
20D
100
AcDbSymbolTableRecord
100
AcDbLayerTableRecord
  2
PIANI_ORIGINE
 70
0
 62
7
  6
CONTINUOUS
370
-3
390
F
  0
LAYER
  5
20E
100
AcDbSymbolTableRecord
100
AcDbLayerTableRecord
  2
PIANI_RIFERIMENTO
 70
0
 62
7
  6
CONTINUOUS
370
-3
390
F
  0
LAYER
  5
20F
100
AcDbSymbolTableRecord
100
AcDbLayerTableRecord
  2
PUNTI
 70
0
 62
7
  6
CONTINUOUS
370
-3
390
F
  0
LAYER
  5
210
100
AcDbSymbolTableRecord
100
AcDbLayerTableRecord
  2
RACCORDO
 70
0
 62
7
  6
CONTINUOUS
370
-3
390
F
  0
LAYER
  5
211
100
AcDbSymbolTableRecord
100
AcDbLayerTableRecord
  2
RGB__255__255__255__
 70
0
 62
7
  6
CONTINUOUS
370
-3
390
F
  0
LAYER
  5
212
100
AcDbSymbolTableRecord
100
AcDbLayerTableRecord
  2
RGB____0____0____0__
 70
0
 62
7
  6
CONTINUOUS
370
-3
390
F
  0
LAYER
  5
213
100
AcDbSymbolTableRecord
100
AcDbLayerTableRecord
  2
SIMBOLI
 70
0
 62
7
  6
CONTINUOUS
370
-3
390
F
  0
LAYER
  5
214
100
AcDbSymbolTableRecord
100
AcDbLayerTableRecord
  2
SMUSSO
 70
0
 62
7
  6
CONTINUOUS
370
-3
390
F
  0
LAYER
  5
215
100
AcDbSymbolTableRecord
100
AcDbLayerTableRecord
  2
SNAPLINE
 70
0
 62
7
  6
CONTINUOUS
370
-3
390
F
  0
LAYER
  5
216
100
AcDbSymbolTableRecord
100
AcDbLayerTableRecord
  2
SUPERFICI
 70
0
 62
7
  6
CONTINUOUS
370
-3
390
F
  0
LAYER
  5
217
100
AcDbSymbolTableRecord
100
AcDbLayerTableRecord
  2
TRASH
 70
0
 62
7
  6
CONTINUOUS
370
-3
390
F
  0
LAYER
  5
218
100
AcDbSymbolTableRecord
100
AcDbLayerTableRecord
  2
XSEC_DATUMS
 70
0
 62
7
  6
CONTINUOUS
370
-3
390
F
  0
ENDTAB
  0
TABLE
  2
STYLE
  5
3
100
AcDbSymbolTable
 70
1
  0
STYLE
  5
11
100
AcDbSymbolTableRecord
100
AcDbTextStyleTableRecord
  2
STANDARD
 70
0
 40
0.0
 41
0.8
 50
0.0
 71
0
 42
0.2
  3
txt
  4

  0
STYLE
  5
219
100
AcDbSymbolTableRecord
100
AcDbTextStyleTableRecord
  2
TEXTSTYLE_1
 70
0
 40
0.0
 41
0.8
 50
0.0
 71
0
 42
0.2
  3
gdt
  4

  0
ENDTAB
  0
TABLE
  2
VIEW
  5
6
100
AcDbSymbolTable
 70
0
  0
ENDTAB
  0
TABLE
  2
UCS
  5
7
100
AcDbSymbolTable
 70
0
  0
ENDTAB
  0
TABLE
  2
APPID
  5
9
100
AcDbSymbolTable
 70
1
  0
APPID
  5
21A
100
AcDbSymbolTableRecord
100
AcDbRegAppTableRecord
  2
ACAD
 70
0
  0
ENDTAB
  0
TABLE
  2
BLOCK_RECORD
  5
1
100
AcDbSymbolTable
 70
0
  0
BLOCK_RECORD
  5
21B
100
AcDbSymbolTableRecord
100
AcDbBlockTableRecord
  2
*Model_Space
  0
BLOCK_RECORD
  5
21C
100
AcDbSymbolTableRecord
100
AcDbBlockTableRecord
  2
*Paper_Space
  0
BLOCK_RECORD
  5
21D
100
AcDbSymbolTableRecord
100
AcDbBlockTableRecord
  2
_FILLED
  0
ENDTAB
  0
TABLE
  2
DIMSTYLE
  5
A
100
AcDbSymbolTable
 70
1
100
AcDbDimStyleTable
 71
0
  0
DIMSTYLE
105
21E
100
AcDbSymbolTableRecord
100
AcDbDimStyleTableRecord
  2
STANDARD
 70
0
  3

  4

 40
1.0
 41
3.0
 42
0.5
 43
0.38
 44
1.5
 45
0.0
 46
0.0
 47
0.01
 48
0.01
140
3.0
141
0.09
142
0.0
143
25.4
144
1.0
145
0.0
146
1.0
147
0.625
 71
1.0
 72
0.0
 73
0
 74
0
 75
0
 76
0
 77
1
 78
8
 79
2
170
0
171
1
172
0
173
0
174
0
175
0
176
0
177
0
178
0
270
2
179
2
271
2
272
2
273
2
274
2
275
0
280
0
281
0
282
0
283
1
284
8
285
0
286
0
287
3
288
0
340
11
278
44
341
21D
342
21D
343
21D
344
21D
  0
ENDTAB
  0
ENDSEC
  0
SECTION
  2
BLOCKS
  0
BLOCK
  5
20
100
AcDbEntity
  8
0
100
AcDbBlockBegin
  2
*Model_Space
 70
0
 10
0.0
 20
0.0
 30
0.0
  3
*Model_Space
  1

  0
ENDBLK
  5
21
100
AcDbEntity
  8
0
100
AcDbBlockEnd
  0
BLOCK
  5
1C
100
AcDbEntity
  8
0
100
AcDbBlockBegin
  2
*Paper_Space
 70
0
 10
0.0
 20
0.0
 30
0.0
  3
*Paper_Space
  1

  0
ENDBLK
  5
1D
100
AcDbEntity
  8
0
100
AcDbBlockEnd
  0
BLOCK
  5
21F
100
AcDbEntity
  8
0
100
AcDbBlockBegin
  2
_FILLED
 70
64
 10
0.0
 20
0.0
  3
_FILLED
  1

  0
SOLID
  5
220
100
AcDbEntity
  8
0
  6
BYBLOCK
 62
0
100
AcDbTrace
 10
0.0
 20
0.0
 11
-1.0
 21
0.3166666667
 12
-1.0
 22
-0.3166666667
 13
-1.0
 23
-0.3166666667
  0
ENDBLK
  5
221
100
AcDbEntity
  8
0
  6
BYBLOCK
 62
0
100
AcDbBlockEnd
  0
ENDSEC
  0
SECTION
  2
ENTITIES
  0
LINE
  5
222
100
AcDbEntity
  8
0
100
AcDbLine
 62
7
  6
CONTINUOUS
 10
130.8695479354
 20
131.5891124359
 11
134.6573617226
 21
134.0926793272
  0
LINE
  5
223
100
AcDbEntity
  8
0
100
AcDbLine
 62
7
  6
CONTINUOUS
 10
131.5770852047
 20
131.9975566297
 11
135.3648989919
 21
134.5011235211
  0
LINE
  5
224
100
AcDbEntity
  8
0
100
AcDbLine
 62
7
  6
CONTINUOUS
 10
131.5563215906
 20
131.9847172788
 11
131.5770852047
 21
131.9975566297
  0
LINE
  5
225
100
AcDbEntity
  8
0
100
AcDbLine
 62
7
  6
CONTINUOUS
 10
134.6573617226
 20
134.0926793272
 11
135.3648989919
 21
134.5011235211
  0
LINE
  5
226
100
AcDbEntity
  8
0
100
AcDbLine
 62
7
  6
CONTINUOUS
 10
131.5563215906
 20
131.9847172788
 11
130.8699232429
 21
131.5884760744
  0
LINE
  5
227
100
AcDbEntity
  8
0
100
AcDbLine
 62
7
  6
CONTINUOUS
 10
131.1736322907
 20
130.5694888404
 11
130.8946563566
 21
130.4084427648
  0
LINE
  5
228
100
AcDbEntity
  8
0
100
AcDbLine
 62
7
  6
CONTINUOUS
 10
131.1736322907
 20
130.5694888404
 11
131.5563215906
 21
131.9847172788
  0
LINE
  5
229
100
AcDbEntity
  8
0
100
AcDbLine
 62
7
  6
CONTINUOUS
 10
130.8946563566
 20
59.5768091655
 11
130.8699232429
 21
60.033044743
  0
LINE
  5
22A
100
AcDbEntity
  8
0
100
AcDbLine
 62
7
  6
CONTINUOUS
 10
130.8946563566
 20
130.4084427648
 11
130.8699232429
 21
131.5884760744
  0
LINE
  5
22B
100
AcDbEntity
  8
0
100
AcDbLine
 62
7
  6
CONTINUOUS
 10
130.8699232429
 20
60.033044743
 11
130.8695479354
 21
60.0572376037
  0
LINE
  5
22C
100
AcDbEntity
  8
0
100
AcDbLine
 62
7
  6
CONTINUOUS
 10
130.8695479354
 20
131.5891124359
 11
130.8695479354
 21
60.0572376037
  0
LINE
  5
22D
100
AcDbEntity
  8
0
100
AcDbLine
 62
7
  6
CONTINUOUS
 10
130.8946563566
 20
130.4084427648
 11
130.8946563566
 21
59.5768091655
  0
LINE
  5
22E
100
AcDbEntity
  8
0
100
AcDbLine
 62
7
  6
CONTINUOUS
 10
231.3338981365
 20
1.5844497611
 11
232.7508572674
 21
1.2082703052
  0
LINE
  5
22F
100
AcDbEntity
  8
0
100
AcDbLine
 62
7
  6
CONTINUOUS
 10
130.8946563566
 20
59.5768091655
 11
131.1736322907
 21
59.093608674
  0
LWPOLYLINE
  5
230
100
AcDbEntity
  8
0
100
AcDbPolyline
 62
7
  6
CONTINUOUS
 90
7
 70
0
 10
152.2141030755
 20
97.443377356
 10
152.2032831716
 20
97.4149733866
 10
152.1871637973
 20
97.3629205679
 10
152.1745555606
 20
97.3077582951
 10
152.1655119478
 20
97.2497245292
 10
152.1600707368
 20
97.1890672072
 10
152.1582545569
 20
97.126046482
  0
LINE
  5
231
100
AcDbEntity
  8
0
100
AcDbLine
 62
250
  6
CONTINUOUS
 10
152.3976063092
 20
97.6418110593
 11
152.1582545569
 21
97.126046482
  0
LWPOLYLINE
  5
232
100
AcDbEntity
  8
0
100
AcDbPolyline
 62
7
  6
CONTINUOUS
 90
3
 70
0
 10
152.2457625862
 20
97.5088629862
 10
152.2228440229
 20
97.4636904234
 10
152.2141030755
 20
97.443377356
  0
LWPOLYLINE
  5
233
100
AcDbEntity
  8
0
100
AcDbPolyline
 62
7
  6
CONTINUOUS
 90
4
 70
0
 10
152.3336066009
 20
97.6212529837
 10
152.3012645309
 20
97.5878146522
 10
152.2719407254
 20
97.5502975865
 10
152.2457625862
 20
97.5088629862
  0
LWPOLYLINE
  5
234
100
AcDbEntity
  8
0
100
AcDbPolyline
 62
7
  6
CONTINUOUS
 90
3
 70
0
 10
152.1921852762
 20
97.5395980942
 10
152.2274077022
 20
97.5688167315
 10
152.265332346
 20
97.5936757967
  0
LINE
  5
235
100
AcDbEntity
  8
0
100
AcDbLine
 62
250
  6
CONTINUOUS
 10
152.1582545569
 20
97.126046482
 11
152.0168332007
 21
97.0443915634
  0
LWPOLYLINE
  5
236
100
AcDbEntity
  8
0
100
AcDbPolyline
 62
7
  6
CONTINUOUS
 90
13
 70
0
 10
152.265332346
 20
97.5936757967
 10
152.3058839517
 20
97.6141191499
 10
152.3488017946
 20
97.6300089722
 10
152.3939337935
 20
97.6412945219
 10
152.4410888631
 20
97.6479268583
 10
152.4900637248
 20
97.6498762818
 10
152.5406459981
 20
97.6471339418
 10
152.5926191706
 20
97.6397115653
 10
152.6457605024
 20
97.6276409509
 10
152.699838869
 20
97.6109750265
 10
152.7546213324
 20
97.5897865567
 10
152.8098743627
 20
97.5641668299
 10
152.8653613381
 20
97.5342263835
  0
LWPOLYLINE
  5
237
100
AcDbEntity
  8
0
100
AcDbPolyline
 62
7
  6
CONTINUOUS
 90
7
 70
0
 10
152.2141030755
 20
80.7057366817
 10
152.2032830296
 20
80.6773323113
 10
152.1871635848
 20
80.6252791005
 10
152.1745553661
 20
80.5701166041
 10
152.1655118344
 20
80.5120829264
 10
152.1600707018
 20
80.4514259357
 10
152.1582545569
 20
80.3884058078
  0
LINE
  5
238
100
AcDbEntity
  8
0
100
AcDbLine
 62
250
  6
CONTINUOUS
 10
152.5168847458
 20
86.9581352206
 11
152.1582545569
 21
86.185344773
  0
LINE
  5
239
100
AcDbEntity
  8
0
100
AcDbLine
 62
250
  6
CONTINUOUS
 10
152.3976063036
 20
80.9041703731
 11
152.1582545569
 21
80.3884058078
  0
LWPOLYLINE
  5
23A
100
AcDbEntity
  8
0
100
AcDbPolyline
 62
7
  6
CONTINUOUS
 90
3
 70
0
 10
152.2457625331
 20
80.7712222183
 10
152.2228439612
 20
80.7260496126
 10
152.2141030755
 20
80.7057366817
  0
LINE
  5
23B
100
AcDbEntity
  8
0
100
AcDbLine
 62
250
  6
CONTINUOUS
 10
152.5118079475
 20
84.0216235751
 11
152.8653613381
 21
84.6339960102
  0
LINE
  5
23C
100
AcDbEntity
  8
0
100
AcDbLine
 62
250
  6
CONTINUOUS
 10
153.9095050733
 20
89.8911194853
 11
152.5168847458
 21
89.0870352009
  0
LINE
  5
23D
100
AcDbEntity
  8
0
100
AcDbLine
 62
250
  6
CONTINUOUS
 10
154.1216047989
 20
89.5237519846
 11
152.5168847458
 21
88.5972035565
  0
LINE
  5
23E
100
AcDbEntity
  8
0
100
AcDbLine
 62
7
  6
CONTINUOUS
 10
153.344532958
 20
90.1503264138
 11
152.5168847458
 21
89.705243989
  0
LINE
  5
23F
100
AcDbEntity
  8
0
100
AcDbLine
 62
250
  6
CONTINUOUS
 10
153.4903229677
 20
90.1331499795
 11
152.5168847458
 21
89.6096664054
  0
LWPOLYLINE
  5
240
100
AcDbEntity
  8
0
100
AcDbPolyline
 62
7
  6
CONTINUOUS
 90
11
 70
0
 10
210.5868596999
 20
34.771158215
 10
210.541727727
 20
34.7598726452
 10
210.4945726505
 20
34.7532402823
 10
210.4455977735
 20
34.7512908357
 10
210.3950155459
 20
34.7540331507
 10
210.343042584
 20
34.7614554648
 10
210.289901536
 20
34.7735259636
 10
210.235823294
 20
34.7901917837
 10
210.1810407082
 20
34.8113802365
 10
210.1257873815
 20
34.8370000535
 10
210.0702999361
 20
34.8669407357
  0
LINE
  5
241
100
AcDbEntity
  8
0
100
AcDbLine
 62
7
  6
CONTINUOUS
 10
131.5770852047
 20
58.8317471063
 11
232.06482135
 21
0.8113876631
  0
LINE
  5
242
100
AcDbEntity
  8
0
100
AcDbLine
 62
7
  6
CONTINUOUS
 10
131.1736322907
 20
59.093608674
 11
231.0549222024
 21
1.4234036855
  0
LINE
  5
243
100
AcDbEntity
  8
0
100
AcDbLine
 62
7
  6
CONTINUOUS
 10
131.5770852047
 20
58.8317471063
 11
131.5563215906
 21
58.8441679319
  0
LINE
  5
244
100
AcDbEntity
  8
0
100
AcDbLine
 62
7
  6
CONTINUOUS
 10
131.1736322907
 20
59.093608674
 11
131.5563215906
 21
58.8441679319
  0
LWPOLYLINE
  5
245
100
AcDbEntity
  8
0
100
AcDbPolyline
 62
7
  6
CONTINUOUS
 90
25
 70
0
 10
152.1582545569
 20
69.4477040987
 10
152.1600707368
 20
69.3825860945
 10
152.1655119478
 20
69.3156453985
 10
152.1745555606
 20
69.2471682952
 10
152.1871637973
 20
69.1774463467
 10
152.2032831716
 20
69.1067792786
 10
152.2228440229
 20
69.035473861
 10
152.2457625862
 20
68.9638355159
 10
152.2719407254
 20
68.8921710566
 10
152.3012645309
 20
68.8207915954
 10
152.3336066009
 20
68.7500054521
 10
152.3688290196
 20
68.6801128481
 10
152.4067827359
 20
68.6114089918
 10
152.4473052691
 20
68.544188012
 10
152.4902231213
 20
68.478737722
 10
152.5353551282
 20
68.4153348571
 10
152.5825101994
 20
68.354249024
 10
152.6314850603
 20
68.2957446569
 10
152.6820673381
 20
68.2400758488
 10
152.734040529
 20
68.1874808893
 10
152.7871818855
 20
68.138185204
 10
152.8412602664
 20
68.0924027768
 10
152.8960427276
 20
68.0503298358
 10
152.9512957441
 20
68.0121447601
 10
153.0067826944
 20
67.9780102546
  0
LWPOLYLINE
  5
246
100
AcDbEntity
  8
0
100
AcDbPolyline
 62
7
  6
CONTINUOUS
 90
25
 70
0
 10
152.1582545569
 20
86.185344773
 10
152.1600707018
 20
86.1202274065
 10
152.1655118344
 20
86.0532871322
 10
152.1745553661
 20
85.9848102108
 10
152.1871635848
 20
85.9150880595
 10
152.2032830296
 20
85.8444205179
 10
152.2228439612
 20
85.7731147431
 10
152.2457625331
 20
85.7014763451
 10
152.2719406365
 20
85.6298119599
 10
152.3012644098
 20
85.5584325488
 10
152.333606486
 20
85.4876463655
 10
152.368828926
 20
85.4177536996
 10
152.4067826528
 20
85.34904981
 10
152.4473051623
 20
85.281828856
 10
152.4902229716
 20
85.2163786153
 10
152.535354947
 20
85.1529757758
 10
152.5825100455
 20
85.0918898898
 10
152.6314849526
 20
85.0333854546
 10
152.682067189
 20
84.9777166805
 10
152.7340401107
 20
84.925121969
 10
152.7871810923
 20
84.8758265816
 10
152.8412592886
 20
84.8300442402
 10
152.8960418668
 20
84.7879711379
 10
152.9512952094
 20
84.7497857836
 10
153.0067826944
 20
84.7156509289
  0
LWPOLYLINE
  5
247
100
AcDbEntity
  8
0
100
AcDbPolyline
 62
7
  6
CONTINUOUS
 90
28
 70
0
 10
152.5168847458
 20
70.2204945464
 10
152.5192111586
 20
70.1288052055
 10
152.5259874904
 20
70.0354491158
 10
152.5372137412
 20
69.9404262773
 10
152.5529576454
 20
69.8434040793
 10
152.5731514685
 20
69.7447151325
 10
152.5975920075
 20
69.6453572686
 10
152.6263225416
 20
69.5453237681
 10
152.6592997915
 20
69.4446213506
 10
152.6961907166
 20
69.3442680065
 10
152.7370349322
 20
69.2442676779
 10
152.781792823
 20
69.1446164227
 10
152.8300125021
 20
69.0463204061
 10
152.8817289831
 20
68.9493934599
 10
152.9369072524
 20
68.8538217523
 10
152.9949903819
 20
68.7605699526
 10
153.0560079401
 20
68.6696613817
 10
153.1199303584
 20
68.5810727188
 10
153.1861120037
 20
68.4956986715
 10
153.2545759545
 20
68.4135717511
 10
153.3252991324
 20
68.3346594462
 10
153.3975666682
 20
68.2597589306
 10
153.4713944511
 20
68.1889109359
 10
153.5467665919
 20
68.1220747305
 10
153.622920554
 20
68.0599252929
 10
153.6996021586
 20
68.002687616
 10
153.7770655846
 20
67.9501367069
 10
153.8553108318
 20
67.9022725657
  0
LWPOLYLINE
  5
248
100
AcDbEntity
  8
0
100
AcDbPolyline
 62
7
  6
CONTINUOUS
 90
28
 70
0
 10
152.5168847458
 20
86.9581352206
 10
152.5192112388
 20
86.8664450143
 10
152.5259876709
 20
86.7730882093
 10
152.5372140423
 20
86.6780648056
 10
152.552958107
 20
86.5810421918
 10
152.5731521109
 20
86.4823529793
 10
152.5975927917
 20
86.3829950022
 10
152.6263233706
 20
86.2829616519
 10
152.6593006265
 20
86.182259537
 10
152.6961916334
 20
86.0819063178
 10
152.7370360884
 20
85.9819057219
 10
152.7817942945
 20
85.8822540217
 10
152.8300142351
 20
85.7839576949
 10
152.8817308928
 20
85.6870306847
 10
152.9369092849
 20
85.591459048
 10
152.9949924473
 20
85.4982074333
 10
153.0560098676
 20
85.4072992439
 10
153.1199320582
 20
85.3187110766
 10
153.1861135917
 20
85.2333373702
 10
153.2545776916
 20
85.1512104583
 10
153.3253011346
 20
85.0722980072
 10
153.3975688229
 20
84.9973974553
 10
153.4713965786
 20
84.9265496401
 10
153.5467685797
 20
84.859713724
 10
153.622922262
 20
84.7975646333
 10
153.6996034374
 20
84.7403273435
 10
153.777066294
 20
84.687776879
 10
153.8553108318
 20
84.6399132399
  0
LINE
  5
249
100
AcDbEntity
  8
0
100
AcDbLine
 62
7
  6
CONTINUOUS
 10
151.3097264195
 20
69.3660491801
 11
151.3097264195
 21
80.3067508891
  0
LINE
  5
24A
100
AcDbEntity
  8
0
100
AcDbLine
 62
7
  6
CONTINUOUS
 10
151.3097264195
 20
86.1036898543
 11
151.3097264195
 21
97.0443915634
  0
LINE
  5
24B
100
AcDbEntity
  8
0
100
AcDbLine
 62
7
  6
CONTINUOUS
 10
152.0168332007
 20
69.3660491801
 11
152.0168332007
 21
80.3067508891
  0
LINE
  5
24C
100
AcDbEntity
  8
0
100
AcDbLine
 62
7
  6
CONTINUOUS
 10
152.0168332007
 20
86.1036898543
 11
152.0168332007
 21
97.0443915634
  0
LINE
  5
24D
100
AcDbEntity
  8
0
100
AcDbLine
 62
7
  6
CONTINUOUS
 10
152.1582545569
 20
97.126046482
 11
152.1582545569
 21
86.185344773
  0
LINE
  5
24E
100
AcDbEntity
  8
0
100
AcDbLine
 62
7
  6
CONTINUOUS
 10
152.1582545569
 20
80.3884058078
 11
152.1582545569
 21
69.4477040987
  0
LINE
  5
24F
100
AcDbEntity
  8
0
100
AcDbLine
 62
7
  6
CONTINUOUS
 10
152.5168847458
 20
97.6484221685
 11
152.5168847458
 21
86.9581352206
  0
LINE
  5
250
100
AcDbEntity
  8
0
100
AcDbLine
 62
7
  6
CONTINUOUS
 10
152.5168847458
 20
80.9107814958
 11
152.5168847458
 21
70.2204945464
  0
LINE
  5
251
100
AcDbEntity
  8
0
100
AcDbLine
 62
250
  6
CONTINUOUS
 10
154.1216047989
 20
89.5237519846
 11
154.1216047989
 21
85.243150988
  0
LINE
  5
252
100
AcDbEntity
  8
0
100
AcDbLine
 62
7
  6
CONTINUOUS
 10
154.2058028588
 20
89.6440780957
 11
154.2058028588
 21
85.3634770991
  0
LWPOLYLINE
  5
253
100
AcDbEntity
  8
0
100
AcDbPolyline
 62
250
  6
CONTINUOUS
 90
10
 70
0
 10
154.1216047989
 20
85.243150988
 10
154.1211008047
 20
85.2224575062
 10
154.1189588978
 20
85.2028368515
 10
154.1151953726
 20
85.1844382913
 10
154.1098388613
 20
85.1674017981
 10
154.1029301135
 20
85.1518569772
 10
154.0945216847
 20
85.1379220836
 10
154.0846775366
 20
85.1257031264
 10
154.0734725615
 20
85.1152930728
 10
154.0635925325
 20
85.1083253425
  0
LWPOLYLINE
  5
254
100
AcDbEntity
  8
0
100
AcDbPolyline
 62
7
  6
CONTINUOUS
 90
28
 70
0
 10
151.3097264195
 20
97.0443915634
 10
151.3118158707
 20
97.1243279927
 10
151.3179019303
 20
97.2011461324
 10
151.3279845984
 20
97.2748459826
 10
151.3421247148
 20
97.3456560078
 10
151.3602614396
 20
97.4133477435
 10
151.3822122535
 20
97.4772357958
 10
151.4080160084
 20
97.5372813063
 10
151.4376338524
 20
97.5935231334
 10
151.47076671
 20
97.6453924597
 10
151.5074501809
 20
97.6928446941
 10
151.5476486653
 20
97.7359244275
 10
151.590956288
 20
97.7741966156
 10
151.6374044904
 20
97.8076125051
 10
151.686961831
 20
97.8362208493
 10
151.7391281105
 20
97.8597328632
 10
151.793929881
 20
97.8780969351
 10
151.8513405902
 20
97.8913646767
 10
151.9107803828
 20
97.899402139
 10
151.9722700029
 20
97.9021561833
 10
152.0357887063
 20
97.8996799482
 10
152.1006944049
 20
97.8919989002
 10
152.167001342
 20
97.8790599817
 10
152.2346952742
 20
97.8609162502
 10
152.3030913827
 20
97.837752345
 10
152.3719613947
 20
97.8096298122
 10
152.4415335829
 20
97.7764871057
 10
152.5118079475
 20
97.7383242252
  0
LWPOLYLINE
  5
255
100
AcDbEntity
  8
0
100
AcDbPolyline
 62
7
  6
CONTINUOUS
 90
28
 70
0
 10
151.3097264195
 20
80.3067508891
 10
151.3118159091
 20
80.3866876765
 10
151.3179020146
 20
80.4635060906
 10
151.3279847363
 20
80.5372061314
 10
151.342124919
 20
80.6080162462
 10
151.3602617178
 20
80.6757079876
 10
151.3822125974
 20
80.7395960142
 10
151.4080163861
 20
80.7996414606
 10
151.4376342557
 20
80.855883192
 10
151.4707671864
 20
80.9077524632
 10
151.5074508258
 20
80.9552047389
 10
151.5476495262
 20
80.9982845543
 10
151.5909573247
 20
81.0365567694
 10
151.6374056427
 20
81.0699725832
 10
151.6869630588
 20
81.0985807967
 10
151.7391293461
 20
81.1220926726
 10
151.7939310052
 20
81.1404566057
 10
151.8513415355
 20
81.1537242013
 10
151.910781208
 20
81.1617615384
 10
151.9722708393
 20
81.1645154918
 10
152.0357896128
 20
81.1620391867
 10
152.1006953499
 20
81.1543580774
 10
152.1670022765
 20
81.141419089
 10
152.2346961667
 20
81.1232752965
 10
152.3030921644
 20
81.1001113785
 10
152.3719619845
 20
81.0719888947
 10
152.4415339122
 20
81.0388462856
 10
152.5118079475
 20
81.000683551
  0
LWPOLYLINE
  5
256
100
AcDbEntity
  8
0
100
AcDbPolyline
 62
7
  6
CONTINUOUS
 90
11
 70
0
 10
152.0168332007
 20
97.0443915634
 10
152.018649378
 20
97.1074122443
 10
152.0240905842
 20
97.1680695507
 10
152.0331341949
 20
97.2261033267
 10
152.0457424405
 20
97.2812656471
 10
152.0618618372
 20
97.3333185294
 10
152.08142271
 20
97.3820356004
 10
152.1043412771
 20
97.4272081507
 10
152.130519407
 20
97.4686427216
 10
152.1598432037
 20
97.5061597669
 10
152.1921852762
 20
97.5395980942
  0
LWPOLYLINE
  5
257
100
AcDbEntity
  8
0
100
AcDbPolyline
 62
7
  6
CONTINUOUS
 90
11
 70
0
 10
152.0168332007
 20
80.3067508891
 10
152.0186493472
 20
80.3697710452
 10
152.0240904833
 20
80.4304280498
 10
152.0331340181
 20
80.4884617283
 10
152.0457422358
 20
80.5436242087
 10
152.0618616741
 20
80.5956773947
 10
152.0814225982
 20
80.6443946791
 10
152.1043411666
 20
80.6895672815
 10
152.1305192688
 20
80.7310018508
 10
152.1598430391
 20
80.7685189033
 10
152.1921851071
 20
80.8019572632
  0
LWPOLYLINE
  5
258
100
AcDbEntity
  8
0
100
AcDbPolyline
 62
250
  6
CONTINUOUS
 90
10
 70
0
 10
154.2058028588
 20
89.6440780957
 10
154.204868974
 20
89.6304212187
 10
154.2017136863
 20
89.6155760713
 10
154.1963521338
 20
89.6009432761
 10
154.188816073
 20
89.586618554
 10
154.1791657758
 20
89.5727229191
 10
154.1675063213
 20
89.5593942333
 10
154.1539525244
 20
89.546737789
 10
154.138609853
 20
89.5348298817
 10
154.1216047989
 20
89.5237519846
  0
LWPOLYLINE
  5
259
100
AcDbEntity
  8
0
100
AcDbPolyline
 62
250
  6
CONTINUOUS
 90
10
 70
0
 10
154.2058028582
 20
85.3634658195
 10
154.204868974
 20
85.3498202221
 10
154.2017136863
 20
85.3349750747
 10
154.1963521338
 20
85.3203422795
 10
154.188816073
 20
85.3060175574
 10
154.1791657758
 20
85.2921219225
 10
154.1675063213
 20
85.2787932366
 10
154.1539525244
 20
85.2661367924
 10
154.138609853
 20
85.2542288851
 10
154.1216047989
 20
85.243150988
  0
LINE
  5
25A
100
AcDbEntity
  8
0
100
AcDbLine
 62
250
  6
CONTINUOUS
 10
152.5168847458
 20
70.2204945464
 11
152.1582545569
 21
69.4477040987
  0
LWPOLYLINE
  5
25B
100
AcDbEntity
  8
0
100
AcDbPolyline
 62
7
  6
CONTINUOUS
 90
4
 70
0
 10
152.333606486
 20
80.8836122029
 10
152.3012644098
 20
80.8501738386
 10
152.2719406365
 20
80.8126567859
 10
152.2457625331
 20
80.7712222183
  0
LWPOLYLINE
  5
25C
100
AcDbEntity
  8
0
100
AcDbPolyline
 62
7
  6
CONTINUOUS
 90
3
 70
0
 10
152.1921851071
 20
80.8019572632
 10
152.2274075357
 20
80.8311759342
 10
152.265332346
 20
80.8560351225
  0
LINE
  5
25D
100
AcDbEntity
  8
0
100
AcDbLine
 62
250
  6
CONTINUOUS
 10
154.1216047989
 20
85.243150988
 11
153.5281992042
 21
84.876180067
  0
LINE
  5
25E
100
AcDbEntity
  8
0
100
AcDbLine
 62
7
  6
CONTINUOUS
 10
154.0635925325
 20
85.1083253425
 11
153.5962626739
 21
84.8193215479
  0
LINE
  5
25F
100
AcDbEntity
  8
0
100
AcDbLine
 62
250
  6
CONTINUOUS
 10
152.1582545569
 20
86.185344773
 11
152.0168332007
 21
86.1036898543
  0
LINE
  5
260
100
AcDbEntity
  8
0
100
AcDbLine
 62
250
  6
CONTINUOUS
 10
153.0067826944
 20
84.7156509289
 11
152.8653613381
 21
84.6339960102
  0
LWPOLYLINE
  5
261
100
AcDbEntity
  8
0
100
AcDbPolyline
 62
250
  6
CONTINUOUS
 90
10
 70
0
 10
153.344532958
 20
90.1503264138
 10
153.3555227903
 20
90.1554057289
 10
153.3701414763
 20
90.1599030123
 10
153.3856462868
 20
90.1623173588
 10
153.4019192595
 20
90.1626304054
 10
153.418836599
 20
90.1608397759
 10
153.4362696161
 20
90.1569590933
 10
153.4540856913
 20
90.1510178786
 10
153.4721492822
 20
90.1430613306
 10
153.4903229677
 20
90.1331499795
  0
LINE
  5
262
100
AcDbEntity
  8
0
100
AcDbLine
 62
250
  6
CONTINUOUS
 10
210.77818412
 20
34.8980344726
 11
210.2117212924
 21
34.9485956544
  0
LWPOLYLINE
  5
263
100
AcDbEntity
  8
0
100
AcDbPolyline
 62
7
  6
CONTINUOUS
 90
6
 70
0
 10
210.5145503079
 20
34.8382660015
 10
210.5364367978
 20
34.8356880797
 10
210.5870190341
 20
34.8329457551
 10
210.6359939413
 20
34.8348951951
 10
210.6831490397
 20
34.8415275554
 10
210.7282810151
 20
34.852813121
  0
LINE
  5
264
100
AcDbEntity
  8
0
100
AcDbLine
 62
7
  6
CONTINUOUS
 10
231.0549222024
 20
1.4234036855
 11
232.0644589198
 21
0.8120291008
  0
LWPOLYLINE
  5
265
100
AcDbEntity
  8
0
100
AcDbPolyline
 62
7
  6
CONTINUOUS
 90
7
 70
0
 10
168.1240056522
 20
88.2571990061
 10
168.1131857483
 20
88.2287950367
 10
168.097066374
 20
88.1767422181
 10
168.0844581373
 20
88.1215799452
 10
168.0754145245
 20
88.0635461794
 10
168.0699733135
 20
88.0028888573
 10
168.0681571336
 20
87.9398681321
  0
LINE
  5
266
100
AcDbEntity
  8
0
100
AcDbLine
 62
250
  6
CONTINUOUS
 10
168.3075088859
 20
88.4556327094
 11
168.0681571336
 21
87.9398681321
  0
LWPOLYLINE
  5
267
100
AcDbEntity
  8
0
100
AcDbPolyline
 62
7
  6
CONTINUOUS
 90
7
 70
0
 10
163.1245308342
 20
79.3153072427
 10
163.101612267
 20
79.2701346924
 10
163.0754341372
 20
79.2287001215
 10
163.0461103405
 20
79.1911830762
 10
163.013768268
 20
79.1577447489
 10
162.978545842
 20
79.1285261116
 10
162.9406211982
 20
79.1036670464
  0
LWPOLYLINE
  5
268
100
AcDbEntity
  8
0
100
AcDbPolyline
 62
7
  6
CONTINUOUS
 90
3
 70
0
 10
168.1556651629
 20
88.3226846363
 10
168.1327465996
 20
88.2775120736
 10
168.1240056522
 20
88.2571990061
  0
LINE
  5
269
100
AcDbEntity
  8
0
100
AcDbLine
 62
250
  6
CONTINUOUS
 10
152.5118079475
 20
67.2839829009
 11
152.8653613381
 21
67.8963553359
  0
LINE
  5
26A
100
AcDbEntity
  8
0
100
AcDbLine
 62
250
  6
CONTINUOUS
 10
161.9870388154
 20
78.5507440245
 11
162.340592206
 21
79.1631164596
  0
LWPOLYLINE
  5
26B
100
AcDbEntity
  8
0
100
AcDbPolyline
 62
7
  6
CONTINUOUS
 90
4
 70
0
 10
168.2435091776
 20
88.4350746338
 10
168.2111671076
 20
88.4016363023
 10
168.1818433021
 20
88.3641192366
 10
168.1556651629
 20
88.3226846363
  0
LWPOLYLINE
  5
26C
100
AcDbEntity
  8
0
100
AcDbPolyline
 62
7
  6
CONTINUOUS
 90
3
 70
0
 10
168.1020878529
 20
88.3534197443
 10
168.1373102789
 20
88.3826383816
 10
168.1752349227
 20
88.4074974469
  0
LINE
  5
26D
100
AcDbEntity
  8
0
100
AcDbLine
 62
250
  6
CONTINUOUS
 10
152.0168332007
 20
80.3067508891
 11
152.1582545569
 21
80.3884058078
  0
LINE
  5
26E
100
AcDbEntity
  8
0
100
AcDbLine
 62
250
  6
CONTINUOUS
 10
168.0681571336
 20
87.9398681321
 11
167.9267357774
 21
87.8582132135
  0
LWPOLYLINE
  5
26F
100
AcDbEntity
  8
0
100
AcDbPolyline
 62
7
  6
CONTINUOUS
 90
13
 70
0
 10
152.265332346
 20
80.8560351225
 10
152.3058837618
 20
80.876478393
 10
152.3488015743
 20
80.89236823
 10
152.3939335473
 20
80.9036537998
 10
152.4410886237
 20
80.9102861627
 10
152.4900635007
 20
80.9122356093
 10
152.5406457283
 20
80.9094932943
 10
152.5926186903
 20
80.9020709801
 10
152.6457597383
 20
80.8900004814
 10
152.6998379803
 20
80.8733346613
 10
152.754620566
 20
80.8521462085
 10
152.8098738927
 20
80.8265263915
 10
152.8653613381
 20
80.7965857093
  0
LWPOLYLINE
  5
270
100
AcDbEntity
  8
0
100
AcDbPolyline
 62
7
  6
CONTINUOUS
 90
13
 70
0
 10
168.1752349227
 20
88.4074974469
 10
168.2157865284
 20
88.4279408
 10
168.2587043713
 20
88.4438306224
 10
168.3038363702
 20
88.455116172
 10
168.3509914398
 20
88.4617485084
 10
168.3999663015
 20
88.4636979319
 10
168.4505485748
 20
88.460955592
 10
168.5025217473
 20
88.4535332155
 10
168.5556630791
 20
88.441462601
 10
168.6097414457
 20
88.4247966766
 10
168.6645239091
 20
88.4036082069
 10
168.7197769394
 20
88.3779884801
 10
168.7752639148
 20
88.3480480336
  0
LWPOLYLINE
  5
271
100
AcDbEntity
  8
0
100
AcDbPolyline
 62
7
  6
CONTINUOUS
 90
11
 70
0
 10
194.6769571232
 20
43.9573365649
 10
194.6318251503
 20
43.9460509951
 10
194.5846700738
 20
43.9394186322
 10
194.5356951968
 20
43.9374691856
 10
194.4851129692
 20
43.9402115005
 10
194.4331400073
 20
43.9476338147
 10
194.3799989593
 20
43.9597043134
 10
194.3259207173
 20
43.9763701336
 10
194.2711381315
 20
43.9975585864
 10
194.2158848048
 20
44.0231784034
 10
194.1603973594
 20
44.0531190856
  0
LWPOLYLINE
  5
272
100
AcDbEntity
  8
0
100
AcDbPolyline
 62
7
  6
CONTINUOUS
 90
11
 70
0
 10
210.5868594796
 20
51.5087988213
 10
210.5417274807
 20
51.4975132716
 10
210.4945724112
 20
51.4908809352
 10
210.4455975495
 20
51.4889315117
 10
210.3950152761
 20
51.4916738516
 10
210.3430421037
 20
51.4990962282
 10
210.2899007718
 20
51.5111668426
 10
210.2358224053
 20
51.527832767
 10
210.1810399418
 20
51.5490212368
 10
210.1257869116
 20
51.5746409636
 10
210.0702999361
 20
51.60458141
  0
LINE
  5
273
100
AcDbEntity
  8
0
100
AcDbLine
 62
250
  6
CONTINUOUS
 10
199.0394341496
 20
41.8075141305
 11
199.7465409308
 21
41.8075141305
  0
LINE
  5
274
100
AcDbEntity
  8
0
100
AcDbLine
 62
250
  6
CONTINUOUS
 10
201.5850185619
 20
40.3437375161
 11
200.7364904245
 21
40.419475205
  0
LINE
  5
275
100
AcDbEntity
  8
0
100
AcDbLine
 62
250
  6
CONTINUOUS
 10
194.8682815433
 20
44.0842128225
 11
194.3018187157
 21
44.1347740043
  0
LWPOLYLINE
  5
276
100
AcDbEntity
  8
0
100
AcDbPolyline
 62
7
  6
CONTINUOUS
 90
6
 70
0
 10
194.6046477312
 20
44.0244443513
 10
194.6265342211
 20
44.0218664295
 10
194.6771164574
 20
44.019124105
 10
194.7260913646
 20
44.021073545
 10
194.773246463
 20
44.0277059053
 10
194.8183784384
 20
44.0389914709
  0
LINE
  5
277
100
AcDbEntity
  8
0
100
AcDbLine
 62
7
  6
CONTINUOUS
 10
163.1891203435
 20
90.1853783954
 11
163.1891203435
 21
79.2446766864
  0
LINE
  5
278
100
AcDbEntity
  8
0
100
AcDbLine
 62
7
  6
CONTINUOUS
 10
163.1891203435
 20
73.4477377212
 11
163.1891203435
 21
62.5070360122
  0
LINE
  5
279
100
AcDbEntity
  8
0
100
AcDbLine
 62
7
  6
CONTINUOUS
 10
167.2196289962
 20
60.1798708302
 11
167.2196289962
 21
71.1205725392
  0
LINE
  5
27A
100
AcDbEntity
  8
0
100
AcDbLine
 62
7
  6
CONTINUOUS
 10
167.2196289962
 20
76.9175115045
 11
167.2196289962
 21
87.8582132135
  0
LWPOLYLINE
  5
27B
100
AcDbEntity
  8
0
100
AcDbPolyline
 62
7
  6
CONTINUOUS
 90
28
 70
0
 10
163.1891203435
 20
79.2446766864
 10
163.1870308923
 20
79.1647402571
 10
163.1809448326
 20
79.0879221173
 10
163.1708621645
 20
79.0142222671
 10
163.1567220482
 20
78.943412242
 10
163.1385853234
 20
78.8757205063
 10
163.1166345095
 20
78.8118324539
 10
163.0908307546
 20
78.7517869435
 10
163.0612129105
 20
78.6955451163
 10
163.028080053
 20
78.6436757901
 10
162.9913965821
 20
78.5962235557
 10
162.9511980977
 20
78.5531438222
 10
162.907890475
 20
78.5148716341
 10
162.8614422726
 20
78.4814557446
 10
162.8118849319
 20
78.4528474005
 10
162.7597186524
 20
78.4293353866
 10
162.704916882
 20
78.4109713147
 10
162.6475061727
 20
78.3977035731
 10
162.5880663802
 20
78.3896661108
 10
162.52657676
 20
78.3869120665
 10
162.4630580566
 20
78.3893883016
 10
162.3981523581
 20
78.3970693496
 10
162.331845421
 20
78.4100082681
 10
162.2641514888
 20
78.4281519995
 10
162.1957553803
 20
78.4513159048
 10
162.1268853683
 20
78.4794384375
 10
162.05731318
 20
78.5125811441
 10
161.9870388154
 20
78.5507440245
  0
LWPOLYLINE
  5
27C
100
AcDbEntity
  8
0
100
AcDbPolyline
 62
7
  6
CONTINUOUS
 90
28
 70
0
 10
163.1891203435
 20
62.5070360122
 10
163.1870308539
 20
62.4270992248
 10
163.1809447483
 20
62.3502808107
 10
163.1708620267
 20
62.2765807699
 10
163.156721844
 20
62.2057706551
 10
163.1385850452
 20
62.1380789136
 10
163.1166341656
 20
62.074190887
 10
163.0908303768
 20
62.0141454407
 10
163.0612125073
 20
61.9579037092
 10
163.0280795766
 20
61.9060344381
 10
162.9913959372
 20
61.8585821624
 10
162.9511972368
 20
61.8155023469
 10
162.9078894382
 20
61.7772301318
 10
162.8614411202
 20
61.7438143181
 10
162.8118837041
 20
61.7152061046
 10
162.7597174169
 20
61.6916942286
 10
162.7049157578
 20
61.6733302956
 10
162.6475052275
 20
61.6600627
 10
162.588065555
 20
61.6520253629
 10
162.5265759237
 20
61.6492714095
 10
162.4630571502
 20
61.6517477146
 10
162.398151413
 20
61.6594288239
 10
162.3318444865
 20
61.6723678122
 10
162.2641505963
 20
61.6905116048
 10
162.1957545985
 20
61.7136755228
 10
162.1268847785
 20
61.7417980065
 10
162.0573128508
 20
61.7749406157
 10
161.9870388154
 20
61.8131033503
  0
LWPOLYLINE
  5
27D
100
AcDbEntity
  8
0
100
AcDbPolyline
 62
7
  6
CONTINUOUS
 90
28
 70
0
 10
167.2196289962
 20
87.8582132135
 10
167.2217184474
 20
87.9381496428
 10
167.227804507
 20
88.0149677826
 10
167.2378871751
 20
88.0886676328
 10
167.2520272915
 20
88.159477658
 10
167.2701640163
 20
88.2271693936
 10
167.2921148301
 20
88.291057446
 10
167.3179185851
 20
88.3511029564
 10
167.3475364291
 20
88.4073447836
 10
167.3806692867
 20
88.4592141098
 10
167.4173527576
 20
88.5066663442
 10
167.457551242
 20
88.5497460777
 10
167.5008588647
 20
88.5880182658
 10
167.5473070671
 20
88.6214341553
 10
167.5968644077
 20
88.6500424994
 10
167.6490306872
 20
88.6735545133
 10
167.7038324576
 20
88.6919185852
 10
167.7612431669
 20
88.7051863268
 10
167.8206829595
 20
88.7132237891
 10
167.8821725796
 20
88.7159778334
 10
167.945691283
 20
88.7135015983
 10
168.0105969816
 20
88.7058205503
 10
168.0769039187
 20
88.6928816318
 10
168.1445978509
 20
88.6747379004
 10
168.2129939594
 20
88.6515739951
 10
168.2818639714
 20
88.6234514624
 10
168.3514361596
 20
88.5903087558
 10
168.4217105242
 20
88.5521458754
  0
LWPOLYLINE
  5
27E
100
AcDbEntity
  8
0
100
AcDbPolyline
 62
7
  6
CONTINUOUS
 90
28
 70
0
 10
167.2196289962
 20
71.1205725392
 10
167.2217184857
 20
71.2005093266
 10
167.2278045913
 20
71.2773277407
 10
167.237887313
 20
71.3510277816
 10
167.2520274957
 20
71.4218378963
 10
167.2701642945
 20
71.4895296378
 10
167.2921151741
 20
71.5534176644
 10
167.3179189628
 20
71.6134631107
 10
167.3475368324
 20
71.6697048422
 10
167.3806697631
 20
71.7215741133
 10
167.4173534024
 20
71.769026389
 10
167.4575521029
 20
71.8121062045
 10
167.5008599014
 20
71.8503784196
 10
167.5473082194
 20
71.8837942333
 10
167.5968656355
 20
71.9124024468
 10
167.6490319228
 20
71.9359143228
 10
167.7038335819
 20
71.9542782558
 10
167.7612441122
 20
71.9675458514
 10
167.8206837847
 20
71.9755831885
 10
167.882173416
 20
71.9783371419
 10
167.9456921895
 20
71.9758608368
 10
168.0105979266
 20
71.9681797275
 10
168.0769048532
 20
71.9552407392
 10
168.1445987434
 20
71.9370969466
 10
168.2129947411
 20
71.9139330286
 10
168.2818645612
 20
71.8858105449
 10
168.3514364889
 20
71.8526679357
 10
168.4217105242
 20
71.8145052011
  0
LWPOLYLINE
  5
27F
100
AcDbEntity
  8
0
100
AcDbPolyline
 62
7
  6
CONTINUOUS
 90
7
 70
0
 10
163.1891203435
 20
79.6529512798
 10
163.1873041661
 20
79.5899305988
 10
163.1818629599
 20
79.5292732924
 10
163.1728193493
 20
79.4712395165
 10
163.1602111037
 20
79.416077196
 10
163.144091707
 20
79.3640243137
 10
163.1245308342
 20
79.3153072427
  0
LWPOLYLINE
  5
280
100
AcDbEntity
  8
0
100
AcDbPolyline
 62
7
  6
CONTINUOUS
 90
7
 70
0
 10
163.1891203435
 20
62.9153106055
 10
163.1873041969
 20
62.8522904494
 10
163.1818630608
 20
62.7916334448
 10
163.1728195261
 20
62.7335997663
 10
163.1602113084
 20
62.6784372859
 10
163.14409187
 20
62.6263840999
 10
163.124530946
 20
62.5776668155
  0
LWPOLYLINE
  5
281
100
AcDbEntity
  8
0
100
AcDbPolyline
 62
7
  6
CONTINUOUS
 90
11
 70
0
 10
167.9267357774
 20
87.8582132135
 10
167.9285519547
 20
87.9212338944
 10
167.9339931609
 20
87.9818912009
 10
167.9430367716
 20
88.0399249768
 10
167.9556450172
 20
88.0950872972
 10
167.9717644139
 20
88.1471401795
 10
167.9913252866
 20
88.1958572505
 10
168.0142438538
 20
88.2410298008
 10
168.0404219837
 20
88.2824643718
 10
168.0697457804
 20
88.319981417
 10
168.1020878529
 20
88.3534197443
  0
LINE
  5
282
100
AcDbEntity
  8
0
100
AcDbLine
 62
250
  6
CONTINUOUS
 10
168.4267873225
 20
77.7719568707
 11
168.0681571336
 21
76.9991664231
  0
LINE
  5
283
100
AcDbEntity
  8
0
100
AcDbLine
 62
250
  6
CONTINUOUS
 10
168.4217105242
 20
74.8354452253
 11
168.7752639148
 21
75.4478176603
  0
LINE
  5
284
100
AcDbEntity
  8
0
100
AcDbLine
 62
250
  6
CONTINUOUS
 10
162.4820135623
 20
79.2447713783
 11
162.340592206
 21
79.1631164596
  0
LINE
  5
285
100
AcDbEntity
  8
0
100
AcDbLine
 62
250
  6
CONTINUOUS
 10
152.0168332007
 20
69.3660491801
 11
152.1582545569
 21
69.4477040987
  0
LWPOLYLINE
  5
286
100
AcDbEntity
  8
0
100
AcDbPolyline
 62
7
  6
CONTINUOUS
 90
3
 70
0
 10
162.9406211982
 20
79.1036670464
 10
162.9000695925
 20
79.0832236932
 10
162.8571517495
 20
79.0673338709
  0
LINE
  5
287
100
AcDbEntity
  8
0
100
AcDbLine
 62
250
  6
CONTINUOUS
 10
183.1295315729
 20
50.9936924803
 11
183.8366383541
 21
50.9936924803
  0
LINE
  5
288
100
AcDbEntity
  8
0
100
AcDbLine
 62
250
  6
CONTINUOUS
 10
185.6751159852
 20
49.5299158659
 11
184.8265878478
 21
49.6056535549
  0
LWPOLYLINE
  5
289
100
AcDbEntity
  8
0
100
AcDbPolyline
 62
7
  6
CONTINUOUS
 90
28
 70
0
 10
152.5118079475
 20
67.2839829009
 10
152.4415335829
 20
67.3269710952
 10
152.3719613947
 20
67.3741686078
 10
152.3030913827
 20
67.4255754385
 10
152.2346952742
 20
67.481393645
 10
152.167001342
 20
67.5414211697
 10
152.1006944049
 20
67.6050518401
 10
152.0357887063
 20
67.6723222658
 10
151.9722700029
 20
67.7431958373
 10
151.9107803828
 20
67.8169565536
 10
151.8513405902
 20
67.8936335984
 10
151.793929881
 20
67.9731977881
 10
151.7391281105
 20
68.0548455708
 10
151.686961831
 20
68.1385978967
 10
151.6374044904
 20
68.2244338156
 10
151.590956288
 20
68.311486925
 10
151.5476486653
 20
68.3997696702
 10
151.5074501809
 20
68.4892696059
 10
151.47076671
 20
68.5790829929
 10
151.4376338524
 20
68.6692133126
 10
151.4080160084
 20
68.7596570836
 10
151.3822122535
 20
68.8495001235
 10
151.3602614396
 20
68.9387364255
 10
151.3421247148
 20
69.0273719963
 10
151.3279845984
 20
69.1145106735
 10
151.3179019303
 20
69.199853736
 10
151.3118158707
 20
69.2836999049
 10
151.3097264195
 20
69.3660491801
  0
LWPOLYLINE
  5
28A
100
AcDbEntity
  8
0
100
AcDbPolyline
 62
7
  6
CONTINUOUS
 90
25
 70
0
 10
168.0681571336
 20
60.2615257489
 10
168.0699733135
 20
60.1964077447
 10
168.0754145245
 20
60.1294670487
 10
168.0844581373
 20
60.0609899453
 10
168.097066374
 20
59.9912679968
 10
168.1131857483
 20
59.9206009288
 10
168.1327465996
 20
59.8492955111
 10
168.1556651629
 20
59.777657166
 10
168.1818433021
 20
59.7059927067
 10
168.2111671076
 20
59.6346132455
 10
168.2435091776
 20
59.5638271022
 10
168.2787315963
 20
59.4939344982
 10
168.3166853126
 20
59.4252306419
 10
168.3572078458
 20
59.3580096622
 10
168.400125698
 20
59.2925593721
 10
168.4452577049
 20
59.2291565072
 10
168.4924127761
 20
59.1680706742
 10
168.541387637
 20
59.109566307
 10
168.5919699148
 20
59.0538974989
 10
168.6439431057
 20
59.0013025394
 10
168.6970844622
 20
58.9520068541
 10
168.7511628431
 20
58.9062244269
 10
168.8059453043
 20
58.8641514859
 10
168.8611983208
 20
58.8259664103
 10
168.9166852711
 20
58.7918319047
  0
LWPOLYLINE
  5
28B
100
AcDbEntity
  8
0
100
AcDbPolyline
 62
7
  6
CONTINUOUS
 90
25
 70
0
 10
168.0681571336
 20
76.9991664231
 10
168.0699732785
 20
76.9340490566
 10
168.0754144111
 20
76.8671087823
 10
168.0844579428
 20
76.7986318609
 10
168.0970661615
 20
76.7289097096
 10
168.1131856063
 20
76.658242168
 10
168.1327465379
 20
76.5869363933
 10
168.1556651098
 20
76.5152979952
 10
168.1818432132
 20
76.44363361
 10
168.2111669865
 20
76.3722541989
 10
168.2435090627
 20
76.3014680156
 10
168.2787315027
 20
76.2315753498
 10
168.3166852295
 20
76.1628714601
 10
168.357207739
 20
76.0956505061
 10
168.4001255483
 20
76.0302002654
 10
168.4452575237
 20
75.9667974259
 10
168.4924126222
 20
75.9057115399
 10
168.5413875293
 20
75.8472071047
 10
168.5919697657
 20
75.7915383306
 10
168.6439426873
 20
75.7389436191
 10
168.697083669
 20
75.6896482318
 10
168.7511618653
 20
75.6438658903
 10
168.8059444435
 20
75.601792788
 10
168.8611977861
 20
75.5636074338
 10
168.9166852711
 20
75.529472579
  0
LWPOLYLINE
  5
28C
100
AcDbEntity
  8
0
100
AcDbPolyline
 62
7
  6
CONTINUOUS
 90
28
 70
0
 10
168.4267873225
 20
61.0343161965
 10
168.4291137353
 20
60.9426268556
 10
168.4358900671
 20
60.849270766
 10
168.4471163179
 20
60.7542479274
 10
168.4628602221
 20
60.6572257294
 10
168.4830540452
 20
60.5585367826
 10
168.5074945842
 20
60.4591789188
 10
168.5362251183
 20
60.3591454183
 10
168.5692023682
 20
60.2584430007
 10
168.6060932933
 20
60.1580896567
 10
168.6469375089
 20
60.058089328
 10
168.6916953997
 20
59.9584380729
 10
168.7399150788
 20
59.8601420563
 10
168.7916315598
 20
59.76321511
 10
168.8468098291
 20
59.6676434024
 10
168.9048929586
 20
59.5743916028
 10
168.9659105167
 20
59.4834830318
 10
169.0298329351
 20
59.3948943689
 10
169.0960145804
 20
59.3095203216
 10
169.1644785312
 20
59.2273934012
 10
169.2352017091
 20
59.1484810963
 10
169.3074692449
 20
59.0735805807
 10
169.3812970278
 20
59.0027325861
 10
169.4566691686
 20
58.9358963806
 10
169.5328231307
 20
58.873746943
 10
169.6095047353
 20
58.8165092661
 10
169.6869681613
 20
58.763958357
 10
169.7652134085
 20
58.7160942158
  0
LWPOLYLINE
  5
28D
100
AcDbEntity
  8
0
100
AcDbPolyline
 62
7
  6
CONTINUOUS
 90
28
 70
0
 10
168.4267873225
 20
77.7719568707
 10
168.4291138155
 20
77.6802666645
 10
168.4358902476
 20
77.5869098595
 10
168.447116619
 20
77.4918864558
 10
168.4628606837
 20
77.3948638419
 10
168.4830546876
 20
77.2961746294
 10
168.5074953684
 20
77.1968166523
 10
168.5362259473
 20
77.096783302
 10
168.5692032032
 20
76.9960811871
 10
168.6060942101
 20
76.895727968
 10
168.6469386651
 20
76.795727372
 10
168.6916968712
 20
76.6960756718
 10
168.7399168118
 20
76.5977793451
 10
168.7916334694
 20
76.5008523349
 10
168.8468118616
 20
76.4052806981
 10
168.904895024
 20
76.3120290834
 10
168.9659124443
 20
76.2211208941
 10
169.0298346349
 20
76.1325327268
 10
169.0960161684
 20
76.0471590204
 10
169.1644802683
 20
75.9650321084
 10
169.2352037113
 20
75.8861196573
 10
169.3074713995
 20
75.8112191055
 10
169.3812991553
 20
75.7403712902
 10
169.4566711564
 20
75.6735353741
 10
169.5328248387
 20
75.6113862835
 10
169.6095060141
 20
75.5541489936
 10
169.6869688707
 20
75.5015985291
 10
169.7652134085
 20
75.4537348901
  0
LINE
  5
28E
100
AcDbEntity
  8
0
100
AcDbLine
 62
7
  6
CONTINUOUS
 10
167.9267357774
 20
60.1798708302
 11
167.9267357774
 21
71.1205725392
  0
LINE
  5
28F
100
AcDbEntity
  8
0
100
AcDbLine
 62
7
  6
CONTINUOUS
 10
167.9267357774
 20
76.9175115045
 11
167.9267357774
 21
87.8582132135
  0
LINE
  5
290
100
AcDbEntity
  8
0
100
AcDbLine
 62
7
  6
CONTINUOUS
 10
168.0681571336
 20
87.9398681321
 11
168.0681571336
 21
76.9991664231
  0
LINE
  5
291
100
AcDbEntity
  8
0
100
AcDbLine
 62
7
  6
CONTINUOUS
 10
168.0681571336
 20
71.2022274579
 11
168.0681571336
 21
60.2615257489
  0
LINE
  5
292
100
AcDbEntity
  8
0
100
AcDbLine
 62
7
  6
CONTINUOUS
 10
168.4267873225
 20
88.4622438186
 11
168.4267873225
 21
77.7719568707
  0
LINE
  5
293
100
AcDbEntity
  8
0
100
AcDbLine
 62
7
  6
CONTINUOUS
 10
168.4267873225
 20
71.7246031459
 11
168.4267873225
 21
61.0343161965
  0
LWPOLYLINE
  5
294
100
AcDbEntity
  8
0
100
AcDbPolyline
 62
7
  6
CONTINUOUS
 90
11
 70
0
 10
167.9267357774
 20
71.1205725392
 10
167.9285519239
 20
71.1835926953
 10
167.93399306
 20
71.2442496999
 10
167.9430365948
 20
71.3022833784
 10
167.9556448125
 20
71.3574458588
 10
167.9717642508
 20
71.4094990448
 10
167.9913251749
 20
71.4582163293
 10
168.0142437433
 20
71.5033889317
 10
168.0404218455
 20
71.5448235009
 10
168.0697456158
 20
71.5823405534
 10
168.1020876838
 20
71.6157789133
  0
LWPOLYLINE
  5
295
100
AcDbEntity
  8
0
100
AcDbPolyline
 62
7
  6
CONTINUOUS
 90
7
 70
0
 10
168.1240056522
 20
71.5195583318
 10
168.1131856063
 20
71.4911539614
 10
168.0970661615
 20
71.4391007507
 10
168.0844579428
 20
71.3839382542
 10
168.0754144111
 20
71.3259045766
 10
168.0699732785
 20
71.2652475858
 10
168.0681571336
 20
71.2022274579
  0
LINE
  5
296
100
AcDbEntity
  8
0
100
AcDbLine
 62
250
  6
CONTINUOUS
 10
168.3075088803
 20
71.7179920232
 11
168.0681571336
 21
71.2022274579
  0
LINE
  5
297
100
AcDbEntity
  8
0
100
AcDbLine
 62
250
  6
CONTINUOUS
 10
168.4267873225
 20
61.0343161965
 11
168.0681571336
 21
60.2615257489
  0
LWPOLYLINE
  5
298
100
AcDbEntity
  8
0
100
AcDbPolyline
 62
7
  6
CONTINUOUS
 90
7
 70
0
 10
163.124530946
 20
62.5776668155
 10
163.1016123775
 20
62.5324942131
 10
163.0754342754
 20
62.4910596438
 10
163.046110505
 20
62.4535425913
 10
163.0137684371
 20
62.4201042314
 10
162.9785460085
 20
62.3908855604
 10
162.9406211982
 20
62.3660263721
  0
LWPOLYLINE
  5
299
100
AcDbEntity
  8
0
100
AcDbPolyline
 62
7
  6
CONTINUOUS
 90
3
 70
0
 10
168.1556651098
 20
71.5850438684
 10
168.1327465379
 20
71.5398712628
 10
168.1240056522
 20
71.5195583318
  0
LINE
  5
29A
100
AcDbEntity
  8
0
100
AcDbLine
 62
250
  6
CONTINUOUS
 10
161.9870388154
 20
61.8131033503
 11
162.340592206
 21
62.4254757853
  0
LWPOLYLINE
  5
29B
100
AcDbEntity
  8
0
100
AcDbPolyline
 62
7
  6
CONTINUOUS
 90
4
 70
0
 10
168.2435090627
 20
71.697433853
 10
168.2111669865
 20
71.6639954887
 10
168.1818432132
 20
71.626478436
 10
168.1556651098
 20
71.5850438684
  0
LWPOLYLINE
  5
29C
100
AcDbEntity
  8
0
100
AcDbPolyline
 62
7
  6
CONTINUOUS
 90
3
 70
0
 10
168.1020876838
 20
71.6157789133
 10
168.1373101124
 20
71.6449975843
 10
168.1752349227
 20
71.6698567726
  0
LINE
  5
29D
100
AcDbEntity
  8
0
100
AcDbLine
 62
250
  6
CONTINUOUS
 10
168.0681571336
 20
76.9991664231
 11
167.9267357774
 21
76.9175115045
  0
LINE
  5
29E
100
AcDbEntity
  8
0
100
AcDbLine
 62
250
  6
CONTINUOUS
 10
152.8653613381
 20
67.8963553359
 11
153.0067826944
 21
67.9780102546
  0
LINE
  5
29F
100
AcDbEntity
  8
0
100
AcDbLine
 62
250
  6
CONTINUOUS
 10
168.9166852711
 20
75.529472579
 11
168.7752639148
 21
75.4478176603
  0
LINE
  5
2A0
100
AcDbEntity
  8
0
100
AcDbLine
 62
250
  6
CONTINUOUS
 10
167.9267357774
 20
71.1205725392
 11
168.0681571336
 21
71.2022274579
  0
LWPOLYLINE
  5
2A1
100
AcDbEntity
  8
0
100
AcDbPolyline
 62
7
  6
CONTINUOUS
 90
13
 70
0
 10
168.1752349227
 20
71.6698567726
 10
168.2157863385
 20
71.6903000431
 10
168.258704151
 20
71.7061898801
 10
168.303836124
 20
71.7174754499
 10
168.3509912004
 20
71.7241078128
 10
168.3999660774
 20
71.7260572594
 10
168.450548305
 20
71.7233149445
 10
168.502521267
 20
71.7158926303
 10
168.555662315
 20
71.7038221315
 10
168.609740557
 20
71.6871563114
 10
168.6645231427
 20
71.6659678586
 10
168.7197764694
 20
71.6403480416
 10
168.7752639148
 20
71.6104073594
  0
LWPOLYLINE
  5
2A2
100
AcDbEntity
  8
0
100
AcDbPolyline
 62
7
  6
CONTINUOUS
 90
11
 70
0
 10
178.7670545465
 20
53.1435149148
 10
178.7219225736
 20
53.1322293449
 10
178.6747674971
 20
53.125596982
 10
178.6257926201
 20
53.1236475354
 10
178.5752103925
 20
53.1263898504
 10
178.5232374306
 20
53.1338121646
 10
178.4700963826
 20
53.1458826633
 10
178.4160181406
 20
53.1625484835
 10
178.3612355548
 20
53.1837369362
 10
178.3059822281
 20
53.2093567533
 10
178.2504947827
 20
53.2392974355
  0
LINE
  5
2A3
100
AcDbEntity
  8
0
100
AcDbLine
 62
250
  6
CONTINUOUS
 10
199.0394341496
 20
52.7482158395
 11
199.7465409308
 21
52.7482158395
  0
LINE
  5
2A4
100
AcDbEntity
  8
0
100
AcDbLine
 62
250
  6
CONTINUOUS
 10
178.9583789666
 20
53.2703911723
 11
178.391916139
 21
53.3209523541
  0
LINE
  5
2A5
100
AcDbEntity
  8
0
100
AcDbLine
 62
250
  6
CONTINUOUS
 10
210.7781841069
 20
51.635675148
 11
210.2117212924
 21
51.6862363286
  0
LWPOLYLINE
  5
2A6
100
AcDbEntity
  8
0
100
AcDbPolyline
 62
7
  6
CONTINUOUS
 90
6
 70
0
 10
178.6947451545
 20
53.2106227012
 10
178.7166316444
 20
53.2080447794
 10
178.7672138807
 20
53.2053024549
 10
178.8161887879
 20
53.2072518948
 10
178.8633438863
 20
53.2138842552
 10
178.9084758617
 20
53.2251698208
  0
LWPOLYLINE
  5
2A7
100
AcDbEntity
  8
0
100
AcDbPolyline
 62
7
  6
CONTINUOUS
 90
6
 70
0
 10
210.5145503079
 20
51.5759066757
 10
210.5364366486
 20
51.5733287687
 10
210.5870189265
 20
51.5705864302
 10
210.6359937874
 20
51.5725358556
 10
210.6831488585
 20
51.5791681945
 10
210.7282808654
 20
51.5904537491
  0
LWPOLYLINE
  5
2A8
100
AcDbEntity
  8
0
100
AcDbPolyline
 62
7
  6
CONTINUOUS
 90
10
 70
0
 10
194.4004501347
 20
45.911904708
 10
194.3596081752
 20
45.9312555313
 10
194.3164620025
 20
45.9460193237
 10
194.2710116164
 20
45.956196085
 10
194.2218622728
 20
45.9618138237
 10
194.1704087159
 20
45.9628445313
 10
194.1208351787
 20
45.9592041832
 10
194.0745364056
 20
45.950864771
 10
194.0301176521
 20
45.937854303
 10
193.9875789184
 20
45.9201727793
  0
LWPOLYLINE
  5
2A9
100
AcDbEntity
  8
0
100
AcDbPolyline
 62
7
  6
CONTINUOUS
 90
10
 70
0
 10
178.490547558
 20
55.0980830578
 10
178.4497055985
 20
55.1174338812
 10
178.4065594258
 20
55.1321976735
 10
178.3611090397
 20
55.1423744349
 10
178.3119596961
 20
55.1479921735
 10
178.2605061392
 20
55.1490228812
 10
178.210932602
 20
55.1453825331
 10
178.1646338289
 20
55.1370431209
 10
178.1202150754
 20
55.1240326529
 10
178.0776763417
 20
55.1063511291
  0
LWPOLYLINE
  5
2AA
100
AcDbEntity
  8
0
100
AcDbPolyline
 62
7
  6
CONTINUOUS
 90
7
 70
0
 10
210.2117212924
 20
34.9485956544
 10
210.2672087774
 20
34.9186549523
 10
210.3224621199
 20
34.8930351316
 10
210.3772446981
 20
34.8718466857
 10
210.4313228944
 20
34.8551808816
 10
210.4844638761
 20
34.8431103954
 10
210.5145503079
 20
34.8382660015
  0
LWPOLYLINE
  5
2AB
100
AcDbEntity
  8
0
100
AcDbPolyline
 62
7
  6
CONTINUOUS
 90
7
 70
0
 10
194.3018187157
 20
44.1347740043
 10
194.3573062007
 20
44.1048333022
 10
194.4125595432
 20
44.0792134814
 10
194.4673421214
 20
44.0580250356
 10
194.5214203177
 20
44.0413592315
 10
194.5745612994
 20
44.0292887453
 10
194.6046477312
 20
44.0244443513
  0
LWPOLYLINE
  5
2AC
100
AcDbEntity
  8
0
100
AcDbPolyline
 62
7
  6
CONTINUOUS
 90
7
 70
0
 10
178.391916139
 20
53.3209523541
 10
178.447403624
 20
53.2910116521
 10
178.5026569665
 20
53.2653918313
 10
178.5574395447
 20
53.2442033855
 10
178.611517741
 20
53.2275375814
 10
178.6646587227
 20
53.2154670951
 10
178.6947451545
 20
53.2106227012
  0
LWPOLYLINE
  5
2AD
100
AcDbEntity
  8
0
100
AcDbPolyline
 62
7
  6
CONTINUOUS
 90
7
 70
0
 10
162.4820135623
 20
62.507130704
 10
162.5375010473
 20
62.4771900019
 10
162.5927543898
 20
62.4515701812
 10
162.647536968
 20
62.4303817354
 10
162.7016151643
 20
62.4137159313
 10
162.754756146
 20
62.401645445
 10
162.7848425778
 20
62.3968010511
  0
LINE
  5
2AE
100
AcDbEntity
  8
0
100
AcDbLine
 62
7
  6
CONTINUOUS
 10
209.7167465455
 20
34.2545683007
 11
200.2415156776
 21
39.7254478513
  0
LINE
  5
2AF
100
AcDbEntity
  8
0
100
AcDbLine
 62
7
  6
CONTINUOUS
 10
193.8068439688
 20
43.4407466505
 11
184.3316131009
 21
48.9116262011
  0
LINE
  5
2B0
100
AcDbEntity
  8
0
100
AcDbLine
 62
7
  6
CONTINUOUS
 10
177.8969413921
 20
52.6269250004
 11
168.4217105242
 21
58.097804551
  0
LINE
  5
2B1
100
AcDbEntity
  8
0
100
AcDbLine
 62
7
  6
CONTINUOUS
 10
161.9870388154
 20
61.8131033503
 11
152.5118079475
 21
67.2839829009
  0
LINE
  5
2B2
100
AcDbEntity
  8
0
100
AcDbLine
 62
7
  6
CONTINUOUS
 10
210.0702999361
 20
34.8669407357
 11
200.5950690682
 21
40.3378202863
  0
LINE
  5
2B3
100
AcDbEntity
  8
0
100
AcDbLine
 62
7
  6
CONTINUOUS
 10
194.1603973594
 20
44.0531190856
 11
184.6851664915
 21
49.5239986362
  0
LINE
  5
2B4
100
AcDbEntity
  8
0
100
AcDbLine
 62
7
  6
CONTINUOUS
 10
178.2504947827
 20
53.2392974355
 11
168.7752639148
 21
58.7101769861
  0
LINE
  5
2B5
100
AcDbEntity
  8
0
100
AcDbLine
 62
7
  6
CONTINUOUS
 10
162.340592206
 20
62.4254757853
 11
152.8653613381
 21
67.8963553359
  0
LINE
  5
2B6
100
AcDbEntity
  8
0
100
AcDbLine
 62
7
  6
CONTINUOUS
 10
153.0067826944
 20
67.9780102546
 11
162.4820135623
 21
62.507130704
  0
LINE
  5
2B7
100
AcDbEntity
  8
0
100
AcDbLine
 62
7
  6
CONTINUOUS
 10
168.9166852711
 20
58.7918319047
 11
178.391916139
 21
53.3209523541
  0
LINE
  5
2B8
100
AcDbEntity
  8
0
100
AcDbLine
 62
7
  6
CONTINUOUS
 10
184.8265878478
 20
49.6056535549
 11
194.3018187157
 21
44.1347740043
  0
LINE
  5
2B9
100
AcDbEntity
  8
0
100
AcDbLine
 62
7
  6
CONTINUOUS
 10
200.7364904245
 20
40.419475205
 11
210.2117212924
 21
34.9485956544
  0
LINE
  5
2BA
100
AcDbEntity
  8
0
100
AcDbLine
 62
7
  6
CONTINUOUS
 10
153.8553108318
 20
67.9022725657
 11
163.1138081949
 21
62.5565322245
  0
LINE
  5
2BB
100
AcDbEntity
  8
0
100
AcDbLine
 62
7
  6
CONTINUOUS
 10
169.7652134085
 20
58.7160942158
 11
179.0237107716
 21
53.3703538746
  0
LINE
  5
2BC
100
AcDbEntity
  8
0
100
AcDbLine
 62
7
  6
CONTINUOUS
 10
185.6751159852
 20
49.5299158659
 11
194.9336133483
 21
44.1841755247
  0
LINE
  5
2BD
100
AcDbEntity
  8
0
100
AcDbLine
 62
7
  6
CONTINUOUS
 10
201.5850185619
 20
40.3437375161
 11
210.843515925
 21
34.9979971748
  0
LINE
  5
2BE
100
AcDbEntity
  8
0
100
AcDbLine
 62
7
  6
CONTINUOUS
 10
162.5135565153
 20
64.2858985054
 11
163.1891203435
 21
63.8958364178
  0
LINE
  5
2BF
100
AcDbEntity
  8
0
100
AcDbLine
 62
7
  6
CONTINUOUS
 10
210.2432642453
 20
36.7273634558
 11
210.9188280735
 21
36.3373013682
  0
LINE
  5
2C0
100
AcDbEntity
  8
0
100
AcDbLine
 62
7
  6
CONTINUOUS
 10
178.49056102
 20
55.099872002
 11
179.0990229202
 21
54.7485537267
  0
LINE
  5
2C1
100
AcDbEntity
  8
0
100
AcDbLine
 62
7
  6
CONTINUOUS
 10
194.4004635967
 20
45.9136936521
 11
195.0089254968
 21
45.5623753768
  0
LWPOLYLINE
  5
2C2
100
AcDbEntity
  8
0
100
AcDbPolyline
 62
7
  6
CONTINUOUS
 90
28
 70
0
 10
168.4217105242
 20
58.097804551
 10
168.3514361596
 20
58.1407927453
 10
168.2818639714
 20
58.1879902579
 10
168.2129939594
 20
58.2393970887
 10
168.1445978509
 20
58.2952152951
 10
168.0769039187
 20
58.3552428198
 10
168.0105969816
 20
58.4188734903
 10
167.945691283
 20
58.486143916
 10
167.8821725796
 20
58.5570174874
 10
167.8206829595
 20
58.6307782037
 10
167.7612431669
 20
58.7074552486
 10
167.7038324576
 20
58.7870194382
 10
167.6490306872
 20
58.8686672209
 10
167.5968644077
 20
58.9524195468
 10
167.5473070671
 20
59.0382554657
 10
167.5008588647
 20
59.1253085751
 10
167.457551242
 20
59.2135913203
 10
167.4173527576
 20
59.303091256
 10
167.3806692867
 20
59.3929046431
 10
167.3475364291
 20
59.4830349627
 10
167.3179185851
 20
59.5734787338
 10
167.2921148301
 20
59.6633217736
 10
167.2701640163
 20
59.7525580756
 10
167.2520272915
 20
59.8411936465
 10
167.2378871751
 20
59.9283323236
 10
167.227804507
 20
60.0136753862
 10
167.2217184474
 20
60.097521555
 10
167.2196289962
 20
60.1798708302
  0
LWPOLYLINE
  5
2C3
100
AcDbEntity
  8
0
100
AcDbPolyline
 62
7
  6
CONTINUOUS
 90
28
 70
0
 10
184.3316131009
 20
48.9116262011
 10
184.2613387363
 20
48.9546143955
 10
184.1917665481
 20
49.001811908
 10
184.1228965361
 20
49.0532187388
 10
184.0545004276
 20
49.1090369452
 10
183.9868064954
 20
49.1690644699
 10
183.9204995583
 20
49.2326951404
 10
183.8555938597
 20
49.2999655661
 10
183.7920751563
 20
49.3708391375
 10
183.7305855362
 20
49.4445998539
 10
183.6711457436
 20
49.5212768987
 10
183.6137350343
 20
49.6008410884
 10
183.5589332639
 20
49.682488871
 10
183.5067669844
 20
49.766241197
 10
183.4572096438
 20
49.8520771159
 10
183.4107614414
 20
49.9391302252
 10
183.3674538187
 20
50.0274129704
 10
183.3272553343
 20
50.1169129061
 10
183.2905718634
 20
50.2067262932
 10
183.2574390058
 20
50.2968566128
 10
183.2278211618
 20
50.3873003839
 10
183.2020174068
 20
50.4771434237
 10
183.180066593
 20
50.5663797258
 10
183.1619298682
 20
50.6550152966
 10
183.1477897518
 20
50.7421539737
 10
183.1377070837
 20
50.8274970363
 10
183.1316210241
 20
50.9113432052
 10
183.1295315729
 20
50.9936924803
  0
LWPOLYLINE
  5
2C4
100
AcDbEntity
  8
0
100
AcDbPolyline
 62
7
  6
CONTINUOUS
 90
28
 70
0
 10
200.2415156776
 20
39.7254478513
 10
200.171241313
 20
39.7684360456
 10
200.1016691248
 20
39.8156335581
 10
200.0327991128
 20
39.8670403889
 10
199.9644030043
 20
39.9228585954
 10
199.8967090721
 20
39.9828861201
 10
199.8304021349
 20
40.0465167905
 10
199.7654964364
 20
40.1137872162
 10
199.701977733
 20
40.1846607877
 10
199.6404881129
 20
40.258421504
 10
199.5810483203
 20
40.3350985488
 10
199.523637611
 20
40.4146627385
 10
199.4688358406
 20
40.4963105212
 10
199.4166695611
 20
40.5800628471
 10
199.3671122205
 20
40.665898766
 10
199.3206640181
 20
40.7529518753
 10
199.2773563954
 20
40.8412346206
 10
199.237157911
 20
40.9307345562
 10
199.2004744401
 20
41.0205479433
 10
199.1673415825
 20
41.110678263
 10
199.1377237385
 20
41.201122034
 10
199.1119199835
 20
41.2909650739
 10
199.0899691697
 20
41.3802013759
 10
199.0718324449
 20
41.4688369467
 10
199.0576923285
 20
41.5559756238
 10
199.0476096604
 20
41.6413186864
 10
199.0415236008
 20
41.7251648553
 10
199.0394341496
 20
41.8075141305
  0
LWPOLYLINE
  5
2C5
100
AcDbEntity
  8
0
100
AcDbPolyline
 62
7
  6
CONTINUOUS
 90
25
 70
0
 10
152.8653613381
 20
67.8963553359
 10
152.8098743627
 20
67.9304898579
 10
152.7546213324
 20
67.9686749455
 10
152.699838869
 20
68.0107478914
 10
152.6457605024
 20
68.0565303092
 10
152.5926191706
 20
68.1058259727
 10
152.5406459981
 20
68.158420913
 10
152.4900637248
 20
68.2140897144
 10
152.4410888631
 20
68.2725940806
 10
152.3939337935
 20
68.3336799093
 10
152.3488017946
 20
68.39708276
 10
152.3058839517
 20
68.4625330316
 10
152.2653614229
 20
68.5297539982
 10
152.2274077022
 20
68.5984578559
 10
152.1921852762
 20
68.6683504679
 10
152.1598432037
 20
68.7391366097
 10
152.130519407
 20
68.8105160405
 10
152.1043412771
 20
68.8821804595
 10
152.08142271
 20
68.9538187968
 10
152.0618618372
 20
69.0251242733
 10
152.0457424405
 20
69.0957914308
 10
152.0331341949
 20
69.1655134373
 10
152.0240905842
 20
69.2339905481
 10
152.018649378
 20
69.3009312231
 10
152.0168332007
 20
69.3660491801
  0
LWPOLYLINE
  5
2C6
100
AcDbEntity
  8
0
100
AcDbPolyline
 62
7
  6
CONTINUOUS
 90
25
 70
0
 10
168.7752639148
 20
58.7101769861
 10
168.7197769394
 20
58.7443115081
 10
168.6645239091
 20
58.7824965956
 10
168.6097414457
 20
58.8245695415
 10
168.5556630791
 20
58.8703519593
 10
168.5025217473
 20
58.9196476228
 10
168.4505485748
 20
58.9722425631
 10
168.3999663015
 20
59.0279113645
 10
168.3509914398
 20
59.0864157307
 10
168.3038363702
 20
59.1475015595
 10
168.2587043713
 20
59.2109044101
 10
168.2157865284
 20
59.2763546817
 10
168.1752639996
 20
59.3435756483
 10
168.1373102789
 20
59.412279506
 10
168.1020878529
 20
59.482172118
 10
168.0697457804
 20
59.5529582599
 10
168.0404219837
 20
59.6243376906
 10
168.0142438538
 20
59.6960021096
 10
167.9913252866
 20
59.7676404469
 10
167.9717644139
 20
59.8389459235
 10
167.9556450172
 20
59.909613081
 10
167.9430367716
 20
59.9793350875
 10
167.9339931609
 20
60.0478121983
 10
167.9285519547
 20
60.1147528732
 10
167.9267357774
 20
60.1798708302
  0
LWPOLYLINE
  5
2C7
100
AcDbEntity
  8
0
100
AcDbPolyline
 62
7
  6
CONTINUOUS
 90
25
 70
0
 10
184.6851664915
 20
49.5239986362
 10
184.6296795161
 20
49.5581331582
 10
184.5744264858
 20
49.5963182458
 10
184.5196440224
 20
49.6383911916
 10
184.4655656558
 20
49.6841736094
 10
184.412424324
 20
49.7334692729
 10
184.3604511515
 20
49.7860642132
 10
184.3098688782
 20
49.8417330146
 10
184.2608940165
 20
49.9002373808
 10
184.2137389469
 20
49.9613232096
 10
184.168606948
 20
50.0247260603
 10
184.1256891051
 20
50.0901763319
 10
184.0851665763
 20
50.1573972985
 10
184.0472128556
 20
50.2261011561
 10
184.0119904296
 20
50.2959937681
 10
183.9796483571
 20
50.36677991
 10
183.9503245603
 20
50.4381593407
 10
183.9241464305
 20
50.5098237598
 10
183.9012278633
 20
50.581462097
 10
183.8816669906
 20
50.6527675736
 10
183.8655475939
 20
50.7234347311
 10
183.8529393483
 20
50.7931567376
 10
183.8438957376
 20
50.8616338484
 10
183.8384545314
 20
50.9285745233
 10
183.8366383541
 20
50.9936924803
  0
LWPOLYLINE
  5
2C8
100
AcDbEntity
  8
0
100
AcDbPolyline
 62
7
  6
CONTINUOUS
 90
25
 70
0
 10
200.5950690682
 20
40.3378202863
 10
200.5395820928
 20
40.3719548083
 10
200.4843290625
 20
40.4101398959
 10
200.4295465991
 20
40.4522128417
 10
200.3754682325
 20
40.4979952595
 10
200.3223269007
 20
40.5472909231
 10
200.2703537282
 20
40.5998858634
 10
200.2197714549
 20
40.6555546648
 10
200.1707965932
 20
40.7140590309
 10
200.1236415236
 20
40.7751448597
 10
200.0785095247
 20
40.8385477104
 10
200.0355916818
 20
40.903997982
 10
199.995069153
 20
40.9712189486
 10
199.9571154323
 20
41.0399228063
 10
199.9218930063
 20
41.1098154182
 10
199.8895509338
 20
41.1806015601
 10
199.860227137
 20
41.2519809909
 10
199.8340490072
 20
41.3236454099
 10
199.81113044
 20
41.3952837472
 10
199.7915695673
 20
41.4665892237
 10
199.7754501706
 20
41.5372563812
 10
199.7628419249
 20
41.6069783877
 10
199.7537983143
 20
41.6754554985
 10
199.7483571081
 20
41.7423961735
 10
199.7465409308
 20
41.8075141305
  0
LINE
  5
2C9
100
AcDbEntity
  8
0
100
AcDbLine
 62
7
  6
CONTINUOUS
 10
130.8695479354
 20
131.5891124359
 11
130.8699232429
 21
131.5884760744
  0
LWPOLYLINE
  5
2CA
100
AcDbEntity
  8
0
100
AcDbPolyline
 62
7
  6
CONTINUOUS
 90
7
 70
0
 10
179.0344334109
 20
70.1291288929
 10
179.0115148437
 20
70.0839563425
 10
178.9853367139
 20
70.0425217716
 10
178.9560129172
 20
70.0050047263
 10
178.9236708447
 20
69.971566399
 10
178.8884484187
 20
69.9423477617
 10
178.8505237749
 20
69.9174886965
  0
LWPOLYLINE
  5
2CB
100
AcDbEntity
  8
0
100
AcDbPolyline
 62
7
  6
CONTINUOUS
 90
3
 70
0
 10
184.0655677396
 20
79.1365062864
 10
184.0426491763
 20
79.0913337237
 10
184.0339082289
 20
79.0710206562
  0
LINE
  5
2CC
100
AcDbEntity
  8
0
100
AcDbLine
 62
250
  6
CONTINUOUS
 10
168.4217105242
 20
58.097804551
 11
168.7752639148
 21
58.7101769861
  0
LINE
  5
2CD
100
AcDbEntity
  8
0
100
AcDbLine
 62
250
  6
CONTINUOUS
 10
177.8969413921
 20
69.3645656747
 11
178.2504947827
 21
69.9769381097
  0
LWPOLYLINE
  5
2CE
100
AcDbEntity
  8
0
100
AcDbPolyline
 62
7
  6
CONTINUOUS
 90
4
 70
0
 10
184.1534117543
 20
79.2488962839
 10
184.1210696843
 20
79.2154579524
 10
184.0917458788
 20
79.1779408868
 10
184.0655677396
 20
79.1365062864
  0
LWPOLYLINE
  5
2CF
100
AcDbEntity
  8
0
100
AcDbPolyline
 62
7
  6
CONTINUOUS
 90
3
 70
0
 10
184.0119904296
 20
79.1672413944
 10
184.0472128556
 20
79.1964600317
 10
184.0851374994
 20
79.221319097
  0
LINE
  5
2D0
100
AcDbEntity
  8
0
100
AcDbLine
 62
250
  6
CONTINUOUS
 10
183.9780597103
 20
78.7536897823
 11
183.8366383541
 21
78.6720348636
  0
LINE
  5
2D1
100
AcDbEntity
  8
0
100
AcDbLine
 62
250
  6
CONTINUOUS
 10
162.340592206
 20
62.4254757853
 11
162.4820135623
 21
62.507130704
  0
LWPOLYLINE
  5
2D2
100
AcDbEntity
  8
0
100
AcDbPolyline
 62
7
  6
CONTINUOUS
 90
13
 70
0
 10
184.0851374994
 20
79.221319097
 10
184.1256891051
 20
79.2417624501
 10
184.168606948
 20
79.2576522725
 10
184.2137389469
 20
79.2689378221
 10
184.2608940165
 20
79.2755701586
 10
184.3098688782
 20
79.277519582
 10
184.3604511515
 20
79.2747772421
 10
184.412424324
 20
79.2673548656
 10
184.4655656558
 20
79.2552842511
 10
184.5196440224
 20
79.2386183267
 10
184.5744264858
 20
79.217429857
 10
184.6296795161
 20
79.1918101302
 10
184.6851664915
 20
79.1618696838
  0
LINE
  5
2D3
100
AcDbEntity
  8
0
100
AcDbLine
 62
7
  6
CONTINUOUS
 10
160.9791358637
 20
63.7890652747
 11
162.2383090377
 21
64.3055348789
  0
LWPOLYLINE
  5
2D4
100
AcDbEntity
  8
0
100
AcDbPolyline
 62
7
  6
CONTINUOUS
 90
11
 70
0
 10
194.6769569029
 20
60.6949771711
 10
194.631824904
 20
60.6836916215
 10
194.5846698345
 20
60.677059285
 10
194.5356949728
 20
60.6751098616
 10
194.4851126994
 20
60.6778522015
 10
194.433139527
 20
60.685274578
 10
194.3799981951
 20
60.6973451925
 10
194.3259198286
 20
60.7140111169
 10
194.2711373651
 20
60.7351995866
 10
194.2158843349
 20
60.7608193134
 10
194.1603973594
 20
60.7907597598
  0
LINE
  5
2D5
100
AcDbEntity
  8
0
100
AcDbLine
 62
7
  6
CONTINUOUS
 10
231.3338981365
 20
72.4160833604
 11
232.7508572674
 21
72.7637016366
  0
LINE
  5
2D6
100
AcDbEntity
  8
0
100
AcDbLine
 62
250
  6
CONTINUOUS
 10
199.0394341496
 20
58.5451548047
 11
199.7465409308
 21
58.5451548047
  0
LINE
  5
2D7
100
AcDbEntity
  8
0
100
AcDbLine
 62
250
  6
CONTINUOUS
 10
167.2196289962
 20
60.1798708302
 11
167.9267357774
 21
60.1798708302
  0
LINE
  5
2D8
100
AcDbEntity
  8
0
100
AcDbLine
 62
250
  6
CONTINUOUS
 10
183.1295315729
 20
61.9343941894
 11
183.8366383541
 21
61.9343941894
  0
LINE
  5
2D9
100
AcDbEntity
  8
0
100
AcDbLine
 62
250
  6
CONTINUOUS
 10
169.7652134085
 20
58.7160942158
 11
168.9166852711
 21
58.7918319047
  0
LINE
  5
2DA
100
AcDbEntity
  8
0
100
AcDbLine
 62
250
  6
CONTINUOUS
 10
201.5850185619
 20
57.0813781903
 11
200.7364904245
 21
57.1571158792
  0
LINE
  5
2DB
100
AcDbEntity
  8
0
100
AcDbLine
 62
250
  6
CONTINUOUS
 10
163.0484763899
 20
62.4565695222
 11
162.4820135623
 21
62.507130704
  0
LINE
  5
2DC
100
AcDbEntity
  8
0
100
AcDbLine
 62
250
  6
CONTINUOUS
 10
194.8682815302
 20
60.8218534979
 11
194.3018187157
 21
60.8724146785
  0
LWPOLYLINE
  5
2DD
100
AcDbEntity
  8
0
100
AcDbPolyline
 62
7
  6
CONTINUOUS
 90
6
 70
0
 10
162.7848425778
 20
62.3968010511
 10
162.8067290677
 20
62.3942231293
 10
162.857311304
 20
62.3914808047
 10
162.9062862112
 20
62.3934302447
 10
162.9534413096
 20
62.400062605
 10
162.998573285
 20
62.4113481706
  0
LWPOLYLINE
  5
2DE
100
AcDbEntity
  8
0
100
AcDbPolyline
 62
7
  6
CONTINUOUS
 90
6
 70
0
 10
194.6046477312
 20
60.7620850256
 10
194.6265340719
 20
60.7595071186
 10
194.6771163498
 20
60.7567647801
 10
194.7260912107
 20
60.7587142055
 10
194.7732462818
 20
60.7653465443
 10
194.8183782888
 20
60.7766320989
  0
LWPOLYLINE
  5
2DF
100
AcDbEntity
  8
0
100
AcDbPolyline
 62
7
  6
CONTINUOUS
 90
25
 70
0
 10
183.9780597103
 20
51.075347399
 10
183.9798758902
 20
51.0102293948
 10
183.9853171011
 20
50.9432886988
 10
183.994360714
 20
50.8748115955
 10
184.0069689507
 20
50.8050896469
 10
184.023088325
 20
50.7344225789
 10
184.0426491763
 20
50.6631171612
 10
184.0655677396
 20
50.5914788162
 10
184.0917458788
 20
50.5198143569
 10
184.1210696843
 20
50.4484348956
 10
184.1534117543
 20
50.3776487523
 10
184.188634173
 20
50.3077561483
 10
184.2265878893
 20
50.239052292
 10
184.2671104225
 20
50.1718313123
 10
184.3100282747
 20
50.1063810222
 10
184.3551602816
 20
50.0429781573
 10
184.4023153528
 20
49.9818923243
 10
184.4512902137
 20
49.9233879571
 10
184.5018724915
 20
49.867719149
 10
184.5538456823
 20
49.8151241895
 10
184.6069870389
 20
49.7658285043
 10
184.6610654198
 20
49.720046077
 10
184.715847881
 20
49.677973136
 10
184.7711008975
 20
49.6397880604
 10
184.8265878478
 20
49.6056535549
  0
LWPOLYLINE
  5
2E0
100
AcDbEntity
  8
0
100
AcDbPolyline
 62
7
  6
CONTINUOUS
 90
25
 70
0
 10
183.9780597103
 20
67.8129880732
 10
183.9798758552
 20
67.7478707068
 10
183.9853169878
 20
67.6809304324
 10
183.9943605195
 20
67.612453511
 10
184.0069687382
 20
67.5427313597
 10
184.023088183
 20
67.4720638181
 10
184.0426491146
 20
67.4007580434
 10
184.0655676865
 20
67.3291196453
 10
184.0917457899
 20
67.2574552601
 10
184.1210695632
 20
67.1860758491
 10
184.1534116394
 20
67.1152896658
 10
184.1886340794
 20
67.0453969999
 10
184.2265878062
 20
66.9766931103
 10
184.2671103157
 20
66.9094721563
 10
184.310028125
 20
66.8440219156
 10
184.3551601004
 20
66.780619076
 10
184.4023151989
 20
66.71953319
 10
184.451290106
 20
66.6610287548
 10
184.5018723424
 20
66.6053599807
 10
184.553845264
 20
66.5527652693
 10
184.6069862457
 20
66.5034698819
 10
184.661064442
 20
66.4576875404
 10
184.7158470202
 20
66.4156144381
 10
184.7711003628
 20
66.3774290839
 10
184.8265878478
 20
66.3432942291
  0
LWPOLYLINE
  5
2E1
100
AcDbEntity
  8
0
100
AcDbPolyline
 62
7
  6
CONTINUOUS
 90
28
 70
0
 10
184.3366898992
 20
51.8481378466
 10
184.339016312
 20
51.7564485058
 10
184.3457926438
 20
51.6630924161
 10
184.3570188946
 20
51.5680695775
 10
184.3727627988
 20
51.4710473796
 10
184.3929566219
 20
51.3723584328
 10
184.4173971609
 20
51.2730005689
 10
184.446127695
 20
51.1729670684
 10
184.4791049449
 20
51.0722646508
 10
184.51599587
 20
50.9719113068
 10
184.5568400856
 20
50.8719109781
 10
184.6015979764
 20
50.772259723
 10
184.6498176555
 20
50.6739637064
 10
184.7015341365
 20
50.5770367602
 10
184.7567124058
 20
50.4814650525
 10
184.8147955353
 20
50.3882132529
 10
184.8758130934
 20
50.2973046819
 10
184.9397355118
 20
50.2087160191
 10
185.0059171571
 20
50.1233419717
 10
185.0743811079
 20
50.0412150513
 10
185.1451042858
 20
49.9623027465
 10
185.2173718216
 20
49.8874022309
 10
185.2911996045
 20
49.8165542362
 10
185.3665717453
 20
49.7497180307
 10
185.4427257074
 20
49.6875685931
 10
185.519407312
 20
49.6303309162
 10
185.596870738
 20
49.5777800072
 10
185.6751159852
 20
49.5299158659
  0
LWPOLYLINE
  5
2E2
100
AcDbEntity
  8
0
100
AcDbPolyline
 62
7
  6
CONTINUOUS
 90
28
 70
0
 10
184.3366898992
 20
68.5857785209
 10
184.3390163922
 20
68.4940883146
 10
184.3457928243
 20
68.4007315096
 10
184.3570191957
 20
68.3057081059
 10
184.3727632604
 20
68.2086854921
 10
184.3929572643
 20
68.1099962795
 10
184.4173979451
 20
68.0106383025
 10
184.446128524
 20
67.9106049521
 10
184.4791057799
 20
67.8099028372
 10
184.5159967868
 20
67.7095496181
 10
184.5568412418
 20
67.6095490221
 10
184.6015994479
 20
67.5098973219
 10
184.6498193885
 20
67.4116009952
 10
184.7015360461
 20
67.314673985
 10
184.7567144383
 20
67.2191023482
 10
184.8147976007
 20
67.1258507336
 10
184.875815021
 20
67.0349425442
 10
184.9397372115
 20
66.9463543769
 10
185.0059187451
 20
66.8609806705
 10
185.074382845
 20
66.7788537585
 10
185.145106288
 20
66.6999413074
 10
185.2173739762
 20
66.6250407556
 10
185.291201732
 20
66.5541929403
 10
185.3665737331
 20
66.4873570242
 10
185.4427274153
 20
66.4252079336
 10
185.5194085908
 20
66.3679706437
 10
185.5968714474
 20
66.3154201793
 10
185.6751159852
 20
66.2675565402
  0
LINE
  5
2E3
100
AcDbEntity
  8
0
100
AcDbLine
 62
7
  6
CONTINUOUS
 10
179.0990229202
 20
80.9992000456
 11
179.0990229202
 21
70.0584983366
  0
LINE
  5
2E4
100
AcDbEntity
  8
0
100
AcDbLine
 62
7
  6
CONTINUOUS
 10
179.0990229202
 20
64.2615593713
 11
179.0990229202
 21
53.3208576623
  0
LINE
  5
2E5
100
AcDbEntity
  8
0
100
AcDbLine
 62
7
  6
CONTINUOUS
 10
183.1295315729
 20
50.9936924803
 11
183.1295315729
 21
61.9343941894
  0
LINE
  5
2E6
100
AcDbEntity
  8
0
100
AcDbLine
 62
7
  6
CONTINUOUS
 10
183.1295315729
 20
67.7313331546
 11
183.1295315729
 21
78.6720348636
  0
LINE
  5
2E7
100
AcDbEntity
  8
0
100
AcDbLine
 62
7
  6
CONTINUOUS
 10
183.8366383541
 20
50.9936924803
 11
183.8366383541
 21
61.9343941894
  0
LINE
  5
2E8
100
AcDbEntity
  8
0
100
AcDbLine
 62
7
  6
CONTINUOUS
 10
183.8366383541
 20
67.7313331546
 11
183.8366383541
 21
78.6720348636
  0
LINE
  5
2E9
100
AcDbEntity
  8
0
100
AcDbLine
 62
7
  6
CONTINUOUS
 10
183.9780597103
 20
78.7536897823
 11
183.9780597103
 21
67.8129880732
  0
LINE
  5
2EA
100
AcDbEntity
  8
0
100
AcDbLine
 62
7
  6
CONTINUOUS
 10
183.9780597103
 20
62.016049108
 11
183.9780597103
 21
51.075347399
  0
LINE
  5
2EB
100
AcDbEntity
  8
0
100
AcDbLine
 62
7
  6
CONTINUOUS
 10
184.3366898992
 20
79.2760654687
 11
184.3366898992
 21
68.5857785209
  0
LINE
  5
2EC
100
AcDbEntity
  8
0
100
AcDbLine
 62
7
  6
CONTINUOUS
 10
184.3366898992
 20
62.538424796
 11
184.3366898992
 21
51.8481378466
  0
LWPOLYLINE
  5
2ED
100
AcDbEntity
  8
0
100
AcDbPolyline
 62
7
  6
CONTINUOUS
 90
28
 70
0
 10
179.0990229202
 20
70.0584983366
 10
179.096933469
 20
69.9785619072
 10
179.0908474093
 20
69.9017437675
 10
179.0807647412
 20
69.8280439173
 10
179.0666246249
 20
69.7572338921
 10
179.0484879001
 20
69.6895421564
 10
179.0265370862
 20
69.6256541041
 10
179.0007333313
 20
69.5656085936
 10
178.9711154872
 20
69.5093667665
 10
178.9379826297
 20
69.4574974402
 10
178.9012991588
 20
69.4100452058
 10
178.8611006744
 20
69.3669654724
 10
178.8177930517
 20
69.3286932843
 10
178.7713448493
 20
69.2952773948
 10
178.7217875086
 20
69.2666690506
 10
178.6696212291
 20
69.2431570367
 10
178.6148194587
 20
69.2247929649
 10
178.5574087494
 20
69.2115252232
 10
178.4979689569
 20
69.2034877609
 10
178.4364793367
 20
69.2007337166
 10
178.3729606333
 20
69.2032099517
 10
178.3080549348
 20
69.2108909998
 10
178.2417479977
 20
69.2238299182
 10
178.1740540655
 20
69.2419736497
 10
178.105657957
 20
69.2651375549
 10
178.036787945
 20
69.2932600877
 10
177.9672157567
 20
69.3264027942
 10
177.8969413921
 20
69.3645656747
  0
LWPOLYLINE
  5
2EE
100
AcDbEntity
  8
0
100
AcDbPolyline
 62
7
  6
CONTINUOUS
 90
28
 70
0
 10
179.0990229202
 20
53.3208576623
 10
179.0969334306
 20
53.2409208749
 10
179.090847325
 20
53.1641024608
 10
179.0807646034
 20
53.09040242
 10
179.0666244207
 20
53.0195923052
 10
179.0484876219
 20
52.9519005638
 10
179.0265367423
 20
52.8880125372
 10
179.0007329535
 20
52.8279670908
 10
178.971115084
 20
52.7717253594
 10
178.9379821533
 20
52.7198560882
 10
178.9012985139
 20
52.6724038125
 10
178.8610998135
 20
52.6293239971
 10
178.8177920149
 20
52.591051782
 10
178.7713436969
 20
52.5576359682
 10
178.7217862808
 20
52.5290277547
 10
178.6696199936
 20
52.5055158788
 10
178.6148183345
 20
52.4871519457
 10
178.5574078042
 20
52.4738843501
 10
178.4979681317
 20
52.465847013
 10
178.4364785004
 20
52.4630930596
 10
178.3729597269
 20
52.4655693647
 10
178.3080539897
 20
52.473250474
 10
178.2417470632
 20
52.4861894624
 10
178.174053173
 20
52.5043332549
 10
178.1056571752
 20
52.5274971729
 10
178.0367873552
 20
52.5556196567
 10
177.9672154275
 20
52.5887622658
 10
177.8969413921
 20
52.6269250004
  0
LWPOLYLINE
  5
2EF
100
AcDbEntity
  8
0
100
AcDbPolyline
 62
7
  6
CONTINUOUS
 90
28
 70
0
 10
183.1295315729
 20
78.6720348636
 10
183.1316210241
 20
78.7519712929
 10
183.1377070837
 20
78.8287894327
 10
183.1477897518
 20
78.9024892829
 10
183.1619298682
 20
78.9732993081
 10
183.180066593
 20
79.0409910437
 10
183.2020174068
 20
79.1048790961
 10
183.2278211618
 20
79.1649246065
 10
183.2574390058
 20
79.2211664337
 10
183.2905718634
 20
79.27303576
 10
183.3272553343
 20
79.3204879943
 10
183.3674538187
 20
79.3635677278
 10
183.4107614414
 20
79.4018399159
 10
183.4572096438
 20
79.4352558054
 10
183.5067669844
 20
79.4638641495
 10
183.5589332639
 20
79.4873761634
 10
183.6137350343
 20
79.5057402353
 10
183.6711457436
 20
79.519007977
 10
183.7305855362
 20
79.5270454392
 10
183.7920751563
 20
79.5297994835
 10
183.8555938597
 20
79.5273232484
 10
183.9204995583
 20
79.5196422004
 10
183.9868064954
 20
79.5067032819
 10
184.0545004276
 20
79.4885595505
 10
184.1228965361
 20
79.4653956452
 10
184.1917665481
 20
79.4372731125
 10
184.2613387363
 20
79.4041304059
 10
184.3316131009
 20
79.3659675255
  0
LWPOLYLINE
  5
2F0
100
AcDbEntity
  8
0
100
AcDbPolyline
 62
7
  6
CONTINUOUS
 90
28
 70
0
 10
183.1295315729
 20
61.9343941894
 10
183.1316210624
 20
62.0143309767
 10
183.137707168
 20
62.0911493908
 10
183.1477898896
 20
62.1648494317
 10
183.1619300724
 20
62.2356595464
 10
183.1800668712
 20
62.3033512879
 10
183.2020177508
 20
62.3672393145
 10
183.2278215395
 20
62.4272847608
 10
183.2574394091
 20
62.4835264923
 10
183.2905723398
 20
62.5353957634
 10
183.3272559791
 20
62.5828480392
 10
183.3674546796
 20
62.6259278546
 10
183.4107624781
 20
62.6642000697
 10
183.4572107961
 20
62.6976158835
 10
183.5067682122
 20
62.7262240969
 10
183.5589344995
 20
62.7497359729
 10
183.6137361586
 20
62.768099906
 10
183.6711466889
 20
62.7813675015
 10
183.7305863614
 20
62.7894048386
 10
183.7920759927
 20
62.792158792
 10
183.8555947662
 20
62.7896824869
 10
183.9205005033
 20
62.7820013776
 10
183.9868074299
 20
62.7690623893
 10
184.05450132
 20
62.7509185967
 10
184.1228973178
 20
62.7277546788
 10
184.1917671379
 20
62.699632195
 10
184.2613390656
 20
62.6664895858
 10
184.3316131009
 20
62.6283268512
  0
LWPOLYLINE
  5
2F1
100
AcDbEntity
  8
0
100
AcDbPolyline
 62
7
  6
CONTINUOUS
 90
7
 70
0
 10
179.0990229202
 20
70.4667729299
 10
179.0972067428
 20
70.4037522489
 10
179.0917655366
 20
70.3430949425
 10
179.082721926
 20
70.2850611666
 10
179.0701136803
 20
70.2298988461
 10
179.0539942837
 20
70.1778459638
 10
179.0344334109
 20
70.1291288929
  0
LWPOLYLINE
  5
2F2
100
AcDbEntity
  8
0
100
AcDbPolyline
 62
7
  6
CONTINUOUS
 90
7
 70
0
 10
179.0990229202
 20
53.7291322556
 10
179.0972067736
 20
53.6661120995
 10
179.0917656375
 20
53.6054550949
 10
179.0827221028
 20
53.5474214164
 10
179.0701138851
 20
53.492258936
 10
179.0539944467
 20
53.44020575
 10
179.0344335227
 20
53.3914884656
  0
LWPOLYLINE
  5
2F3
100
AcDbEntity
  8
0
100
AcDbPolyline
 62
7
  6
CONTINUOUS
 90
11
 70
0
 10
183.8366383541
 20
78.6720348636
 10
183.8384545314
 20
78.7350555446
 10
183.8438957376
 20
78.795712851
 10
183.8529393483
 20
78.8537466269
 10
183.8655475939
 20
78.9089089474
 10
183.8816669906
 20
78.9609618296
 10
183.9012278633
 20
79.0096789006
 10
183.9241464305
 20
79.054851451
 10
183.9503245603
 20
79.0962860219
 10
183.9796483571
 20
79.1338030672
 10
184.0119904296
 20
79.1672413944
  0
LWPOLYLINE
  5
2F4
100
AcDbEntity
  8
0
100
AcDbPolyline
 62
7
  6
CONTINUOUS
 90
11
 70
0
 10
183.8366383541
 20
61.9343941894
 10
183.8384545006
 20
61.9974143455
 10
183.8438956367
 20
62.05807135
 10
183.8529391715
 20
62.1161050285
 10
183.8655473892
 20
62.1712675089
 10
183.8816668275
 20
62.2233206949
 10
183.9012277516
 20
62.2720379794
 10
183.92414632
 20
62.3172105818
 10
183.9503244222
 20
62.358645151
 10
183.9796481925
 20
62.3961622036
 10
184.0119902605
 20
62.4296005634
  0
LWPOLYLINE
  5
2F5
100
AcDbEntity
  8
0
100
AcDbPolyline
 62
7
  6
CONTINUOUS
 90
7
 70
0
 10
184.0339082289
 20
79.0710206562
 10
184.023088325
 20
79.0426166868
 10
184.0069689507
 20
78.9905638682
 10
183.994360714
 20
78.9354015954
 10
183.9853171011
 20
78.8773678295
 10
183.9798758902
 20
78.8167105075
 10
183.9780597103
 20
78.7536897823
  0
LINE
  5
2F6
100
AcDbEntity
  8
0
100
AcDbLine
 62
250
  6
CONTINUOUS
 10
184.2174114626
 20
79.2694543596
 11
183.9780597103
 21
78.7536897823
  0
LINE
  5
2F7
100
AcDbEntity
  8
0
100
AcDbLine
 62
250
  6
CONTINUOUS
 10
184.3366898992
 20
68.5857785209
 11
183.9780597103
 21
67.8129880732
  0
LINE
  5
2F8
100
AcDbEntity
  8
0
100
AcDbLine
 62
250
  6
CONTINUOUS
 10
178.391916139
 20
70.0585930284
 11
178.2504947827
 21
69.9769381097
  0
LINE
  5
2F9
100
AcDbEntity
  8
0
100
AcDbLine
 62
250
  6
CONTINUOUS
 10
167.9267357774
 20
60.1798708302
 11
168.0681571336
 21
60.2615257489
  0
LINE
  5
2FA
100
AcDbEntity
  8
0
100
AcDbLine
 62
250
  6
CONTINUOUS
 10
183.9780597103
 20
67.8129880732
 11
183.8366383541
 21
67.7313331546
  0
LINE
  5
2FB
100
AcDbEntity
  8
0
100
AcDbLine
 62
250
  6
CONTINUOUS
 10
168.7752639148
 20
58.7101769861
 11
168.9166852711
 21
58.7918319047
  0
LWPOLYLINE
  5
2FC
100
AcDbEntity
  8
0
100
AcDbPolyline
 62
7
  6
CONTINUOUS
 90
3
 70
0
 10
162.9406211982
 20
62.3660263721
 10
162.9000697823
 20
62.3455831016
 10
162.8571519698
 20
62.3296932646
  0
LWPOLYLINE
  5
2FD
100
AcDbEntity
  8
0
100
AcDbPolyline
 62
7
  6
CONTINUOUS
 90
3
 70
0
 10
178.8505237749
 20
69.9174886965
 10
178.8099721692
 20
69.8970453434
 10
178.7670543262
 20
69.881155521
  0
LWPOLYLINE
  5
2FE
100
AcDbEntity
  8
0
100
AcDbPolyline
 62
7
  6
CONTINUOUS
 90
11
 70
0
 10
162.8571519698
 20
62.3296932646
 10
162.8120199969
 20
62.3184076948
 10
162.7648649204
 20
62.3117753319
 10
162.7158900434
 20
62.3098258853
 10
162.6653078158
 20
62.3125682003
 10
162.6133348539
 20
62.3199905145
 10
162.5601938059
 20
62.3320610132
 10
162.5061155639
 20
62.3487268333
 10
162.4513329781
 20
62.3699152861
 10
162.3960796514
 20
62.3955351031
 10
162.340592206
 20
62.4254757853
  0
LINE
  5
2FF
100
AcDbEntity
  8
0
100
AcDbLine
 62
250
  6
CONTINUOUS
 10
183.1295315729
 20
67.7313331546
 11
183.8366383541
 21
67.7313331546
  0
LINE
  5
300
100
AcDbEntity
  8
0
100
AcDbLine
 62
250
  6
CONTINUOUS
 10
153.8553108318
 20
67.9022725657
 11
153.0067826944
 21
67.9780102546
  0
LINE
  5
301
100
AcDbEntity
  8
0
100
AcDbLine
 62
250
  6
CONTINUOUS
 10
185.6751159852
 20
66.2675565402
 11
184.8265878478
 21
66.3432942291
  0
LWPOLYLINE
  5
302
100
AcDbEntity
  8
0
100
AcDbPolyline
 62
7
  6
CONTINUOUS
 90
7
 70
0
 10
210.2117212924
 20
51.6862363286
 10
210.2672082426
 20
51.6562958949
 10
210.3224612591
 20
51.630676172
 10
210.3772437203
 20
51.6094877
 10
210.4313221012
 20
51.5928217685
 10
210.4844634578
 20
51.5807511472
 10
210.5145503079
 20
51.5759066757
  0
LWPOLYLINE
  5
303
100
AcDbEntity
  8
0
100
AcDbPolyline
 62
7
  6
CONTINUOUS
 90
7
 70
0
 10
194.3018187157
 20
60.8724146785
 10
194.3573056659
 20
60.8424742447
 10
194.4125586824
 20
60.8168545219
 10
194.4673411436
 20
60.7956660499
 10
194.5214195245
 20
60.7790001184
 10
194.5745608811
 20
60.7669294971
 10
194.6046477312
 20
60.7620850256
  0
LWPOLYLINE
  5
304
100
AcDbEntity
  8
0
100
AcDbPolyline
 62
7
  6
CONTINUOUS
 90
7
 70
0
 10
178.391916139
 20
70.0585930284
 10
178.4474030892
 20
70.0286525946
 10
178.5026561057
 20
70.0030328717
 10
178.5574385669
 20
69.9818443997
 10
178.6115169478
 20
69.9651784682
 10
178.6646583044
 20
69.953107847
 10
178.6947451545
 20
69.9482633755
  0
LWPOLYLINE
  5
305
100
AcDbEntity
  8
0
100
AcDbPolyline
 62
7
  6
CONTINUOUS
 90
7
 70
0
 10
162.4820135623
 20
79.2447713783
 10
162.5375005125
 20
79.2148309445
 10
162.592753529
 20
79.1892112216
 10
162.6475359902
 20
79.1680227496
 10
162.7016143711
 20
79.1513568181
 10
162.7547557277
 20
79.1392861968
 10
162.7848425778
 20
79.1344417253
  0
LINE
  5
306
100
AcDbEntity
  8
0
100
AcDbLine
 62
7
  6
CONTINUOUS
 10
152.5118079475
 20
81.000683551
 11
161.9870388154
 21
75.5298040004
  0
LINE
  5
307
100
AcDbEntity
  8
0
100
AcDbLine
 62
7
  6
CONTINUOUS
 10
168.4217105242
 20
71.8145052011
 11
177.8969413921
 21
66.3436256505
  0
LINE
  5
308
100
AcDbEntity
  8
0
100
AcDbLine
 62
7
  6
CONTINUOUS
 10
184.3316131009
 20
62.6283268512
 11
193.8068439688
 21
57.1574473007
  0
LINE
  5
309
100
AcDbEntity
  8
0
100
AcDbLine
 62
7
  6
CONTINUOUS
 10
200.2415156776
 20
53.4421485014
 11
209.7167465455
 21
47.9712689508
  0
LINE
  5
30A
100
AcDbEntity
  8
0
100
AcDbLine
 62
7
  6
CONTINUOUS
 10
209.7167465455
 20
50.9922089749
 11
200.2415156776
 21
56.4630885255
  0
LINE
  5
30B
100
AcDbEntity
  8
0
100
AcDbLine
 62
7
  6
CONTINUOUS
 10
193.8068439688
 20
60.1783873248
 11
184.3316131009
 21
65.6492668754
  0
LINE
  5
30C
100
AcDbEntity
  8
0
100
AcDbLine
 62
7
  6
CONTINUOUS
 10
177.8969413921
 20
69.3645656747
 11
168.4217105242
 21
74.8354452253
  0
LINE
  5
30D
100
AcDbEntity
  8
0
100
AcDbLine
 62
7
  6
CONTINUOUS
 10
161.9870388154
 20
78.5507440245
 11
152.5118079475
 21
84.0216235751
  0
LINE
  5
30E
100
AcDbEntity
  8
0
100
AcDbLine
 62
7
  6
CONTINUOUS
 10
210.0702999361
 20
51.60458141
 11
200.5950690682
 21
57.0754609606
  0
LINE
  5
30F
100
AcDbEntity
  8
0
100
AcDbLine
 62
7
  6
CONTINUOUS
 10
194.1603973594
 20
60.7907597598
 11
184.6851664915
 21
66.2616393104
  0
LINE
  5
310
100
AcDbEntity
  8
0
100
AcDbLine
 62
7
  6
CONTINUOUS
 10
178.2504947827
 20
69.9769381097
 11
168.7752639148
 21
75.4478176603
  0
LINE
  5
311
100
AcDbEntity
  8
0
100
AcDbLine
 62
7
  6
CONTINUOUS
 10
162.340592206
 20
79.1631164596
 11
152.8653613381
 21
84.6339960102
  0
LINE
  5
312
100
AcDbEntity
  8
0
100
AcDbLine
 62
7
  6
CONTINUOUS
 10
153.0067826944
 20
84.7156509289
 11
162.4820135623
 21
79.2447713783
  0
LINE
  5
313
100
AcDbEntity
  8
0
100
AcDbLine
 62
7
  6
CONTINUOUS
 10
168.9166852711
 20
75.529472579
 11
178.391916139
 21
70.0585930284
  0
LINE
  5
314
100
AcDbEntity
  8
0
100
AcDbLine
 62
7
  6
CONTINUOUS
 10
184.8265878478
 20
66.3432942291
 11
194.3018187157
 21
60.8724146785
  0
LINE
  5
315
100
AcDbEntity
  8
0
100
AcDbLine
 62
7
  6
CONTINUOUS
 10
200.7364904245
 20
57.1571158792
 11
210.2117212924
 21
51.6862363286
  0
LINE
  5
316
100
AcDbEntity
  8
0
100
AcDbLine
 62
7
  6
CONTINUOUS
 10
153.8553108318
 20
84.6399132399
 11
163.1138081963
 21
79.2941728979
  0
LINE
  5
317
100
AcDbEntity
  8
0
100
AcDbLine
 62
7
  6
CONTINUOUS
 10
169.7652134085
 20
75.4537348901
 11
179.023710773
 21
70.107994548
  0
LINE
  5
318
100
AcDbEntity
  8
0
100
AcDbLine
 62
7
  6
CONTINUOUS
 10
185.6751159852
 20
66.2675565402
 11
194.9336133497
 21
60.9218161982
  0
LINE
  5
319
100
AcDbEntity
  8
0
100
AcDbLine
 62
7
  6
CONTINUOUS
 10
201.5850185619
 20
57.0813781903
 11
210.8435159264
 21
51.7356378483
  0
LWPOLYLINE
  5
31A
100
AcDbEntity
  8
0
100
AcDbPolyline
 62
7
  6
CONTINUOUS
 90
28
 70
0
 10
161.9870388154
 20
75.5298040004
 10
162.05731318
 20
75.4868158061
 10
162.1268853683
 20
75.4396182935
 10
162.1957553803
 20
75.3882114628
 10
162.2641514888
 20
75.3323932563
 10
162.331845421
 20
75.2723657316
 10
162.3981523581
 20
75.2087350611
 10
162.4630580566
 20
75.1414646354
 10
162.52657676
 20
75.070591064
 10
162.5880663802
 20
74.9968303477
 10
162.6475061727
 20
74.9201533028
 10
162.704916882
 20
74.8405891132
 10
162.7597186524
 20
74.7589413305
 10
162.8118849319
 20
74.6751890046
 10
162.8614422726
 20
74.5893530857
 10
162.907890475
 20
74.5022999763
 10
162.9511980977
 20
74.4140172311
 10
162.9913965821
 20
74.3245172954
 10
163.028080053
 20
74.2347039083
 10
163.0612129105
 20
74.1445735887
 10
163.0908307546
 20
74.0541298176
 10
163.1166345095
 20
73.9642867778
 10
163.1385853234
 20
73.8750504758
 10
163.1567220482
 20
73.7864149049
 10
163.1708621645
 20
73.6992762278
 10
163.1809448326
 20
73.6139331652
 10
163.1870308923
 20
73.5300869964
 10
163.1891203435
 20
73.4477377212
  0
LWPOLYLINE
  5
31B
100
AcDbEntity
  8
0
100
AcDbPolyline
 62
7
  6
CONTINUOUS
 90
28
 70
0
 10
177.8969413921
 20
66.3436256505
 10
177.9672157567
 20
66.3006374562
 10
178.036787945
 20
66.2534399436
 10
178.105657957
 20
66.2020331129
 10
178.1740540655
 20
66.1462149064
 10
178.2417479977
 20
66.0861873817
 10
178.3080549348
 20
66.0225567113
 10
178.3729606333
 20
65.9552862856
 10
178.4364793367
 20
65.8844127141
 10
178.4979689569
 20
65.8106519978
 10
178.5574087494
 20
65.733974953
 10
178.6148194587
 20
65.6544107633
 10
178.6696212291
 20
65.5727629806
 10
178.7217875086
 20
65.4890106547
 10
178.7713448493
 20
65.4031747358
 10
178.8177930517
 20
65.3161216264
 10
178.8611006744
 20
65.2278388812
 10
178.9012991588
 20
65.1383389455
 10
178.9379826297
 20
65.0485255585
 10
178.9711154872
 20
64.9583952388
 10
179.0007333313
 20
64.8679514678
 10
179.0265370862
 20
64.7781084279
 10
179.0484879001
 20
64.6888721259
 10
179.0666246249
 20
64.6002365551
 10
179.0807647412
 20
64.513097878
 10
179.0908474093
 20
64.4277548154
 10
179.096933469
 20
64.3439086465
 10
179.0990229202
 20
64.2615593713
  0
LWPOLYLINE
  5
31C
100
AcDbEntity
  8
0
100
AcDbPolyline
 62
7
  6
CONTINUOUS
 90
28
 70
0
 10
193.8068439688
 20
57.1574473007
 10
193.8771183334
 20
57.1144591063
 10
193.9466905217
 20
57.0672615938
 10
194.0155605336
 20
57.015854763
 10
194.0839566422
 20
56.9600365565
 10
194.1516505744
 20
56.9000090318
 10
194.2179575115
 20
56.8363783614
 10
194.28286321
 20
56.7691079357
 10
194.3463819134
 20
56.6982343642
 10
194.4078715336
 20
56.6244736479
 10
194.4673113261
 20
56.5477966031
 10
194.5247220354
 20
56.4682324134
 10
194.5795238058
 20
56.3865846307
 10
194.6316900853
 20
56.3028323048
 10
194.681247426
 20
56.2169963859
 10
194.7276956284
 20
56.1299432766
 10
194.7710032511
 20
56.0416605313
 10
194.8112017355
 20
55.9521605957
 10
194.8478852064
 20
55.8623472086
 10
194.8810180639
 20
55.772216889
 10
194.910635908
 20
55.6817731179
 10
194.9364396629
 20
55.591930078
 10
194.9583904768
 20
55.502693776
 10
194.9765272016
 20
55.4140582052
 10
194.9906673179
 20
55.3269195281
 10
195.000749986
 20
55.2415764655
 10
195.0068360457
 20
55.1577302966
 10
195.0089254968
 20
55.0753810214
  0
LWPOLYLINE
  5
31D
100
AcDbEntity
  8
0
100
AcDbPolyline
 62
7
  6
CONTINUOUS
 90
28
 70
0
 10
209.7167465455
 20
47.9712689508
 10
209.7870209101
 20
47.9282807564
 10
209.8565930984
 20
47.8810832439
 10
209.9254631103
 20
47.8296764131
 10
209.9938592189
 20
47.7738582067
 10
210.0615531511
 20
47.713830682
 10
210.1278600882
 20
47.6502000115
 10
210.1927657867
 20
47.5829295858
 10
210.2562844901
 20
47.5120560144
 10
210.3177741103
 20
47.438295298
 10
210.3772139028
 20
47.3616182532
 10
210.4346246121
 20
47.2820540635
 10
210.4894263825
 20
47.2004062809
 10
210.541592662
 20
47.116653955
 10
210.5911500027
 20
47.030818036
 10
210.6375982051
 20
46.9437649267
 10
210.6809058278
 20
46.8554821815
 10
210.7211043122
 20
46.7659822458
 10
210.7577877831
 20
46.6761688587
 10
210.7909206406
 20
46.5860385391
 10
210.8205384846
 20
46.495594768
 10
210.8463422396
 20
46.4057517282
 10
210.8682930535
 20
46.3165154262
 10
210.8864297783
 20
46.2278798553
 10
210.9005698946
 20
46.1407411782
 10
210.9106525627
 20
46.0553981156
 10
210.9167386224
 20
45.9715519467
 10
210.9188280735
 20
45.8892026716
  0
LWPOLYLINE
  5
31E
100
AcDbEntity
  8
0
100
AcDbPolyline
 62
7
  6
CONTINUOUS
 90
28
 70
0
 10
152.5118079475
 20
84.0216235751
 10
152.4415339122
 20
84.0646115351
 10
152.3719619845
 20
84.1118088441
 10
152.3030921644
 20
84.1632155023
 10
152.2346961667
 20
84.2190335682
 10
152.1670022765
 20
84.2790609832
 10
152.1006953499
 20
84.3426915715
 10
152.0357896128
 20
84.4099619806
 10
151.9722708393
 20
84.480835563
 10
151.910781208
 20
84.5545962013
 10
151.8513415355
 20
84.6312729823
 10
151.7939310052
 20
84.7108368192
 10
151.7391293461
 20
84.7924843346
 10
151.6869630588
 20
84.8762365315
 10
151.6374056427
 20
84.9620724068
 10
151.5909573247
 20
85.049125574
 10
151.5476495262
 20
85.1374085493
 10
151.5074508258
 20
85.2269088163
 10
151.4707671864
 20
85.3167224393
 10
151.4376342557
 20
85.4068527883
 10
151.4080163861
 20
85.4972964931
 10
151.3822125974
 20
85.5871395079
 10
151.3602617178
 20
85.6763758601
 10
151.342124919
 20
85.7650115222
 10
151.3279847363
 20
85.8521503655
 10
151.3179020146
 20
85.9374936805
 10
151.3118159091
 20
86.0213401768
 10
151.3097264195
 20
86.1036898543
  0
LWPOLYLINE
  5
31F
100
AcDbEntity
  8
0
100
AcDbPolyline
 62
7
  6
CONTINUOUS
 90
28
 70
0
 10
168.4217105242
 20
74.8354452253
 10
168.3514364889
 20
74.8784331852
 10
168.2818645612
 20
74.9256304942
 10
168.2129947411
 20
74.9770371524
 10
168.1445987434
 20
75.0328552183
 10
168.0769048532
 20
75.0928826333
 10
168.0105979266
 20
75.1565132217
 10
167.9456921895
 20
75.2237836307
 10
167.882173416
 20
75.2946572131
 10
167.8206837847
 20
75.3684178515
 10
167.7612441122
 20
75.4450946324
 10
167.7038335819
 20
75.5246584693
 10
167.6490319228
 20
75.6063059847
 10
167.5968656355
 20
75.6900581816
 10
167.5473082194
 20
75.7758940569
 10
167.5008599014
 20
75.8629472241
 10
167.4575521029
 20
75.9512301994
 10
167.4173534024
 20
76.0407304665
 10
167.3806697631
 20
76.1305440895
 10
167.3475368324
 20
76.2206744384
 10
167.3179189628
 20
76.3111181433
 10
167.2921151741
 20
76.400961158
 10
167.2701642945
 20
76.4901975102
 10
167.2520274957
 20
76.5788331723
 10
167.237887313
 20
76.6659720156
 10
167.2278045913
 20
76.7513153307
 10
167.2217184857
 20
76.8351618269
 10
167.2196289962
 20
76.9175115045
  0
LWPOLYLINE
  5
320
100
AcDbEntity
  8
0
100
AcDbPolyline
 62
7
  6
CONTINUOUS
 90
28
 70
0
 10
184.3316131009
 20
65.6492668754
 10
184.2613390656
 20
65.6922548353
 10
184.1917671379
 20
65.7394521444
 10
184.1228973178
 20
65.7908588025
 10
184.05450132
 20
65.8466768684
 10
183.9868074299
 20
65.9067042834
 10
183.9205005033
 20
65.9703348718
 10
183.8555947662
 20
66.0376052808
 10
183.7920759927
 20
66.1084788632
 10
183.7305863614
 20
66.1822395016
 10
183.6711466889
 20
66.2589162826
 10
183.6137361586
 20
66.3384801195
 10
183.5589344995
 20
66.4201276348
 10
183.5067682122
 20
66.5038798317
 10
183.4572107961
 20
66.5897157071
 10
183.4107624781
 20
66.6767688742
 10
183.3674546796
 20
66.7650518495
 10
183.3272559791
 20
66.8545521166
 10
183.2905723398
 20
66.9443657396
 10
183.2574394091
 20
67.0344960885
 10
183.2278215395
 20
67.1249397934
 10
183.2020177508
 20
67.2147828081
 10
183.1800668712
 20
67.3040191603
 10
183.1619300724
 20
67.3926548224
 10
183.1477898896
 20
67.4797936658
 10
183.137707168
 20
67.5651369808
 10
183.1316210624
 20
67.6489834771
 10
183.1295315729
 20
67.7313331546
  0
LWPOLYLINE
  5
321
100
AcDbEntity
  8
0
100
AcDbPolyline
 62
7
  6
CONTINUOUS
 90
28
 70
0
 10
200.2415156776
 20
56.4630885255
 10
200.1712416423
 20
56.5060764854
 10
200.1016697146
 20
56.5532737945
 10
200.0327998945
 20
56.6046804527
 10
199.9644038967
 20
56.6604985185
 10
199.8967100066
 20
56.7205259335
 10
199.83040308
 20
56.7841565219
 10
199.7654973429
 20
56.8514269309
 10
199.7019785694
 20
56.9223005134
 10
199.6404889381
 20
56.9960611517
 10
199.5810492656
 20
57.0727379327
 10
199.5236387353
 20
57.1523017696
 10
199.4688370762
 20
57.2339492849
 10
199.4166707889
 20
57.3177014818
 10
199.3671133728
 20
57.4035373572
 10
199.3206650548
 20
57.4905905243
 10
199.2773572563
 20
57.5788734996
 10
199.2371585558
 20
57.6683737667
 10
199.2004749164
 20
57.7581873897
 10
199.1673419858
 20
57.8483177387
 10
199.1377241162
 20
57.9387614435
 10
199.1119203275
 20
58.0286044583
 10
199.0899694479
 20
58.1178408105
 10
199.0718326491
 20
58.2064764726
 10
199.0576924663
 20
58.2936153159
 10
199.0476097447
 20
58.3789586309
 10
199.0415236391
 20
58.4628051272
 10
199.0394341496
 20
58.5451548047
  0
LWPOLYLINE
  5
322
100
AcDbEntity
  8
0
100
AcDbPolyline
 62
7
  6
CONTINUOUS
 90
25
 70
0
 10
152.8653613381
 20
84.6339960102
 10
152.8098738927
 20
84.6681308391
 10
152.754620566
 20
84.7063161788
 10
152.6998379803
 20
84.7483892828
 10
152.6457597383
 20
84.794171661
 10
152.5926186903
 20
84.8434671125
 10
152.5406457283
 20
84.896061872
 10
152.4900635007
 20
84.9517306456
 10
152.4410886237
 20
85.0102350526
 10
152.3939335473
 20
85.0713209158
 10
152.3488015743
 20
85.1347237567
 10
152.3058837618
 20
85.2001740077
 10
152.2653612533
 20
85.2673949662
 10
152.2274075357
 20
85.3360988455
 10
152.1921851071
 20
85.4059914941
 10
152.1598430391
 20
85.4767776634
 10
152.1305192688
 20
85.5481570709
 10
152.1043411666
 20
85.6198214563
 10
152.0814225982
 20
85.6914598471
 10
152.0618616741
 20
85.7627655963
 10
152.0457422358
 20
85.8334331057
 10
152.0331340181
 20
85.9031552398
 10
152.0240904833
 20
85.9716321656
 10
152.0186493472
 20
86.0385724578
 10
152.0168332007
 20
86.1036898543
  0
LWPOLYLINE
  5
323
100
AcDbEntity
  8
0
100
AcDbPolyline
 62
7
  6
CONTINUOUS
 90
25
 70
0
 10
168.7752639148
 20
75.4478176603
 10
168.7197764694
 20
75.4819524892
 10
168.6645231427
 20
75.5201378289
 10
168.609740557
 20
75.562210933
 10
168.555662315
 20
75.6079933112
 10
168.502521267
 20
75.6572887626
 10
168.450548305
 20
75.7098835222
 10
168.3999660774
 20
75.7655522957
 10
168.3509912004
 20
75.8240567027
 10
168.303836124
 20
75.8851425659
 10
168.258704151
 20
75.9485454068
 10
168.2157863385
 20
76.0139956579
 10
168.17526383
 20
76.0812166163
 10
168.1373101124
 20
76.1499204956
 10
168.1020876838
 20
76.2198131443
 10
168.0697456158
 20
76.2905993135
 10
168.0404218455
 20
76.361978721
 10
168.0142437433
 20
76.4336431064
 10
167.9913251749
 20
76.5052814972
 10
167.9717642508
 20
76.5765872464
 10
167.9556448125
 20
76.6472547558
 10
167.9430365948
 20
76.71697689
 10
167.93399306
 20
76.7854538157
 10
167.9285519239
 20
76.8523941079
 10
167.9267357774
 20
76.9175115045
  0
LWPOLYLINE
  5
324
100
AcDbEntity
  8
0
100
AcDbPolyline
 62
7
  6
CONTINUOUS
 90
25
 70
0
 10
184.6851664915
 20
66.2616393104
 10
184.6296790461
 20
66.2957741394
 10
184.5744257194
 20
66.333959479
 10
184.5196431337
 20
66.3760325831
 10
184.4655648917
 20
66.4218149613
 10
184.4124238437
 20
66.4711104128
 10
184.3604508817
 20
66.5237051723
 10
184.3098686541
 20
66.5793739459
 10
184.2608937771
 20
66.6378783528
 10
184.2137387007
 20
66.698964216
 10
184.1686067277
 20
66.7623670569
 10
184.1256889152
 20
66.827817308
 10
184.0851664067
 20
66.8950382665
 10
184.0472126891
 20
66.9637421457
 10
184.0119902605
 20
67.0336347944
 10
183.9796481925
 20
67.1044209636
 10
183.9503244222
 20
67.1758003711
 10
183.92414632
 20
67.2474647566
 10
183.9012277516
 20
67.3191031473
 10
183.8816668275
 20
67.3904088966
 10
183.8655473892
 20
67.4610764059
 10
183.8529391715
 20
67.5307985401
 10
183.8438956367
 20
67.5992754658
 10
183.8384545006
 20
67.666215758
 10
183.8366383541
 20
67.7313331546
  0
LWPOLYLINE
  5
325
100
AcDbEntity
  8
0
100
AcDbPolyline
 62
7
  6
CONTINUOUS
 90
25
 70
0
 10
200.5950690682
 20
57.0754609606
 10
200.5395816228
 20
57.1095957895
 10
200.4843282961
 20
57.1477811291
 10
200.4295457104
 20
57.1898542332
 10
200.3754674684
 20
57.2356366114
 10
200.3223264204
 20
57.2849320629
 10
200.2703534584
 20
57.3375268224
 10
200.2197712308
 20
57.393195596
 10
200.1707963538
 20
57.4517000029
 10
200.1236412774
 20
57.5127858662
 10
200.0785093044
 20
57.5761887071
 10
200.0355914919
 20
57.6416389581
 10
199.9950689834
 20
57.7088599166
 10
199.9571152658
 20
57.7775637959
 10
199.9218928372
 20
57.8474564445
 10
199.8895507692
 20
57.9182426137
 10
199.8602269989
 20
57.9896220213
 10
199.8340488967
 20
58.0612864067
 10
199.8111303283
 20
58.1329247974
 10
199.7915694042
 20
58.2042305467
 10
199.7754499659
 20
58.2748980561
 10
199.7628417482
 20
58.3446201902
 10
199.7537982134
 20
58.413097116
 10
199.7483570773
 20
58.4800374081
 10
199.7465409308
 20
58.5451548047
  0
LWPOLYLINE
  5
326
100
AcDbEntity
  8
0
100
AcDbPolyline
 62
7
  6
CONTINUOUS
 90
7
 70
0
 10
184.0339082289
 20
62.333379982
 10
184.023088183
 20
62.3049756115
 10
184.0069687382
 20
62.2529224008
 10
183.9943605195
 20
62.1977599044
 10
183.9853169878
 20
62.1397262267
 10
183.9798758552
 20
62.079069236
 10
183.9780597103
 20
62.016049108
  0
LINE
  5
327
100
AcDbEntity
  8
0
100
AcDbLine
 62
250
  6
CONTINUOUS
 10
184.217411457
 20
62.5318136733
 11
183.9780597103
 21
62.016049108
  0
LWPOLYLINE
  5
328
100
AcDbEntity
  8
0
100
AcDbPolyline
 62
7
  6
CONTINUOUS
 90
7
 70
0
 10
179.0344335227
 20
53.3914884656
 10
179.0115149542
 20
53.3463158632
 10
178.9853368521
 20
53.3048812939
 10
178.9560130817
 20
53.2673642414
 10
178.9236710138
 20
53.2339258816
 10
178.8884485852
 20
53.2047072106
 10
178.8505237749
 20
53.1798480223
  0
LWPOLYLINE
  5
329
100
AcDbEntity
  8
0
100
AcDbPolyline
 62
7
  6
CONTINUOUS
 90
3
 70
0
 10
184.0655676865
 20
62.3988655185
 10
184.0426491146
 20
62.3536929129
 10
184.0339082289
 20
62.333379982
  0
LINE
  5
32A
100
AcDbEntity
  8
0
100
AcDbLine
 62
250
  6
CONTINUOUS
 10
184.3316131009
 20
65.6492668754
 11
184.6851664915
 21
66.2616393104
  0
LINE
  5
32B
100
AcDbEntity
  8
0
100
AcDbLine
 62
250
  6
CONTINUOUS
 10
177.8969413921
 20
52.6269250004
 11
178.2504947827
 21
53.2392974355
  0
LWPOLYLINE
  5
32C
100
AcDbEntity
  8
0
100
AcDbPolyline
 62
7
  6
CONTINUOUS
 90
4
 70
0
 10
184.1534116394
 20
62.5112555031
 10
184.1210695632
 20
62.4778171388
 10
184.0917457899
 20
62.4403000861
 10
184.0655676865
 20
62.3988655185
  0
LWPOLYLINE
  5
32D
100
AcDbEntity
  8
0
100
AcDbPolyline
 62
7
  6
CONTINUOUS
 90
3
 70
0
 10
184.0119902605
 20
62.4296005634
 10
184.0472126891
 20
62.4588192344
 10
184.0851374994
 20
62.4836784227
  0
LINE
  5
32E
100
AcDbEntity
  8
0
100
AcDbLine
 62
250
  6
CONTINUOUS
 10
184.8265878478
 20
66.3432942291
 11
184.6851664915
 21
66.2616393104
  0
LINE
  5
32F
100
AcDbEntity
  8
0
100
AcDbLine
 62
250
  6
CONTINUOUS
 10
183.8366383541
 20
61.9343941894
 11
183.9780597103
 21
62.016049108
  0
LINE
  5
330
100
AcDbEntity
  8
0
100
AcDbLine
 62
250
  6
CONTINUOUS
 10
199.887962287
 20
69.5675114324
 11
199.7465409308
 21
69.4858565137
  0
LWPOLYLINE
  5
331
100
AcDbEntity
  8
0
100
AcDbPolyline
 62
7
  6
CONTINUOUS
 90
13
 70
0
 10
184.0851374994
 20
62.4836784227
 10
184.1256889152
 20
62.5041216933
 10
184.1686067277
 20
62.5200115302
 10
184.2137387007
 20
62.5312971
 10
184.2608937771
 20
62.537929463
 10
184.3098686541
 20
62.5398789096
 10
184.3604508817
 20
62.5371365946
 10
184.4124238437
 20
62.5297142804
 10
184.4655648917
 20
62.5176437817
 10
184.5196431337
 20
62.5009779615
 10
184.5744257194
 20
62.4797895087
 10
184.6296790461
 20
62.4541696917
 10
184.6851664915
 20
62.4242290095
  0
LWPOLYLINE
  5
332
100
AcDbEntity
  8
0
100
AcDbPolyline
 62
7
  6
CONTINUOUS
 90
13
 70
0
 10
199.9950400761
 20
70.0351407471
 10
200.0355916818
 20
70.0555841003
 10
200.0785095247
 20
70.0714739226
 10
200.1236415236
 20
70.0827594722
 10
200.1707965932
 20
70.0893918087
 10
200.2197714549
 20
70.0913412321
 10
200.2703537282
 20
70.0885988922
 10
200.3223269007
 20
70.0811765157
 10
200.3754682325
 20
70.0691059012
 10
200.4295465991
 20
70.0524399769
 10
200.4843290625
 20
70.0312515071
 10
200.5395820928
 20
70.0056317803
 10
200.5950690682
 20
69.9756913339
  0
LWPOLYLINE
  5
333
100
AcDbEntity
  8
0
100
AcDbPolyline
 62
7
  6
CONTINUOUS
 90
11
 70
0
 10
178.7670543262
 20
69.881155521
 10
178.7219223273
 20
69.8698699714
 10
178.6747672578
 20
69.8632376349
 10
178.6257923961
 20
69.8612882115
 10
178.5752101228
 20
69.8640305514
 10
178.5232369503
 20
69.8714529279
 10
178.4700956184
 20
69.8835235424
 10
178.4160172519
 20
69.9001894668
 10
178.3612347884
 20
69.9213779365
 10
178.3059817582
 20
69.9469976633
 10
178.2504947827
 20
69.9769381097
  0
LINE
  5
334
100
AcDbEntity
  8
0
100
AcDbLine
 62
250
  6
CONTINUOUS
 10
151.3097264195
 20
69.3660491801
 11
152.0168332007
 21
69.3660491801
  0
LINE
  5
335
100
AcDbEntity
  8
0
100
AcDbLine
 62
250
  6
CONTINUOUS
 10
199.0394341496
 20
69.4858565137
 11
199.7465409308
 21
69.4858565137
  0
LINE
  5
336
100
AcDbEntity
  8
0
100
AcDbLine
 62
250
  6
CONTINUOUS
 10
167.2196289962
 20
71.1205725392
 11
167.9267357774
 21
71.1205725392
  0
LINE
  5
337
100
AcDbEntity
  8
0
100
AcDbLine
 62
250
  6
CONTINUOUS
 10
178.9583789535
 20
70.0080318477
 11
178.391916139
 21
70.0585930284
  0
LWPOLYLINE
  5
338
100
AcDbEntity
  8
0
100
AcDbPolyline
 62
7
  6
CONTINUOUS
 90
6
 70
0
 10
178.6947451545
 20
69.9482633755
 10
178.7166314952
 20
69.9456854685
 10
178.7672137731
 20
69.94294313
 10
178.816188634
 20
69.9448925554
 10
178.8633437051
 20
69.9515248942
 10
178.9084757121
 20
69.9628104488
  0
LINE
  5
339
100
AcDbEntity
  8
0
100
AcDbLine
 62
250
  6
CONTINUOUS
 10
153.4903229677
 20
90.1331499795
 11
153.9095050733
 21
89.8911194853
  0
LINE
  5
33A
100
AcDbEntity
  8
0
100
AcDbLine
 62
7
  6
CONTINUOUS
 10
153.6366280013
 20
90.1459120262
 11
154.0558101069
 21
89.9038815321
  0
LWPOLYLINE
  5
33B
100
AcDbEntity
  8
0
100
AcDbPolyline
 62
250
  6
CONTINUOUS
 90
19
 70
0
 10
153.9095050733
 20
89.8911194853
 10
153.9282956349
 20
89.8796881414
 10
153.9469150805
 20
89.8664643564
 10
153.9652217598
 20
89.851548732
 10
153.9830763994
 20
89.8350547432
 10
154.0003431697
 20
89.8171078682
 10
154.0168907174
 20
89.7978446323
 10
154.03259316
 20
89.7774115728
 10
154.0473310295
 20
89.7559641444
 10
154.0609921916
 20
89.7336655316
 10
154.0734727153
 20
89.7106853811
 10
154.0846776576
 20
89.6871985143
 10
154.0945217745
 20
89.6633836179
 10
154.1029301755
 20
89.6394218757
 10
154.109838899
 20
89.6154955723
 10
154.1151953924
 20
89.5917867129
 10
154.118958906
 20
89.5684756602
 10
154.1211008065
 20
89.5457397619
 10
154.1216047989
 20
89.5237519846
  0
LINE
  5
33C
100
AcDbEntity
  8
0
100
AcDbLine
 62
7
  6
CONTINUOUS
 10
195.0089254968
 20
71.8130216957
 11
195.0089254968
 21
60.8723199867
  0
LINE
  5
33D
100
AcDbEntity
  8
0
100
AcDbLine
 62
7
  6
CONTINUOUS
 10
195.0089254968
 20
55.0753810214
 11
195.0089254968
 21
44.1346793124
  0
LWPOLYLINE
  5
33E
100
AcDbEntity
  8
0
100
AcDbPolyline
 62
7
  6
CONTINUOUS
 90
28
 70
0
 10
195.0089254968
 20
60.8723199867
 10
195.0068360457
 20
60.7923835574
 10
195.000749986
 20
60.7155654176
 10
194.9906673179
 20
60.6418655674
 10
194.9765272016
 20
60.5710555422
 10
194.9583904768
 20
60.5033638066
 10
194.9364396629
 20
60.4394757542
 10
194.910635908
 20
60.3794302438
 10
194.8810180639
 20
60.3231884166
 10
194.8478852064
 20
60.2713190903
 10
194.8112017355
 20
60.223866856
 10
194.7710032511
 20
60.1807871225
 10
194.7276956284
 20
60.1425149344
 10
194.681247426
 20
60.1090990449
 10
194.6316900853
 20
60.0804907008
 10
194.5795238058
 20
60.0569786868
 10
194.5247220354
 20
60.038614615
 10
194.4673113261
 20
60.0253468733
 10
194.4078715336
 20
60.0173094111
 10
194.3463819134
 20
60.0145553668
 10
194.28286321
 20
60.0170316019
 10
194.2179575115
 20
60.0247126499
 10
194.1516505744
 20
60.0376515684
 10
194.0839566422
 20
60.0557952998
 10
194.0155605336
 20
60.0789592051
 10
193.9466905217
 20
60.1070817378
 10
193.8771183334
 20
60.1402244444
 10
193.8068439688
 20
60.1783873248
  0
LWPOLYLINE
  5
33F
100
AcDbEntity
  8
0
100
AcDbPolyline
 62
7
  6
CONTINUOUS
 90
28
 70
0
 10
195.0089254968
 20
44.1346793124
 10
195.0068360073
 20
44.054742525
 10
195.0007499017
 20
43.9779241109
 10
194.9906671801
 20
43.9042240701
 10
194.9765269974
 20
43.8334139554
 10
194.9583901986
 20
43.7657222139
 10
194.936439319
 20
43.7018341873
 10
194.9106355302
 20
43.641788741
 10
194.8810176606
 20
43.5855470095
 10
194.84788473
 20
43.5336777383
 10
194.8112010906
 20
43.4862254626
 10
194.7710023902
 20
43.4431456472
 10
194.7276945916
 20
43.4048734321
 10
194.6812462736
 20
43.3714576183
 10
194.6316888575
 20
43.3428494048
 10
194.5795225703
 20
43.3193375289
 10
194.5247209112
 20
43.3009735958
 10
194.4673103809
 20
43.2877060002
 10
194.4078707084
 20
43.2796686632
 10
194.3463810771
 20
43.2769147097
 10
194.2828623036
 20
43.2793910148
 10
194.2179565664
 20
43.2870721241
 10
194.1516496399
 20
43.3000111125
 10
194.0839557497
 20
43.3181549051
 10
194.0155597519
 20
43.341318823
 10
193.9466899319
 20
43.3694413068
 10
193.8771180042
 20
43.402583916
 10
193.8068439688
 20
43.4407466505
  0
LWPOLYLINE
  5
340
100
AcDbEntity
  8
0
100
AcDbPolyline
 62
7
  6
CONTINUOUS
 90
7
 70
0
 10
195.0089254968
 20
61.28059458
 10
195.0071093195
 20
61.217573899
 10
195.0016681133
 20
61.1569165926
 10
194.9926245027
 20
61.0988828167
 10
194.980016257
 20
61.0437204963
 10
194.9638968604
 20
60.991667614
 10
194.9443359876
 20
60.942950543
  0
LWPOLYLINE
  5
341
100
AcDbEntity
  8
0
100
AcDbPolyline
 62
7
  6
CONTINUOUS
 90
7
 70
0
 10
195.0089254968
 20
44.5429539058
 10
195.0071093503
 20
44.4799337496
 10
195.0016682142
 20
44.4192767451
 10
194.9926246795
 20
44.3612430666
 10
194.9800164618
 20
44.3060805862
 10
194.9638970234
 20
44.2540274002
 10
194.9443360993
 20
44.2053101157
  0
LINE
  5
342
100
AcDbEntity
  8
0
100
AcDbLine
 62
250
  6
CONTINUOUS
 10
184.3366898992
 20
51.8481378466
 11
183.9780597103
 21
51.075347399
  0
LINE
  5
343
100
AcDbEntity
  8
0
100
AcDbLine
 62
250
  6
CONTINUOUS
 10
184.3316131009
 20
48.9116262011
 11
184.6851664915
 21
49.5239986362
  0
LWPOLYLINE
  5
344
100
AcDbEntity
  8
0
100
AcDbPolyline
 62
7
  6
CONTINUOUS
 90
4
 70
0
 10
200.063314331
 20
70.062717934
 10
200.030972261
 20
70.0292796025
 10
200.0016484555
 20
69.9917625369
 10
199.9754703163
 20
69.9503279365
  0
LWPOLYLINE
  5
345
100
AcDbEntity
  8
0
100
AcDbPolyline
 62
7
  6
CONTINUOUS
 90
3
 70
0
 10
199.9218930063
 20
69.9810630446
 10
199.9571154323
 20
70.0102816819
 10
199.9950400761
 20
70.0351407471
  0
LINE
  5
346
100
AcDbEntity
  8
0
100
AcDbLine
 62
250
  6
CONTINUOUS
 10
178.2504947827
 20
53.2392974355
 11
178.391916139
 21
53.3209523541
  0
LINE
  5
347
100
AcDbEntity
  8
0
100
AcDbLine
 62
250
  6
CONTINUOUS
 10
194.3018187157
 20
60.8724146785
 11
194.1603973594
 21
60.7907597598
  0
LINE
  5
348
100
AcDbEntity
  8
0
100
AcDbLine
 62
7
  6
CONTINUOUS
 10
176.98383185
 20
54.5481543982
 11
178.0776763417
 21
55.1063511291
  0
LWPOLYLINE
  5
349
100
AcDbEntity
  8
0
100
AcDbPolyline
 62
7
  6
CONTINUOUS
 90
3
 70
0
 10
178.8505237749
 20
53.1798480223
 10
178.809972359
 20
53.1594047517
 10
178.7670545465
 20
53.1435149148
  0
LWPOLYLINE
  5
34A
100
AcDbEntity
  8
0
100
AcDbPolyline
 62
7
  6
CONTINUOUS
 90
3
 70
0
 10
194.7604263516
 20
60.7313103466
 10
194.7198747459
 20
60.7108669935
 10
194.6769569029
 20
60.6949771711
  0
LINE
  5
34B
100
AcDbEntity
  8
0
100
AcDbLine
 62
250
  6
CONTINUOUS
 10
167.2196289962
 20
76.9175115045
 11
167.9267357774
 21
76.9175115045
  0
LINE
  5
34C
100
AcDbEntity
  8
0
100
AcDbLine
 62
250
  6
CONTINUOUS
 10
183.1295315729
 20
78.6720348636
 11
183.8366383541
 21
78.6720348636
  0
LINE
  5
34D
100
AcDbEntity
  8
0
100
AcDbLine
 62
250
  6
CONTINUOUS
 10
169.7652134085
 20
75.4537348901
 11
168.9166852711
 21
75.529472579
  0
LINE
  5
34E
100
AcDbEntity
  8
0
100
AcDbLine
 62
250
  6
CONTINUOUS
 10
163.0484763768
 20
79.1942101976
 11
162.4820135623
 21
79.2447713783
  0
LWPOLYLINE
  5
34F
100
AcDbEntity
  8
0
100
AcDbPolyline
 62
7
  6
CONTINUOUS
 90
6
 70
0
 10
162.7848425778
 20
79.1344417253
 10
162.8067289185
 20
79.1318638183
 10
162.8573111964
 20
79.1291214798
 10
162.9062860573
 20
79.1310709052
 10
162.9534411284
 20
79.1377032441
 10
162.9985731354
 20
79.1489887987
  0
LWPOLYLINE
  5
350
100
AcDbEntity
  8
0
100
AcDbPolyline
 62
250
  6
CONTINUOUS
 90
10
 70
0
 10
154.055806483
 20
89.9038836244
 10
154.0433187431
 20
89.9099816653
 10
154.0288250476
 20
89.9146544372
 10
154.0134309501
 20
89.917294783
 10
153.9972549047
 20
89.9178916556
 10
153.9804211547
 20
89.9164492676
 10
153.963092513
 20
89.912995939
 10
153.9454138982
 20
89.9075819767
 10
153.9275072071
 20
89.9002655518
 10
153.9095050733
 20
89.8911194853
  0
LWPOLYLINE
  5
351
100
AcDbEntity
  8
0
100
AcDbPolyline
 62
250
  6
CONTINUOUS
 90
10
 70
0
 10
153.6366182638
 20
90.1459176478
 10
153.6243273703
 20
90.1519345615
 10
153.60989428
 20
90.1566231413
 10
153.5945419478
 20
90.1592948842
 10
153.5783691434
 20
90.1599294408
 10
153.5615107972
 20
90.1585185129
 10
153.5441388331
 20
90.155084184
 10
153.5264018385
 20
90.1496732506
 10
153.508418617
 20
90.1423389103
 10
153.4903229677
 20
90.1331499795
  0
LINE
  5
352
100
AcDbEntity
  8
0
100
AcDbLine
 62
7
  6
CONTINUOUS
 10
152.5118079475
 20
97.7383242252
 11
161.9870388154
 21
92.2674446747
  0
LINE
  5
353
100
AcDbEntity
  8
0
100
AcDbLine
 62
7
  6
CONTINUOUS
 10
168.4217105242
 20
88.5521458754
 11
177.8969413921
 21
83.0812663248
  0
LINE
  5
354
100
AcDbEntity
  8
0
100
AcDbLine
 62
7
  6
CONTINUOUS
 10
184.3316131009
 20
79.3659675255
 11
193.8068439688
 21
73.8950879749
  0
LINE
  5
355
100
AcDbEntity
  8
0
100
AcDbLine
 62
7
  6
CONTINUOUS
 10
200.2415156776
 20
70.1797891756
 11
209.7167465455
 21
64.708909625
  0
LWPOLYLINE
  5
356
100
AcDbEntity
  8
0
100
AcDbPolyline
 62
7
  6
CONTINUOUS
 90
28
 70
0
 10
161.9870388154
 20
92.2674446747
 10
162.0573128508
 20
92.2244567147
 10
162.1268847785
 20
92.1772594057
 10
162.1957545985
 20
92.1258527475
 10
162.2641505963
 20
92.0700346816
 10
162.3318444865
 20
92.0100072666
 10
162.398151413
 20
91.9463766782
 10
162.4630571502
 20
91.8791062692
 10
162.5265759237
 20
91.8082326868
 10
162.588065555
 20
91.7344720484
 10
162.6475052275
 20
91.6577952675
 10
162.7049157578
 20
91.5782314306
 10
162.7597174169
 20
91.4965839152
 10
162.8118837041
 20
91.4128317183
 10
162.8614411202
 20
91.326995843
 10
162.9078894382
 20
91.2399426758
 10
162.9511972368
 20
91.1516597005
 10
162.9913959372
 20
91.0621594334
 10
163.0280795766
 20
90.9723458105
 10
163.0612125073
 20
90.8822154615
 10
163.0908303768
 20
90.7917717566
 10
163.1166341656
 20
90.7019287419
 10
163.1385850452
 20
90.6126923897
 10
163.156721844
 20
90.5240567276
 10
163.1708620267
 20
90.4369178843
 10
163.1809447483
 20
90.3515745692
 10
163.1870308539
 20
90.267728073
 10
163.1891203435
 20
90.1853783954
  0
LWPOLYLINE
  5
357
100
AcDbEntity
  8
0
100
AcDbPolyline
 62
7
  6
CONTINUOUS
 90
28
 70
0
 10
177.8969413921
 20
83.0812663248
 10
177.9672154275
 20
83.0382783649
 10
178.0367873552
 20
82.9910810558
 10
178.1056571752
 20
82.9396743976
 10
178.174053173
 20
82.8838563317
 10
178.2417470632
 20
82.8238289168
 10
178.3080539897
 20
82.7601983284
 10
178.3729597269
 20
82.6929279193
 10
178.4364785004
 20
82.6220543369
 10
178.4979681317
 20
82.5482936986
 10
178.5574078042
 20
82.4716169176
 10
178.6148183345
 20
82.3920530807
 10
178.6696199936
 20
82.3104055654
 10
178.7217862808
 20
82.2266533685
 10
178.7713436969
 20
82.1408174931
 10
178.8177920149
 20
82.053764326
 10
178.8610998135
 20
81.9654813506
 10
178.9012985139
 20
81.8759810836
 10
178.9379821533
 20
81.7861674606
 10
178.971115084
 20
81.6960371116
 10
179.0007329535
 20
81.6055934068
 10
179.0265367423
 20
81.515750392
 10
179.0484876219
 20
81.4265140398
 10
179.0666244207
 20
81.3378783777
 10
179.0807646034
 20
81.2507395344
 10
179.090847325
 20
81.1653962194
 10
179.0969334306
 20
81.0815497231
 10
179.0990229202
 20
80.9992000456
  0
LWPOLYLINE
  5
358
100
AcDbEntity
  8
0
100
AcDbPolyline
 62
7
  6
CONTINUOUS
 90
28
 70
0
 10
193.8068439688
 20
73.8950879749
 10
193.8771180042
 20
73.852100015
 10
193.9466899319
 20
73.8049027059
 10
194.0155597519
 20
73.7534960477
 10
194.0839557497
 20
73.6976779819
 10
194.1516496399
 20
73.6376505669
 10
194.2179565664
 20
73.5740199785
 10
194.2828623036
 20
73.5067495695
 10
194.3463810771
 20
73.435875987
 10
194.4078707084
 20
73.3621153487
 10
194.4673103809
 20
73.2854385677
 10
194.5247209112
 20
73.2058747308
 10
194.5795225703
 20
73.1242272155
 10
194.6316888575
 20
73.0404750186
 10
194.6812462736
 20
72.9546391432
 10
194.7276945916
 20
72.8675859761
 10
194.7710023902
 20
72.7793030008
 10
194.8112010906
 20
72.6898027337
 10
194.84788473
 20
72.5999891107
 10
194.8810176606
 20
72.5098587618
 10
194.9106355302
 20
72.4194150569
 10
194.936439319
 20
72.3295720421
 10
194.9583901986
 20
72.2403356899
 10
194.9765269974
 20
72.1517000279
 10
194.9906671801
 20
72.0645611845
 10
195.0007499017
 20
71.9792178695
 10
195.0068360073
 20
71.8953713732
 10
195.0089254968
 20
71.8130216957
  0
LWPOLYLINE
  5
359
100
AcDbEntity
  8
0
100
AcDbPolyline
 62
7
  6
CONTINUOUS
 90
28
 70
0
 10
209.7167465455
 20
64.708909625
 10
209.7870205808
 20
64.6659216651
 10
209.8565925085
 20
64.618724356
 10
209.9254623286
 20
64.5673176979
 10
209.9938583264
 20
64.511499632
 10
210.0615522166
 20
64.451472217
 10
210.1278591431
 20
64.3878416286
 10
210.1927648803
 20
64.3205712196
 10
210.2562836538
 20
64.2496976372
 10
210.3177732851
 20
64.1759369988
 10
210.3772129576
 20
64.0992602179
 10
210.4346234879
 20
64.019696381
 10
210.489425147
 20
63.9380488656
 10
210.5415914342
 20
63.8542966687
 10
210.5911488503
 20
63.7684607933
 10
210.6375971683
 20
63.6814076262
 10
210.6809049669
 20
63.5931246509
 10
210.7211036673
 20
63.5036243838
 10
210.7577873067
 20
63.4138107608
 10
210.7909202373
 20
63.3236804119
 10
210.8205381069
 20
63.233236707
 10
210.8463418957
 20
63.1433936923
 10
210.8682927753
 20
63.0541573401
 10
210.8864295741
 20
62.965521678
 10
210.9005697568
 20
62.8783828347
 10
210.9106524784
 20
62.7930395196
 10
210.916738584
 20
62.7091930234
 10
210.9188280735
 20
62.6268433458
  0
LINE
  5
35A
100
AcDbEntity
  8
0
100
AcDbLine
 62
7
  6
CONTINUOUS
 10
232.0644589198
 20
0.8120291008
 11
232.06482135
 21
0.8113876631
  0
LWPOLYLINE
  5
35B
100
AcDbEntity
  8
0
100
AcDbPolyline
 62
7
  6
CONTINUOUS
 90
25
 70
0
 10
199.887962287
 20
41.8891690491
 10
199.8897784669
 20
41.8240510449
 10
199.8952196778
 20
41.7571103489
 10
199.9042632907
 20
41.6886332456
 10
199.9168715274
 20
41.6189112971
 10
199.9329909017
 20
41.548244229
 10
199.952551753
 20
41.4769388114
 10
199.9754703163
 20
41.4053004663
 10
200.0016484555
 20
41.333636007
 10
200.030972261
 20
41.2622565458
 10
200.063314331
 20
41.1914704025
 10
200.0985367497
 20
41.1215777985
 10
200.136490466
 20
41.0528739421
 10
200.1770129992
 20
40.9856529624
 10
200.2199308514
 20
40.9202026724
 10
200.2650628583
 20
40.8567998075
 10
200.3122179294
 20
40.7957139744
 10
200.3611927904
 20
40.7372096072
 10
200.4117750682
 20
40.6815407991
 10
200.463748259
 20
40.6289458397
 10
200.5168896156
 20
40.5796501544
 10
200.5709679965
 20
40.5338677272
 10
200.6257504577
 20
40.4917947862
 10
200.6810034742
 20
40.4536097105
 10
200.7364904245
 20
40.419475205
  0
LWPOLYLINE
  5
35C
100
AcDbEntity
  8
0
100
AcDbPolyline
 62
7
  6
CONTINUOUS
 90
25
 70
0
 10
199.887962287
 20
58.6268097234
 10
199.8897784319
 20
58.5616923569
 10
199.8952195645
 20
58.4947520826
 10
199.9042630962
 20
58.4262751612
 10
199.9168713149
 20
58.3565530099
 10
199.9329907597
 20
58.2858854683
 10
199.9525516913
 20
58.2145796935
 10
199.9754702632
 20
58.1429412955
 10
200.0016483666
 20
58.0712769102
 10
200.0309721399
 20
57.9998974992
 10
200.0633142161
 20
57.9291113159
 10
200.0985366561
 20
57.85921865
 10
200.1364903829
 20
57.7905147604
 10
200.1770128924
 20
57.7232938064
 10
200.2199307017
 20
57.6578435657
 10
200.2650626771
 20
57.5944407262
 10
200.3122177756
 20
57.5333548401
 10
200.3611926827
 20
57.4748504049
 10
200.4117749191
 20
57.4191816309
 10
200.4637478407
 20
57.3665869194
 10
200.5168888224
 20
57.317291532
 10
200.5709670187
 20
57.2715091905
 10
200.6257495969
 20
57.2294360883
 10
200.6810029394
 20
57.191250734
 10
200.7364904245
 20
57.1571158792
  0
LWPOLYLINE
  5
35D
100
AcDbEntity
  8
0
100
AcDbPolyline
 62
7
  6
CONTINUOUS
 90
28
 70
0
 10
200.2465924759
 20
42.6619594967
 10
200.2489188887
 20
42.5702701559
 10
200.2556952205
 20
42.4769140662
 10
200.2669214713
 20
42.3818912277
 10
200.2826653755
 20
42.2848690297
 10
200.3028591986
 20
42.1861800829
 10
200.3272997376
 20
42.086822219
 10
200.3560302717
 20
41.9867887185
 10
200.3890075216
 20
41.886086301
 10
200.4258984467
 20
41.7857329569
 10
200.4667426623
 20
41.6857326283
 10
200.5115005531
 20
41.5860813731
 10
200.5597202322
 20
41.4877853565
 10
200.6114367132
 20
41.3908584103
 10
200.6666149825
 20
41.2952867026
 10
200.724698112
 20
41.202034903
 10
200.7857156701
 20
41.1111263321
 10
200.8496380885
 20
41.0225376692
 10
200.9158197338
 20
40.9371636219
 10
200.9842836846
 20
40.8550367014
 10
201.0550068625
 20
40.7761243966
 10
201.1272743983
 20
40.701223881
 10
201.2011021812
 20
40.6303758863
 10
201.276474322
 20
40.5635396809
 10
201.3526282841
 20
40.5013902433
 10
201.4293098887
 20
40.4441525664
 10
201.5067733146
 20
40.3916016573
 10
201.5850185619
 20
40.3437375161
  0
LWPOLYLINE
  5
35E
100
AcDbEntity
  8
0
100
AcDbPolyline
 62
7
  6
CONTINUOUS
 90
28
 70
0
 10
200.2465924759
 20
59.399600171
 10
200.2489189689
 20
59.3079099647
 10
200.255695401
 20
59.2145531597
 10
200.2669217724
 20
59.119529756
 10
200.2826658371
 20
59.0225071422
 10
200.302859841
 20
58.9238179297
 10
200.3273005218
 20
58.8244599526
 10
200.3560311007
 20
58.7244266022
 10
200.3890083566
 20
58.6237244874
 10
200.4258993635
 20
58.5233712682
 10
200.4667438185
 20
58.4233706723
 10
200.5115020246
 20
58.3237189721
 10
200.5597219652
 20
58.2254226453
 10
200.6114386228
 20
58.1284956351
 10
200.666617015
 20
58.0329239984
 10
200.7247001774
 20
57.9396723837
 10
200.7857175977
 20
57.8487641943
 10
200.8496397882
 20
57.760176027
 10
200.9158213218
 20
57.6748023206
 10
200.9842854217
 20
57.5926754086
 10
201.0550088647
 20
57.5137629576
 10
201.1272765529
 20
57.4388624057
 10
201.2011043087
 20
57.3680145904
 10
201.2764763098
 20
57.3011786744
 10
201.352629992
 20
57.2390295837
 10
201.4293111675
 20
57.1817922938
 10
201.5067740241
 20
57.1292418294
 10
201.5850185619
 20
57.0813781903
  0
LINE
  5
35F
100
AcDbEntity
  8
0
100
AcDbLine
 62
7
  6
CONTINUOUS
 10
199.0394341496
 20
41.8075141305
 11
199.0394341496
 21
52.7482158395
  0
LINE
  5
360
100
AcDbEntity
  8
0
100
AcDbLine
 62
7
  6
CONTINUOUS
 10
199.0394341496
 20
58.5451548047
 11
199.0394341496
 21
69.4858565137
  0
LINE
  5
361
100
AcDbEntity
  8
0
100
AcDbLine
 62
7
  6
CONTINUOUS
 10
199.7465409308
 20
41.8075141305
 11
199.7465409308
 21
52.7482158395
  0
LINE
  5
362
100
AcDbEntity
  8
0
100
AcDbLine
 62
7
  6
CONTINUOUS
 10
199.7465409308
 20
58.5451548047
 11
199.7465409308
 21
69.4858565137
  0
LINE
  5
363
100
AcDbEntity
  8
0
100
AcDbLine
 62
7
  6
CONTINUOUS
 10
199.887962287
 20
69.5675114324
 11
199.887962287
 21
58.6268097234
  0
LINE
  5
364
100
AcDbEntity
  8
0
100
AcDbLine
 62
7
  6
CONTINUOUS
 10
199.887962287
 20
52.8298707581
 11
199.887962287
 21
41.8891690491
  0
LINE
  5
365
100
AcDbEntity
  8
0
100
AcDbLine
 62
7
  6
CONTINUOUS
 10
200.2465924759
 20
70.0898871188
 11
200.2465924759
 21
59.399600171
  0
LINE
  5
366
100
AcDbEntity
  8
0
100
AcDbLine
 62
7
  6
CONTINUOUS
 10
200.2465924759
 20
53.3522464461
 11
200.2465924759
 21
42.6619594967
  0
LWPOLYLINE
  5
367
100
AcDbEntity
  8
0
100
AcDbPolyline
 62
7
  6
CONTINUOUS
 90
28
 70
0
 10
199.0394341496
 20
69.4858565137
 10
199.0415236008
 20
69.5657929431
 10
199.0476096604
 20
69.6426110828
 10
199.0576923285
 20
69.716310933
 10
199.0718324449
 20
69.7871209582
 10
199.0899691697
 20
69.8548126938
 10
199.1119199835
 20
69.9187007462
 10
199.1377237385
 20
69.9787462566
 10
199.1673415825
 20
70.0349880838
 10
199.2004744401
 20
70.0868574101
 10
199.237157911
 20
70.1343096445
 10
199.2773563954
 20
70.1773893779
 10
199.3206640181
 20
70.215661566
 10
199.3671122205
 20
70.2490774555
 10
199.4166695611
 20
70.2776857996
 10
199.4688358406
 20
70.3011978136
 10
199.523637611
 20
70.3195618854
 10
199.5810483203
 20
70.3328296271
 10
199.6404881129
 20
70.3408670893
 10
199.701977733
 20
70.3436211337
 10
199.7654964364
 20
70.3411448986
 10
199.8304021349
 20
70.3334638505
 10
199.8967090721
 20
70.320524932
 10
199.9644030043
 20
70.3023812006
 10
200.0327991128
 20
70.2792172954
 10
200.1016691248
 20
70.2510947626
 10
200.171241313
 20
70.217952056
 10
200.2415156776
 20
70.1797891756
  0
LWPOLYLINE
  5
368
100
AcDbEntity
  8
0
100
AcDbPolyline
 62
7
  6
CONTINUOUS
 90
28
 70
0
 10
199.0394341496
 20
52.7482158395
 10
199.0415236391
 20
52.8281526269
 10
199.0476097447
 20
52.904971041
 10
199.0576924663
 20
52.9786710818
 10
199.0718326491
 20
53.0494811966
 10
199.0899694479
 20
53.117172938
 10
199.1119203275
 20
53.1810609646
 10
199.1377241162
 20
53.2411064109
 10
199.1673419858
 20
53.2973481424
 10
199.2004749164
 20
53.3492174136
 10
199.2371585558
 20
53.3966696893
 10
199.2773572563
 20
53.4397495047
 10
199.3206650548
 20
53.4780217198
 10
199.3671133728
 20
53.5114375336
 10
199.4166707889
 20
53.5400457471
 10
199.4688370762
 20
53.563557623
 10
199.5236387353
 20
53.5819215561
 10
199.5810492656
 20
53.5951891517
 10
199.6404889381
 20
53.6032264887
 10
199.7019785694
 20
53.6059804422
 10
199.7654973429
 20
53.6035041371
 10
199.83040308
 20
53.5958230278
 10
199.8967100066
 20
53.5828840394
 10
199.9644038967
 20
53.5647402469
 10
200.0327998945
 20
53.5415763289
 10
200.1016697146
 20
53.5134538451
 10
200.1712416423
 20
53.4803112359
 10
200.2415156776
 20
53.4421485014
  0
LWPOLYLINE
  5
369
100
AcDbEntity
  8
0
100
AcDbPolyline
 62
7
  6
CONTINUOUS
 90
11
 70
0
 10
199.7465409308
 20
69.4858565137
 10
199.7483571081
 20
69.5488771947
 10
199.7537983143
 20
69.6095345011
 10
199.7628419249
 20
69.667568277
 10
199.7754501706
 20
69.7227305975
 10
199.7915695673
 20
69.7747834798
 10
199.81113044
 20
69.8235005507
 10
199.8340490072
 20
69.8686731011
 10
199.860227137
 20
69.910107672
 10
199.8895509338
 20
69.9476247173
 10
199.9218930063
 20
69.9810630446
  0
LWPOLYLINE
  5
36A
100
AcDbEntity
  8
0
100
AcDbPolyline
 62
7
  6
CONTINUOUS
 90
11
 70
0
 10
199.7465409308
 20
52.7482158395
 10
199.7483570773
 20
52.8112359956
 10
199.7537982134
 20
52.8718930002
 10
199.7628417482
 20
52.9299266787
 10
199.7754499659
 20
52.9850891591
 10
199.7915694042
 20
53.0371423451
 10
199.8111303283
 20
53.0858596295
 10
199.8340488967
 20
53.1310322319
 10
199.8602269989
 20
53.1724668012
 10
199.8895507692
 20
53.2099838537
 10
199.9218928372
 20
53.2434222135
  0
LWPOLYLINE
  5
36B
100
AcDbEntity
  8
0
100
AcDbPolyline
 62
7
  6
CONTINUOUS
 90
7
 70
0
 10
199.9438108056
 20
69.8848423063
 10
199.9329909017
 20
69.8564383369
 10
199.9168715274
 20
69.8043855183
 10
199.9042632907
 20
69.7492232455
 10
199.8952196778
 20
69.6911894796
 10
199.8897784669
 20
69.6305321576
 10
199.887962287
 20
69.5675114324
  0
LINE
  5
36C
100
AcDbEntity
  8
0
100
AcDbLine
 62
250
  6
CONTINUOUS
 10
200.1273140393
 20
70.0832760097
 11
199.887962287
 21
69.5675114324
  0
LWPOLYLINE
  5
36D
100
AcDbEntity
  8
0
100
AcDbPolyline
 62
7
  6
CONTINUOUS
 90
7
 70
0
 10
194.9443359876
 20
60.942950543
 10
194.9214174204
 20
60.8977779926
 10
194.8952392906
 20
60.8563434217
 10
194.8659154939
 20
60.8188263764
 10
194.8335734214
 20
60.7853880492
 10
194.7983509954
 20
60.7561694119
 10
194.7604263516
 20
60.7313103466
  0
LWPOLYLINE
  5
36E
100
AcDbEntity
  8
0
100
AcDbPolyline
 62
7
  6
CONTINUOUS
 90
3
 70
0
 10
199.9754703163
 20
69.9503279365
 10
199.952551753
 20
69.9051553738
 10
199.9438108056
 20
69.8848423063
  0
LINE
  5
36F
100
AcDbEntity
  8
0
100
AcDbLine
 62
250
  6
CONTINUOUS
 10
193.8068439688
 20
60.1783873248
 11
194.1603973594
 21
60.7907597598
  0
LINE
  5
370
100
AcDbEntity
  8
0
100
AcDbLine
 62
250
  6
CONTINUOUS
 10
183.8366383541
 20
50.9936924803
 11
183.9780597103
 21
51.075347399
  0
LINE
  5
371
100
AcDbEntity
  8
0
100
AcDbLine
 62
250
  6
CONTINUOUS
 10
199.887962287
 20
58.6268097234
 11
199.7465409308
 21
58.5451548047
  0
LINE
  5
372
100
AcDbEntity
  8
0
100
AcDbLine
 62
250
  6
CONTINUOUS
 10
184.6851664915
 20
49.5239986362
 11
184.8265878478
 21
49.6056535549
  0
LINE
  5
373
100
AcDbEntity
  8
0
100
AcDbLine
 62
250
  6
CONTINUOUS
 10
200.7364904245
 20
57.1571158792
 11
200.5950690682
 21
57.0754609606
  0
LWPOLYLINE
  5
374
100
AcDbEntity
  8
0
100
AcDbPolyline
 62
7
  6
CONTINUOUS
 90
11
 70
0
 10
162.8571517495
 20
79.0673338709
 10
162.8120197506
 20
79.0560483212
 10
162.7648646811
 20
79.0494159848
 10
162.7158898194
 20
79.0474665613
 10
162.6653075461
 20
79.0502089013
 10
162.6133343736
 20
79.0576312778
 10
162.5601930417
 20
79.0697018923
 10
162.5061146752
 20
79.0863678166
 10
162.4513322117
 20
79.1075562864
 10
162.3960791815
 20
79.1331760132
 10
162.340592206
 20
79.1631164596
  0
LINE
  5
375
100
AcDbEntity
  8
0
100
AcDbLine
 62
250
  6
CONTINUOUS
 10
151.3097264195
 20
80.3067508891
 11
152.0168332007
 21
80.3067508891
  0
LINE
  5
376
100
AcDbEntity
  8
0
100
AcDbLine
 62
250
  6
CONTINUOUS
 10
153.8553108318
 20
84.6399132399
 11
153.0067826944
 21
84.7156509289
  0
LWPOLYLINE
  5
377
100
AcDbEntity
  8
0
100
AcDbPolyline
 62
7
  6
CONTINUOUS
 90
7
 70
0
 10
199.9438108056
 20
53.1472016321
 10
199.9329907597
 20
53.1187972617
 10
199.9168713149
 20
53.0667440509
 10
199.9042630962
 20
53.0115815545
 10
199.8952195645
 20
52.9535478768
 10
199.8897784319
 20
52.8928908861
 10
199.887962287
 20
52.8298707581
  0
LINE
  5
378
100
AcDbEntity
  8
0
100
AcDbLine
 62
250
  6
CONTINUOUS
 10
200.2465924759
 20
59.399600171
 11
199.887962287
 21
58.6268097234
  0
LINE
  5
379
100
AcDbEntity
  8
0
100
AcDbLine
 62
250
  6
CONTINUOUS
 10
200.1273140337
 20
53.3456353235
 11
199.887962287
 21
52.8298707581
  0
LWPOLYLINE
  5
37A
100
AcDbEntity
  8
0
100
AcDbPolyline
 62
7
  6
CONTINUOUS
 90
7
 70
0
 10
194.9443360993
 20
44.2053101157
 10
194.9214175309
 20
44.1601375133
 10
194.8952394288
 20
44.1187029441
 10
194.8659156584
 20
44.0811858915
 10
194.8335735905
 20
44.0477475317
 10
194.7983511619
 20
44.0185288607
 10
194.7604263516
 20
43.9936696724
  0
LWPOLYLINE
  5
37B
100
AcDbEntity
  8
0
100
AcDbPolyline
 62
7
  6
CONTINUOUS
 90
3
 70
0
 10
199.9754702632
 20
53.2126871686
 10
199.9525516913
 20
53.167514563
 10
199.9438108056
 20
53.1472016321
  0
LINE
  5
37C
100
AcDbEntity
  8
0
100
AcDbLine
 62
250
  6
CONTINUOUS
 10
200.2415156776
 20
56.4630885255
 11
200.5950690682
 21
57.0754609606
  0
LINE
  5
37D
100
AcDbEntity
  8
0
100
AcDbLine
 62
250
  6
CONTINUOUS
 10
193.8068439688
 20
43.4407466505
 11
194.1603973594
 21
44.0531190856
  0
LWPOLYLINE
  5
37E
100
AcDbEntity
  8
0
100
AcDbPolyline
 62
7
  6
CONTINUOUS
 90
4
 70
0
 10
200.0633142161
 20
53.3250771533
 10
200.0309721399
 20
53.2916387889
 10
200.0016483666
 20
53.2541217362
 10
199.9754702632
 20
53.2126871686
  0
LWPOLYLINE
  5
37F
100
AcDbEntity
  8
0
100
AcDbPolyline
 62
7
  6
CONTINUOUS
 90
3
 70
0
 10
199.9218928372
 20
53.2434222135
 10
199.9571152658
 20
53.2726408845
 10
199.9950400761
 20
53.2975000729
  0
LINE
  5
380
100
AcDbEntity
  8
0
100
AcDbLine
 62
7
  6
CONTINUOUS
 10
232.06482135
 20
73.9771971866
 11
236.1267543347
 21
76.3224910888
  0
LINE
  5
381
100
AcDbEntity
  8
0
100
AcDbLine
 62
7
  6
CONTINUOUS
 10
232.7723586193
 20
72.7517066892
 11
236.834291604
 21
75.0970005914
  0
LINE
  5
382
100
AcDbEntity
  8
0
100
AcDbLine
 62
250
  6
CONTINUOUS
 10
199.7465409308
 20
52.7482158395
 11
199.887962287
 21
52.8298707581
  0
LWPOLYLINE
  5
383
100
AcDbEntity
  8
0
100
AcDbPolyline
 62
7
  6
CONTINUOUS
 90
13
 70
0
 10
199.9950400761
 20
53.2975000729
 10
200.0355914919
 20
53.3179433434
 10
200.0785093044
 20
53.3338331804
 10
200.1236412774
 20
53.3451187502
 10
200.1707963538
 20
53.3517511131
 10
200.2197712308
 20
53.3537005597
 10
200.2703534584
 20
53.3509582447
 10
200.3223264204
 20
53.3435359305
 10
200.3754674684
 20
53.3314654318
 10
200.4295457104
 20
53.3147996116
 10
200.4843282961
 20
53.2936111589
 10
200.5395816228
 20
53.2679913418
 10
200.5950690682
 20
53.2380506596
  0
LINE
  5
384
100
AcDbEntity
  8
0
100
AcDbLine
 62
250
  6
CONTINUOUS
 10
151.3097264195
 20
86.1036898543
 11
152.0168332007
 21
86.1036898543
  0
LINE
  5
385
100
AcDbEntity
  8
0
100
AcDbLine
 62
250
  6
CONTINUOUS
 10
167.2196289962
 20
87.8582132135
 11
167.9267357774
 21
87.8582132135
  0
LINE
  5
386
100
AcDbEntity
  8
0
100
AcDbLine
 62
7
  6
CONTINUOUS
 10
210.9188280735
 20
62.6268433458
 11
210.9188280735
 21
51.6861416368
  0
LINE
  5
387
100
AcDbEntity
  8
0
100
AcDbLine
 62
7
  6
CONTINUOUS
 10
210.9188280735
 20
45.8892026716
 11
210.9188280735
 21
34.9485009626
  0
LWPOLYLINE
  5
388
100
AcDbEntity
  8
0
100
AcDbPolyline
 62
7
  6
CONTINUOUS
 90
28
 70
0
 10
210.9188280735
 20
51.6861416368
 10
210.9167386224
 20
51.6062052075
 10
210.9106525627
 20
51.5293870677
 10
210.9005698946
 20
51.4556872175
 10
210.8864297783
 20
51.3848771923
 10
210.8682930535
 20
51.3171854567
 10
210.8463422396
 20
51.2532974043
 10
210.8205384846
 20
51.1932518939
 10
210.7909206406
 20
51.1370100667
 10
210.7577877831
 20
51.0851407404
 10
210.7211043122
 20
51.0376885061
 10
210.6809058278
 20
50.9946087726
 10
210.6375982051
 20
50.9563365845
 10
210.5911500027
 20
50.922920695
 10
210.541592662
 20
50.8943123509
 10
210.4894263825
 20
50.870800337
 10
210.4346246121
 20
50.8524362651
 10
210.3772139028
 20
50.8391685234
 10
210.3177741103
 20
50.8311310612
 10
210.2562844901
 20
50.8283770169
 10
210.1927657867
 20
50.830853252
 10
210.1278600882
 20
50.8385343
 10
210.0615531511
 20
50.8514732185
 10
209.9938592189
 20
50.8696169499
 10
209.9254631103
 20
50.8927808552
 10
209.8565930984
 20
50.9209033879
 10
209.7870209101
 20
50.9540460945
 10
209.7167465455
 20
50.9922089749
  0
LWPOLYLINE
  5
389
100
AcDbEntity
  8
0
100
AcDbPolyline
 62
7
  6
CONTINUOUS
 90
28
 70
0
 10
210.9188280735
 20
34.9485009626
 10
210.916738584
 20
34.8685641752
 10
210.9106524784
 20
34.7917457611
 10
210.9005697568
 20
34.7180457202
 10
210.8864295741
 20
34.6472356055
 10
210.8682927753
 20
34.579543864
 10
210.8463418957
 20
34.5156558374
 10
210.8205381069
 20
34.4556103911
 10
210.7909202373
 20
34.3993686596
 10
210.7577873067
 20
34.3474993885
 10
210.7211036673
 20
34.3000471127
 10
210.6809049669
 20
34.2569672973
 10
210.6375971683
 20
34.2186950822
 10
210.5911488503
 20
34.1852792684
 10
210.5415914342
 20
34.156671055
 10
210.489425147
 20
34.133159179
 10
210.4346234879
 20
34.1147952459
 10
210.3772129576
 20
34.1015276504
 10
210.3177732851
 20
34.0934903133
 10
210.2562836538
 20
34.0907363599
 10
210.1927648803
 20
34.093212665
 10
210.1278591431
 20
34.1008937743
 10
210.0615522166
 20
34.1138327626
 10
209.9938583264
 20
34.1319765552
 10
209.9254623286
 20
34.1551404731
 10
209.8565925085
 20
34.1832629569
 10
209.7870205808
 20
34.2164055661
 10
209.7167465455
 20
34.2545683007
  0
LWPOLYLINE
  5
38A
100
AcDbEntity
  8
0
100
AcDbPolyline
 62
7
  6
CONTINUOUS
 90
7
 70
0
 10
210.9188280735
 20
52.0944162301
 10
210.9170118962
 20
52.0313955492
 10
210.91157069
 20
51.9707382428
 10
210.9025270794
 20
51.9127044668
 10
210.8899188337
 20
51.8575421464
 10
210.8737994371
 20
51.8054892641
 10
210.8542385643
 20
51.7567721931
  0
LWPOLYLINE
  5
38B
100
AcDbEntity
  8
0
100
AcDbPolyline
 62
7
  6
CONTINUOUS
 90
7
 70
0
 10
210.9188280735
 20
35.3567755559
 10
210.917011927
 20
35.2937553998
 10
210.9115707909
 20
35.2330983952
 10
210.9025272562
 20
35.1750647167
 10
210.8899190385
 20
35.1199022363
 10
210.8737996001
 20
35.0678490503
 10
210.854238676
 20
35.0191317659
  0
LINE
  5
38C
100
AcDbEntity
  8
0
100
AcDbLine
 62
250
  6
CONTINUOUS
 10
200.2465924759
 20
42.6619594967
 11
199.887962287
 21
41.8891690491
  0
LINE
  5
38D
100
AcDbEntity
  8
0
100
AcDbLine
 62
250
  6
CONTINUOUS
 10
200.2415156776
 20
39.7254478513
 11
200.5950690682
 21
40.3378202863
  0
LINE
  5
38E
100
AcDbEntity
  8
0
100
AcDbLine
 62
250
  6
CONTINUOUS
 10
194.1603973594
 20
44.0531190856
 11
194.3018187157
 21
44.1347740043
  0
LINE
  5
38F
100
AcDbEntity
  8
0
100
AcDbLine
 62
250
  6
CONTINUOUS
 10
210.2117212924
 20
51.6862363286
 11
210.0702999361
 21
51.60458141
  0
LINE
  5
390
100
AcDbEntity
  8
0
100
AcDbLine
 62
7
  6
CONTINUOUS
 10
192.8937344267
 20
45.3619760483
 11
193.9875789184
 21
45.9201727793
  0
LWPOLYLINE
  5
391
100
AcDbEntity
  8
0
100
AcDbPolyline
 62
7
  6
CONTINUOUS
 90
3
 70
0
 10
194.7604263516
 20
43.9936696724
 10
194.7198749357
 20
43.9732264019
 10
194.6769571232
 20
43.9573365649
  0
LWPOLYLINE
  5
392
100
AcDbEntity
  8
0
100
AcDbPolyline
 62
7
  6
CONTINUOUS
 90
3
 70
0
 10
210.6703289283
 20
51.5451319968
 10
210.6297773226
 20
51.5246886436
 10
210.5868594796
 20
51.5087988213
  0
LINE
  5
393
100
AcDbEntity
  8
0
100
AcDbLine
 62
7
  6
CONTINUOUS
 10
232.7508572674
 20
72.7637016366
 11
232.7723586193
 21
72.7517066892
  0
LINE
  5
394
100
AcDbEntity
  8
0
100
AcDbLine
 62
7
  6
CONTINUOUS
 10
231.0549222024
 20
72.8992838519
 11
131.1736322907
 21
130.5694888404
  0
LWPOLYLINE
  5
395
100
AcDbEntity
  8
0
100
AcDbPolyline
 62
7
  6
CONTINUOUS
 90
7
 70
0
 10
210.8542385643
 20
51.7567721931
 10
210.8313199971
 20
51.7115996428
 10
210.8051418673
 20
51.6701650719
 10
210.7758180706
 20
51.6326480266
 10
210.7434759981
 20
51.5992096993
 10
210.7082535721
 20
51.569991062
 10
210.6703289283
 20
51.5451319968
  0
LINE
  5
396
100
AcDbEntity
  8
0
100
AcDbLine
 62
250
  6
CONTINUOUS
 10
209.7167465455
 20
50.9922089749
 11
210.0702999361
 21
51.60458141
  0
LINE
  5
397
100
AcDbEntity
  8
0
100
AcDbLine
 62
7
  6
CONTINUOUS
 10
231.0549222024
 20
72.8992838519
 11
232.0644589198
 21
73.9525784477
  0
LINE
  5
398
100
AcDbEntity
  8
0
100
AcDbLine
 62
250
  6
CONTINUOUS
 10
199.7465409308
 20
41.8075141305
 11
199.887962287
 21
41.8891690491
  0
LINE
  5
399
100
AcDbEntity
  8
0
100
AcDbLine
 62
250
  6
CONTINUOUS
 10
200.5950690682
 20
40.3378202863
 11
200.7364904245
 21
40.419475205
  0
LINE
  5
39A
100
AcDbEntity
  8
0
100
AcDbLine
 62
250
  6
CONTINUOUS
 10
151.3097264195
 20
97.0443915634
 11
152.0168332007
 21
97.0443915634
  0
LINE
  5
39B
100
AcDbEntity
  8
0
100
AcDbLine
 62
7
  6
CONTINUOUS
 10
232.06482135
 20
73.9771971866
 11
131.5770852047
 21
131.9975566297
  0
LINE
  5
39C
100
AcDbEntity
  8
0
100
AcDbLine
 62
7
  6
CONTINUOUS
 10
236.1267543347
 20
76.3224910888
 11
135.3648989919
 21
134.5011235211
  0
LWPOLYLINE
  5
39D
100
AcDbEntity
  8
0
100
AcDbPolyline
 62
7
  6
CONTINUOUS
 90
7
 70
0
 10
210.854238676
 20
35.0191317659
 10
210.8313201076
 20
34.9739591634
 10
210.8051420055
 20
34.9325245942
 10
210.7758182351
 20
34.8950075417
 10
210.7434761672
 20
34.8615691818
 10
210.7082537386
 20
34.8323505108
 10
210.6703289283
 20
34.8074913225
  0
LINE
  5
39E
100
AcDbEntity
  8
0
100
AcDbLine
 62
250
  6
CONTINUOUS
 10
209.7167465455
 20
34.2545683007
 11
210.0702999361
 21
34.8669407357
  0
LINE
  5
39F
100
AcDbEntity
  8
0
100
AcDbLine
 62
7
  6
CONTINUOUS
 10
208.7088435938
 20
36.2305302251
 11
209.9680167678
 21
36.7469998293
  0
LINE
  5
3A0
100
AcDbEntity
  8
0
100
AcDbLine
 62
250
  6
CONTINUOUS
 10
210.0702999361
 20
34.8669407357
 11
210.2117212924
 21
34.9485956544
  0
LWPOLYLINE
  5
3A1
100
AcDbEntity
  8
0
100
AcDbPolyline
 62
7
  6
CONTINUOUS
 90
3
 70
0
 10
210.6703289283
 20
34.8074913225
 10
210.6297775124
 20
34.787048052
 10
210.5868596999
 20
34.771158215
  0
LINE
  5
3A2
100
AcDbEntity
  8
0
100
AcDbLine
 62
7
  6
CONTINUOUS
 10
231.3338981365
 20
72.4160833604
 11
231.0549222024
 21
72.8992838519
  0
LINE
  5
3A3
100
AcDbEntity
  8
0
100
AcDbLine
 62
7
  6
CONTINUOUS
 10
232.7508572674
 20
72.7637016366
 11
232.0644589198
 21
73.9525784477
  0
LINE
  5
3A4
100
AcDbEntity
  8
0
100
AcDbLine
 62
7
  6
CONTINUOUS
 10
231.3338981365
 20
1.5844497611
 11
231.3338981365
 21
72.4160833604
  0
LINE
  5
3A5
100
AcDbEntity
  8
0
100
AcDbLine
 62
7
  6
CONTINUOUS
 10
232.7723586193
 20
1.219831857
 11
232.7723586193
 21
72.7517066892
  0
LINE
  5
3A6
100
AcDbEntity
  8
0
100
AcDbLine
 62
7
  6
CONTINUOUS
 10
232.06482135
 20
73.9771971866
 11
232.0644589198
 21
73.9525784477
  0
LINE
  5
3A7
100
AcDbEntity
  8
0
100
AcDbLine
 62
7
  6
CONTINUOUS
 10
236.1267543347
 20
76.3224910888
 11
236.834291604
 21
75.0970005914
  0
LINE
  5
3A8
100
AcDbEntity
  8
0
100
AcDbLine
 62
7
  6
CONTINUOUS
 10
236.834291604
 20
3.2486103713
 11
236.834291604
 21
75.0970005914
  0
LINE
  5
3A9
100
AcDbEntity
  8
0
100
AcDbLine
 62
7
  6
CONTINUOUS
 10
231.0549222024
 20
1.4234036855
 11
231.3338981365
 21
1.5844497611
  0
LINE
  5
3AA
100
AcDbEntity
  8
0
100
AcDbLine
 62
7
  6
CONTINUOUS
 10
232.0644589198
 20
0.8120291008
 11
232.7508572674
 21
1.2082703052
  0
LINE
  5
3AB
100
AcDbEntity
  8
0
100
AcDbLine
 62
7
  6
CONTINUOUS
 10
236.834291604
 20
3.2486103713
 11
236.1267543347
 21
2.8401661774
  0
LINE
  5
3AC
100
AcDbEntity
  8
0
100
AcDbLine
 62
7
  6
CONTINUOUS
 10
232.7723586193
 20
1.219831857
 11
232.7508572674
 21
1.2082703052
  0
LINE
  5
3AD
100
AcDbEntity
  8
0
100
AcDbLine
 62
7
  6
CONTINUOUS
 10
232.7723586193
 20
1.219831857
 11
236.834291604
 21
3.2486103713
  0
LINE
  5
3AE
100
AcDbEntity
  8
0
100
AcDbLine
 62
7
  6
CONTINUOUS
 10
232.06482135
 20
0.8113876631
 11
236.1267543347
 21
2.8401661774
  0
ARC
  5
3AF
100
AcDbEntity
  8
0
100
AcDbCircle
 62
7
  6
CONTINUOUS
 10
153.9058028588
 20
89.6440780957
 40
0.3
100
AcDbArc
 50
0.0007993011
 51
59.999200789
  0
ARC
  5
3B0
100
AcDbEntity
  8
0
100
AcDbCircle
 62
7
  6
CONTINUOUS
 10
153.4866207532
 20
89.8861085899
 40
0.3
100
AcDbArc
 50
60.0005489507
 51
118.2699256376
  0
ARC
  5
3B1
100
AcDbEntity
  8
0
100
AcDbCircle
 62
7
  6
CONTINUOUS
 10
153.9058028588
 20
85.3634770991
 40
0.3
100
AcDbArc
 50
301.7332683128
 51
359.9978457589
  0
ELLIPSE
  5
3B2
100
AcDbEntity
  8
0
100
AcDbEllipse
 62
7
  6
CONTINUOUS
 10
210.1018428891
 20
36.6620379427
 30
0.0
 11
0.1998333781
 21
-0.0157785196
 31
0.0
 40
0.5172961965
 41
0.8262203412
 42
2.3446567905
  0
ELLIPSE
  5
3B3
100
AcDbEntity
  8
0
100
AcDbEllipse
 62
7
  6
CONTINUOUS
 10
162.372135159
 20
64.2205729923
 30
0.0
 11
0.1998333781
 21
-0.0157785196
 31
0.0
 40
0.5172961965
 41
0.8262203412
 42
2.3446567905
  0
ENDSEC
  0
SECTION
  2
OBJECTS
  0
DICTIONARY
  5
C
100
AcDbDictionary
280
0
281
1
  3
ACAD_GROUP
350
D
  3
ACAD_MLINESTYLE
350
17
  3
ACAD_LAYOUT
350
1A
  3
ACAD_PLOTSETTINGS
350
19
  3
ACAD_PLOTSTYLENAME
350
E
  0
DICTIONARY
  5
D
102
{ACAD_REACTORS
330
C
102
}
100
AcDbDictionary
280
0
281
1
  0
ACDBDICTIONARYWDFLT
  5
E
102
{ACAD_REACTORS
330
C
102
}
100
AcDbDictionary
281
1
  3
Normal
350
F
100
AcDbDictionaryWithDefault
340
F
  0
DICTIONARY
  5
17
102
{ACAD_REACTORS
330
C
102
}
100
AcDbDictionary
280
0
281
1
  3
Standard
350
18
  0
DICTIONARY
  5
19
102
{ACAD_REACTORS
330
C
102
}
100
AcDbDictionary
281
1
  0
DICTIONARY
  5
1A
102
{ACAD_REACTORS
330
C
102
}
100
AcDbDictionary
281
1
  3
Model
350
3B4
  3
Layout1
350
3B5
  0
ACDBPLACEHOLDER
  5
F
102
{ACAD_REACTORS
330
E
102
}
  0
MLINESTYLE
  5
18
102
{ACAD_REACTORS
330
17
102
}
100
AcDbMlineStyle
  2
STANDARD
 70
0
  3

 62
256
 51
90.0
 52
90.0
 71
2
 49
0.5
 62
256
  6
BYLAYER
 49
-0.5
 62
256
  6
BYLAYER
  0
LAYOUT
  5
3B4
102
{ACAD_REACTORS
330
1A
102
}
100
AcDbPlotSettings
  1

  2
none_device
  4
ISO_A4_(297.00_x_210.00_MM)
  6

 40
0.0
 41
0.0
 42
0.0
 43
0.0
 44
297.0
 45
210.0
 46
0.0
 47
0.0
 48
0.0
 49
0.0
140
0.0
141
0.0
142
1.0
143
1.0
 70
1024
 72
1
 73
0
 74
0
  7

 75
0
147
1.0
148
0.0
149
0.0
100
AcDbLayout
  1
Model
 70
0
 71
0
 10
0.0
 20
0.0
 11
297.0
 21
210.0
 12
0.0
 22
0.0
 32
0.0
 14
0.0
 24
0.0
 34
0.0
 15
0.0
 25
0.0
 35
0.0
146
0.0
 13
0.0
 23
0.0
 33
0.0
 16
1.0
 26
0.0
 36
0.0
 17
0.0
 27
1.0
 37
0.0
 76
0
330
21B
345
0
346
0
  0
LAYOUT
  5
3B5
102
{ACAD_REACTORS
330
1A
102
}
100
AcDbPlotSettings
  1

  2
none_device
  4
ISO_A4_(297.00_x_210.00_MM)
  6

 40
0.0
 41
0.0
 42
0.0
 43
0.0
 44
297.0
 45
210.0
 46
0.0
 47
0.0
 48
0.0
 49
0.0
140
0.0
141
0.0
142
1.0
143
1.0
 70
0
 72
1
 73
0
 74
0
  7

 75
0
147
1.0
148
0.0
149
0.0
100
AcDbLayout
  1
Layout1
 70
0
 71
1
 10
0.0
 20
0.0
 11
297.0
 21
210.0
 12
0.0
 22
0.0
 32
0.0
 14
0.0
 24
0.0
 34
0.0
 15
0.0
 25
0.0
 35
0.0
146
0.0
 13
0.0
 23
0.0
 33
0.0
 16
1.0
 26
0.0
 36
0.0
 17
0.0
 27
1.0
 37
0.0
 76
0
330
21C
345
0
346
0
  0
ENDSEC
  0
EOF
