  0
SECTION
  2
HEADER
  9
$ACADVER
  1
AC1024
  9
$DWGCODEPAGE
  3
ANSI_1252
  9
$EXTMAX
 10
297.0
 20
210.0
 30
0.0
  9
$EXTMIN
 10
0.0
 20
0.0
 30
0.0
  9
$LIMMIN
 10
0.0
 20
0.0
  9
$LIMMAX
 10
297.0
 20
210.0
  9
$VIEWCTR
 10
148.5
 20
105.0
  9
$VIEWSIZE
 40
210.0
  9
$CLAYER
  8
0
  9
$LTSCALE
 40
16.335
  9
$CELTYPE
  6
BYLAYER
  9
$DIMSCALE
 40
1.0
  9
$DIMASZ
 40
3.0
  9
$DIMEXO
 40
0.5
  9
$DIMDLI
 40
11.286
  9
$DIMEXE
 40
1.5
  9
$DIMCEN
 40
2.673
  9
$DIMLFAC
 40
1.0
  9
$DIMBLK
  1
_FILLED
  9
$DIMALT
 70
0
  9
$DIMALTF
 40
0.0393700787
  9
$DIMTXT
 40
3.0
  9
$DIMTOL
 70
1
  9
$DIMLIM
 70
0
  9
$DIMTFAC
 40
1.0
  9
$DIMTP
 40
0.01
  9
$DIMTM
 40
0.01
  9
$DIMGAP
 40
0.625
  9
$DIMDSEP
 70
44
  9
$AUNITS
 70
0
  9
$PDMODE
 70
3
  9
$PDSIZE
 40
3.0
  9
$HANDSEED
  5
4F3
  9
$TILEMODE
 70
1
  9
$MEASUREMENT
 70
1
  9
$INSUNITS
 70
4
  0
ENDSEC
  0
SECTION
  2
CLASSES
  0
CLASS
  1
ACDBDICTIONARYWDFLT
  2
AcDbDictionaryWithDefault
  3
AutoCAD 2000
 90
0
 91
1
280
0
281
0
  0
CLASS
  1
ACDBPLACEHOLDER
  2
AcDbPlaceHolder
  3
AutoCAD 2000
 90
0
 91
1
280
0
281
0
  0
CLASS
  1
LAYOUT
  2
AcDbLayout
  3
AutoCAD 2000
 90
0
 91
0
280
0
281
0
  0
ENDSEC
  0
SECTION
  2
TABLES
  0
TABLE
  2
VPORT
  5
8
100
AcDbSymbolTable
 70
2
  0
VPORT
  5
1F4
100
AcDbSymbolTableRecord
100
AcDbViewportTableRecord
  2
*ACTIVE
 70
0
 10
0.0
 20
0.0
 11
1.0
 21
1.0
 12
148.5
 22
105.0
 13
0.0
 23
0.0
 14
1.0
 24
1.0
 15
0.0
 25
0.0
 16
0.0
 26
0.0
 36
1.0
 17
0.0
 27
0.0
 37
0.0
 40
210.0
 41
1.4142857143
 42
50.0
 43
0.0
 44
0.0
 50
0.0
 51
0.0
 71
0
 72
100
 73
1
 74
1
 75
0
 76
0
 77
0
 78
0
  0
ENDTAB
  0
TABLE
  2
LTYPE
  5
5
100
AcDbSymbolTable
 70
6
  0
LTYPE
  5
14
100
AcDbSymbolTableRecord
100
AcDbLinetypeTableRecord
  2
BYBLOCK
 70
0
  3

 72
65
 73
0
 40
0.0
  0
LTYPE
  5
15
100
AcDbSymbolTableRecord
100
AcDbLinetypeTableRecord
  2
BYLAYER
 70
0
  3

 72
65
 73
0
 40
0.0
  0
LTYPE
  5
16
100
AcDbSymbolTableRecord
100
AcDbLinetypeTableRecord
  2
CONTINUOUS
 70
64
  3
Solid line
 72
65
 73
0
 40
0.0
  0
LTYPE
  5
1F5
100
AcDbSymbolTableRecord
100
AcDbLinetypeTableRecord
  2
CENTER
 70
64
  3
____ _ ____ _ ____ _ ____ _ ____ _ ____ _ ____
 72
65
 73
4
 40
0.6
 49
0.375
 74
0
 49
-0.075
 74
0
 49
0.075
 74
0
 49
-0.075
 74
0
  0
LTYPE
  5
1F6
100
AcDbSymbolTableRecord
100
AcDbLinetypeTableRecord
  2
HIDDEN
 70
64
  3
- - - - - - - - - - - - - - - - - - - -
 72
65
 73
2
 40
0.2
 49
0.1
 74
0
 49
-0.1
 74
0
  0
LTYPE
  5
1F7
100
AcDbSymbolTableRecord
100
AcDbLinetypeTableRecord
  2
PHANTOM
 70
64
  3
_____ _ _ _____ _ _ _____ _ _ _____
 72
65
 73
6
 40
0.8
 49
0.45
 74
0
 49
-0.05
 74
0
 49
0.1
 74
0
 49
-0.05
 74
0
 49
0.1
 74
0
 49
-0.05
 74
0
  0
LTYPE
  5
1F8
100
AcDbSymbolTableRecord
100
AcDbLinetypeTableRecord
  2
DOT
 70
64
  3
. . . . . . . . . . . . . . . . . . . .
 72
65
 73
2
 40
0.2
 49
0.1
 74
0
 49
-0.1
 74
0
  0
LTYPE
  5
1F9
100
AcDbSymbolTableRecord
100
AcDbLinetypeTableRecord
  2
DASHED
 70
64
  3
- - - - - - - - - - - - - - - - - - - -
 72
65
 73
2
 40
0.2
 49
0.1
 74
0
 49
-0.1
 74
0
  0
ENDTAB
  0
TABLE
  2
LAYER
  5
2
100
AcDbSymbolTable
 70
36
  0
LAYER
  5
10
100
AcDbSymbolTableRecord
100
AcDbLayerTableRecord
  2
0
 70
0
 62
7
  6
CONTINUOUS
370
-3
390
F
  0
LAYER
  5
1FA
100
AcDbSymbolTableRecord
100
AcDbLayerTableRecord
  2
DEFAULT_1
 70
0
 62
7
  6
CENTER
370
-3
390
F
  0
LAYER
  5
1FB
100
AcDbSymbolTableRecord
100
AcDbLayerTableRecord
  2
DEFAULT_2
 70
0
 62
7
  6
HIDDEN
370
-3
390
F
  0
LAYER
  5
1FC
100
AcDbSymbolTableRecord
100
AcDbLayerTableRecord
  2
DEFAULT_3
 70
0
 62
7
  6
PHANTOM
370
-3
390
F
  0
LAYER
  5
1FD
100
AcDbSymbolTableRecord
100
AcDbLayerTableRecord
  2
ASSI
 70
0
 62
7
  6
CONTINUOUS
370
-3
390
F
  0
LAYER
  5
1FE
100
AcDbSymbolTableRecord
100
AcDbLayerTableRecord
  2
COORDINATE
 70
0
 62
7
  6
CONTINUOUS
370
-3
390
F
  0
LAYER
  5
1FF
100
AcDbSymbolTableRecord
100
AcDbLayerTableRecord
  2
COORD_ORIGINE
 70
0
 62
7
  6
CONTINUOUS
370
-3
390
F
  0
LAYER
  5
200
100
AcDbSymbolTableRecord
100
AcDbLayerTableRecord
  2
COPY_PUBLISH
 70
0
 62
7
  6
CONTINUOUS
370
-3
390
F
  0
LAYER
  5
201
100
AcDbSymbolTableRecord
100
AcDbLayerTableRecord
  2
COSMETIC
 70
0
 62
7
  6
CONTINUOUS
370
-3
390
F
  0
LAYER
  5
202
100
AcDbSymbolTableRecord
100
AcDbLayerTableRecord
  2
COSMETICI
 70
0
 62
7
  6
CONTINUOUS
370
-3
390
F
  0
LAYER
  5
203
100
AcDbSymbolTableRecord
100
AcDbLayerTableRecord
  2
CURVE
 70
0
 62
7
  6
CONTINUOUS
370
-3
390
F
  0
LAYER
  5
204
100
AcDbSymbolTableRecord
100
AcDbLayerTableRecord
  2
CURVE_COSTRUZIONE
 70
0
 62
7
  6
CONTINUOUS
370
-3
390
F
  0
LAYER
  5
205
100
AcDbSymbolTableRecord
100
AcDbLayerTableRecord
  2
CURVE_TASSELLI
 70
0
 62
7
  6
CONTINUOUS
370
-3
390
F
  0
LAYER
  5
206
100
AcDbSymbolTableRecord
100
AcDbLayerTableRecord
  2
DRAFT
 70
0
 62
7
  6
CONTINUOUS
370
-3
390
F
  0
LAYER
  5
207
100
AcDbSymbolTableRecord
100
AcDbLayerTableRecord
  2
IMPORT_IGES
 70
0
 62
7
  6
CONTINUOUS
370
-3
390
F
  0
LAYER
  5
208
100
AcDbSymbolTableRecord
100
AcDbLayerTableRecord
  2
INTFCLR_2
 70
0
 62
7
  6
CONTINUOUS
370
-3
390
F
  0
LAYER
  5
209
100
AcDbSymbolTableRecord
100
AcDbLayerTableRecord
  2
INTF_1
 70
0
 62
7
  6
CONTINUOUS
370
-3
390
F
  0
LAYER
  5
20A
100
AcDbSymbolTableRecord
100
AcDbLayerTableRecord
  2
INTF_6
 70
0
 62
7
  6
CONTINUOUS
370
-3
390
F
  0
LAYER
  5
20B
100
AcDbSymbolTableRecord
100
AcDbLayerTableRecord
  2
INTF_7
 70
0
 62
7
  6
CONTINUOUS
370
-3
390
F
  0
LAYER
  5
20C
100
AcDbSymbolTableRecord
100
AcDbLayerTableRecord
  2
INTF_CYAN
 70
0
 62
7
  6
CONTINUOUS
370
-3
390
F
  0
LAYER
  5
20D
100
AcDbSymbolTableRecord
100
AcDbLayerTableRecord
  2
LIVELLO_1
 70
0
 62
7
  6
CONTINUOUS
370
-3
390
F
  0
LAYER
  5
20E
100
AcDbSymbolTableRecord
100
AcDbLayerTableRecord
  2
NOTE
 70
0
 62
7
  6
CONTINUOUS
370
-3
390
F
  0
LAYER
  5
20F
100
AcDbSymbolTableRecord
100
AcDbLayerTableRecord
  2
PIANI
 70
0
 62
7
  6
CONTINUOUS
370
-3
390
F
  0
LAYER
  5
210
100
AcDbSymbolTableRecord
100
AcDbLayerTableRecord
  2
PIANI_ORIGINE
 70
0
 62
7
  6
CONTINUOUS
370
-3
390
F
  0
LAYER
  5
211
100
AcDbSymbolTableRecord
100
AcDbLayerTableRecord
  2
PIANI_RIFERIMENTO
 70
0
 62
7
  6
CONTINUOUS
370
-3
390
F
  0
LAYER
  5
212
100
AcDbSymbolTableRecord
100
AcDbLayerTableRecord
  2
PUNTI
 70
0
 62
7
  6
CONTINUOUS
370
-3
390
F
  0
LAYER
  5
213
100
AcDbSymbolTableRecord
100
AcDbLayerTableRecord
  2
RACCORDO
 70
0
 62
7
  6
CONTINUOUS
370
-3
390
F
  0
LAYER
  5
214
100
AcDbSymbolTableRecord
100
AcDbLayerTableRecord
  2
RGB__255__255__255__
 70
0
 62
7
  6
CONTINUOUS
370
-3
390
F
  0
LAYER
  5
215
100
AcDbSymbolTableRecord
100
AcDbLayerTableRecord
  2
RGB____0____0____0__
 70
0
 62
7
  6
CONTINUOUS
370
-3
390
F
  0
LAYER
  5
216
100
AcDbSymbolTableRecord
100
AcDbLayerTableRecord
  2
SIMBOLI
 70
0
 62
7
  6
CONTINUOUS
370
-3
390
F
  0
LAYER
  5
217
100
AcDbSymbolTableRecord
100
AcDbLayerTableRecord
  2
SMUSSO
 70
0
 62
7
  6
CONTINUOUS
370
-3
390
F
  0
LAYER
  5
218
100
AcDbSymbolTableRecord
100
AcDbLayerTableRecord
  2
SUPERFICI
 70
0
 62
7
  6
CONTINUOUS
370
-3
390
F
  0
LAYER
  5
219
100
AcDbSymbolTableRecord
100
AcDbLayerTableRecord
  2
TRASH
 70
0
 62
7
  6
CONTINUOUS
370
-3
390
F
  0
LAYER
  5
21A
100
AcDbSymbolTableRecord
100
AcDbLayerTableRecord
  2
WHITE
 70
0
 62
7
  6
CONTINUOUS
370
-3
390
F
  0
LAYER
  5
21B
100
AcDbSymbolTableRecord
100
AcDbLayerTableRecord
  2
XSEC_DATUMS
 70
0
 62
7
  6
CONTINUOUS
370
-3
390
F
  0
ENDTAB
  0
TABLE
  2
STYLE
  5
3
100
AcDbSymbolTable
 70
1
  0
STYLE
  5
11
100
AcDbSymbolTableRecord
100
AcDbTextStyleTableRecord
  2
STANDARD
 70
0
 40
0.0
 41
0.8
 50
0.0
 71
0
 42
0.2
  3
txt
  4

  0
STYLE
  5
21C
100
AcDbSymbolTableRecord
100
AcDbTextStyleTableRecord
  2
TEXTSTYLE_1
 70
0
 40
0.0
 41
0.8
 50
0.0
 71
0
 42
0.2
  3
gdt
  4

  0
ENDTAB
  0
TABLE
  2
VIEW
  5
6
100
AcDbSymbolTable
 70
0
  0
ENDTAB
  0
TABLE
  2
UCS
  5
7
100
AcDbSymbolTable
 70
0
  0
ENDTAB
  0
TABLE
  2
APPID
  5
9
100
AcDbSymbolTable
 70
1
  0
APPID
  5
21D
100
AcDbSymbolTableRecord
100
AcDbRegAppTableRecord
  2
ACAD
 70
0
  0
ENDTAB
  0
TABLE
  2
BLOCK_RECORD
  5
1
100
AcDbSymbolTable
 70
0
  0
BLOCK_RECORD
  5
21E
100
AcDbSymbolTableRecord
100
AcDbBlockTableRecord
  2
*Model_Space
  0
BLOCK_RECORD
  5
21F
100
AcDbSymbolTableRecord
100
AcDbBlockTableRecord
  2
*Paper_Space
  0
BLOCK_RECORD
  5
220
100
AcDbSymbolTableRecord
100
AcDbBlockTableRecord
  2
_FILLED
  0
ENDTAB
  0
TABLE
  2
DIMSTYLE
  5
A
100
AcDbSymbolTable
 70
1
100
AcDbDimStyleTable
 71
0
  0
DIMSTYLE
105
221
100
AcDbSymbolTableRecord
100
AcDbDimStyleTableRecord
  2
STANDARD
 70
0
  3

  4

 40
1.0
 41
3.0
 42
0.5
 43
0.38
 44
1.5
 45
0.0
 46
0.0
 47
0.01
 48
0.01
140
3.0
141
0.09
142
0.0
143
25.4
144
1.0
145
0.0
146
1.0
147
0.625
 71
1
 72
0
 73
0
 74
0
 75
0
 76
0
 77
1
 78
8
 79
2
170
0
171
1
172
0
173
0
174
0
175
0
176
0
177
0
178
0
270
2
179
2
271
2
272
2
273
2
274
2
275
0
280
0
281
0
282
0
283
1
284
8
285
0
286
0
287
3
288
0
340
11
278
44
341
220
342
220
343
220
344
220
  0
ENDTAB
  0
ENDSEC
  0
SECTION
  2
BLOCKS
  0
BLOCK
  5
20
100
AcDbEntity
  8
0
100
AcDbBlockBegin
  2
*Model_Space
 70
0
 10
0.0
 20
0.0
 30
0.0
  3
*Model_Space
  1

  0
ENDBLK
  5
21
100
AcDbEntity
  8
0
100
AcDbBlockEnd
  0
BLOCK
  5
1C
100
AcDbEntity
  8
0
100
AcDbBlockBegin
  2
*Paper_Space
 70
0
 10
0.0
 20
0.0
 30
0.0
  3
*Paper_Space
  1

  0
ENDBLK
  5
1D
100
AcDbEntity
  8
0
100
AcDbBlockEnd
  0
BLOCK
  5
222
100
AcDbEntity
  8
0
100
AcDbBlockBegin
  2
_FILLED
 70
64
 10
0.0
 20
0.0
  3
_FILLED
  1

  0
SOLID
  5
223
100
AcDbEntity
  8
0
  6
BYBLOCK
 62
0
100
AcDbTrace
 10
0.0
 20
0.0
 11
-1.0
 21
0.3166666667
 12
-1.0
 22
-0.3166666667
 13
-1.0
 23
-0.3166666667
  0
ENDBLK
  5
224
100
AcDbEntity
  8
0
  6
BYBLOCK
 62
0
100
AcDbBlockEnd
  0
ENDSEC
  0
SECTION
  2
ENTITIES
  0
LINE
  5
225
100
AcDbEntity
  8
0
100
AcDbLine
 62
7
  6
CONTINUOUS
 10
-33.713712047
 20
52.8073741756
 11
-29.9258982598
 21
55.3109410669
  0
LINE
  5
226
100
AcDbEntity
  8
ASSI
100
AcDbLine
 62
7
  6
CONTINUOUS
 10
-33.713712047
 20
52.8073741756
 11
-29.9258982598
 21
55.3109410669
  0
LINE
  5
227
100
AcDbEntity
  8
0
100
AcDbLine
 62
7
  6
CONTINUOUS
 10
-33.0061747777
 20
53.2158183695
 11
-29.2183609905
 21
55.7193852608
  0
LINE
  5
228
100
AcDbEntity
  8
ASSI
100
AcDbLine
 62
7
  6
CONTINUOUS
 10
-33.0061747777
 20
53.2158183695
 11
-29.2183609905
 21
55.7193852608
  0
LINE
  5
229
100
AcDbEntity
  8
0
100
AcDbLine
 62
7
  6
CONTINUOUS
 10
-33.0269383918
 20
53.2029790185
 11
-33.0061747777
 21
53.2158183695
  0
LINE
  5
22A
100
AcDbEntity
  8
ASSI
100
AcDbLine
 62
7
  6
CONTINUOUS
 10
-33.0269383918
 20
53.2029790185
 11
-33.0061747777
 21
53.2158183695
  0
LINE
  5
22B
100
AcDbEntity
  8
0
100
AcDbLine
 62
7
  6
CONTINUOUS
 10
-29.9258982598
 20
55.3109410669
 11
-29.2183609905
 21
55.7193852608
  0
LINE
  5
22C
100
AcDbEntity
  8
ASSI
100
AcDbLine
 62
7
  6
CONTINUOUS
 10
-29.9258982598
 20
55.3109410669
 11
-29.2183609905
 21
55.7193852608
  0
LINE
  5
22D
100
AcDbEntity
  8
0
100
AcDbLine
 62
7
  6
CONTINUOUS
 10
-33.0269383918
 20
53.2029790185
 11
-33.7133367395
 21
52.8067378141
  0
LINE
  5
22E
100
AcDbEntity
  8
ASSI
100
AcDbLine
 62
7
  6
CONTINUOUS
 10
-33.0269383918
 20
53.2029790185
 11
-33.7133367395
 21
52.8067378141
  0
LINE
  5
22F
100
AcDbEntity
  8
0
100
AcDbLine
 62
7
  6
CONTINUOUS
 10
-33.4096276917
 20
51.7877505801
 11
-33.6886036258
 21
51.6267045045
  0
LINE
  5
230
100
AcDbEntity
  8
ASSI
100
AcDbLine
 62
7
  6
CONTINUOUS
 10
-33.4096276917
 20
51.7877505801
 11
-33.6886036258
 21
51.6267045045
  0
LINE
  5
231
100
AcDbEntity
  8
CURVE
100
AcDbLine
 62
250
  6
CONTINUOUS
 10
32.0411322287
 20
-48.8463758992
 11
30.7827314074
 21
-49.1229986991
  0
LINE
  5
232
100
AcDbEntity
  8
CURVE
100
AcDbLine
 62
250
  6
CONTINUOUS
 10
30.7827314074
 20
-48.6972617039
 11
32.6109225841
 21
-48.3689685114
  0
LINE
  5
233
100
AcDbEntity
  8
CURVE
100
AcDbLine
 62
250
  6
CONTINUOUS
 10
31.2850719363
 20
-44.6382971314
 11
31.9635370636
 21
-44.4851225515
  0
LINE
  5
234
100
AcDbEntity
  8
CURVE
100
AcDbLine
 62
250
  6
CONTINUOUS
 10
32.2459507582
 20
-44.4202106124
 11
32.6109225841
 21
-44.3412594007
  0
LINE
  5
235
100
AcDbEntity
  8
CURVE
100
AcDbLine
 62
250
  6
CONTINUOUS
 10
32.6109225841
 20
-44.7626650212
 11
30.7827314074
 21
-45.1068295793
  0
LINE
  5
236
100
AcDbEntity
  8
CURVE
100
AcDbLine
 62
250
  6
CONTINUOUS
 10
31.7977486871
 20
-46.3057887178
 11
30.7827314074
 21
-46.4262684078
  0
LINE
  5
237
100
AcDbEntity
  8
CURVE
100
AcDbLine
 62
250
  6
CONTINUOUS
 10
31.4221246946
 20
-45.9739366547
 11
32.6109225841
 21
-45.8404082359
  0
LINE
  5
238
100
AcDbEntity
  8
0
100
AcDbLine
 62
7
  6
CONTINUOUS
 10
-33.4096276917
 20
51.7877505801
 11
-33.0269383918
 21
53.2029790185
  0
LINE
  5
239
100
AcDbEntity
  8
ASSI
100
AcDbLine
 62
7
  6
CONTINUOUS
 10
-33.4096276917
 20
51.7877505801
 11
-33.0269383918
 21
53.2029790185
  0
LINE
  5
23A
100
AcDbEntity
  8
0
100
AcDbLine
 62
7
  6
CONTINUOUS
 10
28.2133185794
 20
-54.9463231628
 11
29.6302777103
 21
-55.3225026187
  0
LINE
  5
23B
100
AcDbEntity
  8
ASSI
100
AcDbLine
 62
7
  6
CONTINUOUS
 10
28.2133185794
 20
-54.9463231628
 11
29.6302777103
 21
-55.3225026187
  0
LINE
  5
23C
100
AcDbEntity
  8
0
100
AcDbLine
 62
7
  6
CONTINUOUS
 10
-33.6886036258
 20
-19.2049290948
 11
-33.4096276917
 21
-19.6881295863
  0
LINE
  5
23D
100
AcDbEntity
  8
ASSI
100
AcDbLine
 62
7
  6
CONTINUOUS
 10
-33.6886036258
 20
-19.2049290948
 11
-33.4096276917
 21
-19.6881295863
  0
LINE
  5
23E
100
AcDbEntity
  8
0
100
AcDbLine
 62
7
  6
CONTINUOUS
 10
-33.6886036258
 20
-19.2049290948
 11
-33.7133367395
 21
-18.7486935173
  0
LINE
  5
23F
100
AcDbEntity
  8
ASSI
100
AcDbLine
 62
7
  6
CONTINUOUS
 10
-33.6886036258
 20
-19.2049290948
 11
-33.7133367395
 21
-18.7486935173
  0
LINE
  5
240
100
AcDbEntity
  8
0
100
AcDbLine
 62
7
  6
CONTINUOUS
 10
-33.4096276917
 20
-19.6881295863
 11
-33.0269383918
 21
-19.9375703284
  0
LINE
  5
241
100
AcDbEntity
  8
ASSI
100
AcDbLine
 62
7
  6
CONTINUOUS
 10
-33.4096276917
 20
-19.6881295863
 11
-33.0269383918
 21
-19.9375703284
  0
LINE
  5
242
100
AcDbEntity
  8
0
100
AcDbLine
 62
7
  6
CONTINUOUS
 10
-33.6886036258
 20
51.6267045045
 11
-33.7133367395
 21
52.8067378141
  0
LINE
  5
243
100
AcDbEntity
  8
ASSI
100
AcDbLine
 62
7
  6
CONTINUOUS
 10
-33.6886036258
 20
51.6267045045
 11
-33.7133367395
 21
52.8067378141
  0
LINE
  5
244
100
AcDbEntity
  8
0
100
AcDbLine
 62
7
  6
CONTINUOUS
 10
-33.7133367395
 20
-18.7486935173
 11
-33.713712047
 21
-18.7245006566
  0
LINE
  5
245
100
AcDbEntity
  8
ASSI
100
AcDbLine
 62
7
  6
CONTINUOUS
 10
-33.7133367395
 20
-18.7486935173
 11
-33.713712047
 21
-18.7245006566
  0
LINE
  5
246
100
AcDbEntity
  8
0
100
AcDbLine
 62
7
  6
CONTINUOUS
 10
-33.713712047
 20
52.8073741756
 11
-33.713712047
 21
-18.7245006566
  0
LINE
  5
247
100
AcDbEntity
  8
ASSI
100
AcDbLine
 62
7
  6
CONTINUOUS
 10
-33.713712047
 20
52.8073741756
 11
-33.713712047
 21
-18.7245006566
  0
LINE
  5
248
100
AcDbEntity
  8
0
100
AcDbLine
 62
7
  6
CONTINUOUS
 10
-33.6886036258
 20
51.6267045045
 11
-33.6886036258
 21
-19.2049290948
  0
LINE
  5
249
100
AcDbEntity
  8
ASSI
100
AcDbLine
 62
7
  6
CONTINUOUS
 10
-33.6886036258
 20
51.6267045045
 11
-33.6886036258
 21
-19.2049290948
  0
LINE
  5
24A
100
AcDbEntity
  8
0
100
AcDbLine
 62
250
  6
CONTINUOUS
 10
-23.4993617087
 20
25.3924672909
 11
-23.7387139244
 21
24.876701715
  0
LINE
  5
24B
100
AcDbEntity
  8
ASSI
100
AcDbLine
 62
250
  6
CONTINUOUS
 10
-23.4993617087
 20
25.3924672909
 11
-23.7387139244
 21
24.876701715
  0
LINE
  5
24C
100
AcDbEntity
  8
0
100
AcDbLine
 62
250
  6
CONTINUOUS
 10
-23.7387139244
 20
24.876701715
 11
-23.8801352807
 21
24.7950467963
  0
LINE
  5
24D
100
AcDbEntity
  8
ASSI
100
AcDbLine
 62
250
  6
CONTINUOUS
 10
-23.7387139244
 20
24.876701715
 11
-23.8801352807
 21
24.7950467963
  0
LINE
  5
24E
100
AcDbEntity
  8
0
100
AcDbLine
 62
7
  6
CONTINUOUS
 10
-33.0061747777
 20
-19.949991154
 11
28.9442417929
 21
-55.7193852608
  0
LINE
  5
24F
100
AcDbEntity
  8
ASSI
100
AcDbLine
 62
7
  6
CONTINUOUS
 10
-33.0061747777
 20
-19.949991154
 11
28.9442417929
 21
-55.7193852608
  0
LINE
  5
250
100
AcDbEntity
  8
0
100
AcDbLine
 62
7
  6
CONTINUOUS
 10
-33.4096276917
 20
-19.6881295863
 11
27.9343426453
 21
-55.1073692384
  0
LINE
  5
251
100
AcDbEntity
  8
ASSI
100
AcDbLine
 62
7
  6
CONTINUOUS
 10
-33.4096276917
 20
-19.6881295863
 11
27.9343426453
 21
-55.1073692384
  0
LINE
  5
252
100
AcDbEntity
  8
0
100
AcDbLine
 62
7
  6
CONTINUOUS
 10
-33.0061747777
 20
-19.949991154
 11
-33.0269383918
 21
-19.9375703284
  0
LINE
  5
253
100
AcDbEntity
  8
ASSI
100
AcDbLine
 62
7
  6
CONTINUOUS
 10
-33.0061747777
 20
-19.949991154
 11
-33.0269383918
 21
-19.9375703284
  0
LINE
  5
254
100
AcDbEntity
  8
0
100
AcDbLine
 62
7
  6
CONTINUOUS
 10
27.9343426453
 20
-55.1073692384
 11
28.9438793627
 21
-55.7187438231
  0
LINE
  5
255
100
AcDbEntity
  8
ASSI
100
AcDbLine
 62
7
  6
CONTINUOUS
 10
27.9343426453
 20
-55.1073692384
 11
28.9438793627
 21
-55.7187438231
  0
LINE
  5
256
100
AcDbEntity
  8
0
100
AcDbLine
 62
250
  6
CONTINUOUS
 10
-23.3800837356
 20
14.7087904536
 11
-23.7387139244
 21
13.936000006
  0
LINE
  5
257
100
AcDbEntity
  8
ASSI
100
AcDbLine
 62
250
  6
CONTINUOUS
 10
-23.3800837356
 20
14.7087904536
 11
-23.7387139244
 21
13.936000006
  0
LINE
  5
258
100
AcDbEntity
  8
0
100
AcDbLine
 62
250
  6
CONTINUOUS
 10
-23.3851605339
 20
11.7722788081
 11
-23.0316071433
 21
12.3846512431
  0
LINE
  5
259
100
AcDbEntity
  8
ASSI
100
AcDbLine
 62
250
  6
CONTINUOUS
 10
-23.3851605339
 20
11.7722788081
 11
-23.0316071433
 21
12.3846512431
  0
LINE
  5
25A
100
AcDbEntity
  8
0
100
AcDbLine
 62
250
  6
CONTINUOUS
 10
18.9713141513
 20
-28.1651320418
 11
18.4048502343
 21
-28.1145707628
  0
LINE
  5
25B
100
AcDbEntity
  8
ASSI
100
AcDbLine
 62
250
  6
CONTINUOUS
 10
18.9713141513
 20
-28.1651320418
 11
18.4048502343
 21
-28.1145707628
  0
LINE
  5
25C
100
AcDbEntity
  8
0
100
AcDbLine
 62
7
  6
CONTINUOUS
 10
-24.5872420619
 20
-2.883295587
 11
-24.5872420619
 21
8.0574061221
  0
LINE
  5
25D
100
AcDbEntity
  8
ASSI
100
AcDbLine
 62
7
  6
CONTINUOUS
 10
-24.5872420619
 20
-2.883295587
 11
-24.5872420619
 21
8.0574061221
  0
LINE
  5
25E
100
AcDbEntity
  8
0
100
AcDbLine
 62
7
  6
CONTINUOUS
 10
-24.5872420619
 20
13.8543450873
 11
-24.5872420619
 21
24.7950467963
  0
LINE
  5
25F
100
AcDbEntity
  8
ASSI
100
AcDbLine
 62
7
  6
CONTINUOUS
 10
-24.5872420619
 20
13.8543450873
 11
-24.5872420619
 21
24.7950467963
  0
LINE
  5
260
100
AcDbEntity
  8
0
100
AcDbLine
 62
7
  6
CONTINUOUS
 10
-23.8801352807
 20
-2.883295587
 11
-23.8801352807
 21
8.0574061221
  0
LINE
  5
261
100
AcDbEntity
  8
ASSI
100
AcDbLine
 62
7
  6
CONTINUOUS
 10
-23.8801352807
 20
-2.883295587
 11
-23.8801352807
 21
8.0574061221
  0
LINE
  5
262
100
AcDbEntity
  8
0
100
AcDbLine
 62
7
  6
CONTINUOUS
 10
-23.8801352807
 20
13.8543450873
 11
-23.8801352807
 21
24.7950467963
  0
LINE
  5
263
100
AcDbEntity
  8
ASSI
100
AcDbLine
 62
7
  6
CONTINUOUS
 10
-23.8801352807
 20
13.8543450873
 11
-23.8801352807
 21
24.7950467963
  0
LINE
  5
264
100
AcDbEntity
  8
0
100
AcDbLine
 62
7
  6
CONTINUOUS
 10
-23.7387139244
 20
24.876701715
 11
-23.7387139244
 21
13.936000006
  0
LINE
  5
265
100
AcDbEntity
  8
ASSI
100
AcDbLine
 62
7
  6
CONTINUOUS
 10
-23.7387139244
 20
24.876701715
 11
-23.7387139244
 21
13.936000006
  0
LINE
  5
266
100
AcDbEntity
  8
0
100
AcDbLine
 62
7
  6
CONTINUOUS
 10
-23.7387139244
 20
8.1390610407
 11
-23.7387139244
 21
-2.8016406683
  0
LINE
  5
267
100
AcDbEntity
  8
ASSI
100
AcDbLine
 62
7
  6
CONTINUOUS
 10
-23.7387139244
 20
8.1390610407
 11
-23.7387139244
 21
-2.8016406683
  0
LINE
  5
268
100
AcDbEntity
  8
0
100
AcDbLine
 62
7
  6
CONTINUOUS
 10
-23.3800837356
 20
25.3990774185
 11
-23.3800837356
 21
14.7087904536
  0
LINE
  5
269
100
AcDbEntity
  8
ASSI
100
AcDbLine
 62
7
  6
CONTINUOUS
 10
-23.3800837356
 20
25.3990774185
 11
-23.3800837356
 21
14.7087904536
  0
LINE
  5
26A
100
AcDbEntity
  8
0
100
AcDbLine
 62
7
  6
CONTINUOUS
 10
-23.3800837356
 20
8.6614367511
 11
-23.3800837356
 21
-2.0288502207
  0
LINE
  5
26B
100
AcDbEntity
  8
ASSI
100
AcDbLine
 62
7
  6
CONTINUOUS
 10
-23.3800837356
 20
8.6614367511
 11
-23.3800837356
 21
-2.0288502207
  0
LINE
  5
26C
100
AcDbEntity
  8
0
100
AcDbLine
 62
250
  6
CONTINUOUS
 10
-23.4993617351
 20
8.6548265599
 11
-23.7387139244
 21
8.1390610407
  0
LINE
  5
26D
100
AcDbEntity
  8
ASSI
100
AcDbLine
 62
250
  6
CONTINUOUS
 10
-23.4993617351
 20
8.6548265599
 11
-23.7387139244
 21
8.1390610407
  0
LINE
  5
26E
100
AcDbEntity
  8
0
100
AcDbLine
 62
250
  6
CONTINUOUS
 10
-23.7387139244
 20
13.936000006
 11
-23.8801352807
 21
13.8543450873
  0
LINE
  5
26F
100
AcDbEntity
  8
ASSI
100
AcDbLine
 62
250
  6
CONTINUOUS
 10
-23.7387139244
 20
13.936000006
 11
-23.8801352807
 21
13.8543450873
  0
LINE
  5
270
100
AcDbEntity
  8
0
100
AcDbLine
 62
250
  6
CONTINUOUS
 10
-22.890185787
 20
12.4663061618
 11
-23.0316071433
 21
12.3846512431
  0
LINE
  5
271
100
AcDbEntity
  8
ASSI
100
AcDbLine
 62
250
  6
CONTINUOUS
 10
-22.890185787
 20
12.4663061618
 11
-23.0316071433
 21
12.3846512431
  0
LINE
  5
272
100
AcDbEntity
  8
0
100
AcDbLine
 62
250
  6
CONTINUOUS
 10
7.2325630915
 20
-21.2556522867
 11
7.9396698727
 21
-21.2556522867
  0
LINE
  5
273
100
AcDbEntity
  8
ASSI
100
AcDbLine
 62
250
  6
CONTINUOUS
 10
7.2325630915
 20
-21.2556522867
 11
7.9396698727
 21
-21.2556522867
  0
LINE
  5
274
100
AcDbEntity
  8
0
100
AcDbLine
 62
250
  6
CONTINUOUS
 10
9.7781475038
 20
-22.7194289011
 11
8.9296193664
 21
-22.6436912122
  0
LINE
  5
275
100
AcDbEntity
  8
ASSI
100
AcDbLine
 62
250
  6
CONTINUOUS
 10
9.7781475038
 20
-22.7194289011
 11
8.9296193664
 21
-22.6436912122
  0
LINE
  5
276
100
AcDbEntity
  8
0
100
AcDbLine
 62
250
  6
CONTINUOUS
 10
-23.3800837356
 20
-2.0288502207
 11
-23.7387139244
 21
-2.8016406683
  0
LINE
  5
277
100
AcDbEntity
  8
ASSI
100
AcDbLine
 62
250
  6
CONTINUOUS
 10
-23.3800837356
 20
-2.0288502207
 11
-23.7387139244
 21
-2.8016406683
  0
LINE
  5
278
100
AcDbEntity
  8
0
100
AcDbLine
 62
250
  6
CONTINUOUS
 10
-23.3851605339
 20
-4.9653618662
 11
-23.0316071433
 21
-4.3529894311
  0
LINE
  5
279
100
AcDbEntity
  8
ASSI
100
AcDbLine
 62
250
  6
CONTINUOUS
 10
-23.3851605339
 20
-4.9653618662
 11
-23.0316071433
 21
-4.3529894311
  0
LINE
  5
27A
100
AcDbEntity
  8
0
100
AcDbLine
 62
250
  6
CONTINUOUS
 10
-23.8801352807
 20
8.0574061221
 11
-23.7387139244
 21
8.1390610407
  0
LINE
  5
27B
100
AcDbEntity
  8
ASSI
100
AcDbLine
 62
250
  6
CONTINUOUS
 10
-23.8801352807
 20
8.0574061221
 11
-23.7387139244
 21
8.1390610407
  0
LINE
  5
27C
100
AcDbEntity
  8
0
100
AcDbLine
 62
250
  6
CONTINUOUS
 10
-7.8288113477
 20
15.6905233651
 11
-7.970232704
 21
15.6088684464
  0
LINE
  5
27D
100
AcDbEntity
  8
ASSI
100
AcDbLine
 62
250
  6
CONTINUOUS
 10
-7.8288113477
 20
15.6905233651
 11
-7.970232704
 21
15.6088684464
  0
LINE
  5
27E
100
AcDbEntity
  8
0
100
AcDbLine
 62
250
  6
CONTINUOUS
 10
3.0614115746
 20
-18.9789536919
 11
2.4949476576
 21
-18.9283924129
  0
LINE
  5
27F
100
AcDbEntity
  8
ASSI
100
AcDbLine
 62
250
  6
CONTINUOUS
 10
3.0614115746
 20
-18.9789536919
 11
2.4949476576
 21
-18.9283924129
  0
LINE
  5
280
100
AcDbEntity
  8
0
100
AcDbLine
 62
7
  6
CONTINUOUS
 10
-12.7078481379
 20
17.9360336284
 11
-12.7078481379
 21
6.9953319194
  0
LINE
  5
281
100
AcDbEntity
  8
ASSI
100
AcDbLine
 62
7
  6
CONTINUOUS
 10
-12.7078481379
 20
17.9360336284
 11
-12.7078481379
 21
6.9953319194
  0
LINE
  5
282
100
AcDbEntity
  8
0
100
AcDbLine
 62
7
  6
CONTINUOUS
 10
-12.7078481379
 20
1.1983929542
 11
-12.7078481379
 21
-9.7423087549
  0
LINE
  5
283
100
AcDbEntity
  8
ASSI
100
AcDbLine
 62
7
  6
CONTINUOUS
 10
-12.7078481379
 20
1.1983929542
 11
-12.7078481379
 21
-9.7423087549
  0
LINE
  5
284
100
AcDbEntity
  8
0
100
AcDbLine
 62
250
  6
CONTINUOUS
 10
-7.589459132
 20
16.2062889411
 11
-7.8288113477
 21
15.6905233651
  0
LINE
  5
285
100
AcDbEntity
  8
ASSI
100
AcDbLine
 62
250
  6
CONTINUOUS
 10
-7.589459132
 20
16.2062889411
 11
-7.8288113477
 21
15.6905233651
  0
LINE
  5
286
100
AcDbEntity
  8
0
100
AcDbLine
 62
250
  6
CONTINUOUS
 10
-13.909929666
 20
6.3013992575
 11
-13.5563762754
 21
6.9137716926
  0
LINE
  5
287
100
AcDbEntity
  8
ASSI
100
AcDbLine
 62
250
  6
CONTINUOUS
 10
-13.909929666
 20
6.3013992575
 11
-13.5563762754
 21
6.9137716926
  0
LINE
  5
288
100
AcDbEntity
  8
0
100
AcDbLine
 62
250
  6
CONTINUOUS
 10
-13.4149549191
 20
6.9954266112
 11
-13.5563762754
 21
6.9137716926
  0
LINE
  5
289
100
AcDbEntity
  8
ASSI
100
AcDbLine
 62
250
  6
CONTINUOUS
 10
-13.4149549191
 20
6.9954266112
 11
-13.5563762754
 21
6.9137716926
  0
LINE
  5
28A
100
AcDbEntity
  8
0
100
AcDbLine
 62
250
  6
CONTINUOUS
 10
-6.1317550729
 20
-13.5332505512
 11
-6.9802832103
 21
-13.4575128623
  0
LINE
  5
28B
100
AcDbEntity
  8
ASSI
100
AcDbLine
 62
250
  6
CONTINUOUS
 10
-6.1317550729
 20
-13.5332505512
 11
-6.9802832103
 21
-13.4575128623
  0
LINE
  5
28C
100
AcDbEntity
  8
0
100
AcDbLine
 62
7
  6
CONTINUOUS
 10
17.9098754874
 20
-28.8085981165
 11
8.4346446195
 21
-23.3377185659
  0
LINE
  5
28D
100
AcDbEntity
  8
ASSI
100
AcDbLine
 62
7
  6
CONTINUOUS
 10
17.9098754874
 20
-28.8085981165
 11
8.4346446195
 21
-23.3377185659
  0
LINE
  5
28E
100
AcDbEntity
  8
0
100
AcDbLine
 62
7
  6
CONTINUOUS
 10
1.9999729107
 20
-19.6224197666
 11
-7.4752579572
 21
-14.151540216
  0
LINE
  5
28F
100
AcDbEntity
  8
ASSI
100
AcDbLine
 62
7
  6
CONTINUOUS
 10
1.9999729107
 20
-19.6224197666
 11
-7.4752579572
 21
-14.151540216
  0
LINE
  5
290
100
AcDbEntity
  8
0
100
AcDbLine
 62
7
  6
CONTINUOUS
 10
-13.909929666
 20
-10.4362414168
 11
-23.3851605339
 21
-4.9653618662
  0
LINE
  5
291
100
AcDbEntity
  8
ASSI
100
AcDbLine
 62
7
  6
CONTINUOUS
 10
-13.909929666
 20
-10.4362414168
 11
-23.3851605339
 21
-4.9653618662
  0
LINE
  5
292
100
AcDbEntity
  8
0
100
AcDbLine
 62
7
  6
CONTINUOUS
 10
18.263428878
 20
-28.1962256814
 11
8.7881980101
 21
-22.7253461309
  0
LINE
  5
293
100
AcDbEntity
  8
ASSI
100
AcDbLine
 62
7
  6
CONTINUOUS
 10
18.263428878
 20
-28.1962256814
 11
8.7881980101
 21
-22.7253461309
  0
LINE
  5
294
100
AcDbEntity
  8
0
100
AcDbLine
 62
7
  6
CONTINUOUS
 10
2.3535263013
 20
-19.0100473316
 11
-7.1217045666
 21
-13.539167781
  0
LINE
  5
295
100
AcDbEntity
  8
ASSI
100
AcDbLine
 62
7
  6
CONTINUOUS
 10
2.3535263013
 20
-19.0100473316
 11
-7.1217045666
 21
-13.539167781
  0
LINE
  5
296
100
AcDbEntity
  8
0
100
AcDbLine
 62
7
  6
CONTINUOUS
 10
-13.5563762754
 20
-9.8238689817
 11
-23.0316071433
 21
-4.3529894311
  0
LINE
  5
297
100
AcDbEntity
  8
ASSI
100
AcDbLine
 62
7
  6
CONTINUOUS
 10
-13.5563762754
 20
-9.8238689817
 11
-23.0316071433
 21
-4.3529894311
  0
LINE
  5
298
100
AcDbEntity
  8
0
100
AcDbLine
 62
7
  6
CONTINUOUS
 10
-22.890185787
 20
-4.2713345124
 11
-13.4149549191
 21
-9.742214063
  0
LINE
  5
299
100
AcDbEntity
  8
ASSI
100
AcDbLine
 62
7
  6
CONTINUOUS
 10
-22.890185787
 20
-4.2713345124
 11
-13.4149549191
 21
-9.742214063
  0
LINE
  5
29A
100
AcDbEntity
  8
0
100
AcDbLine
 62
7
  6
CONTINUOUS
 10
-6.9802832103
 20
-13.4575128623
 11
2.4949476576
 21
-18.9283924129
  0
LINE
  5
29B
100
AcDbEntity
  8
ASSI
100
AcDbLine
 62
7
  6
CONTINUOUS
 10
-6.9802832103
 20
-13.4575128623
 11
2.4949476576
 21
-18.9283924129
  0
LINE
  5
29C
100
AcDbEntity
  8
0
100
AcDbLine
 62
7
  6
CONTINUOUS
 10
8.9296193664
 20
-22.6436912122
 11
18.4048502343
 21
-28.1145707628
  0
LINE
  5
29D
100
AcDbEntity
  8
ASSI
100
AcDbLine
 62
7
  6
CONTINUOUS
 10
8.9296193664
 20
-22.6436912122
 11
18.4048502343
 21
-28.1145707628
  0
LINE
  5
29E
100
AcDbEntity
  8
0
100
AcDbLine
 62
7
  6
CONTINUOUS
 10
-22.0416576496
 20
-4.3470722014
 11
-12.7831602746
 21
-9.6928125494
  0
LINE
  5
29F
100
AcDbEntity
  8
ASSI
100
AcDbLine
 62
7
  6
CONTINUOUS
 10
-22.0416576496
 20
-4.3470722014
 11
-12.7831602746
 21
-9.6928125494
  0
LINE
  5
2A0
100
AcDbEntity
  8
0
100
AcDbLine
 62
7
  6
CONTINUOUS
 10
-6.1317550729
 20
-13.5332505512
 11
3.1267423021
 21
-18.8789908993
  0
LINE
  5
2A1
100
AcDbEntity
  8
ASSI
100
AcDbLine
 62
7
  6
CONTINUOUS
 10
-6.1317550729
 20
-13.5332505512
 11
3.1267423021
 21
-18.8789908993
  0
LINE
  5
2A2
100
AcDbEntity
  8
0
100
AcDbLine
 62
7
  6
CONTINUOUS
 10
9.7781475038
 20
-22.7194289011
 11
19.0366448788
 21
-28.0651692492
  0
LINE
  5
2A3
100
AcDbEntity
  8
ASSI
100
AcDbLine
 62
7
  6
CONTINUOUS
 10
9.7781475038
 20
-22.7194289011
 11
19.0366448788
 21
-28.0651692492
  0
LINE
  5
2A4
100
AcDbEntity
  8
0
100
AcDbLine
 62
7
  6
CONTINUOUS
 10
-13.3834119661
 20
-7.9634462616
 11
-12.7078481379
 21
-8.3535083492
  0
LINE
  5
2A5
100
AcDbEntity
  8
0
100
AcDbLine
 62
7
  6
CONTINUOUS
 10
18.4363931873
 20
-26.3358029614
 11
19.1119570155
 21
-26.725865049
  0
LINE
  5
2A6
100
AcDbEntity
  8
0
100
AcDbLine
 62
7
  6
CONTINUOUS
 10
-8.6773394852
 20
-12.0694739368
 11
-8.6773394852
 21
-1.1287722278
  0
LINE
  5
2A7
100
AcDbEntity
  8
ASSI
100
AcDbLine
 62
7
  6
CONTINUOUS
 10
-8.6773394852
 20
-12.0694739368
 11
-8.6773394852
 21
-1.1287722278
  0
LINE
  5
2A8
100
AcDbEntity
  8
0
100
AcDbLine
 62
7
  6
CONTINUOUS
 10
-8.6773394852
 20
4.6681667374
 11
-8.6773394852
 21
15.6088684464
  0
LINE
  5
2A9
100
AcDbEntity
  8
ASSI
100
AcDbLine
 62
7
  6
CONTINUOUS
 10
-8.6773394852
 20
4.6681667374
 11
-8.6773394852
 21
15.6088684464
  0
LINE
  5
2AA
100
AcDbEntity
  8
0
100
AcDbLine
 62
250
  6
CONTINUOUS
 10
-7.4701811589
 20
5.5226121037
 11
-7.8288113477
 21
4.7498216561
  0
LINE
  5
2AB
100
AcDbEntity
  8
ASSI
100
AcDbLine
 62
250
  6
CONTINUOUS
 10
-7.4701811589
 20
5.5226121037
 11
-7.8288113477
 21
4.7498216561
  0
LINE
  5
2AC
100
AcDbEntity
  8
0
100
AcDbLine
 62
250
  6
CONTINUOUS
 10
-23.8801352807
 20
-2.883295587
 11
-23.7387139244
 21
-2.8016406683
  0
LINE
  5
2AD
100
AcDbEntity
  8
ASSI
100
AcDbLine
 62
250
  6
CONTINUOUS
 10
-23.8801352807
 20
-2.883295587
 11
-23.7387139244
 21
-2.8016406683
  0
LINE
  5
2AE
100
AcDbEntity
  8
0
100
AcDbLine
 62
250
  6
CONTINUOUS
 10
-8.6773394852
 20
-12.0694739368
 11
-7.970232704
 21
-12.0694739368
  0
LINE
  5
2AF
100
AcDbEntity
  8
ASSI
100
AcDbLine
 62
250
  6
CONTINUOUS
 10
-8.6773394852
 20
-12.0694739368
 11
-7.970232704
 21
-12.0694739368
  0
LINE
  5
2B0
100
AcDbEntity
  8
0
100
AcDbLine
 62
250
  6
CONTINUOUS
 10
7.2325630915
 20
-10.3149505777
 11
7.9396698727
 21
-10.3149505777
  0
LINE
  5
2B1
100
AcDbEntity
  8
ASSI
100
AcDbLine
 62
250
  6
CONTINUOUS
 10
7.2325630915
 20
-10.3149505777
 11
7.9396698727
 21
-10.3149505777
  0
LINE
  5
2B2
100
AcDbEntity
  8
0
100
AcDbLine
 62
250
  6
CONTINUOUS
 10
-12.8484910021
 20
-9.7927753421
 11
-13.4149549191
 21
-9.742214063
  0
LINE
  5
2B3
100
AcDbEntity
  8
ASSI
100
AcDbLine
 62
250
  6
CONTINUOUS
 10
-12.8484910021
 20
-9.7927753421
 11
-13.4149549191
 21
-9.742214063
  0
LINE
  5
2B4
100
AcDbEntity
  8
0
100
AcDbLine
 62
250
  6
CONTINUOUS
 10
18.9713140894
 20
-11.427491362
 11
18.4048502343
 21
-11.3769300885
  0
LINE
  5
2B5
100
AcDbEntity
  8
ASSI
100
AcDbLine
 62
250
  6
CONTINUOUS
 10
18.9713140894
 20
-11.427491362
 11
18.4048502343
 21
-11.3769300885
  0
LINE
  5
2B6
100
AcDbEntity
  8
0
100
AcDbLine
 62
7
  6
CONTINUOUS
 10
-7.970232704
 20
-12.0694739368
 11
-7.970232704
 21
-1.1287722278
  0
LINE
  5
2B7
100
AcDbEntity
  8
ASSI
100
AcDbLine
 62
7
  6
CONTINUOUS
 10
-7.970232704
 20
-12.0694739368
 11
-7.970232704
 21
-1.1287722278
  0
LINE
  5
2B8
100
AcDbEntity
  8
0
100
AcDbLine
 62
7
  6
CONTINUOUS
 10
-7.970232704
 20
4.6681667374
 11
-7.970232704
 21
15.6088684464
  0
LINE
  5
2B9
100
AcDbEntity
  8
ASSI
100
AcDbLine
 62
7
  6
CONTINUOUS
 10
-7.970232704
 20
4.6681667374
 11
-7.970232704
 21
15.6088684464
  0
LINE
  5
2BA
100
AcDbEntity
  8
0
100
AcDbLine
 62
7
  6
CONTINUOUS
 10
-7.8288113477
 20
15.6905233651
 11
-7.8288113477
 21
4.7498216561
  0
LINE
  5
2BB
100
AcDbEntity
  8
ASSI
100
AcDbLine
 62
7
  6
CONTINUOUS
 10
-7.8288113477
 20
15.6905233651
 11
-7.8288113477
 21
4.7498216561
  0
LINE
  5
2BC
100
AcDbEntity
  8
0
100
AcDbLine
 62
7
  6
CONTINUOUS
 10
-7.8288113477
 20
-1.0471173091
 11
-7.8288113477
 21
-11.9878190182
  0
LINE
  5
2BD
100
AcDbEntity
  8
ASSI
100
AcDbLine
 62
7
  6
CONTINUOUS
 10
-7.8288113477
 20
-1.0471173091
 11
-7.8288113477
 21
-11.9878190182
  0
LINE
  5
2BE
100
AcDbEntity
  8
0
100
AcDbLine
 62
7
  6
CONTINUOUS
 10
-7.4701811589
 20
16.2128990687
 11
-7.4701811589
 21
5.5226121037
  0
LINE
  5
2BF
100
AcDbEntity
  8
ASSI
100
AcDbLine
 62
7
  6
CONTINUOUS
 10
-7.4701811589
 20
16.2128990687
 11
-7.4701811589
 21
5.5226121037
  0
LINE
  5
2C0
100
AcDbEntity
  8
0
100
AcDbLine
 62
7
  6
CONTINUOUS
 10
-7.4701811589
 20
-0.5247415987
 11
-7.4701811589
 21
-11.2150285705
  0
LINE
  5
2C1
100
AcDbEntity
  8
ASSI
100
AcDbLine
 62
7
  6
CONTINUOUS
 10
-7.4701811589
 20
-0.5247415987
 11
-7.4701811589
 21
-11.2150285705
  0
LINE
  5
2C2
100
AcDbEntity
  8
0
100
AcDbLine
 62
250
  6
CONTINUOUS
 10
-7.5894591584
 20
-0.5313517899
 11
-7.8288113477
 21
-1.0471173091
  0
LINE
  5
2C3
100
AcDbEntity
  8
ASSI
100
AcDbLine
 62
250
  6
CONTINUOUS
 10
-7.5894591584
 20
-0.5313517899
 11
-7.8288113477
 21
-1.0471173091
  0
LINE
  5
2C4
100
AcDbEntity
  8
0
100
AcDbLine
 62
250
  6
CONTINUOUS
 10
-7.4752579572
 20
2.5861004582
 11
-7.1217045666
 21
3.1984728933
  0
LINE
  5
2C5
100
AcDbEntity
  8
ASSI
100
AcDbLine
 62
250
  6
CONTINUOUS
 10
-7.4752579572
 20
2.5861004582
 11
-7.1217045666
 21
3.1984728933
  0
LINE
  5
2C6
100
AcDbEntity
  8
0
100
AcDbLine
 62
250
  6
CONTINUOUS
 10
-13.909929666
 20
-10.4362414168
 11
-13.5563762754
 21
-9.8238689817
  0
LINE
  5
2C7
100
AcDbEntity
  8
ASSI
100
AcDbLine
 62
250
  6
CONTINUOUS
 10
-13.909929666
 20
-10.4362414168
 11
-13.5563762754
 21
-9.8238689817
  0
LINE
  5
2C8
100
AcDbEntity
  8
0
100
AcDbLine
 62
250
  6
CONTINUOUS
 10
-7.8288113477
 20
4.7498216561
 11
-7.970232704
 21
4.6681667374
  0
LINE
  5
2C9
100
AcDbEntity
  8
ASSI
100
AcDbLine
 62
250
  6
CONTINUOUS
 10
-7.8288113477
 20
4.7498216561
 11
-7.970232704
 21
4.6681667374
  0
LINE
  5
2CA
100
AcDbEntity
  8
0
100
AcDbLine
 62
250
  6
CONTINUOUS
 10
-23.0316071433
 20
-4.3529894311
 11
-22.890185787
 21
-4.2713345124
  0
LINE
  5
2CB
100
AcDbEntity
  8
ASSI
100
AcDbLine
 62
250
  6
CONTINUOUS
 10
-23.0316071433
 20
-4.3529894311
 11
-22.890185787
 21
-4.2713345124
  0
LINE
  5
2CC
100
AcDbEntity
  8
0
100
AcDbLine
 62
250
  6
CONTINUOUS
 10
-6.9802832103
 20
3.2801278119
 11
-7.1217045666
 21
3.1984728933
  0
LINE
  5
2CD
100
AcDbEntity
  8
ASSI
100
AcDbLine
 62
250
  6
CONTINUOUS
 10
-6.9802832103
 20
3.2801278119
 11
-7.1217045666
 21
3.1984728933
  0
LINE
  5
2CE
100
AcDbEntity
  8
0
100
AcDbLine
 62
250
  6
CONTINUOUS
 10
7.2325630915
 20
-4.5180116125
 11
7.9396698727
 21
-4.5180116125
  0
LINE
  5
2CF
100
AcDbEntity
  8
ASSI
100
AcDbLine
 62
250
  6
CONTINUOUS
 10
7.2325630915
 20
-4.5180116125
 11
7.9396698727
 21
-4.5180116125
  0
LINE
  5
2D0
100
AcDbEntity
  8
0
100
AcDbLine
 62
250
  6
CONTINUOUS
 10
-22.0416576496
 20
-4.3470722014
 11
-22.890185787
 21
-4.2713345124
  0
LINE
  5
2D1
100
AcDbEntity
  8
ASSI
100
AcDbLine
 62
250
  6
CONTINUOUS
 10
-22.0416576496
 20
-4.3470722014
 11
-22.890185787
 21
-4.2713345124
  0
LINE
  5
2D2
100
AcDbEntity
  8
0
100
AcDbLine
 62
250
  6
CONTINUOUS
 10
9.7781475038
 20
-5.9817882269
 11
8.9296193664
 21
-5.9060505379
  0
LINE
  5
2D3
100
AcDbEntity
  8
ASSI
100
AcDbLine
 62
250
  6
CONTINUOUS
 10
9.7781475038
 20
-5.9817882269
 11
8.9296193664
 21
-5.9060505379
  0
LINE
  5
2D4
100
AcDbEntity
  8
0
100
AcDbLine
 62
7
  6
CONTINUOUS
 10
-23.3851605339
 20
8.751338784
 11
-13.909929666
 21
3.2804592334
  0
LINE
  5
2D5
100
AcDbEntity
  8
ASSI
100
AcDbLine
 62
7
  6
CONTINUOUS
 10
-23.3851605339
 20
8.751338784
 11
-13.909929666
 21
3.2804592334
  0
LINE
  5
2D6
100
AcDbEntity
  8
0
100
AcDbLine
 62
7
  6
CONTINUOUS
 10
-7.4752579572
 20
-0.4348395659
 11
1.9999729107
 21
-5.9057191165
  0
LINE
  5
2D7
100
AcDbEntity
  8
ASSI
100
AcDbLine
 62
7
  6
CONTINUOUS
 10
-7.4752579572
 20
-0.4348395659
 11
1.9999729107
 21
-5.9057191165
  0
LINE
  5
2D8
100
AcDbEntity
  8
0
100
AcDbLine
 62
7
  6
CONTINUOUS
 10
8.4346446195
 20
-9.6210179158
 11
17.9098754874
 21
-15.0918974664
  0
LINE
  5
2D9
100
AcDbEntity
  8
ASSI
100
AcDbLine
 62
7
  6
CONTINUOUS
 10
8.4346446195
 20
-9.6210179158
 11
17.9098754874
 21
-15.0918974664
  0
LINE
  5
2DA
100
AcDbEntity
  8
0
100
AcDbLine
 62
250
  6
CONTINUOUS
 10
-7.4701811589
 20
-11.2150285705
 11
-7.8288113477
 21
-11.9878190182
  0
LINE
  5
2DB
100
AcDbEntity
  8
ASSI
100
AcDbLine
 62
250
  6
CONTINUOUS
 10
-7.4701811589
 20
-11.2150285705
 11
-7.8288113477
 21
-11.9878190182
  0
LINE
  5
2DC
100
AcDbEntity
  8
0
100
AcDbLine
 62
250
  6
CONTINUOUS
 10
-7.970232704
 20
-1.1287722278
 11
-7.8288113477
 21
-1.0471173091
  0
LINE
  5
2DD
100
AcDbEntity
  8
ASSI
100
AcDbLine
 62
250
  6
CONTINUOUS
 10
-7.970232704
 20
-1.1287722278
 11
-7.8288113477
 21
-1.0471173091
  0
LINE
  5
2DE
100
AcDbEntity
  8
0
100
AcDbLine
 62
250
  6
CONTINUOUS
 10
8.081091229
 20
6.5043450152
 11
7.9396698727
 21
6.4226900966
  0
LINE
  5
2DF
100
AcDbEntity
  8
ASSI
100
AcDbLine
 62
250
  6
CONTINUOUS
 10
8.081091229
 20
6.5043450152
 11
7.9396698727
 21
6.4226900966
  0
LINE
  5
2E0
100
AcDbEntity
  8
0
100
AcDbLine
 62
7
  6
CONTINUOUS
 10
28.9442417929
 20
17.4464242627
 11
33.0061747777
 21
19.7917181648
  0
LINE
  5
2E1
100
AcDbEntity
  8
ASSI
100
AcDbLine
 62
7
  6
CONTINUOUS
 10
28.9442417929
 20
17.4464242627
 11
33.0061747777
 21
19.7917181648
  0
LINE
  5
2E2
100
AcDbEntity
  8
0
100
AcDbLine
 62
250
  6
CONTINUOUS
 10
-24.5872420619
 20
-2.883295587
 11
-23.8801352807
 21
-2.883295587
  0
LINE
  5
2E3
100
AcDbEntity
  8
ASSI
100
AcDbLine
 62
250
  6
CONTINUOUS
 10
-24.5872420619
 20
-2.883295587
 11
-23.8801352807
 21
-2.883295587
  0
LINE
  5
2E4
100
AcDbEntity
  8
0
100
AcDbLine
 62
250
  6
CONTINUOUS
 10
-8.6773394852
 20
-1.1287722278
 11
-7.970232704
 21
-1.1287722278
  0
LINE
  5
2E5
100
AcDbEntity
  8
ASSI
100
AcDbLine
 62
250
  6
CONTINUOUS
 10
-8.6773394852
 20
-1.1287722278
 11
-7.970232704
 21
-1.1287722278
  0
LINE
  5
2E6
100
AcDbEntity
  8
0
100
AcDbLine
 62
250
  6
CONTINUOUS
 10
3.0614115127
 20
-2.2413130122
 11
2.4949476576
 21
-2.1907517387
  0
LINE
  5
2E7
100
AcDbEntity
  8
ASSI
100
AcDbLine
 62
250
  6
CONTINUOUS
 10
3.0614115127
 20
-2.2413130122
 11
2.4949476576
 21
-2.1907517387
  0
LINE
  5
2E8
100
AcDbEntity
  8
0
100
AcDbLine
 62
7
  6
CONTINUOUS
 10
17.9098754874
 20
-12.0709574423
 11
8.4346446195
 21
-6.6000778917
  0
LINE
  5
2E9
100
AcDbEntity
  8
ASSI
100
AcDbLine
 62
7
  6
CONTINUOUS
 10
17.9098754874
 20
-12.0709574423
 11
8.4346446195
 21
-6.6000778917
  0
LINE
  5
2EA
100
AcDbEntity
  8
0
100
AcDbLine
 62
7
  6
CONTINUOUS
 10
1.9999729107
 20
-2.8847790924
 11
-7.4752579572
 21
2.5861004582
  0
LINE
  5
2EB
100
AcDbEntity
  8
ASSI
100
AcDbLine
 62
7
  6
CONTINUOUS
 10
1.9999729107
 20
-2.8847790924
 11
-7.4752579572
 21
2.5861004582
  0
LINE
  5
2EC
100
AcDbEntity
  8
0
100
AcDbLine
 62
7
  6
CONTINUOUS
 10
-13.909929666
 20
6.3013992575
 11
-23.3851605339
 21
11.7722788081
  0
LINE
  5
2ED
100
AcDbEntity
  8
ASSI
100
AcDbLine
 62
7
  6
CONTINUOUS
 10
-13.909929666
 20
6.3013992575
 11
-23.3851605339
 21
11.7722788081
  0
LINE
  5
2EE
100
AcDbEntity
  8
0
100
AcDbLine
 62
7
  6
CONTINUOUS
 10
18.263428878
 20
-11.4585850072
 11
8.7881980101
 21
-5.9877054566
  0
LINE
  5
2EF
100
AcDbEntity
  8
ASSI
100
AcDbLine
 62
7
  6
CONTINUOUS
 10
18.263428878
 20
-11.4585850072
 11
8.7881980101
 21
-5.9877054566
  0
LINE
  5
2F0
100
AcDbEntity
  8
0
100
AcDbLine
 62
7
  6
CONTINUOUS
 10
2.3535263013
 20
-2.2724066573
 11
-7.1217045666
 21
3.1984728933
  0
LINE
  5
2F1
100
AcDbEntity
  8
ASSI
100
AcDbLine
 62
7
  6
CONTINUOUS
 10
2.3535263013
 20
-2.2724066573
 11
-7.1217045666
 21
3.1984728933
  0
LINE
  5
2F2
100
AcDbEntity
  8
0
100
AcDbLine
 62
7
  6
CONTINUOUS
 10
-13.5563762754
 20
6.9137716926
 11
-23.0316071433
 21
12.3846512431
  0
LINE
  5
2F3
100
AcDbEntity
  8
ASSI
100
AcDbLine
 62
7
  6
CONTINUOUS
 10
-13.5563762754
 20
6.9137716926
 11
-23.0316071433
 21
12.3846512431
  0
LINE
  5
2F4
100
AcDbEntity
  8
0
100
AcDbLine
 62
7
  6
CONTINUOUS
 10
-22.890185787
 20
12.4663061618
 11
-13.4149549191
 21
6.9954266112
  0
LINE
  5
2F5
100
AcDbEntity
  8
ASSI
100
AcDbLine
 62
7
  6
CONTINUOUS
 10
-22.890185787
 20
12.4663061618
 11
-13.4149549191
 21
6.9954266112
  0
LINE
  5
2F6
100
AcDbEntity
  8
0
100
AcDbLine
 62
7
  6
CONTINUOUS
 10
-6.9802832103
 20
3.2801278119
 11
2.4949476576
 21
-2.1907517387
  0
LINE
  5
2F7
100
AcDbEntity
  8
ASSI
100
AcDbLine
 62
7
  6
CONTINUOUS
 10
-6.9802832103
 20
3.2801278119
 11
2.4949476576
 21
-2.1907517387
  0
LINE
  5
2F8
100
AcDbEntity
  8
0
100
AcDbLine
 62
7
  6
CONTINUOUS
 10
8.9296193664
 20
-5.9060505379
 11
18.4048502343
 21
-11.3769300885
  0
LINE
  5
2F9
100
AcDbEntity
  8
ASSI
100
AcDbLine
 62
7
  6
CONTINUOUS
 10
8.9296193664
 20
-5.9060505379
 11
18.4048502343
 21
-11.3769300885
  0
LINE
  5
2FA
100
AcDbEntity
  8
0
100
AcDbLine
 62
7
  6
CONTINUOUS
 10
-22.0416576496
 20
12.3905684729
 11
-12.7831602684
 21
7.0448281212
  0
LINE
  5
2FB
100
AcDbEntity
  8
ASSI
100
AcDbLine
 62
7
  6
CONTINUOUS
 10
-22.0416576496
 20
12.3905684729
 11
-12.7831602684
 21
7.0448281212
  0
LINE
  5
2FC
100
AcDbEntity
  8
0
100
AcDbLine
 62
7
  6
CONTINUOUS
 10
-6.1317550729
 20
3.204390123
 11
3.1267423083
 21
-2.1413502286
  0
LINE
  5
2FD
100
AcDbEntity
  8
ASSI
100
AcDbLine
 62
7
  6
CONTINUOUS
 10
-6.1317550729
 20
3.204390123
 11
3.1267423083
 21
-2.1413502286
  0
LINE
  5
2FE
100
AcDbEntity
  8
0
100
AcDbLine
 62
7
  6
CONTINUOUS
 10
9.7781475038
 20
-5.9817882269
 11
19.036644885
 21
-11.3275285785
  0
LINE
  5
2FF
100
AcDbEntity
  8
ASSI
100
AcDbLine
 62
7
  6
CONTINUOUS
 10
9.7781475038
 20
-5.9817882269
 11
19.036644885
 21
-11.3275285785
  0
LINE
  5
300
100
AcDbEntity
  8
0
100
AcDbLine
 62
7
  6
CONTINUOUS
 10
-33.713712047
 20
52.8073741756
 11
-33.7133367395
 21
52.8067378141
  0
LINE
  5
301
100
AcDbEntity
  8
ASSI
100
AcDbLine
 62
7
  6
CONTINUOUS
 10
-33.713712047
 20
52.8073741756
 11
-33.7133367395
 21
52.8067378141
  0
LINE
  5
302
100
AcDbEntity
  8
0
100
AcDbLine
 62
7
  6
CONTINUOUS
 10
28.9438793627
 20
-55.7187438231
 11
28.9442417929
 21
-55.7193852608
  0
LINE
  5
303
100
AcDbEntity
  8
ASSI
100
AcDbLine
 62
7
  6
CONTINUOUS
 10
28.9438793627
 20
-55.7187438231
 11
28.9442417929
 21
-55.7193852608
  0
LINE
  5
304
100
AcDbEntity
  8
0
100
AcDbLine
 62
7
  6
CONTINUOUS
 10
3.2020544388
 20
8.7498552785
 11
3.2020544388
 21
-2.1908464305
  0
LINE
  5
305
100
AcDbEntity
  8
ASSI
100
AcDbLine
 62
7
  6
CONTINUOUS
 10
3.2020544388
 20
8.7498552785
 11
3.2020544388
 21
-2.1908464305
  0
LINE
  5
306
100
AcDbEntity
  8
0
100
AcDbLine
 62
7
  6
CONTINUOUS
 10
3.2020544388
 20
-7.9877853957
 11
3.2020544388
 21
-18.9284871047
  0
LINE
  5
307
100
AcDbEntity
  8
ASSI
100
AcDbLine
 62
7
  6
CONTINUOUS
 10
3.2020544388
 20
-7.9877853957
 11
3.2020544388
 21
-18.9284871047
  0
LINE
  5
308
100
AcDbEntity
  8
0
100
AcDbLine
 62
250
  6
CONTINUOUS
 10
8.3204434447
 20
7.0201105912
 11
8.081091229
 21
6.5043450152
  0
LINE
  5
309
100
AcDbEntity
  8
ASSI
100
AcDbLine
 62
250
  6
CONTINUOUS
 10
8.3204434447
 20
7.0201105912
 11
8.081091229
 21
6.5043450152
  0
LINE
  5
30A
100
AcDbEntity
  8
0
100
AcDbLine
 62
250
  6
CONTINUOUS
 10
-7.4752579572
 20
-14.151540216
 11
-7.1217045666
 21
-13.539167781
  0
LINE
  5
30B
100
AcDbEntity
  8
ASSI
100
AcDbLine
 62
250
  6
CONTINUOUS
 10
-7.4752579572
 20
-14.151540216
 11
-7.1217045666
 21
-13.539167781
  0
LINE
  5
30C
100
AcDbEntity
  8
0
100
AcDbLine
 62
250
  6
CONTINUOUS
 10
1.9999729107
 20
-2.8847790924
 11
2.3535263013
 21
-2.2724066573
  0
LINE
  5
30D
100
AcDbEntity
  8
ASSI
100
AcDbLine
 62
250
  6
CONTINUOUS
 10
1.9999729107
 20
-2.8847790924
 11
2.3535263013
 21
-2.2724066573
  0
LINE
  5
30E
100
AcDbEntity
  8
0
100
AcDbLine
 62
7
  6
CONTINUOUS
 10
29.6517790622
 20
16.2209337653
 11
33.713712047
 21
18.5662276674
  0
LINE
  5
30F
100
AcDbEntity
  8
ASSI
100
AcDbLine
 62
7
  6
CONTINUOUS
 10
29.6517790622
 20
16.2209337653
 11
33.713712047
 21
18.5662276674
  0
LINE
  5
310
100
AcDbEntity
  8
0
100
AcDbLine
 62
250
  6
CONTINUOUS
 10
-13.5563762754
 20
-9.8238689817
 11
-13.4149549191
 21
-9.742214063
  0
LINE
  5
311
100
AcDbEntity
  8
ASSI
100
AcDbLine
 62
250
  6
CONTINUOUS
 10
-13.5563762754
 20
-9.8238689817
 11
-13.4149549191
 21
-9.742214063
  0
LINE
  5
312
100
AcDbEntity
  8
0
100
AcDbLine
 62
250
  6
CONTINUOUS
 10
2.4949476576
 20
-2.1907517387
 11
2.3535263013
 21
-2.2724066573
  0
LINE
  5
313
100
AcDbEntity
  8
ASSI
100
AcDbLine
 62
250
  6
CONTINUOUS
 10
2.4949476576
 20
-2.1907517387
 11
2.3535263013
 21
-2.2724066573
  0
LINE
  5
314
100
AcDbEntity
  8
0
100
AcDbLine
 62
7
  6
CONTINUOUS
 10
-14.9178326177
 20
-8.4602794923
 11
-13.6586594436
 21
-7.9438098881
  0
LINE
  5
315
100
AcDbEntity
  8
0
100
AcDbLine
 62
250
  6
CONTINUOUS
 10
-8.6773394852
 20
4.6681667374
 11
-7.970232704
 21
4.6681667374
  0
LINE
  5
316
100
AcDbEntity
  8
ASSI
100
AcDbLine
 62
250
  6
CONTINUOUS
 10
-8.6773394852
 20
4.6681667374
 11
-7.970232704
 21
4.6681667374
  0
LINE
  5
317
100
AcDbEntity
  8
0
100
AcDbLine
 62
250
  6
CONTINUOUS
 10
-6.1317550729
 20
3.204390123
 11
-6.9802832103
 21
3.2801278119
  0
LINE
  5
318
100
AcDbEntity
  8
ASSI
100
AcDbLine
 62
250
  6
CONTINUOUS
 10
-6.1317550729
 20
3.204390123
 11
-6.9802832103
 21
3.2801278119
  0
LINE
  5
319
100
AcDbEntity
  8
0
100
AcDbLine
 62
7
  6
CONTINUOUS
 10
7.2325630915
 20
-21.2556522867
 11
7.2325630915
 21
-10.3149505777
  0
LINE
  5
31A
100
AcDbEntity
  8
ASSI
100
AcDbLine
 62
7
  6
CONTINUOUS
 10
7.2325630915
 20
-21.2556522867
 11
7.2325630915
 21
-10.3149505777
  0
LINE
  5
31B
100
AcDbEntity
  8
0
100
AcDbLine
 62
7
  6
CONTINUOUS
 10
7.2325630915
 20
-4.5180116125
 11
7.2325630915
 21
6.4226900966
  0
LINE
  5
31C
100
AcDbEntity
  8
ASSI
100
AcDbLine
 62
7
  6
CONTINUOUS
 10
7.2325630915
 20
-4.5180116125
 11
7.2325630915
 21
6.4226900966
  0
LINE
  5
31D
100
AcDbEntity
  8
0
100
AcDbLine
 62
7
  6
CONTINUOUS
 10
7.9396698727
 20
-21.2556522867
 11
7.9396698727
 21
-10.3149505777
  0
LINE
  5
31E
100
AcDbEntity
  8
ASSI
100
AcDbLine
 62
7
  6
CONTINUOUS
 10
7.9396698727
 20
-21.2556522867
 11
7.9396698727
 21
-10.3149505777
  0
LINE
  5
31F
100
AcDbEntity
  8
0
100
AcDbLine
 62
7
  6
CONTINUOUS
 10
7.9396698727
 20
-4.5180116125
 11
7.9396698727
 21
6.4226900966
  0
LINE
  5
320
100
AcDbEntity
  8
ASSI
100
AcDbLine
 62
7
  6
CONTINUOUS
 10
7.9396698727
 20
-4.5180116125
 11
7.9396698727
 21
6.4226900966
  0
LINE
  5
321
100
AcDbEntity
  8
0
100
AcDbLine
 62
7
  6
CONTINUOUS
 10
8.081091229
 20
6.5043450152
 11
8.081091229
 21
-4.4363566938
  0
LINE
  5
322
100
AcDbEntity
  8
ASSI
100
AcDbLine
 62
7
  6
CONTINUOUS
 10
8.081091229
 20
6.5043450152
 11
8.081091229
 21
-4.4363566938
  0
LINE
  5
323
100
AcDbEntity
  8
0
100
AcDbLine
 62
7
  6
CONTINUOUS
 10
8.081091229
 20
-10.233295659
 11
8.081091229
 21
-21.173997368
  0
LINE
  5
324
100
AcDbEntity
  8
ASSI
100
AcDbLine
 62
7
  6
CONTINUOUS
 10
8.081091229
 20
-10.233295659
 11
8.081091229
 21
-21.173997368
  0
LINE
  5
325
100
AcDbEntity
  8
0
100
AcDbLine
 62
7
  6
CONTINUOUS
 10
8.4397214178
 20
7.0267207188
 11
8.4397214178
 21
-3.6635662462
  0
LINE
  5
326
100
AcDbEntity
  8
ASSI
100
AcDbLine
 62
7
  6
CONTINUOUS
 10
8.4397214178
 20
7.0267207188
 11
8.4397214178
 21
-3.6635662462
  0
LINE
  5
327
100
AcDbEntity
  8
0
100
AcDbLine
 62
7
  6
CONTINUOUS
 10
8.4397214178
 20
-9.7109199486
 11
8.4397214178
 21
-20.4012069204
  0
LINE
  5
328
100
AcDbEntity
  8
ASSI
100
AcDbLine
 62
7
  6
CONTINUOUS
 10
8.4397214178
 20
-9.7109199486
 11
8.4397214178
 21
-20.4012069204
  0
LINE
  5
329
100
AcDbEntity
  8
0
100
AcDbLine
 62
250
  6
CONTINUOUS
 10
8.4397214178
 20
-3.6635662462
 11
8.081091229
 21
-4.4363566938
  0
LINE
  5
32A
100
AcDbEntity
  8
ASSI
100
AcDbLine
 62
250
  6
CONTINUOUS
 10
8.4397214178
 20
-3.6635662462
 11
8.081091229
 21
-4.4363566938
  0
LINE
  5
32B
100
AcDbEntity
  8
0
100
AcDbLine
 62
7
  6
CONTINUOUS
 10
27.9343426453
 20
16.368510928
 11
28.9438793627
 21
17.4218055238
  0
LINE
  5
32C
100
AcDbEntity
  8
ASSI
100
AcDbLine
 62
7
  6
CONTINUOUS
 10
27.9343426453
 20
16.368510928
 11
28.9438793627
 21
17.4218055238
  0
LINE
  5
32D
100
AcDbEntity
  8
0
100
AcDbLine
 62
250
  6
CONTINUOUS
 10
-7.970232704
 20
-12.0694739368
 11
-7.8288113477
 21
-11.9878190182
  0
LINE
  5
32E
100
AcDbEntity
  8
ASSI
100
AcDbLine
 62
250
  6
CONTINUOUS
 10
-7.970232704
 20
-12.0694739368
 11
-7.8288113477
 21
-11.9878190182
  0
LINE
  5
32F
100
AcDbEntity
  8
0
100
AcDbLine
 62
250
  6
CONTINUOUS
 10
8.081091229
 20
-4.4363566938
 11
7.9396698727
 21
-4.5180116125
  0
LINE
  5
330
100
AcDbEntity
  8
ASSI
100
AcDbLine
 62
250
  6
CONTINUOUS
 10
8.081091229
 20
-4.4363566938
 11
7.9396698727
 21
-4.5180116125
  0
LINE
  5
331
100
AcDbEntity
  8
0
100
AcDbLine
 62
250
  6
CONTINUOUS
 10
-7.1217045666
 20
-13.539167781
 11
-6.9802832103
 21
-13.4575128623
  0
LINE
  5
332
100
AcDbEntity
  8
ASSI
100
AcDbLine
 62
250
  6
CONTINUOUS
 10
-7.1217045666
 20
-13.539167781
 11
-6.9802832103
 21
-13.4575128623
  0
LINE
  5
333
100
AcDbEntity
  8
0
100
AcDbLine
 62
7
  6
CONTINUOUS
 10
28.2133185794
 20
15.8853104365
 11
29.6302777103
 21
16.2329287127
  0
LINE
  5
334
100
AcDbEntity
  8
ASSI
100
AcDbLine
 62
7
  6
CONTINUOUS
 10
28.2133185794
 20
15.8853104365
 11
29.6302777103
 21
16.2329287127
  0
LINE
  5
335
100
AcDbEntity
  8
0
100
AcDbLine
 62
250
  6
CONTINUOUS
 10
7.2325630915
 20
6.4226900966
 11
7.9396698727
 21
6.4226900966
  0
LINE
  5
336
100
AcDbEntity
  8
ASSI
100
AcDbLine
 62
250
  6
CONTINUOUS
 10
7.2325630915
 20
6.4226900966
 11
7.9396698727
 21
6.4226900966
  0
LINE
  5
337
100
AcDbEntity
  8
0
100
AcDbLine
 62
250
  6
CONTINUOUS
 10
-24.5872420619
 20
8.0574061221
 11
-23.8801352807
 21
8.0574061221
  0
LINE
  5
338
100
AcDbEntity
  8
ASSI
100
AcDbLine
 62
250
  6
CONTINUOUS
 10
-24.5872420619
 20
8.0574061221
 11
-23.8801352807
 21
8.0574061221
  0
LINE
  5
339
100
AcDbEntity
  8
0
100
AcDbLine
 62
250
  6
CONTINUOUS
 10
-12.848491064
 20
6.9448653377
 11
-13.4149549191
 21
6.9954266112
  0
LINE
  5
33A
100
AcDbEntity
  8
ASSI
100
AcDbLine
 62
250
  6
CONTINUOUS
 10
-12.848491064
 20
6.9448653377
 11
-13.4149549191
 21
6.9954266112
  0
LINE
  5
33B
100
AcDbEntity
  8
0
100
AcDbLine
 62
250
  6
CONTINUOUS
 10
8.3204434183
 20
-9.7175301398
 11
8.081091229
 21
-10.233295659
  0
LINE
  5
33C
100
AcDbEntity
  8
ASSI
100
AcDbLine
 62
250
  6
CONTINUOUS
 10
8.3204434183
 20
-9.7175301398
 11
8.081091229
 21
-10.233295659
  0
LINE
  5
33D
100
AcDbEntity
  8
0
100
AcDbLine
 62
250
  6
CONTINUOUS
 10
8.4346446195
 20
-6.6000778917
 11
8.7881980101
 21
-5.9877054566
  0
LINE
  5
33E
100
AcDbEntity
  8
ASSI
100
AcDbLine
 62
250
  6
CONTINUOUS
 10
8.4346446195
 20
-6.6000778917
 11
8.7881980101
 21
-5.9877054566
  0
LINE
  5
33F
100
AcDbEntity
  8
0
100
AcDbLine
 62
250
  6
CONTINUOUS
 10
1.9999729107
 20
-19.6224197666
 11
2.3535263013
 21
-19.0100473316
  0
LINE
  5
340
100
AcDbEntity
  8
ASSI
100
AcDbLine
 62
250
  6
CONTINUOUS
 10
1.9999729107
 20
-19.6224197666
 11
2.3535263013
 21
-19.0100473316
  0
LINE
  5
341
100
AcDbEntity
  8
0
100
AcDbLine
 62
250
  6
CONTINUOUS
 10
8.9296193664
 20
-5.9060505379
 11
8.7881980101
 21
-5.9877054566
  0
LINE
  5
342
100
AcDbEntity
  8
ASSI
100
AcDbLine
 62
250
  6
CONTINUOUS
 10
8.9296193664
 20
-5.9060505379
 11
8.7881980101
 21
-5.9877054566
  0
LINE
  5
343
100
AcDbEntity
  8
0
100
AcDbLine
 62
250
  6
CONTINUOUS
 10
7.9396698727
 20
-10.3149505777
 11
8.081091229
 21
-10.233295659
  0
LINE
  5
344
100
AcDbEntity
  8
ASSI
100
AcDbLine
 62
250
  6
CONTINUOUS
 10
7.9396698727
 20
-10.3149505777
 11
8.081091229
 21
-10.233295659
  0
LINE
  5
345
100
AcDbEntity
  8
0
100
AcDbLine
 62
250
  6
CONTINUOUS
 10
-22.0416576496
 20
12.3905684729
 11
-22.890185787
 21
12.4663061618
  0
LINE
  5
346
100
AcDbEntity
  8
ASSI
100
AcDbLine
 62
250
  6
CONTINUOUS
 10
-22.0416576496
 20
12.3905684729
 11
-22.890185787
 21
12.4663061618
  0
LINE
  5
347
100
AcDbEntity
  8
0
100
AcDbLine
 62
7
  6
CONTINUOUS
 10
-23.3851605339
 20
25.4889794582
 11
-13.909929666
 21
20.0180999076
  0
LINE
  5
348
100
AcDbEntity
  8
ASSI
100
AcDbLine
 62
7
  6
CONTINUOUS
 10
-23.3851605339
 20
25.4889794582
 11
-13.909929666
 21
20.0180999076
  0
LINE
  5
349
100
AcDbEntity
  8
0
100
AcDbLine
 62
7
  6
CONTINUOUS
 10
-7.4752579572
 20
16.3028011083
 11
1.9999729107
 21
10.8319215577
  0
LINE
  5
34A
100
AcDbEntity
  8
ASSI
100
AcDbLine
 62
7
  6
CONTINUOUS
 10
-7.4752579572
 20
16.3028011083
 11
1.9999729107
 21
10.8319215577
  0
LINE
  5
34B
100
AcDbEntity
  8
0
100
AcDbLine
 62
7
  6
CONTINUOUS
 10
8.4346446195
 20
7.1166227585
 11
17.9098754874
 21
1.6457432079
  0
LINE
  5
34C
100
AcDbEntity
  8
ASSI
100
AcDbLine
 62
7
  6
CONTINUOUS
 10
8.4346446195
 20
7.1166227585
 11
17.9098754874
 21
1.6457432079
  0
LINE
  5
34D
100
AcDbEntity
  8
0
100
AcDbLine
 62
250
  6
CONTINUOUS
 10
8.4397214178
 20
-20.4012069204
 11
8.081091229
 21
-21.173997368
  0
LINE
  5
34E
100
AcDbEntity
  8
ASSI
100
AcDbLine
 62
250
  6
CONTINUOUS
 10
8.4397214178
 20
-20.4012069204
 11
8.081091229
 21
-21.173997368
  0
LINE
  5
34F
100
AcDbEntity
  8
0
100
AcDbLine
 62
250
  6
CONTINUOUS
 10
2.3535263013
 20
-19.0100473316
 11
2.4949476576
 21
-18.9283924129
  0
LINE
  5
350
100
AcDbEntity
  8
ASSI
100
AcDbLine
 62
250
  6
CONTINUOUS
 10
2.3535263013
 20
-19.0100473316
 11
2.4949476576
 21
-18.9283924129
  0
LINE
  5
351
100
AcDbEntity
  8
0
100
AcDbLine
 62
250
  6
CONTINUOUS
 10
-24.5872420619
 20
13.8543450873
 11
-23.8801352807
 21
13.8543450873
  0
LINE
  5
352
100
AcDbEntity
  8
ASSI
100
AcDbLine
 62
250
  6
CONTINUOUS
 10
-24.5872420619
 20
13.8543450873
 11
-23.8801352807
 21
13.8543450873
  0
LINE
  5
353
100
AcDbEntity
  8
0
100
AcDbLine
 62
250
  6
CONTINUOUS
 10
-8.6773394852
 20
15.6088684464
 11
-7.970232704
 21
15.6088684464
  0
LINE
  5
354
100
AcDbEntity
  8
ASSI
100
AcDbLine
 62
250
  6
CONTINUOUS
 10
-8.6773394852
 20
15.6088684464
 11
-7.970232704
 21
15.6088684464
  0
LINE
  5
355
100
AcDbEntity
  8
0
100
AcDbLine
 62
7
  6
CONTINUOUS
 10
19.1119570155
 20
-0.4363230713
 11
19.1119570155
 21
-11.3770247804
  0
LINE
  5
356
100
AcDbEntity
  8
ASSI
100
AcDbLine
 62
7
  6
CONTINUOUS
 10
19.1119570155
 20
-0.4363230713
 11
19.1119570155
 21
-11.3770247804
  0
LINE
  5
357
100
AcDbEntity
  8
0
100
AcDbLine
 62
7
  6
CONTINUOUS
 10
19.1119570155
 20
-17.1739637456
 11
19.1119570155
 21
-28.1146654546
  0
LINE
  5
358
100
AcDbEntity
  8
ASSI
100
AcDbLine
 62
7
  6
CONTINUOUS
 10
19.1119570155
 20
-17.1739637456
 11
19.1119570155
 21
-28.1146654546
  0
LINE
  5
359
100
AcDbEntity
  8
0
100
AcDbLine
 62
250
  6
CONTINUOUS
 10
8.4346446195
 20
-23.3377185659
 11
8.7881980101
 21
-22.7253461309
  0
LINE
  5
35A
100
AcDbEntity
  8
ASSI
100
AcDbLine
 62
250
  6
CONTINUOUS
 10
8.4346446195
 20
-23.3377185659
 11
8.7881980101
 21
-22.7253461309
  0
LINE
  5
35B
100
AcDbEntity
  8
0
100
AcDbLine
 62
250
  6
CONTINUOUS
 10
17.9098754874
 20
-12.0709574423
 11
18.263428878
 21
-11.4585850072
  0
LINE
  5
35C
100
AcDbEntity
  8
ASSI
100
AcDbLine
 62
250
  6
CONTINUOUS
 10
17.9098754874
 20
-12.0709574423
 11
18.263428878
 21
-11.4585850072
  0
LINE
  5
35D
100
AcDbEntity
  8
0
100
AcDbLine
 62
250
  6
CONTINUOUS
 10
18.4048502343
 20
-11.3769300885
 11
18.263428878
 21
-11.4585850072
  0
LINE
  5
35E
100
AcDbEntity
  8
ASSI
100
AcDbLine
 62
250
  6
CONTINUOUS
 10
18.4048502343
 20
-11.3769300885
 11
18.263428878
 21
-11.4585850072
  0
LINE
  5
35F
100
AcDbEntity
  8
0
100
AcDbLine
 62
250
  6
CONTINUOUS
 10
7.9396698727
 20
-21.2556522867
 11
8.081091229
 21
-21.173997368
  0
LINE
  5
360
100
AcDbEntity
  8
ASSI
100
AcDbLine
 62
250
  6
CONTINUOUS
 10
7.9396698727
 20
-21.2556522867
 11
8.081091229
 21
-21.173997368
  0
LINE
  5
361
100
AcDbEntity
  8
0
100
AcDbLine
 62
250
  6
CONTINUOUS
 10
8.7881980101
 20
-22.7253461309
 11
8.9296193664
 21
-22.6436912122
  0
LINE
  5
362
100
AcDbEntity
  8
ASSI
100
AcDbLine
 62
250
  6
CONTINUOUS
 10
8.7881980101
 20
-22.7253461309
 11
8.9296193664
 21
-22.6436912122
  0
LINE
  5
363
100
AcDbEntity
  8
0
100
AcDbLine
 62
250
  6
CONTINUOUS
 10
-24.5872420619
 20
24.7950467963
 11
-23.8801352807
 21
24.7950467963
  0
LINE
  5
364
100
AcDbEntity
  8
ASSI
100
AcDbLine
 62
250
  6
CONTINUOUS
 10
-24.5872420619
 20
24.7950467963
 11
-23.8801352807
 21
24.7950467963
  0
LINE
  5
365
100
AcDbEntity
  8
0
100
AcDbLine
 62
7
  6
CONTINUOUS
 10
28.2133185794
 20
-54.9463231628
 11
28.2133185794
 21
15.8853104365
  0
LINE
  5
366
100
AcDbEntity
  8
ASSI
100
AcDbLine
 62
7
  6
CONTINUOUS
 10
28.2133185794
 20
-54.9463231628
 11
28.2133185794
 21
15.8853104365
  0
LINE
  5
367
100
AcDbEntity
  8
0
100
AcDbLine
 62
7
  6
CONTINUOUS
 10
29.6517790622
 20
-55.3109410669
 11
29.6517790622
 21
16.2209337653
  0
LINE
  5
368
100
AcDbEntity
  8
ASSI
100
AcDbLine
 62
7
  6
CONTINUOUS
 10
29.6517790622
 20
-55.3109410669
 11
29.6517790622
 21
16.2209337653
  0
LINE
  5
369
100
AcDbEntity
  8
CURVE
100
AcDbLine
 62
250
  6
CONTINUOUS
 10
30.7826224357
 20
-48.1131914136
 11
30.7826224357
 21
-48.5392198888
  0
LINE
  5
36A
100
AcDbEntity
  8
CURVE
100
AcDbLine
 62
250
  6
CONTINUOUS
 10
30.7827314074
 20
-50.3757694636
 11
30.7827314074
 21
-49.9129712496
  0
LINE
  5
36B
100
AcDbEntity
  8
CURVE
100
AcDbLine
 62
250
  6
CONTINUOUS
 10
30.7827314074
 20
-49.1229986991
 11
30.7827314074
 21
-48.6972617039
  0
LINE
  5
36C
100
AcDbEntity
  8
CURVE
100
AcDbLine
 62
250
  6
CONTINUOUS
 10
30.7827314074
 20
-47.6995015504
 11
30.7827314074
 21
-47.2738257904
  0
LINE
  5
36D
100
AcDbEntity
  8
CURVE
100
AcDbLine
 62
250
  6
CONTINUOUS
 10
30.7827314074
 20
-46.4262684078
 11
30.7827314074
 21
-46.0047550133
  0
LINE
  5
36E
100
AcDbEntity
  8
CURVE
100
AcDbLine
 62
250
  6
CONTINUOUS
 10
30.7827314074
 20
-45.1068295793
 11
30.7827314074
 21
-44.6946982448
  0
LINE
  5
36F
100
AcDbEntity
  8
0
100
AcDbLine
 62
7
  6
CONTINUOUS
 10
28.9442417929
 20
17.4464242627
 11
28.9438793627
 21
17.4218055238
  0
LINE
  5
370
100
AcDbEntity
  8
ASSI
100
AcDbLine
 62
7
  6
CONTINUOUS
 10
28.9442417929
 20
17.4464242627
 11
28.9438793627
 21
17.4218055238
  0
LINE
  5
371
100
AcDbEntity
  8
0
100
AcDbLine
 62
250
  6
CONTINUOUS
 10
17.9098754874
 20
-28.8085981165
 11
18.263428878
 21
-28.1962256814
  0
LINE
  5
372
100
AcDbEntity
  8
ASSI
100
AcDbLine
 62
250
  6
CONTINUOUS
 10
17.9098754874
 20
-28.8085981165
 11
18.263428878
 21
-28.1962256814
  0
LINE
  5
373
100
AcDbEntity
  8
0
100
AcDbLine
 62
7
  6
CONTINUOUS
 10
29.6302777103
 20
16.2329287127
 11
29.6517790622
 21
16.2209337653
  0
LINE
  5
374
100
AcDbEntity
  8
ASSI
100
AcDbLine
 62
7
  6
CONTINUOUS
 10
29.6302777103
 20
16.2329287127
 11
29.6517790622
 21
16.2209337653
  0
LINE
  5
375
100
AcDbEntity
  8
0
100
AcDbLine
 62
7
  6
CONTINUOUS
 10
27.9343426453
 20
16.368510928
 11
-33.4096276917
 21
51.7877505801
  0
LINE
  5
376
100
AcDbEntity
  8
ASSI
100
AcDbLine
 62
7
  6
CONTINUOUS
 10
27.9343426453
 20
16.368510928
 11
-33.4096276917
 21
51.7877505801
  0
LINE
  5
377
100
AcDbEntity
  8
0
100
AcDbLine
 62
7
  6
CONTINUOUS
 10
28.9442417929
 20
17.4464242627
 11
-33.0061747777
 21
53.2158183695
  0
LINE
  5
378
100
AcDbEntity
  8
ASSI
100
AcDbLine
 62
7
  6
CONTINUOUS
 10
28.9442417929
 20
17.4464242627
 11
-33.0061747777
 21
53.2158183695
  0
LINE
  5
379
100
AcDbEntity
  8
CURVE
100
AcDbLine
 62
250
  6
CONTINUOUS
 10
31.5960561922
 20
-42.8518072462
 11
31.5960561922
 21
-43.0952782374
  0
LINE
  5
37A
100
AcDbEntity
  8
CURVE
100
AcDbLine
 62
250
  6
CONTINUOUS
 10
31.89546968
 20
-42.9199408118
 11
31.89546968
 21
-42.691514577
  0
LINE
  5
37B
100
AcDbEntity
  8
CURVE
100
AcDbLine
 62
250
  6
CONTINUOUS
 10
31.9635370636
 20
-44.4851225515
 11
31.9635370636
 21
-44.0772303306
  0
LINE
  5
37C
100
AcDbEntity
  8
CURVE
100
AcDbLine
 62
250
  6
CONTINUOUS
 10
32.2459507582
 20
-43.840030916
 11
32.2459507582
 21
-44.4202106124
  0
LINE
  5
37D
100
AcDbEntity
  8
CURVE
100
AcDbLine
 62
250
  6
CONTINUOUS
 10
32.6109225841
 20
-47.554821909
 11
32.6109225841
 21
-47.1287934339
  0
LINE
  5
37E
100
AcDbEntity
  8
CURVE
100
AcDbLine
 62
250
  6
CONTINUOUS
 10
32.6109225961
 20
-42.9590390136
 11
32.6109225961
 21
-42.5347248472
  0
LINE
  5
37F
100
AcDbEntity
  8
CURVE
100
AcDbLine
 62
250
  6
CONTINUOUS
 10
32.6109225961
 20
-41.8823211546
 11
32.6109225961
 21
-41.4725313766
  0
LINE
  5
380
100
AcDbEntity
  8
CURVE
100
AcDbLine
 62
250
  6
CONTINUOUS
 10
32.6109225841
 20
-43.0841417485
 11
32.6109225841
 21
-43.5331579443
  0
LINE
  5
381
100
AcDbEntity
  8
CURVE
100
AcDbLine
 62
250
  6
CONTINUOUS
 10
32.6109225841
 20
-44.3412594007
 11
32.6109225841
 21
-44.7626650212
  0
LINE
  5
382
100
AcDbEntity
  8
CURVE
100
AcDbLine
 62
250
  6
CONTINUOUS
 10
32.6109225841
 20
-44.8295633298
 11
32.6109225841
 21
-45.2463322155
  0
LINE
  5
383
100
AcDbEntity
  8
CURVE
100
AcDbLine
 62
250
  6
CONTINUOUS
 10
32.6109225841
 20
-45.8404082359
 11
32.6109225841
 21
-45.9001591637
  0
LINE
  5
384
100
AcDbEntity
  8
CURVE
100
AcDbLine
 62
250
  6
CONTINUOUS
 10
32.6109225841
 20
-46.491878851
 11
32.6109225841
 21
-46.8994493826
  0
LINE
  5
385
100
AcDbEntity
  8
CURVE
100
AcDbLine
 62
250
  6
CONTINUOUS
 10
32.6109225841
 20
-48.3689685114
 11
32.6109225841
 21
-48.7444060388
  0
LINE
  5
386
100
AcDbEntity
  8
0
100
AcDbLine
 62
7
  6
CONTINUOUS
 10
33.713712047
 20
-53.2821625527
 11
33.713712047
 21
18.5662276674
  0
LINE
  5
387
100
AcDbEntity
  8
ASSI
100
AcDbLine
 62
7
  6
CONTINUOUS
 10
33.713712047
 20
-53.2821625527
 11
33.713712047
 21
18.5662276674
  0
LINE
  5
388
100
AcDbEntity
  8
0
100
AcDbLine
 62
250
  6
CONTINUOUS
 10
18.263428878
 20
-28.1962256814
 11
18.4048502343
 21
-28.1145707628
  0
LINE
  5
389
100
AcDbEntity
  8
ASSI
100
AcDbLine
 62
250
  6
CONTINUOUS
 10
18.263428878
 20
-28.1962256814
 11
18.4048502343
 21
-28.1145707628
  0
LINE
  5
38A
100
AcDbEntity
  8
0
100
AcDbLine
 62
7
  6
CONTINUOUS
 10
16.9019725357
 20
-26.8326361921
 11
18.1611457098
 21
-26.3161665879
  0
LINE
  5
38B
100
AcDbEntity
  8
0
100
AcDbLine
 62
7
  6
CONTINUOUS
 10
33.0061747777
 20
19.7917181648
 11
-29.2183609905
 21
55.7193852608
  0
LINE
  5
38C
100
AcDbEntity
  8
ASSI
100
AcDbLine
 62
7
  6
CONTINUOUS
 10
33.0061747777
 20
19.7917181648
 11
-29.2183609905
 21
55.7193852608
  0
LINE
  5
38D
100
AcDbEntity
  8
0
100
AcDbLine
 62
7
  6
CONTINUOUS
 10
28.2133185794
 20
15.8853104365
 11
27.9343426453
 21
16.368510928
  0
LINE
  5
38E
100
AcDbEntity
  8
ASSI
100
AcDbLine
 62
7
  6
CONTINUOUS
 10
28.2133185794
 20
15.8853104365
 11
27.9343426453
 21
16.368510928
  0
LINE
  5
38F
100
AcDbEntity
  8
0
100
AcDbLine
 62
7
  6
CONTINUOUS
 10
29.6302777103
 20
16.2329287127
 11
28.9438793627
 21
17.4218055238
  0
LINE
  5
390
100
AcDbEntity
  8
ASSI
100
AcDbLine
 62
7
  6
CONTINUOUS
 10
29.6302777103
 20
16.2329287127
 11
28.9438793627
 21
17.4218055238
  0
LINE
  5
391
100
AcDbEntity
  8
0
100
AcDbLine
 62
7
  6
CONTINUOUS
 10
33.0061747777
 20
19.7917181648
 11
33.713712047
 21
18.5662276674
  0
LINE
  5
392
100
AcDbEntity
  8
ASSI
100
AcDbLine
 62
7
  6
CONTINUOUS
 10
33.0061747777
 20
19.7917181648
 11
33.713712047
 21
18.5662276674
  0
LINE
  5
393
100
AcDbEntity
  8
CURVE
100
AcDbLine
 62
7
  6
CONTINUOUS
 10
30.8892711853
 20
-42.7088439812
 11
31.3333284376
 21
-42.2647867289
  0
LINE
  5
394
100
AcDbEntity
  8
CURVE
100
AcDbLine
 62
7
  6
CONTINUOUS
 10
30.7913074453
 20
-43.0168184353
 11
31.5897773367
 21
-42.2183485439
  0
LINE
  5
395
100
AcDbEntity
  8
CURVE
100
AcDbLine
 62
7
  6
CONTINUOUS
 10
30.7660729821
 20
-43.2520636124
 11
31.1204058819
 21
-42.8977307127
  0
LINE
  5
396
100
AcDbEntity
  8
CURVE
100
AcDbLine
 62
7
  6
CONTINUOUS
 10
31.3706887951
 20
-42.6474477994
 11
31.726175823
 21
-42.2919607715
  0
LINE
  5
397
100
AcDbEntity
  8
CURVE
100
AcDbLine
 62
7
  6
CONTINUOUS
 10
31.8104334213
 20
-42.2077031733
 11
32.2220577474
 21
-41.7960788472
  0
LINE
  5
398
100
AcDbEntity
  8
CURVE
100
AcDbLine
 62
7
  6
CONTINUOUS
 10
30.7621799117
 20
-43.4659673969
 11
31.0772138432
 21
-43.1509334654
  0
LINE
  5
399
100
AcDbEntity
  8
CURVE
100
AcDbLine
 62
7
  6
CONTINUOUS
 10
31.5531270832
 20
-42.6750202254
 11
32.6109225961
 21
-41.6172247125
  0
LINE
  5
39A
100
AcDbEntity
  8
CURVE
100
AcDbLine
 62
7
  6
CONTINUOUS
 10
30.7734320323
 20
-43.6647259903
 11
31.0913062154
 21
-43.3468518072
  0
LINE
  5
39B
100
AcDbEntity
  8
CURVE
100
AcDbLine
 62
7
  6
CONTINUOUS
 10
31.5956886031
 20
-42.8424694195
 11
31.9752781909
 21
-42.4628798317
  0
LINE
  5
39C
100
AcDbEntity
  8
CURVE
100
AcDbLine
 62
7
  6
CONTINUOUS
 10
32.2128305278
 20
-42.2253274949
 11
32.6109225961
 21
-41.8272354265
  0
LINE
  5
39D
100
AcDbEntity
  8
CURVE
100
AcDbLine
 62
250
  6
CONTINUOUS
 10
31.7575393183
 20
-42.3232217351
 11
31.7467363042
 21
-42.3290383212
  0
LINE
  5
39E
100
AcDbEntity
  8
CURVE
100
AcDbLine
 62
7
  6
CONTINUOUS
 10
30.7938287345
 20
-43.8543400021
 11
31.5025384293
 21
-43.1456303074
  0
LINE
  5
39F
100
AcDbEntity
  8
CURVE
100
AcDbLine
 62
7
  6
CONTINUOUS
 10
31.5960561922
 20
-43.0521125444
 11
31.89546968
 21
-42.7526990566
  0
LINE
  5
3A0
100
AcDbEntity
  8
CURVE
100
AcDbLine
 62
7
  6
CONTINUOUS
 10
31.0688582722
 20
-43.7893211785
 11
31.9881279249
 21
-42.8700515258
  0
LINE
  5
3A1
100
AcDbEntity
  8
CURVE
100
AcDbLine
 62
7
  6
CONTINUOUS
 10
31.523843025
 20
-43.5443471397
 11
32.4431126777
 21
-42.625077487
  0
LINE
  5
3A2
100
AcDbEntity
  8
CURVE
100
AcDbLine
 62
7
  6
CONTINUOUS
 10
31.9788277778
 20
-43.2993731009
 11
32.6109225961
 21
-42.6672782826
  0
LINE
  5
3A3
100
AcDbEntity
  8
CURVE
100
AcDbLine
 62
7
  6
CONTINUOUS
 10
30.7827314074
 20
-44.7054801853
 11
30.8733026732
 21
-44.6149089194
  0
LINE
  5
3A4
100
AcDbEntity
  8
CURVE
100
AcDbLine
 62
7
  6
CONTINUOUS
 10
32.4338125306
 20
-43.0543990621
 11
32.6109225961
 21
-42.8772889966
  0
LINE
  5
3A5
100
AcDbEntity
  8
CURVE
100
AcDbLine
 62
7
  6
CONTINUOUS
 10
30.7827314074
 20
-44.9154908993
 11
32.6109225841
 21
-43.0872997226
  0
LINE
  5
3A6
100
AcDbEntity
  8
CURVE
100
AcDbLine
 62
7
  6
CONTINUOUS
 10
30.8057337224
 20
-45.1024992983
 11
32.6109225841
 21
-43.2973104366
  0
LINE
  5
3A7
100
AcDbEntity
  8
CURVE
100
AcDbLine
 62
7
  6
CONTINUOUS
 10
31.0644485794
 20
-45.0537951553
 11
31.5367720029
 21
-44.5814717318
  0
LINE
  5
3A8
100
AcDbEntity
  8
CURVE
100
AcDbLine
 62
7
  6
CONTINUOUS
 10
31.9635370636
 20
-44.1547066711
 11
32.2459507582
 21
-43.8722929765
  0
LINE
  5
3A9
100
AcDbEntity
  8
CURVE
100
AcDbLine
 62
7
  6
CONTINUOUS
 10
32.4486181481
 20
-43.6696255866
 11
32.6109225841
 21
-43.5073211507
  0
LINE
  5
3AA
100
AcDbEntity
  8
CURVE
100
AcDbLine
 62
7
  6
CONTINUOUS
 10
31.3231634364
 20
-45.0050910124
 11
31.8080217836
 21
-44.5202326651
  0
LINE
  5
3AB
100
AcDbEntity
  8
CURVE
100
AcDbLine
 62
7
  6
CONTINUOUS
 10
31.9635370636
 20
-44.3647173851
 11
32.2459507582
 21
-44.0823036905
  0
LINE
  5
3AC
100
AcDbEntity
  8
CURVE
100
AcDbLine
 62
7
  6
CONTINUOUS
 10
31.5818782933
 20
-44.9563868694
 11
32.2459507582
 21
-44.2923144045
  0
LINE
  5
3AD
100
AcDbEntity
  8
CURVE
100
AcDbLine
 62
7
  6
CONTINUOUS
 10
31.8405931503
 20
-44.9076827264
 11
32.3507316018
 21
-44.3975442749
  0
LINE
  5
3AE
100
AcDbEntity
  8
CURVE
100
AcDbLine
 62
7
  6
CONTINUOUS
 10
30.7827314074
 20
-46.1755551834
 11
31.2609176345
 21
-45.6973689563
  0
LINE
  5
3AF
100
AcDbEntity
  8
CURVE
100
AcDbLine
 62
7
  6
CONTINUOUS
 10
32.0993080073
 20
-44.8589785835
 11
32.6109225841
 21
-44.3473640067
  0
LINE
  5
3B0
100
AcDbEntity
  8
CURVE
100
AcDbLine
 62
7
  6
CONTINUOUS
 10
30.7827314074
 20
-46.3855658974
 11
31.8488809306
 21
-45.3194163742
  0
LINE
  5
3B1
100
AcDbEntity
  8
CURVE
100
AcDbLine
 62
7
  6
CONTINUOUS
 10
32.3580228643
 20
-44.8102744405
 11
32.6109225841
 21
-44.5573747207
  0
LINE
  5
3B2
100
AcDbEntity
  8
CURVE
100
AcDbLine
 62
7
  6
CONTINUOUS
 10
30.9748426772
 20
-46.4034653416
 11
32.4368442267
 21
-44.941463792
  0
LINE
  5
3B3
100
AcDbEntity
  8
CURVE
100
AcDbLine
 62
7
  6
CONTINUOUS
 10
31.2131384248
 20
-46.375180308
 11
31.6387093472
 21
-45.9496093856
  0
LINE
  5
3B4
100
AcDbEntity
  8
CURVE
100
AcDbLine
 62
7
  6
CONTINUOUS
 10
31.9176980199
 20
-45.6706207129
 11
32.6109225841
 21
-44.9773961487
  0
LINE
  5
3B5
100
AcDbEntity
  8
CURVE
100
AcDbLine
 62
7
  6
CONTINUOUS
 10
31.4514341723
 20
-46.3468952745
 11
31.8752937463
 21
-45.9230357005
  0
LINE
  5
3B6
100
AcDbEntity
  8
CURVE
100
AcDbLine
 62
7
  6
CONTINUOUS
 10
32.4590333173
 20
-45.3392961295
 11
32.6109225841
 21
-45.1874068628
  0
LINE
  5
3B7
100
AcDbEntity
  8
CURVE
100
AcDbLine
 62
7
  6
CONTINUOUS
 10
31.6897299199
 20
-46.3186102409
 11
32.1118781453
 21
-45.8964620155
  0
LINE
  5
3B8
100
AcDbEntity
  8
CURVE
100
AcDbLine
 62
7
  6
CONTINUOUS
 10
30.7827314074
 20
-47.4356194675
 11
32.3484625444
 21
-45.8698883304
  0
LINE
  5
3B9
100
AcDbEntity
  8
CURVE
100
AcDbLine
 62
7
  6
CONTINUOUS
 10
30.7827314074
 20
-47.6456301815
 11
32.5850469435
 21
-45.8433146454
  0
LINE
  5
3BA
100
AcDbEntity
  8
CURVE
100
AcDbLine
 62
7
  6
CONTINUOUS
 10
31.0603714644
 20
-47.5780008385
 11
31.7486190084
 21
-46.8897532945
  0
LINE
  5
3BB
100
AcDbEntity
  8
CURVE
100
AcDbLine
 62
7
  6
CONTINUOUS
 10
31.4338031999
 20
-47.414579817
 11
32.1385449994
 21
-46.7098380175
  0
LINE
  5
3BC
100
AcDbEntity
  8
CURVE
100
AcDbLine
 62
7
  6
CONTINUOUS
 10
30.7826224357
 20
-48.2757712952
 11
31.1348490712
 21
-47.9235446597
  0
LINE
  5
3BD
100
AcDbEntity
  8
CURVE
100
AcDbLine
 62
7
  6
CONTINUOUS
 10
31.8072349353
 20
-47.2511587956
 11
32.5284709904
 21
-46.5299227404
  0
LINE
  5
3BE
100
AcDbEntity
  8
CURVE
100
AcDbLine
 62
7
  6
CONTINUOUS
 10
30.7826224357
 20
-48.4857820092
 11
31.589833824
 21
-47.6785706209
  0
LINE
  5
3BF
100
AcDbEntity
  8
CURVE
100
AcDbLine
 62
7
  6
CONTINUOUS
 10
32.1806666708
 20
-47.0877377741
 11
32.6109225841
 21
-46.6574818608
  0
LINE
  5
3C0
100
AcDbEntity
  8
CURVE
100
AcDbLine
 62
7
  6
CONTINUOUS
 10
31.1218349026
 20
-48.3565802563
 11
32.0448185768
 21
-47.4335965821
  0
LINE
  5
3C1
100
AcDbEntity
  8
CURVE
100
AcDbLine
 62
7
  6
CONTINUOUS
 10
32.5540984062
 20
-46.9243167527
 11
32.6109225841
 21
-46.8674925749
  0
LINE
  5
3C2
100
AcDbEntity
  8
CURVE
100
AcDbLine
 62
7
  6
CONTINUOUS
 10
30.7827314074
 20
-48.9056944655
 11
31.0367853096
 21
-48.6516405634
  0
LINE
  5
3C3
100
AcDbEntity
  8
CURVE
100
AcDbLine
 62
7
  6
CONTINUOUS
 10
31.5768196554
 20
-48.1116062175
 11
32.4998033296
 21
-47.1886225433
  0
LINE
  5
3C4
100
AcDbEntity
  8
CURVE
100
AcDbLine
 62
7
  6
CONTINUOUS
 10
30.7827314074
 20
-49.1157051796
 11
31.2927625416
 21
-48.6056740453
  0
LINE
  5
3C5
100
AcDbEntity
  8
CURVE
100
AcDbLine
 62
7
  6
CONTINUOUS
 10
32.0318044082
 20
-47.8666321787
 11
32.6109225841
 21
-47.2875140029
  0
LINE
  5
3C6
100
AcDbEntity
  8
CURVE
100
AcDbLine
 62
7
  6
CONTINUOUS
 10
31.0425655842
 20
-49.0658817168
 11
31.5487397737
 21
-48.5597075273
  0
LINE
  5
3C7
100
AcDbEntity
  8
CURVE
100
AcDbLine
 62
7
  6
CONTINUOUS
 10
32.486789161
 20
-47.6216581399
 11
32.6109225841
 21
-47.4975247169
  0
LINE
  5
3C8
100
AcDbEntity
  8
CURVE
100
AcDbLine
 62
7
  6
CONTINUOUS
 10
31.3117482805
 20
-49.0067097345
 11
31.8047170057
 21
-48.5137410092
  0
LINE
  5
3C9
100
AcDbEntity
  8
CURVE
100
AcDbLine
 62
7
  6
CONTINUOUS
 10
31.5809309769
 20
-48.9475377521
 11
32.0606942378
 21
-48.4677744912
  0
LINE
  5
3CA
100
AcDbEntity
  8
CURVE
100
AcDbLine
 62
250
  6
CONTINUOUS
 10
32.6109225841
 20
-45.9001591637
 11
31.417148564
 21
-47.0426966689
  0
LINE
  5
3CB
100
AcDbEntity
  8
CURVE
100
AcDbLine
 62
250
  6
CONTINUOUS
 10
30.7827314074
 20
-47.2738257904
 11
31.7977486871
 21
-46.3057887178
  0
LINE
  5
3CC
100
AcDbEntity
  8
CURVE
100
AcDbLine
 62
250
  6
CONTINUOUS
 10
30.7827314074
 20
-44.6946982448
 11
32.6109225841
 21
-43.0841417485
  0
LINE
  5
3CD
100
AcDbEntity
  8
CURVE
100
AcDbLine
 62
250
  6
CONTINUOUS
 10
32.6109225841
 20
-43.5331579443
 11
32.2459507582
 21
-43.840030916
  0
LINE
  5
3CE
100
AcDbEntity
  8
CURVE
100
AcDbLine
 62
250
  6
CONTINUOUS
 10
31.9635370636
 20
-44.0772303306
 11
31.2850719363
 21
-44.6382971314
  0
LINE
  5
3CF
100
AcDbEntity
  8
CURVE
100
AcDbLine
 62
250
  6
CONTINUOUS
 10
30.7827314074
 20
-46.0047550133
 11
32.6109225841
 21
-44.8295633298
  0
LINE
  5
3D0
100
AcDbEntity
  8
CURVE
100
AcDbLine
 62
250
  6
CONTINUOUS
 10
32.6109225841
 20
-45.2463322155
 11
31.4221246946
 21
-45.9739366547
  0
LINE
  5
3D1
100
AcDbEntity
  8
CURVE
100
AcDbLine
 62
250
  6
CONTINUOUS
 10
32.6109225961
 20
-42.5347248472
 11
31.89546968
 21
-42.9199408118
  0
LINE
  5
3D2
100
AcDbEntity
  8
CURVE
100
AcDbLine
 62
250
  6
CONTINUOUS
 10
31.5960561922
 20
-43.0952782374
 11
31.0941821556
 21
-43.3654985228
  0
LINE
  5
3D3
100
AcDbEntity
  8
CURVE
100
AcDbLine
 62
250
  6
CONTINUOUS
 10
30.8040910657
 20
-43.9318778059
 11
32.6109225961
 21
-42.9590390136
  0
LINE
  5
3D4
100
AcDbEntity
  8
CURVE
100
AcDbLine
 62
250
  6
CONTINUOUS
 10
32.6109225841
 20
-47.1287934339
 11
30.7826224357
 21
-48.1131914136
  0
LINE
  5
3D5
100
AcDbEntity
  8
CURVE
100
AcDbLine
 62
250
  6
CONTINUOUS
 10
31.417148564
 20
-47.0426966689
 11
32.6109225841
 21
-46.491878851
  0
LINE
  5
3D6
100
AcDbEntity
  8
CURVE
100
AcDbLine
 62
250
  6
CONTINUOUS
 10
32.6109225841
 20
-46.8994493826
 11
30.7827314074
 21
-47.6995015504
  0
LINE
  5
3D7
100
AcDbEntity
  8
CURVE
100
AcDbLine
 62
7
  6
CONTINUOUS
 10
30.7827314074
 20
-49.9557480356
 11
31.0633821231
 21
-49.6750973199
  0
LINE
  5
3D8
100
AcDbEntity
  8
CURVE
100
AcDbLine
 62
7
  6
CONTINUOUS
 10
31.8501136732
 20
-48.8883657698
 11
32.3166714699
 21
-48.4218079731
  0
LINE
  5
3D9
100
AcDbEntity
  8
CURVE
100
AcDbLine
 62
7
  6
CONTINUOUS
 10
30.7827314074
 20
-50.1657587496
 11
32.5726487019
 21
-48.3758414551
  0
LINE
  5
3DA
100
AcDbEntity
  8
CURVE
100
AcDbLine
 62
7
  6
CONTINUOUS
 10
30.7827314074
 20
-50.3757694636
 11
32.6109225841
 21
-48.547578287
  0
LINE
  5
3DB
100
AcDbEntity
  8
CURVE
100
AcDbLine
 62
250
  6
CONTINUOUS
 10
32.6109225841
 20
-48.7444060388
 11
30.7827314074
 21
-50.3757694636
  0
LINE
  5
3DC
100
AcDbEntity
  8
CURVE
100
AcDbLine
 62
250
  6
CONTINUOUS
 10
30.7827314074
 20
-49.9129712496
 11
32.0411322287
 21
-48.8463758992
  0
LINE
  5
3DD
100
AcDbEntity
  8
0
100
AcDbLine
 62
7
  6
CONTINUOUS
 10
27.9343426453
 20
-55.1073692384
 11
28.2133185794
 21
-54.9463231628
  0
LINE
  5
3DE
100
AcDbEntity
  8
ASSI
100
AcDbLine
 62
7
  6
CONTINUOUS
 10
27.9343426453
 20
-55.1073692384
 11
28.2133185794
 21
-54.9463231628
  0
LINE
  5
3DF
100
AcDbEntity
  8
0
100
AcDbLine
 62
7
  6
CONTINUOUS
 10
28.9438793627
 20
-55.7187438231
 11
29.6302777103
 21
-55.3225026187
  0
LINE
  5
3E0
100
AcDbEntity
  8
ASSI
100
AcDbLine
 62
7
  6
CONTINUOUS
 10
28.9438793627
 20
-55.7187438231
 11
29.6302777103
 21
-55.3225026187
  0
LINE
  5
3E1
100
AcDbEntity
  8
0
100
AcDbLine
 62
7
  6
CONTINUOUS
 10
33.713712047
 20
-53.2821625527
 11
33.0061747777
 21
-53.6906067465
  0
LINE
  5
3E2
100
AcDbEntity
  8
ASSI
100
AcDbLine
 62
7
  6
CONTINUOUS
 10
33.713712047
 20
-53.2821625527
 11
33.0061747777
 21
-53.6906067465
  0
LINE
  5
3E3
100
AcDbEntity
  8
CURVE
100
AcDbLine
 62
250
  6
CONTINUOUS
 10
30.7826224357
 20
-48.5392198888
 11
32.6109225841
 21
-47.554821909
  0
LINE
  5
3E4
100
AcDbEntity
  8
0
100
AcDbLine
 62
7
  6
CONTINUOUS
 10
29.6517790622
 20
-55.3109410669
 11
29.6302777103
 21
-55.3225026187
  0
LINE
  5
3E5
100
AcDbEntity
  8
ASSI
100
AcDbLine
 62
7
  6
CONTINUOUS
 10
29.6517790622
 20
-55.3109410669
 11
29.6302777103
 21
-55.3225026187
  0
LINE
  5
3E6
100
AcDbEntity
  8
0
100
AcDbLine
 62
7
  6
CONTINUOUS
 10
29.6517790622
 20
-55.3109410669
 11
33.713712047
 21
-53.2821625527
  0
LINE
  5
3E7
100
AcDbEntity
  8
ASSI
100
AcDbLine
 62
7
  6
CONTINUOUS
 10
29.6517790622
 20
-55.3109410669
 11
33.713712047
 21
-53.2821625527
  0
LINE
  5
3E8
100
AcDbEntity
  8
0
100
AcDbLine
 62
7
  6
CONTINUOUS
 10
28.9442417929
 20
-55.7193852608
 11
33.0061747777
 21
-53.6906067465
  0
LINE
  5
3E9
100
AcDbEntity
  8
ASSI
100
AcDbLine
 62
7
  6
CONTINUOUS
 10
28.9442417929
 20
-55.7193852608
 11
33.0061747777
 21
-53.6906067465
  0
ARC
  5
3EA
100
AcDbEntity
  8
0
100
AcDbCircle
 62
7
  6
CONTINUOUS
 10
-13.1600007876
 20
7.2081718445
 40
0.4082698429
100
AcDbArc
 50
287.1176012642
 51
299.9220177611
  0
ARC
  5
3EB
100
AcDbEntity
  8
0
100
AcDbCircle
 62
7
  6
CONTINUOUS
 10
2.7499017891
 20
-1.9780065054
 40
0.4082698429
100
AcDbArc
 50
287.1176012643
 51
299.9220177611
  0
ARC
  5
3EC
100
AcDbEntity
  8
0
100
AcDbCircle
 62
7
  6
CONTINUOUS
 10
18.6598043658
 20
-11.1641848552
 40
0.4082698429
100
AcDbArc
 50
287.1176012643
 51
299.9220177611
  0
ARC
  5
3ED
100
AcDbEntity
  8
ASSI
100
AcDbCircle
 62
7
  6
CONTINUOUS
 10
-13.1600007876
 20
7.2081718445
 40
0.4082698429
100
AcDbArc
 50
287.1176012642
 51
299.9220177611
  0
ARC
  5
3EE
100
AcDbEntity
  8
ASSI
100
AcDbCircle
 62
7
  6
CONTINUOUS
 10
2.7499017891
 20
-1.9780065054
 40
0.4082698429
100
AcDbArc
 50
287.1176012643
 51
299.9220177611
  0
ARC
  5
3EF
100
AcDbEntity
  8
ASSI
100
AcDbCircle
 62
7
  6
CONTINUOUS
 10
18.6598043658
 20
-11.1641848552
 40
0.4082698429
100
AcDbArc
 50
287.1176012643
 51
299.9220177611
  0
ARC
  5
3F0
100
AcDbEntity
  8
0
100
AcDbCircle
 62
7
  6
CONTINUOUS
 10
-13.1600007123
 20
-9.5294689958
 40
0.4082696614
100
AcDbArc
 50
287.1177534332
 51
299.9220202196
  0
ARC
  5
3F1
100
AcDbEntity
  8
0
100
AcDbCircle
 62
7
  6
CONTINUOUS
 10
2.7499018644
 20
-18.7156473456
 40
0.4082696614
100
AcDbArc
 50
287.1177534332
 51
299.9220202196
  0
ARC
  5
3F2
100
AcDbEntity
  8
0
100
AcDbCircle
 62
7
  6
CONTINUOUS
 10
18.6598044411
 20
-27.9018256955
 40
0.4082696614
100
AcDbArc
 50
287.1177534332
 51
299.9220202196
  0
ARC
  5
3F3
100
AcDbEntity
  8
ASSI
100
AcDbCircle
 62
7
  6
CONTINUOUS
 10
-13.1600007123
 20
-9.5294689958
 40
0.4082696614
100
AcDbArc
 50
287.1177534332
 51
299.9220202196
  0
ARC
  5
3F4
100
AcDbEntity
  8
ASSI
100
AcDbCircle
 62
7
  6
CONTINUOUS
 10
2.7499018644
 20
-18.7156473456
 40
0.4082696614
100
AcDbArc
 50
287.1177534332
 51
299.9220202196
  0
ARC
  5
3F5
100
AcDbEntity
  8
ASSI
100
AcDbCircle
 62
7
  6
CONTINUOUS
 10
18.6598044411
 20
-27.9018256955
 40
0.4082696614
100
AcDbArc
 50
287.1177534332
 51
299.9220202196
  0
ARC
  5
3F6
100
AcDbEntity
  8
0
100
AcDbCircle
 62
7
  6
CONTINUOUS
 10
-23.4270069437
 20
8.2534169375
 40
0.4082587586
100
AcDbArc
 50
120.081029099
 51
132.876238877
  0
ARC
  5
3F7
100
AcDbEntity
  8
0
100
AcDbCircle
 62
7
  6
CONTINUOUS
 10
-7.517104367
 20
-0.9327614124
 40
0.4082587586
100
AcDbArc
 50
120.081029099
 51
132.876238877
  0
ARC
  5
3F8
100
AcDbEntity
  8
0
100
AcDbCircle
 62
7
  6
CONTINUOUS
 10
8.3927982097
 20
-10.1189397623
 40
0.4082587586
100
AcDbArc
 50
120.081029099
 51
132.8762388771
  0
ARC
  5
3F9
100
AcDbEntity
  8
ASSI
100
AcDbCircle
 62
7
  6
CONTINUOUS
 10
8.3927982097
 20
-10.1189397623
 40
0.4082587586
100
AcDbArc
 50
120.081029099
 51
132.8762388771
  0
ARC
  5
3FA
100
AcDbEntity
  8
ASSI
100
AcDbCircle
 62
7
  6
CONTINUOUS
 10
-7.517104367
 20
-0.9327614124
 40
0.4082587586
100
AcDbArc
 50
120.081029099
 51
132.876238877
  0
ARC
  5
3FB
100
AcDbEntity
  8
ASSI
100
AcDbCircle
 62
7
  6
CONTINUOUS
 10
-23.4270069437
 20
8.2534169375
 40
0.4082587586
100
AcDbArc
 50
120.081029099
 51
132.876238877
  0
ARC
  5
3FC
100
AcDbEntity
  8
0
100
AcDbCircle
 62
7
  6
CONTINUOUS
 10
-23.4270070498
 20
24.9910577598
 40
0.4082585772
100
AcDbArc
 50
120.0810266437
 51
132.8760867024
  0
ARC
  5
3FD
100
AcDbEntity
  8
0
100
AcDbCircle
 62
7
  6
CONTINUOUS
 10
-7.5171044731
 20
15.80487941
 40
0.4082585772
100
AcDbArc
 50
120.0810266437
 51
132.8760867024
  0
ARC
  5
3FE
100
AcDbEntity
  8
0
100
AcDbCircle
 62
7
  6
CONTINUOUS
 10
8.3927981036
 20
6.6187010601
 40
0.4082585772
100
AcDbArc
 50
120.0810266437
 51
132.8760867024
  0
ARC
  5
3FF
100
AcDbEntity
  8
ASSI
100
AcDbCircle
 62
7
  6
CONTINUOUS
 10
-23.4270070498
 20
24.9910577598
 40
0.4082585772
100
AcDbArc
 50
120.0810266437
 51
132.8760867024
  0
ARC
  5
400
100
AcDbEntity
  8
ASSI
100
AcDbCircle
 62
7
  6
CONTINUOUS
 10
8.3927981036
 20
6.6187010601
 40
0.4082585772
100
AcDbArc
 50
120.0810266437
 51
132.8760867024
  0
ARC
  5
401
100
AcDbEntity
  8
ASSI
100
AcDbCircle
 62
7
  6
CONTINUOUS
 10
-7.5171044731
 20
15.80487941
 40
0.4082585772
100
AcDbArc
 50
120.0810266437
 51
132.8760867024
  0
SPLINE
  5
402
100
AcDbEntity
  8
0
100
AcDbSpline
 62
7
  6
CONTINUOUS
 70
0
 71
3
 72
9
 73
5
 74
0
 42
0.0000001
 43
0.0000001
 44
0.0000000001
 40
0.0
 40
0.0
 40
0.0
 40
0.0
 40
0.5163282132
 40
1.0
 40
1.0
 40
1.0
 40
1.0
 10
-13.1121257764
 20
-9.8525441738
 30
0.0
 10
-13.0753753768
 20
-9.8575517627
 30
0.0
 10
-13.0030778936
 20
-9.8608448511
 30
0.0
 10
-12.9315946152
 20
-9.8482428913
 30
0.0
 10
-12.8983965464
 20
-9.8379937856
 30
0.0
  0
SPLINE
  5
403
100
AcDbEntity
  8
0
100
AcDbSpline
 62
7
  6
CONTINUOUS
 70
0
 71
3
 72
9
 73
5
 74
0
 42
0.0000001
 43
0.0000001
 44
0.0000000001
 40
0.0
 40
0.0
 40
0.0
 40
0.0
 40
0.2403057122
 40
1.0
 40
1.0
 40
1.0
 40
1.0
 10
17.9098754874
 20
-15.0918974664
 30
0.0
 10
17.9334964109
 20
-15.1055358914
 30
0.0
 10
18.0303300313
 20
-15.1648085867
 30
0.0
 10
18.1213339232
 20
-15.233412997
 30
0.0
 10
18.1870028697
 20
-15.289295434
 30
0.0
  0
SPLINE
  5
404
100
AcDbEntity
  8
0
100
AcDbSpline
 62
7
  6
CONTINUOUS
 70
0
 71
3
 72
11
 73
7
 74
0
 42
0.0000001
 43
0.0000001
 44
0.0000000001
 40
0.0
 40
0.0
 40
0.0
 40
0.0
 40
0.2436409567
 40
0.5000042266
 40
0.7563652941
 40
1.0
 40
1.0
 40
1.0
 40
1.0
 10
18.1870028697
 20
-15.289295434
 30
0.0
 10
18.2992837313
 20
-15.3848433072
 30
0.0
 10
18.5103246573
 20
-15.6043217996
 30
0.0
 10
18.7703806585
 20
-15.983142259
 30
0.0
 10
18.9684203125
 20
-16.3977636489
 30
0.0
 10
19.0529716476
 20
-16.6902651776
 30
0.0
 10
19.0795759597
 20
-16.8352737403
 30
0.0
  0
SPLINE
  5
405
100
AcDbEntity
  8
0
100
AcDbSpline
 62
7
  6
CONTINUOUS
 70
0
 71
3
 72
9
 73
5
 74
0
 42
0.0000001
 43
0.0000001
 44
0.0000000001
 40
0.0
 40
0.0
 40
0.0
 40
0.0
 40
0.2594910627
 40
1.0
 40
1.0
 40
1.0
 40
1.0
 10
19.0795759597
 20
-16.8352737403
 30
0.0
 10
19.084890595
 20
-16.8642415114
 30
0.0
 10
19.1030914705
 20
-16.9762664533
 30
0.0
 10
19.1119570138
 20
-17.0899187459
 30
0.0
 10
19.1119570155
 20
-17.1739637456
 30
0.0
  0
SPLINE
  5
406
100
AcDbEntity
  8
0
100
AcDbSpline
 62
7
  6
CONTINUOUS
 70
0
 71
3
 72
9
 73
5
 74
0
 42
0.0000001
 43
0.0000001
 44
0.0000000001
 40
0.0
 40
0.0
 40
0.0
 40
0.0
 40
0.2403057122
 40
1.0
 40
1.0
 40
1.0
 40
1.0
 10
1.9999729107
 20
-5.9057191165
 30
0.0
 10
2.0235938342
 20
-5.9193575416
 30
0.0
 10
2.1204274546
 20
-5.9786302368
 30
0.0
 10
2.2114313465
 20
-6.0472346471
 30
0.0
 10
2.277100293
 20
-6.1031170841
 30
0.0
  0
SPLINE
  5
407
100
AcDbEntity
  8
0
100
AcDbSpline
 62
7
  6
CONTINUOUS
 70
0
 71
3
 72
11
 73
7
 74
0
 42
0.0000001
 43
0.0000001
 44
0.0000000001
 40
0.0
 40
0.0
 40
0.0
 40
0.0
 40
0.2436409567
 40
0.5000042266
 40
0.7563652941
 40
1.0
 40
1.0
 40
1.0
 40
1.0
 10
2.277100293
 20
-6.1031170841
 30
0.0
 10
2.3893811546
 20
-6.1986649574
 30
0.0
 10
2.6004220806
 20
-6.4181434498
 30
0.0
 10
2.8604780818
 20
-6.7969639091
 30
0.0
 10
3.0585177359
 20
-7.211585299
 30
0.0
 10
3.1430690709
 20
-7.5040868277
 30
0.0
 10
3.169673383
 20
-7.6490953904
 30
0.0
  0
SPLINE
  5
408
100
AcDbEntity
  8
0
100
AcDbSpline
 62
7
  6
CONTINUOUS
 70
0
 71
3
 72
9
 73
5
 74
0
 42
0.0000001
 43
0.0000001
 44
0.0000000001
 40
0.0
 40
0.0
 40
0.0
 40
0.0
 40
0.2594910627
 40
1.0
 40
1.0
 40
1.0
 40
1.0
 10
3.169673383
 20
-7.6490953904
 30
0.0
 10
3.1749880183
 20
-7.6780631616
 30
0.0
 10
3.1931888938
 20
-7.7900881034
 30
0.0
 10
3.2020544371
 20
-7.9037403961
 30
0.0
 10
3.2020544388
 20
-7.9877853957
 30
0.0
  0
SPLINE
  5
409
100
AcDbEntity
  8
0
100
AcDbSpline
 62
7
  6
CONTINUOUS
 70
0
 71
3
 72
9
 73
5
 74
0
 42
0.0000001
 43
0.0000001
 44
0.0000000001
 40
0.0
 40
0.0
 40
0.0
 40
0.0
 40
0.2403057122
 40
1.0
 40
1.0
 40
1.0
 40
1.0
 10
-13.909929666
 20
3.2804592334
 30
0.0
 10
-13.8863087425
 20
3.2668208083
 30
0.0
 10
-13.7894751221
 20
3.2075481131
 30
0.0
 10
-13.6984712302
 20
3.1389437028
 30
0.0
 10
-13.6328022837
 20
3.0830612657
 30
0.0
  0
SPLINE
  5
40A
100
AcDbEntity
  8
0
100
AcDbSpline
 62
7
  6
CONTINUOUS
 70
0
 71
3
 72
11
 73
7
 74
0
 42
0.0000001
 43
0.0000001
 44
0.0000000001
 40
0.0
 40
0.0
 40
0.0
 40
0.0
 40
0.2436409567
 40
0.5000042266
 40
0.7563652941
 40
1.0
 40
1.0
 40
1.0
 40
1.0
 10
-13.6328022837
 20
3.0830612657
 30
0.0
 10
-13.5205214221
 20
2.9875133925
 30
0.0
 10
-13.3094804961
 20
2.7680349001
 30
0.0
 10
-13.0494244949
 20
2.3892144408
 30
0.0
 10
-12.8513848408
 20
1.9745930509
 30
0.0
 10
-12.7668335058
 20
1.6820915221
 30
0.0
 10
-12.7402291937
 20
1.5370829595
 30
0.0
  0
SPLINE
  5
40B
100
AcDbEntity
  8
0
100
AcDbSpline
 62
7
  6
CONTINUOUS
 70
0
 71
3
 72
9
 73
5
 74
0
 42
0.0000001
 43
0.0000001
 44
0.0000000001
 40
0.0
 40
0.0
 40
0.0
 40
0.0
 40
0.2594910627
 40
1.0
 40
1.0
 40
1.0
 40
1.0
 10
-12.7402291937
 20
1.5370829595
 30
0.0
 10
-12.7349145584
 20
1.5081151883
 30
0.0
 10
-12.7167136829
 20
1.3960902465
 30
0.0
 10
-12.7078481396
 20
1.2824379538
 30
0.0
 10
-12.7078481379
 20
1.1983929542
 30
0.0
  0
SPLINE
  5
40C
100
AcDbEntity
  8
0
100
AcDbSpline
 62
7
  6
CONTINUOUS
 70
0
 71
3
 72
9
 73
5
 74
0
 42
0.0000001
 43
0.0000001
 44
0.0000000001
 40
0.0
 40
0.0
 40
0.0
 40
0.0
 40
0.2403055869
 40
1.0
 40
1.0
 40
1.0
 40
1.0
 10
17.9098754874
 20
1.6457432079
 30
0.0
 10
17.9334967732
 20
1.6321045729
 30
0.0
 10
18.0303319075
 20
1.5728308969
 30
0.0
 10
18.1213371326
 20
1.5042252289
 30
0.0
 10
18.1870069931
 20
1.4483417318
 30
0.0
  0
SPLINE
  5
40D
100
AcDbEntity
  8
0
100
AcDbSpline
 62
7
  6
CONTINUOUS
 70
0
 71
3
 72
11
 73
7
 74
0
 42
0.0000001
 43
0.0000001
 44
0.0000000001
 40
0.0
 40
0.0
 40
0.0
 40
0.0
 40
0.2436411953
 40
0.5000045451
 40
0.7563655326
 40
1.0
 40
1.0
 40
1.0
 40
1.0
 10
18.1870069931
 20
1.4483417318
 30
0.0
 10
18.2992877264
 20
1.3527934851
 30
0.0
 10
18.5103282951
 20
1.1333143909
 30
0.0
 10
18.770383617
 20
0.754493291
 30
0.0
 10
18.9684223766
 20
0.3398716331
 30
0.0
 10
19.0529730118
 20
0.047370096
 30
0.0
 10
19.0795769363
 20
-0.097638391
 30
0.0
  0
SPLINE
  5
40E
100
AcDbEntity
  8
0
100
AcDbSpline
 62
7
  6
CONTINUOUS
 70
0
 71
3
 72
9
 73
5
 74
0
 42
0.0000001
 43
0.0000001
 44
0.0000000001
 40
0.0
 40
0.0
 40
0.0
 40
0.0
 40
0.2594909456
 40
1.0
 40
1.0
 40
1.0
 40
1.0
 10
19.0795769363
 20
-0.097638391
 30
0.0
 10
19.0848914126
 20
-0.1266057025
 30
0.0
 10
19.1030917488
 20
-0.2386289071
 30
0.0
 10
19.1119570157
 20
-0.3522793924
 30
0.0
 10
19.1119570155
 20
-0.4363230713
 30
0.0
  0
SPLINE
  5
40F
100
AcDbEntity
  8
0
100
AcDbSpline
 62
7
  6
CONTINUOUS
 70
0
 71
3
 72
9
 73
5
 74
0
 42
0.0000001
 43
0.0000001
 44
0.0000000001
 40
0.0
 40
0.0
 40
0.0
 40
0.0
 40
0.2403055869
 40
1.0
 40
1.0
 40
1.0
 40
1.0
 10
1.9999729107
 20
10.8319215577
 30
0.0
 10
2.0235941965
 20
10.8182829227
 30
0.0
 10
2.1204293308
 20
10.7590092467
 30
0.0
 10
2.2114345559
 20
10.6904035788
 30
0.0
 10
2.2771044164
 20
10.6345200817
 30
0.0
  0
SPLINE
  5
410
100
AcDbEntity
  8
0
100
AcDbSpline
 62
7
  6
CONTINUOUS
 70
0
 71
3
 72
11
 73
7
 74
0
 42
0.0000001
 43
0.0000001
 44
0.0000000001
 40
0.0
 40
0.0
 40
0.0
 40
0.0
 40
0.2436411953
 40
0.5000045451
 40
0.7563655326
 40
1.0
 40
1.0
 40
1.0
 40
1.0
 10
2.2771044164
 20
10.6345200817
 30
0.0
 10
2.3893851497
 20
10.538971835
 30
0.0
 10
2.6004257184
 20
10.3194927408
 30
0.0
 10
2.8604810403
 20
9.9406716409
 30
0.0
 10
3.0585197999
 20
9.526049983
 30
0.0
 10
3.1430704351
 20
9.2335484458
 30
0.0
 10
3.1696743596
 20
9.0885399589
 30
0.0
  0
SPLINE
  5
411
100
AcDbEntity
  8
0
100
AcDbSpline
 62
7
  6
CONTINUOUS
 70
0
 71
3
 72
9
 73
5
 74
0
 42
0.0000001
 43
0.0000001
 44
0.0000000001
 40
0.0
 40
0.0
 40
0.0
 40
0.0
 40
0.2594909456
 40
1.0
 40
1.0
 40
1.0
 40
1.0
 10
3.1696743596
 20
9.0885399589
 30
0.0
 10
3.1749888359
 20
9.0595726473
 30
0.0
 10
3.1931891721
 20
8.9475494428
 30
0.0
 10
3.202054439
 20
8.8338989574
 30
0.0
 10
3.2020544388
 20
8.7498552785
 30
0.0
  0
SPLINE
  5
412
100
AcDbEntity
  8
0
100
AcDbSpline
 62
7
  6
CONTINUOUS
 70
0
 71
3
 72
9
 73
5
 74
0
 42
0.0000001
 43
0.0000001
 44
0.0000000001
 40
0.0
 40
0.0
 40
0.0
 40
0.0
 40
0.2403055869
 40
1.0
 40
1.0
 40
1.0
 40
1.0
 10
-13.909929666
 20
20.0180999076
 30
0.0
 10
-13.8863083802
 20
20.0044612726
 30
0.0
 10
-13.7894732459
 20
19.9451875966
 30
0.0
 10
-13.6984680208
 20
19.8765819287
 30
0.0
 10
-13.6327981603
 20
19.8206984316
 30
0.0
  0
SPLINE
  5
413
100
AcDbEntity
  8
0
100
AcDbSpline
 62
7
  6
CONTINUOUS
 70
0
 71
3
 72
11
 73
7
 74
0
 42
0.0000001
 43
0.0000001
 44
0.0000000001
 40
0.0
 40
0.0
 40
0.0
 40
0.0
 40
0.2436411953
 40
0.5000045451
 40
0.7563655326
 40
1.0
 40
1.0
 40
1.0
 40
1.0
 10
-13.6327981603
 20
19.8206984316
 30
0.0
 10
-13.520517427
 20
19.7251501849
 30
0.0
 10
-13.3094768583
 20
19.5056710907
 30
0.0
 10
-13.0494215364
 20
19.1268499907
 30
0.0
 10
-12.8513827768
 20
18.7122283329
 30
0.0
 10
-12.7668321416
 20
18.4197267957
 30
0.0
 10
-12.7402282171
 20
18.2747183088
 30
0.0
  0
SPLINE
  5
414
100
AcDbEntity
  8
0
100
AcDbSpline
 62
7
  6
CONTINUOUS
 70
0
 71
3
 72
9
 73
5
 74
0
 42
0.0000001
 43
0.0000001
 44
0.0000000001
 40
0.0
 40
0.0
 40
0.0
 40
0.0
 40
0.2594909456
 40
1.0
 40
1.0
 40
1.0
 40
1.0
 10
-12.7402282171
 20
18.2747183088
 30
0.0
 10
-12.7349137408
 20
18.2457509972
 30
0.0
 10
-12.7167134046
 20
18.1337277926
 30
0.0
 10
-12.7078481376
 20
18.0200773073
 30
0.0
 10
-12.7078481379
 20
17.9360336284
 30
0.0
  0
SPLINE
  5
415
100
AcDbEntity
  8
0
100
AcDbSpline
 62
7
  6
CONTINUOUS
 70
0
 71
3
 72
9
 73
5
 74
0
 42
0.0000001
 43
0.0000001
 44
0.0000000001
 40
0.0
 40
0.0
 40
0.0
 40
0.0
 40
0.5163282132
 40
1.0
 40
1.0
 40
1.0
 40
1.0
 10
2.7977768003
 20
-19.0387225237
 30
0.0
 10
2.8345271999
 20
-19.0437301125
 30
0.0
 10
2.9068246831
 20
-19.047023201
 30
0.0
 10
2.9783079615
 20
-19.0344212412
 30
0.0
 10
3.0115060303
 20
-19.0241721354
 30
0.0
  0
SPLINE
  5
416
100
AcDbEntity
  8
0
100
AcDbSpline
 62
7
  6
CONTINUOUS
 70
0
 71
3
 72
9
 73
5
 74
0
 42
0.0000001
 43
0.0000001
 44
0.0000000001
 40
0.0
 40
0.0
 40
0.0
 40
0.0
 40
0.5163282132
 40
1.0
 40
1.0
 40
1.0
 40
1.0
 10
18.7076793769
 20
-28.2249008735
 30
0.0
 10
18.7444297766
 20
-28.2299084624
 30
0.0
 10
18.8167272598
 20
-28.2332015509
 30
0.0
 10
18.8882105382
 20
-28.2205995911
 30
0.0
 10
18.921408607
 20
-28.2103504853
 30
0.0
  0
SPLINE
  5
417
100
AcDbEntity
  8
0
100
AcDbSpline
 62
7
  6
CONTINUOUS
 70
0
 71
3
 72
9
 73
5
 74
0
 42
0.0000001
 43
0.0000001
 44
0.0000000001
 40
0.0
 40
0.0
 40
0.0
 40
0.0
 40
0.5163282074
 40
1.0
 40
1.0
 40
1.0
 40
1.0
 10
18.7076793769
 20
-11.4872601991
 30
0.0
 10
18.7444297496
 20
-11.4922677846
 30
0.0
 10
18.8167271795
 20
-11.4955608757
 30
0.0
 10
18.8882104082
 20
-11.4829589433
 30
0.0
 10
18.9214084572
 20
-11.4727098571
 30
0.0
  0
SPLINE
  5
418
100
AcDbEntity
  8
0
100
AcDbSpline
 62
7
  6
CONTINUOUS
 70
0
 71
3
 72
9
 73
5
 74
0
 42
0.0000001
 43
0.0000001
 44
0.0000000001
 40
0.0
 40
0.0
 40
0.0
 40
0.0
 40
0.5163282074
 40
1.0
 40
1.0
 40
1.0
 40
1.0
 10
2.7977768002
 20
-2.3010818493
 30
0.0
 10
2.8345271729
 20
-2.3060894347
 30
0.0
 10
2.9068246028
 20
-2.3093825258
 30
0.0
 10
2.9783078315
 20
-2.2967805934
 30
0.0
 10
3.0115058805
 20
-2.2865315073
 30
0.0
  0
SPLINE
  5
419
100
AcDbEntity
  8
0
100
AcDbSpline
 62
7
  6
CONTINUOUS
 70
0
 71
3
 72
9
 73
5
 74
0
 42
0.0000001
 43
0.0000001
 44
0.0000000001
 40
0.0
 40
0.0
 40
0.0
 40
0.0
 40
0.5163282074
 40
1.0
 40
1.0
 40
1.0
 40
1.0
 10
-13.1121257765
 20
6.8850965006
 30
0.0
 10
-13.0753754038
 20
6.8800889152
 30
0.0
 10
-13.0030779739
 20
6.8767958241
 30
0.0
 10
-12.9315947452
 20
6.8893977565
 30
0.0
 10
-12.8983966962
 20
6.8996468426
 30
0.0
  0
SPLINE
  5
41A
100
AcDbEntity
  8
0
100
AcDbSpline
 62
7
  6
CONTINUOUS
 70
0
 71
3
 72
11
 73
7
 74
0
 42
0.0000001
 43
0.0000001
 44
0.0000000001
 40
0.0
 40
0.0
 40
0.0
 40
0.0
 40
0.2177671738
 40
0.450944045
 40
0.7101952432
 40
1.0
 40
1.0
 40
1.0
 40
1.0
 10
-23.6316361354
 20
25.3443310297
 30
0.0
 10
-23.5920537979
 20
25.367185389
 30
0.0
 10
-23.5010978138
 20
25.4002198395
 30
0.0
 10
-23.350041621
 20
25.4039996171
 30
0.0
 10
-23.1890200469
 20
25.365163031
 30
0.0
 10
-23.0842833625
 20
25.3152962055
 30
0.0
 10
-23.0316071433
 20
25.2848816165
 30
0.0
  0
SPLINE
  5
41B
100
AcDbEntity
  8
0
100
AcDbSpline
 62
7
  6
CONTINUOUS
 70
0
 71
3
 72
9
 73
5
 74
0
 42
0.0000001
 43
0.0000001
 44
0.0000000001
 40
0.0
 40
0.0
 40
0.0
 40
0.0
 40
0.2434727943
 40
1.0
 40
1.0
 40
1.0
 40
1.0
 10
-23.5633601212
 20
25.371905642
 30
0.0
 10
-23.5718686398
 20
25.3640164258
 30
0.0
 10
-23.6054763622
 20
25.3301788148
 30
0.0
 10
-23.6334195238
 20
25.2908774209
 30
0.0
 10
-23.6512023049
 20
25.2595141014
 30
0.0
  0
SPLINE
  5
41C
100
AcDbEntity
  8
0
100
AcDbSpline
 62
7
  6
CONTINUOUS
 70
0
 71
3
 72
9
 73
5
 74
0
 42
0.0000001
 43
0.0000001
 44
0.0000000001
 40
0.0
 40
0.0
 40
0.0
 40
0.0
 40
0.2454443437
 40
1.0
 40
1.0
 40
1.0
 40
1.0
 10
-23.6512023049
 20
25.2595141014
 30
0.0
 10
-23.6541385306
 20
25.2543355085
 30
0.0
 10
-23.6657463633
 20
25.2330365259
 30
0.0
 10
-23.6759396977
 20
25.2109729779
 30
0.0
 10
-23.6828657385
 20
25.1940329276
 30
0.0
  0
SPLINE
  5
41D
100
AcDbEntity
  8
0
100
AcDbSpline
 62
7
  6
CONTINUOUS
 70
0
 71
3
 72
11
 73
7
 74
0
 42
0.0000001
 43
0.0000001
 44
0.0000000001
 40
0.0
 40
0.0
 40
0.0
 40
0.0
 40
0.2177671738
 40
0.450944045
 40
0.7101952432
 40
1.0
 40
1.0
 40
1.0
 40
1.0
 10
-7.7217335587
 20
16.1581526798
 30
0.0
 10
-7.6821512212
 20
16.1810070391
 30
0.0
 10
-7.5911952371
 20
16.2140414896
 30
0.0
 10
-7.4401390443
 20
16.2178212672
 30
0.0
 10
-7.2791174702
 20
16.1789846812
 30
0.0
 10
-7.1743807858
 20
16.1291178557
 30
0.0
 10
-7.1217045666
 20
16.0987032666
 30
0.0
  0
SPLINE
  5
41E
100
AcDbEntity
  8
0
100
AcDbSpline
 62
7
  6
CONTINUOUS
 70
0
 71
3
 72
9
 73
5
 74
0
 42
0.0000001
 43
0.0000001
 44
0.0000000001
 40
0.0
 40
0.0
 40
0.0
 40
0.0
 40
0.2434727943
 40
1.0
 40
1.0
 40
1.0
 40
1.0
 10
-7.6534575445
 20
16.1857272921
 30
0.0
 10
-7.6619660631
 20
16.1778380759
 30
0.0
 10
-7.6955737855
 20
16.1440004649
 30
0.0
 10
-7.7235169471
 20
16.1046990711
 30
0.0
 10
-7.7412997282
 20
16.0733357515
 30
0.0
  0
SPLINE
  5
41F
100
AcDbEntity
  8
0
100
AcDbSpline
 62
7
  6
CONTINUOUS
 70
0
 71
3
 72
9
 73
5
 74
0
 42
0.0000001
 43
0.0000001
 44
0.0000000001
 40
0.0
 40
0.0
 40
0.0
 40
0.0
 40
0.2454443437
 40
1.0
 40
1.0
 40
1.0
 40
1.0
 10
-7.7412997282
 20
16.0733357515
 30
0.0
 10
-7.7442359539
 20
16.0681571586
 30
0.0
 10
-7.7558437866
 20
16.046858176
 30
0.0
 10
-7.766037121
 20
16.024794628
 30
0.0
 10
-7.7729631618
 20
16.0078545777
 30
0.0
  0
SPLINE
  5
420
100
AcDbEntity
  8
0
100
AcDbSpline
 62
7
  6
CONTINUOUS
 70
0
 71
3
 72
11
 73
7
 74
0
 42
0.0000001
 43
0.0000001
 44
0.0000000001
 40
0.0
 40
0.0
 40
0.0
 40
0.0
 40
0.2177671738
 40
0.450944045
 40
0.7101952432
 40
1.0
 40
1.0
 40
1.0
 40
1.0
 10
8.188169018
 20
6.9719743299
 30
0.0
 10
8.2277513555
 20
6.9948286892
 30
0.0
 10
8.3187073396
 20
7.0278631397
 30
0.0
 10
8.4697635324
 20
7.0316429174
 30
0.0
 10
8.6307851065
 20
6.9928063313
 30
0.0
 10
8.7355217909
 20
6.9429395058
 30
0.0
 10
8.7881980101
 20
6.9125249167
 30
0.0
  0
SPLINE
  5
421
100
AcDbEntity
  8
0
100
AcDbSpline
 62
7
  6
CONTINUOUS
 70
0
 71
3
 72
9
 73
5
 74
0
 42
0.0000001
 43
0.0000001
 44
0.0000000001
 40
0.0
 40
0.0
 40
0.0
 40
0.0
 40
0.2434727943
 40
1.0
 40
1.0
 40
1.0
 40
1.0
 10
8.2564450322
 20
6.9995489422
 30
0.0
 10
8.2479365136
 20
6.991659726
 30
0.0
 10
8.2143287912
 20
6.957822115
 30
0.0
 10
8.1863856296
 20
6.9185207212
 30
0.0
 10
8.1686028485
 20
6.8871574017
 30
0.0
  0
SPLINE
  5
422
100
AcDbEntity
  8
0
100
AcDbSpline
 62
7
  6
CONTINUOUS
 70
0
 71
3
 72
9
 73
5
 74
0
 42
0.0000001
 43
0.0000001
 44
0.0000000001
 40
0.0
 40
0.0
 40
0.0
 40
0.0
 40
0.2454443437
 40
1.0
 40
1.0
 40
1.0
 40
1.0
 10
8.1686028485
 20
6.8871574017
 30
0.0
 10
8.1656666228
 20
6.8819788087
 30
0.0
 10
8.1540587901
 20
6.8606798261
 30
0.0
 10
8.1438654557
 20
6.8386162781
 30
0.0
 10
8.1369394149
 20
6.8216762278
 30
0.0
  0
SPLINE
  5
423
100
AcDbEntity
  8
0
100
AcDbSpline
 62
7
  6
CONTINUOUS
 70
0
 71
3
 72
9
 73
5
 74
0
 42
0.0000001
 43
0.0000001
 44
0.0000000001
 40
0.0
 40
0.0
 40
0.0
 40
0.0
 40
0.2434727928
 40
1.0
 40
1.0
 40
1.0
 40
1.0
 10
-23.563360236
 20
8.6342648611
 30
0.0
 10
-23.5718687487
 20
8.6263756445
 30
0.0
 10
-23.6054764478
 20
8.5925380333
 30
0.0
 10
-23.6334195895
 20
8.5532366462
 30
0.0
 10
-23.6512023581
 20
8.5218733337
 30
0.0
  0
SPLINE
  5
424
100
AcDbEntity
  8
0
100
AcDbSpline
 62
7
  6
CONTINUOUS
 70
0
 71
3
 72
9
 73
5
 74
0
 42
0.0000001
 43
0.0000001
 44
0.0000000001
 40
0.0
 40
0.0
 40
0.0
 40
0.0
 40
0.245444348
 40
1.0
 40
1.0
 40
1.0
 40
1.0
 10
-23.6512023581
 20
8.5218733337
 30
0.0
 10
-23.6541385785
 20
8.5166947477
 30
0.0
 10
-23.6657463902
 20
8.4953957945
 30
0.0
 10
-23.675939708
 20
8.4733322784
 30
0.0
 10
-23.6828657384
 20
8.4563922532
 30
0.0
  0
SPLINE
  5
425
100
AcDbEntity
  8
0
100
AcDbSpline
 62
7
  6
CONTINUOUS
 70
0
 71
3
 72
11
 73
7
 74
0
 42
0.0000001
 43
0.0000001
 44
0.0000000001
 40
0.0
 40
0.0
 40
0.0
 40
0.0
 40
0.2177671718
 40
0.4509440387
 40
0.7101952376
 40
1.0
 40
1.0
 40
1.0
 40
1.0
 10
-23.6316361354
 20
8.6066903554
 30
0.0
 10
-23.5920537981
 20
8.6295447142
 30
0.0
 10
-23.5010978155
 20
8.6625791648
 30
0.0
 10
-23.350041624
 20
8.6663589432
 30
0.0
 10
-23.1890200491
 20
8.627522358
 30
0.0
 10
-23.0842833643
 20
8.5776555306
 30
0.0
 10
-23.0316071433
 20
8.5472409422
 30
0.0
  0
SPLINE
  5
426
100
AcDbEntity
  8
0
100
AcDbSpline
 62
7
  6
CONTINUOUS
 70
0
 71
3
 72
9
 73
5
 74
0
 42
0.0000001
 43
0.0000001
 44
0.0000000001
 40
0.0
 40
0.0
 40
0.0
 40
0.0
 40
0.2434727928
 40
1.0
 40
1.0
 40
1.0
 40
1.0
 10
-7.6534576593
 20
-0.5519134888
 30
0.0
 10
-7.661966172
 20
-0.5598027054
 30
0.0
 10
-7.6955738711
 20
-0.5936403165
 30
0.0
 10
-7.7235170128
 20
-0.6329417037
 30
0.0
 10
-7.7412997814
 20
-0.6643050162
 30
0.0
  0
SPLINE
  5
427
100
AcDbEntity
  8
0
100
AcDbSpline
 62
7
  6
CONTINUOUS
 70
0
 71
3
 72
9
 73
5
 74
0
 42
0.0000001
 43
0.0000001
 44
0.0000000001
 40
0.0
 40
0.0
 40
0.0
 40
0.0
 40
0.245444348
 40
1.0
 40
1.0
 40
1.0
 40
1.0
 10
-7.7412997814
 20
-0.6643050162
 30
0.0
 10
-7.7442360018
 20
-0.6694836022
 30
0.0
 10
-7.7558438135
 20
-0.6907825554
 30
0.0
 10
-7.7660371313
 20
-0.7128460714
 30
0.0
 10
-7.7729631617
 20
-0.7297860967
 30
0.0
  0
SPLINE
  5
428
100
AcDbEntity
  8
0
100
AcDbSpline
 62
7
  6
CONTINUOUS
 70
0
 71
3
 72
11
 73
7
 74
0
 42
0.0000001
 43
0.0000001
 44
0.0000000001
 40
0.0
 40
0.0
 40
0.0
 40
0.0
 40
0.2177671718
 40
0.4509440387
 40
0.7101952376
 40
1.0
 40
1.0
 40
1.0
 40
1.0
 10
-7.7217335587
 20
-0.5794879944
 30
0.0
 10
-7.6821512214
 20
-0.5566336357
 30
0.0
 10
-7.5911952389
 20
-0.5235991851
 30
0.0
 10
-7.4401390473
 20
-0.5198194066
 30
0.0
 10
-7.2791174724
 20
-0.5586559919
 30
0.0
 10
-7.1743807876
 20
-0.6085228192
 30
0.0
 10
-7.1217045666
 20
-0.6389374077
 30
0.0
  0
SPLINE
  5
429
100
AcDbEntity
  8
0
100
AcDbSpline
 62
7
  6
CONTINUOUS
 70
0
 71
3
 72
9
 73
5
 74
0
 42
0.0000001
 43
0.0000001
 44
0.0000000001
 40
0.0
 40
0.0
 40
0.0
 40
0.0
 40
0.2434727928
 40
1.0
 40
1.0
 40
1.0
 40
1.0
 10
8.2564449174
 20
-9.7380918387
 30
0.0
 10
8.2479364047
 20
-9.7459810553
 30
0.0
 10
8.2143287056
 20
-9.7798186664
 30
0.0
 10
8.1863855639
 20
-9.8191200535
 30
0.0
 10
8.1686027953
 20
-9.850483366
 30
0.0
  0
SPLINE
  5
42A
100
AcDbEntity
  8
0
100
AcDbSpline
 62
7
  6
CONTINUOUS
 70
0
 71
3
 72
9
 73
5
 74
0
 42
0.0000001
 43
0.0000001
 44
0.0000000001
 40
0.0
 40
0.0
 40
0.0
 40
0.0
 40
0.245444348
 40
1.0
 40
1.0
 40
1.0
 40
1.0
 10
8.1686027953
 20
-9.850483366
 30
0.0
 10
8.1656665749
 20
-9.855661952
 30
0.0
 10
8.1540587631
 20
-9.8769609053
 30
0.0
 10
8.1438654454
 20
-9.8990244213
 30
0.0
 10
8.136939415
 20
-9.9159644465
 30
0.0
  0
SPLINE
  5
42B
100
AcDbEntity
  8
0
100
AcDbSpline
 62
7
  6
CONTINUOUS
 70
0
 71
3
 72
11
 73
7
 74
0
 42
0.0000001
 43
0.0000001
 44
0.0000000001
 40
0.0
 40
0.0
 40
0.0
 40
0.0
 40
0.2177671718
 40
0.4509440387
 40
0.7101952376
 40
1.0
 40
1.0
 40
1.0
 40
1.0
 10
8.188169018
 20
-9.7656663443
 30
0.0
 10
8.2277513553
 20
-9.7428119855
 30
0.0
 10
8.3187073378
 20
-9.709777535
 30
0.0
 10
8.4697635294
 20
-9.7059977565
 30
0.0
 10
8.6307851043
 20
-9.7448343417
 30
0.0
 10
8.7355217891
 20
-9.7947011691
 30
0.0
 10
8.7881980101
 20
-9.8251157575
 30
0.0
  0
SPLINE
  5
42C
100
AcDbEntity
  8
0
100
AcDbSpline
 62
7
  6
CONTINUOUS
 70
0
 71
3
 72
15
 73
11
 74
0
 42
0.0000001
 43
0.0000001
 44
0.0000000001
 40
0.0
 40
0.0
 40
0.0
 40
0.0
 40
0.1141547283
 40
0.237319763
 40
0.3669701489
 40
0.4999939506
 40
0.6330185926
 40
0.7626714372
 40
0.8858403441
 40
1.0
 40
1.0
 40
1.0
 40
1.0
 10
-23.3800837356
 20
14.7087904536
 30
0.0
 10
-23.3800837352
 20
14.6029903284
 30
0.0
 10
-23.3607073217
 20
14.3828333244
 30
0.0
 10
-23.2834471568
 20
14.0507005954
 30
0.0
 10
-23.1596965616
 20
13.7142726457
 30
0.0
 10
-22.9940595094
 20
13.3862000356
 30
0.0
 10
-22.7927574666
 20
13.0787160137
 30
0.0
 10
-22.5632740763
 20
12.8033252413
 30
0.0
 10
-22.3142632181
 20
12.57034039
 30
0.0
 10
-22.1332857249
 20
12.4434733753
 30
0.0
 10
-22.0416576496
 20
12.3905684729
 30
0.0
  0
SPLINE
  5
42D
100
AcDbEntity
  8
0
100
AcDbSpline
 62
7
  6
CONTINUOUS
 70
0
 71
3
 72
15
 73
11
 74
0
 42
0.0000001
 43
0.0000001
 44
0.0000000001
 40
0.0
 40
0.0
 40
0.0
 40
0.0
 40
0.1141547283
 40
0.237319763
 40
0.3669701489
 40
0.4999939506
 40
0.6330185926
 40
0.7626714372
 40
0.8858403441
 40
1.0
 40
1.0
 40
1.0
 40
1.0
 10
-7.4701811589
 20
5.5226121037
 30
0.0
 10
-7.4701811585
 20
5.4168119785
 30
0.0
 10
-7.450804745
 20
5.1966549745
 30
0.0
 10
-7.3735445801
 20
4.8645222455
 30
0.0
 10
-7.2497939849
 20
4.5280942958
 30
0.0
 10
-7.0841569327
 20
4.2000216857
 30
0.0
 10
-6.8828548899
 20
3.8925376638
 30
0.0
 10
-6.6533714996
 20
3.6171468914
 30
0.0
 10
-6.4043606414
 20
3.3841620401
 30
0.0
 10
-6.2233831482
 20
3.2572950254
 30
0.0
 10
-6.1317550729
 20
3.204390123
 30
0.0
  0
SPLINE
  5
42E
100
AcDbEntity
  8
0
100
AcDbSpline
 62
7
  6
CONTINUOUS
 70
0
 71
3
 72
15
 73
11
 74
0
 42
0.0000001
 43
0.0000001
 44
0.0000000001
 40
0.0
 40
0.0
 40
0.0
 40
0.0
 40
0.1141547283
 40
0.237319763
 40
0.3669701489
 40
0.4999939506
 40
0.6330185926
 40
0.7626714372
 40
0.8858403441
 40
1.0
 40
1.0
 40
1.0
 40
1.0
 10
8.4397214178
 20
-3.6635662462
 30
0.0
 10
8.4397214181
 20
-3.7693663714
 30
0.0
 10
8.4590978317
 20
-3.9895233753
 30
0.0
 10
8.5363579966
 20
-4.3216561044
 30
0.0
 10
8.6601085918
 20
-4.6580840541
 30
0.0
 10
8.825745644
 20
-4.9861566642
 30
0.0
 10
9.0270476868
 20
-5.2936406861
 30
0.0
 10
9.2565310771
 20
-5.5690314585
 30
0.0
 10
9.5055419353
 20
-5.8020163098
 30
0.0
 10
9.6865194285
 20
-5.9288833244
 30
0.0
 10
9.7781475038
 20
-5.9817882269
 30
0.0
  0
SPLINE
  5
42F
100
AcDbEntity
  8
0
100
AcDbSpline
 62
7
  6
CONTINUOUS
 70
0
 71
3
 72
15
 73
11
 74
0
 42
0.0000001
 43
0.0000001
 44
0.0000000001
 40
0.0
 40
0.0
 40
0.0
 40
0.0
 40
0.1141547262
 40
0.2373197603
 40
0.3669701463
 40
0.4999939469
 40
0.63301859
 40
0.7626714346
 40
0.8858403421
 40
1.0
 40
1.0
 40
1.0
 40
1.0
 10
8.4397214178
 20
-20.4012069204
 30
0.0
 10
8.4397214179
 20
-20.5070070437
 30
0.0
 10
8.4590978312
 20
-20.7271640452
 30
0.0
 10
8.5363579949
 20
-21.059296772
 30
0.0
 10
8.6601085883
 20
-21.3957247207
 30
0.0
 10
8.8257456398
 20
-21.7237973312
 30
0.0
 10
9.0270476819
 20
-22.0312813535
 30
0.0
 10
9.2565310722
 20
-22.3066721279
 30
0.0
 10
9.5055419317
 20
-22.5396569814
 30
0.0
 10
9.686519427
 20
-22.6665239975
 30
0.0
 10
9.7781475038
 20
-22.7194289011
 30
0.0
  0
SPLINE
  5
430
100
AcDbEntity
  8
0
100
AcDbSpline
 62
7
  6
CONTINUOUS
 70
0
 71
3
 72
15
 73
11
 74
0
 42
0.0000001
 43
0.0000001
 44
0.0000000001
 40
0.0
 40
0.0
 40
0.0
 40
0.0
 40
0.1141547262
 40
0.2373197603
 40
0.3669701463
 40
0.4999939469
 40
0.63301859
 40
0.7626714346
 40
0.8858403421
 40
1.0
 40
1.0
 40
1.0
 40
1.0
 10
-7.4701811589
 20
-11.2150285705
 30
0.0
 10
-7.4701811588
 20
-11.3208286938
 30
0.0
 10
-7.4508047455
 20
-11.5409856954
 30
0.0
 10
-7.3735445818
 20
-11.8731184221
 30
0.0
 10
-7.2497939884
 20
-12.2095463708
 30
0.0
 10
-7.0841569369
 20
-12.5376189813
 30
0.0
 10
-6.8828548948
 20
-12.8451030037
 30
0.0
 10
-6.6533715045
 20
-13.120493778
 30
0.0
 10
-6.404360645
 20
-13.3534786316
 30
0.0
 10
-6.2233831497
 20
-13.4803456477
 30
0.0
 10
-6.1317550729
 20
-13.5332505512
 30
0.0
  0
SPLINE
  5
431
100
AcDbEntity
  8
0
100
AcDbSpline
 62
7
  6
CONTINUOUS
 70
0
 71
3
 72
15
 73
11
 74
0
 42
0.0000001
 43
0.0000001
 44
0.0000000001
 40
0.0
 40
0.0
 40
0.0
 40
0.0
 40
0.1141547262
 40
0.2373197603
 40
0.3669701463
 40
0.4999939469
 40
0.63301859
 40
0.7626714346
 40
0.8858403421
 40
1.0
 40
1.0
 40
1.0
 40
1.0
 10
-23.3800837356
 20
-2.0288502207
 30
0.0
 10
-23.3800837355
 20
-2.134650344
 30
0.0
 10
-23.3607073222
 20
-2.3548073455
 30
0.0
 10
-23.2834471585
 20
-2.6869400722
 30
0.0
 10
-23.1596965651
 20
-3.023368021
 30
0.0
 10
-22.9940595136
 20
-3.3514406314
 30
0.0
 10
-22.7927574715
 20
-3.6589246538
 30
0.0
 10
-22.5632740812
 20
-3.9343154282
 30
0.0
 10
-22.3142632217
 20
-4.1673002817
 30
0.0
 10
-22.1332857264
 20
-4.2941672978
 30
0.0
 10
-22.0416576496
 20
-4.3470722014
 30
0.0
  0
SPLINE
  5
432
100
AcDbEntity
  8
0
100
AcDbSpline
 62
7
  6
CONTINUOUS
 70
0
 71
3
 72
9
 73
5
 74
0
 42
0.0000001
 43
0.0000001
 44
0.0000000001
 40
0.0
 40
0.0
 40
0.0
 40
0.0
 40
0.2715327297
 40
1.0
 40
1.0
 40
1.0
 40
1.0
 10
-12.7078481379
 20
7.4036065127
 30
0.0
 10
-12.7078481386
 20
7.3723707838
 30
0.0
 10
-12.7125852806
 20
7.2575569809
 30
0.0
 10
-12.7378853362
 20
7.1423253712
 30
0.0
 10
-12.7724306138
 20
7.0659780218
 30
0.0
  0
SPLINE
  5
433
100
AcDbEntity
  8
0
100
AcDbSpline
 62
7
  6
CONTINUOUS
 70
0
 71
3
 72
9
 73
5
 74
0
 42
0.0000001
 43
0.0000001
 44
0.0000000001
 40
0.0
 40
0.0
 40
0.0
 40
0.0
 40
0.5170823016
 40
1.0
 40
1.0
 40
1.0
 40
1.0
 10
-12.7724306138
 20
7.0659780218
 30
0.0
 10
-12.7926030974
 20
7.0213954981
 30
0.0
 10
-12.8427250384
 20
6.9393636932
 30
0.0
 10
-12.9167698879
 20
6.877173785
 30
0.0
 10
-12.9563472832
 20
6.8543222793
 30
0.0
  0
SPLINE
  5
434
100
AcDbEntity
  8
0
100
AcDbSpline
 62
7
  6
CONTINUOUS
 70
0
 71
3
 72
9
 73
5
 74
0
 42
0.0000001
 43
0.0000001
 44
0.0000000001
 40
0.0
 40
0.0
 40
0.0
 40
0.0
 40
0.2715327297
 40
1.0
 40
1.0
 40
1.0
 40
1.0
 10
3.2020544388
 20
-1.7825718372
 30
0.0
 10
3.2020544381
 20
-1.8138075661
 30
0.0
 10
3.1973172961
 20
-1.9286213689
 30
0.0
 10
3.1720172405
 20
-2.0438529786
 30
0.0
 10
3.1374719629
 20
-2.1202003281
 30
0.0
  0
SPLINE
  5
435
100
AcDbEntity
  8
0
100
AcDbSpline
 62
7
  6
CONTINUOUS
 70
0
 71
3
 72
9
 73
5
 74
0
 42
0.0000001
 43
0.0000001
 44
0.0000000001
 40
0.0
 40
0.0
 40
0.0
 40
0.0
 40
0.5170823016
 40
1.0
 40
1.0
 40
1.0
 40
1.0
 10
3.1374719629
 20
-2.1202003281
 30
0.0
 10
3.1172994793
 20
-2.1647828518
 30
0.0
 10
3.0671775383
 20
-2.2468146567
 30
0.0
 10
2.9931326888
 20
-2.3090045649
 30
0.0
 10
2.9535552935
 20
-2.3318560705
 30
0.0
  0
SPLINE
  5
436
100
AcDbEntity
  8
0
100
AcDbSpline
 62
7
  6
CONTINUOUS
 70
0
 71
3
 72
9
 73
5
 74
0
 42
0.0000001
 43
0.0000001
 44
0.0000000001
 40
0.0
 40
0.0
 40
0.0
 40
0.0
 40
0.2715327297
 40
1.0
 40
1.0
 40
1.0
 40
1.0
 10
19.1119570155
 20
-10.968750187
 30
0.0
 10
19.1119570148
 20
-10.9999859159
 30
0.0
 10
19.1072198728
 20
-11.1147997188
 30
0.0
 10
19.0819198172
 20
-11.2300313285
 30
0.0
 10
19.0473745396
 20
-11.306378678
 30
0.0
  0
SPLINE
  5
437
100
AcDbEntity
  8
0
100
AcDbSpline
 62
7
  6
CONTINUOUS
 70
0
 71
3
 72
9
 73
5
 74
0
 42
0.0000001
 43
0.0000001
 44
0.0000000001
 40
0.0
 40
0.0
 40
0.0
 40
0.0
 40
0.5170823016
 40
1.0
 40
1.0
 40
1.0
 40
1.0
 10
19.0473745396
 20
-11.306378678
 30
0.0
 10
19.027202056
 20
-11.3509612017
 30
0.0
 10
18.977080115
 20
-11.4329930066
 30
0.0
 10
18.9030352655
 20
-11.4951829147
 30
0.0
 10
18.8634578702
 20
-11.5180344204
 30
0.0
  0
SPLINE
  5
438
100
AcDbEntity
  8
0
100
AcDbSpline
 62
7
  6
CONTINUOUS
 70
0
 71
3
 72
9
 73
5
 74
0
 42
0.0000001
 43
0.0000001
 44
0.0000000001
 40
0.0
 40
0.0
 40
0.0
 40
0.0
 40
0.2715325905
 40
1.0
 40
1.0
 40
1.0
 40
1.0
 10
-12.7078481379
 20
-9.3340341615
 30
0.0
 10
-12.7078481378
 20
-9.3652697174
 30
0.0
 10
-12.7125852303
 20
-9.4800829472
 30
0.0
 10
-12.7378850069
 20
-9.5953139668
 30
0.0
 10
-12.772429889
 20
-9.6716610505
 30
0.0
  0
SPLINE
  5
439
100
AcDbEntity
  8
0
100
AcDbSpline
 62
7
  6
CONTINUOUS
 70
0
 71
3
 72
9
 73
5
 74
0
 42
0.0000001
 43
0.0000001
 44
0.0000000001
 40
0.0
 40
0.0
 40
0.0
 40
0.0
 40
0.5170824752
 40
1.0
 40
1.0
 40
1.0
 40
1.0
 10
-12.772429889
 20
-9.6716610505
 30
0.0
 10
-12.7926023697
 20
-9.7162439228
 30
0.0
 10
-12.8427244042
 20
-9.7982763753
 30
0.0
 10
-12.9167696594
 20
-9.8604667577
 30
0.0
 10
-12.9563472832
 20
-9.8833183949
 30
0.0
  0
SPLINE
  5
43A
100
AcDbEntity
  8
0
100
AcDbSpline
 62
7
  6
CONTINUOUS
 70
0
 71
3
 72
9
 73
5
 74
0
 42
0.0000001
 43
0.0000001
 44
0.0000000001
 40
0.0
 40
0.0
 40
0.0
 40
0.0
 40
0.2715325905
 40
1.0
 40
1.0
 40
1.0
 40
1.0
 10
3.2020544388
 20
-18.5202125114
 30
0.0
 10
3.2020544389
 20
-18.5514480673
 30
0.0
 10
3.1973173464
 20
-18.6662612971
 30
0.0
 10
3.1720175698
 20
-18.7814923167
 30
0.0
 10
3.1374726877
 20
-18.8578394004
 30
0.0
  0
SPLINE
  5
43B
100
AcDbEntity
  8
0
100
AcDbSpline
 62
7
  6
CONTINUOUS
 70
0
 71
3
 72
9
 73
5
 74
0
 42
0.0000001
 43
0.0000001
 44
0.0000000001
 40
0.0
 40
0.0
 40
0.0
 40
0.0
 40
0.5170824752
 40
1.0
 40
1.0
 40
1.0
 40
1.0
 10
3.1374726877
 20
-18.8578394004
 30
0.0
 10
3.117300207
 20
-18.9024222727
 30
0.0
 10
3.0671781725
 20
-18.9844547252
 30
0.0
 10
2.9931329173
 20
-19.0466451076
 30
0.0
 10
2.9535552935
 20
-19.0694967448
 30
0.0
  0
SPLINE
  5
43C
100
AcDbEntity
  8
0
100
AcDbSpline
 62
7
  6
CONTINUOUS
 70
0
 71
3
 72
9
 73
5
 74
0
 42
0.0000001
 43
0.0000001
 44
0.0000000001
 40
0.0
 40
0.0
 40
0.0
 40
0.0
 40
0.2715325905
 40
1.0
 40
1.0
 40
1.0
 40
1.0
 10
19.1119570155
 20
-27.7063908613
 30
0.0
 10
19.1119570156
 20
-27.7376264172
 30
0.0
 10
19.1072199231
 20
-27.852439647
 30
0.0
 10
19.0819201465
 20
-27.9676706666
 30
0.0
 10
19.0473752643
 20
-28.0440177503
 30
0.0
  0
SPLINE
  5
43D
100
AcDbEntity
  8
0
100
AcDbSpline
 62
7
  6
CONTINUOUS
 70
0
 71
3
 72
9
 73
5
 74
0
 42
0.0000001
 43
0.0000001
 44
0.0000000001
 40
0.0
 40
0.0
 40
0.0
 40
0.0
 40
0.5170824752
 40
1.0
 40
1.0
 40
1.0
 40
1.0
 10
19.0473752643
 20
-28.0440177503
 30
0.0
 10
19.0272027837
 20
-28.0886006225
 30
0.0
 10
18.9770807491
 20
-28.170633075
 30
0.0
 10
18.903035494
 20
-28.2328234574
 30
0.0
 10
18.8634578702
 20
-28.2556750947
 30
0.0
  0
SPLINE
  5
43E
100
AcDbEntity
  8
0
100
AcDbSpline
 62
7
  6
CONTINUOUS
 70
0
 71
3
 72
9
 73
5
 74
0
 42
0.0000001
 43
0.0000001
 44
0.0000000001
 40
0.0
 40
0.0
 40
0.0
 40
0.0
 40
0.2314181732
 40
1.0
 40
1.0
 40
1.0
 40
1.0
 10
8.136939415
 20
-9.9159644465
 30
0.0
 10
8.1274985964
 20
-9.9390552644
 30
0.0
 10
8.0927755873
 20
-10.041323592
 30
0.0
 10
8.0810912294
 20
-10.150444658
 30
0.0
 10
8.081091229
 20
-10.233295659
 30
0.0
  0
SPLINE
  5
43F
100
AcDbEntity
  8
0
100
AcDbSpline
 62
7
  6
CONTINUOUS
 70
0
 71
3
 72
15
 73
11
 74
0
 42
0.0000001
 43
0.0000001
 44
0.0000000001
 40
0.0
 40
0.0
 40
0.0
 40
0.0
 40
0.1449018606
 40
0.274517057
 40
0.3911053392
 40
0.4999889011
 40
0.6088744758
 40
0.7254681141
 40
0.8550905238
 40
1.0
 40
1.0
 40
1.0
 40
1.0
 10
3.2020544388
 20
-18.9284871047
 30
0.0
 10
3.2020544391
 20
-19.0146506329
 30
0.0
 10
3.1890339791
 20
-19.1784591764
 30
0.0
 10
3.122659178
 20
-19.4034652325
 30
0.0
 10
3.0108881971
 20
-19.5861746933
 30
0.0
 10
2.8557387441
 20
-19.7166540189
 30
0.0
 10
2.6651549495
 20
-19.7857569015
 30
0.0
 10
2.4510297915
 20
-19.7911798897
 30
0.0
 10
2.2229733518
 20
-19.7361430337
 30
0.0
 10
2.0745954356
 20
-19.6655058753
 30
0.0
 10
1.9999729107
 20
-19.6224197666
 30
0.0
  0
SPLINE
  5
440
100
AcDbEntity
  8
0
100
AcDbSpline
 62
7
  6
CONTINUOUS
 70
0
 71
3
 72
9
 73
5
 74
0
 42
0.0000001
 43
0.0000001
 44
0.0000000001
 40
0.0
 40
0.0
 40
0.0
 40
0.0
 40
0.2314181671
 40
1.0
 40
1.0
 40
1.0
 40
1.0
 10
8.1369394149
 20
6.8216762278
 30
0.0
 10
8.1274985964
 20
6.7985854106
 30
0.0
 10
8.092775587
 20
6.696317083
 30
0.0
 10
8.0810912291
 20
6.5871960169
 30
0.0
 10
8.081091229
 20
6.5043450152
 30
0.0
  0
SPLINE
  5
441
100
AcDbEntity
  8
0
100
AcDbSpline
 62
7
  6
CONTINUOUS
 70
0
 71
3
 72
9
 73
5
 74
0
 42
0.0000001
 43
0.0000001
 44
0.0000000001
 40
0.0
 40
0.0
 40
0.0
 40
0.0
 40
0.2314181671
 40
1.0
 40
1.0
 40
1.0
 40
1.0
 10
-7.7729631618
 20
16.0078545777
 30
0.0
 10
-7.7824039803
 20
15.9847637604
 30
0.0
 10
-7.8171269897
 20
15.8824954329
 30
0.0
 10
-7.8288113476
 20
15.7733743668
 30
0.0
 10
-7.8288113477
 20
15.6905233651
 30
0.0
  0
SPLINE
  5
442
100
AcDbEntity
  8
0
100
AcDbSpline
 62
7
  6
CONTINUOUS
 70
0
 71
3
 72
15
 73
11
 74
0
 42
0.0000001
 43
0.0000001
 44
0.0000000001
 40
0.0
 40
0.0
 40
0.0
 40
0.0
 40
0.1449018606
 40
0.274517057
 40
0.3911053392
 40
0.4999889011
 40
0.6088744758
 40
0.7254681141
 40
0.8550905238
 40
1.0
 40
1.0
 40
1.0
 40
1.0
 10
-24.5872420619
 20
8.0574061221
 30
0.0
 10
-24.5872420622
 20
8.1435696502
 30
0.0
 10
-24.5742216023
 20
8.3073781937
 30
0.0
 10
-24.5078468011
 20
8.5323842498
 30
0.0
 10
-24.3960758202
 20
8.7150937106
 30
0.0
 10
-24.2409263672
 20
8.8455730362
 30
0.0
 10
-24.0503425726
 20
8.9146759188
 30
0.0
 10
-23.8362174146
 20
8.9200989071
 30
0.0
 10
-23.6081609749
 20
8.865062051
 30
0.0
 10
-23.4597830587
 20
8.7944248926
 30
0.0
 10
-23.3851605339
 20
8.751338784
 30
0.0
  0
SPLINE
  5
443
100
AcDbEntity
  8
0
100
AcDbSpline
 62
7
  6
CONTINUOUS
 70
0
 71
3
 72
9
 73
5
 74
0
 42
0.0000001
 43
0.0000001
 44
0.0000000001
 40
0.0
 40
0.0
 40
0.0
 40
0.0
 40
0.2314181671
 40
1.0
 40
1.0
 40
1.0
 40
1.0
 10
-23.6828657385
 20
25.1940329276
 30
0.0
 10
-23.692306557
 20
25.1709421103
 30
0.0
 10
-23.7270295664
 20
25.0686737828
 30
0.0
 10
-23.7387139243
 20
24.9595527166
 30
0.0
 10
-23.7387139244
 20
24.876701715
 30
0.0
  0
SPLINE
  5
444
100
AcDbEntity
  8
0
100
AcDbSpline
 62
7
  6
CONTINUOUS
 70
0
 71
3
 72
13
 73
9
 74
0
 42
0.0000001
 43
0.0000001
 44
0.0000000001
 40
0.0
 40
0.0
 40
0.0
 40
0.0
 40
0.1142615975
 40
0.2375404836
 40
0.5000060625
 40
0.7624683192
 40
0.885743332
 40
1.0
 40
1.0
 40
1.0
 40
1.0
 10
-23.3851605339
 20
-4.9653618662
 30
0.0
 10
-23.4674545285
 20
-4.9178463454
 30
0.0
 10
-23.6300162908
 20
-4.8039054599
 30
0.0
 10
-23.9343210758
 20
-4.5190438132
 30
0.0
 10
-24.2558002026
 20
-4.0799665265
 30
0.0
 10
-24.4753123488
 20
-3.5820217544
 30
0.0
 10
-24.5698516434
 20
-3.1760641643
 30
0.0
 10
-24.58724206
 20
-2.9783179377
 30
0.0
 10
-24.5872420619
 20
-2.883295587
 30
0.0
  0
SPLINE
  5
445
100
AcDbEntity
  8
0
100
AcDbSpline
 62
7
  6
CONTINUOUS
 70
0
 71
3
 72
11
 73
7
 74
0
 42
0.0000001
 43
0.0000001
 44
0.0000000001
 40
0.0
 40
0.0
 40
0.0
 40
0.0
 40
0.2191410373
 40
0.4557654014
 40
0.7154234019
 40
1.0
 40
1.0
 40
1.0
 40
1.0
 10
-13.0398331198
 20
6.8179872776
 30
0.0
 10
-13.0774725177
 20
6.8063685772
 30
0.0
 10
-13.1594842548
 20
6.7933484662
 30
0.0
 10
-13.288594611
 20
6.8046029904
 30
0.0
 10
-13.4238728811
 20
6.8448749155
 30
0.0
 10
-13.512076087
 20
6.8881933192
 30
0.0
 10
-13.5563762754
 20
6.9137716926
 30
0.0
  0
SPLINE
  5
446
100
AcDbEntity
  8
0
100
AcDbSpline
 62
7
  6
CONTINUOUS
 70
0
 71
3
 72
15
 73
11
 74
0
 42
0.0000001
 43
0.0000001
 44
0.0000000001
 40
0.0
 40
0.0
 40
0.0
 40
0.0
 40
0.1449018606
 40
0.274517057
 40
0.3911053392
 40
0.4999889011
 40
0.6088744758
 40
0.7254681141
 40
0.8550905238
 40
1.0
 40
1.0
 40
1.0
 40
1.0
 10
-12.7078481379
 20
-9.7423087549
 30
0.0
 10
-12.7078481376
 20
-9.828472283
 30
0.0
 10
-12.7208685975
 20
-9.9922808265
 30
0.0
 10
-12.7872433987
 20
-10.2172868827
 30
0.0
 10
-12.8990143796
 20
-10.3999963434
 30
0.0
 10
-13.0541638326
 20
-10.530475669
 30
0.0
 10
-13.2447476272
 20
-10.5995785516
 30
0.0
 10
-13.4588727852
 20
-10.6050015399
 30
0.0
 10
-13.6869292249
 20
-10.5499646838
 30
0.0
 10
-13.8353071411
 20
-10.4793275254
 30
0.0
 10
-13.909929666
 20
-10.4362414168
 30
0.0
  0
SPLINE
  5
447
100
AcDbEntity
  8
0
100
AcDbSpline
 62
7
  6
CONTINUOUS
 70
0
 71
3
 72
9
 73
5
 74
0
 42
0.0000001
 43
0.0000001
 44
0.0000000001
 40
0.0
 40
0.0
 40
0.0
 40
0.0
 40
0.2314181732
 40
1.0
 40
1.0
 40
1.0
 40
1.0
 10
-23.6828657384
 20
8.4563922532
 30
0.0
 10
-23.692306557
 20
8.4333014353
 30
0.0
 10
-23.7270295661
 20
8.3310331077
 30
0.0
 10
-23.738713924
 20
8.2219120417
 30
0.0
 10
-23.7387139244
 20
8.1390610407
 30
0.0
  0
SPLINE
  5
448
100
AcDbEntity
  8
0
100
AcDbSpline
 62
7
  6
CONTINUOUS
 70
0
 71
3
 72
11
 73
7
 74
0
 42
0.0000001
 43
0.0000001
 44
0.0000000001
 40
0.0
 40
0.0
 40
0.0
 40
0.0
 40
0.2191410373
 40
0.4557654014
 40
0.7154234019
 40
1.0
 40
1.0
 40
1.0
 40
1.0
 10
2.8700694569
 20
-2.3681910723
 30
0.0
 10
2.832430059
 20
-2.3798097727
 30
0.0
 10
2.7504183219
 20
-2.3928298836
 30
0.0
 10
2.6213079657
 20
-2.3815753595
 30
0.0
 10
2.4860296956
 20
-2.3413034344
 30
0.0
 10
2.3978264897
 20
-2.2979850306
 30
0.0
 10
2.3535263013
 20
-2.2724066573
 30
0.0
  0
SPLINE
  5
449
100
AcDbEntity
  8
0
100
AcDbSpline
 62
7
  6
CONTINUOUS
 70
0
 71
3
 72
11
 73
7
 74
0
 42
0.0000001
 43
0.0000001
 44
0.0000000001
 40
0.0
 40
0.0
 40
0.0
 40
0.0
 40
0.2191410373
 40
0.4557654014
 40
0.7154234019
 40
1.0
 40
1.0
 40
1.0
 40
1.0
 10
18.7799720336
 20
-11.5543694221
 30
0.0
 10
18.7423326357
 20
-11.5659881226
 30
0.0
 10
18.6603208986
 20
-11.5790082335
 30
0.0
 10
18.5312105424
 20
-11.5677537093
 30
0.0
 10
18.3959322722
 20
-11.5274817843
 30
0.0
 10
18.3077290664
 20
-11.4841633805
 30
0.0
 10
18.263428878
 20
-11.4585850072
 30
0.0
  0
SPLINE
  5
44A
100
AcDbEntity
  8
0
100
AcDbSpline
 62
7
  6
CONTINUOUS
 70
0
 71
3
 72
11
 73
7
 74
0
 42
0.0000001
 43
0.0000001
 44
0.0000000001
 40
0.0
 40
0.0
 40
0.0
 40
0.0
 40
0.2191409981
 40
0.4557653171
 40
0.7154233258
 40
1.0
 40
1.0
 40
1.0
 40
1.0
 10
-13.0398320616
 20
-9.9196530701
 30
0.0
 10
-13.0774714989
 20
-9.9312718912
 30
0.0
 10
-13.1594833671
 20
-9.9442922067
 30
0.0
 10
-13.2885939946
 20
-9.9330378268
 30
0.0
 10
-13.4238725766
 20
-9.8927658999
 30
0.0
 10
-13.5120759855
 20
-9.849447415
 30
0.0
 10
-13.5563762754
 20
-9.8238689817
 30
0.0
  0
SPLINE
  5
44B
100
AcDbEntity
  8
0
100
AcDbSpline
 62
7
  6
CONTINUOUS
 70
0
 71
3
 72
15
 73
11
 74
0
 42
0.0000001
 43
0.0000001
 44
0.0000000001
 40
0.0
 40
0.0
 40
0.0
 40
0.0
 40
0.144901866
 40
0.2745170643
 40
0.391105345
 40
0.4999889054
 40
0.6088744816
 40
0.7254681215
 40
0.8550905292
 40
1.0
 40
1.0
 40
1.0
 40
1.0
 10
7.2325630915
 20
6.4226900966
 30
0.0
 10
7.2325630932
 20
6.5088536278
 30
0.0
 10
7.2455835508
 20
6.6726621759
 30
0.0
 10
7.3119583566
 20
6.8976682347
 30
0.0
 10
7.4237293397
 20
7.0803776934
 30
0.0
 10
7.5788787946
 20
7.2108570155
 30
0.0
 10
7.7694625912
 20
7.2799598948
 30
0.0
 10
7.98358775
 20
7.2853828801
 30
0.0
 10
8.211644185
 20
7.2303460214
 30
0.0
 10
8.3600220984
 20
7.1597088672
 30
0.0
 10
8.4346446195
 20
7.1166227585
 30
0.0
  0
SPLINE
  5
44C
100
AcDbEntity
  8
0
100
AcDbSpline
 62
7
  6
CONTINUOUS
 70
0
 71
3
 72
11
 73
7
 74
0
 42
0.0000001
 43
0.0000001
 44
0.0000000001
 40
0.0
 40
0.0
 40
0.0
 40
0.0
 40
0.2191409981
 40
0.4557653171
 40
0.7154233258
 40
1.0
 40
1.0
 40
1.0
 40
1.0
 10
2.8700705151
 20
-19.10583142
 30
0.0
 10
2.8324310778
 20
-19.1174502411
 30
0.0
 10
2.7504192096
 20
-19.1304705565
 30
0.0
 10
2.6213085821
 20
-19.1192161766
 30
0.0
 10
2.4860300001
 20
-19.0789442498
 30
0.0
 10
2.3978265912
 20
-19.0356257649
 30
0.0
 10
2.3535263013
 20
-19.0100473316
 30
0.0
  0
SPLINE
  5
44D
100
AcDbEntity
  8
0
100
AcDbSpline
 62
7
  6
CONTINUOUS
 70
0
 71
3
 72
13
 73
9
 74
0
 42
0.0000001
 43
0.0000001
 44
0.0000000001
 40
0.0
 40
0.0
 40
0.0
 40
0.0
 40
0.114261602
 40
0.2375404911
 40
0.5000060678
 40
0.7624683267
 40
0.8857433366
 40
1.0
 40
1.0
 40
1.0
 40
1.0
 10
8.4346446195
 20
-6.6000778917
 30
0.0
 10
8.3523506227
 20
-6.5525623671
 30
0.0
 10
8.1897888538
 20
-6.4386214805
 30
0.0
 10
7.8854840683
 20
-6.1537598271
 30
0.0
 10
7.5640049425
 20
-5.7146825375
 30
0.0
 10
7.3444927992
 20
-5.2167377661
 30
0.0
 10
7.2499535101
 20
-4.8107801797
 30
0.0
 10
7.2325630912
 20
-4.6130339594
 30
0.0
 10
7.2325630915
 20
-4.5180116125
 30
0.0
  0
SPLINE
  5
44E
100
AcDbEntity
  8
0
100
AcDbSpline
 62
7
  6
CONTINUOUS
 70
0
 71
3
 72
11
 73
7
 74
0
 42
0.0000001
 43
0.0000001
 44
0.0000000001
 40
0.0
 40
0.0
 40
0.0
 40
0.0
 40
0.2191409981
 40
0.4557653171
 40
0.7154233258
 40
1.0
 40
1.0
 40
1.0
 40
1.0
 10
18.7799730918
 20
-28.2920097698
 30
0.0
 10
18.7423336545
 20
-28.303628591
 30
0.0
 10
18.6603217863
 20
-28.3166489064
 30
0.0
 10
18.5312111588
 20
-28.3053945265
 30
0.0
 10
18.3959325768
 20
-28.2651225997
 30
0.0
 10
18.3077291679
 20
-28.2218041148
 30
0.0
 10
18.263428878
 20
-28.1962256814
 30
0.0
  0
SPLINE
  5
44F
100
AcDbEntity
  8
0
100
AcDbSpline
 62
7
  6
CONTINUOUS
 70
0
 71
3
 72
15
 73
11
 74
0
 42
0.0000001
 43
0.0000001
 44
0.0000000001
 40
0.0
 40
0.0
 40
0.0
 40
0.0
 40
0.144901866
 40
0.2745170643
 40
0.391105345
 40
0.4999889054
 40
0.6088744816
 40
0.7254681215
 40
0.8550905292
 40
1.0
 40
1.0
 40
1.0
 40
1.0
 10
19.1119570155
 20
-11.3770247804
 30
0.0
 10
19.1119570137
 20
-11.4631883116
 30
0.0
 10
19.0989365562
 20
-11.6269968597
 30
0.0
 10
19.0325617504
 20
-11.8520029185
 30
0.0
 10
18.9207907673
 20
-12.0347123772
 30
0.0
 10
18.7656413124
 20
-12.1651916993
 30
0.0
 10
18.5750575158
 20
-12.2342945786
 30
0.0
 10
18.360932357
 20
-12.2397175639
 30
0.0
 10
18.132875922
 20
-12.1846807052
 30
0.0
 10
17.9844980086
 20
-12.114043551
 30
0.0
 10
17.9098754874
 20
-12.0709574423
 30
0.0
  0
SPLINE
  5
450
100
AcDbEntity
  8
0
100
AcDbSpline
 62
7
  6
CONTINUOUS
 70
0
 71
3
 72
15
 73
11
 74
0
 42
0.0000001
 43
0.0000001
 44
0.0000000001
 40
0.0
 40
0.0
 40
0.0
 40
0.0
 40
0.1449018606
 40
0.274517057
 40
0.3911053392
 40
0.4999889011
 40
0.6088744758
 40
0.7254681141
 40
0.8550905238
 40
1.0
 40
1.0
 40
1.0
 40
1.0
 10
7.2325630915
 20
-10.3149505777
 30
0.0
 10
7.2325630912
 20
-10.2287870496
 30
0.0
 10
7.2455835511
 20
-10.064978506
 30
0.0
 10
7.3119583523
 20
-9.8399724499
 30
0.0
 10
7.4237293332
 20
-9.6572629891
 30
0.0
 10
7.5788787862
 20
-9.5267836636
 30
0.0
 10
7.7694625808
 20
-9.4576807809
 30
0.0
 10
7.9835877388
 20
-9.4522577927
 30
0.0
 10
8.2116441785
 20
-9.5072946488
 30
0.0
 10
8.3600220947
 20
-9.5779318072
 30
0.0
 10
8.4346446195
 20
-9.6210179158
 30
0.0
  0
SPLINE
  5
451
100
AcDbEntity
  8
0
100
AcDbSpline
 62
7
  6
CONTINUOUS
 70
0
 71
3
 72
13
 73
9
 74
0
 42
0.0000001
 43
0.0000001
 44
0.0000000001
 40
0.0
 40
0.0
 40
0.0
 40
0.0
 40
0.1142615975
 40
0.2375404836
 40
0.5000060625
 40
0.7624683192
 40
0.885743332
 40
1.0
 40
1.0
 40
1.0
 40
1.0
 10
8.4346446195
 20
-23.3377185659
 30
0.0
 10
8.3523506249
 20
-23.2902030451
 30
0.0
 10
8.1897888626
 20
-23.1762621597
 30
0.0
 10
7.8854840776
 20
-22.8914005129
 30
0.0
 10
7.5640049508
 20
-22.4523232262
 30
0.0
 10
7.3444928046
 20
-21.9543784541
 30
0.0
 10
7.24995351
 20
-21.548420864
 30
0.0
 10
7.2325630934
 20
-21.3506746375
 30
0.0
 10
7.2325630915
 20
-21.2556522867
 30
0.0
  0
SPLINE
  5
452
100
AcDbEntity
  8
0
100
AcDbSpline
 62
7
  6
CONTINUOUS
 70
0
 71
3
 72
15
 73
11
 74
0
 42
0.0000001
 43
0.0000001
 44
0.0000000001
 40
0.0
 40
0.0
 40
0.0
 40
0.0
 40
0.144901866
 40
0.2745170643
 40
0.391105345
 40
0.4999889054
 40
0.6088744816
 40
0.7254681215
 40
0.8550905292
 40
1.0
 40
1.0
 40
1.0
 40
1.0
 10
-8.6773394852
 20
15.6088684464
 30
0.0
 10
-8.6773394835
 20
15.6950319777
 30
0.0
 10
-8.6643190259
 20
15.8588405257
 30
0.0
 10
-8.5979442201
 20
16.0838465846
 30
0.0
 10
-8.486173237
 20
16.2665560433
 30
0.0
 10
-8.3310237821
 20
16.3970353654
 30
0.0
 10
-8.1404399855
 20
16.4661382447
 30
0.0
 10
-7.9263148267
 20
16.47156123
 30
0.0
 10
-7.6982583917
 20
16.4165243712
 30
0.0
 10
-7.5498804783
 20
16.3458872171
 30
0.0
 10
-7.4752579572
 20
16.3028011083
 30
0.0
  0
SPLINE
  5
453
100
AcDbEntity
  8
0
100
AcDbSpline
 62
7
  6
CONTINUOUS
 70
0
 71
3
 72
11
 73
7
 74
0
 42
0.0000001
 43
0.0000001
 44
0.0000000001
 40
0.0
 40
0.0
 40
0.0
 40
0.0
 40
0.2845760135
 40
0.5442324186
 40
0.7808561624
 40
1.0
 40
1.0
 40
1.0
 40
1.0
 10
-23.8801352807
 20
24.7950467963
 30
0.0
 10
-23.8801352817
 20
24.8461985342
 30
0.0
 10
-23.8735454905
 20
24.9442387663
 30
0.0
 10
-23.8407771954
 20
25.0815205598
 30
0.0
 10
-23.7859621214
 20
25.1989511744
 30
0.0
 10
-23.7336760352
 20
25.2634573925
 30
0.0
 10
-23.7047923387
 20
25.2902406456
 30
0.0
  0
SPLINE
  5
454
100
AcDbEntity
  8
0
100
AcDbSpline
 62
7
  6
CONTINUOUS
 70
0
 71
3
 72
11
 73
7
 74
0
 42
0.0000001
 43
0.0000001
 44
0.0000000001
 40
0.0
 40
0.0
 40
0.0
 40
0.0
 40
0.2372223294
 40
0.5000061084
 40
0.762786565
 40
1.0
 40
1.0
 40
1.0
 40
1.0
 10
-23.0316071433
 20
12.3846512431
 30
0.0
 10
-23.1520630577
 20
12.4542009753
 30
0.0
 10
-23.3800340313
 20
12.6460657319
 30
0.0
 10
-23.6461145455
 20
13.0096719322
 30
0.0
 10
-23.8279650273
 20
13.4219024376
 30
0.0
 10
-23.8801352802
 20
13.7152575543
 30
0.0
 10
-23.8801352807
 20
13.8543450873
 30
0.0
  0
SPLINE
  5
455
100
AcDbEntity
  8
0
100
AcDbSpline
 62
7
  6
CONTINUOUS
 70
0
 71
3
 72
11
 73
7
 74
0
 42
0.0000001
 43
0.0000001
 44
0.0000000001
 40
0.0
 40
0.0
 40
0.0
 40
0.0
 40
0.2372134853
 40
0.499993893
 40
0.7627776247
 40
1.0
 40
1.0
 40
1.0
 40
1.0
 10
-23.7387139244
 20
13.936000006
 30
0.0
 10
-23.7387139237
 20
13.7969124435
 30
0.0
 10
-23.6865436622
 20
13.5035573254
 30
0.0
 10
-23.5046931814
 20
13.0913268516
 30
0.0
 10
-23.2386126948
 20
12.7277206693
 30
0.0
 10
-23.0106417233
 20
12.5358559101
 30
0.0
 10
-22.890185787
 20
12.4663061618
 30
0.0
  0
SPLINE
  5
456
100
AcDbEntity
  8
0
100
AcDbSpline
 62
7
  6
CONTINUOUS
 70
0
 71
3
 72
13
 73
9
 74
0
 42
0.0000001
 43
0.0000001
 44
0.0000000001
 40
0.0
 40
0.0
 40
0.0
 40
0.0
 40
0.114261602
 40
0.2375404911
 40
0.5000060678
 40
0.7624683267
 40
0.8857433366
 40
1.0
 40
1.0
 40
1.0
 40
1.0
 10
-7.4752579572
 20
2.5861004582
 30
0.0
 10
-7.557551954
 20
2.6336159828
 30
0.0
 10
-7.7201137229
 20
2.7475568694
 30
0.0
 10
-8.0244185083
 20
3.0324185228
 30
0.0
 10
-8.3458976342
 20
3.4714958123
 30
0.0
 10
-8.5654097775
 20
3.9694405838
 30
0.0
 10
-8.6599490666
 20
4.3753981702
 30
0.0
 10
-8.6773394855
 20
4.5731443904
 30
0.0
 10
-8.6773394852
 20
4.6681667374
 30
0.0
  0
SPLINE
  5
457
100
AcDbEntity
  8
0
100
AcDbSpline
 62
7
  6
CONTINUOUS
 70
0
 71
3
 72
9
 73
5
 74
0
 42
0.0000001
 43
0.0000001
 44
0.0000000001
 40
0.0
 40
0.0
 40
0.0
 40
0.0
 40
0.2698109559
 40
1.0
 40
1.0
 40
1.0
 40
1.0
 10
-13.4149549191
 20
6.9954266112
 30
0.0
 10
-13.3897689702
 20
6.9808845602
 30
0.0
 10
-13.2944925893
 20
6.9306593593
 30
0.0
 10
-13.1901116047
 20
6.8957228063
 30
0.0
 10
-13.1121257765
 20
6.8850965006
 30
0.0
  0
SPLINE
  5
458
100
AcDbEntity
  8
0
100
AcDbSpline
 62
7
  6
CONTINUOUS
 70
0
 71
3
 72
11
 73
7
 74
0
 42
0.0000001
 43
0.0000001
 44
0.0000000001
 40
0.0
 40
0.0
 40
0.0
 40
0.0
 40
0.2845760135
 40
0.5442324186
 40
0.7808561624
 40
1.0
 40
1.0
 40
1.0
 40
1.0
 10
-7.970232704
 20
15.6088684464
 30
0.0
 10
-7.970232705
 20
15.6600201844
 30
0.0
 10
-7.9636429138
 20
15.7580604164
 30
0.0
 10
-7.9308746187
 20
15.8953422099
 30
0.0
 10
-7.8760595447
 20
16.0127728245
 30
0.0
 10
-7.8237734585
 20
16.0772790426
 30
0.0
 10
-7.794889762
 20
16.1040622957
 30
0.0
  0
SPLINE
  5
459
100
AcDbEntity
  8
0
100
AcDbSpline
 62
7
  6
CONTINUOUS
 70
0
 71
3
 72
11
 73
7
 74
0
 42
0.0000001
 43
0.0000001
 44
0.0000000001
 40
0.0
 40
0.0
 40
0.0
 40
0.0
 40
0.2372223294
 40
0.5000061084
 40
0.762786565
 40
1.0
 40
1.0
 40
1.0
 40
1.0
 10
-7.1217045666
 20
3.1984728933
 30
0.0
 10
-7.242160481
 20
3.2680226254
 30
0.0
 10
-7.4701314546
 20
3.459887382
 30
0.0
 10
-7.7362119688
 20
3.8234935823
 30
0.0
 10
-7.9180624506
 20
4.2357240878
 30
0.0
 10
-7.9702327035
 20
4.5290792045
 30
0.0
 10
-7.970232704
 20
4.6681667374
 30
0.0
  0
SPLINE
  5
45A
100
AcDbEntity
  8
0
100
AcDbSpline
 62
7
  6
CONTINUOUS
 70
0
 71
3
 72
11
 73
7
 74
0
 42
0.0000001
 43
0.0000001
 44
0.0000000001
 40
0.0
 40
0.0
 40
0.0
 40
0.0
 40
0.2372134853
 40
0.499993893
 40
0.7627776247
 40
1.0
 40
1.0
 40
1.0
 40
1.0
 10
-7.8288113477
 20
4.7498216561
 30
0.0
 10
-7.828811347
 20
4.6107340936
 30
0.0
 10
-7.7766410855
 20
4.3173789755
 30
0.0
 10
-7.5947906047
 20
3.9051485017
 30
0.0
 10
-7.3287101181
 20
3.5415423195
 30
0.0
 10
-7.1007391466
 20
3.3496775602
 30
0.0
 10
-6.9802832103
 20
3.2801278119
 30
0.0
  0
SPLINE
  5
45B
100
AcDbEntity
  8
0
100
AcDbSpline
 62
7
  6
CONTINUOUS
 70
0
 71
3
 72
15
 73
11
 74
0
 42
0.0000001
 43
0.0000001
 44
0.0000000001
 40
0.0
 40
0.0
 40
0.0
 40
0.0
 40
0.144901866
 40
0.2745170643
 40
0.391105345
 40
0.4999889054
 40
0.6088744816
 40
0.7254681215
 40
0.8550905292
 40
1.0
 40
1.0
 40
1.0
 40
1.0
 10
3.2020544388
 20
-2.1908464305
 30
0.0
 10
3.202054437
 20
-2.2770099618
 30
0.0
 10
3.1890339795
 20
-2.4408185098
 30
0.0
 10
3.1226591737
 20
-2.6658245687
 30
0.0
 10
3.0108881906
 20
-2.8485340273
 30
0.0
 10
2.8557387357
 20
-2.9790133494
 30
0.0
 10
2.6651549391
 20
-3.0481162288
 30
0.0
 10
2.4510297803
 20
-3.0535392141
 30
0.0
 10
2.2229733453
 20
-2.9985023553
 30
0.0
 10
2.0745954319
 20
-2.9278652012
 30
0.0
 10
1.9999729107
 20
-2.8847790924
 30
0.0
  0
SPLINE
  5
45C
100
AcDbEntity
  8
0
100
AcDbSpline
 62
7
  6
CONTINUOUS
 70
0
 71
3
 72
9
 73
5
 74
0
 42
0.0000001
 43
0.0000001
 44
0.0000000001
 40
0.0
 40
0.0
 40
0.0
 40
0.0
 40
0.2698109559
 40
1.0
 40
1.0
 40
1.0
 40
1.0
 10
2.4949476576
 20
-2.1907517387
 30
0.0
 10
2.5201336065
 20
-2.2052937897
 30
0.0
 10
2.6154099874
 20
-2.2555189905
 30
0.0
 10
2.719790972
 20
-2.2904555435
 30
0.0
 10
2.7977768002
 20
-2.3010818493
 30
0.0
  0
SPLINE
  5
45D
100
AcDbEntity
  8
0
100
AcDbSpline
 62
7
  6
CONTINUOUS
 70
0
 71
3
 72
15
 73
11
 74
0
 42
0.0000001
 43
0.0000001
 44
0.0000000001
 40
0.0
 40
0.0
 40
0.0
 40
0.0
 40
0.1449018606
 40
0.274517057
 40
0.3911053392
 40
0.4999889011
 40
0.6088744758
 40
0.7254681141
 40
0.8550905238
 40
1.0
 40
1.0
 40
1.0
 40
1.0
 10
19.1119570155
 20
-28.1146654546
 30
0.0
 10
19.1119570158
 20
-28.2008289827
 30
0.0
 10
19.0989365558
 20
-28.3646375263
 30
0.0
 10
19.0325617547
 20
-28.5896435824
 30
0.0
 10
18.9207907738
 20
-28.7723530432
 30
0.0
 10
18.7656413208
 20
-28.9028323687
 30
0.0
 10
18.5750575262
 20
-28.9719352514
 30
0.0
 10
18.3609323681
 20
-28.9773582396
 30
0.0
 10
18.1328759284
 20
-28.9223213835
 30
0.0
 10
17.9844980123
 20
-28.8516842251
 30
0.0
 10
17.9098754874
 20
-28.8085981165
 30
0.0
  0
SPLINE
  5
45E
100
AcDbEntity
  8
0
100
AcDbSpline
 62
7
  6
CONTINUOUS
 70
0
 71
3
 72
9
 73
5
 74
0
 42
0.0000001
 43
0.0000001
 44
0.0000000001
 40
0.0
 40
0.0
 40
0.0
 40
0.0
 40
0.2314181732
 40
1.0
 40
1.0
 40
1.0
 40
1.0
 10
-7.7729631617
 20
-0.7297860967
 30
0.0
 10
-7.7824039803
 20
-0.7528769146
 30
0.0
 10
-7.8171269894
 20
-0.8551452422
 30
0.0
 10
-7.8288113473
 20
-0.9642663082
 30
0.0
 10
-7.8288113477
 20
-1.0471173091
 30
0.0
  0
SPLINE
  5
45F
100
AcDbEntity
  8
0
100
AcDbSpline
 62
7
  6
CONTINUOUS
 70
0
 71
3
 72
11
 73
7
 74
0
 42
0.0000001
 43
0.0000001
 44
0.0000000001
 40
0.0
 40
0.0
 40
0.0
 40
0.0
 40
0.2845760135
 40
0.5442324186
 40
0.7808561624
 40
1.0
 40
1.0
 40
1.0
 40
1.0
 10
7.9396698727
 20
6.4226900966
 30
0.0
 10
7.9396698717
 20
6.4738418345
 30
0.0
 10
7.9462596629
 20
6.5718820665
 30
0.0
 10
7.979027958
 20
6.70916386
 30
0.0
 10
8.033843032
 20
6.8265944746
 30
0.0
 10
8.0861291182
 20
6.8911006927
 30
0.0
 10
8.1150128147
 20
6.9178839458
 30
0.0
  0
SPLINE
  5
460
100
AcDbEntity
  8
0
100
AcDbSpline
 62
7
  6
CONTINUOUS
 70
0
 71
3
 72
15
 73
11
 74
0
 42
0.0000001
 43
0.0000001
 44
0.0000000001
 40
0.0
 40
0.0
 40
0.0
 40
0.0
 40
0.144901866
 40
0.2745170643
 40
0.391105345
 40
0.4999889054
 40
0.6088744816
 40
0.7254681215
 40
0.8550905292
 40
1.0
 40
1.0
 40
1.0
 40
1.0
 10
-24.5872420619
 20
24.7950467963
 30
0.0
 10
-24.5872420602
 20
24.8812103276
 30
0.0
 10
-24.5742216026
 20
25.0450188756
 30
0.0
 10
-24.5078467968
 20
25.2700249345
 30
0.0
 10
-24.3960758137
 20
25.4527343931
 30
0.0
 10
-24.2409263588
 20
25.5832137152
 30
0.0
 10
-24.0503425622
 20
25.6523165946
 30
0.0
 10
-23.8362174034
 20
25.6577395799
 30
0.0
 10
-23.6081609684
 20
25.6027027211
 30
0.0
 10
-23.459783055
 20
25.532065567
 30
0.0
 10
-23.3851605339
 20
25.4889794582
 30
0.0
  0
SPLINE
  5
461
100
AcDbEntity
  8
0
100
AcDbSpline
 62
7
  6
CONTINUOUS
 70
0
 71
3
 72
11
 73
7
 74
0
 42
0.0000001
 43
0.0000001
 44
0.0000000001
 40
0.0
 40
0.0
 40
0.0
 40
0.0
 40
0.2372223294
 40
0.5000061084
 40
0.762786565
 40
1.0
 40
1.0
 40
1.0
 40
1.0
 10
8.7881980101
 20
-5.9877054566
 30
0.0
 10
8.6677420957
 20
-5.9181557245
 30
0.0
 10
8.4397711221
 20
-5.7262909679
 30
0.0
 10
8.1736906079
 20
-5.3626847676
 30
0.0
 10
7.9918401261
 20
-4.9504542621
 30
0.0
 10
7.9396698732
 20
-4.6570991454
 30
0.0
 10
7.9396698727
 20
-4.5180116125
 30
0.0
  0
SPLINE
  5
462
100
AcDbEntity
  8
0
100
AcDbSpline
 62
7
  6
CONTINUOUS
 70
0
 71
3
 72
11
 73
7
 74
0
 42
0.0000001
 43
0.0000001
 44
0.0000000001
 40
0.0
 40
0.0
 40
0.0
 40
0.0
 40
0.2372134853
 40
0.499993893
 40
0.7627776247
 40
1.0
 40
1.0
 40
1.0
 40
1.0
 10
8.081091229
 20
-4.4363566938
 30
0.0
 10
8.0810912297
 20
-4.5754442562
 30
0.0
 10
8.1332614912
 20
-4.8687993743
 30
0.0
 10
8.3151119719
 20
-5.2810298482
 30
0.0
 10
8.5811924586
 20
-5.6446360304
 30
0.0
 10
8.8091634301
 20
-5.8365007897
 30
0.0
 10
8.9296193664
 20
-5.9060505379
 30
0.0
  0
SPLINE
  5
463
100
AcDbEntity
  8
0
100
AcDbSpline
 62
7
  6
CONTINUOUS
 70
0
 71
3
 72
9
 73
5
 74
0
 42
0.0000001
 43
0.0000001
 44
0.0000000001
 40
0.0
 40
0.0
 40
0.0
 40
0.0
 40
0.2698109559
 40
1.0
 40
1.0
 40
1.0
 40
1.0
 10
18.4048502343
 20
-11.3769300885
 30
0.0
 10
18.4300361832
 20
-11.3914721396
 30
0.0
 10
18.5253125641
 20
-11.4416973404
 30
0.0
 10
18.6296935487
 20
-11.4766338934
 30
0.0
 10
18.7076793769
 20
-11.4872601991
 30
0.0
  0
SPLINE
  5
464
100
AcDbEntity
  8
0
100
AcDbSpline
 62
7
  6
CONTINUOUS
 70
0
 71
3
 72
13
 73
9
 74
0
 42
0.0000001
 43
0.0000001
 44
0.0000000001
 40
0.0
 40
0.0
 40
0.0
 40
0.0
 40
0.114261602
 40
0.2375404911
 40
0.5000060678
 40
0.7624683267
 40
0.8857433366
 40
1.0
 40
1.0
 40
1.0
 40
1.0
 10
-23.3851605339
 20
11.7722788081
 30
0.0
 10
-23.4674545307
 20
11.8197943327
 30
0.0
 10
-23.6300162996
 20
11.9337352193
 30
0.0
 10
-23.934321085
 20
12.2185968727
 30
0.0
 10
-24.2558002109
 20
12.6576741622
 30
0.0
 10
-24.4753123542
 20
13.1556189336
 30
0.0
 10
-24.5698516432
 20
13.56157652
 30
0.0
 10
-24.5872420622
 20
13.7593227403
 30
0.0
 10
-24.5872420619
 20
13.8543450873
 30
0.0
  0
SPLINE
  5
465
100
AcDbEntity
  8
0
100
AcDbSpline
 62
7
  6
CONTINUOUS
 70
0
 71
3
 72
11
 73
7
 74
0
 42
0.0000001
 43
0.0000001
 44
0.0000000001
 40
0.0
 40
0.0
 40
0.0
 40
0.0
 40
0.2372223247
 40
0.5000061052
 40
0.7627865602
 40
1.0
 40
1.0
 40
1.0
 40
1.0
 10
-23.0316071433
 20
-4.3529894311
 30
0.0
 10
-23.1520630537
 20
-4.2834396975
 30
0.0
 10
-23.3800340285
 20
-4.0915749472
 30
0.0
 10
-23.6461145419
 20
-3.7279687482
 30
0.0
 10
-23.8279650244
 20
-3.3157382415
 30
0.0
 10
-23.8801352835
 20
-3.0223831227
 30
0.0
 10
-23.8801352807
 20
-2.883295587
 30
0.0
  0
SPLINE
  5
466
100
AcDbEntity
  8
0
100
AcDbSpline
 62
7
  6
CONTINUOUS
 70
0
 71
3
 72
11
 73
7
 74
0
 42
0.0000001
 43
0.0000001
 44
0.0000000001
 40
0.0
 40
0.0
 40
0.0
 40
0.0
 40
0.2372134857
 40
0.4999938933
 40
0.7627776251
 40
1.0
 40
1.0
 40
1.0
 40
1.0
 10
-23.7387139244
 20
-2.8016406683
 30
0.0
 10
-23.7387139242
 20
-2.940728231
 30
0.0
 10
-23.6865436618
 20
-3.2340833493
 30
0.0
 10
-23.5046931812
 20
-3.6463138232
 30
0.0
 10
-23.2386126946
 20
-4.0099200054
 30
0.0
 10
-23.0106417228
 20
-4.2017847639
 30
0.0
 10
-22.890185787
 20
-4.2713345124
 30
0.0
  0
SPLINE
  5
467
100
AcDbEntity
  8
0
100
AcDbSpline
 62
7
  6
CONTINUOUS
 70
0
 71
3
 72
9
 73
5
 74
0
 42
0.0000001
 43
0.0000001
 44
0.0000000001
 40
0.0
 40
0.0
 40
0.0
 40
0.0
 40
0.2698109577
 40
1.0
 40
1.0
 40
1.0
 40
1.0
 10
-13.4149549191
 20
-9.742214063
 30
0.0
 10
-13.3897689701
 20
-9.7567561143
 30
0.0
 10
-13.2944925888
 20
-9.8069813144
 30
0.0
 10
-13.1901116046
 20
-9.8419178686
 30
0.0
 10
-13.1121257764
 20
-9.8525441738
 30
0.0
  0
SPLINE
  5
468
100
AcDbEntity
  8
0
100
AcDbSpline
 62
7
  6
CONTINUOUS
 70
0
 71
3
 72
11
 73
7
 74
0
 42
0.0000001
 43
0.0000001
 44
0.0000000001
 40
0.0
 40
0.0
 40
0.0
 40
0.0
 40
0.2845759374
 40
0.5442323343
 40
0.7808561232
 40
1.0
 40
1.0
 40
1.0
 40
1.0
 10
-23.8801352807
 20
8.0574061221
 30
0.0
 10
-23.8801352805
 20
8.108557742
 30
0.0
 10
-23.8735455205
 20
8.2065977578
 30
0.0
 10
-23.8407773799
 20
8.3438792803
 30
0.0
 10
-23.7859625665
 20
8.4613097321
 30
0.0
 10
-23.733676723
 20
8.5258159389
 30
0.0
 10
-23.7047931507
 20
8.5525992183
 30
0.0
  0
SPLINE
  5
469
100
AcDbEntity
  8
0
100
AcDbSpline
 62
7
  6
CONTINUOUS
 70
0
 71
3
 72
15
 73
11
 74
0
 42
0.0000001
 43
0.0000001
 44
0.0000000001
 40
0.0
 40
0.0
 40
0.0
 40
0.0
 40
0.144901866
 40
0.2745170643
 40
0.391105345
 40
0.4999889054
 40
0.6088744816
 40
0.7254681215
 40
0.8550905292
 40
1.0
 40
1.0
 40
1.0
 40
1.0
 10
-12.7078481379
 20
6.9953319194
 30
0.0
 10
-12.7078481397
 20
6.9091683881
 30
0.0
 10
-12.7208685972
 20
6.7453598401
 30
0.0
 10
-12.787243403
 20
6.5203537812
 30
0.0
 10
-12.8990143861
 20
6.3376443226
 30
0.0
 10
-13.054163841
 20
6.2071650005
 30
0.0
 10
-13.2447476376
 20
6.1380621211
 30
0.0
 10
-13.4588727964
 20
6.1326391358
 30
0.0
 10
-13.6869292314
 20
6.1876759946
 30
0.0
 10
-13.8353071448
 20
6.2583131487
 30
0.0
 10
-13.909929666
 20
6.3013992575
 30
0.0
  0
SPLINE
  5
46A
100
AcDbEntity
  8
0
100
AcDbSpline
 62
7
  6
CONTINUOUS
 70
0
 71
3
 72
11
 73
7
 74
0
 42
0.0000001
 43
0.0000001
 44
0.0000000001
 40
0.0
 40
0.0
 40
0.0
 40
0.0
 40
0.2372223247
 40
0.5000061052
 40
0.7627865602
 40
1.0
 40
1.0
 40
1.0
 40
1.0
 10
-7.1217045666
 20
-13.539167781
 30
0.0
 10
-7.242160477
 20
-13.4696180474
 30
0.0
 10
-7.4701314518
 20
-13.2777532971
 30
0.0
 10
-7.7362119652
 20
-12.9141470981
 30
0.0
 10
-7.9180624477
 20
-12.5019165913
 30
0.0
 10
-7.9702327068
 20
-12.2085614726
 30
0.0
 10
-7.970232704
 20
-12.0694739368
 30
0.0
  0
SPLINE
  5
46B
100
AcDbEntity
  8
0
100
AcDbSpline
 62
7
  6
CONTINUOUS
 70
0
 71
3
 72
11
 73
7
 74
0
 42
0.0000001
 43
0.0000001
 44
0.0000000001
 40
0.0
 40
0.0
 40
0.0
 40
0.0
 40
0.2372134857
 40
0.4999938933
 40
0.7627776251
 40
1.0
 40
1.0
 40
1.0
 40
1.0
 10
-7.8288113477
 20
-11.9878190182
 30
0.0
 10
-7.8288113475
 20
-12.1269065808
 30
0.0
 10
-7.7766410851
 20
-12.4202616991
 30
0.0
 10
-7.5947906045
 20
-12.8324921731
 30
0.0
 10
-7.3287101179
 20
-13.1960983553
 30
0.0
 10
-7.1007391461
 20
-13.3879631138
 30
0.0
 10
-6.9802832103
 20
-13.4575128623
 30
0.0
  0
SPLINE
  5
46C
100
AcDbEntity
  8
0
100
AcDbSpline
 62
7
  6
CONTINUOUS
 70
0
 71
3
 72
9
 73
5
 74
0
 42
0.0000001
 43
0.0000001
 44
0.0000000001
 40
0.0
 40
0.0
 40
0.0
 40
0.0
 40
0.2698109577
 40
1.0
 40
1.0
 40
1.0
 40
1.0
 10
2.4949476576
 20
-18.9283924129
 30
0.0
 10
2.5201336066
 20
-18.9429344642
 30
0.0
 10
2.6154099879
 20
-18.9931596642
 30
0.0
 10
2.7197909721
 20
-19.0280962184
 30
0.0
 10
2.7977768003
 20
-19.0387225237
 30
0.0
  0
SPLINE
  5
46D
100
AcDbEntity
  8
0
100
AcDbSpline
 62
7
  6
CONTINUOUS
 70
0
 71
3
 72
11
 73
7
 74
0
 42
0.0000001
 43
0.0000001
 44
0.0000000001
 40
0.0
 40
0.0
 40
0.0
 40
0.0
 40
0.2845759374
 40
0.5442323343
 40
0.7808561232
 40
1.0
 40
1.0
 40
1.0
 40
1.0
 10
-7.970232704
 20
-1.1287722278
 30
0.0
 10
-7.9702327038
 20
-1.0776206078
 30
0.0
 10
-7.9636429438
 20
-0.9795805921
 30
0.0
 10
-7.9308748032
 20
-0.8422990696
 30
0.0
 10
-7.8760599898
 20
-0.7248686177
 30
0.0
 10
-7.8237741463
 20
-0.6603624109
 30
0.0
 10
-7.794890574
 20
-0.6335791316
 30
0.0
  0
SPLINE
  5
46E
100
AcDbEntity
  8
0
100
AcDbSpline
 62
7
  6
CONTINUOUS
 70
0
 71
3
 72
11
 73
7
 74
0
 42
0.0000001
 43
0.0000001
 44
0.0000000001
 40
0.0
 40
0.0
 40
0.0
 40
0.0
 40
0.2845759374
 40
0.5442323343
 40
0.7808561232
 40
1.0
 40
1.0
 40
1.0
 40
1.0
 10
7.9396698727
 20
-10.3149505777
 30
0.0
 10
7.9396698729
 20
-10.2637989577
 30
0.0
 10
7.9462596329
 20
-10.165758942
 30
0.0
 10
7.9790277735
 20
-10.0284774194
 30
0.0
 10
8.0338425869
 20
-9.9110469676
 30
0.0
 10
8.0861284304
 20
-9.8465407608
 30
0.0
 10
8.1150120027
 20
-9.8197574814
 30
0.0
  0
SPLINE
  5
46F
100
AcDbEntity
  8
0
100
AcDbSpline
 62
7
  6
CONTINUOUS
 70
0
 71
3
 72
9
 73
5
 74
0
 42
0.0000001
 43
0.0000001
 44
0.0000000001
 40
0.0
 40
0.0
 40
0.0
 40
0.0
 40
0.2698109577
 40
1.0
 40
1.0
 40
1.0
 40
1.0
 10
18.4048502343
 20
-28.1145707628
 30
0.0
 10
18.4300361833
 20
-28.129112814
 30
0.0
 10
18.5253125646
 20
-28.1793380141
 30
0.0
 10
18.6296935488
 20
-28.2142745683
 30
0.0
 10
18.7076793769
 20
-28.2249008735
 30
0.0
  0
SPLINE
  5
470
100
AcDbEntity
  8
0
100
AcDbSpline
 62
7
  6
CONTINUOUS
 70
0
 71
3
 72
15
 73
11
 74
0
 42
0.0000001
 43
0.0000001
 44
0.0000000001
 40
0.0
 40
0.0
 40
0.0
 40
0.0
 40
0.1449018606
 40
0.274517057
 40
0.3911053392
 40
0.4999889011
 40
0.6088744758
 40
0.7254681141
 40
0.8550905238
 40
1.0
 40
1.0
 40
1.0
 40
1.0
 10
-8.6773394852
 20
-1.1287722278
 30
0.0
 10
-8.6773394855
 20
-1.0426086997
 30
0.0
 10
-8.6643190256
 20
-0.8788001562
 30
0.0
 10
-8.5979442244
 20
-0.6537941
 30
0.0
 10
-8.4861732435
 20
-0.4710846392
 30
0.0
 10
-8.3310237905
 20
-0.3406053137
 30
0.0
 10
-8.1404399959
 20
-0.2715024311
 30
0.0
 10
-7.9263148379
 20
-0.2660794428
 30
0.0
 10
-7.6982583982
 20
-0.3211162989
 30
0.0
 10
-7.549880482
 20
-0.3917534573
 30
0.0
 10
-7.4752579572
 20
-0.4348395659
 30
0.0
  0
SPLINE
  5
471
100
AcDbEntity
  8
0
100
AcDbSpline
 62
7
  6
CONTINUOUS
 70
0
 71
3
 72
11
 73
7
 74
0
 42
0.0000001
 43
0.0000001
 44
0.0000000001
 40
0.0
 40
0.0
 40
0.0
 40
0.0
 40
0.2372134857
 40
0.4999938933
 40
0.7627776251
 40
1.0
 40
1.0
 40
1.0
 40
1.0
 10
8.081091229
 20
-21.173997368
 30
0.0
 10
8.0810912292
 20
-21.3130849307
 30
0.0
 10
8.1332614916
 20
-21.606440049
 30
0.0
 10
8.3151119722
 20
-22.0186705229
 30
0.0
 10
8.5811924588
 20
-22.3822767052
 30
0.0
 10
8.8091634306
 20
-22.5741414636
 30
0.0
 10
8.9296193664
 20
-22.6436912122
 30
0.0
  0
SPLINE
  5
472
100
AcDbEntity
  8
0
100
AcDbSpline
 62
7
  6
CONTINUOUS
 70
0
 71
3
 72
11
 73
7
 74
0
 42
0.0000001
 43
0.0000001
 44
0.0000000001
 40
0.0
 40
0.0
 40
0.0
 40
0.0
 40
0.2372223247
 40
0.5000061052
 40
0.7627865602
 40
1.0
 40
1.0
 40
1.0
 40
1.0
 10
8.7881980101
 20
-22.7253461309
 30
0.0
 10
8.6677420997
 20
-22.6557963973
 30
0.0
 10
8.4397711249
 20
-22.463931647
 30
0.0
 10
8.1736906115
 20
-22.100325448
 30
0.0
 10
7.991840129
 20
-21.6880949412
 30
0.0
 10
7.9396698699
 20
-21.3947398225
 30
0.0
 10
7.9396698727
 20
-21.2556522867
 30
0.0
  0
SPLINE
  5
473
100
AcDbEntity
  8
0
100
AcDbSpline
 62
7
  6
CONTINUOUS
 70
0
 71
3
 72
13
 73
9
 74
0
 42
0.0000001
 43
0.0000001
 44
0.0000000001
 40
0.0
 40
0.0
 40
0.0
 40
0.0
 40
0.1142615975
 40
0.2375404836
 40
0.5000060625
 40
0.7624683192
 40
0.885743332
 40
1.0
 40
1.0
 40
1.0
 40
1.0
 10
-7.4752579572
 20
-14.151540216
 30
0.0
 10
-7.5575519518
 20
-14.1040246953
 30
0.0
 10
-7.7201137141
 20
-13.9900838098
 30
0.0
 10
-8.0244184991
 20
-13.705222163
 30
0.0
 10
-8.3458976259
 20
-13.2661448763
 30
0.0
 10
-8.5654097721
 20
-12.7682001043
 30
0.0
 10
-8.6599490667
 20
-12.3622425142
 30
0.0
 10
-8.6773394833
 20
-12.1644962876
 30
0.0
 10
-8.6773394852
 20
-12.0694739368
 30
0.0
  0
SPLINE
  5
474
100
AcDbEntity
  8
ASSI
100
AcDbSpline
 62
7
  6
CONTINUOUS
 70
0
 71
3
 72
9
 73
5
 74
0
 42
0.0000001
 43
0.0000001
 44
0.0000000001
 40
0.0
 40
0.0
 40
0.0
 40
0.0
 40
0.2403057122
 40
1.0
 40
1.0
 40
1.0
 40
1.0
 10
17.9098754874
 20
-15.0918974664
 30
0.0
 10
17.9334964109
 20
-15.1055358914
 30
0.0
 10
18.0303300313
 20
-15.1648085867
 30
0.0
 10
18.1213339232
 20
-15.233412997
 30
0.0
 10
18.1870028697
 20
-15.289295434
 30
0.0
  0
SPLINE
  5
475
100
AcDbEntity
  8
ASSI
100
AcDbSpline
 62
7
  6
CONTINUOUS
 70
0
 71
3
 72
11
 73
7
 74
0
 42
0.0000001
 43
0.0000001
 44
0.0000000001
 40
0.0
 40
0.0
 40
0.0
 40
0.0
 40
0.2436409567
 40
0.5000042266
 40
0.7563652941
 40
1.0
 40
1.0
 40
1.0
 40
1.0
 10
18.1870028697
 20
-15.289295434
 30
0.0
 10
18.2992837313
 20
-15.3848433072
 30
0.0
 10
18.5103246573
 20
-15.6043217996
 30
0.0
 10
18.7703806585
 20
-15.983142259
 30
0.0
 10
18.9684203125
 20
-16.3977636489
 30
0.0
 10
19.0529716476
 20
-16.6902651776
 30
0.0
 10
19.0795759597
 20
-16.8352737403
 30
0.0
  0
SPLINE
  5
476
100
AcDbEntity
  8
ASSI
100
AcDbSpline
 62
7
  6
CONTINUOUS
 70
0
 71
3
 72
9
 73
5
 74
0
 42
0.0000001
 43
0.0000001
 44
0.0000000001
 40
0.0
 40
0.0
 40
0.0
 40
0.0
 40
0.2594910627
 40
1.0
 40
1.0
 40
1.0
 40
1.0
 10
19.0795759597
 20
-16.8352737403
 30
0.0
 10
19.084890595
 20
-16.8642415114
 30
0.0
 10
19.1030914705
 20
-16.9762664533
 30
0.0
 10
19.1119570138
 20
-17.0899187459
 30
0.0
 10
19.1119570155
 20
-17.1739637456
 30
0.0
  0
SPLINE
  5
477
100
AcDbEntity
  8
ASSI
100
AcDbSpline
 62
7
  6
CONTINUOUS
 70
0
 71
3
 72
9
 73
5
 74
0
 42
0.0000001
 43
0.0000001
 44
0.0000000001
 40
0.0
 40
0.0
 40
0.0
 40
0.0
 40
0.2403057122
 40
1.0
 40
1.0
 40
1.0
 40
1.0
 10
1.9999729107
 20
-5.9057191165
 30
0.0
 10
2.0235938342
 20
-5.9193575416
 30
0.0
 10
2.1204274546
 20
-5.9786302368
 30
0.0
 10
2.2114313465
 20
-6.0472346471
 30
0.0
 10
2.277100293
 20
-6.1031170841
 30
0.0
  0
SPLINE
  5
478
100
AcDbEntity
  8
ASSI
100
AcDbSpline
 62
7
  6
CONTINUOUS
 70
0
 71
3
 72
11
 73
7
 74
0
 42
0.0000001
 43
0.0000001
 44
0.0000000001
 40
0.0
 40
0.0
 40
0.0
 40
0.0
 40
0.2436409567
 40
0.5000042266
 40
0.7563652941
 40
1.0
 40
1.0
 40
1.0
 40
1.0
 10
2.277100293
 20
-6.1031170841
 30
0.0
 10
2.3893811546
 20
-6.1986649574
 30
0.0
 10
2.6004220806
 20
-6.4181434498
 30
0.0
 10
2.8604780818
 20
-6.7969639091
 30
0.0
 10
3.0585177359
 20
-7.211585299
 30
0.0
 10
3.1430690709
 20
-7.5040868277
 30
0.0
 10
3.169673383
 20
-7.6490953904
 30
0.0
  0
SPLINE
  5
479
100
AcDbEntity
  8
ASSI
100
AcDbSpline
 62
7
  6
CONTINUOUS
 70
0
 71
3
 72
9
 73
5
 74
0
 42
0.0000001
 43
0.0000001
 44
0.0000000001
 40
0.0
 40
0.0
 40
0.0
 40
0.0
 40
0.2594910627
 40
1.0
 40
1.0
 40
1.0
 40
1.0
 10
3.169673383
 20
-7.6490953904
 30
0.0
 10
3.1749880183
 20
-7.6780631616
 30
0.0
 10
3.1931888938
 20
-7.7900881034
 30
0.0
 10
3.2020544371
 20
-7.9037403961
 30
0.0
 10
3.2020544388
 20
-7.9877853957
 30
0.0
  0
SPLINE
  5
47A
100
AcDbEntity
  8
ASSI
100
AcDbSpline
 62
7
  6
CONTINUOUS
 70
0
 71
3
 72
9
 73
5
 74
0
 42
0.0000001
 43
0.0000001
 44
0.0000000001
 40
0.0
 40
0.0
 40
0.0
 40
0.0
 40
0.2403057122
 40
1.0
 40
1.0
 40
1.0
 40
1.0
 10
-13.909929666
 20
3.2804592334
 30
0.0
 10
-13.8863087425
 20
3.2668208083
 30
0.0
 10
-13.7894751221
 20
3.2075481131
 30
0.0
 10
-13.6984712302
 20
3.1389437028
 30
0.0
 10
-13.6328022837
 20
3.0830612657
 30
0.0
  0
SPLINE
  5
47B
100
AcDbEntity
  8
ASSI
100
AcDbSpline
 62
7
  6
CONTINUOUS
 70
0
 71
3
 72
11
 73
7
 74
0
 42
0.0000001
 43
0.0000001
 44
0.0000000001
 40
0.0
 40
0.0
 40
0.0
 40
0.0
 40
0.2436409567
 40
0.5000042266
 40
0.7563652941
 40
1.0
 40
1.0
 40
1.0
 40
1.0
 10
-13.6328022837
 20
3.0830612657
 30
0.0
 10
-13.5205214221
 20
2.9875133925
 30
0.0
 10
-13.3094804961
 20
2.7680349001
 30
0.0
 10
-13.0494244949
 20
2.3892144408
 30
0.0
 10
-12.8513848408
 20
1.9745930509
 30
0.0
 10
-12.7668335058
 20
1.6820915221
 30
0.0
 10
-12.7402291937
 20
1.5370829595
 30
0.0
  0
SPLINE
  5
47C
100
AcDbEntity
  8
ASSI
100
AcDbSpline
 62
7
  6
CONTINUOUS
 70
0
 71
3
 72
9
 73
5
 74
0
 42
0.0000001
 43
0.0000001
 44
0.0000000001
 40
0.0
 40
0.0
 40
0.0
 40
0.0
 40
0.2594910627
 40
1.0
 40
1.0
 40
1.0
 40
1.0
 10
-12.7402291937
 20
1.5370829595
 30
0.0
 10
-12.7349145584
 20
1.5081151883
 30
0.0
 10
-12.7167136829
 20
1.3960902465
 30
0.0
 10
-12.7078481396
 20
1.2824379538
 30
0.0
 10
-12.7078481379
 20
1.1983929542
 30
0.0
  0
SPLINE
  5
47D
100
AcDbEntity
  8
ASSI
100
AcDbSpline
 62
7
  6
CONTINUOUS
 70
0
 71
3
 72
9
 73
5
 74
0
 42
0.0000001
 43
0.0000001
 44
0.0000000001
 40
0.0
 40
0.0
 40
0.0
 40
0.0
 40
0.2403055869
 40
1.0
 40
1.0
 40
1.0
 40
1.0
 10
17.9098754874
 20
1.6457432079
 30
0.0
 10
17.9334967732
 20
1.6321045729
 30
0.0
 10
18.0303319075
 20
1.5728308969
 30
0.0
 10
18.1213371326
 20
1.5042252289
 30
0.0
 10
18.1870069931
 20
1.4483417318
 30
0.0
  0
SPLINE
  5
47E
100
AcDbEntity
  8
ASSI
100
AcDbSpline
 62
7
  6
CONTINUOUS
 70
0
 71
3
 72
11
 73
7
 74
0
 42
0.0000001
 43
0.0000001
 44
0.0000000001
 40
0.0
 40
0.0
 40
0.0
 40
0.0
 40
0.2436411953
 40
0.5000045451
 40
0.7563655326
 40
1.0
 40
1.0
 40
1.0
 40
1.0
 10
18.1870069931
 20
1.4483417318
 30
0.0
 10
18.2992877264
 20
1.3527934851
 30
0.0
 10
18.5103282951
 20
1.1333143909
 30
0.0
 10
18.770383617
 20
0.754493291
 30
0.0
 10
18.9684223766
 20
0.3398716331
 30
0.0
 10
19.0529730118
 20
0.047370096
 30
0.0
 10
19.0795769363
 20
-0.097638391
 30
0.0
  0
SPLINE
  5
47F
100
AcDbEntity
  8
ASSI
100
AcDbSpline
 62
7
  6
CONTINUOUS
 70
0
 71
3
 72
9
 73
5
 74
0
 42
0.0000001
 43
0.0000001
 44
0.0000000001
 40
0.0
 40
0.0
 40
0.0
 40
0.0
 40
0.2594909456
 40
1.0
 40
1.0
 40
1.0
 40
1.0
 10
19.0795769363
 20
-0.097638391
 30
0.0
 10
19.0848914126
 20
-0.1266057025
 30
0.0
 10
19.1030917488
 20
-0.2386289071
 30
0.0
 10
19.1119570157
 20
-0.3522793924
 30
0.0
 10
19.1119570155
 20
-0.4363230713
 30
0.0
  0
SPLINE
  5
480
100
AcDbEntity
  8
ASSI
100
AcDbSpline
 62
7
  6
CONTINUOUS
 70
0
 71
3
 72
9
 73
5
 74
0
 42
0.0000001
 43
0.0000001
 44
0.0000000001
 40
0.0
 40
0.0
 40
0.0
 40
0.0
 40
0.2403055869
 40
1.0
 40
1.0
 40
1.0
 40
1.0
 10
1.9999729107
 20
10.8319215577
 30
0.0
 10
2.0235941965
 20
10.8182829227
 30
0.0
 10
2.1204293308
 20
10.7590092467
 30
0.0
 10
2.2114345559
 20
10.6904035788
 30
0.0
 10
2.2771044164
 20
10.6345200817
 30
0.0
  0
SPLINE
  5
481
100
AcDbEntity
  8
ASSI
100
AcDbSpline
 62
7
  6
CONTINUOUS
 70
0
 71
3
 72
11
 73
7
 74
0
 42
0.0000001
 43
0.0000001
 44
0.0000000001
 40
0.0
 40
0.0
 40
0.0
 40
0.0
 40
0.2436411953
 40
0.5000045451
 40
0.7563655326
 40
1.0
 40
1.0
 40
1.0
 40
1.0
 10
2.2771044164
 20
10.6345200817
 30
0.0
 10
2.3893851497
 20
10.538971835
 30
0.0
 10
2.6004257184
 20
10.3194927408
 30
0.0
 10
2.8604810403
 20
9.9406716409
 30
0.0
 10
3.0585197999
 20
9.526049983
 30
0.0
 10
3.1430704351
 20
9.2335484458
 30
0.0
 10
3.1696743596
 20
9.0885399589
 30
0.0
  0
SPLINE
  5
482
100
AcDbEntity
  8
ASSI
100
AcDbSpline
 62
7
  6
CONTINUOUS
 70
0
 71
3
 72
9
 73
5
 74
0
 42
0.0000001
 43
0.0000001
 44
0.0000000001
 40
0.0
 40
0.0
 40
0.0
 40
0.0
 40
0.2594909456
 40
1.0
 40
1.0
 40
1.0
 40
1.0
 10
3.1696743596
 20
9.0885399589
 30
0.0
 10
3.1749888359
 20
9.0595726473
 30
0.0
 10
3.1931891721
 20
8.9475494428
 30
0.0
 10
3.202054439
 20
8.8338989574
 30
0.0
 10
3.2020544388
 20
8.7498552785
 30
0.0
  0
SPLINE
  5
483
100
AcDbEntity
  8
ASSI
100
AcDbSpline
 62
7
  6
CONTINUOUS
 70
0
 71
3
 72
9
 73
5
 74
0
 42
0.0000001
 43
0.0000001
 44
0.0000000001
 40
0.0
 40
0.0
 40
0.0
 40
0.0
 40
0.2403055869
 40
1.0
 40
1.0
 40
1.0
 40
1.0
 10
-13.909929666
 20
20.0180999076
 30
0.0
 10
-13.8863083802
 20
20.0044612726
 30
0.0
 10
-13.7894732459
 20
19.9451875966
 30
0.0
 10
-13.6984680208
 20
19.8765819287
 30
0.0
 10
-13.6327981603
 20
19.8206984316
 30
0.0
  0
SPLINE
  5
484
100
AcDbEntity
  8
ASSI
100
AcDbSpline
 62
7
  6
CONTINUOUS
 70
0
 71
3
 72
11
 73
7
 74
0
 42
0.0000001
 43
0.0000001
 44
0.0000000001
 40
0.0
 40
0.0
 40
0.0
 40
0.0
 40
0.2436411953
 40
0.5000045451
 40
0.7563655326
 40
1.0
 40
1.0
 40
1.0
 40
1.0
 10
-13.6327981603
 20
19.8206984316
 30
0.0
 10
-13.520517427
 20
19.7251501849
 30
0.0
 10
-13.3094768583
 20
19.5056710907
 30
0.0
 10
-13.0494215364
 20
19.1268499907
 30
0.0
 10
-12.8513827768
 20
18.7122283329
 30
0.0
 10
-12.7668321416
 20
18.4197267957
 30
0.0
 10
-12.7402282171
 20
18.2747183088
 30
0.0
  0
SPLINE
  5
485
100
AcDbEntity
  8
ASSI
100
AcDbSpline
 62
7
  6
CONTINUOUS
 70
0
 71
3
 72
9
 73
5
 74
0
 42
0.0000001
 43
0.0000001
 44
0.0000000001
 40
0.0
 40
0.0
 40
0.0
 40
0.0
 40
0.2594909456
 40
1.0
 40
1.0
 40
1.0
 40
1.0
 10
-12.7402282171
 20
18.2747183088
 30
0.0
 10
-12.7349137408
 20
18.2457509972
 30
0.0
 10
-12.7167134046
 20
18.1337277926
 30
0.0
 10
-12.7078481376
 20
18.0200773073
 30
0.0
 10
-12.7078481379
 20
17.9360336284
 30
0.0
  0
SPLINE
  5
486
100
AcDbEntity
  8
ASSI
100
AcDbSpline
 62
7
  6
CONTINUOUS
 70
0
 71
3
 72
15
 73
11
 74
0
 42
0.0000001
 43
0.0000001
 44
0.0000000001
 40
0.0
 40
0.0
 40
0.0
 40
0.0
 40
0.1141547283
 40
0.237319763
 40
0.3669701489
 40
0.4999939506
 40
0.6330185926
 40
0.7626714372
 40
0.8858403441
 40
1.0
 40
1.0
 40
1.0
 40
1.0
 10
-23.3800837356
 20
14.7087904536
 30
0.0
 10
-23.3800837352
 20
14.6029903284
 30
0.0
 10
-23.3607073217
 20
14.3828333244
 30
0.0
 10
-23.2834471568
 20
14.0507005954
 30
0.0
 10
-23.1596965616
 20
13.7142726457
 30
0.0
 10
-22.9940595094
 20
13.3862000356
 30
0.0
 10
-22.7927574666
 20
13.0787160137
 30
0.0
 10
-22.5632740763
 20
12.8033252413
 30
0.0
 10
-22.3142632181
 20
12.57034039
 30
0.0
 10
-22.1332857249
 20
12.4434733753
 30
0.0
 10
-22.0416576496
 20
12.3905684729
 30
0.0
  0
SPLINE
  5
487
100
AcDbEntity
  8
ASSI
100
AcDbSpline
 62
7
  6
CONTINUOUS
 70
0
 71
3
 72
15
 73
11
 74
0
 42
0.0000001
 43
0.0000001
 44
0.0000000001
 40
0.0
 40
0.0
 40
0.0
 40
0.0
 40
0.1141547283
 40
0.237319763
 40
0.3669701489
 40
0.4999939506
 40
0.6330185926
 40
0.7626714372
 40
0.8858403441
 40
1.0
 40
1.0
 40
1.0
 40
1.0
 10
-7.4701811589
 20
5.5226121037
 30
0.0
 10
-7.4701811585
 20
5.4168119785
 30
0.0
 10
-7.450804745
 20
5.1966549745
 30
0.0
 10
-7.3735445801
 20
4.8645222455
 30
0.0
 10
-7.2497939849
 20
4.5280942958
 30
0.0
 10
-7.0841569327
 20
4.2000216857
 30
0.0
 10
-6.8828548899
 20
3.8925376638
 30
0.0
 10
-6.6533714996
 20
3.6171468914
 30
0.0
 10
-6.4043606414
 20
3.3841620401
 30
0.0
 10
-6.2233831482
 20
3.2572950254
 30
0.0
 10
-6.1317550729
 20
3.204390123
 30
0.0
  0
SPLINE
  5
488
100
AcDbEntity
  8
ASSI
100
AcDbSpline
 62
7
  6
CONTINUOUS
 70
0
 71
3
 72
15
 73
11
 74
0
 42
0.0000001
 43
0.0000001
 44
0.0000000001
 40
0.0
 40
0.0
 40
0.0
 40
0.0
 40
0.1141547283
 40
0.237319763
 40
0.3669701489
 40
0.4999939506
 40
0.6330185926
 40
0.7626714372
 40
0.8858403441
 40
1.0
 40
1.0
 40
1.0
 40
1.0
 10
8.4397214178
 20
-3.6635662462
 30
0.0
 10
8.4397214181
 20
-3.7693663714
 30
0.0
 10
8.4590978317
 20
-3.9895233753
 30
0.0
 10
8.5363579966
 20
-4.3216561044
 30
0.0
 10
8.6601085918
 20
-4.6580840541
 30
0.0
 10
8.825745644
 20
-4.9861566642
 30
0.0
 10
9.0270476868
 20
-5.2936406861
 30
0.0
 10
9.2565310771
 20
-5.5690314585
 30
0.0
 10
9.5055419353
 20
-5.8020163098
 30
0.0
 10
9.6865194285
 20
-5.9288833244
 30
0.0
 10
9.7781475038
 20
-5.9817882269
 30
0.0
  0
SPLINE
  5
489
100
AcDbEntity
  8
ASSI
100
AcDbSpline
 62
7
  6
CONTINUOUS
 70
0
 71
3
 72
15
 73
11
 74
0
 42
0.0000001
 43
0.0000001
 44
0.0000000001
 40
0.0
 40
0.0
 40
0.0
 40
0.0
 40
0.1141547262
 40
0.2373197603
 40
0.3669701463
 40
0.4999939469
 40
0.63301859
 40
0.7626714346
 40
0.8858403421
 40
1.0
 40
1.0
 40
1.0
 40
1.0
 10
8.4397214178
 20
-20.4012069204
 30
0.0
 10
8.4397214179
 20
-20.5070070437
 30
0.0
 10
8.4590978312
 20
-20.7271640452
 30
0.0
 10
8.5363579949
 20
-21.059296772
 30
0.0
 10
8.6601085883
 20
-21.3957247207
 30
0.0
 10
8.8257456398
 20
-21.7237973312
 30
0.0
 10
9.0270476819
 20
-22.0312813535
 30
0.0
 10
9.2565310722
 20
-22.3066721279
 30
0.0
 10
9.5055419317
 20
-22.5396569814
 30
0.0
 10
9.686519427
 20
-22.6665239975
 30
0.0
 10
9.7781475038
 20
-22.7194289011
 30
0.0
  0
SPLINE
  5
48A
100
AcDbEntity
  8
ASSI
100
AcDbSpline
 62
7
  6
CONTINUOUS
 70
0
 71
3
 72
15
 73
11
 74
0
 42
0.0000001
 43
0.0000001
 44
0.0000000001
 40
0.0
 40
0.0
 40
0.0
 40
0.0
 40
0.1141547262
 40
0.2373197603
 40
0.3669701463
 40
0.4999939469
 40
0.63301859
 40
0.7626714346
 40
0.8858403421
 40
1.0
 40
1.0
 40
1.0
 40
1.0
 10
-7.4701811589
 20
-11.2150285705
 30
0.0
 10
-7.4701811588
 20
-11.3208286938
 30
0.0
 10
-7.4508047455
 20
-11.5409856954
 30
0.0
 10
-7.3735445818
 20
-11.8731184221
 30
0.0
 10
-7.2497939884
 20
-12.2095463708
 30
0.0
 10
-7.0841569369
 20
-12.5376189813
 30
0.0
 10
-6.8828548948
 20
-12.8451030037
 30
0.0
 10
-6.6533715045
 20
-13.120493778
 30
0.0
 10
-6.404360645
 20
-13.3534786316
 30
0.0
 10
-6.2233831497
 20
-13.4803456477
 30
0.0
 10
-6.1317550729
 20
-13.5332505512
 30
0.0
  0
SPLINE
  5
48B
100
AcDbEntity
  8
ASSI
100
AcDbSpline
 62
7
  6
CONTINUOUS
 70
0
 71
3
 72
15
 73
11
 74
0
 42
0.0000001
 43
0.0000001
 44
0.0000000001
 40
0.0
 40
0.0
 40
0.0
 40
0.0
 40
0.1141547262
 40
0.2373197603
 40
0.3669701463
 40
0.4999939469
 40
0.63301859
 40
0.7626714346
 40
0.8858403421
 40
1.0
 40
1.0
 40
1.0
 40
1.0
 10
-23.3800837356
 20
-2.0288502207
 30
0.0
 10
-23.3800837355
 20
-2.134650344
 30
0.0
 10
-23.3607073222
 20
-2.3548073455
 30
0.0
 10
-23.2834471585
 20
-2.6869400722
 30
0.0
 10
-23.1596965651
 20
-3.023368021
 30
0.0
 10
-22.9940595136
 20
-3.3514406314
 30
0.0
 10
-22.7927574715
 20
-3.6589246538
 30
0.0
 10
-22.5632740812
 20
-3.9343154282
 30
0.0
 10
-22.3142632217
 20
-4.1673002817
 30
0.0
 10
-22.1332857264
 20
-4.2941672978
 30
0.0
 10
-22.0416576496
 20
-4.3470722014
 30
0.0
  0
SPLINE
  5
48C
100
AcDbEntity
  8
ASSI
100
AcDbSpline
 62
7
  6
CONTINUOUS
 70
0
 71
3
 72
9
 73
5
 74
0
 42
0.0000001
 43
0.0000001
 44
0.0000000001
 40
0.0
 40
0.0
 40
0.0
 40
0.0
 40
0.5163282132
 40
1.0
 40
1.0
 40
1.0
 40
1.0
 10
-13.1121257764
 20
-9.8525441738
 30
0.0
 10
-13.0753753768
 20
-9.8575517627
 30
0.0
 10
-13.0030778936
 20
-9.8608448511
 30
0.0
 10
-12.9315946152
 20
-9.8482428913
 30
0.0
 10
-12.8983965464
 20
-9.8379937856
 30
0.0
  0
SPLINE
  5
48D
100
AcDbEntity
  8
ASSI
100
AcDbSpline
 62
7
  6
CONTINUOUS
 70
0
 71
3
 72
9
 73
5
 74
0
 42
0.0000001
 43
0.0000001
 44
0.0000000001
 40
0.0
 40
0.0
 40
0.0
 40
0.0
 40
0.5163282132
 40
1.0
 40
1.0
 40
1.0
 40
1.0
 10
2.7977768003
 20
-19.0387225237
 30
0.0
 10
2.8345271999
 20
-19.0437301125
 30
0.0
 10
2.9068246831
 20
-19.047023201
 30
0.0
 10
2.9783079615
 20
-19.0344212412
 30
0.0
 10
3.0115060303
 20
-19.0241721354
 30
0.0
  0
SPLINE
  5
48E
100
AcDbEntity
  8
ASSI
100
AcDbSpline
 62
7
  6
CONTINUOUS
 70
0
 71
3
 72
9
 73
5
 74
0
 42
0.0000001
 43
0.0000001
 44
0.0000000001
 40
0.0
 40
0.0
 40
0.0
 40
0.0
 40
0.5163282132
 40
1.0
 40
1.0
 40
1.0
 40
1.0
 10
18.7076793769
 20
-28.2249008735
 30
0.0
 10
18.7444297766
 20
-28.2299084624
 30
0.0
 10
18.8167272598
 20
-28.2332015509
 30
0.0
 10
18.8882105382
 20
-28.2205995911
 30
0.0
 10
18.921408607
 20
-28.2103504853
 30
0.0
  0
SPLINE
  5
48F
100
AcDbEntity
  8
ASSI
100
AcDbSpline
 62
7
  6
CONTINUOUS
 70
0
 71
3
 72
9
 73
5
 74
0
 42
0.0000001
 43
0.0000001
 44
0.0000000001
 40
0.0
 40
0.0
 40
0.0
 40
0.0
 40
0.5163282074
 40
1.0
 40
1.0
 40
1.0
 40
1.0
 10
18.7076793769
 20
-11.4872601991
 30
0.0
 10
18.7444297496
 20
-11.4922677846
 30
0.0
 10
18.8167271795
 20
-11.4955608757
 30
0.0
 10
18.8882104082
 20
-11.4829589433
 30
0.0
 10
18.9214084572
 20
-11.4727098571
 30
0.0
  0
SPLINE
  5
490
100
AcDbEntity
  8
ASSI
100
AcDbSpline
 62
7
  6
CONTINUOUS
 70
0
 71
3
 72
9
 73
5
 74
0
 42
0.0000001
 43
0.0000001
 44
0.0000000001
 40
0.0
 40
0.0
 40
0.0
 40
0.0
 40
0.5163282074
 40
1.0
 40
1.0
 40
1.0
 40
1.0
 10
2.7977768002
 20
-2.3010818493
 30
0.0
 10
2.8345271729
 20
-2.3060894347
 30
0.0
 10
2.9068246028
 20
-2.3093825258
 30
0.0
 10
2.9783078315
 20
-2.2967805934
 30
0.0
 10
3.0115058805
 20
-2.2865315073
 30
0.0
  0
SPLINE
  5
491
100
AcDbEntity
  8
ASSI
100
AcDbSpline
 62
7
  6
CONTINUOUS
 70
0
 71
3
 72
9
 73
5
 74
0
 42
0.0000001
 43
0.0000001
 44
0.0000000001
 40
0.0
 40
0.0
 40
0.0
 40
0.0
 40
0.5163282074
 40
1.0
 40
1.0
 40
1.0
 40
1.0
 10
-13.1121257765
 20
6.8850965006
 30
0.0
 10
-13.0753754038
 20
6.8800889152
 30
0.0
 10
-13.0030779739
 20
6.8767958241
 30
0.0
 10
-12.9315947452
 20
6.8893977565
 30
0.0
 10
-12.8983966962
 20
6.8996468426
 30
0.0
  0
SPLINE
  5
492
100
AcDbEntity
  8
ASSI
100
AcDbSpline
 62
7
  6
CONTINUOUS
 70
0
 71
3
 72
11
 73
7
 74
0
 42
0.0000001
 43
0.0000001
 44
0.0000000001
 40
0.0
 40
0.0
 40
0.0
 40
0.0
 40
0.2177671738
 40
0.450944045
 40
0.7101952432
 40
1.0
 40
1.0
 40
1.0
 40
1.0
 10
-23.6316361354
 20
25.3443310297
 30
0.0
 10
-23.5920537979
 20
25.367185389
 30
0.0
 10
-23.5010978138
 20
25.4002198395
 30
0.0
 10
-23.350041621
 20
25.4039996171
 30
0.0
 10
-23.1890200469
 20
25.365163031
 30
0.0
 10
-23.0842833625
 20
25.3152962055
 30
0.0
 10
-23.0316071433
 20
25.2848816165
 30
0.0
  0
SPLINE
  5
493
100
AcDbEntity
  8
ASSI
100
AcDbSpline
 62
7
  6
CONTINUOUS
 70
0
 71
3
 72
9
 73
5
 74
0
 42
0.0000001
 43
0.0000001
 44
0.0000000001
 40
0.0
 40
0.0
 40
0.0
 40
0.0
 40
0.2434727943
 40
1.0
 40
1.0
 40
1.0
 40
1.0
 10
-23.5633601212
 20
25.371905642
 30
0.0
 10
-23.5718686398
 20
25.3640164258
 30
0.0
 10
-23.6054763622
 20
25.3301788148
 30
0.0
 10
-23.6334195238
 20
25.2908774209
 30
0.0
 10
-23.6512023049
 20
25.2595141014
 30
0.0
  0
SPLINE
  5
494
100
AcDbEntity
  8
ASSI
100
AcDbSpline
 62
7
  6
CONTINUOUS
 70
0
 71
3
 72
9
 73
5
 74
0
 42
0.0000001
 43
0.0000001
 44
0.0000000001
 40
0.0
 40
0.0
 40
0.0
 40
0.0
 40
0.2454443437
 40
1.0
 40
1.0
 40
1.0
 40
1.0
 10
-23.6512023049
 20
25.2595141014
 30
0.0
 10
-23.6541385306
 20
25.2543355085
 30
0.0
 10
-23.6657463633
 20
25.2330365259
 30
0.0
 10
-23.6759396977
 20
25.2109729779
 30
0.0
 10
-23.6828657385
 20
25.1940329276
 30
0.0
  0
SPLINE
  5
495
100
AcDbEntity
  8
ASSI
100
AcDbSpline
 62
7
  6
CONTINUOUS
 70
0
 71
3
 72
11
 73
7
 74
0
 42
0.0000001
 43
0.0000001
 44
0.0000000001
 40
0.0
 40
0.0
 40
0.0
 40
0.0
 40
0.2177671738
 40
0.450944045
 40
0.7101952432
 40
1.0
 40
1.0
 40
1.0
 40
1.0
 10
-7.7217335587
 20
16.1581526798
 30
0.0
 10
-7.6821512212
 20
16.1810070391
 30
0.0
 10
-7.5911952371
 20
16.2140414896
 30
0.0
 10
-7.4401390443
 20
16.2178212672
 30
0.0
 10
-7.2791174702
 20
16.1789846812
 30
0.0
 10
-7.1743807858
 20
16.1291178557
 30
0.0
 10
-7.1217045666
 20
16.0987032666
 30
0.0
  0
SPLINE
  5
496
100
AcDbEntity
  8
ASSI
100
AcDbSpline
 62
7
  6
CONTINUOUS
 70
0
 71
3
 72
9
 73
5
 74
0
 42
0.0000001
 43
0.0000001
 44
0.0000000001
 40
0.0
 40
0.0
 40
0.0
 40
0.0
 40
0.2434727943
 40
1.0
 40
1.0
 40
1.0
 40
1.0
 10
-7.6534575445
 20
16.1857272921
 30
0.0
 10
-7.6619660631
 20
16.1778380759
 30
0.0
 10
-7.6955737855
 20
16.1440004649
 30
0.0
 10
-7.7235169471
 20
16.1046990711
 30
0.0
 10
-7.7412997282
 20
16.0733357515
 30
0.0
  0
SPLINE
  5
497
100
AcDbEntity
  8
ASSI
100
AcDbSpline
 62
7
  6
CONTINUOUS
 70
0
 71
3
 72
9
 73
5
 74
0
 42
0.0000001
 43
0.0000001
 44
0.0000000001
 40
0.0
 40
0.0
 40
0.0
 40
0.0
 40
0.2454443437
 40
1.0
 40
1.0
 40
1.0
 40
1.0
 10
-7.7412997282
 20
16.0733357515
 30
0.0
 10
-7.7442359539
 20
16.0681571586
 30
0.0
 10
-7.7558437866
 20
16.046858176
 30
0.0
 10
-7.766037121
 20
16.024794628
 30
0.0
 10
-7.7729631618
 20
16.0078545777
 30
0.0
  0
SPLINE
  5
498
100
AcDbEntity
  8
ASSI
100
AcDbSpline
 62
7
  6
CONTINUOUS
 70
0
 71
3
 72
11
 73
7
 74
0
 42
0.0000001
 43
0.0000001
 44
0.0000000001
 40
0.0
 40
0.0
 40
0.0
 40
0.0
 40
0.2177671738
 40
0.450944045
 40
0.7101952432
 40
1.0
 40
1.0
 40
1.0
 40
1.0
 10
8.188169018
 20
6.9719743299
 30
0.0
 10
8.2277513555
 20
6.9948286892
 30
0.0
 10
8.3187073396
 20
7.0278631397
 30
0.0
 10
8.4697635324
 20
7.0316429174
 30
0.0
 10
8.6307851065
 20
6.9928063313
 30
0.0
 10
8.7355217909
 20
6.9429395058
 30
0.0
 10
8.7881980101
 20
6.9125249167
 30
0.0
  0
SPLINE
  5
499
100
AcDbEntity
  8
ASSI
100
AcDbSpline
 62
7
  6
CONTINUOUS
 70
0
 71
3
 72
9
 73
5
 74
0
 42
0.0000001
 43
0.0000001
 44
0.0000000001
 40
0.0
 40
0.0
 40
0.0
 40
0.0
 40
0.2434727943
 40
1.0
 40
1.0
 40
1.0
 40
1.0
 10
8.2564450322
 20
6.9995489422
 30
0.0
 10
8.2479365136
 20
6.991659726
 30
0.0
 10
8.2143287912
 20
6.957822115
 30
0.0
 10
8.1863856296
 20
6.9185207212
 30
0.0
 10
8.1686028485
 20
6.8871574017
 30
0.0
  0
SPLINE
  5
49A
100
AcDbEntity
  8
ASSI
100
AcDbSpline
 62
7
  6
CONTINUOUS
 70
0
 71
3
 72
9
 73
5
 74
0
 42
0.0000001
 43
0.0000001
 44
0.0000000001
 40
0.0
 40
0.0
 40
0.0
 40
0.0
 40
0.2454443437
 40
1.0
 40
1.0
 40
1.0
 40
1.0
 10
8.1686028485
 20
6.8871574017
 30
0.0
 10
8.1656666228
 20
6.8819788087
 30
0.0
 10
8.1540587901
 20
6.8606798261
 30
0.0
 10
8.1438654557
 20
6.8386162781
 30
0.0
 10
8.1369394149
 20
6.8216762278
 30
0.0
  0
SPLINE
  5
49B
100
AcDbEntity
  8
ASSI
100
AcDbSpline
 62
7
  6
CONTINUOUS
 70
0
 71
3
 72
9
 73
5
 74
0
 42
0.0000001
 43
0.0000001
 44
0.0000000001
 40
0.0
 40
0.0
 40
0.0
 40
0.0
 40
0.2434727928
 40
1.0
 40
1.0
 40
1.0
 40
1.0
 10
-23.563360236
 20
8.6342648611
 30
0.0
 10
-23.5718687487
 20
8.6263756445
 30
0.0
 10
-23.6054764478
 20
8.5925380333
 30
0.0
 10
-23.6334195895
 20
8.5532366462
 30
0.0
 10
-23.6512023581
 20
8.5218733337
 30
0.0
  0
SPLINE
  5
49C
100
AcDbEntity
  8
ASSI
100
AcDbSpline
 62
7
  6
CONTINUOUS
 70
0
 71
3
 72
9
 73
5
 74
0
 42
0.0000001
 43
0.0000001
 44
0.0000000001
 40
0.0
 40
0.0
 40
0.0
 40
0.0
 40
0.245444348
 40
1.0
 40
1.0
 40
1.0
 40
1.0
 10
-23.6512023581
 20
8.5218733337
 30
0.0
 10
-23.6541385785
 20
8.5166947477
 30
0.0
 10
-23.6657463902
 20
8.4953957945
 30
0.0
 10
-23.675939708
 20
8.4733322784
 30
0.0
 10
-23.6828657384
 20
8.4563922532
 30
0.0
  0
SPLINE
  5
49D
100
AcDbEntity
  8
ASSI
100
AcDbSpline
 62
7
  6
CONTINUOUS
 70
0
 71
3
 72
11
 73
7
 74
0
 42
0.0000001
 43
0.0000001
 44
0.0000000001
 40
0.0
 40
0.0
 40
0.0
 40
0.0
 40
0.2177671718
 40
0.4509440387
 40
0.7101952376
 40
1.0
 40
1.0
 40
1.0
 40
1.0
 10
-23.6316361354
 20
8.6066903554
 30
0.0
 10
-23.5920537981
 20
8.6295447142
 30
0.0
 10
-23.5010978155
 20
8.6625791648
 30
0.0
 10
-23.350041624
 20
8.6663589432
 30
0.0
 10
-23.1890200491
 20
8.627522358
 30
0.0
 10
-23.0842833643
 20
8.5776555306
 30
0.0
 10
-23.0316071433
 20
8.5472409422
 30
0.0
  0
SPLINE
  5
49E
100
AcDbEntity
  8
ASSI
100
AcDbSpline
 62
7
  6
CONTINUOUS
 70
0
 71
3
 72
9
 73
5
 74
0
 42
0.0000001
 43
0.0000001
 44
0.0000000001
 40
0.0
 40
0.0
 40
0.0
 40
0.0
 40
0.2434727928
 40
1.0
 40
1.0
 40
1.0
 40
1.0
 10
-7.6534576593
 20
-0.5519134888
 30
0.0
 10
-7.661966172
 20
-0.5598027054
 30
0.0
 10
-7.6955738711
 20
-0.5936403165
 30
0.0
 10
-7.7235170128
 20
-0.6329417037
 30
0.0
 10
-7.7412997814
 20
-0.6643050162
 30
0.0
  0
SPLINE
  5
49F
100
AcDbEntity
  8
ASSI
100
AcDbSpline
 62
7
  6
CONTINUOUS
 70
0
 71
3
 72
9
 73
5
 74
0
 42
0.0000001
 43
0.0000001
 44
0.0000000001
 40
0.0
 40
0.0
 40
0.0
 40
0.0
 40
0.245444348
 40
1.0
 40
1.0
 40
1.0
 40
1.0
 10
-7.7412997814
 20
-0.6643050162
 30
0.0
 10
-7.7442360018
 20
-0.6694836022
 30
0.0
 10
-7.7558438135
 20
-0.6907825554
 30
0.0
 10
-7.7660371313
 20
-0.7128460714
 30
0.0
 10
-7.7729631617
 20
-0.7297860967
 30
0.0
  0
SPLINE
  5
4A0
100
AcDbEntity
  8
ASSI
100
AcDbSpline
 62
7
  6
CONTINUOUS
 70
0
 71
3
 72
11
 73
7
 74
0
 42
0.0000001
 43
0.0000001
 44
0.0000000001
 40
0.0
 40
0.0
 40
0.0
 40
0.0
 40
0.2177671718
 40
0.4509440387
 40
0.7101952376
 40
1.0
 40
1.0
 40
1.0
 40
1.0
 10
-7.7217335587
 20
-0.5794879944
 30
0.0
 10
-7.6821512214
 20
-0.5566336357
 30
0.0
 10
-7.5911952389
 20
-0.5235991851
 30
0.0
 10
-7.4401390473
 20
-0.5198194066
 30
0.0
 10
-7.2791174724
 20
-0.5586559919
 30
0.0
 10
-7.1743807876
 20
-0.6085228192
 30
0.0
 10
-7.1217045666
 20
-0.6389374077
 30
0.0
  0
SPLINE
  5
4A1
100
AcDbEntity
  8
ASSI
100
AcDbSpline
 62
7
  6
CONTINUOUS
 70
0
 71
3
 72
9
 73
5
 74
0
 42
0.0000001
 43
0.0000001
 44
0.0000000001
 40
0.0
 40
0.0
 40
0.0
 40
0.0
 40
0.2434727928
 40
1.0
 40
1.0
 40
1.0
 40
1.0
 10
8.2564449174
 20
-9.7380918387
 30
0.0
 10
8.2479364047
 20
-9.7459810553
 30
0.0
 10
8.2143287056
 20
-9.7798186664
 30
0.0
 10
8.1863855639
 20
-9.8191200535
 30
0.0
 10
8.1686027953
 20
-9.850483366
 30
0.0
  0
SPLINE
  5
4A2
100
AcDbEntity
  8
ASSI
100
AcDbSpline
 62
7
  6
CONTINUOUS
 70
0
 71
3
 72
9
 73
5
 74
0
 42
0.0000001
 43
0.0000001
 44
0.0000000001
 40
0.0
 40
0.0
 40
0.0
 40
0.0
 40
0.245444348
 40
1.0
 40
1.0
 40
1.0
 40
1.0
 10
8.1686027953
 20
-9.850483366
 30
0.0
 10
8.1656665749
 20
-9.855661952
 30
0.0
 10
8.1540587631
 20
-9.8769609053
 30
0.0
 10
8.1438654454
 20
-9.8990244213
 30
0.0
 10
8.136939415
 20
-9.9159644465
 30
0.0
  0
SPLINE
  5
4A3
100
AcDbEntity
  8
ASSI
100
AcDbSpline
 62
7
  6
CONTINUOUS
 70
0
 71
3
 72
11
 73
7
 74
0
 42
0.0000001
 43
0.0000001
 44
0.0000000001
 40
0.0
 40
0.0
 40
0.0
 40
0.0
 40
0.2177671718
 40
0.4509440387
 40
0.7101952376
 40
1.0
 40
1.0
 40
1.0
 40
1.0
 10
8.188169018
 20
-9.7656663443
 30
0.0
 10
8.2277513553
 20
-9.7428119855
 30
0.0
 10
8.3187073378
 20
-9.709777535
 30
0.0
 10
8.4697635294
 20
-9.7059977565
 30
0.0
 10
8.6307851043
 20
-9.7448343417
 30
0.0
 10
8.7355217891
 20
-9.7947011691
 30
0.0
 10
8.7881980101
 20
-9.8251157575
 30
0.0
  0
SPLINE
  5
4A4
100
AcDbEntity
  8
ASSI
100
AcDbSpline
 62
7
  6
CONTINUOUS
 70
0
 71
3
 72
9
 73
5
 74
0
 42
0.0000001
 43
0.0000001
 44
0.0000000001
 40
0.0
 40
0.0
 40
0.0
 40
0.0
 40
0.2715325905
 40
1.0
 40
1.0
 40
1.0
 40
1.0
 10
19.1119570155
 20
-27.7063908613
 30
0.0
 10
19.1119570156
 20
-27.7376264172
 30
0.0
 10
19.1072199231
 20
-27.852439647
 30
0.0
 10
19.0819201465
 20
-27.9676706666
 30
0.0
 10
19.0473752643
 20
-28.0440177503
 30
0.0
  0
SPLINE
  5
4A5
100
AcDbEntity
  8
ASSI
100
AcDbSpline
 62
7
  6
CONTINUOUS
 70
0
 71
3
 72
9
 73
5
 74
0
 42
0.0000001
 43
0.0000001
 44
0.0000000001
 40
0.0
 40
0.0
 40
0.0
 40
0.0
 40
0.5170824752
 40
1.0
 40
1.0
 40
1.0
 40
1.0
 10
19.0473752643
 20
-28.0440177503
 30
0.0
 10
19.0272027837
 20
-28.0886006225
 30
0.0
 10
18.9770807491
 20
-28.170633075
 30
0.0
 10
18.903035494
 20
-28.2328234574
 30
0.0
 10
18.8634578702
 20
-28.2556750947
 30
0.0
  0
SPLINE
  5
4A6
100
AcDbEntity
  8
ASSI
100
AcDbSpline
 62
7
  6
CONTINUOUS
 70
0
 71
3
 72
9
 73
5
 74
0
 42
0.0000001
 43
0.0000001
 44
0.0000000001
 40
0.0
 40
0.0
 40
0.0
 40
0.0
 40
0.2715325905
 40
1.0
 40
1.0
 40
1.0
 40
1.0
 10
3.2020544388
 20
-18.5202125114
 30
0.0
 10
3.2020544389
 20
-18.5514480673
 30
0.0
 10
3.1973173464
 20
-18.6662612971
 30
0.0
 10
3.1720175698
 20
-18.7814923167
 30
0.0
 10
3.1374726877
 20
-18.8578394004
 30
0.0
  0
SPLINE
  5
4A7
100
AcDbEntity
  8
ASSI
100
AcDbSpline
 62
7
  6
CONTINUOUS
 70
0
 71
3
 72
9
 73
5
 74
0
 42
0.0000001
 43
0.0000001
 44
0.0000000001
 40
0.0
 40
0.0
 40
0.0
 40
0.0
 40
0.5170824752
 40
1.0
 40
1.0
 40
1.0
 40
1.0
 10
3.1374726877
 20
-18.8578394004
 30
0.0
 10
3.117300207
 20
-18.9024222727
 30
0.0
 10
3.0671781725
 20
-18.9844547252
 30
0.0
 10
2.9931329173
 20
-19.0466451076
 30
0.0
 10
2.9535552935
 20
-19.0694967448
 30
0.0
  0
SPLINE
  5
4A8
100
AcDbEntity
  8
ASSI
100
AcDbSpline
 62
7
  6
CONTINUOUS
 70
0
 71
3
 72
9
 73
5
 74
0
 42
0.0000001
 43
0.0000001
 44
0.0000000001
 40
0.0
 40
0.0
 40
0.0
 40
0.0
 40
0.2715325905
 40
1.0
 40
1.0
 40
1.0
 40
1.0
 10
-12.7078481379
 20
-9.3340341615
 30
0.0
 10
-12.7078481378
 20
-9.3652697174
 30
0.0
 10
-12.7125852303
 20
-9.4800829472
 30
0.0
 10
-12.7378850069
 20
-9.5953139668
 30
0.0
 10
-12.772429889
 20
-9.6716610505
 30
0.0
  0
SPLINE
  5
4A9
100
AcDbEntity
  8
ASSI
100
AcDbSpline
 62
7
  6
CONTINUOUS
 70
0
 71
3
 72
9
 73
5
 74
0
 42
0.0000001
 43
0.0000001
 44
0.0000000001
 40
0.0
 40
0.0
 40
0.0
 40
0.0
 40
0.5170824752
 40
1.0
 40
1.0
 40
1.0
 40
1.0
 10
-12.772429889
 20
-9.6716610505
 30
0.0
 10
-12.7926023697
 20
-9.7162439228
 30
0.0
 10
-12.8427244042
 20
-9.7982763753
 30
0.0
 10
-12.9167696594
 20
-9.8604667577
 30
0.0
 10
-12.9563472832
 20
-9.8833183949
 30
0.0
  0
SPLINE
  5
4AA
100
AcDbEntity
  8
ASSI
100
AcDbSpline
 62
7
  6
CONTINUOUS
 70
0
 71
3
 72
9
 73
5
 74
0
 42
0.0000001
 43
0.0000001
 44
0.0000000001
 40
0.0
 40
0.0
 40
0.0
 40
0.0
 40
0.2715327297
 40
1.0
 40
1.0
 40
1.0
 40
1.0
 10
-12.7078481379
 20
7.4036065127
 30
0.0
 10
-12.7078481386
 20
7.3723707838
 30
0.0
 10
-12.7125852806
 20
7.2575569809
 30
0.0
 10
-12.7378853362
 20
7.1423253712
 30
0.0
 10
-12.7724306138
 20
7.0659780218
 30
0.0
  0
SPLINE
  5
4AB
100
AcDbEntity
  8
ASSI
100
AcDbSpline
 62
7
  6
CONTINUOUS
 70
0
 71
3
 72
9
 73
5
 74
0
 42
0.0000001
 43
0.0000001
 44
0.0000000001
 40
0.0
 40
0.0
 40
0.0
 40
0.0
 40
0.5170823016
 40
1.0
 40
1.0
 40
1.0
 40
1.0
 10
-12.7724306138
 20
7.0659780218
 30
0.0
 10
-12.7926030974
 20
7.0213954981
 30
0.0
 10
-12.8427250384
 20
6.9393636932
 30
0.0
 10
-12.9167698879
 20
6.877173785
 30
0.0
 10
-12.9563472832
 20
6.8543222793
 30
0.0
  0
SPLINE
  5
4AC
100
AcDbEntity
  8
ASSI
100
AcDbSpline
 62
7
  6
CONTINUOUS
 70
0
 71
3
 72
9
 73
5
 74
0
 42
0.0000001
 43
0.0000001
 44
0.0000000001
 40
0.0
 40
0.0
 40
0.0
 40
0.0
 40
0.2715327297
 40
1.0
 40
1.0
 40
1.0
 40
1.0
 10
19.1119570155
 20
-10.968750187
 30
0.0
 10
19.1119570148
 20
-10.9999859159
 30
0.0
 10
19.1072198728
 20
-11.1147997188
 30
0.0
 10
19.0819198172
 20
-11.2300313285
 30
0.0
 10
19.0473745396
 20
-11.306378678
 30
0.0
  0
SPLINE
  5
4AD
100
AcDbEntity
  8
ASSI
100
AcDbSpline
 62
7
  6
CONTINUOUS
 70
0
 71
3
 72
9
 73
5
 74
0
 42
0.0000001
 43
0.0000001
 44
0.0000000001
 40
0.0
 40
0.0
 40
0.0
 40
0.0
 40
0.5170823016
 40
1.0
 40
1.0
 40
1.0
 40
1.0
 10
19.0473745396
 20
-11.306378678
 30
0.0
 10
19.027202056
 20
-11.3509612017
 30
0.0
 10
18.977080115
 20
-11.4329930066
 30
0.0
 10
18.9030352655
 20
-11.4951829147
 30
0.0
 10
18.8634578702
 20
-11.5180344204
 30
0.0
  0
SPLINE
  5
4AE
100
AcDbEntity
  8
ASSI
100
AcDbSpline
 62
7
  6
CONTINUOUS
 70
0
 71
3
 72
9
 73
5
 74
0
 42
0.0000001
 43
0.0000001
 44
0.0000000001
 40
0.0
 40
0.0
 40
0.0
 40
0.0
 40
0.2715327297
 40
1.0
 40
1.0
 40
1.0
 40
1.0
 10
3.2020544388
 20
-1.7825718372
 30
0.0
 10
3.2020544381
 20
-1.8138075661
 30
0.0
 10
3.1973172961
 20
-1.9286213689
 30
0.0
 10
3.1720172405
 20
-2.0438529786
 30
0.0
 10
3.1374719629
 20
-2.1202003281
 30
0.0
  0
SPLINE
  5
4AF
100
AcDbEntity
  8
ASSI
100
AcDbSpline
 62
7
  6
CONTINUOUS
 70
0
 71
3
 72
9
 73
5
 74
0
 42
0.0000001
 43
0.0000001
 44
0.0000000001
 40
0.0
 40
0.0
 40
0.0
 40
0.0
 40
0.5170823016
 40
1.0
 40
1.0
 40
1.0
 40
1.0
 10
3.1374719629
 20
-2.1202003281
 30
0.0
 10
3.1172994793
 20
-2.1647828518
 30
0.0
 10
3.0671775383
 20
-2.2468146567
 30
0.0
 10
2.9931326888
 20
-2.3090045649
 30
0.0
 10
2.9535552935
 20
-2.3318560705
 30
0.0
  0
SPLINE
  5
4B0
100
AcDbEntity
  8
ASSI
100
AcDbSpline
 62
7
  6
CONTINUOUS
 70
0
 71
3
 72
11
 73
7
 74
0
 42
0.0000001
 43
0.0000001
 44
0.0000000001
 40
0.0
 40
0.0
 40
0.0
 40
0.0
 40
0.2191410373
 40
0.4557654014
 40
0.7154234019
 40
1.0
 40
1.0
 40
1.0
 40
1.0
 10
-13.0398331198
 20
6.8179872776
 30
0.0
 10
-13.0774725177
 20
6.8063685772
 30
0.0
 10
-13.1594842548
 20
6.7933484662
 30
0.0
 10
-13.288594611
 20
6.8046029904
 30
0.0
 10
-13.4238728811
 20
6.8448749155
 30
0.0
 10
-13.512076087
 20
6.8881933192
 30
0.0
 10
-13.5563762754
 20
6.9137716926
 30
0.0
  0
SPLINE
  5
4B1
100
AcDbEntity
  8
ASSI
100
AcDbSpline
 62
7
  6
CONTINUOUS
 70
0
 71
3
 72
13
 73
9
 74
0
 42
0.0000001
 43
0.0000001
 44
0.0000000001
 40
0.0
 40
0.0
 40
0.0
 40
0.0
 40
0.114261602
 40
0.2375404911
 40
0.5000060678
 40
0.7624683267
 40
0.8857433366
 40
1.0
 40
1.0
 40
1.0
 40
1.0
 10
-23.3851605339
 20
11.7722788081
 30
0.0
 10
-23.4674545307
 20
11.8197943327
 30
0.0
 10
-23.6300162996
 20
11.9337352193
 30
0.0
 10
-23.934321085
 20
12.2185968727
 30
0.0
 10
-24.2558002109
 20
12.6576741622
 30
0.0
 10
-24.4753123542
 20
13.1556189336
 30
0.0
 10
-24.5698516432
 20
13.56157652
 30
0.0
 10
-24.5872420622
 20
13.7593227403
 30
0.0
 10
-24.5872420619
 20
13.8543450873
 30
0.0
  0
SPLINE
  5
4B2
100
AcDbEntity
  8
ASSI
100
AcDbSpline
 62
7
  6
CONTINUOUS
 70
0
 71
3
 72
11
 73
7
 74
0
 42
0.0000001
 43
0.0000001
 44
0.0000000001
 40
0.0
 40
0.0
 40
0.0
 40
0.0
 40
0.2191410373
 40
0.4557654014
 40
0.7154234019
 40
1.0
 40
1.0
 40
1.0
 40
1.0
 10
2.8700694569
 20
-2.3681910723
 30
0.0
 10
2.832430059
 20
-2.3798097727
 30
0.0
 10
2.7504183219
 20
-2.3928298836
 30
0.0
 10
2.6213079657
 20
-2.3815753595
 30
0.0
 10
2.4860296956
 20
-2.3413034344
 30
0.0
 10
2.3978264897
 20
-2.2979850306
 30
0.0
 10
2.3535263013
 20
-2.2724066573
 30
0.0
  0
SPLINE
  5
4B3
100
AcDbEntity
  8
ASSI
100
AcDbSpline
 62
7
  6
CONTINUOUS
 70
0
 71
3
 72
11
 73
7
 74
0
 42
0.0000001
 43
0.0000001
 44
0.0000000001
 40
0.0
 40
0.0
 40
0.0
 40
0.0
 40
0.2191410373
 40
0.4557654014
 40
0.7154234019
 40
1.0
 40
1.0
 40
1.0
 40
1.0
 10
18.7799720336
 20
-11.5543694221
 30
0.0
 10
18.7423326357
 20
-11.5659881226
 30
0.0
 10
18.6603208986
 20
-11.5790082335
 30
0.0
 10
18.5312105424
 20
-11.5677537093
 30
0.0
 10
18.3959322722
 20
-11.5274817843
 30
0.0
 10
18.3077290664
 20
-11.4841633805
 30
0.0
 10
18.263428878
 20
-11.4585850072
 30
0.0
  0
SPLINE
  5
4B4
100
AcDbEntity
  8
ASSI
100
AcDbSpline
 62
7
  6
CONTINUOUS
 70
0
 71
3
 72
15
 73
11
 74
0
 42
0.0000001
 43
0.0000001
 44
0.0000000001
 40
0.0
 40
0.0
 40
0.0
 40
0.0
 40
0.1449018606
 40
0.274517057
 40
0.3911053392
 40
0.4999889011
 40
0.6088744758
 40
0.7254681141
 40
0.8550905238
 40
1.0
 40
1.0
 40
1.0
 40
1.0
 10
-8.6773394852
 20
-1.1287722278
 30
0.0
 10
-8.6773394855
 20
-1.0426086997
 30
0.0
 10
-8.6643190256
 20
-0.8788001562
 30
0.0
 10
-8.5979442244
 20
-0.6537941
 30
0.0
 10
-8.4861732435
 20
-0.4710846392
 30
0.0
 10
-8.3310237905
 20
-0.3406053137
 30
0.0
 10
-8.1404399959
 20
-0.2715024311
 30
0.0
 10
-7.9263148379
 20
-0.2660794428
 30
0.0
 10
-7.6982583982
 20
-0.3211162989
 30
0.0
 10
-7.549880482
 20
-0.3917534573
 30
0.0
 10
-7.4752579572
 20
-0.4348395659
 30
0.0
  0
SPLINE
  5
4B5
100
AcDbEntity
  8
ASSI
100
AcDbSpline
 62
7
  6
CONTINUOUS
 70
0
 71
3
 72
13
 73
9
 74
0
 42
0.0000001
 43
0.0000001
 44
0.0000000001
 40
0.0
 40
0.0
 40
0.0
 40
0.0
 40
0.1142615975
 40
0.2375404836
 40
0.5000060625
 40
0.7624683192
 40
0.885743332
 40
1.0
 40
1.0
 40
1.0
 40
1.0
 10
-7.4752579572
 20
-14.151540216
 30
0.0
 10
-7.5575519518
 20
-14.1040246953
 30
0.0
 10
-7.7201137141
 20
-13.9900838098
 30
0.0
 10
-8.0244184991
 20
-13.705222163
 30
0.0
 10
-8.3458976259
 20
-13.2661448763
 30
0.0
 10
-8.5654097721
 20
-12.7682001043
 30
0.0
 10
-8.6599490667
 20
-12.3622425142
 30
0.0
 10
-8.6773394833
 20
-12.1644962876
 30
0.0
 10
-8.6773394852
 20
-12.0694739368
 30
0.0
  0
SPLINE
  5
4B6
100
AcDbEntity
  8
ASSI
100
AcDbSpline
 62
7
  6
CONTINUOUS
 70
0
 71
3
 72
11
 73
7
 74
0
 42
0.0000001
 43
0.0000001
 44
0.0000000001
 40
0.0
 40
0.0
 40
0.0
 40
0.0
 40
0.2191409981
 40
0.4557653171
 40
0.7154233258
 40
1.0
 40
1.0
 40
1.0
 40
1.0
 10
-13.0398320616
 20
-9.9196530701
 30
0.0
 10
-13.0774714989
 20
-9.9312718912
 30
0.0
 10
-13.1594833671
 20
-9.9442922067
 30
0.0
 10
-13.2885939946
 20
-9.9330378268
 30
0.0
 10
-13.4238725766
 20
-9.8927658999
 30
0.0
 10
-13.5120759855
 20
-9.849447415
 30
0.0
 10
-13.5563762754
 20
-9.8238689817
 30
0.0
  0
SPLINE
  5
4B7
100
AcDbEntity
  8
ASSI
100
AcDbSpline
 62
7
  6
CONTINUOUS
 70
0
 71
3
 72
9
 73
5
 74
0
 42
0.0000001
 43
0.0000001
 44
0.0000000001
 40
0.0
 40
0.0
 40
0.0
 40
0.0
 40
0.2314181671
 40
1.0
 40
1.0
 40
1.0
 40
1.0
 10
-7.7729631618
 20
16.0078545777
 30
0.0
 10
-7.7824039803
 20
15.9847637604
 30
0.0
 10
-7.8171269897
 20
15.8824954329
 30
0.0
 10
-7.8288113476
 20
15.7733743668
 30
0.0
 10
-7.8288113477
 20
15.6905233651
 30
0.0
  0
SPLINE
  5
4B8
100
AcDbEntity
  8
ASSI
100
AcDbSpline
 62
7
  6
CONTINUOUS
 70
0
 71
3
 72
15
 73
11
 74
0
 42
0.0000001
 43
0.0000001
 44
0.0000000001
 40
0.0
 40
0.0
 40
0.0
 40
0.0
 40
0.1449018606
 40
0.274517057
 40
0.3911053392
 40
0.4999889011
 40
0.6088744758
 40
0.7254681141
 40
0.8550905238
 40
1.0
 40
1.0
 40
1.0
 40
1.0
 10
3.2020544388
 20
-18.9284871047
 30
0.0
 10
3.2020544391
 20
-19.0146506329
 30
0.0
 10
3.1890339791
 20
-19.1784591764
 30
0.0
 10
3.122659178
 20
-19.4034652325
 30
0.0
 10
3.0108881971
 20
-19.5861746933
 30
0.0
 10
2.8557387441
 20
-19.7166540189
 30
0.0
 10
2.6651549495
 20
-19.7857569015
 30
0.0
 10
2.4510297915
 20
-19.7911798897
 30
0.0
 10
2.2229733518
 20
-19.7361430337
 30
0.0
 10
2.0745954356
 20
-19.6655058753
 30
0.0
 10
1.9999729107
 20
-19.6224197666
 30
0.0
  0
SPLINE
  5
4B9
100
AcDbEntity
  8
ASSI
100
AcDbSpline
 62
7
  6
CONTINUOUS
 70
0
 71
3
 72
11
 73
7
 74
0
 42
0.0000001
 43
0.0000001
 44
0.0000000001
 40
0.0
 40
0.0
 40
0.0
 40
0.0
 40
0.2191409981
 40
0.4557653171
 40
0.7154233258
 40
1.0
 40
1.0
 40
1.0
 40
1.0
 10
2.8700705151
 20
-19.10583142
 30
0.0
 10
2.8324310778
 20
-19.1174502411
 30
0.0
 10
2.7504192096
 20
-19.1304705565
 30
0.0
 10
2.6213085821
 20
-19.1192161766
 30
0.0
 10
2.4860300001
 20
-19.0789442498
 30
0.0
 10
2.3978265912
 20
-19.0356257649
 30
0.0
 10
2.3535263013
 20
-19.0100473316
 30
0.0
  0
SPLINE
  5
4BA
100
AcDbEntity
  8
ASSI
100
AcDbSpline
 62
7
  6
CONTINUOUS
 70
0
 71
3
 72
11
 73
7
 74
0
 42
0.0000001
 43
0.0000001
 44
0.0000000001
 40
0.0
 40
0.0
 40
0.0
 40
0.0
 40
0.2191409981
 40
0.4557653171
 40
0.7154233258
 40
1.0
 40
1.0
 40
1.0
 40
1.0
 10
18.7799730918
 20
-28.2920097698
 30
0.0
 10
18.7423336545
 20
-28.303628591
 30
0.0
 10
18.6603217863
 20
-28.3166489064
 30
0.0
 10
18.5312111588
 20
-28.3053945265
 30
0.0
 10
18.3959325768
 20
-28.2651225997
 30
0.0
 10
18.3077291679
 20
-28.2218041148
 30
0.0
 10
18.263428878
 20
-28.1962256814
 30
0.0
  0
SPLINE
  5
4BB
100
AcDbEntity
  8
ASSI
100
AcDbSpline
 62
7
  6
CONTINUOUS
 70
0
 71
3
 72
15
 73
11
 74
0
 42
0.0000001
 43
0.0000001
 44
0.0000000001
 40
0.0
 40
0.0
 40
0.0
 40
0.0
 40
0.1449018606
 40
0.274517057
 40
0.3911053392
 40
0.4999889011
 40
0.6088744758
 40
0.7254681141
 40
0.8550905238
 40
1.0
 40
1.0
 40
1.0
 40
1.0
 10
-24.5872420619
 20
8.0574061221
 30
0.0
 10
-24.5872420622
 20
8.1435696502
 30
0.0
 10
-24.5742216023
 20
8.3073781937
 30
0.0
 10
-24.5078468011
 20
8.5323842498
 30
0.0
 10
-24.3960758202
 20
8.7150937106
 30
0.0
 10
-24.2409263672
 20
8.8455730362
 30
0.0
 10
-24.0503425726
 20
8.9146759188
 30
0.0
 10
-23.8362174146
 20
8.9200989071
 30
0.0
 10
-23.6081609749
 20
8.865062051
 30
0.0
 10
-23.4597830587
 20
8.7944248926
 30
0.0
 10
-23.3851605339
 20
8.751338784
 30
0.0
  0
SPLINE
  5
4BC
100
AcDbEntity
  8
ASSI
100
AcDbSpline
 62
7
  6
CONTINUOUS
 70
0
 71
3
 72
13
 73
9
 74
0
 42
0.0000001
 43
0.0000001
 44
0.0000000001
 40
0.0
 40
0.0
 40
0.0
 40
0.0
 40
0.1142615975
 40
0.2375404836
 40
0.5000060625
 40
0.7624683192
 40
0.885743332
 40
1.0
 40
1.0
 40
1.0
 40
1.0
 10
-23.3851605339
 20
-4.9653618662
 30
0.0
 10
-23.4674545285
 20
-4.9178463454
 30
0.0
 10
-23.6300162908
 20
-4.8039054599
 30
0.0
 10
-23.9343210758
 20
-4.5190438132
 30
0.0
 10
-24.2558002026
 20
-4.0799665265
 30
0.0
 10
-24.4753123488
 20
-3.5820217544
 30
0.0
 10
-24.5698516434
 20
-3.1760641643
 30
0.0
 10
-24.58724206
 20
-2.9783179377
 30
0.0
 10
-24.5872420619
 20
-2.883295587
 30
0.0
  0
SPLINE
  5
4BD
100
AcDbEntity
  8
ASSI
100
AcDbSpline
 62
7
  6
CONTINUOUS
 70
0
 71
3
 72
15
 73
11
 74
0
 42
0.0000001
 43
0.0000001
 44
0.0000000001
 40
0.0
 40
0.0
 40
0.0
 40
0.0
 40
0.144901866
 40
0.2745170643
 40
0.391105345
 40
0.4999889054
 40
0.6088744816
 40
0.7254681215
 40
0.8550905292
 40
1.0
 40
1.0
 40
1.0
 40
1.0
 10
-12.7078481379
 20
6.9953319194
 30
0.0
 10
-12.7078481397
 20
6.9091683881
 30
0.0
 10
-12.7208685972
 20
6.7453598401
 30
0.0
 10
-12.787243403
 20
6.5203537812
 30
0.0
 10
-12.8990143861
 20
6.3376443226
 30
0.0
 10
-13.054163841
 20
6.2071650005
 30
0.0
 10
-13.2447476376
 20
6.1380621211
 30
0.0
 10
-13.4588727964
 20
6.1326391358
 30
0.0
 10
-13.6869292314
 20
6.1876759946
 30
0.0
 10
-13.8353071448
 20
6.2583131487
 30
0.0
 10
-13.909929666
 20
6.3013992575
 30
0.0
  0
SPLINE
  5
4BE
100
AcDbEntity
  8
ASSI
100
AcDbSpline
 62
7
  6
CONTINUOUS
 70
0
 71
3
 72
15
 73
11
 74
0
 42
0.0000001
 43
0.0000001
 44
0.0000000001
 40
0.0
 40
0.0
 40
0.0
 40
0.0
 40
0.1449018606
 40
0.274517057
 40
0.3911053392
 40
0.4999889011
 40
0.6088744758
 40
0.7254681141
 40
0.8550905238
 40
1.0
 40
1.0
 40
1.0
 40
1.0
 10
-12.7078481379
 20
-9.7423087549
 30
0.0
 10
-12.7078481376
 20
-9.828472283
 30
0.0
 10
-12.7208685975
 20
-9.9922808265
 30
0.0
 10
-12.7872433987
 20
-10.2172868827
 30
0.0
 10
-12.8990143796
 20
-10.3999963434
 30
0.0
 10
-13.0541638326
 20
-10.530475669
 30
0.0
 10
-13.2447476272
 20
-10.5995785516
 30
0.0
 10
-13.4588727852
 20
-10.6050015399
 30
0.0
 10
-13.6869292249
 20
-10.5499646838
 30
0.0
 10
-13.8353071411
 20
-10.4793275254
 30
0.0
 10
-13.909929666
 20
-10.4362414168
 30
0.0
  0
SPLINE
  5
4BF
100
AcDbEntity
  8
ASSI
100
AcDbSpline
 62
7
  6
CONTINUOUS
 70
0
 71
3
 72
15
 73
11
 74
0
 42
0.0000001
 43
0.0000001
 44
0.0000000001
 40
0.0
 40
0.0
 40
0.0
 40
0.0
 40
0.144901866
 40
0.2745170643
 40
0.391105345
 40
0.4999889054
 40
0.6088744816
 40
0.7254681215
 40
0.8550905292
 40
1.0
 40
1.0
 40
1.0
 40
1.0
 10
7.2325630915
 20
6.4226900966
 30
0.0
 10
7.2325630932
 20
6.5088536278
 30
0.0
 10
7.2455835508
 20
6.6726621759
 30
0.0
 10
7.3119583566
 20
6.8976682347
 30
0.0
 10
7.4237293397
 20
7.0803776934
 30
0.0
 10
7.5788787946
 20
7.2108570155
 30
0.0
 10
7.7694625912
 20
7.2799598948
 30
0.0
 10
7.98358775
 20
7.2853828801
 30
0.0
 10
8.211644185
 20
7.2303460214
 30
0.0
 10
8.3600220984
 20
7.1597088672
 30
0.0
 10
8.4346446195
 20
7.1166227585
 30
0.0
  0
SPLINE
  5
4C0
100
AcDbEntity
  8
ASSI
100
AcDbSpline
 62
7
  6
CONTINUOUS
 70
0
 71
3
 72
13
 73
9
 74
0
 42
0.0000001
 43
0.0000001
 44
0.0000000001
 40
0.0
 40
0.0
 40
0.0
 40
0.0
 40
0.114261602
 40
0.2375404911
 40
0.5000060678
 40
0.7624683267
 40
0.8857433366
 40
1.0
 40
1.0
 40
1.0
 40
1.0
 10
8.4346446195
 20
-6.6000778917
 30
0.0
 10
8.3523506227
 20
-6.5525623671
 30
0.0
 10
8.1897888538
 20
-6.4386214805
 30
0.0
 10
7.8854840683
 20
-6.1537598271
 30
0.0
 10
7.5640049425
 20
-5.7146825375
 30
0.0
 10
7.3444927992
 20
-5.2167377661
 30
0.0
 10
7.2499535101
 20
-4.8107801797
 30
0.0
 10
7.2325630912
 20
-4.6130339594
 30
0.0
 10
7.2325630915
 20
-4.5180116125
 30
0.0
  0
SPLINE
  5
4C1
100
AcDbEntity
  8
ASSI
100
AcDbSpline
 62
7
  6
CONTINUOUS
 70
0
 71
3
 72
11
 73
7
 74
0
 42
0.0000001
 43
0.0000001
 44
0.0000000001
 40
0.0
 40
0.0
 40
0.0
 40
0.0
 40
0.2845759374
 40
0.5442323343
 40
0.7808561232
 40
1.0
 40
1.0
 40
1.0
 40
1.0
 10
7.9396698727
 20
-10.3149505777
 30
0.0
 10
7.9396698729
 20
-10.2637989577
 30
0.0
 10
7.9462596329
 20
-10.165758942
 30
0.0
 10
7.9790277735
 20
-10.0284774194
 30
0.0
 10
8.0338425869
 20
-9.9110469676
 30
0.0
 10
8.0861284304
 20
-9.8465407608
 30
0.0
 10
8.1150120027
 20
-9.8197574814
 30
0.0
  0
SPLINE
  5
4C2
100
AcDbEntity
  8
ASSI
100
AcDbSpline
 62
7
  6
CONTINUOUS
 70
0
 71
3
 72
9
 73
5
 74
0
 42
0.0000001
 43
0.0000001
 44
0.0000000001
 40
0.0
 40
0.0
 40
0.0
 40
0.0
 40
0.2698109577
 40
1.0
 40
1.0
 40
1.0
 40
1.0
 10
18.4048502343
 20
-28.1145707628
 30
0.0
 10
18.4300361833
 20
-28.129112814
 30
0.0
 10
18.5253125646
 20
-28.1793380141
 30
0.0
 10
18.6296935488
 20
-28.2142745683
 30
0.0
 10
18.7076793769
 20
-28.2249008735
 30
0.0
  0
SPLINE
  5
4C3
100
AcDbEntity
  8
ASSI
100
AcDbSpline
 62
7
  6
CONTINUOUS
 70
0
 71
3
 72
11
 73
7
 74
0
 42
0.0000001
 43
0.0000001
 44
0.0000000001
 40
0.0
 40
0.0
 40
0.0
 40
0.0
 40
0.2372134857
 40
0.4999938933
 40
0.7627776251
 40
1.0
 40
1.0
 40
1.0
 40
1.0
 10
8.081091229
 20
-21.173997368
 30
0.0
 10
8.0810912292
 20
-21.3130849307
 30
0.0
 10
8.1332614916
 20
-21.606440049
 30
0.0
 10
8.3151119722
 20
-22.0186705229
 30
0.0
 10
8.5811924588
 20
-22.3822767052
 30
0.0
 10
8.8091634306
 20
-22.5741414636
 30
0.0
 10
8.9296193664
 20
-22.6436912122
 30
0.0
  0
SPLINE
  5
4C4
100
AcDbEntity
  8
ASSI
100
AcDbSpline
 62
7
  6
CONTINUOUS
 70
0
 71
3
 72
11
 73
7
 74
0
 42
0.0000001
 43
0.0000001
 44
0.0000000001
 40
0.0
 40
0.0
 40
0.0
 40
0.0
 40
0.2372223247
 40
0.5000061052
 40
0.7627865602
 40
1.0
 40
1.0
 40
1.0
 40
1.0
 10
8.7881980101
 20
-22.7253461309
 30
0.0
 10
8.6677420997
 20
-22.6557963973
 30
0.0
 10
8.4397711249
 20
-22.463931647
 30
0.0
 10
8.1736906115
 20
-22.100325448
 30
0.0
 10
7.991840129
 20
-21.6880949412
 30
0.0
 10
7.9396698699
 20
-21.3947398225
 30
0.0
 10
7.9396698727
 20
-21.2556522867
 30
0.0
  0
SPLINE
  5
4C5
100
AcDbEntity
  8
ASSI
100
AcDbSpline
 62
7
  6
CONTINUOUS
 70
0
 71
3
 72
9
 73
5
 74
0
 42
0.0000001
 43
0.0000001
 44
0.0000000001
 40
0.0
 40
0.0
 40
0.0
 40
0.0
 40
0.2314181671
 40
1.0
 40
1.0
 40
1.0
 40
1.0
 10
-23.6828657385
 20
25.1940329276
 30
0.0
 10
-23.692306557
 20
25.1709421103
 30
0.0
 10
-23.7270295664
 20
25.0686737828
 30
0.0
 10
-23.7387139243
 20
24.9595527166
 30
0.0
 10
-23.7387139244
 20
24.876701715
 30
0.0
  0
SPLINE
  5
4C6
100
AcDbEntity
  8
ASSI
100
AcDbSpline
 62
7
  6
CONTINUOUS
 70
0
 71
3
 72
15
 73
11
 74
0
 42
0.0000001
 43
0.0000001
 44
0.0000000001
 40
0.0
 40
0.0
 40
0.0
 40
0.0
 40
0.144901866
 40
0.2745170643
 40
0.391105345
 40
0.4999889054
 40
0.6088744816
 40
0.7254681215
 40
0.8550905292
 40
1.0
 40
1.0
 40
1.0
 40
1.0
 10
19.1119570155
 20
-11.3770247804
 30
0.0
 10
19.1119570137
 20
-11.4631883116
 30
0.0
 10
19.0989365562
 20
-11.6269968597
 30
0.0
 10
19.0325617504
 20
-11.8520029185
 30
0.0
 10
18.9207907673
 20
-12.0347123772
 30
0.0
 10
18.7656413124
 20
-12.1651916993
 30
0.0
 10
18.5750575158
 20
-12.2342945786
 30
0.0
 10
18.360932357
 20
-12.2397175639
 30
0.0
 10
18.132875922
 20
-12.1846807052
 30
0.0
 10
17.9844980086
 20
-12.114043551
 30
0.0
 10
17.9098754874
 20
-12.0709574423
 30
0.0
  0
SPLINE
  5
4C7
100
AcDbEntity
  8
ASSI
100
AcDbSpline
 62
7
  6
CONTINUOUS
 70
0
 71
3
 72
11
 73
7
 74
0
 42
0.0000001
 43
0.0000001
 44
0.0000000001
 40
0.0
 40
0.0
 40
0.0
 40
0.0
 40
0.2845759374
 40
0.5442323343
 40
0.7808561232
 40
1.0
 40
1.0
 40
1.0
 40
1.0
 10
-7.970232704
 20
-1.1287722278
 30
0.0
 10
-7.9702327038
 20
-1.0776206078
 30
0.0
 10
-7.9636429438
 20
-0.9795805921
 30
0.0
 10
-7.9308748032
 20
-0.8422990696
 30
0.0
 10
-7.8760599898
 20
-0.7248686177
 30
0.0
 10
-7.8237741463
 20
-0.6603624109
 30
0.0
 10
-7.794890574
 20
-0.6335791316
 30
0.0
  0
SPLINE
  5
4C8
100
AcDbEntity
  8
ASSI
100
AcDbSpline
 62
7
  6
CONTINUOUS
 70
0
 71
3
 72
9
 73
5
 74
0
 42
0.0000001
 43
0.0000001
 44
0.0000000001
 40
0.0
 40
0.0
 40
0.0
 40
0.0
 40
0.2698109577
 40
1.0
 40
1.0
 40
1.0
 40
1.0
 10
2.4949476576
 20
-18.9283924129
 30
0.0
 10
2.5201336066
 20
-18.9429344642
 30
0.0
 10
2.6154099879
 20
-18.9931596642
 30
0.0
 10
2.7197909721
 20
-19.0280962184
 30
0.0
 10
2.7977768003
 20
-19.0387225237
 30
0.0
  0
SPLINE
  5
4C9
100
AcDbEntity
  8
ASSI
100
AcDbSpline
 62
7
  6
CONTINUOUS
 70
0
 71
3
 72
11
 73
7
 74
0
 42
0.0000001
 43
0.0000001
 44
0.0000000001
 40
0.0
 40
0.0
 40
0.0
 40
0.0
 40
0.2372134857
 40
0.4999938933
 40
0.7627776251
 40
1.0
 40
1.0
 40
1.0
 40
1.0
 10
-7.8288113477
 20
-11.9878190182
 30
0.0
 10
-7.8288113475
 20
-12.1269065808
 30
0.0
 10
-7.7766410851
 20
-12.4202616991
 30
0.0
 10
-7.5947906045
 20
-12.8324921731
 30
0.0
 10
-7.3287101179
 20
-13.1960983553
 30
0.0
 10
-7.1007391461
 20
-13.3879631138
 30
0.0
 10
-6.9802832103
 20
-13.4575128623
 30
0.0
  0
SPLINE
  5
4CA
100
AcDbEntity
  8
ASSI
100
AcDbSpline
 62
7
  6
CONTINUOUS
 70
0
 71
3
 72
11
 73
7
 74
0
 42
0.0000001
 43
0.0000001
 44
0.0000000001
 40
0.0
 40
0.0
 40
0.0
 40
0.0
 40
0.2372223247
 40
0.5000061052
 40
0.7627865602
 40
1.0
 40
1.0
 40
1.0
 40
1.0
 10
-7.1217045666
 20
-13.539167781
 30
0.0
 10
-7.242160477
 20
-13.4696180474
 30
0.0
 10
-7.4701314518
 20
-13.2777532971
 30
0.0
 10
-7.7362119652
 20
-12.9141470981
 30
0.0
 10
-7.9180624477
 20
-12.5019165913
 30
0.0
 10
-7.9702327068
 20
-12.2085614726
 30
0.0
 10
-7.970232704
 20
-12.0694739368
 30
0.0
  0
SPLINE
  5
4CB
100
AcDbEntity
  8
ASSI
100
AcDbSpline
 62
7
  6
CONTINUOUS
 70
0
 71
3
 72
15
 73
11
 74
0
 42
0.0000001
 43
0.0000001
 44
0.0000000001
 40
0.0
 40
0.0
 40
0.0
 40
0.0
 40
0.144901866
 40
0.2745170643
 40
0.391105345
 40
0.4999889054
 40
0.6088744816
 40
0.7254681215
 40
0.8550905292
 40
1.0
 40
1.0
 40
1.0
 40
1.0
 10
-8.6773394852
 20
15.6088684464
 30
0.0
 10
-8.6773394835
 20
15.6950319777
 30
0.0
 10
-8.6643190259
 20
15.8588405257
 30
0.0
 10
-8.5979442201
 20
16.0838465846
 30
0.0
 10
-8.486173237
 20
16.2665560433
 30
0.0
 10
-8.3310237821
 20
16.3970353654
 30
0.0
 10
-8.1404399855
 20
16.4661382447
 30
0.0
 10
-7.9263148267
 20
16.47156123
 30
0.0
 10
-7.6982583917
 20
16.4165243712
 30
0.0
 10
-7.5498804783
 20
16.3458872171
 30
0.0
 10
-7.4752579572
 20
16.3028011083
 30
0.0
  0
SPLINE
  5
4CC
100
AcDbEntity
  8
ASSI
100
AcDbSpline
 62
7
  6
CONTINUOUS
 70
0
 71
3
 72
11
 73
7
 74
0
 42
0.0000001
 43
0.0000001
 44
0.0000000001
 40
0.0
 40
0.0
 40
0.0
 40
0.0
 40
0.2845760135
 40
0.5442324186
 40
0.7808561624
 40
1.0
 40
1.0
 40
1.0
 40
1.0
 10
-23.8801352807
 20
24.7950467963
 30
0.0
 10
-23.8801352817
 20
24.8461985342
 30
0.0
 10
-23.8735454905
 20
24.9442387663
 30
0.0
 10
-23.8407771954
 20
25.0815205598
 30
0.0
 10
-23.7859621214
 20
25.1989511744
 30
0.0
 10
-23.7336760352
 20
25.2634573925
 30
0.0
 10
-23.7047923387
 20
25.2902406456
 30
0.0
  0
SPLINE
  5
4CD
100
AcDbEntity
  8
ASSI
100
AcDbSpline
 62
7
  6
CONTINUOUS
 70
0
 71
3
 72
11
 73
7
 74
0
 42
0.0000001
 43
0.0000001
 44
0.0000000001
 40
0.0
 40
0.0
 40
0.0
 40
0.0
 40
0.2372223294
 40
0.5000061084
 40
0.762786565
 40
1.0
 40
1.0
 40
1.0
 40
1.0
 10
-23.0316071433
 20
12.3846512431
 30
0.0
 10
-23.1520630577
 20
12.4542009753
 30
0.0
 10
-23.3800340313
 20
12.6460657319
 30
0.0
 10
-23.6461145455
 20
13.0096719322
 30
0.0
 10
-23.8279650273
 20
13.4219024376
 30
0.0
 10
-23.8801352802
 20
13.7152575543
 30
0.0
 10
-23.8801352807
 20
13.8543450873
 30
0.0
  0
SPLINE
  5
4CE
100
AcDbEntity
  8
ASSI
100
AcDbSpline
 62
7
  6
CONTINUOUS
 70
0
 71
3
 72
11
 73
7
 74
0
 42
0.0000001
 43
0.0000001
 44
0.0000000001
 40
0.0
 40
0.0
 40
0.0
 40
0.0
 40
0.2845759374
 40
0.5442323343
 40
0.7808561232
 40
1.0
 40
1.0
 40
1.0
 40
1.0
 10
-23.8801352807
 20
8.0574061221
 30
0.0
 10
-23.8801352805
 20
8.108557742
 30
0.0
 10
-23.8735455205
 20
8.2065977578
 30
0.0
 10
-23.8407773799
 20
8.3438792803
 30
0.0
 10
-23.7859625665
 20
8.4613097321
 30
0.0
 10
-23.733676723
 20
8.5258159389
 30
0.0
 10
-23.7047931507
 20
8.5525992183
 30
0.0
  0
SPLINE
  5
4CF
100
AcDbEntity
  8
ASSI
100
AcDbSpline
 62
7
  6
CONTINUOUS
 70
0
 71
3
 72
9
 73
5
 74
0
 42
0.0000001
 43
0.0000001
 44
0.0000000001
 40
0.0
 40
0.0
 40
0.0
 40
0.0
 40
0.2698109577
 40
1.0
 40
1.0
 40
1.0
 40
1.0
 10
-13.4149549191
 20
-9.742214063
 30
0.0
 10
-13.3897689701
 20
-9.7567561143
 30
0.0
 10
-13.2944925888
 20
-9.8069813144
 30
0.0
 10
-13.1901116046
 20
-9.8419178686
 30
0.0
 10
-13.1121257764
 20
-9.8525441738
 30
0.0
  0
SPLINE
  5
4D0
100
AcDbEntity
  8
ASSI
100
AcDbSpline
 62
7
  6
CONTINUOUS
 70
0
 71
3
 72
11
 73
7
 74
0
 42
0.0000001
 43
0.0000001
 44
0.0000000001
 40
0.0
 40
0.0
 40
0.0
 40
0.0
 40
0.2372134857
 40
0.4999938933
 40
0.7627776251
 40
1.0
 40
1.0
 40
1.0
 40
1.0
 10
-23.7387139244
 20
-2.8016406683
 30
0.0
 10
-23.7387139242
 20
-2.940728231
 30
0.0
 10
-23.6865436618
 20
-3.2340833493
 30
0.0
 10
-23.5046931812
 20
-3.6463138232
 30
0.0
 10
-23.2386126946
 20
-4.0099200054
 30
0.0
 10
-23.0106417228
 20
-4.2017847639
 30
0.0
 10
-22.890185787
 20
-4.2713345124
 30
0.0
  0
SPLINE
  5
4D1
100
AcDbEntity
  8
ASSI
100
AcDbSpline
 62
7
  6
CONTINUOUS
 70
0
 71
3
 72
11
 73
7
 74
0
 42
0.0000001
 43
0.0000001
 44
0.0000000001
 40
0.0
 40
0.0
 40
0.0
 40
0.0
 40
0.2372223247
 40
0.5000061052
 40
0.7627865602
 40
1.0
 40
1.0
 40
1.0
 40
1.0
 10
-23.0316071433
 20
-4.3529894311
 30
0.0
 10
-23.1520630537
 20
-4.2834396975
 30
0.0
 10
-23.3800340285
 20
-4.0915749472
 30
0.0
 10
-23.6461145419
 20
-3.7279687482
 30
0.0
 10
-23.8279650244
 20
-3.3157382415
 30
0.0
 10
-23.8801352835
 20
-3.0223831227
 30
0.0
 10
-23.8801352807
 20
-2.883295587
 30
0.0
  0
SPLINE
  5
4D2
100
AcDbEntity
  8
ASSI
100
AcDbSpline
 62
7
  6
CONTINUOUS
 70
0
 71
3
 72
15
 73
11
 74
0
 42
0.0000001
 43
0.0000001
 44
0.0000000001
 40
0.0
 40
0.0
 40
0.0
 40
0.0
 40
0.1449018606
 40
0.274517057
 40
0.3911053392
 40
0.4999889011
 40
0.6088744758
 40
0.7254681141
 40
0.8550905238
 40
1.0
 40
1.0
 40
1.0
 40
1.0
 10
19.1119570155
 20
-28.1146654546
 30
0.0
 10
19.1119570158
 20
-28.2008289827
 30
0.0
 10
19.0989365558
 20
-28.3646375263
 30
0.0
 10
19.0325617547
 20
-28.5896435824
 30
0.0
 10
18.9207907738
 20
-28.7723530432
 30
0.0
 10
18.7656413208
 20
-28.9028323687
 30
0.0
 10
18.5750575262
 20
-28.9719352514
 30
0.0
 10
18.3609323681
 20
-28.9773582396
 30
0.0
 10
18.1328759284
 20
-28.9223213835
 30
0.0
 10
17.9844980123
 20
-28.8516842251
 30
0.0
 10
17.9098754874
 20
-28.8085981165
 30
0.0
  0
SPLINE
  5
4D3
100
AcDbEntity
  8
ASSI
100
AcDbSpline
 62
7
  6
CONTINUOUS
 70
0
 71
3
 72
11
 73
7
 74
0
 42
0.0000001
 43
0.0000001
 44
0.0000000001
 40
0.0
 40
0.0
 40
0.0
 40
0.0
 40
0.2372134853
 40
0.499993893
 40
0.7627776247
 40
1.0
 40
1.0
 40
1.0
 40
1.0
 10
-23.7387139244
 20
13.936000006
 30
0.0
 10
-23.7387139237
 20
13.7969124435
 30
0.0
 10
-23.6865436622
 20
13.5035573254
 30
0.0
 10
-23.5046931814
 20
13.0913268516
 30
0.0
 10
-23.2386126948
 20
12.7277206693
 30
0.0
 10
-23.0106417233
 20
12.5358559101
 30
0.0
 10
-22.890185787
 20
12.4663061618
 30
0.0
  0
SPLINE
  5
4D4
100
AcDbEntity
  8
ASSI
100
AcDbSpline
 62
7
  6
CONTINUOUS
 70
0
 71
3
 72
13
 73
9
 74
0
 42
0.0000001
 43
0.0000001
 44
0.0000000001
 40
0.0
 40
0.0
 40
0.0
 40
0.0
 40
0.114261602
 40
0.2375404911
 40
0.5000060678
 40
0.7624683267
 40
0.8857433366
 40
1.0
 40
1.0
 40
1.0
 40
1.0
 10
-7.4752579572
 20
2.5861004582
 30
0.0
 10
-7.557551954
 20
2.6336159828
 30
0.0
 10
-7.7201137229
 20
2.7475568694
 30
0.0
 10
-8.0244185083
 20
3.0324185228
 30
0.0
 10
-8.3458976342
 20
3.4714958123
 30
0.0
 10
-8.5654097775
 20
3.9694405838
 30
0.0
 10
-8.6599490666
 20
4.3753981702
 30
0.0
 10
-8.6773394855
 20
4.5731443904
 30
0.0
 10
-8.6773394852
 20
4.6681667374
 30
0.0
  0
SPLINE
  5
4D5
100
AcDbEntity
  8
ASSI
100
AcDbSpline
 62
7
  6
CONTINUOUS
 70
0
 71
3
 72
9
 73
5
 74
0
 42
0.0000001
 43
0.0000001
 44
0.0000000001
 40
0.0
 40
0.0
 40
0.0
 40
0.0
 40
0.2698109559
 40
1.0
 40
1.0
 40
1.0
 40
1.0
 10
-13.4149549191
 20
6.9954266112
 30
0.0
 10
-13.3897689702
 20
6.9808845602
 30
0.0
 10
-13.2944925893
 20
6.9306593593
 30
0.0
 10
-13.1901116047
 20
6.8957228063
 30
0.0
 10
-13.1121257765
 20
6.8850965006
 30
0.0
  0
SPLINE
  5
4D6
100
AcDbEntity
  8
ASSI
100
AcDbSpline
 62
7
  6
CONTINUOUS
 70
0
 71
3
 72
9
 73
5
 74
0
 42
0.0000001
 43
0.0000001
 44
0.0000000001
 40
0.0
 40
0.0
 40
0.0
 40
0.0
 40
0.2698109559
 40
1.0
 40
1.0
 40
1.0
 40
1.0
 10
18.4048502343
 20
-11.3769300885
 30
0.0
 10
18.4300361832
 20
-11.3914721396
 30
0.0
 10
18.5253125641
 20
-11.4416973404
 30
0.0
 10
18.6296935487
 20
-11.4766338934
 30
0.0
 10
18.7076793769
 20
-11.4872601991
 30
0.0
  0
SPLINE
  5
4D7
100
AcDbEntity
  8
ASSI
100
AcDbSpline
 62
7
  6
CONTINUOUS
 70
0
 71
3
 72
9
 73
5
 74
0
 42
0.0000001
 43
0.0000001
 44
0.0000000001
 40
0.0
 40
0.0
 40
0.0
 40
0.0
 40
0.2314181732
 40
1.0
 40
1.0
 40
1.0
 40
1.0
 10
-23.6828657384
 20
8.4563922532
 30
0.0
 10
-23.692306557
 20
8.4333014353
 30
0.0
 10
-23.7270295661
 20
8.3310331077
 30
0.0
 10
-23.738713924
 20
8.2219120417
 30
0.0
 10
-23.7387139244
 20
8.1390610407
 30
0.0
  0
SPLINE
  5
4D8
100
AcDbEntity
  8
ASSI
100
AcDbSpline
 62
7
  6
CONTINUOUS
 70
0
 71
3
 72
11
 73
7
 74
0
 42
0.0000001
 43
0.0000001
 44
0.0000000001
 40
0.0
 40
0.0
 40
0.0
 40
0.0
 40
0.2372134853
 40
0.499993893
 40
0.7627776247
 40
1.0
 40
1.0
 40
1.0
 40
1.0
 10
8.081091229
 20
-4.4363566938
 30
0.0
 10
8.0810912297
 20
-4.5754442562
 30
0.0
 10
8.1332614912
 20
-4.8687993743
 30
0.0
 10
8.3151119719
 20
-5.2810298482
 30
0.0
 10
8.5811924586
 20
-5.6446360304
 30
0.0
 10
8.8091634301
 20
-5.8365007897
 30
0.0
 10
8.9296193664
 20
-5.9060505379
 30
0.0
  0
SPLINE
  5
4D9
100
AcDbEntity
  8
ASSI
100
AcDbSpline
 62
7
  6
CONTINUOUS
 70
0
 71
3
 72
11
 73
7
 74
0
 42
0.0000001
 43
0.0000001
 44
0.0000000001
 40
0.0
 40
0.0
 40
0.0
 40
0.0
 40
0.2372223294
 40
0.5000061084
 40
0.762786565
 40
1.0
 40
1.0
 40
1.0
 40
1.0
 10
8.7881980101
 20
-5.9877054566
 30
0.0
 10
8.6677420957
 20
-5.9181557245
 30
0.0
 10
8.4397711221
 20
-5.7262909679
 30
0.0
 10
8.1736906079
 20
-5.3626847676
 30
0.0
 10
7.9918401261
 20
-4.9504542621
 30
0.0
 10
7.9396698732
 20
-4.6570991454
 30
0.0
 10
7.9396698727
 20
-4.5180116125
 30
0.0
  0
SPLINE
  5
4DA
100
AcDbEntity
  8
ASSI
100
AcDbSpline
 62
7
  6
CONTINUOUS
 70
0
 71
3
 72
11
 73
7
 74
0
 42
0.0000001
 43
0.0000001
 44
0.0000000001
 40
0.0
 40
0.0
 40
0.0
 40
0.0
 40
0.2845760135
 40
0.5442324186
 40
0.7808561624
 40
1.0
 40
1.0
 40
1.0
 40
1.0
 10
7.9396698727
 20
6.4226900966
 30
0.0
 10
7.9396698717
 20
6.4738418345
 30
0.0
 10
7.9462596629
 20
6.5718820665
 30
0.0
 10
7.979027958
 20
6.70916386
 30
0.0
 10
8.033843032
 20
6.8265944746
 30
0.0
 10
8.0861291182
 20
6.8911006927
 30
0.0
 10
8.1150128147
 20
6.9178839458
 30
0.0
  0
SPLINE
  5
4DB
100
AcDbEntity
  8
ASSI
100
AcDbSpline
 62
7
  6
CONTINUOUS
 70
0
 71
3
 72
15
 73
11
 74
0
 42
0.0000001
 43
0.0000001
 44
0.0000000001
 40
0.0
 40
0.0
 40
0.0
 40
0.0
 40
0.144901866
 40
0.2745170643
 40
0.391105345
 40
0.4999889054
 40
0.6088744816
 40
0.7254681215
 40
0.8550905292
 40
1.0
 40
1.0
 40
1.0
 40
1.0
 10
3.2020544388
 20
-2.1908464305
 30
0.0
 10
3.202054437
 20
-2.2770099618
 30
0.0
 10
3.1890339795
 20
-2.4408185098
 30
0.0
 10
3.1226591737
 20
-2.6658245687
 30
0.0
 10
3.0108881906
 20
-2.8485340273
 30
0.0
 10
2.8557387357
 20
-2.9790133494
 30
0.0
 10
2.6651549391
 20
-3.0481162288
 30
0.0
 10
2.4510297803
 20
-3.0535392141
 30
0.0
 10
2.2229733453
 20
-2.9985023553
 30
0.0
 10
2.0745954319
 20
-2.9278652012
 30
0.0
 10
1.9999729107
 20
-2.8847790924
 30
0.0
  0
SPLINE
  5
4DC
100
AcDbEntity
  8
ASSI
100
AcDbSpline
 62
7
  6
CONTINUOUS
 70
0
 71
3
 72
9
 73
5
 74
0
 42
0.0000001
 43
0.0000001
 44
0.0000000001
 40
0.0
 40
0.0
 40
0.0
 40
0.0
 40
0.2314181732
 40
1.0
 40
1.0
 40
1.0
 40
1.0
 10
-7.7729631617
 20
-0.7297860967
 30
0.0
 10
-7.7824039803
 20
-0.7528769146
 30
0.0
 10
-7.8171269894
 20
-0.8551452422
 30
0.0
 10
-7.8288113473
 20
-0.9642663082
 30
0.0
 10
-7.8288113477
 20
-1.0471173091
 30
0.0
  0
SPLINE
  5
4DD
100
AcDbEntity
  8
ASSI
100
AcDbSpline
 62
7
  6
CONTINUOUS
 70
0
 71
3
 72
15
 73
11
 74
0
 42
0.0000001
 43
0.0000001
 44
0.0000000001
 40
0.0
 40
0.0
 40
0.0
 40
0.0
 40
0.1449018606
 40
0.274517057
 40
0.3911053392
 40
0.4999889011
 40
0.6088744758
 40
0.7254681141
 40
0.8550905238
 40
1.0
 40
1.0
 40
1.0
 40
1.0
 10
7.2325630915
 20
-10.3149505777
 30
0.0
 10
7.2325630912
 20
-10.2287870496
 30
0.0
 10
7.2455835511
 20
-10.064978506
 30
0.0
 10
7.3119583523
 20
-9.8399724499
 30
0.0
 10
7.4237293332
 20
-9.6572629891
 30
0.0
 10
7.5788787862
 20
-9.5267836636
 30
0.0
 10
7.7694625808
 20
-9.4576807809
 30
0.0
 10
7.9835877388
 20
-9.4522577927
 30
0.0
 10
8.2116441785
 20
-9.5072946488
 30
0.0
 10
8.3600220947
 20
-9.5779318072
 30
0.0
 10
8.4346446195
 20
-9.6210179158
 30
0.0
  0
SPLINE
  5
4DE
100
AcDbEntity
  8
ASSI
100
AcDbSpline
 62
7
  6
CONTINUOUS
 70
0
 71
3
 72
9
 73
5
 74
0
 42
0.0000001
 43
0.0000001
 44
0.0000000001
 40
0.0
 40
0.0
 40
0.0
 40
0.0
 40
0.2314181732
 40
1.0
 40
1.0
 40
1.0
 40
1.0
 10
8.136939415
 20
-9.9159644465
 30
0.0
 10
8.1274985964
 20
-9.9390552644
 30
0.0
 10
8.0927755873
 20
-10.041323592
 30
0.0
 10
8.0810912294
 20
-10.150444658
 30
0.0
 10
8.081091229
 20
-10.233295659
 30
0.0
  0
SPLINE
  5
4DF
100
AcDbEntity
  8
ASSI
100
AcDbSpline
 62
7
  6
CONTINUOUS
 70
0
 71
3
 72
13
 73
9
 74
0
 42
0.0000001
 43
0.0000001
 44
0.0000000001
 40
0.0
 40
0.0
 40
0.0
 40
0.0
 40
0.1142615975
 40
0.2375404836
 40
0.5000060625
 40
0.7624683192
 40
0.885743332
 40
1.0
 40
1.0
 40
1.0
 40
1.0
 10
8.4346446195
 20
-23.3377185659
 30
0.0
 10
8.3523506249
 20
-23.2902030451
 30
0.0
 10
8.1897888626
 20
-23.1762621597
 30
0.0
 10
7.8854840776
 20
-22.8914005129
 30
0.0
 10
7.5640049508
 20
-22.4523232262
 30
0.0
 10
7.3444928046
 20
-21.9543784541
 30
0.0
 10
7.24995351
 20
-21.548420864
 30
0.0
 10
7.2325630934
 20
-21.3506746375
 30
0.0
 10
7.2325630915
 20
-21.2556522867
 30
0.0
  0
SPLINE
  5
4E0
100
AcDbEntity
  8
ASSI
100
AcDbSpline
 62
7
  6
CONTINUOUS
 70
0
 71
3
 72
15
 73
11
 74
0
 42
0.0000001
 43
0.0000001
 44
0.0000000001
 40
0.0
 40
0.0
 40
0.0
 40
0.0
 40
0.144901866
 40
0.2745170643
 40
0.391105345
 40
0.4999889054
 40
0.6088744816
 40
0.7254681215
 40
0.8550905292
 40
1.0
 40
1.0
 40
1.0
 40
1.0
 10
-24.5872420619
 20
24.7950467963
 30
0.0
 10
-24.5872420602
 20
24.8812103276
 30
0.0
 10
-24.5742216026
 20
25.0450188756
 30
0.0
 10
-24.5078467968
 20
25.2700249345
 30
0.0
 10
-24.3960758137
 20
25.4527343931
 30
0.0
 10
-24.2409263588
 20
25.5832137152
 30
0.0
 10
-24.0503425622
 20
25.6523165946
 30
0.0
 10
-23.8362174034
 20
25.6577395799
 30
0.0
 10
-23.6081609684
 20
25.6027027211
 30
0.0
 10
-23.459783055
 20
25.532065567
 30
0.0
 10
-23.3851605339
 20
25.4889794582
 30
0.0
  0
SPLINE
  5
4E1
100
AcDbEntity
  8
ASSI
100
AcDbSpline
 62
7
  6
CONTINUOUS
 70
0
 71
3
 72
9
 73
5
 74
0
 42
0.0000001
 43
0.0000001
 44
0.0000000001
 40
0.0
 40
0.0
 40
0.0
 40
0.0
 40
0.2698109559
 40
1.0
 40
1.0
 40
1.0
 40
1.0
 10
2.4949476576
 20
-2.1907517387
 30
0.0
 10
2.5201336065
 20
-2.2052937897
 30
0.0
 10
2.6154099874
 20
-2.2555189905
 30
0.0
 10
2.719790972
 20
-2.2904555435
 30
0.0
 10
2.7977768002
 20
-2.3010818493
 30
0.0
  0
SPLINE
  5
4E2
100
AcDbEntity
  8
ASSI
100
AcDbSpline
 62
7
  6
CONTINUOUS
 70
0
 71
3
 72
9
 73
5
 74
0
 42
0.0000001
 43
0.0000001
 44
0.0000000001
 40
0.0
 40
0.0
 40
0.0
 40
0.0
 40
0.2314181671
 40
1.0
 40
1.0
 40
1.0
 40
1.0
 10
8.1369394149
 20
6.8216762278
 30
0.0
 10
8.1274985964
 20
6.7985854106
 30
0.0
 10
8.092775587
 20
6.696317083
 30
0.0
 10
8.0810912291
 20
6.5871960169
 30
0.0
 10
8.081091229
 20
6.5043450152
 30
0.0
  0
SPLINE
  5
4E3
100
AcDbEntity
  8
ASSI
100
AcDbSpline
 62
7
  6
CONTINUOUS
 70
0
 71
3
 72
11
 73
7
 74
0
 42
0.0000001
 43
0.0000001
 44
0.0000000001
 40
0.0
 40
0.0
 40
0.0
 40
0.0
 40
0.2372134853
 40
0.499993893
 40
0.7627776247
 40
1.0
 40
1.0
 40
1.0
 40
1.0
 10
-7.8288113477
 20
4.7498216561
 30
0.0
 10
-7.828811347
 20
4.6107340936
 30
0.0
 10
-7.7766410855
 20
4.3173789755
 30
0.0
 10
-7.5947906047
 20
3.9051485017
 30
0.0
 10
-7.3287101181
 20
3.5415423195
 30
0.0
 10
-7.1007391466
 20
3.3496775602
 30
0.0
 10
-6.9802832103
 20
3.2801278119
 30
0.0
  0
SPLINE
  5
4E4
100
AcDbEntity
  8
ASSI
100
AcDbSpline
 62
7
  6
CONTINUOUS
 70
0
 71
3
 72
11
 73
7
 74
0
 42
0.0000001
 43
0.0000001
 44
0.0000000001
 40
0.0
 40
0.0
 40
0.0
 40
0.0
 40
0.2372223294
 40
0.5000061084
 40
0.762786565
 40
1.0
 40
1.0
 40
1.0
 40
1.0
 10
-7.1217045666
 20
3.1984728933
 30
0.0
 10
-7.242160481
 20
3.2680226254
 30
0.0
 10
-7.4701314546
 20
3.459887382
 30
0.0
 10
-7.7362119688
 20
3.8234935823
 30
0.0
 10
-7.9180624506
 20
4.2357240878
 30
0.0
 10
-7.9702327035
 20
4.5290792045
 30
0.0
 10
-7.970232704
 20
4.6681667374
 30
0.0
  0
SPLINE
  5
4E5
100
AcDbEntity
  8
ASSI
100
AcDbSpline
 62
7
  6
CONTINUOUS
 70
0
 71
3
 72
11
 73
7
 74
0
 42
0.0000001
 43
0.0000001
 44
0.0000000001
 40
0.0
 40
0.0
 40
0.0
 40
0.0
 40
0.2845760135
 40
0.5442324186
 40
0.7808561624
 40
1.0
 40
1.0
 40
1.0
 40
1.0
 10
-7.970232704
 20
15.6088684464
 30
0.0
 10
-7.970232705
 20
15.6600201844
 30
0.0
 10
-7.9636429138
 20
15.7580604164
 30
0.0
 10
-7.9308746187
 20
15.8953422099
 30
0.0
 10
-7.8760595447
 20
16.0127728245
 30
0.0
 10
-7.8237734585
 20
16.0772790426
 30
0.0
 10
-7.794889762
 20
16.1040622957
 30
0.0
  0
SPLINE
  5
4E6
100
AcDbEntity
  8
CURVE
100
AcDbSpline
 62
250
  6
CONTINUOUS
 70
0
 71
3
 72
9
 73
5
 74
0
 42
0.0000001
 43
0.0000001
 44
0.0000000001
 40
0.0
 40
0.0
 40
0.0
 40
0.0
 40
0.5206208722
 40
1.0
 40
1.0
 40
1.0
 40
1.0
 10
31.311956114
 20
-42.673834402
 30
0.0
 10
31.3909898517
 20
-42.6299194129
 30
0.0
 10
31.5636382742
 20
-42.5992931402
 30
0.0
 10
31.5944309669
 20
-42.7714504488
 30
0.0
 10
31.5960561922
 20
-42.8518072462
 30
0.0
  0
SPLINE
  5
4E7
100
AcDbEntity
  8
CURVE
100
AcDbSpline
 62
250
  6
CONTINUOUS
 70
0
 71
3
 72
9
 73
5
 74
0
 42
0.0000001
 43
0.0000001
 44
0.0000000001
 40
0.0
 40
0.0
 40
0.0
 40
0.0
 40
0.5013510385
 40
1.0
 40
1.0
 40
1.0
 40
1.0
 10
31.0834202697
 20
-43.0375381302
 30
0.0
 10
31.0899137386
 20
-42.9716025595
 30
0.0
 10
31.1391682954
 20
-42.818791936
 30
0.0
 10
31.2559606702
 20
-42.7049613334
 30
0.0
 10
31.311956114
 20
-42.673834402
 30
0.0
  0
SPLINE
  5
4E8
100
AcDbEntity
  8
CURVE
100
AcDbSpline
 62
250
  6
CONTINUOUS
 70
0
 71
3
 72
9
 73
5
 74
0
 42
0.0000001
 43
0.0000001
 44
0.0000000001
 40
0.0
 40
0.0
 40
0.0
 40
0.0
 40
0.2703953699
 40
1.0
 40
1.0
 40
1.0
 40
1.0
 10
31.0941821556
 20
-43.3654985228
 30
0.0
 10
31.0896372916
 20
-43.3382106368
 30
0.0
 10
31.0746895961
 20
-43.2359463649
 30
0.0
 10
31.0750140937
 20
-43.1229144926
 30
0.0
 10
31.0834202697
 20
-43.0375381302
 30
0.0
  0
SPLINE
  5
4E9
100
AcDbEntity
  8
CURVE
100
AcDbSpline
 62
250
  6
CONTINUOUS
 70
0
 71
3
 72
9
 73
5
 74
0
 42
0.0000001
 43
0.0000001
 44
0.0000000001
 40
0.0
 40
0.0
 40
0.0
 40
0.0
 40
0.2957417834
 40
1.0
 40
1.0
 40
1.0
 40
1.0
 10
30.8233390757
 20
-42.8701413661
 30
0.0
 10
30.791578571
 20
-42.9853850522
 30
0.0
 10
30.7398070553
 20
-43.3660250887
 30
0.0
 10
30.7716930226
 20
-43.7034724693
 30
0.0
 10
30.8040910657
 20
-43.9318778059
 30
0.0
  0
SPLINE
  5
4EA
100
AcDbEntity
  8
CURVE
100
AcDbSpline
 62
250
  6
CONTINUOUS
 70
0
 71
3
 72
17
 73
13
 74
0
 42
0.0000001
 43
0.0000001
 44
0.0000000001
 40
0.0
 40
0.0
 40
0.0
 40
0.0
 40
0.0559780952
 40
0.1687540387
 40
0.321006234
 40
0.4122750837
 40
0.516613223
 40
0.6013931059
 40
0.6776022439
 40
0.8103422694
 40
0.9200404832
 40
1.0
 40
1.0
 40
1.0
 40
1.0
 10
31.7467363042
 20
-42.3290383212
 30
0.0
 10
31.7440165647
 20
-42.3069716071
 30
0.0
 10
31.7018199754
 20
-42.2698782308
 30
0.0
 10
31.6213815043
 20
-42.2139952678
 30
0.0
 10
31.4975589668
 20
-42.2076265337
 30
0.0
 10
31.3683840331
 20
-42.2446406605
 30
0.0
 10
31.2611715346
 20
-42.2993095393
 30
0.0
 10
31.1610359307
 20
-42.3693341917
 30
0.0
 10
31.05463404
 20
-42.4656669913
 30
0.0
 10
30.9503578674
 20
-42.5951435492
 30
0.0
 10
30.8688111613
 20
-42.7425890946
 30
0.0
 10
30.8336408138
 20
-42.8327150808
 30
0.0
 10
30.8233390757
 20
-42.8701413661
 30
0.0
  0
SPLINE
  5
4EB
100
AcDbEntity
  8
CURVE
100
AcDbSpline
 62
250
  6
CONTINUOUS
 70
0
 71
3
 72
9
 73
5
 74
0
 42
0.0000001
 43
0.0000001
 44
0.0000000001
 40
0.0
 40
0.0
 40
0.0
 40
0.0
 40
0.2426586216
 40
1.0
 40
1.0
 40
1.0
 40
1.0
 10
32.116108905
 20
-41.8845920253
 30
0.0
 10
32.0828876024
 20
-41.9125829217
 30
0.0
 10
31.9487318869
 20
-42.0234103325
 30
0.0
 10
31.7973424778
 20
-42.1903537264
 30
0.0
 10
31.7575393183
 20
-42.3232217351
 30
0.0
  0
SPLINE
  5
4EC
100
AcDbEntity
  8
CURVE
100
AcDbSpline
 62
250
  6
CONTINUOUS
 70
0
 71
3
 72
9
 73
5
 74
0
 42
0.0000001
 43
0.0000001
 44
0.0000000001
 40
0.0
 40
0.0
 40
0.0
 40
0.0
 40
0.1980141723
 40
1.0
 40
1.0
 40
1.0
 40
1.0
 10
32.6109225961
 20
-41.4725313766
 30
0.0
 10
32.578327284
 20
-41.4999645292
 30
0.0
 10
32.4133462758
 20
-41.6371673779
 30
0.0
 10
32.2480962628
 20
-41.773382783
 30
0.0
 10
32.116108905
 20
-41.8845920253
 30
0.0
  0
SPLINE
  5
4ED
100
AcDbEntity
  8
CURVE
100
AcDbSpline
 62
250
  6
CONTINUOUS
 70
0
 71
3
 72
9
 73
5
 74
0
 42
0.0000001
 43
0.0000001
 44
0.0000000001
 40
0.0
 40
0.0
 40
0.0
 40
0.0
 40
0.5586214172
 40
1.0
 40
1.0
 40
1.0
 40
1.0
 10
32.0565552332
 20
-42.3670967632
 30
0.0
 10
32.1574741181
 20
-42.2704334397
 30
0.0
 10
32.3443474061
 20
-42.1141537748
 30
0.0
 10
32.5290591845
 20
-41.952673498
 30
0.0
 10
32.6109225961
 20
-41.8823211546
 30
0.0
  0
SPLINE
  5
4EE
100
AcDbEntity
  8
CURVE
100
AcDbSpline
 62
250
  6
CONTINUOUS
 70
0
 71
3
 72
9
 73
5
 74
0
 42
0.0000001
 43
0.0000001
 44
0.0000000001
 40
0.0
 40
0.0
 40
0.0
 40
0.0
 40
0.3559141631
 40
1.0
 40
1.0
 40
1.0
 40
1.0
 10
31.89546968
 20
-42.691514577
 30
0.0
 10
31.89546968
 20
-42.6543892781
 30
0.0
 10
31.9156066418
 20
-42.5367475552
 30
0.0
 10
32.0002118442
 20
-42.4210392042
 30
0.0
 10
32.0565552332
 20
-42.3670967632
 30
0.0
  0
ELLIPSE
  5
4EF
100
AcDbEntity
  8
0
100
AcDbEllipse
 62
7
  6
CONTINUOUS
 10
18.294971831
 20
-26.4011284745
 30
0.0
 11
0.1998333781
 21
-0.0157785196
 31
0.0
 40
0.5172961965
 41
0.8262203412
 42
2.3446567905
  0
ELLIPSE
  5
4F0
100
AcDbEntity
  8
0
100
AcDbEllipse
 62
7
  6
CONTINUOUS
 10
-13.5248333224
 20
-8.0287717747
 30
0.0
 11
0.1998333781
 21
-0.0157785196
 31
0.0
 40
0.5172961965
 41
0.8262203412
 42
2.3446567905
  0
ENDSEC
  0
SECTION
  2
OBJECTS
  0
DICTIONARY
  5
C
100
AcDbDictionary
280
0
281
1
  3
ACAD_GROUP
350
D
  3
ACAD_MLINESTYLE
350
17
  3
ACAD_LAYOUT
350
1A
  3
ACAD_PLOTSETTINGS
350
19
  3
ACAD_PLOTSTYLENAME
350
E
  0
DICTIONARY
  5
D
102
{ACAD_REACTORS
330
C
102
}
100
AcDbDictionary
280
0
281
1
  0
ACDBDICTIONARYWDFLT
  5
E
102
{ACAD_REACTORS
330
C
102
}
100
AcDbDictionary
281
1
  3
Normal
350
F
100
AcDbDictionaryWithDefault
340
F
  0
DICTIONARY
  5
17
102
{ACAD_REACTORS
330
C
102
}
100
AcDbDictionary
280
0
281
1
  3
Standard
350
18
  0
DICTIONARY
  5
19
102
{ACAD_REACTORS
330
C
102
}
100
AcDbDictionary
281
1
  0
DICTIONARY
  5
1A
102
{ACAD_REACTORS
330
C
102
}
100
AcDbDictionary
281
1
  3
Model
350
4F1
  3
Layout1
350
4F2
  0
ACDBPLACEHOLDER
  5
F
102
{ACAD_REACTORS
330
E
102
}
  0
MLINESTYLE
  5
18
102
{ACAD_REACTORS
330
17
102
}
100
AcDbMlineStyle
  2
STANDARD
 70
0
  3

 62
256
 51
90.0
 52
90.0
 71
2
 49
0.5
 62
256
  6
BYLAYER
 49
-0.5
 62
256
  6
BYLAYER
  0
LAYOUT
  5
4F1
102
{ACAD_REACTORS
330
1A
102
}
100
AcDbPlotSettings
  1

  2
none_device
  4
ISO_A4_(297.00_x_210.00_MM)
  6

 40
0.0
 41
0.0
 42
0.0
 43
0.0
 44
297.0
 45
210.0
 46
0.0
 47
0.0
 48
0.0
 49
0.0
140
0.0
141
0.0
142
1.0
143
1.0
 70
1024
 72
1
 73
0
 74
0
  7

 75
0
147
1.0
148
0.0
149
0.0
100
AcDbLayout
  1
Model
 70
0
 71
0
 10
0.0
 20
0.0
 11
297.0
 21
210.0
 12
0.0
 22
0.0
 32
0.0
 14
0.0
 24
0.0
 34
0.0
 15
0.0
 25
0.0
 35
0.0
146
0.0
 13
0.0
 23
0.0
 33
0.0
 16
1.0
 26
0.0
 36
0.0
 17
0.0
 27
1.0
 37
0.0
 76
0
330
21E
345
0
346
0
  0
LAYOUT
  5
4F2
102
{ACAD_REACTORS
330
1A
102
}
100
AcDbPlotSettings
  1

  2
none_device
  4
ISO_A4_(297.00_x_210.00_MM)
  6

 40
0.0
 41
0.0
 42
0.0
 43
0.0
 44
297.0
 45
210.0
 46
0.0
 47
0.0
 48
0.0
 49
0.0
140
0.0
141
0.0
142
1.0
143
1.0
 70
0
 72
1
 73
0
 74
0
  7

 75
0
147
1.0
148
0.0
149
0.0
100
AcDbLayout
  1
Layout1
 70
0
 71
1
 10
0.0
 20
0.0
 11
297.0
 21
210.0
 12
0.0
 22
0.0
 32
0.0
 14
0.0
 24
0.0
 34
0.0
 15
0.0
 25
0.0
 35
0.0
146
0.0
 13
0.0
 23
0.0
 33
0.0
 16
1.0
 26
0.0
 36
0.0
 17
0.0
 27
1.0
 37
0.0
 76
0
330
21F
345
0
346
0
  0
ENDSEC
  0
EOF
