  0
SECTION
  2
HEADER
  9
$ACADVER
  1
AC1024
  9
$DWGCODEPAGE
  3
ANSI_1252
  9
$EXTMAX
 10
297.0
 20
210.0
 30
0.0
  9
$EXTMIN
 10
0.0
 20
0.0
 30
0.0
  9
$LIMMIN
 10
0.0
 20
0.0
  9
$LIMMAX
 10
297.0
 20
210.0
  9
$VIEWCTR
 10
148.5
 20
105.0
  9
$VIEWSIZE
 40
210.0
  9
$CLAYER
  8
0
  9
$LTSCALE
 40
16.335
  9
$CELTYPE
  6
BYLAYER
  9
$DIMSCALE
 40
1.0
  9
$DIMASZ
 40
3.0
  9
$DIMEXO
 40
0.5
  9
$DIMDLI
 40
11.286
  9
$DIMEXE
 40
1.5
  9
$DIMCEN
 40
2.673
  9
$DIMLFAC
 40
1.0
  9
$DIMBLK
  1
_FILLED
  9
$DIMALT
 70
0
  9
$DIMALTF
 40
0.0393700787
  9
$DIMTXT
 40
3.0
  9
$DIMTOL
 70
1
  9
$DIMLIM
 70
0
  9
$DIMTFAC
 40
1.0
  9
$DIMTP
 40
0.01
  9
$DIMTM
 40
0.01
  9
$DIMGAP
 40
0.625
  9
$DIMDSEP
 70
44
  9
$AUNITS
 70
0
  9
$PDMODE
 70
3
  9
$PDSIZE
 40
3.0
  9
$HANDSEED
  5
34A
  9
$TILEMODE
 70
1
  9
$MEASUREMENT
 70
1
  9
$INSUNITS
 70
4
  0
ENDSEC
  0
SECTION
  2
CLASSES
  0
CLASS
  1
ACDBDICTIONARYWDFLT
  2
AcDbDictionaryWithDefault
  3
AutoCAD 2000
 90
0
 91
1
280
0
281
0
  0
CLASS
  1
ACDBPLACEHOLDER
  2
AcDbPlaceHolder
  3
AutoCAD 2000
 90
0
 91
1
280
0
281
0
  0
CLASS
  1
LAYOUT
  2
AcDbLayout
  3
AutoCAD 2000
 90
0
 91
0
280
0
281
0
  0
ENDSEC
  0
SECTION
  2
TABLES
  0
TABLE
  2
VPORT
  5
8
100
AcDbSymbolTable
 70
2
  0
VPORT
  5
1F4
100
AcDbSymbolTableRecord
100
AcDbViewportTableRecord
  2
*ACTIVE
 70
0
 10
0.0
 20
0.0
 11
1.0
 21
1.0
 12
148.5
 22
105.0
 13
0.0
 23
0.0
 14
1.0
 24
1.0
 15
0.0
 25
0.0
 16
0.0
 26
0.0
 36
1.0
 17
0.0
 27
0.0
 37
0.0
 40
210.0
 41
1.4142857143
 42
50.0
 43
0.0
 44
0.0
 50
0.0
 51
0.0
 71
0
 72
100
 73
1
 74
1
 75
0
 76
0
 77
0
 78
0
  0
ENDTAB
  0
TABLE
  2
LTYPE
  5
5
100
AcDbSymbolTable
 70
6
  0
LTYPE
  5
14
100
AcDbSymbolTableRecord
100
AcDbLinetypeTableRecord
  2
BYBLOCK
 70
0
  3

 72
65
 73
0
 40
0.0
  0
LTYPE
  5
15
100
AcDbSymbolTableRecord
100
AcDbLinetypeTableRecord
  2
BYLAYER
 70
0
  3

 72
65
 73
0
 40
0.0
  0
LTYPE
  5
16
100
AcDbSymbolTableRecord
100
AcDbLinetypeTableRecord
  2
CONTINUOUS
 70
64
  3
Solid line
 72
65
 73
0
 40
0.0
  0
LTYPE
  5
1F5
100
AcDbSymbolTableRecord
100
AcDbLinetypeTableRecord
  2
CENTER
 70
64
  3
____ _ ____ _ ____ _ ____ _ ____ _ ____ _ ____
 72
65
 73
4
 40
0.6
 49
0.375
 74
0
 49
-0.075
 74
0
 49
0.075
 74
0
 49
-0.075
 74
0
  0
LTYPE
  5
1F6
100
AcDbSymbolTableRecord
100
AcDbLinetypeTableRecord
  2
HIDDEN
 70
64
  3
- - - - - - - - - - - - - - - - - - - -
 72
65
 73
2
 40
0.2
 49
0.1
 74
0
 49
-0.1
 74
0
  0
LTYPE
  5
1F7
100
AcDbSymbolTableRecord
100
AcDbLinetypeTableRecord
  2
PHANTOM
 70
64
  3
_____ _ _ _____ _ _ _____ _ _ _____
 72
65
 73
6
 40
0.8
 49
0.45
 74
0
 49
-0.05
 74
0
 49
0.1
 74
0
 49
-0.05
 74
0
 49
0.1
 74
0
 49
-0.05
 74
0
  0
LTYPE
  5
1F8
100
AcDbSymbolTableRecord
100
AcDbLinetypeTableRecord
  2
DOT
 70
64
  3
. . . . . . . . . . . . . . . . . . . .
 72
65
 73
2
 40
0.2
 49
0.1
 74
0
 49
-0.1
 74
0
  0
LTYPE
  5
1F9
100
AcDbSymbolTableRecord
100
AcDbLinetypeTableRecord
  2
DASHED
 70
64
  3
- - - - - - - - - - - - - - - - - - - -
 72
65
 73
2
 40
0.2
 49
0.1
 74
0
 49
-0.1
 74
0
  0
ENDTAB
  0
TABLE
  2
LAYER
  5
2
100
AcDbSymbolTable
 70
36
  0
LAYER
  5
10
100
AcDbSymbolTableRecord
100
AcDbLayerTableRecord
  2
0
 70
0
 62
7
  6
CONTINUOUS
370
-3
390
F
  0
LAYER
  5
1FA
100
AcDbSymbolTableRecord
100
AcDbLayerTableRecord
  2
DEFAULT_1
 70
0
 62
7
  6
CENTER
370
-3
390
F
  0
LAYER
  5
1FB
100
AcDbSymbolTableRecord
100
AcDbLayerTableRecord
  2
DEFAULT_2
 70
0
 62
7
  6
HIDDEN
370
-3
390
F
  0
LAYER
  5
1FC
100
AcDbSymbolTableRecord
100
AcDbLayerTableRecord
  2
DEFAULT_3
 70
0
 62
7
  6
PHANTOM
370
-3
390
F
  0
LAYER
  5
1FD
100
AcDbSymbolTableRecord
100
AcDbLayerTableRecord
  2
ASSI
 70
0
 62
7
  6
CONTINUOUS
370
-3
390
F
  0
LAYER
  5
1FE
100
AcDbSymbolTableRecord
100
AcDbLayerTableRecord
  2
COORDINATE
 70
0
 62
7
  6
CONTINUOUS
370
-3
390
F
  0
LAYER
  5
1FF
100
AcDbSymbolTableRecord
100
AcDbLayerTableRecord
  2
COORD_ORIGINE
 70
0
 62
7
  6
CONTINUOUS
370
-3
390
F
  0
LAYER
  5
200
100
AcDbSymbolTableRecord
100
AcDbLayerTableRecord
  2
COPY_PUBLISH
 70
0
 62
7
  6
CONTINUOUS
370
-3
390
F
  0
LAYER
  5
201
100
AcDbSymbolTableRecord
100
AcDbLayerTableRecord
  2
COSMETIC
 70
0
 62
7
  6
CONTINUOUS
370
-3
390
F
  0
LAYER
  5
202
100
AcDbSymbolTableRecord
100
AcDbLayerTableRecord
  2
COSMETICI
 70
0
 62
7
  6
CONTINUOUS
370
-3
390
F
  0
LAYER
  5
203
100
AcDbSymbolTableRecord
100
AcDbLayerTableRecord
  2
CURVE
 70
0
 62
7
  6
CONTINUOUS
370
-3
390
F
  0
LAYER
  5
204
100
AcDbSymbolTableRecord
100
AcDbLayerTableRecord
  2
CURVE_COSTRUZIONE
 70
0
 62
7
  6
CONTINUOUS
370
-3
390
F
  0
LAYER
  5
205
100
AcDbSymbolTableRecord
100
AcDbLayerTableRecord
  2
CURVE_TASSELLI
 70
0
 62
7
  6
CONTINUOUS
370
-3
390
F
  0
LAYER
  5
206
100
AcDbSymbolTableRecord
100
AcDbLayerTableRecord
  2
DRAFT
 70
0
 62
7
  6
CONTINUOUS
370
-3
390
F
  0
LAYER
  5
207
100
AcDbSymbolTableRecord
100
AcDbLayerTableRecord
  2
IMPORT_IGES
 70
0
 62
7
  6
CONTINUOUS
370
-3
390
F
  0
LAYER
  5
208
100
AcDbSymbolTableRecord
100
AcDbLayerTableRecord
  2
INTFCLR_2
 70
0
 62
7
  6
CONTINUOUS
370
-3
390
F
  0
LAYER
  5
209
100
AcDbSymbolTableRecord
100
AcDbLayerTableRecord
  2
INTF_1
 70
0
 62
7
  6
CONTINUOUS
370
-3
390
F
  0
LAYER
  5
20A
100
AcDbSymbolTableRecord
100
AcDbLayerTableRecord
  2
INTF_7
 70
0
 62
7
  6
CONTINUOUS
370
-3
390
F
  0
LAYER
  5
20B
100
AcDbSymbolTableRecord
100
AcDbLayerTableRecord
  2
INTF_CYAN
 70
0
 62
7
  6
CONTINUOUS
370
-3
390
F
  0
LAYER
  5
20C
100
AcDbSymbolTableRecord
100
AcDbLayerTableRecord
  2
NOTE
 70
0
 62
7
  6
CONTINUOUS
370
-3
390
F
  0
LAYER
  5
20D
100
AcDbSymbolTableRecord
100
AcDbLayerTableRecord
  2
PIANI
 70
0
 62
7
  6
CONTINUOUS
370
-3
390
F
  0
LAYER
  5
20E
100
AcDbSymbolTableRecord
100
AcDbLayerTableRecord
  2
PIANI_ORIGINE
 70
0
 62
7
  6
CONTINUOUS
370
-3
390
F
  0
LAYER
  5
20F
100
AcDbSymbolTableRecord
100
AcDbLayerTableRecord
  2
PIANI_RIFERIMENTO
 70
0
 62
7
  6
CONTINUOUS
370
-3
390
F
  0
LAYER
  5
210
100
AcDbSymbolTableRecord
100
AcDbLayerTableRecord
  2
PUNTI
 70
0
 62
7
  6
CONTINUOUS
370
-3
390
F
  0
LAYER
  5
211
100
AcDbSymbolTableRecord
100
AcDbLayerTableRecord
  2
RACCORDO
 70
0
 62
7
  6
CONTINUOUS
370
-3
390
F
  0
LAYER
  5
212
100
AcDbSymbolTableRecord
100
AcDbLayerTableRecord
  2
RGB__255__255__255__
 70
0
 62
7
  6
CONTINUOUS
370
-3
390
F
  0
LAYER
  5
213
100
AcDbSymbolTableRecord
100
AcDbLayerTableRecord
  2
RGB____0____0____0__
 70
0
 62
7
  6
CONTINUOUS
370
-3
390
F
  0
LAYER
  5
214
100
AcDbSymbolTableRecord
100
AcDbLayerTableRecord
  2
SIMBOLI
 70
0
 62
7
  6
CONTINUOUS
370
-3
390
F
  0
LAYER
  5
215
100
AcDbSymbolTableRecord
100
AcDbLayerTableRecord
  2
SMUSSO
 70
0
 62
7
  6
CONTINUOUS
370
-3
390
F
  0
LAYER
  5
216
100
AcDbSymbolTableRecord
100
AcDbLayerTableRecord
  2
SUPERFICI
 70
0
 62
7
  6
CONTINUOUS
370
-3
390
F
  0
LAYER
  5
217
100
AcDbSymbolTableRecord
100
AcDbLayerTableRecord
  2
TRASH
 70
0
 62
7
  6
CONTINUOUS
370
-3
390
F
  0
LAYER
  5
218
100
AcDbSymbolTableRecord
100
AcDbLayerTableRecord
  2
XSEC_DATUMS
 70
0
 62
7
  6
CONTINUOUS
370
-3
390
F
  0
ENDTAB
  0
TABLE
  2
STYLE
  5
3
100
AcDbSymbolTable
 70
1
  0
STYLE
  5
11
100
AcDbSymbolTableRecord
100
AcDbTextStyleTableRecord
  2
STANDARD
 70
0
 40
0.0
 41
0.8
 50
0.0
 71
0
 42
0.2
  3
txt
  4

  0
STYLE
  5
219
100
AcDbSymbolTableRecord
100
AcDbTextStyleTableRecord
  2
TEXTSTYLE_1
 70
0
 40
0.0
 41
0.8
 50
0.0
 71
0
 42
0.2
  3
gdt
  4

  0
ENDTAB
  0
TABLE
  2
VIEW
  5
6
100
AcDbSymbolTable
 70
0
  0
ENDTAB
  0
TABLE
  2
UCS
  5
7
100
AcDbSymbolTable
 70
0
  0
ENDTAB
  0
TABLE
  2
APPID
  5
9
100
AcDbSymbolTable
 70
1
  0
APPID
  5
21A
100
AcDbSymbolTableRecord
100
AcDbRegAppTableRecord
  2
ACAD
 70
0
  0
ENDTAB
  0
TABLE
  2
BLOCK_RECORD
  5
1
100
AcDbSymbolTable
 70
0
  0
BLOCK_RECORD
  5
21B
100
AcDbSymbolTableRecord
100
AcDbBlockTableRecord
  2
*Model_Space
  0
BLOCK_RECORD
  5
21C
100
AcDbSymbolTableRecord
100
AcDbBlockTableRecord
  2
*Paper_Space
  0
BLOCK_RECORD
  5
21D
100
AcDbSymbolTableRecord
100
AcDbBlockTableRecord
  2
_FILLED
  0
ENDTAB
  0
TABLE
  2
DIMSTYLE
  5
A
100
AcDbSymbolTable
 70
1
100
AcDbDimStyleTable
 71
0
  0
DIMSTYLE
105
21E
100
AcDbSymbolTableRecord
100
AcDbDimStyleTableRecord
  2
STANDARD
 70
0
  3

  4

 40
1.0
 41
3.0
 42
0.5
 43
0.38
 44
1.5
 45
0.0
 46
0.0
 47
0.01
 48
0.01
140
3.0
141
0.09
142
0.0
143
25.4
144
1.0
145
0.0
146
1.0
147
0.625
 71
1.0
 72
0.0
 73
0
 74
0
 75
0
 76
0
 77
1
 78
8
 79
2
170
0
171
1
172
0
173
0
174
0
175
0
176
0
177
0
178
0
270
2
179
2
271
2
272
2
273
2
274
2
275
0
280
0
281
0
282
0
283
1
284
8
285
0
286
0
287
3
288
0
340
11
278
44
341
21D
342
21D
343
21D
344
21D
  0
ENDTAB
  0
ENDSEC
  0
SECTION
  2
BLOCKS
  0
BLOCK
  5
20
100
AcDbEntity
  8
0
100
AcDbBlockBegin
  2
*Model_Space
 70
0
 10
0.0
 20
0.0
 30
0.0
  3
*Model_Space
  1

  0
ENDBLK
  5
21
100
AcDbEntity
  8
0
100
AcDbBlockEnd
  0
BLOCK
  5
1C
100
AcDbEntity
  8
0
100
AcDbBlockBegin
  2
*Paper_Space
 70
0
 10
0.0
 20
0.0
 30
0.0
  3
*Paper_Space
  1

  0
ENDBLK
  5
1D
100
AcDbEntity
  8
0
100
AcDbBlockEnd
  0
BLOCK
  5
21F
100
AcDbEntity
  8
0
100
AcDbBlockBegin
  2
_FILLED
 70
64
 10
0.0
 20
0.0
  3
_FILLED
  1

  0
SOLID
  5
220
100
AcDbEntity
  8
0
  6
BYBLOCK
 62
0
100
AcDbTrace
 10
0.0
 20
0.0
 11
-1.0
 21
0.3166666667
 12
-1.0
 22
-0.3166666667
 13
-1.0
 23
-0.3166666667
  0
ENDBLK
  5
221
100
AcDbEntity
  8
0
  6
BYBLOCK
 62
0
100
AcDbBlockEnd
  0
ENDSEC
  0
SECTION
  2
ENTITIES
  0
LINE
  5
222
100
AcDbEntity
  8
0
100
AcDbLine
 62
7
  6
CONTINUOUS
 10
96.4863496307
 20
140.3317573993
 11
100.2741634178
 21
142.8353242906
  0
LINE
  5
223
100
AcDbEntity
  8
0
100
AcDbLine
 62
7
  6
CONTINUOUS
 10
97.1938869
 20
140.7402015931
 11
100.9817006871
 21
143.2437684845
  0
LINE
  5
224
100
AcDbEntity
  8
0
100
AcDbLine
 62
7
  6
CONTINUOUS
 10
97.1731232858
 20
140.7273622422
 11
97.1938869
 21
140.7402015931
  0
LINE
  5
225
100
AcDbEntity
  8
0
100
AcDbLine
 62
7
  6
CONTINUOUS
 10
100.2741634178
 20
142.8353242906
 11
100.9817006871
 21
143.2437684845
  0
LINE
  5
226
100
AcDbEntity
  8
0
100
AcDbLine
 62
7
  6
CONTINUOUS
 10
97.1731232858
 20
140.7273622422
 11
96.4867249382
 21
140.3311210377
  0
LINE
  5
227
100
AcDbEntity
  8
0
100
AcDbLine
 62
7
  6
CONTINUOUS
 10
96.7904339859
 20
139.3121338038
 11
96.5114580518
 21
139.1510877282
  0
LINE
  5
228
100
AcDbEntity
  8
0
100
AcDbLine
 62
7
  6
CONTINUOUS
 10
96.7904339859
 20
139.3121338038
 11
97.1731232858
 21
140.7273622422
  0
LINE
  5
229
100
AcDbEntity
  8
0
100
AcDbLine
 62
7
  6
CONTINUOUS
 10
158.4133802571
 20
32.5780600608
 11
159.830339388
 21
32.201880605
  0
LINE
  5
22A
100
AcDbEntity
  8
0
100
AcDbLine
 62
7
  6
CONTINUOUS
 10
96.5114580518
 20
68.3194541289
 11
96.7904339859
 21
67.8362536374
  0
LINE
  5
22B
100
AcDbEntity
  8
0
100
AcDbLine
 62
7
  6
CONTINUOUS
 10
96.5114580518
 20
68.3194541289
 11
96.4867249382
 21
68.7756897064
  0
LWPOLYLINE
  5
22C
100
AcDbEntity
  8
0
100
AcDbPolyline
 62
7
  6
CONTINUOUS
 90
4
 70
0
 10
106.6366997972
 20
112.8962914403
 10
106.6043577271
 20
112.8628531088
 10
106.5750339216
 20
112.8253360431
 10
106.5488557824
 20
112.7839014428
  0
LWPOLYLINE
  5
22D
100
AcDbEntity
  8
0
100
AcDbPolyline
 62
7
  6
CONTINUOUS
 90
3
 70
0
 10
106.4952675775
 20
112.814626447
 10
106.5304951612
 20
112.8438509469
 10
106.5684255422
 20
112.8687142534
  0
LINE
  5
22E
100
AcDbEntity
  8
0
100
AcDbLine
 62
7
  6
CONTINUOUS
 10
96.7904339859
 20
67.8362536374
 11
97.1731232858
 21
67.5868128953
  0
LINE
  5
22F
100
AcDbEntity
  8
0
100
AcDbLine
 62
7
  6
CONTINUOUS
 10
96.5114580518
 20
139.1510877282
 11
96.4867249382
 21
140.3311210377
  0
LINE
  5
230
100
AcDbEntity
  8
0
100
AcDbLine
 62
7
  6
CONTINUOUS
 10
96.4867249382
 20
68.7756897064
 11
96.4863496307
 21
68.7998825671
  0
LINE
  5
231
100
AcDbEntity
  8
0
100
AcDbLine
 62
7
  6
CONTINUOUS
 10
96.4863496307
 20
140.3317573993
 11
96.4863496307
 21
68.7998825671
  0
LINE
  5
232
100
AcDbEntity
  8
0
100
AcDbLine
 62
7
  6
CONTINUOUS
 10
96.5114580518
 20
139.1510877282
 11
96.5114580518
 21
68.3194541289
  0
LWPOLYLINE
  5
233
100
AcDbEntity
  8
0
100
AcDbPolyline
 62
7
  6
CONTINUOUS
 90
7
 70
0
 10
106.5171962717
 20
112.7184158126
 10
106.5063763679
 20
112.6900118432
 10
106.4902569936
 20
112.6379590246
 10
106.4776487569
 20
112.5827967518
 10
106.468605144
 20
112.5247629859
 10
106.4631639331
 20
112.4641056638
 10
106.4613477532
 20
112.4010849387
  0
LINE
  5
234
100
AcDbEntity
  8
0
100
AcDbLine
 62
250
  6
CONTINUOUS
 10
106.7006999689
 20
112.9168505146
 11
106.4613477532
 21
112.4010849387
  0
LWPOLYLINE
  5
235
100
AcDbEntity
  8
0
100
AcDbPolyline
 62
7
  6
CONTINUOUS
 90
3
 70
0
 10
106.5488557824
 20
112.7839014428
 10
106.5259372192
 20
112.7387288801
 10
106.5171962717
 20
112.7184158126
  0
LINE
  5
236
100
AcDbEntity
  8
0
100
AcDbLine
 62
250
  6
CONTINUOUS
 10
106.4613477532
 20
112.4010849387
 11
106.319926397
 21
112.31943002
  0
LWPOLYLINE
  5
237
100
AcDbEntity
  8
0
100
AcDbPolyline
 62
7
  6
CONTINUOUS
 90
13
 70
0
 10
106.5684255422
 20
112.8687142534
 10
106.6089844585
 20
112.8891607883
 10
106.6519100272
 20
112.9050520694
 10
106.6970477106
 20
112.9163370011
 10
106.7442044016
 20
112.922967309
 10
106.7931779213
 20
112.9249145707
 10
106.8437576551
 20
112.9221705685
 10
106.8957271019
 20
112.9147472892
 10
106.9488634453
 20
112.9026767951
 10
107.0029375542
 20
112.8860115744
 10
107.0577172596
 20
112.8648238516
 10
107.112968446
 20
112.8392048415
 10
107.1684545344
 20
112.8092648402
  0
LWPOLYLINE
  5
238
100
AcDbEntity
  8
0
100
AcDbPolyline
 62
7
  6
CONTINUOUS
 90
11
 70
0
 10
148.9800361211
 20
59.2323706396
 10
148.9348985649
 20
59.2210856114
 10
148.8877420634
 20
59.214455196
 10
148.8387687673
 20
59.2125077989
 10
148.7881891847
 20
59.2152516404
 10
148.7362197925
 20
59.2226747585
 10
148.6830834161
 20
59.2347451124
 10
148.6290091189
 20
59.2514102575
 10
148.5742290443
 20
59.2725980144
 10
148.5189773289
 20
59.2982171973
 10
148.4634905557
 20
59.3281575422
  0
LINE
  5
239
100
AcDbEntity
  8
0
100
AcDbLine
 62
7
  6
CONTINUOUS
 10
97.1938869
 20
67.5743920697
 11
159.1443034706
 21
31.8049979629
  0
LINE
  5
23A
100
AcDbEntity
  8
0
100
AcDbLine
 62
7
  6
CONTINUOUS
 10
96.7904339859
 20
67.8362536374
 11
158.1344043229
 21
32.4170139853
  0
LINE
  5
23B
100
AcDbEntity
  8
0
100
AcDbLine
 62
7
  6
CONTINUOUS
 10
97.1938869
 20
67.5743920697
 11
97.1731232858
 21
67.5868128953
  0
LINE
  5
23C
100
AcDbEntity
  8
0
100
AcDbLine
 62
7
  6
CONTINUOUS
 10
158.1344043229
 20
32.4170139853
 11
159.1439410403
 21
31.8056394006
  0
LINE
  5
23D
100
AcDbEntity
  8
0
100
AcDbLine
 62
250
  6
CONTINUOUS
 10
106.8199779421
 20
102.2331736773
 11
106.4613477532
 21
101.4603832296
  0
LINE
  5
23E
100
AcDbEntity
  8
0
100
AcDbLine
 62
250
  6
CONTINUOUS
 10
106.8149011438
 20
99.2966620318
 11
107.1684545344
 21
99.9090344668
  0
LINE
  5
23F
100
AcDbEntity
  8
0
100
AcDbLine
 62
250
  6
CONTINUOUS
 10
149.1713758289
 20
59.3592511819
 11
148.6049119119
 21
59.4098124609
  0
LWPOLYLINE
  5
240
100
AcDbEntity
  8
0
100
AcDbPolyline
 62
7
  6
CONTINUOUS
 90
6
 70
0
 10
148.9077409274
 20
59.299482808
 10
148.9296274173
 20
59.2969048862
 10
148.9802096536
 20
59.2941625616
 10
149.0291845608
 20
59.2961120016
 10
149.0763396593
 20
59.3027443619
 10
149.1214716347
 20
59.3140299275
  0
LWPOLYLINE
  5
241
100
AcDbEntity
  8
0
100
AcDbPolyline
 62
7
  6
CONTINUOUS
 90
25
 70
0
 10
106.4613477532
 20
84.7227425554
 10
106.4631639331
 20
84.6576245512
 10
106.468605144
 20
84.5906838552
 10
106.4776487569
 20
84.5222067519
 10
106.4902569936
 20
84.4524848033
 10
106.5063763679
 20
84.3818177353
 10
106.5259372192
 20
84.3105123176
 10
106.5488557824
 20
84.2388739725
 10
106.5750339216
 20
84.1672095132
 10
106.6043577271
 20
84.095830052
 10
106.6366997972
 20
84.0250439087
 10
106.6719222158
 20
83.9551513047
 10
106.7098759322
 20
83.8864474484
 10
106.7503984653
 20
83.8192264687
 10
106.7933163175
 20
83.7537761786
 10
106.8384483245
 20
83.6903733137
 10
106.8856033956
 20
83.6292874807
 10
106.9345782565
 20
83.5707831135
 10
106.9851605344
 20
83.5151143054
 10
107.0371337252
 20
83.4625193459
 10
107.0902750818
 20
83.4132236607
 10
107.1443534627
 20
83.3674412334
 10
107.1991359238
 20
83.3253682924
 10
107.2543889404
 20
83.2871832168
 10
107.3098758906
 20
83.2530487112
  0
LWPOLYLINE
  5
242
100
AcDbEntity
  8
0
100
AcDbPolyline
 62
7
  6
CONTINUOUS
 90
25
 70
0
 10
106.4613477532
 20
101.4603832296
 10
106.463163898
 20
101.3952658631
 10
106.4686050307
 20
101.3283255888
 10
106.4776485624
 20
101.2598486674
 10
106.4902567811
 20
101.1901265161
 10
106.5063762259
 20
101.1194589745
 10
106.5259371574
 20
101.0481531998
 10
106.5488557294
 20
100.9765148017
 10
106.5750338328
 20
100.9048504165
 10
106.604357606
 20
100.8334710054
 10
106.6366996823
 20
100.7626848221
 10
106.6719221222
 20
100.6927921563
 10
106.709875849
 20
100.6240882667
 10
106.7503983586
 20
100.5568673127
 10
106.7933161678
 20
100.491417072
 10
106.8384481432
 20
100.4280142324
 10
106.8856032417
 20
100.3669283464
 10
106.9345781489
 20
100.3084239112
 10
106.9851603852
 20
100.2527551371
 10
107.0371333069
 20
100.2001604256
 10
107.0902742886
 20
100.1508650383
 10
107.1443524849
 20
100.1050826968
 10
107.199135063
 20
100.0630095945
 10
107.2543884056
 20
100.0248242403
 10
107.3098758906
 20
99.9906893855
  0
LWPOLYLINE
  5
243
100
AcDbEntity
  8
0
100
AcDbPolyline
 62
7
  6
CONTINUOUS
 90
28
 70
0
 10
106.8199779421
 20
85.495533003
 10
106.8223043549
 20
85.4038436622
 10
106.8290806866
 20
85.3104875725
 10
106.8403069374
 20
85.2154647339
 10
106.8560508416
 20
85.118442536
 10
106.8762446648
 20
85.0197535891
 10
106.9006852038
 20
84.9203957253
 10
106.9294157378
 20
84.8203622248
 10
106.9623929878
 20
84.7196598072
 10
106.9992839128
 20
84.6193064632
 10
107.0401281285
 20
84.5193061345
 10
107.0848860193
 20
84.4196548794
 10
107.1331056983
 20
84.3213588628
 10
107.1848221794
 20
84.2244319166
 10
107.2400004487
 20
84.1288602089
 10
107.2980835782
 20
84.0356084093
 10
107.3591011363
 20
83.9446998383
 10
107.4230235546
 20
83.8561111754
 10
107.4892051999
 20
83.7707371281
 10
107.5576691508
 20
83.6886102077
 10
107.6283923286
 20
83.6096979029
 10
107.7006598644
 20
83.5347973873
 10
107.7744876473
 20
83.4639493926
 10
107.8498597881
 20
83.3971131871
 10
107.9260137503
 20
83.3349637495
 10
108.0026953549
 20
83.2777260726
 10
108.0801587808
 20
83.2251751636
 10
108.158404028
 20
83.1773110223
  0
LWPOLYLINE
  5
244
100
AcDbEntity
  8
0
100
AcDbPolyline
 62
7
  6
CONTINUOUS
 90
28
 70
0
 10
106.8199779421
 20
102.2331736773
 10
106.822304435
 20
102.141483471
 10
106.8290808672
 20
102.048126666
 10
106.8403072386
 20
101.9531032623
 10
106.8560513032
 20
101.8560806485
 10
106.8762453071
 20
101.7573914359
 10
106.900685988
 20
101.6580334588
 10
106.9294165669
 20
101.5580001085
 10
106.9623938227
 20
101.4572979936
 10
106.9992848296
 20
101.3569447745
 10
107.0401292846
 20
101.2569441785
 10
107.0848874907
 20
101.1572924783
 10
107.1331074313
 20
101.0589961516
 10
107.184824089
 20
100.9620691414
 10
107.2400024811
 20
100.8664975046
 10
107.2980856435
 20
100.7732458899
 10
107.3591030638
 20
100.6823377006
 10
107.4230252544
 20
100.5937495333
 10
107.4892067879
 20
100.5083758269
 10
107.5576708879
 20
100.4262489149
 10
107.6283943308
 20
100.3473364638
 10
107.7006620191
 20
100.272435912
 10
107.7744897748
 20
100.2015880967
 10
107.8498617759
 20
100.1347521806
 10
107.9260154582
 20
100.07260309
 10
108.0026966336
 20
100.0153658001
 10
108.0801594902
 20
99.9628153356
 10
108.158404028
 20
99.9149516966
  0
LINE
  5
245
100
AcDbEntity
  8
0
100
AcDbLine
 62
7
  6
CONTINUOUS
 10
105.6128196158
 20
84.6410876367
 11
105.6128196158
 21
95.5817893457
  0
LINE
  5
246
100
AcDbEntity
  8
0
100
AcDbLine
 62
7
  6
CONTINUOUS
 10
105.6128196158
 20
101.378728311
 11
105.6128196158
 21
112.31943002
  0
LINE
  5
247
100
AcDbEntity
  8
0
100
AcDbLine
 62
7
  6
CONTINUOUS
 10
106.319926397
 20
84.6410876367
 11
106.319926397
 21
95.5817893457
  0
LINE
  5
248
100
AcDbEntity
  8
0
100
AcDbLine
 62
7
  6
CONTINUOUS
 10
106.319926397
 20
101.378728311
 11
106.319926397
 21
112.31943002
  0
LINE
  5
249
100
AcDbEntity
  8
0
100
AcDbLine
 62
7
  6
CONTINUOUS
 10
106.4613477532
 20
112.4010849387
 11
106.4613477532
 21
101.4603832296
  0
LINE
  5
24A
100
AcDbEntity
  8
0
100
AcDbLine
 62
7
  6
CONTINUOUS
 10
106.4613477532
 20
95.6634442644
 11
106.4613477532
 21
84.7227425554
  0
LINE
  5
24B
100
AcDbEntity
  8
0
100
AcDbLine
 62
7
  6
CONTINUOUS
 10
106.8199779421
 20
112.9234606422
 11
106.8199779421
 21
102.2331736773
  0
LINE
  5
24C
100
AcDbEntity
  8
0
100
AcDbLine
 62
7
  6
CONTINUOUS
 10
106.8199779421
 20
96.1858199748
 11
106.8199779421
 21
85.495533003
  0
LWPOLYLINE
  5
24D
100
AcDbEntity
  8
0
100
AcDbPolyline
 62
7
  6
CONTINUOUS
 90
28
 70
0
 10
105.6128196158
 20
112.31943002
 10
105.6149095617
 20
112.3993717902
 10
105.6209963422
 20
112.4761942349
 10
105.6310799574
 20
112.5498973543
 10
105.6452213948
 20
112.6207095588
 10
105.6633596668
 20
112.6884024378
 10
105.6853118107
 20
112.7522907603
 10
105.7111166449
 20
112.812335554
 10
105.740735351
 20
112.8685757912
 10
105.773868511
 20
112.9204431573
 10
105.8105516361
 20
112.9678930353
 10
105.8507492152
 20
113.0109700422
 10
105.8940552967
 20
113.0492397147
 10
105.9405010213
 20
113.0826533445
 10
105.9900552482
 20
113.11125964
 10
106.0422186043
 20
113.1347702619
 10
106.0970178034
 20
113.1531338751
 10
106.1544261317
 20
113.1664018148
 10
106.2138640741
 20
113.1744397473
 10
106.275352464
 20
113.1771945501
 10
106.3388704682
 20
113.1747193458
 10
106.4037760723
 20
113.1670391685
 10
106.4700835725
 20
113.1541009206
 10
106.5377786727
 20
113.1359576997
 10
106.6061764702
 20
113.1127938327
 10
106.6750486641
 20
113.0846707619
 10
106.7446235553
 20
113.051527045
 10
106.8149011438
 20
113.0133626819
  0
LWPOLYLINE
  5
24E
100
AcDbEntity
  8
0
100
AcDbPolyline
 62
7
  6
CONTINUOUS
 90
28
 70
0
 10
105.6128196158
 20
95.5817893457
 10
105.6149094333
 20
95.6617296662
 10
105.6209960155
 20
95.7385509262
 10
105.6310793622
 20
95.8122531255
 10
105.6452204226
 20
95.8830646836
 10
105.6633582476
 20
95.9507571812
 10
105.6853099896
 20
96.0146453601
 10
105.7111144852
 20
96.0746902893
 10
105.7407328978
 20
96.1309308998
 10
105.7738658702
 20
96.1827987264
 10
105.8105489917
 20
96.2302491648
 10
105.850746673
 20
96.2733268194
 10
105.8940527886
 20
96.3115970372
 10
105.9404984392
 20
96.3450110156
 10
105.990052524
 20
96.3736175572
 10
106.0422156153
 20
96.3971284174
 10
106.097014325
 20
96.4154922739
 10
106.1544220413
 20
96.4287604489
 10
106.2138595001
 20
96.4367986648
 10
106.2753475851
 20
96.4395538604
 10
106.3388654126
 20
96.4370790968
 10
106.4037710687
 20
96.4293992805
 10
106.4700788942
 20
96.4164613088
 10
106.5377745484
 20
96.3983182842
 10
106.6061730941
 20
96.3751544205
 10
106.675046219
 20
96.3470311221
 10
106.7446222356
 20
96.3138869845
 10
106.8149011438
 20
96.2757220076
  0
LWPOLYLINE
  5
24F
100
AcDbEntity
  8
0
100
AcDbPolyline
 62
7
  6
CONTINUOUS
 90
11
 70
0
 10
106.319926397
 20
112.31943002
 10
106.3217425302
 20
112.3824499502
 10
106.3271834799
 20
112.4431055443
 10
106.3362264375
 20
112.5011367977
 10
106.3488332952
 20
112.5562953646
 10
106.3649504813
 20
112.6083441292
 10
106.3845088728
 20
112.6570585109
 10
106.4074247952
 20
112.7022295342
 10
106.4336003596
 20
112.743663761
 10
106.4629231823
 20
112.7811830142
 10
106.4952675775
 20
112.814626447
  0
LWPOLYLINE
  5
250
100
AcDbEntity
  8
0
100
AcDbPolyline
 62
7
  6
CONTINUOUS
 90
11
 70
0
 10
106.319926397
 20
95.5817893457
 10
106.3217424853
 20
95.6448085111
 10
106.3271833201
 20
95.7054635607
 10
106.3362261226
 20
95.7634944773
 10
106.3488328206
 20
95.818652919
 10
106.3649498688
 20
95.8707017251
 10
106.3845081481
 20
95.9194162347
 10
106.4074240069
 20
95.9645874693
 10
106.4335995658
 20
96.0060219575
 10
106.4629223902
 20
96.0435414284
 10
106.4952667656
 20
96.0769850197
  0
LWPOLYLINE
  5
251
100
AcDbEntity
  8
0
100
AcDbPolyline
 62
7
  6
CONTINUOUS
 90
7
 70
0
 10
106.5171962717
 20
95.9807751384
 10
106.5063762259
 20
95.9523707679
 10
106.4902567811
 20
95.9003175572
 10
106.4776485624
 20
95.8451550608
 10
106.4686050307
 20
95.7871213831
 10
106.463163898
 20
95.7264643923
 10
106.4613477532
 20
95.6634442644
  0
LINE
  5
252
100
AcDbEntity
  8
0
100
AcDbLine
 62
250
  6
CONTINUOUS
 10
106.7006999426
 20
96.1792097836
 11
106.4613477532
 21
95.6634442644
  0
LWPOLYLINE
  5
253
100
AcDbEntity
  8
0
100
AcDbPolyline
 62
7
  6
CONTINUOUS
 90
3
 70
0
 10
106.5488557294
 20
96.0462606749
 10
106.5259371574
 20
96.0010880693
 10
106.5171962717
 20
95.9807751384
  0
LWPOLYLINE
  5
254
100
AcDbEntity
  8
0
100
AcDbPolyline
 62
7
  6
CONTINUOUS
 90
4
 70
0
 10
106.6366996823
 20
96.1586506595
 10
106.604357606
 20
96.1252122952
 10
106.5750338328
 20
96.0876952425
 10
106.5488557294
 20
96.0462606749
  0
LWPOLYLINE
  5
255
100
AcDbEntity
  8
0
100
AcDbPolyline
 62
7
  6
CONTINUOUS
 90
3
 70
0
 10
106.4952667656
 20
96.0769850197
 10
106.5304943208
 20
96.1062096513
 10
106.5684255422
 20
96.1310735791
  0
LINE
  5
256
100
AcDbEntity
  8
0
100
AcDbLine
 62
250
  6
CONTINUOUS
 10
106.4613477532
 20
101.4603832296
 11
106.319926397
 21
101.378728311
  0
LINE
  5
257
100
AcDbEntity
  8
0
100
AcDbLine
 62
250
  6
CONTINUOUS
 10
107.3098758906
 20
99.9906893855
 11
107.1684545344
 21
99.9090344668
  0
LINE
  5
258
100
AcDbEntity
  8
0
100
AcDbLine
 62
250
  6
CONTINUOUS
 10
137.4326247692
 20
66.268730937
 11
138.1397315503
 21
66.268730937
  0
LINE
  5
259
100
AcDbEntity
  8
0
100
AcDbLine
 62
250
  6
CONTINUOUS
 10
139.9782091814
 20
64.8049543226
 11
139.129681044
 21
64.8806920115
  0
LINE
  5
25A
100
AcDbEntity
  8
0
100
AcDbLine
 62
250
  6
CONTINUOUS
 10
106.8199779421
 20
85.495533003
 11
106.4613477532
 21
84.7227425554
  0
LINE
  5
25B
100
AcDbEntity
  8
0
100
AcDbLine
 62
250
  6
CONTINUOUS
 10
106.8149011438
 20
82.5590213575
 11
107.1684545344
 21
83.1713937926
  0
LWPOLYLINE
  5
25C
100
AcDbEntity
  8
0
100
AcDbPolyline
 62
7
  6
CONTINUOUS
 90
3
 70
0
 10
122.4051701542
 20
103.6284480971
 10
122.4403977379
 20
103.6576725971
 10
122.4783281189
 20
103.6825359035
  0
LINE
  5
25D
100
AcDbEntity
  8
0
100
AcDbLine
 62
250
  6
CONTINUOUS
 10
106.319926397
 20
95.5817893457
 11
106.4613477532
 21
95.6634442644
  0
LINE
  5
25E
100
AcDbEntity
  8
0
100
AcDbLine
 62
250
  6
CONTINUOUS
 10
122.3712503299
 20
103.2149065888
 11
122.2298289736
 21
103.1332516701
  0
LWPOLYLINE
  5
25F
100
AcDbEntity
  8
0
100
AcDbPolyline
 62
7
  6
CONTINUOUS
 90
13
 70
0
 10
106.5684255422
 20
96.1310735791
 10
106.6089835001
 20
96.1515196969
 10
106.651908969
 20
96.1674110686
 10
106.6970465251
 20
96.1786960968
 10
106.7442030266
 20
96.1853265121
 10
106.7931763228
 20
96.1872739093
 10
106.8437559053
 20
96.1845300677
 10
106.8957252975
 20
96.1771069496
 10
106.9488616739
 20
96.1650365957
 10
107.0029359711
 20
96.1483714506
 10
107.0577160457
 20
96.1271836938
 10
107.1129677612
 20
96.1015645108
 10
107.1684545344
 20
96.0716241659
  0
LWPOLYLINE
  5
260
100
AcDbEntity
  8
0
100
AcDbPolyline
 62
7
  6
CONTINUOUS
 90
13
 70
0
 10
122.4783281189
 20
103.6825359035
 10
122.5188870352
 20
103.7029824384
 10
122.5618126039
 20
103.7188737195
 10
122.6069502873
 20
103.7301586513
 10
122.6541069782
 20
103.7367889592
 10
122.703080498
 20
103.7387362209
 10
122.7536602318
 20
103.7359922186
 10
122.8056296786
 20
103.7285689394
 10
122.858766022
 20
103.7164984453
 10
122.9128401309
 20
103.6998332245
 10
122.9676198363
 20
103.6786455018
 10
123.0228710227
 20
103.6530264916
 10
123.0783571111
 20
103.6230864903
  0
LWPOLYLINE
  5
261
100
AcDbEntity
  8
0
100
AcDbPolyline
 62
7
  6
CONTINUOUS
 90
11
 70
0
 10
133.0701335444
 20
68.4185489895
 10
133.0249959882
 20
68.4072639613
 10
132.9778394867
 20
68.4006335459
 10
132.9288661906
 20
68.3986861487
 10
132.878286608
 20
68.4014299903
 10
132.8263172158
 20
68.4088531084
 10
132.7731808395
 20
68.4209234623
 10
132.7191065422
 20
68.4375886074
 10
132.6643264676
 20
68.4587763643
 10
132.6090747522
 20
68.4843955472
 10
132.553587979
 20
68.5143358921
  0
LINE
  5
262
100
AcDbEntity
  8
0
100
AcDbLine
 62
250
  6
CONTINUOUS
 10
133.2614732522
 20
68.5454295317
 11
132.6950093352
 21
68.5959908108
  0
LWPOLYLINE
  5
263
100
AcDbEntity
  8
0
100
AcDbPolyline
 62
7
  6
CONTINUOUS
 90
6
 70
0
 10
132.9978383507
 20
68.4856611579
 10
133.0197248406
 20
68.4830832361
 10
133.0703070769
 20
68.4803409115
 10
133.1192819841
 20
68.4822903515
 10
133.1664370826
 20
68.4889227118
 10
133.211569058
 20
68.5002082774
  0
LINE
  5
264
100
AcDbEntity
  8
0
100
AcDbLine
 62
7
  6
CONTINUOUS
 10
117.4922135397
 20
105.4604168521
 11
117.4922135397
 21
94.5197151431
  0
LINE
  5
265
100
AcDbEntity
  8
0
100
AcDbLine
 62
7
  6
CONTINUOUS
 10
117.4922135397
 20
88.7227761778
 11
117.4922135397
 21
77.7820744688
  0
LWPOLYLINE
  5
266
100
AcDbEntity
  8
0
100
AcDbPolyline
 62
7
  6
CONTINUOUS
 90
28
 70
0
 10
117.4922135397
 20
94.5197151431
 10
117.4901235938
 20
94.4397733729
 10
117.4840368132
 20
94.3629509281
 10
117.473953198
 20
94.2892478087
 10
117.4598117606
 20
94.2184356043
 10
117.4416734886
 20
94.1507427252
 10
117.4197213447
 20
94.0868544027
 10
117.3939165106
 20
94.026809609
 10
117.3642978045
 20
93.9705693719
 10
117.3311646445
 20
93.9187020058
 10
117.2944815194
 20
93.8712521278
 10
117.2542839403
 20
93.8281751209
 10
117.2109778587
 20
93.7899054484
 10
117.1645321342
 20
93.7564918185
 10
117.1149779072
 20
93.7278855231
 10
117.0628145511
 20
93.7043749012
 10
117.008015352
 20
93.686011288
 10
116.9506070238
 20
93.6727433483
 10
116.8911690813
 20
93.6647054157
 10
116.8296806914
 20
93.6619506129
 10
116.7661626873
 20
93.6644258173
 10
116.7012570832
 20
93.6721059946
 10
116.634949583
 20
93.6850442425
 10
116.5672544828
 20
93.7031874633
 10
116.4988566853
 20
93.7263513303
 10
116.4299844914
 20
93.7544744011
 10
116.3604096002
 20
93.7876181181
 10
116.2901320117
 20
93.8257824812
  0
LWPOLYLINE
  5
267
100
AcDbEntity
  8
0
100
AcDbPolyline
 62
7
  6
CONTINUOUS
 90
28
 70
0
 10
117.4922135397
 20
77.7820744688
 10
117.4901237221
 20
77.7021341483
 10
117.48403714
 20
77.6253128884
 10
117.4739537933
 20
77.5516106891
 10
117.4598127329
 20
77.4807991309
 10
117.4416749079
 20
77.4131066333
 10
117.4197231659
 20
77.3492184545
 10
117.3939186703
 20
77.2891735253
 10
117.3643002577
 20
77.2329329148
 10
117.3311672853
 20
77.1810650882
 10
117.2944841637
 20
77.1336146497
 10
117.2542864824
 20
77.0905369952
 10
117.2109803668
 20
77.0522667774
 10
117.1645347163
 20
77.018852799
 10
117.1149806315
 20
76.9902462574
 10
117.0628175402
 20
76.9667353971
 10
117.0080188304
 20
76.9483715407
 10
116.9506111142
 20
76.9351033657
 10
116.8911736553
 20
76.9270651497
 10
116.8296855704
 20
76.9243099542
 10
116.7661677429
 20
76.9267847177
 10
116.7012620868
 20
76.9344645341
 10
116.6349542612
 20
76.9474025058
 10
116.5672586071
 20
76.9655455303
 10
116.4988600614
 20
76.9887093941
 10
116.4299869364
 20
77.0168326925
 10
116.3604109198
 20
77.0499768301
 10
116.2901320117
 20
77.0881418069
  0
LWPOLYLINE
  5
268
100
AcDbEntity
  8
0
100
AcDbPolyline
 62
7
  6
CONTINUOUS
 90
7
 70
0
 10
117.4922135397
 20
94.9279897364
 10
117.4903974064
 20
94.8649698062
 10
117.4849564568
 20
94.8043142121
 10
117.4759134991
 20
94.7462829587
 10
117.4633066414
 20
94.6911243917
 10
117.4471894554
 20
94.6390756272
 10
117.4276310638
 20
94.5903612455
  0
LWPOLYLINE
  5
269
100
AcDbEntity
  8
0
100
AcDbPolyline
 62
7
  6
CONTINUOUS
 90
7
 70
0
 10
122.4270988484
 20
103.5322374627
 10
122.4162789446
 20
103.5038334933
 10
122.4001595703
 20
103.4517806747
 10
122.3875513336
 20
103.3966184019
 10
122.3785077207
 20
103.338584636
 10
122.3730665098
 20
103.277927314
 10
122.3712503299
 20
103.2149065888
  0
LINE
  5
26A
100
AcDbEntity
  8
0
100
AcDbLine
 62
250
  6
CONTINUOUS
 10
122.6106025456
 20
103.7306721647
 11
122.3712503299
 21
103.2149065888
  0
LWPOLYLINE
  5
26B
100
AcDbEntity
  8
0
100
AcDbPolyline
 62
7
  6
CONTINUOUS
 90
7
 70
0
 10
117.4276310638
 20
94.5903612455
 10
117.4047151414
 20
94.5451902222
 10
117.3785395771
 20
94.5037559954
 10
117.3492167544
 20
94.4662367422
 10
117.3168723591
 20
94.4327933094
 10
117.2816447754
 20
94.4035688095
 10
117.2437143944
 20
94.378705503
  0
LWPOLYLINE
  5
26C
100
AcDbEntity
  8
0
100
AcDbPolyline
 62
7
  6
CONTINUOUS
 90
3
 70
0
 10
122.4587583591
 20
103.5977230929
 10
122.4358397959
 20
103.5525505302
 10
122.4270988484
 20
103.5322374627
  0
LINE
  5
26D
100
AcDbEntity
  8
0
100
AcDbLine
 62
250
  6
CONTINUOUS
 10
116.2901320117
 20
93.8257824812
 11
116.6436854023
 21
94.4381549162
  0
LWPOLYLINE
  5
26E
100
AcDbEntity
  8
0
100
AcDbPolyline
 62
7
  6
CONTINUOUS
 90
4
 70
0
 10
122.5466023739
 20
103.7101130904
 10
122.5142603038
 20
103.6766747589
 10
122.4849364983
 20
103.6391576933
 10
122.4587583591
 20
103.5977230929
  0
LINE
  5
26F
100
AcDbEntity
  8
0
100
AcDbLine
 62
250
  6
CONTINUOUS
 10
116.7851067585
 20
94.5198098349
 11
116.6436854023
 21
94.4381549162
  0
LWPOLYLINE
  5
270
100
AcDbEntity
  8
0
100
AcDbPolyline
 62
7
  6
CONTINUOUS
 90
11
 70
0
 10
148.9800350629
 20
75.9700109873
 10
148.9348973794
 20
75.9587260555
 10
148.8877406885
 20
75.9520957476
 10
148.8387671687
 20
75.9501484859
 10
148.7881874349
 20
75.9528924882
 10
148.7362179881
 20
75.9603157674
 10
148.6830816447
 20
75.9723862615
 10
148.6290075358
 20
75.9890514823
 10
148.5742278304
 20
76.010239205
 10
148.518976644
 20
76.0358582151
 10
148.4634905557
 20
76.0657982165
  0
LINE
  5
271
100
AcDbEntity
  8
0
100
AcDbLine
 62
250
  6
CONTINUOUS
 10
124.0683066047
 20
73.9911326725
 11
123.2197784673
 21
74.0668703614
  0
LWPOLYLINE
  5
272
100
AcDbEntity
  8
0
100
AcDbPolyline
 62
7
  6
CONTINUOUS
 90
7
 70
0
 10
148.6049119119
 20
59.4098124609
 10
148.6603993969
 20
59.3798717588
 10
148.7156527395
 20
59.3542519381
 10
148.7704353176
 20
59.3330634922
 10
148.8245135139
 20
59.3163976882
 10
148.8776544956
 20
59.3043272019
 10
148.9077409274
 20
59.299482808
  0
LWPOLYLINE
  5
273
100
AcDbEntity
  8
0
100
AcDbPolyline
 62
7
  6
CONTINUOUS
 90
7
 70
0
 10
132.6950093352
 20
68.5959908108
 10
132.7504968202
 20
68.5660501087
 10
132.8057501628
 20
68.5404302879
 10
132.860532741
 20
68.5192418421
 10
132.9146109372
 20
68.502576038
 10
132.9677519189
 20
68.4905055518
 10
132.9978383507
 20
68.4856611579
  0
LWPOLYLINE
  5
274
100
AcDbEntity
  8
0
100
AcDbPolyline
 62
7
  6
CONTINUOUS
 90
7
 70
0
 10
116.7851067585
 20
77.7821691607
 10
116.8405942435
 20
77.7522284586
 10
116.8958475861
 20
77.7266086378
 10
116.9506301643
 20
77.705420192
 10
117.0047083605
 20
77.6887543879
 10
117.0578493422
 20
77.6766839017
 10
117.087935774
 20
77.6718395077
  0
LINE
  5
275
100
AcDbEntity
  8
0
100
AcDbLine
 62
7
  6
CONTINUOUS
 10
148.1099371651
 20
58.7157851072
 11
138.6347062972
 21
64.1866646578
  0
LINE
  5
276
100
AcDbEntity
  8
0
100
AcDbLine
 62
7
  6
CONTINUOUS
 10
132.2000345884
 20
67.9019634571
 11
122.7248037205
 21
73.3728430076
  0
LINE
  5
277
100
AcDbEntity
  8
0
100
AcDbLine
 62
7
  6
CONTINUOUS
 10
116.2901320117
 20
77.0881418069
 11
106.8149011438
 21
82.5590213575
  0
LINE
  5
278
100
AcDbEntity
  8
0
100
AcDbLine
 62
7
  6
CONTINUOUS
 10
148.4634905557
 20
59.3281575422
 11
138.9882596878
 21
64.7990370928
  0
LINE
  5
279
100
AcDbEntity
  8
0
100
AcDbLine
 62
7
  6
CONTINUOUS
 10
132.553587979
 20
68.5143358921
 11
123.0783571111
 21
73.9852154427
  0
LINE
  5
27A
100
AcDbEntity
  8
0
100
AcDbLine
 62
7
  6
CONTINUOUS
 10
116.6436854023
 20
77.700514242
 11
107.1684545344
 21
83.1713937926
  0
LINE
  5
27B
100
AcDbEntity
  8
0
100
AcDbLine
 62
7
  6
CONTINUOUS
 10
107.3098758906
 20
83.2530487112
 11
116.7851067585
 21
77.7821691607
  0
LINE
  5
27C
100
AcDbEntity
  8
0
100
AcDbLine
 62
7
  6
CONTINUOUS
 10
123.2197784673
 20
74.0668703614
 11
132.6950093352
 21
68.5959908108
  0
LINE
  5
27D
100
AcDbEntity
  8
0
100
AcDbLine
 62
7
  6
CONTINUOUS
 10
139.129681044
 20
64.8806920115
 11
148.6049119119
 21
59.4098124609
  0
LINE
  5
27E
100
AcDbEntity
  8
0
100
AcDbLine
 62
7
  6
CONTINUOUS
 10
108.158404028
 20
83.1773110223
 11
117.416901403
 21
77.8315706742
  0
LINE
  5
27F
100
AcDbEntity
  8
0
100
AcDbLine
 62
7
  6
CONTINUOUS
 10
124.0683066047
 20
73.9911326725
 11
133.3268039797
 21
68.6453923244
  0
LINE
  5
280
100
AcDbEntity
  8
0
100
AcDbLine
 62
7
  6
CONTINUOUS
 10
139.9782091814
 20
64.8049543226
 11
149.2367065564
 21
59.4592139745
  0
LINE
  5
281
100
AcDbEntity
  8
0
100
AcDbLine
 62
7
  6
CONTINUOUS
 10
116.8166497115
 20
79.5609369621
 11
117.4922135397
 21
79.1708748745
  0
LINE
  5
282
100
AcDbEntity
  8
0
100
AcDbLine
 62
7
  6
CONTINUOUS
 10
148.6364548649
 20
61.1885802623
 11
149.3120186931
 21
60.7985181747
  0
LWPOLYLINE
  5
283
100
AcDbEntity
  8
0
100
AcDbPolyline
 62
7
  6
CONTINUOUS
 90
28
 70
0
 10
106.8149011438
 20
82.5590213575
 10
106.7446235553
 20
82.6020117921
 10
106.6750486641
 20
82.6492114155
 10
106.6061764702
 20
82.7006202279
 10
106.5377786727
 20
82.756440423
 10
106.4700835725
 20
82.816469807
 10
106.4037760723
 20
82.8801017983
 10
106.3388704682
 20
82.9473729857
 10
106.275352464
 20
83.0182467804
 10
106.2138640741
 20
83.0920068345
 10
106.1544261317
 20
83.1686822132
 10
106.0970178034
 20
83.2482438514
 10
106.0422186043
 20
83.3298882061
 10
105.9900552482
 20
83.4136357641
 10
105.9405010213
 20
83.4994660387
 10
105.8940552967
 20
83.5865140271
 10
105.8507492152
 20
83.674792477
 10
105.8105516361
 20
83.7642886407
 10
105.773868511
 20
83.8540992721
 10
105.740735351
 20
83.9442279809
 10
105.7111166449
 20
84.0346711573
 10
105.6853118107
 20
84.1245147267
 10
105.6633596668
 20
84.2137528347
 10
105.6452213948
 20
84.3023913357
 10
105.6310799574
 20
84.3895337175
 10
105.6209963422
 20
84.474881143
 10
105.6149095617
 20
84.5587324494
 10
105.6128196158
 20
84.6410876367
  0
LWPOLYLINE
  5
284
100
AcDbEntity
  8
0
100
AcDbPolyline
 62
7
  6
CONTINUOUS
 90
28
 70
0
 10
122.7248037205
 20
73.3728430076
 10
122.654526132
 20
73.4158334422
 10
122.5849512408
 20
73.4630330656
 10
122.5160790469
 20
73.514441878
 10
122.4476812494
 20
73.5702620731
 10
122.3799861492
 20
73.6302914571
 10
122.313678649
 20
73.6939234484
 10
122.2487730449
 20
73.7611946358
 10
122.1852550407
 20
73.8320684305
 10
122.1237666508
 20
73.9058284847
 10
122.0643287084
 20
73.9825038633
 10
122.0069203801
 20
74.0620655015
 10
121.952121181
 20
74.1437098563
 10
121.8999578249
 20
74.2274574143
 10
121.850403598
 20
74.3132876889
 10
121.8039578734
 20
74.4003356772
 10
121.7606517919
 20
74.4886141271
 10
121.7204542128
 20
74.5781102908
 10
121.6837710876
 20
74.6679209222
 10
121.6506379276
 20
74.758049631
 10
121.6210192216
 20
74.8484928074
 10
121.5952143874
 20
74.9383363768
 10
121.5732622435
 20
75.0275744849
 10
121.5551239715
 20
75.1162129858
 10
121.5409825341
 20
75.2033553677
 10
121.5308989189
 20
75.2887027931
 10
121.5248121384
 20
75.3725540995
 10
121.5227221925
 20
75.4549092868
  0
LWPOLYLINE
  5
285
100
AcDbEntity
  8
0
100
AcDbPolyline
 62
7
  6
CONTINUOUS
 90
28
 70
0
 10
138.6347062972
 20
64.1866646578
 10
138.5644287087
 20
64.2296550923
 10
138.4948538175
 20
64.2768547158
 10
138.4259816236
 20
64.3282635281
 10
138.3575838261
 20
64.3840837232
 10
138.2898887259
 20
64.4441131072
 10
138.2235812257
 20
64.5077450985
 10
138.1586756216
 20
64.5750162859
 10
138.0951576174
 20
64.6458900806
 10
138.0336692275
 20
64.7196501348
 10
137.974231285
 20
64.7963255135
 10
137.9168229568
 20
64.8758871516
 10
137.8620237577
 20
64.9575315064
 10
137.8098604016
 20
65.0412790644
 10
137.7603061747
 20
65.127109339
 10
137.7138604501
 20
65.2141573274
 10
137.6705543686
 20
65.3024357773
 10
137.6303567895
 20
65.3919319409
 10
137.5936736643
 20
65.4817425724
 10
137.5605405043
 20
65.5718712811
 10
137.5309217983
 20
65.6623144576
 10
137.5051169641
 20
65.752158027
 10
137.4831648202
 20
65.841396135
 10
137.4650265482
 20
65.9300346359
 10
137.4508851108
 20
66.0171770178
 10
137.4408014956
 20
66.1025244433
 10
137.4347147151
 20
66.1863757496
 10
137.4326247692
 20
66.268730937
  0
LWPOLYLINE
  5
286
100
AcDbEntity
  8
0
100
AcDbPolyline
 62
7
  6
CONTINUOUS
 90
25
 70
0
 10
107.1684545344
 20
83.1713937926
 10
107.112968446
 20
83.2055277353
 10
107.0577172596
 20
83.2437114103
 10
107.0029375542
 20
83.2857819182
 10
106.9488634453
 20
83.331560123
 10
106.8957271019
 20
83.3808501463
 10
106.8437576551
 20
83.4334398816
 10
106.7931779213
 20
83.4891040881
 10
106.7442044016
 20
83.5476047429
 10
106.6970477106
 20
83.6086904154
 10
106.6519100272
 20
83.6720992126
 10
106.6089844585
 20
83.7375598645
 10
106.5684549777
 20
83.8047918339
 10
106.5304951612
 20
83.8735071789
 10
106.4952675775
 20
83.9434116095
 10
106.4629231823
 20
84.0142055392
 10
106.4336003596
 20
84.085586053
 10
106.4074247952
 20
84.1572471654
 10
106.3845088728
 20
84.2288809215
 10
106.3649504813
 20
84.3001808436
 10
106.3488332952
 20
84.3708413305
 10
106.3362264375
 20
84.4405579808
 10
106.3271834799
 20
84.509031815
 10
106.3217425302
 20
84.5759704813
 10
106.319926397
 20
84.6410876367
  0
LWPOLYLINE
  5
287
100
AcDbEntity
  8
0
100
AcDbPolyline
 62
7
  6
CONTINUOUS
 90
25
 70
0
 10
123.0783571111
 20
73.9852154427
 10
123.0228710227
 20
74.0193493854
 10
122.9676198363
 20
74.0575330604
 10
122.9128401309
 20
74.0996035683
 10
122.858766022
 20
74.1453817731
 10
122.8056296786
 20
74.1946717965
 10
122.7536602318
 20
74.2472615317
 10
122.703080498
 20
74.3029257382
 10
122.6541069782
 20
74.361426393
 10
122.6069502873
 20
74.4225120656
 10
122.5618126039
 20
74.4859208628
 10
122.5188870352
 20
74.5513815146
 10
122.4783575544
 20
74.618613484
 10
122.4403977379
 20
74.687328829
 10
122.4051701542
 20
74.7572332596
 10
122.372825759
 20
74.8280271893
 10
122.3435029363
 20
74.8994077031
 10
122.3173273719
 20
74.9710688155
 10
122.2944114495
 20
75.0427025716
 10
122.274853058
 20
75.1140024937
 10
122.2587358719
 20
75.1846629806
 10
122.2461290142
 20
75.2543796309
 10
122.2370860566
 20
75.3228534651
 10
122.2316451069
 20
75.3897921315
 10
122.2298289736
 20
75.4549092868
  0
LWPOLYLINE
  5
288
100
AcDbEntity
  8
0
100
AcDbPolyline
 62
7
  6
CONTINUOUS
 90
25
 70
0
 10
138.9882596878
 20
64.7990370928
 10
138.9327735994
 20
64.8331710355
 10
138.877522413
 20
64.8713547105
 10
138.8227427076
 20
64.9134252184
 10
138.7686685987
 20
64.9592034232
 10
138.7155322553
 20
65.0084934466
 10
138.6635628085
 20
65.0610831819
 10
138.6129830747
 20
65.1167473884
 10
138.5640095549
 20
65.1752480431
 10
138.516852864
 20
65.2363337157
 10
138.4717151806
 20
65.2997425129
 10
138.4287896119
 20
65.3652031648
 10
138.3882601311
 20
65.4324351341
 10
138.3503003146
 20
65.5011504791
 10
138.3150727309
 20
65.5710549097
 10
138.2827283357
 20
65.6418488395
 10
138.253405513
 20
65.7132293532
 10
138.2272299486
 20
65.7848904657
 10
138.2043140262
 20
65.8565242217
 10
138.1847556347
 20
65.9278241438
 10
138.1686384486
 20
65.9984846307
 10
138.1560315909
 20
66.068201281
 10
138.1469886333
 20
66.1366751152
 10
138.1415476836
 20
66.2036137816
 10
138.1397315503
 20
66.268730937
  0
LWPOLYLINE
  5
289
100
AcDbEntity
  8
0
100
AcDbPolyline
 62
7
  6
CONTINUOUS
 90
25
 70
0
 10
122.3712503299
 20
75.5365642055
 10
122.3730665098
 20
75.4714462013
 10
122.3785077207
 20
75.4045055053
 10
122.3875513336
 20
75.336028402
 10
122.4001595703
 20
75.2663064534
 10
122.4162789446
 20
75.1956393854
 10
122.4358397959
 20
75.1243339677
 10
122.4587583591
 20
75.0526956227
 10
122.4849364983
 20
74.9810311634
 10
122.5142603038
 20
74.9096517021
 10
122.5466023739
 20
74.8388655589
 10
122.5818247925
 20
74.7689729548
 10
122.6197785089
 20
74.7002690985
 10
122.660301042
 20
74.6330481188
 10
122.7032188942
 20
74.5675978288
 10
122.7483509012
 20
74.5041949638
 10
122.7955059723
 20
74.4431091308
 10
122.8444808332
 20
74.3846047636
 10
122.8950631111
 20
74.3289359555
 10
122.9470363019
 20
74.276340996
 10
123.0001776585
 20
74.2270453108
 10
123.0542560394
 20
74.1812628835
 10
123.1090385005
 20
74.1391899425
 10
123.1642915171
 20
74.1010048669
 10
123.2197784673
 20
74.0668703614
  0
LINE
  5
28A
100
AcDbEntity
  8
0
100
AcDbLine
 62
7
  6
CONTINUOUS
 10
121.5227221925
 20
75.4549092868
 11
121.5227221925
 21
86.3956109959
  0
LINE
  5
28B
100
AcDbEntity
  8
0
100
AcDbLine
 62
7
  6
CONTINUOUS
 10
121.5227221925
 20
92.1925499611
 11
121.5227221925
 21
103.1332516701
  0
LWPOLYLINE
  5
28C
100
AcDbEntity
  8
0
100
AcDbPolyline
 62
7
  6
CONTINUOUS
 90
28
 70
0
 10
121.5227221925
 20
103.1332516701
 10
121.5248121384
 20
103.2131934403
 10
121.5308989189
 20
103.2900158851
 10
121.5409825341
 20
103.3637190045
 10
121.5551239715
 20
103.4345312089
 10
121.5732622435
 20
103.502224088
 10
121.5952143874
 20
103.5661124105
 10
121.6210192216
 20
103.6261572042
 10
121.6506379276
 20
103.6823974413
 10
121.6837710876
 20
103.7342648074
 10
121.7204542128
 20
103.7817146854
 10
121.7606517919
 20
103.8247916923
 10
121.8039578734
 20
103.8630613648
 10
121.850403598
 20
103.8964749947
 10
121.8999578249
 20
103.9250812901
 10
121.952121181
 20
103.948591912
 10
122.0069203801
 20
103.9669555252
 10
122.0643287084
 20
103.9802234649
 10
122.1237666508
 20
103.9882613975
 10
122.1852550407
 20
103.9910162003
 10
122.2487730449
 20
103.9885409959
 10
122.313678649
 20
103.9808608186
 10
122.3799861492
 20
103.9679225707
 10
122.4476812494
 20
103.9497793499
 10
122.5160790469
 20
103.9266154829
 10
122.5849512408
 20
103.898492412
 10
122.654526132
 20
103.8653486951
 10
122.7248037205
 20
103.827184332
  0
LWPOLYLINE
  5
28D
100
AcDbEntity
  8
0
100
AcDbPolyline
 62
7
  6
CONTINUOUS
 90
28
 70
0
 10
121.5227221925
 20
86.3956109959
 10
121.52481201
 20
86.4755513164
 10
121.5308985922
 20
86.5523725763
 10
121.5409819389
 20
86.6260747756
 10
121.5551229993
 20
86.6968863338
 10
121.5732608243
 20
86.7645788313
 10
121.5952125663
 20
86.8284670102
 10
121.6210170619
 20
86.8885119394
 10
121.6506354745
 20
86.9447525499
 10
121.6837684469
 20
86.9966203765
 10
121.7204515684
 20
87.044070815
 10
121.7606492497
 20
87.0871484695
 10
121.8039553653
 20
87.1254186873
 10
121.8504010159
 20
87.1588326657
 10
121.8999551007
 20
87.1874392073
 10
121.952118192
 20
87.2109500675
 10
122.0069169017
 20
87.229313924
 10
122.064324618
 20
87.242582099
 10
122.1237620768
 20
87.250620315
 10
122.1852501618
 20
87.2533755105
 10
122.2487679893
 20
87.250900747
 10
122.3136736454
 20
87.2432209306
 10
122.3799814709
 20
87.2302829589
 10
122.4476771251
 20
87.2121399344
 10
122.5160756708
 20
87.1889760706
 10
122.5849487957
 20
87.1608527722
 10
122.6545248123
 20
87.1277086346
 10
122.7248037205
 20
87.0895436578
  0
LWPOLYLINE
  5
28E
100
AcDbEntity
  8
0
100
AcDbPolyline
 62
7
  6
CONTINUOUS
 90
7
 70
0
 10
117.4922135397
 20
78.1903490621
 10
117.4903974513
 20
78.1273298968
 10
117.4849566166
 20
78.0666748472
 10
117.475913814
 20
78.0086439306
 10
117.463307116
 20
77.9534854889
 10
117.4471900678
 20
77.9014366828
 10
117.4276317886
 20
77.8527221732
  0
LWPOLYLINE
  5
28F
100
AcDbEntity
  8
0
100
AcDbPolyline
 62
7
  6
CONTINUOUS
 90
11
 70
0
 10
122.2298289736
 20
103.1332516701
 10
122.2316451069
 20
103.1962716003
 10
122.2370860566
 20
103.2569271944
 10
122.2461290142
 20
103.3149584478
 10
122.2587358719
 20
103.3701170148
 10
122.274853058
 20
103.4221657793
 10
122.2944114495
 20
103.4708801611
 10
122.3173273719
 20
103.5160511843
 10
122.3435029363
 20
103.5574854111
 10
122.372825759
 20
103.5950046643
 10
122.4051701542
 20
103.6284480971
  0
LINE
  5
290
100
AcDbEntity
  8
0
100
AcDbLine
 62
250
  6
CONTINUOUS
 10
122.7298805188
 20
93.0469953274
 11
122.3712503299
 21
92.2742048798
  0
LINE
  5
291
100
AcDbEntity
  8
0
100
AcDbLine
 62
250
  6
CONTINUOUS
 10
106.319926397
 20
84.6410876367
 11
106.4613477532
 21
84.7227425554
  0
LWPOLYLINE
  5
292
100
AcDbEntity
  8
0
100
AcDbPolyline
 62
7
  6
CONTINUOUS
 90
3
 70
0
 10
117.2437143944
 20
94.378705503
 10
117.2031554782
 20
94.3582589681
 10
117.1602299095
 20
94.342367687
  0
LINE
  5
293
100
AcDbEntity
  8
0
100
AcDbLine
 62
250
  6
CONTINUOUS
 10
121.5227221925
 20
75.4549092868
 11
122.2298289736
 21
75.4549092868
  0
LINE
  5
294
100
AcDbEntity
  8
0
100
AcDbLine
 62
250
  6
CONTINUOUS
 10
137.4326247692
 20
77.209432646
 11
138.1397315503
 21
77.209432646
  0
LINE
  5
295
100
AcDbEntity
  8
0
100
AcDbLine
 62
250
  6
CONTINUOUS
 10
117.3515706755
 20
77.7316078816
 11
116.7851067585
 21
77.7821691607
  0
LINE
  5
296
100
AcDbEntity
  8
0
100
AcDbLine
 62
250
  6
CONTINUOUS
 10
149.171375767
 20
76.0968918616
 11
148.6049119119
 21
76.1474531352
  0
LWPOLYLINE
  5
297
100
AcDbEntity
  8
0
100
AcDbPolyline
 62
7
  6
CONTINUOUS
 90
6
 70
0
 10
117.087935774
 20
77.6718395077
 10
117.1098222639
 20
77.6692615859
 10
117.1604045002
 20
77.6665192614
 10
117.2093794074
 20
77.6684687014
 10
117.2565345059
 20
77.6751010617
 10
117.3016664813
 20
77.6863866273
  0
LWPOLYLINE
  5
298
100
AcDbEntity
  8
0
100
AcDbPolyline
 62
7
  6
CONTINUOUS
 90
6
 70
0
 10
148.9077409274
 20
76.0371234822
 10
148.9296272681
 20
76.0345455752
 10
148.980209546
 20
76.0318032367
 10
149.0291844069
 20
76.0337526621
 10
149.0763394781
 20
76.040385001
 10
149.121471485
 20
76.0516705556
  0
LWPOLYLINE
  5
299
100
AcDbEntity
  8
0
100
AcDbPolyline
 62
7
  6
CONTINUOUS
 90
25
 70
0
 10
122.3712503299
 20
92.2742048798
 10
122.3730664747
 20
92.2090875133
 10
122.3785076074
 20
92.1421472389
 10
122.3875511391
 20
92.0736703176
 10
122.4001593578
 20
92.0039481663
 10
122.4162788026
 20
91.9332806246
 10
122.4358397341
 20
91.8619748499
 10
122.458758306
 20
91.7903364519
 10
122.4849364095
 20
91.7186720666
 10
122.5142601827
 20
91.6472926556
 10
122.546602259
 20
91.5765064723
 10
122.5818246989
 20
91.5066138064
 10
122.6197784257
 20
91.4379099168
 10
122.6603009353
 20
91.3706889628
 10
122.7032187445
 20
91.3052387221
 10
122.7483507199
 20
91.2418358826
 10
122.7955058184
 20
91.1807499965
 10
122.8444807256
 20
91.1222455613
 10
122.8950629619
 20
91.0665767873
 10
122.9470358836
 20
91.0139820758
 10
123.0001768653
 20
90.9646866884
 10
123.0542550616
 20
90.9189043469
 10
123.1090376397
 20
90.8768312447
 10
123.1642909823
 20
90.8386458904
 10
123.2197784673
 20
90.8045110356
  0
LWPOLYLINE
  5
29A
100
AcDbEntity
  8
0
100
AcDbPolyline
 62
7
  6
CONTINUOUS
 90
28
 70
0
 10
122.7298805188
 20
76.3093546531
 10
122.7322069316
 20
76.2176653123
 10
122.7389832633
 20
76.1243092226
 10
122.7502095141
 20
76.0292863841
 10
122.7659534183
 20
75.9322641861
 10
122.7861472415
 20
75.8335752393
 10
122.8105877805
 20
75.7342173754
 10
122.8393183145
 20
75.6341838749
 10
122.8722955645
 20
75.5334814573
 10
122.9091864895
 20
75.4331281133
 10
122.9500307052
 20
75.3331277846
 10
122.994788596
 20
75.2334765295
 10
123.043008275
 20
75.1351805129
 10
123.0947247561
 20
75.0382535667
 10
123.1499030254
 20
74.942681859
 10
123.2079861549
 20
74.8494300594
 10
123.269003713
 20
74.7585214885
 10
123.3329261313
 20
74.6699328256
 10
123.3991077766
 20
74.5845587783
 10
123.4675717275
 20
74.5024318578
 10
123.5382949053
 20
74.423519553
 10
123.6105624411
 20
74.3486190374
 10
123.684390224
 20
74.2777710427
 10
123.7597623648
 20
74.2109348373
 10
123.835916327
 20
74.1487853997
 10
123.9125979316
 20
74.0915477228
 10
123.9900613575
 20
74.0389968137
 10
124.0683066047
 20
73.9911326725
  0
LWPOLYLINE
  5
29B
100
AcDbEntity
  8
0
100
AcDbPolyline
 62
7
  6
CONTINUOUS
 90
28
 70
0
 10
122.7298805188
 20
93.0469953274
 10
122.7322070117
 20
92.9553051211
 10
122.7389834439
 20
92.8619483161
 10
122.7502098153
 20
92.7669249124
 10
122.7659538799
 20
92.6699022986
 10
122.7861478838
 20
92.571213086
 10
122.8105885647
 20
92.471855109
 10
122.8393191436
 20
92.3718217586
 10
122.8722963994
 20
92.2711196438
 10
122.9091874063
 20
92.1707664246
 10
122.9500318613
 20
92.0707658287
 10
122.9947900674
 20
91.9711141285
 10
123.043010008
 20
91.8728178017
 10
123.0947266657
 20
91.7758907915
 10
123.1499050578
 20
91.6803191548
 10
123.2079882202
 20
91.5870675401
 10
123.2690056405
 20
91.4961593507
 10
123.3329278311
 20
91.4075711834
 10
123.3991093646
 20
91.322197477
 10
123.4675734646
 20
91.240070565
 10
123.5382969075
 20
91.161158114
 10
123.6105645958
 20
91.0862575621
 10
123.6843923515
 20
91.0154097468
 10
123.7597643526
 20
90.9485738308
 10
123.8359180349
 20
90.8864247401
 10
123.9125992103
 20
90.8291874502
 10
123.9900620669
 20
90.7766369858
 10
124.0683066047
 20
90.7287733467
  0
LINE
  5
29C
100
AcDbEntity
  8
0
100
AcDbLine
 62
7
  6
CONTINUOUS
 10
122.2298289736
 20
75.4549092868
 11
122.2298289736
 21
86.3956109959
  0
LINE
  5
29D
100
AcDbEntity
  8
0
100
AcDbLine
 62
7
  6
CONTINUOUS
 10
122.2298289736
 20
92.1925499611
 11
122.2298289736
 21
103.1332516701
  0
LINE
  5
29E
100
AcDbEntity
  8
0
100
AcDbLine
 62
7
  6
CONTINUOUS
 10
122.3712503299
 20
103.2149065888
 11
122.3712503299
 21
92.2742048798
  0
LINE
  5
29F
100
AcDbEntity
  8
0
100
AcDbLine
 62
7
  6
CONTINUOUS
 10
122.3712503299
 20
86.4772659145
 11
122.3712503299
 21
75.5365642055
  0
LINE
  5
2A0
100
AcDbEntity
  8
0
100
AcDbLine
 62
7
  6
CONTINUOUS
 10
122.7298805188
 20
103.7372822923
 11
122.7298805188
 21
93.0469953274
  0
LINE
  5
2A1
100
AcDbEntity
  8
0
100
AcDbLine
 62
7
  6
CONTINUOUS
 10
122.7298805188
 20
86.999641625
 11
122.7298805188
 21
76.3093546531
  0
LWPOLYLINE
  5
2A2
100
AcDbEntity
  8
0
100
AcDbPolyline
 62
7
  6
CONTINUOUS
 90
11
 70
0
 10
122.2298289736
 20
86.3956109959
 10
122.231645062
 20
86.4586301613
 10
122.2370858968
 20
86.5192852108
 10
122.2461286993
 20
86.5773161274
 10
122.2587353973
 20
86.6324745691
 10
122.2748524455
 20
86.6845233752
 10
122.2944107248
 20
86.7332378848
 10
122.3173265836
 20
86.7784091194
 10
122.3435021425
 20
86.8198436076
 10
122.3728249669
 20
86.8573630786
 10
122.4051693423
 20
86.8908066698
  0
LWPOLYLINE
  5
2A3
100
AcDbEntity
  8
0
100
AcDbPolyline
 62
7
  6
CONTINUOUS
 90
7
 70
0
 10
122.4270988484
 20
86.7945967885
 10
122.4162788026
 20
86.7661924181
 10
122.4001593578
 20
86.7141392073
 10
122.3875511391
 20
86.6589767109
 10
122.3785076074
 20
86.6009430332
 10
122.3730664747
 20
86.5402860425
 10
122.3712503299
 20
86.4772659145
  0
LINE
  5
2A4
100
AcDbEntity
  8
0
100
AcDbLine
 62
250
  6
CONTINUOUS
 10
122.6106025193
 20
86.9930314337
 11
122.3712503299
 21
86.4772659145
  0
LWPOLYLINE
  5
2A5
100
AcDbEntity
  8
0
100
AcDbPolyline
 62
7
  6
CONTINUOUS
 90
7
 70
0
 10
117.4276317886
 20
77.8527221732
 10
117.4047159297
 20
77.8075509386
 10
117.3785403708
 20
77.7661164504
 10
117.3492175465
 20
77.7285969795
 10
117.3168731711
 20
77.6951533882
 10
117.2816456159
 20
77.6659287566
 10
117.2437143944
 20
77.6410648288
  0
LWPOLYLINE
  5
2A6
100
AcDbEntity
  8
0
100
AcDbPolyline
 62
7
  6
CONTINUOUS
 90
3
 70
0
 10
122.458758306
 20
86.860082325
 10
122.4358397341
 20
86.8149097194
 10
122.4270988484
 20
86.7945967885
  0
LINE
  5
2A7
100
AcDbEntity
  8
0
100
AcDbLine
 62
250
  6
CONTINUOUS
 10
122.7248037205
 20
90.1104836819
 11
123.0783571111
 21
90.722856117
  0
LINE
  5
2A8
100
AcDbEntity
  8
0
100
AcDbLine
 62
250
  6
CONTINUOUS
 10
116.2901320117
 20
77.0881418069
 11
116.6436854023
 21
77.700514242
  0
LWPOLYLINE
  5
2A9
100
AcDbEntity
  8
0
100
AcDbPolyline
 62
7
  6
CONTINUOUS
 90
4
 70
0
 10
122.546602259
 20
86.9724723097
 10
122.5142601827
 20
86.9390339453
 10
122.4849364095
 20
86.9015168926
 10
122.458758306
 20
86.860082325
  0
LWPOLYLINE
  5
2AA
100
AcDbEntity
  8
0
100
AcDbPolyline
 62
7
  6
CONTINUOUS
 90
3
 70
0
 10
122.4051693423
 20
86.8908066698
 10
122.4403968975
 20
86.9200313015
 10
122.4783281189
 20
86.9448952292
  0
LINE
  5
2AB
100
AcDbEntity
  8
0
100
AcDbLine
 62
250
  6
CONTINUOUS
 10
122.3712503299
 20
92.2742048798
 11
122.2298289736
 21
92.1925499611
  0
LINE
  5
2AC
100
AcDbEntity
  8
0
100
AcDbLine
 62
250
  6
CONTINUOUS
 10
107.1684545344
 20
83.1713937926
 11
107.3098758906
 21
83.2530487112
  0
LINE
  5
2AD
100
AcDbEntity
  8
0
100
AcDbLine
 62
250
  6
CONTINUOUS
 10
123.2197784673
 20
90.8045110356
 11
123.0783571111
 21
90.722856117
  0
LWPOLYLINE
  5
2AE
100
AcDbEntity
  8
0
100
AcDbPolyline
 62
7
  6
CONTINUOUS
 90
11
 70
0
 10
117.1602309677
 20
77.6047273393
 10
117.1150934115
 20
77.5934423111
 10
117.06793691
 20
77.5868118958
 10
117.0189636139
 20
77.5848644986
 10
116.9683840313
 20
77.5876083402
 10
116.9164146391
 20
77.5950314582
 10
116.8632782628
 20
77.6071018122
 10
116.8092039655
 20
77.6237669573
 10
116.7544238909
 20
77.6449547141
 10
116.6991721755
 20
77.670573897
 10
116.6436854023
 20
77.700514242
  0
LINE
  5
2AF
100
AcDbEntity
  8
0
100
AcDbLine
 62
250
  6
CONTINUOUS
 10
137.4326247692
 20
83.0063716112
 11
138.1397315503
 21
83.0063716112
  0
LINE
  5
2B0
100
AcDbEntity
  8
0
100
AcDbLine
 62
250
  6
CONTINUOUS
 10
108.158404028
 20
83.1773110223
 11
107.3098758906
 21
83.2530487112
  0
LINE
  5
2B1
100
AcDbEntity
  8
0
100
AcDbLine
 62
250
  6
CONTINUOUS
 10
139.9782091814
 20
81.5425949968
 11
139.129681044
 21
81.6183326857
  0
LINE
  5
2B2
100
AcDbEntity
  8
0
100
AcDbLine
 62
7
  6
CONTINUOUS
 10
106.8149011438
 20
96.2757220076
 11
116.2901320117
 21
90.804842457
  0
LINE
  5
2B3
100
AcDbEntity
  8
0
100
AcDbLine
 62
7
  6
CONTINUOUS
 10
122.7248037205
 20
87.0895436578
 11
132.2000345884
 21
81.6186641072
  0
LINE
  5
2B4
100
AcDbEntity
  8
0
100
AcDbLine
 62
7
  6
CONTINUOUS
 10
138.6347062972
 20
77.9033653079
 11
148.1099371651
 21
72.4324857573
  0
LWPOLYLINE
  5
2B5
100
AcDbEntity
  8
0
100
AcDbPolyline
 62
7
  6
CONTINUOUS
 90
28
 70
0
 10
116.2901320117
 20
90.804842457
 10
116.3604096002
 20
90.7618520225
 10
116.4299844914
 20
90.714652399
 10
116.4988566853
 20
90.6632435867
 10
116.5672544828
 20
90.6074233916
 10
116.634949583
 20
90.5473940076
 10
116.7012570832
 20
90.4837620163
 10
116.7661626873
 20
90.4164908289
 10
116.8296806914
 20
90.3456170342
 10
116.8911690813
 20
90.27185698
 10
116.9506070238
 20
90.1951816013
 10
117.008015352
 20
90.1156199632
 10
117.0628145511
 20
90.0339756084
 10
117.1149779072
 20
89.9502280504
 10
117.1645321342
 20
89.8643977758
 10
117.2109778587
 20
89.7773497875
 10
117.2542839403
 20
89.6890713376
 10
117.2944815194
 20
89.5995751739
 10
117.3311646445
 20
89.5097645425
 10
117.3642978045
 20
89.4196358337
 10
117.3939165106
 20
89.3291926572
 10
117.4197213447
 20
89.2393490878
 10
117.4416734886
 20
89.1501109798
 10
117.4598117606
 20
89.0614724789
 10
117.473953198
 20
88.974330097
 10
117.4840368132
 20
88.8889826716
 10
117.4901235938
 20
88.8051313652
 10
117.4922135397
 20
88.7227761778
  0
LWPOLYLINE
  5
2B6
100
AcDbEntity
  8
0
100
AcDbPolyline
 62
7
  6
CONTINUOUS
 90
28
 70
0
 10
132.2000345884
 20
81.6186641072
 10
132.2703121769
 20
81.5756736726
 10
132.3398870681
 20
81.5284740492
 10
132.408759262
 20
81.4770652368
 10
132.4771570595
 20
81.4212450417
 10
132.5448521597
 20
81.3612156577
 10
132.6111596599
 20
81.2975836664
 10
132.676065264
 20
81.230312479
 10
132.7395832681
 20
81.1594386843
 10
132.801071658
 20
81.0856786301
 10
132.8605096005
 20
81.0090032515
 10
132.9179179287
 20
80.9294416133
 10
132.9727171278
 20
80.8477972586
 10
133.0248804839
 20
80.7640497006
 10
133.0744347109
 20
80.678219426
 10
133.1208804354
 20
80.5911714376
 10
133.1641865169
 20
80.5028929877
 10
133.2043840961
 20
80.413396824
 10
133.2410672212
 20
80.3235861926
 10
133.2742003812
 20
80.2334574838
 10
133.3038190873
 20
80.1430143074
 10
133.3296239214
 20
80.053170738
 10
133.3515760653
 20
79.96393263
 10
133.3697143373
 20
79.875294129
 10
133.3838557747
 20
79.7881517472
 10
133.3939393899
 20
79.7028043217
 10
133.4000261705
 20
79.6189530153
 10
133.4021161164
 20
79.536597828
  0
LINE
  5
2B7
100
AcDbEntity
  8
0
100
AcDbLine
 62
250
  6
CONTINUOUS
 10
122.7298805188
 20
76.3093546531
 11
122.3712503299
 21
75.5365642055
  0
LWPOLYLINE
  5
2B8
100
AcDbEntity
  8
0
100
AcDbPolyline
 62
7
  6
CONTINUOUS
 90
3
 70
0
 10
138.3150727309
 20
94.4422697473
 10
138.3503003146
 20
94.4714942472
 10
138.3882306956
 20
94.4963575536
  0
LINE
  5
2B9
100
AcDbEntity
  8
0
100
AcDbLine
 62
250
  6
CONTINUOUS
 10
122.2298289736
 20
86.3956109959
 11
122.3712503299
 21
86.4772659145
  0
LINE
  5
2BA
100
AcDbEntity
  8
0
100
AcDbLine
 62
250
  6
CONTINUOUS
 10
138.2811529066
 20
94.0287282389
 11
138.1397315503
 21
93.9470733202
  0
LINE
  5
2BB
100
AcDbEntity
  8
0
100
AcDbLine
 62
7
  6
CONTINUOUS
 10
159.1443034706
 20
104.9708074863
 11
163.2062364553
 21
107.3161013885
  0
LWPOLYLINE
  5
2BC
100
AcDbEntity
  8
0
100
AcDbPolyline
 62
7
  6
CONTINUOUS
 90
13
 70
0
 10
122.4783281189
 20
86.9448952292
 10
122.5188860768
 20
86.965341347
 10
122.5618115457
 20
86.9812327187
 10
122.6069491018
 20
86.9925177469
 10
122.6541056033
 20
86.9991481622
 10
122.7030788995
 20
87.0010955594
 10
122.753658482
 20
86.9983517178
 10
122.8056278742
 20
86.9909285998
 10
122.8587642506
 20
86.9788582458
 10
122.9128385478
 20
86.9621931008
 10
122.9676186224
 20
86.9410053439
 10
123.0228703379
 20
86.915386161
 10
123.0783571111
 20
86.885445816
  0
LWPOLYLINE
  5
2BD
100
AcDbEntity
  8
0
100
AcDbPolyline
 62
7
  6
CONTINUOUS
 90
13
 70
0
 10
138.3882306956
 20
94.4963575536
 10
138.4287896119
 20
94.5168040885
 10
138.4717151806
 20
94.5326953696
 10
138.516852864
 20
94.5439803014
 10
138.5640095549
 20
94.5506106093
 10
138.6129830747
 20
94.552557871
 10
138.6635628085
 20
94.5498138687
 10
138.7155322553
 20
94.5423905895
 10
138.7686685987
 20
94.5303200954
 10
138.8227427076
 20
94.5136548746
 10
138.877522413
 20
94.4924671519
 10
138.9327735994
 20
94.4668481418
 10
138.9882596878
 20
94.4369081404
  0
LWPOLYLINE
  5
2BE
100
AcDbEntity
  8
0
100
AcDbPolyline
 62
7
  6
CONTINUOUS
 90
11
 70
0
 10
133.0701324862
 20
85.1561893372
 10
133.0249948027
 20
85.1449044054
 10
132.9778381118
 20
85.1382740975
 10
132.928864592
 20
85.1363268358
 10
132.8782848582
 20
85.1390708381
 10
132.8263154114
 20
85.1464941173
 10
132.773179068
 20
85.1585646114
 10
132.7191049591
 20
85.1752298321
 10
132.6643252538
 20
85.1964175549
 10
132.6090740674
 20
85.222036565
 10
132.553587979
 20
85.2519765664
  0
LINE
  5
2BF
100
AcDbEntity
  8
0
100
AcDbLine
 62
250
  6
CONTINUOUS
 10
105.6128196158
 20
84.6410876367
 11
106.319926397
 21
84.6410876367
  0
LINE
  5
2C0
100
AcDbEntity
  8
0
100
AcDbLine
 62
250
  6
CONTINUOUS
 10
121.5227221925
 20
86.3956109959
 11
122.2298289736
 21
86.3956109959
  0
LINE
  5
2C1
100
AcDbEntity
  8
0
100
AcDbLine
 62
250
  6
CONTINUOUS
 10
133.2614731903
 20
85.2830702115
 11
132.6950093352
 21
85.333631485
  0
LWPOLYLINE
  5
2C2
100
AcDbEntity
  8
0
100
AcDbPolyline
 62
7
  6
CONTINUOUS
 90
6
 70
0
 10
132.9978383507
 20
85.2233018321
 10
133.0197246914
 20
85.2207239251
 10
133.0703069693
 20
85.2179815866
 10
133.1192818302
 20
85.219931012
 10
133.1664369014
 20
85.2265633509
 10
133.2115689083
 20
85.2378489054
  0
LWPOLYLINE
  5
2C3
100
AcDbEntity
  8
0
100
AcDbPolyline
 62
7
  6
CONTINUOUS
 90
7
 70
0
 10
148.6049119119
 20
76.1474531352
 10
148.6603988621
 20
76.1175127014
 10
148.7156518787
 20
76.0918929785
 10
148.7704343398
 20
76.0707045065
 10
148.8245127208
 20
76.054038575
 10
148.8776540773
 20
76.0419679537
 10
148.9077409274
 20
76.0371234822
  0
LWPOLYLINE
  5
2C4
100
AcDbEntity
  8
0
100
AcDbPolyline
 62
7
  6
CONTINUOUS
 90
7
 70
0
 10
132.6950093352
 20
85.333631485
 10
132.7504962854
 20
85.3036910513
 10
132.805749302
 20
85.2780713284
 10
132.8605317631
 20
85.2568828564
 10
132.9146101441
 20
85.2402169249
 10
132.9677515006
 20
85.2281463036
 10
132.9978383507
 20
85.2233018321
  0
LWPOLYLINE
  5
2C5
100
AcDbEntity
  8
0
100
AcDbPolyline
 62
7
  6
CONTINUOUS
 90
7
 70
0
 10
116.7851067585
 20
94.5198098349
 10
116.8405937087
 20
94.4898694011
 10
116.8958467253
 20
94.4642496783
 10
116.9506291864
 20
94.4430612063
 10
117.0047075674
 20
94.4263952748
 10
117.0578489239
 20
94.4143246535
 10
117.087935774
 20
94.409480182
  0
LINE
  5
2C6
100
AcDbEntity
  8
0
100
AcDbLine
 62
7
  6
CONTINUOUS
 10
148.1099371651
 20
75.4534257814
 11
138.6347062972
 21
80.924305332
  0
LINE
  5
2C7
100
AcDbEntity
  8
0
100
AcDbLine
 62
7
  6
CONTINUOUS
 10
132.2000345884
 20
84.6396041313
 11
122.7248037205
 21
90.1104836819
  0
LINE
  5
2C8
100
AcDbEntity
  8
0
100
AcDbLine
 62
7
  6
CONTINUOUS
 10
116.2901320117
 20
93.8257824812
 11
106.8149011438
 21
99.2966620318
  0
LINE
  5
2C9
100
AcDbEntity
  8
0
100
AcDbLine
 62
7
  6
CONTINUOUS
 10
148.4634905557
 20
76.0657982165
 11
138.9882596878
 21
81.5366777671
  0
LINE
  5
2CA
100
AcDbEntity
  8
0
100
AcDbLine
 62
7
  6
CONTINUOUS
 10
132.553587979
 20
85.2519765664
 11
123.0783571111
 21
90.722856117
  0
LINE
  5
2CB
100
AcDbEntity
  8
0
100
AcDbLine
 62
7
  6
CONTINUOUS
 10
116.6436854023
 20
94.4381549162
 11
107.1684545344
 21
99.9090344668
  0
LINE
  5
2CC
100
AcDbEntity
  8
0
100
AcDbLine
 62
7
  6
CONTINUOUS
 10
107.3098758906
 20
99.9906893855
 11
116.7851067585
 21
94.5198098349
  0
LINE
  5
2CD
100
AcDbEntity
  8
0
100
AcDbLine
 62
7
  6
CONTINUOUS
 10
123.2197784673
 20
90.8045110356
 11
132.6950093352
 21
85.333631485
  0
LINE
  5
2CE
100
AcDbEntity
  8
0
100
AcDbLine
 62
7
  6
CONTINUOUS
 10
139.129681044
 20
81.6183326857
 11
148.6049119119
 21
76.1474531352
  0
LINE
  5
2CF
100
AcDbEntity
  8
0
100
AcDbLine
 62
7
  6
CONTINUOUS
 10
108.158404028
 20
99.9149516966
 11
117.4169014092
 21
94.5692113449
  0
LINE
  5
2D0
100
AcDbEntity
  8
0
100
AcDbLine
 62
7
  6
CONTINUOUS
 10
124.0683066047
 20
90.7287733467
 11
133.3268039859
 21
85.383032995
  0
LINE
  5
2D1
100
AcDbEntity
  8
0
100
AcDbLine
 62
7
  6
CONTINUOUS
 10
139.9782091814
 20
81.5425949968
 11
149.2367065626
 21
76.1968546452
  0
LWPOLYLINE
  5
2D2
100
AcDbEntity
  8
0
100
AcDbPolyline
 62
7
  6
CONTINUOUS
 90
28
 70
0
 10
148.1099371651
 20
72.4324857573
 10
148.1802147536
 20
72.3894953227
 10
148.2497896448
 20
72.3422956993
 10
148.3186618387
 20
72.290886887
 10
148.3870596362
 20
72.2350666919
 10
148.4547547363
 20
72.1750373079
 10
148.5210622366
 20
72.1114053165
 10
148.5859678407
 20
72.0441341292
 10
148.6494858448
 20
71.9732603345
 10
148.7109742347
 20
71.8995002803
 10
148.7704121772
 20
71.8228249016
 10
148.8278205054
 20
71.7432632634
 10
148.8826197045
 20
71.6616189087
 10
148.9347830606
 20
71.5778713507
 10
148.9843372876
 20
71.4920410761
 10
149.0307830121
 20
71.4049930877
 10
149.0740890936
 20
71.3167146378
 10
149.1142866728
 20
71.2272184741
 10
149.1509697979
 20
71.1374078427
 10
149.1841029579
 20
71.047279134
 10
149.213721664
 20
70.9568359575
 10
149.2395264981
 20
70.8669923881
 10
149.261478642
 20
70.7777542801
 10
149.279616914
 20
70.6891157791
 10
149.2937583514
 20
70.6019733973
 10
149.3038419666
 20
70.5166259718
 10
149.3099287472
 20
70.4327746654
 10
149.3120186931
 20
70.3504194781
  0
LWPOLYLINE
  5
2D3
100
AcDbEntity
  8
0
100
AcDbPolyline
 62
7
  6
CONTINUOUS
 90
28
 70
0
 10
106.8149011438
 20
99.2966620318
 10
106.7446222356
 20
99.3396533765
 10
106.675046219
 20
99.3868538788
 10
106.6061730941
 20
99.4382635388
 10
106.5377745484
 20
99.4940846011
 10
106.4700788942
 20
99.5541148211
 10
106.4037710687
 20
99.6177474643
 10
106.3388654126
 20
99.6850190727
 10
106.2753475851
 20
99.7558931042
 10
106.2138595001
 20
99.829653199
 10
106.1544220413
 20
99.9063283026
 10
106.097014325
 20
99.9858894694
 10
106.0422156153
 20
100.0675335023
 10
105.990052524
 20
100.1512809928
 10
105.9404984392
 20
100.2371113494
 10
105.8940527886
 20
100.3241596009
 10
105.850746673
 20
100.4124386354
 10
105.8105489917
 20
100.5019355648
 10
105.7738658702
 20
100.5917467526
 10
105.7407328978
 20
100.6818757051
 10
105.7111144852
 20
100.7723189161
 10
105.6853099896
 20
100.86216223
 10
105.6633582476
 20
100.9513997303
 10
105.6452204226
 20
101.0400373335
 10
105.6310793622
 20
101.1271786338
 10
105.6209960155
 20
101.2125248291
 10
105.6149094333
 20
101.2963747215
 10
105.6128196158
 20
101.378728311
  0
LWPOLYLINE
  5
2D4
100
AcDbEntity
  8
0
100
AcDbPolyline
 62
7
  6
CONTINUOUS
 90
28
 70
0
 10
122.7248037205
 20
90.1104836819
 10
122.6545248123
 20
90.1534750266
 10
122.5849487957
 20
90.2006755289
 10
122.5160756708
 20
90.2520851889
 10
122.4476771251
 20
90.3079062513
 10
122.3799814709
 20
90.3679364712
 10
122.3136736454
 20
90.4315691145
 10
122.2487679893
 20
90.4988407228
 10
122.1852501618
 20
90.5697147544
 10
122.1237620768
 20
90.6434748491
 10
122.064324618
 20
90.7201499527
 10
122.0069169017
 20
90.7997111195
 10
121.952118192
 20
90.8813551524
 10
121.8999551007
 20
90.9651026429
 10
121.8504010159
 20
91.0509329996
 10
121.8039553653
 20
91.137981251
 10
121.7606492497
 20
91.2262602856
 10
121.7204515684
 20
91.3157572149
 10
121.6837684469
 20
91.4055684027
 10
121.6506354745
 20
91.4956973552
 10
121.6210170619
 20
91.5861405662
 10
121.5952125663
 20
91.6759838801
 10
121.5732608243
 20
91.7652213804
 10
121.5551229993
 20
91.8538589836
 10
121.5409819389
 20
91.9410002839
 10
121.5308985922
 20
92.0263464793
 10
121.52481201
 20
92.1101963717
 10
121.5227221925
 20
92.1925499611
  0
LWPOLYLINE
  5
2D5
100
AcDbEntity
  8
0
100
AcDbPolyline
 62
7
  6
CONTINUOUS
 90
28
 70
0
 10
138.6347062972
 20
80.924305332
 10
138.564427389
 20
80.9672966767
 10
138.4948513724
 20
81.0144971791
 10
138.4259782475
 20
81.065906839
 10
138.3575797018
 20
81.1217279014
 10
138.2898840476
 20
81.1817581214
 10
138.2235762221
 20
81.2453907646
 10
138.158670566
 20
81.3126623729
 10
138.0951527384
 20
81.3835364045
 10
138.0336646535
 20
81.4572964992
 10
137.9742271947
 20
81.5339716028
 10
137.9168194784
 20
81.6135327696
 10
137.8620207687
 20
81.6951768025
 10
137.8098576774
 20
81.778924293
 10
137.7603035926
 20
81.8647546497
 10
137.713857942
 20
81.9518029011
 10
137.6705518264
 20
82.0400819357
 10
137.6303541451
 20
82.129578865
 10
137.5936710236
 20
82.2193900528
 10
137.5605380512
 20
82.3095190054
 10
137.5309196386
 20
82.3999622163
 10
137.505115143
 20
82.4898055302
 10
137.483163401
 20
82.5790430305
 10
137.465025576
 20
82.6676806337
 10
137.4508845156
 20
82.754821934
 10
137.4408011689
 20
82.8401681294
 10
137.4347145867
 20
82.9240180218
 10
137.4326247692
 20
83.0063716112
  0
LWPOLYLINE
  5
2D6
100
AcDbEntity
  8
0
100
AcDbPolyline
 62
7
  6
CONTINUOUS
 90
25
 70
0
 10
107.1684545344
 20
99.9090344668
 10
107.1129677612
 20
99.9431688567
 10
107.0577160457
 20
99.9813529699
 10
107.0029359711
 20
100.02342387
 10
106.9488616739
 20
100.069202368
 10
106.8957252975
 20
100.1184925696
 10
106.8437559053
 20
100.171082403
 10
106.7931763228
 20
100.2267465955
 10
106.7442030266
 20
100.2852471275
 10
106.6970465251
 20
100.3463326888
 10
106.651908969
 20
100.4097414354
 10
106.6089835001
 20
100.4752020626
 10
106.5684540911
 20
100.5424340438
 10
106.5304943208
 20
100.611149445
 10
106.4952667656
 20
100.6810539744
 10
106.4629223902
 20
100.7518480397
 10
106.4335995658
 20
100.8232287731
 10
106.4074240069
 20
100.8948901406
 10
106.3845081481
 20
100.9665240346
 10
106.3649498688
 20
101.0378239549
 10
106.3488328206
 20
101.1084843242
 10
106.3362261226
 20
101.1782006647
 10
106.3271833201
 20
101.2466739831
 10
106.3217424853
 20
101.3136119722
 10
106.319926397
 20
101.378728311
  0
LWPOLYLINE
  5
2D7
100
AcDbEntity
  8
0
100
AcDbPolyline
 62
7
  6
CONTINUOUS
 90
25
 70
0
 10
123.0783571111
 20
90.722856117
 10
123.0228703379
 20
90.7569905069
 10
122.9676186224
 20
90.79517462
 10
122.9128385478
 20
90.8372455202
 10
122.8587642506
 20
90.8830240182
 10
122.8056278742
 20
90.9323142197
 10
122.753658482
 20
90.9849040531
 10
122.7030788995
 20
91.0405682457
 10
122.6541056033
 20
91.0990687776
 10
122.6069491018
 20
91.1601543389
 10
122.5618115457
 20
91.2235630855
 10
122.5188860768
 20
91.2890237128
 10
122.4783566678
 20
91.356255694
 10
122.4403968975
 20
91.4249710952
 10
122.4051693423
 20
91.4948756245
 10
122.3728249669
 20
91.5656696898
 10
122.3435021425
 20
91.6370504232
 10
122.3173265836
 20
91.7087117907
 10
122.2944107248
 20
91.7803456847
 10
122.2748524455
 20
91.851645605
 10
122.2587353973
 20
91.9223059743
 10
122.2461286993
 20
91.9920223149
 10
122.2370858968
 20
92.0604956332
 10
122.231645062
 20
92.1274336224
 10
122.2298289736
 20
92.1925499611
  0
LWPOLYLINE
  5
2D8
100
AcDbEntity
  8
0
100
AcDbPolyline
 62
7
  6
CONTINUOUS
 90
25
 70
0
 10
138.9882596878
 20
81.5366777671
 10
138.9327729146
 20
81.570812157
 10
138.8775211991
 20
81.6089962701
 10
138.8227411245
 20
81.6510671703
 10
138.7686668273
 20
81.6968456683
 10
138.7155304509
 20
81.7461358698
 10
138.6635610587
 20
81.7987257033
 10
138.6129814762
 20
81.8543898958
 10
138.56400818
 20
81.9128904278
 10
138.5168516785
 20
81.973975989
 10
138.4717141224
 20
82.0373847357
 10
138.4287886535
 20
82.1028453629
 10
138.3882592445
 20
82.1700773441
 10
138.3502994741
 20
82.2387927453
 10
138.315071919
 20
82.3086972746
 10
138.2827275436
 20
82.3794913399
 10
138.2534047192
 20
82.4508720734
 10
138.2272291603
 20
82.5225334408
 10
138.2043133015
 20
82.5941673349
 10
138.1847550222
 20
82.6654672551
 10
138.168637974
 20
82.7361276245
 10
138.156031276
 20
82.805843965
 10
138.1469884735
 20
82.8743172833
 10
138.1415476387
 20
82.9412552725
 10
138.1397315503
 20
83.0063716112
  0
LINE
  5
2D9
100
AcDbEntity
  8
0
100
AcDbLine
 62
7
  6
CONTINUOUS
 10
96.4863496307
 20
140.3317573993
 11
96.4867249382
 21
140.3311210377
  0
LINE
  5
2DA
100
AcDbEntity
  8
0
100
AcDbLine
 62
7
  6
CONTINUOUS
 10
159.1439410403
 20
31.8056394006
 11
159.1443034706
 21
31.8049979629
  0
LINE
  5
2DB
100
AcDbEntity
  8
0
100
AcDbLine
 62
7
  6
CONTINUOUS
 10
133.4021161164
 20
96.2742385022
 11
133.4021161164
 21
85.3335367932
  0
LINE
  5
2DC
100
AcDbEntity
  8
0
100
AcDbLine
 62
7
  6
CONTINUOUS
 10
133.4021161164
 20
79.536597828
 11
133.4021161164
 21
68.5958961189
  0
LWPOLYLINE
  5
2DD
100
AcDbEntity
  8
0
100
AcDbPolyline
 62
7
  6
CONTINUOUS
 90
28
 70
0
 10
133.4021161164
 20
85.3335367932
 10
133.4000261705
 20
85.253595023
 10
133.3939393899
 20
85.1767725783
 10
133.3838557747
 20
85.1030694588
 10
133.3697143373
 20
85.0322572544
 10
133.3515760653
 20
84.9645643754
 10
133.3296239214
 20
84.9006760529
 10
133.3038190873
 20
84.8406312591
 10
133.2742003812
 20
84.784391022
 10
133.2410672212
 20
84.7325236559
 10
133.2043840961
 20
84.6850737779
 10
133.1641865169
 20
84.641996771
 10
133.1208804354
 20
84.6037270985
 10
133.0744347109
 20
84.5703134687
 10
133.0248804839
 20
84.5417071732
 10
132.9727171278
 20
84.5181965513
 10
132.9179179287
 20
84.4998329381
 10
132.8605096005
 20
84.4865649984
 10
132.801071658
 20
84.4785270658
 10
132.7395832681
 20
84.475772263
 10
132.676065264
 20
84.4782474674
 10
132.6111596599
 20
84.4859276447
 10
132.5448521597
 20
84.4988658926
 10
132.4771570595
 20
84.5170091135
 10
132.408759262
 20
84.5401729804
 10
132.3398870681
 20
84.5682960513
 10
132.2703121769
 20
84.6014397682
 10
132.2000345884
 20
84.6396041313
  0
LWPOLYLINE
  5
2DE
100
AcDbEntity
  8
0
100
AcDbPolyline
 62
7
  6
CONTINUOUS
 90
28
 70
0
 10
133.4021161164
 20
68.5958961189
 10
133.4000262988
 20
68.5159557984
 10
133.3939397167
 20
68.4391345385
 10
133.38385637
 20
68.3654323392
 10
133.3697153096
 20
68.294620781
 10
133.3515774846
 20
68.2269282835
 10
133.3296257426
 20
68.1630401046
 10
133.303821247
 20
68.1029951754
 10
133.2742028344
 20
68.0467545649
 10
133.241069862
 20
67.9948867383
 10
133.2043867404
 20
67.9474362998
 10
133.1641890591
 20
67.9043586453
 10
133.1208829435
 20
67.8660884275
 10
133.074437293
 20
67.8326744491
 10
133.0248832082
 20
67.8040679075
 10
132.9727201169
 20
67.7805570473
 10
132.9179214071
 20
67.7621931908
 10
132.8605136909
 20
67.7489250158
 10
132.801076232
 20
67.7408867998
 10
132.7395881471
 20
67.7381316043
 10
132.6760703196
 20
67.7406063678
 10
132.6111646635
 20
67.7482861842
 10
132.5448568379
 20
67.7612241559
 10
132.4771611838
 20
67.7793671804
 10
132.4087626381
 20
67.8025310442
 10
132.3398895131
 20
67.8306543426
 10
132.2703134965
 20
67.8637984802
 10
132.2000345884
 20
67.9019634571
  0
LWPOLYLINE
  5
2DF
100
AcDbEntity
  8
0
100
AcDbPolyline
 62
7
  6
CONTINUOUS
 90
7
 70
0
 10
133.4021161164
 20
85.7418113865
 10
133.4002999831
 20
85.6787914563
 10
133.3948590335
 20
85.6181358622
 10
133.3858160758
 20
85.5601046088
 10
133.3732092181
 20
85.5049460419
 10
133.3570920321
 20
85.4528972773
 10
133.3375336405
 20
85.4041828956
  0
LWPOLYLINE
  5
2E0
100
AcDbEntity
  8
0
100
AcDbPolyline
 62
7
  6
CONTINUOUS
 90
7
 70
0
 10
133.4021161164
 20
69.0041707123
 10
133.400300028
 20
68.9411515469
 10
133.3948591932
 20
68.8804964973
 10
133.3858163907
 20
68.8224655807
 10
133.3732096927
 20
68.767307139
 10
133.3570926445
 20
68.7152583329
 10
133.3375343653
 20
68.6665438233
  0
LINE
  5
2E1
100
AcDbEntity
  8
0
100
AcDbLine
 62
250
  6
CONTINUOUS
 10
138.5205051223
 20
94.5444938149
 11
138.2811529066
 21
94.0287282389
  0
LWPOLYLINE
  5
2E2
100
AcDbEntity
  8
0
100
AcDbPolyline
 62
7
  6
CONTINUOUS
 90
7
 70
0
 10
133.3375336405
 20
85.4041828956
 10
133.3146177181
 20
85.3590118723
 10
133.2884421537
 20
85.3175776455
 10
133.2591193311
 20
85.2800583923
 10
133.2267749358
 20
85.2466149595
 10
133.1915473521
 20
85.2173904596
 10
133.1536169711
 20
85.1925271531
  0
LWPOLYLINE
  5
2E3
100
AcDbEntity
  8
0
100
AcDbPolyline
 62
7
  6
CONTINUOUS
 90
3
 70
0
 10
138.3686609358
 20
94.411544743
 10
138.3457423726
 20
94.3663721803
 10
138.3370014251
 20
94.3460591129
  0
LINE
  5
2E4
100
AcDbEntity
  8
0
100
AcDbLine
 62
250
  6
CONTINUOUS
 10
122.7248037205
 20
73.3728430076
 11
123.0783571111
 21
73.9852154427
  0
LINE
  5
2E5
100
AcDbEntity
  8
0
100
AcDbLine
 62
250
  6
CONTINUOUS
 10
132.2000345884
 20
84.6396041313
 11
132.553587979
 21
85.2519765664
  0
LWPOLYLINE
  5
2E6
100
AcDbEntity
  8
0
100
AcDbPolyline
 62
7
  6
CONTINUOUS
 90
4
 70
0
 10
138.4565049506
 20
94.5239347406
 10
138.4241628805
 20
94.490496409
 10
138.394839075
 20
94.4529793434
 10
138.3686609358
 20
94.411544743
  0
LINE
  5
2E7
100
AcDbEntity
  8
0
100
AcDbLine
 62
7
  6
CONTINUOUS
 10
159.8518407399
 20
103.745316989
 11
163.9137737246
 21
106.0906108911
  0
LINE
  5
2E8
100
AcDbEntity
  8
0
100
AcDbLine
 62
250
  6
CONTINUOUS
 10
116.6436854023
 20
77.700514242
 11
116.7851067585
 21
77.7821691607
  0
LINE
  5
2E9
100
AcDbEntity
  8
0
100
AcDbLine
 62
250
  6
CONTINUOUS
 10
132.6950093352
 20
85.333631485
 11
132.553587979
 21
85.2519765664
  0
LWPOLYLINE
  5
2EA
100
AcDbEntity
  8
0
100
AcDbPolyline
 62
7
  6
CONTINUOUS
 90
3
 70
0
 10
117.2437143944
 20
77.6410648288
 10
117.2031564366
 20
77.620618711
 10
117.1602309677
 20
77.6047273393
  0
LWPOLYLINE
  5
2EB
100
AcDbEntity
  8
0
100
AcDbPolyline
 62
7
  6
CONTINUOUS
 90
3
 70
0
 10
133.1536169711
 20
85.1925271531
 10
133.1130580549
 20
85.1720806183
 10
133.0701324862
 20
85.1561893372
  0
LINE
  5
2EC
100
AcDbEntity
  8
0
100
AcDbLine
 62
7
  6
CONTINUOUS
 10
115.28222906
 20
79.0641037314
 11
116.541402234
 21
79.5805733356
  0
LINE
  5
2ED
100
AcDbEntity
  8
0
100
AcDbLine
 62
250
  6
CONTINUOUS
 10
121.5227221925
 20
92.1925499611
 11
122.2298289736
 21
92.1925499611
  0
LINE
  5
2EE
100
AcDbEntity
  8
0
100
AcDbLine
 62
250
  6
CONTINUOUS
 10
124.0683066047
 20
90.7287733467
 11
123.2197784673
 21
90.8045110356
  0
LWPOLYLINE
  5
2EF
100
AcDbEntity
  8
0
100
AcDbPolyline
 62
7
  6
CONTINUOUS
 90
25
 70
0
 10
138.2811529066
 20
66.3503858556
 10
138.2829690865
 20
66.2852678514
 10
138.2884102974
 20
66.2183271554
 10
138.2974539103
 20
66.1498500521
 10
138.310062147
 20
66.0801281036
 10
138.3261815213
 20
66.0094610355
 10
138.3457423726
 20
65.9381556179
 10
138.3686609358
 20
65.8665172728
 10
138.394839075
 20
65.7948528135
 10
138.4241628805
 20
65.7234733523
 10
138.4565049506
 20
65.652687209
 10
138.4917273692
 20
65.582794605
 10
138.5296810856
 20
65.5140907486
 10
138.5702036187
 20
65.4468697689
 10
138.6131214709
 20
65.3814194789
 10
138.6582534779
 20
65.318016614
 10
138.705408549
 20
65.2569307809
 10
138.7543834099
 20
65.1984264138
 10
138.8049656878
 20
65.1427576057
 10
138.8569388786
 20
65.0901626462
 10
138.9100802352
 20
65.0408669609
 10
138.9641586161
 20
64.9950845337
 10
139.0189410772
 20
64.9530115927
 10
139.0741940938
 20
64.914826517
 10
139.129681044
 20
64.8806920115
  0
LWPOLYLINE
  5
2F0
100
AcDbEntity
  8
0
100
AcDbPolyline
 62
7
  6
CONTINUOUS
 90
25
 70
0
 10
138.2811529066
 20
83.0880265299
 10
138.2829690514
 20
83.0229091634
 10
138.2884101841
 20
82.9559688891
 10
138.2974537158
 20
82.8874919677
 10
138.3100619344
 20
82.8177698164
 10
138.3261813793
 20
82.7471022748
 10
138.3457423108
 20
82.6757965
 10
138.3686608827
 20
82.604158102
 10
138.3948389862
 20
82.5324937167
 10
138.4241627594
 20
82.4611143057
 10
138.4565048357
 20
82.3903281224
 10
138.4917272756
 20
82.3204354565
 10
138.5296810024
 20
82.2517315669
 10
138.570203512
 20
82.1845106129
 10
138.6131213212
 20
82.1190603722
 10
138.6582532966
 20
82.0556575327
 10
138.7054083951
 20
81.9945716467
 10
138.7543833023
 20
81.9360672115
 10
138.8049655386
 20
81.8803984374
 10
138.8569384603
 20
81.8278037259
 10
138.910079442
 20
81.7785083385
 10
138.9641576383
 20
81.7327259971
 10
139.0189402164
 20
81.6906528948
 10
139.074193559
 20
81.6524675405
 10
139.129681044
 20
81.6183326857
  0
LWPOLYLINE
  5
2F1
100
AcDbEntity
  8
0
100
AcDbPolyline
 62
7
  6
CONTINUOUS
 90
28
 70
0
 10
138.6397830954
 20
67.1231763033
 10
138.6421095082
 20
67.0314869624
 10
138.64888584
 20
66.9381308727
 10
138.6601120908
 20
66.8431080342
 10
138.675855995
 20
66.7460858362
 10
138.6960498182
 20
66.6473968894
 10
138.7204903572
 20
66.5480390255
 10
138.7492208912
 20
66.448005525
 10
138.7821981412
 20
66.3473031075
 10
138.8190890662
 20
66.2469497634
 10
138.8599332819
 20
66.1469494348
 10
138.9046911727
 20
66.0472981796
 10
138.9529108517
 20
65.949002163
 10
139.0046273327
 20
65.8520752168
 10
139.0598056021
 20
65.7565035091
 10
139.1178887316
 20
65.6632517095
 10
139.1789062897
 20
65.5723431386
 10
139.242828708
 20
65.4837544757
 10
139.3090103533
 20
65.3983804284
 10
139.3774743042
 20
65.316253508
 10
139.448197482
 20
65.2373412031
 10
139.5204650178
 20
65.1624406875
 10
139.5942928007
 20
65.0915926928
 10
139.6696649415
 20
65.0247564874
 10
139.7458189037
 20
64.9626070498
 10
139.8225005083
 20
64.9053693729
 10
139.8999639342
 20
64.8528184638
 10
139.9782091814
 20
64.8049543226
  0
LWPOLYLINE
  5
2F2
100
AcDbEntity
  8
0
100
AcDbPolyline
 62
7
  6
CONTINUOUS
 90
28
 70
0
 10
138.6397830954
 20
83.8608169775
 10
138.6421095884
 20
83.7691267712
 10
138.6488860206
 20
83.6757699662
 10
138.6601123919
 20
83.5807465625
 10
138.6758564566
 20
83.4837239487
 10
138.6960504605
 20
83.3850347362
 10
138.7204911414
 20
83.2856767591
 10
138.7492217203
 20
83.1856434088
 10
138.7821989761
 20
83.0849412939
 10
138.819089983
 20
82.9845880747
 10
138.859934438
 20
82.8845874788
 10
138.9046926441
 20
82.7849357786
 10
138.9529125847
 20
82.6866394518
 10
139.0046292424
 20
82.5897124416
 10
139.0598076345
 20
82.4941408049
 10
139.1178907969
 20
82.4008891902
 10
139.1789082172
 20
82.3099810008
 10
139.2428304078
 20
82.2213928335
 10
139.3090119413
 20
82.1360191271
 10
139.3774760413
 20
82.0538922152
 10
139.4481994842
 20
81.9749797641
 10
139.5204671725
 20
81.9000792122
 10
139.5942949282
 20
81.8292313969
 10
139.6696669293
 20
81.7623954809
 10
139.7458206116
 20
81.7002463902
 10
139.822501787
 20
81.6430091004
 10
139.8999646436
 20
81.5904586359
 10
139.9782091814
 20
81.5425949968
  0
LINE
  5
2F3
100
AcDbEntity
  8
0
100
AcDbLine
 62
7
  6
CONTINUOUS
 10
137.4326247692
 20
66.268730937
 11
137.4326247692
 21
77.209432646
  0
LINE
  5
2F4
100
AcDbEntity
  8
0
100
AcDbLine
 62
7
  6
CONTINUOUS
 10
137.4326247692
 20
83.0063716112
 11
137.4326247692
 21
93.9470733202
  0
LINE
  5
2F5
100
AcDbEntity
  8
0
100
AcDbLine
 62
7
  6
CONTINUOUS
 10
138.1397315503
 20
66.268730937
 11
138.1397315503
 21
77.209432646
  0
LINE
  5
2F6
100
AcDbEntity
  8
0
100
AcDbLine
 62
7
  6
CONTINUOUS
 10
138.1397315503
 20
83.0063716112
 11
138.1397315503
 21
93.9470733202
  0
LINE
  5
2F7
100
AcDbEntity
  8
0
100
AcDbLine
 62
7
  6
CONTINUOUS
 10
138.2811529066
 20
94.0287282389
 11
138.2811529066
 21
83.0880265299
  0
LINE
  5
2F8
100
AcDbEntity
  8
0
100
AcDbLine
 62
7
  6
CONTINUOUS
 10
138.2811529066
 20
77.2910875647
 11
138.2811529066
 21
66.3503858556
  0
LINE
  5
2F9
100
AcDbEntity
  8
0
100
AcDbLine
 62
7
  6
CONTINUOUS
 10
138.6397830954
 20
94.5511039425
 11
138.6397830954
 21
83.8608169775
  0
LINE
  5
2FA
100
AcDbEntity
  8
0
100
AcDbLine
 62
7
  6
CONTINUOUS
 10
138.6397830954
 20
77.8134632751
 11
138.6397830954
 21
67.1231763033
  0
LWPOLYLINE
  5
2FB
100
AcDbEntity
  8
0
100
AcDbPolyline
 62
7
  6
CONTINUOUS
 90
28
 70
0
 10
137.4326247692
 20
93.9470733202
 10
137.4347147151
 20
94.0270150904
 10
137.4408014956
 20
94.1038375352
 10
137.4508851108
 20
94.1775406546
 10
137.4650265482
 20
94.248352859
 10
137.4831648202
 20
94.3160457381
 10
137.5051169641
 20
94.3799340606
 10
137.5309217983
 20
94.4399788543
 10
137.5605405043
 20
94.4962190914
 10
137.5936736643
 20
94.5480864575
 10
137.6303567895
 20
94.5955363355
 10
137.6705543686
 20
94.6386133424
 10
137.7138604501
 20
94.6768830149
 10
137.7603061747
 20
94.7102966448
 10
137.8098604016
 20
94.7389029402
 10
137.8620237577
 20
94.7624135621
 10
137.9168229568
 20
94.7807771753
 10
137.974231285
 20
94.794045115
 10
138.0336692275
 20
94.8020830476
 10
138.0951576174
 20
94.8048378504
 10
138.1586756216
 20
94.8023626461
 10
138.2235812257
 20
94.7946824687
 10
138.2898887259
 20
94.7817442208
 10
138.3575838261
 20
94.763601
 10
138.4259816236
 20
94.740437133
 10
138.4948538175
 20
94.7123140622
 10
138.5644287087
 20
94.6791703452
 10
138.6347062972
 20
94.6410059821
  0
LWPOLYLINE
  5
2FC
100
AcDbEntity
  8
0
100
AcDbPolyline
 62
7
  6
CONTINUOUS
 90
28
 70
0
 10
137.4326247692
 20
77.209432646
 10
137.4347145867
 20
77.2893729665
 10
137.4408011689
 20
77.3661942264
 10
137.4508845156
 20
77.4398964258
 10
137.465025576
 20
77.5107079839
 10
137.483163401
 20
77.5784004815
 10
137.505115143
 20
77.6422886603
 10
137.5309196386
 20
77.7023335895
 10
137.5605380512
 20
77.7585742
 10
137.5936710236
 20
77.8104420266
 10
137.6303541451
 20
77.8578924651
 10
137.6705518264
 20
77.9009701196
 10
137.713857942
 20
77.9392403375
 10
137.7603035926
 20
77.9726543158
 10
137.8098576774
 20
78.0012608575
 10
137.8620207687
 20
78.0247717177
 10
137.9168194784
 20
78.0431355741
 10
137.9742271947
 20
78.0564037491
 10
138.0336646535
 20
78.0644419651
 10
138.0951527384
 20
78.0671971606
 10
138.158670566
 20
78.0647223971
 10
138.2235762221
 20
78.0570425807
 10
138.2898840476
 20
78.044104609
 10
138.3575797018
 20
78.0259615845
 10
138.4259782475
 20
78.0027977207
 10
138.4948513724
 20
77.9746744223
 10
138.564427389
 20
77.9415302847
 10
138.6347062972
 20
77.9033653079
  0
LWPOLYLINE
  5
2FD
100
AcDbEntity
  8
0
100
AcDbPolyline
 62
7
  6
CONTINUOUS
 90
11
 70
0
 10
138.1397315503
 20
93.9470733202
 10
138.1415476836
 20
94.0100932505
 10
138.1469886333
 20
94.0707488445
 10
138.1560315909
 20
94.128780098
 10
138.1686384486
 20
94.1839386649
 10
138.1847556347
 20
94.2359874294
 10
138.2043140262
 20
94.2847018112
 10
138.2272299486
 20
94.3298728345
 10
138.253405513
 20
94.3713070613
 10
138.2827283357
 20
94.4088263144
 10
138.3150727309
 20
94.4422697473
  0
LWPOLYLINE
  5
2FE
100
AcDbEntity
  8
0
100
AcDbPolyline
 62
7
  6
CONTINUOUS
 90
11
 70
0
 10
138.1397315503
 20
77.209432646
 10
138.1415476387
 20
77.2724518114
 10
138.1469884735
 20
77.3331068609
 10
138.156031276
 20
77.3911377776
 10
138.168637974
 20
77.4462962193
 10
138.1847550222
 20
77.4983450253
 10
138.2043133015
 20
77.547059535
 10
138.2272291603
 20
77.5922307696
 10
138.2534047192
 20
77.6336652578
 10
138.2827275436
 20
77.6711847287
 10
138.315071919
 20
77.70462832
  0
LWPOLYLINE
  5
2FF
100
AcDbEntity
  8
0
100
AcDbPolyline
 62
7
  6
CONTINUOUS
 90
7
 70
0
 10
138.3370014251
 20
94.3460591129
 10
138.3261815213
 20
94.3176551435
 10
138.310062147
 20
94.2656023248
 10
138.2974539103
 20
94.210440052
 10
138.2884102974
 20
94.1524062861
 10
138.2829690865
 20
94.0917489641
 10
138.2811529066
 20
94.0287282389
  0
LINE
  5
300
100
AcDbEntity
  8
0
100
AcDbLine
 62
250
  6
CONTINUOUS
 10
138.6397830954
 20
83.8608169775
 11
138.2811529066
 21
83.0880265299
  0
LINE
  5
301
100
AcDbEntity
  8
0
100
AcDbLine
 62
7
  6
CONTINUOUS
 10
158.1344043229
 20
103.8928941517
 11
159.1439410403
 21
104.9461887475
  0
LINE
  5
302
100
AcDbEntity
  8
0
100
AcDbLine
 62
250
  6
CONTINUOUS
 10
122.2298289736
 20
75.4549092868
 11
122.3712503299
 21
75.5365642055
  0
LINE
  5
303
100
AcDbEntity
  8
0
100
AcDbLine
 62
250
  6
CONTINUOUS
 10
138.2811529066
 20
83.0880265299
 11
138.1397315503
 21
83.0063716112
  0
LINE
  5
304
100
AcDbEntity
  8
0
100
AcDbLine
 62
250
  6
CONTINUOUS
 10
123.0783571111
 20
73.9852154427
 11
123.2197784673
 21
74.0668703614
  0
LINE
  5
305
100
AcDbEntity
  8
0
100
AcDbLine
 62
7
  6
CONTINUOUS
 10
158.4133802571
 20
103.4096936602
 11
159.830339388
 21
103.7573119364
  0
LINE
  5
306
100
AcDbEntity
  8
0
100
AcDbLine
 62
250
  6
CONTINUOUS
 10
137.4326247692
 20
93.9470733202
 11
138.1397315503
 21
93.9470733202
  0
LINE
  5
307
100
AcDbEntity
  8
0
100
AcDbLine
 62
250
  6
CONTINUOUS
 10
105.6128196158
 20
95.5817893457
 11
106.319926397
 21
95.5817893457
  0
LINE
  5
308
100
AcDbEntity
  8
0
100
AcDbLine
 62
250
  6
CONTINUOUS
 10
117.3515706136
 20
94.4692485614
 11
116.7851067585
 21
94.5198098349
  0
LWPOLYLINE
  5
309
100
AcDbEntity
  8
0
100
AcDbPolyline
 62
7
  6
CONTINUOUS
 90
6
 70
0
 10
117.087935774
 20
94.409480182
 10
117.1098221148
 20
94.406902275
 10
117.1604043926
 20
94.4041599365
 10
117.2093792535
 20
94.4061093619
 10
117.2565343247
 20
94.4127417007
 10
117.3016663316
 20
94.4240272553
  0
LWPOLYLINE
  5
30A
100
AcDbEntity
  8
0
100
AcDbPolyline
 62
7
  6
CONTINUOUS
 90
7
 70
0
 10
138.3370014251
 20
77.6084184386
 10
138.3261813793
 20
77.5800140682
 10
138.3100619344
 20
77.5279608574
 10
138.2974537158
 20
77.472798361
 10
138.2884101841
 20
77.4147646833
 10
138.2829690514
 20
77.3541076926
 10
138.2811529066
 20
77.2910875647
  0
LINE
  5
30B
100
AcDbEntity
  8
0
100
AcDbLine
 62
250
  6
CONTINUOUS
 10
138.520505096
 20
77.8068530839
 11
138.2811529066
 21
77.2910875647
  0
LWPOLYLINE
  5
30C
100
AcDbEntity
  8
0
100
AcDbPolyline
 62
7
  6
CONTINUOUS
 90
7
 70
0
 10
133.3375343653
 20
68.6665438233
 10
133.3146185064
 20
68.6213725887
 10
133.2884429475
 20
68.5799381005
 10
133.2591201232
 20
68.5424186296
 10
133.2267757478
 20
68.5089750383
 10
133.1915481926
 20
68.4797504067
 10
133.1536169711
 20
68.4548864789
  0
LWPOLYLINE
  5
30D
100
AcDbEntity
  8
0
100
AcDbPolyline
 62
7
  6
CONTINUOUS
 90
3
 70
0
 10
138.3686608827
 20
77.6739039752
 10
138.3457423108
 20
77.6287313695
 10
138.3370014251
 20
77.6084184386
  0
LINE
  5
30E
100
AcDbEntity
  8
0
100
AcDbLine
 62
250
  6
CONTINUOUS
 10
138.6347062972
 20
80.924305332
 11
138.9882596878
 21
81.5366777671
  0
LINE
  5
30F
100
AcDbEntity
  8
0
100
AcDbLine
 62
250
  6
CONTINUOUS
 10
132.2000345884
 20
67.9019634571
 11
132.553587979
 21
68.5143358921
  0
LWPOLYLINE
  5
310
100
AcDbEntity
  8
0
100
AcDbPolyline
 62
7
  6
CONTINUOUS
 90
4
 70
0
 10
138.4565048357
 20
77.7862939598
 10
138.4241627594
 20
77.7528555955
 10
138.3948389862
 20
77.7153385427
 10
138.3686608827
 20
77.6739039752
  0
LWPOLYLINE
  5
311
100
AcDbEntity
  8
0
100
AcDbPolyline
 62
7
  6
CONTINUOUS
 90
3
 70
0
 10
138.315071919
 20
77.70462832
 10
138.3502994741
 20
77.7338529516
 10
138.3882306956
 20
77.7587168794
  0
LINE
  5
312
100
AcDbEntity
  8
0
100
AcDbLine
 62
250
  6
CONTINUOUS
 10
139.129681044
 20
81.6183326857
 11
138.9882596878
 21
81.5366777671
  0
LINE
  5
313
100
AcDbEntity
  8
0
100
AcDbLine
 62
250
  6
CONTINUOUS
 10
138.1397315503
 20
77.209432646
 11
138.2811529066
 21
77.2910875647
  0
LWPOLYLINE
  5
314
100
AcDbEntity
  8
0
100
AcDbPolyline
 62
7
  6
CONTINUOUS
 90
13
 70
0
 10
138.3882306956
 20
77.7587168794
 10
138.4287886535
 20
77.7791629971
 10
138.4717141224
 20
77.7950543688
 10
138.5168516785
 20
77.806339397
 10
138.56400818
 20
77.8129698124
 10
138.6129814762
 20
77.8149172095
 10
138.6635610587
 20
77.8121733679
 10
138.7155304509
 20
77.8047502499
 10
138.7686668273
 20
77.792679896
 10
138.8227411245
 20
77.7760147509
 10
138.8775211991
 20
77.754826994
 10
138.9327729146
 20
77.7292078111
 10
138.9882596878
 20
77.6992674662
  0
LWPOLYLINE
  5
315
100
AcDbEntity
  8
0
100
AcDbPolyline
 62
7
  6
CONTINUOUS
 90
11
 70
0
 10
117.1602299095
 20
94.342367687
 10
117.115092226
 20
94.3310827553
 10
117.0679355351
 20
94.3244524473
 10
117.0189620153
 20
94.3225051857
 10
116.9683822815
 20
94.3252491879
 10
116.9164128347
 20
94.3326724672
 10
116.8632764913
 20
94.3447429612
 10
116.8092023824
 20
94.361408182
 10
116.7544226771
 20
94.3825959048
 10
116.6991714907
 20
94.4082149149
 10
116.6436854023
 20
94.4381549162
  0
LINE
  5
316
100
AcDbEntity
  8
0
100
AcDbLine
 62
250
  6
CONTINUOUS
 10
108.158404028
 20
99.9149516966
 11
107.3098758906
 21
99.9906893855
  0
LINE
  5
317
100
AcDbEntity
  8
0
100
AcDbLine
 62
7
  6
CONTINUOUS
 10
106.8149011438
 20
113.0133626819
 11
116.2901320117
 21
107.5424831313
  0
LINE
  5
318
100
AcDbEntity
  8
0
100
AcDbLine
 62
7
  6
CONTINUOUS
 10
122.7248037205
 20
103.827184332
 11
132.2000345884
 21
98.3563047814
  0
LINE
  5
319
100
AcDbEntity
  8
0
100
AcDbLine
 62
7
  6
CONTINUOUS
 10
138.6347062972
 20
94.6410059821
 11
148.1099371651
 21
89.1701264315
  0
LWPOLYLINE
  5
31A
100
AcDbEntity
  8
0
100
AcDbPolyline
 62
7
  6
CONTINUOUS
 90
28
 70
0
 10
116.2901320117
 20
107.5424831313
 10
116.3604109198
 20
107.4994917866
 10
116.4299869364
 20
107.4522912843
 10
116.4988600614
 20
107.4008816243
 10
116.5672586071
 20
107.3450605619
 10
116.6349542612
 20
107.2850303419
 10
116.7012620868
 20
107.2213976987
 10
116.7661677429
 20
107.1541260904
 10
116.8296855704
 20
107.0832520588
 10
116.8911736553
 20
107.0094919641
 10
116.9506111142
 20
106.9328168605
 10
117.0080188304
 20
106.8532556937
 10
117.0628175402
 20
106.7716116608
 10
117.1149806315
 20
106.6878641703
 10
117.1645347163
 20
106.6020338136
 10
117.2109803668
 20
106.5149855622
 10
117.2542864824
 20
106.4267065276
 10
117.2944841637
 20
106.3372095983
 10
117.3311672853
 20
106.2473984105
 10
117.3643002577
 20
106.157269458
 10
117.3939186703
 20
106.066826247
 10
117.4197231659
 20
105.9769829331
 10
117.4416749079
 20
105.8877454328
 10
117.4598127329
 20
105.7991078296
 10
117.4739537933
 20
105.7119665293
 10
117.48403714
 20
105.6266203339
 10
117.4901237221
 20
105.5427704415
 10
117.4922135397
 20
105.4604168521
  0
LWPOLYLINE
  5
31B
100
AcDbEntity
  8
0
100
AcDbPolyline
 62
7
  6
CONTINUOUS
 90
28
 70
0
 10
132.2000345884
 20
98.3563047814
 10
132.2703134965
 20
98.3133134367
 10
132.3398895131
 20
98.2661129344
 10
132.4087626381
 20
98.2147032744
 10
132.4771611838
 20
98.1588822121
 10
132.5448568379
 20
98.0988519921
 10
132.6111646635
 20
98.0352193488
 10
132.6760703196
 20
97.9679477405
 10
132.7395881471
 20
97.8970737089
 10
132.801076232
 20
97.8233136142
 10
132.8605136909
 20
97.7466385106
 10
132.9179214071
 20
97.6670773438
 10
132.9727201169
 20
97.5854333109
 10
133.0248832082
 20
97.5016858204
 10
133.074437293
 20
97.4158554638
 10
133.1208829435
 20
97.3288072123
 10
133.1641890591
 20
97.2405281778
 10
133.2043867404
 20
97.1510312484
 10
133.241069862
 20
97.0612200606
 10
133.2742028344
 20
96.9710911081
 10
133.303821247
 20
96.8806478971
 10
133.3296257426
 20
96.7908045832
 10
133.3515774846
 20
96.7015670829
 10
133.3697153096
 20
96.6129294797
 10
133.38385637
 20
96.5257881794
 10
133.3939397167
 20
96.4404419841
 10
133.4000262988
 20
96.3565920917
 10
133.4021161164
 20
96.2742385022
  0
LWPOLYLINE
  5
31C
100
AcDbEntity
  8
0
100
AcDbPolyline
 62
7
  6
CONTINUOUS
 90
28
 70
0
 10
148.1099371651
 20
89.1701264315
 10
148.1802160732
 20
89.1271350868
 10
148.2497920898
 20
89.0799345845
 10
148.3186652148
 20
89.0285249246
 10
148.3870637605
 20
88.9727038622
 10
148.4547594146
 20
88.9126736422
 10
148.5210672402
 20
88.849040999
 10
148.5859728963
 20
88.7817693906
 10
148.6494907238
 20
88.7108953591
 10
148.7109788087
 20
88.6371352643
 10
148.7704162676
 20
88.5604601607
 10
148.8278239838
 20
88.480898994
 10
148.8826226936
 20
88.399254961
 10
148.9347857849
 20
88.3155074705
 10
148.9843398697
 20
88.2296771139
 10
149.0307855202
 20
88.1426288624
 10
149.0740916358
 20
88.0543498279
 10
149.1142893171
 20
87.9648528985
 10
149.1509724387
 20
87.8750417108
 10
149.1841054111
 20
87.7849127582
 10
149.2137238237
 20
87.6944695473
 10
149.2395283193
 20
87.6046262334
 10
149.2614800613
 20
87.5153887331
 10
149.2796178863
 20
87.4267511298
 10
149.2937589467
 20
87.3396098296
 10
149.3038422934
 20
87.2542636342
 10
149.3099288755
 20
87.1704137418
 10
149.3120186931
 20
87.0880601523
  0
LINE
  5
31D
100
AcDbEntity
  8
0
100
AcDbLine
 62
250
  6
CONTINUOUS
 10
138.6397830954
 20
67.1231763033
 11
138.2811529066
 21
66.3503858556
  0
LINE
  5
31E
100
AcDbEntity
  8
0
100
AcDbLine
 62
250
  6
CONTINUOUS
 10
132.553587979
 20
68.5143358921
 11
132.6950093352
 21
68.5959908108
  0
LINE
  5
31F
100
AcDbEntity
  8
0
100
AcDbLine
 62
250
  6
CONTINUOUS
 10
105.6128196158
 20
101.378728311
 11
106.319926397
 21
101.378728311
  0
LINE
  5
320
100
AcDbEntity
  8
0
100
AcDbLine
 62
250
  6
CONTINUOUS
 10
121.5227221925
 20
103.1332516701
 11
122.2298289736
 21
103.1332516701
  0
LINE
  5
321
100
AcDbEntity
  8
0
100
AcDbLine
 62
7
  6
CONTINUOUS
 10
149.3120186931
 20
87.0880601523
 11
149.3120186931
 21
76.1473584433
  0
LINE
  5
322
100
AcDbEntity
  8
0
100
AcDbLine
 62
7
  6
CONTINUOUS
 10
149.3120186931
 20
70.3504194781
 11
149.3120186931
 21
59.4097177691
  0
LWPOLYLINE
  5
323
100
AcDbEntity
  8
0
100
AcDbPolyline
 62
7
  6
CONTINUOUS
 90
28
 70
0
 10
149.3120186931
 20
76.1473584433
 10
149.3099287472
 20
76.0674166732
 10
149.3038419666
 20
75.9905942284
 10
149.2937583514
 20
75.916891109
 10
149.279616914
 20
75.8460789045
 10
149.261478642
 20
75.7783860255
 10
149.2395264981
 20
75.714497703
 10
149.213721664
 20
75.6544529093
 10
149.1841029579
 20
75.5982126721
 10
149.1509697979
 20
75.546345306
 10
149.1142866728
 20
75.4988954281
 10
149.0740890936
 20
75.4558184211
 10
149.0307830121
 20
75.4175487487
 10
148.9843372876
 20
75.3841351188
 10
148.9347830606
 20
75.3555288234
 10
148.8826197045
 20
75.3320182015
 10
148.8278205054
 20
75.3136545882
 10
148.7704121772
 20
75.3003866485
 10
148.7109742347
 20
75.292348716
 10
148.6494858448
 20
75.2895939132
 10
148.5859678407
 20
75.2920691175
 10
148.5210622366
 20
75.2997492948
 10
148.4547547363
 20
75.3126875427
 10
148.3870596362
 20
75.3308307636
 10
148.3186618387
 20
75.3539946306
 10
148.2497896448
 20
75.3821177014
 10
148.1802147536
 20
75.4152614184
 10
148.1099371651
 20
75.4534257814
  0
LWPOLYLINE
  5
324
100
AcDbEntity
  8
0
100
AcDbPolyline
 62
7
  6
CONTINUOUS
 90
28
 70
0
 10
149.3120186931
 20
59.4097177691
 10
149.3099288755
 20
59.3297774486
 10
149.3038422934
 20
59.2529561886
 10
149.2937589467
 20
59.1792539893
 10
149.2796178863
 20
59.1084424312
 10
149.2614800613
 20
59.0407499336
 10
149.2395283193
 20
58.9768617547
 10
149.2137238237
 20
58.9168168255
 10
149.1841054111
 20
58.860576215
 10
149.1509724387
 20
58.8087083885
 10
149.1142893171
 20
58.76125795
 10
149.0740916358
 20
58.7181802954
 10
149.0307855202
 20
58.6799100776
 10
148.9843398697
 20
58.6464960992
 10
148.9347857849
 20
58.6178895576
 10
148.8826226936
 20
58.5943786974
 10
148.8278239838
 20
58.5760148409
 10
148.7704162676
 20
58.5627466659
 10
148.7109788087
 20
58.55470845
 10
148.6494907238
 20
58.5519532544
 10
148.5859728963
 20
58.554428018
 10
148.5210672402
 20
58.5621078343
 10
148.4547594146
 20
58.575045806
 10
148.3870637605
 20
58.5931888306
 10
148.3186652148
 20
58.6163526943
 10
148.2497920898
 20
58.6444759927
 10
148.1802160732
 20
58.6776201303
 10
148.1099371651
 20
58.7157851072
  0
LWPOLYLINE
  5
325
100
AcDbEntity
  8
0
100
AcDbPolyline
 62
7
  6
CONTINUOUS
 90
7
 70
0
 10
149.3120186931
 20
76.5556330366
 10
149.3102025598
 20
76.4926131064
 10
149.3047616102
 20
76.4319575124
 10
149.2957186525
 20
76.3739262589
 10
149.2831117948
 20
76.318767692
 10
149.2669946088
 20
76.2667189275
 10
149.2474362172
 20
76.2180045457
  0
LWPOLYLINE
  5
326
100
AcDbEntity
  8
0
100
AcDbPolyline
 62
7
  6
CONTINUOUS
 90
7
 70
0
 10
149.3120186931
 20
59.8179923624
 10
149.3102026047
 20
59.754973197
 10
149.3047617699
 20
59.6943181474
 10
149.2957189674
 20
59.6362872308
 10
149.2831122694
 20
59.5811287891
 10
149.2669952212
 20
59.5290799831
 10
149.247436942
 20
59.4803654734
  0
LWPOLYLINE
  5
327
100
AcDbEntity
  8
0
100
AcDbPolyline
 62
7
  6
CONTINUOUS
 90
7
 70
0
 10
149.2474362172
 20
76.2180045457
 10
149.2245202948
 20
76.1728335224
 10
149.1983447304
 20
76.1313992956
 10
149.1690219078
 20
76.0938800425
 10
149.1366775125
 20
76.0604366096
 10
149.1014499288
 20
76.0312121097
 10
149.0635195478
 20
76.0063488033
  0
LINE
  5
328
100
AcDbEntity
  8
0
100
AcDbLine
 62
250
  6
CONTINUOUS
 10
138.6347062972
 20
64.1866646578
 11
138.9882596878
 21
64.7990370928
  0
LINE
  5
329
100
AcDbEntity
  8
0
100
AcDbLine
 62
250
  6
CONTINUOUS
 10
148.1099371651
 20
75.4534257814
 11
148.4634905557
 21
76.0657982165
  0
LINE
  5
32A
100
AcDbEntity
  8
0
100
AcDbLine
 62
250
  6
CONTINUOUS
 10
148.6049119119
 20
76.1474531352
 11
148.4634905557
 21
76.0657982165
  0
LWPOLYLINE
  5
32B
100
AcDbEntity
  8
0
100
AcDbPolyline
 62
7
  6
CONTINUOUS
 90
3
 70
0
 10
133.1536169711
 20
68.4548864789
 10
133.1130590133
 20
68.4344403611
 10
133.0701335444
 20
68.4185489895
  0
LWPOLYLINE
  5
32C
100
AcDbEntity
  8
0
100
AcDbPolyline
 62
7
  6
CONTINUOUS
 90
3
 70
0
 10
149.0635195478
 20
76.0063488033
 10
149.0229606316
 20
75.9859022684
 10
148.9800350629
 20
75.9700109873
  0
LINE
  5
32D
100
AcDbEntity
  8
0
100
AcDbLine
 62
250
  6
CONTINUOUS
 10
138.1397315503
 20
66.268730937
 11
138.2811529066
 21
66.3503858556
  0
LINE
  5
32E
100
AcDbEntity
  8
0
100
AcDbLine
 62
250
  6
CONTINUOUS
 10
138.9882596878
 20
64.7990370928
 11
139.129681044
 21
64.8806920115
  0
LINE
  5
32F
100
AcDbEntity
  8
0
100
AcDbLine
 62
250
  6
CONTINUOUS
 10
105.6128196158
 20
112.31943002
 11
106.319926397
 21
112.31943002
  0
LINE
  5
330
100
AcDbEntity
  8
0
100
AcDbLine
 62
7
  6
CONTINUOUS
 10
158.4133802571
 20
32.5780600608
 11
158.4133802571
 21
103.4096936602
  0
LINE
  5
331
100
AcDbEntity
  8
0
100
AcDbLine
 62
7
  6
CONTINUOUS
 10
159.8518407399
 20
32.2134421567
 11
159.8518407399
 21
103.745316989
  0
LINE
  5
332
100
AcDbEntity
  8
0
100
AcDbLine
 62
7
  6
CONTINUOUS
 10
159.1443034706
 20
104.9708074863
 11
159.1439410403
 21
104.9461887475
  0
LWPOLYLINE
  5
333
100
AcDbEntity
  8
0
100
AcDbPolyline
 62
7
  6
CONTINUOUS
 90
7
 70
0
 10
149.247436942
 20
59.4803654734
 10
149.2245210831
 20
59.4351942388
 10
149.1983455242
 20
59.3937597506
 10
149.1690226999
 20
59.3562402797
 10
149.1366783245
 20
59.3227966884
 10
149.1014507693
 20
59.2935720568
 10
149.0635195478
 20
59.268708129
  0
LINE
  5
334
100
AcDbEntity
  8
0
100
AcDbLine
 62
250
  6
CONTINUOUS
 10
148.1099371651
 20
58.7157851072
 11
148.4634905557
 21
59.3281575422
  0
LINE
  5
335
100
AcDbEntity
  8
0
100
AcDbLine
 62
7
  6
CONTINUOUS
 10
159.830339388
 20
103.7573119364
 11
159.8518407399
 21
103.745316989
  0
LINE
  5
336
100
AcDbEntity
  8
0
100
AcDbLine
 62
7
  6
CONTINUOUS
 10
158.1344043229
 20
103.8928941517
 11
96.7904339859
 21
139.3121338038
  0
LINE
  5
337
100
AcDbEntity
  8
0
100
AcDbLine
 62
7
  6
CONTINUOUS
 10
159.1443034706
 20
104.9708074863
 11
97.1938869
 21
140.7402015931
  0
LINE
  5
338
100
AcDbEntity
  8
0
100
AcDbLine
 62
7
  6
CONTINUOUS
 10
163.9137737246
 20
34.242220671
 11
163.9137737246
 21
106.0906108911
  0
LINE
  5
339
100
AcDbEntity
  8
0
100
AcDbLine
 62
250
  6
CONTINUOUS
 10
148.4634905557
 20
59.3281575422
 11
148.6049119119
 21
59.4098124609
  0
LWPOLYLINE
  5
33A
100
AcDbEntity
  8
0
100
AcDbPolyline
 62
7
  6
CONTINUOUS
 90
3
 70
0
 10
149.0635195478
 20
59.268708129
 10
149.02296159
 20
59.2482620113
 10
148.9800361211
 20
59.2323706396
  0
LINE
  5
33B
100
AcDbEntity
  8
0
100
AcDbLine
 62
7
  6
CONTINUOUS
 10
147.1020342134
 20
60.6917470316
 11
148.3612073874
 21
61.2082166358
  0
LINE
  5
33C
100
AcDbEntity
  8
0
100
AcDbLine
 62
7
  6
CONTINUOUS
 10
163.2062364553
 20
107.3161013885
 11
100.9817006871
 21
143.2437684845
  0
LINE
  5
33D
100
AcDbEntity
  8
0
100
AcDbLine
 62
7
  6
CONTINUOUS
 10
158.4133802571
 20
103.4096936602
 11
158.1344043229
 21
103.8928941517
  0
LINE
  5
33E
100
AcDbEntity
  8
0
100
AcDbLine
 62
7
  6
CONTINUOUS
 10
159.830339388
 20
103.7573119364
 11
159.1439410403
 21
104.9461887475
  0
LINE
  5
33F
100
AcDbEntity
  8
0
100
AcDbLine
 62
7
  6
CONTINUOUS
 10
163.2062364553
 20
107.3161013885
 11
163.9137737246
 21
106.0906108911
  0
LINE
  5
340
100
AcDbEntity
  8
0
100
AcDbLine
 62
7
  6
CONTINUOUS
 10
158.1344043229
 20
32.4170139853
 11
158.4133802571
 21
32.5780600608
  0
LINE
  5
341
100
AcDbEntity
  8
0
100
AcDbLine
 62
7
  6
CONTINUOUS
 10
159.1439410403
 20
31.8056394006
 11
159.830339388
 21
32.201880605
  0
LINE
  5
342
100
AcDbEntity
  8
0
100
AcDbLine
 62
7
  6
CONTINUOUS
 10
163.9137737246
 20
34.242220671
 11
163.2062364553
 21
33.8337764772
  0
LINE
  5
343
100
AcDbEntity
  8
0
100
AcDbLine
 62
7
  6
CONTINUOUS
 10
159.8518407399
 20
32.2134421567
 11
159.830339388
 21
32.201880605
  0
LINE
  5
344
100
AcDbEntity
  8
0
100
AcDbLine
 62
7
  6
CONTINUOUS
 10
159.8518407399
 20
32.2134421567
 11
163.9137737246
 21
34.242220671
  0
LINE
  5
345
100
AcDbEntity
  8
0
100
AcDbLine
 62
7
  6
CONTINUOUS
 10
159.1443034706
 20
31.8049979629
 11
163.2062364553
 21
33.8337764772
  0
ELLIPSE
  5
346
100
AcDbEntity
  8
0
100
AcDbEllipse
 62
7
  6
CONTINUOUS
 10
148.4950335087
 20
61.1232547492
 30
0.0
 11
0.1998333781
 21
-0.0157785196
 31
0.0
 40
0.5172961965
 41
0.8262203412
 42
2.3446567905
  0
ELLIPSE
  5
347
100
AcDbEntity
  8
0
100
AcDbEllipse
 62
7
  6
CONTINUOUS
 10
116.6752283553
 20
79.4956114489
 30
0.0
 11
0.1998333781
 21
-0.0157785196
 31
0.0
 40
0.5172961965
 41
0.8262203412
 42
2.3446567905
  0
ENDSEC
  0
SECTION
  2
OBJECTS
  0
DICTIONARY
  5
C
100
AcDbDictionary
280
0
281
1
  3
ACAD_GROUP
350
D
  3
ACAD_MLINESTYLE
350
17
  3
ACAD_LAYOUT
350
1A
  3
ACAD_PLOTSETTINGS
350
19
  3
ACAD_PLOTSTYLENAME
350
E
  0
DICTIONARY
  5
D
102
{ACAD_REACTORS
330
C
102
}
100
AcDbDictionary
280
0
281
1
  0
ACDBDICTIONARYWDFLT
  5
E
102
{ACAD_REACTORS
330
C
102
}
100
AcDbDictionary
281
1
  3
Normal
350
F
100
AcDbDictionaryWithDefault
340
F
  0
DICTIONARY
  5
17
102
{ACAD_REACTORS
330
C
102
}
100
AcDbDictionary
280
0
281
1
  3
Standard
350
18
  0
DICTIONARY
  5
19
102
{ACAD_REACTORS
330
C
102
}
100
AcDbDictionary
281
1
  0
DICTIONARY
  5
1A
102
{ACAD_REACTORS
330
C
102
}
100
AcDbDictionary
281
1
  3
Model
350
348
  3
Layout1
350
349
  0
ACDBPLACEHOLDER
  5
F
102
{ACAD_REACTORS
330
E
102
}
  0
MLINESTYLE
  5
18
102
{ACAD_REACTORS
330
17
102
}
100
AcDbMlineStyle
  2
STANDARD
 70
0
  3

 62
256
 51
90.0
 52
90.0
 71
2
 49
0.5
 62
256
  6
BYLAYER
 49
-0.5
 62
256
  6
BYLAYER
  0
LAYOUT
  5
348
102
{ACAD_REACTORS
330
1A
102
}
100
AcDbPlotSettings
  1

  2
none_device
  4
ISO_A4_(297.00_x_210.00_MM)
  6

 40
0.0
 41
0.0
 42
0.0
 43
0.0
 44
297.0
 45
210.0
 46
0.0
 47
0.0
 48
0.0
 49
0.0
140
0.0
141
0.0
142
1.0
143
1.0
 70
1024
 72
1
 73
0
 74
0
  7

 75
0
147
1.0
148
0.0
149
0.0
100
AcDbLayout
  1
Model
 70
0
 71
0
 10
0.0
 20
0.0
 11
297.0
 21
210.0
 12
0.0
 22
0.0
 32
0.0
 14
0.0
 24
0.0
 34
0.0
 15
0.0
 25
0.0
 35
0.0
146
0.0
 13
0.0
 23
0.0
 33
0.0
 16
1.0
 26
0.0
 36
0.0
 17
0.0
 27
1.0
 37
0.0
 76
0
330
21B
345
0
346
0
  0
LAYOUT
  5
349
102
{ACAD_REACTORS
330
1A
102
}
100
AcDbPlotSettings
  1

  2
none_device
  4
ISO_A4_(297.00_x_210.00_MM)
  6

 40
0.0
 41
0.0
 42
0.0
 43
0.0
 44
297.0
 45
210.0
 46
0.0
 47
0.0
 48
0.0
 49
0.0
140
0.0
141
0.0
142
1.0
143
1.0
 70
0
 72
1
 73
0
 74
0
  7

 75
0
147
1.0
148
0.0
149
0.0
100
AcDbLayout
  1
Layout1
 70
0
 71
1
 10
0.0
 20
0.0
 11
297.0
 21
210.0
 12
0.0
 22
0.0
 32
0.0
 14
0.0
 24
0.0
 34
0.0
 15
0.0
 25
0.0
 35
0.0
146
0.0
 13
0.0
 23
0.0
 33
0.0
 16
1.0
 26
0.0
 36
0.0
 17
0.0
 27
1.0
 37
0.0
 76
0
330
21C
345
0
346
0
  0
ENDSEC
  0
EOF
