  0
SECTION
  2
HEADER
  9
$ACADVER
  1
AC1024
  9
$DWGCODEPAGE
  3
ANSI_1252
  9
$EXTMAX
 10
297.0
 20
210.0
 30
0.0
  9
$EXTMIN
 10
0.0
 20
0.0
 30
0.0
  9
$LIMMIN
 10
0.0
 20
0.0
  9
$LIMMAX
 10
297.0
 20
210.0
  9
$VIEWCTR
 10
148.5
 20
105.0
  9
$VIEWSIZE
 40
210.0
  9
$CLAYER
  8
0
  9
$LTSCALE
 40
16.335
  9
$CELTYPE
  6
BYLAYER
  9
$DIMSCALE
 40
1.0
  9
$DIMASZ
 40
3.0
  9
$DIMEXO
 40
0.5
  9
$DIMDLI
 40
11.286
  9
$DIMEXE
 40
1.5
  9
$DIMCEN
 40
2.673
  9
$DIMLFAC
 40
1.0
  9
$DIMBLK
  1
_FILLED
  9
$DIMALT
 70
0
  9
$DIMALTF
 40
0.0393700787
  9
$DIMTXT
 40
3.0
  9
$DIMTOL
 70
1
  9
$DIMLIM
 70
0
  9
$DIMTFAC
 40
1.0
  9
$DIMTP
 40
0.01
  9
$DIMTM
 40
0.01
  9
$DIMGAP
 40
0.625
  9
$DIMDSEP
 70
44
  9
$AUNITS
 70
0
  9
$PDMODE
 70
3
  9
$PDSIZE
 40
3.0
  9
$HANDSEED
  5
601
  9
$TILEMODE
 70
1
  9
$MEASUREMENT
 70
1
  9
$INSUNITS
 70
4
  0
ENDSEC
  0
SECTION
  2
CLASSES
  0
CLASS
  1
ACDBDICTIONARYWDFLT
  2
AcDbDictionaryWithDefault
  3
AutoCAD 2000
 90
0
 91
1
280
0
281
0
  0
CLASS
  1
ACDBPLACEHOLDER
  2
AcDbPlaceHolder
  3
AutoCAD 2000
 90
0
 91
1
280
0
281
0
  0
CLASS
  1
LAYOUT
  2
AcDbLayout
  3
AutoCAD 2000
 90
0
 91
0
280
0
281
0
  0
ENDSEC
  0
SECTION
  2
TABLES
  0
TABLE
  2
VPORT
  5
8
100
AcDbSymbolTable
 70
2
  0
VPORT
  5
1F4
100
AcDbSymbolTableRecord
100
AcDbViewportTableRecord
  2
*ACTIVE
 70
0
 10
0.0
 20
0.0
 11
1.0
 21
1.0
 12
148.5
 22
105.0
 13
0.0
 23
0.0
 14
1.0
 24
1.0
 15
0.0
 25
0.0
 16
0.0
 26
0.0
 36
1.0
 17
0.0
 27
0.0
 37
0.0
 40
210.0
 41
1.4142857143
 42
50.0
 43
0.0
 44
0.0
 50
0.0
 51
0.0
 71
0
 72
100
 73
1
 74
1
 75
0
 76
0
 77
0
 78
0
  0
ENDTAB
  0
TABLE
  2
LTYPE
  5
5
100
AcDbSymbolTable
 70
6
  0
LTYPE
  5
14
100
AcDbSymbolTableRecord
100
AcDbLinetypeTableRecord
  2
BYBLOCK
 70
0
  3

 72
65
 73
0
 40
0.0
  0
LTYPE
  5
15
100
AcDbSymbolTableRecord
100
AcDbLinetypeTableRecord
  2
BYLAYER
 70
0
  3

 72
65
 73
0
 40
0.0
  0
LTYPE
  5
16
100
AcDbSymbolTableRecord
100
AcDbLinetypeTableRecord
  2
CONTINUOUS
 70
64
  3
Solid line
 72
65
 73
0
 40
0.0
  0
LTYPE
  5
1F5
100
AcDbSymbolTableRecord
100
AcDbLinetypeTableRecord
  2
CENTER
 70
64
  3
____ _ ____ _ ____ _ ____ _ ____ _ ____ _ ____
 72
65
 73
4
 40
0.6
 49
0.375
 74
0
 49
-0.075
 74
0
 49
0.075
 74
0
 49
-0.075
 74
0
  0
LTYPE
  5
1F6
100
AcDbSymbolTableRecord
100
AcDbLinetypeTableRecord
  2
HIDDEN
 70
64
  3
- - - - - - - - - - - - - - - - - - - -
 72
65
 73
2
 40
0.2
 49
0.1
 74
0
 49
-0.1
 74
0
  0
LTYPE
  5
1F7
100
AcDbSymbolTableRecord
100
AcDbLinetypeTableRecord
  2
PHANTOM
 70
64
  3
_____ _ _ _____ _ _ _____ _ _ _____
 72
65
 73
6
 40
0.8
 49
0.45
 74
0
 49
-0.05
 74
0
 49
0.1
 74
0
 49
-0.05
 74
0
 49
0.1
 74
0
 49
-0.05
 74
0
  0
LTYPE
  5
1F8
100
AcDbSymbolTableRecord
100
AcDbLinetypeTableRecord
  2
DOT
 70
64
  3
. . . . . . . . . . . . . . . . . . . .
 72
65
 73
2
 40
0.2
 49
0.1
 74
0
 49
-0.1
 74
0
  0
LTYPE
  5
1F9
100
AcDbSymbolTableRecord
100
AcDbLinetypeTableRecord
  2
DASHED
 70
64
  3
- - - - - - - - - - - - - - - - - - - -
 72
65
 73
2
 40
0.2
 49
0.1
 74
0
 49
-0.1
 74
0
  0
ENDTAB
  0
TABLE
  2
LAYER
  5
2
100
AcDbSymbolTable
 70
36
  0
LAYER
  5
10
100
AcDbSymbolTableRecord
100
AcDbLayerTableRecord
  2
0
 70
0
 62
7
  6
CONTINUOUS
370
-3
390
F
  0
LAYER
  5
1FA
100
AcDbSymbolTableRecord
100
AcDbLayerTableRecord
  2
DEFAULT_1
 70
0
 62
7
  6
CENTER
370
-3
390
F
  0
LAYER
  5
1FB
100
AcDbSymbolTableRecord
100
AcDbLayerTableRecord
  2
DEFAULT_2
 70
0
 62
7
  6
HIDDEN
370
-3
390
F
  0
LAYER
  5
1FC
100
AcDbSymbolTableRecord
100
AcDbLayerTableRecord
  2
DEFAULT_3
 70
0
 62
7
  6
PHANTOM
370
-3
390
F
  0
LAYER
  5
1FD
100
AcDbSymbolTableRecord
100
AcDbLayerTableRecord
  2
ASSI
 70
0
 62
7
  6
CONTINUOUS
370
-3
390
F
  0
LAYER
  5
1FE
100
AcDbSymbolTableRecord
100
AcDbLayerTableRecord
  2
COORDINATE
 70
0
 62
7
  6
CONTINUOUS
370
-3
390
F
  0
LAYER
  5
1FF
100
AcDbSymbolTableRecord
100
AcDbLayerTableRecord
  2
COORD_ORIGINE
 70
0
 62
7
  6
CONTINUOUS
370
-3
390
F
  0
LAYER
  5
200
100
AcDbSymbolTableRecord
100
AcDbLayerTableRecord
  2
COPY_PUBLISH
 70
0
 62
7
  6
CONTINUOUS
370
-3
390
F
  0
LAYER
  5
201
100
AcDbSymbolTableRecord
100
AcDbLayerTableRecord
  2
COSMETIC
 70
0
 62
7
  6
CONTINUOUS
370
-3
390
F
  0
LAYER
  5
202
100
AcDbSymbolTableRecord
100
AcDbLayerTableRecord
  2
COSMETICI
 70
0
 62
7
  6
CONTINUOUS
370
-3
390
F
  0
LAYER
  5
203
100
AcDbSymbolTableRecord
100
AcDbLayerTableRecord
  2
CURVE
 70
0
 62
7
  6
CONTINUOUS
370
-3
390
F
  0
LAYER
  5
204
100
AcDbSymbolTableRecord
100
AcDbLayerTableRecord
  2
DRAFT
 70
0
 62
7
  6
CONTINUOUS
370
-3
390
F
  0
LAYER
  5
205
100
AcDbSymbolTableRecord
100
AcDbLayerTableRecord
  2
IMPORT_IGES
 70
0
 62
7
  6
CONTINUOUS
370
-3
390
F
  0
LAYER
  5
206
100
AcDbSymbolTableRecord
100
AcDbLayerTableRecord
  2
INTFCLR_2
 70
0
 62
7
  6
CONTINUOUS
370
-3
390
F
  0
LAYER
  5
207
100
AcDbSymbolTableRecord
100
AcDbLayerTableRecord
  2
INTF_1
 70
0
 62
7
  6
CONTINUOUS
370
-3
390
F
  0
LAYER
  5
208
100
AcDbSymbolTableRecord
100
AcDbLayerTableRecord
  2
INTF_21
 70
0
 62
7
  6
CONTINUOUS
370
-3
390
F
  0
LAYER
  5
209
100
AcDbSymbolTableRecord
100
AcDbLayerTableRecord
  2
INTF_6
 70
0
 62
7
  6
CONTINUOUS
370
-3
390
F
  0
LAYER
  5
20A
100
AcDbSymbolTableRecord
100
AcDbLayerTableRecord
  2
INTF_7
 70
0
 62
7
  6
CONTINUOUS
370
-3
390
F
  0
LAYER
  5
20B
100
AcDbSymbolTableRecord
100
AcDbLayerTableRecord
  2
INTF_CYAN
 70
0
 62
7
  6
CONTINUOUS
370
-3
390
F
  0
LAYER
  5
20C
100
AcDbSymbolTableRecord
100
AcDbLayerTableRecord
  2
LINEA_CHIUSURA
 70
0
 62
7
  6
CONTINUOUS
370
-3
390
F
  0
LAYER
  5
20D
100
AcDbSymbolTableRecord
100
AcDbLayerTableRecord
  2
LIVELLO_1
 70
0
 62
7
  6
CONTINUOUS
370
-3
390
F
  0
LAYER
  5
20E
100
AcDbSymbolTableRecord
100
AcDbLayerTableRecord
  2
NOTE
 70
0
 62
7
  6
CONTINUOUS
370
-3
390
F
  0
LAYER
  5
20F
100
AcDbSymbolTableRecord
100
AcDbLayerTableRecord
  2
PIANI
 70
0
 62
7
  6
CONTINUOUS
370
-3
390
F
  0
LAYER
  5
210
100
AcDbSymbolTableRecord
100
AcDbLayerTableRecord
  2
PIANI_ORIGINE
 70
0
 62
7
  6
CONTINUOUS
370
-3
390
F
  0
LAYER
  5
211
100
AcDbSymbolTableRecord
100
AcDbLayerTableRecord
  2
PIANI_RIFERIMENTO
 70
0
 62
7
  6
CONTINUOUS
370
-3
390
F
  0
LAYER
  5
212
100
AcDbSymbolTableRecord
100
AcDbLayerTableRecord
  2
PUNTI
 70
0
 62
7
  6
CONTINUOUS
370
-3
390
F
  0
LAYER
  5
213
100
AcDbSymbolTableRecord
100
AcDbLayerTableRecord
  2
RACCORDO
 70
0
 62
7
  6
CONTINUOUS
370
-3
390
F
  0
LAYER
  5
214
100
AcDbSymbolTableRecord
100
AcDbLayerTableRecord
  2
RGB__255__255__255__
 70
0
 62
7
  6
CONTINUOUS
370
-3
390
F
  0
LAYER
  5
215
100
AcDbSymbolTableRecord
100
AcDbLayerTableRecord
  2
RGB____0____0____0__
 70
0
 62
7
  6
CONTINUOUS
370
-3
390
F
  0
LAYER
  5
216
100
AcDbSymbolTableRecord
100
AcDbLayerTableRecord
  2
SIMBOLI
 70
0
 62
7
  6
CONTINUOUS
370
-3
390
F
  0
LAYER
  5
217
100
AcDbSymbolTableRecord
100
AcDbLayerTableRecord
  2
SMUSSO
 70
0
 62
7
  6
CONTINUOUS
370
-3
390
F
  0
LAYER
  5
218
100
AcDbSymbolTableRecord
100
AcDbLayerTableRecord
  2
SUPERFICI
 70
0
 62
7
  6
CONTINUOUS
370
-3
390
F
  0
LAYER
  5
219
100
AcDbSymbolTableRecord
100
AcDbLayerTableRecord
  2
TRASH
 70
0
 62
7
  6
CONTINUOUS
370
-3
390
F
  0
LAYER
  5
21A
100
AcDbSymbolTableRecord
100
AcDbLayerTableRecord
  2
WHITE
 70
0
 62
7
  6
CONTINUOUS
370
-3
390
F
  0
LAYER
  5
21B
100
AcDbSymbolTableRecord
100
AcDbLayerTableRecord
  2
XSEC_DATUMS
 70
0
 62
7
  6
CONTINUOUS
370
-3
390
F
  0
ENDTAB
  0
TABLE
  2
STYLE
  5
3
100
AcDbSymbolTable
 70
1
  0
STYLE
  5
11
100
AcDbSymbolTableRecord
100
AcDbTextStyleTableRecord
  2
STANDARD
 70
0
 40
0.0
 41
0.8
 50
0.0
 71
0
 42
0.2
  3
txt
  4

  0
STYLE
  5
21C
100
AcDbSymbolTableRecord
100
AcDbTextStyleTableRecord
  2
TEXTSTYLE_1
 70
0
 40
0.0
 41
0.8
 50
0.0
 71
0
 42
0.2
  3
gdt
  4

  0
ENDTAB
  0
TABLE
  2
VIEW
  5
6
100
AcDbSymbolTable
 70
0
  0
ENDTAB
  0
TABLE
  2
UCS
  5
7
100
AcDbSymbolTable
 70
0
  0
ENDTAB
  0
TABLE
  2
APPID
  5
9
100
AcDbSymbolTable
 70
1
  0
APPID
  5
21D
100
AcDbSymbolTableRecord
100
AcDbRegAppTableRecord
  2
ACAD
 70
0
  0
ENDTAB
  0
TABLE
  2
BLOCK_RECORD
  5
1
100
AcDbSymbolTable
 70
0
  0
BLOCK_RECORD
  5
21E
100
AcDbSymbolTableRecord
100
AcDbBlockTableRecord
  2
*Model_Space
  0
BLOCK_RECORD
  5
21F
100
AcDbSymbolTableRecord
100
AcDbBlockTableRecord
  2
*Paper_Space
  0
BLOCK_RECORD
  5
220
100
AcDbSymbolTableRecord
100
AcDbBlockTableRecord
  2
_FILLED
  0
ENDTAB
  0
TABLE
  2
DIMSTYLE
  5
A
100
AcDbSymbolTable
 70
1
100
AcDbDimStyleTable
 71
0
  0
DIMSTYLE
105
221
100
AcDbSymbolTableRecord
100
AcDbDimStyleTableRecord
  2
STANDARD
 70
0
  3

  4

 40
1.0
 41
3.0
 42
0.5
 43
0.38
 44
1.5
 45
0.0
 46
0.0
 47
0.01
 48
0.01
140
3.0
141
0.09
142
0.0
143
25.4
144
1.0
145
0.0
146
1.0
147
0.625
 71
1
 72
0
 73
0
 74
0
 75
0
 76
0
 77
1
 78
8
 79
2
170
0
171
1
172
0
173
0
174
0
175
0
176
0
177
0
178
0
270
2
179
2
271
2
272
2
273
2
274
2
275
0
280
0
281
0
282
0
283
1
284
8
285
0
286
0
287
3
288
0
340
11
278
44
341
220
342
220
343
220
344
220
  0
ENDTAB
  0
ENDSEC
  0
SECTION
  2
BLOCKS
  0
BLOCK
  5
20
100
AcDbEntity
  8
0
100
AcDbBlockBegin
  2
*Model_Space
 70
0
 10
0.0
 20
0.0
 30
0.0
  3
*Model_Space
  1

  0
ENDBLK
  5
21
100
AcDbEntity
  8
0
100
AcDbBlockEnd
  0
BLOCK
  5
1C
100
AcDbEntity
  8
0
100
AcDbBlockBegin
  2
*Paper_Space
 70
0
 10
0.0
 20
0.0
 30
0.0
  3
*Paper_Space
  1

  0
ENDBLK
  5
1D
100
AcDbEntity
  8
0
100
AcDbBlockEnd
  0
BLOCK
  5
222
100
AcDbEntity
  8
0
100
AcDbBlockBegin
  2
_FILLED
 70
64
 10
0.0
 20
0.0
  3
_FILLED
  1

  0
SOLID
  5
223
100
AcDbEntity
  8
0
  6
BYBLOCK
 62
0
100
AcDbTrace
 10
0.0
 20
0.0
 11
-1.0
 21
0.3166666667
 12
-1.0
 22
-0.3166666667
 13
-1.0
 23
-0.3166666667
  0
ENDBLK
  5
224
100
AcDbEntity
  8
0
  6
BYBLOCK
 62
0
100
AcDbBlockEnd
  0
ENDSEC
  0
SECTION
  2
ENTITIES
  0
LINE
  5
225
100
AcDbEntity
  8
ASSI
100
AcDbLine
 62
7
  6
CONTINUOUS
 10
-58.2149620151
 20
66.9540888344
 11
-54.4271482279
 21
69.4576557258
  0
LINE
  5
226
100
AcDbEntity
  8
ASSI
100
AcDbLine
 62
7
  6
CONTINUOUS
 10
-57.5074247458
 20
67.3625330283
 11
-53.7196109586
 21
69.8660999196
  0
LINE
  5
227
100
AcDbEntity
  8
ASSI
100
AcDbLine
 62
7
  6
CONTINUOUS
 10
-57.5281883599
 20
67.3496936773
 11
-57.5074247458
 21
67.3625330283
  0
LINE
  5
228
100
AcDbEntity
  8
ASSI
100
AcDbLine
 62
7
  6
CONTINUOUS
 10
-54.4271482279
 20
69.4576557258
 11
-53.7196109586
 21
69.8660999196
  0
LINE
  5
229
100
AcDbEntity
  8
ASSI
100
AcDbLine
 62
7
  6
CONTINUOUS
 10
-57.5281883599
 20
67.3496936773
 11
-58.2145867076
 21
66.9534524729
  0
LINE
  5
22A
100
AcDbEntity
  8
ASSI
100
AcDbLine
 62
7
  6
CONTINUOUS
 10
-57.9108776598
 20
65.9344652389
 11
-58.189853594
 21
65.7734191633
  0
LINE
  5
22B
100
AcDbEntity
  8
ASSI
100
AcDbLine
 62
7
  6
CONTINUOUS
 10
-57.9108776598
 20
65.9344652389
 11
-57.5281883599
 21
67.3496936773
  0
LINE
  5
22C
100
AcDbEntity
  8
CURVE
100
AcDbLine
 62
250
  6
CONTINUOUS
 10
56.5423821968
 20
-62.993090558
 11
55.2839813755
 21
-63.269713358
  0
LINE
  5
22D
100
AcDbEntity
  8
CURVE
100
AcDbLine
 62
250
  6
CONTINUOUS
 10
55.7863219044
 20
-58.7850117902
 11
56.4647870317
 21
-58.6318372103
  0
LINE
  5
22E
100
AcDbEntity
  8
CURVE
100
AcDbLine
 62
250
  6
CONTINUOUS
 10
56.7472007263
 20
-58.5669252712
 11
57.1121725522
 21
-58.4879740595
  0
LINE
  5
22F
100
AcDbEntity
  8
CURVE
100
AcDbLine
 62
250
  6
CONTINUOUS
 10
57.1121725522
 20
-58.90937968
 11
55.2839813755
 21
-59.2535442382
  0
LINE
  5
230
100
AcDbEntity
  8
CURVE
100
AcDbLine
 62
250
  6
CONTINUOUS
 10
55.2839813755
 20
-62.8439763627
 11
57.1121725522
 21
-62.5156831702
  0
LINE
  5
231
100
AcDbEntity
  8
CURVE
100
AcDbLine
 62
250
  6
CONTINUOUS
 10
56.2989986552
 20
-60.4525033766
 11
55.2839813755
 21
-60.5729830666
  0
LINE
  5
232
100
AcDbEntity
  8
CURVE
100
AcDbLine
 62
250
  6
CONTINUOUS
 10
55.9233746627
 20
-60.1206513135
 11
57.1121725522
 21
-59.9871228948
  0
LINE
  5
233
100
AcDbEntity
  8
ASSI
100
AcDbLine
 62
7
  6
CONTINUOUS
 10
-58.189853594
 20
-5.058214436
 11
-58.2145867076
 21
-4.6019788585
  0
LINE
  5
234
100
AcDbEntity
  8
ASSI
100
AcDbLine
 62
7
  6
CONTINUOUS
 10
-58.189853594
 20
65.7734191633
 11
-58.2145867076
 21
66.9534524729
  0
LINE
  5
235
100
AcDbEntity
  8
ASSI
100
AcDbLine
 62
7
  6
CONTINUOUS
 10
-58.2145867076
 20
-4.6019788585
 11
-58.2149620151
 21
-4.5777859978
  0
LINE
  5
236
100
AcDbEntity
  8
ASSI
100
AcDbLine
 62
7
  6
CONTINUOUS
 10
-58.2149620151
 20
66.9540888344
 11
-58.2149620151
 21
-4.5777859978
  0
LINE
  5
237
100
AcDbEntity
  8
ASSI
100
AcDbLine
 62
7
  6
CONTINUOUS
 10
-58.189853594
 20
65.7734191633
 11
-58.189853594
 21
-5.058214436
  0
LINE
  5
238
100
AcDbEntity
  8
SMUSSO
100
AcDbLine
 62
250
  6
CONTINUOUS
 10
-39.409207497
 20
34.5787680107
 11
-39.6486165011
 21
34.0628800649
  0
LINE
  5
239
100
AcDbEntity
  8
ASSI
100
AcDbLine
 62
250
  6
CONTINUOUS
 10
-39.409207497
 20
34.5787680107
 11
-39.6486165011
 21
34.0628800649
  0
LINE
  5
23A
100
AcDbEntity
  8
SMUSSO
100
AcDbLine
 62
250
  6
CONTINUOUS
 10
-39.6486165011
 20
34.0628800649
 11
-39.7900378574
 21
33.9812251462
  0
LINE
  5
23B
100
AcDbEntity
  8
ASSI
100
AcDbLine
 62
250
  6
CONTINUOUS
 10
-39.6486165011
 20
34.0628800649
 11
-39.7900378574
 21
33.9812251462
  0
LINE
  5
23C
100
AcDbEntity
  8
ASSI
100
AcDbLine
 62
7
  6
CONTINUOUS
 10
52.7145685475
 20
-69.0930378217
 11
54.1315276785
 21
-69.4692172775
  0
LINE
  5
23D
100
AcDbEntity
  8
ASSI
100
AcDbLine
 62
7
  6
CONTINUOUS
 10
-58.189853594
 20
-5.058214436
 11
-57.9108776598
 21
-5.5414149275
  0
LINE
  5
23E
100
AcDbEntity
  8
SMUSSO
100
AcDbLine
 62
250
  6
CONTINUOUS
 10
-39.2899863123
 20
23.8949688035
 11
-39.6486165011
 21
23.1221783558
  0
LINE
  5
23F
100
AcDbEntity
  8
ASSI
100
AcDbLine
 62
250
  6
CONTINUOUS
 10
-39.2899863123
 20
23.8949688035
 11
-39.6486165011
 21
23.1221783558
  0
LINE
  5
240
100
AcDbEntity
  8
SMUSSO
100
AcDbLine
 62
250
  6
CONTINUOUS
 10
-39.4092074893
 20
17.8411273531
 11
-39.6486165011
 21
17.3252393906
  0
LINE
  5
241
100
AcDbEntity
  8
ASSI
100
AcDbLine
 62
250
  6
CONTINUOUS
 10
-39.4092074893
 20
17.8411273531
 11
-39.6486165011
 21
17.3252393906
  0
LINE
  5
242
100
AcDbEntity
  8
SMUSSO
100
AcDbLine
 62
250
  6
CONTINUOUS
 10
-39.2950631105
 20
20.958457158
 11
-38.94150972
 21
21.570829593
  0
LINE
  5
243
100
AcDbEntity
  8
ASSI
100
AcDbLine
 62
250
  6
CONTINUOUS
 10
-39.2950631105
 20
20.958457158
 11
-38.94150972
 21
21.570829593
  0
LINE
  5
244
100
AcDbEntity
  8
SMUSSO
100
AcDbLine
 62
7
  6
CONTINUOUS
 10
-40.4971446386
 20
6.3028827629
 11
-40.4971446386
 21
17.2435844719
  0
LINE
  5
245
100
AcDbEntity
  8
ASSI
100
AcDbLine
 62
7
  6
CONTINUOUS
 10
-40.4971446386
 20
6.3028827629
 11
-40.4971446386
 21
17.2435844719
  0
LINE
  5
246
100
AcDbEntity
  8
SMUSSO
100
AcDbLine
 62
7
  6
CONTINUOUS
 10
-40.4971446386
 20
23.0405234372
 11
-40.4971446386
 21
33.9812251462
  0
LINE
  5
247
100
AcDbEntity
  8
ASSI
100
AcDbLine
 62
7
  6
CONTINUOUS
 10
-40.4971446386
 20
23.0405234372
 11
-40.4971446386
 21
33.9812251462
  0
LINE
  5
248
100
AcDbEntity
  8
SMUSSO
100
AcDbLine
 62
7
  6
CONTINUOUS
 10
-39.7900378574
 20
6.3028827629
 11
-39.7900378574
 21
17.2435844719
  0
LINE
  5
249
100
AcDbEntity
  8
ASSI
100
AcDbLine
 62
7
  6
CONTINUOUS
 10
-39.7900378574
 20
6.3028827629
 11
-39.7900378574
 21
17.2435844719
  0
LINE
  5
24A
100
AcDbEntity
  8
SMUSSO
100
AcDbLine
 62
7
  6
CONTINUOUS
 10
-39.7900378574
 20
23.0405234372
 11
-39.7900378574
 21
33.9812251462
  0
LINE
  5
24B
100
AcDbEntity
  8
ASSI
100
AcDbLine
 62
7
  6
CONTINUOUS
 10
-39.7900378574
 20
23.0405234372
 11
-39.7900378574
 21
33.9812251462
  0
LINE
  5
24C
100
AcDbEntity
  8
SMUSSO
100
AcDbLine
 62
7
  6
CONTINUOUS
 10
-39.6486165011
 20
34.0628800649
 11
-39.6486165011
 21
23.1221783558
  0
LINE
  5
24D
100
AcDbEntity
  8
ASSI
100
AcDbLine
 62
7
  6
CONTINUOUS
 10
-39.6486165011
 20
34.0628800649
 11
-39.6486165011
 21
23.1221783558
  0
LINE
  5
24E
100
AcDbEntity
  8
SMUSSO
100
AcDbLine
 62
7
  6
CONTINUOUS
 10
-39.6486165011
 20
17.3252393906
 11
-39.6486165011
 21
6.3845376816
  0
LINE
  5
24F
100
AcDbEntity
  8
ASSI
100
AcDbLine
 62
7
  6
CONTINUOUS
 10
-39.6486165011
 20
17.3252393906
 11
-39.6486165011
 21
6.3845376816
  0
LINE
  5
250
100
AcDbEntity
  8
SMUSSO
100
AcDbLine
 62
7
  6
CONTINUOUS
 10
-39.2899863123
 20
34.5854646746
 11
-39.2899863123
 21
23.8949688035
  0
LINE
  5
251
100
AcDbEntity
  8
ASSI
100
AcDbLine
 62
7
  6
CONTINUOUS
 10
-39.2899863123
 20
34.5854646746
 11
-39.2899863123
 21
23.8949688035
  0
LINE
  5
252
100
AcDbEntity
  8
SMUSSO
100
AcDbLine
 62
7
  6
CONTINUOUS
 10
-39.2899863123
 20
17.847824005
 11
-39.2899863123
 21
7.1573281292
  0
LINE
  5
253
100
AcDbEntity
  8
ASSI
100
AcDbLine
 62
7
  6
CONTINUOUS
 10
-39.2899863123
 20
17.847824005
 11
-39.2899863123
 21
7.1573281292
  0
LINE
  5
254
100
AcDbEntity
  8
SMUSSO
100
AcDbLine
 62
250
  6
CONTINUOUS
 10
-39.2899863123
 20
7.1573281292
 11
-39.6486165011
 21
6.3845376816
  0
LINE
  5
255
100
AcDbEntity
  8
ASSI
100
AcDbLine
 62
250
  6
CONTINUOUS
 10
-39.2899863123
 20
7.1573281292
 11
-39.6486165011
 21
6.3845376816
  0
LINE
  5
256
100
AcDbEntity
  8
SMUSSO
100
AcDbLine
 62
250
  6
CONTINUOUS
 10
-39.2950631105
 20
4.2208164837
 11
-38.94150972
 21
4.8331889188
  0
LINE
  5
257
100
AcDbEntity
  8
ASSI
100
AcDbLine
 62
250
  6
CONTINUOUS
 10
-39.2950631105
 20
4.2208164837
 11
-38.94150972
 21
4.8331889188
  0
LINE
  5
258
100
AcDbEntity
  8
SMUSSO
100
AcDbLine
 62
250
  6
CONTINUOUS
 10
-39.6486165011
 20
23.1221783558
 11
-39.7900378574
 21
23.0405234372
  0
LINE
  5
259
100
AcDbEntity
  8
ASSI
100
AcDbLine
 62
250
  6
CONTINUOUS
 10
-39.6486165011
 20
23.1221783558
 11
-39.7900378574
 21
23.0405234372
  0
LINE
  5
25A
100
AcDbEntity
  8
SMUSSO
100
AcDbLine
 62
250
  6
CONTINUOUS
 10
-38.8000883637
 20
21.6524845117
 11
-38.94150972
 21
21.570829593
  0
LINE
  5
25B
100
AcDbEntity
  8
ASSI
100
AcDbLine
 62
250
  6
CONTINUOUS
 10
-38.8000883637
 20
21.6524845117
 11
-38.94150972
 21
21.570829593
  0
LINE
  5
25C
100
AcDbEntity
  8
ASSI
100
AcDbLine
 62
7
  6
CONTINUOUS
 10
-57.9108776598
 20
-5.5414149275
 11
-57.5281883599
 21
-5.7908556696
  0
LINE
  5
25D
100
AcDbEntity
  8
SMUSSO
100
AcDbLine
 62
250
  6
CONTINUOUS
 10
-23.4993049203
 20
25.3925896608
 11
-23.7387139244
 21
24.876701715
  0
LINE
  5
25E
100
AcDbEntity
  8
ASSI
100
AcDbLine
 62
250
  6
CONTINUOUS
 10
-23.4993049203
 20
25.3925896608
 11
-23.7387139244
 21
24.876701715
  0
LINE
  5
25F
100
AcDbEntity
  8
SMUSSO
100
AcDbLine
 62
250
  6
CONTINUOUS
 10
-29.8198322426
 20
15.4875776074
 11
-29.4662788521
 21
16.0999500424
  0
LINE
  5
260
100
AcDbEntity
  8
ASSI
100
AcDbLine
 62
250
  6
CONTINUOUS
 10
-29.8198322426
 20
15.4875776074
 11
-29.4662788521
 21
16.0999500424
  0
LINE
  5
261
100
AcDbEntity
  8
SMUSSO
100
AcDbLine
 62
250
  6
CONTINUOUS
 10
-39.7900378574
 20
17.2435844719
 11
-39.6486165011
 21
17.3252393906
  0
LINE
  5
262
100
AcDbEntity
  8
ASSI
100
AcDbLine
 62
250
  6
CONTINUOUS
 10
-39.7900378574
 20
17.2435844719
 11
-39.6486165011
 21
17.3252393906
  0
LINE
  5
263
100
AcDbEntity
  8
SMUSSO
100
AcDbLine
 62
250
  6
CONTINUOUS
 10
-23.7387139244
 20
24.876701715
 11
-23.8801352807
 21
24.7950467963
  0
LINE
  5
264
100
AcDbEntity
  8
ASSI
100
AcDbLine
 62
250
  6
CONTINUOUS
 10
-23.7387139244
 20
24.876701715
 11
-23.8801352807
 21
24.7950467963
  0
LINE
  5
265
100
AcDbEntity
  8
SMUSSO
100
AcDbLine
 62
250
  6
CONTINUOUS
 10
23.1424656682
 20
-30.4418306366
 11
23.8495724494
 21
-30.4418306366
  0
LINE
  5
266
100
AcDbEntity
  8
ASSI
100
AcDbLine
 62
250
  6
CONTINUOUS
 10
23.1424656682
 20
-30.4418306366
 11
23.8495724494
 21
-30.4418306366
  0
LINE
  5
267
100
AcDbEntity
  8
SMUSSO
100
AcDbLine
 62
250
  6
CONTINUOUS
 10
34.8813658203
 20
-37.3513236993
 11
34.314752811
 21
-37.3007491127
  0
LINE
  5
268
100
AcDbEntity
  8
ASSI
100
AcDbLine
 62
250
  6
CONTINUOUS
 10
34.8813658203
 20
-37.3513236993
 11
34.314752811
 21
-37.3007491127
  0
LINE
  5
269
100
AcDbEntity
  8
ASSI
100
AcDbLine
 62
7
  6
CONTINUOUS
 10
-57.5074247458
 20
-5.8032764952
 11
53.4454917611
 21
-69.8660999196
  0
LINE
  5
26A
100
AcDbEntity
  8
ASSI
100
AcDbLine
 62
7
  6
CONTINUOUS
 10
-57.9108776598
 20
-5.5414149275
 11
52.4355926134
 21
-69.2540838972
  0
LINE
  5
26B
100
AcDbEntity
  8
ASSI
100
AcDbLine
 62
7
  6
CONTINUOUS
 10
-57.5074247458
 20
-5.8032764952
 11
-57.5281883599
 21
-5.7908556696
  0
LINE
  5
26C
100
AcDbEntity
  8
ASSI
100
AcDbLine
 62
7
  6
CONTINUOUS
 10
52.4355926134
 20
-69.2540838972
 11
53.4451293308
 21
-69.8654584819
  0
LINE
  5
26D
100
AcDbEntity
  8
SMUSSO
100
AcDbLine
 62
7
  6
CONTINUOUS
 10
-28.6177507146
 20
27.1222119783
 11
-28.6177507146
 21
16.1815102693
  0
LINE
  5
26E
100
AcDbEntity
  8
ASSI
100
AcDbLine
 62
7
  6
CONTINUOUS
 10
-28.6177507146
 20
27.1222119783
 11
-28.6177507146
 21
16.1815102693
  0
LINE
  5
26F
100
AcDbEntity
  8
SMUSSO
100
AcDbLine
 62
7
  6
CONTINUOUS
 10
-28.6177507146
 20
10.384571304
 11
-28.6177507146
 21
-0.556130405
  0
LINE
  5
270
100
AcDbEntity
  8
ASSI
100
AcDbLine
 62
7
  6
CONTINUOUS
 10
-28.6177507146
 20
10.384571304
 11
-28.6177507146
 21
-0.556130405
  0
LINE
  5
271
100
AcDbEntity
  8
SMUSSO
100
AcDbLine
 62
7
  6
CONTINUOUS
 10
-24.5872420619
 20
-2.883295587
 11
-24.5872420619
 21
8.0574061221
  0
LINE
  5
272
100
AcDbEntity
  8
ASSI
100
AcDbLine
 62
7
  6
CONTINUOUS
 10
-24.5872420619
 20
-2.883295587
 11
-24.5872420619
 21
8.0574061221
  0
LINE
  5
273
100
AcDbEntity
  8
SMUSSO
100
AcDbLine
 62
7
  6
CONTINUOUS
 10
-24.5872420619
 20
13.8543450873
 11
-24.5872420619
 21
24.7950467963
  0
LINE
  5
274
100
AcDbEntity
  8
ASSI
100
AcDbLine
 62
7
  6
CONTINUOUS
 10
-24.5872420619
 20
13.8543450873
 11
-24.5872420619
 21
24.7950467963
  0
LINE
  5
275
100
AcDbEntity
  8
SMUSSO
100
AcDbLine
 62
7
  6
CONTINUOUS
 10
-23.8801352807
 20
-2.883295587
 11
-23.8801352807
 21
8.0574061221
  0
LINE
  5
276
100
AcDbEntity
  8
ASSI
100
AcDbLine
 62
7
  6
CONTINUOUS
 10
-23.8801352807
 20
-2.883295587
 11
-23.8801352807
 21
8.0574061221
  0
LINE
  5
277
100
AcDbEntity
  8
SMUSSO
100
AcDbLine
 62
7
  6
CONTINUOUS
 10
-23.8801352807
 20
13.8543450873
 11
-23.8801352807
 21
24.7950467963
  0
LINE
  5
278
100
AcDbEntity
  8
ASSI
100
AcDbLine
 62
7
  6
CONTINUOUS
 10
-23.8801352807
 20
13.8543450873
 11
-23.8801352807
 21
24.7950467963
  0
LINE
  5
279
100
AcDbEntity
  8
SMUSSO
100
AcDbLine
 62
7
  6
CONTINUOUS
 10
-23.7387139244
 20
24.876701715
 11
-23.7387139244
 21
13.936000006
  0
LINE
  5
27A
100
AcDbEntity
  8
ASSI
100
AcDbLine
 62
7
  6
CONTINUOUS
 10
-23.7387139244
 20
24.876701715
 11
-23.7387139244
 21
13.936000006
  0
LINE
  5
27B
100
AcDbEntity
  8
SMUSSO
100
AcDbLine
 62
7
  6
CONTINUOUS
 10
-23.7387139244
 20
8.1390610407
 11
-23.7387139244
 21
-2.8016406683
  0
LINE
  5
27C
100
AcDbEntity
  8
ASSI
100
AcDbLine
 62
7
  6
CONTINUOUS
 10
-23.7387139244
 20
8.1390610407
 11
-23.7387139244
 21
-2.8016406683
  0
LINE
  5
27D
100
AcDbEntity
  8
SMUSSO
100
AcDbLine
 62
250
  6
CONTINUOUS
 10
-23.3800837356
 20
14.7087904536
 11
-23.7387139244
 21
13.936000006
  0
LINE
  5
27E
100
AcDbEntity
  8
ASSI
100
AcDbLine
 62
250
  6
CONTINUOUS
 10
-23.3800837356
 20
14.7087904536
 11
-23.7387139244
 21
13.936000006
  0
LINE
  5
27F
100
AcDbEntity
  8
SMUSSO
100
AcDbLine
 62
250
  6
CONTINUOUS
 10
-23.4993049126
 20
8.6549490032
 11
-23.7387139244
 21
8.1390610407
  0
LINE
  5
280
100
AcDbEntity
  8
ASSI
100
AcDbLine
 62
250
  6
CONTINUOUS
 10
-23.4993049126
 20
8.6549490032
 11
-23.7387139244
 21
8.1390610407
  0
LINE
  5
281
100
AcDbEntity
  8
SMUSSO
100
AcDbLine
 62
250
  6
CONTINUOUS
 10
-23.3851605339
 20
11.7722788081
 11
-23.0316071433
 21
12.3846512431
  0
LINE
  5
282
100
AcDbEntity
  8
ASSI
100
AcDbLine
 62
250
  6
CONTINUOUS
 10
-23.3851605339
 20
11.7722788081
 11
-23.0316071433
 21
12.3846512431
  0
LINE
  5
283
100
AcDbEntity
  8
SMUSSO
100
AcDbLine
 62
250
  6
CONTINUOUS
 10
-29.8198322426
 20
-1.2500630669
 11
-29.4662788521
 21
-0.6376906318
  0
LINE
  5
284
100
AcDbEntity
  8
ASSI
100
AcDbLine
 62
250
  6
CONTINUOUS
 10
-29.8198322426
 20
-1.2500630669
 11
-29.4662788521
 21
-0.6376906318
  0
LINE
  5
285
100
AcDbEntity
  8
SMUSSO
100
AcDbLine
 62
250
  6
CONTINUOUS
 10
-29.3248574958
 20
16.1816049611
 11
-29.4662788521
 21
16.0999500424
  0
LINE
  5
286
100
AcDbEntity
  8
ASSI
100
AcDbLine
 62
250
  6
CONTINUOUS
 10
-29.3248574958
 20
16.1816049611
 11
-29.4662788521
 21
16.0999500424
  0
LINE
  5
287
100
AcDbEntity
  8
SMUSSO
100
AcDbLine
 62
250
  6
CONTINUOUS
 10
-39.7900378574
 20
6.3028827629
 11
-39.6486165011
 21
6.3845376816
  0
LINE
  5
288
100
AcDbEntity
  8
ASSI
100
AcDbLine
 62
250
  6
CONTINUOUS
 10
-39.7900378574
 20
6.3028827629
 11
-39.6486165011
 21
6.3845376816
  0
LINE
  5
289
100
AcDbEntity
  8
SMUSSO
100
AcDbLine
 62
250
  6
CONTINUOUS
 10
-23.7387139244
 20
13.936000006
 11
-23.8801352807
 21
13.8543450873
  0
LINE
  5
28A
100
AcDbEntity
  8
ASSI
100
AcDbLine
 62
250
  6
CONTINUOUS
 10
-23.7387139244
 20
13.936000006
 11
-23.8801352807
 21
13.8543450873
  0
LINE
  5
28B
100
AcDbEntity
  8
SMUSSO
100
AcDbLine
 62
250
  6
CONTINUOUS
 10
-38.94150972
 20
4.8331889188
 11
-38.8000883637
 21
4.9148438374
  0
LINE
  5
28C
100
AcDbEntity
  8
ASSI
100
AcDbLine
 62
250
  6
CONTINUOUS
 10
-38.94150972
 20
4.8331889188
 11
-38.8000883637
 21
4.9148438374
  0
LINE
  5
28D
100
AcDbEntity
  8
SMUSSO
100
AcDbLine
 62
250
  6
CONTINUOUS
 10
25.6880500805
 20
-31.905607251
 11
24.8395219431
 21
-31.8298695621
  0
LINE
  5
28E
100
AcDbEntity
  8
ASSI
100
AcDbLine
 62
250
  6
CONTINUOUS
 10
25.6880500805
 20
-31.905607251
 11
24.8395219431
 21
-31.8298695621
  0
LINE
  5
28F
100
AcDbEntity
  8
SMUSSO
100
AcDbLine
 62
250
  6
CONTINUOUS
 10
18.9714632436
 20
-28.1651453495
 11
18.4048502343
 21
-28.1145707628
  0
LINE
  5
290
100
AcDbEntity
  8
ASSI
100
AcDbLine
 62
250
  6
CONTINUOUS
 10
18.9714632436
 20
-28.1651453495
 11
18.4048502343
 21
-28.1145707628
  0
LINE
  5
291
100
AcDbEntity
  8
SMUSSO
100
AcDbLine
 62
7
  6
CONTINUOUS
 10
-23.3800837356
 20
25.3992863247
 11
-23.3800837356
 21
14.7087904536
  0
LINE
  5
292
100
AcDbEntity
  8
ASSI
100
AcDbLine
 62
7
  6
CONTINUOUS
 10
-23.3800837356
 20
25.3992863247
 11
-23.3800837356
 21
14.7087904536
  0
LINE
  5
293
100
AcDbEntity
  8
SMUSSO
100
AcDbLine
 62
7
  6
CONTINUOUS
 10
-23.3800837356
 20
8.6616456551
 11
-23.3800837356
 21
-2.0288502207
  0
LINE
  5
294
100
AcDbEntity
  8
ASSI
100
AcDbLine
 62
7
  6
CONTINUOUS
 10
-23.3800837356
 20
8.6616456551
 11
-23.3800837356
 21
-2.0288502207
  0
LINE
  5
295
100
AcDbEntity
  8
SMUSSO
100
AcDbLine
 62
250
  6
CONTINUOUS
 10
-23.3800837356
 20
-2.0288502207
 11
-23.7387139244
 21
-2.8016406683
  0
LINE
  5
296
100
AcDbEntity
  8
ASSI
100
AcDbLine
 62
250
  6
CONTINUOUS
 10
-23.3800837356
 20
-2.0288502207
 11
-23.7387139244
 21
-2.8016406683
  0
LINE
  5
297
100
AcDbEntity
  8
SMUSSO
100
AcDbLine
 62
250
  6
CONTINUOUS
 10
-23.3851605339
 20
-4.9653618662
 11
-23.0316071433
 21
-4.3529894311
  0
LINE
  5
298
100
AcDbEntity
  8
ASSI
100
AcDbLine
 62
250
  6
CONTINUOUS
 10
-23.3851605339
 20
-4.9653618662
 11
-23.0316071433
 21
-4.3529894311
  0
LINE
  5
299
100
AcDbEntity
  8
SMUSSO
100
AcDbLine
 62
250
  6
CONTINUOUS
 10
-22.890185787
 20
12.4663061618
 11
-23.0316071433
 21
12.3846512431
  0
LINE
  5
29A
100
AcDbEntity
  8
ASSI
100
AcDbLine
 62
250
  6
CONTINUOUS
 10
-22.890185787
 20
12.4663061618
 11
-23.0316071433
 21
12.3846512431
  0
LINE
  5
29B
100
AcDbEntity
  8
SMUSSO
100
AcDbLine
 62
250
  6
CONTINUOUS
 10
-23.8801352807
 20
8.0574061221
 11
-23.7387139244
 21
8.1390610407
  0
LINE
  5
29C
100
AcDbEntity
  8
ASSI
100
AcDbLine
 62
250
  6
CONTINUOUS
 10
-23.8801352807
 20
8.0574061221
 11
-23.7387139244
 21
8.1390610407
  0
LINE
  5
29D
100
AcDbEntity
  8
SMUSSO
100
AcDbLine
 62
250
  6
CONTINUOUS
 10
-7.8288113477
 20
15.6905233651
 11
-7.970232704
 21
15.6088684464
  0
LINE
  5
29E
100
AcDbEntity
  8
ASSI
100
AcDbLine
 62
250
  6
CONTINUOUS
 10
-7.8288113477
 20
15.6905233651
 11
-7.970232704
 21
15.6088684464
  0
LINE
  5
29F
100
AcDbEntity
  8
SMUSSO
100
AcDbLine
 62
250
  6
CONTINUOUS
 10
7.2325630915
 20
-21.2556522867
 11
7.9396698727
 21
-21.2556522867
  0
LINE
  5
2A0
100
AcDbEntity
  8
ASSI
100
AcDbLine
 62
250
  6
CONTINUOUS
 10
7.2325630915
 20
-21.2556522867
 11
7.9396698727
 21
-21.2556522867
  0
LINE
  5
2A1
100
AcDbEntity
  8
SMUSSO
100
AcDbLine
 62
250
  6
CONTINUOUS
 10
23.1424656682
 20
-19.5011289276
 11
23.8495724494
 21
-19.5011289276
  0
LINE
  5
2A2
100
AcDbEntity
  8
ASSI
100
AcDbLine
 62
250
  6
CONTINUOUS
 10
23.1424656682
 20
-19.5011289276
 11
23.8495724494
 21
-19.5011289276
  0
LINE
  5
2A3
100
AcDbEntity
  8
SMUSSO
100
AcDbLine
 62
250
  6
CONTINUOUS
 10
9.7781475038
 20
-22.7194289011
 11
8.9296193664
 21
-22.6436912122
  0
LINE
  5
2A4
100
AcDbEntity
  8
ASSI
100
AcDbLine
 62
250
  6
CONTINUOUS
 10
9.7781475038
 20
-22.7194289011
 11
8.9296193664
 21
-22.6436912122
  0
LINE
  5
2A5
100
AcDbEntity
  8
SMUSSO
100
AcDbLine
 62
250
  6
CONTINUOUS
 10
3.0615606669
 20
-18.9789669996
 11
2.4949476576
 21
-18.9283924129
  0
LINE
  5
2A6
100
AcDbEntity
  8
ASSI
100
AcDbLine
 62
250
  6
CONTINUOUS
 10
3.0615606669
 20
-18.9789669996
 11
2.4949476576
 21
-18.9283924129
  0
LINE
  5
2A7
100
AcDbEntity
  8
SMUSSO
100
AcDbLine
 62
250
  6
CONTINUOUS
 10
34.8813658387
 20
-20.6136830267
 11
34.314752811
 21
-20.5631084384
  0
LINE
  5
2A8
100
AcDbEntity
  8
ASSI
100
AcDbLine
 62
250
  6
CONTINUOUS
 10
34.8813658387
 20
-20.6136830267
 11
34.314752811
 21
-20.5631084384
  0
LINE
  5
2A9
100
AcDbEntity
  8
SMUSSO
100
AcDbLine
 62
7
  6
CONTINUOUS
 10
-12.7078481379
 20
17.9360336284
 11
-12.7078481379
 21
6.9953319194
  0
LINE
  5
2AA
100
AcDbEntity
  8
ASSI
100
AcDbLine
 62
7
  6
CONTINUOUS
 10
-12.7078481379
 20
17.9360336284
 11
-12.7078481379
 21
6.9953319194
  0
LINE
  5
2AB
100
AcDbEntity
  8
SMUSSO
100
AcDbLine
 62
7
  6
CONTINUOUS
 10
-12.7078481379
 20
1.1983929542
 11
-12.7078481379
 21
-9.7423087549
  0
LINE
  5
2AC
100
AcDbEntity
  8
ASSI
100
AcDbLine
 62
7
  6
CONTINUOUS
 10
-12.7078481379
 20
1.1983929542
 11
-12.7078481379
 21
-9.7423087549
  0
LINE
  5
2AD
100
AcDbEntity
  8
SMUSSO
100
AcDbLine
 62
250
  6
CONTINUOUS
 10
-7.5894023436
 20
16.2064113109
 11
-7.8288113477
 21
15.6905233651
  0
LINE
  5
2AE
100
AcDbEntity
  8
ASSI
100
AcDbLine
 62
250
  6
CONTINUOUS
 10
-7.5894023436
 20
16.2064113109
 11
-7.8288113477
 21
15.6905233651
  0
LINE
  5
2AF
100
AcDbEntity
  8
SMUSSO
100
AcDbLine
 62
250
  6
CONTINUOUS
 10
-13.909929666
 20
6.3013992575
 11
-13.5563762754
 21
6.9137716926
  0
LINE
  5
2B0
100
AcDbEntity
  8
ASSI
100
AcDbLine
 62
250
  6
CONTINUOUS
 10
-13.909929666
 20
6.3013992575
 11
-13.5563762754
 21
6.9137716926
  0
LINE
  5
2B1
100
AcDbEntity
  8
SMUSSO
100
AcDbLine
 62
250
  6
CONTINUOUS
 10
-29.4662788521
 20
-0.6376906318
 11
-29.3248574958
 21
-0.5560357132
  0
LINE
  5
2B2
100
AcDbEntity
  8
ASSI
100
AcDbLine
 62
250
  6
CONTINUOUS
 10
-29.4662788521
 20
-0.6376906318
 11
-29.3248574958
 21
-0.5560357132
  0
LINE
  5
2B3
100
AcDbEntity
  8
SMUSSO
100
AcDbLine
 62
250
  6
CONTINUOUS
 10
-13.4149549191
 20
6.9954266112
 11
-13.5563762754
 21
6.9137716926
  0
LINE
  5
2B4
100
AcDbEntity
  8
ASSI
100
AcDbLine
 62
250
  6
CONTINUOUS
 10
-13.4149549191
 20
6.9954266112
 11
-13.5563762754
 21
6.9137716926
  0
LINE
  5
2B5
100
AcDbEntity
  8
0
100
AcDbLine
 62
7
  6
CONTINUOUS
 10
-30.8277351944
 20
0.7258988576
 11
-29.5685620203
 21
1.2423684618
  0
LINE
  5
2B6
100
AcDbEntity
  8
SMUSSO
100
AcDbLine
 62
250
  6
CONTINUOUS
 10
23.1424656682
 20
-13.7041899623
 11
23.8495724494
 21
-13.7041899623
  0
LINE
  5
2B7
100
AcDbEntity
  8
ASSI
100
AcDbLine
 62
250
  6
CONTINUOUS
 10
23.1424656682
 20
-13.7041899623
 11
23.8495724494
 21
-13.7041899623
  0
LINE
  5
2B8
100
AcDbEntity
  8
SMUSSO
100
AcDbLine
 62
250
  6
CONTINUOUS
 10
-8.6773394852
 20
-12.0694739368
 11
-7.970232704
 21
-12.0694739368
  0
LINE
  5
2B9
100
AcDbEntity
  8
ASSI
100
AcDbLine
 62
250
  6
CONTINUOUS
 10
-8.6773394852
 20
-12.0694739368
 11
-7.970232704
 21
-12.0694739368
  0
LINE
  5
2BA
100
AcDbEntity
  8
SMUSSO
100
AcDbLine
 62
250
  6
CONTINUOUS
 10
-6.1317550729
 20
-13.5332505512
 11
-6.9802832103
 21
-13.4575128623
  0
LINE
  5
2BB
100
AcDbEntity
  8
ASSI
100
AcDbLine
 62
250
  6
CONTINUOUS
 10
-6.1317550729
 20
-13.5332505512
 11
-6.9802832103
 21
-13.4575128623
  0
LINE
  5
2BC
100
AcDbEntity
  8
SMUSSO
100
AcDbLine
 62
250
  6
CONTINUOUS
 10
25.6880500805
 20
-15.1679665767
 11
24.8395219431
 21
-15.0922288878
  0
LINE
  5
2BD
100
AcDbEntity
  8
ASSI
100
AcDbLine
 62
250
  6
CONTINUOUS
 10
25.6880500805
 20
-15.1679665767
 11
24.8395219431
 21
-15.0922288878
  0
LINE
  5
2BE
100
AcDbEntity
  8
SMUSSO
100
AcDbLine
 62
7
  6
CONTINUOUS
 10
33.8197780641
 20
-37.9947764664
 11
24.3445471962
 21
-32.5238969158
  0
LINE
  5
2BF
100
AcDbEntity
  8
ASSI
100
AcDbLine
 62
7
  6
CONTINUOUS
 10
33.8197780641
 20
-37.9947764664
 11
24.3445471962
 21
-32.5238969158
  0
LINE
  5
2C0
100
AcDbEntity
  8
SMUSSO
100
AcDbLine
 62
7
  6
CONTINUOUS
 10
17.9098754874
 20
-28.8085981165
 11
8.4346446195
 21
-23.3377185659
  0
LINE
  5
2C1
100
AcDbEntity
  8
ASSI
100
AcDbLine
 62
7
  6
CONTINUOUS
 10
17.9098754874
 20
-28.8085981165
 11
8.4346446195
 21
-23.3377185659
  0
LINE
  5
2C2
100
AcDbEntity
  8
SMUSSO
100
AcDbLine
 62
7
  6
CONTINUOUS
 10
1.9999729107
 20
-19.6224197666
 11
-7.4752579572
 21
-14.151540216
  0
LINE
  5
2C3
100
AcDbEntity
  8
ASSI
100
AcDbLine
 62
7
  6
CONTINUOUS
 10
1.9999729107
 20
-19.6224197666
 11
-7.4752579572
 21
-14.151540216
  0
LINE
  5
2C4
100
AcDbEntity
  8
SMUSSO
100
AcDbLine
 62
7
  6
CONTINUOUS
 10
-13.909929666
 20
-10.4362414168
 11
-23.3851605339
 21
-4.9653618662
  0
LINE
  5
2C5
100
AcDbEntity
  8
ASSI
100
AcDbLine
 62
7
  6
CONTINUOUS
 10
-13.909929666
 20
-10.4362414168
 11
-23.3851605339
 21
-4.9653618662
  0
LINE
  5
2C6
100
AcDbEntity
  8
SMUSSO
100
AcDbLine
 62
7
  6
CONTINUOUS
 10
-29.8198322426
 20
-1.2500630669
 11
-39.2950631105
 21
4.2208164837
  0
LINE
  5
2C7
100
AcDbEntity
  8
ASSI
100
AcDbLine
 62
7
  6
CONTINUOUS
 10
-29.8198322426
 20
-1.2500630669
 11
-39.2950631105
 21
4.2208164837
  0
LINE
  5
2C8
100
AcDbEntity
  8
SMUSSO
100
AcDbLine
 62
7
  6
CONTINUOUS
 10
34.1733314547
 20
-37.3824040313
 11
24.6981005868
 21
-31.9115244807
  0
LINE
  5
2C9
100
AcDbEntity
  8
ASSI
100
AcDbLine
 62
7
  6
CONTINUOUS
 10
34.1733314547
 20
-37.3824040313
 11
24.6981005868
 21
-31.9115244807
  0
LINE
  5
2CA
100
AcDbEntity
  8
SMUSSO
100
AcDbLine
 62
7
  6
CONTINUOUS
 10
18.263428878
 20
-28.1962256814
 11
8.7881980101
 21
-22.7253461309
  0
LINE
  5
2CB
100
AcDbEntity
  8
ASSI
100
AcDbLine
 62
7
  6
CONTINUOUS
 10
18.263428878
 20
-28.1962256814
 11
8.7881980101
 21
-22.7253461309
  0
LINE
  5
2CC
100
AcDbEntity
  8
SMUSSO
100
AcDbLine
 62
7
  6
CONTINUOUS
 10
2.3535263013
 20
-19.0100473316
 11
-7.1217045666
 21
-13.539167781
  0
LINE
  5
2CD
100
AcDbEntity
  8
ASSI
100
AcDbLine
 62
7
  6
CONTINUOUS
 10
2.3535263013
 20
-19.0100473316
 11
-7.1217045666
 21
-13.539167781
  0
LINE
  5
2CE
100
AcDbEntity
  8
SMUSSO
100
AcDbLine
 62
7
  6
CONTINUOUS
 10
-13.5563762754
 20
-9.8238689817
 11
-23.0316071433
 21
-4.3529894311
  0
LINE
  5
2CF
100
AcDbEntity
  8
ASSI
100
AcDbLine
 62
7
  6
CONTINUOUS
 10
-13.5563762754
 20
-9.8238689817
 11
-23.0316071433
 21
-4.3529894311
  0
LINE
  5
2D0
100
AcDbEntity
  8
SMUSSO
100
AcDbLine
 62
7
  6
CONTINUOUS
 10
-29.4662788521
 20
-0.6376906318
 11
-38.94150972
 21
4.8331889188
  0
LINE
  5
2D1
100
AcDbEntity
  8
ASSI
100
AcDbLine
 62
7
  6
CONTINUOUS
 10
-29.4662788521
 20
-0.6376906318
 11
-38.94150972
 21
4.8331889188
  0
LINE
  5
2D2
100
AcDbEntity
  8
SMUSSO
100
AcDbLine
 62
7
  6
CONTINUOUS
 10
-38.8000883637
 20
4.9148438374
 11
-29.3248574958
 21
-0.5560357132
  0
LINE
  5
2D3
100
AcDbEntity
  8
ASSI
100
AcDbLine
 62
7
  6
CONTINUOUS
 10
-38.8000883637
 20
4.9148438374
 11
-29.3248574958
 21
-0.5560357132
  0
LINE
  5
2D4
100
AcDbEntity
  8
SMUSSO
100
AcDbLine
 62
7
  6
CONTINUOUS
 10
-22.890185787
 20
-4.2713345124
 11
-13.4149549191
 21
-9.742214063
  0
LINE
  5
2D5
100
AcDbEntity
  8
ASSI
100
AcDbLine
 62
7
  6
CONTINUOUS
 10
-22.890185787
 20
-4.2713345124
 11
-13.4149549191
 21
-9.742214063
  0
LINE
  5
2D6
100
AcDbEntity
  8
SMUSSO
100
AcDbLine
 62
7
  6
CONTINUOUS
 10
-6.9802832103
 20
-13.4575128623
 11
2.4949476576
 21
-18.9283924129
  0
LINE
  5
2D7
100
AcDbEntity
  8
ASSI
100
AcDbLine
 62
7
  6
CONTINUOUS
 10
-6.9802832103
 20
-13.4575128623
 11
2.4949476576
 21
-18.9283924129
  0
LINE
  5
2D8
100
AcDbEntity
  8
SMUSSO
100
AcDbLine
 62
7
  6
CONTINUOUS
 10
8.9296193664
 20
-22.6436912122
 11
18.4048502343
 21
-28.1145707628
  0
LINE
  5
2D9
100
AcDbEntity
  8
ASSI
100
AcDbLine
 62
7
  6
CONTINUOUS
 10
8.9296193664
 20
-22.6436912122
 11
18.4048502343
 21
-28.1145707628
  0
LINE
  5
2DA
100
AcDbEntity
  8
SMUSSO
100
AcDbLine
 62
7
  6
CONTINUOUS
 10
24.8395219431
 20
-31.8298695621
 11
34.314752811
 21
-37.3007491127
  0
LINE
  5
2DB
100
AcDbEntity
  8
ASSI
100
AcDbLine
 62
7
  6
CONTINUOUS
 10
24.8395219431
 20
-31.8298695621
 11
34.314752811
 21
-37.3007491127
  0
LINE
  5
2DC
100
AcDbEntity
  8
SMUSSO
100
AcDbLine
 62
7
  6
CONTINUOUS
 10
-37.9515602263
 20
4.8391061485
 11
-28.6928806624
 21
-0.5067393932
  0
LINE
  5
2DD
100
AcDbEntity
  8
ASSI
100
AcDbLine
 62
7
  6
CONTINUOUS
 10
-37.9515602263
 20
4.8391061485
 11
-28.6928806624
 21
-0.5067393932
  0
LINE
  5
2DE
100
AcDbEntity
  8
SMUSSO
100
AcDbLine
 62
7
  6
CONTINUOUS
 10
-22.0416576496
 20
-4.3470722014
 11
-12.7829780857
 21
-9.6929177431
  0
LINE
  5
2DF
100
AcDbEntity
  8
ASSI
100
AcDbLine
 62
7
  6
CONTINUOUS
 10
-22.0416576496
 20
-4.3470722014
 11
-12.7829780857
 21
-9.6929177431
  0
LINE
  5
2E0
100
AcDbEntity
  8
SMUSSO
100
AcDbLine
 62
7
  6
CONTINUOUS
 10
-6.1317550729
 20
-13.5332505512
 11
3.126924491
 21
-18.8790960929
  0
LINE
  5
2E1
100
AcDbEntity
  8
ASSI
100
AcDbLine
 62
7
  6
CONTINUOUS
 10
-6.1317550729
 20
-13.5332505512
 11
3.126924491
 21
-18.8790960929
  0
LINE
  5
2E2
100
AcDbEntity
  8
SMUSSO
100
AcDbLine
 62
7
  6
CONTINUOUS
 10
9.7781475038
 20
-22.7194289011
 11
19.0368270677
 21
-28.0652744428
  0
LINE
  5
2E3
100
AcDbEntity
  8
ASSI
100
AcDbLine
 62
7
  6
CONTINUOUS
 10
9.7781475038
 20
-22.7194289011
 11
19.0368270677
 21
-28.0652744428
  0
LINE
  5
2E4
100
AcDbEntity
  8
SMUSSO
100
AcDbLine
 62
7
  6
CONTINUOUS
 10
25.6880500805
 20
-31.905607251
 11
34.9467296444
 21
-37.2514527927
  0
LINE
  5
2E5
100
AcDbEntity
  8
ASSI
100
AcDbLine
 62
7
  6
CONTINUOUS
 10
25.6880500805
 20
-31.905607251
 11
34.9467296444
 21
-37.2514527927
  0
LINE
  5
2E6
100
AcDbEntity
  8
0
100
AcDbLine
 62
7
  6
CONTINUOUS
 10
-14.5183915661
 20
-8.6573612238
 11
-12.7705854503
 21
-9.6665225699
  0
LINE
  5
2E7
100
AcDbEntity
  8
0
100
AcDbLine
 62
7
  6
CONTINUOUS
 10
1.3915110106
 20
-17.8435395737
 11
3.1393171264
 21
-18.8527009198
  0
LINE
  5
2E8
100
AcDbEntity
  8
0
100
AcDbLine
 62
7
  6
CONTINUOUS
 10
17.3014135873
 20
-27.0297179236
 11
19.0492197031
 21
-28.0388792697
  0
LINE
  5
2E9
100
AcDbEntity
  8
0
100
AcDbLine
 62
7
  6
CONTINUOUS
 10
-29.2933145428
 20
1.2227320883
 11
-28.6177507146
 21
0.8326700007
  0
LINE
  5
2EA
100
AcDbEntity
  8
0
100
AcDbLine
 62
7
  6
CONTINUOUS
 10
34.346295764
 20
-35.5219813112
 11
35.0218595922
 21
-35.9120433988
  0
LINE
  5
2EB
100
AcDbEntity
  8
ASSI
100
AcDbLine
 62
7
  6
CONTINUOUS
 10
-58.2149620151
 20
66.9540888344
 11
-58.2145867076
 21
66.9534524729
  0
LINE
  5
2EC
100
AcDbEntity
  8
SMUSSO
100
AcDbLine
 62
7
  6
CONTINUOUS
 10
-8.6773394852
 20
-12.0694739368
 11
-8.6773394852
 21
-1.1287722278
  0
LINE
  5
2ED
100
AcDbEntity
  8
ASSI
100
AcDbLine
 62
7
  6
CONTINUOUS
 10
-8.6773394852
 20
-12.0694739368
 11
-8.6773394852
 21
-1.1287722278
  0
LINE
  5
2EE
100
AcDbEntity
  8
SMUSSO
100
AcDbLine
 62
7
  6
CONTINUOUS
 10
-8.6773394852
 20
4.6681667374
 11
-8.6773394852
 21
15.6088684464
  0
LINE
  5
2EF
100
AcDbEntity
  8
ASSI
100
AcDbLine
 62
7
  6
CONTINUOUS
 10
-8.6773394852
 20
4.6681667374
 11
-8.6773394852
 21
15.6088684464
  0
LINE
  5
2F0
100
AcDbEntity
  8
SMUSSO
100
AcDbLine
 62
7
  6
CONTINUOUS
 10
-7.970232704
 20
-12.0694739368
 11
-7.970232704
 21
-1.1287722278
  0
LINE
  5
2F1
100
AcDbEntity
  8
ASSI
100
AcDbLine
 62
7
  6
CONTINUOUS
 10
-7.970232704
 20
-12.0694739368
 11
-7.970232704
 21
-1.1287722278
  0
LINE
  5
2F2
100
AcDbEntity
  8
SMUSSO
100
AcDbLine
 62
7
  6
CONTINUOUS
 10
-7.970232704
 20
4.6681667374
 11
-7.970232704
 21
15.6088684464
  0
LINE
  5
2F3
100
AcDbEntity
  8
ASSI
100
AcDbLine
 62
7
  6
CONTINUOUS
 10
-7.970232704
 20
4.6681667374
 11
-7.970232704
 21
15.6088684464
  0
LINE
  5
2F4
100
AcDbEntity
  8
SMUSSO
100
AcDbLine
 62
7
  6
CONTINUOUS
 10
-7.8288113477
 20
15.6905233651
 11
-7.8288113477
 21
4.7498216561
  0
LINE
  5
2F5
100
AcDbEntity
  8
ASSI
100
AcDbLine
 62
7
  6
CONTINUOUS
 10
-7.8288113477
 20
15.6905233651
 11
-7.8288113477
 21
4.7498216561
  0
LINE
  5
2F6
100
AcDbEntity
  8
SMUSSO
100
AcDbLine
 62
7
  6
CONTINUOUS
 10
-7.8288113477
 20
-1.0471173091
 11
-7.8288113477
 21
-11.9878190182
  0
LINE
  5
2F7
100
AcDbEntity
  8
ASSI
100
AcDbLine
 62
7
  6
CONTINUOUS
 10
-7.8288113477
 20
-1.0471173091
 11
-7.8288113477
 21
-11.9878190182
  0
LINE
  5
2F8
100
AcDbEntity
  8
SMUSSO
100
AcDbLine
 62
7
  6
CONTINUOUS
 10
-7.4701811589
 20
16.2131079749
 11
-7.4701811589
 21
5.5226121037
  0
LINE
  5
2F9
100
AcDbEntity
  8
ASSI
100
AcDbLine
 62
7
  6
CONTINUOUS
 10
-7.4701811589
 20
16.2131079749
 11
-7.4701811589
 21
5.5226121037
  0
LINE
  5
2FA
100
AcDbEntity
  8
SMUSSO
100
AcDbLine
 62
7
  6
CONTINUOUS
 10
-7.4701811589
 20
-0.5245326947
 11
-7.4701811589
 21
-11.2150285705
  0
LINE
  5
2FB
100
AcDbEntity
  8
ASSI
100
AcDbLine
 62
7
  6
CONTINUOUS
 10
-7.4701811589
 20
-0.5245326947
 11
-7.4701811589
 21
-11.2150285705
  0
LINE
  5
2FC
100
AcDbEntity
  8
SMUSSO
100
AcDbLine
 62
250
  6
CONTINUOUS
 10
-7.4701811589
 20
5.5226121037
 11
-7.8288113477
 21
4.7498216561
  0
LINE
  5
2FD
100
AcDbEntity
  8
ASSI
100
AcDbLine
 62
250
  6
CONTINUOUS
 10
-7.4701811589
 20
5.5226121037
 11
-7.8288113477
 21
4.7498216561
  0
LINE
  5
2FE
100
AcDbEntity
  8
SMUSSO
100
AcDbLine
 62
250
  6
CONTINUOUS
 10
-7.5894023359
 20
-0.5312293467
 11
-7.8288113477
 21
-1.0471173091
  0
LINE
  5
2FF
100
AcDbEntity
  8
ASSI
100
AcDbLine
 62
250
  6
CONTINUOUS
 10
-7.5894023359
 20
-0.5312293467
 11
-7.8288113477
 21
-1.0471173091
  0
LINE
  5
300
100
AcDbEntity
  8
SMUSSO
100
AcDbLine
 62
250
  6
CONTINUOUS
 10
-7.4752579572
 20
2.5861004582
 11
-7.1217045666
 21
3.1984728933
  0
LINE
  5
301
100
AcDbEntity
  8
ASSI
100
AcDbLine
 62
250
  6
CONTINUOUS
 10
-7.4752579572
 20
2.5861004582
 11
-7.1217045666
 21
3.1984728933
  0
LINE
  5
302
100
AcDbEntity
  8
SMUSSO
100
AcDbLine
 62
250
  6
CONTINUOUS
 10
-13.909929666
 20
-10.4362414168
 11
-13.5563762754
 21
-9.8238689817
  0
LINE
  5
303
100
AcDbEntity
  8
ASSI
100
AcDbLine
 62
250
  6
CONTINUOUS
 10
-13.909929666
 20
-10.4362414168
 11
-13.5563762754
 21
-9.8238689817
  0
LINE
  5
304
100
AcDbEntity
  8
SMUSSO
100
AcDbLine
 62
250
  6
CONTINUOUS
 10
-23.8801352807
 20
-2.883295587
 11
-23.7387139244
 21
-2.8016406683
  0
LINE
  5
305
100
AcDbEntity
  8
ASSI
100
AcDbLine
 62
250
  6
CONTINUOUS
 10
-23.8801352807
 20
-2.883295587
 11
-23.7387139244
 21
-2.8016406683
  0
LINE
  5
306
100
AcDbEntity
  8
SMUSSO
100
AcDbLine
 62
250
  6
CONTINUOUS
 10
-7.8288113477
 20
4.7498216561
 11
-7.970232704
 21
4.6681667374
  0
LINE
  5
307
100
AcDbEntity
  8
ASSI
100
AcDbLine
 62
250
  6
CONTINUOUS
 10
-7.8288113477
 20
4.7498216561
 11
-7.970232704
 21
4.6681667374
  0
LINE
  5
308
100
AcDbEntity
  8
SMUSSO
100
AcDbLine
 62
250
  6
CONTINUOUS
 10
-23.0316071433
 20
-4.3529894311
 11
-22.890185787
 21
-4.2713345124
  0
LINE
  5
309
100
AcDbEntity
  8
ASSI
100
AcDbLine
 62
250
  6
CONTINUOUS
 10
-23.0316071433
 20
-4.3529894311
 11
-22.890185787
 21
-4.2713345124
  0
LINE
  5
30A
100
AcDbEntity
  8
SMUSSO
100
AcDbLine
 62
250
  6
CONTINUOUS
 10
-6.9802832103
 20
3.2801278119
 11
-7.1217045666
 21
3.1984728933
  0
LINE
  5
30B
100
AcDbEntity
  8
ASSI
100
AcDbLine
 62
250
  6
CONTINUOUS
 10
-6.9802832103
 20
3.2801278119
 11
-7.1217045666
 21
3.1984728933
  0
LINE
  5
30C
100
AcDbEntity
  8
ASSI
100
AcDbLine
 62
7
  6
CONTINUOUS
 10
52.7145685475
 20
1.7385957777
 11
54.1315276785
 21
2.0862140539
  0
LINE
  5
30D
100
AcDbEntity
  8
SMUSSO
100
AcDbLine
 62
250
  6
CONTINUOUS
 10
7.2325630915
 20
-10.3149505777
 11
7.9396698727
 21
-10.3149505777
  0
LINE
  5
30E
100
AcDbEntity
  8
ASSI
100
AcDbLine
 62
250
  6
CONTINUOUS
 10
7.2325630915
 20
-10.3149505777
 11
7.9396698727
 21
-10.3149505777
  0
LINE
  5
30F
100
AcDbEntity
  8
SMUSSO
100
AcDbLine
 62
250
  6
CONTINUOUS
 10
-12.8483419098
 20
-9.7927886497
 11
-13.4149549191
 21
-9.742214063
  0
LINE
  5
310
100
AcDbEntity
  8
ASSI
100
AcDbLine
 62
250
  6
CONTINUOUS
 10
-12.8483419098
 20
-9.7927886497
 11
-13.4149549191
 21
-9.742214063
  0
LINE
  5
311
100
AcDbEntity
  8
SMUSSO
100
AcDbLine
 62
250
  6
CONTINUOUS
 10
18.971463262
 20
-11.4275046769
 11
18.4048502343
 21
-11.3769300885
  0
LINE
  5
312
100
AcDbEntity
  8
ASSI
100
AcDbLine
 62
250
  6
CONTINUOUS
 10
18.971463262
 20
-11.4275046769
 11
18.4048502343
 21
-11.3769300885
  0
LINE
  5
313
100
AcDbEntity
  8
SMUSSO
100
AcDbLine
 62
250
  6
CONTINUOUS
 10
-22.0416576496
 20
-4.3470722014
 11
-22.890185787
 21
-4.2713345124
  0
LINE
  5
314
100
AcDbEntity
  8
ASSI
100
AcDbLine
 62
250
  6
CONTINUOUS
 10
-22.0416576496
 20
-4.3470722014
 11
-22.890185787
 21
-4.2713345124
  0
LINE
  5
315
100
AcDbEntity
  8
SMUSSO
100
AcDbLine
 62
250
  6
CONTINUOUS
 10
-7.4701811589
 20
-11.2150285705
 11
-7.8288113477
 21
-11.9878190182
  0
LINE
  5
316
100
AcDbEntity
  8
ASSI
100
AcDbLine
 62
250
  6
CONTINUOUS
 10
-7.4701811589
 20
-11.2150285705
 11
-7.8288113477
 21
-11.9878190182
  0
LINE
  5
317
100
AcDbEntity
  8
SMUSSO
100
AcDbLine
 62
250
  6
CONTINUOUS
 10
-7.4752579572
 20
-14.151540216
 11
-7.1217045666
 21
-13.539167781
  0
LINE
  5
318
100
AcDbEntity
  8
ASSI
100
AcDbLine
 62
250
  6
CONTINUOUS
 10
-7.4752579572
 20
-14.151540216
 11
-7.1217045666
 21
-13.539167781
  0
LINE
  5
319
100
AcDbEntity
  8
SMUSSO
100
AcDbLine
 62
250
  6
CONTINUOUS
 10
-7.970232704
 20
-1.1287722278
 11
-7.8288113477
 21
-1.0471173091
  0
LINE
  5
31A
100
AcDbEntity
  8
ASSI
100
AcDbLine
 62
250
  6
CONTINUOUS
 10
-7.970232704
 20
-1.1287722278
 11
-7.8288113477
 21
-1.0471173091
  0
LINE
  5
31B
100
AcDbEntity
  8
SMUSSO
100
AcDbLine
 62
250
  6
CONTINUOUS
 10
8.081091229
 20
6.5043450152
 11
7.9396698727
 21
6.4226900966
  0
LINE
  5
31C
100
AcDbEntity
  8
ASSI
100
AcDbLine
 62
250
  6
CONTINUOUS
 10
8.081091229
 20
6.5043450152
 11
7.9396698727
 21
6.4226900966
  0
LINE
  5
31D
100
AcDbEntity
  8
SMUSSO
100
AcDbLine
 62
250
  6
CONTINUOUS
 10
7.2325630915
 20
-4.5180116125
 11
7.9396698727
 21
-4.5180116125
  0
LINE
  5
31E
100
AcDbEntity
  8
ASSI
100
AcDbLine
 62
250
  6
CONTINUOUS
 10
7.2325630915
 20
-4.5180116125
 11
7.9396698727
 21
-4.5180116125
  0
LINE
  5
31F
100
AcDbEntity
  8
SMUSSO
100
AcDbLine
 62
250
  6
CONTINUOUS
 10
-24.5872420619
 20
-2.883295587
 11
-23.8801352807
 21
-2.883295587
  0
LINE
  5
320
100
AcDbEntity
  8
ASSI
100
AcDbLine
 62
250
  6
CONTINUOUS
 10
-24.5872420619
 20
-2.883295587
 11
-23.8801352807
 21
-2.883295587
  0
LINE
  5
321
100
AcDbEntity
  8
SMUSSO
100
AcDbLine
 62
250
  6
CONTINUOUS
 10
23.1424656682
 20
-2.7634882533
 11
23.8495724494
 21
-2.7634882533
  0
LINE
  5
322
100
AcDbEntity
  8
ASSI
100
AcDbLine
 62
250
  6
CONTINUOUS
 10
23.1424656682
 20
-2.7634882533
 11
23.8495724494
 21
-2.7634882533
  0
LINE
  5
323
100
AcDbEntity
  8
SMUSSO
100
AcDbLine
 62
250
  6
CONTINUOUS
 10
-8.6773394852
 20
-1.1287722278
 11
-7.970232704
 21
-1.1287722278
  0
LINE
  5
324
100
AcDbEntity
  8
ASSI
100
AcDbLine
 62
250
  6
CONTINUOUS
 10
-8.6773394852
 20
-1.1287722278
 11
-7.970232704
 21
-1.1287722278
  0
LINE
  5
325
100
AcDbEntity
  8
SMUSSO
100
AcDbLine
 62
250
  6
CONTINUOUS
 10
9.7781475038
 20
-5.9817882269
 11
8.9296193664
 21
-5.9060505379
  0
LINE
  5
326
100
AcDbEntity
  8
ASSI
100
AcDbLine
 62
250
  6
CONTINUOUS
 10
9.7781475038
 20
-5.9817882269
 11
8.9296193664
 21
-5.9060505379
  0
LINE
  5
327
100
AcDbEntity
  8
SMUSSO
100
AcDbLine
 62
250
  6
CONTINUOUS
 10
-28.7582444865
 20
-0.6066102998
 11
-29.3248574958
 21
-0.5560357132
  0
LINE
  5
328
100
AcDbEntity
  8
ASSI
100
AcDbLine
 62
250
  6
CONTINUOUS
 10
-28.7582444865
 20
-0.6066102998
 11
-29.3248574958
 21
-0.5560357132
  0
LINE
  5
329
100
AcDbEntity
  8
SMUSSO
100
AcDbLine
 62
250
  6
CONTINUOUS
 10
3.0615606853
 20
-2.241326327
 11
2.4949476576
 21
-2.1907517387
  0
LINE
  5
32A
100
AcDbEntity
  8
ASSI
100
AcDbLine
 62
250
  6
CONTINUOUS
 10
3.0615606853
 20
-2.241326327
 11
2.4949476576
 21
-2.1907517387
  0
LINE
  5
32B
100
AcDbEntity
  8
SMUSSO
100
AcDbLine
 62
7
  6
CONTINUOUS
 10
-39.2950631105
 20
17.9375171338
 11
-29.8198322426
 21
12.4666375832
  0
LINE
  5
32C
100
AcDbEntity
  8
ASSI
100
AcDbLine
 62
7
  6
CONTINUOUS
 10
-39.2950631105
 20
17.9375171338
 11
-29.8198322426
 21
12.4666375832
  0
LINE
  5
32D
100
AcDbEntity
  8
SMUSSO
100
AcDbLine
 62
7
  6
CONTINUOUS
 10
-23.3851605339
 20
8.751338784
 11
-13.909929666
 21
3.2804592334
  0
LINE
  5
32E
100
AcDbEntity
  8
ASSI
100
AcDbLine
 62
7
  6
CONTINUOUS
 10
-23.3851605339
 20
8.751338784
 11
-13.909929666
 21
3.2804592334
  0
LINE
  5
32F
100
AcDbEntity
  8
SMUSSO
100
AcDbLine
 62
7
  6
CONTINUOUS
 10
-7.4752579572
 20
-0.4348395659
 11
1.9999729107
 21
-5.9057191165
  0
LINE
  5
330
100
AcDbEntity
  8
ASSI
100
AcDbLine
 62
7
  6
CONTINUOUS
 10
-7.4752579572
 20
-0.4348395659
 11
1.9999729107
 21
-5.9057191165
  0
LINE
  5
331
100
AcDbEntity
  8
SMUSSO
100
AcDbLine
 62
7
  6
CONTINUOUS
 10
8.4346446195
 20
-9.6210179158
 11
17.9098754874
 21
-15.0918974664
  0
LINE
  5
332
100
AcDbEntity
  8
ASSI
100
AcDbLine
 62
7
  6
CONTINUOUS
 10
8.4346446195
 20
-9.6210179158
 11
17.9098754874
 21
-15.0918974664
  0
LINE
  5
333
100
AcDbEntity
  8
SMUSSO
100
AcDbLine
 62
7
  6
CONTINUOUS
 10
24.3445471962
 20
-18.8071962657
 11
33.8197780641
 21
-24.2780758163
  0
LINE
  5
334
100
AcDbEntity
  8
ASSI
100
AcDbLine
 62
7
  6
CONTINUOUS
 10
24.3445471962
 20
-18.8071962657
 11
33.8197780641
 21
-24.2780758163
  0
LINE
  5
335
100
AcDbEntity
  8
SMUSSO
100
AcDbLine
 62
7
  6
CONTINUOUS
 10
33.8197780641
 20
-21.2571357921
 11
24.3445471962
 21
-15.7862562415
  0
LINE
  5
336
100
AcDbEntity
  8
ASSI
100
AcDbLine
 62
7
  6
CONTINUOUS
 10
33.8197780641
 20
-21.2571357921
 11
24.3445471962
 21
-15.7862562415
  0
LINE
  5
337
100
AcDbEntity
  8
SMUSSO
100
AcDbLine
 62
7
  6
CONTINUOUS
 10
17.9098754874
 20
-12.0709574423
 11
8.4346446195
 21
-6.6000778917
  0
LINE
  5
338
100
AcDbEntity
  8
ASSI
100
AcDbLine
 62
7
  6
CONTINUOUS
 10
17.9098754874
 20
-12.0709574423
 11
8.4346446195
 21
-6.6000778917
  0
LINE
  5
339
100
AcDbEntity
  8
SMUSSO
100
AcDbLine
 62
7
  6
CONTINUOUS
 10
1.9999729107
 20
-2.8847790924
 11
-7.4752579572
 21
2.5861004582
  0
LINE
  5
33A
100
AcDbEntity
  8
ASSI
100
AcDbLine
 62
7
  6
CONTINUOUS
 10
1.9999729107
 20
-2.8847790924
 11
-7.4752579572
 21
2.5861004582
  0
LINE
  5
33B
100
AcDbEntity
  8
SMUSSO
100
AcDbLine
 62
7
  6
CONTINUOUS
 10
-13.909929666
 20
6.3013992575
 11
-23.3851605339
 21
11.7722788081
  0
LINE
  5
33C
100
AcDbEntity
  8
ASSI
100
AcDbLine
 62
7
  6
CONTINUOUS
 10
-13.909929666
 20
6.3013992575
 11
-23.3851605339
 21
11.7722788081
  0
LINE
  5
33D
100
AcDbEntity
  8
SMUSSO
100
AcDbLine
 62
7
  6
CONTINUOUS
 10
-29.8198322426
 20
15.4875776074
 11
-39.2950631105
 21
20.958457158
  0
LINE
  5
33E
100
AcDbEntity
  8
ASSI
100
AcDbLine
 62
7
  6
CONTINUOUS
 10
-29.8198322426
 20
15.4875776074
 11
-39.2950631105
 21
20.958457158
  0
LINE
  5
33F
100
AcDbEntity
  8
SMUSSO
100
AcDbLine
 62
7
  6
CONTINUOUS
 10
34.1733314547
 20
-20.6447633571
 11
24.6981005868
 21
-15.1738838065
  0
LINE
  5
340
100
AcDbEntity
  8
ASSI
100
AcDbLine
 62
7
  6
CONTINUOUS
 10
34.1733314547
 20
-20.6447633571
 11
24.6981005868
 21
-15.1738838065
  0
LINE
  5
341
100
AcDbEntity
  8
SMUSSO
100
AcDbLine
 62
7
  6
CONTINUOUS
 10
18.263428878
 20
-11.4585850072
 11
8.7881980101
 21
-5.9877054566
  0
LINE
  5
342
100
AcDbEntity
  8
ASSI
100
AcDbLine
 62
7
  6
CONTINUOUS
 10
18.263428878
 20
-11.4585850072
 11
8.7881980101
 21
-5.9877054566
  0
LINE
  5
343
100
AcDbEntity
  8
SMUSSO
100
AcDbLine
 62
7
  6
CONTINUOUS
 10
2.3535263013
 20
-2.2724066573
 11
-7.1217045666
 21
3.1984728933
  0
LINE
  5
344
100
AcDbEntity
  8
ASSI
100
AcDbLine
 62
7
  6
CONTINUOUS
 10
2.3535263013
 20
-2.2724066573
 11
-7.1217045666
 21
3.1984728933
  0
LINE
  5
345
100
AcDbEntity
  8
SMUSSO
100
AcDbLine
 62
7
  6
CONTINUOUS
 10
-13.5563762754
 20
6.9137716926
 11
-23.0316071433
 21
12.3846512431
  0
LINE
  5
346
100
AcDbEntity
  8
ASSI
100
AcDbLine
 62
7
  6
CONTINUOUS
 10
-13.5563762754
 20
6.9137716926
 11
-23.0316071433
 21
12.3846512431
  0
LINE
  5
347
100
AcDbEntity
  8
SMUSSO
100
AcDbLine
 62
7
  6
CONTINUOUS
 10
-29.4662788521
 20
16.0999500424
 11
-38.94150972
 21
21.570829593
  0
LINE
  5
348
100
AcDbEntity
  8
ASSI
100
AcDbLine
 62
7
  6
CONTINUOUS
 10
-29.4662788521
 20
16.0999500424
 11
-38.94150972
 21
21.570829593
  0
LINE
  5
349
100
AcDbEntity
  8
SMUSSO
100
AcDbLine
 62
7
  6
CONTINUOUS
 10
-38.8000883637
 20
21.6524845117
 11
-29.3248574958
 21
16.1816049611
  0
LINE
  5
34A
100
AcDbEntity
  8
ASSI
100
AcDbLine
 62
7
  6
CONTINUOUS
 10
-38.8000883637
 20
21.6524845117
 11
-29.3248574958
 21
16.1816049611
  0
LINE
  5
34B
100
AcDbEntity
  8
SMUSSO
100
AcDbLine
 62
7
  6
CONTINUOUS
 10
-22.890185787
 20
12.4663061618
 11
-13.4149549191
 21
6.9954266112
  0
LINE
  5
34C
100
AcDbEntity
  8
ASSI
100
AcDbLine
 62
7
  6
CONTINUOUS
 10
-22.890185787
 20
12.4663061618
 11
-13.4149549191
 21
6.9954266112
  0
LINE
  5
34D
100
AcDbEntity
  8
SMUSSO
100
AcDbLine
 62
7
  6
CONTINUOUS
 10
-6.9802832103
 20
3.2801278119
 11
2.4949476576
 21
-2.1907517387
  0
LINE
  5
34E
100
AcDbEntity
  8
ASSI
100
AcDbLine
 62
7
  6
CONTINUOUS
 10
-6.9802832103
 20
3.2801278119
 11
2.4949476576
 21
-2.1907517387
  0
LINE
  5
34F
100
AcDbEntity
  8
SMUSSO
100
AcDbLine
 62
7
  6
CONTINUOUS
 10
8.9296193664
 20
-5.9060505379
 11
18.4048502343
 21
-11.3769300885
  0
LINE
  5
350
100
AcDbEntity
  8
ASSI
100
AcDbLine
 62
7
  6
CONTINUOUS
 10
8.9296193664
 20
-5.9060505379
 11
18.4048502343
 21
-11.3769300885
  0
LINE
  5
351
100
AcDbEntity
  8
SMUSSO
100
AcDbLine
 62
7
  6
CONTINUOUS
 10
24.8395219431
 20
-15.0922288878
 11
34.314752811
 21
-20.5631084384
  0
LINE
  5
352
100
AcDbEntity
  8
ASSI
100
AcDbLine
 62
7
  6
CONTINUOUS
 10
24.8395219431
 20
-15.0922288878
 11
34.314752811
 21
-20.5631084384
  0
LINE
  5
353
100
AcDbEntity
  8
SMUSSO
100
AcDbLine
 62
7
  6
CONTINUOUS
 10
-37.9515602263
 20
21.5767468228
 11
-28.6928806583
 21
16.2309012787
  0
LINE
  5
354
100
AcDbEntity
  8
ASSI
100
AcDbLine
 62
7
  6
CONTINUOUS
 10
-37.9515602263
 20
21.5767468228
 11
-28.6928806583
 21
16.2309012787
  0
LINE
  5
355
100
AcDbEntity
  8
SMUSSO
100
AcDbLine
 62
7
  6
CONTINUOUS
 10
-22.0416576496
 20
12.3905684729
 11
-12.7829780816
 21
7.0447229288
  0
LINE
  5
356
100
AcDbEntity
  8
ASSI
100
AcDbLine
 62
7
  6
CONTINUOUS
 10
-22.0416576496
 20
12.3905684729
 11
-12.7829780816
 21
7.0447229288
  0
LINE
  5
357
100
AcDbEntity
  8
SMUSSO
100
AcDbLine
 62
7
  6
CONTINUOUS
 10
-6.1317550729
 20
3.204390123
 11
3.1269244951
 21
-2.141455421
  0
LINE
  5
358
100
AcDbEntity
  8
ASSI
100
AcDbLine
 62
7
  6
CONTINUOUS
 10
-6.1317550729
 20
3.204390123
 11
3.1269244951
 21
-2.141455421
  0
LINE
  5
359
100
AcDbEntity
  8
SMUSSO
100
AcDbLine
 62
7
  6
CONTINUOUS
 10
9.7781475038
 20
-5.9817882269
 11
19.0368270718
 21
-11.3276337709
  0
LINE
  5
35A
100
AcDbEntity
  8
ASSI
100
AcDbLine
 62
7
  6
CONTINUOUS
 10
9.7781475038
 20
-5.9817882269
 11
19.0368270718
 21
-11.3276337709
  0
LINE
  5
35B
100
AcDbEntity
  8
SMUSSO
100
AcDbLine
 62
7
  6
CONTINUOUS
 10
25.6880500805
 20
-15.1679665767
 11
34.9467296485
 21
-20.5138121208
  0
LINE
  5
35C
100
AcDbEntity
  8
ASSI
100
AcDbLine
 62
7
  6
CONTINUOUS
 10
25.6880500805
 20
-15.1679665767
 11
34.9467296485
 21
-20.5138121208
  0
LINE
  5
35D
100
AcDbEntity
  8
SMUSSO
100
AcDbLine
 62
7
  6
CONTINUOUS
 10
3.2020544388
 20
8.7498552785
 11
3.2020544388
 21
-2.1908464305
  0
LINE
  5
35E
100
AcDbEntity
  8
ASSI
100
AcDbLine
 62
7
  6
CONTINUOUS
 10
3.2020544388
 20
8.7498552785
 11
3.2020544388
 21
-2.1908464305
  0
LINE
  5
35F
100
AcDbEntity
  8
SMUSSO
100
AcDbLine
 62
7
  6
CONTINUOUS
 10
3.2020544388
 20
-7.9877853957
 11
3.2020544388
 21
-18.9284871047
  0
LINE
  5
360
100
AcDbEntity
  8
ASSI
100
AcDbLine
 62
7
  6
CONTINUOUS
 10
3.2020544388
 20
-7.9877853957
 11
3.2020544388
 21
-18.9284871047
  0
LINE
  5
361
100
AcDbEntity
  8
SMUSSO
100
AcDbLine
 62
250
  6
CONTINUOUS
 10
8.3205002331
 20
7.0202329611
 11
8.081091229
 21
6.5043450152
  0
LINE
  5
362
100
AcDbEntity
  8
ASSI
100
AcDbLine
 62
250
  6
CONTINUOUS
 10
8.3205002331
 20
7.0202329611
 11
8.081091229
 21
6.5043450152
  0
LINE
  5
363
100
AcDbEntity
  8
SMUSSO
100
AcDbLine
 62
250
  6
CONTINUOUS
 10
1.9999729107
 20
-2.8847790924
 11
2.3535263013
 21
-2.2724066573
  0
LINE
  5
364
100
AcDbEntity
  8
ASSI
100
AcDbLine
 62
250
  6
CONTINUOUS
 10
1.9999729107
 20
-2.8847790924
 11
2.3535263013
 21
-2.2724066573
  0
LINE
  5
365
100
AcDbEntity
  8
SMUSSO
100
AcDbLine
 62
250
  6
CONTINUOUS
 10
-13.5563762754
 20
-9.8238689817
 11
-13.4149549191
 21
-9.742214063
  0
LINE
  5
366
100
AcDbEntity
  8
ASSI
100
AcDbLine
 62
250
  6
CONTINUOUS
 10
-13.5563762754
 20
-9.8238689817
 11
-13.4149549191
 21
-9.742214063
  0
LINE
  5
367
100
AcDbEntity
  8
SMUSSO
100
AcDbLine
 62
250
  6
CONTINUOUS
 10
2.4949476576
 20
-2.1907517387
 11
2.3535263013
 21
-2.2724066573
  0
LINE
  5
368
100
AcDbEntity
  8
ASSI
100
AcDbLine
 62
250
  6
CONTINUOUS
 10
2.4949476576
 20
-2.1907517387
 11
2.3535263013
 21
-2.2724066573
  0
LINE
  5
369
100
AcDbEntity
  8
SMUSSO
100
AcDbLine
 62
250
  6
CONTINUOUS
 10
-7.970232704
 20
-12.0694739368
 11
-7.8288113477
 21
-11.9878190182
  0
LINE
  5
36A
100
AcDbEntity
  8
ASSI
100
AcDbLine
 62
250
  6
CONTINUOUS
 10
-7.970232704
 20
-12.0694739368
 11
-7.8288113477
 21
-11.9878190182
  0
LINE
  5
36B
100
AcDbEntity
  8
SMUSSO
100
AcDbLine
 62
250
  6
CONTINUOUS
 10
-8.6773394852
 20
4.6681667374
 11
-7.970232704
 21
4.6681667374
  0
LINE
  5
36C
100
AcDbEntity
  8
ASSI
100
AcDbLine
 62
250
  6
CONTINUOUS
 10
-8.6773394852
 20
4.6681667374
 11
-7.970232704
 21
4.6681667374
  0
LINE
  5
36D
100
AcDbEntity
  8
SMUSSO
100
AcDbLine
 62
250
  6
CONTINUOUS
 10
-40.4971446386
 20
6.3028827629
 11
-39.7900378574
 21
6.3028827629
  0
LINE
  5
36E
100
AcDbEntity
  8
ASSI
100
AcDbLine
 62
250
  6
CONTINUOUS
 10
-40.4971446386
 20
6.3028827629
 11
-39.7900378574
 21
6.3028827629
  0
LINE
  5
36F
100
AcDbEntity
  8
SMUSSO
100
AcDbLine
 62
250
  6
CONTINUOUS
 10
7.2325630915
 20
6.4226900966
 11
7.9396698727
 21
6.4226900966
  0
LINE
  5
370
100
AcDbEntity
  8
ASSI
100
AcDbLine
 62
250
  6
CONTINUOUS
 10
7.2325630915
 20
6.4226900966
 11
7.9396698727
 21
6.4226900966
  0
LINE
  5
371
100
AcDbEntity
  8
SMUSSO
100
AcDbLine
 62
250
  6
CONTINUOUS
 10
-37.9515602263
 20
4.8391061485
 11
-38.8000883637
 21
4.9148438374
  0
LINE
  5
372
100
AcDbEntity
  8
ASSI
100
AcDbLine
 62
250
  6
CONTINUOUS
 10
-37.9515602263
 20
4.8391061485
 11
-38.8000883637
 21
4.9148438374
  0
LINE
  5
373
100
AcDbEntity
  8
SMUSSO
100
AcDbLine
 62
250
  6
CONTINUOUS
 10
-6.1317550729
 20
3.204390123
 11
-6.9802832103
 21
3.2801278119
  0
LINE
  5
374
100
AcDbEntity
  8
ASSI
100
AcDbLine
 62
250
  6
CONTINUOUS
 10
-6.1317550729
 20
3.204390123
 11
-6.9802832103
 21
3.2801278119
  0
LINE
  5
375
100
AcDbEntity
  8
SMUSSO
100
AcDbLine
 62
250
  6
CONTINUOUS
 10
-12.8483418914
 20
6.9448520229
 11
-13.4149549191
 21
6.9954266112
  0
LINE
  5
376
100
AcDbEntity
  8
ASSI
100
AcDbLine
 62
250
  6
CONTINUOUS
 10
-12.8483418914
 20
6.9448520229
 11
-13.4149549191
 21
6.9954266112
  0
LINE
  5
377
100
AcDbEntity
  8
SMUSSO
100
AcDbLine
 62
7
  6
CONTINUOUS
 10
7.2325630915
 20
-21.2556522867
 11
7.2325630915
 21
-10.3149505777
  0
LINE
  5
378
100
AcDbEntity
  8
ASSI
100
AcDbLine
 62
7
  6
CONTINUOUS
 10
7.2325630915
 20
-21.2556522867
 11
7.2325630915
 21
-10.3149505777
  0
LINE
  5
379
100
AcDbEntity
  8
SMUSSO
100
AcDbLine
 62
7
  6
CONTINUOUS
 10
7.2325630915
 20
-4.5180116125
 11
7.2325630915
 21
6.4226900966
  0
LINE
  5
37A
100
AcDbEntity
  8
ASSI
100
AcDbLine
 62
7
  6
CONTINUOUS
 10
7.2325630915
 20
-4.5180116125
 11
7.2325630915
 21
6.4226900966
  0
LINE
  5
37B
100
AcDbEntity
  8
SMUSSO
100
AcDbLine
 62
7
  6
CONTINUOUS
 10
7.9396698727
 20
-21.2556522867
 11
7.9396698727
 21
-10.3149505777
  0
LINE
  5
37C
100
AcDbEntity
  8
ASSI
100
AcDbLine
 62
7
  6
CONTINUOUS
 10
7.9396698727
 20
-21.2556522867
 11
7.9396698727
 21
-10.3149505777
  0
LINE
  5
37D
100
AcDbEntity
  8
SMUSSO
100
AcDbLine
 62
7
  6
CONTINUOUS
 10
7.9396698727
 20
-4.5180116125
 11
7.9396698727
 21
6.4226900966
  0
LINE
  5
37E
100
AcDbEntity
  8
ASSI
100
AcDbLine
 62
7
  6
CONTINUOUS
 10
7.9396698727
 20
-4.5180116125
 11
7.9396698727
 21
6.4226900966
  0
LINE
  5
37F
100
AcDbEntity
  8
SMUSSO
100
AcDbLine
 62
7
  6
CONTINUOUS
 10
8.081091229
 20
6.5043450152
 11
8.081091229
 21
-4.4363566938
  0
LINE
  5
380
100
AcDbEntity
  8
ASSI
100
AcDbLine
 62
7
  6
CONTINUOUS
 10
8.081091229
 20
6.5043450152
 11
8.081091229
 21
-4.4363566938
  0
LINE
  5
381
100
AcDbEntity
  8
SMUSSO
100
AcDbLine
 62
7
  6
CONTINUOUS
 10
8.081091229
 20
-10.233295659
 11
8.081091229
 21
-21.173997368
  0
LINE
  5
382
100
AcDbEntity
  8
ASSI
100
AcDbLine
 62
7
  6
CONTINUOUS
 10
8.081091229
 20
-10.233295659
 11
8.081091229
 21
-21.173997368
  0
LINE
  5
383
100
AcDbEntity
  8
SMUSSO
100
AcDbLine
 62
7
  6
CONTINUOUS
 10
8.4397214178
 20
7.026929625
 11
8.4397214178
 21
-3.6635662462
  0
LINE
  5
384
100
AcDbEntity
  8
ASSI
100
AcDbLine
 62
7
  6
CONTINUOUS
 10
8.4397214178
 20
7.026929625
 11
8.4397214178
 21
-3.6635662462
  0
LINE
  5
385
100
AcDbEntity
  8
SMUSSO
100
AcDbLine
 62
7
  6
CONTINUOUS
 10
8.4397214178
 20
-9.7107110446
 11
8.4397214178
 21
-20.4012069204
  0
LINE
  5
386
100
AcDbEntity
  8
ASSI
100
AcDbLine
 62
7
  6
CONTINUOUS
 10
8.4397214178
 20
-9.7107110446
 11
8.4397214178
 21
-20.4012069204
  0
LINE
  5
387
100
AcDbEntity
  8
SMUSSO
100
AcDbLine
 62
250
  6
CONTINUOUS
 10
8.4397214178
 20
-3.6635662462
 11
8.081091229
 21
-4.4363566938
  0
LINE
  5
388
100
AcDbEntity
  8
ASSI
100
AcDbLine
 62
250
  6
CONTINUOUS
 10
8.4397214178
 20
-3.6635662462
 11
8.081091229
 21
-4.4363566938
  0
LINE
  5
389
100
AcDbEntity
  8
SMUSSO
100
AcDbLine
 62
250
  6
CONTINUOUS
 10
8.3205002408
 20
-9.7174076966
 11
8.081091229
 21
-10.233295659
  0
LINE
  5
38A
100
AcDbEntity
  8
ASSI
100
AcDbLine
 62
250
  6
CONTINUOUS
 10
8.3205002408
 20
-9.7174076966
 11
8.081091229
 21
-10.233295659
  0
LINE
  5
38B
100
AcDbEntity
  8
SMUSSO
100
AcDbLine
 62
250
  6
CONTINUOUS
 10
8.4346446195
 20
-6.6000778917
 11
8.7881980101
 21
-5.9877054566
  0
LINE
  5
38C
100
AcDbEntity
  8
ASSI
100
AcDbLine
 62
250
  6
CONTINUOUS
 10
8.4346446195
 20
-6.6000778917
 11
8.7881980101
 21
-5.9877054566
  0
LINE
  5
38D
100
AcDbEntity
  8
SMUSSO
100
AcDbLine
 62
250
  6
CONTINUOUS
 10
1.9999729107
 20
-19.6224197666
 11
2.3535263013
 21
-19.0100473316
  0
LINE
  5
38E
100
AcDbEntity
  8
ASSI
100
AcDbLine
 62
250
  6
CONTINUOUS
 10
1.9999729107
 20
-19.6224197666
 11
2.3535263013
 21
-19.0100473316
  0
LINE
  5
38F
100
AcDbEntity
  8
SMUSSO
100
AcDbLine
 62
250
  6
CONTINUOUS
 10
8.081091229
 20
-4.4363566938
 11
7.9396698727
 21
-4.5180116125
  0
LINE
  5
390
100
AcDbEntity
  8
ASSI
100
AcDbLine
 62
250
  6
CONTINUOUS
 10
8.081091229
 20
-4.4363566938
 11
7.9396698727
 21
-4.5180116125
  0
LINE
  5
391
100
AcDbEntity
  8
SMUSSO
100
AcDbLine
 62
250
  6
CONTINUOUS
 10
-7.1217045666
 20
-13.539167781
 11
-6.9802832103
 21
-13.4575128623
  0
LINE
  5
392
100
AcDbEntity
  8
ASSI
100
AcDbLine
 62
250
  6
CONTINUOUS
 10
-7.1217045666
 20
-13.539167781
 11
-6.9802832103
 21
-13.4575128623
  0
LINE
  5
393
100
AcDbEntity
  8
SMUSSO
100
AcDbLine
 62
250
  6
CONTINUOUS
 10
8.9296193664
 20
-5.9060505379
 11
8.7881980101
 21
-5.9877054566
  0
LINE
  5
394
100
AcDbEntity
  8
ASSI
100
AcDbLine
 62
250
  6
CONTINUOUS
 10
8.9296193664
 20
-5.9060505379
 11
8.7881980101
 21
-5.9877054566
  0
LINE
  5
395
100
AcDbEntity
  8
SMUSSO
100
AcDbLine
 62
250
  6
CONTINUOUS
 10
7.9396698727
 20
-10.3149505777
 11
8.081091229
 21
-10.233295659
  0
LINE
  5
396
100
AcDbEntity
  8
ASSI
100
AcDbLine
 62
250
  6
CONTINUOUS
 10
7.9396698727
 20
-10.3149505777
 11
8.081091229
 21
-10.233295659
  0
LINE
  5
397
100
AcDbEntity
  8
SMUSSO
100
AcDbLine
 62
250
  6
CONTINUOUS
 10
-24.5872420619
 20
8.0574061221
 11
-23.8801352807
 21
8.0574061221
  0
LINE
  5
398
100
AcDbEntity
  8
ASSI
100
AcDbLine
 62
250
  6
CONTINUOUS
 10
-24.5872420619
 20
8.0574061221
 11
-23.8801352807
 21
8.0574061221
  0
LINE
  5
399
100
AcDbEntity
  8
SMUSSO
100
AcDbLine
 62
250
  6
CONTINUOUS
 10
-22.0416576496
 20
12.3905684729
 11
-22.890185787
 21
12.4663061618
  0
LINE
  5
39A
100
AcDbEntity
  8
ASSI
100
AcDbLine
 62
250
  6
CONTINUOUS
 10
-22.0416576496
 20
12.3905684729
 11
-22.890185787
 21
12.4663061618
  0
LINE
  5
39B
100
AcDbEntity
  8
SMUSSO
100
AcDbLine
 62
7
  6
CONTINUOUS
 10
-39.2950631105
 20
34.6751578081
 11
-29.8198322426
 21
29.2042782575
  0
LINE
  5
39C
100
AcDbEntity
  8
ASSI
100
AcDbLine
 62
7
  6
CONTINUOUS
 10
-39.2950631105
 20
34.6751578081
 11
-29.8198322426
 21
29.2042782575
  0
LINE
  5
39D
100
AcDbEntity
  8
SMUSSO
100
AcDbLine
 62
7
  6
CONTINUOUS
 10
-23.3851605339
 20
25.4889794582
 11
-13.909929666
 21
20.0180999076
  0
LINE
  5
39E
100
AcDbEntity
  8
ASSI
100
AcDbLine
 62
7
  6
CONTINUOUS
 10
-23.3851605339
 20
25.4889794582
 11
-13.909929666
 21
20.0180999076
  0
LINE
  5
39F
100
AcDbEntity
  8
SMUSSO
100
AcDbLine
 62
7
  6
CONTINUOUS
 10
-7.4752579572
 20
16.3028011083
 11
1.9999729107
 21
10.8319215577
  0
LINE
  5
3A0
100
AcDbEntity
  8
ASSI
100
AcDbLine
 62
7
  6
CONTINUOUS
 10
-7.4752579572
 20
16.3028011083
 11
1.9999729107
 21
10.8319215577
  0
LINE
  5
3A1
100
AcDbEntity
  8
SMUSSO
100
AcDbLine
 62
7
  6
CONTINUOUS
 10
8.4346446195
 20
7.1166227585
 11
17.9098754874
 21
1.6457432079
  0
LINE
  5
3A2
100
AcDbEntity
  8
ASSI
100
AcDbLine
 62
7
  6
CONTINUOUS
 10
8.4346446195
 20
7.1166227585
 11
17.9098754874
 21
1.6457432079
  0
LINE
  5
3A3
100
AcDbEntity
  8
SMUSSO
100
AcDbLine
 62
7
  6
CONTINUOUS
 10
24.3445471962
 20
-2.0695555914
 11
33.8197780641
 21
-7.540435142
  0
LINE
  5
3A4
100
AcDbEntity
  8
ASSI
100
AcDbLine
 62
7
  6
CONTINUOUS
 10
24.3445471962
 20
-2.0695555914
 11
33.8197780641
 21
-7.540435142
  0
LINE
  5
3A5
100
AcDbEntity
  8
ASSI
100
AcDbLine
 62
7
  6
CONTINUOUS
 10
53.4451293308
 20
-69.8654584819
 11
53.4454917611
 21
-69.8660999196
  0
LINE
  5
3A6
100
AcDbEntity
  8
SMUSSO
100
AcDbLine
 62
250
  6
CONTINUOUS
 10
8.4397214178
 20
-20.4012069204
 11
8.081091229
 21
-21.173997368
  0
LINE
  5
3A7
100
AcDbEntity
  8
ASSI
100
AcDbLine
 62
250
  6
CONTINUOUS
 10
8.4397214178
 20
-20.4012069204
 11
8.081091229
 21
-21.173997368
  0
LINE
  5
3A8
100
AcDbEntity
  8
SMUSSO
100
AcDbLine
 62
250
  6
CONTINUOUS
 10
8.4346446195
 20
-23.3377185659
 11
8.7881980101
 21
-22.7253461309
  0
LINE
  5
3A9
100
AcDbEntity
  8
ASSI
100
AcDbLine
 62
250
  6
CONTINUOUS
 10
8.4346446195
 20
-23.3377185659
 11
8.7881980101
 21
-22.7253461309
  0
LINE
  5
3AA
100
AcDbEntity
  8
SMUSSO
100
AcDbLine
 62
250
  6
CONTINUOUS
 10
23.9909938056
 20
-2.6818333346
 11
23.8495724494
 21
-2.7634882533
  0
LINE
  5
3AB
100
AcDbEntity
  8
ASSI
100
AcDbLine
 62
250
  6
CONTINUOUS
 10
23.9909938056
 20
-2.6818333346
 11
23.8495724494
 21
-2.7634882533
  0
LINE
  5
3AC
100
AcDbEntity
  8
SMUSSO
100
AcDbLine
 62
250
  6
CONTINUOUS
 10
2.3535263013
 20
-19.0100473316
 11
2.4949476576
 21
-18.9283924129
  0
LINE
  5
3AD
100
AcDbEntity
  8
ASSI
100
AcDbLine
 62
250
  6
CONTINUOUS
 10
2.3535263013
 20
-19.0100473316
 11
2.4949476576
 21
-18.9283924129
  0
LINE
  5
3AE
100
AcDbEntity
  8
SMUSSO
100
AcDbLine
 62
250
  6
CONTINUOUS
 10
-24.5872420619
 20
13.8543450873
 11
-23.8801352807
 21
13.8543450873
  0
LINE
  5
3AF
100
AcDbEntity
  8
ASSI
100
AcDbLine
 62
250
  6
CONTINUOUS
 10
-24.5872420619
 20
13.8543450873
 11
-23.8801352807
 21
13.8543450873
  0
LINE
  5
3B0
100
AcDbEntity
  8
SMUSSO
100
AcDbLine
 62
250
  6
CONTINUOUS
 10
-8.6773394852
 20
15.6088684464
 11
-7.970232704
 21
15.6088684464
  0
LINE
  5
3B1
100
AcDbEntity
  8
ASSI
100
AcDbLine
 62
250
  6
CONTINUOUS
 10
-8.6773394852
 20
15.6088684464
 11
-7.970232704
 21
15.6088684464
  0
LINE
  5
3B2
100
AcDbEntity
  8
SMUSSO
100
AcDbLine
 62
250
  6
CONTINUOUS
 10
-40.4971446386
 20
17.2435844719
 11
-39.7900378574
 21
17.2435844719
  0
LINE
  5
3B3
100
AcDbEntity
  8
ASSI
100
AcDbLine
 62
250
  6
CONTINUOUS
 10
-40.4971446386
 20
17.2435844719
 11
-39.7900378574
 21
17.2435844719
  0
LINE
  5
3B4
100
AcDbEntity
  8
SMUSSO
100
AcDbLine
 62
250
  6
CONTINUOUS
 10
-28.7582444681
 20
16.1310303728
 11
-29.3248574958
 21
16.1816049611
  0
LINE
  5
3B5
100
AcDbEntity
  8
ASSI
100
AcDbLine
 62
250
  6
CONTINUOUS
 10
-28.7582444681
 20
16.1310303728
 11
-29.3248574958
 21
16.1816049611
  0
LINE
  5
3B6
100
AcDbEntity
  8
SMUSSO
100
AcDbLine
 62
250
  6
CONTINUOUS
 10
-37.9515602263
 20
21.5767468228
 11
-38.8000883637
 21
21.6524845117
  0
LINE
  5
3B7
100
AcDbEntity
  8
ASSI
100
AcDbLine
 62
250
  6
CONTINUOUS
 10
-37.9515602263
 20
21.5767468228
 11
-38.8000883637
 21
21.6524845117
  0
LINE
  5
3B8
100
AcDbEntity
  8
SMUSSO
100
AcDbLine
 62
7
  6
CONTINUOUS
 10
19.1119570155
 20
-0.4363230713
 11
19.1119570155
 21
-11.3770247804
  0
LINE
  5
3B9
100
AcDbEntity
  8
ASSI
100
AcDbLine
 62
7
  6
CONTINUOUS
 10
19.1119570155
 20
-0.4363230713
 11
19.1119570155
 21
-11.3770247804
  0
LINE
  5
3BA
100
AcDbEntity
  8
SMUSSO
100
AcDbLine
 62
7
  6
CONTINUOUS
 10
19.1119570155
 20
-17.1739637456
 11
19.1119570155
 21
-28.1146654546
  0
LINE
  5
3BB
100
AcDbEntity
  8
ASSI
100
AcDbLine
 62
7
  6
CONTINUOUS
 10
19.1119570155
 20
-17.1739637456
 11
19.1119570155
 21
-28.1146654546
  0
LINE
  5
3BC
100
AcDbEntity
  8
SMUSSO
100
AcDbLine
 62
7
  6
CONTINUOUS
 10
23.1424656682
 20
-30.4418306366
 11
23.1424656682
 21
-19.5011289276
  0
LINE
  5
3BD
100
AcDbEntity
  8
ASSI
100
AcDbLine
 62
7
  6
CONTINUOUS
 10
23.1424656682
 20
-30.4418306366
 11
23.1424656682
 21
-19.5011289276
  0
LINE
  5
3BE
100
AcDbEntity
  8
SMUSSO
100
AcDbLine
 62
7
  6
CONTINUOUS
 10
23.1424656682
 20
-13.7041899623
 11
23.1424656682
 21
-2.7634882533
  0
LINE
  5
3BF
100
AcDbEntity
  8
ASSI
100
AcDbLine
 62
7
  6
CONTINUOUS
 10
23.1424656682
 20
-13.7041899623
 11
23.1424656682
 21
-2.7634882533
  0
LINE
  5
3C0
100
AcDbEntity
  8
SMUSSO
100
AcDbLine
 62
7
  6
CONTINUOUS
 10
23.8495724494
 20
-30.4418306366
 11
23.8495724494
 21
-19.5011289276
  0
LINE
  5
3C1
100
AcDbEntity
  8
ASSI
100
AcDbLine
 62
7
  6
CONTINUOUS
 10
23.8495724494
 20
-30.4418306366
 11
23.8495724494
 21
-19.5011289276
  0
LINE
  5
3C2
100
AcDbEntity
  8
SMUSSO
100
AcDbLine
 62
7
  6
CONTINUOUS
 10
23.8495724494
 20
-13.7041899623
 11
23.8495724494
 21
-2.7634882533
  0
LINE
  5
3C3
100
AcDbEntity
  8
ASSI
100
AcDbLine
 62
7
  6
CONTINUOUS
 10
23.8495724494
 20
-13.7041899623
 11
23.8495724494
 21
-2.7634882533
  0
LINE
  5
3C4
100
AcDbEntity
  8
SMUSSO
100
AcDbLine
 62
7
  6
CONTINUOUS
 10
23.9909938056
 20
-2.6818333346
 11
23.9909938056
 21
-13.6225350437
  0
LINE
  5
3C5
100
AcDbEntity
  8
ASSI
100
AcDbLine
 62
7
  6
CONTINUOUS
 10
23.9909938056
 20
-2.6818333346
 11
23.9909938056
 21
-13.6225350437
  0
LINE
  5
3C6
100
AcDbEntity
  8
SMUSSO
100
AcDbLine
 62
7
  6
CONTINUOUS
 10
23.9909938056
 20
-19.4194740089
 11
23.9909938056
 21
-30.3601757179
  0
LINE
  5
3C7
100
AcDbEntity
  8
ASSI
100
AcDbLine
 62
7
  6
CONTINUOUS
 10
23.9909938056
 20
-19.4194740089
 11
23.9909938056
 21
-30.3601757179
  0
LINE
  5
3C8
100
AcDbEntity
  8
SMUSSO
100
AcDbLine
 62
7
  6
CONTINUOUS
 10
24.3496239945
 20
-2.1592487249
 11
24.3496239945
 21
-12.849744596
  0
LINE
  5
3C9
100
AcDbEntity
  8
ASSI
100
AcDbLine
 62
7
  6
CONTINUOUS
 10
24.3496239945
 20
-2.1592487249
 11
24.3496239945
 21
-12.849744596
  0
LINE
  5
3CA
100
AcDbEntity
  8
SMUSSO
100
AcDbLine
 62
7
  6
CONTINUOUS
 10
24.3496239945
 20
-18.8968893945
 11
24.3496239945
 21
-29.5873852703
  0
LINE
  5
3CB
100
AcDbEntity
  8
ASSI
100
AcDbLine
 62
7
  6
CONTINUOUS
 10
24.3496239945
 20
-18.8968893945
 11
24.3496239945
 21
-29.5873852703
  0
LINE
  5
3CC
100
AcDbEntity
  8
SMUSSO
100
AcDbLine
 62
250
  6
CONTINUOUS
 10
24.2304028098
 20
-2.1659453888
 11
23.9909938056
 21
-2.6818333346
  0
LINE
  5
3CD
100
AcDbEntity
  8
ASSI
100
AcDbLine
 62
250
  6
CONTINUOUS
 10
24.2304028098
 20
-2.1659453888
 11
23.9909938056
 21
-2.6818333346
  0
LINE
  5
3CE
100
AcDbEntity
  8
SMUSSO
100
AcDbLine
 62
250
  6
CONTINUOUS
 10
17.9098754874
 20
-12.0709574423
 11
18.263428878
 21
-11.4585850072
  0
LINE
  5
3CF
100
AcDbEntity
  8
ASSI
100
AcDbLine
 62
250
  6
CONTINUOUS
 10
17.9098754874
 20
-12.0709574423
 11
18.263428878
 21
-11.4585850072
  0
LINE
  5
3D0
100
AcDbEntity
  8
SMUSSO
100
AcDbLine
 62
250
  6
CONTINUOUS
 10
18.4048502343
 20
-11.3769300885
 11
18.263428878
 21
-11.4585850072
  0
LINE
  5
3D1
100
AcDbEntity
  8
ASSI
100
AcDbLine
 62
250
  6
CONTINUOUS
 10
18.4048502343
 20
-11.3769300885
 11
18.263428878
 21
-11.4585850072
  0
LINE
  5
3D2
100
AcDbEntity
  8
SMUSSO
100
AcDbLine
 62
250
  6
CONTINUOUS
 10
7.9396698727
 20
-21.2556522867
 11
8.081091229
 21
-21.173997368
  0
LINE
  5
3D3
100
AcDbEntity
  8
ASSI
100
AcDbLine
 62
250
  6
CONTINUOUS
 10
7.9396698727
 20
-21.2556522867
 11
8.081091229
 21
-21.173997368
  0
LINE
  5
3D4
100
AcDbEntity
  8
SMUSSO
100
AcDbLine
 62
250
  6
CONTINUOUS
 10
23.9909938056
 20
-13.6225350437
 11
23.8495724494
 21
-13.7041899623
  0
LINE
  5
3D5
100
AcDbEntity
  8
ASSI
100
AcDbLine
 62
250
  6
CONTINUOUS
 10
23.9909938056
 20
-13.6225350437
 11
23.8495724494
 21
-13.7041899623
  0
LINE
  5
3D6
100
AcDbEntity
  8
ASSI
100
AcDbLine
 62
7
  6
CONTINUOUS
 10
53.4454917611
 20
3.2997096038
 11
57.5074247458
 21
5.645003506
  0
LINE
  5
3D7
100
AcDbEntity
  8
SMUSSO
100
AcDbLine
 62
250
  6
CONTINUOUS
 10
8.7881980101
 20
-22.7253461309
 11
8.9296193664
 21
-22.6436912122
  0
LINE
  5
3D8
100
AcDbEntity
  8
ASSI
100
AcDbLine
 62
250
  6
CONTINUOUS
 10
8.7881980101
 20
-22.7253461309
 11
8.9296193664
 21
-22.6436912122
  0
LINE
  5
3D9
100
AcDbEntity
  8
SMUSSO
100
AcDbLine
 62
250
  6
CONTINUOUS
 10
-40.4971446386
 20
23.0405234372
 11
-39.7900378574
 21
23.0405234372
  0
LINE
  5
3DA
100
AcDbEntity
  8
ASSI
100
AcDbLine
 62
250
  6
CONTINUOUS
 10
-40.4971446386
 20
23.0405234372
 11
-39.7900378574
 21
23.0405234372
  0
LINE
  5
3DB
100
AcDbEntity
  8
SMUSSO
100
AcDbLine
 62
250
  6
CONTINUOUS
 10
-24.5872420619
 20
24.7950467963
 11
-23.8801352807
 21
24.7950467963
  0
LINE
  5
3DC
100
AcDbEntity
  8
ASSI
100
AcDbLine
 62
250
  6
CONTINUOUS
 10
-24.5872420619
 20
24.7950467963
 11
-23.8801352807
 21
24.7950467963
  0
LINE
  5
3DD
100
AcDbEntity
  8
SMUSSO
100
AcDbLine
 62
250
  6
CONTINUOUS
 10
24.3496239945
 20
-12.849744596
 11
23.9909938056
 21
-13.6225350437
  0
LINE
  5
3DE
100
AcDbEntity
  8
ASSI
100
AcDbLine
 62
250
  6
CONTINUOUS
 10
24.3496239945
 20
-12.849744596
 11
23.9909938056
 21
-13.6225350437
  0
LINE
  5
3DF
100
AcDbEntity
  8
SMUSSO
100
AcDbLine
 62
250
  6
CONTINUOUS
 10
24.2304028175
 20
-18.9035860464
 11
23.9909938056
 21
-19.4194740089
  0
LINE
  5
3E0
100
AcDbEntity
  8
ASSI
100
AcDbLine
 62
250
  6
CONTINUOUS
 10
24.2304028175
 20
-18.9035860464
 11
23.9909938056
 21
-19.4194740089
  0
LINE
  5
3E1
100
AcDbEntity
  8
SMUSSO
100
AcDbLine
 62
250
  6
CONTINUOUS
 10
24.3445471962
 20
-15.7862562415
 11
24.6981005868
 21
-15.1738838065
  0
LINE
  5
3E2
100
AcDbEntity
  8
ASSI
100
AcDbLine
 62
250
  6
CONTINUOUS
 10
24.3445471962
 20
-15.7862562415
 11
24.6981005868
 21
-15.1738838065
  0
LINE
  5
3E3
100
AcDbEntity
  8
SMUSSO
100
AcDbLine
 62
250
  6
CONTINUOUS
 10
17.9098754874
 20
-28.8085981165
 11
18.263428878
 21
-28.1962256814
  0
LINE
  5
3E4
100
AcDbEntity
  8
ASSI
100
AcDbLine
 62
250
  6
CONTINUOUS
 10
17.9098754874
 20
-28.8085981165
 11
18.263428878
 21
-28.1962256814
  0
LINE
  5
3E5
100
AcDbEntity
  8
ASSI
100
AcDbLine
 62
7
  6
CONTINUOUS
 10
54.1530290304
 20
2.0742191065
 11
58.2149620151
 21
4.4195130086
  0
LINE
  5
3E6
100
AcDbEntity
  8
SMUSSO
100
AcDbLine
 62
250
  6
CONTINUOUS
 10
24.8395219431
 20
-15.0922288878
 11
24.6981005868
 21
-15.1738838065
  0
LINE
  5
3E7
100
AcDbEntity
  8
ASSI
100
AcDbLine
 62
250
  6
CONTINUOUS
 10
24.8395219431
 20
-15.0922288878
 11
24.6981005868
 21
-15.1738838065
  0
LINE
  5
3E8
100
AcDbEntity
  8
SMUSSO
100
AcDbLine
 62
250
  6
CONTINUOUS
 10
23.8495724494
 20
-19.5011289276
 11
23.9909938056
 21
-19.4194740089
  0
LINE
  5
3E9
100
AcDbEntity
  8
ASSI
100
AcDbLine
 62
250
  6
CONTINUOUS
 10
23.8495724494
 20
-19.5011289276
 11
23.9909938056
 21
-19.4194740089
  0
LINE
  5
3EA
100
AcDbEntity
  8
ASSI
100
AcDbLine
 62
7
  6
CONTINUOUS
 10
54.1315276785
 20
2.0862140539
 11
54.1530290304
 21
2.0742191065
  0
LINE
  5
3EB
100
AcDbEntity
  8
ASSI
100
AcDbLine
 62
7
  6
CONTINUOUS
 10
52.4355926134
 20
2.2217962692
 11
-57.9108776598
 21
65.9344652389
  0
LINE
  5
3EC
100
AcDbEntity
  8
ASSI
100
AcDbLine
 62
7
  6
CONTINUOUS
 10
53.4454917611
 20
3.2997096038
 11
-57.5074247458
 21
67.3625330283
  0
LINE
  5
3ED
100
AcDbEntity
  8
SMUSSO
100
AcDbLine
 62
7
  6
CONTINUOUS
 10
35.0218595922
 20
-9.6225014212
 11
35.0218595922
 21
-20.5632031302
  0
LINE
  5
3EE
100
AcDbEntity
  8
ASSI
100
AcDbLine
 62
7
  6
CONTINUOUS
 10
35.0218595922
 20
-9.6225014212
 11
35.0218595922
 21
-20.5632031302
  0
LINE
  5
3EF
100
AcDbEntity
  8
SMUSSO
100
AcDbLine
 62
7
  6
CONTINUOUS
 10
35.0218595922
 20
-26.3601420955
 11
35.0218595922
 21
-37.3008438045
  0
LINE
  5
3F0
100
AcDbEntity
  8
ASSI
100
AcDbLine
 62
7
  6
CONTINUOUS
 10
35.0218595922
 20
-26.3601420955
 11
35.0218595922
 21
-37.3008438045
  0
LINE
  5
3F1
100
AcDbEntity
  8
SMUSSO
100
AcDbLine
 62
250
  6
CONTINUOUS
 10
24.3496239945
 20
-29.5873852703
 11
23.9909938056
 21
-30.3601757179
  0
LINE
  5
3F2
100
AcDbEntity
  8
ASSI
100
AcDbLine
 62
250
  6
CONTINUOUS
 10
24.3496239945
 20
-29.5873852703
 11
23.9909938056
 21
-30.3601757179
  0
LINE
  5
3F3
100
AcDbEntity
  8
ASSI
100
AcDbLine
 62
7
  6
CONTINUOUS
 10
52.4355926134
 20
2.2217962692
 11
53.4451293308
 21
3.275090865
  0
LINE
  5
3F4
100
AcDbEntity
  8
SMUSSO
100
AcDbLine
 62
250
  6
CONTINUOUS
 10
18.263428878
 20
-28.1962256814
 11
18.4048502343
 21
-28.1145707628
  0
LINE
  5
3F5
100
AcDbEntity
  8
ASSI
100
AcDbLine
 62
250
  6
CONTINUOUS
 10
18.263428878
 20
-28.1962256814
 11
18.4048502343
 21
-28.1145707628
  0
LINE
  5
3F6
100
AcDbEntity
  8
SMUSSO
100
AcDbLine
 62
250
  6
CONTINUOUS
 10
34.314752811
 20
-20.5631084384
 11
34.1733314547
 21
-20.6447633571
  0
LINE
  5
3F7
100
AcDbEntity
  8
ASSI
100
AcDbLine
 62
250
  6
CONTINUOUS
 10
34.314752811
 20
-20.5631084384
 11
34.1733314547
 21
-20.6447633571
  0
LINE
  5
3F8
100
AcDbEntity
  8
SMUSSO
100
AcDbLine
 62
250
  6
CONTINUOUS
 10
-40.4971446386
 20
33.9812251462
 11
-39.7900378574
 21
33.9812251462
  0
LINE
  5
3F9
100
AcDbEntity
  8
ASSI
100
AcDbLine
 62
250
  6
CONTINUOUS
 10
-40.4971446386
 20
33.9812251462
 11
-39.7900378574
 21
33.9812251462
  0
LINE
  5
3FA
100
AcDbEntity
  8
ASSI
100
AcDbLine
 62
7
  6
CONTINUOUS
 10
57.5074247458
 20
5.645003506
 11
-53.7196109586
 21
69.8660999196
  0
LINE
  5
3FB
100
AcDbEntity
  8
SMUSSO
100
AcDbLine
 62
250
  6
CONTINUOUS
 10
24.3445471962
 20
-32.5238969158
 11
24.6981005868
 21
-31.9115244807
  0
LINE
  5
3FC
100
AcDbEntity
  8
ASSI
100
AcDbLine
 62
250
  6
CONTINUOUS
 10
24.3445471962
 20
-32.5238969158
 11
24.6981005868
 21
-31.9115244807
  0
LINE
  5
3FD
100
AcDbEntity
  8
SMUSSO
100
AcDbLine
 62
250
  6
CONTINUOUS
 10
33.8197780641
 20
-21.2571357921
 11
34.1733314547
 21
-20.6447633571
  0
LINE
  5
3FE
100
AcDbEntity
  8
ASSI
100
AcDbLine
 62
250
  6
CONTINUOUS
 10
33.8197780641
 20
-21.2571357921
 11
34.1733314547
 21
-20.6447633571
  0
LINE
  5
3FF
100
AcDbEntity
  8
SMUSSO
100
AcDbLine
 62
250
  6
CONTINUOUS
 10
23.8495724494
 20
-30.4418306366
 11
23.9909938056
 21
-30.3601757179
  0
LINE
  5
400
100
AcDbEntity
  8
ASSI
100
AcDbLine
 62
250
  6
CONTINUOUS
 10
23.8495724494
 20
-30.4418306366
 11
23.9909938056
 21
-30.3601757179
  0
LINE
  5
401
100
AcDbEntity
  8
SMUSSO
100
AcDbLine
 62
250
  6
CONTINUOUS
 10
24.6981005868
 20
-31.9115244807
 11
24.8395219431
 21
-31.8298695621
  0
LINE
  5
402
100
AcDbEntity
  8
ASSI
100
AcDbLine
 62
250
  6
CONTINUOUS
 10
24.6981005868
 20
-31.9115244807
 11
24.8395219431
 21
-31.8298695621
  0
LINE
  5
403
100
AcDbEntity
  8
SMUSSO
100
AcDbLine
 62
250
  6
CONTINUOUS
 10
33.8197780641
 20
-37.9947764664
 11
34.1733314547
 21
-37.3824040313
  0
LINE
  5
404
100
AcDbEntity
  8
ASSI
100
AcDbLine
 62
250
  6
CONTINUOUS
 10
33.8197780641
 20
-37.9947764664
 11
34.1733314547
 21
-37.3824040313
  0
LINE
  5
405
100
AcDbEntity
  8
0
100
AcDbLine
 62
7
  6
CONTINUOUS
 10
32.8118751124
 20
-36.0188145419
 11
34.0710482864
 21
-35.5023449377
  0
LINE
  5
406
100
AcDbEntity
  8
ASSI
100
AcDbLine
 62
7
  6
CONTINUOUS
 10
52.7145685475
 20
1.7385957777
 11
52.4355926134
 21
2.2217962692
  0
LINE
  5
407
100
AcDbEntity
  8
ASSI
100
AcDbLine
 62
7
  6
CONTINUOUS
 10
54.1315276785
 20
2.0862140539
 11
53.4451293308
 21
3.275090865
  0
LINE
  5
408
100
AcDbEntity
  8
ASSI
100
AcDbLine
 62
7
  6
CONTINUOUS
 10
52.7145685475
 20
-69.0930378217
 11
52.7145685475
 21
1.7385957777
  0
LINE
  5
409
100
AcDbEntity
  8
ASSI
100
AcDbLine
 62
7
  6
CONTINUOUS
 10
54.1530290304
 20
-69.4576557258
 11
54.1530290304
 21
2.0742191065
  0
LINE
  5
40A
100
AcDbEntity
  8
CURVE
100
AcDbLine
 62
250
  6
CONTINUOUS
 10
55.2838724038
 20
-62.2599060725
 11
55.2838724038
 21
-62.6859345476
  0
LINE
  5
40B
100
AcDbEntity
  8
CURVE
100
AcDbLine
 62
250
  6
CONTINUOUS
 10
55.2839813755
 20
-64.5224841224
 11
55.2839813755
 21
-64.0596859084
  0
LINE
  5
40C
100
AcDbEntity
  8
CURVE
100
AcDbLine
 62
250
  6
CONTINUOUS
 10
55.2839813755
 20
-63.269713358
 11
55.2839813755
 21
-62.8439763627
  0
LINE
  5
40D
100
AcDbEntity
  8
CURVE
100
AcDbLine
 62
250
  6
CONTINUOUS
 10
55.2839813755
 20
-61.8462162092
 11
55.2839813755
 21
-61.4205404492
  0
LINE
  5
40E
100
AcDbEntity
  8
CURVE
100
AcDbLine
 62
250
  6
CONTINUOUS
 10
55.2839813755
 20
-60.5729830666
 11
55.2839813755
 21
-60.1514696721
  0
LINE
  5
40F
100
AcDbEntity
  8
CURVE
100
AcDbLine
 62
250
  6
CONTINUOUS
 10
55.2839813755
 20
-59.2535442382
 11
55.2839813755
 21
-58.8414129036
  0
LINE
  5
410
100
AcDbEntity
  8
ASSI
100
AcDbLine
 62
7
  6
CONTINUOUS
 10
53.4454917611
 20
3.2997096038
 11
53.4451293308
 21
3.275090865
  0
LINE
  5
411
100
AcDbEntity
  8
SMUSSO
100
AcDbLine
 62
250
  6
CONTINUOUS
 10
34.1733314547
 20
-37.3824040313
 11
34.314752811
 21
-37.3007491127
  0
LINE
  5
412
100
AcDbEntity
  8
ASSI
100
AcDbLine
 62
250
  6
CONTINUOUS
 10
34.1733314547
 20
-37.3824040313
 11
34.314752811
 21
-37.3007491127
  0
LINE
  5
413
100
AcDbEntity
  8
ASSI
100
AcDbLine
 62
7
  6
CONTINUOUS
 10
57.5074247458
 20
5.645003506
 11
58.2149620151
 21
4.4195130086
  0
LINE
  5
414
100
AcDbEntity
  8
CURVE
100
AcDbLine
 62
250
  6
CONTINUOUS
 10
56.0973061603
 20
-56.998521905
 11
56.0973061603
 21
-57.2419928962
  0
LINE
  5
415
100
AcDbEntity
  8
CURVE
100
AcDbLine
 62
250
  6
CONTINUOUS
 10
56.3967196481
 20
-57.0666554706
 11
56.3967196481
 21
-56.8382292358
  0
LINE
  5
416
100
AcDbEntity
  8
CURVE
100
AcDbLine
 62
250
  6
CONTINUOUS
 10
56.4647870317
 20
-58.6318372103
 11
56.4647870317
 21
-58.2239449894
  0
LINE
  5
417
100
AcDbEntity
  8
CURVE
100
AcDbLine
 62
250
  6
CONTINUOUS
 10
56.7472007263
 20
-57.9867455748
 11
56.7472007263
 21
-58.5669252712
  0
LINE
  5
418
100
AcDbEntity
  8
CURVE
100
AcDbLine
 62
250
  6
CONTINUOUS
 10
57.1121725522
 20
-61.7015365679
 11
57.1121725522
 21
-61.2755080927
  0
LINE
  5
419
100
AcDbEntity
  8
CURVE
100
AcDbLine
 62
250
  6
CONTINUOUS
 10
57.1121725642
 20
-57.1057536725
 11
57.1121725642
 21
-56.681439506
  0
LINE
  5
41A
100
AcDbEntity
  8
CURVE
100
AcDbLine
 62
250
  6
CONTINUOUS
 10
57.1121725642
 20
-56.0290358135
 11
57.1121725642
 21
-55.6192460354
  0
LINE
  5
41B
100
AcDbEntity
  8
CURVE
100
AcDbLine
 62
250
  6
CONTINUOUS
 10
57.1121725522
 20
-57.2308564073
 11
57.1121725522
 21
-57.6798726031
  0
LINE
  5
41C
100
AcDbEntity
  8
CURVE
100
AcDbLine
 62
250
  6
CONTINUOUS
 10
57.1121725522
 20
-58.4879740595
 11
57.1121725522
 21
-58.90937968
  0
LINE
  5
41D
100
AcDbEntity
  8
CURVE
100
AcDbLine
 62
250
  6
CONTINUOUS
 10
57.1121725522
 20
-58.9762779886
 11
57.1121725522
 21
-59.3930468743
  0
LINE
  5
41E
100
AcDbEntity
  8
CURVE
100
AcDbLine
 62
250
  6
CONTINUOUS
 10
57.1121725522
 20
-59.9871228948
 11
57.1121725522
 21
-60.0468738226
  0
LINE
  5
41F
100
AcDbEntity
  8
CURVE
100
AcDbLine
 62
250
  6
CONTINUOUS
 10
57.1121725522
 20
-60.6385935098
 11
57.1121725522
 21
-61.0461640414
  0
LINE
  5
420
100
AcDbEntity
  8
CURVE
100
AcDbLine
 62
250
  6
CONTINUOUS
 10
57.1121725522
 20
-62.5156831702
 11
57.1121725522
 21
-62.8911206976
  0
LINE
  5
421
100
AcDbEntity
  8
ASSI
100
AcDbLine
 62
7
  6
CONTINUOUS
 10
58.2149620151
 20
-67.4288772115
 11
58.2149620151
 21
4.4195130086
  0
LINE
  5
422
100
AcDbEntity
  8
CURVE
100
AcDbLine
 62
7
  6
CONTINUOUS
 10
55.362034083
 20
-56.915446649
 11
55.8887315239
 21
-56.388749208
  0
LINE
  5
423
100
AcDbEntity
  8
CURVE
100
AcDbLine
 62
7
  6
CONTINUOUS
 10
55.286340104
 20
-57.201151342
 11
56.1157960757
 21
-56.3716953703
  0
LINE
  5
424
100
AcDbEntity
  8
CURVE
100
AcDbLine
 62
250
  6
CONTINUOUS
 10
56.2587892864
 20
-56.4699363939
 11
56.2479862723
 21
-56.47575298
  0
LINE
  5
425
100
AcDbEntity
  8
CURVE
100
AcDbLine
 62
250
  6
CONTINUOUS
 10
57.1121725642
 20
-56.681439506
 11
56.3967196481
 21
-57.0666554706
  0
LINE
  5
426
100
AcDbEntity
  8
CURVE
100
AcDbLine
 62
250
  6
CONTINUOUS
 10
56.0973061603
 20
-57.2419928962
 11
55.5954321237
 21
-57.5122131816
  0
LINE
  5
427
100
AcDbEntity
  8
CURVE
100
AcDbLine
 62
250
  6
CONTINUOUS
 10
55.3053410338
 20
-58.0785924647
 11
57.1121725642
 21
-57.1057536725
  0
LINE
  5
428
100
AcDbEntity
  8
CURVE
100
AcDbLine
 62
250
  6
CONTINUOUS
 10
55.9183985321
 20
-61.1894113277
 11
57.1121725522
 21
-60.6385935098
  0
LINE
  5
429
100
AcDbEntity
  8
CURVE
100
AcDbLine
 62
250
  6
CONTINUOUS
 10
57.1121725522
 20
-61.0461640414
 11
55.2839813755
 21
-61.8462162092
  0
LINE
  5
42A
100
AcDbEntity
  8
CURVE
100
AcDbLine
 62
7
  6
CONTINUOUS
 10
55.2657202257
 20
-57.4317819343
 11
55.6035328224
 21
-57.0939693376
  0
LINE
  5
42B
100
AcDbEntity
  8
CURVE
100
AcDbLine
 62
7
  6
CONTINUOUS
 10
55.9153873575
 20
-56.7821148025
 11
56.2412496978
 21
-56.4562524622
  0
LINE
  5
42C
100
AcDbEntity
  8
CURVE
100
AcDbLine
 62
7
  6
CONTINUOUS
 10
56.2775725351
 20
-56.4199296249
 11
56.9105487756
 21
-55.7869533844
  0
LINE
  5
42D
100
AcDbEntity
  8
CURVE
100
AcDbLine
 62
7
  6
CONTINUOUS
 10
55.2646680592
 20
-57.6428448148
 11
55.5783687267
 21
-57.3291441473
  0
LINE
  5
42E
100
AcDbEntity
  8
CURVE
100
AcDbLine
 62
7
  6
CONTINUOUS
 10
56.0663980041
 20
-56.8411148699
 11
57.1121725642
 21
-55.7953403098
  0
LINE
  5
42F
100
AcDbEntity
  8
CURVE
100
AcDbLine
 62
7
  6
CONTINUOUS
 10
55.2769516508
 20
-57.8405719372
 11
55.6168332606
 21
-57.5006903274
  0
LINE
  5
430
100
AcDbEntity
  8
CURVE
100
AcDbLine
 62
7
  6
CONTINUOUS
 10
56.0973061603
 20
-57.0202174277
 11
56.4335446072
 21
-56.6839789808
  0
LINE
  5
431
100
AcDbEntity
  8
CURVE
100
AcDbLine
 62
7
  6
CONTINUOUS
 10
56.9382071275
 20
-56.1793164605
 11
57.1121725642
 21
-56.0053510238
  0
LINE
  5
432
100
AcDbEntity
  8
CURVE
100
AcDbLine
 62
7
  6
CONTINUOUS
 10
55.2987489342
 20
-58.0287853678
 11
56.0718180134
 21
-57.2557162886
  0
LINE
  5
433
100
AcDbEntity
  8
CURVE
100
AcDbLine
 62
7
  6
CONTINUOUS
 10
56.0973061603
 20
-57.2302281417
 11
56.3967196481
 21
-56.9308146539
  0
LINE
  5
434
100
AcDbEntity
  8
CURVE
100
AcDbLine
 62
7
  6
CONTINUOUS
 10
55.6381378563
 20
-57.8994071597
 11
56.557407509
 21
-56.980137507
  0
LINE
  5
435
100
AcDbEntity
  8
CURVE
100
AcDbLine
 62
7
  6
CONTINUOUS
 10
56.0931226091
 20
-57.6544331209
 11
57.0123922618
 21
-56.7351634683
  0
LINE
  5
436
100
AcDbEntity
  8
CURVE
100
AcDbLine
 62
7
  6
CONTINUOUS
 10
56.5481073619
 20
-57.4094590821
 11
57.1121725642
 21
-56.8453938798
  0
LINE
  5
437
100
AcDbEntity
  8
CURVE
100
AcDbLine
 62
7
  6
CONTINUOUS
 10
55.2839813755
 20
-58.8835957826
 11
55.6383291616
 21
-58.5292479965
  0
LINE
  5
438
100
AcDbEntity
  8
CURVE
100
AcDbLine
 62
7
  6
CONTINUOUS
 10
57.0030921147
 20
-57.1644850433
 11
57.1121725642
 21
-57.0554045939
  0
LINE
  5
439
100
AcDbEntity
  8
CURVE
100
AcDbLine
 62
7
  6
CONTINUOUS
 10
55.2839813755
 20
-59.0936064966
 11
57.1121725522
 21
-57.2654153199
  0
LINE
  5
43A
100
AcDbEntity
  8
CURVE
100
AcDbLine
 62
7
  6
CONTINUOUS
 10
55.3456669041
 20
-59.241931682
 11
55.8073296338
 21
-58.7802689523
  0
LINE
  5
43B
100
AcDbEntity
  8
CURVE
100
AcDbLine
 62
7
  6
CONTINUOUS
 10
55.8803195107
 20
-58.7072790754
 11
57.1121725522
 21
-57.4754260339
  0
LINE
  5
43C
100
AcDbEntity
  8
CURVE
100
AcDbLine
 62
7
  6
CONTINUOUS
 10
55.6043817611
 20
-59.193227539
 11
56.0785794146
 21
-58.7190298856
  0
LINE
  5
43D
100
AcDbEntity
  8
CURVE
100
AcDbLine
 62
7
  6
CONTINUOUS
 10
56.4647870317
 20
-58.3328222684
 11
56.7472007263
 21
-58.0504085738
  0
LINE
  5
43E
100
AcDbEntity
  8
CURVE
100
AcDbLine
 62
7
  6
CONTINUOUS
 10
55.8630966181
 20
-59.1445233961
 11
56.3498291953
 21
-58.6577908188
  0
LINE
  5
43F
100
AcDbEntity
  8
CURVE
100
AcDbLine
 62
7
  6
CONTINUOUS
 10
56.4647870317
 20
-58.5428329824
 11
56.7472007263
 21
-58.2604192878
  0
LINE
  5
440
100
AcDbEntity
  8
CURVE
100
AcDbLine
 62
7
  6
CONTINUOUS
 10
56.1218114751
 20
-59.0958192531
 11
56.7472007263
 21
-58.4704300018
  0
LINE
  5
441
100
AcDbEntity
  8
CURVE
100
AcDbLine
 62
7
  6
CONTINUOUS
 10
56.380526332
 20
-59.0471151101
 11
56.8920502128
 21
-58.5355912293
  0
LINE
  5
442
100
AcDbEntity
  8
CURVE
100
AcDbLine
 62
7
  6
CONTINUOUS
 10
55.2839813755
 20
-60.3536707807
 11
55.8500802568
 21
-59.7875718993
  0
LINE
  5
443
100
AcDbEntity
  8
CURVE
100
AcDbLine
 62
7
  6
CONTINUOUS
 10
56.639241189
 20
-58.9984109671
 11
57.1121725522
 21
-58.525479604
  0
LINE
  5
444
100
AcDbEntity
  8
CURVE
100
AcDbLine
 62
7
  6
CONTINUOUS
 10
55.2839813755
 20
-60.5636814947
 11
56.438043553
 21
-59.4096193172
  0
LINE
  5
445
100
AcDbEntity
  8
CURVE
100
AcDbLine
 62
7
  6
CONTINUOUS
 10
56.897956046
 20
-58.9497068242
 11
57.1121725522
 21
-58.735490318
  0
LINE
  5
446
100
AcDbEntity
  8
CURVE
100
AcDbLine
 62
7
  6
CONTINUOUS
 10
55.5117227804
 20
-60.5459508038
 11
55.9387491694
 21
-60.1189244148
  0
LINE
  5
447
100
AcDbEntity
  8
CURVE
100
AcDbLine
 62
7
  6
CONTINUOUS
 10
55.9585534961
 20
-60.0991200881
 11
57.0260068491
 21
-59.0316667351
  0
LINE
  5
448
100
AcDbEntity
  8
CURVE
100
AcDbLine
 62
7
  6
CONTINUOUS
 10
55.750018528
 20
-60.5176657702
 11
56.1753335685
 21
-60.0923507297
  0
LINE
  5
449
100
AcDbEntity
  8
CURVE
100
AcDbLine
 62
7
  6
CONTINUOUS
 10
56.4998887936
 20
-59.7677955046
 11
57.1121725522
 21
-59.155511746
  0
LINE
  5
44A
100
AcDbEntity
  8
CURVE
100
AcDbLine
 62
7
  6
CONTINUOUS
 10
55.9883142755
 20
-60.4893807367
 11
56.4119179675
 21
-60.0657770447
  0
LINE
  5
44B
100
AcDbEntity
  8
CURVE
100
AcDbLine
 62
7
  6
CONTINUOUS
 10
57.041224091
 20
-59.4364709212
 11
57.1121725522
 21
-59.3655224601
  0
LINE
  5
44C
100
AcDbEntity
  8
CURVE
100
AcDbLine
 62
7
  6
CONTINUOUS
 10
56.2266100231
 20
-60.4610957031
 11
56.6485023666
 21
-60.0392033596
  0
LINE
  5
44D
100
AcDbEntity
  8
CURVE
100
AcDbLine
 62
7
  6
CONTINUOUS
 10
55.2839813755
 20
-61.6137350647
 11
56.8850867657
 21
-60.0126296746
  0
LINE
  5
44E
100
AcDbEntity
  8
CURVE
100
AcDbLine
 62
7
  6
CONTINUOUS
 10
55.2839813755
 20
-61.8237457788
 11
57.1121725522
 21
-59.9955546021
  0
LINE
  5
44F
100
AcDbEntity
  8
CURVE
100
AcDbLine
 62
7
  6
CONTINUOUS
 10
55.6174571884
 20
-61.7002806799
 11
56.3081709642
 21
-61.0095669041
  0
LINE
  5
450
100
AcDbEntity
  8
CURVE
100
AcDbLine
 62
7
  6
CONTINUOUS
 10
55.9908889238
 20
-61.5368596585
 11
56.6980969552
 21
-60.8296516271
  0
LINE
  5
451
100
AcDbEntity
  8
CURVE
100
AcDbLine
 62
7
  6
CONTINUOUS
 10
55.2838724038
 20
-62.4538868925
 11
55.7041286553
 21
-62.0336306409
  0
LINE
  5
452
100
AcDbEntity
  8
CURVE
100
AcDbLine
 62
7
  6
CONTINUOUS
 10
56.3643206593
 20
-61.373438637
 11
57.0880229462
 21
-60.6497363501
  0
LINE
  5
453
100
AcDbEntity
  8
CURVE
100
AcDbLine
 62
7
  6
CONTINUOUS
 10
55.2838724038
 20
-62.6638976065
 11
56.1591134082
 21
-61.7886566022
  0
LINE
  5
454
100
AcDbEntity
  8
CURVE
100
AcDbLine
 62
7
  6
CONTINUOUS
 10
56.7377523947
 20
-61.2100176156
 11
57.1121725522
 21
-60.8355974581
  0
LINE
  5
455
100
AcDbEntity
  8
CURVE
100
AcDbLine
 62
7
  6
CONTINUOUS
 10
55.2839813755
 20
-62.8737993488
 11
55.3203319278
 21
-62.8374487965
  0
LINE
  5
456
100
AcDbEntity
  8
CURVE
100
AcDbLine
 62
7
  6
CONTINUOUS
 10
55.6911144867
 20
-62.4666662376
 11
56.614098161
 21
-61.5436825634
  0
LINE
  5
457
100
AcDbEntity
  8
CURVE
100
AcDbLine
 62
7
  6
CONTINUOUS
 10
57.1111841302
 20
-61.0465965941
 11
57.1121725522
 21
-61.0456081721
  0
LINE
  5
458
100
AcDbEntity
  8
CURVE
100
AcDbLine
 62
7
  6
CONTINUOUS
 10
55.2839813755
 20
-63.0838100628
 11
55.5763091598
 21
-62.7914822785
  0
LINE
  5
459
100
AcDbEntity
  8
CURVE
100
AcDbLine
 62
7
  6
CONTINUOUS
 10
56.1460992395
 20
-62.2216921988
 11
57.0690829138
 21
-61.2987085246
  0
LINE
  5
45A
100
AcDbEntity
  8
CURVE
100
AcDbLine
 62
7
  6
CONTINUOUS
 10
55.3148812277
 20
-63.2629209247
 11
55.8322863919
 21
-62.7455157605
  0
LINE
  5
45B
100
AcDbEntity
  8
CURVE
100
AcDbLine
 62
7
  6
CONTINUOUS
 10
56.6010839923
 20
-61.97671816
 11
57.1121725522
 21
-61.4656296002
  0
LINE
  5
45C
100
AcDbEntity
  8
CURVE
100
AcDbLine
 62
7
  6
CONTINUOUS
 10
55.584063924
 20
-63.2037489423
 11
56.0882636239
 21
-62.6995492424
  0
LINE
  5
45D
100
AcDbEntity
  8
CURVE
100
AcDbLine
 62
7
  6
CONTINUOUS
 10
57.0560687451
 20
-61.7317441212
 11
57.1121725522
 21
-61.6756403142
  0
LINE
  5
45E
100
AcDbEntity
  8
CURVE
100
AcDbLine
 62
7
  6
CONTINUOUS
 10
55.8532466204
 20
-63.14457696
 11
56.344240856
 21
-62.6535827244
  0
LINE
  5
45F
100
AcDbEntity
  8
CURVE
100
AcDbLine
 62
7
  6
CONTINUOUS
 10
56.1224293167
 20
-63.0854049777
 11
56.6002180881
 21
-62.6076162063
  0
LINE
  5
460
100
AcDbEntity
  8
CURVE
100
AcDbLine
 62
7
  6
CONTINUOUS
 10
55.2839813755
 20
-64.1338636329
 11
55.7706479394
 21
-63.647197069
  0
LINE
  5
461
100
AcDbEntity
  8
CURVE
100
AcDbLine
 62
7
  6
CONTINUOUS
 10
56.3916120131
 20
-63.0262329953
 11
56.8561953201
 21
-62.5616496883
  0
LINE
  5
462
100
AcDbEntity
  8
CURVE
100
AcDbLine
 62
7
  6
CONTINUOUS
 10
55.2839813755
 20
-64.3438743469
 11
57.1121725522
 21
-62.5156831702
  0
LINE
  5
463
100
AcDbEntity
  8
CURVE
100
AcDbLine
 62
7
  6
CONTINUOUS
 10
55.5756420693
 20
-64.2622243671
 11
57.1121725522
 21
-62.7256938842
  0
LINE
  5
464
100
AcDbEntity
  8
CURVE
100
AcDbLine
 62
250
  6
CONTINUOUS
 10
57.1121725522
 20
-60.0468738226
 11
55.9183985321
 21
-61.1894113277
  0
LINE
  5
465
100
AcDbEntity
  8
CURVE
100
AcDbLine
 62
250
  6
CONTINUOUS
 10
55.2839813755
 20
-61.4205404492
 11
56.2989986552
 21
-60.4525033766
  0
LINE
  5
466
100
AcDbEntity
  8
CURVE
100
AcDbLine
 62
250
  6
CONTINUOUS
 10
57.1121725522
 20
-62.8911206976
 11
55.2839813755
 21
-64.5224841224
  0
LINE
  5
467
100
AcDbEntity
  8
CURVE
100
AcDbLine
 62
250
  6
CONTINUOUS
 10
55.2839813755
 20
-58.8414129036
 11
57.1121725522
 21
-57.2308564073
  0
LINE
  5
468
100
AcDbEntity
  8
CURVE
100
AcDbLine
 62
250
  6
CONTINUOUS
 10
55.2839813755
 20
-64.0596859084
 11
56.5423821968
 21
-62.993090558
  0
LINE
  5
469
100
AcDbEntity
  8
CURVE
100
AcDbLine
 62
250
  6
CONTINUOUS
 10
57.1121725522
 20
-57.6798726031
 11
56.7472007263
 21
-57.9867455748
  0
LINE
  5
46A
100
AcDbEntity
  8
CURVE
100
AcDbLine
 62
250
  6
CONTINUOUS
 10
56.4647870317
 20
-58.2239449894
 11
55.7863219044
 21
-58.7850117902
  0
LINE
  5
46B
100
AcDbEntity
  8
CURVE
100
AcDbLine
 62
250
  6
CONTINUOUS
 10
55.2839813755
 20
-60.1514696721
 11
57.1121725522
 21
-58.9762779886
  0
LINE
  5
46C
100
AcDbEntity
  8
CURVE
100
AcDbLine
 62
250
  6
CONTINUOUS
 10
57.1121725522
 20
-59.3930468743
 11
55.9233746627
 21
-60.1206513135
  0
LINE
  5
46D
100
AcDbEntity
  8
ASSI
100
AcDbLine
 62
7
  6
CONTINUOUS
 10
52.4355926134
 20
-69.2540838972
 11
52.7145685475
 21
-69.0930378217
  0
LINE
  5
46E
100
AcDbEntity
  8
ASSI
100
AcDbLine
 62
7
  6
CONTINUOUS
 10
53.4451293308
 20
-69.8654584819
 11
54.1315276785
 21
-69.4692172775
  0
LINE
  5
46F
100
AcDbEntity
  8
ASSI
100
AcDbLine
 62
7
  6
CONTINUOUS
 10
58.2149620151
 20
-67.4288772115
 11
57.5074247458
 21
-67.8373214053
  0
LINE
  5
470
100
AcDbEntity
  8
CURVE
100
AcDbLine
 62
250
  6
CONTINUOUS
 10
57.1121725522
 20
-61.2755080927
 11
55.2838724038
 21
-62.2599060725
  0
LINE
  5
471
100
AcDbEntity
  8
CURVE
100
AcDbLine
 62
250
  6
CONTINUOUS
 10
55.2838724038
 20
-62.6859345476
 11
57.1121725522
 21
-61.7015365679
  0
LINE
  5
472
100
AcDbEntity
  8
ASSI
100
AcDbLine
 62
7
  6
CONTINUOUS
 10
54.1530290304
 20
-69.4576557258
 11
54.1315276785
 21
-69.4692172775
  0
LINE
  5
473
100
AcDbEntity
  8
ASSI
100
AcDbLine
 62
7
  6
CONTINUOUS
 10
54.1530290304
 20
-69.4576557258
 11
58.2149620151
 21
-67.4288772115
  0
LINE
  5
474
100
AcDbEntity
  8
ASSI
100
AcDbLine
 62
7
  6
CONTINUOUS
 10
53.4454917611
 20
-69.8660999196
 11
57.5074247458
 21
-67.8373214053
  0
SPLINE
  5
475
100
AcDbEntity
  8
SMUSSO
100
AcDbSpline
 62
7
  6
CONTINUOUS
 70
0
 71
3
 72
9
 73
5
 74
0
 42
0.0000001
 43
0.0000001
 44
0.0000000001
 40
0.0
 40
0.0
 40
0.0
 40
0.0
 40
0.5167962532
 40
1.0
 40
1.0
 40
1.0
 40
1.0
 10
-29.0220286938
 20
-0.6663645977
 30
0.0
 10
-28.9837234819
 20
-0.6715810412
 30
0.0
 10
-28.9083684251
 20
-0.6747502946
 30
0.0
 10
-28.834056838
 20
-0.6604755936
 30
0.0
 10
-28.7997542305
 20
-0.6490801208
 30
0.0
  0
SPLINE
  5
476
100
AcDbEntity
  8
SMUSSO
100
AcDbSpline
 62
7
  6
CONTINUOUS
 70
0
 71
3
 72
9
 73
5
 74
0
 42
0.0000001
 43
0.0000001
 44
0.0000000001
 40
0.0
 40
0.0
 40
0.0
 40
0.0
 40
0.2403060145
 40
1.0
 40
1.0
 40
1.0
 40
1.0
 10
33.8197780641
 20
-24.2780758163
 30
0.0
 10
33.8433981265
 20
-24.2917137443
 30
0.0
 10
33.940228149
 20
-24.3509841115
 30
0.0
 10
34.0312288766
 20
-24.4195855307
 30
0.0
 10
34.0968956516
 20
-24.4754654492
 30
0.0
  0
SPLINE
  5
477
100
AcDbEntity
  8
SMUSSO
100
AcDbSpline
 62
7
  6
CONTINUOUS
 70
0
 71
3
 72
11
 73
7
 74
0
 42
0.0000001
 43
0.0000001
 44
0.0000000001
 40
0.0
 40
0.0
 40
0.0
 40
0.0
 40
0.2436408454
 40
0.5000044213
 40
0.7563656951
 40
1.0
 40
1.0
 40
1.0
 40
1.0
 10
34.0968956516
 20
-24.4754654492
 30
0.0
 10
34.2091790177
 20
-24.5710143069
 30
0.0
 10
34.4202245646
 20
-24.7904961247
 30
0.0
 10
34.6802854219
 20
-25.1693235009
 30
0.0
 10
34.8783275503
 20
-25.5839528808
 30
0.0
 10
34.9628786034
 20
-25.8764600832
 30
0.0
 10
34.9894820444
 20
-26.0214712151
 30
0.0
  0
SPLINE
  5
478
100
AcDbEntity
  8
SMUSSO
100
AcDbSpline
 62
7
  6
CONTINUOUS
 70
0
 71
3
 72
9
 73
5
 74
0
 42
0.0000001
 43
0.0000001
 44
0.0000000001
 40
0.0
 40
0.0
 40
0.0
 40
0.0
 40
0.2594906421
 40
1.0
 40
1.0
 40
1.0
 40
1.0
 10
34.9894820444
 20
-26.0214712151
 30
0.0
 10
34.9947961087
 20
-26.0504373355
 30
0.0
 10
35.0129950468
 20
-26.162456038
 30
0.0
 10
35.0218595921
 20
-26.2761018394
 30
0.0
 10
35.0218595922
 20
-26.3601420955
 30
0.0
  0
SPLINE
  5
479
100
AcDbEntity
  8
SMUSSO
100
AcDbSpline
 62
7
  6
CONTINUOUS
 70
0
 71
3
 72
9
 73
5
 74
0
 42
0.0000001
 43
0.0000001
 44
0.0000000001
 40
0.0
 40
0.0
 40
0.0
 40
0.0
 40
0.2403060145
 40
1.0
 40
1.0
 40
1.0
 40
1.0
 10
17.9098754874
 20
-15.0918974664
 30
0.0
 10
17.9334955498
 20
-15.1055353944
 30
0.0
 10
18.0303255723
 20
-15.1648057617
 30
0.0
 10
18.1213262999
 20
-15.2334071809
 30
0.0
 10
18.1869930749
 20
-15.2892870993
 30
0.0
  0
SPLINE
  5
47A
100
AcDbEntity
  8
SMUSSO
100
AcDbSpline
 62
7
  6
CONTINUOUS
 70
0
 71
3
 72
11
 73
7
 74
0
 42
0.0000001
 43
0.0000001
 44
0.0000000001
 40
0.0
 40
0.0
 40
0.0
 40
0.0
 40
0.2436408454
 40
0.5000044213
 40
0.7563656951
 40
1.0
 40
1.0
 40
1.0
 40
1.0
 10
18.1869930749
 20
-15.2892870993
 30
0.0
 10
18.299276441
 20
-15.384835957
 30
0.0
 10
18.5103219879
 20
-15.6043177748
 30
0.0
 10
18.7703828452
 20
-15.9831451511
 30
0.0
 10
18.9684249736
 20
-16.397774531
 30
0.0
 10
19.0529760267
 20
-16.6902817333
 30
0.0
 10
19.0795794677
 20
-16.8352928652
 30
0.0
  0
SPLINE
  5
47B
100
AcDbEntity
  8
SMUSSO
100
AcDbSpline
 62
7
  6
CONTINUOUS
 70
0
 71
3
 72
9
 73
5
 74
0
 42
0.0000001
 43
0.0000001
 44
0.0000000001
 40
0.0
 40
0.0
 40
0.0
 40
0.0
 40
0.2594906421
 40
1.0
 40
1.0
 40
1.0
 40
1.0
 10
19.0795794677
 20
-16.8352928652
 30
0.0
 10
19.084893532
 20
-16.8642589856
 30
0.0
 10
19.1030924701
 20
-16.9762776882
 30
0.0
 10
19.1119570154
 20
-17.0899234896
 30
0.0
 10
19.1119570155
 20
-17.1739637456
 30
0.0
  0
SPLINE
  5
47C
100
AcDbEntity
  8
SMUSSO
100
AcDbSpline
 62
7
  6
CONTINUOUS
 70
0
 71
3
 72
9
 73
5
 74
0
 42
0.0000001
 43
0.0000001
 44
0.0000000001
 40
0.0
 40
0.0
 40
0.0
 40
0.0
 40
0.2403060145
 40
1.0
 40
1.0
 40
1.0
 40
1.0
 10
1.9999729107
 20
-5.9057191165
 30
0.0
 10
2.0235929731
 20
-5.9193570445
 30
0.0
 10
2.1204229956
 20
-5.9786274118
 30
0.0
 10
2.2114237232
 20
-6.047228831
 30
0.0
 10
2.2770904982
 20
-6.1031087494
 30
0.0
  0
SPLINE
  5
47D
100
AcDbEntity
  8
SMUSSO
100
AcDbSpline
 62
7
  6
CONTINUOUS
 70
0
 71
3
 72
11
 73
7
 74
0
 42
0.0000001
 43
0.0000001
 44
0.0000000001
 40
0.0
 40
0.0
 40
0.0
 40
0.0
 40
0.2436408454
 40
0.5000044213
 40
0.7563656951
 40
1.0
 40
1.0
 40
1.0
 40
1.0
 10
2.2770904982
 20
-6.1031087494
 30
0.0
 10
2.3893738643
 20
-6.1986576071
 30
0.0
 10
2.6004194112
 20
-6.4181394249
 30
0.0
 10
2.8604802685
 20
-6.7969668012
 30
0.0
 10
3.0585223969
 20
-7.2115961811
 30
0.0
 10
3.14307345
 20
-7.5041033834
 30
0.0
 10
3.169676891
 20
-7.6491145154
 30
0.0
  0
SPLINE
  5
47E
100
AcDbEntity
  8
SMUSSO
100
AcDbSpline
 62
7
  6
CONTINUOUS
 70
0
 71
3
 72
9
 73
5
 74
0
 42
0.0000001
 43
0.0000001
 44
0.0000000001
 40
0.0
 40
0.0
 40
0.0
 40
0.0
 40
0.2594906421
 40
1.0
 40
1.0
 40
1.0
 40
1.0
 10
3.169676891
 20
-7.6491145154
 30
0.0
 10
3.1749909553
 20
-7.6780806358
 30
0.0
 10
3.1931898934
 20
-7.7900993383
 30
0.0
 10
3.2020544387
 20
-7.9037451397
 30
0.0
 10
3.2020544388
 20
-7.9877853957
 30
0.0
  0
SPLINE
  5
47F
100
AcDbEntity
  8
SMUSSO
100
AcDbSpline
 62
7
  6
CONTINUOUS
 70
0
 71
3
 72
9
 73
5
 74
0
 42
0.0000001
 43
0.0000001
 44
0.0000000001
 40
0.0
 40
0.0
 40
0.0
 40
0.0
 40
0.2403060145
 40
1.0
 40
1.0
 40
1.0
 40
1.0
 10
-13.909929666
 20
3.2804592334
 30
0.0
 10
-13.8863096036
 20
3.2668213053
 30
0.0
 10
-13.7894795811
 20
3.2075509381
 30
0.0
 10
-13.6984788535
 20
3.1389495189
 30
0.0
 10
-13.6328120785
 20
3.0830696004
 30
0.0
  0
SPLINE
  5
480
100
AcDbEntity
  8
SMUSSO
100
AcDbSpline
 62
7
  6
CONTINUOUS
 70
0
 71
3
 72
11
 73
7
 74
0
 42
0.0000001
 43
0.0000001
 44
0.0000000001
 40
0.0
 40
0.0
 40
0.0
 40
0.0
 40
0.2436408454
 40
0.5000044213
 40
0.7563656951
 40
1.0
 40
1.0
 40
1.0
 40
1.0
 10
-13.6328120785
 20
3.0830696004
 30
0.0
 10
-13.5205287124
 20
2.9875207428
 30
0.0
 10
-13.3094831655
 20
2.768038925
 30
0.0
 10
-13.0494223082
 20
2.3892115487
 30
0.0
 10
-12.8513801798
 20
1.9745821688
 30
0.0
 10
-12.7668291267
 20
1.6820749664
 30
0.0
 10
-12.7402256857
 20
1.5370638345
 30
0.0
  0
SPLINE
  5
481
100
AcDbEntity
  8
SMUSSO
100
AcDbSpline
 62
7
  6
CONTINUOUS
 70
0
 71
3
 72
9
 73
5
 74
0
 42
0.0000001
 43
0.0000001
 44
0.0000000001
 40
0.0
 40
0.0
 40
0.0
 40
0.0
 40
0.2594906421
 40
1.0
 40
1.0
 40
1.0
 40
1.0
 10
-12.7402256857
 20
1.5370638345
 30
0.0
 10
-12.7349116214
 20
1.5080977141
 30
0.0
 10
-12.7167126833
 20
1.3960790116
 30
0.0
 10
-12.707848138
 20
1.2824332102
 30
0.0
 10
-12.7078481379
 20
1.1983929542
 30
0.0
  0
SPLINE
  5
482
100
AcDbEntity
  8
SMUSSO
100
AcDbSpline
 62
7
  6
CONTINUOUS
 70
0
 71
3
 72
9
 73
5
 74
0
 42
0.0000001
 43
0.0000001
 44
0.0000000001
 40
0.0
 40
0.0
 40
0.0
 40
0.0
 40
0.2403060145
 40
1.0
 40
1.0
 40
1.0
 40
1.0
 10
-29.8198322426
 20
12.4666375832
 30
0.0
 10
-29.7962121803
 20
12.4529996552
 30
0.0
 10
-29.6993821578
 20
12.393729288
 30
0.0
 10
-29.6083814302
 20
12.3251278688
 30
0.0
 10
-29.5427146552
 20
12.2692479503
 30
0.0
  0
SPLINE
  5
483
100
AcDbEntity
  8
SMUSSO
100
AcDbSpline
 62
7
  6
CONTINUOUS
 70
0
 71
3
 72
11
 73
7
 74
0
 42
0.0000001
 43
0.0000001
 44
0.0000000001
 40
0.0
 40
0.0
 40
0.0
 40
0.0
 40
0.2436408454
 40
0.5000044213
 40
0.7563656951
 40
1.0
 40
1.0
 40
1.0
 40
1.0
 10
-29.5427146552
 20
12.2692479503
 30
0.0
 10
-29.4304312891
 20
12.1736990926
 30
0.0
 10
-29.2193857422
 20
11.9542172748
 30
0.0
 10
-28.9593248849
 20
11.5753898986
 30
0.0
 10
-28.7612827565
 20
11.1607605187
 30
0.0
 10
-28.6767317034
 20
10.8682533163
 30
0.0
 10
-28.6501282624
 20
10.7232421844
 30
0.0
  0
SPLINE
  5
484
100
AcDbEntity
  8
SMUSSO
100
AcDbSpline
 62
7
  6
CONTINUOUS
 70
0
 71
3
 72
9
 73
5
 74
0
 42
0.0000001
 43
0.0000001
 44
0.0000000001
 40
0.0
 40
0.0
 40
0.0
 40
0.0
 40
0.2594906421
 40
1.0
 40
1.0
 40
1.0
 40
1.0
 10
-28.6501282624
 20
10.7232421844
 30
0.0
 10
-28.6448141981
 20
10.694276064
 30
0.0
 10
-28.62661526
 20
10.5822573615
 30
0.0
 10
-28.6177507147
 20
10.4686115601
 30
0.0
 10
-28.6177507146
 20
10.384571304
 30
0.0
  0
SPLINE
  5
485
100
AcDbEntity
  8
SMUSSO
100
AcDbSpline
 62
7
  6
CONTINUOUS
 70
0
 71
3
 72
9
 73
5
 74
0
 42
0.0000001
 43
0.0000001
 44
0.0000000001
 40
0.0
 40
0.0
 40
0.0
 40
0.0
 40
0.2403060418
 40
1.0
 40
1.0
 40
1.0
 40
1.0
 10
33.8197780641
 20
-7.540435142
 30
0.0
 10
33.8433980481
 20
-7.5540730248
 30
0.0
 10
33.9402277435
 20
-7.6133431802
 30
0.0
 10
34.0312281832
 20
-7.6819443275
 30
0.0
 10
34.0968947607
 20
-7.7378240169
 30
0.0
  0
SPLINE
  5
486
100
AcDbEntity
  8
SMUSSO
100
AcDbSpline
 62
7
  6
CONTINUOUS
 70
0
 71
3
 72
11
 73
7
 74
0
 42
0.0000001
 43
0.0000001
 44
0.0000000001
 40
0.0
 40
0.0
 40
0.0
 40
0.0
 40
0.2436407943
 40
0.5000043506
 40
0.7563656441
 40
1.0
 40
1.0
 40
1.0
 40
1.0
 10
34.0968947607
 20
-7.7378240169
 30
0.0
 10
34.2091781547
 20
-7.8333727941
 30
0.0
 10
34.420223778
 20
-8.0528544811
 30
0.0
 10
34.6802847824
 20
-8.4316817191
 30
0.0
 10
34.8783271042
 20
-8.8463110407
 30
0.0
 10
34.9628783087
 20
-9.1388182424
 30
0.0
 10
34.9894818334
 20
-9.2838293904
 30
0.0
  0
SPLINE
  5
487
100
AcDbEntity
  8
SMUSSO
100
AcDbSpline
 62
7
  6
CONTINUOUS
 70
0
 71
3
 72
9
 73
5
 74
0
 42
0.0000001
 43
0.0000001
 44
0.0000000001
 40
0.0
 40
0.0
 40
0.0
 40
0.0
 40
0.2594906671
 40
1.0
 40
1.0
 40
1.0
 40
1.0
 10
34.9894818334
 20
-9.2838293904
 30
0.0
 10
34.994795932
 20
-9.31279561
 30
0.0
 10
35.0129949866
 20
-9.4248146879
 30
0.0
 10
35.021859592
 20
-9.5384608798
 30
0.0
 10
35.0218595922
 20
-9.6225014212
 30
0.0
  0
SPLINE
  5
488
100
AcDbEntity
  8
SMUSSO
100
AcDbSpline
 62
7
  6
CONTINUOUS
 70
0
 71
3
 72
9
 73
5
 74
0
 42
0.0000001
 43
0.0000001
 44
0.0000000001
 40
0.0
 40
0.0
 40
0.0
 40
0.0
 40
0.2403060418
 40
1.0
 40
1.0
 40
1.0
 40
1.0
 10
17.9098754874
 20
1.6457432079
 30
0.0
 10
17.9334954714
 20
1.6321053251
 30
0.0
 10
18.0303251668
 20
1.5728351697
 30
0.0
 10
18.1213256065
 20
1.5042340224
 30
0.0
 10
18.186992184
 20
1.448354333
 30
0.0
  0
SPLINE
  5
489
100
AcDbEntity
  8
SMUSSO
100
AcDbSpline
 62
7
  6
CONTINUOUS
 70
0
 71
3
 72
11
 73
7
 74
0
 42
0.0000001
 43
0.0000001
 44
0.0000000001
 40
0.0
 40
0.0
 40
0.0
 40
0.0
 40
0.2436407943
 40
0.5000043506
 40
0.7563656441
 40
1.0
 40
1.0
 40
1.0
 40
1.0
 10
18.186992184
 20
1.448354333
 30
0.0
 10
18.299275578
 20
1.3528055558
 30
0.0
 10
18.5103212013
 20
1.1333238687
 30
0.0
 10
18.7703822057
 20
0.7544966308
 30
0.0
 10
18.9684245275
 20
0.3398673091
 30
0.0
 10
19.052975732
 20
0.0473601075
 30
0.0
 10
19.0795792567
 20
-0.0976510405
 30
0.0
  0
SPLINE
  5
48A
100
AcDbEntity
  8
SMUSSO
100
AcDbSpline
 62
7
  6
CONTINUOUS
 70
0
 71
3
 72
9
 73
5
 74
0
 42
0.0000001
 43
0.0000001
 44
0.0000000001
 40
0.0
 40
0.0
 40
0.0
 40
0.0
 40
0.2594906671
 40
1.0
 40
1.0
 40
1.0
 40
1.0
 10
19.0795792567
 20
-0.0976510405
 30
0.0
 10
19.0848933553
 20
-0.1266172602
 30
0.0
 10
19.1030924099
 20
-0.238636338
 30
0.0
 10
19.1119570153
 20
-0.3522825299
 30
0.0
 10
19.1119570155
 20
-0.4363230713
 30
0.0
  0
SPLINE
  5
48B
100
AcDbEntity
  8
SMUSSO
100
AcDbSpline
 62
7
  6
CONTINUOUS
 70
0
 71
3
 72
9
 73
5
 74
0
 42
0.0000001
 43
0.0000001
 44
0.0000000001
 40
0.0
 40
0.0
 40
0.0
 40
0.0
 40
0.2403060418
 40
1.0
 40
1.0
 40
1.0
 40
1.0
 10
1.9999729107
 20
10.8319215577
 30
0.0
 10
2.0235928947
 20
10.818283675
 30
0.0
 10
2.1204225901
 20
10.7590135196
 30
0.0
 10
2.2114230298
 20
10.6904123723
 30
0.0
 10
2.2770896073
 20
10.6345326829
 30
0.0
  0
SPLINE
  5
48C
100
AcDbEntity
  8
SMUSSO
100
AcDbSpline
 62
7
  6
CONTINUOUS
 70
0
 71
3
 72
11
 73
7
 74
0
 42
0.0000001
 43
0.0000001
 44
0.0000000001
 40
0.0
 40
0.0
 40
0.0
 40
0.0
 40
0.2436407943
 40
0.5000043506
 40
0.7563656441
 40
1.0
 40
1.0
 40
1.0
 40
1.0
 10
2.2770896073
 20
10.6345326829
 30
0.0
 10
2.3893730013
 20
10.5389839057
 30
0.0
 10
2.6004186246
 20
10.3195022186
 30
0.0
 10
2.860479629
 20
9.9406749807
 30
0.0
 10
3.0585219508
 20
9.526045659
 30
0.0
 10
3.1430731553
 20
9.2335384574
 30
0.0
 10
3.16967668
 20
9.0885273094
 30
0.0
  0
SPLINE
  5
48D
100
AcDbEntity
  8
SMUSSO
100
AcDbSpline
 62
7
  6
CONTINUOUS
 70
0
 71
3
 72
9
 73
5
 74
0
 42
0.0000001
 43
0.0000001
 44
0.0000000001
 40
0.0
 40
0.0
 40
0.0
 40
0.0
 40
0.2594906671
 40
1.0
 40
1.0
 40
1.0
 40
1.0
 10
3.16967668
 20
9.0885273094
 30
0.0
 10
3.1749907786
 20
9.0595610897
 30
0.0
 10
3.1931898332
 20
8.9475420119
 30
0.0
 10
3.2020544386
 20
8.83389582
 30
0.0
 10
3.2020544388
 20
8.7498552785
 30
0.0
  0
SPLINE
  5
48E
100
AcDbEntity
  8
SMUSSO
100
AcDbSpline
 62
7
  6
CONTINUOUS
 70
0
 71
3
 72
9
 73
5
 74
0
 42
0.0000001
 43
0.0000001
 44
0.0000000001
 40
0.0
 40
0.0
 40
0.0
 40
0.0
 40
0.2403060418
 40
1.0
 40
1.0
 40
1.0
 40
1.0
 10
-13.909929666
 20
20.0180999076
 30
0.0
 10
-13.886309682
 20
20.0044620249
 30
0.0
 10
-13.7894799866
 20
19.9451918694
 30
0.0
 10
-13.6984795469
 20
19.8765907221
 30
0.0
 10
-13.6328129694
 20
19.8207110327
 30
0.0
  0
SPLINE
  5
48F
100
AcDbEntity
  8
SMUSSO
100
AcDbSpline
 62
7
  6
CONTINUOUS
 70
0
 71
3
 72
11
 73
7
 74
0
 42
0.0000001
 43
0.0000001
 44
0.0000000001
 40
0.0
 40
0.0
 40
0.0
 40
0.0
 40
0.2436407943
 40
0.5000043506
 40
0.7563656441
 40
1.0
 40
1.0
 40
1.0
 40
1.0
 10
-13.6328129694
 20
19.8207110327
 30
0.0
 10
-13.5205295754
 20
19.7251622556
 30
0.0
 10
-13.3094839521
 20
19.5056805685
 30
0.0
 10
-13.0494229477
 20
19.1268533306
 30
0.0
 10
-12.8513806259
 20
18.7122240089
 30
0.0
 10
-12.7668294214
 20
18.4197168072
 30
0.0
 10
-12.7402258967
 20
18.2747056593
 30
0.0
  0
SPLINE
  5
490
100
AcDbEntity
  8
SMUSSO
100
AcDbSpline
 62
7
  6
CONTINUOUS
 70
0
 71
3
 72
9
 73
5
 74
0
 42
0.0000001
 43
0.0000001
 44
0.0000000001
 40
0.0
 40
0.0
 40
0.0
 40
0.0
 40
0.2594906671
 40
1.0
 40
1.0
 40
1.0
 40
1.0
 10
-12.7402258967
 20
18.2747056593
 30
0.0
 10
-12.7349117981
 20
18.2457394396
 30
0.0
 10
-12.7167127435
 20
18.1337203617
 30
0.0
 10
-12.7078481381
 20
18.0200741698
 30
0.0
 10
-12.7078481379
 20
17.9360336284
 30
0.0
  0
SPLINE
  5
491
100
AcDbEntity
  8
SMUSSO
100
AcDbSpline
 62
7
  6
CONTINUOUS
 70
0
 71
3
 72
9
 73
5
 74
0
 42
0.0000001
 43
0.0000001
 44
0.0000000001
 40
0.0
 40
0.0
 40
0.0
 40
0.0
 40
0.2403060418
 40
1.0
 40
1.0
 40
1.0
 40
1.0
 10
-29.8198322426
 20
29.2042782575
 30
0.0
 10
-29.7962122587
 20
29.1906403747
 30
0.0
 10
-29.6993825633
 20
29.1313702193
 30
0.0
 10
-29.6083821236
 20
29.062769072
 30
0.0
 10
-29.5427155461
 20
29.0068893826
 30
0.0
  0
SPLINE
  5
492
100
AcDbEntity
  8
SMUSSO
100
AcDbSpline
 62
7
  6
CONTINUOUS
 70
0
 71
3
 72
11
 73
7
 74
0
 42
0.0000001
 43
0.0000001
 44
0.0000000001
 40
0.0
 40
0.0
 40
0.0
 40
0.0
 40
0.2436407943
 40
0.5000043506
 40
0.7563656441
 40
1.0
 40
1.0
 40
1.0
 40
1.0
 10
-29.5427155461
 20
29.0068893826
 30
0.0
 10
-29.430432152
 20
28.9113406054
 30
0.0
 10
-29.2193865288
 20
28.6918589184
 30
0.0
 10
-28.9593255244
 20
28.3130316804
 30
0.0
 10
-28.7612832026
 20
27.8984023588
 30
0.0
 10
-28.6767319981
 20
27.6058951571
 30
0.0
 10
-28.6501284734
 20
27.4608840091
 30
0.0
  0
SPLINE
  5
493
100
AcDbEntity
  8
SMUSSO
100
AcDbSpline
 62
7
  6
CONTINUOUS
 70
0
 71
3
 72
9
 73
5
 74
0
 42
0.0000001
 43
0.0000001
 44
0.0000000001
 40
0.0
 40
0.0
 40
0.0
 40
0.0
 40
0.2594906671
 40
1.0
 40
1.0
 40
1.0
 40
1.0
 10
-28.6501284734
 20
27.4608840091
 30
0.0
 10
-28.6448143748
 20
27.4319177895
 30
0.0
 10
-28.6266153201
 20
27.3198987116
 30
0.0
 10
-28.6177507148
 20
27.2062525197
 30
0.0
 10
-28.6177507146
 20
27.1222119783
 30
0.0
  0
SPLINE
  5
494
100
AcDbEntity
  8
SMUSSO
100
AcDbSpline
 62
7
  6
CONTINUOUS
 70
0
 71
3
 72
9
 73
5
 74
0
 42
0.0000001
 43
0.0000001
 44
0.0000000001
 40
0.0
 40
0.0
 40
0.0
 40
0.0
 40
0.5167962532
 40
1.0
 40
1.0
 40
1.0
 40
1.0
 10
-13.1121261171
 20
-9.8525429476
 30
0.0
 10
-13.0738209052
 20
-9.857759391
 30
0.0
 10
-12.9984658484
 20
-9.8609286444
 30
0.0
 10
-12.9241542613
 20
-9.8466539435
 30
0.0
 10
-12.8898516538
 20
-9.8352584707
 30
0.0
  0
SPLINE
  5
495
100
AcDbEntity
  8
SMUSSO
100
AcDbSpline
 62
7
  6
CONTINUOUS
 70
0
 71
3
 72
9
 73
5
 74
0
 42
0.0000001
 43
0.0000001
 44
0.0000000001
 40
0.0
 40
0.0
 40
0.0
 40
0.0
 40
0.5167962532
 40
1.0
 40
1.0
 40
1.0
 40
1.0
 10
2.7977764596
 20
-19.0387212975
 30
0.0
 10
2.8360816715
 20
-19.0439377409
 30
0.0
 10
2.9114367283
 20
-19.0471069943
 30
0.0
 10
2.9857483154
 20
-19.0328322934
 30
0.0
 10
3.0200509229
 20
-19.0214368206
 30
0.0
  0
SPLINE
  5
496
100
AcDbEntity
  8
SMUSSO
100
AcDbSpline
 62
7
  6
CONTINUOUS
 70
0
 71
3
 72
9
 73
5
 74
0
 42
0.0000001
 43
0.0000001
 44
0.0000000001
 40
0.0
 40
0.0
 40
0.0
 40
0.0
 40
0.5167962532
 40
1.0
 40
1.0
 40
1.0
 40
1.0
 10
18.7076790363
 20
-28.2248996474
 30
0.0
 10
18.7459842482
 20
-28.2301160908
 30
0.0
 10
18.821339305
 20
-28.2332853442
 30
0.0
 10
18.8956508921
 20
-28.2190106432
 30
0.0
 10
18.9299534996
 20
-28.2076151704
 30
0.0
  0
SPLINE
  5
497
100
AcDbEntity
  8
SMUSSO
100
AcDbSpline
 62
7
  6
CONTINUOUS
 70
0
 71
3
 72
9
 73
5
 74
0
 42
0.0000001
 43
0.0000001
 44
0.0000000001
 40
0.0
 40
0.0
 40
0.0
 40
0.0
 40
0.5167962532
 40
1.0
 40
1.0
 40
1.0
 40
1.0
 10
34.617581613
 20
-37.4110779972
 30
0.0
 10
34.6558868249
 20
-37.4162944407
 30
0.0
 10
34.7312418817
 20
-37.4194636941
 30
0.0
 10
34.8055534688
 20
-37.4051889931
 30
0.0
 10
34.8398560763
 20
-37.3937935203
 30
0.0
  0
SPLINE
  5
498
100
AcDbEntity
  8
SMUSSO
100
AcDbSpline
 62
7
  6
CONTINUOUS
 70
0
 71
3
 72
9
 73
5
 74
0
 42
0.0000001
 43
0.0000001
 44
0.0000000001
 40
0.0
 40
0.0
 40
0.0
 40
0.0
 40
0.5167962516
 40
1.0
 40
1.0
 40
1.0
 40
1.0
 10
34.617581613
 20
-20.673437323
 30
0.0
 10
34.6558868273
 20
-20.6786537668
 30
0.0
 10
34.7312418892
 20
-20.68182302
 30
0.0
 10
34.805553481
 20
-20.6675483161
 30
0.0
 10
34.8398560904
 20
-20.6561528413
 30
0.0
  0
SPLINE
  5
499
100
AcDbEntity
  8
SMUSSO
100
AcDbSpline
 62
7
  6
CONTINUOUS
 70
0
 71
3
 72
9
 73
5
 74
0
 42
0.0000001
 43
0.0000001
 44
0.0000000001
 40
0.0
 40
0.0
 40
0.0
 40
0.0
 40
0.5167962516
 40
1.0
 40
1.0
 40
1.0
 40
1.0
 10
18.7076790363
 20
-11.4872589731
 30
0.0
 10
18.7459842506
 20
-11.4924754169
 30
0.0
 10
18.8213393125
 20
-11.4956446702
 30
0.0
 10
18.8956509043
 20
-11.4813699662
 30
0.0
 10
18.9299535137
 20
-11.4699744915
 30
0.0
  0
SPLINE
  5
49A
100
AcDbEntity
  8
SMUSSO
100
AcDbSpline
 62
7
  6
CONTINUOUS
 70
0
 71
3
 72
9
 73
5
 74
0
 42
0.0000001
 43
0.0000001
 44
0.0000000001
 40
0.0
 40
0.0
 40
0.0
 40
0.0
 40
0.5167962516
 40
1.0
 40
1.0
 40
1.0
 40
1.0
 10
2.7977764596
 20
-2.3010806232
 30
0.0
 10
2.8360816739
 20
-2.3062970671
 30
0.0
 10
2.9114367358
 20
-2.3094663203
 30
0.0
 10
2.9857483276
 20
-2.2951916163
 30
0.0
 10
3.020050937
 20
-2.2837961416
 30
0.0
  0
SPLINE
  5
49B
100
AcDbEntity
  8
SMUSSO
100
AcDbSpline
 62
7
  6
CONTINUOUS
 70
0
 71
3
 72
9
 73
5
 74
0
 42
0.0000001
 43
0.0000001
 44
0.0000000001
 40
0.0
 40
0.0
 40
0.0
 40
0.0
 40
0.5167962516
 40
1.0
 40
1.0
 40
1.0
 40
1.0
 10
-13.1121261171
 20
6.8850977266
 30
0.0
 10
-13.0738209028
 20
6.8798812828
 30
0.0
 10
-12.9984658409
 20
6.8767120296
 30
0.0
 10
-12.9241542491
 20
6.8909867336
 30
0.0
 10
-12.8898516397
 20
6.9023822083
 30
0.0
  0
SPLINE
  5
49C
100
AcDbEntity
  8
SMUSSO
100
AcDbSpline
 62
7
  6
CONTINUOUS
 70
0
 71
3
 72
9
 73
5
 74
0
 42
0.0000001
 43
0.0000001
 44
0.0000000001
 40
0.0
 40
0.0
 40
0.0
 40
0.0
 40
0.5167962516
 40
1.0
 40
1.0
 40
1.0
 40
1.0
 10
-29.0220286938
 20
16.0712760765
 30
0.0
 10
-28.9837234795
 20
16.0660596327
 30
0.0
 10
-28.9083684176
 20
16.0628903795
 30
0.0
 10
-28.8340568258
 20
16.0771650834
 30
0.0
 10
-28.7997542164
 20
16.0885605582
 30
0.0
  0
SPLINE
  5
49D
100
AcDbEntity
  8
SMUSSO
100
AcDbSpline
 62
7
  6
CONTINUOUS
 70
0
 71
3
 72
11
 73
7
 74
0
 42
0.0000001
 43
0.0000001
 44
0.0000000001
 40
0.0
 40
0.0
 40
0.0
 40
0.0
 40
0.2177664942
 40
0.4509473065
 40
0.7101859235
 40
1.0
 40
1.0
 40
1.0
 40
1.0
 10
-39.541537098
 20
34.530506584
 30
0.0
 10
-39.5019549801
 20
34.5533607968
 30
0.0
 10
-39.4109991732
 20
34.5863975603
 30
0.0
 10
-39.2599452559
 20
34.5901739051
 30
0.0
 10
-39.0989228209
 20
34.551343927
 30
0.0
 10
-38.9941874941
 20
34.5014754528
 30
0.0
 10
-38.94150972
 20
34.4710599663
 30
0.0
  0
SPLINE
  5
49E
100
AcDbEntity
  8
SMUSSO
100
AcDbSpline
 62
7
  6
CONTINUOUS
 70
0
 71
3
 72
9
 73
5
 74
0
 42
0.0000001
 43
0.0000001
 44
0.0000000001
 40
0.0
 40
0.0
 40
0.0
 40
0.0
 40
0.2435928544
 40
1.0
 40
1.0
 40
1.0
 40
1.0
 10
-39.4666724423
 20
34.5640697936
 30
0.0
 10
-39.475554534
 20
34.556176516
 30
0.0
 10
-39.5106322577
 20
34.5222252047
 30
0.0
 10
-39.5398358666
 20
34.48238051
 30
0.0
 10
-39.5583647037
 20
34.4504722792
 30
0.0
  0
SPLINE
  5
49F
100
AcDbEntity
  8
SMUSSO
100
AcDbSpline
 62
7
  6
CONTINUOUS
 70
0
 71
3
 72
9
 73
5
 74
0
 42
0.0000001
 43
0.0000001
 44
0.0000000001
 40
0.0
 40
0.0
 40
0.0
 40
0.0
 40
0.2451236602
 40
1.0
 40
1.0
 40
1.0
 40
1.0
 10
-39.5583647037
 20
34.4504722792
 30
0.0
 10
-39.5615760907
 20
34.444941998
 30
0.0
 10
-39.5742645028
 20
34.4221426213
 30
0.0
 10
-39.5853128561
 20
34.3984391256
 30
0.0
 10
-39.5927674281
 20
34.380210374
 30
0.0
  0
SPLINE
  5
4A0
100
AcDbEntity
  8
SMUSSO
100
AcDbSpline
 62
7
  6
CONTINUOUS
 70
0
 71
3
 72
11
 73
7
 74
0
 42
0.0000001
 43
0.0000001
 44
0.0000000001
 40
0.0
 40
0.0
 40
0.0
 40
0.0
 40
0.2177664942
 40
0.4509473065
 40
0.7101859235
 40
1.0
 40
1.0
 40
1.0
 40
1.0
 10
-23.6316345213
 20
25.3443282341
 30
0.0
 10
-23.5920524034
 20
25.3671824469
 30
0.0
 10
-23.5010965965
 20
25.4002192104
 30
0.0
 10
-23.3500426792
 20
25.4039955552
 30
0.0
 10
-23.1890202442
 20
25.3651655771
 30
0.0
 10
-23.0842849174
 20
25.3152971029
 30
0.0
 10
-23.0316071433
 20
25.2848816165
 30
0.0
  0
SPLINE
  5
4A1
100
AcDbEntity
  8
SMUSSO
100
AcDbSpline
 62
7
  6
CONTINUOUS
 70
0
 71
3
 72
9
 73
5
 74
0
 42
0.0000001
 43
0.0000001
 44
0.0000000001
 40
0.0
 40
0.0
 40
0.0
 40
0.0
 40
0.2435928544
 40
1.0
 40
1.0
 40
1.0
 40
1.0
 10
-23.5567698656
 20
25.3778914437
 30
0.0
 10
-23.5656519573
 20
25.3699981662
 30
0.0
 10
-23.600729681
 20
25.3360468548
 30
0.0
 10
-23.6299332899
 20
25.2962021601
 30
0.0
 10
-23.648462127
 20
25.2642939293
 30
0.0
  0
SPLINE
  5
4A2
100
AcDbEntity
  8
SMUSSO
100
AcDbSpline
 62
7
  6
CONTINUOUS
 70
0
 71
3
 72
9
 73
5
 74
0
 42
0.0000001
 43
0.0000001
 44
0.0000000001
 40
0.0
 40
0.0
 40
0.0
 40
0.0
 40
0.2451236602
 40
1.0
 40
1.0
 40
1.0
 40
1.0
 10
-23.648462127
 20
25.2642939293
 30
0.0
 10
-23.651673514
 20
25.2587636481
 30
0.0
 10
-23.6643619261
 20
25.2359642714
 30
0.0
 10
-23.6754102794
 20
25.2122607758
 30
0.0
 10
-23.6828648514
 20
25.1940320241
 30
0.0
  0
SPLINE
  5
4A3
100
AcDbEntity
  8
SMUSSO
100
AcDbSpline
 62
7
  6
CONTINUOUS
 70
0
 71
3
 72
11
 73
7
 74
0
 42
0.0000001
 43
0.0000001
 44
0.0000000001
 40
0.0
 40
0.0
 40
0.0
 40
0.0
 40
0.2177664942
 40
0.4509473065
 40
0.7101859235
 40
1.0
 40
1.0
 40
1.0
 40
1.0
 10
-7.7217319446
 20
16.1581498842
 30
0.0
 10
-7.6821498267
 20
16.1810040971
 30
0.0
 10
-7.5911940198
 20
16.2140408605
 30
0.0
 10
-7.4401401025
 20
16.2178172053
 30
0.0
 10
-7.2791176675
 20
16.1789872273
 30
0.0
 10
-7.1743823407
 20
16.129118753
 30
0.0
 10
-7.1217045666
 20
16.0987032666
 30
0.0
  0
SPLINE
  5
4A4
100
AcDbEntity
  8
SMUSSO
100
AcDbSpline
 62
7
  6
CONTINUOUS
 70
0
 71
3
 72
9
 73
5
 74
0
 42
0.0000001
 43
0.0000001
 44
0.0000000001
 40
0.0
 40
0.0
 40
0.0
 40
0.0
 40
0.2435928544
 40
1.0
 40
1.0
 40
1.0
 40
1.0
 10
-7.6468672889
 20
16.1917130938
 30
0.0
 10
-7.6557493806
 20
16.1838198163
 30
0.0
 10
-7.6908271043
 20
16.1498685049
 30
0.0
 10
-7.7200307132
 20
16.1100238102
 30
0.0
 10
-7.7385595503
 20
16.0781155794
 30
0.0
  0
SPLINE
  5
4A5
100
AcDbEntity
  8
SMUSSO
100
AcDbSpline
 62
7
  6
CONTINUOUS
 70
0
 71
3
 72
9
 73
5
 74
0
 42
0.0000001
 43
0.0000001
 44
0.0000000001
 40
0.0
 40
0.0
 40
0.0
 40
0.0
 40
0.2451236602
 40
1.0
 40
1.0
 40
1.0
 40
1.0
 10
-7.7385595503
 20
16.0781155794
 30
0.0
 10
-7.7417709373
 20
16.0725852983
 30
0.0
 10
-7.7544593494
 20
16.0497859216
 30
0.0
 10
-7.7655077027
 20
16.0260824259
 30
0.0
 10
-7.7729622747
 20
16.0078536743
 30
0.0
  0
SPLINE
  5
4A6
100
AcDbEntity
  8
SMUSSO
100
AcDbSpline
 62
7
  6
CONTINUOUS
 70
0
 71
3
 72
11
 73
7
 74
0
 42
0.0000001
 43
0.0000001
 44
0.0000000001
 40
0.0
 40
0.0
 40
0.0
 40
0.0
 40
0.2177664942
 40
0.4509473065
 40
0.7101859235
 40
1.0
 40
1.0
 40
1.0
 40
1.0
 10
8.1881706321
 20
6.9719715344
 30
0.0
 10
8.22775275
 20
6.9948257472
 30
0.0
 10
8.3187085569
 20
7.0278625106
 30
0.0
 10
8.4697624741
 20
7.0316388554
 30
0.0
 10
8.6307849092
 20
6.9928088774
 30
0.0
 10
8.735520236
 20
6.9429404032
 30
0.0
 10
8.7881980101
 20
6.9125249167
 30
0.0
  0
SPLINE
  5
4A7
100
AcDbEntity
  8
SMUSSO
100
AcDbSpline
 62
7
  6
CONTINUOUS
 70
0
 71
3
 72
9
 73
5
 74
0
 42
0.0000001
 43
0.0000001
 44
0.0000000001
 40
0.0
 40
0.0
 40
0.0
 40
0.0
 40
0.2435928544
 40
1.0
 40
1.0
 40
1.0
 40
1.0
 10
8.2630352878
 20
7.0055347439
 30
0.0
 10
8.2541531961
 20
6.9976414664
 30
0.0
 10
8.2190754724
 20
6.9636901551
 30
0.0
 10
8.1898718635
 20
6.9238454604
 30
0.0
 10
8.1713430264
 20
6.8919372295
 30
0.0
  0
SPLINE
  5
4A8
100
AcDbEntity
  8
SMUSSO
100
AcDbSpline
 62
7
  6
CONTINUOUS
 70
0
 71
3
 72
9
 73
5
 74
0
 42
0.0000001
 43
0.0000001
 44
0.0000000001
 40
0.0
 40
0.0
 40
0.0
 40
0.0
 40
0.2451236602
 40
1.0
 40
1.0
 40
1.0
 40
1.0
 10
8.1713430264
 20
6.8919372295
 30
0.0
 10
8.1681316394
 20
6.8864069484
 30
0.0
 10
8.1554432273
 20
6.8636075717
 30
0.0
 10
8.144394874
 20
6.839904076
 30
0.0
 10
8.136940302
 20
6.8216753244
 30
0.0
  0
SPLINE
  5
4A9
100
AcDbEntity
  8
SMUSSO
100
AcDbSpline
 62
7
  6
CONTINUOUS
 70
0
 71
3
 72
11
 73
7
 74
0
 42
0.0000001
 43
0.0000001
 44
0.0000000001
 40
0.0
 40
0.0
 40
0.0
 40
0.0
 40
0.2177664942
 40
0.4509473065
 40
0.7101859235
 40
1.0
 40
1.0
 40
1.0
 40
1.0
 10
24.0980732088
 20
-2.2142068155
 30
0.0
 10
24.1376553267
 20
-2.1913526027
 30
0.0
 10
24.2286111336
 20
-2.1583158392
 30
0.0
 10
24.3796650508
 20
-2.1545394944
 30
0.0
 10
24.5406874859
 20
-2.1933694725
 30
0.0
 10
24.6454228127
 20
-2.2432379467
 30
0.0
 10
24.6981005868
 20
-2.2736534332
 30
0.0
  0
SPLINE
  5
4AA
100
AcDbEntity
  8
SMUSSO
100
AcDbSpline
 62
7
  6
CONTINUOUS
 70
0
 71
3
 72
9
 73
5
 74
0
 42
0.0000001
 43
0.0000001
 44
0.0000000001
 40
0.0
 40
0.0
 40
0.0
 40
0.0
 40
0.2435928544
 40
1.0
 40
1.0
 40
1.0
 40
1.0
 10
24.1729378645
 20
-2.1806436059
 30
0.0
 10
24.1640557728
 20
-2.1885368835
 30
0.0
 10
24.1289780491
 20
-2.2224881948
 30
0.0
 10
24.0997744402
 20
-2.2623328895
 30
0.0
 10
24.0812456031
 20
-2.2942411203
 30
0.0
  0
SPLINE
  5
4AB
100
AcDbEntity
  8
SMUSSO
100
AcDbSpline
 62
7
  6
CONTINUOUS
 70
0
 71
3
 72
9
 73
5
 74
0
 42
0.0000001
 43
0.0000001
 44
0.0000000001
 40
0.0
 40
0.0
 40
0.0
 40
0.0
 40
0.2451236602
 40
1.0
 40
1.0
 40
1.0
 40
1.0
 10
24.0812456031
 20
-2.2942411203
 30
0.0
 10
24.0780342161
 20
-2.2997714015
 30
0.0
 10
24.065345804
 20
-2.3225707782
 30
0.0
 10
24.0542974507
 20
-2.3462742739
 30
0.0
 10
24.0468428787
 20
-2.3645030255
 30
0.0
  0
SPLINE
  5
4AC
100
AcDbEntity
  8
SMUSSO
100
AcDbSpline
 62
7
  6
CONTINUOUS
 70
0
 71
3
 72
9
 73
5
 74
0
 42
0.0000001
 43
0.0000001
 44
0.0000000001
 40
0.0
 40
0.0
 40
0.0
 40
0.0
 40
0.2435928246
 40
1.0
 40
1.0
 40
1.0
 40
1.0
 10
-39.4666724311
 20
17.8264291292
 30
0.0
 10
-39.4755545577
 20
17.8185358211
 30
0.0
 10
-39.5106324185
 20
17.7845843681
 30
0.0
 10
-39.5398361164
 20
17.7447394866
 30
0.0
 10
-39.5583649938
 20
17.7128311057
 30
0.0
  0
SPLINE
  5
4AD
100
AcDbEntity
  8
SMUSSO
100
AcDbSpline
 62
7
  6
CONTINUOUS
 70
0
 71
3
 72
9
 73
5
 74
0
 42
0.0000001
 43
0.0000001
 44
0.0000000001
 40
0.0
 40
0.0
 40
0.0
 40
0.0
 40
0.245123693
 40
1.0
 40
1.0
 40
1.0
 40
1.0
 10
-39.5583649938
 20
17.7128311057
 30
0.0
 10
-39.5615763515
 20
17.707300861
 30
0.0
 10
-39.5742646484
 20
17.6845016403
 30
0.0
 10
-39.5853129114
 20
17.6607983163
 30
0.0
 10
-39.5927674281
 20
17.6425696998
 30
0.0
  0
SPLINE
  5
4AE
100
AcDbEntity
  8
SMUSSO
100
AcDbSpline
 62
7
  6
CONTINUOUS
 70
0
 71
3
 72
11
 73
7
 74
0
 42
0.0000001
 43
0.0000001
 44
0.0000000001
 40
0.0
 40
0.0
 40
0.0
 40
0.0
 40
0.2177664931
 40
0.4509473057
 40
0.7101859194
 40
1.0
 40
1.0
 40
1.0
 40
1.0
 10
-39.541537098
 20
17.7928659097
 30
0.0
 10
-39.5019549803
 20
17.8157201224
 30
0.0
 10
-39.4109991736
 20
17.8487568862
 30
0.0
 10
-39.2599452572
 20
17.8525332306
 30
0.0
 10
-39.0989228218
 20
17.8137032534
 30
0.0
 10
-38.9941874948
 20
17.7638347791
 30
0.0
 10
-38.94150972
 20
17.7334192921
 30
0.0
  0
SPLINE
  5
4AF
100
AcDbEntity
  8
SMUSSO
100
AcDbSpline
 62
7
  6
CONTINUOUS
 70
0
 71
3
 72
9
 73
5
 74
0
 42
0.0000001
 43
0.0000001
 44
0.0000000001
 40
0.0
 40
0.0
 40
0.0
 40
0.0
 40
0.2435928246
 40
1.0
 40
1.0
 40
1.0
 40
1.0
 10
-23.5567698544
 20
8.6402507793
 30
0.0
 10
-23.565651981
 20
8.6323574713
 30
0.0
 10
-23.6007298418
 20
8.5984060183
 30
0.0
 10
-23.6299335397
 20
8.5585611367
 30
0.0
 10
-23.6484624171
 20
8.5266527558
 30
0.0
  0
SPLINE
  5
4B0
100
AcDbEntity
  8
SMUSSO
100
AcDbSpline
 62
7
  6
CONTINUOUS
 70
0
 71
3
 72
9
 73
5
 74
0
 42
0.0000001
 43
0.0000001
 44
0.0000000001
 40
0.0
 40
0.0
 40
0.0
 40
0.0
 40
0.245123693
 40
1.0
 40
1.0
 40
1.0
 40
1.0
 10
-23.6484624171
 20
8.5266527558
 30
0.0
 10
-23.6516737748
 20
8.5211225111
 30
0.0
 10
-23.6643620717
 20
8.4983232905
 30
0.0
 10
-23.6754103347
 20
8.4746199664
 30
0.0
 10
-23.6828648514
 20
8.4563913499
 30
0.0
  0
SPLINE
  5
4B1
100
AcDbEntity
  8
SMUSSO
100
AcDbSpline
 62
7
  6
CONTINUOUS
 70
0
 71
3
 72
11
 73
7
 74
0
 42
0.0000001
 43
0.0000001
 44
0.0000000001
 40
0.0
 40
0.0
 40
0.0
 40
0.0
 40
0.2177664931
 40
0.4509473057
 40
0.7101859194
 40
1.0
 40
1.0
 40
1.0
 40
1.0
 10
-23.6316345213
 20
8.6066875599
 30
0.0
 10
-23.5920524036
 20
8.6295417726
 30
0.0
 10
-23.5010965969
 20
8.6625785363
 30
0.0
 10
-23.3500426805
 20
8.6663548807
 30
0.0
 10
-23.1890202451
 20
8.6275249035
 30
0.0
 10
-23.0842849181
 20
8.5776564292
 30
0.0
 10
-23.0316071433
 20
8.5472409422
 30
0.0
  0
SPLINE
  5
4B2
100
AcDbEntity
  8
SMUSSO
100
AcDbSpline
 62
7
  6
CONTINUOUS
 70
0
 71
3
 72
9
 73
5
 74
0
 42
0.0000001
 43
0.0000001
 44
0.0000000001
 40
0.0
 40
0.0
 40
0.0
 40
0.0
 40
0.2435928246
 40
1.0
 40
1.0
 40
1.0
 40
1.0
 10
-7.6468672777
 20
-0.5459275705
 30
0.0
 10
-7.6557494043
 20
-0.5538208786
 30
0.0
 10
-7.6908272651
 20
-0.5877723316
 30
0.0
 10
-7.720030963
 20
-0.6276172131
 30
0.0
 10
-7.7385598404
 20
-0.6595255941
 30
0.0
  0
SPLINE
  5
4B3
100
AcDbEntity
  8
SMUSSO
100
AcDbSpline
 62
7
  6
CONTINUOUS
 70
0
 71
3
 72
9
 73
5
 74
0
 42
0.0000001
 43
0.0000001
 44
0.0000000001
 40
0.0
 40
0.0
 40
0.0
 40
0.0
 40
0.245123693
 40
1.0
 40
1.0
 40
1.0
 40
1.0
 10
-7.7385598404
 20
-0.6595255941
 30
0.0
 10
-7.7417711981
 20
-0.6650558388
 30
0.0
 10
-7.754459495
 20
-0.6878550594
 30
0.0
 10
-7.765507758
 20
-0.7115583835
 30
0.0
 10
-7.7729622747
 20
-0.729787
 30
0.0
  0
SPLINE
  5
4B4
100
AcDbEntity
  8
SMUSSO
100
AcDbSpline
 62
7
  6
CONTINUOUS
 70
0
 71
3
 72
11
 73
7
 74
0
 42
0.0000001
 43
0.0000001
 44
0.0000000001
 40
0.0
 40
0.0
 40
0.0
 40
0.0
 40
0.2177664931
 40
0.4509473057
 40
0.7101859194
 40
1.0
 40
1.0
 40
1.0
 40
1.0
 10
-7.7217319446
 20
-0.57949079
 30
0.0
 10
-7.6821498269
 20
-0.5566365773
 30
0.0
 10
-7.5911940202
 20
-0.5235998136
 30
0.0
 10
-7.4401401038
 20
-0.5198234692
 30
0.0
 10
-7.2791176684
 20
-0.5586534464
 30
0.0
 10
-7.1743823414
 20
-0.6085219207
 30
0.0
 10
-7.1217045666
 20
-0.6389374077
 30
0.0
  0
SPLINE
  5
4B5
100
AcDbEntity
  8
SMUSSO
100
AcDbSpline
 62
7
  6
CONTINUOUS
 70
0
 71
3
 72
9
 73
5
 74
0
 42
0.0000001
 43
0.0000001
 44
0.0000000001
 40
0.0
 40
0.0
 40
0.0
 40
0.0
 40
0.2435928246
 40
1.0
 40
1.0
 40
1.0
 40
1.0
 10
8.263035299
 20
-9.7321059204
 30
0.0
 10
8.2541531724
 20
-9.7399992285
 30
0.0
 10
8.2190753116
 20
-9.7739506815
 30
0.0
 10
8.1898716137
 20
-9.813795563
 30
0.0
 10
8.1713427363
 20
-9.845703944
 30
0.0
  0
SPLINE
  5
4B6
100
AcDbEntity
  8
SMUSSO
100
AcDbSpline
 62
7
  6
CONTINUOUS
 70
0
 71
3
 72
9
 73
5
 74
0
 42
0.0000001
 43
0.0000001
 44
0.0000000001
 40
0.0
 40
0.0
 40
0.0
 40
0.0
 40
0.245123693
 40
1.0
 40
1.0
 40
1.0
 40
1.0
 10
8.1713427363
 20
-9.845703944
 30
0.0
 10
8.1681313786
 20
-9.8512341886
 30
0.0
 10
8.1554430817
 20
-9.8740334093
 30
0.0
 10
8.1443948187
 20
-9.8977367334
 30
0.0
 10
8.136940302
 20
-9.9159653499
 30
0.0
  0
SPLINE
  5
4B7
100
AcDbEntity
  8
SMUSSO
100
AcDbSpline
 62
7
  6
CONTINUOUS
 70
0
 71
3
 72
11
 73
7
 74
0
 42
0.0000001
 43
0.0000001
 44
0.0000000001
 40
0.0
 40
0.0
 40
0.0
 40
0.0
 40
0.2177664931
 40
0.4509473057
 40
0.7101859194
 40
1.0
 40
1.0
 40
1.0
 40
1.0
 10
8.1881706321
 20
-9.7656691399
 30
0.0
 10
8.2277527498
 20
-9.7428149272
 30
0.0
 10
8.3187085564
 20
-9.7097781634
 30
0.0
 10
8.4697624728
 20
-9.706001819
 30
0.0
 10
8.6307849083
 20
-9.7448317963
 30
0.0
 10
8.7355202353
 20
-9.7947002706
 30
0.0
 10
8.7881980101
 20
-9.8251157575
 30
0.0
  0
SPLINE
  5
4B8
100
AcDbEntity
  8
SMUSSO
100
AcDbSpline
 62
7
  6
CONTINUOUS
 70
0
 71
3
 72
9
 73
5
 74
0
 42
0.0000001
 43
0.0000001
 44
0.0000000001
 40
0.0
 40
0.0
 40
0.0
 40
0.0
 40
0.2435928246
 40
1.0
 40
1.0
 40
1.0
 40
1.0
 10
24.1729378757
 20
-18.9182842703
 30
0.0
 10
24.1640557491
 20
-18.9261775783
 30
0.0
 10
24.1289778883
 20
-18.9601290314
 30
0.0
 10
24.0997741904
 20
-18.9999739129
 30
0.0
 10
24.081245313
 20
-19.0318822938
 30
0.0
  0
SPLINE
  5
4B9
100
AcDbEntity
  8
SMUSSO
100
AcDbSpline
 62
7
  6
CONTINUOUS
 70
0
 71
3
 72
9
 73
5
 74
0
 42
0.0000001
 43
0.0000001
 44
0.0000000001
 40
0.0
 40
0.0
 40
0.0
 40
0.0
 40
0.245123693
 40
1.0
 40
1.0
 40
1.0
 40
1.0
 10
24.081245313
 20
-19.0318822938
 30
0.0
 10
24.0780339553
 20
-19.0374125385
 30
0.0
 10
24.0653456584
 20
-19.0602117592
 30
0.0
 10
24.0542973954
 20
-19.0839150832
 30
0.0
 10
24.0468428787
 20
-19.1021436997
 30
0.0
  0
SPLINE
  5
4BA
100
AcDbEntity
  8
SMUSSO
100
AcDbSpline
 62
7
  6
CONTINUOUS
 70
0
 71
3
 72
11
 73
7
 74
0
 42
0.0000001
 43
0.0000001
 44
0.0000000001
 40
0.0
 40
0.0
 40
0.0
 40
0.0
 40
0.2177664931
 40
0.4509473057
 40
0.7101859194
 40
1.0
 40
1.0
 40
1.0
 40
1.0
 10
24.0980732088
 20
-18.9518474898
 30
0.0
 10
24.1376553265
 20
-18.9289932771
 30
0.0
 10
24.2286111331
 20
-18.8959565133
 30
0.0
 10
24.3796650495
 20
-18.8921801689
 30
0.0
 10
24.540687485
 20
-18.9310101461
 30
0.0
 10
24.645422812
 20
-18.9808786204
 30
0.0
 10
24.6981005868
 20
-19.0112941074
 30
0.0
  0
SPLINE
  5
4BB
100
AcDbEntity
  8
SMUSSO
100
AcDbSpline
 62
7
  6
CONTINUOUS
 70
0
 71
3
 72
15
 73
11
 74
0
 42
0.0000001
 43
0.0000001
 44
0.0000000001
 40
0.0
 40
0.0
 40
0.0
 40
0.0
 40
0.1141552322
 40
0.2373201624
 40
0.3669698969
 40
0.4999939496
 40
0.6330188429
 40
0.7626710358
 40
0.8858398389
 40
1.0
 40
1.0
 40
1.0
 40
1.0
 10
-39.2899863123
 20
23.8949688035
 30
0.0
 10
-39.2899863119
 20
23.789168193
 30
0.0
 10
-39.2706091549
 20
23.5690108448
 30
0.0
 10
-39.1933495204
 20
23.2368782023
 30
0.0
 10
-39.0695995443
 20
22.9004505764
 30
0.0
 10
-38.9039656967
 20
22.5723763039
 30
0.0
 10
-38.7026606126
 20
22.2648942259
 30
0.0
 10
-38.473177193
 20
21.9895041508
 30
0.0
 10
-38.224166144
 20
21.7565198003
 30
0.0
 10
-38.0431887228
 20
21.6296519684
 30
0.0
 10
-37.9515602263
 20
21.5767468228
 30
0.0
  0
SPLINE
  5
4BC
100
AcDbEntity
  8
SMUSSO
100
AcDbSpline
 62
7
  6
CONTINUOUS
 70
0
 71
3
 72
15
 73
11
 74
0
 42
0.0000001
 43
0.0000001
 44
0.0000000001
 40
0.0
 40
0.0
 40
0.0
 40
0.0
 40
0.1141552322
 40
0.2373201624
 40
0.3669698969
 40
0.4999939496
 40
0.6330188429
 40
0.7626710358
 40
0.8858398389
 40
1.0
 40
1.0
 40
1.0
 40
1.0
 10
-23.3800837356
 20
14.7087904536
 30
0.0
 10
-23.3800837352
 20
14.6029898432
 30
0.0
 10
-23.3607065782
 20
14.3828324949
 30
0.0
 10
-23.2834469437
 20
14.0506998524
 30
0.0
 10
-23.1596969676
 20
13.7142722265
 30
0.0
 10
-22.99406312
 20
13.386197954
 30
0.0
 10
-22.7927580359
 20
13.078715876
 30
0.0
 10
-22.5632746163
 20
12.8033258009
 30
0.0
 10
-22.3142635673
 20
12.5703414505
 30
0.0
 10
-22.1332861461
 20
12.4434736186
 30
0.0
 10
-22.0416576496
 20
12.3905684729
 30
0.0
  0
SPLINE
  5
4BD
100
AcDbEntity
  8
SMUSSO
100
AcDbSpline
 62
7
  6
CONTINUOUS
 70
0
 71
3
 72
15
 73
11
 74
0
 42
0.0000001
 43
0.0000001
 44
0.0000000001
 40
0.0
 40
0.0
 40
0.0
 40
0.0
 40
0.1141552322
 40
0.2373201624
 40
0.3669698969
 40
0.4999939496
 40
0.6330188429
 40
0.7626710358
 40
0.8858398389
 40
1.0
 40
1.0
 40
1.0
 40
1.0
 10
-7.4701811589
 20
5.5226121037
 30
0.0
 10
-7.4701811585
 20
5.4168114933
 30
0.0
 10
-7.4508040015
 20
5.1966541451
 30
0.0
 10
-7.373544367
 20
4.8645215026
 30
0.0
 10
-7.2497943909
 20
4.5280938766
 30
0.0
 10
-7.0841605433
 20
4.2000196041
 30
0.0
 10
-6.8828554592
 20
3.8925375262
 30
0.0
 10
-6.6533720396
 20
3.617147451
 30
0.0
 10
-6.4043609906
 20
3.3841631006
 30
0.0
 10
-6.2233835694
 20
3.2572952687
 30
0.0
 10
-6.1317550729
 20
3.204390123
 30
0.0
  0
SPLINE
  5
4BE
100
AcDbEntity
  8
SMUSSO
100
AcDbSpline
 62
7
  6
CONTINUOUS
 70
0
 71
3
 72
15
 73
11
 74
0
 42
0.0000001
 43
0.0000001
 44
0.0000000001
 40
0.0
 40
0.0
 40
0.0
 40
0.0
 40
0.1141552322
 40
0.2373201624
 40
0.3669698969
 40
0.4999939496
 40
0.6330188429
 40
0.7626710358
 40
0.8858398389
 40
1.0
 40
1.0
 40
1.0
 40
1.0
 10
8.4397214178
 20
-3.6635662462
 30
0.0
 10
8.4397214182
 20
-3.7693668566
 30
0.0
 10
8.4590985752
 20
-3.9895242048
 30
0.0
 10
8.5363582097
 20
-4.3216568473
 30
0.0
 10
8.6601081858
 20
-4.6580844732
 30
0.0
 10
8.8257420334
 20
-4.9861587457
 30
0.0
 10
9.0270471175
 20
-5.2936408237
 30
0.0
 10
9.2565305371
 20
-5.5690308989
 30
0.0
 10
9.5055415861
 20
-5.8020152493
 30
0.0
 10
9.6865190073
 20
-5.9288830812
 30
0.0
 10
9.7781475038
 20
-5.9817882269
 30
0.0
  0
SPLINE
  5
4BF
100
AcDbEntity
  8
SMUSSO
100
AcDbSpline
 62
7
  6
CONTINUOUS
 70
0
 71
3
 72
15
 73
11
 74
0
 42
0.0000001
 43
0.0000001
 44
0.0000000001
 40
0.0
 40
0.0
 40
0.0
 40
0.0
 40
0.1141552322
 40
0.2373201624
 40
0.3669698969
 40
0.4999939496
 40
0.6330188429
 40
0.7626710358
 40
0.8858398389
 40
1.0
 40
1.0
 40
1.0
 40
1.0
 10
24.3496239945
 20
-12.849744596
 30
0.0
 10
24.3496239949
 20
-12.9555452065
 30
0.0
 10
24.3690011519
 20
-13.1757025547
 30
0.0
 10
24.4462607864
 20
-13.5078351972
 30
0.0
 10
24.5700107625
 20
-13.8442628231
 30
0.0
 10
24.7356446101
 20
-14.1723370956
 30
0.0
 10
24.9369496942
 20
-14.4798191736
 30
0.0
 10
25.1664331138
 20
-14.7552092487
 30
0.0
 10
25.4154441628
 20
-14.9881935992
 30
0.0
 10
25.596421584
 20
-15.1150614311
 30
0.0
 10
25.6880500805
 20
-15.1679665767
 30
0.0
  0
SPLINE
  5
4C0
100
AcDbEntity
  8
SMUSSO
100
AcDbSpline
 62
7
  6
CONTINUOUS
 70
0
 71
3
 72
15
 73
11
 74
0
 42
0.0000001
 43
0.0000001
 44
0.0000000001
 40
0.0
 40
0.0
 40
0.0
 40
0.0
 40
0.1141552314
 40
0.2373201618
 40
0.366969896
 40
0.4999939478
 40
0.6330188419
 40
0.7626710351
 40
0.8858398382
 40
1.0
 40
1.0
 40
1.0
 40
1.0
 10
24.3496239945
 20
-29.5873852703
 30
0.0
 10
24.3496239946
 20
-29.69318588
 30
0.0
 10
24.3690011517
 20
-29.9133432277
 30
0.0
 10
24.4462607861
 20
-30.2454758693
 30
0.0
 10
24.5700107611
 20
-30.5819034947
 30
0.0
 10
24.7356446084
 20
-30.909977767
 30
0.0
 10
24.9369496926
 20
-31.2174598452
 30
0.0
 10
25.166433112
 20
-31.4928499217
 30
0.0
 10
25.4154441618
 20
-31.7258342726
 30
0.0
 10
25.5964215835
 20
-31.8527021047
 30
0.0
 10
25.6880500805
 20
-31.905607251
 30
0.0
  0
SPLINE
  5
4C1
100
AcDbEntity
  8
SMUSSO
100
AcDbSpline
 62
7
  6
CONTINUOUS
 70
0
 71
3
 72
15
 73
11
 74
0
 42
0.0000001
 43
0.0000001
 44
0.0000000001
 40
0.0
 40
0.0
 40
0.0
 40
0.0
 40
0.1141552314
 40
0.2373201618
 40
0.366969896
 40
0.4999939478
 40
0.6330188419
 40
0.7626710351
 40
0.8858398382
 40
1.0
 40
1.0
 40
1.0
 40
1.0
 10
8.4397214178
 20
-20.4012069204
 30
0.0
 10
8.4397214179
 20
-20.5070075302
 30
0.0
 10
8.459098575
 20
-20.7271648779
 30
0.0
 10
8.5363582094
 20
-21.0592975194
 30
0.0
 10
8.6601081844
 20
-21.3957251448
 30
0.0
 10
8.8257420317
 20
-21.7237994171
 30
0.0
 10
9.0270471159
 20
-22.0312814954
 30
0.0
 10
9.2565305353
 20
-22.3066715718
 30
0.0
 10
9.5055415851
 20
-22.5396559228
 30
0.0
 10
9.6865190068
 20
-22.6665237548
 30
0.0
 10
9.7781475038
 20
-22.7194289011
 30
0.0
  0
SPLINE
  5
4C2
100
AcDbEntity
  8
SMUSSO
100
AcDbSpline
 62
7
  6
CONTINUOUS
 70
0
 71
3
 72
15
 73
11
 74
0
 42
0.0000001
 43
0.0000001
 44
0.0000000001
 40
0.0
 40
0.0
 40
0.0
 40
0.0
 40
0.1141552314
 40
0.2373201618
 40
0.366969896
 40
0.4999939478
 40
0.6330188419
 40
0.7626710351
 40
0.8858398382
 40
1.0
 40
1.0
 40
1.0
 40
1.0
 10
-7.4701811589
 20
-11.2150285705
 30
0.0
 10
-7.4701811588
 20
-11.3208291803
 30
0.0
 10
-7.4508040017
 20
-11.540986528
 30
0.0
 10
-7.3735443673
 20
-11.8731191695
 30
0.0
 10
-7.2497943923
 20
-12.2095467949
 30
0.0
 10
-7.084160545
 20
-12.5376210672
 30
0.0
 10
-6.8828554608
 20
-12.8451031455
 30
0.0
 10
-6.6533720414
 20
-13.1204932219
 30
0.0
 10
-6.4043609916
 20
-13.3534775729
 30
0.0
 10
-6.2233835699
 20
-13.480345405
 30
0.0
 10
-6.1317550729
 20
-13.5332505512
 30
0.0
  0
SPLINE
  5
4C3
100
AcDbEntity
  8
SMUSSO
100
AcDbSpline
 62
7
  6
CONTINUOUS
 70
0
 71
3
 72
15
 73
11
 74
0
 42
0.0000001
 43
0.0000001
 44
0.0000000001
 40
0.0
 40
0.0
 40
0.0
 40
0.0
 40
0.1141552314
 40
0.2373201618
 40
0.366969896
 40
0.4999939478
 40
0.6330188419
 40
0.7626710351
 40
0.8858398382
 40
1.0
 40
1.0
 40
1.0
 40
1.0
 10
-23.3800837356
 20
-2.0288502207
 30
0.0
 10
-23.3800837354
 20
-2.1346508304
 30
0.0
 10
-23.3607065784
 20
-2.3548081781
 30
0.0
 10
-23.2834469439
 20
-2.6869408197
 30
0.0
 10
-23.159696969
 20
-3.023368445
 30
0.0
 10
-22.9940631217
 20
-3.3514427173
 30
0.0
 10
-22.7927580375
 20
-3.6589247956
 30
0.0
 10
-22.5632746181
 20
-3.9343148721
 30
0.0
 10
-22.3142635682
 20
-4.167299223
 30
0.0
 10
-22.1332861466
 20
-4.2941670551
 30
0.0
 10
-22.0416576496
 20
-4.3470722014
 30
0.0
  0
SPLINE
  5
4C4
100
AcDbEntity
  8
SMUSSO
100
AcDbSpline
 62
7
  6
CONTINUOUS
 70
0
 71
3
 72
15
 73
11
 74
0
 42
0.0000001
 43
0.0000001
 44
0.0000000001
 40
0.0
 40
0.0
 40
0.0
 40
0.0
 40
0.1141552314
 40
0.2373201618
 40
0.366969896
 40
0.4999939478
 40
0.6330188419
 40
0.7626710351
 40
0.8858398382
 40
1.0
 40
1.0
 40
1.0
 40
1.0
 10
-39.2899863123
 20
7.1573281292
 30
0.0
 10
-39.2899863121
 20
7.0515275195
 30
0.0
 10
-39.2706091551
 20
6.8313701718
 30
0.0
 10
-39.1933495206
 20
6.4992375302
 30
0.0
 10
-39.0695995457
 20
6.1628099048
 30
0.0
 10
-38.9039656984
 20
5.8347356325
 30
0.0
 10
-38.7026606142
 20
5.5272535543
 30
0.0
 10
-38.4731771948
 20
5.2518634778
 30
0.0
 10
-38.2241661449
 20
5.0188791269
 30
0.0
 10
-38.0431887233
 20
4.8920112948
 30
0.0
 10
-37.9515602263
 20
4.8391061485
 30
0.0
  0
SPLINE
  5
4C5
100
AcDbEntity
  8
SMUSSO
100
AcDbSpline
 62
7
  6
CONTINUOUS
 70
0
 71
3
 72
11
 73
7
 74
0
 42
0.0000001
 43
0.0000001
 44
0.0000000001
 40
0.0
 40
0.0
 40
0.0
 40
0.0
 40
0.2898085393
 40
0.5490451086
 40
0.7822281636
 40
1.0
 40
1.0
 40
1.0
 40
1.0
 10
-28.6177507146
 20
16.5897848626
 30
0.0
 10
-28.6177507147
 20
16.5289670842
 30
0.0
 10
-28.6269325517
 20
16.4133485613
 30
0.0
 10
-28.673811681
 20
16.2545099054
 30
0.0
 10
-28.7525979941
 20
16.1256003048
 30
0.0
 10
-28.8266743026
 20
16.0633547816
 30
0.0
 10
-28.866251474
 20
16.0405034248
 30
0.0
  0
SPLINE
  5
4C6
100
AcDbEntity
  8
SMUSSO
100
AcDbSpline
 62
7
  6
CONTINUOUS
 70
0
 71
3
 72
11
 73
7
 74
0
 42
0.0000001
 43
0.0000001
 44
0.0000000001
 40
0.0
 40
0.0
 40
0.0
 40
0.0
 40
0.2898085393
 40
0.5490451086
 40
0.7822281636
 40
1.0
 40
1.0
 40
1.0
 40
1.0
 10
-12.7078481379
 20
7.4036065127
 30
0.0
 10
-12.707848138
 20
7.3427887343
 30
0.0
 10
-12.717029975
 20
7.2271702114
 30
0.0
 10
-12.7639091043
 20
7.0683315555
 30
0.0
 10
-12.8426954174
 20
6.9394219549
 30
0.0
 10
-12.9167717259
 20
6.8771764317
 30
0.0
 10
-12.9563488973
 20
6.8543250749
 30
0.0
  0
SPLINE
  5
4C7
100
AcDbEntity
  8
SMUSSO
100
AcDbSpline
 62
7
  6
CONTINUOUS
 70
0
 71
3
 72
11
 73
7
 74
0
 42
0.0000001
 43
0.0000001
 44
0.0000000001
 40
0.0
 40
0.0
 40
0.0
 40
0.0
 40
0.2898085393
 40
0.5490451086
 40
0.7822281636
 40
1.0
 40
1.0
 40
1.0
 40
1.0
 10
3.2020544388
 20
-1.7825718372
 30
0.0
 10
3.2020544387
 20
-1.8433896156
 30
0.0
 10
3.1928726017
 20
-1.9590081385
 30
0.0
 10
3.1459934724
 20
-2.1178467944
 30
0.0
 10
3.0672071593
 20
-2.2467563949
 30
0.0
 10
2.9931308508
 20
-2.3090019182
 30
0.0
 10
2.9535536794
 20
-2.331853275
 30
0.0
  0
SPLINE
  5
4C8
100
AcDbEntity
  8
SMUSSO
100
AcDbSpline
 62
7
  6
CONTINUOUS
 70
0
 71
3
 72
11
 73
7
 74
0
 42
0.0000001
 43
0.0000001
 44
0.0000000001
 40
0.0
 40
0.0
 40
0.0
 40
0.0
 40
0.2898085393
 40
0.5490451086
 40
0.7822281636
 40
1.0
 40
1.0
 40
1.0
 40
1.0
 10
19.1119570155
 20
-10.968750187
 30
0.0
 10
19.1119570154
 20
-11.0295679654
 30
0.0
 10
19.1027751784
 20
-11.1451864884
 30
0.0
 10
19.0558960491
 20
-11.3040251442
 30
0.0
 10
18.977109736
 20
-11.4329347448
 30
0.0
 10
18.9030334275
 20
-11.495180268
 30
0.0
 10
18.8634562561
 20
-11.5180316248
 30
0.0
  0
SPLINE
  5
4C9
100
AcDbEntity
  8
SMUSSO
100
AcDbSpline
 62
7
  6
CONTINUOUS
 70
0
 71
3
 72
11
 73
7
 74
0
 42
0.0000001
 43
0.0000001
 44
0.0000000001
 40
0.0
 40
0.0
 40
0.0
 40
0.0
 40
0.2898085351
 40
0.5490451078
 40
0.7822281625
 40
1.0
 40
1.0
 40
1.0
 40
1.0
 10
35.0218595922
 20
-36.8925692112
 30
0.0
 10
35.021859592
 20
-36.9533869887
 30
0.0
 10
35.0126777551
 20
-37.0690055114
 30
0.0
 10
34.9657986267
 20
-37.2278441674
 30
0.0
 10
34.8870123127
 20
-37.3567537684
 30
0.0
 10
34.8129360044
 20
-37.4189992921
 30
0.0
 10
34.7733588328
 20
-37.441850649
 30
0.0
  0
SPLINE
  5
4CA
100
AcDbEntity
  8
SMUSSO
100
AcDbSpline
 62
7
  6
CONTINUOUS
 70
0
 71
3
 72
11
 73
7
 74
0
 42
0.0000001
 43
0.0000001
 44
0.0000000001
 40
0.0
 40
0.0
 40
0.0
 40
0.0
 40
0.2898085351
 40
0.5490451078
 40
0.7822281625
 40
1.0
 40
1.0
 40
1.0
 40
1.0
 10
19.1119570155
 20
-27.7063908613
 30
0.0
 10
19.1119570153
 20
-27.7672086388
 30
0.0
 10
19.1027751784
 20
-27.8828271615
 30
0.0
 10
19.05589605
 20
-28.0416658175
 30
0.0
 10
18.977109736
 20
-28.1705754186
 30
0.0
 10
18.9030334277
 20
-28.2328209422
 30
0.0
 10
18.8634562561
 20
-28.2556722991
 30
0.0
  0
SPLINE
  5
4CB
100
AcDbEntity
  8
SMUSSO
100
AcDbSpline
 62
7
  6
CONTINUOUS
 70
0
 71
3
 72
11
 73
7
 74
0
 42
0.0000001
 43
0.0000001
 44
0.0000000001
 40
0.0
 40
0.0
 40
0.0
 40
0.0
 40
0.2898085393
 40
0.5490451086
 40
0.7822281636
 40
1.0
 40
1.0
 40
1.0
 40
1.0
 10
35.0218595922
 20
-20.1549285369
 30
0.0
 10
35.0218595921
 20
-20.2157463153
 30
0.0
 10
35.0126777551
 20
-20.3313648382
 30
0.0
 10
34.9657986258
 20
-20.4902034941
 30
0.0
 10
34.8870123127
 20
-20.6191130947
 30
0.0
 10
34.8129360042
 20
-20.6813586179
 30
0.0
 10
34.7733588328
 20
-20.7042099747
 30
0.0
  0
SPLINE
  5
4CC
100
AcDbEntity
  8
SMUSSO
100
AcDbSpline
 62
7
  6
CONTINUOUS
 70
0
 71
3
 72
11
 73
7
 74
0
 42
0.0000001
 43
0.0000001
 44
0.0000000001
 40
0.0
 40
0.0
 40
0.0
 40
0.0
 40
0.2898085351
 40
0.5490451078
 40
0.7822281625
 40
1.0
 40
1.0
 40
1.0
 40
1.0
 10
3.2020544388
 20
-18.5202125114
 30
0.0
 10
3.2020544386
 20
-18.5810302889
 30
0.0
 10
3.1928726017
 20
-18.6966488116
 30
0.0
 10
3.1459934733
 20
-18.8554874676
 30
0.0
 10
3.0672071593
 20
-18.9843970687
 30
0.0
 10
2.993130851
 20
-19.0466425923
 30
0.0
 10
2.9535536794
 20
-19.0694939492
 30
0.0
  0
SPLINE
  5
4CD
100
AcDbEntity
  8
SMUSSO
100
AcDbSpline
 62
7
  6
CONTINUOUS
 70
0
 71
3
 72
11
 73
7
 74
0
 42
0.0000001
 43
0.0000001
 44
0.0000000001
 40
0.0
 40
0.0
 40
0.0
 40
0.0
 40
0.2898085351
 40
0.5490451078
 40
0.7822281625
 40
1.0
 40
1.0
 40
1.0
 40
1.0
 10
-12.7078481379
 20
-9.3340341615
 30
0.0
 10
-12.7078481381
 20
-9.3948519391
 30
0.0
 10
-12.717029975
 20
-9.5104704617
 30
0.0
 10
-12.7639091034
 20
-9.6693091177
 30
0.0
 10
-12.8426954174
 20
-9.7982187188
 30
0.0
 10
-12.9167717257
 20
-9.8604642424
 30
0.0
 10
-12.9563488973
 20
-9.8833155993
 30
0.0
  0
SPLINE
  5
4CE
100
AcDbEntity
  8
SMUSSO
100
AcDbSpline
 62
7
  6
CONTINUOUS
 70
0
 71
3
 72
11
 73
7
 74
0
 42
0.0000001
 43
0.0000001
 44
0.0000000001
 40
0.0
 40
0.0
 40
0.0
 40
0.0
 40
0.2898085351
 40
0.5490451078
 40
0.7822281625
 40
1.0
 40
1.0
 40
1.0
 40
1.0
 10
-28.6177507146
 20
-0.1478558117
 30
0.0
 10
-28.6177507148
 20
-0.2086735892
 30
0.0
 10
-28.6269325517
 20
-0.3242921119
 30
0.0
 10
-28.6738116801
 20
-0.4831307679
 30
0.0
 10
-28.7525979941
 20
-0.6120403689
 30
0.0
 10
-28.8266743024
 20
-0.6742858926
 30
0.0
 10
-28.866251474
 20
-0.6971372495
 30
0.0
  0
SPLINE
  5
4CF
100
AcDbEntity
  8
SMUSSO
100
AcDbSpline
 62
7
  6
CONTINUOUS
 70
0
 71
3
 72
15
 73
11
 74
0
 42
0.0000001
 43
0.0000001
 44
0.0000000001
 40
0.0
 40
0.0
 40
0.0
 40
0.0
 40
0.1449018481
 40
0.2745170406
 40
0.3911053286
 40
0.4999889043
 40
0.6088744936
 40
0.7254681391
 40
0.8550905429
 40
1.0
 40
1.0
 40
1.0
 40
1.0
 10
-8.6773394852
 20
-1.1287722278
 30
0.0
 10
-8.677339485
 20
-1.0426087072
 30
0.0
 10
-8.6643190279
 20
-0.8788001737
 30
0.0
 10
-8.5979442329
 20
-0.653794123
 30
0.0
 10
-8.4861732544
 20
-0.4710846498
 30
0.0
 10
-8.3310237857
 20
-0.3406053095
 30
0.0
 10
-8.1404399681
 20
-0.2715024249
 30
0.0
 10
-7.9263148002
 20
-0.2660794489
 30
0.0
 10
-7.698258374
 20
-0.3211163104
 30
0.0
 10
-7.5498804713
 20
-0.3917534615
 30
0.0
 10
-7.4752579572
 20
-0.4348395659
 30
0.0
  0
SPLINE
  5
4D0
100
AcDbEntity
  8
SMUSSO
100
AcDbSpline
 62
7
  6
CONTINUOUS
 70
0
 71
3
 72
15
 73
11
 74
0
 42
0.0000001
 43
0.0000001
 44
0.0000000001
 40
0.0
 40
0.0
 40
0.0
 40
0.0
 40
0.1449018469
 40
0.2745170393
 40
0.3911053272
 40
0.4999889023
 40
0.6088744922
 40
0.7254681378
 40
0.8550905417
 40
1.0
 40
1.0
 40
1.0
 40
1.0
 10
-40.4971446386
 20
33.9812251462
 30
0.0
 10
-40.4971446385
 20
34.067388666
 30
0.0
 10
-40.4841241814
 20
34.2311971988
 30
0.0
 10
-40.4177493871
 20
34.4562032488
 30
0.0
 10
-40.3059784097
 20
34.638912722
 30
0.0
 10
-40.1508289416
 20
34.7693920631
 30
0.0
 10
-39.9602451243
 20
34.8384949486
 30
0.0
 10
-39.746119956
 20
34.8439179256
 30
0.0
 10
-39.5180635288
 20
34.7888810643
 30
0.0
 10
-39.3696856254
 20
34.7182439127
 30
0.0
 10
-39.2950631105
 20
34.6751578081
 30
0.0
  0
SPLINE
  5
4D1
100
AcDbEntity
  8
SMUSSO
100
AcDbSpline
 62
7
  6
CONTINUOUS
 70
0
 71
3
 72
13
 73
9
 74
0
 42
0.0000001
 43
0.0000001
 44
0.0000000001
 40
0.0
 40
0.0
 40
0.0
 40
0.0
 40
0.1142615855
 40
0.2375404653
 40
0.5000060639
 40
0.7624683436
 40
0.8857433475
 40
1.0
 40
1.0
 40
1.0
 40
1.0
 10
-39.2950631105
 20
20.958457158
 30
0.0
 10
-39.3773570964
 20
21.005972674
 30
0.0
 10
-39.5399188473
 20
21.1199135487
 30
0.0
 10
-39.8442236369
 20
21.4047751921
 30
0.0
 10
-40.1657027849
 20
21.8438525015
 30
0.0
 10
-40.3852149382
 20
22.3417973026
 30
0.0
 10
-40.4797542232
 20
22.7477548932
 30
0.0
 10
-40.4971446384
 20
22.9455010993
 30
0.0
 10
-40.4971446386
 20
23.0405234372
 30
0.0
  0
SPLINE
  5
4D2
100
AcDbEntity
  8
SMUSSO
100
AcDbSpline
 62
7
  6
CONTINUOUS
 70
0
 71
3
 72
15
 73
11
 74
0
 42
0.0000001
 43
0.0000001
 44
0.0000000001
 40
0.0
 40
0.0
 40
0.0
 40
0.0
 40
0.1449018469
 40
0.2745170393
 40
0.3911053272
 40
0.4999889023
 40
0.6088744922
 40
0.7254681378
 40
0.8550905417
 40
1.0
 40
1.0
 40
1.0
 40
1.0
 10
-28.6177507146
 20
16.1815102693
 30
0.0
 10
-28.6177507147
 20
16.0953467494
 30
0.0
 10
-28.6307711718
 20
15.9315382166
 30
0.0
 10
-28.6971459661
 20
15.7065321667
 30
0.0
 10
-28.8089169435
 20
15.5238226934
 30
0.0
 10
-28.9640664116
 20
15.3933433524
 30
0.0
 10
-29.1546502289
 20
15.3242404669
 30
0.0
 10
-29.3687753972
 20
15.3188174898
 30
0.0
 10
-29.5968318244
 20
15.3738543512
 30
0.0
 10
-29.7452097278
 20
15.4444915028
 30
0.0
 10
-29.8198322426
 20
15.4875776074
 30
0.0
  0
SPLINE
  5
4D3
100
AcDbEntity
  8
SMUSSO
100
AcDbSpline
 62
7
  6
CONTINUOUS
 70
0
 71
3
 72
13
 73
9
 74
0
 42
0.0000001
 43
0.0000001
 44
0.0000000001
 40
0.0
 40
0.0
 40
0.0
 40
0.0
 40
0.1142615865
 40
0.2375404667
 40
0.5000060664
 40
0.7624683449
 40
0.8857433485
 40
1.0
 40
1.0
 40
1.0
 40
1.0
 10
-7.4752579572
 20
-14.151540216
 30
0.0
 10
-7.5575519437
 20
-14.1040246994
 30
0.0
 10
-7.7201136955
 20
-13.9900838242
 30
0.0
 10
-8.0244184862
 20
-13.7052221789
 30
0.0
 10
-8.3458976337
 20
-13.2661448687
 30
0.0
 10
-8.565409786
 20
-12.7682000675
 30
0.0
 10
-8.6599490699
 20
-12.3622424789
 30
0.0
 10
-8.6773394851
 20
-12.1644962738
 30
0.0
 10
-8.6773394852
 20
-12.0694739368
 30
0.0
  0
SPLINE
  5
4D4
100
AcDbEntity
  8
SMUSSO
100
AcDbSpline
 62
7
  6
CONTINUOUS
 70
0
 71
3
 72
15
 73
11
 74
0
 42
0.0000001
 43
0.0000001
 44
0.0000000001
 40
0.0
 40
0.0
 40
0.0
 40
0.0
 40
0.1449018481
 40
0.2745170406
 40
0.3911053286
 40
0.4999889043
 40
0.6088744936
 40
0.7254681391
 40
0.8550905429
 40
1.0
 40
1.0
 40
1.0
 40
1.0
 10
3.2020544388
 20
-18.9284871047
 30
0.0
 10
3.2020544386
 20
-19.0146506253
 30
0.0
 10
3.1890339815
 20
-19.1784591589
 30
0.0
 10
3.1226591865
 20
-19.4034652096
 30
0.0
 10
3.010888208
 20
-19.5861746827
 30
0.0
 10
2.8557387393
 20
-19.7166540231
 30
0.0
 10
2.6651549217
 20
-19.7857569077
 30
0.0
 10
2.4510297538
 20
-19.7911798837
 30
0.0
 10
2.2229733276
 20
-19.7361430222
 30
0.0
 10
2.0745954249
 20
-19.665505871
 30
0.0
 10
1.9999729107
 20
-19.6224197666
 30
0.0
  0
SPLINE
  5
4D5
100
AcDbEntity
  8
SMUSSO
100
AcDbSpline
 62
7
  6
CONTINUOUS
 70
0
 71
3
 72
9
 73
5
 74
0
 42
0.0000001
 43
0.0000001
 44
0.0000000001
 40
0.0
 40
0.0
 40
0.0
 40
0.0
 40
0.2314216155
 40
1.0
 40
1.0
 40
1.0
 40
1.0
 10
-23.6828648514
 20
8.4563913499
 30
0.0
 10
-23.6923075701
 20
8.4333009596
 30
0.0
 10
-23.7270276193
 20
8.3310315245
 30
0.0
 10
-23.7387139239
 20
8.2219115122
 30
0.0
 10
-23.7387139244
 20
8.1390610407
 30
0.0
  0
SPLINE
  5
4D6
100
AcDbEntity
  8
SMUSSO
100
AcDbSpline
 62
7
  6
CONTINUOUS
 70
0
 71
3
 72
9
 73
5
 74
0
 42
0.0000001
 43
0.0000001
 44
0.0000000001
 40
0.0
 40
0.0
 40
0.0
 40
0.0
 40
0.2314216155
 40
1.0
 40
1.0
 40
1.0
 40
1.0
 10
-7.7729622747
 20
-0.729787
 30
0.0
 10
-7.7824049934
 20
-0.7528773903
 30
0.0
 10
-7.8171250426
 20
-0.8551468254
 30
0.0
 10
-7.8288113472
 20
-0.9642668376
 30
0.0
 10
-7.8288113477
 20
-1.0471173091
 30
0.0
  0
SPLINE
  5
4D7
100
AcDbEntity
  8
SMUSSO
100
AcDbSpline
 62
7
  6
CONTINUOUS
 70
0
 71
3
 72
15
 73
11
 74
0
 42
0.0000001
 43
0.0000001
 44
0.0000000001
 40
0.0
 40
0.0
 40
0.0
 40
0.0
 40
0.1449018481
 40
0.2745170406
 40
0.3911053286
 40
0.4999889043
 40
0.6088744936
 40
0.7254681391
 40
0.8550905429
 40
1.0
 40
1.0
 40
1.0
 40
1.0
 10
-24.5872420619
 20
8.0574061221
 30
0.0
 10
-24.5872420617
 20
8.1435696426
 30
0.0
 10
-24.5742216046
 20
8.3073781762
 30
0.0
 10
-24.5078468096
 20
8.5323842269
 30
0.0
 10
-24.3960758311
 20
8.7150937001
 30
0.0
 10
-24.2409263624
 20
8.8455730404
 30
0.0
 10
-24.0503425448
 20
8.914675925
 30
0.0
 10
-23.8362173769
 20
8.920098901
 30
0.0
 10
-23.6081609507
 20
8.8650620395
 30
0.0
 10
-23.459783048
 20
8.7944248883
 30
0.0
 10
-23.3851605339
 20
8.751338784
 30
0.0
  0
SPLINE
  5
4D8
100
AcDbEntity
  8
SMUSSO
100
AcDbSpline
 62
7
  6
CONTINUOUS
 70
0
 71
3
 72
9
 73
5
 74
0
 42
0.0000001
 43
0.0000001
 44
0.0000000001
 40
0.0
 40
0.0
 40
0.0
 40
0.0
 40
0.2314216155
 40
1.0
 40
1.0
 40
1.0
 40
1.0
 10
8.136940302
 20
-9.9159653499
 30
0.0
 10
8.1274975833
 20
-9.9390557402
 30
0.0
 10
8.0927775341
 20
-10.0413251752
 30
0.0
 10
8.0810912295
 20
-10.1504451875
 30
0.0
 10
8.081091229
 20
-10.233295659
 30
0.0
  0
SPLINE
  5
4D9
100
AcDbEntity
  8
SMUSSO
100
AcDbSpline
 62
7
  6
CONTINUOUS
 70
0
 71
3
 72
13
 73
9
 74
0
 42
0.0000001
 43
0.0000001
 44
0.0000000001
 40
0.0
 40
0.0
 40
0.0
 40
0.0
 40
0.1142615865
 40
0.2375404667
 40
0.5000060664
 40
0.7624683449
 40
0.8857433485
 40
1.0
 40
1.0
 40
1.0
 40
1.0
 10
-23.3851605339
 20
-4.9653618662
 30
0.0
 10
-23.4674545204
 20
-4.9178463495
 30
0.0
 10
-23.6300162722
 20
-4.8039054743
 30
0.0
 10
-23.9343210629
 20
-4.519043829
 30
0.0
 10
-24.2558002104
 20
-4.0799665188
 30
0.0
 10
-24.4753123627
 20
-3.5820217176
 30
0.0
 10
-24.5698516466
 20
-3.176064129
 30
0.0
 10
-24.5872420618
 20
-2.9783179239
 30
0.0
 10
-24.5872420619
 20
-2.883295587
 30
0.0
  0
SPLINE
  5
4DA
100
AcDbEntity
  8
SMUSSO
100
AcDbSpline
 62
7
  6
CONTINUOUS
 70
0
 71
3
 72
9
 73
5
 74
0
 42
0.0000001
 43
0.0000001
 44
0.0000000001
 40
0.0
 40
0.0
 40
0.0
 40
0.0
 40
0.2314216155
 40
1.0
 40
1.0
 40
1.0
 40
1.0
 10
24.0468428787
 20
-19.1021436997
 30
0.0
 10
24.03740016
 20
-19.12523409
 30
0.0
 10
24.0026801108
 20
-19.2275035251
 30
0.0
 10
23.9909938062
 20
-19.3366235374
 30
0.0
 10
23.9909938056
 20
-19.4194740089
 30
0.0
  0
SPLINE
  5
4DB
100
AcDbEntity
  8
SMUSSO
100
AcDbSpline
 62
7
  6
CONTINUOUS
 70
0
 71
3
 72
15
 73
11
 74
0
 42
0.0000001
 43
0.0000001
 44
0.0000000001
 40
0.0
 40
0.0
 40
0.0
 40
0.0
 40
0.1449018481
 40
0.2745170406
 40
0.3911053286
 40
0.4999889043
 40
0.6088744936
 40
0.7254681391
 40
0.8550905429
 40
1.0
 40
1.0
 40
1.0
 40
1.0
 10
-12.7078481379
 20
-9.7423087549
 30
0.0
 10
-12.7078481381
 20
-9.8284722754
 30
0.0
 10
-12.7208685952
 20
-9.992280809
 30
0.0
 10
-12.7872433902
 20
-10.2172868597
 30
0.0
 10
-12.8990143687
 20
-10.3999963329
 30
0.0
 10
-13.0541638374
 20
-10.5304756732
 30
0.0
 10
-13.244747655
 20
-10.5995785578
 30
0.0
 10
-13.4588728229
 20
-10.6050015338
 30
0.0
 10
-13.6869292491
 20
-10.5499646723
 30
0.0
 10
-13.8353071518
 20
-10.4793275211
 30
0.0
 10
-13.909929666
 20
-10.4362414168
 30
0.0
  0
SPLINE
  5
4DC
100
AcDbEntity
  8
SMUSSO
100
AcDbSpline
 62
7
  6
CONTINUOUS
 70
0
 71
3
 72
9
 73
5
 74
0
 42
0.0000001
 43
0.0000001
 44
0.0000000001
 40
0.0
 40
0.0
 40
0.0
 40
0.0
 40
0.2314216125
 40
1.0
 40
1.0
 40
1.0
 40
1.0
 10
24.0468428787
 20
-2.3645030255
 30
0.0
 10
24.03740016
 20
-2.3875934155
 30
0.0
 10
24.0026801106
 20
-2.4898628505
 30
0.0
 10
23.9909938058
 20
-2.5989828628
 30
0.0
 10
23.9909938056
 20
-2.6818333346
 30
0.0
  0
SPLINE
  5
4DD
100
AcDbEntity
  8
SMUSSO
100
AcDbSpline
 62
7
  6
CONTINUOUS
 70
0
 71
3
 72
15
 73
11
 74
0
 42
0.0000001
 43
0.0000001
 44
0.0000000001
 40
0.0
 40
0.0
 40
0.0
 40
0.0
 40
0.1449018481
 40
0.2745170406
 40
0.3911053286
 40
0.4999889043
 40
0.6088744936
 40
0.7254681391
 40
0.8550905429
 40
1.0
 40
1.0
 40
1.0
 40
1.0
 10
23.1424656682
 20
-19.5011289276
 30
0.0
 10
23.1424656684
 20
-19.414965407
 30
0.0
 10
23.1554861255
 20
-19.2511568734
 30
0.0
 10
23.2218609205
 20
-19.0261508227
 30
0.0
 10
23.333631899
 20
-18.8434413496
 30
0.0
 10
23.4887813677
 20
-18.7129620092
 30
0.0
 10
23.6793651852
 20
-18.6438591246
 30
0.0
 10
23.8934903532
 20
-18.6384361486
 30
0.0
 10
24.1215467794
 20
-18.6934730101
 30
0.0
 10
24.2699246821
 20
-18.7641101613
 30
0.0
 10
24.3445471962
 20
-18.8071962657
 30
0.0
  0
SPLINE
  5
4DE
100
AcDbEntity
  8
SMUSSO
100
AcDbSpline
 62
7
  6
CONTINUOUS
 70
0
 71
3
 72
9
 73
5
 74
0
 42
0.0000001
 43
0.0000001
 44
0.0000000001
 40
0.0
 40
0.0
 40
0.0
 40
0.0
 40
0.2314216125
 40
1.0
 40
1.0
 40
1.0
 40
1.0
 10
8.136940302
 20
6.8216753244
 30
0.0
 10
8.1274975833
 20
6.7985849344
 30
0.0
 10
8.0927775339
 20
6.6963154994
 30
0.0
 10
8.0810912291
 20
6.5871954871
 30
0.0
 10
8.081091229
 20
6.5043450152
 30
0.0
  0
SPLINE
  5
4DF
100
AcDbEntity
  8
SMUSSO
100
AcDbSpline
 62
7
  6
CONTINUOUS
 70
0
 71
3
 72
13
 73
9
 74
0
 42
0.0000001
 43
0.0000001
 44
0.0000000001
 40
0.0
 40
0.0
 40
0.0
 40
0.0
 40
0.1142615865
 40
0.2375404667
 40
0.5000060664
 40
0.7624683449
 40
0.8857433485
 40
1.0
 40
1.0
 40
1.0
 40
1.0
 10
24.3445471962
 20
-32.5238969158
 30
0.0
 10
24.2622532097
 20
-32.4763813991
 30
0.0
 10
24.0996914579
 20
-32.362440524
 30
0.0
 10
23.7953866672
 20
-32.0775788786
 30
0.0
 10
23.4739075197
 20
-31.6385015685
 30
0.0
 10
23.2543953674
 20
-31.1405567673
 30
0.0
 10
23.1598560835
 20
-30.7345991786
 30
0.0
 10
23.1424656683
 20
-30.5368529736
 30
0.0
 10
23.1424656682
 20
-30.4418306366
 30
0.0
  0
SPLINE
  5
4E0
100
AcDbEntity
  8
SMUSSO
100
AcDbSpline
 62
7
  6
CONTINUOUS
 70
0
 71
3
 72
15
 73
11
 74
0
 42
0.0000001
 43
0.0000001
 44
0.0000000001
 40
0.0
 40
0.0
 40
0.0
 40
0.0
 40
0.1449018481
 40
0.2745170406
 40
0.3911053286
 40
0.4999889043
 40
0.6088744936
 40
0.7254681391
 40
0.8550905429
 40
1.0
 40
1.0
 40
1.0
 40
1.0
 10
-40.4971446386
 20
17.2435844719
 30
0.0
 10
-40.4971446384
 20
17.3297479925
 30
0.0
 10
-40.4841241813
 20
17.4935565261
 30
0.0
 10
-40.4177493863
 20
17.7185625767
 30
0.0
 10
-40.3059784078
 20
17.9012720499
 30
0.0
 10
-40.1508289391
 20
18.0317513903
 30
0.0
 10
-39.9602451215
 20
18.1008542749
 30
0.0
 10
-39.7461199536
 20
18.1062772509
 30
0.0
 10
-39.5180635274
 20
18.0512403894
 30
0.0
 10
-39.3696856247
 20
17.9806032382
 30
0.0
 10
-39.2950631105
 20
17.9375171338
 30
0.0
  0
SPLINE
  5
4E1
100
AcDbEntity
  8
SMUSSO
100
AcDbSpline
 62
7
  6
CONTINUOUS
 70
0
 71
3
 72
9
 73
5
 74
0
 42
0.0000001
 43
0.0000001
 44
0.0000000001
 40
0.0
 40
0.0
 40
0.0
 40
0.0
 40
0.2314216125
 40
1.0
 40
1.0
 40
1.0
 40
1.0
 10
-7.7729622747
 20
16.0078536743
 30
0.0
 10
-7.7824049934
 20
15.9847632843
 30
0.0
 10
-7.8171250428
 20
15.8824938493
 30
0.0
 10
-7.8288113476
 20
15.7733738369
 30
0.0
 10
-7.8288113477
 20
15.6905233651
 30
0.0
  0
SPLINE
  5
4E2
100
AcDbEntity
  8
SMUSSO
100
AcDbSpline
 62
7
  6
CONTINUOUS
 70
0
 71
3
 72
13
 73
9
 74
0
 42
0.0000001
 43
0.0000001
 44
0.0000000001
 40
0.0
 40
0.0
 40
0.0
 40
0.0
 40
0.1142615865
 40
0.2375404667
 40
0.5000060664
 40
0.7624683449
 40
0.8857433485
 40
1.0
 40
1.0
 40
1.0
 40
1.0
 10
-39.2950631105
 20
4.2208164837
 30
0.0
 10
-39.3773570971
 20
4.2683320004
 30
0.0
 10
-39.5399188489
 20
4.3822728755
 30
0.0
 10
-39.8442236396
 20
4.6671345209
 30
0.0
 10
-40.1657027871
 20
5.106211831
 30
0.0
 10
-40.3852149394
 20
5.6041566322
 30
0.0
 10
-40.4797542233
 20
6.0101142209
 30
0.0
 10
-40.4971446385
 20
6.2078604259
 30
0.0
 10
-40.4971446386
 20
6.3028827629
 30
0.0
  0
SPLINE
  5
4E3
100
AcDbEntity
  8
SMUSSO
100
AcDbSpline
 62
7
  6
CONTINUOUS
 70
0
 71
3
 72
9
 73
5
 74
0
 42
0.0000001
 43
0.0000001
 44
0.0000000001
 40
0.0
 40
0.0
 40
0.0
 40
0.0
 40
0.2314216125
 40
1.0
 40
1.0
 40
1.0
 40
1.0
 10
-23.6828648514
 20
25.1940320241
 30
0.0
 10
-23.6923075701
 20
25.1709416342
 30
0.0
 10
-23.7270276195
 20
25.0686721992
 30
0.0
 10
-23.7387139243
 20
24.9595521868
 30
0.0
 10
-23.7387139244
 20
24.876701715
 30
0.0
  0
SPLINE
  5
4E4
100
AcDbEntity
  8
SMUSSO
100
AcDbSpline
 62
7
  6
CONTINUOUS
 70
0
 71
3
 72
15
 73
11
 74
0
 42
0.0000001
 43
0.0000001
 44
0.0000000001
 40
0.0
 40
0.0
 40
0.0
 40
0.0
 40
0.1449018481
 40
0.2745170406
 40
0.3911053286
 40
0.4999889043
 40
0.6088744936
 40
0.7254681391
 40
0.8550905429
 40
1.0
 40
1.0
 40
1.0
 40
1.0
 10
-28.6177507146
 20
-0.556130405
 30
0.0
 10
-28.6177507148
 20
-0.6422939256
 30
0.0
 10
-28.6307711719
 20
-0.8061024591
 30
0.0
 10
-28.6971459669
 20
-1.0311085098
 30
0.0
 10
-28.8089169454
 20
-1.213817983
 30
0.0
 10
-28.9640664141
 20
-1.3442973233
 30
0.0
 10
-29.1546502317
 20
-1.413400208
 30
0.0
 10
-29.3687753996
 20
-1.4188231839
 30
0.0
 10
-29.5968318258
 20
-1.3637863224
 30
0.0
 10
-29.7452097285
 20
-1.2931491713
 30
0.0
 10
-29.8198322426
 20
-1.2500630669
 30
0.0
  0
SPLINE
  5
4E5
100
AcDbEntity
  8
SMUSSO
100
AcDbSpline
 62
7
  6
CONTINUOUS
 70
0
 71
3
 72
9
 73
5
 74
0
 42
0.0000001
 43
0.0000001
 44
0.0000000001
 40
0.0
 40
0.0
 40
0.0
 40
0.0
 40
0.2314216125
 40
1.0
 40
1.0
 40
1.0
 40
1.0
 10
-39.5927674281
 20
34.380210374
 30
0.0
 10
-39.6022101468
 20
34.357119984
 30
0.0
 10
-39.6369301962
 20
34.254850549
 30
0.0
 10
-39.648616501
 20
34.1457305367
 30
0.0
 10
-39.6486165011
 20
34.0628800649
 30
0.0
  0
SPLINE
  5
4E6
100
AcDbEntity
  8
SMUSSO
100
AcDbSpline
 62
7
  6
CONTINUOUS
 70
0
 71
3
 72
15
 73
11
 74
0
 42
0.0000001
 43
0.0000001
 44
0.0000000001
 40
0.0
 40
0.0
 40
0.0
 40
0.0
 40
0.1449018481
 40
0.2745170406
 40
0.3911053286
 40
0.4999889043
 40
0.6088744936
 40
0.7254681391
 40
0.8550905429
 40
1.0
 40
1.0
 40
1.0
 40
1.0
 10
35.0218595922
 20
-37.3008438045
 30
0.0
 10
35.021859592
 20
-37.3870073251
 30
0.0
 10
35.0088391349
 20
-37.5508158586
 30
0.0
 10
34.9424643399
 20
-37.7758219093
 30
0.0
 10
34.8306933614
 20
-37.9585313825
 30
0.0
 10
34.6755438926
 20
-38.0890107228
 30
0.0
 10
34.4849600751
 20
-38.1581136075
 30
0.0
 10
34.2708349072
 20
-38.1635365834
 30
0.0
 10
34.042778481
 20
-38.1084997219
 30
0.0
 10
33.8944005783
 20
-38.0378625708
 30
0.0
 10
33.8197780641
 20
-37.9947764664
 30
0.0
  0
SPLINE
  5
4E7
100
AcDbEntity
  8
SMUSSO
100
AcDbSpline
 62
7
  6
CONTINUOUS
 70
0
 71
3
 72
9
 73
5
 74
0
 42
0.0000001
 43
0.0000001
 44
0.0000000001
 40
0.0
 40
0.0
 40
0.0
 40
0.0
 40
0.2314216155
 40
1.0
 40
1.0
 40
1.0
 40
1.0
 10
-39.5927674281
 20
17.6425696998
 30
0.0
 10
-39.6022101468
 20
17.6194793095
 30
0.0
 10
-39.636930196
 20
17.5172098744
 30
0.0
 10
-39.6486165006
 20
17.4080898621
 30
0.0
 10
-39.6486165011
 20
17.3252393906
 30
0.0
  0
SPLINE
  5
4E8
100
AcDbEntity
  8
SMUSSO
100
AcDbSpline
 62
7
  6
CONTINUOUS
 70
0
 71
3
 72
11
 73
7
 74
0
 42
0.0000001
 43
0.0000001
 44
0.0000000001
 40
0.0
 40
0.0
 40
0.0
 40
0.0
 40
0.2177664942
 40
0.4509473065
 40
0.7101859235
 40
1.0
 40
1.0
 40
1.0
 40
1.0
 10
-28.866251474
 20
16.0405034248
 30
0.0
 10
-28.9058335919
 20
16.017649212
 30
0.0
 10
-28.9967893988
 20
15.9846124485
 30
0.0
 10
-29.1478433161
 20
15.9808361037
 30
0.0
 10
-29.3088657511
 20
16.0196660819
 30
0.0
 10
-29.413601078
 20
16.0695345558
 30
0.0
 10
-29.4662788521
 20
16.0999500424
 30
0.0
  0
SPLINE
  5
4E9
100
AcDbEntity
  8
SMUSSO
100
AcDbSpline
 62
7
  6
CONTINUOUS
 70
0
 71
3
 72
15
 73
11
 74
0
 42
0.0000001
 43
0.0000001
 44
0.0000000001
 40
0.0
 40
0.0
 40
0.0
 40
0.0
 40
0.1449018469
 40
0.2745170393
 40
0.3911053272
 40
0.4999889023
 40
0.6088744922
 40
0.7254681378
 40
0.8550905417
 40
1.0
 40
1.0
 40
1.0
 40
1.0
 10
23.1424656682
 20
-2.7634882533
 30
0.0
 10
23.1424656683
 20
-2.6773247334
 30
0.0
 10
23.1554861254
 20
-2.5135162007
 30
0.0
 10
23.2218609197
 20
-2.2885101507
 30
0.0
 10
23.3336318971
 20
-2.1058006774
 30
0.0
 10
23.4887813652
 20
-1.9753213364
 30
0.0
 10
23.6793651825
 20
-1.9062184509
 30
0.0
 10
23.8934903508
 20
-1.9007954739
 30
0.0
 10
24.121546778
 20
-1.9558323352
 30
0.0
 10
24.2699246814
 20
-2.0264694868
 30
0.0
 10
24.3445471962
 20
-2.0695555914
 30
0.0
  0
SPLINE
  5
4EA
100
AcDbEntity
  8
SMUSSO
100
AcDbSpline
 62
7
  6
CONTINUOUS
 70
0
 71
3
 72
11
 73
7
 74
0
 42
0.0000001
 43
0.0000001
 44
0.0000000001
 40
0.0
 40
0.0
 40
0.0
 40
0.0
 40
0.2177664942
 40
0.4509473065
 40
0.7101859235
 40
1.0
 40
1.0
 40
1.0
 40
1.0
 10
-12.9563488973
 20
6.8543250749
 30
0.0
 10
-12.9959310152
 20
6.8314708621
 30
0.0
 10
-13.0868868221
 20
6.7984340987
 30
0.0
 10
-13.2379407394
 20
6.7946577538
 30
0.0
 10
-13.3989631744
 20
6.833487732
 30
0.0
 10
-13.5036985013
 20
6.8833562059
 30
0.0
 10
-13.5563762754
 20
6.9137716926
 30
0.0
  0
SPLINE
  5
4EB
100
AcDbEntity
  8
SMUSSO
100
AcDbSpline
 62
7
  6
CONTINUOUS
 70
0
 71
3
 72
13
 73
9
 74
0
 42
0.0000001
 43
0.0000001
 44
0.0000000001
 40
0.0
 40
0.0
 40
0.0
 40
0.0
 40
0.1142615855
 40
0.2375404653
 40
0.5000060639
 40
0.7624683436
 40
0.8857433475
 40
1.0
 40
1.0
 40
1.0
 40
1.0
 10
24.3445471962
 20
-15.7862562415
 30
0.0
 10
24.2622532104
 20
-15.7387407255
 30
0.0
 10
24.0996914595
 20
-15.6247998508
 30
0.0
 10
23.7953866699
 20
-15.3399382074
 30
0.0
 10
23.4739075219
 20
-14.900860898
 30
0.0
 10
23.2543953686
 20
-14.4029160969
 30
0.0
 10
23.1598560836
 20
-13.9969585063
 30
0.0
 10
23.1424656684
 20
-13.7992123002
 30
0.0
 10
23.1424656682
 20
-13.7041899623
 30
0.0
  0
SPLINE
  5
4EC
100
AcDbEntity
  8
SMUSSO
100
AcDbSpline
 62
7
  6
CONTINUOUS
 70
0
 71
3
 72
11
 73
7
 74
0
 42
0.0000001
 43
0.0000001
 44
0.0000000001
 40
0.0
 40
0.0
 40
0.0
 40
0.0
 40
0.2177664942
 40
0.4509473065
 40
0.7101859235
 40
1.0
 40
1.0
 40
1.0
 40
1.0
 10
2.9535536794
 20
-2.331853275
 30
0.0
 10
2.9139715615
 20
-2.3547074878
 30
0.0
 10
2.8230157546
 20
-2.3877442512
 30
0.0
 10
2.6719618373
 20
-2.3915205961
 30
0.0
 10
2.5109394023
 20
-2.3526906179
 30
0.0
 10
2.4062040754
 20
-2.302822144
 30
0.0
 10
2.3535263013
 20
-2.2724066573
 30
0.0
  0
SPLINE
  5
4ED
100
AcDbEntity
  8
SMUSSO
100
AcDbSpline
 62
7
  6
CONTINUOUS
 70
0
 71
3
 72
15
 73
11
 74
0
 42
0.0000001
 43
0.0000001
 44
0.0000000001
 40
0.0
 40
0.0
 40
0.0
 40
0.0
 40
0.1449018469
 40
0.2745170393
 40
0.3911053272
 40
0.4999889023
 40
0.6088744922
 40
0.7254681378
 40
0.8550905417
 40
1.0
 40
1.0
 40
1.0
 40
1.0
 10
35.0218595922
 20
-20.5632031302
 30
0.0
 10
35.0218595921
 20
-20.6493666501
 30
0.0
 10
35.008839135
 20
-20.8131751829
 30
0.0
 10
34.9424643406
 20
-21.0381812328
 30
0.0
 10
34.8306933633
 20
-21.2208907061
 30
0.0
 10
34.6755438952
 20
-21.3513700471
 30
0.0
 10
34.4849600779
 20
-21.4204729326
 30
0.0
 10
34.2708349096
 20
-21.4258959096
 30
0.0
 10
34.0427784824
 20
-21.3708590483
 30
0.0
 10
33.894400579
 20
-21.3002218967
 30
0.0
 10
33.8197780641
 20
-21.2571357921
 30
0.0
  0
SPLINE
  5
4EE
100
AcDbEntity
  8
SMUSSO
100
AcDbSpline
 62
7
  6
CONTINUOUS
 70
0
 71
3
 72
11
 73
7
 74
0
 42
0.0000001
 43
0.0000001
 44
0.0000000001
 40
0.0
 40
0.0
 40
0.0
 40
0.0
 40
0.2177664942
 40
0.4509473065
 40
0.7101859235
 40
1.0
 40
1.0
 40
1.0
 40
1.0
 10
18.8634562561
 20
-11.5180316248
 30
0.0
 10
18.8238741382
 20
-11.5408858377
 30
0.0
 10
18.7329183313
 20
-11.5739226011
 30
0.0
 10
18.581864414
 20
-11.5776989459
 30
0.0
 10
18.420841979
 20
-11.5388689677
 30
0.0
 10
18.3161066521
 20
-11.4890004939
 30
0.0
 10
18.263428878
 20
-11.4585850072
 30
0.0
  0
SPLINE
  5
4EF
100
AcDbEntity
  8
SMUSSO
100
AcDbSpline
 62
7
  6
CONTINUOUS
 70
0
 71
3
 72
15
 73
11
 74
0
 42
0.0000001
 43
0.0000001
 44
0.0000000001
 40
0.0
 40
0.0
 40
0.0
 40
0.0
 40
0.1449018481
 40
0.2745170406
 40
0.3911053286
 40
0.4999889043
 40
0.6088744936
 40
0.7254681391
 40
0.8550905429
 40
1.0
 40
1.0
 40
1.0
 40
1.0
 10
7.2325630915
 20
-10.3149505777
 30
0.0
 10
7.2325630917
 20
-10.2287870571
 30
0.0
 10
7.2455835488
 20
-10.0649785235
 30
0.0
 10
7.3119583438
 20
-9.8399724729
 30
0.0
 10
7.4237293223
 20
-9.6572629997
 30
0.0
 10
7.578878791
 20
-9.5267836594
 30
0.0
 10
7.7694626086
 20
-9.4576807747
 30
0.0
 10
7.9835877765
 20
-9.4522577987
 30
0.0
 10
8.2116442027
 20
-9.5072946602
 30
0.0
 10
8.3600221054
 20
-9.5779318114
 30
0.0
 10
8.4346446195
 20
-9.6210179158
 30
0.0
  0
SPLINE
  5
4F0
100
AcDbEntity
  8
SMUSSO
100
AcDbSpline
 62
7
  6
CONTINUOUS
 70
0
 71
3
 72
11
 73
7
 74
0
 42
0.0000001
 43
0.0000001
 44
0.0000000001
 40
0.0
 40
0.0
 40
0.0
 40
0.0
 40
0.2177664942
 40
0.4509473065
 40
0.7101859235
 40
1.0
 40
1.0
 40
1.0
 40
1.0
 10
34.7733588328
 20
-20.7042099747
 30
0.0
 10
34.7337767149
 20
-20.7270641875
 30
0.0
 10
34.642820908
 20
-20.760100951
 30
0.0
 10
34.4917669907
 20
-20.7638772958
 30
0.0
 10
34.3307445557
 20
-20.7250473176
 30
0.0
 10
34.2260092288
 20
-20.6751788437
 30
0.0
 10
34.1733314547
 20
-20.6447633571
 30
0.0
  0
SPLINE
  5
4F1
100
AcDbEntity
  8
SMUSSO
100
AcDbSpline
 62
7
  6
CONTINUOUS
 70
0
 71
3
 72
11
 73
7
 74
0
 42
0.0000001
 43
0.0000001
 44
0.0000000001
 40
0.0
 40
0.0
 40
0.0
 40
0.0
 40
0.2177664931
 40
0.4509473057
 40
0.7101859194
 40
1.0
 40
1.0
 40
1.0
 40
1.0
 10
-28.866251474
 20
-0.6971372495
 30
0.0
 10
-28.9058335917
 20
-0.7199914622
 30
0.0
 10
-28.9967893984
 20
-0.7530282259
 30
0.0
 10
-29.1478433148
 20
-0.7568045703
 30
0.0
 10
-29.3088657502
 20
-0.7179745931
 30
0.0
 10
-29.4136010772
 20
-0.6681061188
 30
0.0
 10
-29.4662788521
 20
-0.6376906318
 30
0.0
  0
SPLINE
  5
4F2
100
AcDbEntity
  8
SMUSSO
100
AcDbSpline
 62
7
  6
CONTINUOUS
 70
0
 71
3
 72
15
 73
11
 74
0
 42
0.0000001
 43
0.0000001
 44
0.0000000001
 40
0.0
 40
0.0
 40
0.0
 40
0.0
 40
0.1449018469
 40
0.2745170393
 40
0.3911053272
 40
0.4999889023
 40
0.6088744922
 40
0.7254681378
 40
0.8550905417
 40
1.0
 40
1.0
 40
1.0
 40
1.0
 10
7.2325630915
 20
6.4226900966
 30
0.0
 10
7.2325630916
 20
6.5088536164
 30
0.0
 10
7.2455835487
 20
6.6726621492
 30
0.0
 10
7.311958343
 20
6.8976681991
 30
0.0
 10
7.4237293204
 20
7.0803776724
 30
0.0
 10
7.5788787885
 20
7.2108570134
 30
0.0
 10
7.7694626058
 20
7.279959899
 30
0.0
 10
7.9835877741
 20
7.285382876
 30
0.0
 10
8.2116442013
 20
7.2303460146
 30
0.0
 10
8.3600221047
 20
7.1597088631
 30
0.0
 10
8.4346446195
 20
7.1166227585
 30
0.0
  0
SPLINE
  5
4F3
100
AcDbEntity
  8
SMUSSO
100
AcDbSpline
 62
7
  6
CONTINUOUS
 70
0
 71
3
 72
11
 73
7
 74
0
 42
0.0000001
 43
0.0000001
 44
0.0000000001
 40
0.0
 40
0.0
 40
0.0
 40
0.0
 40
0.2177664931
 40
0.4509473057
 40
0.7101859194
 40
1.0
 40
1.0
 40
1.0
 40
1.0
 10
-12.9563488973
 20
-9.8833155993
 30
0.0
 10
-12.995931015
 20
-9.906169812
 30
0.0
 10
-13.0868868217
 20
-9.9392065758
 30
0.0
 10
-13.2379407381
 20
-9.9429829202
 30
0.0
 10
-13.3989631735
 20
-9.9041529429
 30
0.0
 10
-13.5036985005
 20
-9.8542844687
 30
0.0
 10
-13.5563762754
 20
-9.8238689817
 30
0.0
  0
SPLINE
  5
4F4
100
AcDbEntity
  8
SMUSSO
100
AcDbSpline
 62
7
  6
CONTINUOUS
 70
0
 71
3
 72
13
 73
9
 74
0
 42
0.0000001
 43
0.0000001
 44
0.0000000001
 40
0.0
 40
0.0
 40
0.0
 40
0.0
 40
0.1142615855
 40
0.2375404653
 40
0.5000060639
 40
0.7624683436
 40
0.8857433475
 40
1.0
 40
1.0
 40
1.0
 40
1.0
 10
8.4346446195
 20
-6.6000778917
 30
0.0
 10
8.3523506337
 20
-6.5525623756
 30
0.0
 10
8.1897888828
 20
-6.4386215009
 30
0.0
 10
7.8854840932
 20
-6.1537598575
 30
0.0
 10
7.5640049452
 20
-5.7146825481
 30
0.0
 10
7.3444927919
 20
-5.216737747
 30
0.0
 10
7.2499535069
 20
-4.8107801564
 30
0.0
 10
7.2325630917
 20
-4.6130339503
 30
0.0
 10
7.2325630915
 20
-4.5180116125
 30
0.0
  0
SPLINE
  5
4F5
100
AcDbEntity
  8
SMUSSO
100
AcDbSpline
 62
7
  6
CONTINUOUS
 70
0
 71
3
 72
11
 73
7
 74
0
 42
0.0000001
 43
0.0000001
 44
0.0000000001
 40
0.0
 40
0.0
 40
0.0
 40
0.0
 40
0.2177664931
 40
0.4509473057
 40
0.7101859194
 40
1.0
 40
1.0
 40
1.0
 40
1.0
 10
2.9535536794
 20
-19.0694939492
 30
0.0
 10
2.9139715617
 20
-19.0923481619
 30
0.0
 10
2.823015755
 20
-19.1253849257
 30
0.0
 10
2.6719618386
 20
-19.1291612701
 30
0.0
 10
2.5109394032
 20
-19.0903312928
 30
0.0
 10
2.4062040762
 20
-19.0404628186
 30
0.0
 10
2.3535263013
 20
-19.0100473316
 30
0.0
  0
SPLINE
  5
4F6
100
AcDbEntity
  8
SMUSSO
100
AcDbSpline
 62
7
  6
CONTINUOUS
 70
0
 71
3
 72
15
 73
11
 74
0
 42
0.0000001
 43
0.0000001
 44
0.0000000001
 40
0.0
 40
0.0
 40
0.0
 40
0.0
 40
0.1449018469
 40
0.2745170393
 40
0.3911053272
 40
0.4999889023
 40
0.6088744922
 40
0.7254681378
 40
0.8550905417
 40
1.0
 40
1.0
 40
1.0
 40
1.0
 10
19.1119570155
 20
-11.3770247804
 30
0.0
 10
19.1119570154
 20
-11.4631883002
 30
0.0
 10
19.0989365583
 20
-11.626996833
 30
0.0
 10
19.0325617639
 20
-11.8520028829
 30
0.0
 10
18.9207907866
 20
-12.0347123562
 30
0.0
 10
18.7656413185
 20
-12.1651916972
 30
0.0
 10
18.5750575012
 20
-12.2342945828
 30
0.0
 10
18.3609323329
 20
-12.2397175598
 30
0.0
 10
18.1328759057
 20
-12.1846806984
 30
0.0
 10
17.9844980023
 20
-12.1140435469
 30
0.0
 10
17.9098754874
 20
-12.0709574423
 30
0.0
  0
SPLINE
  5
4F7
100
AcDbEntity
  8
SMUSSO
100
AcDbSpline
 62
7
  6
CONTINUOUS
 70
0
 71
3
 72
11
 73
7
 74
0
 42
0.0000001
 43
0.0000001
 44
0.0000000001
 40
0.0
 40
0.0
 40
0.0
 40
0.0
 40
0.2177664931
 40
0.4509473057
 40
0.7101859194
 40
1.0
 40
1.0
 40
1.0
 40
1.0
 10
18.8634562561
 20
-28.2556722991
 30
0.0
 10
18.8238741384
 20
-28.2785265118
 30
0.0
 10
18.7329183317
 20
-28.3115632755
 30
0.0
 10
18.5818644153
 20
-28.3153396199
 30
0.0
 10
18.4208419799
 20
-28.2765096427
 30
0.0
 10
18.3161066529
 20
-28.2266411685
 30
0.0
 10
18.263428878
 20
-28.1962256814
 30
0.0
  0
SPLINE
  5
4F8
100
AcDbEntity
  8
SMUSSO
100
AcDbSpline
 62
7
  6
CONTINUOUS
 70
0
 71
3
 72
13
 73
9
 74
0
 42
0.0000001
 43
0.0000001
 44
0.0000000001
 40
0.0
 40
0.0
 40
0.0
 40
0.0
 40
0.1142615865
 40
0.2375404667
 40
0.5000060664
 40
0.7624683449
 40
0.8857433485
 40
1.0
 40
1.0
 40
1.0
 40
1.0
 10
8.4346446195
 20
-23.3377185659
 30
0.0
 10
8.352350633
 20
-23.2902030493
 30
0.0
 10
8.1897888812
 20
-23.1762621741
 30
0.0
 10
7.8854840905
 20
-22.8914005288
 30
0.0
 10
7.564004943
 20
-22.4523232186
 30
0.0
 10
7.3444927907
 20
-21.9543784174
 30
0.0
 10
7.2499535068
 20
-21.5484208287
 30
0.0
 10
7.2325630916
 20
-21.3506746237
 30
0.0
 10
7.2325630915
 20
-21.2556522867
 30
0.0
  0
SPLINE
  5
4F9
100
AcDbEntity
  8
SMUSSO
100
AcDbSpline
 62
7
  6
CONTINUOUS
 70
0
 71
3
 72
11
 73
7
 74
0
 42
0.0000001
 43
0.0000001
 44
0.0000000001
 40
0.0
 40
0.0
 40
0.0
 40
0.0
 40
0.2177664931
 40
0.4509473057
 40
0.7101859194
 40
1.0
 40
1.0
 40
1.0
 40
1.0
 10
34.7733588328
 20
-37.441850649
 30
0.0
 10
34.7337767151
 20
-37.4647048617
 30
0.0
 10
34.6428209084
 20
-37.4977416254
 30
0.0
 10
34.491766992
 20
-37.5015179698
 30
0.0
 10
34.3307445566
 20
-37.4626879926
 30
0.0
 10
34.2260092296
 20
-37.4128195183
 30
0.0
 10
34.1733314547
 20
-37.3824040313
 30
0.0
  0
SPLINE
  5
4FA
100
AcDbEntity
  8
SMUSSO
100
AcDbSpline
 62
7
  6
CONTINUOUS
 70
0
 71
3
 72
15
 73
11
 74
0
 42
0.0000001
 43
0.0000001
 44
0.0000000001
 40
0.0
 40
0.0
 40
0.0
 40
0.0
 40
0.1449018469
 40
0.2745170393
 40
0.3911053272
 40
0.4999889023
 40
0.6088744922
 40
0.7254681378
 40
0.8550905417
 40
1.0
 40
1.0
 40
1.0
 40
1.0
 10
-8.6773394852
 20
15.6088684464
 30
0.0
 10
-8.6773394851
 20
15.6950319663
 30
0.0
 10
-8.664319028
 20
15.8588404991
 30
0.0
 10
-8.5979442337
 20
16.083846549
 30
0.0
 10
-8.4861732563
 20
16.2665560223
 30
0.0
 10
-8.3310237882
 20
16.3970353633
 30
0.0
 10
-8.1404399709
 20
16.4661382488
 30
0.0
 10
-7.9263148026
 20
16.4715612258
 30
0.0
 10
-7.6982583754
 20
16.4165243645
 30
0.0
 10
-7.549880472
 20
16.3458872129
 30
0.0
 10
-7.4752579572
 20
16.3028011083
 30
0.0
  0
SPLINE
  5
4FB
100
AcDbEntity
  8
SMUSSO
100
AcDbSpline
 62
7
  6
CONTINUOUS
 70
0
 71
3
 72
13
 73
9
 74
0
 42
0.0000001
 43
0.0000001
 44
0.0000000001
 40
0.0
 40
0.0
 40
0.0
 40
0.0
 40
0.1142615855
 40
0.2375404653
 40
0.5000060639
 40
0.7624683436
 40
0.8857433475
 40
1.0
 40
1.0
 40
1.0
 40
1.0
 10
-7.4752579572
 20
2.5861004582
 30
0.0
 10
-7.557551943
 20
2.6336159743
 30
0.0
 10
-7.7201136939
 20
2.7475568489
 30
0.0
 10
-8.0244184835
 20
3.0324184924
 30
0.0
 10
-8.3458976315
 20
3.4714958018
 30
0.0
 10
-8.5654097848
 20
3.9694406028
 30
0.0
 10
-8.6599490698
 20
4.3753981934
 30
0.0
 10
-8.677339485
 20
4.5731443996
 30
0.0
 10
-8.6773394852
 20
4.6681667374
 30
0.0
  0
SPLINE
  5
4FC
100
AcDbEntity
  8
SMUSSO
100
AcDbSpline
 62
7
  6
CONTINUOUS
 70
0
 71
3
 72
15
 73
11
 74
0
 42
0.0000001
 43
0.0000001
 44
0.0000000001
 40
0.0
 40
0.0
 40
0.0
 40
0.0
 40
0.1449018469
 40
0.2745170393
 40
0.3911053272
 40
0.4999889023
 40
0.6088744922
 40
0.7254681378
 40
0.8550905417
 40
1.0
 40
1.0
 40
1.0
 40
1.0
 10
3.2020544388
 20
-2.1908464305
 30
0.0
 10
3.2020544387
 20
-2.2770099504
 30
0.0
 10
3.1890339816
 20
-2.4408184831
 30
0.0
 10
3.1226591872
 20
-2.6658245331
 30
0.0
 10
3.0108882099
 20
-2.8485340064
 30
0.0
 10
2.8557387418
 20
-2.9790133474
 30
0.0
 10
2.6651549245
 20
-3.0481162329
 30
0.0
 10
2.4510297562
 20
-3.0535392099
 30
0.0
 10
2.222973329
 20
-2.9985023486
 30
0.0
 10
2.0745954256
 20
-2.927865197
 30
0.0
 10
1.9999729107
 20
-2.8847790924
 30
0.0
  0
SPLINE
  5
4FD
100
AcDbEntity
  8
SMUSSO
100
AcDbSpline
 62
7
  6
CONTINUOUS
 70
0
 71
3
 72
15
 73
11
 74
0
 42
0.0000001
 43
0.0000001
 44
0.0000000001
 40
0.0
 40
0.0
 40
0.0
 40
0.0
 40
0.1449018481
 40
0.2745170406
 40
0.3911053286
 40
0.4999889043
 40
0.6088744936
 40
0.7254681391
 40
0.8550905429
 40
1.0
 40
1.0
 40
1.0
 40
1.0
 10
19.1119570155
 20
-28.1146654546
 30
0.0
 10
19.1119570153
 20
-28.2008289752
 30
0.0
 10
19.0989365582
 20
-28.3646375088
 30
0.0
 10
19.0325617632
 20
-28.5896435594
 30
0.0
 10
18.9207907847
 20
-28.7723530326
 30
0.0
 10
18.765641316
 20
-28.902832373
 30
0.0
 10
18.5750574984
 20
-28.9719352576
 30
0.0
 10
18.3609323305
 20
-28.9773582336
 30
0.0
 10
18.1328759043
 20
-28.9223213721
 30
0.0
 10
17.9844980016
 20
-28.8516842209
 30
0.0
 10
17.9098754874
 20
-28.8085981165
 30
0.0
  0
SPLINE
  5
4FE
100
AcDbEntity
  8
SMUSSO
100
AcDbSpline
 62
7
  6
CONTINUOUS
 70
0
 71
3
 72
11
 73
7
 74
0
 42
0.0000001
 43
0.0000001
 44
0.0000000001
 40
0.0
 40
0.0
 40
0.0
 40
0.0
 40
0.2839245272
 40
0.5435005588
 40
0.7805115599
 40
1.0
 40
1.0
 40
1.0
 40
1.0
 10
-39.7900378574
 20
33.9812251462
 30
0.0
 10
-39.7900378574
 20
34.031295312
 30
0.0
 10
-39.7837206106
 20
34.127343316
 30
0.0
 10
-39.7523568101
 20
34.2621085295
 30
0.0
 10
-39.6999347654
 20
34.3780024401
 30
0.0
 10
-39.649868357
 20
34.4423461309
 30
0.0
 10
-39.6221363771
 20
34.4693490403
 30
0.0
  0
SPLINE
  5
4FF
100
AcDbEntity
  8
SMUSSO
100
AcDbSpline
 62
7
  6
CONTINUOUS
 70
0
 71
3
 72
9
 73
5
 74
0
 42
0.0000001
 43
0.0000001
 44
0.0000000001
 40
0.0
 40
0.0
 40
0.0
 40
0.0
 40
0.2525081573
 40
1.0
 40
1.0
 40
1.0
 40
1.0
 10
-39.6221363771
 20
34.4693490403
 30
0.0
 10
-39.6160262268
 20
34.4752985555
 30
0.0
 10
-39.5911305765
 20
34.4981316651
 30
0.0
 10
-39.5634002861
 20
34.5178830565
 30
0.0
 10
-39.541537098
 20
34.530506584
 30
0.0
  0
SPLINE
  5
500
100
AcDbEntity
  8
SMUSSO
100
AcDbSpline
 62
7
  6
CONTINUOUS
 70
0
 71
3
 72
11
 73
7
 74
0
 42
0.0000001
 43
0.0000001
 44
0.0000000001
 40
0.0
 40
0.0
 40
0.0
 40
0.0
 40
0.2372212583
 40
0.5000061069
 40
0.7627876318
 40
1.0
 40
1.0
 40
1.0
 40
1.0
 10
-38.94150972
 20
21.570829593
 30
0.0
 10
-39.0619650022
 20
21.6403789633
 30
0.0
 10
-39.2899343495
 20
21.8322453045
 30
0.0
 10
-39.5560158859
 20
22.1958509921
 30
0.0
 10
-39.737865413
 20
22.6080821275
 30
0.0
 10
-39.7900378577
 20
22.9014366301
 30
0.0
 10
-39.7900378574
 20
23.0405234372
 30
0.0
  0
SPLINE
  5
501
100
AcDbEntity
  8
SMUSSO
100
AcDbSpline
 62
7
  6
CONTINUOUS
 70
0
 71
3
 72
11
 73
7
 74
0
 42
0.0000001
 43
0.0000001
 44
0.0000000001
 40
0.0
 40
0.0
 40
0.0
 40
0.0
 40
0.2372123682
 40
0.4999938931
 40
0.7627787412
 40
1.0
 40
1.0
 40
1.0
 40
1.0
 10
-39.6486165011
 20
23.1221783558
 30
0.0
 10
-39.6486165002
 20
22.9830915487
 30
0.0
 10
-39.5964440574
 20
22.6897370462
 30
0.0
 10
-39.4145945295
 20
22.2775059111
 30
0.0
 10
-39.1485129936
 20
21.9139002232
 30
0.0
 10
-38.9205436461
 20
21.7220338824
 30
0.0
 10
-38.8000883637
 20
21.6524845117
 30
0.0
  0
SPLINE
  5
502
100
AcDbEntity
  8
SMUSSO
100
AcDbSpline
 62
7
  6
CONTINUOUS
 70
0
 71
3
 72
9
 73
5
 74
0
 42
0.0000001
 43
0.0000001
 44
0.0000000001
 40
0.0
 40
0.0
 40
0.0
 40
0.0
 40
0.2698702203
 40
1.0
 40
1.0
 40
1.0
 40
1.0
 10
-29.3248574958
 20
16.1816049611
 30
0.0
 10
-29.2996660166
 20
16.1670597169
 30
0.0
 10
-29.2043921779
 20
16.116830105
 30
0.0
 10
-29.1000090045
 20
16.0818955162
 30
0.0
 10
-29.0220286938
 20
16.0712760765
 30
0.0
  0
SPLINE
  5
503
100
AcDbEntity
  8
SMUSSO
100
AcDbSpline
 62
7
  6
CONTINUOUS
 70
0
 71
3
 72
11
 73
7
 74
0
 42
0.0000001
 43
0.0000001
 44
0.0000000001
 40
0.0
 40
0.0
 40
0.0
 40
0.0
 40
0.2839245272
 40
0.5435005588
 40
0.7805115599
 40
1.0
 40
1.0
 40
1.0
 40
1.0
 10
-23.8801352807
 20
24.7950467963
 30
0.0
 10
-23.8801352807
 20
24.8451169621
 30
0.0
 10
-23.8738180339
 20
24.9411649661
 30
0.0
 10
-23.8424542334
 20
25.0759301796
 30
0.0
 10
-23.7900321887
 20
25.1918240902
 30
0.0
 10
-23.7399657803
 20
25.256167781
 30
0.0
 10
-23.7122338004
 20
25.2831706905
 30
0.0
  0
SPLINE
  5
504
100
AcDbEntity
  8
SMUSSO
100
AcDbSpline
 62
7
  6
CONTINUOUS
 70
0
 71
3
 72
9
 73
5
 74
0
 42
0.0000001
 43
0.0000001
 44
0.0000000001
 40
0.0
 40
0.0
 40
0.0
 40
0.0
 40
0.2525081573
 40
1.0
 40
1.0
 40
1.0
 40
1.0
 10
-23.7122338004
 20
25.2831706905
 30
0.0
 10
-23.7061236501
 20
25.2891202056
 30
0.0
 10
-23.6812279998
 20
25.3119533152
 30
0.0
 10
-23.6534977094
 20
25.3317047066
 30
0.0
 10
-23.6316345213
 20
25.3443282341
 30
0.0
  0
SPLINE
  5
505
100
AcDbEntity
  8
SMUSSO
100
AcDbSpline
 62
7
  6
CONTINUOUS
 70
0
 71
3
 72
11
 73
7
 74
0
 42
0.0000001
 43
0.0000001
 44
0.0000000001
 40
0.0
 40
0.0
 40
0.0
 40
0.0
 40
0.2372212583
 40
0.5000061069
 40
0.7627876318
 40
1.0
 40
1.0
 40
1.0
 40
1.0
 10
-23.0316071433
 20
12.3846512431
 30
0.0
 10
-23.1520624255
 20
12.4542006134
 30
0.0
 10
-23.3800317728
 20
12.6460669546
 30
0.0
 10
-23.6461133092
 20
13.0096726422
 30
0.0
 10
-23.8279628363
 20
13.4219037777
 30
0.0
 10
-23.880135281
 20
13.7152582802
 30
0.0
 10
-23.8801352807
 20
13.8543450873
 30
0.0
  0
SPLINE
  5
506
100
AcDbEntity
  8
SMUSSO
100
AcDbSpline
 62
7
  6
CONTINUOUS
 70
0
 71
3
 72
11
 73
7
 74
0
 42
0.0000001
 43
0.0000001
 44
0.0000000001
 40
0.0
 40
0.0
 40
0.0
 40
0.0
 40
0.2372123682
 40
0.4999938931
 40
0.7627787412
 40
1.0
 40
1.0
 40
1.0
 40
1.0
 10
-23.7387139244
 20
13.936000006
 30
0.0
 10
-23.7387139235
 20
13.7969131989
 30
0.0
 10
-23.6865414807
 20
13.5035586963
 30
0.0
 10
-23.5046919528
 20
13.0913275612
 30
0.0
 10
-23.2386104169
 20
12.7277218733
 30
0.0
 10
-23.0106410694
 20
12.5358555325
 30
0.0
 10
-22.890185787
 20
12.4663061618
 30
0.0
  0
SPLINE
  5
507
100
AcDbEntity
  8
SMUSSO
100
AcDbSpline
 62
7
  6
CONTINUOUS
 70
0
 71
3
 72
9
 73
5
 74
0
 42
0.0000001
 43
0.0000001
 44
0.0000000001
 40
0.0
 40
0.0
 40
0.0
 40
0.0
 40
0.2698702203
 40
1.0
 40
1.0
 40
1.0
 40
1.0
 10
-13.4149549191
 20
6.9954266112
 30
0.0
 10
-13.3897634399
 20
6.9808813671
 30
0.0
 10
-13.2944896012
 20
6.9306517551
 30
0.0
 10
-13.1901064278
 20
6.8957171663
 30
0.0
 10
-13.1121261171
 20
6.8850977266
 30
0.0
  0
SPLINE
  5
508
100
AcDbEntity
  8
SMUSSO
100
AcDbSpline
 62
7
  6
CONTINUOUS
 70
0
 71
3
 72
15
 73
11
 74
0
 42
0.0000001
 43
0.0000001
 44
0.0000000001
 40
0.0
 40
0.0
 40
0.0
 40
0.0
 40
0.1449018469
 40
0.2745170393
 40
0.3911053272
 40
0.4999889023
 40
0.6088744922
 40
0.7254681378
 40
0.8550905417
 40
1.0
 40
1.0
 40
1.0
 40
1.0
 10
-24.5872420619
 20
24.7950467963
 30
0.0
 10
-24.5872420618
 20
24.8812103162
 30
0.0
 10
-24.5742216047
 20
25.045018849
 30
0.0
 10
-24.5078468104
 20
25.2700248989
 30
0.0
 10
-24.396075833
 20
25.4527343722
 30
0.0
 10
-24.2409263649
 20
25.5832137132
 30
0.0
 10
-24.0503425476
 20
25.6523165987
 30
0.0
 10
-23.8362173793
 20
25.6577395757
 30
0.0
 10
-23.6081609521
 20
25.6027027144
 30
0.0
 10
-23.4597830487
 20
25.5320655628
 30
0.0
 10
-23.3851605339
 20
25.4889794582
 30
0.0
  0
SPLINE
  5
509
100
AcDbEntity
  8
SMUSSO
100
AcDbSpline
 62
7
  6
CONTINUOUS
 70
0
 71
3
 72
11
 73
7
 74
0
 42
0.0000001
 43
0.0000001
 44
0.0000000001
 40
0.0
 40
0.0
 40
0.0
 40
0.0
 40
0.2839245272
 40
0.5435005588
 40
0.7805115599
 40
1.0
 40
1.0
 40
1.0
 40
1.0
 10
-7.970232704
 20
15.6088684464
 30
0.0
 10
-7.970232704
 20
15.6589386123
 30
0.0
 10
-7.9639154572
 20
15.7549866162
 30
0.0
 10
-7.9325516567
 20
15.8897518297
 30
0.0
 10
-7.880129612
 20
16.0056457403
 30
0.0
 10
-7.8300632036
 20
16.0699894311
 30
0.0
 10
-7.8023312237
 20
16.0969923406
 30
0.0
  0
SPLINE
  5
50A
100
AcDbEntity
  8
SMUSSO
100
AcDbSpline
 62
7
  6
CONTINUOUS
 70
0
 71
3
 72
9
 73
5
 74
0
 42
0.0000001
 43
0.0000001
 44
0.0000000001
 40
0.0
 40
0.0
 40
0.0
 40
0.0
 40
0.2525081573
 40
1.0
 40
1.0
 40
1.0
 40
1.0
 10
-7.8023312237
 20
16.0969923406
 30
0.0
 10
-7.7962210734
 20
16.1029418557
 30
0.0
 10
-7.7713254231
 20
16.1257749653
 30
0.0
 10
-7.7435951327
 20
16.1455263567
 30
0.0
 10
-7.7217319446
 20
16.1581498842
 30
0.0
  0
SPLINE
  5
50B
100
AcDbEntity
  8
SMUSSO
100
AcDbSpline
 62
7
  6
CONTINUOUS
 70
0
 71
3
 72
11
 73
7
 74
0
 42
0.0000001
 43
0.0000001
 44
0.0000000001
 40
0.0
 40
0.0
 40
0.0
 40
0.0
 40
0.2372212583
 40
0.5000061069
 40
0.7627876318
 40
1.0
 40
1.0
 40
1.0
 40
1.0
 10
-7.1217045666
 20
3.1984728933
 30
0.0
 10
-7.2421598488
 20
3.2680222635
 30
0.0
 10
-7.4701291961
 20
3.4598886047
 30
0.0
 10
-7.7362107325
 20
3.8234942923
 30
0.0
 10
-7.9180602596
 20
4.2357254278
 30
0.0
 10
-7.9702327043
 20
4.5290799304
 30
0.0
 10
-7.970232704
 20
4.6681667374
 30
0.0
  0
SPLINE
  5
50C
100
AcDbEntity
  8
SMUSSO
100
AcDbSpline
 62
7
  6
CONTINUOUS
 70
0
 71
3
 72
11
 73
7
 74
0
 42
0.0000001
 43
0.0000001
 44
0.0000000001
 40
0.0
 40
0.0
 40
0.0
 40
0.0
 40
0.2372123682
 40
0.4999938931
 40
0.7627787412
 40
1.0
 40
1.0
 40
1.0
 40
1.0
 10
-7.8288113477
 20
4.7498216561
 30
0.0
 10
-7.8288113468
 20
4.610734849
 30
0.0
 10
-7.776638904
 20
4.3173803464
 30
0.0
 10
-7.5947893761
 20
3.9051492113
 30
0.0
 10
-7.3287078402
 20
3.5415435234
 30
0.0
 10
-7.1007384927
 20
3.3496771826
 30
0.0
 10
-6.9802832103
 20
3.2801278119
 30
0.0
  0
SPLINE
  5
50D
100
AcDbEntity
  8
SMUSSO
100
AcDbSpline
 62
7
  6
CONTINUOUS
 70
0
 71
3
 72
9
 73
5
 74
0
 42
0.0000001
 43
0.0000001
 44
0.0000000001
 40
0.0
 40
0.0
 40
0.0
 40
0.0
 40
0.2698702203
 40
1.0
 40
1.0
 40
1.0
 40
1.0
 10
2.4949476576
 20
-2.1907517387
 30
0.0
 10
2.5201391368
 20
-2.2052969828
 30
0.0
 10
2.6154129755
 20
-2.2555265948
 30
0.0
 10
2.7197961489
 20
-2.2904611836
 30
0.0
 10
2.7977764596
 20
-2.3010806232
 30
0.0
  0
SPLINE
  5
50E
100
AcDbEntity
  8
SMUSSO
100
AcDbSpline
 62
7
  6
CONTINUOUS
 70
0
 71
3
 72
11
 73
7
 74
0
 42
0.0000001
 43
0.0000001
 44
0.0000000001
 40
0.0
 40
0.0
 40
0.0
 40
0.0
 40
0.2839245272
 40
0.5435005588
 40
0.7805115599
 40
1.0
 40
1.0
 40
1.0
 40
1.0
 10
7.9396698727
 20
6.4226900966
 30
0.0
 10
7.9396698727
 20
6.4727602624
 30
0.0
 10
7.9459871195
 20
6.5688082663
 30
0.0
 10
7.97735092
 20
6.7035734799
 30
0.0
 10
8.0297729647
 20
6.8194673904
 30
0.0
 10
8.0798393731
 20
6.8838110813
 30
0.0
 10
8.107571353
 20
6.9108139907
 30
0.0
  0
SPLINE
  5
50F
100
AcDbEntity
  8
SMUSSO
100
AcDbSpline
 62
7
  6
CONTINUOUS
 70
0
 71
3
 72
9
 73
5
 74
0
 42
0.0000001
 43
0.0000001
 44
0.0000000001
 40
0.0
 40
0.0
 40
0.0
 40
0.0
 40
0.2525081573
 40
1.0
 40
1.0
 40
1.0
 40
1.0
 10
8.107571353
 20
6.9108139907
 30
0.0
 10
8.1136815033
 20
6.9167635058
 30
0.0
 10
8.1385771536
 20
6.9395966155
 30
0.0
 10
8.166307444
 20
6.9593480068
 30
0.0
 10
8.1881706321
 20
6.9719715344
 30
0.0
  0
SPLINE
  5
510
100
AcDbEntity
  8
SMUSSO
100
AcDbSpline
 62
7
  6
CONTINUOUS
 70
0
 71
3
 72
11
 73
7
 74
0
 42
0.0000001
 43
0.0000001
 44
0.0000000001
 40
0.0
 40
0.0
 40
0.0
 40
0.0
 40
0.2372212583
 40
0.5000061069
 40
0.7627876318
 40
1.0
 40
1.0
 40
1.0
 40
1.0
 10
8.7881980101
 20
-5.9877054566
 30
0.0
 10
8.6677427279
 20
-5.9181560863
 30
0.0
 10
8.4397733806
 20
-5.7262897452
 30
0.0
 10
8.1736918442
 20
-5.3626840575
 30
0.0
 10
7.9918423171
 20
-4.9504529221
 30
0.0
 10
7.9396698724
 20
-4.6570984195
 30
0.0
 10
7.9396698727
 20
-4.5180116125
 30
0.0
  0
SPLINE
  5
511
100
AcDbEntity
  8
SMUSSO
100
AcDbSpline
 62
7
  6
CONTINUOUS
 70
0
 71
3
 72
11
 73
7
 74
0
 42
0.0000001
 43
0.0000001
 44
0.0000000001
 40
0.0
 40
0.0
 40
0.0
 40
0.0
 40
0.2372123682
 40
0.4999938931
 40
0.7627787412
 40
1.0
 40
1.0
 40
1.0
 40
1.0
 10
8.081091229
 20
-4.4363566938
 30
0.0
 10
8.0810912299
 20
-4.5754435009
 30
0.0
 10
8.1332636727
 20
-4.8687980034
 30
0.0
 10
8.3151132006
 20
-5.2810291385
 30
0.0
 10
8.5811947365
 20
-5.6446348265
 30
0.0
 10
8.809164084
 20
-5.8365011672
 30
0.0
 10
8.9296193664
 20
-5.9060505379
 30
0.0
  0
SPLINE
  5
512
100
AcDbEntity
  8
SMUSSO
100
AcDbSpline
 62
7
  6
CONTINUOUS
 70
0
 71
3
 72
9
 73
5
 74
0
 42
0.0000001
 43
0.0000001
 44
0.0000000001
 40
0.0
 40
0.0
 40
0.0
 40
0.0
 40
0.2698702203
 40
1.0
 40
1.0
 40
1.0
 40
1.0
 10
18.4048502343
 20
-11.3769300885
 30
0.0
 10
18.4300417135
 20
-11.3914753327
 30
0.0
 10
18.5253155522
 20
-11.4417049447
 30
0.0
 10
18.6296987256
 20
-11.4766395335
 30
0.0
 10
18.7076790363
 20
-11.4872589731
 30
0.0
  0
SPLINE
  5
513
100
AcDbEntity
  8
SMUSSO
100
AcDbSpline
 62
7
  6
CONTINUOUS
 70
0
 71
3
 72
11
 73
7
 74
0
 42
0.0000001
 43
0.0000001
 44
0.0000000001
 40
0.0
 40
0.0
 40
0.0
 40
0.0
 40
0.2839245087
 40
0.5435005414
 40
0.7805115514
 40
1.0
 40
1.0
 40
1.0
 40
1.0
 10
23.8495724494
 20
-19.5011289276
 30
0.0
 10
23.8495724493
 20
-19.4510587857
 30
0.0
 10
23.8558896901
 20
-19.3550108247
 30
0.0
 10
23.887253461
 20
-19.2202456655
 30
0.0
 10
23.9396754548
 20
-19.1043517874
 30
0.0
 10
23.9897418165
 20
-19.0400081008
 30
0.0
 10
24.017473772
 20
-19.0130051871
 30
0.0
  0
SPLINE
  5
514
100
AcDbEntity
  8
SMUSSO
100
AcDbSpline
 62
7
  6
CONTINUOUS
 70
0
 71
3
 72
9
 73
5
 74
0
 42
0.0000001
 43
0.0000001
 44
0.0000000001
 40
0.0
 40
0.0
 40
0.0
 40
0.0
 40
0.2525081685
 40
1.0
 40
1.0
 40
1.0
 40
1.0
 10
24.017473772
 20
-19.0130051871
 30
0.0
 10
24.0235839327
 20
-19.0070556556
 30
0.0
 10
24.0484796264
 20
-18.984222485
 30
0.0
 10
24.0762099736
 20
-18.9644710444
 30
0.0
 10
24.0980732088
 20
-18.9518474898
 30
0.0
  0
SPLINE
  5
515
100
AcDbEntity
  8
SMUSSO
100
AcDbSpline
 62
7
  6
CONTINUOUS
 70
0
 71
3
 72
9
 73
5
 74
0
 42
0.0000001
 43
0.0000001
 44
0.0000000001
 40
0.0
 40
0.0
 40
0.0
 40
0.0
 40
0.2698702211
 40
1.0
 40
1.0
 40
1.0
 40
1.0
 10
34.314752811
 20
-37.3007491127
 30
0.0
 10
34.3399442902
 20
-37.315294357
 30
0.0
 10
34.4352181291
 20
-37.3655239685
 30
0.0
 10
34.5396013024
 20
-37.4004585578
 30
0.0
 10
34.617581613
 20
-37.4110779972
 30
0.0
  0
SPLINE
  5
516
100
AcDbEntity
  8
SMUSSO
100
AcDbSpline
 62
7
  6
CONTINUOUS
 70
0
 71
3
 72
11
 73
7
 74
0
 42
0.0000001
 43
0.0000001
 44
0.0000000001
 40
0.0
 40
0.0
 40
0.0
 40
0.0
 40
0.2372123692
 40
0.4999938933
 40
0.7627787423
 40
1.0
 40
1.0
 40
1.0
 40
1.0
 10
23.9909938056
 20
-30.3601757179
 30
0.0
 10
23.9909938059
 20
-30.4992625256
 30
0.0
 10
24.04316625
 20
-30.7926170283
 30
0.0
 10
24.2250157779
 20
-31.2048481637
 30
0.0
 10
24.4910973135
 20
-31.5684538515
 30
0.0
 10
24.7190666616
 20
-31.7603201911
 30
0.0
 10
24.8395219431
 20
-31.8298695621
 30
0.0
  0
SPLINE
  5
517
100
AcDbEntity
  8
SMUSSO
100
AcDbSpline
 62
7
  6
CONTINUOUS
 70
0
 71
3
 72
11
 73
7
 74
0
 42
0.0000001
 43
0.0000001
 44
0.0000000001
 40
0.0
 40
0.0
 40
0.0
 40
0.0
 40
0.2372212577
 40
0.5000061067
 40
0.7627876313
 40
1.0
 40
1.0
 40
1.0
 40
1.0
 10
24.6981005868
 20
-31.9115244807
 30
0.0
 10
24.5776453047
 20
-31.8419751108
 30
0.0
 10
24.3496759576
 20
-31.6501087696
 30
0.0
 10
24.0835944213
 20
-31.2865030824
 30
0.0
 10
23.9017448939
 20
-30.8742719466
 30
0.0
 10
23.8495724494
 20
-30.580917444
 30
0.0
 10
23.8495724494
 20
-30.4418306366
 30
0.0
  0
SPLINE
  5
518
100
AcDbEntity
  8
SMUSSO
100
AcDbSpline
 62
7
  6
CONTINUOUS
 70
0
 71
3
 72
13
 73
9
 74
0
 42
0.0000001
 43
0.0000001
 44
0.0000000001
 40
0.0
 40
0.0
 40
0.0
 40
0.0
 40
0.1142615855
 40
0.2375404653
 40
0.5000060639
 40
0.7624683436
 40
0.8857433475
 40
1.0
 40
1.0
 40
1.0
 40
1.0
 10
-23.3851605339
 20
11.7722788081
 30
0.0
 10
-23.4674545197
 20
11.8197943242
 30
0.0
 10
-23.6300162706
 20
11.9337351988
 30
0.0
 10
-23.9343210602
 20
12.2185968423
 30
0.0
 10
-24.2558002082
 20
12.6576741517
 30
0.0
 10
-24.4753123615
 20
13.1556189527
 30
0.0
 10
-24.5698516465
 20
13.5615765433
 30
0.0
 10
-24.5872420617
 20
13.7593227494
 30
0.0
 10
-24.5872420619
 20
13.8543450873
 30
0.0
  0
SPLINE
  5
519
100
AcDbEntity
  8
SMUSSO
100
AcDbSpline
 62
7
  6
CONTINUOUS
 70
0
 71
3
 72
11
 73
7
 74
0
 42
0.0000001
 43
0.0000001
 44
0.0000000001
 40
0.0
 40
0.0
 40
0.0
 40
0.0
 40
0.2839245087
 40
0.5435005414
 40
0.7805115514
 40
1.0
 40
1.0
 40
1.0
 40
1.0
 10
7.9396698727
 20
-10.3149505777
 30
0.0
 10
7.9396698726
 20
-10.2648804358
 30
0.0
 10
7.9459871134
 20
-10.1688324748
 30
0.0
 10
7.9773508843
 20
-10.0340673156
 30
0.0
 10
8.0297728781
 20
-9.9181734376
 30
0.0
 10
8.0798392398
 20
-9.853829751
 30
0.0
 10
8.1075711953
 20
-9.8268268372
 30
0.0
  0
SPLINE
  5
51A
100
AcDbEntity
  8
SMUSSO
100
AcDbSpline
 62
7
  6
CONTINUOUS
 70
0
 71
3
 72
9
 73
5
 74
0
 42
0.0000001
 43
0.0000001
 44
0.0000000001
 40
0.0
 40
0.0
 40
0.0
 40
0.0
 40
0.2525081685
 40
1.0
 40
1.0
 40
1.0
 40
1.0
 10
8.1075711953
 20
-9.8268268372
 30
0.0
 10
8.113681356
 20
-9.8208773058
 30
0.0
 10
8.1385770497
 20
-9.7980441351
 30
0.0
 10
8.1663073969
 20
-9.7782926946
 30
0.0
 10
8.1881706321
 20
-9.7656691399
 30
0.0
  0
SPLINE
  5
51B
100
AcDbEntity
  8
SMUSSO
100
AcDbSpline
 62
7
  6
CONTINUOUS
 70
0
 71
3
 72
9
 73
5
 74
0
 42
0.0000001
 43
0.0000001
 44
0.0000000001
 40
0.0
 40
0.0
 40
0.0
 40
0.0
 40
0.2698702211
 40
1.0
 40
1.0
 40
1.0
 40
1.0
 10
18.4048502343
 20
-28.1145707628
 30
0.0
 10
18.4300417135
 20
-28.1291160071
 30
0.0
 10
18.5253155524
 20
-28.1793456186
 30
0.0
 10
18.6296987257
 20
-28.2142802079
 30
0.0
 10
18.7076790363
 20
-28.2248996474
 30
0.0
  0
SPLINE
  5
51C
100
AcDbEntity
  8
SMUSSO
100
AcDbSpline
 62
7
  6
CONTINUOUS
 70
0
 71
3
 72
11
 73
7
 74
0
 42
0.0000001
 43
0.0000001
 44
0.0000000001
 40
0.0
 40
0.0
 40
0.0
 40
0.0
 40
0.2372123692
 40
0.4999938933
 40
0.7627787423
 40
1.0
 40
1.0
 40
1.0
 40
1.0
 10
8.081091229
 20
-21.173997368
 30
0.0
 10
8.0810912292
 20
-21.3130841757
 30
0.0
 10
8.1332636733
 20
-21.6064386784
 30
0.0
 10
8.3151132012
 20
-22.0186698139
 30
0.0
 10
8.5811947368
 20
-22.3822755016
 30
0.0
 10
8.8091640849
 20
-22.5741418412
 30
0.0
 10
8.9296193664
 20
-22.6436912122
 30
0.0
  0
SPLINE
  5
51D
100
AcDbEntity
  8
SMUSSO
100
AcDbSpline
 62
7
  6
CONTINUOUS
 70
0
 71
3
 72
11
 73
7
 74
0
 42
0.0000001
 43
0.0000001
 44
0.0000000001
 40
0.0
 40
0.0
 40
0.0
 40
0.0
 40
0.2372212577
 40
0.5000061067
 40
0.7627876313
 40
1.0
 40
1.0
 40
1.0
 40
1.0
 10
8.7881980101
 20
-22.7253461309
 30
0.0
 10
8.667742728
 20
-22.655796761
 30
0.0
 10
8.4397733809
 20
-22.4639304198
 30
0.0
 10
8.1736918446
 20
-22.1003247325
 30
0.0
 10
7.9918423172
 20
-21.6880935967
 30
0.0
 10
7.9396698727
 20
-21.3947390941
 30
0.0
 10
7.9396698727
 20
-21.2556522867
 30
0.0
  0
SPLINE
  5
51E
100
AcDbEntity
  8
SMUSSO
100
AcDbSpline
 62
7
  6
CONTINUOUS
 70
0
 71
3
 72
11
 73
7
 74
0
 42
0.0000001
 43
0.0000001
 44
0.0000000001
 40
0.0
 40
0.0
 40
0.0
 40
0.0
 40
0.2839245272
 40
0.5435005588
 40
0.7805115599
 40
1.0
 40
1.0
 40
1.0
 40
1.0
 10
23.8495724494
 20
-2.7634882533
 30
0.0
 10
23.8495724494
 20
-2.7134180875
 30
0.0
 10
23.8558896962
 20
-2.6173700835
 30
0.0
 10
23.8872534967
 20
-2.48260487
 30
0.0
 10
23.9396755414
 20
-2.3667109594
 30
0.0
 10
23.9897419498
 20
-2.3023672686
 30
0.0
 10
24.0174739297
 20
-2.2753643591
 30
0.0
  0
SPLINE
  5
51F
100
AcDbEntity
  8
SMUSSO
100
AcDbSpline
 62
7
  6
CONTINUOUS
 70
0
 71
3
 72
9
 73
5
 74
0
 42
0.0000001
 43
0.0000001
 44
0.0000000001
 40
0.0
 40
0.0
 40
0.0
 40
0.0
 40
0.2525081573
 40
1.0
 40
1.0
 40
1.0
 40
1.0
 10
24.0174739297
 20
-2.2753643591
 30
0.0
 10
24.02358408
 20
-2.269414844
 30
0.0
 10
24.0484797303
 20
-2.2465817344
 30
0.0
 10
24.0762100207
 20
-2.226830343
 30
0.0
 10
24.0980732088
 20
-2.2142068155
 30
0.0
  0
SPLINE
  5
520
100
AcDbEntity
  8
SMUSSO
100
AcDbSpline
 62
7
  6
CONTINUOUS
 70
0
 71
3
 72
11
 73
7
 74
0
 42
0.0000001
 43
0.0000001
 44
0.0000000001
 40
0.0
 40
0.0
 40
0.0
 40
0.0
 40
0.2372212583
 40
0.5000061069
 40
0.7627876318
 40
1.0
 40
1.0
 40
1.0
 40
1.0
 10
24.6981005868
 20
-15.1738838065
 30
0.0
 10
24.5776453046
 20
-15.1043344362
 30
0.0
 10
24.3496759573
 20
-14.912468095
 30
0.0
 10
24.0835944209
 20
-14.5488624074
 30
0.0
 10
23.9017448938
 20
-14.136631272
 30
0.0
 10
23.8495724491
 20
-13.8432767694
 30
0.0
 10
23.8495724494
 20
-13.7041899623
 30
0.0
  0
SPLINE
  5
521
100
AcDbEntity
  8
SMUSSO
100
AcDbSpline
 62
7
  6
CONTINUOUS
 70
0
 71
3
 72
11
 73
7
 74
0
 42
0.0000001
 43
0.0000001
 44
0.0000000001
 40
0.0
 40
0.0
 40
0.0
 40
0.0
 40
0.2372123682
 40
0.4999938931
 40
0.7627787412
 40
1.0
 40
1.0
 40
1.0
 40
1.0
 10
23.9909938056
 20
-13.6225350437
 30
0.0
 10
23.9909938066
 20
-13.7616218508
 30
0.0
 10
24.0431662494
 20
-14.0549763533
 30
0.0
 10
24.2250157773
 20
-14.4672074884
 30
0.0
 10
24.4910973132
 20
-14.8308131763
 30
0.0
 10
24.7190666607
 20
-15.0226795171
 30
0.0
 10
24.8395219431
 20
-15.0922288878
 30
0.0
  0
SPLINE
  5
522
100
AcDbEntity
  8
SMUSSO
100
AcDbSpline
 62
7
  6
CONTINUOUS
 70
0
 71
3
 72
9
 73
5
 74
0
 42
0.0000001
 43
0.0000001
 44
0.0000000001
 40
0.0
 40
0.0
 40
0.0
 40
0.0
 40
0.2698702203
 40
1.0
 40
1.0
 40
1.0
 40
1.0
 10
34.314752811
 20
-20.5631084384
 30
0.0
 10
34.3399442902
 20
-20.5776536826
 30
0.0
 10
34.4352181289
 20
-20.6278832945
 30
0.0
 10
34.5396013023
 20
-20.6628178833
 30
0.0
 10
34.617581613
 20
-20.673437323
 30
0.0
  0
SPLINE
  5
523
100
AcDbEntity
  8
SMUSSO
100
AcDbSpline
 62
7
  6
CONTINUOUS
 70
0
 71
3
 72
11
 73
7
 74
0
 42
0.0000001
 43
0.0000001
 44
0.0000000001
 40
0.0
 40
0.0
 40
0.0
 40
0.0
 40
0.2839245087
 40
0.5435005414
 40
0.7805115514
 40
1.0
 40
1.0
 40
1.0
 40
1.0
 10
-7.970232704
 20
-1.1287722278
 30
0.0
 10
-7.9702327041
 20
-1.0787020859
 30
0.0
 10
-7.9639154633
 20
-0.9826541249
 30
0.0
 10
-7.9325516924
 20
-0.8478889658
 30
0.0
 10
-7.8801296986
 20
-0.7319950877
 30
0.0
 10
-7.8300633369
 20
-0.6676514011
 30
0.0
 10
-7.8023313814
 20
-0.6406484873
 30
0.0
  0
SPLINE
  5
524
100
AcDbEntity
  8
SMUSSO
100
AcDbSpline
 62
7
  6
CONTINUOUS
 70
0
 71
3
 72
9
 73
5
 74
0
 42
0.0000001
 43
0.0000001
 44
0.0000000001
 40
0.0
 40
0.0
 40
0.0
 40
0.0
 40
0.2525081685
 40
1.0
 40
1.0
 40
1.0
 40
1.0
 10
-7.8023313814
 20
-0.6406484873
 30
0.0
 10
-7.7962212207
 20
-0.6346989559
 30
0.0
 10
-7.771325527
 20
-0.6118657853
 30
0.0
 10
-7.7435951798
 20
-0.5921143447
 30
0.0
 10
-7.7217319446
 20
-0.57949079
 30
0.0
  0
SPLINE
  5
525
100
AcDbEntity
  8
SMUSSO
100
AcDbSpline
 62
7
  6
CONTINUOUS
 70
0
 71
3
 72
9
 73
5
 74
0
 42
0.0000001
 43
0.0000001
 44
0.0000000001
 40
0.0
 40
0.0
 40
0.0
 40
0.0
 40
0.2698702211
 40
1.0
 40
1.0
 40
1.0
 40
1.0
 10
2.4949476576
 20
-18.9283924129
 30
0.0
 10
2.5201391368
 20
-18.9429376572
 30
0.0
 10
2.6154129757
 20
-18.9931672688
 30
0.0
 10
2.719796149
 20
-19.028101858
 30
0.0
 10
2.7977764596
 20
-19.0387212975
 30
0.0
  0
SPLINE
  5
526
100
AcDbEntity
  8
SMUSSO
100
AcDbSpline
 62
7
  6
CONTINUOUS
 70
0
 71
3
 72
11
 73
7
 74
0
 42
0.0000001
 43
0.0000001
 44
0.0000000001
 40
0.0
 40
0.0
 40
0.0
 40
0.0
 40
0.2372123692
 40
0.4999938933
 40
0.7627787423
 40
1.0
 40
1.0
 40
1.0
 40
1.0
 10
-7.8288113477
 20
-11.9878190182
 30
0.0
 10
-7.8288113475
 20
-12.1269058259
 30
0.0
 10
-7.7766389034
 20
-12.4202603286
 30
0.0
 10
-7.5947893755
 20
-12.832491464
 30
0.0
 10
-7.3287078399
 20
-13.1960971518
 30
0.0
 10
-7.1007384918
 20
-13.3879634913
 30
0.0
 10
-6.9802832103
 20
-13.4575128623
 30
0.0
  0
SPLINE
  5
527
100
AcDbEntity
  8
SMUSSO
100
AcDbSpline
 62
7
  6
CONTINUOUS
 70
0
 71
3
 72
11
 73
7
 74
0
 42
0.0000001
 43
0.0000001
 44
0.0000000001
 40
0.0
 40
0.0
 40
0.0
 40
0.0
 40
0.2372212577
 40
0.5000061067
 40
0.7627876313
 40
1.0
 40
1.0
 40
1.0
 40
1.0
 10
-7.1217045666
 20
-13.539167781
 30
0.0
 10
-7.2421598487
 20
-13.4696184111
 30
0.0
 10
-7.4701291958
 20
-13.2777520699
 30
0.0
 10
-7.7362107321
 20
-12.9141463826
 30
0.0
 10
-7.9180602595
 20
-12.5019152469
 30
0.0
 10
-7.970232704
 20
-12.2085607442
 30
0.0
 10
-7.970232704
 20
-12.0694739368
 30
0.0
  0
SPLINE
  5
528
100
AcDbEntity
  8
SMUSSO
100
AcDbSpline
 62
7
  6
CONTINUOUS
 70
0
 71
3
 72
11
 73
7
 74
0
 42
0.0000001
 43
0.0000001
 44
0.0000000001
 40
0.0
 40
0.0
 40
0.0
 40
0.0
 40
0.2839245087
 40
0.5435005414
 40
0.7805115514
 40
1.0
 40
1.0
 40
1.0
 40
1.0
 10
-23.8801352807
 20
8.0574061221
 30
0.0
 10
-23.8801352808
 20
8.1074762639
 30
0.0
 10
-23.87381804
 20
8.2035242249
 30
0.0
 10
-23.8424542691
 20
8.3382893841
 30
0.0
 10
-23.7900322753
 20
8.4541832622
 30
0.0
 10
-23.7399659136
 20
8.5185269488
 30
0.0
 10
-23.7122339581
 20
8.5455298625
 30
0.0
  0
SPLINE
  5
529
100
AcDbEntity
  8
SMUSSO
100
AcDbSpline
 62
7
  6
CONTINUOUS
 70
0
 71
3
 72
9
 73
5
 74
0
 42
0.0000001
 43
0.0000001
 44
0.0000000001
 40
0.0
 40
0.0
 40
0.0
 40
0.0
 40
0.2525081685
 40
1.0
 40
1.0
 40
1.0
 40
1.0
 10
-23.7122339581
 20
8.5455298625
 30
0.0
 10
-23.7061237974
 20
8.551479394
 30
0.0
 10
-23.6812281037
 20
8.5743125646
 30
0.0
 10
-23.6534977565
 20
8.5940640052
 30
0.0
 10
-23.6316345213
 20
8.6066875599
 30
0.0
  0
SPLINE
  5
52A
100
AcDbEntity
  8
SMUSSO
100
AcDbSpline
 62
7
  6
CONTINUOUS
 70
0
 71
3
 72
9
 73
5
 74
0
 42
0.0000001
 43
0.0000001
 44
0.0000000001
 40
0.0
 40
0.0
 40
0.0
 40
0.0
 40
0.2698702211
 40
1.0
 40
1.0
 40
1.0
 40
1.0
 10
-13.4149549191
 20
-9.742214063
 30
0.0
 10
-13.3897634399
 20
-9.7567593073
 30
0.0
 10
-13.294489601
 20
-9.8069889189
 30
0.0
 10
-13.1901064277
 20
-9.8419235082
 30
0.0
 10
-13.1121261171
 20
-9.8525429476
 30
0.0
  0
SPLINE
  5
52B
100
AcDbEntity
  8
SMUSSO
100
AcDbSpline
 62
7
  6
CONTINUOUS
 70
0
 71
3
 72
11
 73
7
 74
0
 42
0.0000001
 43
0.0000001
 44
0.0000000001
 40
0.0
 40
0.0
 40
0.0
 40
0.0
 40
0.2372123692
 40
0.4999938933
 40
0.7627787423
 40
1.0
 40
1.0
 40
1.0
 40
1.0
 10
-23.7387139244
 20
-2.8016406683
 30
0.0
 10
-23.7387139242
 20
-2.940727476
 30
0.0
 10
-23.6865414801
 20
-3.2340819787
 30
0.0
 10
-23.5046919522
 20
-3.6463131141
 30
0.0
 10
-23.2386104166
 20
-4.0099188019
 30
0.0
 10
-23.0106410685
 20
-4.2017851414
 30
0.0
 10
-22.890185787
 20
-4.2713345124
 30
0.0
  0
SPLINE
  5
52C
100
AcDbEntity
  8
SMUSSO
100
AcDbSpline
 62
7
  6
CONTINUOUS
 70
0
 71
3
 72
11
 73
7
 74
0
 42
0.0000001
 43
0.0000001
 44
0.0000000001
 40
0.0
 40
0.0
 40
0.0
 40
0.0
 40
0.2372212577
 40
0.5000061067
 40
0.7627876313
 40
1.0
 40
1.0
 40
1.0
 40
1.0
 10
-23.0316071433
 20
-4.3529894311
 30
0.0
 10
-23.1520624254
 20
-4.2834400612
 30
0.0
 10
-23.3800317725
 20
-4.09157372
 30
0.0
 10
-23.6461133088
 20
-3.7279680327
 30
0.0
 10
-23.8279628362
 20
-3.315736897
 30
0.0
 10
-23.8801352807
 20
-3.0223823944
 30
0.0
 10
-23.8801352807
 20
-2.883295587
 30
0.0
  0
SPLINE
  5
52D
100
AcDbEntity
  8
SMUSSO
100
AcDbSpline
 62
7
  6
CONTINUOUS
 70
0
 71
3
 72
15
 73
11
 74
0
 42
0.0000001
 43
0.0000001
 44
0.0000000001
 40
0.0
 40
0.0
 40
0.0
 40
0.0
 40
0.1449018469
 40
0.2745170393
 40
0.3911053272
 40
0.4999889023
 40
0.6088744922
 40
0.7254681378
 40
0.8550905417
 40
1.0
 40
1.0
 40
1.0
 40
1.0
 10
-12.7078481379
 20
6.9953319194
 30
0.0
 10
-12.707848138
 20
6.9091683995
 30
0.0
 10
-12.7208685951
 20
6.7453598667
 30
0.0
 10
-12.7872433894
 20
6.5203538168
 30
0.0
 10
-12.8990143668
 20
6.3376443435
 30
0.0
 10
-13.0541638349
 20
6.2071650025
 30
0.0
 10
-13.2447476522
 20
6.138062117
 30
0.0
 10
-13.4588728205
 20
6.13263914
 30
0.0
 10
-13.6869292477
 20
6.1876760013
 30
0.0
 10
-13.8353071511
 20
6.2583131529
 30
0.0
 10
-13.909929666
 20
6.3013992575
 30
0.0
  0
SPLINE
  5
52E
100
AcDbEntity
  8
SMUSSO
100
AcDbSpline
 62
7
  6
CONTINUOUS
 70
0
 71
3
 72
11
 73
7
 74
0
 42
0.0000001
 43
0.0000001
 44
0.0000000001
 40
0.0
 40
0.0
 40
0.0
 40
0.0
 40
0.2372212577
 40
0.5000061067
 40
0.7627876313
 40
1.0
 40
1.0
 40
1.0
 40
1.0
 10
-38.94150972
 20
4.8331889188
 30
0.0
 10
-39.0619650021
 20
4.9027382887
 30
0.0
 10
-39.2899343492
 20
5.0946046299
 30
0.0
 10
-39.5560158855
 20
5.4582103171
 30
0.0
 10
-39.7378654129
 20
5.8704414529
 30
0.0
 10
-39.7900378574
 20
6.1637959555
 30
0.0
 10
-39.7900378574
 20
6.3028827629
 30
0.0
  0
SPLINE
  5
52F
100
AcDbEntity
  8
SMUSSO
100
AcDbSpline
 62
7
  6
CONTINUOUS
 70
0
 71
3
 72
11
 73
7
 74
0
 42
0.0000001
 43
0.0000001
 44
0.0000000001
 40
0.0
 40
0.0
 40
0.0
 40
0.0
 40
0.2372123692
 40
0.4999938933
 40
0.7627787423
 40
1.0
 40
1.0
 40
1.0
 40
1.0
 10
-39.6486165011
 20
6.3845376816
 30
0.0
 10
-39.6486165009
 20
6.2454508739
 30
0.0
 10
-39.5964440568
 20
5.9520963712
 30
0.0
 10
-39.4145945289
 20
5.5398652358
 30
0.0
 10
-39.1485129933
 20
5.176259548
 30
0.0
 10
-38.9205436452
 20
4.9843932084
 30
0.0
 10
-38.8000883637
 20
4.9148438374
 30
0.0
  0
SPLINE
  5
530
100
AcDbEntity
  8
SMUSSO
100
AcDbSpline
 62
7
  6
CONTINUOUS
 70
0
 71
3
 72
9
 73
5
 74
0
 42
0.0000001
 43
0.0000001
 44
0.0000000001
 40
0.0
 40
0.0
 40
0.0
 40
0.0
 40
0.2698702211
 40
1.0
 40
1.0
 40
1.0
 40
1.0
 10
-29.3248574958
 20
-0.5560357132
 30
0.0
 10
-29.2996660166
 20
-0.5705809575
 30
0.0
 10
-29.2043921777
 20
-0.620810569
 30
0.0
 10
-29.1000090044
 20
-0.6557451583
 30
0.0
 10
-29.0220286938
 20
-0.6663645977
 30
0.0
  0
SPLINE
  5
531
100
AcDbEntity
  8
SMUSSO
100
AcDbSpline
 62
7
  6
CONTINUOUS
 70
0
 71
3
 72
11
 73
7
 74
0
 42
0.0000001
 43
0.0000001
 44
0.0000000001
 40
0.0
 40
0.0
 40
0.0
 40
0.0
 40
0.2839245087
 40
0.5435005414
 40
0.7805115514
 40
1.0
 40
1.0
 40
1.0
 40
1.0
 10
-39.7900378574
 20
17.2435844719
 30
0.0
 10
-39.7900378575
 20
17.2936546138
 30
0.0
 10
-39.7837206167
 20
17.3897025748
 30
0.0
 10
-39.7523568458
 20
17.524467734
 30
0.0
 10
-39.699934852
 20
17.640361612
 30
0.0
 10
-39.6498684903
 20
17.7047052987
 30
0.0
 10
-39.6221365348
 20
17.7317082124
 30
0.0
  0
SPLINE
  5
532
100
AcDbEntity
  8
SMUSSO
100
AcDbSpline
 62
7
  6
CONTINUOUS
 70
0
 71
3
 72
9
 73
5
 74
0
 42
0.0000001
 43
0.0000001
 44
0.0000000001
 40
0.0
 40
0.0
 40
0.0
 40
0.0
 40
0.2525081685
 40
1.0
 40
1.0
 40
1.0
 40
1.0
 10
-39.6221365348
 20
17.7317082124
 30
0.0
 10
-39.6160263741
 20
17.7376577439
 30
0.0
 10
-39.5911306804
 20
17.7604909145
 30
0.0
 10
-39.5634003332
 20
17.7802423551
 30
0.0
 10
-39.541537098
 20
17.7928659097
 30
0.0
  0
SPLINE
  5
533
100
AcDbEntity
  8
ASSI
100
AcDbSpline
 62
7
  6
CONTINUOUS
 70
0
 71
3
 72
9
 73
5
 74
0
 42
0.0000001
 43
0.0000001
 44
0.0000000001
 40
0.0
 40
0.0
 40
0.0
 40
0.0
 40
0.2403060145
 40
1.0
 40
1.0
 40
1.0
 40
1.0
 10
33.8197780641
 20
-24.2780758163
 30
0.0
 10
33.8433981265
 20
-24.2917137443
 30
0.0
 10
33.940228149
 20
-24.3509841115
 30
0.0
 10
34.0312288766
 20
-24.4195855307
 30
0.0
 10
34.0968956516
 20
-24.4754654492
 30
0.0
  0
SPLINE
  5
534
100
AcDbEntity
  8
ASSI
100
AcDbSpline
 62
7
  6
CONTINUOUS
 70
0
 71
3
 72
11
 73
7
 74
0
 42
0.0000001
 43
0.0000001
 44
0.0000000001
 40
0.0
 40
0.0
 40
0.0
 40
0.0
 40
0.2436408454
 40
0.5000044213
 40
0.7563656951
 40
1.0
 40
1.0
 40
1.0
 40
1.0
 10
34.0968956516
 20
-24.4754654492
 30
0.0
 10
34.2091790177
 20
-24.5710143069
 30
0.0
 10
34.4202245646
 20
-24.7904961247
 30
0.0
 10
34.6802854219
 20
-25.1693235009
 30
0.0
 10
34.8783275503
 20
-25.5839528808
 30
0.0
 10
34.9628786034
 20
-25.8764600832
 30
0.0
 10
34.9894820444
 20
-26.0214712151
 30
0.0
  0
SPLINE
  5
535
100
AcDbEntity
  8
ASSI
100
AcDbSpline
 62
7
  6
CONTINUOUS
 70
0
 71
3
 72
9
 73
5
 74
0
 42
0.0000001
 43
0.0000001
 44
0.0000000001
 40
0.0
 40
0.0
 40
0.0
 40
0.0
 40
0.2594906421
 40
1.0
 40
1.0
 40
1.0
 40
1.0
 10
34.9894820444
 20
-26.0214712151
 30
0.0
 10
34.9947961087
 20
-26.0504373355
 30
0.0
 10
35.0129950468
 20
-26.162456038
 30
0.0
 10
35.0218595921
 20
-26.2761018394
 30
0.0
 10
35.0218595922
 20
-26.3601420955
 30
0.0
  0
SPLINE
  5
536
100
AcDbEntity
  8
ASSI
100
AcDbSpline
 62
7
  6
CONTINUOUS
 70
0
 71
3
 72
9
 73
5
 74
0
 42
0.0000001
 43
0.0000001
 44
0.0000000001
 40
0.0
 40
0.0
 40
0.0
 40
0.0
 40
0.2403060145
 40
1.0
 40
1.0
 40
1.0
 40
1.0
 10
17.9098754874
 20
-15.0918974664
 30
0.0
 10
17.9334955498
 20
-15.1055353944
 30
0.0
 10
18.0303255723
 20
-15.1648057617
 30
0.0
 10
18.1213262999
 20
-15.2334071809
 30
0.0
 10
18.1869930749
 20
-15.2892870993
 30
0.0
  0
SPLINE
  5
537
100
AcDbEntity
  8
ASSI
100
AcDbSpline
 62
7
  6
CONTINUOUS
 70
0
 71
3
 72
11
 73
7
 74
0
 42
0.0000001
 43
0.0000001
 44
0.0000000001
 40
0.0
 40
0.0
 40
0.0
 40
0.0
 40
0.2436408454
 40
0.5000044213
 40
0.7563656951
 40
1.0
 40
1.0
 40
1.0
 40
1.0
 10
18.1869930749
 20
-15.2892870993
 30
0.0
 10
18.299276441
 20
-15.384835957
 30
0.0
 10
18.5103219879
 20
-15.6043177748
 30
0.0
 10
18.7703828452
 20
-15.9831451511
 30
0.0
 10
18.9684249736
 20
-16.397774531
 30
0.0
 10
19.0529760267
 20
-16.6902817333
 30
0.0
 10
19.0795794677
 20
-16.8352928652
 30
0.0
  0
SPLINE
  5
538
100
AcDbEntity
  8
ASSI
100
AcDbSpline
 62
7
  6
CONTINUOUS
 70
0
 71
3
 72
9
 73
5
 74
0
 42
0.0000001
 43
0.0000001
 44
0.0000000001
 40
0.0
 40
0.0
 40
0.0
 40
0.0
 40
0.2594906421
 40
1.0
 40
1.0
 40
1.0
 40
1.0
 10
19.0795794677
 20
-16.8352928652
 30
0.0
 10
19.084893532
 20
-16.8642589856
 30
0.0
 10
19.1030924701
 20
-16.9762776882
 30
0.0
 10
19.1119570154
 20
-17.0899234896
 30
0.0
 10
19.1119570155
 20
-17.1739637456
 30
0.0
  0
SPLINE
  5
539
100
AcDbEntity
  8
ASSI
100
AcDbSpline
 62
7
  6
CONTINUOUS
 70
0
 71
3
 72
9
 73
5
 74
0
 42
0.0000001
 43
0.0000001
 44
0.0000000001
 40
0.0
 40
0.0
 40
0.0
 40
0.0
 40
0.2403060145
 40
1.0
 40
1.0
 40
1.0
 40
1.0
 10
1.9999729107
 20
-5.9057191165
 30
0.0
 10
2.0235929731
 20
-5.9193570445
 30
0.0
 10
2.1204229956
 20
-5.9786274118
 30
0.0
 10
2.2114237232
 20
-6.047228831
 30
0.0
 10
2.2770904982
 20
-6.1031087494
 30
0.0
  0
SPLINE
  5
53A
100
AcDbEntity
  8
ASSI
100
AcDbSpline
 62
7
  6
CONTINUOUS
 70
0
 71
3
 72
11
 73
7
 74
0
 42
0.0000001
 43
0.0000001
 44
0.0000000001
 40
0.0
 40
0.0
 40
0.0
 40
0.0
 40
0.2436408454
 40
0.5000044213
 40
0.7563656951
 40
1.0
 40
1.0
 40
1.0
 40
1.0
 10
2.2770904982
 20
-6.1031087494
 30
0.0
 10
2.3893738643
 20
-6.1986576071
 30
0.0
 10
2.6004194112
 20
-6.4181394249
 30
0.0
 10
2.8604802685
 20
-6.7969668012
 30
0.0
 10
3.0585223969
 20
-7.2115961811
 30
0.0
 10
3.14307345
 20
-7.5041033834
 30
0.0
 10
3.169676891
 20
-7.6491145154
 30
0.0
  0
SPLINE
  5
53B
100
AcDbEntity
  8
ASSI
100
AcDbSpline
 62
7
  6
CONTINUOUS
 70
0
 71
3
 72
9
 73
5
 74
0
 42
0.0000001
 43
0.0000001
 44
0.0000000001
 40
0.0
 40
0.0
 40
0.0
 40
0.0
 40
0.2594906421
 40
1.0
 40
1.0
 40
1.0
 40
1.0
 10
3.169676891
 20
-7.6491145154
 30
0.0
 10
3.1749909553
 20
-7.6780806358
 30
0.0
 10
3.1931898934
 20
-7.7900993383
 30
0.0
 10
3.2020544387
 20
-7.9037451397
 30
0.0
 10
3.2020544388
 20
-7.9877853957
 30
0.0
  0
SPLINE
  5
53C
100
AcDbEntity
  8
ASSI
100
AcDbSpline
 62
7
  6
CONTINUOUS
 70
0
 71
3
 72
9
 73
5
 74
0
 42
0.0000001
 43
0.0000001
 44
0.0000000001
 40
0.0
 40
0.0
 40
0.0
 40
0.0
 40
0.2403060145
 40
1.0
 40
1.0
 40
1.0
 40
1.0
 10
-13.909929666
 20
3.2804592334
 30
0.0
 10
-13.8863096036
 20
3.2668213053
 30
0.0
 10
-13.7894795811
 20
3.2075509381
 30
0.0
 10
-13.6984788535
 20
3.1389495189
 30
0.0
 10
-13.6328120785
 20
3.0830696004
 30
0.0
  0
SPLINE
  5
53D
100
AcDbEntity
  8
ASSI
100
AcDbSpline
 62
7
  6
CONTINUOUS
 70
0
 71
3
 72
11
 73
7
 74
0
 42
0.0000001
 43
0.0000001
 44
0.0000000001
 40
0.0
 40
0.0
 40
0.0
 40
0.0
 40
0.2436408454
 40
0.5000044213
 40
0.7563656951
 40
1.0
 40
1.0
 40
1.0
 40
1.0
 10
-13.6328120785
 20
3.0830696004
 30
0.0
 10
-13.5205287124
 20
2.9875207428
 30
0.0
 10
-13.3094831655
 20
2.768038925
 30
0.0
 10
-13.0494223082
 20
2.3892115487
 30
0.0
 10
-12.8513801798
 20
1.9745821688
 30
0.0
 10
-12.7668291267
 20
1.6820749664
 30
0.0
 10
-12.7402256857
 20
1.5370638345
 30
0.0
  0
SPLINE
  5
53E
100
AcDbEntity
  8
ASSI
100
AcDbSpline
 62
7
  6
CONTINUOUS
 70
0
 71
3
 72
9
 73
5
 74
0
 42
0.0000001
 43
0.0000001
 44
0.0000000001
 40
0.0
 40
0.0
 40
0.0
 40
0.0
 40
0.2594906421
 40
1.0
 40
1.0
 40
1.0
 40
1.0
 10
-12.7402256857
 20
1.5370638345
 30
0.0
 10
-12.7349116214
 20
1.5080977141
 30
0.0
 10
-12.7167126833
 20
1.3960790116
 30
0.0
 10
-12.707848138
 20
1.2824332102
 30
0.0
 10
-12.7078481379
 20
1.1983929542
 30
0.0
  0
SPLINE
  5
53F
100
AcDbEntity
  8
ASSI
100
AcDbSpline
 62
7
  6
CONTINUOUS
 70
0
 71
3
 72
9
 73
5
 74
0
 42
0.0000001
 43
0.0000001
 44
0.0000000001
 40
0.0
 40
0.0
 40
0.0
 40
0.0
 40
0.2403060145
 40
1.0
 40
1.0
 40
1.0
 40
1.0
 10
-29.8198322426
 20
12.4666375832
 30
0.0
 10
-29.7962121803
 20
12.4529996552
 30
0.0
 10
-29.6993821578
 20
12.393729288
 30
0.0
 10
-29.6083814302
 20
12.3251278688
 30
0.0
 10
-29.5427146552
 20
12.2692479503
 30
0.0
  0
SPLINE
  5
540
100
AcDbEntity
  8
ASSI
100
AcDbSpline
 62
7
  6
CONTINUOUS
 70
0
 71
3
 72
11
 73
7
 74
0
 42
0.0000001
 43
0.0000001
 44
0.0000000001
 40
0.0
 40
0.0
 40
0.0
 40
0.0
 40
0.2436408454
 40
0.5000044213
 40
0.7563656951
 40
1.0
 40
1.0
 40
1.0
 40
1.0
 10
-29.5427146552
 20
12.2692479503
 30
0.0
 10
-29.4304312891
 20
12.1736990926
 30
0.0
 10
-29.2193857422
 20
11.9542172748
 30
0.0
 10
-28.9593248849
 20
11.5753898986
 30
0.0
 10
-28.7612827565
 20
11.1607605187
 30
0.0
 10
-28.6767317034
 20
10.8682533163
 30
0.0
 10
-28.6501282624
 20
10.7232421844
 30
0.0
  0
SPLINE
  5
541
100
AcDbEntity
  8
ASSI
100
AcDbSpline
 62
7
  6
CONTINUOUS
 70
0
 71
3
 72
9
 73
5
 74
0
 42
0.0000001
 43
0.0000001
 44
0.0000000001
 40
0.0
 40
0.0
 40
0.0
 40
0.0
 40
0.2594906421
 40
1.0
 40
1.0
 40
1.0
 40
1.0
 10
-28.6501282624
 20
10.7232421844
 30
0.0
 10
-28.6448141981
 20
10.694276064
 30
0.0
 10
-28.62661526
 20
10.5822573615
 30
0.0
 10
-28.6177507147
 20
10.4686115601
 30
0.0
 10
-28.6177507146
 20
10.384571304
 30
0.0
  0
SPLINE
  5
542
100
AcDbEntity
  8
ASSI
100
AcDbSpline
 62
7
  6
CONTINUOUS
 70
0
 71
3
 72
9
 73
5
 74
0
 42
0.0000001
 43
0.0000001
 44
0.0000000001
 40
0.0
 40
0.0
 40
0.0
 40
0.0
 40
0.2403060418
 40
1.0
 40
1.0
 40
1.0
 40
1.0
 10
33.8197780641
 20
-7.540435142
 30
0.0
 10
33.8433980481
 20
-7.5540730248
 30
0.0
 10
33.9402277435
 20
-7.6133431802
 30
0.0
 10
34.0312281832
 20
-7.6819443275
 30
0.0
 10
34.0968947607
 20
-7.7378240169
 30
0.0
  0
SPLINE
  5
543
100
AcDbEntity
  8
ASSI
100
AcDbSpline
 62
7
  6
CONTINUOUS
 70
0
 71
3
 72
11
 73
7
 74
0
 42
0.0000001
 43
0.0000001
 44
0.0000000001
 40
0.0
 40
0.0
 40
0.0
 40
0.0
 40
0.2436407943
 40
0.5000043506
 40
0.7563656441
 40
1.0
 40
1.0
 40
1.0
 40
1.0
 10
34.0968947607
 20
-7.7378240169
 30
0.0
 10
34.2091781547
 20
-7.8333727941
 30
0.0
 10
34.420223778
 20
-8.0528544811
 30
0.0
 10
34.6802847824
 20
-8.4316817191
 30
0.0
 10
34.8783271042
 20
-8.8463110407
 30
0.0
 10
34.9628783087
 20
-9.1388182424
 30
0.0
 10
34.9894818334
 20
-9.2838293904
 30
0.0
  0
SPLINE
  5
544
100
AcDbEntity
  8
ASSI
100
AcDbSpline
 62
7
  6
CONTINUOUS
 70
0
 71
3
 72
9
 73
5
 74
0
 42
0.0000001
 43
0.0000001
 44
0.0000000001
 40
0.0
 40
0.0
 40
0.0
 40
0.0
 40
0.2594906671
 40
1.0
 40
1.0
 40
1.0
 40
1.0
 10
34.9894818334
 20
-9.2838293904
 30
0.0
 10
34.994795932
 20
-9.31279561
 30
0.0
 10
35.0129949866
 20
-9.4248146879
 30
0.0
 10
35.021859592
 20
-9.5384608798
 30
0.0
 10
35.0218595922
 20
-9.6225014212
 30
0.0
  0
SPLINE
  5
545
100
AcDbEntity
  8
ASSI
100
AcDbSpline
 62
7
  6
CONTINUOUS
 70
0
 71
3
 72
9
 73
5
 74
0
 42
0.0000001
 43
0.0000001
 44
0.0000000001
 40
0.0
 40
0.0
 40
0.0
 40
0.0
 40
0.2403060418
 40
1.0
 40
1.0
 40
1.0
 40
1.0
 10
17.9098754874
 20
1.6457432079
 30
0.0
 10
17.9334954714
 20
1.6321053251
 30
0.0
 10
18.0303251668
 20
1.5728351697
 30
0.0
 10
18.1213256065
 20
1.5042340224
 30
0.0
 10
18.186992184
 20
1.448354333
 30
0.0
  0
SPLINE
  5
546
100
AcDbEntity
  8
ASSI
100
AcDbSpline
 62
7
  6
CONTINUOUS
 70
0
 71
3
 72
11
 73
7
 74
0
 42
0.0000001
 43
0.0000001
 44
0.0000000001
 40
0.0
 40
0.0
 40
0.0
 40
0.0
 40
0.2436407943
 40
0.5000043506
 40
0.7563656441
 40
1.0
 40
1.0
 40
1.0
 40
1.0
 10
18.186992184
 20
1.448354333
 30
0.0
 10
18.299275578
 20
1.3528055558
 30
0.0
 10
18.5103212013
 20
1.1333238687
 30
0.0
 10
18.7703822057
 20
0.7544966308
 30
0.0
 10
18.9684245275
 20
0.3398673091
 30
0.0
 10
19.052975732
 20
0.0473601075
 30
0.0
 10
19.0795792567
 20
-0.0976510405
 30
0.0
  0
SPLINE
  5
547
100
AcDbEntity
  8
ASSI
100
AcDbSpline
 62
7
  6
CONTINUOUS
 70
0
 71
3
 72
9
 73
5
 74
0
 42
0.0000001
 43
0.0000001
 44
0.0000000001
 40
0.0
 40
0.0
 40
0.0
 40
0.0
 40
0.2594906671
 40
1.0
 40
1.0
 40
1.0
 40
1.0
 10
19.0795792567
 20
-0.0976510405
 30
0.0
 10
19.0848933553
 20
-0.1266172602
 30
0.0
 10
19.1030924099
 20
-0.238636338
 30
0.0
 10
19.1119570153
 20
-0.3522825299
 30
0.0
 10
19.1119570155
 20
-0.4363230713
 30
0.0
  0
SPLINE
  5
548
100
AcDbEntity
  8
ASSI
100
AcDbSpline
 62
7
  6
CONTINUOUS
 70
0
 71
3
 72
9
 73
5
 74
0
 42
0.0000001
 43
0.0000001
 44
0.0000000001
 40
0.0
 40
0.0
 40
0.0
 40
0.0
 40
0.2403060418
 40
1.0
 40
1.0
 40
1.0
 40
1.0
 10
1.9999729107
 20
10.8319215577
 30
0.0
 10
2.0235928947
 20
10.818283675
 30
0.0
 10
2.1204225901
 20
10.7590135196
 30
0.0
 10
2.2114230298
 20
10.6904123723
 30
0.0
 10
2.2770896073
 20
10.6345326829
 30
0.0
  0
SPLINE
  5
549
100
AcDbEntity
  8
ASSI
100
AcDbSpline
 62
7
  6
CONTINUOUS
 70
0
 71
3
 72
11
 73
7
 74
0
 42
0.0000001
 43
0.0000001
 44
0.0000000001
 40
0.0
 40
0.0
 40
0.0
 40
0.0
 40
0.2436407943
 40
0.5000043506
 40
0.7563656441
 40
1.0
 40
1.0
 40
1.0
 40
1.0
 10
2.2770896073
 20
10.6345326829
 30
0.0
 10
2.3893730013
 20
10.5389839057
 30
0.0
 10
2.6004186246
 20
10.3195022186
 30
0.0
 10
2.860479629
 20
9.9406749807
 30
0.0
 10
3.0585219508
 20
9.526045659
 30
0.0
 10
3.1430731553
 20
9.2335384574
 30
0.0
 10
3.16967668
 20
9.0885273094
 30
0.0
  0
SPLINE
  5
54A
100
AcDbEntity
  8
ASSI
100
AcDbSpline
 62
7
  6
CONTINUOUS
 70
0
 71
3
 72
9
 73
5
 74
0
 42
0.0000001
 43
0.0000001
 44
0.0000000001
 40
0.0
 40
0.0
 40
0.0
 40
0.0
 40
0.2594906671
 40
1.0
 40
1.0
 40
1.0
 40
1.0
 10
3.16967668
 20
9.0885273094
 30
0.0
 10
3.1749907786
 20
9.0595610897
 30
0.0
 10
3.1931898332
 20
8.9475420119
 30
0.0
 10
3.2020544386
 20
8.83389582
 30
0.0
 10
3.2020544388
 20
8.7498552785
 30
0.0
  0
SPLINE
  5
54B
100
AcDbEntity
  8
ASSI
100
AcDbSpline
 62
7
  6
CONTINUOUS
 70
0
 71
3
 72
9
 73
5
 74
0
 42
0.0000001
 43
0.0000001
 44
0.0000000001
 40
0.0
 40
0.0
 40
0.0
 40
0.0
 40
0.2403060418
 40
1.0
 40
1.0
 40
1.0
 40
1.0
 10
-13.909929666
 20
20.0180999076
 30
0.0
 10
-13.886309682
 20
20.0044620249
 30
0.0
 10
-13.7894799866
 20
19.9451918694
 30
0.0
 10
-13.6984795469
 20
19.8765907221
 30
0.0
 10
-13.6328129694
 20
19.8207110327
 30
0.0
  0
SPLINE
  5
54C
100
AcDbEntity
  8
ASSI
100
AcDbSpline
 62
7
  6
CONTINUOUS
 70
0
 71
3
 72
11
 73
7
 74
0
 42
0.0000001
 43
0.0000001
 44
0.0000000001
 40
0.0
 40
0.0
 40
0.0
 40
0.0
 40
0.2436407943
 40
0.5000043506
 40
0.7563656441
 40
1.0
 40
1.0
 40
1.0
 40
1.0
 10
-13.6328129694
 20
19.8207110327
 30
0.0
 10
-13.5205295754
 20
19.7251622556
 30
0.0
 10
-13.3094839521
 20
19.5056805685
 30
0.0
 10
-13.0494229477
 20
19.1268533306
 30
0.0
 10
-12.8513806259
 20
18.7122240089
 30
0.0
 10
-12.7668294214
 20
18.4197168072
 30
0.0
 10
-12.7402258967
 20
18.2747056593
 30
0.0
  0
SPLINE
  5
54D
100
AcDbEntity
  8
ASSI
100
AcDbSpline
 62
7
  6
CONTINUOUS
 70
0
 71
3
 72
9
 73
5
 74
0
 42
0.0000001
 43
0.0000001
 44
0.0000000001
 40
0.0
 40
0.0
 40
0.0
 40
0.0
 40
0.2594906671
 40
1.0
 40
1.0
 40
1.0
 40
1.0
 10
-12.7402258967
 20
18.2747056593
 30
0.0
 10
-12.7349117981
 20
18.2457394396
 30
0.0
 10
-12.7167127435
 20
18.1337203617
 30
0.0
 10
-12.7078481381
 20
18.0200741698
 30
0.0
 10
-12.7078481379
 20
17.9360336284
 30
0.0
  0
SPLINE
  5
54E
100
AcDbEntity
  8
ASSI
100
AcDbSpline
 62
7
  6
CONTINUOUS
 70
0
 71
3
 72
9
 73
5
 74
0
 42
0.0000001
 43
0.0000001
 44
0.0000000001
 40
0.0
 40
0.0
 40
0.0
 40
0.0
 40
0.2403060418
 40
1.0
 40
1.0
 40
1.0
 40
1.0
 10
-29.8198322426
 20
29.2042782575
 30
0.0
 10
-29.7962122587
 20
29.1906403747
 30
0.0
 10
-29.6993825633
 20
29.1313702193
 30
0.0
 10
-29.6083821236
 20
29.062769072
 30
0.0
 10
-29.5427155461
 20
29.0068893826
 30
0.0
  0
SPLINE
  5
54F
100
AcDbEntity
  8
ASSI
100
AcDbSpline
 62
7
  6
CONTINUOUS
 70
0
 71
3
 72
11
 73
7
 74
0
 42
0.0000001
 43
0.0000001
 44
0.0000000001
 40
0.0
 40
0.0
 40
0.0
 40
0.0
 40
0.2436407943
 40
0.5000043506
 40
0.7563656441
 40
1.0
 40
1.0
 40
1.0
 40
1.0
 10
-29.5427155461
 20
29.0068893826
 30
0.0
 10
-29.430432152
 20
28.9113406054
 30
0.0
 10
-29.2193865288
 20
28.6918589184
 30
0.0
 10
-28.9593255244
 20
28.3130316804
 30
0.0
 10
-28.7612832026
 20
27.8984023588
 30
0.0
 10
-28.6767319981
 20
27.6058951571
 30
0.0
 10
-28.6501284734
 20
27.4608840091
 30
0.0
  0
SPLINE
  5
550
100
AcDbEntity
  8
ASSI
100
AcDbSpline
 62
7
  6
CONTINUOUS
 70
0
 71
3
 72
9
 73
5
 74
0
 42
0.0000001
 43
0.0000001
 44
0.0000000001
 40
0.0
 40
0.0
 40
0.0
 40
0.0
 40
0.2594906671
 40
1.0
 40
1.0
 40
1.0
 40
1.0
 10
-28.6501284734
 20
27.4608840091
 30
0.0
 10
-28.6448143748
 20
27.4319177895
 30
0.0
 10
-28.6266153201
 20
27.3198987116
 30
0.0
 10
-28.6177507148
 20
27.2062525197
 30
0.0
 10
-28.6177507146
 20
27.1222119783
 30
0.0
  0
SPLINE
  5
551
100
AcDbEntity
  8
ASSI
100
AcDbSpline
 62
7
  6
CONTINUOUS
 70
0
 71
3
 72
15
 73
11
 74
0
 42
0.0000001
 43
0.0000001
 44
0.0000000001
 40
0.0
 40
0.0
 40
0.0
 40
0.0
 40
0.1141552322
 40
0.2373201624
 40
0.3669698969
 40
0.4999939496
 40
0.6330188429
 40
0.7626710358
 40
0.8858398389
 40
1.0
 40
1.0
 40
1.0
 40
1.0
 10
-39.2899863123
 20
23.8949688035
 30
0.0
 10
-39.2899863119
 20
23.789168193
 30
0.0
 10
-39.2706091549
 20
23.5690108448
 30
0.0
 10
-39.1933495204
 20
23.2368782023
 30
0.0
 10
-39.0695995443
 20
22.9004505764
 30
0.0
 10
-38.9039656967
 20
22.5723763039
 30
0.0
 10
-38.7026606126
 20
22.2648942259
 30
0.0
 10
-38.473177193
 20
21.9895041508
 30
0.0
 10
-38.224166144
 20
21.7565198003
 30
0.0
 10
-38.0431887228
 20
21.6296519684
 30
0.0
 10
-37.9515602263
 20
21.5767468228
 30
0.0
  0
SPLINE
  5
552
100
AcDbEntity
  8
ASSI
100
AcDbSpline
 62
7
  6
CONTINUOUS
 70
0
 71
3
 72
15
 73
11
 74
0
 42
0.0000001
 43
0.0000001
 44
0.0000000001
 40
0.0
 40
0.0
 40
0.0
 40
0.0
 40
0.1141552322
 40
0.2373201624
 40
0.3669698969
 40
0.4999939496
 40
0.6330188429
 40
0.7626710358
 40
0.8858398389
 40
1.0
 40
1.0
 40
1.0
 40
1.0
 10
-23.3800837356
 20
14.7087904536
 30
0.0
 10
-23.3800837352
 20
14.6029898432
 30
0.0
 10
-23.3607065782
 20
14.3828324949
 30
0.0
 10
-23.2834469437
 20
14.0506998524
 30
0.0
 10
-23.1596969676
 20
13.7142722265
 30
0.0
 10
-22.99406312
 20
13.386197954
 30
0.0
 10
-22.7927580359
 20
13.078715876
 30
0.0
 10
-22.5632746163
 20
12.8033258009
 30
0.0
 10
-22.3142635673
 20
12.5703414505
 30
0.0
 10
-22.1332861461
 20
12.4434736186
 30
0.0
 10
-22.0416576496
 20
12.3905684729
 30
0.0
  0
SPLINE
  5
553
100
AcDbEntity
  8
ASSI
100
AcDbSpline
 62
7
  6
CONTINUOUS
 70
0
 71
3
 72
15
 73
11
 74
0
 42
0.0000001
 43
0.0000001
 44
0.0000000001
 40
0.0
 40
0.0
 40
0.0
 40
0.0
 40
0.1141552322
 40
0.2373201624
 40
0.3669698969
 40
0.4999939496
 40
0.6330188429
 40
0.7626710358
 40
0.8858398389
 40
1.0
 40
1.0
 40
1.0
 40
1.0
 10
-7.4701811589
 20
5.5226121037
 30
0.0
 10
-7.4701811585
 20
5.4168114933
 30
0.0
 10
-7.4508040015
 20
5.1966541451
 30
0.0
 10
-7.373544367
 20
4.8645215026
 30
0.0
 10
-7.2497943909
 20
4.5280938766
 30
0.0
 10
-7.0841605433
 20
4.2000196041
 30
0.0
 10
-6.8828554592
 20
3.8925375262
 30
0.0
 10
-6.6533720396
 20
3.617147451
 30
0.0
 10
-6.4043609906
 20
3.3841631006
 30
0.0
 10
-6.2233835694
 20
3.2572952687
 30
0.0
 10
-6.1317550729
 20
3.204390123
 30
0.0
  0
SPLINE
  5
554
100
AcDbEntity
  8
ASSI
100
AcDbSpline
 62
7
  6
CONTINUOUS
 70
0
 71
3
 72
15
 73
11
 74
0
 42
0.0000001
 43
0.0000001
 44
0.0000000001
 40
0.0
 40
0.0
 40
0.0
 40
0.0
 40
0.1141552322
 40
0.2373201624
 40
0.3669698969
 40
0.4999939496
 40
0.6330188429
 40
0.7626710358
 40
0.8858398389
 40
1.0
 40
1.0
 40
1.0
 40
1.0
 10
8.4397214178
 20
-3.6635662462
 30
0.0
 10
8.4397214182
 20
-3.7693668566
 30
0.0
 10
8.4590985752
 20
-3.9895242048
 30
0.0
 10
8.5363582097
 20
-4.3216568473
 30
0.0
 10
8.6601081858
 20
-4.6580844732
 30
0.0
 10
8.8257420334
 20
-4.9861587457
 30
0.0
 10
9.0270471175
 20
-5.2936408237
 30
0.0
 10
9.2565305371
 20
-5.5690308989
 30
0.0
 10
9.5055415861
 20
-5.8020152493
 30
0.0
 10
9.6865190073
 20
-5.9288830812
 30
0.0
 10
9.7781475038
 20
-5.9817882269
 30
0.0
  0
SPLINE
  5
555
100
AcDbEntity
  8
ASSI
100
AcDbSpline
 62
7
  6
CONTINUOUS
 70
0
 71
3
 72
15
 73
11
 74
0
 42
0.0000001
 43
0.0000001
 44
0.0000000001
 40
0.0
 40
0.0
 40
0.0
 40
0.0
 40
0.1141552322
 40
0.2373201624
 40
0.3669698969
 40
0.4999939496
 40
0.6330188429
 40
0.7626710358
 40
0.8858398389
 40
1.0
 40
1.0
 40
1.0
 40
1.0
 10
24.3496239945
 20
-12.849744596
 30
0.0
 10
24.3496239949
 20
-12.9555452065
 30
0.0
 10
24.3690011519
 20
-13.1757025547
 30
0.0
 10
24.4462607864
 20
-13.5078351972
 30
0.0
 10
24.5700107625
 20
-13.8442628231
 30
0.0
 10
24.7356446101
 20
-14.1723370956
 30
0.0
 10
24.9369496942
 20
-14.4798191736
 30
0.0
 10
25.1664331138
 20
-14.7552092487
 30
0.0
 10
25.4154441628
 20
-14.9881935992
 30
0.0
 10
25.596421584
 20
-15.1150614311
 30
0.0
 10
25.6880500805
 20
-15.1679665767
 30
0.0
  0
SPLINE
  5
556
100
AcDbEntity
  8
ASSI
100
AcDbSpline
 62
7
  6
CONTINUOUS
 70
0
 71
3
 72
15
 73
11
 74
0
 42
0.0000001
 43
0.0000001
 44
0.0000000001
 40
0.0
 40
0.0
 40
0.0
 40
0.0
 40
0.1141552314
 40
0.2373201618
 40
0.366969896
 40
0.4999939478
 40
0.6330188419
 40
0.7626710351
 40
0.8858398382
 40
1.0
 40
1.0
 40
1.0
 40
1.0
 10
24.3496239945
 20
-29.5873852703
 30
0.0
 10
24.3496239946
 20
-29.69318588
 30
0.0
 10
24.3690011517
 20
-29.9133432277
 30
0.0
 10
24.4462607861
 20
-30.2454758693
 30
0.0
 10
24.5700107611
 20
-30.5819034947
 30
0.0
 10
24.7356446084
 20
-30.909977767
 30
0.0
 10
24.9369496926
 20
-31.2174598452
 30
0.0
 10
25.166433112
 20
-31.4928499217
 30
0.0
 10
25.4154441618
 20
-31.7258342726
 30
0.0
 10
25.5964215835
 20
-31.8527021047
 30
0.0
 10
25.6880500805
 20
-31.905607251
 30
0.0
  0
SPLINE
  5
557
100
AcDbEntity
  8
ASSI
100
AcDbSpline
 62
7
  6
CONTINUOUS
 70
0
 71
3
 72
15
 73
11
 74
0
 42
0.0000001
 43
0.0000001
 44
0.0000000001
 40
0.0
 40
0.0
 40
0.0
 40
0.0
 40
0.1141552314
 40
0.2373201618
 40
0.366969896
 40
0.4999939478
 40
0.6330188419
 40
0.7626710351
 40
0.8858398382
 40
1.0
 40
1.0
 40
1.0
 40
1.0
 10
8.4397214178
 20
-20.4012069204
 30
0.0
 10
8.4397214179
 20
-20.5070075302
 30
0.0
 10
8.459098575
 20
-20.7271648779
 30
0.0
 10
8.5363582094
 20
-21.0592975194
 30
0.0
 10
8.6601081844
 20
-21.3957251448
 30
0.0
 10
8.8257420317
 20
-21.7237994171
 30
0.0
 10
9.0270471159
 20
-22.0312814954
 30
0.0
 10
9.2565305353
 20
-22.3066715718
 30
0.0
 10
9.5055415851
 20
-22.5396559228
 30
0.0
 10
9.6865190068
 20
-22.6665237548
 30
0.0
 10
9.7781475038
 20
-22.7194289011
 30
0.0
  0
SPLINE
  5
558
100
AcDbEntity
  8
ASSI
100
AcDbSpline
 62
7
  6
CONTINUOUS
 70
0
 71
3
 72
15
 73
11
 74
0
 42
0.0000001
 43
0.0000001
 44
0.0000000001
 40
0.0
 40
0.0
 40
0.0
 40
0.0
 40
0.1141552314
 40
0.2373201618
 40
0.366969896
 40
0.4999939478
 40
0.6330188419
 40
0.7626710351
 40
0.8858398382
 40
1.0
 40
1.0
 40
1.0
 40
1.0
 10
-7.4701811589
 20
-11.2150285705
 30
0.0
 10
-7.4701811588
 20
-11.3208291803
 30
0.0
 10
-7.4508040017
 20
-11.540986528
 30
0.0
 10
-7.3735443673
 20
-11.8731191695
 30
0.0
 10
-7.2497943923
 20
-12.2095467949
 30
0.0
 10
-7.084160545
 20
-12.5376210672
 30
0.0
 10
-6.8828554608
 20
-12.8451031455
 30
0.0
 10
-6.6533720414
 20
-13.1204932219
 30
0.0
 10
-6.4043609916
 20
-13.3534775729
 30
0.0
 10
-6.2233835699
 20
-13.480345405
 30
0.0
 10
-6.1317550729
 20
-13.5332505512
 30
0.0
  0
SPLINE
  5
559
100
AcDbEntity
  8
ASSI
100
AcDbSpline
 62
7
  6
CONTINUOUS
 70
0
 71
3
 72
15
 73
11
 74
0
 42
0.0000001
 43
0.0000001
 44
0.0000000001
 40
0.0
 40
0.0
 40
0.0
 40
0.0
 40
0.1141552314
 40
0.2373201618
 40
0.366969896
 40
0.4999939478
 40
0.6330188419
 40
0.7626710351
 40
0.8858398382
 40
1.0
 40
1.0
 40
1.0
 40
1.0
 10
-23.3800837356
 20
-2.0288502207
 30
0.0
 10
-23.3800837354
 20
-2.1346508304
 30
0.0
 10
-23.3607065784
 20
-2.3548081781
 30
0.0
 10
-23.2834469439
 20
-2.6869408197
 30
0.0
 10
-23.159696969
 20
-3.023368445
 30
0.0
 10
-22.9940631217
 20
-3.3514427173
 30
0.0
 10
-22.7927580375
 20
-3.6589247956
 30
0.0
 10
-22.5632746181
 20
-3.9343148721
 30
0.0
 10
-22.3142635682
 20
-4.167299223
 30
0.0
 10
-22.1332861466
 20
-4.2941670551
 30
0.0
 10
-22.0416576496
 20
-4.3470722014
 30
0.0
  0
SPLINE
  5
55A
100
AcDbEntity
  8
ASSI
100
AcDbSpline
 62
7
  6
CONTINUOUS
 70
0
 71
3
 72
15
 73
11
 74
0
 42
0.0000001
 43
0.0000001
 44
0.0000000001
 40
0.0
 40
0.0
 40
0.0
 40
0.0
 40
0.1141552314
 40
0.2373201618
 40
0.366969896
 40
0.4999939478
 40
0.6330188419
 40
0.7626710351
 40
0.8858398382
 40
1.0
 40
1.0
 40
1.0
 40
1.0
 10
-39.2899863123
 20
7.1573281292
 30
0.0
 10
-39.2899863121
 20
7.0515275195
 30
0.0
 10
-39.2706091551
 20
6.8313701718
 30
0.0
 10
-39.1933495206
 20
6.4992375302
 30
0.0
 10
-39.0695995457
 20
6.1628099048
 30
0.0
 10
-38.9039656984
 20
5.8347356325
 30
0.0
 10
-38.7026606142
 20
5.5272535543
 30
0.0
 10
-38.4731771948
 20
5.2518634778
 30
0.0
 10
-38.2241661449
 20
5.0188791269
 30
0.0
 10
-38.0431887233
 20
4.8920112948
 30
0.0
 10
-37.9515602263
 20
4.8391061485
 30
0.0
  0
SPLINE
  5
55B
100
AcDbEntity
  8
ASSI
100
AcDbSpline
 62
7
  6
CONTINUOUS
 70
0
 71
3
 72
9
 73
5
 74
0
 42
0.0000001
 43
0.0000001
 44
0.0000000001
 40
0.0
 40
0.0
 40
0.0
 40
0.0
 40
0.5167962532
 40
1.0
 40
1.0
 40
1.0
 40
1.0
 10
-29.0220286938
 20
-0.6663645977
 30
0.0
 10
-28.9837234819
 20
-0.6715810412
 30
0.0
 10
-28.9083684251
 20
-0.6747502946
 30
0.0
 10
-28.834056838
 20
-0.6604755936
 30
0.0
 10
-28.7997542305
 20
-0.6490801208
 30
0.0
  0
SPLINE
  5
55C
100
AcDbEntity
  8
ASSI
100
AcDbSpline
 62
7
  6
CONTINUOUS
 70
0
 71
3
 72
9
 73
5
 74
0
 42
0.0000001
 43
0.0000001
 44
0.0000000001
 40
0.0
 40
0.0
 40
0.0
 40
0.0
 40
0.5167962532
 40
1.0
 40
1.0
 40
1.0
 40
1.0
 10
-13.1121261171
 20
-9.8525429476
 30
0.0
 10
-13.0738209052
 20
-9.857759391
 30
0.0
 10
-12.9984658484
 20
-9.8609286444
 30
0.0
 10
-12.9241542613
 20
-9.8466539435
 30
0.0
 10
-12.8898516538
 20
-9.8352584707
 30
0.0
  0
SPLINE
  5
55D
100
AcDbEntity
  8
ASSI
100
AcDbSpline
 62
7
  6
CONTINUOUS
 70
0
 71
3
 72
9
 73
5
 74
0
 42
0.0000001
 43
0.0000001
 44
0.0000000001
 40
0.0
 40
0.0
 40
0.0
 40
0.0
 40
0.5167962532
 40
1.0
 40
1.0
 40
1.0
 40
1.0
 10
2.7977764596
 20
-19.0387212975
 30
0.0
 10
2.8360816715
 20
-19.0439377409
 30
0.0
 10
2.9114367283
 20
-19.0471069943
 30
0.0
 10
2.9857483154
 20
-19.0328322934
 30
0.0
 10
3.0200509229
 20
-19.0214368206
 30
0.0
  0
SPLINE
  5
55E
100
AcDbEntity
  8
ASSI
100
AcDbSpline
 62
7
  6
CONTINUOUS
 70
0
 71
3
 72
9
 73
5
 74
0
 42
0.0000001
 43
0.0000001
 44
0.0000000001
 40
0.0
 40
0.0
 40
0.0
 40
0.0
 40
0.5167962532
 40
1.0
 40
1.0
 40
1.0
 40
1.0
 10
18.7076790363
 20
-28.2248996474
 30
0.0
 10
18.7459842482
 20
-28.2301160908
 30
0.0
 10
18.821339305
 20
-28.2332853442
 30
0.0
 10
18.8956508921
 20
-28.2190106432
 30
0.0
 10
18.9299534996
 20
-28.2076151704
 30
0.0
  0
SPLINE
  5
55F
100
AcDbEntity
  8
ASSI
100
AcDbSpline
 62
7
  6
CONTINUOUS
 70
0
 71
3
 72
9
 73
5
 74
0
 42
0.0000001
 43
0.0000001
 44
0.0000000001
 40
0.0
 40
0.0
 40
0.0
 40
0.0
 40
0.5167962532
 40
1.0
 40
1.0
 40
1.0
 40
1.0
 10
34.617581613
 20
-37.4110779972
 30
0.0
 10
34.6558868249
 20
-37.4162944407
 30
0.0
 10
34.7312418817
 20
-37.4194636941
 30
0.0
 10
34.8055534688
 20
-37.4051889931
 30
0.0
 10
34.8398560763
 20
-37.3937935203
 30
0.0
  0
SPLINE
  5
560
100
AcDbEntity
  8
ASSI
100
AcDbSpline
 62
7
  6
CONTINUOUS
 70
0
 71
3
 72
9
 73
5
 74
0
 42
0.0000001
 43
0.0000001
 44
0.0000000001
 40
0.0
 40
0.0
 40
0.0
 40
0.0
 40
0.5167962516
 40
1.0
 40
1.0
 40
1.0
 40
1.0
 10
34.617581613
 20
-20.673437323
 30
0.0
 10
34.6558868273
 20
-20.6786537668
 30
0.0
 10
34.7312418892
 20
-20.68182302
 30
0.0
 10
34.805553481
 20
-20.6675483161
 30
0.0
 10
34.8398560904
 20
-20.6561528413
 30
0.0
  0
SPLINE
  5
561
100
AcDbEntity
  8
ASSI
100
AcDbSpline
 62
7
  6
CONTINUOUS
 70
0
 71
3
 72
9
 73
5
 74
0
 42
0.0000001
 43
0.0000001
 44
0.0000000001
 40
0.0
 40
0.0
 40
0.0
 40
0.0
 40
0.5167962516
 40
1.0
 40
1.0
 40
1.0
 40
1.0
 10
18.7076790363
 20
-11.4872589731
 30
0.0
 10
18.7459842506
 20
-11.4924754169
 30
0.0
 10
18.8213393125
 20
-11.4956446702
 30
0.0
 10
18.8956509043
 20
-11.4813699662
 30
0.0
 10
18.9299535137
 20
-11.4699744915
 30
0.0
  0
SPLINE
  5
562
100
AcDbEntity
  8
ASSI
100
AcDbSpline
 62
7
  6
CONTINUOUS
 70
0
 71
3
 72
9
 73
5
 74
0
 42
0.0000001
 43
0.0000001
 44
0.0000000001
 40
0.0
 40
0.0
 40
0.0
 40
0.0
 40
0.5167962516
 40
1.0
 40
1.0
 40
1.0
 40
1.0
 10
2.7977764596
 20
-2.3010806232
 30
0.0
 10
2.8360816739
 20
-2.3062970671
 30
0.0
 10
2.9114367358
 20
-2.3094663203
 30
0.0
 10
2.9857483276
 20
-2.2951916163
 30
0.0
 10
3.020050937
 20
-2.2837961416
 30
0.0
  0
SPLINE
  5
563
100
AcDbEntity
  8
ASSI
100
AcDbSpline
 62
7
  6
CONTINUOUS
 70
0
 71
3
 72
9
 73
5
 74
0
 42
0.0000001
 43
0.0000001
 44
0.0000000001
 40
0.0
 40
0.0
 40
0.0
 40
0.0
 40
0.5167962516
 40
1.0
 40
1.0
 40
1.0
 40
1.0
 10
-13.1121261171
 20
6.8850977266
 30
0.0
 10
-13.0738209028
 20
6.8798812828
 30
0.0
 10
-12.9984658409
 20
6.8767120296
 30
0.0
 10
-12.9241542491
 20
6.8909867336
 30
0.0
 10
-12.8898516397
 20
6.9023822083
 30
0.0
  0
SPLINE
  5
564
100
AcDbEntity
  8
ASSI
100
AcDbSpline
 62
7
  6
CONTINUOUS
 70
0
 71
3
 72
9
 73
5
 74
0
 42
0.0000001
 43
0.0000001
 44
0.0000000001
 40
0.0
 40
0.0
 40
0.0
 40
0.0
 40
0.5167962516
 40
1.0
 40
1.0
 40
1.0
 40
1.0
 10
-29.0220286938
 20
16.0712760765
 30
0.0
 10
-28.9837234795
 20
16.0660596327
 30
0.0
 10
-28.9083684176
 20
16.0628903795
 30
0.0
 10
-28.8340568258
 20
16.0771650834
 30
0.0
 10
-28.7997542164
 20
16.0885605582
 30
0.0
  0
SPLINE
  5
565
100
AcDbEntity
  8
ASSI
100
AcDbSpline
 62
7
  6
CONTINUOUS
 70
0
 71
3
 72
11
 73
7
 74
0
 42
0.0000001
 43
0.0000001
 44
0.0000000001
 40
0.0
 40
0.0
 40
0.0
 40
0.0
 40
0.2177664942
 40
0.4509473065
 40
0.7101859235
 40
1.0
 40
1.0
 40
1.0
 40
1.0
 10
-39.541537098
 20
34.530506584
 30
0.0
 10
-39.5019549801
 20
34.5533607968
 30
0.0
 10
-39.4109991732
 20
34.5863975603
 30
0.0
 10
-39.2599452559
 20
34.5901739051
 30
0.0
 10
-39.0989228209
 20
34.551343927
 30
0.0
 10
-38.9941874941
 20
34.5014754528
 30
0.0
 10
-38.94150972
 20
34.4710599663
 30
0.0
  0
SPLINE
  5
566
100
AcDbEntity
  8
ASSI
100
AcDbSpline
 62
7
  6
CONTINUOUS
 70
0
 71
3
 72
9
 73
5
 74
0
 42
0.0000001
 43
0.0000001
 44
0.0000000001
 40
0.0
 40
0.0
 40
0.0
 40
0.0
 40
0.2435928544
 40
1.0
 40
1.0
 40
1.0
 40
1.0
 10
-39.4666724423
 20
34.5640697936
 30
0.0
 10
-39.475554534
 20
34.556176516
 30
0.0
 10
-39.5106322577
 20
34.5222252047
 30
0.0
 10
-39.5398358666
 20
34.48238051
 30
0.0
 10
-39.5583647037
 20
34.4504722792
 30
0.0
  0
SPLINE
  5
567
100
AcDbEntity
  8
ASSI
100
AcDbSpline
 62
7
  6
CONTINUOUS
 70
0
 71
3
 72
9
 73
5
 74
0
 42
0.0000001
 43
0.0000001
 44
0.0000000001
 40
0.0
 40
0.0
 40
0.0
 40
0.0
 40
0.2451236602
 40
1.0
 40
1.0
 40
1.0
 40
1.0
 10
-39.5583647037
 20
34.4504722792
 30
0.0
 10
-39.5615760907
 20
34.444941998
 30
0.0
 10
-39.5742645028
 20
34.4221426213
 30
0.0
 10
-39.5853128561
 20
34.3984391256
 30
0.0
 10
-39.5927674281
 20
34.380210374
 30
0.0
  0
SPLINE
  5
568
100
AcDbEntity
  8
ASSI
100
AcDbSpline
 62
7
  6
CONTINUOUS
 70
0
 71
3
 72
11
 73
7
 74
0
 42
0.0000001
 43
0.0000001
 44
0.0000000001
 40
0.0
 40
0.0
 40
0.0
 40
0.0
 40
0.2177664942
 40
0.4509473065
 40
0.7101859235
 40
1.0
 40
1.0
 40
1.0
 40
1.0
 10
-23.6316345213
 20
25.3443282341
 30
0.0
 10
-23.5920524034
 20
25.3671824469
 30
0.0
 10
-23.5010965965
 20
25.4002192104
 30
0.0
 10
-23.3500426792
 20
25.4039955552
 30
0.0
 10
-23.1890202442
 20
25.3651655771
 30
0.0
 10
-23.0842849174
 20
25.3152971029
 30
0.0
 10
-23.0316071433
 20
25.2848816165
 30
0.0
  0
SPLINE
  5
569
100
AcDbEntity
  8
ASSI
100
AcDbSpline
 62
7
  6
CONTINUOUS
 70
0
 71
3
 72
9
 73
5
 74
0
 42
0.0000001
 43
0.0000001
 44
0.0000000001
 40
0.0
 40
0.0
 40
0.0
 40
0.0
 40
0.2435928544
 40
1.0
 40
1.0
 40
1.0
 40
1.0
 10
-23.5567698656
 20
25.3778914437
 30
0.0
 10
-23.5656519573
 20
25.3699981662
 30
0.0
 10
-23.600729681
 20
25.3360468548
 30
0.0
 10
-23.6299332899
 20
25.2962021601
 30
0.0
 10
-23.648462127
 20
25.2642939293
 30
0.0
  0
SPLINE
  5
56A
100
AcDbEntity
  8
ASSI
100
AcDbSpline
 62
7
  6
CONTINUOUS
 70
0
 71
3
 72
9
 73
5
 74
0
 42
0.0000001
 43
0.0000001
 44
0.0000000001
 40
0.0
 40
0.0
 40
0.0
 40
0.0
 40
0.2451236602
 40
1.0
 40
1.0
 40
1.0
 40
1.0
 10
-23.648462127
 20
25.2642939293
 30
0.0
 10
-23.651673514
 20
25.2587636481
 30
0.0
 10
-23.6643619261
 20
25.2359642714
 30
0.0
 10
-23.6754102794
 20
25.2122607758
 30
0.0
 10
-23.6828648514
 20
25.1940320241
 30
0.0
  0
SPLINE
  5
56B
100
AcDbEntity
  8
ASSI
100
AcDbSpline
 62
7
  6
CONTINUOUS
 70
0
 71
3
 72
11
 73
7
 74
0
 42
0.0000001
 43
0.0000001
 44
0.0000000001
 40
0.0
 40
0.0
 40
0.0
 40
0.0
 40
0.2177664942
 40
0.4509473065
 40
0.7101859235
 40
1.0
 40
1.0
 40
1.0
 40
1.0
 10
-7.7217319446
 20
16.1581498842
 30
0.0
 10
-7.6821498267
 20
16.1810040971
 30
0.0
 10
-7.5911940198
 20
16.2140408605
 30
0.0
 10
-7.4401401025
 20
16.2178172053
 30
0.0
 10
-7.2791176675
 20
16.1789872273
 30
0.0
 10
-7.1743823407
 20
16.129118753
 30
0.0
 10
-7.1217045666
 20
16.0987032666
 30
0.0
  0
SPLINE
  5
56C
100
AcDbEntity
  8
ASSI
100
AcDbSpline
 62
7
  6
CONTINUOUS
 70
0
 71
3
 72
9
 73
5
 74
0
 42
0.0000001
 43
0.0000001
 44
0.0000000001
 40
0.0
 40
0.0
 40
0.0
 40
0.0
 40
0.2435928544
 40
1.0
 40
1.0
 40
1.0
 40
1.0
 10
-7.6468672889
 20
16.1917130938
 30
0.0
 10
-7.6557493806
 20
16.1838198163
 30
0.0
 10
-7.6908271043
 20
16.1498685049
 30
0.0
 10
-7.7200307132
 20
16.1100238102
 30
0.0
 10
-7.7385595503
 20
16.0781155794
 30
0.0
  0
SPLINE
  5
56D
100
AcDbEntity
  8
ASSI
100
AcDbSpline
 62
7
  6
CONTINUOUS
 70
0
 71
3
 72
9
 73
5
 74
0
 42
0.0000001
 43
0.0000001
 44
0.0000000001
 40
0.0
 40
0.0
 40
0.0
 40
0.0
 40
0.2451236602
 40
1.0
 40
1.0
 40
1.0
 40
1.0
 10
-7.7385595503
 20
16.0781155794
 30
0.0
 10
-7.7417709373
 20
16.0725852983
 30
0.0
 10
-7.7544593494
 20
16.0497859216
 30
0.0
 10
-7.7655077027
 20
16.0260824259
 30
0.0
 10
-7.7729622747
 20
16.0078536743
 30
0.0
  0
SPLINE
  5
56E
100
AcDbEntity
  8
ASSI
100
AcDbSpline
 62
7
  6
CONTINUOUS
 70
0
 71
3
 72
11
 73
7
 74
0
 42
0.0000001
 43
0.0000001
 44
0.0000000001
 40
0.0
 40
0.0
 40
0.0
 40
0.0
 40
0.2177664942
 40
0.4509473065
 40
0.7101859235
 40
1.0
 40
1.0
 40
1.0
 40
1.0
 10
8.1881706321
 20
6.9719715344
 30
0.0
 10
8.22775275
 20
6.9948257472
 30
0.0
 10
8.3187085569
 20
7.0278625106
 30
0.0
 10
8.4697624741
 20
7.0316388554
 30
0.0
 10
8.6307849092
 20
6.9928088774
 30
0.0
 10
8.735520236
 20
6.9429404032
 30
0.0
 10
8.7881980101
 20
6.9125249167
 30
0.0
  0
SPLINE
  5
56F
100
AcDbEntity
  8
ASSI
100
AcDbSpline
 62
7
  6
CONTINUOUS
 70
0
 71
3
 72
9
 73
5
 74
0
 42
0.0000001
 43
0.0000001
 44
0.0000000001
 40
0.0
 40
0.0
 40
0.0
 40
0.0
 40
0.2435928544
 40
1.0
 40
1.0
 40
1.0
 40
1.0
 10
8.2630352878
 20
7.0055347439
 30
0.0
 10
8.2541531961
 20
6.9976414664
 30
0.0
 10
8.2190754724
 20
6.9636901551
 30
0.0
 10
8.1898718635
 20
6.9238454604
 30
0.0
 10
8.1713430264
 20
6.8919372295
 30
0.0
  0
SPLINE
  5
570
100
AcDbEntity
  8
ASSI
100
AcDbSpline
 62
7
  6
CONTINUOUS
 70
0
 71
3
 72
9
 73
5
 74
0
 42
0.0000001
 43
0.0000001
 44
0.0000000001
 40
0.0
 40
0.0
 40
0.0
 40
0.0
 40
0.2451236602
 40
1.0
 40
1.0
 40
1.0
 40
1.0
 10
8.1713430264
 20
6.8919372295
 30
0.0
 10
8.1681316394
 20
6.8864069484
 30
0.0
 10
8.1554432273
 20
6.8636075717
 30
0.0
 10
8.144394874
 20
6.839904076
 30
0.0
 10
8.136940302
 20
6.8216753244
 30
0.0
  0
SPLINE
  5
571
100
AcDbEntity
  8
ASSI
100
AcDbSpline
 62
7
  6
CONTINUOUS
 70
0
 71
3
 72
11
 73
7
 74
0
 42
0.0000001
 43
0.0000001
 44
0.0000000001
 40
0.0
 40
0.0
 40
0.0
 40
0.0
 40
0.2177664942
 40
0.4509473065
 40
0.7101859235
 40
1.0
 40
1.0
 40
1.0
 40
1.0
 10
24.0980732088
 20
-2.2142068155
 30
0.0
 10
24.1376553267
 20
-2.1913526027
 30
0.0
 10
24.2286111336
 20
-2.1583158392
 30
0.0
 10
24.3796650508
 20
-2.1545394944
 30
0.0
 10
24.5406874859
 20
-2.1933694725
 30
0.0
 10
24.6454228127
 20
-2.2432379467
 30
0.0
 10
24.6981005868
 20
-2.2736534332
 30
0.0
  0
SPLINE
  5
572
100
AcDbEntity
  8
ASSI
100
AcDbSpline
 62
7
  6
CONTINUOUS
 70
0
 71
3
 72
9
 73
5
 74
0
 42
0.0000001
 43
0.0000001
 44
0.0000000001
 40
0.0
 40
0.0
 40
0.0
 40
0.0
 40
0.2435928544
 40
1.0
 40
1.0
 40
1.0
 40
1.0
 10
24.1729378645
 20
-2.1806436059
 30
0.0
 10
24.1640557728
 20
-2.1885368835
 30
0.0
 10
24.1289780491
 20
-2.2224881948
 30
0.0
 10
24.0997744402
 20
-2.2623328895
 30
0.0
 10
24.0812456031
 20
-2.2942411203
 30
0.0
  0
SPLINE
  5
573
100
AcDbEntity
  8
ASSI
100
AcDbSpline
 62
7
  6
CONTINUOUS
 70
0
 71
3
 72
9
 73
5
 74
0
 42
0.0000001
 43
0.0000001
 44
0.0000000001
 40
0.0
 40
0.0
 40
0.0
 40
0.0
 40
0.2451236602
 40
1.0
 40
1.0
 40
1.0
 40
1.0
 10
24.0812456031
 20
-2.2942411203
 30
0.0
 10
24.0780342161
 20
-2.2997714015
 30
0.0
 10
24.065345804
 20
-2.3225707782
 30
0.0
 10
24.0542974507
 20
-2.3462742739
 30
0.0
 10
24.0468428787
 20
-2.3645030255
 30
0.0
  0
SPLINE
  5
574
100
AcDbEntity
  8
ASSI
100
AcDbSpline
 62
7
  6
CONTINUOUS
 70
0
 71
3
 72
9
 73
5
 74
0
 42
0.0000001
 43
0.0000001
 44
0.0000000001
 40
0.0
 40
0.0
 40
0.0
 40
0.0
 40
0.2435928246
 40
1.0
 40
1.0
 40
1.0
 40
1.0
 10
-39.4666724311
 20
17.8264291292
 30
0.0
 10
-39.4755545577
 20
17.8185358211
 30
0.0
 10
-39.5106324185
 20
17.7845843681
 30
0.0
 10
-39.5398361164
 20
17.7447394866
 30
0.0
 10
-39.5583649938
 20
17.7128311057
 30
0.0
  0
SPLINE
  5
575
100
AcDbEntity
  8
ASSI
100
AcDbSpline
 62
7
  6
CONTINUOUS
 70
0
 71
3
 72
9
 73
5
 74
0
 42
0.0000001
 43
0.0000001
 44
0.0000000001
 40
0.0
 40
0.0
 40
0.0
 40
0.0
 40
0.245123693
 40
1.0
 40
1.0
 40
1.0
 40
1.0
 10
-39.5583649938
 20
17.7128311057
 30
0.0
 10
-39.5615763515
 20
17.707300861
 30
0.0
 10
-39.5742646484
 20
17.6845016403
 30
0.0
 10
-39.5853129114
 20
17.6607983163
 30
0.0
 10
-39.5927674281
 20
17.6425696998
 30
0.0
  0
SPLINE
  5
576
100
AcDbEntity
  8
ASSI
100
AcDbSpline
 62
7
  6
CONTINUOUS
 70
0
 71
3
 72
11
 73
7
 74
0
 42
0.0000001
 43
0.0000001
 44
0.0000000001
 40
0.0
 40
0.0
 40
0.0
 40
0.0
 40
0.2177664931
 40
0.4509473057
 40
0.7101859194
 40
1.0
 40
1.0
 40
1.0
 40
1.0
 10
-39.541537098
 20
17.7928659097
 30
0.0
 10
-39.5019549803
 20
17.8157201224
 30
0.0
 10
-39.4109991736
 20
17.8487568862
 30
0.0
 10
-39.2599452572
 20
17.8525332306
 30
0.0
 10
-39.0989228218
 20
17.8137032534
 30
0.0
 10
-38.9941874948
 20
17.7638347791
 30
0.0
 10
-38.94150972
 20
17.7334192921
 30
0.0
  0
SPLINE
  5
577
100
AcDbEntity
  8
ASSI
100
AcDbSpline
 62
7
  6
CONTINUOUS
 70
0
 71
3
 72
9
 73
5
 74
0
 42
0.0000001
 43
0.0000001
 44
0.0000000001
 40
0.0
 40
0.0
 40
0.0
 40
0.0
 40
0.2435928246
 40
1.0
 40
1.0
 40
1.0
 40
1.0
 10
-23.5567698544
 20
8.6402507793
 30
0.0
 10
-23.565651981
 20
8.6323574713
 30
0.0
 10
-23.6007298418
 20
8.5984060183
 30
0.0
 10
-23.6299335397
 20
8.5585611367
 30
0.0
 10
-23.6484624171
 20
8.5266527558
 30
0.0
  0
SPLINE
  5
578
100
AcDbEntity
  8
ASSI
100
AcDbSpline
 62
7
  6
CONTINUOUS
 70
0
 71
3
 72
9
 73
5
 74
0
 42
0.0000001
 43
0.0000001
 44
0.0000000001
 40
0.0
 40
0.0
 40
0.0
 40
0.0
 40
0.245123693
 40
1.0
 40
1.0
 40
1.0
 40
1.0
 10
-23.6484624171
 20
8.5266527558
 30
0.0
 10
-23.6516737748
 20
8.5211225111
 30
0.0
 10
-23.6643620717
 20
8.4983232905
 30
0.0
 10
-23.6754103347
 20
8.4746199664
 30
0.0
 10
-23.6828648514
 20
8.4563913499
 30
0.0
  0
SPLINE
  5
579
100
AcDbEntity
  8
ASSI
100
AcDbSpline
 62
7
  6
CONTINUOUS
 70
0
 71
3
 72
11
 73
7
 74
0
 42
0.0000001
 43
0.0000001
 44
0.0000000001
 40
0.0
 40
0.0
 40
0.0
 40
0.0
 40
0.2177664931
 40
0.4509473057
 40
0.7101859194
 40
1.0
 40
1.0
 40
1.0
 40
1.0
 10
-23.6316345213
 20
8.6066875599
 30
0.0
 10
-23.5920524036
 20
8.6295417726
 30
0.0
 10
-23.5010965969
 20
8.6625785363
 30
0.0
 10
-23.3500426805
 20
8.6663548807
 30
0.0
 10
-23.1890202451
 20
8.6275249035
 30
0.0
 10
-23.0842849181
 20
8.5776564292
 30
0.0
 10
-23.0316071433
 20
8.5472409422
 30
0.0
  0
SPLINE
  5
57A
100
AcDbEntity
  8
ASSI
100
AcDbSpline
 62
7
  6
CONTINUOUS
 70
0
 71
3
 72
9
 73
5
 74
0
 42
0.0000001
 43
0.0000001
 44
0.0000000001
 40
0.0
 40
0.0
 40
0.0
 40
0.0
 40
0.2435928246
 40
1.0
 40
1.0
 40
1.0
 40
1.0
 10
-7.6468672777
 20
-0.5459275705
 30
0.0
 10
-7.6557494043
 20
-0.5538208786
 30
0.0
 10
-7.6908272651
 20
-0.5877723316
 30
0.0
 10
-7.720030963
 20
-0.6276172131
 30
0.0
 10
-7.7385598404
 20
-0.6595255941
 30
0.0
  0
SPLINE
  5
57B
100
AcDbEntity
  8
ASSI
100
AcDbSpline
 62
7
  6
CONTINUOUS
 70
0
 71
3
 72
9
 73
5
 74
0
 42
0.0000001
 43
0.0000001
 44
0.0000000001
 40
0.0
 40
0.0
 40
0.0
 40
0.0
 40
0.245123693
 40
1.0
 40
1.0
 40
1.0
 40
1.0
 10
-7.7385598404
 20
-0.6595255941
 30
0.0
 10
-7.7417711981
 20
-0.6650558388
 30
0.0
 10
-7.754459495
 20
-0.6878550594
 30
0.0
 10
-7.765507758
 20
-0.7115583835
 30
0.0
 10
-7.7729622747
 20
-0.729787
 30
0.0
  0
SPLINE
  5
57C
100
AcDbEntity
  8
ASSI
100
AcDbSpline
 62
7
  6
CONTINUOUS
 70
0
 71
3
 72
11
 73
7
 74
0
 42
0.0000001
 43
0.0000001
 44
0.0000000001
 40
0.0
 40
0.0
 40
0.0
 40
0.0
 40
0.2177664931
 40
0.4509473057
 40
0.7101859194
 40
1.0
 40
1.0
 40
1.0
 40
1.0
 10
-7.7217319446
 20
-0.57949079
 30
0.0
 10
-7.6821498269
 20
-0.5566365773
 30
0.0
 10
-7.5911940202
 20
-0.5235998136
 30
0.0
 10
-7.4401401038
 20
-0.5198234692
 30
0.0
 10
-7.2791176684
 20
-0.5586534464
 30
0.0
 10
-7.1743823414
 20
-0.6085219207
 30
0.0
 10
-7.1217045666
 20
-0.6389374077
 30
0.0
  0
SPLINE
  5
57D
100
AcDbEntity
  8
ASSI
100
AcDbSpline
 62
7
  6
CONTINUOUS
 70
0
 71
3
 72
9
 73
5
 74
0
 42
0.0000001
 43
0.0000001
 44
0.0000000001
 40
0.0
 40
0.0
 40
0.0
 40
0.0
 40
0.2435928246
 40
1.0
 40
1.0
 40
1.0
 40
1.0
 10
8.263035299
 20
-9.7321059204
 30
0.0
 10
8.2541531724
 20
-9.7399992285
 30
0.0
 10
8.2190753116
 20
-9.7739506815
 30
0.0
 10
8.1898716137
 20
-9.813795563
 30
0.0
 10
8.1713427363
 20
-9.845703944
 30
0.0
  0
SPLINE
  5
57E
100
AcDbEntity
  8
ASSI
100
AcDbSpline
 62
7
  6
CONTINUOUS
 70
0
 71
3
 72
9
 73
5
 74
0
 42
0.0000001
 43
0.0000001
 44
0.0000000001
 40
0.0
 40
0.0
 40
0.0
 40
0.0
 40
0.245123693
 40
1.0
 40
1.0
 40
1.0
 40
1.0
 10
8.1713427363
 20
-9.845703944
 30
0.0
 10
8.1681313786
 20
-9.8512341886
 30
0.0
 10
8.1554430817
 20
-9.8740334093
 30
0.0
 10
8.1443948187
 20
-9.8977367334
 30
0.0
 10
8.136940302
 20
-9.9159653499
 30
0.0
  0
SPLINE
  5
57F
100
AcDbEntity
  8
ASSI
100
AcDbSpline
 62
7
  6
CONTINUOUS
 70
0
 71
3
 72
11
 73
7
 74
0
 42
0.0000001
 43
0.0000001
 44
0.0000000001
 40
0.0
 40
0.0
 40
0.0
 40
0.0
 40
0.2177664931
 40
0.4509473057
 40
0.7101859194
 40
1.0
 40
1.0
 40
1.0
 40
1.0
 10
8.1881706321
 20
-9.7656691399
 30
0.0
 10
8.2277527498
 20
-9.7428149272
 30
0.0
 10
8.3187085564
 20
-9.7097781634
 30
0.0
 10
8.4697624728
 20
-9.706001819
 30
0.0
 10
8.6307849083
 20
-9.7448317963
 30
0.0
 10
8.7355202353
 20
-9.7947002706
 30
0.0
 10
8.7881980101
 20
-9.8251157575
 30
0.0
  0
SPLINE
  5
580
100
AcDbEntity
  8
ASSI
100
AcDbSpline
 62
7
  6
CONTINUOUS
 70
0
 71
3
 72
9
 73
5
 74
0
 42
0.0000001
 43
0.0000001
 44
0.0000000001
 40
0.0
 40
0.0
 40
0.0
 40
0.0
 40
0.2435928246
 40
1.0
 40
1.0
 40
1.0
 40
1.0
 10
24.1729378757
 20
-18.9182842703
 30
0.0
 10
24.1640557491
 20
-18.9261775783
 30
0.0
 10
24.1289778883
 20
-18.9601290314
 30
0.0
 10
24.0997741904
 20
-18.9999739129
 30
0.0
 10
24.081245313
 20
-19.0318822938
 30
0.0
  0
SPLINE
  5
581
100
AcDbEntity
  8
ASSI
100
AcDbSpline
 62
7
  6
CONTINUOUS
 70
0
 71
3
 72
9
 73
5
 74
0
 42
0.0000001
 43
0.0000001
 44
0.0000000001
 40
0.0
 40
0.0
 40
0.0
 40
0.0
 40
0.245123693
 40
1.0
 40
1.0
 40
1.0
 40
1.0
 10
24.081245313
 20
-19.0318822938
 30
0.0
 10
24.0780339553
 20
-19.0374125385
 30
0.0
 10
24.0653456584
 20
-19.0602117592
 30
0.0
 10
24.0542973954
 20
-19.0839150832
 30
0.0
 10
24.0468428787
 20
-19.1021436997
 30
0.0
  0
SPLINE
  5
582
100
AcDbEntity
  8
ASSI
100
AcDbSpline
 62
7
  6
CONTINUOUS
 70
0
 71
3
 72
11
 73
7
 74
0
 42
0.0000001
 43
0.0000001
 44
0.0000000001
 40
0.0
 40
0.0
 40
0.0
 40
0.0
 40
0.2177664931
 40
0.4509473057
 40
0.7101859194
 40
1.0
 40
1.0
 40
1.0
 40
1.0
 10
24.0980732088
 20
-18.9518474898
 30
0.0
 10
24.1376553265
 20
-18.9289932771
 30
0.0
 10
24.2286111331
 20
-18.8959565133
 30
0.0
 10
24.3796650495
 20
-18.8921801689
 30
0.0
 10
24.540687485
 20
-18.9310101461
 30
0.0
 10
24.645422812
 20
-18.9808786204
 30
0.0
 10
24.6981005868
 20
-19.0112941074
 30
0.0
  0
SPLINE
  5
583
100
AcDbEntity
  8
ASSI
100
AcDbSpline
 62
7
  6
CONTINUOUS
 70
0
 71
3
 72
11
 73
7
 74
0
 42
0.0000001
 43
0.0000001
 44
0.0000000001
 40
0.0
 40
0.0
 40
0.0
 40
0.0
 40
0.2898085351
 40
0.5490451078
 40
0.7822281625
 40
1.0
 40
1.0
 40
1.0
 40
1.0
 10
35.0218595922
 20
-36.8925692112
 30
0.0
 10
35.021859592
 20
-36.9533869887
 30
0.0
 10
35.0126777551
 20
-37.0690055114
 30
0.0
 10
34.9657986267
 20
-37.2278441674
 30
0.0
 10
34.8870123127
 20
-37.3567537684
 30
0.0
 10
34.8129360044
 20
-37.4189992921
 30
0.0
 10
34.7733588328
 20
-37.441850649
 30
0.0
  0
SPLINE
  5
584
100
AcDbEntity
  8
ASSI
100
AcDbSpline
 62
7
  6
CONTINUOUS
 70
0
 71
3
 72
11
 73
7
 74
0
 42
0.0000001
 43
0.0000001
 44
0.0000000001
 40
0.0
 40
0.0
 40
0.0
 40
0.0
 40
0.2898085351
 40
0.5490451078
 40
0.7822281625
 40
1.0
 40
1.0
 40
1.0
 40
1.0
 10
19.1119570155
 20
-27.7063908613
 30
0.0
 10
19.1119570153
 20
-27.7672086388
 30
0.0
 10
19.1027751784
 20
-27.8828271615
 30
0.0
 10
19.05589605
 20
-28.0416658175
 30
0.0
 10
18.977109736
 20
-28.1705754186
 30
0.0
 10
18.9030334277
 20
-28.2328209422
 30
0.0
 10
18.8634562561
 20
-28.2556722991
 30
0.0
  0
SPLINE
  5
585
100
AcDbEntity
  8
ASSI
100
AcDbSpline
 62
7
  6
CONTINUOUS
 70
0
 71
3
 72
11
 73
7
 74
0
 42
0.0000001
 43
0.0000001
 44
0.0000000001
 40
0.0
 40
0.0
 40
0.0
 40
0.0
 40
0.2898085351
 40
0.5490451078
 40
0.7822281625
 40
1.0
 40
1.0
 40
1.0
 40
1.0
 10
3.2020544388
 20
-18.5202125114
 30
0.0
 10
3.2020544386
 20
-18.5810302889
 30
0.0
 10
3.1928726017
 20
-18.6966488116
 30
0.0
 10
3.1459934733
 20
-18.8554874676
 30
0.0
 10
3.0672071593
 20
-18.9843970687
 30
0.0
 10
2.993130851
 20
-19.0466425923
 30
0.0
 10
2.9535536794
 20
-19.0694939492
 30
0.0
  0
SPLINE
  5
586
100
AcDbEntity
  8
ASSI
100
AcDbSpline
 62
7
  6
CONTINUOUS
 70
0
 71
3
 72
11
 73
7
 74
0
 42
0.0000001
 43
0.0000001
 44
0.0000000001
 40
0.0
 40
0.0
 40
0.0
 40
0.0
 40
0.2898085351
 40
0.5490451078
 40
0.7822281625
 40
1.0
 40
1.0
 40
1.0
 40
1.0
 10
-12.7078481379
 20
-9.3340341615
 30
0.0
 10
-12.7078481381
 20
-9.3948519391
 30
0.0
 10
-12.717029975
 20
-9.5104704617
 30
0.0
 10
-12.7639091034
 20
-9.6693091177
 30
0.0
 10
-12.8426954174
 20
-9.7982187188
 30
0.0
 10
-12.9167717257
 20
-9.8604642424
 30
0.0
 10
-12.9563488973
 20
-9.8833155993
 30
0.0
  0
SPLINE
  5
587
100
AcDbEntity
  8
ASSI
100
AcDbSpline
 62
7
  6
CONTINUOUS
 70
0
 71
3
 72
11
 73
7
 74
0
 42
0.0000001
 43
0.0000001
 44
0.0000000001
 40
0.0
 40
0.0
 40
0.0
 40
0.0
 40
0.2898085393
 40
0.5490451086
 40
0.7822281636
 40
1.0
 40
1.0
 40
1.0
 40
1.0
 10
-28.6177507146
 20
16.5897848626
 30
0.0
 10
-28.6177507147
 20
16.5289670842
 30
0.0
 10
-28.6269325517
 20
16.4133485613
 30
0.0
 10
-28.673811681
 20
16.2545099054
 30
0.0
 10
-28.7525979941
 20
16.1256003048
 30
0.0
 10
-28.8266743026
 20
16.0633547816
 30
0.0
 10
-28.866251474
 20
16.0405034248
 30
0.0
  0
SPLINE
  5
588
100
AcDbEntity
  8
ASSI
100
AcDbSpline
 62
7
  6
CONTINUOUS
 70
0
 71
3
 72
11
 73
7
 74
0
 42
0.0000001
 43
0.0000001
 44
0.0000000001
 40
0.0
 40
0.0
 40
0.0
 40
0.0
 40
0.2898085351
 40
0.5490451078
 40
0.7822281625
 40
1.0
 40
1.0
 40
1.0
 40
1.0
 10
-28.6177507146
 20
-0.1478558117
 30
0.0
 10
-28.6177507148
 20
-0.2086735892
 30
0.0
 10
-28.6269325517
 20
-0.3242921119
 30
0.0
 10
-28.6738116801
 20
-0.4831307679
 30
0.0
 10
-28.7525979941
 20
-0.6120403689
 30
0.0
 10
-28.8266743024
 20
-0.6742858926
 30
0.0
 10
-28.866251474
 20
-0.6971372495
 30
0.0
  0
SPLINE
  5
589
100
AcDbEntity
  8
ASSI
100
AcDbSpline
 62
7
  6
CONTINUOUS
 70
0
 71
3
 72
11
 73
7
 74
0
 42
0.0000001
 43
0.0000001
 44
0.0000000001
 40
0.0
 40
0.0
 40
0.0
 40
0.0
 40
0.2898085393
 40
0.5490451086
 40
0.7822281636
 40
1.0
 40
1.0
 40
1.0
 40
1.0
 10
35.0218595922
 20
-20.1549285369
 30
0.0
 10
35.0218595921
 20
-20.2157463153
 30
0.0
 10
35.0126777551
 20
-20.3313648382
 30
0.0
 10
34.9657986258
 20
-20.4902034941
 30
0.0
 10
34.8870123127
 20
-20.6191130947
 30
0.0
 10
34.8129360042
 20
-20.6813586179
 30
0.0
 10
34.7733588328
 20
-20.7042099747
 30
0.0
  0
SPLINE
  5
58A
100
AcDbEntity
  8
ASSI
100
AcDbSpline
 62
7
  6
CONTINUOUS
 70
0
 71
3
 72
11
 73
7
 74
0
 42
0.0000001
 43
0.0000001
 44
0.0000000001
 40
0.0
 40
0.0
 40
0.0
 40
0.0
 40
0.2898085393
 40
0.5490451086
 40
0.7822281636
 40
1.0
 40
1.0
 40
1.0
 40
1.0
 10
19.1119570155
 20
-10.968750187
 30
0.0
 10
19.1119570154
 20
-11.0295679654
 30
0.0
 10
19.1027751784
 20
-11.1451864884
 30
0.0
 10
19.0558960491
 20
-11.3040251442
 30
0.0
 10
18.977109736
 20
-11.4329347448
 30
0.0
 10
18.9030334275
 20
-11.495180268
 30
0.0
 10
18.8634562561
 20
-11.5180316248
 30
0.0
  0
SPLINE
  5
58B
100
AcDbEntity
  8
ASSI
100
AcDbSpline
 62
7
  6
CONTINUOUS
 70
0
 71
3
 72
11
 73
7
 74
0
 42
0.0000001
 43
0.0000001
 44
0.0000000001
 40
0.0
 40
0.0
 40
0.0
 40
0.0
 40
0.2898085393
 40
0.5490451086
 40
0.7822281636
 40
1.0
 40
1.0
 40
1.0
 40
1.0
 10
-12.7078481379
 20
7.4036065127
 30
0.0
 10
-12.707848138
 20
7.3427887343
 30
0.0
 10
-12.717029975
 20
7.2271702114
 30
0.0
 10
-12.7639091043
 20
7.0683315555
 30
0.0
 10
-12.8426954174
 20
6.9394219549
 30
0.0
 10
-12.9167717259
 20
6.8771764317
 30
0.0
 10
-12.9563488973
 20
6.8543250749
 30
0.0
  0
SPLINE
  5
58C
100
AcDbEntity
  8
ASSI
100
AcDbSpline
 62
7
  6
CONTINUOUS
 70
0
 71
3
 72
11
 73
7
 74
0
 42
0.0000001
 43
0.0000001
 44
0.0000000001
 40
0.0
 40
0.0
 40
0.0
 40
0.0
 40
0.2898085393
 40
0.5490451086
 40
0.7822281636
 40
1.0
 40
1.0
 40
1.0
 40
1.0
 10
3.2020544388
 20
-1.7825718372
 30
0.0
 10
3.2020544387
 20
-1.8433896156
 30
0.0
 10
3.1928726017
 20
-1.9590081385
 30
0.0
 10
3.1459934724
 20
-2.1178467944
 30
0.0
 10
3.0672071593
 20
-2.2467563949
 30
0.0
 10
2.9931308508
 20
-2.3090019182
 30
0.0
 10
2.9535536794
 20
-2.331853275
 30
0.0
  0
SPLINE
  5
58D
100
AcDbEntity
  8
ASSI
100
AcDbSpline
 62
7
  6
CONTINUOUS
 70
0
 71
3
 72
13
 73
9
 74
0
 42
0.0000001
 43
0.0000001
 44
0.0000000001
 40
0.0
 40
0.0
 40
0.0
 40
0.0
 40
0.1142615865
 40
0.2375404667
 40
0.5000060664
 40
0.7624683449
 40
0.8857433485
 40
1.0
 40
1.0
 40
1.0
 40
1.0
 10
-7.4752579572
 20
-14.151540216
 30
0.0
 10
-7.5575519437
 20
-14.1040246994
 30
0.0
 10
-7.7201136955
 20
-13.9900838242
 30
0.0
 10
-8.0244184862
 20
-13.7052221789
 30
0.0
 10
-8.3458976337
 20
-13.2661448687
 30
0.0
 10
-8.565409786
 20
-12.7682000675
 30
0.0
 10
-8.6599490699
 20
-12.3622424789
 30
0.0
 10
-8.6773394851
 20
-12.1644962738
 30
0.0
 10
-8.6773394852
 20
-12.0694739368
 30
0.0
  0
SPLINE
  5
58E
100
AcDbEntity
  8
ASSI
100
AcDbSpline
 62
7
  6
CONTINUOUS
 70
0
 71
3
 72
15
 73
11
 74
0
 42
0.0000001
 43
0.0000001
 44
0.0000000001
 40
0.0
 40
0.0
 40
0.0
 40
0.0
 40
0.1449018481
 40
0.2745170406
 40
0.3911053286
 40
0.4999889043
 40
0.6088744936
 40
0.7254681391
 40
0.8550905429
 40
1.0
 40
1.0
 40
1.0
 40
1.0
 10
3.2020544388
 20
-18.9284871047
 30
0.0
 10
3.2020544386
 20
-19.0146506253
 30
0.0
 10
3.1890339815
 20
-19.1784591589
 30
0.0
 10
3.1226591865
 20
-19.4034652096
 30
0.0
 10
3.010888208
 20
-19.5861746827
 30
0.0
 10
2.8557387393
 20
-19.7166540231
 30
0.0
 10
2.6651549217
 20
-19.7857569077
 30
0.0
 10
2.4510297538
 20
-19.7911798837
 30
0.0
 10
2.2229733276
 20
-19.7361430222
 30
0.0
 10
2.0745954249
 20
-19.665505871
 30
0.0
 10
1.9999729107
 20
-19.6224197666
 30
0.0
  0
SPLINE
  5
58F
100
AcDbEntity
  8
ASSI
100
AcDbSpline
 62
7
  6
CONTINUOUS
 70
0
 71
3
 72
15
 73
11
 74
0
 42
0.0000001
 43
0.0000001
 44
0.0000000001
 40
0.0
 40
0.0
 40
0.0
 40
0.0
 40
0.1449018481
 40
0.2745170406
 40
0.3911053286
 40
0.4999889043
 40
0.6088744936
 40
0.7254681391
 40
0.8550905429
 40
1.0
 40
1.0
 40
1.0
 40
1.0
 10
-24.5872420619
 20
8.0574061221
 30
0.0
 10
-24.5872420617
 20
8.1435696426
 30
0.0
 10
-24.5742216046
 20
8.3073781762
 30
0.0
 10
-24.5078468096
 20
8.5323842269
 30
0.0
 10
-24.3960758311
 20
8.7150937001
 30
0.0
 10
-24.2409263624
 20
8.8455730404
 30
0.0
 10
-24.0503425448
 20
8.914675925
 30
0.0
 10
-23.8362173769
 20
8.920098901
 30
0.0
 10
-23.6081609507
 20
8.8650620395
 30
0.0
 10
-23.459783048
 20
8.7944248883
 30
0.0
 10
-23.3851605339
 20
8.751338784
 30
0.0
  0
SPLINE
  5
590
100
AcDbEntity
  8
ASSI
100
AcDbSpline
 62
7
  6
CONTINUOUS
 70
0
 71
3
 72
13
 73
9
 74
0
 42
0.0000001
 43
0.0000001
 44
0.0000000001
 40
0.0
 40
0.0
 40
0.0
 40
0.0
 40
0.1142615865
 40
0.2375404667
 40
0.5000060664
 40
0.7624683449
 40
0.8857433485
 40
1.0
 40
1.0
 40
1.0
 40
1.0
 10
-23.3851605339
 20
-4.9653618662
 30
0.0
 10
-23.4674545204
 20
-4.9178463495
 30
0.0
 10
-23.6300162722
 20
-4.8039054743
 30
0.0
 10
-23.9343210629
 20
-4.519043829
 30
0.0
 10
-24.2558002104
 20
-4.0799665188
 30
0.0
 10
-24.4753123627
 20
-3.5820217176
 30
0.0
 10
-24.5698516466
 20
-3.176064129
 30
0.0
 10
-24.5872420618
 20
-2.9783179239
 30
0.0
 10
-24.5872420619
 20
-2.883295587
 30
0.0
  0
SPLINE
  5
591
100
AcDbEntity
  8
ASSI
100
AcDbSpline
 62
7
  6
CONTINUOUS
 70
0
 71
3
 72
15
 73
11
 74
0
 42
0.0000001
 43
0.0000001
 44
0.0000000001
 40
0.0
 40
0.0
 40
0.0
 40
0.0
 40
0.1449018481
 40
0.2745170406
 40
0.3911053286
 40
0.4999889043
 40
0.6088744936
 40
0.7254681391
 40
0.8550905429
 40
1.0
 40
1.0
 40
1.0
 40
1.0
 10
-12.7078481379
 20
-9.7423087549
 30
0.0
 10
-12.7078481381
 20
-9.8284722754
 30
0.0
 10
-12.7208685952
 20
-9.992280809
 30
0.0
 10
-12.7872433902
 20
-10.2172868597
 30
0.0
 10
-12.8990143687
 20
-10.3999963329
 30
0.0
 10
-13.0541638374
 20
-10.5304756732
 30
0.0
 10
-13.244747655
 20
-10.5995785578
 30
0.0
 10
-13.4588728229
 20
-10.6050015338
 30
0.0
 10
-13.6869292491
 20
-10.5499646723
 30
0.0
 10
-13.8353071518
 20
-10.4793275211
 30
0.0
 10
-13.909929666
 20
-10.4362414168
 30
0.0
  0
SPLINE
  5
592
100
AcDbEntity
  8
ASSI
100
AcDbSpline
 62
7
  6
CONTINUOUS
 70
0
 71
3
 72
11
 73
7
 74
0
 42
0.0000001
 43
0.0000001
 44
0.0000000001
 40
0.0
 40
0.0
 40
0.0
 40
0.0
 40
0.2177664931
 40
0.4509473057
 40
0.7101859194
 40
1.0
 40
1.0
 40
1.0
 40
1.0
 10
-28.866251474
 20
-0.6971372495
 30
0.0
 10
-28.9058335917
 20
-0.7199914622
 30
0.0
 10
-28.9967893984
 20
-0.7530282259
 30
0.0
 10
-29.1478433148
 20
-0.7568045703
 30
0.0
 10
-29.3088657502
 20
-0.7179745931
 30
0.0
 10
-29.4136010772
 20
-0.6681061188
 30
0.0
 10
-29.4662788521
 20
-0.6376906318
 30
0.0
  0
SPLINE
  5
593
100
AcDbEntity
  8
ASSI
100
AcDbSpline
 62
7
  6
CONTINUOUS
 70
0
 71
3
 72
11
 73
7
 74
0
 42
0.0000001
 43
0.0000001
 44
0.0000000001
 40
0.0
 40
0.0
 40
0.0
 40
0.0
 40
0.2177664942
 40
0.4509473065
 40
0.7101859235
 40
1.0
 40
1.0
 40
1.0
 40
1.0
 10
2.9535536794
 20
-2.331853275
 30
0.0
 10
2.9139715615
 20
-2.3547074878
 30
0.0
 10
2.8230157546
 20
-2.3877442512
 30
0.0
 10
2.6719618373
 20
-2.3915205961
 30
0.0
 10
2.5109394023
 20
-2.3526906179
 30
0.0
 10
2.4062040754
 20
-2.302822144
 30
0.0
 10
2.3535263013
 20
-2.2724066573
 30
0.0
  0
SPLINE
  5
594
100
AcDbEntity
  8
ASSI
100
AcDbSpline
 62
7
  6
CONTINUOUS
 70
0
 71
3
 72
15
 73
11
 74
0
 42
0.0000001
 43
0.0000001
 44
0.0000000001
 40
0.0
 40
0.0
 40
0.0
 40
0.0
 40
0.1449018481
 40
0.2745170406
 40
0.3911053286
 40
0.4999889043
 40
0.6088744936
 40
0.7254681391
 40
0.8550905429
 40
1.0
 40
1.0
 40
1.0
 40
1.0
 10
-40.4971446386
 20
17.2435844719
 30
0.0
 10
-40.4971446384
 20
17.3297479925
 30
0.0
 10
-40.4841241813
 20
17.4935565261
 30
0.0
 10
-40.4177493863
 20
17.7185625767
 30
0.0
 10
-40.3059784078
 20
17.9012720499
 30
0.0
 10
-40.1508289391
 20
18.0317513903
 30
0.0
 10
-39.9602451215
 20
18.1008542749
 30
0.0
 10
-39.7461199536
 20
18.1062772509
 30
0.0
 10
-39.5180635274
 20
18.0512403894
 30
0.0
 10
-39.3696856247
 20
17.9806032382
 30
0.0
 10
-39.2950631105
 20
17.9375171338
 30
0.0
  0
SPLINE
  5
595
100
AcDbEntity
  8
ASSI
100
AcDbSpline
 62
7
  6
CONTINUOUS
 70
0
 71
3
 72
11
 73
7
 74
0
 42
0.0000001
 43
0.0000001
 44
0.0000000001
 40
0.0
 40
0.0
 40
0.0
 40
0.0
 40
0.2177664931
 40
0.4509473057
 40
0.7101859194
 40
1.0
 40
1.0
 40
1.0
 40
1.0
 10
-12.9563488973
 20
-9.8833155993
 30
0.0
 10
-12.995931015
 20
-9.906169812
 30
0.0
 10
-13.0868868217
 20
-9.9392065758
 30
0.0
 10
-13.2379407381
 20
-9.9429829202
 30
0.0
 10
-13.3989631735
 20
-9.9041529429
 30
0.0
 10
-13.5036985005
 20
-9.8542844687
 30
0.0
 10
-13.5563762754
 20
-9.8238689817
 30
0.0
  0
SPLINE
  5
596
100
AcDbEntity
  8
ASSI
100
AcDbSpline
 62
7
  6
CONTINUOUS
 70
0
 71
3
 72
13
 73
9
 74
0
 42
0.0000001
 43
0.0000001
 44
0.0000000001
 40
0.0
 40
0.0
 40
0.0
 40
0.0
 40
0.1142615865
 40
0.2375404667
 40
0.5000060664
 40
0.7624683449
 40
0.8857433485
 40
1.0
 40
1.0
 40
1.0
 40
1.0
 10
-39.2950631105
 20
4.2208164837
 30
0.0
 10
-39.3773570971
 20
4.2683320004
 30
0.0
 10
-39.5399188489
 20
4.3822728755
 30
0.0
 10
-39.8442236396
 20
4.6671345209
 30
0.0
 10
-40.1657027871
 20
5.106211831
 30
0.0
 10
-40.3852149394
 20
5.6041566322
 30
0.0
 10
-40.4797542233
 20
6.0101142209
 30
0.0
 10
-40.4971446385
 20
6.2078604259
 30
0.0
 10
-40.4971446386
 20
6.3028827629
 30
0.0
  0
SPLINE
  5
597
100
AcDbEntity
  8
ASSI
100
AcDbSpline
 62
7
  6
CONTINUOUS
 70
0
 71
3
 72
15
 73
11
 74
0
 42
0.0000001
 43
0.0000001
 44
0.0000000001
 40
0.0
 40
0.0
 40
0.0
 40
0.0
 40
0.1449018481
 40
0.2745170406
 40
0.3911053286
 40
0.4999889043
 40
0.6088744936
 40
0.7254681391
 40
0.8550905429
 40
1.0
 40
1.0
 40
1.0
 40
1.0
 10
-28.6177507146
 20
-0.556130405
 30
0.0
 10
-28.6177507148
 20
-0.6422939256
 30
0.0
 10
-28.6307711719
 20
-0.8061024591
 30
0.0
 10
-28.6971459669
 20
-1.0311085098
 30
0.0
 10
-28.8089169454
 20
-1.213817983
 30
0.0
 10
-28.9640664141
 20
-1.3442973233
 30
0.0
 10
-29.1546502317
 20
-1.413400208
 30
0.0
 10
-29.3687753996
 20
-1.4188231839
 30
0.0
 10
-29.5968318258
 20
-1.3637863224
 30
0.0
 10
-29.7452097285
 20
-1.2931491713
 30
0.0
 10
-29.8198322426
 20
-1.2500630669
 30
0.0
  0
SPLINE
  5
598
100
AcDbEntity
  8
ASSI
100
AcDbSpline
 62
7
  6
CONTINUOUS
 70
0
 71
3
 72
15
 73
11
 74
0
 42
0.0000001
 43
0.0000001
 44
0.0000000001
 40
0.0
 40
0.0
 40
0.0
 40
0.0
 40
0.1449018481
 40
0.2745170406
 40
0.3911053286
 40
0.4999889043
 40
0.6088744936
 40
0.7254681391
 40
0.8550905429
 40
1.0
 40
1.0
 40
1.0
 40
1.0
 10
23.1424656682
 20
-19.5011289276
 30
0.0
 10
23.1424656684
 20
-19.414965407
 30
0.0
 10
23.1554861255
 20
-19.2511568734
 30
0.0
 10
23.2218609205
 20
-19.0261508227
 30
0.0
 10
23.333631899
 20
-18.8434413496
 30
0.0
 10
23.4887813677
 20
-18.7129620092
 30
0.0
 10
23.6793651852
 20
-18.6438591246
 30
0.0
 10
23.8934903532
 20
-18.6384361486
 30
0.0
 10
24.1215467794
 20
-18.6934730101
 30
0.0
 10
24.2699246821
 20
-18.7641101613
 30
0.0
 10
24.3445471962
 20
-18.8071962657
 30
0.0
  0
SPLINE
  5
599
100
AcDbEntity
  8
ASSI
100
AcDbSpline
 62
7
  6
CONTINUOUS
 70
0
 71
3
 72
11
 73
7
 74
0
 42
0.0000001
 43
0.0000001
 44
0.0000000001
 40
0.0
 40
0.0
 40
0.0
 40
0.0
 40
0.2177664942
 40
0.4509473065
 40
0.7101859235
 40
1.0
 40
1.0
 40
1.0
 40
1.0
 10
18.8634562561
 20
-11.5180316248
 30
0.0
 10
18.8238741382
 20
-11.5408858377
 30
0.0
 10
18.7329183313
 20
-11.5739226011
 30
0.0
 10
18.581864414
 20
-11.5776989459
 30
0.0
 10
18.420841979
 20
-11.5388689677
 30
0.0
 10
18.3161066521
 20
-11.4890004939
 30
0.0
 10
18.263428878
 20
-11.4585850072
 30
0.0
  0
SPLINE
  5
59A
100
AcDbEntity
  8
ASSI
100
AcDbSpline
 62
7
  6
CONTINUOUS
 70
0
 71
3
 72
11
 73
7
 74
0
 42
0.0000001
 43
0.0000001
 44
0.0000000001
 40
0.0
 40
0.0
 40
0.0
 40
0.0
 40
0.2177664931
 40
0.4509473057
 40
0.7101859194
 40
1.0
 40
1.0
 40
1.0
 40
1.0
 10
2.9535536794
 20
-19.0694939492
 30
0.0
 10
2.9139715617
 20
-19.0923481619
 30
0.0
 10
2.823015755
 20
-19.1253849257
 30
0.0
 10
2.6719618386
 20
-19.1291612701
 30
0.0
 10
2.5109394032
 20
-19.0903312928
 30
0.0
 10
2.4062040762
 20
-19.0404628186
 30
0.0
 10
2.3535263013
 20
-19.0100473316
 30
0.0
  0
SPLINE
  5
59B
100
AcDbEntity
  8
ASSI
100
AcDbSpline
 62
7
  6
CONTINUOUS
 70
0
 71
3
 72
13
 73
9
 74
0
 42
0.0000001
 43
0.0000001
 44
0.0000000001
 40
0.0
 40
0.0
 40
0.0
 40
0.0
 40
0.1142615865
 40
0.2375404667
 40
0.5000060664
 40
0.7624683449
 40
0.8857433485
 40
1.0
 40
1.0
 40
1.0
 40
1.0
 10
24.3445471962
 20
-32.5238969158
 30
0.0
 10
24.2622532097
 20
-32.4763813991
 30
0.0
 10
24.0996914579
 20
-32.362440524
 30
0.0
 10
23.7953866672
 20
-32.0775788786
 30
0.0
 10
23.4739075197
 20
-31.6385015685
 30
0.0
 10
23.2543953674
 20
-31.1405567673
 30
0.0
 10
23.1598560835
 20
-30.7345991786
 30
0.0
 10
23.1424656683
 20
-30.5368529736
 30
0.0
 10
23.1424656682
 20
-30.4418306366
 30
0.0
  0
SPLINE
  5
59C
100
AcDbEntity
  8
ASSI
100
AcDbSpline
 62
7
  6
CONTINUOUS
 70
0
 71
3
 72
15
 73
11
 74
0
 42
0.0000001
 43
0.0000001
 44
0.0000000001
 40
0.0
 40
0.0
 40
0.0
 40
0.0
 40
0.1449018469
 40
0.2745170393
 40
0.3911053272
 40
0.4999889023
 40
0.6088744922
 40
0.7254681378
 40
0.8550905417
 40
1.0
 40
1.0
 40
1.0
 40
1.0
 10
23.1424656682
 20
-2.7634882533
 30
0.0
 10
23.1424656683
 20
-2.6773247334
 30
0.0
 10
23.1554861254
 20
-2.5135162007
 30
0.0
 10
23.2218609197
 20
-2.2885101507
 30
0.0
 10
23.3336318971
 20
-2.1058006774
 30
0.0
 10
23.4887813652
 20
-1.9753213364
 30
0.0
 10
23.6793651825
 20
-1.9062184509
 30
0.0
 10
23.8934903508
 20
-1.9007954739
 30
0.0
 10
24.121546778
 20
-1.9558323352
 30
0.0
 10
24.2699246814
 20
-2.0264694868
 30
0.0
 10
24.3445471962
 20
-2.0695555914
 30
0.0
  0
SPLINE
  5
59D
100
AcDbEntity
  8
ASSI
100
AcDbSpline
 62
7
  6
CONTINUOUS
 70
0
 71
3
 72
13
 73
9
 74
0
 42
0.0000001
 43
0.0000001
 44
0.0000000001
 40
0.0
 40
0.0
 40
0.0
 40
0.0
 40
0.1142615855
 40
0.2375404653
 40
0.5000060639
 40
0.7624683436
 40
0.8857433475
 40
1.0
 40
1.0
 40
1.0
 40
1.0
 10
24.3445471962
 20
-15.7862562415
 30
0.0
 10
24.2622532104
 20
-15.7387407255
 30
0.0
 10
24.0996914595
 20
-15.6247998508
 30
0.0
 10
23.7953866699
 20
-15.3399382074
 30
0.0
 10
23.4739075219
 20
-14.900860898
 30
0.0
 10
23.2543953686
 20
-14.4029160969
 30
0.0
 10
23.1598560836
 20
-13.9969585063
 30
0.0
 10
23.1424656684
 20
-13.7992123002
 30
0.0
 10
23.1424656682
 20
-13.7041899623
 30
0.0
  0
SPLINE
  5
59E
100
AcDbEntity
  8
ASSI
100
AcDbSpline
 62
7
  6
CONTINUOUS
 70
0
 71
3
 72
15
 73
11
 74
0
 42
0.0000001
 43
0.0000001
 44
0.0000000001
 40
0.0
 40
0.0
 40
0.0
 40
0.0
 40
0.1449018469
 40
0.2745170393
 40
0.3911053272
 40
0.4999889023
 40
0.6088744922
 40
0.7254681378
 40
0.8550905417
 40
1.0
 40
1.0
 40
1.0
 40
1.0
 10
35.0218595922
 20
-20.5632031302
 30
0.0
 10
35.0218595921
 20
-20.6493666501
 30
0.0
 10
35.008839135
 20
-20.8131751829
 30
0.0
 10
34.9424643406
 20
-21.0381812328
 30
0.0
 10
34.8306933633
 20
-21.2208907061
 30
0.0
 10
34.6755438952
 20
-21.3513700471
 30
0.0
 10
34.4849600779
 20
-21.4204729326
 30
0.0
 10
34.2708349096
 20
-21.4258959096
 30
0.0
 10
34.0427784824
 20
-21.3708590483
 30
0.0
 10
33.894400579
 20
-21.3002218967
 30
0.0
 10
33.8197780641
 20
-21.2571357921
 30
0.0
  0
SPLINE
  5
59F
100
AcDbEntity
  8
ASSI
100
AcDbSpline
 62
7
  6
CONTINUOUS
 70
0
 71
3
 72
11
 73
7
 74
0
 42
0.0000001
 43
0.0000001
 44
0.0000000001
 40
0.0
 40
0.0
 40
0.0
 40
0.0
 40
0.2177664931
 40
0.4509473057
 40
0.7101859194
 40
1.0
 40
1.0
 40
1.0
 40
1.0
 10
18.8634562561
 20
-28.2556722991
 30
0.0
 10
18.8238741384
 20
-28.2785265118
 30
0.0
 10
18.7329183317
 20
-28.3115632755
 30
0.0
 10
18.5818644153
 20
-28.3153396199
 30
0.0
 10
18.4208419799
 20
-28.2765096427
 30
0.0
 10
18.3161066529
 20
-28.2266411685
 30
0.0
 10
18.263428878
 20
-28.1962256814
 30
0.0
  0
SPLINE
  5
5A0
100
AcDbEntity
  8
ASSI
100
AcDbSpline
 62
7
  6
CONTINUOUS
 70
0
 71
3
 72
11
 73
7
 74
0
 42
0.0000001
 43
0.0000001
 44
0.0000000001
 40
0.0
 40
0.0
 40
0.0
 40
0.0
 40
0.2177664942
 40
0.4509473065
 40
0.7101859235
 40
1.0
 40
1.0
 40
1.0
 40
1.0
 10
34.7733588328
 20
-20.7042099747
 30
0.0
 10
34.7337767149
 20
-20.7270641875
 30
0.0
 10
34.642820908
 20
-20.760100951
 30
0.0
 10
34.4917669907
 20
-20.7638772958
 30
0.0
 10
34.3307445557
 20
-20.7250473176
 30
0.0
 10
34.2260092288
 20
-20.6751788437
 30
0.0
 10
34.1733314547
 20
-20.6447633571
 30
0.0
  0
SPLINE
  5
5A1
100
AcDbEntity
  8
ASSI
100
AcDbSpline
 62
7
  6
CONTINUOUS
 70
0
 71
3
 72
15
 73
11
 74
0
 42
0.0000001
 43
0.0000001
 44
0.0000000001
 40
0.0
 40
0.0
 40
0.0
 40
0.0
 40
0.1449018481
 40
0.2745170406
 40
0.3911053286
 40
0.4999889043
 40
0.6088744936
 40
0.7254681391
 40
0.8550905429
 40
1.0
 40
1.0
 40
1.0
 40
1.0
 10
35.0218595922
 20
-37.3008438045
 30
0.0
 10
35.021859592
 20
-37.3870073251
 30
0.0
 10
35.0088391349
 20
-37.5508158586
 30
0.0
 10
34.9424643399
 20
-37.7758219093
 30
0.0
 10
34.8306933614
 20
-37.9585313825
 30
0.0
 10
34.6755438926
 20
-38.0890107228
 30
0.0
 10
34.4849600751
 20
-38.1581136075
 30
0.0
 10
34.2708349072
 20
-38.1635365834
 30
0.0
 10
34.042778481
 20
-38.1084997219
 30
0.0
 10
33.8944005783
 20
-38.0378625708
 30
0.0
 10
33.8197780641
 20
-37.9947764664
 30
0.0
  0
SPLINE
  5
5A2
100
AcDbEntity
  8
ASSI
100
AcDbSpline
 62
7
  6
CONTINUOUS
 70
0
 71
3
 72
15
 73
11
 74
0
 42
0.0000001
 43
0.0000001
 44
0.0000000001
 40
0.0
 40
0.0
 40
0.0
 40
0.0
 40
0.1449018469
 40
0.2745170393
 40
0.3911053272
 40
0.4999889023
 40
0.6088744922
 40
0.7254681378
 40
0.8550905417
 40
1.0
 40
1.0
 40
1.0
 40
1.0
 10
7.2325630915
 20
6.4226900966
 30
0.0
 10
7.2325630916
 20
6.5088536164
 30
0.0
 10
7.2455835487
 20
6.6726621492
 30
0.0
 10
7.311958343
 20
6.8976681991
 30
0.0
 10
7.4237293204
 20
7.0803776724
 30
0.0
 10
7.5788787885
 20
7.2108570134
 30
0.0
 10
7.7694626058
 20
7.279959899
 30
0.0
 10
7.9835877741
 20
7.285382876
 30
0.0
 10
8.2116442013
 20
7.2303460146
 30
0.0
 10
8.3600221047
 20
7.1597088631
 30
0.0
 10
8.4346446195
 20
7.1166227585
 30
0.0
  0
SPLINE
  5
5A3
100
AcDbEntity
  8
ASSI
100
AcDbSpline
 62
7
  6
CONTINUOUS
 70
0
 71
3
 72
11
 73
7
 74
0
 42
0.0000001
 43
0.0000001
 44
0.0000000001
 40
0.0
 40
0.0
 40
0.0
 40
0.0
 40
0.2177664931
 40
0.4509473057
 40
0.7101859194
 40
1.0
 40
1.0
 40
1.0
 40
1.0
 10
34.7733588328
 20
-37.441850649
 30
0.0
 10
34.7337767151
 20
-37.4647048617
 30
0.0
 10
34.6428209084
 20
-37.4977416254
 30
0.0
 10
34.491766992
 20
-37.5015179698
 30
0.0
 10
34.3307445566
 20
-37.4626879926
 30
0.0
 10
34.2260092296
 20
-37.4128195183
 30
0.0
 10
34.1733314547
 20
-37.3824040313
 30
0.0
  0
SPLINE
  5
5A4
100
AcDbEntity
  8
ASSI
100
AcDbSpline
 62
7
  6
CONTINUOUS
 70
0
 71
3
 72
13
 73
9
 74
0
 42
0.0000001
 43
0.0000001
 44
0.0000000001
 40
0.0
 40
0.0
 40
0.0
 40
0.0
 40
0.1142615855
 40
0.2375404653
 40
0.5000060639
 40
0.7624683436
 40
0.8857433475
 40
1.0
 40
1.0
 40
1.0
 40
1.0
 10
8.4346446195
 20
-6.6000778917
 30
0.0
 10
8.3523506337
 20
-6.5525623756
 30
0.0
 10
8.1897888828
 20
-6.4386215009
 30
0.0
 10
7.8854840932
 20
-6.1537598575
 30
0.0
 10
7.5640049452
 20
-5.7146825481
 30
0.0
 10
7.3444927919
 20
-5.216737747
 30
0.0
 10
7.2499535069
 20
-4.8107801564
 30
0.0
 10
7.2325630917
 20
-4.6130339503
 30
0.0
 10
7.2325630915
 20
-4.5180116125
 30
0.0
  0
SPLINE
  5
5A5
100
AcDbEntity
  8
ASSI
100
AcDbSpline
 62
7
  6
CONTINUOUS
 70
0
 71
3
 72
15
 73
11
 74
0
 42
0.0000001
 43
0.0000001
 44
0.0000000001
 40
0.0
 40
0.0
 40
0.0
 40
0.0
 40
0.1449018469
 40
0.2745170393
 40
0.3911053272
 40
0.4999889023
 40
0.6088744922
 40
0.7254681378
 40
0.8550905417
 40
1.0
 40
1.0
 40
1.0
 40
1.0
 10
19.1119570155
 20
-11.3770247804
 30
0.0
 10
19.1119570154
 20
-11.4631883002
 30
0.0
 10
19.0989365583
 20
-11.626996833
 30
0.0
 10
19.0325617639
 20
-11.8520028829
 30
0.0
 10
18.9207907866
 20
-12.0347123562
 30
0.0
 10
18.7656413185
 20
-12.1651916972
 30
0.0
 10
18.5750575012
 20
-12.2342945828
 30
0.0
 10
18.3609323329
 20
-12.2397175598
 30
0.0
 10
18.1328759057
 20
-12.1846806984
 30
0.0
 10
17.9844980023
 20
-12.1140435469
 30
0.0
 10
17.9098754874
 20
-12.0709574423
 30
0.0
  0
SPLINE
  5
5A6
100
AcDbEntity
  8
ASSI
100
AcDbSpline
 62
7
  6
CONTINUOUS
 70
0
 71
3
 72
15
 73
11
 74
0
 42
0.0000001
 43
0.0000001
 44
0.0000000001
 40
0.0
 40
0.0
 40
0.0
 40
0.0
 40
0.1449018481
 40
0.2745170406
 40
0.3911053286
 40
0.4999889043
 40
0.6088744936
 40
0.7254681391
 40
0.8550905429
 40
1.0
 40
1.0
 40
1.0
 40
1.0
 10
7.2325630915
 20
-10.3149505777
 30
0.0
 10
7.2325630917
 20
-10.2287870571
 30
0.0
 10
7.2455835488
 20
-10.0649785235
 30
0.0
 10
7.3119583438
 20
-9.8399724729
 30
0.0
 10
7.4237293223
 20
-9.6572629997
 30
0.0
 10
7.578878791
 20
-9.5267836594
 30
0.0
 10
7.7694626086
 20
-9.4576807747
 30
0.0
 10
7.9835877765
 20
-9.4522577987
 30
0.0
 10
8.2116442027
 20
-9.5072946602
 30
0.0
 10
8.3600221054
 20
-9.5779318114
 30
0.0
 10
8.4346446195
 20
-9.6210179158
 30
0.0
  0
SPLINE
  5
5A7
100
AcDbEntity
  8
ASSI
100
AcDbSpline
 62
7
  6
CONTINUOUS
 70
0
 71
3
 72
15
 73
11
 74
0
 42
0.0000001
 43
0.0000001
 44
0.0000000001
 40
0.0
 40
0.0
 40
0.0
 40
0.0
 40
0.1449018469
 40
0.2745170393
 40
0.3911053272
 40
0.4999889023
 40
0.6088744922
 40
0.7254681378
 40
0.8550905417
 40
1.0
 40
1.0
 40
1.0
 40
1.0
 10
-8.6773394852
 20
15.6088684464
 30
0.0
 10
-8.6773394851
 20
15.6950319663
 30
0.0
 10
-8.664319028
 20
15.8588404991
 30
0.0
 10
-8.5979442337
 20
16.083846549
 30
0.0
 10
-8.4861732563
 20
16.2665560223
 30
0.0
 10
-8.3310237882
 20
16.3970353633
 30
0.0
 10
-8.1404399709
 20
16.4661382488
 30
0.0
 10
-7.9263148026
 20
16.4715612258
 30
0.0
 10
-7.6982583754
 20
16.4165243645
 30
0.0
 10
-7.549880472
 20
16.3458872129
 30
0.0
 10
-7.4752579572
 20
16.3028011083
 30
0.0
  0
SPLINE
  5
5A8
100
AcDbEntity
  8
ASSI
100
AcDbSpline
 62
7
  6
CONTINUOUS
 70
0
 71
3
 72
13
 73
9
 74
0
 42
0.0000001
 43
0.0000001
 44
0.0000000001
 40
0.0
 40
0.0
 40
0.0
 40
0.0
 40
0.1142615855
 40
0.2375404653
 40
0.5000060639
 40
0.7624683436
 40
0.8857433475
 40
1.0
 40
1.0
 40
1.0
 40
1.0
 10
-7.4752579572
 20
2.5861004582
 30
0.0
 10
-7.557551943
 20
2.6336159743
 30
0.0
 10
-7.7201136939
 20
2.7475568489
 30
0.0
 10
-8.0244184835
 20
3.0324184924
 30
0.0
 10
-8.3458976315
 20
3.4714958018
 30
0.0
 10
-8.5654097848
 20
3.9694406028
 30
0.0
 10
-8.6599490698
 20
4.3753981934
 30
0.0
 10
-8.677339485
 20
4.5731443996
 30
0.0
 10
-8.6773394852
 20
4.6681667374
 30
0.0
  0
SPLINE
  5
5A9
100
AcDbEntity
  8
ASSI
100
AcDbSpline
 62
7
  6
CONTINUOUS
 70
0
 71
3
 72
9
 73
5
 74
0
 42
0.0000001
 43
0.0000001
 44
0.0000000001
 40
0.0
 40
0.0
 40
0.0
 40
0.0
 40
0.2314216155
 40
1.0
 40
1.0
 40
1.0
 40
1.0
 10
-39.5927674281
 20
17.6425696998
 30
0.0
 10
-39.6022101468
 20
17.6194793095
 30
0.0
 10
-39.636930196
 20
17.5172098744
 30
0.0
 10
-39.6486165006
 20
17.4080898621
 30
0.0
 10
-39.6486165011
 20
17.3252393906
 30
0.0
  0
SPLINE
  5
5AA
100
AcDbEntity
  8
ASSI
100
AcDbSpline
 62
7
  6
CONTINUOUS
 70
0
 71
3
 72
15
 73
11
 74
0
 42
0.0000001
 43
0.0000001
 44
0.0000000001
 40
0.0
 40
0.0
 40
0.0
 40
0.0
 40
0.1449018469
 40
0.2745170393
 40
0.3911053272
 40
0.4999889023
 40
0.6088744922
 40
0.7254681378
 40
0.8550905417
 40
1.0
 40
1.0
 40
1.0
 40
1.0
 10
3.2020544388
 20
-2.1908464305
 30
0.0
 10
3.2020544387
 20
-2.2770099504
 30
0.0
 10
3.1890339816
 20
-2.4408184831
 30
0.0
 10
3.1226591872
 20
-2.6658245331
 30
0.0
 10
3.0108882099
 20
-2.8485340064
 30
0.0
 10
2.8557387418
 20
-2.9790133474
 30
0.0
 10
2.6651549245
 20
-3.0481162329
 30
0.0
 10
2.4510297562
 20
-3.0535392099
 30
0.0
 10
2.222973329
 20
-2.9985023486
 30
0.0
 10
2.0745954256
 20
-2.927865197
 30
0.0
 10
1.9999729107
 20
-2.8847790924
 30
0.0
  0
SPLINE
  5
5AB
100
AcDbEntity
  8
ASSI
100
AcDbSpline
 62
7
  6
CONTINUOUS
 70
0
 71
3
 72
9
 73
5
 74
0
 42
0.0000001
 43
0.0000001
 44
0.0000000001
 40
0.0
 40
0.0
 40
0.0
 40
0.0
 40
0.2314216155
 40
1.0
 40
1.0
 40
1.0
 40
1.0
 10
-23.6828648514
 20
8.4563913499
 30
0.0
 10
-23.6923075701
 20
8.4333009596
 30
0.0
 10
-23.7270276193
 20
8.3310315245
 30
0.0
 10
-23.7387139239
 20
8.2219115122
 30
0.0
 10
-23.7387139244
 20
8.1390610407
 30
0.0
  0
SPLINE
  5
5AC
100
AcDbEntity
  8
ASSI
100
AcDbSpline
 62
7
  6
CONTINUOUS
 70
0
 71
3
 72
11
 73
7
 74
0
 42
0.0000001
 43
0.0000001
 44
0.0000000001
 40
0.0
 40
0.0
 40
0.0
 40
0.0
 40
0.2839245087
 40
0.5435005414
 40
0.7805115514
 40
1.0
 40
1.0
 40
1.0
 40
1.0
 10
23.8495724494
 20
-19.5011289276
 30
0.0
 10
23.8495724493
 20
-19.4510587857
 30
0.0
 10
23.8558896901
 20
-19.3550108247
 30
0.0
 10
23.887253461
 20
-19.2202456655
 30
0.0
 10
23.9396754548
 20
-19.1043517874
 30
0.0
 10
23.9897418165
 20
-19.0400081008
 30
0.0
 10
24.017473772
 20
-19.0130051871
 30
0.0
  0
SPLINE
  5
5AD
100
AcDbEntity
  8
ASSI
100
AcDbSpline
 62
7
  6
CONTINUOUS
 70
0
 71
3
 72
9
 73
5
 74
0
 42
0.0000001
 43
0.0000001
 44
0.0000000001
 40
0.0
 40
0.0
 40
0.0
 40
0.0
 40
0.2525081685
 40
1.0
 40
1.0
 40
1.0
 40
1.0
 10
24.017473772
 20
-19.0130051871
 30
0.0
 10
24.0235839327
 20
-19.0070556556
 30
0.0
 10
24.0484796264
 20
-18.984222485
 30
0.0
 10
24.0762099736
 20
-18.9644710444
 30
0.0
 10
24.0980732088
 20
-18.9518474898
 30
0.0
  0
SPLINE
  5
5AE
100
AcDbEntity
  8
ASSI
100
AcDbSpline
 62
7
  6
CONTINUOUS
 70
0
 71
3
 72
9
 73
5
 74
0
 42
0.0000001
 43
0.0000001
 44
0.0000000001
 40
0.0
 40
0.0
 40
0.0
 40
0.0
 40
0.2698702211
 40
1.0
 40
1.0
 40
1.0
 40
1.0
 10
34.314752811
 20
-37.3007491127
 30
0.0
 10
34.3399442902
 20
-37.315294357
 30
0.0
 10
34.4352181291
 20
-37.3655239685
 30
0.0
 10
34.5396013024
 20
-37.4004585578
 30
0.0
 10
34.617581613
 20
-37.4110779972
 30
0.0
  0
SPLINE
  5
5AF
100
AcDbEntity
  8
ASSI
100
AcDbSpline
 62
7
  6
CONTINUOUS
 70
0
 71
3
 72
13
 73
9
 74
0
 42
0.0000001
 43
0.0000001
 44
0.0000000001
 40
0.0
 40
0.0
 40
0.0
 40
0.0
 40
0.1142615865
 40
0.2375404667
 40
0.5000060664
 40
0.7624683449
 40
0.8857433485
 40
1.0
 40
1.0
 40
1.0
 40
1.0
 10
8.4346446195
 20
-23.3377185659
 30
0.0
 10
8.352350633
 20
-23.2902030493
 30
0.0
 10
8.1897888812
 20
-23.1762621741
 30
0.0
 10
7.8854840905
 20
-22.8914005288
 30
0.0
 10
7.564004943
 20
-22.4523232186
 30
0.0
 10
7.3444927907
 20
-21.9543784174
 30
0.0
 10
7.2499535068
 20
-21.5484208287
 30
0.0
 10
7.2325630916
 20
-21.3506746237
 30
0.0
 10
7.2325630915
 20
-21.2556522867
 30
0.0
  0
SPLINE
  5
5B0
100
AcDbEntity
  8
ASSI
100
AcDbSpline
 62
7
  6
CONTINUOUS
 70
0
 71
3
 72
11
 73
7
 74
0
 42
0.0000001
 43
0.0000001
 44
0.0000000001
 40
0.0
 40
0.0
 40
0.0
 40
0.0
 40
0.2372123692
 40
0.4999938933
 40
0.7627787423
 40
1.0
 40
1.0
 40
1.0
 40
1.0
 10
23.9909938056
 20
-30.3601757179
 30
0.0
 10
23.9909938059
 20
-30.4992625256
 30
0.0
 10
24.04316625
 20
-30.7926170283
 30
0.0
 10
24.2250157779
 20
-31.2048481637
 30
0.0
 10
24.4910973135
 20
-31.5684538515
 30
0.0
 10
24.7190666616
 20
-31.7603201911
 30
0.0
 10
24.8395219431
 20
-31.8298695621
 30
0.0
  0
SPLINE
  5
5B1
100
AcDbEntity
  8
ASSI
100
AcDbSpline
 62
7
  6
CONTINUOUS
 70
0
 71
3
 72
11
 73
7
 74
0
 42
0.0000001
 43
0.0000001
 44
0.0000000001
 40
0.0
 40
0.0
 40
0.0
 40
0.0
 40
0.2372212577
 40
0.5000061067
 40
0.7627876313
 40
1.0
 40
1.0
 40
1.0
 40
1.0
 10
24.6981005868
 20
-31.9115244807
 30
0.0
 10
24.5776453047
 20
-31.8419751108
 30
0.0
 10
24.3496759576
 20
-31.6501087696
 30
0.0
 10
24.0835944213
 20
-31.2865030824
 30
0.0
 10
23.9017448939
 20
-30.8742719466
 30
0.0
 10
23.8495724494
 20
-30.580917444
 30
0.0
 10
23.8495724494
 20
-30.4418306366
 30
0.0
  0
SPLINE
  5
5B2
100
AcDbEntity
  8
ASSI
100
AcDbSpline
 62
7
  6
CONTINUOUS
 70
0
 71
3
 72
9
 73
5
 74
0
 42
0.0000001
 43
0.0000001
 44
0.0000000001
 40
0.0
 40
0.0
 40
0.0
 40
0.0
 40
0.2314216155
 40
1.0
 40
1.0
 40
1.0
 40
1.0
 10
-7.7729622747
 20
-0.729787
 30
0.0
 10
-7.7824049934
 20
-0.7528773903
 30
0.0
 10
-7.8171250426
 20
-0.8551468254
 30
0.0
 10
-7.8288113472
 20
-0.9642668376
 30
0.0
 10
-7.8288113477
 20
-1.0471173091
 30
0.0
  0
SPLINE
  5
5B3
100
AcDbEntity
  8
ASSI
100
AcDbSpline
 62
7
  6
CONTINUOUS
 70
0
 71
3
 72
15
 73
11
 74
0
 42
0.0000001
 43
0.0000001
 44
0.0000000001
 40
0.0
 40
0.0
 40
0.0
 40
0.0
 40
0.1449018469
 40
0.2745170393
 40
0.3911053272
 40
0.4999889023
 40
0.6088744922
 40
0.7254681378
 40
0.8550905417
 40
1.0
 40
1.0
 40
1.0
 40
1.0
 10
-24.5872420619
 20
24.7950467963
 30
0.0
 10
-24.5872420618
 20
24.8812103162
 30
0.0
 10
-24.5742216047
 20
25.045018849
 30
0.0
 10
-24.5078468104
 20
25.2700248989
 30
0.0
 10
-24.396075833
 20
25.4527343722
 30
0.0
 10
-24.2409263649
 20
25.5832137132
 30
0.0
 10
-24.0503425476
 20
25.6523165987
 30
0.0
 10
-23.8362173793
 20
25.6577395757
 30
0.0
 10
-23.6081609521
 20
25.6027027144
 30
0.0
 10
-23.4597830487
 20
25.5320655628
 30
0.0
 10
-23.3851605339
 20
25.4889794582
 30
0.0
  0
SPLINE
  5
5B4
100
AcDbEntity
  8
ASSI
100
AcDbSpline
 62
7
  6
CONTINUOUS
 70
0
 71
3
 72
9
 73
5
 74
0
 42
0.0000001
 43
0.0000001
 44
0.0000000001
 40
0.0
 40
0.0
 40
0.0
 40
0.0
 40
0.2314216155
 40
1.0
 40
1.0
 40
1.0
 40
1.0
 10
8.136940302
 20
-9.9159653499
 30
0.0
 10
8.1274975833
 20
-9.9390557402
 30
0.0
 10
8.0927775341
 20
-10.0413251752
 30
0.0
 10
8.0810912295
 20
-10.1504451875
 30
0.0
 10
8.081091229
 20
-10.233295659
 30
0.0
  0
SPLINE
  5
5B5
100
AcDbEntity
  8
ASSI
100
AcDbSpline
 62
7
  6
CONTINUOUS
 70
0
 71
3
 72
11
 73
7
 74
0
 42
0.0000001
 43
0.0000001
 44
0.0000000001
 40
0.0
 40
0.0
 40
0.0
 40
0.0
 40
0.2839245087
 40
0.5435005414
 40
0.7805115514
 40
1.0
 40
1.0
 40
1.0
 40
1.0
 10
7.9396698727
 20
-10.3149505777
 30
0.0
 10
7.9396698726
 20
-10.2648804358
 30
0.0
 10
7.9459871134
 20
-10.1688324748
 30
0.0
 10
7.9773508843
 20
-10.0340673156
 30
0.0
 10
8.0297728781
 20
-9.9181734376
 30
0.0
 10
8.0798392398
 20
-9.853829751
 30
0.0
 10
8.1075711953
 20
-9.8268268372
 30
0.0
  0
SPLINE
  5
5B6
100
AcDbEntity
  8
ASSI
100
AcDbSpline
 62
7
  6
CONTINUOUS
 70
0
 71
3
 72
9
 73
5
 74
0
 42
0.0000001
 43
0.0000001
 44
0.0000000001
 40
0.0
 40
0.0
 40
0.0
 40
0.0
 40
0.2525081685
 40
1.0
 40
1.0
 40
1.0
 40
1.0
 10
8.1075711953
 20
-9.8268268372
 30
0.0
 10
8.113681356
 20
-9.8208773058
 30
0.0
 10
8.1385770497
 20
-9.7980441351
 30
0.0
 10
8.1663073969
 20
-9.7782926946
 30
0.0
 10
8.1881706321
 20
-9.7656691399
 30
0.0
  0
SPLINE
  5
5B7
100
AcDbEntity
  8
ASSI
100
AcDbSpline
 62
7
  6
CONTINUOUS
 70
0
 71
3
 72
9
 73
5
 74
0
 42
0.0000001
 43
0.0000001
 44
0.0000000001
 40
0.0
 40
0.0
 40
0.0
 40
0.0
 40
0.2698702211
 40
1.0
 40
1.0
 40
1.0
 40
1.0
 10
18.4048502343
 20
-28.1145707628
 30
0.0
 10
18.4300417135
 20
-28.1291160071
 30
0.0
 10
18.5253155524
 20
-28.1793456186
 30
0.0
 10
18.6296987257
 20
-28.2142802079
 30
0.0
 10
18.7076790363
 20
-28.2248996474
 30
0.0
  0
SPLINE
  5
5B8
100
AcDbEntity
  8
ASSI
100
AcDbSpline
 62
7
  6
CONTINUOUS
 70
0
 71
3
 72
11
 73
7
 74
0
 42
0.0000001
 43
0.0000001
 44
0.0000000001
 40
0.0
 40
0.0
 40
0.0
 40
0.0
 40
0.2372123692
 40
0.4999938933
 40
0.7627787423
 40
1.0
 40
1.0
 40
1.0
 40
1.0
 10
8.081091229
 20
-21.173997368
 30
0.0
 10
8.0810912292
 20
-21.3130841757
 30
0.0
 10
8.1332636733
 20
-21.6064386784
 30
0.0
 10
8.3151132012
 20
-22.0186698139
 30
0.0
 10
8.5811947368
 20
-22.3822755016
 30
0.0
 10
8.8091640849
 20
-22.5741418412
 30
0.0
 10
8.9296193664
 20
-22.6436912122
 30
0.0
  0
SPLINE
  5
5B9
100
AcDbEntity
  8
ASSI
100
AcDbSpline
 62
7
  6
CONTINUOUS
 70
0
 71
3
 72
11
 73
7
 74
0
 42
0.0000001
 43
0.0000001
 44
0.0000000001
 40
0.0
 40
0.0
 40
0.0
 40
0.0
 40
0.2372212577
 40
0.5000061067
 40
0.7627876313
 40
1.0
 40
1.0
 40
1.0
 40
1.0
 10
8.7881980101
 20
-22.7253461309
 30
0.0
 10
8.667742728
 20
-22.655796761
 30
0.0
 10
8.4397733809
 20
-22.4639304198
 30
0.0
 10
8.1736918446
 20
-22.1003247325
 30
0.0
 10
7.9918423172
 20
-21.6880935967
 30
0.0
 10
7.9396698727
 20
-21.3947390941
 30
0.0
 10
7.9396698727
 20
-21.2556522867
 30
0.0
  0
SPLINE
  5
5BA
100
AcDbEntity
  8
ASSI
100
AcDbSpline
 62
7
  6
CONTINUOUS
 70
0
 71
3
 72
13
 73
9
 74
0
 42
0.0000001
 43
0.0000001
 44
0.0000000001
 40
0.0
 40
0.0
 40
0.0
 40
0.0
 40
0.1142615855
 40
0.2375404653
 40
0.5000060639
 40
0.7624683436
 40
0.8857433475
 40
1.0
 40
1.0
 40
1.0
 40
1.0
 10
-23.3851605339
 20
11.7722788081
 30
0.0
 10
-23.4674545197
 20
11.8197943242
 30
0.0
 10
-23.6300162706
 20
11.9337351988
 30
0.0
 10
-23.9343210602
 20
12.2185968423
 30
0.0
 10
-24.2558002082
 20
12.6576741517
 30
0.0
 10
-24.4753123615
 20
13.1556189527
 30
0.0
 10
-24.5698516465
 20
13.5615765433
 30
0.0
 10
-24.5872420617
 20
13.7593227494
 30
0.0
 10
-24.5872420619
 20
13.8543450873
 30
0.0
  0
SPLINE
  5
5BB
100
AcDbEntity
  8
ASSI
100
AcDbSpline
 62
7
  6
CONTINUOUS
 70
0
 71
3
 72
9
 73
5
 74
0
 42
0.0000001
 43
0.0000001
 44
0.0000000001
 40
0.0
 40
0.0
 40
0.0
 40
0.0
 40
0.2314216155
 40
1.0
 40
1.0
 40
1.0
 40
1.0
 10
24.0468428787
 20
-19.1021436997
 30
0.0
 10
24.03740016
 20
-19.12523409
 30
0.0
 10
24.0026801108
 20
-19.2275035251
 30
0.0
 10
23.9909938062
 20
-19.3366235374
 30
0.0
 10
23.9909938056
 20
-19.4194740089
 30
0.0
  0
SPLINE
  5
5BC
100
AcDbEntity
  8
ASSI
100
AcDbSpline
 62
7
  6
CONTINUOUS
 70
0
 71
3
 72
15
 73
11
 74
0
 42
0.0000001
 43
0.0000001
 44
0.0000000001
 40
0.0
 40
0.0
 40
0.0
 40
0.0
 40
0.1449018469
 40
0.2745170393
 40
0.3911053272
 40
0.4999889023
 40
0.6088744922
 40
0.7254681378
 40
0.8550905417
 40
1.0
 40
1.0
 40
1.0
 40
1.0
 10
-12.7078481379
 20
6.9953319194
 30
0.0
 10
-12.707848138
 20
6.9091683995
 30
0.0
 10
-12.7208685951
 20
6.7453598667
 30
0.0
 10
-12.7872433894
 20
6.5203538168
 30
0.0
 10
-12.8990143668
 20
6.3376443435
 30
0.0
 10
-13.0541638349
 20
6.2071650025
 30
0.0
 10
-13.2447476522
 20
6.138062117
 30
0.0
 10
-13.4588728205
 20
6.13263914
 30
0.0
 10
-13.6869292477
 20
6.1876760013
 30
0.0
 10
-13.8353071511
 20
6.2583131529
 30
0.0
 10
-13.909929666
 20
6.3013992575
 30
0.0
  0
SPLINE
  5
5BD
100
AcDbEntity
  8
ASSI
100
AcDbSpline
 62
7
  6
CONTINUOUS
 70
0
 71
3
 72
11
 73
7
 74
0
 42
0.0000001
 43
0.0000001
 44
0.0000000001
 40
0.0
 40
0.0
 40
0.0
 40
0.0
 40
0.2839245087
 40
0.5435005414
 40
0.7805115514
 40
1.0
 40
1.0
 40
1.0
 40
1.0
 10
-7.970232704
 20
-1.1287722278
 30
0.0
 10
-7.9702327041
 20
-1.0787020859
 30
0.0
 10
-7.9639154633
 20
-0.9826541249
 30
0.0
 10
-7.9325516924
 20
-0.8478889658
 30
0.0
 10
-7.8801296986
 20
-0.7319950877
 30
0.0
 10
-7.8300633369
 20
-0.6676514011
 30
0.0
 10
-7.8023313814
 20
-0.6406484873
 30
0.0
  0
SPLINE
  5
5BE
100
AcDbEntity
  8
ASSI
100
AcDbSpline
 62
7
  6
CONTINUOUS
 70
0
 71
3
 72
9
 73
5
 74
0
 42
0.0000001
 43
0.0000001
 44
0.0000000001
 40
0.0
 40
0.0
 40
0.0
 40
0.0
 40
0.2525081685
 40
1.0
 40
1.0
 40
1.0
 40
1.0
 10
-7.8023313814
 20
-0.6406484873
 30
0.0
 10
-7.7962212207
 20
-0.6346989559
 30
0.0
 10
-7.771325527
 20
-0.6118657853
 30
0.0
 10
-7.7435951798
 20
-0.5921143447
 30
0.0
 10
-7.7217319446
 20
-0.57949079
 30
0.0
  0
SPLINE
  5
5BF
100
AcDbEntity
  8
ASSI
100
AcDbSpline
 62
7
  6
CONTINUOUS
 70
0
 71
3
 72
9
 73
5
 74
0
 42
0.0000001
 43
0.0000001
 44
0.0000000001
 40
0.0
 40
0.0
 40
0.0
 40
0.0
 40
0.2698702211
 40
1.0
 40
1.0
 40
1.0
 40
1.0
 10
2.4949476576
 20
-18.9283924129
 30
0.0
 10
2.5201391368
 20
-18.9429376572
 30
0.0
 10
2.6154129757
 20
-18.9931672688
 30
0.0
 10
2.719796149
 20
-19.028101858
 30
0.0
 10
2.7977764596
 20
-19.0387212975
 30
0.0
  0
SPLINE
  5
5C0
100
AcDbEntity
  8
ASSI
100
AcDbSpline
 62
7
  6
CONTINUOUS
 70
0
 71
3
 72
9
 73
5
 74
0
 42
0.0000001
 43
0.0000001
 44
0.0000000001
 40
0.0
 40
0.0
 40
0.0
 40
0.0
 40
0.2314216125
 40
1.0
 40
1.0
 40
1.0
 40
1.0
 10
24.0468428787
 20
-2.3645030255
 30
0.0
 10
24.03740016
 20
-2.3875934155
 30
0.0
 10
24.0026801106
 20
-2.4898628505
 30
0.0
 10
23.9909938058
 20
-2.5989828628
 30
0.0
 10
23.9909938056
 20
-2.6818333346
 30
0.0
  0
SPLINE
  5
5C1
100
AcDbEntity
  8
ASSI
100
AcDbSpline
 62
7
  6
CONTINUOUS
 70
0
 71
3
 72
11
 73
7
 74
0
 42
0.0000001
 43
0.0000001
 44
0.0000000001
 40
0.0
 40
0.0
 40
0.0
 40
0.0
 40
0.2372123692
 40
0.4999938933
 40
0.7627787423
 40
1.0
 40
1.0
 40
1.0
 40
1.0
 10
-7.8288113477
 20
-11.9878190182
 30
0.0
 10
-7.8288113475
 20
-12.1269058259
 30
0.0
 10
-7.7766389034
 20
-12.4202603286
 30
0.0
 10
-7.5947893755
 20
-12.832491464
 30
0.0
 10
-7.3287078399
 20
-13.1960971518
 30
0.0
 10
-7.1007384918
 20
-13.3879634913
 30
0.0
 10
-6.9802832103
 20
-13.4575128623
 30
0.0
  0
SPLINE
  5
5C2
100
AcDbEntity
  8
ASSI
100
AcDbSpline
 62
7
  6
CONTINUOUS
 70
0
 71
3
 72
11
 73
7
 74
0
 42
0.0000001
 43
0.0000001
 44
0.0000000001
 40
0.0
 40
0.0
 40
0.0
 40
0.0
 40
0.2372212577
 40
0.5000061067
 40
0.7627876313
 40
1.0
 40
1.0
 40
1.0
 40
1.0
 10
-7.1217045666
 20
-13.539167781
 30
0.0
 10
-7.2421598487
 20
-13.4696184111
 30
0.0
 10
-7.4701291958
 20
-13.2777520699
 30
0.0
 10
-7.7362107321
 20
-12.9141463826
 30
0.0
 10
-7.9180602595
 20
-12.5019152469
 30
0.0
 10
-7.970232704
 20
-12.2085607442
 30
0.0
 10
-7.970232704
 20
-12.0694739368
 30
0.0
  0
SPLINE
  5
5C3
100
AcDbEntity
  8
ASSI
100
AcDbSpline
 62
7
  6
CONTINUOUS
 70
0
 71
3
 72
15
 73
11
 74
0
 42
0.0000001
 43
0.0000001
 44
0.0000000001
 40
0.0
 40
0.0
 40
0.0
 40
0.0
 40
0.1449018481
 40
0.2745170406
 40
0.3911053286
 40
0.4999889043
 40
0.6088744936
 40
0.7254681391
 40
0.8550905429
 40
1.0
 40
1.0
 40
1.0
 40
1.0
 10
19.1119570155
 20
-28.1146654546
 30
0.0
 10
19.1119570153
 20
-28.2008289752
 30
0.0
 10
19.0989365582
 20
-28.3646375088
 30
0.0
 10
19.0325617632
 20
-28.5896435594
 30
0.0
 10
18.9207907847
 20
-28.7723530326
 30
0.0
 10
18.765641316
 20
-28.902832373
 30
0.0
 10
18.5750574984
 20
-28.9719352576
 30
0.0
 10
18.3609323305
 20
-28.9773582336
 30
0.0
 10
18.1328759043
 20
-28.9223213721
 30
0.0
 10
17.9844980016
 20
-28.8516842209
 30
0.0
 10
17.9098754874
 20
-28.8085981165
 30
0.0
  0
SPLINE
  5
5C4
100
AcDbEntity
  8
ASSI
100
AcDbSpline
 62
7
  6
CONTINUOUS
 70
0
 71
3
 72
9
 73
5
 74
0
 42
0.0000001
 43
0.0000001
 44
0.0000000001
 40
0.0
 40
0.0
 40
0.0
 40
0.0
 40
0.2314216125
 40
1.0
 40
1.0
 40
1.0
 40
1.0
 10
8.136940302
 20
6.8216753244
 30
0.0
 10
8.1274975833
 20
6.7985849344
 30
0.0
 10
8.0927775339
 20
6.6963154994
 30
0.0
 10
8.0810912291
 20
6.5871954871
 30
0.0
 10
8.081091229
 20
6.5043450152
 30
0.0
  0
SPLINE
  5
5C5
100
AcDbEntity
  8
ASSI
100
AcDbSpline
 62
7
  6
CONTINUOUS
 70
0
 71
3
 72
11
 73
7
 74
0
 42
0.0000001
 43
0.0000001
 44
0.0000000001
 40
0.0
 40
0.0
 40
0.0
 40
0.0
 40
0.2839245087
 40
0.5435005414
 40
0.7805115514
 40
1.0
 40
1.0
 40
1.0
 40
1.0
 10
-23.8801352807
 20
8.0574061221
 30
0.0
 10
-23.8801352808
 20
8.1074762639
 30
0.0
 10
-23.87381804
 20
8.2035242249
 30
0.0
 10
-23.8424542691
 20
8.3382893841
 30
0.0
 10
-23.7900322753
 20
8.4541832622
 30
0.0
 10
-23.7399659136
 20
8.5185269488
 30
0.0
 10
-23.7122339581
 20
8.5455298625
 30
0.0
  0
SPLINE
  5
5C6
100
AcDbEntity
  8
ASSI
100
AcDbSpline
 62
7
  6
CONTINUOUS
 70
0
 71
3
 72
9
 73
5
 74
0
 42
0.0000001
 43
0.0000001
 44
0.0000000001
 40
0.0
 40
0.0
 40
0.0
 40
0.0
 40
0.2525081685
 40
1.0
 40
1.0
 40
1.0
 40
1.0
 10
-23.7122339581
 20
8.5455298625
 30
0.0
 10
-23.7061237974
 20
8.551479394
 30
0.0
 10
-23.6812281037
 20
8.5743125646
 30
0.0
 10
-23.6534977565
 20
8.5940640052
 30
0.0
 10
-23.6316345213
 20
8.6066875599
 30
0.0
  0
SPLINE
  5
5C7
100
AcDbEntity
  8
ASSI
100
AcDbSpline
 62
7
  6
CONTINUOUS
 70
0
 71
3
 72
9
 73
5
 74
0
 42
0.0000001
 43
0.0000001
 44
0.0000000001
 40
0.0
 40
0.0
 40
0.0
 40
0.0
 40
0.2698702211
 40
1.0
 40
1.0
 40
1.0
 40
1.0
 10
-13.4149549191
 20
-9.742214063
 30
0.0
 10
-13.3897634399
 20
-9.7567593073
 30
0.0
 10
-13.294489601
 20
-9.8069889189
 30
0.0
 10
-13.1901064277
 20
-9.8419235082
 30
0.0
 10
-13.1121261171
 20
-9.8525429476
 30
0.0
  0
SPLINE
  5
5C8
100
AcDbEntity
  8
ASSI
100
AcDbSpline
 62
7
  6
CONTINUOUS
 70
0
 71
3
 72
15
 73
11
 74
0
 42
0.0000001
 43
0.0000001
 44
0.0000000001
 40
0.0
 40
0.0
 40
0.0
 40
0.0
 40
0.1449018469
 40
0.2745170393
 40
0.3911053272
 40
0.4999889023
 40
0.6088744922
 40
0.7254681378
 40
0.8550905417
 40
1.0
 40
1.0
 40
1.0
 40
1.0
 10
-40.4971446386
 20
33.9812251462
 30
0.0
 10
-40.4971446385
 20
34.067388666
 30
0.0
 10
-40.4841241814
 20
34.2311971988
 30
0.0
 10
-40.4177493871
 20
34.4562032488
 30
0.0
 10
-40.3059784097
 20
34.638912722
 30
0.0
 10
-40.1508289416
 20
34.7693920631
 30
0.0
 10
-39.9602451243
 20
34.8384949486
 30
0.0
 10
-39.746119956
 20
34.8439179256
 30
0.0
 10
-39.5180635288
 20
34.7888810643
 30
0.0
 10
-39.3696856254
 20
34.7182439127
 30
0.0
 10
-39.2950631105
 20
34.6751578081
 30
0.0
  0
SPLINE
  5
5C9
100
AcDbEntity
  8
ASSI
100
AcDbSpline
 62
7
  6
CONTINUOUS
 70
0
 71
3
 72
11
 73
7
 74
0
 42
0.0000001
 43
0.0000001
 44
0.0000000001
 40
0.0
 40
0.0
 40
0.0
 40
0.0
 40
0.2372123692
 40
0.4999938933
 40
0.7627787423
 40
1.0
 40
1.0
 40
1.0
 40
1.0
 10
-23.7387139244
 20
-2.8016406683
 30
0.0
 10
-23.7387139242
 20
-2.940727476
 30
0.0
 10
-23.6865414801
 20
-3.2340819787
 30
0.0
 10
-23.5046919522
 20
-3.6463131141
 30
0.0
 10
-23.2386104166
 20
-4.0099188019
 30
0.0
 10
-23.0106410685
 20
-4.2017851414
 30
0.0
 10
-22.890185787
 20
-4.2713345124
 30
0.0
  0
SPLINE
  5
5CA
100
AcDbEntity
  8
ASSI
100
AcDbSpline
 62
7
  6
CONTINUOUS
 70
0
 71
3
 72
11
 73
7
 74
0
 42
0.0000001
 43
0.0000001
 44
0.0000000001
 40
0.0
 40
0.0
 40
0.0
 40
0.0
 40
0.2372212577
 40
0.5000061067
 40
0.7627876313
 40
1.0
 40
1.0
 40
1.0
 40
1.0
 10
-23.0316071433
 20
-4.3529894311
 30
0.0
 10
-23.1520624254
 20
-4.2834400612
 30
0.0
 10
-23.3800317725
 20
-4.09157372
 30
0.0
 10
-23.6461133088
 20
-3.7279680327
 30
0.0
 10
-23.8279628362
 20
-3.315736897
 30
0.0
 10
-23.8801352807
 20
-3.0223823944
 30
0.0
 10
-23.8801352807
 20
-2.883295587
 30
0.0
  0
SPLINE
  5
5CB
100
AcDbEntity
  8
ASSI
100
AcDbSpline
 62
7
  6
CONTINUOUS
 70
0
 71
3
 72
9
 73
5
 74
0
 42
0.0000001
 43
0.0000001
 44
0.0000000001
 40
0.0
 40
0.0
 40
0.0
 40
0.0
 40
0.2314216125
 40
1.0
 40
1.0
 40
1.0
 40
1.0
 10
-7.7729622747
 20
16.0078536743
 30
0.0
 10
-7.7824049934
 20
15.9847632843
 30
0.0
 10
-7.8171250428
 20
15.8824938493
 30
0.0
 10
-7.8288113476
 20
15.7733738369
 30
0.0
 10
-7.8288113477
 20
15.6905233651
 30
0.0
  0
SPLINE
  5
5CC
100
AcDbEntity
  8
ASSI
100
AcDbSpline
 62
7
  6
CONTINUOUS
 70
0
 71
3
 72
13
 73
9
 74
0
 42
0.0000001
 43
0.0000001
 44
0.0000000001
 40
0.0
 40
0.0
 40
0.0
 40
0.0
 40
0.1142615855
 40
0.2375404653
 40
0.5000060639
 40
0.7624683436
 40
0.8857433475
 40
1.0
 40
1.0
 40
1.0
 40
1.0
 10
-39.2950631105
 20
20.958457158
 30
0.0
 10
-39.3773570964
 20
21.005972674
 30
0.0
 10
-39.5399188473
 20
21.1199135487
 30
0.0
 10
-39.8442236369
 20
21.4047751921
 30
0.0
 10
-40.1657027849
 20
21.8438525015
 30
0.0
 10
-40.3852149382
 20
22.3417973026
 30
0.0
 10
-40.4797542232
 20
22.7477548932
 30
0.0
 10
-40.4971446384
 20
22.9455010993
 30
0.0
 10
-40.4971446386
 20
23.0405234372
 30
0.0
  0
SPLINE
  5
5CD
100
AcDbEntity
  8
ASSI
100
AcDbSpline
 62
7
  6
CONTINUOUS
 70
0
 71
3
 72
9
 73
5
 74
0
 42
0.0000001
 43
0.0000001
 44
0.0000000001
 40
0.0
 40
0.0
 40
0.0
 40
0.0
 40
0.2314216125
 40
1.0
 40
1.0
 40
1.0
 40
1.0
 10
-23.6828648514
 20
25.1940320241
 30
0.0
 10
-23.6923075701
 20
25.1709416342
 30
0.0
 10
-23.7270276195
 20
25.0686721992
 30
0.0
 10
-23.7387139243
 20
24.9595521868
 30
0.0
 10
-23.7387139244
 20
24.876701715
 30
0.0
  0
SPLINE
  5
5CE
100
AcDbEntity
  8
ASSI
100
AcDbSpline
 62
7
  6
CONTINUOUS
 70
0
 71
3
 72
11
 73
7
 74
0
 42
0.0000001
 43
0.0000001
 44
0.0000000001
 40
0.0
 40
0.0
 40
0.0
 40
0.0
 40
0.2839245272
 40
0.5435005588
 40
0.7805115599
 40
1.0
 40
1.0
 40
1.0
 40
1.0
 10
-39.7900378574
 20
33.9812251462
 30
0.0
 10
-39.7900378574
 20
34.031295312
 30
0.0
 10
-39.7837206106
 20
34.127343316
 30
0.0
 10
-39.7523568101
 20
34.2621085295
 30
0.0
 10
-39.6999347654
 20
34.3780024401
 30
0.0
 10
-39.649868357
 20
34.4423461309
 30
0.0
 10
-39.6221363771
 20
34.4693490403
 30
0.0
  0
SPLINE
  5
5CF
100
AcDbEntity
  8
ASSI
100
AcDbSpline
 62
7
  6
CONTINUOUS
 70
0
 71
3
 72
9
 73
5
 74
0
 42
0.0000001
 43
0.0000001
 44
0.0000000001
 40
0.0
 40
0.0
 40
0.0
 40
0.0
 40
0.2525081573
 40
1.0
 40
1.0
 40
1.0
 40
1.0
 10
-39.6221363771
 20
34.4693490403
 30
0.0
 10
-39.6160262268
 20
34.4752985555
 30
0.0
 10
-39.5911305765
 20
34.4981316651
 30
0.0
 10
-39.5634002861
 20
34.5178830565
 30
0.0
 10
-39.541537098
 20
34.530506584
 30
0.0
  0
SPLINE
  5
5D0
100
AcDbEntity
  8
ASSI
100
AcDbSpline
 62
7
  6
CONTINUOUS
 70
0
 71
3
 72
11
 73
7
 74
0
 42
0.0000001
 43
0.0000001
 44
0.0000000001
 40
0.0
 40
0.0
 40
0.0
 40
0.0
 40
0.2372212583
 40
0.5000061069
 40
0.7627876318
 40
1.0
 40
1.0
 40
1.0
 40
1.0
 10
-38.94150972
 20
21.570829593
 30
0.0
 10
-39.0619650022
 20
21.6403789633
 30
0.0
 10
-39.2899343495
 20
21.8322453045
 30
0.0
 10
-39.5560158859
 20
22.1958509921
 30
0.0
 10
-39.737865413
 20
22.6080821275
 30
0.0
 10
-39.7900378577
 20
22.9014366301
 30
0.0
 10
-39.7900378574
 20
23.0405234372
 30
0.0
  0
SPLINE
  5
5D1
100
AcDbEntity
  8
ASSI
100
AcDbSpline
 62
7
  6
CONTINUOUS
 70
0
 71
3
 72
11
 73
7
 74
0
 42
0.0000001
 43
0.0000001
 44
0.0000000001
 40
0.0
 40
0.0
 40
0.0
 40
0.0
 40
0.2372123682
 40
0.4999938931
 40
0.7627787412
 40
1.0
 40
1.0
 40
1.0
 40
1.0
 10
-39.6486165011
 20
23.1221783558
 30
0.0
 10
-39.6486165002
 20
22.9830915487
 30
0.0
 10
-39.5964440574
 20
22.6897370462
 30
0.0
 10
-39.4145945295
 20
22.2775059111
 30
0.0
 10
-39.1485129936
 20
21.9139002232
 30
0.0
 10
-38.9205436461
 20
21.7220338824
 30
0.0
 10
-38.8000883637
 20
21.6524845117
 30
0.0
  0
SPLINE
  5
5D2
100
AcDbEntity
  8
ASSI
100
AcDbSpline
 62
7
  6
CONTINUOUS
 70
0
 71
3
 72
11
 73
7
 74
0
 42
0.0000001
 43
0.0000001
 44
0.0000000001
 40
0.0
 40
0.0
 40
0.0
 40
0.0
 40
0.2839245087
 40
0.5435005414
 40
0.7805115514
 40
1.0
 40
1.0
 40
1.0
 40
1.0
 10
-39.7900378574
 20
17.2435844719
 30
0.0
 10
-39.7900378575
 20
17.2936546138
 30
0.0
 10
-39.7837206167
 20
17.3897025748
 30
0.0
 10
-39.7523568458
 20
17.524467734
 30
0.0
 10
-39.699934852
 20
17.640361612
 30
0.0
 10
-39.6498684903
 20
17.7047052987
 30
0.0
 10
-39.6221365348
 20
17.7317082124
 30
0.0
  0
SPLINE
  5
5D3
100
AcDbEntity
  8
ASSI
100
AcDbSpline
 62
7
  6
CONTINUOUS
 70
0
 71
3
 72
9
 73
5
 74
0
 42
0.0000001
 43
0.0000001
 44
0.0000000001
 40
0.0
 40
0.0
 40
0.0
 40
0.0
 40
0.2525081685
 40
1.0
 40
1.0
 40
1.0
 40
1.0
 10
-39.6221365348
 20
17.7317082124
 30
0.0
 10
-39.6160263741
 20
17.7376577439
 30
0.0
 10
-39.5911306804
 20
17.7604909145
 30
0.0
 10
-39.5634003332
 20
17.7802423551
 30
0.0
 10
-39.541537098
 20
17.7928659097
 30
0.0
  0
SPLINE
  5
5D4
100
AcDbEntity
  8
ASSI
100
AcDbSpline
 62
7
  6
CONTINUOUS
 70
0
 71
3
 72
9
 73
5
 74
0
 42
0.0000001
 43
0.0000001
 44
0.0000000001
 40
0.0
 40
0.0
 40
0.0
 40
0.0
 40
0.2698702211
 40
1.0
 40
1.0
 40
1.0
 40
1.0
 10
-29.3248574958
 20
-0.5560357132
 30
0.0
 10
-29.2996660166
 20
-0.5705809575
 30
0.0
 10
-29.2043921777
 20
-0.620810569
 30
0.0
 10
-29.1000090044
 20
-0.6557451583
 30
0.0
 10
-29.0220286938
 20
-0.6663645977
 30
0.0
  0
SPLINE
  5
5D5
100
AcDbEntity
  8
ASSI
100
AcDbSpline
 62
7
  6
CONTINUOUS
 70
0
 71
3
 72
11
 73
7
 74
0
 42
0.0000001
 43
0.0000001
 44
0.0000000001
 40
0.0
 40
0.0
 40
0.0
 40
0.0
 40
0.2372123692
 40
0.4999938933
 40
0.7627787423
 40
1.0
 40
1.0
 40
1.0
 40
1.0
 10
-39.6486165011
 20
6.3845376816
 30
0.0
 10
-39.6486165009
 20
6.2454508739
 30
0.0
 10
-39.5964440568
 20
5.9520963712
 30
0.0
 10
-39.4145945289
 20
5.5398652358
 30
0.0
 10
-39.1485129933
 20
5.176259548
 30
0.0
 10
-38.9205436452
 20
4.9843932084
 30
0.0
 10
-38.8000883637
 20
4.9148438374
 30
0.0
  0
SPLINE
  5
5D6
100
AcDbEntity
  8
ASSI
100
AcDbSpline
 62
7
  6
CONTINUOUS
 70
0
 71
3
 72
11
 73
7
 74
0
 42
0.0000001
 43
0.0000001
 44
0.0000000001
 40
0.0
 40
0.0
 40
0.0
 40
0.0
 40
0.2372212577
 40
0.5000061067
 40
0.7627876313
 40
1.0
 40
1.0
 40
1.0
 40
1.0
 10
-38.94150972
 20
4.8331889188
 30
0.0
 10
-39.0619650021
 20
4.9027382887
 30
0.0
 10
-39.2899343492
 20
5.0946046299
 30
0.0
 10
-39.5560158855
 20
5.4582103171
 30
0.0
 10
-39.7378654129
 20
5.8704414529
 30
0.0
 10
-39.7900378574
 20
6.1637959555
 30
0.0
 10
-39.7900378574
 20
6.3028827629
 30
0.0
  0
SPLINE
  5
5D7
100
AcDbEntity
  8
ASSI
100
AcDbSpline
 62
7
  6
CONTINUOUS
 70
0
 71
3
 72
15
 73
11
 74
0
 42
0.0000001
 43
0.0000001
 44
0.0000000001
 40
0.0
 40
0.0
 40
0.0
 40
0.0
 40
0.1449018469
 40
0.2745170393
 40
0.3911053272
 40
0.4999889023
 40
0.6088744922
 40
0.7254681378
 40
0.8550905417
 40
1.0
 40
1.0
 40
1.0
 40
1.0
 10
-28.6177507146
 20
16.1815102693
 30
0.0
 10
-28.6177507147
 20
16.0953467494
 30
0.0
 10
-28.6307711718
 20
15.9315382166
 30
0.0
 10
-28.6971459661
 20
15.7065321667
 30
0.0
 10
-28.8089169435
 20
15.5238226934
 30
0.0
 10
-28.9640664116
 20
15.3933433524
 30
0.0
 10
-29.1546502289
 20
15.3242404669
 30
0.0
 10
-29.3687753972
 20
15.3188174898
 30
0.0
 10
-29.5968318244
 20
15.3738543512
 30
0.0
 10
-29.7452097278
 20
15.4444915028
 30
0.0
 10
-29.8198322426
 20
15.4875776074
 30
0.0
  0
SPLINE
  5
5D8
100
AcDbEntity
  8
ASSI
100
AcDbSpline
 62
7
  6
CONTINUOUS
 70
0
 71
3
 72
15
 73
11
 74
0
 42
0.0000001
 43
0.0000001
 44
0.0000000001
 40
0.0
 40
0.0
 40
0.0
 40
0.0
 40
0.1449018481
 40
0.2745170406
 40
0.3911053286
 40
0.4999889043
 40
0.6088744936
 40
0.7254681391
 40
0.8550905429
 40
1.0
 40
1.0
 40
1.0
 40
1.0
 10
-8.6773394852
 20
-1.1287722278
 30
0.0
 10
-8.677339485
 20
-1.0426087072
 30
0.0
 10
-8.6643190279
 20
-0.8788001737
 30
0.0
 10
-8.5979442329
 20
-0.653794123
 30
0.0
 10
-8.4861732544
 20
-0.4710846498
 30
0.0
 10
-8.3310237857
 20
-0.3406053095
 30
0.0
 10
-8.1404399681
 20
-0.2715024249
 30
0.0
 10
-7.9263148002
 20
-0.2660794489
 30
0.0
 10
-7.698258374
 20
-0.3211163104
 30
0.0
 10
-7.5498804713
 20
-0.3917534615
 30
0.0
 10
-7.4752579572
 20
-0.4348395659
 30
0.0
  0
SPLINE
  5
5D9
100
AcDbEntity
  8
ASSI
100
AcDbSpline
 62
7
  6
CONTINUOUS
 70
0
 71
3
 72
9
 73
5
 74
0
 42
0.0000001
 43
0.0000001
 44
0.0000000001
 40
0.0
 40
0.0
 40
0.0
 40
0.0
 40
0.2698702203
 40
1.0
 40
1.0
 40
1.0
 40
1.0
 10
-29.3248574958
 20
16.1816049611
 30
0.0
 10
-29.2996660166
 20
16.1670597169
 30
0.0
 10
-29.2043921779
 20
16.116830105
 30
0.0
 10
-29.1000090045
 20
16.0818955162
 30
0.0
 10
-29.0220286938
 20
16.0712760765
 30
0.0
  0
SPLINE
  5
5DA
100
AcDbEntity
  8
ASSI
100
AcDbSpline
 62
7
  6
CONTINUOUS
 70
0
 71
3
 72
9
 73
5
 74
0
 42
0.0000001
 43
0.0000001
 44
0.0000000001
 40
0.0
 40
0.0
 40
0.0
 40
0.0
 40
0.2698702203
 40
1.0
 40
1.0
 40
1.0
 40
1.0
 10
34.314752811
 20
-20.5631084384
 30
0.0
 10
34.3399442902
 20
-20.5776536826
 30
0.0
 10
34.4352181289
 20
-20.6278832945
 30
0.0
 10
34.5396013023
 20
-20.6628178833
 30
0.0
 10
34.617581613
 20
-20.673437323
 30
0.0
  0
SPLINE
  5
5DB
100
AcDbEntity
  8
ASSI
100
AcDbSpline
 62
7
  6
CONTINUOUS
 70
0
 71
3
 72
11
 73
7
 74
0
 42
0.0000001
 43
0.0000001
 44
0.0000000001
 40
0.0
 40
0.0
 40
0.0
 40
0.0
 40
0.2372123682
 40
0.4999938931
 40
0.7627787412
 40
1.0
 40
1.0
 40
1.0
 40
1.0
 10
23.9909938056
 20
-13.6225350437
 30
0.0
 10
23.9909938066
 20
-13.7616218508
 30
0.0
 10
24.0431662494
 20
-14.0549763533
 30
0.0
 10
24.2250157773
 20
-14.4672074884
 30
0.0
 10
24.4910973132
 20
-14.8308131763
 30
0.0
 10
24.7190666607
 20
-15.0226795171
 30
0.0
 10
24.8395219431
 20
-15.0922288878
 30
0.0
  0
SPLINE
  5
5DC
100
AcDbEntity
  8
ASSI
100
AcDbSpline
 62
7
  6
CONTINUOUS
 70
0
 71
3
 72
11
 73
7
 74
0
 42
0.0000001
 43
0.0000001
 44
0.0000000001
 40
0.0
 40
0.0
 40
0.0
 40
0.0
 40
0.2372212583
 40
0.5000061069
 40
0.7627876318
 40
1.0
 40
1.0
 40
1.0
 40
1.0
 10
24.6981005868
 20
-15.1738838065
 30
0.0
 10
24.5776453046
 20
-15.1043344362
 30
0.0
 10
24.3496759573
 20
-14.912468095
 30
0.0
 10
24.0835944209
 20
-14.5488624074
 30
0.0
 10
23.9017448938
 20
-14.136631272
 30
0.0
 10
23.8495724491
 20
-13.8432767694
 30
0.0
 10
23.8495724494
 20
-13.7041899623
 30
0.0
  0
SPLINE
  5
5DD
100
AcDbEntity
  8
ASSI
100
AcDbSpline
 62
7
  6
CONTINUOUS
 70
0
 71
3
 72
11
 73
7
 74
0
 42
0.0000001
 43
0.0000001
 44
0.0000000001
 40
0.0
 40
0.0
 40
0.0
 40
0.0
 40
0.2839245272
 40
0.5435005588
 40
0.7805115599
 40
1.0
 40
1.0
 40
1.0
 40
1.0
 10
23.8495724494
 20
-2.7634882533
 30
0.0
 10
23.8495724494
 20
-2.7134180875
 30
0.0
 10
23.8558896962
 20
-2.6173700835
 30
0.0
 10
23.8872534967
 20
-2.48260487
 30
0.0
 10
23.9396755414
 20
-2.3667109594
 30
0.0
 10
23.9897419498
 20
-2.3023672686
 30
0.0
 10
24.0174739297
 20
-2.2753643591
 30
0.0
  0
SPLINE
  5
5DE
100
AcDbEntity
  8
ASSI
100
AcDbSpline
 62
7
  6
CONTINUOUS
 70
0
 71
3
 72
9
 73
5
 74
0
 42
0.0000001
 43
0.0000001
 44
0.0000000001
 40
0.0
 40
0.0
 40
0.0
 40
0.0
 40
0.2525081573
 40
1.0
 40
1.0
 40
1.0
 40
1.0
 10
24.0174739297
 20
-2.2753643591
 30
0.0
 10
24.02358408
 20
-2.269414844
 30
0.0
 10
24.0484797303
 20
-2.2465817344
 30
0.0
 10
24.0762100207
 20
-2.226830343
 30
0.0
 10
24.0980732088
 20
-2.2142068155
 30
0.0
  0
SPLINE
  5
5DF
100
AcDbEntity
  8
ASSI
100
AcDbSpline
 62
7
  6
CONTINUOUS
 70
0
 71
3
 72
9
 73
5
 74
0
 42
0.0000001
 43
0.0000001
 44
0.0000000001
 40
0.0
 40
0.0
 40
0.0
 40
0.0
 40
0.2314216125
 40
1.0
 40
1.0
 40
1.0
 40
1.0
 10
-39.5927674281
 20
34.380210374
 30
0.0
 10
-39.6022101468
 20
34.357119984
 30
0.0
 10
-39.6369301962
 20
34.254850549
 30
0.0
 10
-39.648616501
 20
34.1457305367
 30
0.0
 10
-39.6486165011
 20
34.0628800649
 30
0.0
  0
SPLINE
  5
5E0
100
AcDbEntity
  8
ASSI
100
AcDbSpline
 62
7
  6
CONTINUOUS
 70
0
 71
3
 72
11
 73
7
 74
0
 42
0.0000001
 43
0.0000001
 44
0.0000000001
 40
0.0
 40
0.0
 40
0.0
 40
0.0
 40
0.2839245272
 40
0.5435005588
 40
0.7805115599
 40
1.0
 40
1.0
 40
1.0
 40
1.0
 10
-23.8801352807
 20
24.7950467963
 30
0.0
 10
-23.8801352807
 20
24.8451169621
 30
0.0
 10
-23.8738180339
 20
24.9411649661
 30
0.0
 10
-23.8424542334
 20
25.0759301796
 30
0.0
 10
-23.7900321887
 20
25.1918240902
 30
0.0
 10
-23.7399657803
 20
25.256167781
 30
0.0
 10
-23.7122338004
 20
25.2831706905
 30
0.0
  0
SPLINE
  5
5E1
100
AcDbEntity
  8
ASSI
100
AcDbSpline
 62
7
  6
CONTINUOUS
 70
0
 71
3
 72
9
 73
5
 74
0
 42
0.0000001
 43
0.0000001
 44
0.0000000001
 40
0.0
 40
0.0
 40
0.0
 40
0.0
 40
0.2525081573
 40
1.0
 40
1.0
 40
1.0
 40
1.0
 10
-23.7122338004
 20
25.2831706905
 30
0.0
 10
-23.7061236501
 20
25.2891202056
 30
0.0
 10
-23.6812279998
 20
25.3119533152
 30
0.0
 10
-23.6534977094
 20
25.3317047066
 30
0.0
 10
-23.6316345213
 20
25.3443282341
 30
0.0
  0
SPLINE
  5
5E2
100
AcDbEntity
  8
ASSI
100
AcDbSpline
 62
7
  6
CONTINUOUS
 70
0
 71
3
 72
11
 73
7
 74
0
 42
0.0000001
 43
0.0000001
 44
0.0000000001
 40
0.0
 40
0.0
 40
0.0
 40
0.0
 40
0.2372212583
 40
0.5000061069
 40
0.7627876318
 40
1.0
 40
1.0
 40
1.0
 40
1.0
 10
-23.0316071433
 20
12.3846512431
 30
0.0
 10
-23.1520624255
 20
12.4542006134
 30
0.0
 10
-23.3800317728
 20
12.6460669546
 30
0.0
 10
-23.6461133092
 20
13.0096726422
 30
0.0
 10
-23.8279628363
 20
13.4219037777
 30
0.0
 10
-23.880135281
 20
13.7152582802
 30
0.0
 10
-23.8801352807
 20
13.8543450873
 30
0.0
  0
SPLINE
  5
5E3
100
AcDbEntity
  8
ASSI
100
AcDbSpline
 62
7
  6
CONTINUOUS
 70
0
 71
3
 72
9
 73
5
 74
0
 42
0.0000001
 43
0.0000001
 44
0.0000000001
 40
0.0
 40
0.0
 40
0.0
 40
0.0
 40
0.2698702203
 40
1.0
 40
1.0
 40
1.0
 40
1.0
 10
18.4048502343
 20
-11.3769300885
 30
0.0
 10
18.4300417135
 20
-11.3914753327
 30
0.0
 10
18.5253155522
 20
-11.4417049447
 30
0.0
 10
18.6296987256
 20
-11.4766395335
 30
0.0
 10
18.7076790363
 20
-11.4872589731
 30
0.0
  0
SPLINE
  5
5E4
100
AcDbEntity
  8
ASSI
100
AcDbSpline
 62
7
  6
CONTINUOUS
 70
0
 71
3
 72
11
 73
7
 74
0
 42
0.0000001
 43
0.0000001
 44
0.0000000001
 40
0.0
 40
0.0
 40
0.0
 40
0.0
 40
0.2372123682
 40
0.4999938931
 40
0.7627787412
 40
1.0
 40
1.0
 40
1.0
 40
1.0
 10
8.081091229
 20
-4.4363566938
 30
0.0
 10
8.0810912299
 20
-4.5754435009
 30
0.0
 10
8.1332636727
 20
-4.8687980034
 30
0.0
 10
8.3151132006
 20
-5.2810291385
 30
0.0
 10
8.5811947365
 20
-5.6446348265
 30
0.0
 10
8.809164084
 20
-5.8365011672
 30
0.0
 10
8.9296193664
 20
-5.9060505379
 30
0.0
  0
SPLINE
  5
5E5
100
AcDbEntity
  8
ASSI
100
AcDbSpline
 62
7
  6
CONTINUOUS
 70
0
 71
3
 72
11
 73
7
 74
0
 42
0.0000001
 43
0.0000001
 44
0.0000000001
 40
0.0
 40
0.0
 40
0.0
 40
0.0
 40
0.2372212583
 40
0.5000061069
 40
0.7627876318
 40
1.0
 40
1.0
 40
1.0
 40
1.0
 10
8.7881980101
 20
-5.9877054566
 30
0.0
 10
8.6677427279
 20
-5.9181560863
 30
0.0
 10
8.4397733806
 20
-5.7262897452
 30
0.0
 10
8.1736918442
 20
-5.3626840575
 30
0.0
 10
7.9918423171
 20
-4.9504529221
 30
0.0
 10
7.9396698724
 20
-4.6570984195
 30
0.0
 10
7.9396698727
 20
-4.5180116125
 30
0.0
  0
SPLINE
  5
5E6
100
AcDbEntity
  8
ASSI
100
AcDbSpline
 62
7
  6
CONTINUOUS
 70
0
 71
3
 72
11
 73
7
 74
0
 42
0.0000001
 43
0.0000001
 44
0.0000000001
 40
0.0
 40
0.0
 40
0.0
 40
0.0
 40
0.2372123682
 40
0.4999938931
 40
0.7627787412
 40
1.0
 40
1.0
 40
1.0
 40
1.0
 10
-23.7387139244
 20
13.936000006
 30
0.0
 10
-23.7387139235
 20
13.7969131989
 30
0.0
 10
-23.6865414807
 20
13.5035586963
 30
0.0
 10
-23.5046919528
 20
13.0913275612
 30
0.0
 10
-23.2386104169
 20
12.7277218733
 30
0.0
 10
-23.0106410694
 20
12.5358555325
 30
0.0
 10
-22.890185787
 20
12.4663061618
 30
0.0
  0
SPLINE
  5
5E7
100
AcDbEntity
  8
ASSI
100
AcDbSpline
 62
7
  6
CONTINUOUS
 70
0
 71
3
 72
9
 73
5
 74
0
 42
0.0000001
 43
0.0000001
 44
0.0000000001
 40
0.0
 40
0.0
 40
0.0
 40
0.0
 40
0.2698702203
 40
1.0
 40
1.0
 40
1.0
 40
1.0
 10
-13.4149549191
 20
6.9954266112
 30
0.0
 10
-13.3897634399
 20
6.9808813671
 30
0.0
 10
-13.2944896012
 20
6.9306517551
 30
0.0
 10
-13.1901064278
 20
6.8957171663
 30
0.0
 10
-13.1121261171
 20
6.8850977266
 30
0.0
  0
SPLINE
  5
5E8
100
AcDbEntity
  8
ASSI
100
AcDbSpline
 62
7
  6
CONTINUOUS
 70
0
 71
3
 72
11
 73
7
 74
0
 42
0.0000001
 43
0.0000001
 44
0.0000000001
 40
0.0
 40
0.0
 40
0.0
 40
0.0
 40
0.2839245272
 40
0.5435005588
 40
0.7805115599
 40
1.0
 40
1.0
 40
1.0
 40
1.0
 10
7.9396698727
 20
6.4226900966
 30
0.0
 10
7.9396698727
 20
6.4727602624
 30
0.0
 10
7.9459871195
 20
6.5688082663
 30
0.0
 10
7.97735092
 20
6.7035734799
 30
0.0
 10
8.0297729647
 20
6.8194673904
 30
0.0
 10
8.0798393731
 20
6.8838110813
 30
0.0
 10
8.107571353
 20
6.9108139907
 30
0.0
  0
SPLINE
  5
5E9
100
AcDbEntity
  8
ASSI
100
AcDbSpline
 62
7
  6
CONTINUOUS
 70
0
 71
3
 72
9
 73
5
 74
0
 42
0.0000001
 43
0.0000001
 44
0.0000000001
 40
0.0
 40
0.0
 40
0.0
 40
0.0
 40
0.2525081573
 40
1.0
 40
1.0
 40
1.0
 40
1.0
 10
8.107571353
 20
6.9108139907
 30
0.0
 10
8.1136815033
 20
6.9167635058
 30
0.0
 10
8.1385771536
 20
6.9395966155
 30
0.0
 10
8.166307444
 20
6.9593480068
 30
0.0
 10
8.1881706321
 20
6.9719715344
 30
0.0
  0
SPLINE
  5
5EA
100
AcDbEntity
  8
ASSI
100
AcDbSpline
 62
7
  6
CONTINUOUS
 70
0
 71
3
 72
9
 73
5
 74
0
 42
0.0000001
 43
0.0000001
 44
0.0000000001
 40
0.0
 40
0.0
 40
0.0
 40
0.0
 40
0.2698702203
 40
1.0
 40
1.0
 40
1.0
 40
1.0
 10
2.4949476576
 20
-2.1907517387
 30
0.0
 10
2.5201391368
 20
-2.2052969828
 30
0.0
 10
2.6154129755
 20
-2.2555265948
 30
0.0
 10
2.7197961489
 20
-2.2904611836
 30
0.0
 10
2.7977764596
 20
-2.3010806232
 30
0.0
  0
SPLINE
  5
5EB
100
AcDbEntity
  8
ASSI
100
AcDbSpline
 62
7
  6
CONTINUOUS
 70
0
 71
3
 72
11
 73
7
 74
0
 42
0.0000001
 43
0.0000001
 44
0.0000000001
 40
0.0
 40
0.0
 40
0.0
 40
0.0
 40
0.2372123682
 40
0.4999938931
 40
0.7627787412
 40
1.0
 40
1.0
 40
1.0
 40
1.0
 10
-7.8288113477
 20
4.7498216561
 30
0.0
 10
-7.8288113468
 20
4.610734849
 30
0.0
 10
-7.776638904
 20
4.3173803464
 30
0.0
 10
-7.5947893761
 20
3.9051492113
 30
0.0
 10
-7.3287078402
 20
3.5415435234
 30
0.0
 10
-7.1007384927
 20
3.3496771826
 30
0.0
 10
-6.9802832103
 20
3.2801278119
 30
0.0
  0
SPLINE
  5
5EC
100
AcDbEntity
  8
ASSI
100
AcDbSpline
 62
7
  6
CONTINUOUS
 70
0
 71
3
 72
11
 73
7
 74
0
 42
0.0000001
 43
0.0000001
 44
0.0000000001
 40
0.0
 40
0.0
 40
0.0
 40
0.0
 40
0.2372212583
 40
0.5000061069
 40
0.7627876318
 40
1.0
 40
1.0
 40
1.0
 40
1.0
 10
-7.1217045666
 20
3.1984728933
 30
0.0
 10
-7.2421598488
 20
3.2680222635
 30
0.0
 10
-7.4701291961
 20
3.4598886047
 30
0.0
 10
-7.7362107325
 20
3.8234942923
 30
0.0
 10
-7.9180602596
 20
4.2357254278
 30
0.0
 10
-7.9702327043
 20
4.5290799304
 30
0.0
 10
-7.970232704
 20
4.6681667374
 30
0.0
  0
SPLINE
  5
5ED
100
AcDbEntity
  8
ASSI
100
AcDbSpline
 62
7
  6
CONTINUOUS
 70
0
 71
3
 72
11
 73
7
 74
0
 42
0.0000001
 43
0.0000001
 44
0.0000000001
 40
0.0
 40
0.0
 40
0.0
 40
0.0
 40
0.2839245272
 40
0.5435005588
 40
0.7805115599
 40
1.0
 40
1.0
 40
1.0
 40
1.0
 10
-7.970232704
 20
15.6088684464
 30
0.0
 10
-7.970232704
 20
15.6589386123
 30
0.0
 10
-7.9639154572
 20
15.7549866162
 30
0.0
 10
-7.9325516567
 20
15.8897518297
 30
0.0
 10
-7.880129612
 20
16.0056457403
 30
0.0
 10
-7.8300632036
 20
16.0699894311
 30
0.0
 10
-7.8023312237
 20
16.0969923406
 30
0.0
  0
SPLINE
  5
5EE
100
AcDbEntity
  8
ASSI
100
AcDbSpline
 62
7
  6
CONTINUOUS
 70
0
 71
3
 72
9
 73
5
 74
0
 42
0.0000001
 43
0.0000001
 44
0.0000000001
 40
0.0
 40
0.0
 40
0.0
 40
0.0
 40
0.2525081573
 40
1.0
 40
1.0
 40
1.0
 40
1.0
 10
-7.8023312237
 20
16.0969923406
 30
0.0
 10
-7.7962210734
 20
16.1029418557
 30
0.0
 10
-7.7713254231
 20
16.1257749653
 30
0.0
 10
-7.7435951327
 20
16.1455263567
 30
0.0
 10
-7.7217319446
 20
16.1581498842
 30
0.0
  0
SPLINE
  5
5EF
100
AcDbEntity
  8
ASSI
100
AcDbSpline
 62
7
  6
CONTINUOUS
 70
0
 71
3
 72
11
 73
7
 74
0
 42
0.0000001
 43
0.0000001
 44
0.0000000001
 40
0.0
 40
0.0
 40
0.0
 40
0.0
 40
0.2177664942
 40
0.4509473065
 40
0.7101859235
 40
1.0
 40
1.0
 40
1.0
 40
1.0
 10
-28.866251474
 20
16.0405034248
 30
0.0
 10
-28.9058335919
 20
16.017649212
 30
0.0
 10
-28.9967893988
 20
15.9846124485
 30
0.0
 10
-29.1478433161
 20
15.9808361037
 30
0.0
 10
-29.3088657511
 20
16.0196660819
 30
0.0
 10
-29.413601078
 20
16.0695345558
 30
0.0
 10
-29.4662788521
 20
16.0999500424
 30
0.0
  0
SPLINE
  5
5F0
100
AcDbEntity
  8
ASSI
100
AcDbSpline
 62
7
  6
CONTINUOUS
 70
0
 71
3
 72
11
 73
7
 74
0
 42
0.0000001
 43
0.0000001
 44
0.0000000001
 40
0.0
 40
0.0
 40
0.0
 40
0.0
 40
0.2177664942
 40
0.4509473065
 40
0.7101859235
 40
1.0
 40
1.0
 40
1.0
 40
1.0
 10
-12.9563488973
 20
6.8543250749
 30
0.0
 10
-12.9959310152
 20
6.8314708621
 30
0.0
 10
-13.0868868221
 20
6.7984340987
 30
0.0
 10
-13.2379407394
 20
6.7946577538
 30
0.0
 10
-13.3989631744
 20
6.833487732
 30
0.0
 10
-13.5036985013
 20
6.8833562059
 30
0.0
 10
-13.5563762754
 20
6.9137716926
 30
0.0
  0
SPLINE
  5
5F1
100
AcDbEntity
  8
CURVE
100
AcDbSpline
 62
250
  6
CONTINUOUS
 70
0
 71
3
 72
17
 73
13
 74
0
 42
0.0000001
 43
0.0000001
 44
0.0000000001
 40
0.0
 40
0.0
 40
0.0
 40
0.0
 40
0.0559780952
 40
0.1687540387
 40
0.321006234
 40
0.4122750837
 40
0.516613223
 40
0.6013931059
 40
0.6776022439
 40
0.8103422694
 40
0.9200404832
 40
1.0
 40
1.0
 40
1.0
 40
1.0
 10
56.2479862723
 20
-56.47575298
 30
0.0
 10
56.2452665328
 20
-56.4536862659
 30
0.0
 10
56.2030699435
 20
-56.4165928896
 30
0.0
 10
56.1226314725
 20
-56.3607099266
 30
0.0
 10
55.998808935
 20
-56.3543411925
 30
0.0
 10
55.8696340012
 20
-56.3913553193
 30
0.0
 10
55.7624215027
 20
-56.4460241981
 30
0.0
 10
55.6622858988
 20
-56.5160488505
 30
0.0
 10
55.5558840081
 20
-56.6123816501
 30
0.0
 10
55.4516078356
 20
-56.741858208
 30
0.0
 10
55.3700611294
 20
-56.8893037534
 30
0.0
 10
55.3348907819
 20
-56.9794297396
 30
0.0
 10
55.3245890438
 20
-57.0168560249
 30
0.0
  0
SPLINE
  5
5F2
100
AcDbEntity
  8
CURVE
100
AcDbSpline
 62
250
  6
CONTINUOUS
 70
0
 71
3
 72
9
 73
5
 74
0
 42
0.0000001
 43
0.0000001
 44
0.0000000001
 40
0.0
 40
0.0
 40
0.0
 40
0.0
 40
0.2426586216
 40
1.0
 40
1.0
 40
1.0
 40
1.0
 10
56.6173588731
 20
-56.0313066841
 30
0.0
 10
56.5841375705
 20
-56.0592975805
 30
0.0
 10
56.449981855
 20
-56.1701249913
 30
0.0
 10
56.2985924459
 20
-56.3370683852
 30
0.0
 10
56.2587892864
 20
-56.4699363939
 30
0.0
  0
SPLINE
  5
5F3
100
AcDbEntity
  8
CURVE
100
AcDbSpline
 62
250
  6
CONTINUOUS
 70
0
 71
3
 72
9
 73
5
 74
0
 42
0.0000001
 43
0.0000001
 44
0.0000000001
 40
0.0
 40
0.0
 40
0.0
 40
0.0
 40
0.1980141723
 40
1.0
 40
1.0
 40
1.0
 40
1.0
 10
57.1121725642
 20
-55.6192460354
 30
0.0
 10
57.0795772521
 20
-55.646679188
 30
0.0
 10
56.9145962439
 20
-55.7838820367
 30
0.0
 10
56.7493462309
 20
-55.9200974418
 30
0.0
 10
56.6173588731
 20
-56.0313066841
 30
0.0
  0
SPLINE
  5
5F4
100
AcDbEntity
  8
CURVE
100
AcDbSpline
 62
250
  6
CONTINUOUS
 70
0
 71
3
 72
9
 73
5
 74
0
 42
0.0000001
 43
0.0000001
 44
0.0000000001
 40
0.0
 40
0.0
 40
0.0
 40
0.0
 40
0.5586214172
 40
1.0
 40
1.0
 40
1.0
 40
1.0
 10
56.5578052013
 20
-56.513811422
 30
0.0
 10
56.6587240862
 20
-56.4171480985
 30
0.0
 10
56.8455973742
 20
-56.2608684336
 30
0.0
 10
57.0303091526
 20
-56.0993881568
 30
0.0
 10
57.1121725642
 20
-56.0290358135
 30
0.0
  0
SPLINE
  5
5F5
100
AcDbEntity
  8
CURVE
100
AcDbSpline
 62
250
  6
CONTINUOUS
 70
0
 71
3
 72
9
 73
5
 74
0
 42
0.0000001
 43
0.0000001
 44
0.0000000001
 40
0.0
 40
0.0
 40
0.0
 40
0.0
 40
0.3559141631
 40
1.0
 40
1.0
 40
1.0
 40
1.0
 10
56.3967196481
 20
-56.8382292358
 30
0.0
 10
56.3967196481
 20
-56.8011039369
 30
0.0
 10
56.4168566099
 20
-56.683462214
 30
0.0
 10
56.5014618123
 20
-56.567753863
 30
0.0
 10
56.5578052013
 20
-56.513811422
 30
0.0
  0
SPLINE
  5
5F6
100
AcDbEntity
  8
CURVE
100
AcDbSpline
 62
250
  6
CONTINUOUS
 70
0
 71
3
 72
9
 73
5
 74
0
 42
0.0000001
 43
0.0000001
 44
0.0000000001
 40
0.0
 40
0.0
 40
0.0
 40
0.0
 40
0.2957417834
 40
1.0
 40
1.0
 40
1.0
 40
1.0
 10
55.3245890438
 20
-57.0168560249
 30
0.0
 10
55.2928285391
 20
-57.132099711
 30
0.0
 10
55.2410570234
 20
-57.5127397475
 30
0.0
 10
55.2729429907
 20
-57.8501871281
 30
0.0
 10
55.3053410338
 20
-58.0785924647
 30
0.0
  0
SPLINE
  5
5F7
100
AcDbEntity
  8
CURVE
100
AcDbSpline
 62
250
  6
CONTINUOUS
 70
0
 71
3
 72
9
 73
5
 74
0
 42
0.0000001
 43
0.0000001
 44
0.0000000001
 40
0.0
 40
0.0
 40
0.0
 40
0.0
 40
0.5206208722
 40
1.0
 40
1.0
 40
1.0
 40
1.0
 10
55.8132060822
 20
-56.8205490608
 30
0.0
 10
55.8922398199
 20
-56.7766340717
 30
0.0
 10
56.0648882423
 20
-56.746007799
 30
0.0
 10
56.095680935
 20
-56.9181651076
 30
0.0
 10
56.0973061603
 20
-56.998521905
 30
0.0
  0
SPLINE
  5
5F8
100
AcDbEntity
  8
CURVE
100
AcDbSpline
 62
250
  6
CONTINUOUS
 70
0
 71
3
 72
9
 73
5
 74
0
 42
0.0000001
 43
0.0000001
 44
0.0000000001
 40
0.0
 40
0.0
 40
0.0
 40
0.0
 40
0.5013510385
 40
1.0
 40
1.0
 40
1.0
 40
1.0
 10
55.5846702378
 20
-57.184252789
 30
0.0
 10
55.5911637067
 20
-57.1183172183
 30
0.0
 10
55.6404182635
 20
-56.9655065949
 30
0.0
 10
55.7572106383
 20
-56.8516759922
 30
0.0
 10
55.8132060822
 20
-56.8205490608
 30
0.0
  0
SPLINE
  5
5F9
100
AcDbEntity
  8
CURVE
100
AcDbSpline
 62
250
  6
CONTINUOUS
 70
0
 71
3
 72
9
 73
5
 74
0
 42
0.0000001
 43
0.0000001
 44
0.0000000001
 40
0.0
 40
0.0
 40
0.0
 40
0.0
 40
0.2703953699
 40
1.0
 40
1.0
 40
1.0
 40
1.0
 10
55.5954321237
 20
-57.5122131816
 30
0.0
 10
55.5908872597
 20
-57.4849252956
 30
0.0
 10
55.5759395642
 20
-57.3826610237
 30
0.0
 10
55.5762640618
 20
-57.2696291514
 30
0.0
 10
55.5846702378
 20
-57.184252789
 30
0.0
  0
ELLIPSE
  5
5FA
100
AcDbEntity
  8
0
100
AcDbEllipse
 62
7
  6
CONTINUOUS
 10
34.2048744077
 20
-35.5873068244
 30
0.0
 11
0.1998333781
 21
-0.0157785196
 31
0.0
 40
0.5172961965
 41
0.8262203412
 42
2.3446567905
  0
ELLIPSE
  5
5FB
100
AcDbEntity
  8
0
100
AcDbEllipse
 62
7
  6
CONTINUOUS
 10
-29.4347358991
 20
1.1574065751
 30
0.0
 11
0.1998333781
 21
-0.0157785196
 31
0.0
 40
0.5172961965
 41
0.8262203412
 42
2.3446567905
  0
ELLIPSE
  5
5FC
100
AcDbEntity
  8
0
100
AcDbEllipse
 62
7
  6
CONTINUOUS
 10
17.0892815529
 20
-27.1500627331
 30
0.0
 11
0.2999972416
 21
-0.0022477848
 31
0.0
 40
0.5723275643
 41
0.7896864073
 42
1.3185322824
  0
ELLIPSE
  5
5FD
100
AcDbEntity
  8
0
100
AcDbEllipse
 62
7
  6
CONTINUOUS
 10
1.1793789762
 20
-17.9638843832
 30
0.0
 11
0.2999972416
 21
-0.0022477848
 31
0.0
 40
0.5723275643
 41
0.7896864073
 42
1.3185322824
  0
ELLIPSE
  5
5FE
100
AcDbEntity
  8
0
100
AcDbEllipse
 62
7
  6
CONTINUOUS
 10
-14.7305236005
 20
-8.7777060334
 30
0.0
 11
0.2999972416
 21
-0.0022477848
 31
0.0
 40
0.5723275643
 41
0.7896864073
 42
1.3185322824
  0
ENDSEC
  0
SECTION
  2
OBJECTS
  0
DICTIONARY
  5
C
100
AcDbDictionary
280
0
281
1
  3
ACAD_GROUP
350
D
  3
ACAD_MLINESTYLE
350
17
  3
ACAD_LAYOUT
350
1A
  3
ACAD_PLOTSETTINGS
350
19
  3
ACAD_PLOTSTYLENAME
350
E
  0
DICTIONARY
  5
D
102
{ACAD_REACTORS
330
C
102
}
100
AcDbDictionary
280
0
281
1
  0
ACDBDICTIONARYWDFLT
  5
E
102
{ACAD_REACTORS
330
C
102
}
100
AcDbDictionary
281
1
  3
Normal
350
F
100
AcDbDictionaryWithDefault
340
F
  0
DICTIONARY
  5
17
102
{ACAD_REACTORS
330
C
102
}
100
AcDbDictionary
280
0
281
1
  3
Standard
350
18
  0
DICTIONARY
  5
19
102
{ACAD_REACTORS
330
C
102
}
100
AcDbDictionary
281
1
  0
DICTIONARY
  5
1A
102
{ACAD_REACTORS
330
C
102
}
100
AcDbDictionary
281
1
  3
Model
350
5FF
  3
Layout1
350
600
  0
ACDBPLACEHOLDER
  5
F
102
{ACAD_REACTORS
330
E
102
}
  0
MLINESTYLE
  5
18
102
{ACAD_REACTORS
330
17
102
}
100
AcDbMlineStyle
  2
STANDARD
 70
0
  3

 62
256
 51
90.0
 52
90.0
 71
2
 49
0.5
 62
256
  6
BYLAYER
 49
-0.5
 62
256
  6
BYLAYER
  0
LAYOUT
  5
5FF
102
{ACAD_REACTORS
330
1A
102
}
100
AcDbPlotSettings
  1

  2
none_device
  4
ISO_A4_(297.00_x_210.00_MM)
  6

 40
0.0
 41
0.0
 42
0.0
 43
0.0
 44
297.0
 45
210.0
 46
0.0
 47
0.0
 48
0.0
 49
0.0
140
0.0
141
0.0
142
1.0
143
1.0
 70
1024
 72
1
 73
0
 74
0
  7

 75
0
147
1.0
148
0.0
149
0.0
100
AcDbLayout
  1
Model
 70
0
 71
0
 10
0.0
 20
0.0
 11
297.0
 21
210.0
 12
0.0
 22
0.0
 32
0.0
 14
0.0
 24
0.0
 34
0.0
 15
0.0
 25
0.0
 35
0.0
146
0.0
 13
0.0
 23
0.0
 33
0.0
 16
1.0
 26
0.0
 36
0.0
 17
0.0
 27
1.0
 37
0.0
 76
0
330
21E
345
0
346
0
  0
LAYOUT
  5
600
102
{ACAD_REACTORS
330
1A
102
}
100
AcDbPlotSettings
  1

  2
none_device
  4
ISO_A4_(297.00_x_210.00_MM)
  6

 40
0.0
 41
0.0
 42
0.0
 43
0.0
 44
297.0
 45
210.0
 46
0.0
 47
0.0
 48
0.0
 49
0.0
140
0.0
141
0.0
142
1.0
143
1.0
 70
0
 72
1
 73
0
 74
0
  7

 75
0
147
1.0
148
0.0
149
0.0
100
AcDbLayout
  1
Layout1
 70
0
 71
1
 10
0.0
 20
0.0
 11
297.0
 21
210.0
 12
0.0
 22
0.0
 32
0.0
 14
0.0
 24
0.0
 34
0.0
 15
0.0
 25
0.0
 35
0.0
146
0.0
 13
0.0
 23
0.0
 33
0.0
 16
1.0
 26
0.0
 36
0.0
 17
0.0
 27
1.0
 37
0.0
 76
0
330
21F
345
0
346
0
  0
ENDSEC
  0
EOF
