  0
SECTION
  2
HEADER
  9
$ACADVER
  1
AC1024
  9
$DWGCODEPAGE
  3
ANSI_1252
  9
$EXTMAX
 10
297.0
 20
210.0
 30
0.0
  9
$EXTMIN
 10
0.0
 20
0.0
 30
0.0
  9
$LIMMIN
 10
0.0
 20
0.0
  9
$LIMMAX
 10
297.0
 20
210.0
  9
$VIEWCTR
 10
148.5
 20
105.0
  9
$VIEWSIZE
 40
210.0
  9
$CLAYER
  8
0
  9
$LTSCALE
 40
16.335
  9
$CELTYPE
  6
BYLAYER
  9
$DIMSCALE
 40
1.0
  9
$DIMASZ
 40
3.0
  9
$DIMEXO
 40
0.5
  9
$DIMDLI
 40
11.286
  9
$DIMEXE
 40
1.5
  9
$DIMCEN
 40
2.673
  9
$DIMLFAC
 40
1.0
  9
$DIMBLK
  1
_FILLED
  9
$DIMALT
 70
0
  9
$DIMALTF
 40
0.0393700787
  9
$DIMTXT
 40
3.0
  9
$DIMTOL
 70
1
  9
$DIMLIM
 70
0
  9
$DIMTFAC
 40
1.0
  9
$DIMTP
 40
0.01
  9
$DIMTM
 40
0.01
  9
$DIMGAP
 40
0.625
  9
$DIMDSEP
 70
44
  9
$AUNITS
 70
0
  9
$PDMODE
 70
3
  9
$PDSIZE
 40
3.0
  9
$HANDSEED
  5
408
  9
$TILEMODE
 70
1
  9
$MEASUREMENT
 70
1
  9
$INSUNITS
 70
4
  0
ENDSEC
  0
SECTION
  2
CLASSES
  0
CLASS
  1
ACDBDICTIONARYWDFLT
  2
AcDbDictionaryWithDefault
  3
AutoCAD 2000
 90
0
 91
1
280
0
281
0
  0
CLASS
  1
ACDBPLACEHOLDER
  2
AcDbPlaceHolder
  3
AutoCAD 2000
 90
0
 91
1
280
0
281
0
  0
CLASS
  1
LAYOUT
  2
AcDbLayout
  3
AutoCAD 2000
 90
0
 91
0
280
0
281
0
  0
ENDSEC
  0
SECTION
  2
TABLES
  0
TABLE
  2
VPORT
  5
8
100
AcDbSymbolTable
 70
2
  0
VPORT
  5
1F4
100
AcDbSymbolTableRecord
100
AcDbViewportTableRecord
  2
*ACTIVE
 70
0
 10
0.0
 20
0.0
 11
1.0
 21
1.0
 12
148.5
 22
105.0
 13
0.0
 23
0.0
 14
1.0
 24
1.0
 15
0.0
 25
0.0
 16
0.0
 26
0.0
 36
1.0
 17
0.0
 27
0.0
 37
0.0
 40
210.0
 41
1.4142857143
 42
50.0
 43
0.0
 44
0.0
 50
0.0
 51
0.0
 71
0
 72
100
 73
1
 74
1
 75
0
 76
0
 77
0
 78
0
  0
ENDTAB
  0
TABLE
  2
LTYPE
  5
5
100
AcDbSymbolTable
 70
6
  0
LTYPE
  5
14
100
AcDbSymbolTableRecord
100
AcDbLinetypeTableRecord
  2
BYBLOCK
 70
0
  3

 72
65
 73
0
 40
0.0
  0
LTYPE
  5
15
100
AcDbSymbolTableRecord
100
AcDbLinetypeTableRecord
  2
BYLAYER
 70
0
  3

 72
65
 73
0
 40
0.0
  0
LTYPE
  5
16
100
AcDbSymbolTableRecord
100
AcDbLinetypeTableRecord
  2
CONTINUOUS
 70
64
  3
Solid line
 72
65
 73
0
 40
0.0
  0
LTYPE
  5
1F5
100
AcDbSymbolTableRecord
100
AcDbLinetypeTableRecord
  2
CENTER
 70
64
  3
____ _ ____ _ ____ _ ____ _ ____ _ ____ _ ____
 72
65
 73
4
 40
0.6
 49
0.375
 74
0
 49
-0.075
 74
0
 49
0.075
 74
0
 49
-0.075
 74
0
  0
LTYPE
  5
1F6
100
AcDbSymbolTableRecord
100
AcDbLinetypeTableRecord
  2
HIDDEN
 70
64
  3
- - - - - - - - - - - - - - - - - - - -
 72
65
 73
2
 40
0.2
 49
0.1
 74
0
 49
-0.1
 74
0
  0
LTYPE
  5
1F7
100
AcDbSymbolTableRecord
100
AcDbLinetypeTableRecord
  2
PHANTOM
 70
64
  3
_____ _ _ _____ _ _ _____ _ _ _____
 72
65
 73
6
 40
0.8
 49
0.45
 74
0
 49
-0.05
 74
0
 49
0.1
 74
0
 49
-0.05
 74
0
 49
0.1
 74
0
 49
-0.05
 74
0
  0
LTYPE
  5
1F8
100
AcDbSymbolTableRecord
100
AcDbLinetypeTableRecord
  2
DOT
 70
64
  3
. . . . . . . . . . . . . . . . . . . .
 72
65
 73
2
 40
0.2
 49
0.1
 74
0
 49
-0.1
 74
0
  0
LTYPE
  5
1F9
100
AcDbSymbolTableRecord
100
AcDbLinetypeTableRecord
  2
DASHED
 70
64
  3
- - - - - - - - - - - - - - - - - - - -
 72
65
 73
2
 40
0.2
 49
0.1
 74
0
 49
-0.1
 74
0
  0
ENDTAB
  0
TABLE
  2
LAYER
  5
2
100
AcDbSymbolTable
 70
36
  0
LAYER
  5
10
100
AcDbSymbolTableRecord
100
AcDbLayerTableRecord
  2
0
 70
0
 62
7
  6
CONTINUOUS
370
-3
390
F
  0
LAYER
  5
1FA
100
AcDbSymbolTableRecord
100
AcDbLayerTableRecord
  2
DEFAULT_1
 70
0
 62
7
  6
CENTER
370
-3
390
F
  0
LAYER
  5
1FB
100
AcDbSymbolTableRecord
100
AcDbLayerTableRecord
  2
DEFAULT_2
 70
0
 62
7
  6
HIDDEN
370
-3
390
F
  0
LAYER
  5
1FC
100
AcDbSymbolTableRecord
100
AcDbLayerTableRecord
  2
DEFAULT_3
 70
0
 62
7
  6
PHANTOM
370
-3
390
F
  0
LAYER
  5
1FD
100
AcDbSymbolTableRecord
100
AcDbLayerTableRecord
  2
ASSI
 70
0
 62
7
  6
CONTINUOUS
370
-3
390
F
  0
LAYER
  5
1FE
100
AcDbSymbolTableRecord
100
AcDbLayerTableRecord
  2
COLOR9
 70
0
 62
7
  6
CONTINUOUS
370
-3
390
F
  0
LAYER
  5
1FF
100
AcDbSymbolTableRecord
100
AcDbLayerTableRecord
  2
COORDINATE
 70
0
 62
7
  6
CONTINUOUS
370
-3
390
F
  0
LAYER
  5
200
100
AcDbSymbolTableRecord
100
AcDbLayerTableRecord
  2
COORD_ORIGINE
 70
0
 62
7
  6
CONTINUOUS
370
-3
390
F
  0
LAYER
  5
201
100
AcDbSymbolTableRecord
100
AcDbLayerTableRecord
  2
COPY_PUBLISH
 70
0
 62
7
  6
CONTINUOUS
370
-3
390
F
  0
LAYER
  5
202
100
AcDbSymbolTableRecord
100
AcDbLayerTableRecord
  2
COSMETICI
 70
0
 62
7
  6
CONTINUOUS
370
-3
390
F
  0
LAYER
  5
203
100
AcDbSymbolTableRecord
100
AcDbLayerTableRecord
  2
CURVE
 70
0
 62
7
  6
CONTINUOUS
370
-3
390
F
  0
LAYER
  5
204
100
AcDbSymbolTableRecord
100
AcDbLayerTableRecord
  2
DRAFT
 70
0
 62
7
  6
CONTINUOUS
370
-3
390
F
  0
LAYER
  5
205
100
AcDbSymbolTableRecord
100
AcDbLayerTableRecord
  2
IMPORT_IGES
 70
0
 62
7
  6
CONTINUOUS
370
-3
390
F
  0
LAYER
  5
206
100
AcDbSymbolTableRecord
100
AcDbLayerTableRecord
  2
INTF_1
 70
0
 62
7
  6
CONTINUOUS
370
-3
390
F
  0
LAYER
  5
207
100
AcDbSymbolTableRecord
100
AcDbLayerTableRecord
  2
INTF_YELLOW
 70
0
 62
7
  6
CONTINUOUS
370
-3
390
F
  0
LAYER
  5
208
100
AcDbSymbolTableRecord
100
AcDbLayerTableRecord
  2
NOTE
 70
0
 62
7
  6
CONTINUOUS
370
-3
390
F
  0
LAYER
  5
209
100
AcDbSymbolTableRecord
100
AcDbLayerTableRecord
  2
PIANI
 70
0
 62
7
  6
CONTINUOUS
370
-3
390
F
  0
LAYER
  5
20A
100
AcDbSymbolTableRecord
100
AcDbLayerTableRecord
  2
PIANI_ORIGINE
 70
0
 62
7
  6
CONTINUOUS
370
-3
390
F
  0
LAYER
  5
20B
100
AcDbSymbolTableRecord
100
AcDbLayerTableRecord
  2
PIANI_RIFERIMENTO
 70
0
 62
7
  6
CONTINUOUS
370
-3
390
F
  0
LAYER
  5
20C
100
AcDbSymbolTableRecord
100
AcDbLayerTableRecord
  2
PUNTI
 70
0
 62
7
  6
CONTINUOUS
370
-3
390
F
  0
LAYER
  5
20D
100
AcDbSymbolTableRecord
100
AcDbLayerTableRecord
  2
RACCORDO
 70
0
 62
7
  6
CONTINUOUS
370
-3
390
F
  0
LAYER
  5
20E
100
AcDbSymbolTableRecord
100
AcDbLayerTableRecord
  2
SIMBOLI
 70
0
 62
7
  6
CONTINUOUS
370
-3
390
F
  0
LAYER
  5
20F
100
AcDbSymbolTableRecord
100
AcDbLayerTableRecord
  2
SMUSSO
 70
0
 62
7
  6
CONTINUOUS
370
-3
390
F
  0
LAYER
  5
210
100
AcDbSymbolTableRecord
100
AcDbLayerTableRecord
  2
SUPERFICI
 70
0
 62
7
  6
CONTINUOUS
370
-3
390
F
  0
LAYER
  5
211
100
AcDbSymbolTableRecord
100
AcDbLayerTableRecord
  2
TRASH
 70
0
 62
7
  6
CONTINUOUS
370
-3
390
F
  0
LAYER
  5
212
100
AcDbSymbolTableRecord
100
AcDbLayerTableRecord
  2
XSEC_DATUMS
 70
0
 62
7
  6
CONTINUOUS
370
-3
390
F
  0
ENDTAB
  0
TABLE
  2
STYLE
  5
3
100
AcDbSymbolTable
 70
1
  0
STYLE
  5
11
100
AcDbSymbolTableRecord
100
AcDbTextStyleTableRecord
  2
STANDARD
 70
0
 40
0.0
 41
0.8
 50
0.0
 71
0
 42
0.2
  3
txt
  4

  0
STYLE
  5
213
100
AcDbSymbolTableRecord
100
AcDbTextStyleTableRecord
  2
TEXTSTYLE_1
 70
0
 40
0.0
 41
0.8
 50
0.0
 71
0
 42
0.2
  3
gdt
  4

  0
ENDTAB
  0
TABLE
  2
VIEW
  5
6
100
AcDbSymbolTable
 70
0
  0
ENDTAB
  0
TABLE
  2
UCS
  5
7
100
AcDbSymbolTable
 70
0
  0
ENDTAB
  0
TABLE
  2
APPID
  5
9
100
AcDbSymbolTable
 70
1
  0
APPID
  5
214
100
AcDbSymbolTableRecord
100
AcDbRegAppTableRecord
  2
ACAD
 70
0
  0
ENDTAB
  0
TABLE
  2
BLOCK_RECORD
  5
1
100
AcDbSymbolTable
 70
0
  0
BLOCK_RECORD
  5
215
100
AcDbSymbolTableRecord
100
AcDbBlockTableRecord
  2
*Model_Space
  0
BLOCK_RECORD
  5
216
100
AcDbSymbolTableRecord
100
AcDbBlockTableRecord
  2
*Paper_Space
  0
BLOCK_RECORD
  5
217
100
AcDbSymbolTableRecord
100
AcDbBlockTableRecord
  2
_FILLED
  0
ENDTAB
  0
TABLE
  2
DIMSTYLE
  5
A
100
AcDbSymbolTable
 70
1
100
AcDbDimStyleTable
 71
0
  0
DIMSTYLE
105
218
100
AcDbSymbolTableRecord
100
AcDbDimStyleTableRecord
  2
STANDARD
 70
0
  3

  4

 40
1.0
 41
3.0
 42
0.5
 43
0.38
 44
1.5
 45
0.0
 46
0.0
 47
0.01
 48
0.01
140
3.0
141
0.09
142
0.0
143
25.4
144
1.0
145
0.0
146
1.0
147
0.625
 71
1
 72
0
 73
0
 74
0
 75
0
 76
0
 77
1
 78
8
 79
2
170
0
171
1
172
0
173
0
174
0
175
0
176
0
177
0
178
0
270
2
179
2
271
2
272
2
273
2
274
2
275
0
280
0
281
0
282
0
283
1
284
8
285
0
286
0
287
3
288
0
340
11
278
44
341
217
342
217
343
217
344
217
  0
ENDTAB
  0
ENDSEC
  0
SECTION
  2
BLOCKS
  0
BLOCK
  5
20
100
AcDbEntity
  8
0
100
AcDbBlockBegin
  2
*Model_Space
 70
0
 10
0.0
 20
0.0
 30
0.0
  3
*Model_Space
  1

  0
ENDBLK
  5
21
100
AcDbEntity
  8
0
100
AcDbBlockEnd
  0
BLOCK
  5
1C
100
AcDbEntity
  8
0
100
AcDbBlockBegin
  2
*Paper_Space
 70
0
 10
0.0
 20
0.0
 30
0.0
  3
*Paper_Space
  1

  0
ENDBLK
  5
1D
100
AcDbEntity
  8
0
100
AcDbBlockEnd
  0
BLOCK
  5
219
100
AcDbEntity
  8
0
100
AcDbBlockBegin
  2
_FILLED
 70
64
 10
0.0
 20
0.0
  3
_FILLED
  1

  0
SOLID
  5
21A
100
AcDbEntity
  8
0
  6
BYBLOCK
 62
0
100
AcDbTrace
 10
0.0
 20
0.0
 11
-1.0
 21
0.3166666667
 12
-1.0
 22
-0.3166666667
 13
-1.0
 23
-0.3166666667
  0
ENDBLK
  5
21B
100
AcDbEntity
  8
0
  6
BYBLOCK
 62
0
100
AcDbBlockEnd
  0
ENDSEC
  0
SECTION
  2
ENTITIES
  0
LWPOLYLINE
  5
21C
100
AcDbEntity
  8
RACCORDO
100
AcDbPolyline
 62
7
  6
CONTINUOUS
 90
13
 70
0
 10
137.2584059209
 20
132.1203163463
 10
137.0629078779
 20
131.9851300101
 10
136.8507596646
 20
131.8039636334
 10
136.6561712834
 20
131.5980921613
 10
136.4804378993
 20
131.3689539605
 10
136.324382398
 20
131.1176711268
 10
136.1889949891
 20
130.8460358195
 10
136.0748534954
 20
130.555545501
 10
135.9822725022
 20
130.2473630952
 10
135.911596235
 20
129.9227127055
 10
135.8631404744
 20
129.5828413024
 10
135.8371743844
 20
129.2292410616
 10
135.8324588689
 20
128.9955255024
  0
LINE
  5
21D
100
AcDbEntity
  8
RACCORDO
100
AcDbLine
 62
7
  6
CONTINUOUS
 10
137.2583869928
 20
132.1203182118
 11
138.3607065379
 21
132.8071100499
  0
LINE
  5
21E
100
AcDbEntity
  8
RACCORDO
100
AcDbLine
 62
250
  6
CONTINUOUS
 10
139.9409431483
 20
132.0622765087
 11
141.0340619539
 21
132.7433357772
  0
LINE
  5
21F
100
AcDbEntity
  8
RACCORDO
100
AcDbLine
 62
250
  6
CONTINUOUS
 10
141.6028968498
 20
131.7040016145
 11
142.3122809256
 21
132.1042262914
  0
LWPOLYLINE
  5
220
100
AcDbEntity
  8
RACCORDO
100
AcDbPolyline
 62
250
  6
CONTINUOUS
 90
16
 70
0
 10
141.6265317324
 20
131.1483500722
 10
141.637710598
 20
131.1539083843
 10
141.6497541399
 20
131.159436084
 10
141.6626763091
 20
131.1649164525
 10
141.6764463235
 20
131.1703059215
 10
141.6911171569
 20
131.1756104614
 10
141.7068441554
 20
131.1808868844
 10
141.7237077372
 20
131.1861274844
 10
141.7416859852
 20
131.1912929659
 10
141.7607990421
 20
131.1963894747
 10
141.7810822554
 20
131.2013788211
 10
141.802554356
 20
131.2062327374
 10
141.8252141403
 20
131.2109662935
 10
141.8490790696
 20
131.2155541552
 10
141.8741815563
 20
131.2199312257
 10
141.9005424061
 20
131.2240462618
  0
LINE
  5
221
100
AcDbEntity
  8
RACCORDO
100
AcDbLine
 62
250
  6
CONTINUOUS
 10
141.9005424061
 20
131.2240462618
 11
142.595123638
 21
131.6159193791
  0
LWPOLYLINE
  5
222
100
AcDbEntity
  8
0
100
AcDbPolyline
 62
7
  6
CONTINUOUS
 90
17
 70
0
 10
140.2246546739
 20
70.454500731
 10
140.5857253234
 20
70.3575820136
 10
140.942495099
 20
70.2965622699
 10
141.2930450166
 20
70.2715633888
 10
141.6316181236
 20
70.2829510364
 10
141.9580203758
 20
70.3313086664
 10
142.2724458174
 20
70.4160528252
 10
142.5697196283
 20
70.5357988184
 10
142.8495720232
 20
70.6911143517
 10
143.1122727873
 20
70.8814317193
 10
143.353456456
 20
71.1036631092
 10
143.5727928335
 20
71.3584022059
 10
143.7706121156
 20
71.6450553248
 10
143.9435394247
 20
71.9587536001
 10
144.0911172397
 20
72.2999277431
 10
144.2138030818
 20
72.6681470425
 10
144.3095946371
 20
73.0572504981
  0
LWPOLYLINE
  5
223
100
AcDbEntity
  8
0
100
AcDbPolyline
 62
7
  6
CONTINUOUS
 90
8
 70
0
 10
140.1658377431
 20
70.2621365884
 10
140.7000115081
 20
70.0261468449
 10
141.2300790738
 20
69.8542912575
 10
141.751218656
 20
69.7483876985
 10
142.2593196055
 20
69.7096593613
 10
142.748982631
 20
69.7389173632
 10
143.2138469512
 20
69.835648274
 10
143.668349069
 20
70.0070923492
  0
LWPOLYLINE
  5
224
100
AcDbEntity
  8
RACCORDO
100
AcDbPolyline
 62
250
  6
CONTINUOUS
 90
27
 70
0
 10
152.7224317426
 20
64.4486589789
 10
152.9976913502
 20
64.3266247193
 10
153.264064278
 20
64.2307620525
 10
153.5215505259
 20
64.1610709785
 10
153.7711051835
 20
64.1188047751
 10
154.0117731612
 20
64.1027101646
 10
154.2406891902
 20
64.1090273138
 10
154.4581941943
 20
64.1387500619
 10
154.6639472496
 20
64.1908845697
 10
154.8540603164
 20
64.2586894868
 10
155.0267188041
 20
64.3421632788
 10
155.1837373033
 20
64.44130748
 10
155.326671545
 20
64.5493853437
 10
155.4549973262
 20
64.6653913863
 10
155.5692388499
 20
64.7903310912
 10
155.6725244571
 20
64.9204841624
 10
155.7649751765
 20
65.0547416963
 10
155.8464699794
 20
65.1942125965
 10
155.9197741209
 20
65.3385032771
 10
155.9852399454
 20
65.4860364055
 10
156.0425151084
 20
65.6383893143
 10
156.0933078319
 20
65.7999004165
 10
156.1386404514
 20
65.9706254235
 10
156.1774906313
 20
66.1505086238
 10
156.2084995868
 20
66.3437212957
 10
156.2312143896
 20
66.5516538653
 10
156.2460879681
 20
66.7729159066
  0
LWPOLYLINE
  5
225
100
AcDbEntity
  8
0
100
AcDbPolyline
 62
7
  6
CONTINUOUS
 90
3
 70
0
 10
139.4838538008
 20
70.7564007536
 10
139.8573641664
 20
70.587440311
 10
140.2246546739
 20
70.454500731
  0
LWPOLYLINE
  5
226
100
AcDbEntity
  8
RACCORDO
100
AcDbPolyline
 62
7
  6
CONTINUOUS
 90
12
 70
0
 10
152.8783074606
 20
64.1241648066
 10
153.0384238648
 20
64.0479857456
 10
153.3187142839
 20
63.9331259752
 10
153.5975970014
 20
63.8421717897
 10
153.8740092022
 20
63.7753387623
 10
154.1467281041
 20
63.7328206895
 10
154.4143763292
 20
63.7145396843
 10
154.6760775517
 20
63.7203016244
 10
154.9305304609
 20
63.7498781937
 10
155.1756103768
 20
63.8025591396
 10
155.4098629192
 20
63.877359824
 10
155.4459317594
 20
63.8911811041
  0
LINE
  5
227
100
AcDbEntity
  8
RACCORDO
100
AcDbLine
 62
7
  6
CONTINUOUS
 10
151.4836456445
 20
64.8214957034
 11
152.8783676765
 21
64.1241346874
  0
LINE
  5
228
100
AcDbEntity
  8
RACCORDO
100
AcDbLine
 62
7
  6
CONTINUOUS
 10
141.9675187705
 20
69.7319009279
 11
151.0429409303
 21
65.194189848
  0
LINE
  5
229
100
AcDbEntity
  8
RACCORDO
100
AcDbLine
 62
250
  6
CONTINUOUS
 10
151.1491866429
 20
65.2352815287
 11
152.7224317426
 21
64.4486589789
  0
LINE
  5
22A
100
AcDbEntity
  8
RACCORDO
100
AcDbLine
 62
250
  6
CONTINUOUS
 10
142.332051964
 20
69.7140052142
 11
150.938983656
 21
65.4105393682
  0
LWPOLYLINE
  5
22B
100
AcDbEntity
  8
RACCORDO
100
AcDbPolyline
 62
250
  6
CONTINUOUS
 90
12
 70
0
 10
150.938983656
 20
65.4105393682
 10
150.9576964235
 20
65.4005506319
 10
150.9760175692
 20
65.3898447523
 10
150.9939470932
 20
65.3784217295
 10
151.0113670096
 20
65.3663474517
 10
151.0283953043
 20
65.3535560306
 10
151.0453859352
 20
65.3398498013
 10
151.0623850382
 20
65.3252637862
 10
151.0793464774
 20
65.309762963
 10
151.0964858025
 20
65.2930445989
 10
151.1138748634
 20
65.275007783
 10
151.1314418102
 20
65.2557534263
  0
LWPOLYLINE
  5
22C
100
AcDbEntity
  8
RACCORDO
100
AcDbPolyline
 62
7
  6
CONTINUOUS
 90
7
 70
0
 10
151.0444767215
 20
65.1934328778
 10
151.046340173
 20
65.192412867
 10
151.0552668081
 20
65.1867894892
 10
151.0690953635
 20
65.1764830807
 10
151.0879591303
 20
65.1599380503
 10
151.1097003031
 20
65.137773862
 10
151.1254810655
 20
65.1197436709
  0
LWPOLYLINE
  5
22D
100
AcDbEntity
  8
0
100
AcDbPolyline
 62
7
  6
CONTINUOUS
 90
4
 70
0
 10
138.4939093534
 20
71.3738841754
 10
138.7430529044
 20
71.1953016205
 10
139.1103434228
 20
70.9609506846
 10
139.4838538008
 20
70.7564007536
  0
LWPOLYLINE
  5
22E
100
AcDbEntity
  8
0
100
AcDbPolyline
 62
7
  6
CONTINUOUS
 90
4
 70
0
 10
139.0394907515
 20
70.9646665317
 10
139.1015962078
 20
70.9185323207
 10
139.6316638985
 20
70.560320452
 10
140.1658377431
 20
70.2621365884
  0
LINE
  5
22F
100
AcDbEntity
  8
0
100
AcDbLine
 62
7
  6
CONTINUOUS
 10
138.4939043072
 20
71.3738563649
 11
139.0394907515
 21
70.9646665317
  0
LWPOLYLINE
  5
230
100
AcDbEntity
  8
RACCORDO
100
AcDbPolyline
 62
250
  6
CONTINUOUS
 90
10
 70
0
 10
156.2531203222
 20
67.0075074194
 10
156.3303849892
 20
66.9748990734
 10
156.4175035194
 20
66.9492407054
 10
156.5120019774
 20
66.931260945
 10
156.6111968576
 20
66.9214703699
 10
156.7122712882
 20
66.9201470063
 10
156.8123550235
 20
66.9273284344
 10
156.9086059506
 20
66.9428107205
 10
156.9982907983
 20
66.9661542088
 10
157.0788627547
 20
66.9966960062
  0
LWPOLYLINE
  5
231
100
AcDbEntity
  8
RACCORDO
100
AcDbPolyline
 62
250
  6
CONTINUOUS
 90
10
 70
0
 10
156.2531203222
 20
68.1042634172
 10
156.3303778158
 20
68.0716577723
 10
156.4174897424
 20
68.0460002895
 10
156.5119832553
 20
68.0280199795
 10
156.6111757566
 20
68.0182279243
 10
156.7122506396
 20
68.0169027805
 10
156.812337245
 20
68.0240827145
 10
156.9085929814
 20
68.0395642684
 10
156.9982840618
 20
68.0629082212
 10
157.0788627547
 20
68.0934520039
  0
LWPOLYLINE
  5
232
100
AcDbEntity
  8
RACCORDO
100
AcDbPolyline
 62
250
  6
CONTINUOUS
 90
13
 70
0
 10
141.1121284449
 20
130.5557209301
 10
141.1436539541
 20
130.6021776204
 10
141.1842783901
 20
130.652074626
 10
141.2325307645
 20
130.7036049092
 10
141.2866643921
 20
130.7549017003
 10
141.3447187892
 20
130.8041078347
 10
141.4045909775
 20
130.8494426338
 10
141.4641139985
 20
130.8892633129
 10
141.5211326631
 20
130.9221279172
 10
141.5735811445
 20
130.9468481096
 10
141.6195607507
 20
130.9625283279
 10
141.6574078146
 20
130.9685993121
 10
141.6857520465
 20
130.9648411253
  0
LINE
  5
233
100
AcDbEntity
  8
RACCORDO
100
AcDbLine
 62
7
  6
CONTINUOUS
 10
138.105941927
 20
120.5839531333
 11
138.0601339029
 21
120.5562760333
  0
LWPOLYLINE
  5
234
100
AcDbEntity
  8
0
100
AcDbPolyline
 62
7
  6
CONTINUOUS
 90
11
 70
0
 10
136.545361977
 20
119.7601080883
 10
136.2808872374
 20
119.6026155577
 10
135.9120655551
 20
119.3137547856
 10
135.5790186377
 20
118.9620491307
 10
135.2869786032
 20
118.5512833438
 10
135.0407639322
 20
118.0883480695
 10
134.842999873
 20
117.5809599609
 10
134.6934444837
 20
117.0319074838
 10
134.5921757195
 20
116.441387238
 10
134.5406059441
 20
115.8105107061
 10
134.5341063325
 20
115.4824769248
  0
LWPOLYLINE
  5
235
100
AcDbEntity
  8
RACCORDO
100
AcDbPolyline
 62
250
  6
CONTINUOUS
 90
4
 70
0
 10
151.7345914321
 20
126.1032398363
 10
151.672086838
 20
126.0684783588
 10
151.6131156007
 20
126.0300543046
 10
151.5578856804
 20
125.9895969198
  0
LWPOLYLINE
  5
236
100
AcDbEntity
  8
RACCORDO
100
AcDbPolyline
 62
250
  6
CONTINUOUS
 90
10
 70
0
 10
152.3509199238
 20
126.3299900775
 10
152.3157722117
 20
126.3107106405
 10
152.279143804
 20
126.2919510285
 10
152.241034701
 20
126.2737112413
 10
152.2017462726
 20
126.2560269607
 10
152.1609771488
 20
126.2388625049
 10
152.117823219
 20
126.2221108293
 10
152.0722389387
 20
126.2056384222
 10
152.0242698525
 20
126.1895787952
 10
151.9731484836
 20
126.1742254386
  0
LWPOLYLINE
  5
237
100
AcDbEntity
  8
RACCORDO
100
AcDbPolyline
 62
7
  6
CONTINUOUS
 90
7
 70
0
 10
152.1685860589
 20
126.3395024094
 10
152.1391800295
 20
126.3235306366
 10
152.0731597269
 20
126.2914724055
 10
152.0023338205
 20
126.2619731856
 10
151.9276958417
 20
126.2355254097
 10
151.8499273624
 20
126.2124648305
 10
151.7697686193
 20
126.1931474915
  0
LINE
  5
238
100
AcDbEntity
  8
DRAFT
100
AcDbLine
 62
7
  6
CONTINUOUS
 10
142.1684613782
 20
122.7285959118
 11
138.105941927
 21
120.5839531333
  0
LINE
  5
239
100
AcDbEntity
  8
0
100
AcDbLine
 62
7
  6
CONTINUOUS
 10
137.9685479565
 20
120.5114215454
 11
136.545361977
 21
119.7601080883
  0
LWPOLYLINE
  5
23A
100
AcDbEntity
  8
RACCORDO
100
AcDbPolyline
 62
250
  6
CONTINUOUS
 90
30
 70
0
 10
142.1684613782
 20
122.7285959118
 10
142.2282102364
 20
122.7592986334
 10
142.5971748695
 20
122.9143876539
 10
142.987253751
 20
123.0214571002
 10
143.3959167866
 20
123.0798123197
 10
143.8205131437
 20
123.0890747698
 10
144.258288821
 20
123.0491844992
 10
144.7064049505
 20
122.9604003095
 10
145.1619557121
 20
122.8232979358
 10
145.6219869307
 20
122.6387663827
 10
146.0835149013
 20
122.4080024173
 10
146.5435461283
 20
122.1325027863
 10
146.9990969156
 20
121.8140544192
 10
147.4472130782
 20
121.4547224897
 10
147.8849887689
 20
121.0568371069
 10
148.3095850897
 20
120.6229783766
 10
148.7182480759
 20
120.1559602263
 10
149.1083269615
 20
119.6588119494
 10
149.477291714
 20
119.1347581791
 10
149.8227497875
 20
118.5871972965
 10
150.1424611396
 20
118.0196798418
 10
150.4343523973
 20
117.4358861085
 10
150.6965303582
 20
116.8396024241
 10
150.927294626
 20
116.2346959766
 10
151.1251485862
 20
115.6250897532
 10
151.2888090162
 20
115.0147373471
 10
151.4172144282
 20
114.40759739
 10
151.5095320559
 20
113.8076075091
 10
151.5651632079
 20
113.2186587918
 10
151.5837470988
 20
112.6445708029
  0
LINE
  5
23B
100
AcDbEntity
  8
0
100
AcDbLine
 62
7
  6
CONTINUOUS
 10
138.1316199249
 20
120.5912958558
 11
137.9682341694
 21
120.5112558704
  0
LINE
  5
23C
100
AcDbEntity
  8
RACCORDO
100
AcDbLine
 62
250
  6
CONTINUOUS
 10
151.8000902266
 20
126.1327029696
 11
151.7345914321
 21
126.1032398363
  0
LWPOLYLINE
  5
23D
100
AcDbEntity
  8
RACCORDO
100
AcDbPolyline
 62
250
  6
CONTINUOUS
 90
18
 70
0
 10
157.018426035
 20
124.182486153
 10
157.0733245769
 20
124.1981570854
 10
157.1553603126
 20
124.2066868952
 10
157.2419746865
 20
124.199389136
 10
157.3316856772
 20
124.176388703
 10
157.4229583424
 20
124.1380791507
 10
157.5142309743
 20
124.0851159811
 10
157.6039418846
 20
124.0184054139
 10
157.6905561618
 20
123.9390888296
 10
157.7725918004
 20
123.8485233458
 10
157.8486451485
 20
123.7482585401
 10
157.9174149664
 20
123.6400098467
 10
157.9777246581
 20
123.5256291662
 10
158.0285421076
 20
123.4070737956
 10
158.0689975773
 20
123.2863728873
 10
158.0983989343
 20
123.1655918987
 10
158.1162433172
 20
123.046797201
 10
158.1222255346
 20
122.9320213482
  0
LINE
  5
23E
100
AcDbEntity
  8
RACCORDO
100
AcDbLine
 62
7
  6
CONTINUOUS
 10
157.7925322179
 20
73.333355403
 11
157.6605552196
 21
73.3626201246
  0
LWPOLYLINE
  5
23F
100
AcDbEntity
  8
RACCORDO
100
AcDbPolyline
 62
250
  6
CONTINUOUS
 90
10
 70
0
 10
154.1519079011
 20
70.5394552516
 10
154.2301224479
 20
70.5065109059
 10
154.3183905359
 20
70.4806865974
 10
154.4141477725
 20
70.4627325823
 10
154.5146121878
 20
70.4531704662
 10
154.6168650576
 20
70.452278051
 10
154.7179356988
 20
70.4600812633
 10
154.8148877749
 20
70.4763534016
 10
154.9049046031
 20
70.5006217227
 10
154.9853709858
 20
70.5321811755
  0
LINE
  5
240
100
AcDbEntity
  8
RACCORDO
100
AcDbLine
 62
250
  6
CONTINUOUS
 10
155.9704067724
 20
68.5916084026
 11
154.9999218312
 21
69.0768508732
  0
LINE
  5
241
100
AcDbEntity
  8
RACCORDO
100
AcDbLine
 62
250
  6
CONTINUOUS
 10
156.3798642387
 20
69.3156358424
 11
155.4093766044
 21
69.8008796596
  0
LWPOLYLINE
  5
242
100
AcDbEntity
  8
RACCORDO
100
AcDbPolyline
 62
250
  6
CONTINUOUS
 90
16
 70
0
 10
141.2653314892
 20
131.4000823383
 10
141.2765956758
 20
131.4192675028
 10
141.2892674946
 20
131.4385919693
 10
141.3033469457
 20
131.4580557378
 10
141.3187405244
 20
131.4776222005
 10
141.3355417353
 20
131.4973279652
 10
141.3540310929
 20
131.5172828555
 10
141.374247666
 20
131.5375609395
 10
141.3961523857
 20
131.5580881492
 10
141.4199085597
 20
131.5787521032
 10
141.4455245466
 20
131.5995664923
 10
141.4729919877
 20
131.6205176258
 10
141.5024491154
 20
131.6414520501
 10
141.533942007
 20
131.6623186141
 10
141.5674245852
 20
131.6831684689
 10
141.6028968498
 20
131.7040016145
  0
LINE
  5
243
100
AcDbEntity
  8
RACCORDO
100
AcDbLine
 62
7
  6
CONTINUOUS
 10
152.8749339852
 20
126.7380160352
 11
152.1691722007
 21
126.3398350049
  0
LINE
  5
244
100
AcDbEntity
  8
RACCORDO
100
AcDbLine
 62
250
  6
CONTINUOUS
 10
153.0603039996
 20
126.7302147544
 11
152.3509199238
 21
126.3299900775
  0
LINE
  5
245
100
AcDbEntity
  8
RACCORDO
100
AcDbLine
 62
250
  6
CONTINUOUS
 10
153.1244915456
 20
125.4705023101
 11
154.3385229712
 21
126.0911052686
  0
LINE
  5
246
100
AcDbEntity
  8
DRAFT
100
AcDbLine
 62
7
  6
CONTINUOUS
 10
157.018426035
 20
124.182486153
 11
156.6349998694
 21
124.0411418274
  0
LINE
  5
247
100
AcDbEntity
  8
RACCORDO
100
AcDbLine
 62
7
  6
CONTINUOUS
 10
157.586110306
 20
69.9077111628
 11
156.5955794553
 21
70.4029765881
  0
LWPOLYLINE
  5
248
100
AcDbEntity
  8
RACCORDO
100
AcDbPolyline
 62
250
  6
CONTINUOUS
 90
19
 70
0
 10
155.4093792825
 20
69.8008810189
 10
155.3621327917
 20
69.8259958762
 10
155.3173569076
 20
69.855631162
 10
155.2754405091
 20
69.8888439133
 10
155.2368062286
 20
69.9246529062
 10
155.2014867467
 20
69.9623213499
 10
155.1691783694
 20
70.0014582833
 10
155.1400383428
 20
70.0413254106
 10
155.113977432
 20
70.0815339648
 10
155.090382846
 20
70.1224956386
 10
155.0693735888
 20
70.163649304
 10
155.0508686191
 20
70.2049074912
 10
155.0342381267
 20
70.247614705
 10
155.0196061503
 20
70.2917139123
 10
155.0072794986
 20
70.3367842868
 10
154.9972905267
 20
70.3836604078
 10
154.9899985485
 20
70.4323498285
 10
154.9858893212
 20
70.4820320222
 10
154.985372613
 20
70.5321820014
  0
LWPOLYLINE
  5
249
100
AcDbEntity
  8
RACCORDO
100
AcDbPolyline
 62
250
  6
CONTINUOUS
 90
19
 70
0
 10
154.9999218312
 20
69.0768508732
 10
154.9075625015
 20
69.1315819832
 10
154.820907266
 20
69.1915639997
 10
154.7399561249
 20
69.2567969228
 10
154.6646897047
 20
69.328464834
 10
154.5951273789
 20
69.4053836518
 10
154.5313272671
 20
69.484001131
 10
154.4736399933
 20
69.5634419106
 10
154.4217149335
 20
69.6445813517
 10
154.3745583364
 20
69.7264932931
 10
154.3320962531
 20
69.808362762
 10
154.2944026325
 20
69.8910047313
 10
154.260705569
 20
69.9759379587
 10
154.230340323
 20
70.0635663267
 10
154.2039716342
 20
70.1534859528
 10
154.1828218162
 20
70.2460039473
 10
154.167298307
 20
70.3412226803
 10
154.1569936686
 20
70.4390397818
 10
154.1519079011
 20
70.5394552516
  0
LWPOLYLINE
  5
24A
100
AcDbEntity
  8
RACCORDO
100
AcDbPolyline
 62
7
  6
CONTINUOUS
 90
5
 70
0
 10
151.1894492933
 20
65.0477869583
 10
151.2723361978
 20
64.9671997438
 10
151.3583453854
 20
64.8979472496
 10
151.4469126842
 20
64.84102704
 10
151.4822434067
 20
64.8221997854
  0
LWPOLYLINE
  5
24B
100
AcDbEntity
  8
RACCORDO
100
AcDbPolyline
 62
250
  6
CONTINUOUS
 90
36
 70
0
 10
141.0697146337
 20
122.1485570223
 10
141.1582014208
 20
122.2772772997
 10
141.4243387784
 20
122.5874242483
 10
141.7173342539
 20
122.8583750636
 10
142.0366762914
 20
123.0906530918
 10
142.3769702188
 20
123.2802860359
 10
142.7385355895
 20
123.426520025
 10
143.12105285
 20
123.53010893
 10
143.5181686678
 20
123.5893420674
 10
143.9301366624
 20
123.6034818662
 10
144.3567032143
 20
123.5732658973
 10
144.7907541324
 20
123.4991961903
 10
145.2324128741
 20
123.3805372677
 10
145.6815559819
 20
123.218024607
 10
146.1306988931
 20
123.0143666698
 10
146.5798416576
 20
122.7688741648
 10
147.0289842254
 20
122.4822363833
 10
147.4706418841
 20
122.1592296606
 10
147.9046910159
 20
121.799242134
 10
148.3312552386
 20
121.4028856663
 10
148.7432206936
 20
120.9767721806
 10
149.1403340497
 20
120.5204173263
 10
149.5228486381
 20
120.0343054539
 10
149.8844105935
 20
119.5265015384
 10
150.2246999071
 20
118.996572013
 10
150.5440365878
 20
118.4449504445
 10
150.8370267966
 20
117.8810025078
 10
151.1031594543
 20
117.3047153329
 10
151.34294564
 20
116.7161017898
 10
151.5525247526
 20
116.1245661626
 10
151.7314794259
 20
115.5291940647
 10
151.880227026
 20
114.9308998828
 10
151.9961590498
 20
114.3418310608
 10
152.0784059961
 20
113.7660367469
 10
152.127837366
 20
113.199467793
 10
152.1444531595
 20
112.6421241991
  0
LWPOLYLINE
  5
24C
100
AcDbEntity
  8
RACCORDO
100
AcDbPolyline
 62
250
  6
CONTINUOUS
 90
14
 70
0
 10
151.506616126
 20
125.9482961587
 10
151.4596037235
 20
125.9068459067
 10
151.4168179524
 20
125.866283829
 10
151.3779096455
 20
125.8272764462
 10
151.3426774862
 20
125.7896312743
 10
151.3109157967
 20
125.7537281623
 10
151.2822928377
 20
125.7199910121
 10
151.2565383767
 20
125.6880852066
 10
151.2334338435
 20
125.658159444
 10
151.2126995525
 20
125.630391599
 10
151.1940974617
 20
125.6044082728
 10
151.1774418249
 20
125.5801198198
 10
151.1625359219
 20
125.5577125992
 10
151.1491866429
 20
125.5371918308
  0
LINE
  5
24D
100
AcDbEntity
  8
RACCORDO
100
AcDbLine
 62
250
  6
CONTINUOUS
 10
151.5578856804
 20
125.9895969198
 11
151.506616126
 21
125.9482961587
  0
LWPOLYLINE
  5
24E
100
AcDbEntity
  8
RACCORDO
100
AcDbPolyline
 62
7
  6
CONTINUOUS
 90
6
 70
0
 10
155.1153411627
 20
82.0342306384
 10
155.1058006147
 20
82.033306271
 10
155.1020209016
 20
82.0332319178
 10
155.1090943295
 20
82.031719473
 10
155.1266582233
 20
82.0261426536
 10
155.1552055681
 20
82.0136488621
  0
LWPOLYLINE
  5
24F
100
AcDbEntity
  8
0
100
AcDbPolyline
 62
7
  6
CONTINUOUS
 90
20
 70
0
 10
139.4838538008
 20
82.8807564066
 10
139.1103434353
 20
83.0497168491
 10
138.7430529278
 20
83.1826564291
 10
138.3819822783
 20
83.2795751466
 10
138.0252125027
 20
83.3405948903
 10
137.6746625851
 20
83.3655937714
 10
137.3360894781
 20
83.3542061237
 10
137.0096872258
 20
83.3058484937
 10
136.6952617842
 20
83.2211043349
 10
136.3979879734
 20
83.1013583418
 10
136.1181355784
 20
82.9460428085
 10
135.8554348143
 20
82.7557254408
 10
135.6142511456
 20
82.533494051
 10
135.3949147681
 20
82.2787549543
 10
135.1970954861
 20
81.9921018354
 10
135.0241681769
 20
81.6784035601
 10
134.876590362
 20
81.3372294171
 10
134.7539045199
 20
80.9690101177
 10
134.6581129645
 20
80.5799066621
 10
134.5896622203
 20
80.1696041689
  0
LINE
  5
250
100
AcDbEntity
  8
0
100
AcDbLine
 62
7
  6
CONTINUOUS
 10
139.8573641788
 20
82.6762064756
 11
139.4838538008
 21
82.8807564066
  0
LINE
  5
251
100
AcDbEntity
  8
RACCORDO
100
AcDbLine
 62
7
  6
CONTINUOUS
 10
151.1258309444
 20
65.1193354822
 11
151.1894492933
 21
65.0477869583
  0
LINE
  5
252
100
AcDbEntity
  8
RACCORDO
100
AcDbLine
 62
250
  6
CONTINUOUS
 10
151.1314418102
 20
65.2557534263
 11
151.1491866429
 21
65.2352815287
  0
LWPOLYLINE
  5
253
100
AcDbEntity
  8
RACCORDO
100
AcDbPolyline
 62
250
  6
CONTINUOUS
 90
10
 70
0
 10
141.5162816709
 20
84.9881922862
 10
141.061999859
 20
85.1704202825
 10
140.612137196
 20
85.3058125054
 10
140.169613813
 20
85.3934889733
 10
139.7373067896
 20
85.4328799715
 10
139.3180232605
 20
85.4237318134
 10
138.9144780859
 20
85.3661058923
 10
138.5292837493
 20
85.2603760007
 10
138.164936994
 20
85.1072270392
 10
138.105941927
 20
85.0769115781
  0
LWPOLYLINE
  5
254
100
AcDbEntity
  8
0
100
AcDbPolyline
 62
7
  6
CONTINUOUS
 90
9
 70
0
 10
140.1658368562
 20
84.0570031837
 10
139.631663034
 20
84.2929930526
 10
139.1015954044
 20
84.4648487556
 10
138.5804557531
 20
84.5707524191
 10
138.0723547305
 20
84.6094808483
 10
137.5826916299
 20
84.5802229249
 10
137.1178272348
 20
84.4834920781
 10
136.6832033118
 20
84.3213553496
 10
136.545361977
 20
84.2530665331
  0
LWPOLYLINE
  5
255
100
AcDbEntity
  8
0
100
AcDbPolyline
 62
7
  6
CONTINUOUS
 90
13
 70
0
 10
141.6051741444
 20
84.8074419821
 10
141.2919606058
 20
84.9532423963
 10
140.9816221954
 20
85.0769193113
 10
140.674158913
 20
85.1784727272
 10
140.3687100248
 20
85.2580720904
 10
140.0661362648
 20
85.3155479545
 10
139.7690198343
 20
85.3503919803
 10
139.477275899
 20
85.362394594
 10
139.1909892933
 20
85.3517653695
 10
138.9129967225
 20
85.3186246896
 10
138.6435528683
 20
85.2628107129
 10
138.382403049
 20
85.184485281
 10
138.1316199249
 20
85.0842543007
  0
LINE
  5
256
100
AcDbEntity
  8
RACCORDO
100
AcDbLine
 62
250
  6
CONTINUOUS
 10
141.9720385966
 20
84.760310588
 11
141.5162816709
 21
84.9881922862
  0
LWPOLYLINE
  5
257
100
AcDbEntity
  8
0
100
AcDbPolyline
 62
7
  6
CONTINUOUS
 90
20
 70
0
 10
134.5341063325
 20
79.2934523142
 10
134.5481057571
 20
78.8344877707
 10
134.589662209
 20
78.3617446715
 10
134.6581129456
 20
77.8829914456
 10
134.7539044893
 20
77.3980964544
 10
134.8765903179
 20
76.9071913365
 10
135.0241681211
 20
76.418439394
 10
135.1970954208
 20
75.9318138122
 10
135.3949146952
 20
75.4473414057
 10
135.614251069
 20
74.9732659203
 10
135.8554347404
 20
74.5098508424
 10
136.1181355113
 20
74.0568326856
 10
136.3979879124
 20
73.6216647359
 10
136.6952617267
 20
73.2046449179
 10
137.0096871711
 20
72.805475307
 10
137.3360894271
 20
72.4307154148
 10
137.674662539
 20
72.0807546496
 10
138.0252124625
 20
71.7552036031
 10
138.3819822456
 20
71.4594535616
 10
138.4939093534
 20
71.3738841754
  0
LINE
  5
258
100
AcDbEntity
  8
0
100
AcDbLine
 62
7
  6
CONTINUOUS
 10
134.5341063325
 20
79.2934523142
 11
134.5341063325
 21
79.9754353696
  0
LINE
  5
259
100
AcDbEntity
  8
0
100
AcDbLine
 62
7
  6
CONTINUOUS
 10
134.5341063325
 20
114.8004938694
 11
134.5341063325
 21
115.4824769248
  0
LWPOLYLINE
  5
25A
100
AcDbEntity
  8
0
100
AcDbPolyline
 62
7
  6
CONTINUOUS
 90
3
 70
0
 10
134.5896622203
 20
115.676645724
 10
134.5481057628
 20
115.2454590746
 10
134.5341063325
 20
114.8004938694
  0
LWPOLYLINE
  5
25B
100
AcDbEntity
  8
RACCORDO
100
AcDbPolyline
 62
7
  6
CONTINUOUS
 90
10
 70
0
 10
157.9009037296
 20
122.4175307639
 10
157.9782621085
 20
122.4738071151
 10
158.0501278938
 20
122.5393106466
 10
158.1151982295
 20
122.6134528197
 10
158.1721590052
 20
122.695225955
 10
158.2200939737
 20
122.7836815375
 10
158.2584448724
 20
122.8783190048
 10
158.2865266069
 20
122.9783815463
 10
158.3036369566
 20
123.0824382333
 10
158.3093899801
 20
123.1891363866
  0
LINE
  5
25C
100
AcDbEntity
  8
DRAFT
100
AcDbLine
 62
7
  6
CONTINUOUS
 10
157.9009037296
 20
122.4175307639
 11
157.6426321696
 21
122.2504828995
  0
LINE
  5
25D
100
AcDbEntity
  8
RACCORDO
100
AcDbLine
 62
250
  6
CONTINUOUS
 10
157.0788627547
 20
118.6502208476
 11
158.2928941804
 21
119.270823806
  0
LWPOLYLINE
  5
25E
100
AcDbEntity
  8
RACCORDO
100
AcDbPolyline
 62
250
  6
CONTINUOUS
 90
11
 70
0
 10
156.7935712708
 20
117.0016361403
 10
156.8042560397
 20
117.006319155
 10
156.8564498491
 20
117.0355807898
 10
156.9027562986
 20
117.0722248117
 10
156.9443156757
 20
117.1165880461
 10
156.9806250235
 20
117.16796995
 10
157.0115695307
 20
117.2260583992
 10
157.0378635322
 20
117.2932602243
 10
157.0587397237
 20
117.3707870714
 10
157.0727509669
 20
117.4576414115
 10
157.0788627547
 20
117.5534648498
  0
LWPOLYLINE
  5
25F
100
AcDbEntity
  8
RACCORDO
100
AcDbPolyline
 62
250
  6
CONTINUOUS
 90
6
 70
0
 10
158.7827708026
 20
117.8055333385
 10
158.8335376346
 20
117.8273331422
 10
158.8846949191
 20
117.8398003691
 10
158.9346951253
 20
117.8427762113
 10
158.9816150056
 20
117.8365567887
 10
159.0210557172
 20
117.8228391316
  0
LINE
  5
260
100
AcDbEntity
  8
RACCORDO
100
AcDbLine
 62
250
  6
CONTINUOUS
 10
154.9853709858
 20
117.2230227736
 11
155.39900547
 21
117.3987891541
  0
LINE
  5
261
100
AcDbEntity
  8
RACCORDO
100
AcDbLine
 62
7
  6
CONTINUOUS
 10
157.6605552196
 20
116.8872334807
 11
156.4540778609
 21
116.3745630756
  0
LINE
  5
262
100
AcDbEntity
  8
RACCORDO
100
AcDbLine
 62
250
  6
CONTINUOUS
 10
156.7907719835
 20
117.0004760314
 11
156.7935712708
 21
117.0016361403
  0
LINE
  5
263
100
AcDbEntity
  8
RACCORDO
100
AcDbLine
 62
250
  6
CONTINUOUS
 10
157.0788627547
 20
117.5534648498
 11
158.2928941804
 21
118.05068696
  0
LINE
  5
264
100
AcDbEntity
  8
RACCORDO
100
AcDbLine
 62
7
  6
CONTINUOUS
 10
156.7907753735
 20
117.0004774199
 11
158.0078619179
 21
117.4989507931
  0
LINE
  5
265
100
AcDbEntity
  8
RACCORDO
100
AcDbLine
 62
250
  6
CONTINUOUS
 10
158.7827708026
 20
82.2984917834
 11
158.8574457683
 21
82.2828717555
  0
LINE
  5
266
100
AcDbEntity
  8
RACCORDO
100
AcDbLine
 62
7
  6
CONTINUOUS
 10
157.7925322179
 20
81.3479147622
 11
157.6605552196
 21
81.3801919255
  0
LWPOLYLINE
  5
267
100
AcDbEntity
  8
RACCORDO
100
AcDbPolyline
 62
250
  6
CONTINUOUS
 90
16
 70
0
 10
155.9704067724
 20
81.8526032723
 10
156.0043209116
 20
81.8388679822
 10
156.036281539
 20
81.8297141557
 10
156.0662886547
 20
81.8251417931
 10
156.0944953159
 20
81.8255459692
 10
156.1207484653
 20
81.8305316091
 10
156.1445889311
 20
81.8389134876
 10
156.1657832575
 20
81.8504590955
 10
156.1845649003
 20
81.8654009421
 10
156.2011750555
 20
81.883251329
 10
156.2157903003
 20
81.9035966865
 10
156.2282340576
 20
81.9268505843
 10
156.2382177919
 20
81.9537660342
 10
156.2456453249
 20
81.9845940401
 10
156.250612835
 20
82.019083598
 10
156.2531203222
 20
82.057234708
  0
LWPOLYLINE
  5
268
100
AcDbEntity
  8
RACCORDO
100
AcDbPolyline
 62
250
  6
CONTINUOUS
 90
10
 70
0
 10
154.1519079011
 20
81.7232552946
 10
154.2301322438
 20
81.6903075041
 10
154.3184092541
 20
81.6644822102
 10
154.4141730112
 20
81.6465291144
 10
154.5146401407
 20
81.6369690971
 10
154.6168917322
 20
81.6360790272
 10
154.7179581847
 20
81.643884062
 10
154.8149039745
 20
81.6601569735
 10
154.9049129215
 20
81.6844244986
 10
154.9853709858
 20
81.7159812184
  0
LWPOLYLINE
  5
269
100
AcDbEntity
  8
RACCORDO
100
AcDbPolyline
 62
250
  6
CONTINUOUS
 90
6
 70
0
 10
138.1094071869
 20
89.7445056517
 10
138.0435184953
 20
89.7836129251
 10
137.9918698784
 20
89.8277469691
 10
137.9559618481
 20
89.8756255874
 10
137.9368376161
 20
89.925857795
 10
137.9336712556
 20
89.956637686
  0
LWPOLYLINE
  5
26A
100
AcDbEntity
  8
RACCORDO
100
AcDbPolyline
 62
250
  6
CONTINUOUS
 90
14
 70
0
 10
151.2194311666
 20
65.0876029817
 10
151.2388851171
 20
65.0554819117
 10
151.2589382538
 20
65.0253151163
 10
151.2794817767
 20
64.9971183028
 10
151.3004215651
 20
64.9708790931
 10
151.321721969
 20
64.9465399567
 10
151.3432757254
 20
64.9240932282
 10
151.365001794
 20
64.9034981376
 10
151.3869171518
 20
64.8846479724
 10
151.4089290821
 20
64.867520456
 10
151.4309704464
 20
64.8520669118
 10
151.4531177656
 20
64.838159073
 10
151.4753010765
 20
64.8257710916
 10
151.4822421806
 20
64.8222003427
  0
LINE
  5
26B
100
AcDbEntity
  8
RACCORDO
100
AcDbLine
 62
250
  6
CONTINUOUS
 10
151.1187507675
 20
65.1323807713
 11
151.125480935
 21
65.1197438303
  0
LWPOLYLINE
  5
26C
100
AcDbEntity
  8
RACCORDO
100
AcDbPolyline
 62
250
  6
CONTINUOUS
 90
7
 70
0
 10
136.2909083155
 20
91.6923525007
 10
136.2970712432
 20
91.6071891135
 10
136.3153809787
 20
91.5306628479
 10
136.3453055819
 20
91.4649969693
 10
136.3859756735
 20
91.4120992238
 10
136.4362096932
 20
91.3735064137
 10
136.4466898291
 20
91.3679054935
  0
LWPOLYLINE
  5
26D
100
AcDbEntity
  8
RACCORDO
100
AcDbPolyline
 62
250
  6
CONTINUOUS
 90
7
 70
0
 10
137.2613959498
 20
91.2071086836
 10
137.2675603283
 20
91.1219357772
 10
137.2858735379
 20
91.0454045587
 10
137.3158023196
 20
90.979737891
 10
137.3564758668
 20
90.9268427796
 10
137.4067115932
 20
90.888254484
 10
137.4173318821
 20
90.8825843929
  0
LWPOLYLINE
  5
26E
100
AcDbEntity
  8
RACCORDO
100
AcDbPolyline
 62
250
  6
CONTINUOUS
 90
16
 70
0
 10
136.0081947658
 20
92.1796974862
 10
136.0115574055
 20
92.1330968476
 10
136.0179232423
 20
92.0882201664
 10
136.0272922764
 20
92.0450674425
 10
136.0401624549
 20
92.0033525873
 10
136.0560358306
 20
91.9633616894
 10
136.0734185616
 20
91.9259530153
 10
136.0919048479
 20
91.891592239
 10
136.1119004894
 20
91.8598136864
 10
136.1331290449
 20
91.8300786013
 10
136.1553106031
 20
91.802250024
 10
136.1787250752
 20
91.7764649142
 10
136.2039357533
 20
91.7525953946
 10
136.2311304014
 20
91.7305988397
 10
136.2601212555
 20
91.7105178751
 10
136.2909083155
 20
91.6923525007
  0
LWPOLYLINE
  5
26F
100
AcDbEntity
  8
0
100
AcDbPolyline
 62
7
  6
CONTINUOUS
 90
20
 70
0
 10
134.5341063325
 20
114.8004938694
 10
134.5481057571
 20
114.3415293259
 10
134.589662209
 20
113.8687862266
 10
134.6581129456
 20
113.3900330008
 10
134.7539044893
 20
112.9051380095
 10
134.8765903179
 20
112.4142328917
 10
135.0241681211
 20
111.9254809492
 10
135.1970954208
 20
111.4388553674
 10
135.3949146952
 20
110.9543829609
 10
135.614251069
 20
110.4803074754
 10
135.8554347404
 20
110.0168923976
 10
136.1181355113
 20
109.5638742408
 10
136.3979879124
 20
109.128706291
 10
136.6952617267
 20
108.7116864731
 10
137.0096871711
 20
108.3125168622
 10
137.3360894271
 20
107.9377569699
 10
137.674662539
 20
107.5877962048
 10
138.0252124625
 20
107.2622451582
 10
138.3819822456
 20
106.9664951167
 10
138.4939093534
 20
106.8809257305
  0
LWPOLYLINE
  5
270
100
AcDbEntity
  8
RACCORDO
100
AcDbPolyline
 62
7
  6
CONTINUOUS
 90
14
 70
0
 10
135.8324590324
 20
92.3920727455
 10
135.8327616612
 20
92.3671093121
 10
135.8402834156
 20
92.2643206971
 10
135.8584611812
 20
92.1573160366
 10
135.8878667053
 20
92.0482241709
 10
135.9274798903
 20
91.9420058278
 10
135.97732026
 20
91.838502394
 10
136.0375622512
 20
91.7383750408
 10
136.1051630044
 20
91.6467350044
 10
136.1794017826
 20
91.5639501676
 10
136.2605513237
 20
91.4897246089
 10
136.3452151082
 20
91.4268535052
 10
136.4312968362
 20
91.3757880713
 10
136.4466898299
 20
91.3679054931
  0
LWPOLYLINE
  5
271
100
AcDbEntity
  8
RACCORDO
100
AcDbPolyline
 62
7
  6
CONTINUOUS
 90
14
 70
0
 10
135.8324590324
 20
127.8991143007
 10
135.8327616612
 20
127.8741508672
 10
135.8402834156
 20
127.7713622523
 10
135.8584611812
 20
127.6643575917
 10
135.8878667053
 20
127.5552657261
 10
135.9274798903
 20
127.449047383
 10
135.97732026
 20
127.3455439491
 10
136.0375622512
 20
127.2454165959
 10
136.1051630044
 20
127.1537765596
 10
136.1794017826
 20
127.0709917227
 10
136.2605513237
 20
126.9967661641
 10
136.3452151082
 20
126.9338950603
 10
136.4312968362
 20
126.8828296264
 10
136.4466898299
 20
126.8749470482
  0
LINE
  5
272
100
AcDbEntity
  8
RACCORDO
100
AcDbLine
 62
7
  6
CONTINUOUS
 10
135.8324588345
 20
128.9956270734
 11
135.8324588345
 21
127.898870691
  0
LINE
  5
273
100
AcDbEntity
  8
RACCORDO
100
AcDbLine
 62
7
  6
CONTINUOUS
 10
135.8324588345
 20
93.4885855182
 11
135.8324588345
 21
92.3918291359
  0
LINE
  5
274
100
AcDbEntity
  8
RACCORDO
100
AcDbLine
 62
250
  6
CONTINUOUS
 10
136.0081947658
 20
128.783495039
 11
136.0081947658
 21
127.6867390413
  0
LINE
  5
275
100
AcDbEntity
  8
RACCORDO
100
AcDbLine
 62
250
  6
CONTINUOUS
 10
136.0081947658
 20
93.2764534839
 11
136.0081947658
 21
92.1796974862
  0
LWPOLYLINE
  5
276
100
AcDbEntity
  8
RACCORDO
100
AcDbPolyline
 62
250
  6
CONTINUOUS
 90
10
 70
0
 10
139.5388833454
 20
131.3423434796
 10
139.5449069592
 20
131.4326043383
 10
139.5628069763
 20
131.526326594
 10
139.592075395
 20
131.6208489528
 10
139.6318814113
 20
131.7134873834
 10
139.6810948732
 20
131.8016110444
 10
139.7383182654
 20
131.8827170546
 10
139.8019266089
 20
131.9545019787
 10
139.8701136877
 20
132.0149271863
 10
139.9409431535
 20
132.062276506
  0
LWPOLYLINE
  5
277
100
AcDbEntity
  8
0
100
AcDbPolyline
 62
7
  6
CONTINUOUS
 90
3
 70
0
 10
134.5896622203
 20
80.1696041689
 10
134.5481057628
 20
79.7384175194
 10
134.5341063325
 20
79.2934523142
  0
LWPOLYLINE
  5
278
100
AcDbEntity
  8
RACCORDO
100
AcDbPolyline
 62
250
  6
CONTINUOUS
 90
10
 70
0
 10
158.7746410311
 20
116.3981677651
 10
158.811491434
 20
116.4183882722
 10
158.8457267159
 20
116.4394597179
 10
158.877292302
 20
116.461295758
 10
158.9061253928
 20
116.4837925075
 10
158.9322167651
 20
116.5068810787
 10
158.9555921409
 20
116.5305329307
 10
158.9762368533
 20
116.5546872696
 10
158.9941139278
 20
116.5792462884
 10
159.0092131558
 20
116.6041311439
  0
LINE
  5
279
100
AcDbEntity
  8
RACCORDO
100
AcDbLine
 62
250
  6
CONTINUOUS
 10
157.7925322179
 20
116.8549563173
 11
158.3506354126
 21
117.129469281
  0
LINE
  5
27A
100
AcDbEntity
  8
RACCORDO
100
AcDbLine
 62
250
  6
CONTINUOUS
 10
158.3636048585
 20
116.1959923269
 11
158.7746410311
 21
116.3981677651
  0
LWPOLYLINE
  5
27B
100
AcDbEntity
  8
RACCORDO
100
AcDbPolyline
 62
250
  6
CONTINUOUS
 90
5
 70
0
 10
158.8574457683
 20
82.2828717555
 10
158.9307978366
 20
82.2586290131
 10
159.0015779849
 20
82.2261105075
 10
159.0687059766
 20
82.1857130258
 10
159.1308468656
 20
82.1381342094
  0
LWPOLYLINE
  5
27C
100
AcDbEntity
  8
RACCORDO
100
AcDbPolyline
 62
250
  6
CONTINUOUS
 90
8
 70
0
 10
158.7827708026
 20
82.2984917834
 10
158.7103585965
 20
82.32749046
 10
158.6370712089
 20
82.3521465645
 10
158.5629086397
 20
82.372460097
 10
158.4869961495
 20
82.3881541445
 10
158.4102084777
 20
82.39950562
 10
158.335169843
 20
82.4073452622
 10
158.2823758262
 20
82.410559692
  0
LWPOLYLINE
  5
27D
100
AcDbEntity
  8
RACCORDO
100
AcDbPolyline
 62
7
  6
CONTINUOUS
 90
6
 70
0
 10
159.022601191
 20
82.3150696662
 10
158.8821325609
 20
82.3723774051
 10
158.7377442558
 20
82.4168171122
 10
158.5874571899
 20
82.4502054121
 10
158.4323968907
 20
82.4726993572
 10
158.2891929968
 20
82.4831697063
  0
LWPOLYLINE
  5
27E
100
AcDbEntity
  8
RACCORDO
100
AcDbPolyline
 62
250
  6
CONTINUOUS
 90
10
 70
0
 10
156.2531203222
 20
82.057234708
 10
156.3303849892
 20
82.0246263619
 10
156.4175035194
 20
81.9989679939
 10
156.5120019774
 20
81.9809882335
 10
156.6111968576
 20
81.9711976584
 10
156.7122712882
 20
81.9698742948
 10
156.8123550235
 20
81.9770557229
 10
156.9086059506
 20
81.992538009
 10
156.9982907983
 20
82.0158814973
 10
157.0788627547
 20
82.0464232947
  0
LWPOLYLINE
  5
27F
100
AcDbEntity
  8
RACCORDO
100
AcDbPolyline
 62
250
  6
CONTINUOUS
 90
10
 70
0
 10
156.2531203222
 20
83.1539907057
 10
156.3303824903
 20
83.1213832575
 10
156.4174987587
 20
83.0957251565
 10
156.5119955791
 20
83.0777451753
 10
156.6111898195
 20
83.0679540755
 10
156.7122646375
 20
83.0666301267
 10
156.8123494571
 20
83.0738111024
 10
156.9086019472
 20
83.0892931894
 10
156.9982887415
 20
83.1126368546
 10
157.0788627547
 20
83.1431792924
  0
LWPOLYLINE
  5
280
100
AcDbEntity
  8
RACCORDO
100
AcDbPolyline
 62
7
  6
CONTINUOUS
 90
8
 70
0
 10
156.1270071986
 20
81.5277481034
 10
156.1827073674
 20
81.5022751789
 10
156.2904253996
 20
81.4653953304
 10
156.4004657575
 20
81.4434735389
 10
156.5110656438
 20
81.4369891488
 10
156.6199164883
 20
81.445998889
 10
156.7246994179
 20
81.4699136436
 10
156.7935376383
 20
81.4945783278
  0
LINE
  5
281
100
AcDbEntity
  8
RACCORDO
100
AcDbLine
 62
250
  6
CONTINUOUS
 10
156.1815584073
 20
81.0037812472
 11
156.4540778609
 21
80.8675215204
  0
LINE
  5
282
100
AcDbEntity
  8
RACCORDO
100
AcDbLine
 62
7
  6
CONTINUOUS
 10
136.446844227
 20
91.3678282205
 11
137.4173318821
 21
90.8825843929
  0
LINE
  5
283
100
AcDbEntity
  8
RACCORDO
100
AcDbLine
 62
7
  6
CONTINUOUS
 10
155.1558550495
 20
82.0133228092
 11
156.1263427899
 21
81.528078939
  0
LINE
  5
284
100
AcDbEntity
  8
RACCORDO
100
AcDbLine
 62
250
  6
CONTINUOUS
 10
136.2909083155
 20
91.6923525007
 11
137.2613932568
 21
91.2071100301
  0
LINE
  5
285
100
AcDbEntity
  8
RACCORDO
100
AcDbLine
 62
250
  6
CONTINUOUS
 10
154.9999191381
 20
82.3378470895
 11
155.9704067724
 21
81.8526032723
  0
LWPOLYLINE
  5
286
100
AcDbEntity
  8
RACCORDO
100
AcDbPolyline
 62
7
  6
CONTINUOUS
 90
16
 70
0
 10
137.4175428114
 20
90.8824790664
 10
137.4485570317
 20
90.8652322946
 10
137.4931141149
 20
90.8350783263
 10
137.5445090693
 20
90.7930784065
 10
137.5988877127
 20
90.7403426332
 10
137.6539305005
 20
90.6777366541
 10
137.7080323102
 20
90.6058918276
 10
137.7587597249
 20
90.5271491114
 10
137.8046502906
 20
90.4433496241
 10
137.8445479288
 20
90.3564418215
 10
137.877254511
 20
90.2694144359
 10
137.902445032
 20
90.1842228866
 10
137.919992644
 20
90.1031507433
 10
137.9300427547
 20
90.029672733
 10
137.9336074674
 20
89.9659424478
 10
137.9336714602
 20
89.9568854637
  0
LWPOLYLINE
  5
287
100
AcDbEntity
  8
RACCORDO
100
AcDbPolyline
 62
250
  6
CONTINUOUS
 90
6
 70
0
 10
136.0081947658
 20
92.1796974862
 10
135.942983159
 20
92.2183260744
 10
135.8916679584
 20
92.2618819203
 10
135.8557071857
 20
92.3091286004
 10
135.836123009
 20
92.3587248178
 10
135.8324588345
 20
92.3918291359
  0
LWPOLYLINE
  5
288
100
AcDbEntity
  8
RACCORDO
100
AcDbPolyline
 62
250
  6
CONTINUOUS
 90
6
 70
0
 10
136.0081947658
 20
93.2764534839
 10
135.9429780737
 20
93.3150858174
 10
135.8916613376
 20
93.3586450825
 10
135.8557018169
 20
93.4058943115
 10
135.8361206666
 20
93.4554917516
 10
135.8324588689
 20
93.4884839489
  0
LWPOLYLINE
  5
289
100
AcDbEntity
  8
RACCORDO
100
AcDbPolyline
 62
250
  6
CONTINUOUS
 90
5
 70
0
 10
137.2613932568
 20
91.2071100301
 10
137.3537525865
 20
91.1523789201
 10
137.4404078219
 20
91.0923969036
 10
137.5213589631
 20
91.0271639805
 10
137.5966253832
 20
90.9554960693
  0
LWPOLYLINE
  5
28A
100
AcDbEntity
  8
RACCORDO
100
AcDbPolyline
 62
250
  6
CONTINUOUS
 90
11
 70
0
 10
137.5966253832
 20
90.9554960693
 10
137.6661877091
 20
90.8785772516
 10
137.7299878208
 20
90.7999597723
 10
137.7876750947
 20
90.7205189927
 10
137.8396001544
 20
90.6393795517
 10
137.8867567516
 20
90.5574676102
 10
137.9292188348
 20
90.4755981413
 10
137.9669124555
 20
90.392956172
 10
138.000609519
 20
90.3080229447
 10
138.030974765
 20
90.2203945767
 10
138.0573434538
 20
90.1304749506
  0
LWPOLYLINE
  5
28B
100
AcDbEntity
  8
0
100
AcDbPolyline
 62
7
  6
CONTINUOUS
 90
11
 70
0
 10
144.7526549926
 20
78.8681895392
 10
144.4196080914
 20
79.5529420552
 10
144.0507864916
 20
80.210624356
 10
143.6484705407
 20
80.8387216001
 10
143.2138466987
 20
81.4354821718
 10
142.7489822678
 20
81.9970774888
 10
142.2593190593
 20
82.515998646
 10
141.7512179494
 20
82.9853713244
 10
141.2300782704
 20
83.4006073314
 10
140.7000106436
 20
83.7588192519
 10
140.1658368562
 20
84.0570031837
  0
LINE
  5
28C
100
AcDbEntity
  8
0
100
AcDbLine
 62
7
  6
CONTINUOUS
 10
145.044695034
 20
78.1653837329
 11
144.7526549926
 21
78.8681895392
  0
LWPOLYLINE
  5
28D
100
AcDbEntity
  8
RACCORDO
100
AcDbPolyline
 62
250
  6
CONTINUOUS
 90
5
 70
0
 10
138.0573434538
 20
90.1304749506
 10
138.0784932717
 20
90.037956956
 10
138.0940167809
 20
89.942738223
 10
138.1043214193
 20
89.8449211215
 10
138.1094071869
 20
89.7445056517
  0
LWPOLYLINE
  5
28E
100
AcDbEntity
  8
RACCORDO
100
AcDbPolyline
 62
250
  6
CONTINUOUS
 90
7
 70
0
 10
136.2909083155
 20
127.1993940559
 10
136.2970712432
 20
127.1142306687
 10
136.3153809787
 20
127.037704403
 10
136.3453055819
 20
126.9720385244
 10
136.3859756735
 20
126.919140779
 10
136.4362096932
 20
126.8805479689
 10
136.4466898291
 20
126.8749470487
  0
LWPOLYLINE
  5
28F
100
AcDbEntity
  8
RACCORDO
100
AcDbPolyline
 62
250
  6
CONTINUOUS
 90
7
 70
0
 10
137.2613959498
 20
126.7141502388
 10
137.2675603283
 20
126.6289773323
 10
137.2858735379
 20
126.5524461139
 10
137.3158023196
 20
126.4867794462
 10
137.3564758668
 20
126.4338843348
 10
137.4067115932
 20
126.3952960391
 10
137.4173318821
 20
126.3896259481
  0
LWPOLYLINE
  5
290
100
AcDbEntity
  8
RACCORDO
100
AcDbPolyline
 62
250
  6
CONTINUOUS
 90
16
 70
0
 10
136.0081947658
 20
127.6867390413
 10
136.0115574055
 20
127.6401384027
 10
136.0179232423
 20
127.5952617215
 10
136.0272922764
 20
127.5521089977
 10
136.0401624549
 20
127.5103941425
 10
136.0560358306
 20
127.4704032446
 10
136.0734185616
 20
127.4329945704
 10
136.0919048479
 20
127.3986337942
 10
136.1119004894
 20
127.3668552416
 10
136.1331290449
 20
127.3371201565
 10
136.1553106031
 20
127.3092915792
 10
136.1787250752
 20
127.2835064693
 10
136.2039357533
 20
127.2596369498
 10
136.2311304014
 20
127.2376403948
 10
136.2601212555
 20
127.2175594302
 10
136.2909083155
 20
127.1993940559
  0
LINE
  5
291
100
AcDbEntity
  8
RACCORDO
100
AcDbLine
 62
7
  6
CONTINUOUS
 10
137.9336712556
 20
125.4636792412
 11
137.9336712556
 21
120.4930098022
  0
LINE
  5
292
100
AcDbEntity
  8
RACCORDO
100
AcDbLine
 62
7
  6
CONTINUOUS
 10
137.9336712556
 20
89.956637686
 11
137.9336712556
 21
84.985968247
  0
LINE
  5
293
100
AcDbEntity
  8
RACCORDO
100
AcDbLine
 62
250
  6
CONTINUOUS
 10
138.1094071869
 20
125.2515472068
 11
138.1094071869
 21
120.5839531333
  0
LINE
  5
294
100
AcDbEntity
  8
RACCORDO
100
AcDbLine
 62
250
  6
CONTINUOUS
 10
138.1094071869
 20
89.7445056517
 11
138.1094071869
 21
85.0769115781
  0
LWPOLYLINE
  5
295
100
AcDbEntity
  8
RACCORDO
100
AcDbPolyline
 62
250
  6
CONTINUOUS
 90
15
 70
0
 10
141.3223314319
 20
130.3804630903
 10
141.325813737
 20
130.4363950556
 10
141.3361749029
 20
130.4944320683
 10
141.3531597967
 20
130.553145047
 10
141.3763501939
 20
130.6110882848
 10
141.4051750559
 20
130.6668349929
 10
141.4389245746
 20
130.7190124418
 10
141.4767676991
 20
130.7663358484
 10
141.5177725904
 20
130.8076399679
 10
141.5609295284
 20
130.8419077522
 10
141.6051758307
 20
130.8682954512
 10
141.6494220122
 20
130.8861533633
 10
141.6925785829
 20
130.8950418163
 10
141.7335829024
 20
130.8947420068
 10
141.7714253448
 20
130.885261376
  0
LWPOLYLINE
  5
296
100
AcDbEntity
  8
RACCORDO
100
AcDbPolyline
 62
250
  6
CONTINUOUS
 90
10
 70
0
 10
139.5388833454
 20
95.8353019244
 10
139.5449069592
 20
95.9255627831
 10
139.5628069763
 20
96.0192850389
 10
139.592075395
 20
96.1138073976
 10
139.6318814113
 20
96.2064458282
 10
139.6810948732
 20
96.2945694892
 10
139.7383182654
 20
96.3756754994
 10
139.8019266089
 20
96.4474604236
 10
139.8701136877
 20
96.5078856311
 10
139.9409431535
 20
96.5552349509
  0
LWPOLYLINE
  5
297
100
AcDbEntity
  8
0
100
AcDbPolyline
 62
7
  6
CONTINUOUS
 90
19
 70
0
 10
145.3192510114
 20
106.3037017806
 10
145.5494069636
 20
106.4480443513
 10
145.7668049041
 20
106.612785082
 10
145.9711292188
 20
106.7979290068
 10
146.1626955218
 20
107.0034710916
 10
146.3400593387
 20
107.2278888452
 10
146.5032759711
 20
107.4716195168
 10
146.6522901175
 20
107.7342258573
 10
146.7854913986
 20
108.012873628
 10
146.9025903784
 20
108.3073683843
 10
147.0038764931
 20
108.6179045709
 10
147.0886076719
 20
108.9422312832
 10
147.1567245494
 20
109.2808863522
 10
147.208286491
 20
109.6333319469
 10
147.2427295226
 20
109.9957036699
 10
147.2598656004
 20
110.3676242088
 10
147.2598827683
 20
110.7494708761
 10
147.2427811832
 20
111.1385112119
 10
147.2083743957
 20
111.5353054175
  0
LWPOLYLINE
  5
298
100
AcDbEntity
  8
0
100
AcDbPolyline
 62
7
  6
CONTINUOUS
 90
14
 70
0
 10
143.668349069
 20
105.5141339044
 10
144.0507868062
 20
105.7306079891
 10
144.4196084222
 20
106.0194687818
 10
144.7526552776
 20
106.3711744425
 10
145.0446952563
 20
106.7819402211
 10
145.2909098797
 20
107.2448754743
 10
145.4886739006
 20
107.7522635512
 10
145.6382292606
 20
108.3013159869
 10
145.7394980047
 20
108.8918361816
 10
145.7910677696
 20
109.5227126529
 10
145.7910677462
 20
110.185280369
 10
145.7394979357
 20
110.8677266138
 10
145.6382291522
 20
111.5595155348
 10
145.4886737605
 20
112.2581232969
  0
LINE
  5
299
100
AcDbEntity
  8
0
100
AcDbLine
 62
7
  6
CONTINUOUS
 10
145.1234788606
 20
106.2019737681
 11
145.3192510114
 21
106.3037017806
  0
LWPOLYLINE
  5
29A
100
AcDbEntity
  8
RACCORDO
100
AcDbPolyline
 62
250
  6
CONTINUOUS
 90
13
 70
0
 10
145.263773075
 20
106.2682908374
 10
145.3233177213
 20
106.2972452329
 10
145.6644523786
 20
106.4968198077
 10
145.9801622335
 20
106.7415255276
 10
146.2683996328
 20
107.029775146
 10
146.5272955004
 20
107.3596993792
 10
146.7551710641
 20
107.7291589485
 10
146.9505485027
 20
108.1357581361
 10
147.1121604881
 20
108.5768598674
 10
147.2389587365
 20
109.0496031384
 10
147.3301208876
 20
109.5509219025
 10
147.3850557503
 20
110.0775650388
 10
147.4034070445
 20
110.6261170702
  0
LINE
  5
29B
100
AcDbEntity
  8
DRAFT
100
AcDbLine
 62
7
  6
CONTINUOUS
 10
149.4169989684
 20
108.2315207312
 11
145.263773075
 21
106.2682908374
  0
LINE
  5
29C
100
AcDbEntity
  8
0
100
AcDbLine
 62
7
  6
CONTINUOUS
 10
145.1233114224
 20
106.2018946137
 11
143.668349069
 21
105.5141339044
  0
LINE
  5
29D
100
AcDbEntity
  8
RACCORDO
100
AcDbLine
 62
7
  6
CONTINUOUS
 10
145.207578551
 20
106.2456740305
 11
145.263773075
 21
106.2682908374
  0
LINE
  5
29E
100
AcDbEntity
  8
RACCORDO
100
AcDbLine
 62
250
  6
CONTINUOUS
 10
151.9731484836
 20
90.6671838834
 11
151.9186190066
 21
90.6526346271
  0
LWPOLYLINE
  5
29F
100
AcDbEntity
  8
RACCORDO
100
AcDbPolyline
 62
250
  6
CONTINUOUS
 90
3
 70
0
 10
151.9186190066
 20
90.6526346271
 10
151.8609372469
 20
90.6387916411
 10
151.8001032047
 20
90.6256549254
  0
LWPOLYLINE
  5
2A0
100
AcDbEntity
  8
RACCORDO
100
AcDbPolyline
 62
7
  6
CONTINUOUS
 90
12
 70
0
 10
151.7697686193
 20
90.6861059363
 10
151.7280728893
 20
90.6776717432
 10
151.6734603959
 20
90.6648154508
 10
151.6209919948
 20
90.649922207
 10
151.5715528283
 20
90.6341036602
 10
151.52501329
 20
90.6181341309
 10
151.4817100301
 20
90.6029198546
 10
151.444092067
 20
90.5898972296
 10
151.4121394411
 20
90.5794035804
 10
151.3854802584
 20
90.5714436703
 10
151.366101945
 20
90.5664455155
 10
151.3565992871
 20
90.5643949497
  0
LINE
  5
2A1
100
AcDbEntity
  8
RACCORDO
100
AcDbLine
 62
7
  6
CONTINUOUS
 10
151.3558151696
 20
90.5642436707
 11
151.3565992879
 21
90.5643949498
  0
LWPOLYLINE
  5
2A2
100
AcDbEntity
  8
RACCORDO
100
AcDbPolyline
 62
250
  6
CONTINUOUS
 90
13
 70
0
 10
151.1491866429
 20
90.0301502757
 10
151.1347081676
 20
90.0276679924
 10
151.1197922113
 20
90.0260227573
 10
151.1044387738
 20
90.0252145702
 10
151.0887246795
 20
90.025168164
 10
151.072573104
 20
90.0259588059
 10
151.0557535751
 20
90.0278122973
 10
151.0382398157
 20
90.0306783229
 10
151.0200581028
 20
90.034607198
 10
151.0010567946
 20
90.0399756708
 10
150.9811853438
 20
90.046909324
 10
150.9604942976
 20
90.0552825747
 10
150.938983656
 20
90.0650954231
  0
LWPOLYLINE
  5
2A3
100
AcDbEntity
  8
RACCORDO
100
AcDbPolyline
 62
250
  6
CONTINUOUS
 90
5
 70
0
 10
151.1491866429
 20
65.2352815287
 10
151.1654120812
 20
65.1955774329
 10
151.1825947176
 20
65.1576900872
 10
151.2006384484
 20
65.1216807099
 10
151.2194311666
 20
65.0876029817
  0
LINE
  5
2A4
100
AcDbEntity
  8
0
100
AcDbLine
 62
7
  6
CONTINUOUS
 10
145.2909097072
 20
77.456233823
 11
145.044695034
 21
78.1653837329
  0
LINE
  5
2A5
100
AcDbEntity
  8
0
100
AcDbLine
 62
7
  6
CONTINUOUS
 10
145.4886737605
 20
76.7510817417
 11
145.2909097072
 21
77.456233823
  0
LWPOLYLINE
  5
2A6
100
AcDbEntity
  8
0
100
AcDbPolyline
 62
7
  6
CONTINUOUS
 90
20
 70
0
 10
144.4196018445
 20
74.8026693894
 10
144.3780453927
 20
75.2754124887
 10
144.3095946561
 20
75.7541657146
 10
144.2138031123
 20
76.2390607058
 10
144.0911172838
 20
76.7299658236
 10
143.9435394806
 20
77.2187177661
 10
143.7706121809
 20
77.705343348
 10
143.5727929065
 20
78.1898157545
 10
143.3534565326
 20
78.6638912399
 10
143.1122728612
 20
79.1273063177
 10
142.8495720903
 20
79.5803244745
 10
142.5697196893
 20
80.0154924243
 10
142.272445875
 20
80.4325122422
 10
141.9580204306
 20
80.8316818531
 10
141.6316181746
 20
81.2064417454
 10
141.2930450626
 20
81.5564025106
 10
140.9424951391
 20
81.8819535571
 10
140.585725356
 20
82.1777035986
 10
140.2246546972
 20
82.4418555396
 10
139.8573641788
 20
82.6762064756
  0
LWPOLYLINE
  5
2A7
100
AcDbEntity
  8
RACCORDO
100
AcDbPolyline
 62
250
  6
CONTINUOUS
 90
15
 70
0
 10
141.3223314319
 20
94.8734215351
 10
141.325813737
 20
94.9293535004
 10
141.3361749029
 20
94.9873905131
 10
141.3531597967
 20
95.0461034918
 10
141.3763501939
 20
95.1040467297
 10
141.4051750559
 20
95.1597934378
 10
141.4389245746
 20
95.2119708867
 10
141.4767676991
 20
95.2592942932
 10
141.5177725904
 20
95.3005984128
 10
141.5609295284
 20
95.3348661971
 10
141.6051758307
 20
95.361253896
 10
141.6494220122
 20
95.3791118082
 10
141.6925785829
 20
95.3880002611
 10
141.7335829024
 20
95.3877004516
 10
141.7714253448
 20
95.3782198208
  0
LWPOLYLINE
  5
2A8
100
AcDbEntity
  8
RACCORDO
100
AcDbPolyline
 62
250
  6
CONTINUOUS
 90
5
 70
0
 10
152.3509199238
 20
90.8229485223
 10
152.3020297757
 20
90.8423629663
 10
152.255074879
 20
90.8509013676
 10
152.2114819345
 20
90.8483042768
 10
152.1691722007
 20
90.8327934497
  0
LWPOLYLINE
  5
2A9
100
AcDbEntity
  8
RACCORDO
100
AcDbPolyline
 62
250
  6
CONTINUOUS
 90
28
 70
0
 10
139.5388833454
 20
95.8353019244
 10
139.2636237377
 20
95.9573361841
 10
138.99725081
 20
96.0531988509
 10
138.7397645621
 20
96.1228899248
 10
138.4902099045
 20
96.1651561282
 10
138.2495419267
 20
96.1812507387
 10
138.0206258977
 20
96.1749335895
 10
137.8031208937
 20
96.1452108414
 10
137.5973678383
 20
96.0930763336
 10
137.4072547716
 20
96.0252714165
 10
137.2345962838
 20
95.9417976246
 10
137.0775777847
 20
95.8426534233
 10
136.9346435429
 20
95.7345755596
 10
136.8063177618
 20
95.6185695171
 10
136.6920762381
 20
95.4936298121
 10
136.5887906309
 20
95.3634767409
 10
136.4963399115
 20
95.229219207
 10
136.4148451085
 20
95.0897483068
 10
136.341540967
 20
94.9454576262
 10
136.2760751426
 20
94.7979244979
 10
136.2187999795
 20
94.645571589
 10
136.168007256
 20
94.4840604868
 10
136.1226746366
 20
94.3133354798
 10
136.0838244567
 20
94.1334522795
 10
136.0528155012
 20
93.9402396076
 10
136.0301006983
 20
93.732307038
 10
136.0152271199
 20
93.5110449967
 10
136.0081947658
 20
93.2764534839
  0
LINE
  5
2AA
100
AcDbEntity
  8
RACCORDO
100
AcDbLine
 62
250
  6
CONTINUOUS
 10
141.7714253448
 20
95.3782198208
 11
141.7840539237
 21
95.3726165971
  0
LINE
  5
2AB
100
AcDbEntity
  8
RACCORDO
100
AcDbLine
 62
250
  6
CONTINUOUS
 10
150.938983656
 20
90.0650954231
 11
141.3223314319
 21
94.8734215351
  0
LINE
  5
2AC
100
AcDbEntity
  8
RACCORDO
100
AcDbLine
 62
250
  6
CONTINUOUS
 10
152.7224317426
 20
89.2435277258
 11
151.1491866429
 21
90.0301502757
  0
LINE
  5
2AD
100
AcDbEntity
  8
RACCORDO
100
AcDbLine
 62
250
  6
CONTINUOUS
 10
141.1121284451
 20
95.0486793746
 11
139.5388833454
 21
95.8353019244
  0
LINE
  5
2AE
100
AcDbEntity
  8
RACCORDO
100
AcDbLine
 62
7
  6
CONTINUOUS
 10
151.3860559795
 20
90.5716155693
 11
141.7840595826
 21
95.3726137678
  0
LINE
  5
2AF
100
AcDbEntity
  8
RACCORDO
100
AcDbLine
 62
250
  6
CONTINUOUS
 10
139.9409431483
 20
96.5552349535
 11
141.2653314892
 21
95.8930407831
  0
LINE
  5
2B0
100
AcDbEntity
  8
RACCORDO
100
AcDbLine
 62
250
  6
CONTINUOUS
 10
151.8001032047
 20
90.6256549254
 11
153.1244915456
 21
89.9634607549
  0
LWPOLYLINE
  5
2B1
100
AcDbEntity
  8
RACCORDO
100
AcDbPolyline
 62
250
  6
CONTINUOUS
 90
13
 70
0
 10
141.3223314319
 20
94.8734215351
 10
141.3036178547
 20
94.8834107671
 10
141.2852960525
 20
94.8941170859
 10
141.2673660253
 20
94.9055404917
 10
141.2499457569
 20
94.9176151226
 10
141.2329172636
 20
94.9304068404
 10
141.2159265937
 20
94.9441132305
 10
141.1989276347
 20
94.9586992467
 10
141.1819664991
 20
94.9741999351
 10
141.1648275737
 20
94.9909180197
 10
141.1474389874
 20
95.0089544085
 10
141.1298726111
 20
95.0282081935
 10
141.1121284451
 20
95.0486793746
  0
LWPOLYLINE
  5
2B2
100
AcDbEntity
  8
RACCORDO
100
AcDbPolyline
 62
7
  6
CONTINUOUS
 90
4
 70
0
 10
141.7840538488
 20
95.3726166345
 10
141.7790899929
 20
95.3753417712
 10
141.7711801966
 20
95.3804011935
 10
141.7675592722
 20
95.3829467572
  0
LWPOLYLINE
  5
2B3
100
AcDbEntity
  8
RACCORDO
100
AcDbPolyline
 62
250
  6
CONTINUOUS
 90
10
 70
0
 10
141.6028968498
 20
96.1969600594
 10
141.6522368599
 20
96.1672594065
 10
141.7005274756
 20
96.1281750087
 10
141.7463014111
 20
96.0808944257
 10
141.7881678484
 20
96.0268542541
 10
141.8248546972
 20
95.9676964772
 10
141.855247246
 20
95.905218574
 10
141.8784220326
 20
95.841318904
 10
141.8936749029
 20
95.7779390263
 10
141.9005424061
 20
95.7170047066
  0
LINE
  5
2B4
100
AcDbEntity
  8
RACCORDO
100
AcDbLine
 62
7
  6
CONTINUOUS
 10
141.767568453
 20
95.3829399567
 11
141.7671294604
 21
95.3832576249
  0
LINE
  5
2B5
100
AcDbEntity
  8
RACCORDO
100
AcDbLine
 62
250
  6
CONTINUOUS
 10
142.595123638
 20
95.213610521
 11
141.9005424061
 21
95.7170047066
  0
LWPOLYLINE
  5
2B6
100
AcDbEntity
  8
RACCORDO
100
AcDbPolyline
 62
250
  6
CONTINUOUS
 90
8
 70
0
 10
141.7671294604
 20
95.3832576249
 10
141.7579719953
 20
95.3901120088
 10
141.7484017021
 20
95.3977250657
 10
141.7386639519
 20
95.4059266567
 10
141.7287614231
 20
95.4147179371
 10
141.7185135204
 20
95.4242719023
 10
141.7078810259
 20
95.4346592327
 10
141.6969523677
 20
95.4458322714
  0
LINE
  5
2B7
100
AcDbEntity
  8
RACCORDO
100
AcDbLine
 62
250
  6
CONTINUOUS
 10
141.6969523677
 20
95.4458322714
 11
141.6857520468
 21
95.4577995698
  0
LWPOLYLINE
  5
2B8
100
AcDbEntity
  8
RACCORDO
100
AcDbPolyline
 62
250
  6
CONTINUOUS
 90
31
 70
0
 10
141.6857520468
 20
95.4577995698
 10
141.6760536567
 20
95.4686677009
 10
141.6671185653
 20
95.4792637225
 10
141.6589283735
 20
95.4895619559
 10
141.6514725951
 20
95.4995315401
 10
141.6447243104
 20
95.5091565978
 10
141.6386406653
 20
95.5184364899
 10
141.6332086596
 20
95.5273462873
 10
141.6284047501
 20
95.5358734036
 10
141.6241717328
 20
95.5440385966
 10
141.6204959058
 20
95.5518217682
 10
141.6173575635
 20
95.5592141023
 10
141.6146933897
 20
95.5662564388
 10
141.6124884916
 20
95.5729354656
 10
141.61072949
 20
95.5792433281
 10
141.6093594186
 20
95.5852322495
 10
141.6083631631
 20
95.5908964536
 10
141.607733621
 20
95.5962269534
 10
141.6074302816
 20
95.6012739594
 10
141.6074390354
 20
95.6060371473
 10
141.6077573477
 20
95.6105068003
 10
141.6083660759
 20
95.6147211908
 10
141.6092525266
 20
95.6186840968
 10
141.6104172573
 20
95.6223849435
 10
141.6118641321
 20
95.6258419494
 10
141.6135816016
 20
95.6290625321
 10
141.6155722675
 20
95.6320345547
 10
141.6178631454
 20
95.634747751
 10
141.6204610041
 20
95.6371975834
 10
141.6233517389
 20
95.6393850442
 10
141.6265317324
 20
95.6413085171
  0
LWPOLYLINE
  5
2B9
100
AcDbEntity
  8
RACCORDO
100
AcDbPolyline
 62
250
  6
CONTINUOUS
 90
31
 70
0
 10
141.1121284451
 20
95.0486793746
 10
141.0975559746
 20
95.0892099543
 10
141.0852078142
 20
95.129514538
 10
141.0749878602
 20
95.1694358038
 10
141.0668099254
 20
95.2088209236
 10
141.0605603349
 20
95.2475441737
 10
141.0560992829
 20
95.2855070113
 10
141.0533276236
 20
95.3225897567
 10
141.0521415822
 20
95.3587058399
 10
141.0523987872
 20
95.3938237807
 10
141.0540046023
 20
95.4278502949
 10
141.0568653604
 20
95.4607387989
 10
141.0608534377
 20
95.4925406817
 10
141.0658814794
 20
95.5231881841
 10
141.0718769849
 20
95.5526601632
 10
141.0787557881
 20
95.5810810632
 10
141.0864450619
 20
95.608405337
 10
141.0948926298
 20
95.6346176762
 10
141.104069938
 20
95.6598782271
 10
141.1139188045
 20
95.6841487355
 10
141.1244037096
 20
95.7074110762
 10
141.1355536262
 20
95.729832519
 10
141.1473198342
 20
95.751369745
 10
141.1596799964
 20
95.7719915544
 10
141.1727223662
 20
95.7918462361
 10
141.1864050765
 20
95.8108717411
 10
141.2007091264
 20
95.8290142607
 10
141.2157705654
 20
95.8463814348
 10
141.2316151478
 20
95.8629339513
 10
141.2481496702
 20
95.8785190542
 10
141.2653314892
 20
95.8930407831
  0
LINE
  5
2BA
100
AcDbEntity
  8
RACCORDO
100
AcDbLine
 62
7
  6
CONTINUOUS
 10
142.595123638
 20
95.213610521
 11
142.595123638
 21
96.1088778239
  0
LINE
  5
2BB
100
AcDbEntity
  8
RACCORDO
100
AcDbLine
 62
7
  6
CONTINUOUS
 10
142.595123638
 20
130.7206520762
 11
142.595123638
 21
131.6159193791
  0
LWPOLYLINE
  5
2BC
100
AcDbEntity
  8
0
100
AcDbPolyline
 62
7
  6
CONTINUOUS
 90
4
 70
0
 10
144.3780453813
 20
108.9745945464
 10
144.4196018389
 20
109.4057811959
 10
144.4336012691
 20
109.8507463573
 10
144.4196018445
 20
110.3097109446
  0
LINE
  5
2BD
100
AcDbEntity
  8
0
100
AcDbLine
 62
7
  6
CONTINUOUS
 10
144.3095946371
 20
108.5642920532
 11
144.3780453813
 21
108.9745945464
  0
LWPOLYLINE
  5
2BE
100
AcDbEntity
  8
RACCORDO
100
AcDbPolyline
 62
250
  6
CONTINUOUS
 90
16
 70
0
 10
141.2653314892
 20
95.8930407831
 10
141.2765956758
 20
95.9122259476
 10
141.2892674946
 20
95.9315504141
 10
141.3033469457
 20
95.9510141827
 10
141.3187405244
 20
95.9705806454
 10
141.3355417353
 20
95.99028641
 10
141.3540310929
 20
96.0102413003
 10
141.374247666
 20
96.0305193844
 10
141.3961523857
 20
96.051046594
 10
141.4199085597
 20
96.071710548
 10
141.4455245466
 20
96.0925249371
 10
141.4729919877
 20
96.1134760706
 10
141.5024491154
 20
96.1344104949
 10
141.533942007
 20
96.1552770589
 10
141.5674245852
 20
96.1761269137
 10
141.6028968498
 20
96.1969600594
  0
LWPOLYLINE
  5
2BF
100
AcDbEntity
  8
RACCORDO
100
AcDbPolyline
 62
250
  6
CONTINUOUS
 90
13
 70
0
 10
141.1121284449
 20
95.0486793749
 10
141.1436539541
 20
95.0951360652
 10
141.1842783901
 20
95.1450330709
 10
141.2325307645
 20
95.196563354
 10
141.2866643921
 20
95.2478601452
 10
141.3447187892
 20
95.2970662796
 10
141.4045909775
 20
95.3424010786
 10
141.4641139985
 20
95.3822217577
 10
141.5211326631
 20
95.415086362
 10
141.5735811445
 20
95.4398065544
 10
141.6195607507
 20
95.4554867728
 10
141.6574078146
 20
95.4615577569
 10
141.6857520465
 20
95.4577995702
  0
LWPOLYLINE
  5
2C0
100
AcDbEntity
  8
RACCORDO
100
AcDbPolyline
 62
7
  6
CONTINUOUS
 90
13
 70
0
 10
137.2584059209
 20
96.6132747911
 10
137.0629078779
 20
96.478088455
 10
136.8507596646
 20
96.2969220783
 10
136.6561712834
 20
96.0910506062
 10
136.4804378993
 20
95.8619124054
 10
136.324382398
 20
95.6106295716
 10
136.1889949891
 20
95.3389942644
 10
136.0748534954
 20
95.0485039458
 10
135.9822725022
 20
94.74032154
 10
135.911596235
 20
94.4156711503
 10
135.8631404744
 20
94.0757997472
 10
135.8371743844
 20
93.7221995064
 10
135.8324588689
 20
93.4884839472
  0
LINE
  5
2C1
100
AcDbEntity
  8
RACCORDO
100
AcDbLine
 62
7
  6
CONTINUOUS
 10
137.2583869928
 20
96.6132766566
 11
138.3607065379
 21
97.3000684947
  0
LINE
  5
2C2
100
AcDbEntity
  8
RACCORDO
100
AcDbLine
 62
250
  6
CONTINUOUS
 10
139.9409431483
 20
96.5552349535
 11
141.0340619539
 21
97.2362942221
  0
LWPOLYLINE
  5
2C3
100
AcDbEntity
  8
RACCORDO
100
AcDbPolyline
 62
7
  6
CONTINUOUS
 90
7
 70
0
 10
158.637779199
 20
109.1577886228
 10
158.6845344729
 20
109.1868089516
 10
158.7647413488
 20
109.2464615965
 10
158.8359366897
 20
109.3132501345
 10
158.897531386
 20
109.3865628455
 10
158.9484355715
 20
109.4647166808
 10
158.9641267701
 20
109.4938759012
  0
LINE
  5
2C4
100
AcDbEntity
  8
RACCORDO
100
AcDbLine
 62
250
  6
CONTINUOUS
 10
158.8115019858
 20
109.4932516652
 11
158.3636048585
 21
109.2330654029
  0
LINE
  5
2C5
100
AcDbEntity
  8
RACCORDO
100
AcDbLine
 62
7
  6
CONTINUOUS
 10
158.637779199
 20
109.1577886228
 11
158.1703933745
 21
108.8864689127
  0
LINE
  5
2C6
100
AcDbEntity
  8
RACCORDO
100
AcDbLine
 62
7
  6
CONTINUOUS
 10
157.6605552196
 20
108.8696616798
 11
156.4540778609
 21
108.2572737467
  0
LINE
  5
2C7
100
AcDbEntity
  8
RACCORDO
100
AcDbLine
 62
250
  6
CONTINUOUS
 10
154.9853709858
 20
106.0392227307
 11
156.1715738368
 21
106.6413196592
  0
LINE
  5
2C8
100
AcDbEntity
  8
RACCORDO
100
AcDbLine
 62
250
  6
CONTINUOUS
 10
155.4093766044
 20
105.3079212147
 11
156.5955794553
 21
105.9100181433
  0
LWPOLYLINE
  5
2C9
100
AcDbEntity
  8
RACCORDO
100
AcDbPolyline
 62
250
  6
CONTINUOUS
 90
10
 70
0
 10
141.2653315046
 20
95.8930408108
 10
141.3150214919
 20
95.883776138
 10
141.3641236705
 20
95.8689633791
 10
141.4118106825
 20
95.8488521148
 10
141.4572790152
 20
95.8237812038
 10
141.4997625331
 20
95.7941730766
 10
141.5385453893
 20
95.7605266204
 10
141.5729740954
 20
95.7234087667
 10
141.6024685317
 20
95.6834449368
 10
141.6265317168
 20
95.641308509
  0
LWPOLYLINE
  5
2CA
100
AcDbEntity
  8
RACCORDO
100
AcDbPolyline
 62
250
  6
CONTINUOUS
 90
12
 70
0
 10
139.9409430102
 20
96.5552348675
 10
139.6334052497
 20
96.6927666181
 10
139.333139448
 20
96.7989547829
 10
139.0417359765
 20
96.8747203842
 10
138.7604910293
 20
96.9211599183
 10
138.4906763007
 20
96.9395298798
 10
138.2335263932
 20
96.9312808024
 10
137.9885593894
 20
96.8976963861
 10
137.7577320548
 20
96.840428492
 10
137.5451238372
 20
96.7627701522
 10
137.3515358437
 20
96.6680909338
 10
137.2589432079
 20
96.6136233218
  0
LINE
  5
2CB
100
AcDbEntity
  8
RACCORDO
100
AcDbLine
 62
7
  6
CONTINUOUS
 10
154.3385229712
 20
90.5840637134
 11
153.0603039996
 21
91.2231731992
  0
LINE
  5
2CC
100
AcDbEntity
  8
RACCORDO
100
AcDbLine
 62
7
  6
CONTINUOUS
 10
142.3122809256
 20
96.5971847362
 11
141.0340619539
 21
97.2362942221
  0
LWPOLYLINE
  5
2CD
100
AcDbEntity
  8
RACCORDO
100
AcDbPolyline
 62
250
  6
CONTINUOUS
 90
4
 70
0
 10
159.1308468656
 20
82.1381342094
 10
159.1865550059
 20
82.0845086177
 10
159.2348425835
 20
82.0259856381
 10
159.2751524211
 20
81.9634668717
  0
LWPOLYLINE
  5
2CE
100
AcDbEntity
  8
RACCORDO
100
AcDbPolyline
 62
250
  6
CONTINUOUS
 90
5
 70
0
 10
138.0573434538
 20
125.6375165057
 10
138.0784932717
 20
125.5449985112
 10
138.0940167809
 20
125.4497797782
 10
138.1043214193
 20
125.3519626767
 10
138.1094071869
 20
125.2515472068
  0
LWPOLYLINE
  5
2CF
100
AcDbEntity
  8
0
100
AcDbPolyline
 62
7
  6
CONTINUOUS
 90
26
 70
0
 10
147.1568488553
 20
76.4322517365
 10
147.0887640676
 20
76.8390202156
 10
147.0040609016
 20
77.2480958443
 10
146.9027984883
 20
77.659952078
 10
146.7857137265
 20
78.0715962188
 10
146.6525148264
 20
78.4835169692
 10
146.5034935777
 20
78.8952256266
 10
146.3402622489
 20
79.3022633856
 10
146.1628747131
 20
79.7041367408
 10
145.971277097
 20
80.1013391975
 10
145.76692005
 20
80.4908924666
 10
145.5494873215
 20
80.873105456
 10
145.319295162
 20
81.2476692577
 10
145.0787429715
 20
81.6106788587
 10
144.8279395611
 20
81.9617232201
 10
144.5667761197
 20
82.3012133808
 10
144.2973256134
 20
82.6264774439
 10
144.0193354377
 20
82.9376074462
 10
143.7330581971
 20
83.234511351
 10
143.4413246714
 20
83.5142411518
 10
143.1442202668
 20
83.7765040231
 10
142.8416595771
 20
84.0215927904
 10
142.5362171638
 20
84.247437923
 10
142.2287512142
 20
84.4533495774
 10
141.9184035411
 20
84.6400175971
 10
141.6051741444
 20
84.8074419821
  0
LWPOLYLINE
  5
2D0
100
AcDbEntity
  8
RACCORDO
100
AcDbPolyline
 62
250
  6
CONTINUOUS
 90
18
 70
0
 10
147.3301209265
 20
76.2675565269
 10
147.2389590036
 20
76.8600362942
 10
147.1121613967
 20
77.4595754868
 10
146.9505505111
 20
78.0622862137
 10
146.7551741986
 20
78.6642607353
 10
146.5272992638
 20
79.2615955795
 10
146.2684036606
 20
79.8504162723
 10
145.9801666593
 20
80.4269035372
 10
145.6644577148
 20
80.9873184979
 10
145.3233242513
 20
81.5280268807
 10
144.9589786685
 20
82.0455220296
 10
144.573783788
 20
82.5364479793
 10
144.170237843
 20
82.9976208095
 10
143.7509583299
 20
83.4260493687
 10
143.31866567
 20
83.8189542583
 10
142.8761622914
 20
84.173788763
 10
142.4263145753
 20
84.4882540434
 10
141.9720385966
 20
84.760310588
  0
LINE
  5
2D1
100
AcDbEntity
  8
0
100
AcDbLine
 62
7
  6
CONTINUOUS
 10
147.2083743957
 20
76.0282638623
 11
147.1568488553
 21
76.4322517365
  0
LWPOLYLINE
  5
2D2
100
AcDbEntity
  8
0
100
AcDbPolyline
 62
7
  6
CONTINUOUS
 90
20
 70
0
 10
144.4196018445
 20
110.3097109446
 10
144.3780453927
 20
110.7824540439
 10
144.3095946561
 20
111.2612072697
 10
144.2138031123
 20
111.746102261
 10
144.0911172838
 20
112.2370073788
 10
143.9435394806
 20
112.7257593213
 10
143.7706121809
 20
113.2123849031
 10
143.5727929065
 20
113.6968573096
 10
143.3534565326
 20
114.1709327951
 10
143.1122728612
 20
114.6343478729
 10
142.8495720903
 20
115.0873660297
 10
142.5697196893
 20
115.5225339794
 10
142.272445875
 20
115.9395537974
 10
141.9580204306
 20
116.3387234083
 10
141.6316181746
 20
116.7134833006
 10
141.2930450626
 20
117.0634440657
 10
140.9424951391
 20
117.3889951123
 10
140.585725356
 20
117.6847451538
 10
140.2246546972
 20
117.9488970948
 10
139.8573641788
 20
118.1832480308
  0
LWPOLYLINE
  5
2D3
100
AcDbEntity
  8
RACCORDO
100
AcDbPolyline
 62
250
  6
CONTINUOUS
 90
3
 70
0
 10
147.4034070445
 20
75.1190755151
 10
147.3850557399
 20
75.6859790038
 10
147.3301209265
 20
76.2675565269
  0
LWPOLYLINE
  5
2D4
100
AcDbEntity
  8
0
100
AcDbPolyline
 62
7
  6
CONTINUOUS
 90
4
 70
0
 10
144.3780453813
 20
73.4675529913
 10
144.4196018389
 20
73.8987396407
 10
144.4336012691
 20
74.3437048022
 10
144.4196018445
 20
74.8026693894
  0
LWPOLYLINE
  5
2D5
100
AcDbEntity
  8
RACCORDO
100
AcDbPolyline
 62
250
  6
CONTINUOUS
 90
10
 70
0
 10
158.444464262
 20
117.2084788648
 10
158.4384116293
 20
117.1988120802
 10
158.4312621603
 20
117.1893484485
 10
158.4230158552
 20
117.1800879696
 10
158.4136678641
 20
117.1710055334
 10
158.4032230368
 20
117.16212625
 10
158.3916959231
 20
117.15352545
 10
158.3790913727
 20
117.1452282436
 10
158.3654045359
 20
117.1372095206
 10
158.3506354126
 20
117.129469281
  0
LWPOLYLINE
  5
2D6
100
AcDbEntity
  8
RACCORDO
100
AcDbPolyline
 62
250
  6
CONTINUOUS
 90
3
 70
0
 10
158.8773127651
 20
109.5388016384
 10
158.8457439281
 20
109.5156569815
 10
158.8115019858
 20
109.4932516652
  0
LINE
  5
2D7
100
AcDbEntity
  8
RACCORDO
100
AcDbLine
 62
250
  6
CONTINUOUS
 10
141.6028968498
 20
96.1969600594
 11
142.3122809256
 21
96.5971847362
  0
LINE
  5
2D8
100
AcDbEntity
  8
RACCORDO
100
AcDbLine
 62
250
  6
CONTINUOUS
 10
141.9005424061
 20
95.7170047066
 11
142.595123638
 21
96.1088778239
  0
LWPOLYLINE
  5
2D9
100
AcDbEntity
  8
RACCORDO
100
AcDbPolyline
 62
250
  6
CONTINUOUS
 90
16
 70
0
 10
141.6265317324
 20
95.6413085171
 10
141.637710598
 20
95.6468668291
 10
141.6497541399
 20
95.6523945288
 10
141.6626763091
 20
95.6578748973
 10
141.6764463235
 20
95.6632643663
 10
141.6911171569
 20
95.6685689062
 10
141.7068441554
 20
95.6738453293
 10
141.7237077372
 20
95.6790859292
 10
141.7416859852
 20
95.6842514108
 10
141.7607990421
 20
95.6893479195
 10
141.7810822554
 20
95.6943372659
 10
141.802554356
 20
95.6991911823
 10
141.8252141403
 20
95.7039247384
 10
141.8490790696
 20
95.7085126
 10
141.8741815563
 20
95.7128896706
 10
141.9005424061
 20
95.7170047066
  0
LINE
  5
2DA
100
AcDbEntity
  8
RACCORDO
100
AcDbLine
 62
250
  6
CONTINUOUS
 10
157.586110306
 20
105.4147527179
 11
156.3798642387
 21
104.8226773976
  0
LINE
  5
2DB
100
AcDbEntity
  8
RACCORDO
100
AcDbLine
 62
250
  6
CONTINUOUS
 10
158.2928941804
 20
104.1963902544
 11
157.0788627547
 21
103.600493559
  0
LINE
  5
2DC
100
AcDbEntity
  8
RACCORDO
100
AcDbLine
 62
250
  6
CONTINUOUS
 10
157.0788627547
 20
102.5037375613
 11
158.2928941804
 21
102.9762534084
  0
LWPOLYLINE
  5
2DD
100
AcDbEntity
  8
RACCORDO
100
AcDbPolyline
 62
250
  6
CONTINUOUS
 90
6
 70
0
 10
151.8000975256
 20
90.6256644965
 10
151.7851841283
 20
90.6487022045
 10
151.770770841
 20
90.6656466407
 10
151.7571005854
 20
90.6762125029
 10
151.7444040706
 20
90.6802220574
 10
151.7392440631
 20
90.6798996222
  0
LWPOLYLINE
  5
2DE
100
AcDbEntity
  8
RACCORDO
100
AcDbPolyline
 62
250
  6
CONTINUOUS
 90
7
 70
0
 10
150.938983656
 20
65.4105393682
 10
150.9424659611
 20
65.3580897083
 10
150.9528271269
 20
65.3104138617
 10
150.9698120205
 20
65.2686857769
 10
150.9930024174
 20
65.2339329363
 10
151.0218272792
 20
65.2070110902
 10
151.0429409303
 20
65.194189848
  0
LWPOLYLINE
  5
2DF
100
AcDbEntity
  8
RACCORDO
100
AcDbPolyline
 62
250
  6
CONTINUOUS
 90
3
 70
0
 10
147.4034070445
 20
110.6261170702
 10
147.3850557399
 20
111.193020559
 10
147.3301209265
 20
111.774598082
  0
LWPOLYLINE
  5
2E0
100
AcDbEntity
  8
RACCORDO
100
AcDbPolyline
 62
250
  6
CONTINUOUS
 90
15
 70
0
 10
150.938983656
 20
125.5721369782
 10
150.9424659192
 20
125.6280685981
 10
150.9528269637
 20
125.686105259
 10
150.9698116664
 20
125.7448179058
 10
150.9930018074
 20
125.8027608381
 10
151.0218263685
 20
125.8585073088
 10
151.0555755934
 20
125.9106846546
 10
151.0934184641
 20
125.9580080962
 10
151.1344231636
 20
125.9993123735
 10
151.1775800201
 20
126.0335804379
 10
151.2218263685
 20
126.059968496
 10
151.2660727169
 20
126.0778267863
 10
151.3092295734
 20
126.0867155783
 10
151.3502342729
 20
126.0864160006
 10
151.3880771436
 20
126.0769354297
  0
LINE
  5
2E1
100
AcDbEntity
  8
0
100
AcDbLine
 62
7
  6
CONTINUOUS
 10
144.3095946371
 20
73.0572504981
 11
144.3780453813
 21
73.4675529913
  0
LWPOLYLINE
  5
2E2
100
AcDbEntity
  8
RACCORDO
100
AcDbPolyline
 62
250
  6
CONTINUOUS
 90
4
 70
0
 10
151.149186643
 20
100.7423230836
 10
151.1279032384
 20
100.7009874455
 10
151.1176340878
 20
100.6662680826
 10
151.1187507675
 20
100.6394223265
  0
LINE
  5
2E3
100
AcDbEntity
  8
RACCORDO
100
AcDbLine
 62
250
  6
CONTINUOUS
 10
158.444464262
 20
117.2084788648
 11
158.7827708026
 21
117.8055333385
  0
LINE
  5
2E4
100
AcDbEntity
  8
RACCORDO
100
AcDbLine
 62
250
  6
CONTINUOUS
 10
159.0092131558
 20
116.6041311439
 11
159.3475196959
 21
117.2011856171
  0
LWPOLYLINE
  5
2E5
100
AcDbEntity
  8
RACCORDO
100
AcDbPolyline
 62
250
  6
CONTINUOUS
 90
36
 70
0
 10
141.0697146337
 20
86.6415154671
 10
141.1582014208
 20
86.7702357445
 10
141.4243387784
 20
87.0803826931
 10
141.7173342539
 20
87.3513335084
 10
142.0366762914
 20
87.5836115366
 10
142.3769702188
 20
87.7732444808
 10
142.7385355895
 20
87.9194784698
 10
143.12105285
 20
88.0230673749
 10
143.5181686678
 20
88.0823005123
 10
143.9301366624
 20
88.096440311
 10
144.3567032143
 20
88.0662243422
 10
144.7907541324
 20
87.9921546351
 10
145.2324128741
 20
87.8734957126
 10
145.6815559819
 20
87.7109830518
 10
146.1306988931
 20
87.5073251146
 10
146.5798416576
 20
87.2618326096
 10
147.0289842254
 20
86.9751948281
 10
147.4706418841
 20
86.6521881054
 10
147.9046910159
 20
86.2922005789
 10
148.3312552386
 20
85.8958441112
 10
148.7432206936
 20
85.4697306254
 10
149.1403340497
 20
85.0133757711
 10
149.5228486381
 20
84.5272638987
 10
149.8844105935
 20
84.0194599832
 10
150.2246999071
 20
83.4895304579
 10
150.5440365878
 20
82.9379088894
 10
150.8370267966
 20
82.3739609526
 10
151.1031594543
 20
81.7976737778
 10
151.34294564
 20
81.2090602347
 10
151.5525247526
 20
80.6175246075
 10
151.7314794259
 20
80.0221525096
 10
151.880227026
 20
79.4238583276
 10
151.9961590498
 20
78.8347895057
 10
152.0784059961
 20
78.2589951917
 10
152.127837366
 20
77.6924262378
 10
152.1444531595
 20
77.1350826439
  0
LWPOLYLINE
  5
2E6
100
AcDbEntity
  8
RACCORDO
100
AcDbPolyline
 62
250
  6
CONTINUOUS
 90
20
 70
0
 10
155.4456235112
 20
99.3980957673
 10
155.5025916133
 20
99.4214324875
 10
155.6958436703
 20
99.5159437377
 10
155.8718695827
 20
99.6252196965
 10
156.0316376345
 20
99.7469034303
 10
156.175228064
 20
99.8780746211
 10
156.303767057
 20
100.0167665036
 10
156.4196402106
 20
100.1627860499
 10
156.5231825356
 20
100.3142092133
 10
156.6151301042
 20
100.4697780018
 10
156.6978434142
 20
100.6314670436
 10
156.7712350325
 20
100.7976314305
 10
156.8358784671
 20
100.9682028444
 10
156.894004969
 20
101.1489338992
 10
156.9453671968
 20
101.340619806
 10
156.9891586491
 20
101.5424516187
 10
157.0254939306
 20
101.758976276
 10
157.0534387683
 20
101.9920505714
 10
157.0716096177
 20
102.2403037392
 10
157.0788627547
 20
102.5037375613
  0
LINE
  5
2E7
100
AcDbEntity
  8
RACCORDO
100
AcDbLine
 62
7
  6
CONTINUOUS
 10
155.4397544879
 20
99.3958013576
 11
156.6630584213
 21
99.8719261779
  0
LWPOLYLINE
  5
2E8
100
AcDbEntity
  8
0
100
AcDbPolyline
 62
7
  6
CONTINUOUS
 90
4
 70
0
 10
138.4939093534
 20
106.8809257305
 10
138.7430529044
 20
106.7023431757
 10
139.1103434228
 20
106.4679922397
 10
139.4838538008
 20
106.2634423088
  0
LWPOLYLINE
  5
2E9
100
AcDbEntity
  8
0
100
AcDbPolyline
 62
7
  6
CONTINUOUS
 90
4
 70
0
 10
139.0394907515
 20
106.4717080869
 10
139.1015962078
 20
106.4255738758
 10
139.6316638985
 20
106.0673620071
 10
140.1658377431
 20
105.7691781436
  0
LINE
  5
2EA
100
AcDbEntity
  8
0
100
AcDbLine
 62
7
  6
CONTINUOUS
 10
138.4939043072
 20
106.8808979201
 11
139.0394907515
 21
106.4717080869
  0
LWPOLYLINE
  5
2EB
100
AcDbEntity
  8
RACCORDO
100
AcDbPolyline
 62
250
  6
CONTINUOUS
 90
11
 70
0
 10
151.1491867055
 20
90.0301502864
 10
151.127915278
 20
90.1030124381
 10
151.1176558411
 20
90.1783571231
 10
151.1187798928
 20
90.2534561043
 10
151.1312467365
 20
90.3255900403
 10
151.1546049456
 20
90.3921469563
 10
151.1880087158
 20
90.4507168236
 10
151.2302484957
 20
90.4991788199
 10
151.2797947855
 20
90.5357781296
 10
151.3348535165
 20
90.5591894865
 10
151.3558151696
 20
90.5642436707
  0
LINE
  5
2EC
100
AcDbEntity
  8
0
100
AcDbLine
 62
7
  6
CONTINUOUS
 10
145.4886737605
 20
112.2581232969
 11
145.2909097072
 21
112.9632753781
  0
LWPOLYLINE
  5
2ED
100
AcDbEntity
  8
0
100
AcDbPolyline
 62
7
  6
CONTINUOUS
 90
26
 70
0
 10
147.1568488553
 20
111.9392932916
 10
147.0887640676
 20
112.3460617707
 10
147.0040609016
 20
112.7551373995
 10
146.9027984883
 20
113.1669936332
 10
146.7857137265
 20
113.578637774
 10
146.6525148264
 20
113.9905585243
 10
146.5034935777
 20
114.4022671818
 10
146.3402622489
 20
114.8093049408
 10
146.1628747131
 20
115.211178296
 10
145.971277097
 20
115.6083807527
 10
145.76692005
 20
115.9979340218
 10
145.5494873215
 20
116.3801470112
 10
145.319295162
 20
116.7547108129
 10
145.0787429715
 20
117.1177204139
 10
144.8279395611
 20
117.4687647753
 10
144.5667761197
 20
117.8082549359
 10
144.2973256134
 20
118.1335189991
 10
144.0193354377
 20
118.4446490014
 10
143.7330581971
 20
118.7415529062
 10
143.4413246714
 20
119.0212827069
 10
143.1442202668
 20
119.2835455783
 10
142.8416595771
 20
119.5286343456
 10
142.5362171638
 20
119.7544794782
 10
142.2287512142
 20
119.9603911325
 10
141.9184035411
 20
120.1470591523
 10
141.6051741444
 20
120.3144835373
  0
LWPOLYLINE
  5
2EE
100
AcDbEntity
  8
RACCORDO
100
AcDbPolyline
 62
250
  6
CONTINUOUS
 90
18
 70
0
 10
147.3301209265
 20
111.774598082
 10
147.2389590036
 20
112.3670778493
 10
147.1121613967
 20
112.966617042
 10
146.9505505111
 20
113.5693277688
 10
146.7551741986
 20
114.1713022905
 10
146.5272992638
 20
114.7686371347
 10
146.2684036606
 20
115.3574578275
 10
145.9801666593
 20
115.9339450924
 10
145.6644577148
 20
116.494360053
 10
145.3233242513
 20
117.0350684359
 10
144.9589786685
 20
117.5525635848
 10
144.573783788
 20
118.0434895345
 10
144.170237843
 20
118.5046623647
 10
143.7509583299
 20
118.9330909238
 10
143.31866567
 20
119.3259958134
 10
142.8761622914
 20
119.6808303182
 10
142.4263145753
 20
119.9952955985
 10
141.9720385966
 20
120.2673521431
  0
LINE
  5
2EF
100
AcDbEntity
  8
0
100
AcDbLine
 62
7
  6
CONTINUOUS
 10
147.2083743957
 20
111.5353054175
 11
147.1568488553
 21
111.9392932916
  0
LWPOLYLINE
  5
2F0
100
AcDbEntity
  8
RACCORDO
100
AcDbPolyline
 62
250
  6
CONTINUOUS
 90
7
 70
0
 10
152.7224317426
 20
64.4486589789
 10
152.7284553762
 20
64.364421744
 10
152.7463554078
 20
64.2885995125
 10
152.7756238358
 20
64.2233455771
 10
152.815429856
 20
64.1705131648
 10
152.8646433165
 20
64.131602965
 10
152.8783074528
 20
64.1241648105
  0
LWPOLYLINE
  5
2F1
100
AcDbEntity
  8
RACCORDO
100
AcDbPolyline
 62
250
  6
CONTINUOUS
 90
7
 70
0
 10
150.938983656
 20
100.9175809233
 10
150.9424659611
 20
100.8651312634
 10
150.9528271269
 20
100.8174554169
 10
150.9698120205
 20
100.7757273321
 10
150.9930024174
 20
100.7409744915
 10
151.0218272792
 20
100.7140526453
 10
151.0429409303
 20
100.7012314032
  0
LWPOLYLINE
  5
2F2
100
AcDbEntity
  8
RACCORDO
100
AcDbPolyline
 62
250
  6
CONTINUOUS
 90
18
 70
0
 10
152.1444531595
 20
112.6421241991
 10
152.1278318867
 20
112.1013580235
 10
152.0783948252
 20
111.5841924807
 10
151.9961419749
 20
111.0906275706
 10
151.8802035952
 20
110.617486687
 10
151.7314494267
 20
110.1679464362
 10
151.5524886917
 20
109.7515366368
 10
151.3429044627
 20
109.3695864497
 10
151.1031136671
 20
109.020766714
 10
150.8369763095
 20
108.7106197654
 10
150.543980834
 20
108.4396689501
 10
150.2246387965
 20
108.2073909219
 10
149.8843448692
 20
108.0177579777
 10
149.5227794985
 20
107.8715239887
 10
149.1402622379
 20
107.7679350836
 10
148.7431464201
 20
107.7087019462
 10
148.3311784255
 20
107.6945621475
 10
148.2875911748
 20
107.6976496634
  0
LWPOLYLINE
  5
2F3
100
AcDbEntity
  8
RACCORDO
100
AcDbPolyline
 62
250
  6
CONTINUOUS
 90
13
 70
0
 10
151.5837470988
 20
112.6445708029
 10
151.5651632276
 20
112.0890669929
 10
151.5095321293
 20
111.5557496563
 10
151.4172145816
 20
111.0480775724
 10
151.2888092792
 20
110.5693431747
 10
151.1251489741
 20
110.1226512863
 10
150.9272950961
 20
109.7108989638
 10
150.6965307696
 20
109.3367565133
 10
150.4343526318
 20
109.0026504639
 10
150.1424612363
 20
108.7107478086
 10
149.822749924
 20
108.462941713
 10
149.4772919986
 20
108.2608389538
 10
149.4169989684
 20
108.2315207312
  0
LWPOLYLINE
  5
2F4
100
AcDbEntity
  8
RACCORDO
100
AcDbPolyline
 62
250
  6
CONTINUOUS
 90
15
 70
0
 10
150.938983656
 20
90.0650954231
 10
150.9424659192
 20
90.121027043
 10
150.9528269637
 20
90.1790637039
 10
150.9698116664
 20
90.2377763506
 10
150.9930018074
 20
90.2957192829
 10
151.0218263685
 20
90.3514657536
 10
151.0555755934
 20
90.4036430994
 10
151.0934184641
 20
90.4509665411
 10
151.1344231636
 20
90.4922708183
 10
151.1775800201
 20
90.5265388827
 10
151.2218263685
 20
90.5529269408
 10
151.2660727169
 20
90.5707852311
 10
151.3092295734
 20
90.5796740232
 10
151.3502342729
 20
90.5793744455
 10
151.3880771436
 20
90.5698938746
  0
LWPOLYLINE
  5
2F5
100
AcDbEntity
  8
RACCORDO
100
AcDbPolyline
 62
250
  6
CONTINUOUS
 90
10
 70
0
 10
152.7224317426
 20
124.750569281
 10
152.7284557299
 20
124.8408329316
 10
152.7463566267
 20
124.9345573213
 10
152.775626095
 20
125.0290809259
 10
152.8154329594
 20
125.1217195256
 10
152.8646468106
 20
125.2098424298
 10
152.921870106
 20
125.2909471814
 10
152.985477856
 20
125.3627306203
 10
153.0536637689
 20
125.4231542872
 10
153.1244915456
 20
125.4705023101
  0
LWPOLYLINE
  5
2F6
100
AcDbEntity
  8
RACCORDO
100
AcDbPolyline
 62
250
  6
CONTINUOUS
 90
4
 70
0
 10
159.3475196959
 20
117.2011856171
 10
159.361990921
 20
117.2366049914
 10
159.3678363094
 20
117.2726375335
 10
159.3679642001
 20
117.2788313306
  0
LWPOLYLINE
  5
2F7
100
AcDbEntity
  8
RACCORDO
100
AcDbPolyline
 62
250
  6
CONTINUOUS
 90
7
 70
0
 10
159.0092131558
 20
109.6888882311
 10
158.9941190357
 20
109.6628764431
 10
158.9762472427
 20
109.6371577375
 10
158.9556073347
 20
109.6118110168
 10
158.9322356455
 20
109.5869319708
 10
158.9061462251
 20
109.5625837328
 10
158.8773127651
 20
109.5388016384
  0
LWPOLYLINE
  5
2F8
100
AcDbEntity
  8
RACCORDO
100
AcDbPolyline
 62
7
  6
CONTINUOUS
 90
10
 70
0
 10
157.9009037296
 20
100.7668956693
 10
157.9782621085
 20
100.8231720205
 10
158.0501278938
 20
100.888675552
 10
158.1151982295
 20
100.9628177251
 10
158.1721590052
 20
101.0445908604
 10
158.2200939737
 20
101.1330464429
 10
158.2584448724
 20
101.2276839102
 10
158.2865266069
 20
101.3277464517
 10
158.3036369566
 20
101.4318031387
 10
158.3093899801
 20
101.538501292
  0
LINE
  5
2F9
100
AcDbEntity
  8
DRAFT
100
AcDbLine
 62
7
  6
CONTINUOUS
 10
157.9009037296
 20
100.7668956693
 11
157.5817737918
 21
100.5604851199
  0
LWPOLYLINE
  5
2FA
100
AcDbEntity
  8
0
100
AcDbPolyline
 62
7
  6
CONTINUOUS
 90
8
 70
0
 10
140.1658377431
 20
105.7691781436
 10
140.7000115081
 20
105.5331884001
 10
141.2300790738
 20
105.3613328127
 10
141.751218656
 20
105.2554292536
 10
142.2593196055
 20
105.2167009164
 10
142.748982631
 20
105.2459589183
 10
143.2138469512
 20
105.3426898291
 10
143.668349069
 20
105.5141339044
  0
LWPOLYLINE
  5
2FB
100
AcDbEntity
  8
RACCORDO
100
AcDbPolyline
 62
250
  6
CONTINUOUS
 90
27
 70
0
 10
152.7224317426
 20
99.9557005341
 10
152.9976913502
 20
99.8336662744
 10
153.264064278
 20
99.7378036076
 10
153.5215505259
 20
99.6681125337
 10
153.7711051835
 20
99.6258463303
 10
154.0117731612
 20
99.6097517198
 10
154.2406891902
 20
99.616068869
 10
154.4581941943
 20
99.6457916171
 10
154.6639472496
 20
99.6979261249
 10
154.8540603164
 20
99.765731042
 10
155.0267188041
 20
99.8492048339
 10
155.1837373033
 20
99.9483490352
 10
155.326671545
 20
100.0564268989
 10
155.4549973262
 20
100.1724329414
 10
155.5692388499
 20
100.2973726464
 10
155.6725244571
 20
100.4275257176
 10
155.7649751765
 20
100.5617832515
 10
155.8464699794
 20
100.7012541516
 10
155.9197741209
 20
100.8455448323
 10
155.9852399454
 20
100.9930779606
 10
156.0425151084
 20
101.1454308695
 10
156.0933078319
 20
101.3069419717
 10
156.1386404514
 20
101.4776669787
 10
156.1774906313
 20
101.657550179
 10
156.2084995868
 20
101.8507628509
 10
156.2312143896
 20
102.0586954205
 10
156.2460879681
 20
102.2799574617
  0
LWPOLYLINE
  5
2FC
100
AcDbEntity
  8
0
100
AcDbPolyline
 62
7
  6
CONTINUOUS
 90
3
 70
0
 10
139.4838538008
 20
106.2634423088
 10
139.8573641664
 20
106.0944818662
 10
140.2246546739
 20
105.9615422862
  0
LWPOLYLINE
  5
2FD
100
AcDbEntity
  8
RACCORDO
100
AcDbPolyline
 62
7
  6
CONTINUOUS
 90
12
 70
0
 10
152.8783074606
 20
99.6312063618
 10
153.0384238648
 20
99.5550273007
 10
153.3187142839
 20
99.4401675303
 10
153.5975970014
 20
99.3492133449
 10
153.8740092022
 20
99.2823803175
 10
154.1467281041
 20
99.2398622446
 10
154.4143763292
 20
99.2215812395
 10
154.6760775517
 20
99.2273431796
 10
154.9305304609
 20
99.2569197489
 10
155.1756103768
 20
99.3096006948
 10
155.4098629192
 20
99.3844013792
 10
155.4459317594
 20
99.3982226592
  0
LINE
  5
2FE
100
AcDbEntity
  8
RACCORDO
100
AcDbLine
 62
7
  6
CONTINUOUS
 10
151.4836456445
 20
100.3285372586
 11
152.8783676765
 21
99.6311762426
  0
LINE
  5
2FF
100
AcDbEntity
  8
RACCORDO
100
AcDbLine
 62
7
  6
CONTINUOUS
 10
141.9675187705
 20
105.2389424831
 11
151.0429409303
 21
100.7012314032
  0
LINE
  5
300
100
AcDbEntity
  8
RACCORDO
100
AcDbLine
 62
250
  6
CONTINUOUS
 10
151.1491866429
 20
100.7423230839
 11
152.7224317426
 21
99.9557005341
  0
LINE
  5
301
100
AcDbEntity
  8
RACCORDO
100
AcDbLine
 62
250
  6
CONTINUOUS
 10
142.332051964
 20
105.2210467693
 11
150.938983656
 21
100.9175809233
  0
LWPOLYLINE
  5
302
100
AcDbEntity
  8
RACCORDO
100
AcDbPolyline
 62
250
  6
CONTINUOUS
 90
12
 70
0
 10
150.938983656
 20
100.9175809233
 10
150.9576964235
 20
100.907592187
 10
150.9760175692
 20
100.8968863075
 10
150.9939470932
 20
100.8854632846
 10
151.0113670096
 20
100.8733890068
 10
151.0283953043
 20
100.8605975857
 10
151.0453859352
 20
100.8468913564
 10
151.0623850382
 20
100.8323053414
 10
151.0793464774
 20
100.8168045181
 10
151.0964858025
 20
100.800086154
 10
151.1138748634
 20
100.7820493382
 10
151.1314418102
 20
100.7627949815
  0
LWPOLYLINE
  5
303
100
AcDbEntity
  8
RACCORDO
100
AcDbPolyline
 62
7
  6
CONTINUOUS
 90
7
 70
0
 10
151.0444767215
 20
100.700474433
 10
151.046340173
 20
100.6994544221
 10
151.0552668081
 20
100.6938310444
 10
151.0690953635
 20
100.6835246359
 10
151.0879591303
 20
100.6669796055
 10
151.1097003031
 20
100.6448154171
 10
151.1254810655
 20
100.6267852261
  0
LWPOLYLINE
  5
304
100
AcDbEntity
  8
RACCORDO
100
AcDbPolyline
 62
7
  6
CONTINUOUS
 90
5
 70
0
 10
151.1894492933
 20
100.5548285135
 10
151.2723361978
 20
100.4742412989
 10
151.3583453854
 20
100.4049888048
 10
151.4469126842
 20
100.3480685952
 10
151.4822434067
 20
100.3292413406
  0
LINE
  5
305
100
AcDbEntity
  8
RACCORDO
100
AcDbLine
 62
7
  6
CONTINUOUS
 10
151.1258309444
 20
100.6263770374
 11
151.1894492933
 21
100.5548285135
  0
LINE
  5
306
100
AcDbEntity
  8
RACCORDO
100
AcDbLine
 62
250
  6
CONTINUOUS
 10
151.1314418102
 20
100.7627949815
 11
151.1491866429
 21
100.7423230839
  0
LWPOLYLINE
  5
307
100
AcDbEntity
  8
RACCORDO
100
AcDbPolyline
 62
250
  6
CONTINUOUS
 90
14
 70
0
 10
151.2194311666
 20
100.5946445369
 10
151.2388851171
 20
100.5625234668
 10
151.2589382538
 20
100.5323566715
 10
151.2794817767
 20
100.504159858
 10
151.3004215651
 20
100.4779206482
 10
151.321721969
 20
100.4535815119
 10
151.3432757254
 20
100.4311347834
 10
151.365001794
 20
100.4105396928
 10
151.3869171518
 20
100.3916895275
 10
151.4089290821
 20
100.3745620111
 10
151.4309704464
 20
100.359108467
 10
151.4531177656
 20
100.3452006281
 10
151.4753010765
 20
100.3328126468
 10
151.4822421806
 20
100.3292418978
  0
LINE
  5
308
100
AcDbEntity
  8
RACCORDO
100
AcDbLine
 62
250
  6
CONTINUOUS
 10
151.1187507675
 20
100.6394223265
 11
151.125480935
 21
100.6267853855
  0
LWPOLYLINE
  5
309
100
AcDbEntity
  8
0
100
AcDbPolyline
 62
7
  6
CONTINUOUS
 90
11
 70
0
 10
144.7526549926
 20
114.3752310944
 10
144.4196080914
 20
115.0599836103
 10
144.0507864916
 20
115.7176659112
 10
143.6484705407
 20
116.3457631553
 10
143.2138466987
 20
116.942523727
 10
142.7489822678
 20
117.5041190439
 10
142.2593190593
 20
118.0230402011
 10
141.7512179494
 20
118.4924128796
 10
141.2300782704
 20
118.9076488866
 10
140.7000106436
 20
119.265860807
 10
140.1658368562
 20
119.5640447389
  0
LWPOLYLINE
  5
30A
100
AcDbEntity
  8
RACCORDO
100
AcDbPolyline
 62
250
  6
CONTINUOUS
 90
4
 70
0
 10
159.2751524211
 20
81.9634668717
 10
159.3069613587
 20
81.8979238562
 10
159.3298167005
 20
81.8304215436
 10
159.3433875353
 20
81.7621204522
  0
LINE
  5
30B
100
AcDbEntity
  8
0
100
AcDbLine
 62
7
  6
CONTINUOUS
 10
145.044695034
 20
113.6724252881
 11
144.7526549926
 21
114.3752310944
  0
LWPOLYLINE
  5
30C
100
AcDbEntity
  8
RACCORDO
100
AcDbPolyline
 62
250
  6
CONTINUOUS
 90
5
 70
0
 10
151.1491866429
 20
100.7423230839
 10
151.1654120812
 20
100.7026189881
 10
151.1825947176
 20
100.6647316423
 10
151.2006384484
 20
100.6287222651
 10
151.2194311666
 20
100.5946445369
  0
LINE
  5
30D
100
AcDbEntity
  8
0
100
AcDbLine
 62
7
  6
CONTINUOUS
 10
145.2909097072
 20
112.9632753781
 11
145.044695034
 21
113.6724252881
  0
LWPOLYLINE
  5
30E
100
AcDbEntity
  8
RACCORDO
100
AcDbPolyline
 62
250
  6
CONTINUOUS
 90
4
 70
0
 10
158.0887502614
 20
66.0475520677
 10
158.0983989343
 20
66.0079152489
 10
158.1162433172
 20
65.8891205512
 10
158.1222255346
 20
65.7743446985
  0
LWPOLYLINE
  5
30F
100
AcDbEntity
  8
RACCORDO
100
AcDbPolyline
 62
250
  6
CONTINUOUS
 90
7
 70
0
 10
154.9999191381
 20
82.3378470895
 10
155.0060820657
 20
82.2526837022
 10
155.0243918013
 20
82.1761574366
 10
155.0543164044
 20
82.110491558
 10
155.0949864961
 20
82.0575938126
 10
155.1452205157
 20
82.0190010025
 10
155.1552056558
 20
82.0136488179
  0
LWPOLYLINE
  5
310
100
AcDbEntity
  8
RACCORDO
100
AcDbPolyline
 62
250
  6
CONTINUOUS
 90
16
 70
0
 10
156.2531203222
 20
68.1042634172
 10
156.2497576825
 20
68.1508640557
 10
156.2433918456
 20
68.195740737
 10
156.2340228116
 20
68.2388934608
 10
156.2211526331
 20
68.280608316
 10
156.2052792574
 20
68.3205992139
 10
156.1878965263
 20
68.358007888
 10
156.1694102401
 20
68.3923686643
 10
156.1494145985
 20
68.4241472169
 10
156.1281860431
 20
68.453882302
 10
156.1060044849
 20
68.4817108793
 10
156.0825900127
 20
68.5074959892
 10
156.0573793346
 20
68.5313655087
 10
156.0301846865
 20
68.5533620636
 10
156.0011938325
 20
68.5734430283
 10
155.9704067724
 20
68.5916084026
  0
LWPOLYLINE
  5
311
100
AcDbEntity
  8
RACCORDO
100
AcDbPolyline
 62
250
  6
CONTINUOUS
 90
7
 70
0
 10
152.7224317426
 20
99.9557005341
 10
152.7284553762
 20
99.8714632991
 10
152.7463554078
 20
99.7956410677
 10
152.7756238358
 20
99.7303871323
 10
152.815429856
 20
99.67755472
 10
152.8646433165
 20
99.6386445201
 10
152.8783074528
 20
99.6312063657
  0
LINE
  5
312
100
AcDbEntity
  8
RACCORDO
100
AcDbLine
 62
250
  6
CONTINUOUS
 10
154.1519079011
 20
70.5394552516
 11
154.1519079011
 21
81.7232519962
  0
LINE
  5
313
100
AcDbEntity
  8
RACCORDO
100
AcDbLine
 62
250
  6
CONTINUOUS
 10
154.1519079011
 20
106.0464968068
 11
154.1519079011
 21
117.2302935514
  0
LWPOLYLINE
  5
314
100
AcDbEntity
  8
RACCORDO
100
AcDbPolyline
 62
250
  6
CONTINUOUS
 90
18
 70
0
 10
152.1444531595
 20
77.1350826439
 10
152.1278318867
 20
76.5943164684
 10
152.0783948252
 20
76.0771509255
 10
151.9961419749
 20
75.5835860154
 10
151.8802035952
 20
75.1104451319
 10
151.7314494267
 20
74.660904881
 10
151.5524886917
 20
74.2444950816
 10
151.3429044627
 20
73.8625448945
 10
151.1031136671
 20
73.5137251588
 10
150.8369763095
 20
73.2035782102
 10
150.543980834
 20
72.9326273949
 10
150.2246387965
 20
72.7003493667
 10
149.8843448692
 20
72.5107164225
 10
149.5227794985
 20
72.3644824335
 10
149.1402622379
 20
72.2608935285
 10
148.7431464201
 20
72.201660391
 10
148.3311784255
 20
72.1875205923
 10
148.2875911748
 20
72.1906081082
  0
LWPOLYLINE
  5
315
100
AcDbEntity
  8
RACCORDO
100
AcDbPolyline
 62
250
  6
CONTINUOUS
 90
13
 70
0
 10
151.5837470988
 20
77.1375292477
 10
151.5651632276
 20
76.5820254377
 10
151.5095321293
 20
76.0487081011
 10
151.4172145816
 20
75.5410360172
 10
151.2888092792
 20
75.0623016195
 10
151.1251489741
 20
74.6156097311
 10
150.9272950961
 20
74.2038574087
 10
150.6965307696
 20
73.8297149581
 10
150.4343526318
 20
73.4956089087
 10
150.1424612363
 20
73.2037062534
 10
149.822749924
 20
72.9559001578
 10
149.4772919986
 20
72.7537973986
 10
149.4169989684
 20
72.724479176
  0
LWPOLYLINE
  5
316
100
AcDbEntity
  8
RACCORDO
100
AcDbPolyline
 62
250
  6
CONTINUOUS
 90
19
 70
0
 10
154.1519079011
 20
117.2302935514
 10
154.1588901268
 20
117.3399190539
 10
154.1724883865
 20
117.4392504793
 10
154.1927026802
 20
117.5282878274
 10
154.2204918973
 20
117.6065753809
 10
154.2548971484
 20
117.6745688572
 10
154.2930417649
 20
117.7336354086
 10
154.3343541588
 20
117.7836314044
 10
154.3794059182
 20
117.8247004754
 10
154.4270351381
 20
117.8586406659
 10
154.4765462067
 20
117.8858903503
 10
154.5286347358
 20
117.9060111543
 10
154.584225657
 20
117.9194859994
 10
154.6433773601
 20
117.9270998272
 10
154.7060314553
 20
117.928067696
 10
154.7729377045
 20
117.9205177024
 10
154.8443460283
 20
117.9038258788
 10
154.9200065062
 20
117.8786161929
 10
154.9999191381
 20
117.8448886446
  0
LWPOLYLINE
  5
317
100
AcDbEntity
  8
RACCORDO
100
AcDbPolyline
 62
250
  6
CONTINUOUS
 90
10
 70
0
 10
152.7224317426
 20
89.2435277258
 10
152.7284557299
 20
89.3337913764
 10
152.7463566267
 20
89.4275157661
 10
152.775626095
 20
89.5220393707
 10
152.8154329594
 20
89.6146779705
 10
152.8646468106
 20
89.7028008747
 10
152.921870106
 20
89.7839056262
 10
152.985477856
 20
89.8556890651
 10
153.0536637689
 20
89.916112732
 10
153.1244915456
 20
89.9634607549
  0
LWPOLYLINE
  5
318
100
AcDbEntity
  8
RACCORDO
100
AcDbPolyline
 62
250
  6
CONTINUOUS
 90
10
 70
0
 10
154.9999191381
 20
104.5838937749
 10
155.006083495
 20
104.675231049
 10
155.0243966892
 20
104.7700754693
 10
155.0543254619
 20
104.8656709142
 10
155.0949990075
 20
104.959239572
 10
155.1452347385
 20
105.0480635963
 10
155.2035730078
 20
105.129563855
 10
155.2683188243
 20
105.2013735165
 10
155.3375908361
 20
105.2614069787
 10
155.4093766044
 20
105.3079212147
  0
LWPOLYLINE
  5
319
100
AcDbEntity
  8
RACCORDO
100
AcDbPolyline
 62
250
  6
CONTINUOUS
 90
3
 70
0
 10
159.3065935648
 20
110.1677780801
 10
159.3296511647
 20
110.2270814233
 10
159.3433469489
 20
110.2896456856
  0
LINE
  5
31A
100
AcDbEntity
  8
RACCORDO
100
AcDbLine
 62
250
  6
CONTINUOUS
 10
159.3028260706
 20
110.1601692286
 11
159.3065935648
 21
110.1677780801
  0
LINE
  5
31B
100
AcDbEntity
  8
RACCORDO
100
AcDbLine
 62
250
  6
CONTINUOUS
 10
159.3475196959
 20
110.3544109541
 11
159.0092131558
 21
109.6888882311
  0
LINE
  5
31C
100
AcDbEntity
  8
RACCORDO
100
AcDbLine
 62
7
  6
CONTINUOUS
 10
159.3028260706
 20
110.1601692286
 11
158.9645195305
 21
109.4946465055
  0
LINE
  5
31D
100
AcDbEntity
  8
RACCORDO
100
AcDbLine
 62
7
  6
CONTINUOUS
 10
138.105941927
 20
85.0769115781
 11
138.0601339029
 21
85.0492344782
  0
LWPOLYLINE
  5
31E
100
AcDbEntity
  8
0
100
AcDbPolyline
 62
7
  6
CONTINUOUS
 90
11
 70
0
 10
136.545361977
 20
84.2530665331
 10
136.2808872374
 20
84.0955740025
 10
135.9120655551
 20
83.8067132304
 10
135.5790186377
 20
83.4550075756
 10
135.2869786032
 20
83.0442417886
 10
135.0407639322
 20
82.5813065144
 10
134.842999873
 20
82.0739184058
 10
134.6934444837
 20
81.5248659286
 10
134.5921757195
 20
80.9343456829
 10
134.5406059441
 20
80.3034691509
 10
134.5341063325
 20
79.9754353696
  0
LINE
  5
31F
100
AcDbEntity
  8
DRAFT
100
AcDbLine
 62
7
  6
CONTINUOUS
 10
142.1684613782
 20
87.2215543566
 11
138.105941927
 21
85.0769115781
  0
LINE
  5
320
100
AcDbEntity
  8
0
100
AcDbLine
 62
7
  6
CONTINUOUS
 10
137.9685479565
 20
85.0043799902
 11
136.545361977
 21
84.2530665331
  0
LWPOLYLINE
  5
321
100
AcDbEntity
  8
0
100
AcDbPolyline
 62
7
  6
CONTINUOUS
 90
17
 70
0
 10
140.2246546739
 20
105.9615422862
 10
140.5857253234
 20
105.8646235687
 10
140.942495099
 20
105.8036038251
 10
141.2930450166
 20
105.7786049439
 10
141.6316181236
 20
105.7899925916
 10
141.9580203758
 20
105.8383502216
 10
142.2724458174
 20
105.9230943804
 10
142.5697196283
 20
106.0428403735
 10
142.8495720232
 20
106.1981559069
 10
143.1122727873
 20
106.3884732745
 10
143.353456456
 20
106.6107046644
 10
143.5727928335
 20
106.8654437611
 10
143.7706121156
 20
107.15209688
 10
143.9435394247
 20
107.4657951552
 10
144.0911172397
 20
107.8069692983
 10
144.2138030818
 20
108.1751885976
 10
144.3095946371
 20
108.5642920532
  0
LWPOLYLINE
  5
322
100
AcDbEntity
  8
RACCORDO
100
AcDbPolyline
 62
250
  6
CONTINUOUS
 90
10
 70
0
 10
156.2531203222
 20
102.5145489746
 10
156.3303849892
 20
102.4819406285
 10
156.4175035194
 20
102.4562822605
 10
156.5120019774
 20
102.4383025002
 10
156.6111968576
 20
102.428511925
 10
156.7122712882
 20
102.4271885615
 10
156.8123550235
 20
102.4343699895
 10
156.9086059506
 20
102.4498522757
 10
156.9982907983
 20
102.473195764
 10
157.0788627547
 20
102.5037375613
  0
LWPOLYLINE
  5
323
100
AcDbEntity
  8
RACCORDO
100
AcDbPolyline
 62
250
  6
CONTINUOUS
 90
31
 70
0
 10
141.1121284451
 20
130.5557209297
 10
141.0975559746
 20
130.5962515095
 10
141.0852078142
 20
130.6365560932
 10
141.0749878602
 20
130.6764773589
 10
141.0668099254
 20
130.7158624788
 10
141.0605603349
 20
130.7545857288
 10
141.0560992829
 20
130.7925485665
 10
141.0533276236
 20
130.8296313118
 10
141.0521415822
 20
130.8657473951
 10
141.0523987872
 20
130.9008653359
 10
141.0540046023
 20
130.9348918501
 10
141.0568653604
 20
130.9677803541
 10
141.0608534377
 20
130.9995822369
 10
141.0658814794
 20
131.0302297393
 10
141.0718769849
 20
131.0597017183
 10
141.0787557881
 20
131.0881226184
 10
141.0864450619
 20
131.1154468921
 10
141.0948926298
 20
131.1416592314
 10
141.104069938
 20
131.1669197823
 10
141.1139188045
 20
131.1911902906
 10
141.1244037096
 20
131.2144526313
 10
141.1355536262
 20
131.2368740741
 10
141.1473198342
 20
131.2584113002
 10
141.1596799964
 20
131.2790331096
 10
141.1727223662
 20
131.2988877912
 10
141.1864050765
 20
131.3179132963
 10
141.2007091264
 20
131.3360558159
 10
141.2157705654
 20
131.3534229899
 10
141.2316151478
 20
131.3699755065
 10
141.2481496702
 20
131.3855606093
 10
141.2653314892
 20
131.4000823383
  0
LWPOLYLINE
  5
324
100
AcDbEntity
  8
RACCORDO
100
AcDbPolyline
 62
250
  6
CONTINUOUS
 90
7
 70
0
 10
155.9704067724
 20
81.8526032723
 10
155.9765685657
 20
81.7674476275
 10
155.9948754832
 20
81.6909254461
 10
156.0247966313
 20
81.6252602914
 10
156.0654637199
 20
81.5723605266
 10
156.1156960415
 20
81.5337640809
 10
156.1263427899
 20
81.528078939
  0
LWPOLYLINE
  5
325
100
AcDbEntity
  8
RACCORDO
100
AcDbPolyline
 62
250
  6
CONTINUOUS
 90
7
 70
0
 10
154.9999191381
 20
117.8448886446
 10
155.0060820657
 20
117.7597252574
 10
155.0243918013
 20
117.6831989917
 10
155.0543164044
 20
117.6175331132
 10
155.0949864961
 20
117.5646353677
 10
155.1452205157
 20
117.5260425576
 10
155.1552056558
 20
117.520690373
  0
LWPOLYLINE
  5
326
100
AcDbEntity
  8
RACCORDO
100
AcDbPolyline
 62
250
  6
CONTINUOUS
 90
16
 70
0
 10
156.2531203222
 20
103.6113049723
 10
156.2497576825
 20
103.6579056109
 10
156.2433918456
 20
103.7027822921
 10
156.2340228116
 20
103.745935016
 10
156.2211526331
 20
103.7876498712
 10
156.2052792574
 20
103.8276407691
 10
156.1878965263
 20
103.8650494432
 10
156.1694102401
 20
103.8994102195
 10
156.1494145985
 20
103.9311887721
 10
156.1281860431
 20
103.9609238572
 10
156.1060044849
 20
103.9887524345
 10
156.0825900127
 20
104.0145375443
 10
156.0573793346
 20
104.0384070639
 10
156.0301846865
 20
104.0604036188
 10
156.0011938325
 20
104.0804845834
 10
155.9704067724
 20
104.0986499577
  0
LWPOLYLINE
  5
327
100
AcDbEntity
  8
RACCORDO
100
AcDbPolyline
 62
7
  6
CONTINUOUS
 90
5
 70
0
 10
158.3093899801
 20
66.0314597197
 10
158.2993889173
 20
66.1738143557
 10
158.2719304357
 20
66.3069724963
 10
158.2294239371
 20
66.4322310886
 10
158.2001077701
 20
66.4931262793
  0
LWPOLYLINE
  5
328
100
AcDbEntity
  8
RACCORDO
100
AcDbPolyline
 62
250
  6
CONTINUOUS
 90
16
 70
0
 10
157.0788627547
 20
68.0934520039
 10
157.0712143253
 20
68.2062728381
 10
157.0534511827
 20
68.3184985147
 10
157.0270870919
 20
68.4280480807
 10
156.9937151437
 20
68.5329250127
 10
156.9547626325
 20
68.6321277377
 10
156.9112643854
 20
68.7255853131
 10
156.8647902703
 20
68.8118486833
 10
156.8160233803
 20
68.891227042
 10
156.7639469879
 20
68.9662327912
 10
156.7092869198
 20
69.0360937551
 10
156.6523803433
 20
69.1005531254
 10
156.5908838575
 20
69.1618815164
 10
156.5241459639
 20
69.2196078106
 10
156.4535876585
 20
69.27134802
 10
156.3798642387
 20
69.3156358424
  0
LWPOLYLINE
  5
329
100
AcDbEntity
  8
RACCORDO
100
AcDbPolyline
 62
250
  6
CONTINUOUS
 90
28
 70
0
 10
156.2531203222
 20
83.1539907057
 10
156.2403866137
 20
83.4974803527
 10
156.209911861
 20
83.8389566062
 10
156.161696064
 20
84.1784194662
 10
156.0943260123
 20
84.5177452791
 10
156.0092149162
 20
84.8550576986
 10
155.910602408
 20
85.1847276852
 10
155.7975378398
 20
85.5076481076
 10
155.6709718593
 20
85.8229260971
 10
155.5379960418
 20
86.1222540093
 10
155.3993524436
 20
86.4030384058
 10
155.2542990084
 20
86.667872725
 10
155.1077011424
 20
86.9162296375
 10
154.9605938245
 20
87.1469496387
 10
154.8119420758
 20
87.3611922333
 10
154.6635063656
 20
87.5619086062
 10
154.5161427001
 20
87.7488189834
 10
154.368995073
 20
87.9222031389
 10
154.2212559351
 20
88.0858515792
 10
154.0740693293
 20
88.2396238148
 10
153.9262912128
 20
88.3836603353
 10
153.7736819075
 20
88.5221731155
 10
153.6157785586
 20
88.6566456831
 10
153.4530440211
 20
88.7855945105
 10
153.282627182
 20
88.9087809892
 10
153.1035776704
 20
89.0261255833
 10
152.9168458573
 20
89.1377078289
 10
152.7224317426
 20
89.2435277258
  0
LWPOLYLINE
  5
32A
100
AcDbEntity
  8
RACCORDO
100
AcDbPolyline
 62
250
  6
CONTINUOUS
 90
28
 70
0
 10
156.2531203222
 20
118.6610322608
 10
156.2403866137
 20
119.0045219078
 10
156.209911861
 20
119.3459981614
 10
156.161696064
 20
119.6854610214
 10
156.0943260123
 20
120.0247868343
 10
156.0092149162
 20
120.3620992537
 10
155.910602408
 20
120.6917692404
 10
155.7975378398
 20
121.0146896627
 10
155.6709718593
 20
121.3299676523
 10
155.5379960418
 20
121.6292955645
 10
155.3993524436
 20
121.910079961
 10
155.2542990084
 20
122.1749142801
 10
155.1077011424
 20
122.4232711927
 10
154.9605938245
 20
122.6539911939
 10
154.8119420758
 20
122.8682337885
 10
154.6635063656
 20
123.0689501614
 10
154.5161427001
 20
123.2558605386
 10
154.368995073
 20
123.429244694
 10
154.2212559351
 20
123.5928931343
 10
154.0740693293
 20
123.74666537
 10
153.9262912128
 20
123.8907018905
 10
153.7736819075
 20
124.0292146707
 10
153.6157785586
 20
124.1636872383
 10
153.4530440211
 20
124.2926360656
 10
153.282627182
 20
124.4158225444
 10
153.1035776704
 20
124.5331671385
 10
152.9168458573
 20
124.644749384
 10
152.7224317426
 20
124.750569281
  0
LWPOLYLINE
  5
32B
100
AcDbEntity
  8
RACCORDO
100
AcDbPolyline
 62
250
  6
CONTINUOUS
 90
28
 70
0
 10
157.0788626012
 20
83.1431792139
 10
157.0653026038
 20
83.5229478489
 10
157.0291505505
 20
83.9054833876
 10
156.9718095205
 20
84.2881583281
 10
156.894698376
 20
84.6686079329
 10
156.7993639741
 20
85.0445226871
 10
156.687503484
 20
85.4136484921
 10
156.5599498021
 20
85.775934855
 10
156.418854494
 20
86.1279577134
 10
156.2685996259
 20
86.4628678729
 10
156.1122315776
 20
86.7777741128
 10
155.9508598615
 20
87.0740821884
 10
155.7863907836
 20
87.3519781816
 10
155.6209913561
 20
87.6104997046
 10
155.4555401523
 20
87.8506198597
 10
155.2895399483
 20
88.0754695284
 10
155.1243488121
 20
88.2847893998
 10
154.9604588679
 20
88.4792639285
 10
154.7955030459
 20
88.662941814
 10
154.6308797956
 20
88.8350143116
 10
154.4662289623
 20
88.9963863933
 10
154.2960239347
 20
89.1525440211
 10
154.119846701
 20
89.3033771497
 10
153.9386155829
 20
89.4474476979
 10
153.7485168331
 20
89.5868096314
 10
153.5484797575
 20
89.7208461382
 10
153.3402944402
 20
89.846954569
 10
153.1244915456
 20
89.9634607549
  0
LINE
  5
32C
100
AcDbEntity
  8
RACCORDO
100
AcDbLine
 62
250
  6
CONTINUOUS
 10
154.9853709858
 20
70.5321811755
 11
154.9853709858
 21
81.7159812184
  0
LINE
  5
32D
100
AcDbEntity
  8
RACCORDO
100
AcDbLine
 62
250
  6
CONTINUOUS
 10
154.9853709858
 20
106.0392227307
 11
154.9853709858
 21
117.2230227736
  0
LINE
  5
32E
100
AcDbEntity
  8
RACCORDO
100
AcDbLine
 62
7
  6
CONTINUOUS
 10
156.1715738368
 20
117.0144083449
 11
156.1715738368
 21
116.5890425812
  0
LINE
  5
32F
100
AcDbEntity
  8
RACCORDO
100
AcDbLine
 62
7
  6
CONTINUOUS
 10
156.1715738368
 20
107.7793549768
 11
156.1715738368
 21
106.6413196592
  0
LINE
  5
330
100
AcDbEntity
  8
RACCORDO
100
AcDbLine
 62
7
  6
CONTINUOUS
 10
156.1715738368
 20
81.5073667897
 11
156.1715738368
 21
81.0820010261
  0
LINE
  5
331
100
AcDbEntity
  8
RACCORDO
100
AcDbLine
 62
7
  6
CONTINUOUS
 10
156.1715738368
 20
72.2723134216
 11
156.1715738368
 21
71.1342781041
  0
LINE
  5
332
100
AcDbEntity
  8
RACCORDO
100
AcDbLine
 62
250
  6
CONTINUOUS
 10
156.2531203222
 20
67.0075074194
 11
156.2531203222
 21
68.1042634172
  0
LINE
  5
333
100
AcDbEntity
  8
RACCORDO
100
AcDbLine
 62
250
  6
CONTINUOUS
 10
156.2531203222
 20
82.057234708
 11
156.2531203222
 21
83.1539907057
  0
LINE
  5
334
100
AcDbEntity
  8
RACCORDO
100
AcDbLine
 62
250
  6
CONTINUOUS
 10
156.2531203222
 20
102.5145489746
 11
156.2531203222
 21
103.6113049723
  0
LINE
  5
335
100
AcDbEntity
  8
RACCORDO
100
AcDbLine
 62
250
  6
CONTINUOUS
 10
156.2531203222
 20
117.5642762631
 11
156.2531203222
 21
118.6610322608
  0
LINE
  5
336
100
AcDbEntity
  8
RACCORDO
100
AcDbLine
 62
250
  6
CONTINUOUS
 10
157.0788627547
 20
66.9966960062
 11
157.0788627547
 21
68.0934520039
  0
LINE
  5
337
100
AcDbEntity
  8
RACCORDO
100
AcDbLine
 62
250
  6
CONTINUOUS
 10
157.0788627547
 20
82.0464232947
 11
157.0788627547
 21
83.1431792924
  0
LINE
  5
338
100
AcDbEntity
  8
RACCORDO
100
AcDbLine
 62
250
  6
CONTINUOUS
 10
157.0788627547
 20
102.5037375613
 11
157.0788627547
 21
103.600493559
  0
LINE
  5
339
100
AcDbEntity
  8
RACCORDO
100
AcDbLine
 62
250
  6
CONTINUOUS
 10
157.0788627547
 20
117.5534648498
 11
157.0788627547
 21
118.6502208476
  0
LWPOLYLINE
  5
33A
100
AcDbEntity
  8
RACCORDO
100
AcDbPolyline
 62
250
  6
CONTINUOUS
 90
11
 70
0
 10
154.985373664
 20
117.2230239116
 10
154.9863217047
 20
117.2771431377
 10
154.9920047421
 20
117.3262989252
 10
155.0018131302
 20
117.3703382589
 10
155.0151261873
 20
117.4091501917
 10
155.0313529334
 20
117.4429570318
 10
155.0500356696
 20
117.472183809
 10
155.0706367265
 20
117.4969183009
 10
155.0928069371
 20
117.5175012424
 10
155.1166212479
 20
117.5345119672
 10
155.1187958225
 20
117.5356806477
  0
LWPOLYLINE
  5
33B
100
AcDbEntity
  8
RACCORDO
100
AcDbPolyline
 62
250
  6
CONTINUOUS
 90
11
 70
0
 10
154.985373664
 20
81.7159823564
 10
154.9863217047
 20
81.7701015825
 10
154.9920047421
 20
81.81925737
 10
155.0018131302
 20
81.8632967037
 10
155.0151261873
 20
81.9021086365
 10
155.0313529334
 20
81.9359154767
 10
155.0500356696
 20
81.9651422538
 10
155.0706367265
 20
81.9898767457
 10
155.0928069371
 20
82.0104596872
 10
155.1166212479
 20
82.0274704121
 10
155.1187958225
 20
82.0286390926
  0
LINE
  5
33C
100
AcDbEntity
  8
RACCORDO
100
AcDbLine
 62
250
  6
CONTINUOUS
 10
156.2460879681
 20
102.2799574617
 11
156.2531203222
 21
102.5145489746
  0
LWPOLYLINE
  5
33D
100
AcDbEntity
  8
RACCORDO
100
AcDbPolyline
 62
250
  6
CONTINUOUS
 90
8
 70
0
 10
158.1222255346
 20
122.9320213482
 10
158.1162433579
 20
122.8232280715
 10
158.0983990641
 20
122.7222779262
 10
158.0689977946
 20
122.6308983003
 10
158.0285423391
 20
122.5506527031
 10
157.9777248013
 20
122.4829145637
 10
157.9174149879
 20
122.4288434335
 10
157.9009037296
 20
122.4175307639
  0
LWPOLYLINE
  5
33E
100
AcDbEntity
  8
RACCORDO
100
AcDbPolyline
 62
250
  6
CONTINUOUS
 90
19
 70
0
 10
154.1519079011
 20
81.7232519962
 10
154.1588901268
 20
81.8328774988
 10
154.1724883865
 20
81.9322089241
 10
154.1927026802
 20
82.0212462722
 10
154.2204918973
 20
82.0995338257
 10
154.2548971484
 20
82.167527302
 10
154.2930417649
 20
82.2265938534
 10
154.3343541588
 20
82.2765898493
 10
154.3794059182
 20
82.3176589202
 10
154.4270351381
 20
82.3515991107
 10
154.4765462067
 20
82.3788487952
 10
154.5286347358
 20
82.3989695992
 10
154.584225657
 20
82.4124444443
 10
154.6433773601
 20
82.420058272
 10
154.7060314553
 20
82.4210261408
 10
154.7729377045
 20
82.4134761473
 10
154.8443460283
 20
82.3967843236
 10
154.9200065062
 20
82.3715746377
 10
154.9999191381
 20
82.3378470895
  0
LWPOLYLINE
  5
33F
100
AcDbEntity
  8
RACCORDO
100
AcDbPolyline
 62
250
  6
CONTINUOUS
 90
10
 70
0
 10
155.9704067724
 20
104.0986499577
 10
155.9765697
 20
104.1899762726
 10
155.9948794356
 20
104.2848122738
 10
156.0248040387
 20
104.3804027555
 10
156.0654741304
 20
104.4739705926
 10
156.11570815
 20
104.5627974224
 10
156.1740466829
 20
104.6443026193
 10
156.2387948593
 20
104.7161182685
 10
156.3080715945
 20
104.7761579586
 10
156.3798642387
 20
104.8226773976
  0
LWPOLYLINE
  5
340
100
AcDbEntity
  8
RACCORDO
100
AcDbPolyline
 62
250
  6
CONTINUOUS
 90
10
 70
0
 10
154.9999191381
 20
69.0768522197
 10
155.006083495
 20
69.1681894938
 10
155.0243966892
 20
69.2630339142
 10
155.0543254619
 20
69.358629359
 10
155.0949990075
 20
69.4521980169
 10
155.1452347385
 20
69.5410220412
 10
155.2035730078
 20
69.6225222999
 10
155.2683188243
 20
69.6943319614
 10
155.3375908361
 20
69.7543654236
 10
155.4093766044
 20
69.8008796596
  0
LWPOLYLINE
  5
341
100
AcDbEntity
  8
RACCORDO
100
AcDbPolyline
 62
250
  6
CONTINUOUS
 90
14
 70
0
 10
151.506616126
 20
90.4412546035
 10
151.4596037235
 20
90.3998043515
 10
151.4168179524
 20
90.3592422739
 10
151.3779096455
 20
90.320234891
 10
151.3426774862
 20
90.2825897191
 10
151.3109157967
 20
90.2466866071
 10
151.2822928377
 20
90.2129494569
 10
151.2565383767
 20
90.1810436514
 10
151.2334338435
 20
90.1511178889
 10
151.2126995525
 20
90.1233500438
 10
151.1940974617
 20
90.0973667176
 10
151.1774418249
 20
90.0730782647
 10
151.1625359219
 20
90.0506710441
 10
151.1491866429
 20
90.0301502757
  0
LINE
  5
342
100
AcDbEntity
  8
RACCORDO
100
AcDbLine
 62
250
  6
CONTINUOUS
 10
151.5578856804
 20
90.4825553646
 11
151.506616126
 21
90.4412546035
  0
LINE
  5
343
100
AcDbEntity
  8
RACCORDO
100
AcDbLine
 62
7
  6
CONTINUOUS
 10
152.8749339852
 20
91.23097448
 11
152.1691722007
 21
90.8327934497
  0
LINE
  5
344
100
AcDbEntity
  8
RACCORDO
100
AcDbLine
 62
250
  6
CONTINUOUS
 10
153.0603039996
 20
91.2231731992
 11
152.3509199238
 21
90.8229485223
  0
LWPOLYLINE
  5
345
100
AcDbEntity
  8
RACCORDO
100
AcDbPolyline
 62
250
  6
CONTINUOUS
 90
4
 70
0
 10
151.7345914321
 20
90.5961982812
 10
151.672086838
 20
90.5614368036
 10
151.6131156007
 20
90.5230127494
 10
151.5578856804
 20
90.4825553646
  0
LWPOLYLINE
  5
346
100
AcDbEntity
  8
RACCORDO
100
AcDbPolyline
 62
250
  6
CONTINUOUS
 90
10
 70
0
 10
152.3509199238
 20
90.8229485223
 10
152.3157722117
 20
90.8036690854
 10
152.279143804
 20
90.7849094733
 10
152.241034701
 20
90.7666696862
 10
152.2017462726
 20
90.7489854055
 10
152.1609771488
 20
90.7318209497
 10
152.117823219
 20
90.7150692741
 10
152.0722389387
 20
90.698596867
 10
152.0242698525
 20
90.6825372401
 10
151.9731484836
 20
90.6671838834
  0
LWPOLYLINE
  5
347
100
AcDbEntity
  8
RACCORDO
100
AcDbPolyline
 62
7
  6
CONTINUOUS
 90
7
 70
0
 10
152.1685860589
 20
90.8324608543
 10
152.1391800295
 20
90.8164890814
 10
152.0731597269
 20
90.7844308503
 10
152.0023338205
 20
90.7549316304
 10
151.9276958417
 20
90.7284838546
 10
151.8499273624
 20
90.7054232753
 10
151.7697686193
 20
90.6861059363
  0
LWPOLYLINE
  5
348
100
AcDbEntity
  8
RACCORDO
100
AcDbPolyline
 62
250
  6
CONTINUOUS
 90
30
 70
0
 10
142.1684613782
 20
87.2215543566
 10
142.2282102364
 20
87.2522570782
 10
142.5971748695
 20
87.4073460987
 10
142.987253751
 20
87.5144155451
 10
143.3959167866
 20
87.5727707646
 10
143.8205131437
 20
87.5820332146
 10
144.258288821
 20
87.542142944
 10
144.7064049505
 20
87.4533587544
 10
145.1619557121
 20
87.3162563806
 10
145.6219869307
 20
87.1317248275
 10
146.0835149013
 20
86.9009608621
 10
146.5435461283
 20
86.6254612311
 10
146.9990969156
 20
86.3070128641
 10
147.4472130782
 20
85.9476809345
 10
147.8849887689
 20
85.5497955518
 10
148.3095850897
 20
85.1159368214
 10
148.7182480759
 20
84.6489186712
 10
149.1083269615
 20
84.1517703942
 10
149.477291714
 20
83.6277166239
 10
149.8227497875
 20
83.0801557413
 10
150.1424611396
 20
82.5126382867
 10
150.4343523973
 20
81.9288445533
 10
150.6965303582
 20
81.3325608689
 10
150.927294626
 20
80.7276544215
 10
151.1251485862
 20
80.1180481981
 10
151.2888090162
 20
79.507695792
 10
151.4172144282
 20
78.9005558349
 10
151.5095320559
 20
78.3005659539
 10
151.5651632079
 20
77.7116172366
 10
151.5837470988
 20
77.1375292477
  0
LINE
  5
349
100
AcDbEntity
  8
0
100
AcDbLine
 62
7
  6
CONTINUOUS
 10
138.1316199249
 20
85.0842543007
 11
137.9682341694
 21
85.0042143153
  0
LINE
  5
34A
100
AcDbEntity
  8
RACCORDO
100
AcDbLine
 62
250
  6
CONTINUOUS
 10
151.8000902266
 20
90.6256614144
 11
151.7345914321
 21
90.5961982812
  0
LWPOLYLINE
  5
34B
100
AcDbEntity
  8
RACCORDO
100
AcDbPolyline
 62
250
  6
CONTINUOUS
 90
10
 70
0
 10
154.1519079011
 20
106.0464968068
 10
154.2301224479
 20
106.013552461
 10
154.3183905359
 20
105.9877281526
 10
154.4141477725
 20
105.9697741374
 10
154.5146121878
 20
105.9602120214
 10
154.6168650576
 20
105.9593196062
 10
154.7179356988
 20
105.9671228184
 10
154.8148877749
 20
105.9833949568
 10
154.9049046031
 20
106.0076632779
 10
154.9853709858
 20
106.0392227307
  0
LWPOLYLINE
  5
34C
100
AcDbEntity
  8
RACCORDO
100
AcDbPolyline
 62
250
  6
CONTINUOUS
 90
10
 70
0
 10
156.2531203222
 20
103.6113049723
 10
156.3303778158
 20
103.5786993275
 10
156.4174897424
 20
103.5530418446
 10
156.5119832553
 20
103.5350615346
 10
156.6111757566
 20
103.5252694795
 10
156.7122506396
 20
103.5239443357
 10
156.812337245
 20
103.5311242697
 10
156.9085929814
 20
103.5466058236
 10
156.9982840618
 20
103.5699497764
 10
157.0788627547
 20
103.600493559
  0
LINE
  5
34D
100
AcDbEntity
  8
RACCORDO
100
AcDbLine
 62
250
  6
CONTINUOUS
 10
155.9704067724
 20
104.0986499577
 11
154.9999218312
 21
104.5838924283
  0
LINE
  5
34E
100
AcDbEntity
  8
RACCORDO
100
AcDbLine
 62
250
  6
CONTINUOUS
 10
156.3798642387
 20
104.8226773976
 11
155.4093766044
 21
105.3079212147
  0
LWPOLYLINE
  5
34F
100
AcDbEntity
  8
RACCORDO
100
AcDbPolyline
 62
250
  6
CONTINUOUS
 90
19
 70
0
 10
155.4093792825
 20
105.3079225741
 10
155.3621327917
 20
105.3330374314
 10
155.3173569076
 20
105.3626727171
 10
155.2754405091
 20
105.3958854685
 10
155.2368062286
 20
105.4316944613
 10
155.2014867467
 20
105.4693629051
 10
155.1691783694
 20
105.5084998384
 10
155.1400383428
 20
105.5483669658
 10
155.113977432
 20
105.5885755199
 10
155.090382846
 20
105.6295371938
 10
155.0693735888
 20
105.6706908591
 10
155.0508686191
 20
105.7119490464
 10
155.0342381267
 20
105.7546562601
 10
155.0196061503
 20
105.7987554675
 10
155.0072794986
 20
105.843825842
 10
154.9972905267
 20
105.890701963
 10
154.9899985485
 20
105.9393913837
 10
154.9858893212
 20
105.9890735774
 10
154.985372613
 20
106.0392235566
  0
LWPOLYLINE
  5
350
100
AcDbEntity
  8
RACCORDO
100
AcDbPolyline
 62
250
  6
CONTINUOUS
 90
19
 70
0
 10
154.9999218312
 20
104.5838924283
 10
154.9075625015
 20
104.6386235384
 10
154.820907266
 20
104.6986055549
 10
154.7399561249
 20
104.7638384779
 10
154.6646897047
 20
104.8355063892
 10
154.5951273789
 20
104.9124252069
 10
154.5313272671
 20
104.9910426862
 10
154.4736399933
 20
105.0704834658
 10
154.4217149335
 20
105.1516229068
 10
154.3745583364
 20
105.2335348483
 10
154.3320962531
 20
105.3154043172
 10
154.2944026325
 20
105.3980462864
 10
154.260705569
 20
105.4829795138
 10
154.230340323
 20
105.5706078818
 10
154.2039716342
 20
105.6605275079
 10
154.1828218162
 20
105.7530455025
 10
154.167298307
 20
105.8482642355
 10
154.1569936686
 20
105.9460813369
 10
154.1519079011
 20
106.0464968068
  0
LWPOLYLINE
  5
351
100
AcDbEntity
  8
RACCORDO
100
AcDbPolyline
 62
250
  6
CONTINUOUS
 90
7
 70
0
 10
155.9704067724
 20
117.3596448275
 10
155.9765685657
 20
117.2744891827
 10
155.9948754832
 20
117.1979670013
 10
156.0247966313
 20
117.1323018465
 10
156.0654637199
 20
117.0794020818
 10
156.1156960415
 20
117.0408056361
 10
156.1263427899
 20
117.0351204942
  0
LWPOLYLINE
  5
352
100
AcDbEntity
  8
RACCORDO
100
AcDbPolyline
 62
7
  6
CONTINUOUS
 90
16
 70
0
 10
158.3093899801
 20
87.6820948143
 10
158.2993889173
 20
87.8244494504
 10
158.2719304357
 20
87.9576075909
 10
158.2294239371
 20
88.0828661832
 10
158.17014694
 20
88.205995651
 10
158.0936626177
 20
88.3243267774
 10
158.0066727471
 20
88.4275222227
 10
157.9129187099
 20
88.5141518966
 10
157.8099684429
 20
88.5877652293
 10
157.7010338355
 20
88.6462741385
 10
157.5902520669
 20
88.688603168
 10
157.4775818981
 20
88.7159259415
 10
157.3620960168
 20
88.7286334427
 10
157.2450935905
 20
88.7261428983
 10
157.1297876369
 20
88.7082686931
 10
157.018426035
 20
88.6754445978
  0
LWPOLYLINE
  5
353
100
AcDbEntity
  8
RACCORDO
100
AcDbPolyline
 62
7
  6
CONTINUOUS
 90
5
 70
0
 10
158.3093899801
 20
101.5385012748
 10
158.2993889173
 20
101.6808559109
 10
158.2719304357
 20
101.8140140515
 10
158.2294239371
 20
101.9392726438
 10
158.2001077701
 20
102.0001678345
  0
LWPOLYLINE
  5
354
100
AcDbEntity
  8
RACCORDO
100
AcDbPolyline
 62
250
  6
CONTINUOUS
 90
16
 70
0
 10
157.0788627547
 20
103.600493559
 10
157.0712143253
 20
103.7133143933
 10
157.0534511827
 20
103.8255400699
 10
157.0270870919
 20
103.9350896359
 10
156.9937151437
 20
104.0399665678
 10
156.9547626325
 20
104.1391692929
 10
156.9112643854
 20
104.2326268683
 10
156.8647902703
 20
104.3188902384
 10
156.8160233803
 20
104.3982685972
 10
156.7639469879
 20
104.4732743464
 10
156.7092869198
 20
104.5431353103
 10
156.6523803433
 20
104.6075946806
 10
156.5908838575
 20
104.6689230716
 10
156.5241459639
 20
104.7266493657
 10
156.4535876585
 20
104.7783895752
 10
156.3798642387
 20
104.8226773976
  0
LWPOLYLINE
  5
355
100
AcDbEntity
  8
RACCORDO
100
AcDbPolyline
 62
250
  6
CONTINUOUS
 90
13
 70
0
 10
159.0092131558
 20
81.0970895887
 10
159.0049703281
 20
81.1659134254
 10
158.9911009393
 20
81.2348848763
 10
158.9678370625
 20
81.3028498596
 10
158.9355679661
 20
81.3686711345
 10
158.8948336007
 20
81.4312473303
 10
158.8463155642
 20
81.4895313753
 10
158.7908256966
 20
81.5425480174
 10
158.7292924957
 20
81.5894101425
 10
158.6627455811
 20
81.6293336187
 10
158.5922984654
 20
81.6616504164
 10
158.5191299222
 20
81.6858197869
 10
158.4444642624
 20
81.7014373102
  0
LINE
  5
356
100
AcDbEntity
  8
RACCORDO
100
AcDbLine
 62
250
  6
CONTINUOUS
 10
159.3433875353
 20
81.7621204522
 11
159.3475196959
 21
81.6941440619
  0
LWPOLYLINE
  5
357
100
AcDbEntity
  8
RACCORDO
100
AcDbPolyline
 62
250
  6
CONTINUOUS
 90
28
 70
0
 10
157.0788626012
 20
118.6502207691
 10
157.0653026038
 20
119.0299894041
 10
157.0291505505
 20
119.4125249427
 10
156.9718095205
 20
119.7951998833
 10
156.894698376
 20
120.175649488
 10
156.7993639741
 20
120.5515642422
 10
156.687503484
 20
120.9206900472
 10
156.5599498021
 20
121.2829764102
 10
156.418854494
 20
121.6349992685
 10
156.2685996259
 20
121.9699094281
 10
156.1122315776
 20
122.284815668
 10
155.9508598615
 20
122.5811237436
 10
155.7863907836
 20
122.8590197368
 10
155.6209913561
 20
123.1175412597
 10
155.4555401523
 20
123.3576614149
 10
155.2895399483
 20
123.5825110835
 10
155.1243488121
 20
123.791830955
 10
154.9604588679
 20
123.9863054837
 10
154.7955030459
 20
124.1699833691
 10
154.6308797956
 20
124.3420558668
 10
154.4662289623
 20
124.5034279485
 10
154.2960239347
 20
124.6595855762
 10
154.119846701
 20
124.8104187048
 10
153.9386155829
 20
124.954489253
 10
153.7485168331
 20
125.0938511865
 10
153.5484797575
 20
125.2278876934
 10
153.3402944402
 20
125.3539961241
 10
153.1244915456
 20
125.4705023101
  0
LWPOLYLINE
  5
358
100
AcDbEntity
  8
RACCORDO
100
AcDbPolyline
 62
250
  6
CONTINUOUS
 90
13
 70
0
 10
158.7746410311
 20
80.8911262099
 10
158.7727541962
 20
80.9616018355
 10
158.7634030193
 20
81.0343688056
 10
158.7467472538
 20
81.1081839843
 10
158.7230714435
 20
81.1817863286
 10
158.6927800608
 20
81.2539184314
 10
158.6563905976
 20
81.3233480029
 10
158.6145247237
 20
81.3888889228
 10
158.567897667
 20
81.4494215038
 10
158.5173059944
 20
81.5039116198
 10
158.4636140035
 20
81.5514283731
 10
158.407738957
 20
81.5911599973
 10
158.3506354126
 20
81.6224277258
  0
LWPOLYLINE
  5
359
100
AcDbEntity
  8
RACCORDO
100
AcDbPolyline
 62
250
  6
CONTINUOUS
 90
13
 70
0
 10
158.7746410311
 20
116.3981677651
 10
158.7727541962
 20
116.4686433907
 10
158.7634030193
 20
116.5414103607
 10
158.7467472538
 20
116.6152255395
 10
158.7230714435
 20
116.6888278838
 10
158.6927800608
 20
116.7609599866
 10
158.6563905976
 20
116.8303895581
 10
158.6145247237
 20
116.895930478
 10
158.567897667
 20
116.9564630589
 10
158.5173059944
 20
117.0109531749
 10
158.4636140035
 20
117.0584699282
 10
158.407738957
 20
117.0982015525
 10
158.3506354126
 20
117.129469281
  0
LINE
  5
35A
100
AcDbEntity
  8
DRAFT
100
AcDbLine
 62
7
  6
CONTINUOUS
 10
157.6605552196
 20
116.8872334807
 11
157.6605552196
 21
108.8696616798
  0
LINE
  5
35B
100
AcDbEntity
  8
DRAFT
100
AcDbLine
 62
7
  6
CONTINUOUS
 10
157.6605552196
 20
81.3801919255
 11
157.6605552196
 21
73.3626201246
  0
LINE
  5
35C
100
AcDbEntity
  8
RACCORDO
100
AcDbLine
 62
7
  6
CONTINUOUS
 10
158.2928941804
 20
67.4692118533
 11
158.2928941804
 21
68.6893486992
  0
LINE
  5
35D
100
AcDbEntity
  8
RACCORDO
100
AcDbLine
 62
7
  6
CONTINUOUS
 10
158.2928941804
 20
82.5436454049
 11
158.2928941804
 21
83.7637822509
  0
LINE
  5
35E
100
AcDbEntity
  8
RACCORDO
100
AcDbLine
 62
7
  6
CONTINUOUS
 10
158.2928941804
 20
102.9762534084
 11
158.2928941804
 21
104.1963902544
  0
LINE
  5
35F
100
AcDbEntity
  8
RACCORDO
100
AcDbLine
 62
7
  6
CONTINUOUS
 10
158.2928941804
 20
118.05068696
 11
158.2928941804
 21
119.270823806
  0
LINE
  5
360
100
AcDbEntity
  8
RACCORDO
100
AcDbLine
 62
7
  6
CONTINUOUS
 10
158.3636048585
 20
116.1959923269
 11
158.3636048585
 21
109.2330654029
  0
LINE
  5
361
100
AcDbEntity
  8
RACCORDO
100
AcDbLine
 62
7
  6
CONTINUOUS
 10
158.3636048585
 20
80.6889507718
 11
158.3636048585
 21
73.7260238477
  0
LINE
  5
362
100
AcDbEntity
  8
RACCORDO
100
AcDbLine
 62
250
  6
CONTINUOUS
 10
158.7746410311
 20
73.9646307398
 11
158.7746410311
 21
80.8911262099
  0
LINE
  5
363
100
AcDbEntity
  8
RACCORDO
100
AcDbLine
 62
250
  6
CONTINUOUS
 10
158.7746410311
 20
109.4716722949
 11
158.7746410311
 21
116.3981677651
  0
LINE
  5
364
100
AcDbEntity
  8
RACCORDO
100
AcDbLine
 62
250
  6
CONTINUOUS
 10
159.0092131558
 20
74.1818466759
 11
159.0092131558
 21
81.0970895887
  0
LINE
  5
365
100
AcDbEntity
  8
RACCORDO
100
AcDbLine
 62
250
  6
CONTINUOUS
 10
159.0092131558
 20
109.6888882311
 11
159.0092131558
 21
116.6041311439
  0
LINE
  5
366
100
AcDbEntity
  8
RACCORDO
100
AcDbLine
 62
250
  6
CONTINUOUS
 10
159.3475196959
 20
74.847369399
 11
159.3475196959
 21
81.6941440619
  0
LINE
  5
367
100
AcDbEntity
  8
RACCORDO
100
AcDbLine
 62
250
  6
CONTINUOUS
 10
159.3475196959
 20
110.3544109541
 11
159.3475196959
 21
117.2011856171
  0
LINE
  5
368
100
AcDbEntity
  8
RACCORDO
100
AcDbLine
 62
7
  6
CONTINUOUS
 10
159.3679642001
 20
74.9250151125
 11
159.3679642001
 21
81.7717897754
  0
LINE
  5
369
100
AcDbEntity
  8
RACCORDO
100
AcDbLine
 62
7
  6
CONTINUOUS
 10
159.3679642001
 20
110.4320566677
 11
159.3679642001
 21
117.2788313306
  0
LINE
  5
36A
100
AcDbEntity
  8
RACCORDO
100
AcDbLine
 62
250
  6
CONTINUOUS
 10
159.3679642001
 20
110.4320566677
 11
159.3678363096
 21
110.4258628762
  0
LWPOLYLINE
  5
36B
100
AcDbEntity
  8
RACCORDO
100
AcDbPolyline
 62
250
  6
CONTINUOUS
 90
8
 70
0
 10
158.7746410311
 20
109.4716722949
 10
158.7727541962
 20
109.4066881688
 10
158.7634030193
 20
109.3463095532
 10
158.7467472538
 20
109.2915679438
 10
158.7230714435
 20
109.2433985348
 10
158.6927800608
 20
109.2026242423
 10
158.6563905976
 20
109.1699416458
 10
158.637779199
 20
109.1577886228
  0
LWPOLYLINE
  5
36C
100
AcDbEntity
  8
RACCORDO
100
AcDbPolyline
 62
250
  6
CONTINUOUS
 90
8
 70
0
 10
158.7746410311
 20
73.9646307398
 10
158.7727541962
 20
73.8996466137
 10
158.7634030193
 20
73.8392679981
 10
158.7467472538
 20
73.7845263886
 10
158.7230714435
 20
73.7363569796
 10
158.6927800608
 20
73.6955826871
 10
158.6563905976
 20
73.6629000906
 10
158.637779199
 20
73.6507470676
  0
LINE
  5
36D
100
AcDbEntity
  8
RACCORDO
100
AcDbLine
 62
250
  6
CONTINUOUS
 10
156.2460879681
 20
66.7729159066
 11
156.2531203222
 21
67.0075074194
  0
LWPOLYLINE
  5
36E
100
AcDbEntity
  8
RACCORDO
100
AcDbPolyline
 62
250
  6
CONTINUOUS
 90
8
 70
0
 10
158.1222255346
 20
101.2813862536
 10
158.1162433579
 20
101.1725929768
 10
158.0983990641
 20
101.0716428316
 10
158.0689977946
 20
100.9802632057
 10
158.0285423391
 20
100.9000176084
 10
157.9777248013
 20
100.8322794691
 10
157.9174149879
 20
100.7782083389
 10
157.9009037296
 20
100.7668956693
  0
LWPOLYLINE
  5
36F
100
AcDbEntity
  8
RACCORDO
100
AcDbPolyline
 62
250
  6
CONTINUOUS
 90
8
 70
0
 10
158.1222255346
 20
87.4249797931
 10
158.1162433579
 20
87.3161865163
 10
158.0983990641
 20
87.2152363711
 10
158.0689977946
 20
87.1238567452
 10
158.0285423391
 20
87.0436111479
 10
157.9777248013
 20
86.9758730086
 10
157.9174149879
 20
86.9218018783
 10
157.9009037296
 20
86.9104892087
  0
LINE
  5
370
100
AcDbEntity
  8
RACCORDO
100
AcDbLine
 62
250
  6
CONTINUOUS
 10
159.3433469489
 20
110.2896456856
 11
159.3475196959
 21
110.3544109541
  0
LWPOLYLINE
  5
371
100
AcDbEntity
  8
RACCORDO
100
AcDbPolyline
 62
250
  6
CONTINUOUS
 90
5
 70
0
 10
159.0092131558
 20
109.6888882311
 10
159.0049703281
 20
109.6236250564
 10
158.9911009393
 20
109.56075314
 10
158.9678370625
 20
109.5013245016
 10
158.9645195305
 20
109.4946465055
  0
LWPOLYLINE
  5
372
100
AcDbEntity
  8
RACCORDO
100
AcDbPolyline
 62
250
  6
CONTINUOUS
 90
10
 70
0
 10
155.9704067724
 20
68.5916084026
 10
155.9765697
 20
68.6829347174
 10
155.9948794356
 20
68.7777707186
 10
156.0248040387
 20
68.8733612004
 10
156.0654741304
 20
68.9669290375
 10
156.11570815
 20
69.0557558672
 10
156.1740466829
 20
69.1372610641
 10
156.2387948593
 20
69.2090767133
 10
156.3080715945
 20
69.2691164035
 10
156.3798642387
 20
69.3156358424
  0
LWPOLYLINE
  5
373
100
AcDbEntity
  8
RACCORDO
100
AcDbPolyline
 62
250
  6
CONTINUOUS
 90
3
 70
0
 10
159.3678363096
 20
110.4258628762
 10
159.3619909219
 20
110.3898303317
 10
159.3475196959
 20
110.3544109541
  0
LINE
  5
374
100
AcDbEntity
  8
RACCORDO
100
AcDbLine
 62
250
  6
CONTINUOUS
 10
153.1244915456
 20
89.9634607549
 11
154.3385229712
 21
90.5840637134
  0
LINE
  5
375
100
AcDbEntity
  8
DRAFT
100
AcDbLine
 62
7
  6
CONTINUOUS
 10
157.018426035
 20
88.6754445979
 11
156.6349998694
 21
88.5341002723
  0
LWPOLYLINE
  5
376
100
AcDbEntity
  8
RACCORDO
100
AcDbPolyline
 62
250
  6
CONTINUOUS
 90
18
 70
0
 10
157.018426035
 20
88.6754445979
 10
157.0733245769
 20
88.6911155303
 10
157.1553603126
 20
88.6996453401
 10
157.2419746865
 20
88.6923475808
 10
157.3316856772
 20
88.6693471479
 10
157.4229583424
 20
88.6310375956
 10
157.5142309743
 20
88.578074426
 10
157.6039418846
 20
88.5113638588
 10
157.6905561618
 20
88.4320472744
 10
157.7725918004
 20
88.3414817907
 10
157.8486451485
 20
88.2412169849
 10
157.9174149664
 20
88.1329682916
 10
157.9777246581
 20
88.018587611
 10
158.0285421076
 20
87.9000322405
 10
158.0689975773
 20
87.7793313321
 10
158.0983989343
 20
87.6585503435
 10
158.1162433172
 20
87.5397556458
 10
158.1222255346
 20
87.4249797931
  0
LINE
  5
377
100
AcDbEntity
  8
RACCORDO
100
AcDbLine
 62
7
  6
CONTINUOUS
 10
157.7925322179
 20
108.8403969581
 11
157.6605552196
 21
108.8696616798
  0
LINE
  5
378
100
AcDbEntity
  8
RACCORDO
100
AcDbLine
 62
7
  6
CONTINUOUS
 10
157.586110306
 20
105.4147527179
 11
156.5955794553
 21
105.9100181433
  0
LWPOLYLINE
  5
379
100
AcDbEntity
  8
RACCORDO
100
AcDbPolyline
 62
250
  6
CONTINUOUS
 90
11
 70
0
 10
137.5966253832
 20
126.4625376245
 10
137.6661877091
 20
126.3856188067
 10
137.7299878208
 20
126.3070013274
 10
137.7876750947
 20
126.2275605479
 10
137.8396001544
 20
126.1464211068
 10
137.8867567516
 20
126.0645091654
 10
137.9292188348
 20
125.9826396965
 10
137.9669124555
 20
125.8999977272
 10
138.000609519
 20
125.8150644998
 10
138.030974765
 20
125.7274361318
 10
138.0573434538
 20
125.6375165057
  0
LWPOLYLINE
  5
37A
100
AcDbEntity
  8
RACCORDO
100
AcDbPolyline
 62
250
  6
CONTINUOUS
 90
11
 70
0
 10
151.1491867055
 20
125.5371918416
 10
151.127915278
 20
125.6100539932
 10
151.1176558411
 20
125.6853986783
 10
151.1187798928
 20
125.7604976595
 10
151.1312467365
 20
125.8326315954
 10
151.1546049456
 20
125.8991885114
 10
151.1880087158
 20
125.9577583788
 10
151.2302484957
 20
126.006220375
 10
151.2797947855
 20
126.0428196848
 10
151.3348535165
 20
126.0662310417
 10
151.3558151696
 20
126.0712852258
  0
LWPOLYLINE
  5
37B
100
AcDbEntity
  8
RACCORDO
100
AcDbPolyline
 62
250
  6
CONTINUOUS
 90
4
 70
0
 10
158.0887502614
 20
101.5545936228
 10
158.0983989343
 20
101.5149568041
 10
158.1162433172
 20
101.3961621064
 10
158.1222255346
 20
101.2813862536
  0
LWPOLYLINE
  5
37C
100
AcDbEntity
  8
RACCORDO
100
AcDbPolyline
 62
7
  6
CONTINUOUS
 90
16
 70
0
 10
158.3093899801
 20
123.1891363694
 10
158.2993889173
 20
123.3314910055
 10
158.2719304357
 20
123.4646491461
 10
158.2294239371
 20
123.5899077384
 10
158.17014694
 20
123.7130372062
 10
158.0936626177
 20
123.8313683326
 10
158.0066727471
 20
123.9345637779
 10
157.9129187099
 20
124.0211934517
 10
157.8099684429
 20
124.0948067845
 10
157.7010338355
 20
124.1533156936
 10
157.5902520669
 20
124.1956447232
 10
157.4775818981
 20
124.2229674966
 10
157.3620960168
 20
124.2356749979
 10
157.2450935905
 20
124.2331844535
 10
157.1297876369
 20
124.2153102483
 10
157.018426035
 20
124.182486153
  0
LWPOLYLINE
  5
37D
100
AcDbEntity
  8
RACCORDO
100
AcDbPolyline
 62
250
  6
CONTINUOUS
 90
13
 70
0
 10
159.0092131558
 20
116.6041311439
 10
159.0049703281
 20
116.6729549806
 10
158.9911009393
 20
116.7419264315
 10
158.9678370625
 20
116.8098914148
 10
158.9355679661
 20
116.8757126897
 10
158.8948336007
 20
116.9382888855
 10
158.8463155642
 20
116.9965729305
 10
158.7908256966
 20
117.0495895726
 10
158.7292924957
 20
117.0964516977
 10
158.6627455811
 20
117.1363751738
 10
158.5922984654
 20
117.1686919715
 10
158.5191299222
 20
117.192861342
 10
158.4444642624
 20
117.2084788654
  0
LINE
  5
37E
100
AcDbEntity
  8
RACCORDO
100
AcDbLine
 62
250
  6
CONTINUOUS
 10
159.3433875353
 20
117.2691620073
 11
159.3475196959
 21
117.2011856171
  0
LINE
  5
37F
100
AcDbEntity
  8
RACCORDO
100
AcDbLine
 62
250
  6
CONTINUOUS
 10
159.3679642001
 20
74.9250151125
 11
159.3678363096
 21
74.9188213211
  0
LWPOLYLINE
  5
380
100
AcDbEntity
  8
RACCORDO
100
AcDbPolyline
 62
250
  6
CONTINUOUS
 90
8
 70
0
 10
158.1222255346
 20
65.7743446985
 10
158.1162433579
 20
65.6655514217
 10
158.0983990641
 20
65.5646012765
 10
158.0689977946
 20
65.4732216505
 10
158.0285423391
 20
65.3929760533
 10
157.9777248013
 20
65.3252379139
 10
157.9174149879
 20
65.2711667837
 10
157.9009037296
 20
65.2598541141
  0
LINE
  5
381
100
AcDbEntity
  8
RACCORDO
100
AcDbLine
 62
250
  6
CONTINUOUS
 10
159.3433469489
 20
74.7826041304
 11
159.3475196959
 21
74.847369399
  0
LWPOLYLINE
  5
382
100
AcDbEntity
  8
RACCORDO
100
AcDbPolyline
 62
250
  6
CONTINUOUS
 90
5
 70
0
 10
159.0092131558
 20
74.1818466759
 10
159.0049703281
 20
74.1165835013
 10
158.9911009393
 20
74.0537115848
 10
158.9678370625
 20
73.9942829464
 10
158.9645195305
 20
73.9876049503
  0
LINE
  5
383
100
AcDbEntity
  8
0
100
AcDbLine
 62
7
  6
CONTINUOUS
 10
139.8573641788
 20
118.1832480308
 11
139.4838538008
 21
118.3877979617
  0
LWPOLYLINE
  5
384
100
AcDbEntity
  8
RACCORDO
100
AcDbPolyline
 62
250
  6
CONTINUOUS
 90
3
 70
0
 10
159.3678363096
 20
74.9188213211
 10
159.3619909219
 20
74.8827887766
 10
159.3475196959
 20
74.847369399
  0
LWPOLYLINE
  5
385
100
AcDbEntity
  8
RACCORDO
100
AcDbPolyline
 62
7
  6
CONTINUOUS
 90
10
 70
0
 10
157.9009037296
 20
86.9104892087
 10
157.9782621085
 20
86.9667655599
 10
158.0501278938
 20
87.0322690915
 10
158.1151982295
 20
87.1064112646
 10
158.1721590052
 20
87.1881843998
 10
158.2200939737
 20
87.2766399824
 10
158.2584448724
 20
87.3712774496
 10
158.2865266069
 20
87.4713399911
 10
158.3036369566
 20
87.5753966782
 10
158.3093899801
 20
87.6820948315
  0
LINE
  5
386
100
AcDbEntity
  8
DRAFT
100
AcDbLine
 62
7
  6
CONTINUOUS
 10
157.9009037296
 20
86.9104892087
 11
157.6426321696
 21
86.7434413443
  0
LWPOLYLINE
  5
387
100
AcDbEntity
  8
0
100
AcDbPolyline
 62
7
  6
CONTINUOUS
 90
9
 70
0
 10
140.1658368562
 20
119.5640447389
 10
139.631663034
 20
119.8000346078
 10
139.1015954044
 20
119.9718903108
 10
138.5804557531
 20
120.0777939742
 10
138.0723547305
 20
120.1165224034
 10
137.5826916299
 20
120.08726448
 10
137.1178272348
 20
119.9905336333
 10
136.6832033118
 20
119.8283969048
 10
136.545361977
 20
119.7601080883
  0
LWPOLYLINE
  5
388
100
AcDbEntity
  8
0
100
AcDbPolyline
 62
7
  6
CONTINUOUS
 90
20
 70
0
 10
139.4838538008
 20
118.3877979617
 10
139.1103434353
 20
118.5567584043
 10
138.7430529278
 20
118.6896979843
 10
138.3819822783
 20
118.7866167018
 10
138.0252125027
 20
118.8476364454
 10
137.6746625851
 20
118.8726353266
 10
137.3360894781
 20
118.8612476789
 10
137.0096872258
 20
118.8128900489
 10
136.6952617842
 20
118.7281458901
 10
136.3979879734
 20
118.608399897
 10
136.1181355784
 20
118.4530843636
 10
135.8554348143
 20
118.262766996
 10
135.6142511456
 20
118.0405356061
 10
135.3949147681
 20
117.7857965094
 10
135.1970954861
 20
117.4991433905
 10
135.0241681769
 20
117.1854451152
 10
134.876590362
 20
116.8442709722
 10
134.7539045199
 20
116.4760516728
 10
134.6581129645
 20
116.0869482172
 10
134.5896622203
 20
115.676645724
  0
LINE
  5
389
100
AcDbEntity
  8
RACCORDO
100
AcDbLine
 62
250
  6
CONTINUOUS
 10
141.9720385966
 20
120.2673521431
 11
141.5162816709
 21
120.4952338414
  0
LWPOLYLINE
  5
38A
100
AcDbEntity
  8
RACCORDO
100
AcDbPolyline
 62
250
  6
CONTINUOUS
 90
4
 70
0
 10
159.3475196959
 20
81.6941440619
 10
159.361990921
 20
81.7295634363
 10
159.3678363094
 20
81.7655959783
 10
159.3679642001
 20
81.7717897754
  0
LWPOLYLINE
  5
38B
100
AcDbEntity
  8
RACCORDO
100
AcDbPolyline
 62
250
  6
CONTINUOUS
 90
4
 70
0
 10
151.149186643
 20
65.2352815284
 10
151.1279032384
 20
65.1939458903
 10
151.1176340878
 20
65.1592265275
 10
151.1187507675
 20
65.1323807713
  0
LINE
  5
38C
100
AcDbEntity
  8
RACCORDO
100
AcDbLine
 62
250
  6
CONTINUOUS
 10
158.444464262
 20
81.7014373096
 11
158.7827708026
 21
82.2984917834
  0
LINE
  5
38D
100
AcDbEntity
  8
RACCORDO
100
AcDbLine
 62
250
  6
CONTINUOUS
 10
159.0092131558
 20
81.0970895887
 11
159.3475196959
 21
81.6941440619
  0
LWPOLYLINE
  5
38E
100
AcDbEntity
  8
RACCORDO
100
AcDbPolyline
 62
250
  6
CONTINUOUS
 90
10
 70
0
 10
158.444464262
 20
81.7014373096
 10
158.4384116293
 20
81.691770525
 10
158.4312621603
 20
81.6823068933
 10
158.4230158552
 20
81.6730464145
 10
158.4136678641
 20
81.6639639782
 10
158.4032230368
 20
81.6550846949
 10
158.3916959231
 20
81.6464838949
 10
158.3790913727
 20
81.6381866885
 10
158.3654045359
 20
81.6301679655
 10
158.3506354126
 20
81.6224277258
  0
LINE
  5
38F
100
AcDbEntity
  8
RACCORDO
100
AcDbLine
 62
250
  6
CONTINUOUS
 10
157.0788627547
 20
83.1431792924
 11
158.2928941804
 21
83.7637822509
  0
LWPOLYLINE
  5
390
100
AcDbEntity
  8
RACCORDO
100
AcDbPolyline
 62
250
  6
CONTINUOUS
 90
11
 70
0
 10
156.7935712708
 20
81.4945945851
 10
156.8042560397
 20
81.4992775999
 10
156.8564498491
 20
81.5285392346
 10
156.9027562986
 20
81.5651832566
 10
156.9443156757
 20
81.609546491
 10
156.9806250235
 20
81.6609283948
 10
157.0115695307
 20
81.719016844
 10
157.0378635322
 20
81.7862186692
 10
157.0587397237
 20
81.8637455162
 10
157.0727509669
 20
81.9505998564
 10
157.0788627547
 20
82.0464232947
  0
LWPOLYLINE
  5
391
100
AcDbEntity
  8
RACCORDO
100
AcDbPolyline
 62
250
  6
CONTINUOUS
 90
6
 70
0
 10
158.7827708026
 20
82.2984917834
 10
158.8335376346
 20
82.3202915871
 10
158.8846949191
 20
82.3327588139
 10
158.9346951253
 20
82.3357346561
 10
158.9816150056
 20
82.3295152335
 10
159.0210557172
 20
82.3157975764
  0
LINE
  5
392
100
AcDbEntity
  8
RACCORDO
100
AcDbLine
 62
250
  6
CONTINUOUS
 10
154.9853709858
 20
81.7159812184
 11
155.39900547
 21
81.891747599
  0
LINE
  5
393
100
AcDbEntity
  8
RACCORDO
100
AcDbLine
 62
7
  6
CONTINUOUS
 10
157.6605552196
 20
81.3801919255
 11
156.4540778609
 21
80.8675215204
  0
LINE
  5
394
100
AcDbEntity
  8
RACCORDO
100
AcDbLine
 62
250
  6
CONTINUOUS
 10
156.7907719835
 20
81.4934344763
 11
156.7935712708
 21
81.4945945851
  0
LINE
  5
395
100
AcDbEntity
  8
RACCORDO
100
AcDbLine
 62
250
  6
CONTINUOUS
 10
157.0788627547
 20
82.0464232947
 11
158.2928941804
 21
82.5436454049
  0
LINE
  5
396
100
AcDbEntity
  8
RACCORDO
100
AcDbLine
 62
7
  6
CONTINUOUS
 10
156.7907753735
 20
81.4934358647
 11
158.0078619179
 21
81.9919092379
  0
LWPOLYLINE
  5
397
100
AcDbEntity
  8
RACCORDO
100
AcDbPolyline
 62
7
  6
CONTINUOUS
 90
6
 70
0
 10
155.1153411627
 20
117.5412721936
 10
155.1058006147
 20
117.5403478261
 10
155.1020209016
 20
117.540273473
 10
155.1090943295
 20
117.5387610282
 10
155.1266582233
 20
117.5331842088
 10
155.1552055681
 20
117.5206904173
  0
LWPOLYLINE
  5
398
100
AcDbEntity
  8
RACCORDO
100
AcDbPolyline
 62
250
  6
CONTINUOUS
 90
10
 70
0
 10
141.5162816709
 20
120.4952338414
 10
141.061999859
 20
120.6774618376
 10
140.612137196
 20
120.8128540606
 10
140.169613813
 20
120.9005305284
 10
139.7373067896
 20
120.9399215266
 10
139.3180232605
 20
120.9307733685
 10
138.9144780859
 20
120.8731474475
 10
138.5292837493
 20
120.7674175559
 10
138.164936994
 20
120.6142685944
 10
138.105941927
 20
120.5839531333
  0
LWPOLYLINE
  5
399
100
AcDbEntity
  8
0
100
AcDbPolyline
 62
7
  6
CONTINUOUS
 90
13
 70
0
 10
141.6051741444
 20
120.3144835373
 10
141.2919606058
 20
120.4602839514
 10
140.9816221954
 20
120.5839608664
 10
140.674158913
 20
120.6855142824
 10
140.3687100248
 20
120.7651136455
 10
140.0661362648
 20
120.8225895096
 10
139.7690198343
 20
120.8574335355
 10
139.477275899
 20
120.8694361492
 10
139.1909892933
 20
120.8588069246
 10
138.9129967225
 20
120.8256662447
 10
138.6435528683
 20
120.7698522681
 10
138.382403049
 20
120.6915268361
 10
138.1316199249
 20
120.5912958558
  0
LWPOLYLINE
  5
39A
100
AcDbEntity
  8
RACCORDO
100
AcDbPolyline
 62
7
  6
CONTINUOUS
 90
16
 70
0
 10
137.4175428114
 20
126.3895206215
 10
137.4485570317
 20
126.3722738497
 10
137.4931141149
 20
126.3421198814
 10
137.5445090693
 20
126.3001199616
 10
137.5988877127
 20
126.2473841884
 10
137.6539305005
 20
126.1847782092
 10
137.7080323102
 20
126.1129333827
 10
137.7587597249
 20
126.0341906666
 10
137.8046502906
 20
125.9503911793
 10
137.8445479288
 20
125.8634833767
 10
137.877254511
 20
125.7764559911
 10
137.902445032
 20
125.6912644418
 10
137.919992644
 20
125.6101922985
 10
137.9300427547
 20
125.5367142882
 10
137.9336074674
 20
125.4729840029
 10
137.9336714602
 20
125.4639270189
  0
LWPOLYLINE
  5
39B
100
AcDbEntity
  8
RACCORDO
100
AcDbPolyline
 62
250
  6
CONTINUOUS
 90
6
 70
0
 10
136.0081947658
 20
127.6867390413
 10
135.942983159
 20
127.7253676296
 10
135.8916679584
 20
127.7689234754
 10
135.8557071857
 20
127.8161701556
 10
135.836123009
 20
127.865766373
 10
135.8324588345
 20
127.898870691
  0
LWPOLYLINE
  5
39C
100
AcDbEntity
  8
RACCORDO
100
AcDbPolyline
 62
250
  6
CONTINUOUS
 90
5
 70
0
 10
137.2613932568
 20
126.7141515853
 10
137.3537525865
 20
126.6594204753
 10
137.4404078219
 20
126.5994384588
 10
137.5213589631
 20
126.5342055357
 10
137.5966253832
 20
126.4625376245
  0
LWPOLYLINE
  5
39D
100
AcDbEntity
  8
RACCORDO
100
AcDbPolyline
 62
250
  6
CONTINUOUS
 90
6
 70
0
 10
138.1094071869
 20
125.2515472068
 10
138.0435184953
 20
125.2906544802
 10
137.9918698784
 20
125.3347885242
 10
137.9559618481
 20
125.3826671425
 10
137.9368376161
 20
125.4328993502
 10
137.9336712556
 20
125.4636792412
  0
LINE
  5
39E
100
AcDbEntity
  8
RACCORDO
100
AcDbLine
 62
250
  6
CONTINUOUS
 10
141.6969523677
 20
130.9528738266
 11
141.6857520468
 21
130.964841125
  0
LWPOLYLINE
  5
39F
100
AcDbEntity
  8
RACCORDO
100
AcDbPolyline
 62
250
  6
CONTINUOUS
 90
31
 70
0
 10
141.6857520468
 20
130.964841125
 10
141.6760536567
 20
130.975709256
 10
141.6671185653
 20
130.9863052777
 10
141.6589283735
 20
130.996603511
 10
141.6514725951
 20
131.0065730952
 10
141.6447243104
 20
131.016198153
 10
141.6386406653
 20
131.0254780451
 10
141.6332086596
 20
131.0343878424
 10
141.6284047501
 20
131.0429149588
 10
141.6241717328
 20
131.0510801518
 10
141.6204959058
 20
131.0588633234
 10
141.6173575635
 20
131.0662556574
 10
141.6146933897
 20
131.073297994
 10
141.6124884916
 20
131.0799770208
 10
141.61072949
 20
131.0862848832
 10
141.6093594186
 20
131.0922738046
 10
141.6083631631
 20
131.0979380087
 10
141.607733621
 20
131.1032685085
 10
141.6074302816
 20
131.1083155145
 10
141.6074390354
 20
131.1130787025
 10
141.6077573477
 20
131.1175483554
 10
141.6083660759
 20
131.1217627459
 10
141.6092525266
 20
131.1257256519
 10
141.6104172573
 20
131.1294264987
 10
141.6118641321
 20
131.1328835046
 10
141.6135816016
 20
131.1361040872
 10
141.6155722675
 20
131.1390761098
 10
141.6178631454
 20
131.1417893061
 10
141.6204610041
 20
131.1442391386
 10
141.6233517389
 20
131.1464265994
 10
141.6265317324
 20
131.1483500722
  0
LWPOLYLINE
  5
3A0
100
AcDbEntity
  8
RACCORDO
100
AcDbPolyline
 62
250
  6
CONTINUOUS
 90
6
 70
0
 10
151.8000975256
 20
126.1327060517
 10
151.7851841283
 20
126.1557437597
 10
151.770770841
 20
126.1726881959
 10
151.7571005854
 20
126.1832540581
 10
151.7444040706
 20
126.1872636125
 10
151.7392440631
 20
126.1869411773
  0
LWPOLYLINE
  5
3A1
100
AcDbEntity
  8
RACCORDO
100
AcDbPolyline
 62
250
  6
CONTINUOUS
 90
4
 70
0
 10
159.2751524211
 20
117.4705084269
 10
159.3069613587
 20
117.4049654113
 10
159.3298167005
 20
117.3374630988
 10
159.3433875353
 20
117.2691620073
  0
LWPOLYLINE
  5
3A2
100
AcDbEntity
  8
RACCORDO
100
AcDbPolyline
 62
250
  6
CONTINUOUS
 90
3
 70
0
 10
159.3065935648
 20
74.6607365249
 10
159.3296511647
 20
74.7200398681
 10
159.3433469489
 20
74.7826041304
  0
LINE
  5
3A3
100
AcDbEntity
  8
RACCORDO
100
AcDbLine
 62
250
  6
CONTINUOUS
 10
159.3028260706
 20
74.6531276734
 11
159.3065935648
 21
74.6607365249
  0
LINE
  5
3A4
100
AcDbEntity
  8
RACCORDO
100
AcDbLine
 62
250
  6
CONTINUOUS
 10
159.3475196959
 20
74.847369399
 11
159.0092131558
 21
74.1818466759
  0
LINE
  5
3A5
100
AcDbEntity
  8
RACCORDO
100
AcDbLine
 62
7
  6
CONTINUOUS
 10
159.3028260706
 20
74.6531276734
 11
158.9645195305
 21
73.9876049503
  0
LWPOLYLINE
  5
3A6
100
AcDbEntity
  8
RACCORDO
100
AcDbPolyline
 62
250
  6
CONTINUOUS
 90
10
 70
0
 10
158.7746410311
 20
80.8911262099
 10
158.811491434
 20
80.911346717
 10
158.8457267159
 20
80.9324181628
 10
158.877292302
 20
80.9542542028
 10
158.9061253928
 20
80.9767509523
 10
158.9322167651
 20
80.9998395235
 10
158.9555921409
 20
81.0234913756
 10
158.9762368533
 20
81.0476457144
 10
158.9941139278
 20
81.0722047332
 10
159.0092131558
 20
81.0970895887
  0
LINE
  5
3A7
100
AcDbEntity
  8
RACCORDO
100
AcDbLine
 62
250
  6
CONTINUOUS
 10
157.7925322179
 20
81.3479147622
 11
158.3506354126
 21
81.6224277258
  0
LINE
  5
3A8
100
AcDbEntity
  8
RACCORDO
100
AcDbLine
 62
250
  6
CONTINUOUS
 10
158.3636048585
 20
80.6889507718
 11
158.7746410311
 21
80.8911262099
  0
LINE
  5
3A9
100
AcDbEntity
  8
RACCORDO
100
AcDbLine
 62
250
  6
CONTINUOUS
 10
158.7827708026
 20
117.8055333385
 11
158.8574457683
 21
117.7899133106
  0
LINE
  5
3AA
100
AcDbEntity
  8
RACCORDO
100
AcDbLine
 62
7
  6
CONTINUOUS
 10
157.7925322179
 20
116.8549563173
 11
157.6605552196
 21
116.8872334807
  0
LWPOLYLINE
  5
3AB
100
AcDbEntity
  8
RACCORDO
100
AcDbPolyline
 62
250
  6
CONTINUOUS
 90
5
 70
0
 10
158.8574457683
 20
117.7899133106
 10
158.9307978366
 20
117.7656705683
 10
159.0015779849
 20
117.7331520626
 10
159.0687059766
 20
117.692754581
 10
159.1308468656
 20
117.6451757646
  0
LWPOLYLINE
  5
3AC
100
AcDbEntity
  8
RACCORDO
100
AcDbPolyline
 62
250
  6
CONTINUOUS
 90
8
 70
0
 10
158.7827708026
 20
117.8055333385
 10
158.7103585965
 20
117.8345320151
 10
158.6370712089
 20
117.8591881197
 10
158.5629086397
 20
117.8795016522
 10
158.4869961495
 20
117.8951956997
 10
158.4102084777
 20
117.9065471751
 10
158.335169843
 20
117.9143868174
 10
158.2823758262
 20
117.9176012471
  0
LWPOLYLINE
  5
3AD
100
AcDbEntity
  8
RACCORDO
100
AcDbPolyline
 62
250
  6
CONTINUOUS
 90
16
 70
0
 10
155.9704067724
 20
117.3596448275
 10
156.0043209116
 20
117.3459095373
 10
156.036281539
 20
117.3367557109
 10
156.0662886547
 20
117.3321833482
 10
156.0944953159
 20
117.3325875244
 10
156.1207484653
 20
117.3375731643
 10
156.1445889311
 20
117.3459550427
 10
156.1657832575
 20
117.3575006507
 10
156.1845649003
 20
117.3724424972
 10
156.2011750555
 20
117.3902928842
 10
156.2157903003
 20
117.4106382416
 10
156.2282340576
 20
117.4338921395
 10
156.2382177919
 20
117.4608075894
 10
156.2456453249
 20
117.4916355953
 10
156.250612835
 20
117.5261251532
 10
156.2531203222
 20
117.5642762631
  0
LWPOLYLINE
  5
3AE
100
AcDbEntity
  8
RACCORDO
100
AcDbPolyline
 62
250
  6
CONTINUOUS
 90
10
 70
0
 10
154.1519079011
 20
117.2302968497
 10
154.2301322438
 20
117.1973490593
 10
154.3184092541
 20
117.1715237654
 10
154.4141730112
 20
117.1535706696
 10
154.5146401407
 20
117.1440106523
 10
154.6168917322
 20
117.1431205824
 10
154.7179581847
 20
117.1509256171
 10
154.8149039745
 20
117.1671985286
 10
154.9049129215
 20
117.1914660538
 10
154.9853709858
 20
117.2230227736
  0
LWPOLYLINE
  5
3AF
100
AcDbEntity
  8
RACCORDO
100
AcDbPolyline
 62
250
  6
CONTINUOUS
 90
10
 70
0
 10
156.2531203222
 20
117.5642762631
 10
156.3303849892
 20
117.5316679171
 10
156.4175035194
 20
117.506009549
 10
156.5120019774
 20
117.4880297887
 10
156.6111968576
 20
117.4782392136
 10
156.7122712882
 20
117.47691585
 10
156.8123550235
 20
117.484097278
 10
156.9086059506
 20
117.4995795642
 10
156.9982907983
 20
117.5229230525
 10
157.0788627547
 20
117.5534648498
  0
LWPOLYLINE
  5
3B0
100
AcDbEntity
  8
RACCORDO
100
AcDbPolyline
 62
250
  6
CONTINUOUS
 90
10
 70
0
 10
156.2531203222
 20
118.6610322608
 10
156.3303824903
 20
118.6284248126
 10
156.4174987587
 20
118.6027667116
 10
156.5119955791
 20
118.5847867304
 10
156.6111898195
 20
118.5749956307
 10
156.7122646375
 20
118.5736716819
 10
156.8123494571
 20
118.5808526575
 10
156.9086019472
 20
118.5963347446
 10
156.9982887415
 20
118.6196784098
 10
157.0788627547
 20
118.6502208476
  0
LWPOLYLINE
  5
3B1
100
AcDbEntity
  8
RACCORDO
100
AcDbPolyline
 62
7
  6
CONTINUOUS
 90
8
 70
0
 10
156.1270071986
 20
117.0347896585
 10
156.1827073674
 20
117.0093167341
 10
156.2904253996
 20
116.9724368855
 10
156.4004657575
 20
116.9505150941
 10
156.5110656438
 20
116.944030704
 10
156.6199164883
 20
116.9530404441
 10
156.7246994179
 20
116.9769551987
 10
156.7935376383
 20
117.001619883
  0
LINE
  5
3B2
100
AcDbEntity
  8
RACCORDO
100
AcDbLine
 62
250
  6
CONTINUOUS
 10
156.1815584073
 20
116.5108228024
 11
156.4540778609
 21
116.3745630756
  0
LINE
  5
3B3
100
AcDbEntity
  8
RACCORDO
100
AcDbLine
 62
7
  6
CONTINUOUS
 10
136.446844227
 20
126.8748697757
 11
137.4173318821
 21
126.3896259481
  0
LINE
  5
3B4
100
AcDbEntity
  8
RACCORDO
100
AcDbLine
 62
7
  6
CONTINUOUS
 10
155.1558550495
 20
117.5203643644
 11
156.1263427899
 21
117.0351204942
  0
LINE
  5
3B5
100
AcDbEntity
  8
RACCORDO
100
AcDbLine
 62
250
  6
CONTINUOUS
 10
136.2909083155
 20
127.1993940559
 11
137.2613932568
 21
126.7141515853
  0
LINE
  5
3B6
100
AcDbEntity
  8
RACCORDO
100
AcDbLine
 62
250
  6
CONTINUOUS
 10
154.9999191381
 20
117.8448886446
 11
155.9704067724
 21
117.3596448275
  0
LWPOLYLINE
  5
3B7
100
AcDbEntity
  8
RACCORDO
100
AcDbPolyline
 62
250
  6
CONTINUOUS
 90
6
 70
0
 10
136.0081947658
 20
128.783495039
 10
135.9429780737
 20
128.8221273725
 10
135.8916613376
 20
128.8656866376
 10
135.8557018169
 20
128.9129358667
 10
135.8361206666
 20
128.9625333067
 10
135.8324588689
 20
128.995525504
  0
LWPOLYLINE
  5
3B8
100
AcDbEntity
  8
RACCORDO
100
AcDbPolyline
 62
250
  6
CONTINUOUS
 90
4
 70
0
 10
159.1308468656
 20
117.6451757646
 10
159.1865550059
 20
117.5915501729
 10
159.2348425835
 20
117.5330271932
 10
159.2751524211
 20
117.4705084269
  0
LWPOLYLINE
  5
3B9
100
AcDbEntity
  8
RACCORDO
100
AcDbPolyline
 62
250
  6
CONTINUOUS
 90
7
 70
0
 10
159.0092131558
 20
74.1818466759
 10
158.9941190357
 20
74.1558348879
 10
158.9762472427
 20
74.1301161824
 10
158.9556073347
 20
74.1047694616
 10
158.9322356455
 20
74.0798904156
 10
158.9061462251
 20
74.0555421777
 10
158.8773127651
 20
74.0317600832
  0
LWPOLYLINE
  5
3BA
100
AcDbEntity
  8
0
100
AcDbPolyline
 62
7
  6
CONTINUOUS
 90
19
 70
0
 10
145.3192510114
 20
70.7966602254
 10
145.5494069636
 20
70.9410027961
 10
145.7668049041
 20
71.1057435268
 10
145.9711292188
 20
71.2908874516
 10
146.1626955218
 20
71.4964295364
 10
146.3400593387
 20
71.72084729
 10
146.5032759711
 20
71.9645779616
 10
146.6522901175
 20
72.2271843021
 10
146.7854913986
 20
72.5058320729
 10
146.9025903784
 20
72.8003268292
 10
147.0038764931
 20
73.1108630157
 10
147.0886076719
 20
73.435189728
 10
147.1567245494
 20
73.773844797
 10
147.208286491
 20
74.1262903917
 10
147.2427295226
 20
74.4886621148
 10
147.2598656004
 20
74.8605826537
 10
147.2598827683
 20
75.2424293209
 10
147.2427811832
 20
75.6314696567
 10
147.2083743957
 20
76.0282638623
  0
LWPOLYLINE
  5
3BB
100
AcDbEntity
  8
0
100
AcDbPolyline
 62
7
  6
CONTINUOUS
 90
14
 70
0
 10
143.668349069
 20
70.0070923492
 10
144.0507868062
 20
70.2235664339
 10
144.4196084222
 20
70.5124272266
 10
144.7526552776
 20
70.8641328874
 10
145.0446952563
 20
71.274898666
 10
145.2909098797
 20
71.7378339191
 10
145.4886739006
 20
72.245221996
 10
145.6382292606
 20
72.7942744317
 10
145.7394980047
 20
73.3847946264
 10
145.7910677696
 20
74.0156710978
 10
145.7910677462
 20
74.6782388138
 10
145.7394979357
 20
75.3606850586
 10
145.6382291522
 20
76.0524739796
 10
145.4886737605
 20
76.7510817417
  0
LINE
  5
3BC
100
AcDbEntity
  8
0
100
AcDbLine
 62
7
  6
CONTINUOUS
 10
145.1234788606
 20
70.6949322129
 11
145.3192510114
 21
70.7966602254
  0
LWPOLYLINE
  5
3BD
100
AcDbEntity
  8
RACCORDO
100
AcDbPolyline
 62
250
  6
CONTINUOUS
 90
13
 70
0
 10
145.263773075
 20
70.7612492822
 10
145.3233177213
 20
70.7902036778
 10
145.6644523786
 20
70.9897782526
 10
145.9801622335
 20
71.2344839725
 10
146.2683996328
 20
71.5227335908
 10
146.5272955004
 20
71.8526578241
 10
146.7551710641
 20
72.2221173933
 10
146.9505485027
 20
72.628716581
 10
147.1121604881
 20
73.0698183123
 10
147.2389587365
 20
73.5425615832
 10
147.3301208876
 20
74.0438803474
 10
147.3850557503
 20
74.5705234836
 10
147.4034070445
 20
75.1190755151
  0
LINE
  5
3BE
100
AcDbEntity
  8
DRAFT
100
AcDbLine
 62
7
  6
CONTINUOUS
 10
149.4169989684
 20
72.724479176
 11
145.263773075
 21
70.7612492822
  0
LINE
  5
3BF
100
AcDbEntity
  8
0
100
AcDbLine
 62
7
  6
CONTINUOUS
 10
145.1233114224
 20
70.6948530586
 11
143.668349069
 21
70.0070923492
  0
LWPOLYLINE
  5
3C0
100
AcDbEntity
  8
RACCORDO
100
AcDbPolyline
 62
7
  6
CONTINUOUS
 90
6
 70
0
 10
159.022601191
 20
117.8221112214
 10
158.8821325609
 20
117.8794189602
 10
158.7377442558
 20
117.9238586673
 10
158.5874571899
 20
117.9572469672
 10
158.4323968907
 20
117.9797409124
 10
158.2891929968
 20
117.9902112614
  0
LINE
  5
3C1
100
AcDbEntity
  8
RACCORDO
100
AcDbLine
 62
7
  6
CONTINUOUS
 10
141.767568453
 20
130.8899815118
 11
141.7671294604
 21
130.89029918
  0
LINE
  5
3C2
100
AcDbEntity
  8
RACCORDO
100
AcDbLine
 62
250
  6
CONTINUOUS
 10
142.595123638
 20
130.7206520762
 11
141.9005424061
 21
131.2240462618
  0
LWPOLYLINE
  5
3C3
100
AcDbEntity
  8
RACCORDO
100
AcDbPolyline
 62
250
  6
CONTINUOUS
 90
8
 70
0
 10
141.7671294604
 20
130.89029918
 10
141.7579719953
 20
130.8971535639
 10
141.7484017021
 20
130.9047666208
 10
141.7386639519
 20
130.9129682119
 10
141.7287614231
 20
130.9217594923
 10
141.7185135204
 20
130.9313134575
 10
141.7078810259
 20
130.9417007878
 10
141.6969523677
 20
130.9528738266
  0
LWPOLYLINE
  5
3C4
100
AcDbEntity
  8
RACCORDO
100
AcDbPolyline
 62
250
  6
CONTINUOUS
 90
3
 70
0
 10
158.8773127651
 20
74.0317600832
 10
158.8457439281
 20
74.0086154263
 10
158.8115019858
 20
73.98621011
  0
LWPOLYLINE
  5
3C5
100
AcDbEntity
  8
RACCORDO
100
AcDbPolyline
 62
7
  6
CONTINUOUS
 90
7
 70
0
 10
158.637779199
 20
73.6507470676
 10
158.6845344729
 20
73.6797673964
 10
158.7647413488
 20
73.7394200413
 10
158.8359366897
 20
73.8062085793
 10
158.897531386
 20
73.8795212904
 10
158.9484355715
 20
73.9576751256
 10
158.9641267701
 20
73.986834346
  0
LINE
  5
3C6
100
AcDbEntity
  8
RACCORDO
100
AcDbLine
 62
250
  6
CONTINUOUS
 10
158.8115019858
 20
73.98621011
 11
158.3636048585
 21
73.7260238477
  0
LINE
  5
3C7
100
AcDbEntity
  8
RACCORDO
100
AcDbLine
 62
7
  6
CONTINUOUS
 10
158.637779199
 20
73.6507470676
 11
158.1703933745
 21
73.3794273575
  0
LINE
  5
3C8
100
AcDbEntity
  8
RACCORDO
100
AcDbLine
 62
7
  6
CONTINUOUS
 10
157.6605552196
 20
73.3626201246
 11
156.4540778609
 21
72.7502321916
  0
LINE
  5
3C9
100
AcDbEntity
  8
RACCORDO
100
AcDbLine
 62
7
  6
CONTINUOUS
 10
145.207578551
 20
70.7386324753
 11
145.263773075
 21
70.7612492822
  0
LINE
  5
3CA
100
AcDbEntity
  8
RACCORDO
100
AcDbLine
 62
250
  6
CONTINUOUS
 10
151.9731484836
 20
126.1742254386
 11
151.9186190066
 21
126.1596761823
  0
LWPOLYLINE
  5
3CB
100
AcDbEntity
  8
RACCORDO
100
AcDbPolyline
 62
250
  6
CONTINUOUS
 90
3
 70
0
 10
151.9186190066
 20
126.1596761823
 10
151.8609372469
 20
126.1458331963
 10
151.8001032047
 20
126.1326964805
  0
LWPOLYLINE
  5
3CC
100
AcDbEntity
  8
RACCORDO
100
AcDbPolyline
 62
7
  6
CONTINUOUS
 90
12
 70
0
 10
151.7697686193
 20
126.1931474915
 10
151.7280728893
 20
126.1847132984
 10
151.6734603959
 20
126.171857006
 10
151.6209919948
 20
126.1569637622
 10
151.5715528283
 20
126.1411452154
 10
151.52501329
 20
126.1251756861
 10
151.4817100301
 20
126.1099614098
 10
151.444092067
 20
126.0969387847
 10
151.4121394411
 20
126.0864451356
 10
151.3854802584
 20
126.0784852255
 10
151.366101945
 20
126.0734870707
 10
151.3565992871
 20
126.0714365048
  0
LINE
  5
3CD
100
AcDbEntity
  8
RACCORDO
100
AcDbLine
 62
7
  6
CONTINUOUS
 10
151.3558151696
 20
126.0712852258
 11
151.3565992879
 21
126.071436505
  0
LWPOLYLINE
  5
3CE
100
AcDbEntity
  8
RACCORDO
100
AcDbPolyline
 62
250
  6
CONTINUOUS
 90
13
 70
0
 10
151.1491866429
 20
125.5371918308
 10
151.1347081676
 20
125.5347095476
 10
151.1197922113
 20
125.5330643125
 10
151.1044387738
 20
125.5322561254
 10
151.0887246795
 20
125.5322097192
 10
151.072573104
 20
125.533000361
 10
151.0557535751
 20
125.5348538525
 10
151.0382398157
 20
125.537719878
 10
151.0200581028
 20
125.5416487532
 10
151.0010567946
 20
125.547017226
 10
150.9811853438
 20
125.5539508791
 10
150.9604942976
 20
125.5623241299
 10
150.938983656
 20
125.5721369782
  0
LWPOLYLINE
  5
3CF
100
AcDbEntity
  8
RACCORDO
100
AcDbPolyline
 62
250
  6
CONTINUOUS
 90
28
 70
0
 10
139.5388833454
 20
131.3423434796
 10
139.2636237377
 20
131.4643777392
 10
138.99725081
 20
131.560240406
 10
138.7397645621
 20
131.62993148
 10
138.4902099045
 20
131.6721976833
 10
138.2495419267
 20
131.6882922939
 10
138.0206258977
 20
131.6819751447
 10
137.8031208937
 20
131.6522523966
 10
137.5973678383
 20
131.6001178888
 10
137.4072547716
 20
131.5323129717
 10
137.2345962838
 20
131.4488391797
 10
137.0775777847
 20
131.3496949785
 10
136.9346435429
 20
131.2416171148
 10
136.8063177618
 20
131.1256110722
 10
136.6920762381
 20
131.0006713672
 10
136.5887906309
 20
130.870518296
 10
136.4963399115
 20
130.7362607621
 10
136.4148451085
 20
130.596789862
 10
136.341540967
 20
130.4524991814
 10
136.2760751426
 20
130.304966053
 10
136.2187999795
 20
130.1526131441
 10
136.168007256
 20
129.991102042
 10
136.1226746366
 20
129.820377035
 10
136.0838244567
 20
129.6404938347
 10
136.0528155012
 20
129.4472811628
 10
136.0301006983
 20
129.2393485931
 10
136.0152271199
 20
129.0180865519
 10
136.0081947658
 20
128.783495039
  0
LINE
  5
3D0
100
AcDbEntity
  8
RACCORDO
100
AcDbLine
 62
250
  6
CONTINUOUS
 10
150.938983656
 20
125.5721369782
 11
141.3223314319
 21
130.3804630903
  0
LINE
  5
3D1
100
AcDbEntity
  8
RACCORDO
100
AcDbLine
 62
250
  6
CONTINUOUS
 10
152.7224317426
 20
124.750569281
 11
151.1491866429
 21
125.5371918308
  0
LINE
  5
3D2
100
AcDbEntity
  8
RACCORDO
100
AcDbLine
 62
250
  6
CONTINUOUS
 10
141.1121284451
 20
130.5557209297
 11
139.5388833454
 21
131.3423434796
  0
LINE
  5
3D3
100
AcDbEntity
  8
RACCORDO
100
AcDbLine
 62
7
  6
CONTINUOUS
 10
151.3860559795
 20
126.0786571245
 11
141.7840595826
 21
130.8796553229
  0
LINE
  5
3D4
100
AcDbEntity
  8
RACCORDO
100
AcDbLine
 62
250
  6
CONTINUOUS
 10
139.9409431483
 20
132.0622765087
 11
141.2653314892
 21
131.4000823383
  0
LINE
  5
3D5
100
AcDbEntity
  8
RACCORDO
100
AcDbLine
 62
250
  6
CONTINUOUS
 10
151.8001032047
 20
126.1326964805
 11
153.1244915456
 21
125.4705023101
  0
LWPOLYLINE
  5
3D6
100
AcDbEntity
  8
RACCORDO
100
AcDbPolyline
 62
250
  6
CONTINUOUS
 90
13
 70
0
 10
141.3223314319
 20
130.3804630903
 10
141.3036178547
 20
130.3904523222
 10
141.2852960525
 20
130.4011586411
 10
141.2673660253
 20
130.4125820468
 10
141.2499457569
 20
130.4246566777
 10
141.2329172636
 20
130.4374483956
 10
141.2159265937
 20
130.4511547857
 10
141.1989276347
 20
130.4657408018
 10
141.1819664991
 20
130.4812414903
 10
141.1648275737
 20
130.4979595749
 10
141.1474389874
 20
130.5159959637
 10
141.1298726111
 20
130.5352497486
 10
141.1121284451
 20
130.5557209297
  0
LWPOLYLINE
  5
3D7
100
AcDbEntity
  8
RACCORDO
100
AcDbPolyline
 62
7
  6
CONTINUOUS
 90
4
 70
0
 10
141.7840538488
 20
130.8796581897
 10
141.7790899929
 20
130.8823833263
 10
141.7711801966
 20
130.8874427487
 10
141.7675592722
 20
130.8899883124
  0
LWPOLYLINE
  5
3D8
100
AcDbEntity
  8
RACCORDO
100
AcDbPolyline
 62
250
  6
CONTINUOUS
 90
10
 70
0
 10
141.6028968498
 20
131.7040016145
 10
141.6522368599
 20
131.6743009616
 10
141.7005274756
 20
131.6352165639
 10
141.7463014111
 20
131.5879359809
 10
141.7881678484
 20
131.5338958093
 10
141.8248546972
 20
131.4747380323
 10
141.855247246
 20
131.4122601291
 10
141.8784220326
 20
131.3483604591
 10
141.8936749029
 20
131.2849805815
 10
141.9005424061
 20
131.2240462618
  0
LINE
  5
3D9
100
AcDbEntity
  8
RACCORDO
100
AcDbLine
 62
250
  6
CONTINUOUS
 10
154.9853709858
 20
70.5321811755
 11
156.1715738368
 21
71.1342781041
  0
LINE
  5
3DA
100
AcDbEntity
  8
RACCORDO
100
AcDbLine
 62
250
  6
CONTINUOUS
 10
155.4093766044
 20
69.8008796596
 11
156.5955794553
 21
70.4029765881
  0
LWPOLYLINE
  5
3DB
100
AcDbEntity
  8
RACCORDO
100
AcDbPolyline
 62
250
  6
CONTINUOUS
 90
5
 70
0
 10
152.3509199238
 20
126.3299900775
 10
152.3020297757
 20
126.3494045214
 10
152.255074879
 20
126.3579429228
 10
152.2114819345
 20
126.355345832
 10
152.1691722007
 20
126.3398350049
  0
LINE
  5
3DC
100
AcDbEntity
  8
RACCORDO
100
AcDbLine
 62
250
  6
CONTINUOUS
 10
141.7714253448
 20
130.885261376
 11
141.7840539237
 21
130.8796581522
  0
LWPOLYLINE
  5
3DD
100
AcDbEntity
  8
RACCORDO
100
AcDbPolyline
 62
250
  6
CONTINUOUS
 90
12
 70
0
 10
139.9409430102
 20
132.0622764226
 10
139.6334052497
 20
132.1998081733
 10
139.333139448
 20
132.3059963381
 10
139.0417359765
 20
132.3817619394
 10
138.7604910293
 20
132.4282014734
 10
138.4906763007
 20
132.446571435
 10
138.2335263932
 20
132.4383223576
 10
137.9885593894
 20
132.4047379413
 10
137.7577320548
 20
132.3474700472
 10
137.5451238372
 20
132.2698117074
 10
137.3515358437
 20
132.1751324889
 10
137.2589432079
 20
132.1206648769
  0
LINE
  5
3DE
100
AcDbEntity
  8
RACCORDO
100
AcDbLine
 62
7
  6
CONTINUOUS
 10
154.3385229712
 20
126.0911052686
 11
153.0603039996
 21
126.7302147544
  0
LINE
  5
3DF
100
AcDbEntity
  8
RACCORDO
100
AcDbLine
 62
7
  6
CONTINUOUS
 10
142.3122809256
 20
132.1042262914
 11
141.0340619539
 21
132.7433357772
  0
LINE
  5
3E0
100
AcDbEntity
  8
RACCORDO
100
AcDbLine
 62
250
  6
CONTINUOUS
 10
157.586110306
 20
69.9077111628
 11
156.3798642387
 21
69.3156358424
  0
LINE
  5
3E1
100
AcDbEntity
  8
RACCORDO
100
AcDbLine
 62
250
  6
CONTINUOUS
 10
158.2928941804
 20
68.6893486992
 11
157.0788627547
 21
68.0934520039
  0
LWPOLYLINE
  5
3E2
100
AcDbEntity
  8
RACCORDO
100
AcDbPolyline
 62
250
  6
CONTINUOUS
 90
10
 70
0
 10
141.2653315046
 20
131.4000823659
 10
141.3150214919
 20
131.3908176932
 10
141.3641236705
 20
131.3760049342
 10
141.4118106825
 20
131.35589367
 10
141.4572790152
 20
131.330822759
 10
141.4997625331
 20
131.3012146318
 10
141.5385453893
 20
131.2675681756
 10
141.5729740954
 20
131.2304503219
 10
141.6024685317
 20
131.1904864919
 10
141.6265317168
 20
131.1483500641
  0
LWPOLYLINE
  5
3E3
100
AcDbEntity
  8
RACCORDO
100
AcDbPolyline
 62
7
  6
CONTINUOUS
 90
10
 70
0
 10
157.9009037296
 20
65.2598541141
 10
157.9782621085
 20
65.3161304653
 10
158.0501278938
 20
65.3816339969
 10
158.1151982295
 20
65.45577617
 10
158.1721590052
 20
65.5375493052
 10
158.2200939737
 20
65.6260048877
 10
158.2584448724
 20
65.720642355
 10
158.2865266069
 20
65.8207048965
 10
158.3036369566
 20
65.9247615836
 10
158.3093899801
 20
66.0314597369
  0
LINE
  5
3E4
100
AcDbEntity
  8
DRAFT
100
AcDbLine
 62
7
  6
CONTINUOUS
 10
157.9009037296
 20
65.2598541141
 11
157.5817737918
 21
65.0534435648
  0
LWPOLYLINE
  5
3E5
100
AcDbEntity
  8
RACCORDO
100
AcDbPolyline
 62
250
  6
CONTINUOUS
 90
20
 70
0
 10
155.4456235112
 20
63.8910542122
 10
155.5025916133
 20
63.9143909324
 10
155.6958436703
 20
64.0089021826
 10
155.8718695827
 20
64.1181781414
 10
156.0316376345
 20
64.2398618751
 10
156.175228064
 20
64.3710330659
 10
156.303767057
 20
64.5097249484
 10
156.4196402106
 20
64.6557444948
 10
156.5231825356
 20
64.8071676581
 10
156.6151301042
 20
64.9627364466
 10
156.6978434142
 20
65.1244254884
 10
156.7712350325
 20
65.2905898753
 10
156.8358784671
 20
65.4611612892
 10
156.894004969
 20
65.6418923441
 10
156.9453671968
 20
65.8335782509
 10
156.9891586491
 20
66.0354100635
 10
157.0254939306
 20
66.2519347208
 10
157.0534387683
 20
66.4850090163
 10
157.0716096177
 20
66.7332621841
 10
157.0788627547
 20
66.9966960062
  0
LINE
  5
3E6
100
AcDbEntity
  8
RACCORDO
100
AcDbLine
 62
250
  6
CONTINUOUS
 10
157.0788627547
 20
66.9966960062
 11
158.2928941804
 21
67.4692118533
  0
LINE
  5
3E7
100
AcDbEntity
  8
RACCORDO
100
AcDbLine
 62
7
  6
CONTINUOUS
 10
155.4397544879
 20
63.8887598024
 11
156.6630584213
 21
64.3648846227
  0
ARC
  5
3E8
100
AcDbEntity
  8
RACCORDO
100
AcDbCircle
 62
7
  6
CONTINUOUS
 10
158.7679642001
 20
81.7717897754
 40
0.6
100
AcDbArc
 50
0.0
 51
65.0434226556
  0
ARC
  5
3E9
100
AcDbEntity
  8
RACCORDO
100
AcDbCircle
 62
7
  6
CONTINUOUS
 10
158.7679642001
 20
74.9250151125
 40
0.6
100
AcDbArc
 50
333.0471707791
 51
360.0
  0
ARC
  5
3EA
100
AcDbEntity
  8
RACCORDO
100
AcDbCircle
 62
7
  6
CONTINUOUS
 10
158.7679642001
 20
117.2788313306
 40
0.6
100
AcDbArc
 50
0.0
 51
65.0434226556
  0
ARC
  5
3EB
100
AcDbEntity
  8
RACCORDO
100
AcDbCircle
 62
7
  6
CONTINUOUS
 10
158.7679642001
 20
110.4320566677
 40
0.6
100
AcDbArc
 50
333.0471707791
 51
360.0
  0
ELLIPSE
  5
3EC
100
AcDbEntity
  8
RACCORDO
100
AcDbEllipse
 62
7
  6
CONTINUOUS
 10
142.3122809256
 20
96.2502991801
 30
0.0
 11
-0.1785615909
 21
0.3583009949
 31
0.0
 40
0.6122032814
 41
-2.2540382661
 42
-0.6832419393
  0
ELLIPSE
  5
3ED
100
AcDbEntity
  8
RACCORDO
100
AcDbEllipse
 62
7
  6
CONTINUOUS
 10
154.3276619928
 20
69.4651298746
 30
0.0
 11
-2.5138757032
 21
5.0210516379
 31
0.0
 40
0.610731003
 41
-3.1984991157
 42
-2.2574844774
  0
ELLIPSE
  5
3EE
100
AcDbEntity
  8
RACCORDO
100
AcDbEllipse
 62
7
  6
CONTINUOUS
 10
157.584817004
 20
69.0418045291
 30
0.0
 11
-0.4475575321
 21
0.8942759671
 31
0.0
 40
0.6135627242
 41
-2.2550237273
 42
-0.6860539001
  0
ELLIPSE
  5
3EF
100
AcDbEntity
  8
RACCORDO
100
AcDbEllipse
 62
7
  6
CONTINUOUS
 10
157.584817004
 20
82.8992667514
 30
0.0
 11
-0.448995715
 21
0.8955596233
 31
0.0
 40
0.6113698584
 41
-3.188117933
 42
-2.2576476382
  0
ELLIPSE
  5
3F0
100
AcDbEntity
  8
RACCORDO
100
AcDbEllipse
 62
7
  6
CONTINUOUS
 10
154.3276619928
 20
85.733096417
 30
0.0
 11
-2.5017610106
 21
5.0102832029
 31
0.0
 40
0.6140178746
 41
-2.2535402014
 42
-0.6854829304
  0
ELLIPSE
  5
3F1
100
AcDbEntity
  8
RACCORDO
100
AcDbEllipse
 62
7
  6
CONTINUOUS
 10
153.0603039996
 20
90.8762876431
 30
0.0
 11
-0.1785615909
 21
0.3583009949
 31
0.0
 40
0.6122032814
 41
-0.6832419393
 42
0.0314470885
  0
ELLIPSE
  5
3F2
100
AcDbEntity
  8
RACCORDO
100
AcDbEllipse
 62
7
  6
CONTINUOUS
 10
141.0449229323
 20
92.3744659473
 30
0.0
 11
-2.5138757032
 21
5.0210516379
 31
0.0
 40
0.610731003
 41
-0.6839490949
 42
0.0569064393
  0
ELLIPSE
  5
3F3
100
AcDbEntity
  8
RACCORDO
100
AcDbEllipse
 62
7
  6
CONTINUOUS
 10
156.5960965133
 20
70.9226500299
 30
0.0
 11
-0.2682030356
 21
0.536727132
 31
0.0
 40
0.6131036171
 41
0.8869546983
 42
2.4565330499
  0
ELLIPSE
  5
3F4
100
AcDbEntity
  8
RACCORDO
100
AcDbEllipse
 62
7
  6
CONTINUOUS
 10
156.4642936345
 20
72.4087962353
 30
0.0
 11
0.1892895952
 21
0.3524924716
 31
0.0
 40
0.6334343229
 41
0.7381014821
 42
2.2739912239
  0
ELLIPSE
  5
3F5
100
AcDbEntity
  8
RACCORDO
100
AcDbEllipse
 62
7
  6
CONTINUOUS
 10
142.8779663505
 20
95.0721891648
 30
0.0
 11
-0.1075653633
 21
0.5068710592
 31
0.0
 40
0.5160892341
 41
1.1806746103
 42
1.7080223372
  0
ELLIPSE
  5
3F6
100
AcDbEntity
  8
RACCORDO
100
AcDbEllipse
 62
7
  6
CONTINUOUS
 10
157.7918358175
 20
73.8534417943
 30
0.0
 11
0.492133284
 21
-0.3743569405
 31
0.0
 40
0.7775333862
 41
5.2477201692
 42
6.8172985208
  0
ELLIPSE
  5
3F7
100
AcDbEntity
  8
RACCORDO
100
AcDbEllipse
 62
7
  6
CONTINUOUS
 10
157.7918358175
 20
80.8281531077
 30
0.0
 11
0.4893067437
 21
-0.3881101657
 31
0.0
 40
0.7621595538
 41
0.54374562
 42
2.1133239717
  0
ELLIPSE
  5
3F8
100
AcDbEntity
  8
RACCORDO
100
AcDbEllipse
 62
7
  6
CONTINUOUS
 10
156.4642936345
 20
81.2184838397
 30
0.0
 11
0.1892895952
 21
0.3524924716
 31
0.0
 40
0.6334343229
 41
2.2739912239
 42
3.8098809656
  0
ELLIPSE
  5
3F9
100
AcDbEntity
  8
RACCORDO
100
AcDbEllipse
 62
7
  6
CONTINUOUS
 10
142.3122809256
 20
131.7573407353
 30
0.0
 11
-0.1785615909
 21
0.3583009949
 31
0.0
 40
0.6122032814
 41
-2.2540382661
 42
-0.6832419393
  0
ELLIPSE
  5
3FA
100
AcDbEntity
  8
RACCORDO
100
AcDbEllipse
 62
7
  6
CONTINUOUS
 10
154.3276619928
 20
104.9721714298
 30
0.0
 11
-2.5138757032
 21
5.0210516379
 31
0.0
 40
0.610731003
 41
-3.1984991157
 42
-2.2574844774
  0
ELLIPSE
  5
3FB
100
AcDbEntity
  8
RACCORDO
100
AcDbEllipse
 62
7
  6
CONTINUOUS
 10
157.584817004
 20
104.5488460843
 30
0.0
 11
-0.4475575321
 21
0.8942759671
 31
0.0
 40
0.6135627242
 41
-2.2550237273
 42
-0.6860539001
  0
ELLIPSE
  5
3FC
100
AcDbEntity
  8
RACCORDO
100
AcDbEllipse
 62
7
  6
CONTINUOUS
 10
157.584817004
 20
118.4063083065
 30
0.0
 11
-0.448995715
 21
0.8955596233
 31
0.0
 40
0.6113698584
 41
-3.188117933
 42
-2.2576476382
  0
ELLIPSE
  5
3FD
100
AcDbEntity
  8
RACCORDO
100
AcDbEllipse
 62
7
  6
CONTINUOUS
 10
154.3276619928
 20
121.2401379722
 30
0.0
 11
-2.5017610106
 21
5.0102832029
 31
0.0
 40
0.6140178746
 41
-2.2535402014
 42
-0.6854829304
  0
ELLIPSE
  5
3FE
100
AcDbEntity
  8
RACCORDO
100
AcDbEllipse
 62
7
  6
CONTINUOUS
 10
153.0603039996
 20
126.3833291983
 30
0.0
 11
-0.1785615909
 21
0.3583009949
 31
0.0
 40
0.6122032814
 41
-0.6832419393
 42
0.0314470885
  0
ELLIPSE
  5
3FF
100
AcDbEntity
  8
RACCORDO
100
AcDbEllipse
 62
7
  6
CONTINUOUS
 10
141.0449229323
 20
127.8815075024
 30
0.0
 11
-2.5138757032
 21
5.0210516379
 31
0.0
 40
0.610731003
 41
-0.6839490949
 42
0.0569064393
  0
ELLIPSE
  5
400
100
AcDbEntity
  8
RACCORDO
100
AcDbEllipse
 62
7
  6
CONTINUOUS
 10
156.5960965133
 20
106.4296915851
 30
0.0
 11
-0.2682030356
 21
0.536727132
 31
0.0
 40
0.6131036171
 41
0.8869546983
 42
2.4565330499
  0
ELLIPSE
  5
401
100
AcDbEntity
  8
RACCORDO
100
AcDbEllipse
 62
7
  6
CONTINUOUS
 10
156.4642936345
 20
107.9158377904
 30
0.0
 11
0.1892895952
 21
0.3524924716
 31
0.0
 40
0.6334343229
 41
0.7381014821
 42
2.2739912239
  0
ELLIPSE
  5
402
100
AcDbEntity
  8
RACCORDO
100
AcDbEllipse
 62
7
  6
CONTINUOUS
 10
142.8779663505
 20
130.5792307199
 30
0.0
 11
-0.1075653633
 21
0.5068710592
 31
0.0
 40
0.5160892341
 41
1.1806746103
 42
1.7080223372
  0
ELLIPSE
  5
403
100
AcDbEntity
  8
RACCORDO
100
AcDbEllipse
 62
7
  6
CONTINUOUS
 10
157.7918358175
 20
109.3604833495
 30
0.0
 11
0.492133284
 21
-0.3743569405
 31
0.0
 40
0.7775333862
 41
5.2477201692
 42
6.8172985208
  0
ELLIPSE
  5
404
100
AcDbEntity
  8
RACCORDO
100
AcDbEllipse
 62
7
  6
CONTINUOUS
 10
157.7918358175
 20
116.3351946628
 30
0.0
 11
0.4893067437
 21
-0.3881101657
 31
0.0
 40
0.7621595538
 41
0.54374562
 42
2.1133239717
  0
ELLIPSE
  5
405
100
AcDbEntity
  8
RACCORDO
100
AcDbEllipse
 62
7
  6
CONTINUOUS
 10
156.4642936345
 20
116.7255253949
 30
0.0
 11
0.1892895952
 21
0.3524924716
 31
0.0
 40
0.6334343229
 41
2.2739912239
 42
3.8098809656
  0
ENDSEC
  0
SECTION
  2
OBJECTS
  0
DICTIONARY
  5
C
100
AcDbDictionary
280
0
281
1
  3
ACAD_GROUP
350
D
  3
ACAD_MLINESTYLE
350
17
  3
ACAD_LAYOUT
350
1A
  3
ACAD_PLOTSETTINGS
350
19
  3
ACAD_PLOTSTYLENAME
350
E
  0
DICTIONARY
  5
D
102
{ACAD_REACTORS
330
C
102
}
100
AcDbDictionary
280
0
281
1
  0
ACDBDICTIONARYWDFLT
  5
E
102
{ACAD_REACTORS
330
C
102
}
100
AcDbDictionary
281
1
  3
Normal
350
F
100
AcDbDictionaryWithDefault
340
F
  0
DICTIONARY
  5
17
102
{ACAD_REACTORS
330
C
102
}
100
AcDbDictionary
280
0
281
1
  3
Standard
350
18
  0
DICTIONARY
  5
19
102
{ACAD_REACTORS
330
C
102
}
100
AcDbDictionary
281
1
  0
DICTIONARY
  5
1A
102
{ACAD_REACTORS
330
C
102
}
100
AcDbDictionary
281
1
  3
Model
350
406
  3
Layout1
350
407
  0
ACDBPLACEHOLDER
  5
F
102
{ACAD_REACTORS
330
E
102
}
  0
MLINESTYLE
  5
18
102
{ACAD_REACTORS
330
17
102
}
100
AcDbMlineStyle
  2
STANDARD
 70
0
  3

 62
256
 51
90.0
 52
90.0
 71
2
 49
0.5
 62
256
  6
BYLAYER
 49
-0.5
 62
256
  6
BYLAYER
  0
LAYOUT
  5
406
102
{ACAD_REACTORS
330
1A
102
}
100
AcDbPlotSettings
  1

  2
none_device
  4
ISO_A4_(297.00_x_210.00_MM)
  6

 40
0.0
 41
0.0
 42
0.0
 43
0.0
 44
297.0
 45
210.0
 46
0.0
 47
0.0
 48
0.0
 49
0.0
140
0.0
141
0.0
142
1.0
143
1.0
 70
1024
 72
1
 73
0
 74
0
  7

 75
0
147
1.0
148
0.0
149
0.0
100
AcDbLayout
  1
Model
 70
0
 71
0
 10
0.0
 20
0.0
 11
297.0
 21
210.0
 12
0.0
 22
0.0
 32
0.0
 14
0.0
 24
0.0
 34
0.0
 15
0.0
 25
0.0
 35
0.0
146
0.0
 13
0.0
 23
0.0
 33
0.0
 16
1.0
 26
0.0
 36
0.0
 17
0.0
 27
1.0
 37
0.0
 76
0
330
215
345
0
346
0
  0
LAYOUT
  5
407
102
{ACAD_REACTORS
330
1A
102
}
100
AcDbPlotSettings
  1

  2
none_device
  4
ISO_A4_(297.00_x_210.00_MM)
  6

 40
0.0
 41
0.0
 42
0.0
 43
0.0
 44
297.0
 45
210.0
 46
0.0
 47
0.0
 48
0.0
 49
0.0
140
0.0
141
0.0
142
1.0
143
1.0
 70
0
 72
1
 73
0
 74
0
  7

 75
0
147
1.0
148
0.0
149
0.0
100
AcDbLayout
  1
Layout1
 70
0
 71
1
 10
0.0
 20
0.0
 11
297.0
 21
210.0
 12
0.0
 22
0.0
 32
0.0
 14
0.0
 24
0.0
 34
0.0
 15
0.0
 25
0.0
 35
0.0
146
0.0
 13
0.0
 23
0.0
 33
0.0
 16
1.0
 26
0.0
 36
0.0
 17
0.0
 27
1.0
 37
0.0
 76
0
330
216
345
0
346
0
  0
ENDSEC
  0
EOF
