  0
SECTION
  2
HEADER
  9
$ACADVER
  1
AC1024
  9
$DWGCODEPAGE
  3
ANSI_1252
  9
$EXTMAX
 10
297.0
 20
210.0
 30
0.0
  9
$EXTMIN
 10
0.0
 20
0.0
 30
0.0
  9
$LIMMIN
 10
0.0
 20
0.0
  9
$LIMMAX
 10
297.0
 20
210.0
  9
$VIEWCTR
 10
148.5
 20
105.0
  9
$VIEWSIZE
 40
210.0
  9
$CLAYER
  8
0
  9
$LTSCALE
 40
16.335
  9
$CELTYPE
  6
BYLAYER
  9
$DIMSCALE
 40
1.0
  9
$DIMASZ
 40
3.0
  9
$DIMEXO
 40
0.5
  9
$DIMDLI
 40
11.286
  9
$DIMEXE
 40
1.5
  9
$DIMCEN
 40
2.673
  9
$DIMLFAC
 40
1.0
  9
$DIMBLK
  1
_FILLED
  9
$DIMALT
 70
0
  9
$DIMALTF
 40
0.0393700787
  9
$DIMTXT
 40
3.0
  9
$DIMTOL
 70
1
  9
$DIMLIM
 70
0
  9
$DIMTFAC
 40
1.0
  9
$DIMTP
 40
0.01
  9
$DIMTM
 40
0.01
  9
$DIMGAP
 40
0.625
  9
$DIMDSEP
 70
44
  9
$AUNITS
 70
0
  9
$PDMODE
 70
3
  9
$PDSIZE
 40
3.0
  9
$HANDSEED
  5
2A1
  9
$TILEMODE
 70
1
  9
$MEASUREMENT
 70
1
  9
$INSUNITS
 70
4
  0
ENDSEC
  0
SECTION
  2
CLASSES
  0
CLASS
  1
ACDBDICTIONARYWDFLT
  2
AcDbDictionaryWithDefault
  3
AutoCAD 2000
 90
0
 91
1
280
0
281
0
  0
CLASS
  1
ACDBPLACEHOLDER
  2
AcDbPlaceHolder
  3
AutoCAD 2000
 90
0
 91
1
280
0
281
0
  0
CLASS
  1
LAYOUT
  2
AcDbLayout
  3
AutoCAD 2000
 90
0
 91
0
280
0
281
0
  0
ENDSEC
  0
SECTION
  2
TABLES
  0
TABLE
  2
VPORT
  5
8
100
AcDbSymbolTable
 70
2
  0
VPORT
  5
1F4
100
AcDbSymbolTableRecord
100
AcDbViewportTableRecord
  2
*ACTIVE
 70
0
 10
0.0
 20
0.0
 11
1.0
 21
1.0
 12
148.5
 22
105.0
 13
0.0
 23
0.0
 14
1.0
 24
1.0
 15
0.0
 25
0.0
 16
0.0
 26
0.0
 36
1.0
 17
0.0
 27
0.0
 37
0.0
 40
210.0
 41
1.4142857143
 42
50.0
 43
0.0
 44
0.0
 50
0.0
 51
0.0
 71
0
 72
100
 73
1
 74
1
 75
0
 76
0
 77
0
 78
0
  0
ENDTAB
  0
TABLE
  2
LTYPE
  5
5
100
AcDbSymbolTable
 70
6
  0
LTYPE
  5
14
100
AcDbSymbolTableRecord
100
AcDbLinetypeTableRecord
  2
BYBLOCK
 70
0
  3

 72
65
 73
0
 40
0.0
  0
LTYPE
  5
15
100
AcDbSymbolTableRecord
100
AcDbLinetypeTableRecord
  2
BYLAYER
 70
0
  3

 72
65
 73
0
 40
0.0
  0
LTYPE
  5
16
100
AcDbSymbolTableRecord
100
AcDbLinetypeTableRecord
  2
CONTINUOUS
 70
64
  3
Solid line
 72
65
 73
0
 40
0.0
  0
LTYPE
  5
1F5
100
AcDbSymbolTableRecord
100
AcDbLinetypeTableRecord
  2
CENTER
 70
64
  3
____ _ ____ _ ____ _ ____ _ ____ _ ____ _ ____
 72
65
 73
4
 40
0.6
 49
0.375
 74
0
 49
-0.075
 74
0
 49
0.075
 74
0
 49
-0.075
 74
0
  0
LTYPE
  5
1F6
100
AcDbSymbolTableRecord
100
AcDbLinetypeTableRecord
  2
HIDDEN
 70
64
  3
- - - - - - - - - - - - - - - - - - - -
 72
65
 73
2
 40
0.2
 49
0.1
 74
0
 49
-0.1
 74
0
  0
LTYPE
  5
1F7
100
AcDbSymbolTableRecord
100
AcDbLinetypeTableRecord
  2
PHANTOM
 70
64
  3
_____ _ _ _____ _ _ _____ _ _ _____
 72
65
 73
6
 40
0.8
 49
0.45
 74
0
 49
-0.05
 74
0
 49
0.1
 74
0
 49
-0.05
 74
0
 49
0.1
 74
0
 49
-0.05
 74
0
  0
LTYPE
  5
1F8
100
AcDbSymbolTableRecord
100
AcDbLinetypeTableRecord
  2
DOT
 70
64
  3
. . . . . . . . . . . . . . . . . . . .
 72
65
 73
2
 40
0.2
 49
0.1
 74
0
 49
-0.1
 74
0
  0
LTYPE
  5
1F9
100
AcDbSymbolTableRecord
100
AcDbLinetypeTableRecord
  2
DASHED
 70
64
  3
- - - - - - - - - - - - - - - - - - - -
 72
65
 73
2
 40
0.2
 49
0.1
 74
0
 49
-0.1
 74
0
  0
ENDTAB
  0
TABLE
  2
LAYER
  5
2
100
AcDbSymbolTable
 70
36
  0
LAYER
  5
10
100
AcDbSymbolTableRecord
100
AcDbLayerTableRecord
  2
0
 70
0
 62
7
  6
CONTINUOUS
370
-3
390
F
  0
LAYER
  5
1FA
100
AcDbSymbolTableRecord
100
AcDbLayerTableRecord
  2
DEFAULT_1
 70
0
 62
7
  6
CENTER
370
-3
390
F
  0
LAYER
  5
1FB
100
AcDbSymbolTableRecord
100
AcDbLayerTableRecord
  2
DEFAULT_2
 70
0
 62
7
  6
HIDDEN
370
-3
390
F
  0
LAYER
  5
1FC
100
AcDbSymbolTableRecord
100
AcDbLayerTableRecord
  2
DEFAULT_3
 70
0
 62
7
  6
PHANTOM
370
-3
390
F
  0
LAYER
  5
1FD
100
AcDbSymbolTableRecord
100
AcDbLayerTableRecord
  2
ASSI
 70
0
 62
7
  6
CONTINUOUS
370
-3
390
F
  0
LAYER
  5
1FE
100
AcDbSymbolTableRecord
100
AcDbLayerTableRecord
  2
COLOR9
 70
0
 62
7
  6
CONTINUOUS
370
-3
390
F
  0
LAYER
  5
1FF
100
AcDbSymbolTableRecord
100
AcDbLayerTableRecord
  2
COORDINATE
 70
0
 62
7
  6
CONTINUOUS
370
-3
390
F
  0
LAYER
  5
200
100
AcDbSymbolTableRecord
100
AcDbLayerTableRecord
  2
COORD_ORIGINE
 70
0
 62
7
  6
CONTINUOUS
370
-3
390
F
  0
LAYER
  5
201
100
AcDbSymbolTableRecord
100
AcDbLayerTableRecord
  2
COPY_PUBLISH
 70
0
 62
7
  6
CONTINUOUS
370
-3
390
F
  0
LAYER
  5
202
100
AcDbSymbolTableRecord
100
AcDbLayerTableRecord
  2
COSMETICI
 70
0
 62
7
  6
CONTINUOUS
370
-3
390
F
  0
LAYER
  5
203
100
AcDbSymbolTableRecord
100
AcDbLayerTableRecord
  2
CURVE
 70
0
 62
7
  6
CONTINUOUS
370
-3
390
F
  0
LAYER
  5
204
100
AcDbSymbolTableRecord
100
AcDbLayerTableRecord
  2
DRAFT
 70
0
 62
7
  6
CONTINUOUS
370
-3
390
F
  0
LAYER
  5
205
100
AcDbSymbolTableRecord
100
AcDbLayerTableRecord
  2
IMPORT_IGES
 70
0
 62
7
  6
CONTINUOUS
370
-3
390
F
  0
LAYER
  5
206
100
AcDbSymbolTableRecord
100
AcDbLayerTableRecord
  2
INTF_1
 70
0
 62
7
  6
CONTINUOUS
370
-3
390
F
  0
LAYER
  5
207
100
AcDbSymbolTableRecord
100
AcDbLayerTableRecord
  2
INTF_YELLOW
 70
0
 62
7
  6
CONTINUOUS
370
-3
390
F
  0
LAYER
  5
208
100
AcDbSymbolTableRecord
100
AcDbLayerTableRecord
  2
NOTE
 70
0
 62
7
  6
CONTINUOUS
370
-3
390
F
  0
LAYER
  5
209
100
AcDbSymbolTableRecord
100
AcDbLayerTableRecord
  2
PIANI
 70
0
 62
7
  6
CONTINUOUS
370
-3
390
F
  0
LAYER
  5
20A
100
AcDbSymbolTableRecord
100
AcDbLayerTableRecord
  2
PIANI_ORIGINE
 70
0
 62
7
  6
CONTINUOUS
370
-3
390
F
  0
LAYER
  5
20B
100
AcDbSymbolTableRecord
100
AcDbLayerTableRecord
  2
PIANI_RIFERIMENTO
 70
0
 62
7
  6
CONTINUOUS
370
-3
390
F
  0
LAYER
  5
20C
100
AcDbSymbolTableRecord
100
AcDbLayerTableRecord
  2
PUNTI
 70
0
 62
7
  6
CONTINUOUS
370
-3
390
F
  0
LAYER
  5
20D
100
AcDbSymbolTableRecord
100
AcDbLayerTableRecord
  2
RACCORDO
 70
0
 62
7
  6
CONTINUOUS
370
-3
390
F
  0
LAYER
  5
20E
100
AcDbSymbolTableRecord
100
AcDbLayerTableRecord
  2
SIMBOLI
 70
0
 62
7
  6
CONTINUOUS
370
-3
390
F
  0
LAYER
  5
20F
100
AcDbSymbolTableRecord
100
AcDbLayerTableRecord
  2
SMUSSO
 70
0
 62
7
  6
CONTINUOUS
370
-3
390
F
  0
LAYER
  5
210
100
AcDbSymbolTableRecord
100
AcDbLayerTableRecord
  2
SUPERFICI
 70
0
 62
7
  6
CONTINUOUS
370
-3
390
F
  0
LAYER
  5
211
100
AcDbSymbolTableRecord
100
AcDbLayerTableRecord
  2
TRASH
 70
0
 62
7
  6
CONTINUOUS
370
-3
390
F
  0
LAYER
  5
212
100
AcDbSymbolTableRecord
100
AcDbLayerTableRecord
  2
XSEC_DATUMS
 70
0
 62
7
  6
CONTINUOUS
370
-3
390
F
  0
ENDTAB
  0
TABLE
  2
STYLE
  5
3
100
AcDbSymbolTable
 70
1
  0
STYLE
  5
11
100
AcDbSymbolTableRecord
100
AcDbTextStyleTableRecord
  2
STANDARD
 70
0
 40
0.0
 41
0.8
 50
0.0
 71
0
 42
0.2
  3
txt
  4

  0
STYLE
  5
213
100
AcDbSymbolTableRecord
100
AcDbTextStyleTableRecord
  2
TEXTSTYLE_1
 70
0
 40
0.0
 41
0.8
 50
0.0
 71
0
 42
0.2
  3
gdt
  4

  0
ENDTAB
  0
TABLE
  2
VIEW
  5
6
100
AcDbSymbolTable
 70
0
  0
ENDTAB
  0
TABLE
  2
UCS
  5
7
100
AcDbSymbolTable
 70
0
  0
ENDTAB
  0
TABLE
  2
APPID
  5
9
100
AcDbSymbolTable
 70
1
  0
APPID
  5
214
100
AcDbSymbolTableRecord
100
AcDbRegAppTableRecord
  2
ACAD
 70
0
  0
ENDTAB
  0
TABLE
  2
BLOCK_RECORD
  5
1
100
AcDbSymbolTable
 70
0
  0
BLOCK_RECORD
  5
215
100
AcDbSymbolTableRecord
100
AcDbBlockTableRecord
  2
*Model_Space
  0
BLOCK_RECORD
  5
216
100
AcDbSymbolTableRecord
100
AcDbBlockTableRecord
  2
*Paper_Space
  0
BLOCK_RECORD
  5
217
100
AcDbSymbolTableRecord
100
AcDbBlockTableRecord
  2
_FILLED
  0
ENDTAB
  0
TABLE
  2
DIMSTYLE
  5
A
100
AcDbSymbolTable
 70
1
100
AcDbDimStyleTable
 71
0
  0
DIMSTYLE
105
218
100
AcDbSymbolTableRecord
100
AcDbDimStyleTableRecord
  2
STANDARD
 70
0
  3

  4

 40
1.0
 41
3.0
 42
0.5
 43
0.38
 44
1.5
 45
0.0
 46
0.0
 47
0.01
 48
0.01
140
3.0
141
0.09
142
0.0
143
25.4
144
1.0
145
0.0
146
1.0
147
0.625
 71
1.0
 72
0.0
 73
0
 74
0
 75
0
 76
0
 77
1
 78
8
 79
2
170
0
171
1
172
0
173
0
174
0
175
0
176
0
177
0
178
0
270
2
179
2
271
2
272
2
273
2
274
2
275
0
280
0
281
0
282
0
283
1
284
8
285
0
286
0
287
3
288
0
340
11
278
44
341
217
342
217
343
217
344
217
  0
ENDTAB
  0
ENDSEC
  0
SECTION
  2
BLOCKS
  0
BLOCK
  5
20
100
AcDbEntity
  8
0
100
AcDbBlockBegin
  2
*Model_Space
 70
0
 10
0.0
 20
0.0
 30
0.0
  3
*Model_Space
  1

  0
ENDBLK
  5
21
100
AcDbEntity
  8
0
100
AcDbBlockEnd
  0
BLOCK
  5
1C
100
AcDbEntity
  8
0
100
AcDbBlockBegin
  2
*Paper_Space
 70
0
 10
0.0
 20
0.0
 30
0.0
  3
*Paper_Space
  1

  0
ENDBLK
  5
1D
100
AcDbEntity
  8
0
100
AcDbBlockEnd
  0
BLOCK
  5
219
100
AcDbEntity
  8
0
100
AcDbBlockBegin
  2
_FILLED
 70
64
 10
0.0
 20
0.0
  3
_FILLED
  1

  0
SOLID
  5
21A
100
AcDbEntity
  8
0
  6
BYBLOCK
 62
0
100
AcDbTrace
 10
0.0
 20
0.0
 11
-1.0
 21
0.3166666667
 12
-1.0
 22
-0.3166666667
 13
-1.0
 23
-0.3166666667
  0
ENDBLK
  5
21B
100
AcDbEntity
  8
0
  6
BYBLOCK
 62
0
100
AcDbBlockEnd
  0
ENDSEC
  0
SECTION
  2
ENTITIES
  0
LWPOLYLINE
  5
21C
100
AcDbEntity
  8
0
100
AcDbPolyline
 62
7
  6
CONTINUOUS
 90
7
 70
0
 10
138.8523440266
 20
117.6318920284
 10
138.8236702303
 20
117.6121226547
 10
138.7951879894
 20
117.5920873845
 10
138.7668973039
 20
117.5717862179
 10
138.7387981738
 20
117.5512191549
 10
138.7108905992
 20
117.5303861954
 10
138.68317458
 20
117.5092873396
  0
LWPOLYLINE
  5
21D
100
AcDbEntity
  8
0
100
AcDbPolyline
 62
7
  6
CONTINUOUS
 90
7
 70
0
 10
139.0626999816
 20
118.3207834092
 10
138.996385179
 20
118.2777200998
 10
138.9308657118
 20
118.2332343241
 10
138.8661521368
 20
118.1873332516
 10
138.8022548808
 20
118.1400242796
 10
138.7391842394
 20
118.0913150325
 10
138.6769503747
 20
118.04121336
  0
LINE
  5
21E
100
AcDbEntity
  8
0
100
AcDbLine
 62
7
  6
CONTINUOUS
 10
141.8016332475
 20
119.7680426876
 11
139.0626999816
 21
118.3207834092
  0
LINE
  5
21F
100
AcDbEntity
  8
DRAFT
100
AcDbLine
 62
7
  6
CONTINUOUS
 10
142.9330040974
 20
120.3337281126
 11
141.8328709607
 21
119.752423831
  0
LINE
  5
220
100
AcDbEntity
  8
0
100
AcDbLine
 62
7
  6
CONTINUOUS
 10
149.1872779734
 20
81.3728978578
 11
148.7087886732
 21
81.4920199636
  0
LINE
  5
221
100
AcDbEntity
  8
0
100
AcDbLine
 62
7
  6
CONTINUOUS
 10
148.7087886732
 20
81.4920199636
 11
148.4740546826
 21
81.5513243354
  0
LINE
  5
222
100
AcDbEntity
  8
0
100
AcDbLine
 62
7
  6
CONTINUOUS
 10
139.0626999816
 20
85.9627420009
 11
148.8015283664
 21
81.0933278085
  0
LINE
  5
223
100
AcDbEntity
  8
0
100
AcDbLine
 62
7
  6
CONTINUOUS
 10
138.8523440266
 20
86.1549902513
 11
148.304885236
 21
81.4287196466
  0
LINE
  5
224
100
AcDbEntity
  8
0
100
AcDbLine
 62
7
  6
CONTINUOUS
 10
139.0626999816
 20
85.9627420009
 11
138.8523440266
 21
86.1549902513
  0
LINE
  5
225
100
AcDbEntity
  8
0
100
AcDbLine
 62
7
  6
CONTINUOUS
 10
148.8015283664
 20
81.0933278085
 11
148.304885236
 21
81.4287196466
  0
LINE
  5
226
100
AcDbEntity
  8
0
100
AcDbLine
 62
7
  6
CONTINUOUS
 10
138.7953966724
 20
86.2515910074
 11
138.8523440266
 21
86.1549902513
  0
LINE
  5
227
100
AcDbEntity
  8
0
100
AcDbLine
 62
7
  6
CONTINUOUS
 10
138.7390068569
 20
86.3488490525
 11
138.7953966724
 21
86.2515910074
  0
LINE
  5
228
100
AcDbEntity
  8
0
100
AcDbLine
 62
7
  6
CONTINUOUS
 10
138.68317458
 20
86.4467643867
 11
138.7390068569
 21
86.3488490525
  0
LINE
  5
229
100
AcDbEntity
  8
0
100
AcDbLine
 62
7
  6
CONTINUOUS
 10
138.9911496404
 20
118.088255579
 11
138.8523440266
 21
117.6318920284
  0
LINE
  5
22A
100
AcDbEntity
  8
0
100
AcDbLine
 62
7
  6
CONTINUOUS
 10
139.0626999816
 20
118.3207834092
 11
138.9911496404
 21
118.088255579
  0
LINE
  5
22B
100
AcDbEntity
  8
0
100
AcDbLine
 62
7
  6
CONTINUOUS
 10
151.5781356896
 20
114.8797914666
 11
148.8015283664
 21
113.4513692168
  0
LINE
  5
22C
100
AcDbEntity
  8
DRAFT
100
AcDbLine
 62
7
  6
CONTINUOUS
 10
152.7095065395
 20
115.4454768915
 11
151.584789104
 21
114.8668585694
  0
LINE
  5
22D
100
AcDbEntity
  8
DRAFT
100
AcDbLine
 62
7
  6
CONTINUOUS
 10
153.1245561773
 20
114.7296221572
 11
151.9891822646
 21
114.1720886607
  0
LINE
  5
22E
100
AcDbEntity
  8
0
100
AcDbLine
 62
7
  6
CONTINUOUS
 10
151.9931853274
 20
114.1639367323
 11
149.1872779734
 21
112.7860495606
  0
LINE
  5
22F
100
AcDbEntity
  8
0
100
AcDbLine
 62
7
  6
CONTINUOUS
 10
138.6769503747
 20
86.6280616571
 11
138.68317458
 21
86.4467643867
  0
LINE
  5
230
100
AcDbEntity
  8
0
100
AcDbLine
 62
7
  6
CONTINUOUS
 10
138.6769503747
 20
106.1136332423
 11
138.68317458
 21
105.9323359718
  0
LINE
  5
231
100
AcDbEntity
  8
0
100
AcDbLine
 62
7
  6
CONTINUOUS
 10
138.6769503747
 20
98.5556417748
 11
138.68317458
 21
98.0237157545
  0
LINE
  5
232
100
AcDbEntity
  8
0
100
AcDbLine
 62
7
  6
CONTINUOUS
 10
138.6769503747
 20
118.04121336
 11
138.68317458
 21
117.5092873396
  0
LINE
  5
233
100
AcDbEntity
  8
0
100
AcDbLine
 62
7
  6
CONTINUOUS
 10
138.6769503747
 20
118.04121336
 11
138.6769503747
 21
106.1136332423
  0
LINE
  5
234
100
AcDbEntity
  8
0
100
AcDbLine
 62
7
  6
CONTINUOUS
 10
138.6769503747
 20
98.5556417748
 11
138.6769503747
 21
86.6280616571
  0
LINE
  5
235
100
AcDbEntity
  8
0
100
AcDbLine
 62
7
  6
CONTINUOUS
 10
138.68317458
 20
117.5092873396
 11
138.68317458
 21
105.9323359718
  0
LINE
  5
236
100
AcDbEntity
  8
0
100
AcDbLine
 62
7
  6
CONTINUOUS
 10
138.68317458
 20
98.0237157545
 11
138.68317458
 21
86.4467643867
  0
LINE
  5
237
100
AcDbEntity
  8
0
100
AcDbLine
 62
7
  6
CONTINUOUS
 10
148.9462610595
 20
93.2428674594
 11
148.4740546826
 21
93.1282757032
  0
LINE
  5
238
100
AcDbEntity
  8
0
100
AcDbLine
 62
7
  6
CONTINUOUS
 10
149.1872779734
 20
93.3004779755
 11
148.9462610595
 21
93.2428674594
  0
LINE
  5
239
100
AcDbEntity
  8
0
100
AcDbLine
 62
7
  6
CONTINUOUS
 10
138.9911496404
 20
98.6026839938
 11
138.8523440266
 21
98.1463204433
  0
LINE
  5
23A
100
AcDbEntity
  8
0
100
AcDbLine
 62
7
  6
CONTINUOUS
 10
139.0626999816
 20
98.8352118241
 11
138.9911496404
 21
98.6026839938
  0
LWPOLYLINE
  5
23B
100
AcDbEntity
  8
0
100
AcDbPolyline
 62
7
  6
CONTINUOUS
 90
3
 70
0
 10
148.8015283664
 20
113.4513692168
 10
148.3865421789
 20
112.9948778615
 10
148.304885236
 20
112.9056214238
  0
LINE
  5
23C
100
AcDbEntity
  8
DRAFT
100
AcDbLine
 62
7
  6
CONTINUOUS
 10
153.1296329756
 20
111.4549378467
 11
153.377120349
 21
111.5733907481
  0
LINE
  5
23D
100
AcDbEntity
  8
0
100
AcDbLine
 62
7
  6
CONTINUOUS
 10
148.304885236
 20
93.4200498386
 11
138.8523440266
 21
98.1463204433
  0
LINE
  5
23E
100
AcDbEntity
  8
0
100
AcDbLine
 62
7
  6
CONTINUOUS
 10
148.8015283664
 20
93.9657976317
 11
139.0626999816
 21
98.8352118241
  0
LINE
  5
23F
100
AcDbEntity
  8
DRAFT
100
AcDbLine
 62
7
  6
CONTINUOUS
 10
153.1296329756
 20
107.5912969585
 11
153.377120349
 21
107.7203314306
  0
LINE
  5
240
100
AcDbEntity
  8
0
100
AcDbLine
 62
7
  6
CONTINUOUS
 10
138.7953966724
 20
105.7371625925
 11
138.8523440266
 21
105.6405618364
  0
LINE
  5
241
100
AcDbEntity
  8
0
100
AcDbLine
 62
7
  6
CONTINUOUS
 10
138.7390068569
 20
105.8344206377
 11
138.7953966724
 21
105.7371625925
  0
LINE
  5
242
100
AcDbEntity
  8
0
100
AcDbLine
 62
7
  6
CONTINUOUS
 10
138.68317458
 20
105.9323359718
 11
138.7390068569
 21
105.8344206377
  0
LWPOLYLINE
  5
243
100
AcDbEntity
  8
0
100
AcDbPolyline
 62
7
  6
CONTINUOUS
 90
7
 70
0
 10
138.8523440266
 20
98.1463204433
 10
138.8236702303
 20
98.1265510695
 10
138.7951879894
 20
98.1065157993
 10
138.7668973039
 20
98.0862146327
 10
138.7387981738
 20
98.0656475697
 10
138.7108905992
 20
98.0448146103
 10
138.68317458
 20
98.0237157545
  0
LWPOLYLINE
  5
244
100
AcDbEntity
  8
0
100
AcDbPolyline
 62
7
  6
CONTINUOUS
 90
7
 70
0
 10
139.0626999816
 20
98.8352118241
 10
138.996385179
 20
98.7921485146
 10
138.9308657118
 20
98.747662739
 10
138.8661521368
 20
98.7017616665
 10
138.8022548808
 20
98.6544526945
 10
138.7391842394
 20
98.6057434473
 10
138.6769503747
 20
98.5556417748
  0
LINE
  5
245
100
AcDbEntity
  8
0
100
AcDbLine
 62
7
  6
CONTINUOUS
 10
141.8016332475
 20
100.2824711025
 11
139.0626999816
 21
98.8352118241
  0
LINE
  5
246
100
AcDbEntity
  8
DRAFT
100
AcDbLine
 62
7
  6
CONTINUOUS
 10
142.9330040974
 20
100.8481565274
 11
141.8328709607
 21
100.2668522458
  0
LINE
  5
247
100
AcDbEntity
  8
0
100
AcDbLine
 62
7
  6
CONTINUOUS
 10
151.5781356896
 20
95.3942198814
 11
141.8016332475
 21
100.2824711025
  0
LINE
  5
248
100
AcDbEntity
  8
RACCORDO
100
AcDbLine
 62
7
  6
CONTINUOUS
 10
146.4396772915
 20
98.805930606
 11
148.6371479204
 21
97.7071952915
  0
LINE
  5
249
100
AcDbEntity
  8
RACCORDO
100
AcDbLine
 62
7
  6
CONTINUOUS
 10
152.7095065395
 20
95.9599053064
 11
149.2664007944
 21
97.6814581789
  0
LINE
  5
24A
100
AcDbEntity
  8
RACCORDO
100
AcDbLine
 62
7
  6
CONTINUOUS
 10
146.3761098424
 20
99.1266036549
 11
142.9330040974
 21
100.8481565274
  0
LINE
  5
24B
100
AcDbEntity
  8
0
100
AcDbLine
 62
7
  6
CONTINUOUS
 10
138.9210319889
 20
105.5775902086
 11
138.8523440266
 21
105.6405618364
  0
LINE
  5
24C
100
AcDbEntity
  8
0
100
AcDbLine
 62
7
  6
CONTINUOUS
 10
148.362041207
 20
93.3230892716
 11
148.304885236
 21
93.4200498386
  0
LINE
  5
24D
100
AcDbEntity
  8
0
100
AcDbLine
 62
7
  6
CONTINUOUS
 10
148.4184310226
 20
93.2258312265
 11
148.362041207
 21
93.3230892716
  0
LINE
  5
24E
100
AcDbEntity
  8
0
100
AcDbLine
 62
7
  6
CONTINUOUS
 10
148.4740546826
 20
93.1282757032
 11
148.4184310226
 21
93.2258312265
  0
LINE
  5
24F
100
AcDbEntity
  8
0
100
AcDbLine
 62
7
  6
CONTINUOUS
 10
139.0626999816
 20
105.4483135861
 11
138.9210319889
 21
105.5775902086
  0
LWPOLYLINE
  5
250
100
AcDbEntity
  8
0
100
AcDbPolyline
 62
7
  6
CONTINUOUS
 90
7
 70
0
 10
149.1872779734
 20
93.3004779755
 10
149.1250439411
 20
93.4128138124
 10
149.0619731956
 20
93.5245938784
 10
148.9980759017
 20
93.6358001631
 10
148.9333623576
 20
93.7464147488
 10
148.8678429927
 20
93.856419813
 10
148.8015283664
 20
93.9657976317
  0
LINE
  5
251
100
AcDbEntity
  8
RACCORDO
100
AcDbLine
 62
7
  6
CONTINUOUS
 10
146.3761098424
 20
118.61217524
 11
146.3761098424
 21
118.3312245982
  0
LINE
  5
252
100
AcDbEntity
  8
RACCORDO
100
AcDbLine
 62
7
  6
CONTINUOUS
 10
146.3761098424
 20
99.1266036549
 11
146.3761098424
 21
98.8456530131
  0
LWPOLYLINE
  5
253
100
AcDbEntity
  8
0
100
AcDbPolyline
 62
7
  6
CONTINUOUS
 90
7
 70
0
 10
148.304885236
 20
100.9142912317
 10
148.3335590323
 20
100.9340606055
 10
148.3620412733
 20
100.9540958757
 10
148.3903319588
 20
100.9743970423
 10
148.4184310888
 20
100.9949641053
 10
148.4463386634
 20
101.0157970647
 10
148.4740546826
 20
101.0368959206
  0
LINE
  5
254
100
AcDbEntity
  8
DRAFT
100
AcDbLine
 62
7
  6
CONTINUOUS
 10
153.1245561773
 20
102.7559009312
 11
151.9931853274
 21
102.2189165651
  0
LINE
  5
255
100
AcDbEntity
  8
0
100
AcDbLine
 62
7
  6
CONTINUOUS
 10
151.9931853274
 20
102.1902155062
 11
149.1872779734
 21
100.8584694429
  0
LINE
  5
256
100
AcDbEntity
  8
DRAFT
100
AcDbLine
 62
7
  6
CONTINUOUS
 10
152.7095065395
 20
102.4550958347
 11
151.7417693361
 21
101.9983332162
  0
LINE
  5
257
100
AcDbEntity
  8
0
100
AcDbLine
 62
7
  6
CONTINUOUS
 10
151.5781356896
 20
101.8894104098
 11
148.8015283664
 21
100.5788993937
  0
LINE
  5
258
100
AcDbEntity
  8
0
100
AcDbLine
 62
7
  6
CONTINUOUS
 10
149.1872779734
 20
100.8584694429
 11
148.7087886732
 21
100.9775915487
  0
LINE
  5
259
100
AcDbEntity
  8
0
100
AcDbLine
 62
7
  6
CONTINUOUS
 10
148.7087886732
 20
100.9775915487
 11
148.4740546826
 21
101.0368959206
  0
LINE
  5
25A
100
AcDbEntity
  8
0
100
AcDbLine
 62
7
  6
CONTINUOUS
 10
139.0626999816
 20
105.4483135861
 11
148.8015283664
 21
100.5788993937
  0
LINE
  5
25B
100
AcDbEntity
  8
0
100
AcDbLine
 62
7
  6
CONTINUOUS
 10
138.8523440266
 20
105.6405618364
 11
148.304885236
 21
100.9142912317
  0
LINE
  5
25C
100
AcDbEntity
  8
0
100
AcDbLine
 62
7
  6
CONTINUOUS
 10
148.8015283664
 20
100.5788993937
 11
148.304885236
 21
100.9142912317
  0
LINE
  5
25D
100
AcDbEntity
  8
0
100
AcDbLine
 62
7
  6
CONTINUOUS
 10
148.4740546826
 20
81.5513243354
 11
148.4740546826
 21
93.1282757032
  0
LINE
  5
25E
100
AcDbEntity
  8
0
100
AcDbLine
 62
7
  6
CONTINUOUS
 10
148.4740546826
 20
101.0368959206
 11
148.4740546826
 21
112.6138472883
  0
LWPOLYLINE
  5
25F
100
AcDbEntity
  8
0
100
AcDbPolyline
 62
7
  6
CONTINUOUS
 90
9
 70
0
 10
151.6259096952
 20
101.9199469134
 10
151.673272186
 20
101.9512070393
 10
151.7202231621
 20
101.9831907874
 10
151.7667663969
 20
102.0159008926
 10
151.8128981169
 20
102.0493346201
 10
151.858607002
 20
102.0834837656
 10
151.9038892787
 20
102.1183455944
 10
151.9487487205
 20
102.1539228413
 10
151.9931853274
 20
102.1902155062
  0
LWPOLYLINE
  5
260
100
AcDbEntity
  8
0
100
AcDbPolyline
 62
7
  6
CONTINUOUS
 90
7
 70
0
 10
148.8015283664
 20
100.5788993937
 10
148.867843169
 20
100.6219627031
 10
148.9333626362
 20
100.6664484788
 10
148.9980762113
 20
100.7123495513
 10
149.0619734672
 20
100.7596585232
 10
149.1250441086
 20
100.8083677704
 10
149.1872779734
 20
100.8584694429
  0
LINE
  5
261
100
AcDbEntity
  8
0
100
AcDbLine
 62
7
  6
CONTINUOUS
 10
151.5781356896
 20
101.8894104098
 11
151.6259096952
 21
101.9199469134
  0
LWPOLYLINE
  5
262
100
AcDbEntity
  8
DRAFT
100
AcDbPolyline
 62
7
  6
CONTINUOUS
 90
10
 70
0
 10
152.7095065395
 20
102.4550958347
 10
152.7572805451
 20
102.4856323383
 10
152.8046430359
 20
102.5168924642
 10
152.851594012
 20
102.5488762124
 10
152.8981372468
 20
102.5815863176
 10
152.9442689668
 20
102.6150200451
 10
152.9899778519
 20
102.6491691906
 10
153.0352601286
 20
102.6840310194
 10
153.0801195704
 20
102.7196082663
 10
153.1245561773
 20
102.7559009312
  0
LWPOLYLINE
  5
263
100
AcDbEntity
  8
0
100
AcDbPolyline
 62
7
  6
CONTINUOUS
 90
10
 70
0
 10
151.9931853274
 20
94.6783651471
 10
151.9487487205
 20
94.7590944189
 10
151.9038892787
 20
94.8395311076
 10
151.858607002
 20
94.9196752132
 10
151.8128981169
 20
94.9995332438
 10
151.7667663969
 20
95.0790986913
 10
151.7202231621
 20
95.1583520312
 10
151.673272186
 20
95.2372867555
 10
151.6259096952
 20
95.3159093722
 10
151.5781356896
 20
95.3942198814
  0
LINE
  5
264
100
AcDbEntity
  8
0
100
AcDbLine
 62
7
  6
CONTINUOUS
 10
149.1872779734
 20
81.3728978578
 11
149.1872779734
 21
93.3004779755
  0
LINE
  5
265
100
AcDbEntity
  8
0
100
AcDbLine
 62
7
  6
CONTINUOUS
 10
149.1872779734
 20
100.8584694429
 11
149.1872779734
 21
112.7860495606
  0
LWPOLYLINE
  5
266
100
AcDbEntity
  8
DRAFT
100
AcDbPolyline
 62
7
  6
CONTINUOUS
 90
10
 70
0
 10
153.1245561773
 20
95.2440505721
 10
153.0801195704
 20
95.3247798439
 10
153.0352601286
 20
95.4052165326
 10
152.9899778519
 20
95.4853606381
 10
152.9442689668
 20
95.5652186687
 10
152.8981372468
 20
95.6447841162
 10
152.851594012
 20
95.7240374562
 10
152.8046430359
 20
95.8029721804
 10
152.7572805451
 20
95.8815947972
 10
152.7095065395
 20
95.9599053064
  0
LINE
  5
267
100
AcDbEntity
  8
RACCORDO
100
AcDbLine
 62
7
  6
CONTINUOUS
 10
153.1245561773
 20
114.6895452304
 11
153.1299275656
 21
114.7222113591
  0
LWPOLYLINE
  5
268
100
AcDbEntity
  8
RACCORDO
100
AcDbPolyline
 62
7
  6
CONTINUOUS
 90
3
 70
0
 10
153.1328040772
 20
84.4646712926
 10
153.1295126908
 20
84.5223893421
 10
153.1245561773
 20
84.5518052647
  0
LWPOLYLINE
  5
269
100
AcDbEntity
  8
RACCORDO
100
AcDbPolyline
 62
7
  6
CONTINUOUS
 90
12
 70
0
 10
153.1328040772
 20
95.2899888399
 10
153.1295126908
 20
95.3477068894
 10
153.1201456326
 20
95.4032985187
 10
153.105173852
 20
95.4570559506
 10
153.0839891121
 20
95.5108480655
 10
153.0565188957
 20
95.5635206458
 10
153.0248060363
 20
95.6112875627
 10
152.9896261769
 20
95.6539615033
 10
152.9502493902
 20
95.6927004778
 10
152.9081714195
 20
95.7261260031
 10
152.864504228
 20
95.7538330461
 10
152.8211006324
 20
95.7753034087
  0
LINE
  5
26A
100
AcDbEntity
  8
0
100
AcDbLine
 62
7
  6
CONTINUOUS
 10
151.9931853274
 20
82.7046439211
 11
151.9931853274
 21
94.6783651471
  0
LINE
  5
26B
100
AcDbEntity
  8
0
100
AcDbLine
 62
7
  6
CONTINUOUS
 10
151.9931853274
 20
102.1902155062
 11
151.9931853274
 21
114.1639367323
  0
LINE
  5
26C
100
AcDbEntity
  8
DRAFT
100
AcDbLine
 62
7
  6
CONTINUOUS
 10
153.1245561773
 20
83.270329346
 11
153.1245561773
 21
95.2440505721
  0
LINE
  5
26D
100
AcDbEntity
  8
DRAFT
100
AcDbLine
 62
7
  6
CONTINUOUS
 10
153.1245561773
 20
102.7559009312
 11
153.1245561773
 21
114.7296221572
  0
LINE
  5
26E
100
AcDbEntity
  8
DRAFT
100
AcDbLine
 62
7
  6
CONTINUOUS
 10
153.1296329756
 20
88.1057253734
 11
153.1296329756
 21
91.9693662616
  0
LINE
  5
26F
100
AcDbEntity
  8
DRAFT
100
AcDbLine
 62
7
  6
CONTINUOUS
 10
153.1296329756
 20
107.5912969585
 11
153.1296329756
 21
111.4549378467
  0
LINE
  5
270
100
AcDbEntity
  8
RACCORDO
100
AcDbLine
 62
7
  6
CONTINUOUS
 10
153.1299275656
 20
114.7222113591
 11
153.1328040772
 21
114.775560436
  0
LWPOLYLINE
  5
271
100
AcDbEntity
  8
RACCORDO
100
AcDbPolyline
 62
7
  6
CONTINUOUS
 90
3
 70
0
 10
153.1245561773
 20
103.8642276831
 10
153.1299275656
 20
103.8968938118
 10
153.1328040772
 20
103.9502428887
  0
LWPOLYLINE
  5
272
100
AcDbEntity
  8
0
100
AcDbPolyline
 62
7
  6
CONTINUOUS
 90
3
 70
0
 10
148.8015283664
 20
93.9657976317
 10
148.3865421789
 20
93.5093062764
 10
148.304885236
 20
93.4200498386
  0
LWPOLYLINE
  5
273
100
AcDbEntity
  8
RACCORDO
100
AcDbPolyline
 62
7
  6
CONTINUOUS
 90
3
 70
0
 10
153.1328040772
 20
103.9502428778
 10
153.1295126908
 20
104.0079609273
 10
153.1245561773
 20
104.0373768499
  0
LWPOLYLINE
  5
274
100
AcDbEntity
  8
RACCORDO
100
AcDbPolyline
 62
7
  6
CONTINUOUS
 90
12
 70
0
 10
153.1328040772
 20
114.7755604251
 10
153.1295126908
 20
114.8332784746
 10
153.1201456326
 20
114.8888701038
 10
153.105173852
 20
114.9426275358
 10
153.0839891121
 20
114.9964196506
 10
153.0565188957
 20
115.049092231
 10
153.0248060363
 20
115.0968591478
 10
152.9896261769
 20
115.1395330884
 10
152.9502493902
 20
115.1782720629
 10
152.9081714195
 20
115.2116975882
 10
152.864504228
 20
115.2394046313
 10
152.8211006324
 20
115.2608749939
  0
LINE
  5
275
100
AcDbEntity
  8
DRAFT
100
AcDbLine
 62
7
  6
CONTINUOUS
 10
153.377120349
 20
88.2347598455
 11
153.377120349
 21
92.0878191629
  0
LINE
  5
276
100
AcDbEntity
  8
RACCORDO
100
AcDbLine
 62
7
  6
CONTINUOUS
 10
153.377120349
 20
92.0878191629
 11
153.377120349
 21
92.5737516552
  0
LINE
  5
277
100
AcDbEntity
  8
DRAFT
100
AcDbLine
 62
7
  6
CONTINUOUS
 10
153.377120349
 20
107.7203314306
 11
153.377120349
 21
111.5733907481
  0
LINE
  5
278
100
AcDbEntity
  8
RACCORDO
100
AcDbLine
 62
7
  6
CONTINUOUS
 10
153.377120349
 20
111.5733907481
 11
153.377120349
 21
112.0593232404
  0
LINE
  5
279
100
AcDbEntity
  8
RACCORDO
100
AcDbLine
 62
7
  6
CONTINUOUS
 10
153.1299275656
 20
95.2366397739
 11
153.1328040772
 21
95.2899888509
  0
LINE
  5
27A
100
AcDbEntity
  8
RACCORDO
100
AcDbLine
 62
7
  6
CONTINUOUS
 10
153.1245561773
 20
95.2039736452
 11
153.1299275656
 21
95.2366397739
  0
LINE
  5
27B
100
AcDbEntity
  8
0
100
AcDbLine
 62
7
  6
CONTINUOUS
 10
151.5781356896
 20
95.3942198814
 11
148.8015283664
 21
93.9657976317
  0
LINE
  5
27C
100
AcDbEntity
  8
DRAFT
100
AcDbLine
 62
7
  6
CONTINUOUS
 10
152.7095065395
 20
95.9599053064
 11
151.584789104
 21
95.3812869843
  0
LINE
  5
27D
100
AcDbEntity
  8
DRAFT
100
AcDbLine
 62
7
  6
CONTINUOUS
 10
153.1245561773
 20
95.2440505721
 11
151.9891822646
 21
94.6865170755
  0
LINE
  5
27E
100
AcDbEntity
  8
0
100
AcDbLine
 62
7
  6
CONTINUOUS
 10
151.9931853274
 20
94.6783651471
 11
149.1872779734
 21
93.3004779755
  0
LINE
  5
27F
100
AcDbEntity
  8
0
100
AcDbLine
 62
7
  6
CONTINUOUS
 10
148.362041207
 20
112.8086608568
 11
148.304885236
 21
112.9056214238
  0
LINE
  5
280
100
AcDbEntity
  8
0
100
AcDbLine
 62
7
  6
CONTINUOUS
 10
148.4184310226
 20
112.7114028116
 11
148.362041207
 21
112.8086608568
  0
LINE
  5
281
100
AcDbEntity
  8
0
100
AcDbLine
 62
7
  6
CONTINUOUS
 10
148.4740546826
 20
112.6138472883
 11
148.4184310226
 21
112.7114028116
  0
LWPOLYLINE
  5
282
100
AcDbEntity
  8
RACCORDO
100
AcDbPolyline
 62
7
  6
CONTINUOUS
 90
3
 70
0
 10
153.1245561773
 20
84.3786560979
 10
153.1299275656
 20
84.4113222266
 10
153.1328040772
 20
84.4646713036
  0
LWPOLYLINE
  5
283
100
AcDbEntity
  8
0
100
AcDbPolyline
 62
7
  6
CONTINUOUS
 90
7
 70
0
 10
149.1872779734
 20
112.7860495606
 10
149.1250439411
 20
112.8983853975
 10
149.0619731956
 20
113.0101654635
 10
148.9980759017
 20
113.1213717482
 10
148.9333623576
 20
113.2319863339
 10
148.8678429927
 20
113.3419913981
 10
148.8015283664
 20
113.4513692168
  0
LINE
  5
284
100
AcDbEntity
  8
DRAFT
100
AcDbLine
 62
7
  6
CONTINUOUS
 10
153.1296329756
 20
91.9693662616
 11
153.377120349
 21
92.0878191629
  0
LINE
  5
285
100
AcDbEntity
  8
0
100
AcDbLine
 62
7
  6
CONTINUOUS
 10
148.9462610595
 20
112.7284390446
 11
148.4740546826
 21
112.6138472883
  0
LINE
  5
286
100
AcDbEntity
  8
0
100
AcDbLine
 62
7
  6
CONTINUOUS
 10
149.1872779734
 20
112.7860495606
 11
148.9462610595
 21
112.7284390446
  0
LINE
  5
287
100
AcDbEntity
  8
0
100
AcDbLine
 62
7
  6
CONTINUOUS
 10
148.304885236
 20
112.9056214238
 11
138.8523440266
 21
117.6318920284
  0
LINE
  5
288
100
AcDbEntity
  8
0
100
AcDbLine
 62
7
  6
CONTINUOUS
 10
148.8015283664
 20
113.4513692168
 11
139.0626999816
 21
118.3207834092
  0
LWPOLYLINE
  5
289
100
AcDbEntity
  8
0
100
AcDbPolyline
 62
7
  6
CONTINUOUS
 90
10
 70
0
 10
151.9931853274
 20
114.1639367323
 10
151.9487487205
 20
114.2446660041
 10
151.9038892787
 20
114.3251026928
 10
151.858607002
 20
114.4052467983
 10
151.8128981169
 20
114.4851048289
 10
151.7667663969
 20
114.5646702764
 10
151.7202231621
 20
114.6439236164
 10
151.673272186
 20
114.7228583406
 10
151.6259096952
 20
114.8014809574
 10
151.5781356896
 20
114.8797914666
  0
LWPOLYLINE
  5
28A
100
AcDbEntity
  8
DRAFT
100
AcDbPolyline
 62
7
  6
CONTINUOUS
 90
10
 70
0
 10
153.1245561773
 20
114.7296221572
 10
153.0801195704
 20
114.810351429
 10
153.0352601286
 20
114.8907881177
 10
152.9899778519
 20
114.9709322233
 10
152.9442689668
 20
115.0507902539
 10
152.8981372468
 20
115.1303557014
 10
152.851594012
 20
115.2096090413
 10
152.8046430359
 20
115.2885437656
 10
152.7572805451
 20
115.3671663823
 10
152.7095065395
 20
115.4454768915
  0
LINE
  5
28B
100
AcDbEntity
  8
DRAFT
100
AcDbLine
 62
7
  6
CONTINUOUS
 10
153.1296329756
 20
88.1057253734
 11
153.377120349
 21
88.2347598455
  0
LINE
  5
28C
100
AcDbEntity
  8
0
100
AcDbLine
 62
7
  6
CONTINUOUS
 10
151.5781356896
 20
114.8797914666
 11
141.8016332475
 21
119.7680426876
  0
LINE
  5
28D
100
AcDbEntity
  8
RACCORDO
100
AcDbLine
 62
7
  6
CONTINUOUS
 10
146.4396772915
 20
118.2915021912
 11
148.6371479204
 21
117.1927668767
  0
LINE
  5
28E
100
AcDbEntity
  8
RACCORDO
100
AcDbLine
 62
7
  6
CONTINUOUS
 10
152.7095065395
 20
115.4454768915
 11
149.2664007944
 21
117.167029764
  0
LINE
  5
28F
100
AcDbEntity
  8
RACCORDO
100
AcDbLine
 62
7
  6
CONTINUOUS
 10
146.3761098424
 20
118.61217524
 11
142.9330040974
 21
120.3337281126
  0
LWPOLYLINE
  5
290
100
AcDbEntity
  8
0
100
AcDbPolyline
 62
7
  6
CONTINUOUS
 90
7
 70
0
 10
148.304885236
 20
81.4287196466
 10
148.3335590323
 20
81.4484890204
 10
148.3620412733
 20
81.4685242906
 10
148.3903319588
 20
81.4888254572
 10
148.4184310888
 20
81.5093925202
 10
148.4463386634
 20
81.5302254796
 10
148.4740546826
 20
81.5513243354
  0
LWPOLYLINE
  5
291
100
AcDbEntity
  8
0
100
AcDbPolyline
 62
7
  6
CONTINUOUS
 90
9
 70
0
 10
151.6259096952
 20
82.4343753282
 10
151.673272186
 20
82.4656354541
 10
151.7202231621
 20
82.4976192023
 10
151.7667663969
 20
82.5303293075
 10
151.8128981169
 20
82.563763035
 10
151.858607002
 20
82.5979121805
 10
151.9038892787
 20
82.6327740093
 10
151.9487487205
 20
82.6683512562
 10
151.9931853274
 20
82.7046439211
  0
LWPOLYLINE
  5
292
100
AcDbEntity
  8
0
100
AcDbPolyline
 62
7
  6
CONTINUOUS
 90
7
 70
0
 10
148.8015283664
 20
81.0933278085
 10
148.867843169
 20
81.1363911179
 10
148.9333626362
 20
81.1808768936
 10
148.9980762113
 20
81.2267779661
 10
149.0619734672
 20
81.2740869381
 10
149.1250441086
 20
81.3227961853
 10
149.1872779734
 20
81.3728978578
  0
LINE
  5
293
100
AcDbEntity
  8
0
100
AcDbLine
 62
7
  6
CONTINUOUS
 10
151.5781356896
 20
82.4038388246
 11
151.6259096952
 21
82.4343753282
  0
LWPOLYLINE
  5
294
100
AcDbEntity
  8
DRAFT
100
AcDbPolyline
 62
7
  6
CONTINUOUS
 90
10
 70
0
 10
152.7095065395
 20
82.9695242496
 10
152.7572805451
 20
83.0000607532
 10
152.8046430359
 20
83.0313208791
 10
152.851594012
 20
83.0633046272
 10
152.8981372468
 20
83.0960147324
 10
152.9442689668
 20
83.1294484599
 10
152.9899778519
 20
83.1635976054
 10
153.0352601286
 20
83.1984594342
 10
153.0801195704
 20
83.2340366811
 10
153.1245561773
 20
83.270329346
  0
LINE
  5
295
100
AcDbEntity
  8
DRAFT
100
AcDbLine
 62
7
  6
CONTINUOUS
 10
153.1245561773
 20
83.270329346
 11
151.9931853274
 21
82.73334498
  0
LINE
  5
296
100
AcDbEntity
  8
0
100
AcDbLine
 62
7
  6
CONTINUOUS
 10
151.9931853274
 20
82.7046439211
 11
149.1872779734
 21
81.3728978578
  0
LINE
  5
297
100
AcDbEntity
  8
DRAFT
100
AcDbLine
 62
7
  6
CONTINUOUS
 10
152.7095065395
 20
82.9695242496
 11
151.7417693361
 21
82.512761631
  0
LINE
  5
298
100
AcDbEntity
  8
0
100
AcDbLine
 62
7
  6
CONTINUOUS
 10
151.5781356896
 20
82.4038388246
 11
148.8015283664
 21
81.0933278085
  0
ELLIPSE
  5
299
100
AcDbEntity
  8
RACCORDO
100
AcDbEllipse
 62
7
  6
CONTINUOUS
 10
153.077120349
 20
92.5769583554
 30
0.0
 11
0.2999929097
 21
-0.0042158549
 31
0.0
 40
0.4892375088
 41
0.0068752354
 42
1.41874773
  0
ELLIPSE
  5
29A
100
AcDbEntity
  8
RACCORDO
100
AcDbEllipse
 62
7
  6
CONTINUOUS
 10
148.990701311
 20
97.8915302517
 30
0.0
 11
0.4999863728
 21
0.0072295547
 31
0.0
 40
0.5106100819
 41
-2.3635775243
 42
-0.9941391183
  0
ELLIPSE
  5
29B
100
AcDbEntity
  8
RACCORDO
100
AcDbEllipse
 62
7
  6
CONTINUOUS
 10
146.7932306821
 20
98.9902655662
 30
0.0
 11
0.4999863728
 21
0.0072295547
 31
0.0
 40
0.5106100819
 41
2.5501693769
 42
3.9196077829
  0
ELLIPSE
  5
29C
100
AcDbEntity
  8
RACCORDO
100
AcDbEllipse
 62
7
  6
CONTINUOUS
 10
153.077120349
 20
112.0625299406
 30
0.0
 11
0.2999929097
 21
-0.0042158549
 31
0.0
 40
0.4892375088
 41
0.0068752354
 42
1.41874773
  0
ELLIPSE
  5
29D
100
AcDbEntity
  8
RACCORDO
100
AcDbEllipse
 62
7
  6
CONTINUOUS
 10
148.990701311
 20
117.3771018368
 30
0.0
 11
0.4999863728
 21
0.0072295547
 31
0.0
 40
0.5106100819
 41
-2.3635775243
 42
-0.9941391183
  0
ELLIPSE
  5
29E
100
AcDbEntity
  8
RACCORDO
100
AcDbEllipse
 62
7
  6
CONTINUOUS
 10
146.7932306821
 20
118.4758371513
 30
0.0
 11
0.4999863728
 21
0.0072295547
 31
0.0
 40
0.5106100819
 41
2.5501693769
 42
3.9196077829
  0
ENDSEC
  0
SECTION
  2
OBJECTS
  0
DICTIONARY
  5
C
100
AcDbDictionary
280
0
281
1
  3
ACAD_GROUP
350
D
  3
ACAD_MLINESTYLE
350
17
  3
ACAD_LAYOUT
350
1A
  3
ACAD_PLOTSETTINGS
350
19
  3
ACAD_PLOTSTYLENAME
350
E
  0
DICTIONARY
  5
D
102
{ACAD_REACTORS
330
C
102
}
100
AcDbDictionary
280
0
281
1
  0
ACDBDICTIONARYWDFLT
  5
E
102
{ACAD_REACTORS
330
C
102
}
100
AcDbDictionary
281
1
  3
Normal
350
F
100
AcDbDictionaryWithDefault
340
F
  0
DICTIONARY
  5
17
102
{ACAD_REACTORS
330
C
102
}
100
AcDbDictionary
280
0
281
1
  3
Standard
350
18
  0
DICTIONARY
  5
19
102
{ACAD_REACTORS
330
C
102
}
100
AcDbDictionary
281
1
  0
DICTIONARY
  5
1A
102
{ACAD_REACTORS
330
C
102
}
100
AcDbDictionary
281
1
  3
Model
350
29F
  3
Layout1
350
2A0
  0
ACDBPLACEHOLDER
  5
F
102
{ACAD_REACTORS
330
E
102
}
  0
MLINESTYLE
  5
18
102
{ACAD_REACTORS
330
17
102
}
100
AcDbMlineStyle
  2
STANDARD
 70
0
  3

 62
256
 51
90.0
 52
90.0
 71
2
 49
0.5
 62
256
  6
BYLAYER
 49
-0.5
 62
256
  6
BYLAYER
  0
LAYOUT
  5
29F
102
{ACAD_REACTORS
330
1A
102
}
100
AcDbPlotSettings
  1

  2
none_device
  4
ISO_A4_(297.00_x_210.00_MM)
  6

 40
0.0
 41
0.0
 42
0.0
 43
0.0
 44
297.0
 45
210.0
 46
0.0
 47
0.0
 48
0.0
 49
0.0
140
0.0
141
0.0
142
1.0
143
1.0
 70
1024
 72
1
 73
0
 74
0
  7

 75
0
147
1.0
148
0.0
149
0.0
100
AcDbLayout
  1
Model
 70
0
 71
0
 10
0.0
 20
0.0
 11
297.0
 21
210.0
 12
0.0
 22
0.0
 32
0.0
 14
0.0
 24
0.0
 34
0.0
 15
0.0
 25
0.0
 35
0.0
146
0.0
 13
0.0
 23
0.0
 33
0.0
 16
1.0
 26
0.0
 36
0.0
 17
0.0
 27
1.0
 37
0.0
 76
0
330
215
345
0
346
0
  0
LAYOUT
  5
2A0
102
{ACAD_REACTORS
330
1A
102
}
100
AcDbPlotSettings
  1

  2
none_device
  4
ISO_A4_(297.00_x_210.00_MM)
  6

 40
0.0
 41
0.0
 42
0.0
 43
0.0
 44
297.0
 45
210.0
 46
0.0
 47
0.0
 48
0.0
 49
0.0
140
0.0
141
0.0
142
1.0
143
1.0
 70
0
 72
1
 73
0
 74
0
  7

 75
0
147
1.0
148
0.0
149
0.0
100
AcDbLayout
  1
Layout1
 70
0
 71
1
 10
0.0
 20
0.0
 11
297.0
 21
210.0
 12
0.0
 22
0.0
 32
0.0
 14
0.0
 24
0.0
 34
0.0
 15
0.0
 25
0.0
 35
0.0
146
0.0
 13
0.0
 23
0.0
 33
0.0
 16
1.0
 26
0.0
 36
0.0
 17
0.0
 27
1.0
 37
0.0
 76
0
330
216
345
0
346
0
  0
ENDSEC
  0
EOF
