  0
SECTION
  2
HEADER
  9
$ACADVER
  1
AC1024
  9
$DWGCODEPAGE
  3
ANSI_1252
  9
$EXTMAX
 10
297.0
 20
210.0
 30
0.0
  9
$EXTMIN
 10
0.0
 20
0.0
 30
0.0
  9
$LIMMIN
 10
0.0
 20
0.0
  9
$LIMMAX
 10
297.0
 20
210.0
  9
$VIEWCTR
 10
148.5
 20
105.0
  9
$VIEWSIZE
 40
210.0
  9
$CLAYER
  8
0
  9
$LTSCALE
 40
16.335
  9
$CELTYPE
  6
BYLAYER
  9
$DIMSCALE
 40
1.0
  9
$DIMASZ
 40
3.0
  9
$DIMEXO
 40
0.5
  9
$DIMDLI
 40
11.286
  9
$DIMEXE
 40
1.5
  9
$DIMCEN
 40
2.673
  9
$DIMLFAC
 40
1.0
  9
$DIMBLK
  1
_FILLED
  9
$DIMALT
 70
0
  9
$DIMALTF
 40
0.0393700787
  9
$DIMTXT
 40
3.0
  9
$DIMTOL
 70
1
  9
$DIMLIM
 70
0
  9
$DIMTFAC
 40
1.0
  9
$DIMTP
 40
0.01
  9
$DIMTM
 40
0.01
  9
$DIMGAP
 40
0.625
  9
$DIMDSEP
 70
44
  9
$AUNITS
 70
0
  9
$PDMODE
 70
3
  9
$PDSIZE
 40
3.0
  9
$HANDSEED
  5
34F
  9
$TILEMODE
 70
1
  9
$MEASUREMENT
 70
1
  9
$INSUNITS
 70
4
  0
ENDSEC
  0
SECTION
  2
CLASSES
  0
CLASS
  1
ACDBDICTIONARYWDFLT
  2
AcDbDictionaryWithDefault
  3
AutoCAD 2000
 90
0
 91
1
280
0
281
0
  0
CLASS
  1
ACDBPLACEHOLDER
  2
AcDbPlaceHolder
  3
AutoCAD 2000
 90
0
 91
1
280
0
281
0
  0
CLASS
  1
LAYOUT
  2
AcDbLayout
  3
AutoCAD 2000
 90
0
 91
0
280
0
281
0
  0
ENDSEC
  0
SECTION
  2
TABLES
  0
TABLE
  2
VPORT
  5
8
100
AcDbSymbolTable
 70
2
  0
VPORT
  5
1F4
100
AcDbSymbolTableRecord
100
AcDbViewportTableRecord
  2
*ACTIVE
 70
0
 10
0.0
 20
0.0
 11
1.0
 21
1.0
 12
148.5
 22
105.0
 13
0.0
 23
0.0
 14
1.0
 24
1.0
 15
0.0
 25
0.0
 16
0.0
 26
0.0
 36
1.0
 17
0.0
 27
0.0
 37
0.0
 40
210.0
 41
1.4142857143
 42
50.0
 43
0.0
 44
0.0
 50
0.0
 51
0.0
 71
0
 72
100
 73
1
 74
1
 75
0
 76
0
 77
0
 78
0
  0
ENDTAB
  0
TABLE
  2
LTYPE
  5
5
100
AcDbSymbolTable
 70
6
  0
LTYPE
  5
14
100
AcDbSymbolTableRecord
100
AcDbLinetypeTableRecord
  2
BYBLOCK
 70
0
  3

 72
65
 73
0
 40
0.0
  0
LTYPE
  5
15
100
AcDbSymbolTableRecord
100
AcDbLinetypeTableRecord
  2
BYLAYER
 70
0
  3

 72
65
 73
0
 40
0.0
  0
LTYPE
  5
16
100
AcDbSymbolTableRecord
100
AcDbLinetypeTableRecord
  2
CONTINUOUS
 70
64
  3
Solid line
 72
65
 73
0
 40
0.0
  0
LTYPE
  5
1F5
100
AcDbSymbolTableRecord
100
AcDbLinetypeTableRecord
  2
CENTER
 70
64
  3
____ _ ____ _ ____ _ ____ _ ____ _ ____ _ ____
 72
65
 73
4
 40
0.6
 49
0.375
 74
0
 49
-0.075
 74
0
 49
0.075
 74
0
 49
-0.075
 74
0
  0
LTYPE
  5
1F6
100
AcDbSymbolTableRecord
100
AcDbLinetypeTableRecord
  2
HIDDEN
 70
64
  3
- - - - - - - - - - - - - - - - - - - -
 72
65
 73
2
 40
0.2
 49
0.1
 74
0
 49
-0.1
 74
0
  0
LTYPE
  5
1F7
100
AcDbSymbolTableRecord
100
AcDbLinetypeTableRecord
  2
PHANTOM
 70
64
  3
_____ _ _ _____ _ _ _____ _ _ _____
 72
65
 73
6
 40
0.8
 49
0.45
 74
0
 49
-0.05
 74
0
 49
0.1
 74
0
 49
-0.05
 74
0
 49
0.1
 74
0
 49
-0.05
 74
0
  0
LTYPE
  5
1F8
100
AcDbSymbolTableRecord
100
AcDbLinetypeTableRecord
  2
DOT
 70
64
  3
. . . . . . . . . . . . . . . . . . . .
 72
65
 73
2
 40
0.2
 49
0.1
 74
0
 49
-0.1
 74
0
  0
LTYPE
  5
1F9
100
AcDbSymbolTableRecord
100
AcDbLinetypeTableRecord
  2
DASHED
 70
64
  3
- - - - - - - - - - - - - - - - - - - -
 72
65
 73
2
 40
0.2
 49
0.1
 74
0
 49
-0.1
 74
0
  0
ENDTAB
  0
TABLE
  2
LAYER
  5
2
100
AcDbSymbolTable
 70
36
  0
LAYER
  5
10
100
AcDbSymbolTableRecord
100
AcDbLayerTableRecord
  2
0
 70
0
 62
7
  6
CONTINUOUS
370
-3
390
F
  0
LAYER
  5
1FA
100
AcDbSymbolTableRecord
100
AcDbLayerTableRecord
  2
DEFAULT_1
 70
0
 62
7
  6
CENTER
370
-3
390
F
  0
LAYER
  5
1FB
100
AcDbSymbolTableRecord
100
AcDbLayerTableRecord
  2
DEFAULT_2
 70
0
 62
7
  6
HIDDEN
370
-3
390
F
  0
LAYER
  5
1FC
100
AcDbSymbolTableRecord
100
AcDbLayerTableRecord
  2
DEFAULT_3
 70
0
 62
7
  6
PHANTOM
370
-3
390
F
  0
LAYER
  5
1FD
100
AcDbSymbolTableRecord
100
AcDbLayerTableRecord
  2
ASSI
 70
0
 62
7
  6
CONTINUOUS
370
-3
390
F
  0
LAYER
  5
1FE
100
AcDbSymbolTableRecord
100
AcDbLayerTableRecord
  2
COLOR9
 70
0
 62
7
  6
CONTINUOUS
370
-3
390
F
  0
LAYER
  5
1FF
100
AcDbSymbolTableRecord
100
AcDbLayerTableRecord
  2
COORDINATE
 70
0
 62
7
  6
CONTINUOUS
370
-3
390
F
  0
LAYER
  5
200
100
AcDbSymbolTableRecord
100
AcDbLayerTableRecord
  2
COORD_ORIGINE
 70
0
 62
7
  6
CONTINUOUS
370
-3
390
F
  0
LAYER
  5
201
100
AcDbSymbolTableRecord
100
AcDbLayerTableRecord
  2
COPY_PUBLISH
 70
0
 62
7
  6
CONTINUOUS
370
-3
390
F
  0
LAYER
  5
202
100
AcDbSymbolTableRecord
100
AcDbLayerTableRecord
  2
COSMETICI
 70
0
 62
7
  6
CONTINUOUS
370
-3
390
F
  0
LAYER
  5
203
100
AcDbSymbolTableRecord
100
AcDbLayerTableRecord
  2
CURVE
 70
0
 62
7
  6
CONTINUOUS
370
-3
390
F
  0
LAYER
  5
204
100
AcDbSymbolTableRecord
100
AcDbLayerTableRecord
  2
DRAFT
 70
0
 62
7
  6
CONTINUOUS
370
-3
390
F
  0
LAYER
  5
205
100
AcDbSymbolTableRecord
100
AcDbLayerTableRecord
  2
IMPORT_IGES
 70
0
 62
7
  6
CONTINUOUS
370
-3
390
F
  0
LAYER
  5
206
100
AcDbSymbolTableRecord
100
AcDbLayerTableRecord
  2
INTF_1
 70
0
 62
7
  6
CONTINUOUS
370
-3
390
F
  0
LAYER
  5
207
100
AcDbSymbolTableRecord
100
AcDbLayerTableRecord
  2
INTF_5
 70
0
 62
7
  6
CONTINUOUS
370
-3
390
F
  0
LAYER
  5
208
100
AcDbSymbolTableRecord
100
AcDbLayerTableRecord
  2
INTF_6
 70
0
 62
7
  6
CONTINUOUS
370
-3
390
F
  0
LAYER
  5
209
100
AcDbSymbolTableRecord
100
AcDbLayerTableRecord
  2
INTF_YELLOW
 70
0
 62
7
  6
CONTINUOUS
370
-3
390
F
  0
LAYER
  5
20A
100
AcDbSymbolTableRecord
100
AcDbLayerTableRecord
  2
LIVELLO_1
 70
0
 62
7
  6
CONTINUOUS
370
-3
390
F
  0
LAYER
  5
20B
100
AcDbSymbolTableRecord
100
AcDbLayerTableRecord
  2
NOTE
 70
0
 62
7
  6
CONTINUOUS
370
-3
390
F
  0
LAYER
  5
20C
100
AcDbSymbolTableRecord
100
AcDbLayerTableRecord
  2
PIANI
 70
0
 62
7
  6
CONTINUOUS
370
-3
390
F
  0
LAYER
  5
20D
100
AcDbSymbolTableRecord
100
AcDbLayerTableRecord
  2
PIANI_ORIGINE
 70
0
 62
7
  6
CONTINUOUS
370
-3
390
F
  0
LAYER
  5
20E
100
AcDbSymbolTableRecord
100
AcDbLayerTableRecord
  2
PIANI_RIFERIMENTO
 70
0
 62
7
  6
CONTINUOUS
370
-3
390
F
  0
LAYER
  5
20F
100
AcDbSymbolTableRecord
100
AcDbLayerTableRecord
  2
PUNTI
 70
0
 62
7
  6
CONTINUOUS
370
-3
390
F
  0
LAYER
  5
210
100
AcDbSymbolTableRecord
100
AcDbLayerTableRecord
  2
RACCORDO
 70
0
 62
7
  6
CONTINUOUS
370
-3
390
F
  0
LAYER
  5
211
100
AcDbSymbolTableRecord
100
AcDbLayerTableRecord
  2
SIMBOLI
 70
0
 62
7
  6
CONTINUOUS
370
-3
390
F
  0
LAYER
  5
212
100
AcDbSymbolTableRecord
100
AcDbLayerTableRecord
  2
SMUSSO
 70
0
 62
7
  6
CONTINUOUS
370
-3
390
F
  0
LAYER
  5
213
100
AcDbSymbolTableRecord
100
AcDbLayerTableRecord
  2
SUPERFICI
 70
0
 62
7
  6
CONTINUOUS
370
-3
390
F
  0
LAYER
  5
214
100
AcDbSymbolTableRecord
100
AcDbLayerTableRecord
  2
TRASH
 70
0
 62
7
  6
CONTINUOUS
370
-3
390
F
  0
LAYER
  5
215
100
AcDbSymbolTableRecord
100
AcDbLayerTableRecord
  2
WHITE
 70
0
 62
7
  6
CONTINUOUS
370
-3
390
F
  0
LAYER
  5
216
100
AcDbSymbolTableRecord
100
AcDbLayerTableRecord
  2
XSEC_DATUMS
 70
0
 62
7
  6
CONTINUOUS
370
-3
390
F
  0
ENDTAB
  0
TABLE
  2
STYLE
  5
3
100
AcDbSymbolTable
 70
1
  0
STYLE
  5
11
100
AcDbSymbolTableRecord
100
AcDbTextStyleTableRecord
  2
STANDARD
 70
0
 40
0.0
 41
0.8
 50
0.0
 71
0
 42
0.2
  3
txt
  4

  0
STYLE
  5
217
100
AcDbSymbolTableRecord
100
AcDbTextStyleTableRecord
  2
TEXTSTYLE_1
 70
0
 40
0.0
 41
0.8
 50
0.0
 71
0
 42
0.2
  3
gdt
  4

  0
ENDTAB
  0
TABLE
  2
VIEW
  5
6
100
AcDbSymbolTable
 70
0
  0
ENDTAB
  0
TABLE
  2
UCS
  5
7
100
AcDbSymbolTable
 70
0
  0
ENDTAB
  0
TABLE
  2
APPID
  5
9
100
AcDbSymbolTable
 70
1
  0
APPID
  5
218
100
AcDbSymbolTableRecord
100
AcDbRegAppTableRecord
  2
ACAD
 70
0
  0
ENDTAB
  0
TABLE
  2
BLOCK_RECORD
  5
1
100
AcDbSymbolTable
 70
0
  0
BLOCK_RECORD
  5
219
100
AcDbSymbolTableRecord
100
AcDbBlockTableRecord
  2
*Model_Space
  0
BLOCK_RECORD
  5
21A
100
AcDbSymbolTableRecord
100
AcDbBlockTableRecord
  2
*Paper_Space
  0
BLOCK_RECORD
  5
21B
100
AcDbSymbolTableRecord
100
AcDbBlockTableRecord
  2
_FILLED
  0
ENDTAB
  0
TABLE
  2
DIMSTYLE
  5
A
100
AcDbSymbolTable
 70
1
100
AcDbDimStyleTable
 71
0
  0
DIMSTYLE
105
21C
100
AcDbSymbolTableRecord
100
AcDbDimStyleTableRecord
  2
STANDARD
 70
0
  3

  4

 40
1.0
 41
3.0
 42
0.5
 43
0.38
 44
1.5
 45
0.0
 46
0.0
 47
0.01
 48
0.01
140
3.0
141
0.09
142
0.0
143
25.4
144
1.0
145
0.0
146
1.0
147
0.625
 71
1.0
 72
0.0
 73
0
 74
0
 75
0
 76
0
 77
1
 78
8
 79
2
170
0
171
1
172
0
173
0
174
0
175
0
176
0
177
0
178
0
270
2
179
2
271
2
272
2
273
2
274
2
275
0
280
0
281
0
282
0
283
1
284
8
285
0
286
0
287
3
288
0
340
11
278
44
341
21B
342
21B
343
21B
344
21B
  0
ENDTAB
  0
ENDSEC
  0
SECTION
  2
BLOCKS
  0
BLOCK
  5
20
100
AcDbEntity
  8
0
100
AcDbBlockBegin
  2
*Model_Space
 70
0
 10
0.0
 20
0.0
 30
0.0
  3
*Model_Space
  1

  0
ENDBLK
  5
21
100
AcDbEntity
  8
0
100
AcDbBlockEnd
  0
BLOCK
  5
1C
100
AcDbEntity
  8
0
100
AcDbBlockBegin
  2
*Paper_Space
 70
0
 10
0.0
 20
0.0
 30
0.0
  3
*Paper_Space
  1

  0
ENDBLK
  5
1D
100
AcDbEntity
  8
0
100
AcDbBlockEnd
  0
BLOCK
  5
21D
100
AcDbEntity
  8
0
100
AcDbBlockBegin
  2
_FILLED
 70
64
 10
0.0
 20
0.0
  3
_FILLED
  1

  0
SOLID
  5
21E
100
AcDbEntity
  8
0
  6
BYBLOCK
 62
0
100
AcDbTrace
 10
0.0
 20
0.0
 11
-1.0
 21
0.3166666667
 12
-1.0
 22
-0.3166666667
 13
-1.0
 23
-0.3166666667
  0
ENDBLK
  5
21F
100
AcDbEntity
  8
0
  6
BYBLOCK
 62
0
100
AcDbBlockEnd
  0
ENDSEC
  0
SECTION
  2
ENTITIES
  0
LWPOLYLINE
  5
220
100
AcDbEntity
  8
0
100
AcDbPolyline
 62
7
  6
CONTINUOUS
 90
7
 70
0
 10
138.8523440266
 20
117.6318920284
 10
138.8236702303
 20
117.6121226547
 10
138.7951879894
 20
117.5920873845
 10
138.7668973039
 20
117.5717862179
 10
138.7387981738
 20
117.5512191549
 10
138.7108905992
 20
117.5303861954
 10
138.68317458
 20
117.5092873396
  0
LWPOLYLINE
  5
221
100
AcDbEntity
  8
0
100
AcDbPolyline
 62
7
  6
CONTINUOUS
 90
7
 70
0
 10
139.0626999816
 20
118.3207834092
 10
138.996385179
 20
118.2777200998
 10
138.9308657118
 20
118.2332343241
 10
138.8661521368
 20
118.1873332516
 10
138.8022548808
 20
118.1400242796
 10
138.7391842394
 20
118.0913150325
 10
138.6769503747
 20
118.04121336
  0
LINE
  5
222
100
AcDbEntity
  8
0
100
AcDbLine
 62
7
  6
CONTINUOUS
 10
141.8016332475
 20
119.7680426876
 11
139.0626999816
 21
118.3207834092
  0
LINE
  5
223
100
AcDbEntity
  8
DRAFT
100
AcDbLine
 62
7
  6
CONTINUOUS
 10
142.9330040974
 20
120.3337281126
 11
141.8328709607
 21
119.752423831
  0
LINE
  5
224
100
AcDbEntity
  8
0
100
AcDbLine
 62
7
  6
CONTINUOUS
 10
149.1872779734
 20
81.3728978578
 11
148.7086959408
 21
81.4920431631
  0
LINE
  5
225
100
AcDbEntity
  8
0
100
AcDbLine
 62
7
  6
CONTINUOUS
 10
148.7086959408
 20
81.4920431631
 11
148.4740546826
 21
81.5513243354
  0
LINE
  5
226
100
AcDbEntity
  8
0
100
AcDbLine
 62
7
  6
CONTINUOUS
 10
139.0626999816
 20
85.9627420009
 11
148.8015283664
 21
81.0933278085
  0
LINE
  5
227
100
AcDbEntity
  8
0
100
AcDbLine
 62
7
  6
CONTINUOUS
 10
138.8523440266
 20
86.1549902513
 11
148.304885236
 21
81.4287196466
  0
LINE
  5
228
100
AcDbEntity
  8
0
100
AcDbLine
 62
7
  6
CONTINUOUS
 10
139.0626999816
 20
85.9627420009
 11
138.8523440266
 21
86.1549902513
  0
LINE
  5
229
100
AcDbEntity
  8
0
100
AcDbLine
 62
7
  6
CONTINUOUS
 10
148.8015283664
 20
81.0933278085
 11
148.304885236
 21
81.4287196466
  0
LINE
  5
22A
100
AcDbEntity
  8
0
100
AcDbLine
 62
7
  6
CONTINUOUS
 10
138.7951880556
 20
86.2519508182
 11
138.8523440266
 21
86.1549902513
  0
LINE
  5
22B
100
AcDbEntity
  8
0
100
AcDbLine
 62
7
  6
CONTINUOUS
 10
138.7387982401
 20
86.3492088634
 11
138.7951880556
 21
86.2519508182
  0
LINE
  5
22C
100
AcDbEntity
  8
0
100
AcDbLine
 62
7
  6
CONTINUOUS
 10
138.68317458
 20
86.4467643867
 11
138.7387982401
 21
86.3492088634
  0
LINE
  5
22D
100
AcDbEntity
  8
0
100
AcDbLine
 62
7
  6
CONTINUOUS
 10
138.9911422697
 20
118.08823144
 11
138.8523440266
 21
117.6318920284
  0
LINE
  5
22E
100
AcDbEntity
  8
0
100
AcDbLine
 62
7
  6
CONTINUOUS
 10
139.0626999816
 20
118.3207834092
 11
138.9911422697
 21
118.08823144
  0
LWPOLYLINE
  5
22F
100
AcDbEntity
  8
0
100
AcDbPolyline
 62
7
  6
CONTINUOUS
 90
8
 70
0
 10
141.9374888418
 20
111.3426955162
 10
141.8993659379
 20
111.3205226182
 10
141.8552721662
 20
111.2849411597
 10
141.8157366061
 20
111.2412679361
 10
141.7819813692
 20
111.1908529615
 10
141.7544138261
 20
111.1341462404
 10
141.7326266062
 20
111.0706977683
 10
141.7166197096
 20
111.000507545
  0
LINE
  5
230
100
AcDbEntity
  8
0
100
AcDbLine
 62
250
  6
CONTINUOUS
 10
141.7166197096
 20
111.000507545
 11
141.7236907774
 21
111.0040430789
  0
LINE
  5
231
100
AcDbEntity
  8
0
100
AcDbLine
 62
7
  6
CONTINUOUS
 10
145.1626420085
 20
88.865815588
 11
146.2832280658
 21
88.3189346948
  0
LINE
  5
232
100
AcDbEntity
  8
0
100
AcDbLine
 62
7
  6
CONTINUOUS
 10
145.1697130763
 20
88.8693511219
 11
146.2859817958
 21
88.324577224
  0
LINE
  5
233
100
AcDbEntity
  8
0
100
AcDbLine
 62
7
  6
CONTINUOUS
 10
143.3194691884
 20
89.7874019981
 11
144.4400304969
 21
89.2405334792
  0
LINE
  5
234
100
AcDbEntity
  8
0
100
AcDbLine
 62
7
  6
CONTINUOUS
 10
143.3265402562
 20
89.790937532
 11
144.4427842253
 21
89.2461760081
  0
LWPOLYLINE
  5
235
100
AcDbEntity
  8
0
100
AcDbPolyline
 62
7
  6
CONTINUOUS
 90
10
 70
0
 10
143.0673241026
 20
88.7040648684
 10
143.095173819
 20
88.6832672535
 10
143.1231023374
 20
88.6645553276
 10
143.1511096578
 20
88.647929091
 10
143.1793026571
 20
88.6333412813
 10
143.2075744585
 20
88.6208391608
 10
143.2356044311
 20
88.6105645161
 10
143.2632856981
 20
88.6025646094
 10
143.2907251364
 20
88.5967921786
 10
143.3179227459
 20
88.5932472236
  0
LWPOLYLINE
  5
236
100
AcDbEntity
  8
0
100
AcDbPolyline
 62
7
  6
CONTINUOUS
 90
10
 70
0
 10
143.0743951704
 20
88.7076004023
 10
143.1022448868
 20
88.6868027874
 10
143.1301734052
 20
88.6680908616
 10
143.1581807256
 20
88.6514646249
 10
143.186373725
 20
88.6368768152
 10
143.2146455263
 20
88.6243746947
 10
143.2426754989
 20
88.61410005
 10
143.2703567659
 20
88.6061001433
 10
143.2977962042
 20
88.6003277125
 10
143.3184939932
 20
88.5976299486
  0
LWPOLYLINE
  5
237
100
AcDbEntity
  8
0
100
AcDbPolyline
 62
7
  6
CONTINUOUS
 90
10
 70
0
 10
144.9105216715
 20
87.782466084
 10
144.9383645359
 20
87.7614899543
 10
144.966291373
 20
87.7426426135
 10
144.9943021827
 20
87.7259240615
 10
145.0225084521
 20
87.7112849975
 10
145.0507986941
 20
87.6987747223
 10
145.0788384475
 20
87.6885411386
 10
145.1065162252
 20
87.6806335473
 10
145.1339435143
 20
87.6750026475
 10
145.1611203147
 20
87.6716484392
  0
LWPOLYLINE
  5
238
100
AcDbEntity
  8
0
100
AcDbPolyline
 62
7
  6
CONTINUOUS
 90
10
 70
0
 10
144.9175927393
 20
87.7860016179
 10
144.9454356037
 20
87.7650254883
 10
144.9733624408
 20
87.7461781474
 10
145.0013732505
 20
87.7294595954
 10
145.0295795199
 20
87.7148205314
 10
145.0578697619
 20
87.7023102562
 10
145.0859095153
 20
87.6920766725
 10
145.113587293
 20
87.6841690812
 10
145.1410145821
 20
87.6785381814
 10
145.1616562261
 20
87.6759905535
  0
LWPOLYLINE
  5
239
100
AcDbEntity
  8
0
100
AcDbPolyline
 62
7
  6
CONTINUOUS
 90
8
 70
0
 10
142.102013523
 20
111.0134998789
 10
142.0798192541
 20
111.0006098385
 10
142.053871401
 20
110.9797205121
 10
142.0306036937
 20
110.954068121
 10
142.0107364363
 20
110.9244467925
 10
141.99450973
 20
110.8911212355
 10
141.9816834737
 20
110.8538267411
 10
141.9722576672
 20
110.8125633093
  0
LINE
  5
23A
100
AcDbEntity
  8
0
100
AcDbLine
 62
7
  6
CONTINUOUS
 10
151.5781356896
 20
114.8797914666
 11
148.8015283664
 21
113.4513692168
  0
LINE
  5
23B
100
AcDbEntity
  8
DRAFT
100
AcDbLine
 62
7
  6
CONTINUOUS
 10
152.7095065395
 20
115.4454768915
 11
151.584789104
 21
114.8668585694
  0
LINE
  5
23C
100
AcDbEntity
  8
0
100
AcDbLine
 62
7
  6
CONTINUOUS
 10
142.1090556724
 20
111.0170934265
 11
142.1019846046
 21
111.0135578926
  0
LINE
  5
23D
100
AcDbEntity
  8
0
100
AcDbLine
 62
7
  6
CONTINUOUS
 10
142.2816025453
 20
111.0212087343
 11
142.2886736131
 21
111.0247442682
  0
LINE
  5
23E
100
AcDbEntity
  8
0
100
AcDbLine
 62
7
  6
CONTINUOUS
 10
142.3401737713
 20
111.0013329683
 11
142.3472448391
 21
111.0048685022
  0
LINE
  5
23F
100
AcDbEntity
  8
0
100
AcDbLine
 62
7
  6
CONTINUOUS
 10
142.7220585289
 20
110.8103905895
 11
142.7291295967
 21
110.8139261234
  0
LINE
  5
240
100
AcDbEntity
  8
0
100
AcDbLine
 62
7
  6
CONTINUOUS
 10
142.7808293148
 20
110.7715953495
 11
142.7879003826
 21
110.7751308834
  0
LINE
  5
241
100
AcDbEntity
  8
0
100
AcDbLine
 62
250
  6
CONTINUOUS
 10
143.0904236366
 20
110.2534803246
 11
143.0974947044
 21
110.2570158585
  0
LINE
  5
242
100
AcDbEntity
  8
0
100
AcDbLine
 62
7
  6
CONTINUOUS
 10
141.7166197096
 20
109.3937150438
 11
141.7236907774
 21
109.3972505777
  0
LWPOLYLINE
  5
243
100
AcDbEntity
  8
0
100
AcDbPolyline
 62
7
  6
CONTINUOUS
 90
4
 70
0
 10
142.3470009866
 20
111.0016228204
 10
142.3462980464
 20
111.0013718159
 10
142.3433639372
 20
111.0009215037
 10
142.3401737713
 20
111.0013329683
  0
LWPOLYLINE
  5
244
100
AcDbEntity
  8
0
100
AcDbPolyline
 62
7
  6
CONTINUOUS
 90
4
 70
0
 10
142.7152075976
 20
111.1309416445
 10
142.7164380922
 20
111.1313054254
 10
142.7191292581
 20
111.131429588
 10
142.7220585289
 20
111.130722561
  0
LWPOLYLINE
  5
245
100
AcDbEntity
  8
0
100
AcDbPolyline
 62
7
  6
CONTINUOUS
 90
4
 70
0
 10
141.536397716
 20
91.9553127102
 10
141.5446409845
 20
91.9532154748
 10
141.552395275
 20
91.9524555207
 10
141.5593699529
 20
91.9529418408
  0
LWPOLYLINE
  5
246
100
AcDbEntity
  8
0
100
AcDbPolyline
 62
7
  6
CONTINUOUS
 90
6
 70
0
 10
141.5350072349
 20
91.9503888982
 10
141.5271073342
 20
91.95300118
 10
141.5230045252
 20
91.9544333711
 10
141.5187713824
 20
91.9559468487
 10
141.5143990129
 20
91.9575523412
 10
141.5052643209
 20
91.9609533272
  0
LWPOLYLINE
  5
247
100
AcDbEntity
  8
0
100
AcDbPolyline
 62
7
  6
CONTINUOUS
 90
29
 70
0
 10
141.4956103371
 20
91.9644795981
 10
141.4905936903
 20
91.9662066582
 10
141.4854536755
 20
91.9678689554
 10
141.4801886484
 20
91.9694814632
 10
141.4747979502
 20
91.9710118845
 10
141.469284105
 20
91.9724526718
 10
141.4636445885
 20
91.9738113726
 10
141.457871169
 20
91.9750783324
 10
141.4519637426
 20
91.9762617007
 10
141.4459224131
 20
91.9773533281
 10
141.4397392604
 20
91.9783191118
 10
141.433412737
 20
91.9791619465
 10
141.4269443904
 20
91.9798789375
 10
141.4203309431
 20
91.9804272988
 10
141.413570678
 20
91.9808087645
 10
141.4066653123
 20
91.9810216004
 10
141.3996167187
 20
91.981017818
 10
141.3924227179
 20
91.9808019164
 10
141.3850854893
 20
91.9803693966
 10
141.3776134444
 20
91.9796587723
 10
141.3700031245
 20
91.9786741407
 10
141.3622579883
 20
91.9774114048
 10
141.3543968224
 20
91.9757967866
 10
141.3464160606
 20
91.9738353505
 10
141.338319269
 20
91.9715220322
 10
141.3301359333
 20
91.9687678606
 10
141.3218627026
 20
91.9655767036
 10
141.3135029277
 20
91.9619446935
 10
141.308584484
 20
91.9595735753
  0
LINE
  5
248
100
AcDbEntity
  8
0
100
AcDbLine
 62
7
  6
CONTINUOUS
 10
141.5052643209
 20
91.9609533272
 11
141.4956103371
 21
91.9644795981
  0
LINE
  5
249
100
AcDbEntity
  8
0
100
AcDbLine
 62
7
  6
CONTINUOUS
 10
141.5184653191
 20
91.962204997
 11
141.536397716
 21
91.9553127102
  0
LWPOLYLINE
  5
24A
100
AcDbEntity
  8
0
100
AcDbPolyline
 62
7
  6
CONTINUOUS
 90
8
 70
0
 10
145.5325288586
 20
89.9109348093
 10
145.4930233814
 20
89.9279716871
 10
145.4547661974
 20
89.9396791302
 10
145.4177573067
 20
89.9460571387
 10
145.381621342
 20
89.9470591526
 10
145.3467336706
 20
89.9427317318
 10
145.3142203939
 20
89.9332145566
 10
145.2976481728
 20
89.9258155963
  0
LWPOLYLINE
  5
24B
100
AcDbEntity
  8
0
100
AcDbPolyline
 62
7
  6
CONTINUOUS
 90
8
 70
0
 10
143.6893312898
 20
90.8325335937
 10
143.6498258126
 20
90.8495704715
 10
143.6115686286
 20
90.8612779146
 10
143.5745597379
 20
90.8676559231
 10
143.5384237732
 20
90.868657937
 10
143.5035361017
 20
90.8643305162
 10
143.4710228251
 20
90.854813341
 10
143.454450604
 20
90.8474143807
  0
LWPOLYLINE
  5
24C
100
AcDbEntity
  8
0
100
AcDbPolyline
 62
7
  6
CONTINUOUS
 90
8
 70
0
 10
143.6893312898
 20
91.1510023116
 10
143.6221674691
 20
91.1799669448
 10
143.5571258924
 20
91.1998709244
 10
143.4942065595
 20
91.2107142506
 10
143.4327713027
 20
91.2124177654
 10
143.3734582897
 20
91.2050606268
 10
143.3181820243
 20
91.1888803081
 10
143.2900076059
 20
91.1763013301
  0
LWPOLYLINE
  5
24D
100
AcDbEntity
  8
0
100
AcDbPolyline
 62
7
  6
CONTINUOUS
 90
8
 70
0
 10
145.5325288586
 20
90.2294035272
 10
145.4652219609
 20
90.2588720279
 10
145.4000331647
 20
90.2792017008
 10
145.3369624701
 20
90.2903925459
 10
145.275360537
 20
90.2923663479
 10
145.2158767055
 20
90.2852013222
 10
145.1604589957
 20
90.2691321141
 10
145.1318574611
 20
90.2563926393
  0
LINE
  5
24E
100
AcDbEntity
  8
0
100
AcDbLine
 62
7
  6
CONTINUOUS
 10
143.6893312898
 20
90.8325335937
 11
144.4282069644
 21
90.4630957564
  0
LINE
  5
24F
100
AcDbEntity
  8
0
100
AcDbLine
 62
7
  6
CONTINUOUS
 10
145.5325288586
 20
89.9109348093
 11
146.2713790774
 21
89.5415096999
  0
LINE
  5
250
100
AcDbEntity
  8
0
100
AcDbLine
 62
7
  6
CONTINUOUS
 10
143.6964023576
 20
90.8360691277
 11
144.4310353916
 21
90.4687526107
  0
LINE
  5
251
100
AcDbEntity
  8
0
100
AcDbLine
 62
7
  6
CONTINUOUS
 10
145.5395999265
 20
89.9144703432
 11
146.2742075046
 21
89.5471665542
  0
LINE
  5
252
100
AcDbEntity
  8
0
100
AcDbLine
 62
7
  6
CONTINUOUS
 10
146.2713790774
 20
89.8599784178
 11
145.5325288586
 21
90.2294035272
  0
LINE
  5
253
100
AcDbEntity
  8
0
100
AcDbLine
 62
7
  6
CONTINUOUS
 10
144.4282069644
 20
90.7815644743
 11
143.6893312898
 21
91.1510023116
  0
LINE
  5
254
100
AcDbEntity
  8
0
100
AcDbLine
 62
7
  6
CONTINUOUS
 10
144.4282069647
 20
89.5533655133
 11
143.3194691884
 21
90.1096284002
  0
LINE
  5
255
100
AcDbEntity
  8
0
100
AcDbLine
 62
7
  6
CONTINUOUS
 10
146.2713790774
 20
88.6317794581
 11
145.1626420085
 21
89.1880419901
  0
LINE
  5
256
100
AcDbEntity
  8
0
100
AcDbLine
 62
7
  6
CONTINUOUS
 10
141.9285774219
 20
91.7564161799
 11
141.9875727548
 21
91.7172640622
  0
LINE
  5
257
100
AcDbEntity
  8
0
100
AcDbLine
 62
7
  6
CONTINUOUS
 10
141.9356484897
 20
91.7599517138
 11
141.9946438227
 21
91.7207995961
  0
LWPOLYLINE
  5
258
100
AcDbEntity
  8
0
100
AcDbPolyline
 62
7
  6
CONTINUOUS
 90
10
 70
0
 10
141.9946438227
 20
91.7207995961
 10
142.0141410598
 20
91.7076977533
 10
142.0332916719
 20
91.6933603295
 10
142.0520956589
 20
91.6777873246
 10
142.0706214805
 20
91.6609105307
 10
142.0888006769
 20
91.6427981557
 10
142.1064278694
 20
91.6236548237
 10
142.1234345982
 20
91.6035487427
 10
142.139889323
 20
91.5824117045
 10
142.1557920439
 20
91.5602437093
  0
LWPOLYLINE
  5
259
100
AcDbEntity
  8
0
100
AcDbPolyline
 62
7
  6
CONTINUOUS
 90
12
 70
0
 10
142.7184900835
 20
111.1314000983
 10
142.7163640784
 20
111.1281575441
 10
142.7143805719
 20
111.1245283084
 10
142.7125568553
 20
111.1206690233
 10
142.7108958094
 20
111.116453823
 10
142.7093689921
 20
111.1121148277
 10
142.7079742391
 20
111.1077551275
 10
142.7067137147
 20
111.1032716322
 10
142.7055654698
 20
111.0985871924
 10
142.7045387953
 20
111.0937152734
 10
142.7036244003
 20
111.0886424098
 10
142.7027724637
 20
111.0832510564
  0
LINE
  5
25A
100
AcDbEntity
  8
0
100
AcDbLine
 62
7
  6
CONTINUOUS
 10
142.9607184832
 20
108.5660989104
 11
142.9894383944
 21
108.5823036833
  0
LINE
  5
25B
100
AcDbEntity
  8
0
100
AcDbLine
 62
7
  6
CONTINUOUS
 10
144.1408142341
 20
109.8359483417
 11
144.1478853019
 21
109.8394838756
  0
LINE
  5
25C
100
AcDbEntity
  8
0
100
AcDbLine
 62
250
  6
CONTINUOUS
 10
142.2805049584
 20
108.4877590177
 11
142.2875760262
 21
108.4912945516
  0
LINE
  5
25D
100
AcDbEntity
  8
0
100
AcDbLine
 62
250
  6
CONTINUOUS
 10
143.0901991302
 20
108.7676005167
 11
143.097270198
 21
108.7711360506
  0
LINE
  5
25E
100
AcDbEntity
  8
0
100
AcDbLine
 62
7
  6
CONTINUOUS
 10
142.9607324498
 20
108.5660709272
 11
142.9678035176
 21
108.5696064611
  0
LINE
  5
25F
100
AcDbEntity
  8
DRAFT
100
AcDbLine
 62
7
  6
CONTINUOUS
 10
153.1245561773
 20
114.7296221572
 11
151.9891822646
 21
114.1720886607
  0
LINE
  5
260
100
AcDbEntity
  8
0
100
AcDbLine
 62
7
  6
CONTINUOUS
 10
151.9931853274
 20
114.1639367323
 11
149.1872779734
 21
112.7860495606
  0
LWPOLYLINE
  5
261
100
AcDbEntity
  8
0
100
AcDbPolyline
 62
7
  6
CONTINUOUS
 90
6
 70
0
 10
141.458935389
 20
91.9798161733
 10
141.469467996
 20
91.9776366565
 10
141.4797576327
 20
91.9750902562
 10
141.4898023757
 20
91.9722650795
 10
141.4996120741
 20
91.9690579193
 10
141.5184653191
 20
91.962204997
  0
LINE
  5
262
100
AcDbEntity
  8
0
100
AcDbLine
 62
7
  6
CONTINUOUS
 10
141.4996921537
 20
92.2860677509
 11
141.5121780547
 21
92.2832635406
  0
LWPOLYLINE
  5
263
100
AcDbEntity
  8
0
100
AcDbPolyline
 62
7
  6
CONTINUOUS
 90
53
 70
0
 10
141.5121780547
 20
92.2832635406
 10
141.5181823036
 20
92.2816280082
 10
141.5240913658
 20
92.2796743456
 10
141.5298622516
 20
92.2774505536
 10
141.5354288669
 20
92.2747571016
 10
141.5409045598
 20
92.2716677109
 10
141.5461759822
 20
92.2681086602
 10
141.550836995
 20
92.2636592539
 10
141.5546784125
 20
92.2579911912
 10
141.5579094205
 20
92.2514327729
 10
141.5607514372
 20
92.2445482069
 10
141.5632197501
 20
92.2374844732
 10
141.5652990716
 20
92.2300945917
 10
141.5671649579
 20
92.2225018303
 10
141.5688540283
 20
92.2147459763
 10
141.5703296636
 20
92.2067872424
 10
141.5716575614
 20
92.1986295351
 10
141.5728485661
 20
92.1902919106
 10
141.5738918334
 20
92.1817553126
 10
141.5748205287
 20
92.1729664786
 10
141.575643512
 20
92.1638572076
 10
141.5763519232
 20
92.1544957006
 10
141.5769523476
 20
92.1450332979
 10
141.5774415338
 20
92.1354609495
 10
141.577822733
 20
92.1257877055
 10
141.5781122841
 20
92.1161920565
 10
141.5783097009
 20
92.1067036036
 10
141.5784154696
 20
92.0972927456
 10
141.5784473868
 20
92.0880491703
 10
141.578412579
 20
92.0789825042
 10
141.5783039197
 20
92.0700831206
 10
141.578117827
 20
92.0614118274
 10
141.5778540057
 20
92.0529691027
 10
141.577512751
 20
92.0447544683
 10
141.5770913656
 20
92.036827297
 10
141.5765884535
 20
92.0291968432
 10
141.5760054108
 20
92.0218538525
 10
141.5753437287
 20
92.0148299337
 10
141.5746054351
 20
92.0081387485
 10
141.5737885022
 20
92.0017666352
 10
141.5728883377
 20
91.9957042168
 10
141.571907784
 20
91.9899521133
 10
141.5708439989
 20
91.9845097046
 10
141.5696838629
 20
91.9793657535
 10
141.5684363873
 20
91.9745151417
 10
141.5670925609
 20
91.9699629874
 10
141.565612231
 20
91.9657134087
 10
141.5640128555
 20
91.9617288206
 10
141.5622769765
 20
91.9580468081
 10
141.5603120683
 20
91.9547842441
 10
141.5581254661
 20
91.951829247
 10
141.5557098346
 20
91.9492936983
 10
141.5529794559
 20
91.9476406354
  0
LINE
  5
264
100
AcDbEntity
  8
0
100
AcDbLine
 62
7
  6
CONTINUOUS
 10
141.9533262336
 20
92.0597412979
 11
141.9255842389
 21
92.076883784
  0
LWPOLYLINE
  5
265
100
AcDbEntity
  8
0
100
AcDbPolyline
 62
7
  6
CONTINUOUS
 90
10
 70
0
 10
142.0263625115
 20
92.0128235707
 10
142.0182765768
 20
92.0183155469
 10
142.0101830081
 20
92.0237380127
 10
142.0020818055
 20
92.029090968
 10
141.993972526
 20
92.0343746972
 10
141.9858556127
 20
92.0395889159
 10
141.9777323939
 20
92.0447327707
 10
141.9696033125
 20
92.049805977
 10
141.9614679258
 20
92.0548088194
 10
141.9533262336
 20
92.0597412979
  0
LINE
  5
266
100
AcDbEntity
  8
0
100
AcDbLine
 62
7
  6
CONTINUOUS
 10
141.9209024849
 20
91.7653683944
 11
141.9285774219
 21
91.7564161799
  0
LINE
  5
267
100
AcDbEntity
  8
0
100
AcDbLine
 62
7
  6
CONTINUOUS
 10
141.9279735527
 20
91.7689039283
 11
141.9356484897
 21
91.7599517138
  0
LWPOLYLINE
  5
268
100
AcDbEntity
  8
0
100
AcDbPolyline
 62
7
  6
CONTINUOUS
 90
10
 70
0
 10
142.1487209761
 20
91.5567081754
 10
142.1328182552
 20
91.5788761706
 10
142.1163635304
 20
91.6000132088
 10
142.0993568016
 20
91.6201192898
 10
142.0817296091
 20
91.6392626218
 10
142.0635504127
 20
91.6573749968
 10
142.0450245911
 20
91.6742517907
 10
142.0262206041
 20
91.6898247956
 10
142.007069992
 20
91.7041622194
 10
141.9875727548
 20
91.7172640622
  0
LWPOLYLINE
  5
269
100
AcDbEntity
  8
0
100
AcDbPolyline
 62
7
  6
CONTINUOUS
 90
10
 70
0
 10
142.1557920439
 20
91.5602437093
 10
142.1810656149
 20
91.5240952035
 10
142.2042356648
 20
91.4868180026
 10
142.2253021937
 20
91.4484121065
 10
142.2443962653
 20
91.4085614034
 10
142.2613868159
 20
91.3675820051
 10
142.2758806538
 20
91.3264222477
 10
142.2877467153
 20
91.2853982434
 10
142.2971160642
 20
91.24419388
 10
142.3039887004
 20
91.2028091576
  0
LINE
  5
26A
100
AcDbEntity
  8
0
100
AcDbLine
 62
7
  6
CONTINUOUS
 10
138.6769503747
 20
86.6280616571
 11
138.68317458
 21
86.4467643867
  0
LINE
  5
26B
100
AcDbEntity
  8
0
100
AcDbLine
 62
7
  6
CONTINUOUS
 10
138.6769503747
 20
106.1136332423
 11
138.68317458
 21
105.9323359718
  0
LINE
  5
26C
100
AcDbEntity
  8
0
100
AcDbLine
 62
7
  6
CONTINUOUS
 10
138.6769503747
 20
98.5556417748
 11
138.68317458
 21
98.0237157545
  0
LINE
  5
26D
100
AcDbEntity
  8
0
100
AcDbLine
 62
7
  6
CONTINUOUS
 10
138.6769503747
 20
118.04121336
 11
138.68317458
 21
117.5092873396
  0
LINE
  5
26E
100
AcDbEntity
  8
0
100
AcDbLine
 62
7
  6
CONTINUOUS
 10
138.6769503747
 20
118.04121336
 11
138.6769503747
 21
106.1136332423
  0
LINE
  5
26F
100
AcDbEntity
  8
0
100
AcDbLine
 62
7
  6
CONTINUOUS
 10
138.6769503747
 20
98.5556417748
 11
138.6769503747
 21
86.6280616571
  0
LINE
  5
270
100
AcDbEntity
  8
0
100
AcDbLine
 62
7
  6
CONTINUOUS
 10
138.68317458
 20
117.5092873396
 11
138.68317458
 21
105.9323359718
  0
LINE
  5
271
100
AcDbEntity
  8
0
100
AcDbLine
 62
7
  6
CONTINUOUS
 10
138.68317458
 20
98.0237157545
 11
138.68317458
 21
86.4467643867
  0
LWPOLYLINE
  5
272
100
AcDbEntity
  8
0
100
AcDbPolyline
 62
7
  6
CONTINUOUS
 90
7
 70
0
 10
142.9817345589
 20
108.5783394875
 10
143.0076995854
 20
108.5993948723
 10
143.0311019935
 20
108.6254069187
 10
143.0511339367
 20
108.6553373355
 10
143.0675261328
 20
108.6888400256
 10
143.080547864
 20
108.726261086
 10
143.0901991302
 20
108.7676005167
  0
LWPOLYLINE
  5
273
100
AcDbEntity
  8
0
100
AcDbPolyline
 62
7
  6
CONTINUOUS
 90
8
 70
0
 10
143.1234450508
 20
108.2388109967
 10
143.1500579597
 20
108.253563765
 10
143.197695596
 20
108.2892086169
 10
143.2404449576
 20
108.3338576004
 10
143.2768651812
 20
108.3860058258
 10
143.3064759793
 20
108.4451516631
 10
143.3297576394
 20
108.5117967423
 10
143.3467101617
 20
108.5859410633
  0
LINE
  5
274
100
AcDbEntity
  8
0
100
AcDbLine
 62
7
  6
CONTINUOUS
 10
142.7819269015
 20
108.2370480462
 11
142.7889979693
 21
108.2405835801
  0
LINE
  5
275
100
AcDbEntity
  8
0
100
AcDbLine
 62
7
  6
CONTINUOUS
 10
143.8917368589
 20
107.736891269
 11
143.8988079267
 21
107.7404268029
  0
LINE
  5
276
100
AcDbEntity
  8
0
100
AcDbLine
 62
7
  6
CONTINUOUS
 10
148.9462282286
 20
93.2428595323
 11
148.4740546826
 21
93.1282757032
  0
LINE
  5
277
100
AcDbEntity
  8
0
100
AcDbLine
 62
7
  6
CONTINUOUS
 10
149.1872779734
 20
93.3004779755
 11
148.9462282286
 21
93.2428595323
  0
LWPOLYLINE
  5
278
100
AcDbEntity
  8
0
100
AcDbPolyline
 62
7
  6
CONTINUOUS
 90
6
 70
0
 10
141.5529794559
 20
91.9476406354
 10
141.5497299414
 20
91.947181672
 10
141.5461656798
 20
91.9476051944
 10
141.5424971678
 20
91.9483236832
 10
141.5388043265
 20
91.9492088075
 10
141.5350072349
 20
91.9503888982
  0
LINE
  5
279
100
AcDbEntity
  8
0
100
AcDbLine
 62
7
  6
CONTINUOUS
 10
141.9100724374
 20
91.7923950821
 11
141.9209024849
 21
91.7653683944
  0
LINE
  5
27A
100
AcDbEntity
  8
0
100
AcDbLine
 62
7
  6
CONTINUOUS
 10
141.9171435052
 20
91.795930616
 11
141.9279735527
 21
91.7689039283
  0
LWPOLYLINE
  5
27B
100
AcDbEntity
  8
0
100
AcDbPolyline
 62
7
  6
CONTINUOUS
 90
10
 70
0
 10
141.7236907774
 20
111.0040430789
 10
141.6991156925
 20
110.8405606791
 10
141.6806882707
 20
110.6725313519
 10
141.668408512
 20
110.4999550975
 10
141.6622816055
 20
110.321786046
 10
141.6623023621
 20
110.1390700672
 10
141.6684552143
 20
109.9549447701
 10
141.680734973
 20
109.7704560243
 10
141.6991468274
 20
109.5845579602
 10
141.7236907774
 20
109.3972505777
  0
LWPOLYLINE
  5
27C
100
AcDbEntity
  8
0
100
AcDbPolyline
 62
7
  6
CONTINUOUS
 90
10
 70
0
 10
141.9722576672
 20
110.8125633093
 10
141.9495135535
 20
110.6616265875
 10
141.932446924
 20
110.5064434823
 10
141.9210577787
 20
110.3470139938
 10
141.9153430404
 20
110.1823966224
 10
141.9153057862
 20
110.0135328676
 10
141.920955248
 20
109.8432472283
 10
141.932294503
 20
109.6724812039
 10
141.9493204739
 20
109.500293295
 10
141.9720331607
 20
109.3266835015
  0
LINE
  5
27D
100
AcDbEntity
  8
0
100
AcDbLine
 62
7
  6
CONTINUOUS
 10
138.9911422697
 20
98.6026598549
 11
138.8523440266
 21
98.1463204433
  0
LINE
  5
27E
100
AcDbEntity
  8
0
100
AcDbLine
 62
7
  6
CONTINUOUS
 10
139.0626999816
 20
98.8352118241
 11
138.9911422697
 21
98.6026598549
  0
LWPOLYLINE
  5
27F
100
AcDbEntity
  8
0
100
AcDbPolyline
 62
7
  6
CONTINUOUS
 90
3
 70
0
 10
148.8015283664
 20
113.4513692168
 10
148.3865447335
 20
112.9948806686
 10
148.304885236
 20
112.9056214238
  0
LINE
  5
280
100
AcDbEntity
  8
0
100
AcDbLine
 62
7
  6
CONTINUOUS
 10
145.2482045114
 20
107.5806595471
 11
145.2552755792
 21
107.584195081
  0
LINE
  5
281
100
AcDbEntity
  8
0
100
AcDbLine
 62
7
  6
CONTINUOUS
 10
145.2037023544
 20
107.0889741045
 11
145.2107734222
 21
107.0925096384
  0
LINE
  5
282
100
AcDbEntity
  8
DRAFT
100
AcDbLine
 62
7
  6
CONTINUOUS
 10
153.1296329756
 20
111.4549378467
 11
153.377120349
 21
111.5733907481
  0
LINE
  5
283
100
AcDbEntity
  8
0
100
AcDbLine
 62
7
  6
CONTINUOUS
 10
148.304885236
 20
93.4200498386
 11
138.8523440266
 21
98.1463204433
  0
LINE
  5
284
100
AcDbEntity
  8
0
100
AcDbLine
 62
7
  6
CONTINUOUS
 10
141.9007810543
 20
91.8440728813
 11
141.9100724374
 21
91.7923950821
  0
LINE
  5
285
100
AcDbEntity
  8
0
100
AcDbLine
 62
7
  6
CONTINUOUS
 10
141.9078521221
 20
91.8476084152
 11
141.9171435052
 21
91.795930616
  0
LWPOLYLINE
  5
286
100
AcDbEntity
  8
0
100
AcDbPolyline
 62
7
  6
CONTINUOUS
 90
26
 70
0
 10
141.1593004236
 20
90.4092517526
 10
141.1671517663
 20
90.3413148679
 10
141.1782384967
 20
90.2742042048
 10
141.1926489662
 20
90.2085620642
 10
141.2102948234
 20
90.1437461452
 10
141.2331480749
 20
90.0807695981
 10
141.2624059442
 20
90.0190630217
 10
141.2968712079
 20
89.9591958171
 10
141.3349242013
 20
89.9038893384
 10
141.3762951463
 20
89.8543251363
 10
141.4212538211
 20
89.8093216601
 10
141.4689898967
 20
89.7680556113
 10
141.5195026297
 20
89.731088503
 10
141.5727927634
 20
89.6978588221
 10
141.6280521984
 20
89.6658587309
 10
141.6859492555
 20
89.6337238095
 10
141.7458156138
 20
89.6028184779
 10
141.8048382113
 20
89.5747281588
 10
141.8628381122
 20
89.549011729
 10
141.9199942521
 20
89.5261103116
 10
141.9740303765
 20
89.5089326988
 10
142.0243020184
 20
89.497558125
 10
142.0714536447
 20
89.4919073557
 10
142.1151424012
 20
89.4946514801
 10
142.1557461029
 20
89.5070123636
 10
142.167631208
 20
89.5125608343
  0
LWPOLYLINE
  5
287
100
AcDbEntity
  8
0
100
AcDbPolyline
 62
7
  6
CONTINUOUS
 90
40
 70
0
 10
142.7027724637
 20
111.0832510564
 10
142.7019711291
 20
111.0775196375
 10
142.7012322529
 20
111.0714697287
 10
142.7005415821
 20
111.0650485117
 10
142.6998875696
 20
111.0582350205
 10
142.6992817627
 20
111.0510502211
 10
142.6987445497
 20
111.0435041939
 10
142.6982773588
 20
111.0355703141
 10
142.6978787618
 20
111.0272752065
 10
142.6975648635
 20
111.0187088253
 10
142.6973442729
 20
111.0097691798
 10
142.6972083809
 20
111.0005582609
 10
142.6971474647
 20
110.9914719952
 10
142.6971609086
 20
110.9826251937
 10
142.6972493281
 20
110.9739030454
 10
142.6974048478
 20
110.9653570443
 10
142.697625166
 20
110.9569978629
 10
142.6979125844
 20
110.9488148287
 10
142.698266132
 20
110.9408274184
 10
142.6986870129
 20
110.9330396069
 10
142.699174023
 20
110.9254474193
 10
142.6997225789
 20
110.9180584077
 10
142.7003301738
 20
110.9108795428
 10
142.7009993146
 20
110.903903854
 10
142.7017329388
 20
110.8971179808
 10
142.702513283
 20
110.8905472464
 10
142.7033581106
 20
110.8841663278
 10
142.7043236492
 20
110.8778858951
 10
142.7054132298
 20
110.8717035347
 10
142.7066235214
 20
110.8656216602
 10
142.7080007587
 20
110.8595581834
 10
142.7095509027
 20
110.8534486739
 10
142.7112679924
 20
110.8473575619
 10
142.7131803801
 20
110.8413960503
 10
142.7152857786
 20
110.8354028685
 10
142.7175864751
 20
110.8295392871
 10
142.7201176837
 20
110.8244003204
 10
142.7228911426
 20
110.8201843066
 10
142.7258951136
 20
110.8166929076
 10
142.7291295967
 20
110.8139261234
  0
LWPOLYLINE
  5
288
100
AcDbEntity
  8
0
100
AcDbPolyline
 62
7
  6
CONTINUOUS
 90
10
 70
0
 10
143.0901991302
 20
108.7676005167
 10
143.1128196188
 20
108.9185435104
 10
143.1297943986
 20
109.0737232611
 10
143.1411234697
 20
109.2331397686
 10
143.1468110682
 20
109.397723788
 10
143.146852958
 20
109.5665445643
 10
143.1412364306
 20
109.7368098326
 10
143.1299572498
 20
109.9075888379
 10
143.1130196518
 20
110.0798123353
 10
143.0904236366
 20
110.2534803246
  0
LWPOLYLINE
  5
289
100
AcDbEntity
  8
0
100
AcDbPolyline
 62
7
  6
CONTINUOUS
 90
7
 70
0
 10
143.097270198
 20
108.7711360506
 10
143.0876484559
 20
108.7299236345
 10
143.0746866237
 20
108.6926073604
 10
143.0583847015
 20
108.6591872282
 10
143.0385101191
 20
108.6293285055
 10
143.0152954466
 20
108.6033659248
 10
142.9894383944
 20
108.5823036833
  0
LINE
  5
28A
100
AcDbEntity
  8
0
100
AcDbLine
 62
7
  6
CONTINUOUS
 10
148.8015283664
 20
93.9657976317
 11
139.0626999816
 21
98.8352118241
  0
LWPOLYLINE
  5
28B
100
AcDbEntity
  8
0
100
AcDbPolyline
 62
7
  6
CONTINUOUS
 90
13
 70
0
 10
142.5523311628
 20
91.1319673585
 10
142.5363361136
 20
91.2181658634
 10
142.5145525547
 20
91.3033998941
 10
142.4869804861
 20
91.3876694507
 10
142.4532110686
 20
91.471834427
 10
142.4136531413
 20
91.5550349292
 10
142.3695332216
 20
91.6346912758
 10
142.3207083849
 20
91.7106924306
 10
142.2673215558
 20
91.7831494297
 10
142.2110280248
 20
91.8498157006
 10
142.1523795555
 20
91.9099423856
 10
142.0908243845
 20
91.9642783423
 10
142.0263625115
 20
92.0128235707
  0
LWPOLYLINE
  5
28C
100
AcDbEntity
  8
0
100
AcDbPolyline
 62
7
  6
CONTINUOUS
 90
10
 70
0
 10
142.2969176326
 20
91.1992736237
 10
142.2900449963
 20
91.2406583461
 10
142.2806756475
 20
91.2818627095
 10
142.268809586
 20
91.3228867138
 10
142.2543157481
 20
91.3640464711
 10
142.2373251975
 20
91.4050258694
 10
142.2182311259
 20
91.4448765726
 10
142.197164597
 20
91.4832824687
 10
142.1739945471
 20
91.5205596696
 10
142.1487209761
 20
91.5567081754
  0
LWPOLYLINE
  5
28D
100
AcDbEntity
  8
0
100
AcDbPolyline
 62
7
  6
CONTINUOUS
 90
16
 70
0
 10
142.3039887004
 20
91.2028091576
 10
142.3197000756
 20
91.0831616572
 10
142.3328733877
 20
90.9683321745
 10
142.3435086368
 20
90.8583207096
 10
142.3514022653
 20
90.7533423858
 10
142.3567578307
 20
90.6531820798
 10
142.3601860054
 20
90.5571944214
 10
142.3616957382
 20
90.4653893464
 10
142.3612780804
 20
90.3777569191
 10
142.3595168581
 20
90.2936219624
 10
142.3564890698
 20
90.2128527943
 10
142.352117717
 20
90.1355810968
 10
142.346755631
 20
90.0615267395
 10
142.3404623522
 20
89.9907141582
 10
142.3331783402
 20
89.9231189171
 10
142.317221447
 20
89.7952725284
  0
LINE
  5
28E
100
AcDbEntity
  8
0
100
AcDbLine
 62
7
  6
CONTINUOUS
 10
143.0578948337
 20
90.6933711124
 11
143.0673241026
 21
88.7040648684
  0
LINE
  5
28F
100
AcDbEntity
  8
0
100
AcDbLine
 62
7
  6
CONTINUOUS
 10
143.0649659015
 20
90.6969066463
 11
143.0743951704
 21
88.7076004023
  0
LINE
  5
290
100
AcDbEntity
  8
0
100
AcDbLine
 62
7
  6
CONTINUOUS
 10
143.3194691884
 20
90.1096284002
 11
143.3179227459
 21
90.5633571563
  0
LINE
  5
291
100
AcDbEntity
  8
0
100
AcDbLine
 62
7
  6
CONTINUOUS
 10
143.3179227459
 20
88.5932472236
 11
143.3194691884
 21
89.7874019981
  0
LWPOLYLINE
  5
292
100
AcDbEntity
  8
0
100
AcDbPolyline
 62
7
  6
CONTINUOUS
 90
7
 70
0
 10
141.9045340267
 20
91.995705248
 10
141.9024377495
 20
91.9723949209
 10
141.9013947312
 20
91.9483869482
 10
141.9014137787
 20
91.9238840402
 10
141.9024978275
 20
91.8989537671
 10
141.904643942
 20
91.8735285588
 10
141.9078521221
 20
91.8476084152
  0
LWPOLYLINE
  5
293
100
AcDbEntity
  8
0
100
AcDbPolyline
 62
7
  6
CONTINUOUS
 90
30
 70
0
 10
141.1623393728
 20
91.6538804665
 10
141.1588895822
 20
91.6291267748
 10
141.1554923942
 20
91.6035438677
 10
141.1521416774
 20
91.5771336361
 10
141.1488435632
 20
91.5498941891
 10
141.1456558251
 20
91.5217468843
 10
141.1425813497
 20
91.4926885563
 10
141.1396172504
 20
91.4627223704
 10
141.1368126422
 20
91.4317791802
 10
141.1341662544
 20
91.3998835717
 10
141.1316793577
 20
91.3670109589
 10
141.1294048781
 20
91.3330184375
 10
141.1273366526
 20
91.2979203893
 10
141.1254808443
 20
91.2617024325
 10
141.123908868
 20
91.2241785172
 10
141.1226218495
 20
91.1853493671
 10
141.121618663
 20
91.1452142585
 10
141.1209673457
 20
91.1035849704
 10
141.1206572618
 20
91.060444225
 10
141.1206990472
 20
91.0158093
 10
141.1211926466
 20
90.9695438086
 10
141.1221047437
 20
90.921621372
 10
141.1234686549
 20
90.8720683688
 10
141.125484274
 20
90.8208275482
 10
141.1281892041
 20
90.7679816466
 10
141.1315458421
 20
90.7134479274
 10
141.1356412731
 20
90.6569209299
 10
141.1404180138
 20
90.598339018
 10
141.1459335474
 20
90.5377638276
 10
141.1593004236
 20
90.4092517526
  0
LINE
  5
294
100
AcDbEntity
  8
0
100
AcDbLine
 62
7
  6
CONTINUOUS
 10
141.9076806273
 20
92.0182503591
 11
141.9045340267
 21
91.995705248
  0
LINE
  5
295
100
AcDbEntity
  8
DRAFT
100
AcDbLine
 62
7
  6
CONTINUOUS
 10
153.1296329756
 20
107.5912969585
 11
153.377120349
 21
107.7203314306
  0
LINE
  5
296
100
AcDbEntity
  8
0
100
AcDbLine
 62
7
  6
CONTINUOUS
 10
138.7951880556
 20
105.7375224034
 11
138.8523440266
 21
105.6405618364
  0
LINE
  5
297
100
AcDbEntity
  8
0
100
AcDbLine
 62
7
  6
CONTINUOUS
 10
138.7387982401
 20
105.8347804485
 11
138.7951880556
 21
105.7375224034
  0
LINE
  5
298
100
AcDbEntity
  8
0
100
AcDbLine
 62
7
  6
CONTINUOUS
 10
138.68317458
 20
105.9323359718
 11
138.7387982401
 21
105.8347804485
  0
LWPOLYLINE
  5
299
100
AcDbEntity
  8
0
100
AcDbPolyline
 62
7
  6
CONTINUOUS
 90
10
 70
0
 10
141.7166197096
 20
109.3937150438
 10
141.6920974797
 20
109.5807762346
 10
141.6736958251
 20
109.7664732123
 10
141.6614147456
 20
109.9508059768
 10
141.6552409317
 20
110.1347984742
 10
141.6551876931
 20
110.3174267586
 10
141.6612949586
 20
110.4956189916
 10
141.6735760381
 20
110.6683512274
 10
141.6920176217
 20
110.8366474118
 10
141.7166197096
 20
111.000507545
  0
LINE
  5
29A
100
AcDbEntity
  8
0
100
AcDbLine
 62
7
  6
CONTINUOUS
 10
143.8799128553
 20
110.4623712986
 11
143.8917368589
 21
107.736891269
  0
LINE
  5
29B
100
AcDbEntity
  8
0
100
AcDbLine
 62
7
  6
CONTINUOUS
 10
143.8869839231
 20
110.4659068325
 11
143.8988079267
 21
107.7404268029
  0
LINE
  5
29C
100
AcDbEntity
  8
0
100
AcDbLine
 62
7
  6
CONTINUOUS
 10
144.1421113822
 20
107.6299737754
 11
144.1408142341
 21
109.8359483417
  0
LWPOLYLINE
  5
29D
100
AcDbEntity
  8
0
100
AcDbPolyline
 62
7
  6
CONTINUOUS
 90
16
 70
0
 10
142.3114221665
 20
89.7993677836
 10
142.3269904122
 20
89.9281869834
 10
142.3341983747
 20
89.9963803749
 10
142.340398279
 20
90.0674626669
 10
142.3456279518
 20
90.1412045991
 10
142.3498495664
 20
90.2178354318
 10
142.3527219792
 20
90.2980885653
 10
142.3543120253
 20
90.3821118597
 10
142.3545528695
 20
90.469757455
 10
142.3529028633
 20
90.5613151701
 10
142.3493775322
 20
90.6566639076
 10
142.3439613506
 20
90.7559247651
 10
142.3360660924
 20
90.8597508543
 10
142.3254956824
 20
90.9683598791
 10
142.3124461958
 20
91.0815341355
 10
142.2969176326
 20
91.1992736237
  0
LWPOLYLINE
  5
29E
100
AcDbEntity
  8
0
100
AcDbPolyline
 62
7
  6
CONTINUOUS
 90
8
 70
0
 10
142.317221447
 20
89.7952725284
 10
142.3085485658
 20
89.735021381
 10
142.2960512722
 20
89.6810235334
 10
142.2785153671
 20
89.634134127
 10
142.2571550496
 20
89.5934980205
 10
142.2326050274
 20
89.5599391875
 10
142.2052908452
 20
89.5339555159
 10
142.1751474395
 20
89.5152235658
  0
LWPOLYLINE
  5
29F
100
AcDbEntity
  8
0
100
AcDbPolyline
 62
7
  6
CONTINUOUS
 90
10
 70
0
 10
142.5521065709
 20
89.5250119104
 10
142.5769296426
 20
89.6901909721
 10
142.5955532188
 20
89.8589547244
 10
142.6079772995
 20
90.0313031675
 10
142.6142019299
 20
90.2075587077
 10
142.6142270647
 20
90.3873989386
 10
142.608052569
 20
90.5698566411
 10
142.5956783976
 20
90.7546094087
 10
142.5771045955
 20
90.9419796478
 10
142.5523311628
 20
91.1319673585
  0
LWPOLYLINE
  5
2A0
100
AcDbEntity
  8
0
100
AcDbPolyline
 62
7
  6
CONTINUOUS
 90
9
 70
0
 10
141.9048094192
 20
92.0365622907
 10
141.9006095595
 20
92.0147148252
 10
141.8974629589
 20
91.9921697141
 10
141.8953666816
 20
91.968859387
 10
141.8943236634
 20
91.9448514143
 10
141.8943427109
 20
91.9203485063
 10
141.8954267597
 20
91.8954182332
 10
141.8975728742
 20
91.8699930249
 10
141.9007810543
 20
91.8440728813
  0
LINE
  5
2A1
100
AcDbEntity
  8
0
100
AcDbLine
 62
7
  6
CONTINUOUS
 10
141.911880487
 20
92.0400978246
 11
141.9076806273
 21
92.0182503591
  0
LINE
  5
2A2
100
AcDbEntity
  8
0
100
AcDbLine
 62
7
  6
CONTINUOUS
 10
141.9100625379
 20
92.0577121105
 11
141.9048094192
 21
92.0365622907
  0
LINE
  5
2A3
100
AcDbEntity
  8
0
100
AcDbLine
 62
7
  6
CONTINUOUS
 10
141.9171336057
 20
92.0612476444
 11
141.911880487
 21
92.0400978246
  0
LWPOLYLINE
  5
2A4
100
AcDbEntity
  8
0
100
AcDbPolyline
 62
7
  6
CONTINUOUS
 90
7
 70
0
 10
138.8523440266
 20
98.1463204433
 10
138.8236702303
 20
98.1265510695
 10
138.7951879894
 20
98.1065157993
 10
138.7668973039
 20
98.0862146327
 10
138.7387981738
 20
98.0656475697
 10
138.7108905992
 20
98.0448146103
 10
138.68317458
 20
98.0237157545
  0
LWPOLYLINE
  5
2A5
100
AcDbEntity
  8
0
100
AcDbPolyline
 62
7
  6
CONTINUOUS
 90
7
 70
0
 10
139.0626999816
 20
98.8352118241
 10
138.996385179
 20
98.7921485146
 10
138.9308657118
 20
98.747662739
 10
138.8661521368
 20
98.7017616665
 10
138.8022548808
 20
98.6544526945
 10
138.7391842394
 20
98.6057434473
 10
138.6769503747
 20
98.5556417748
  0
LINE
  5
2A6
100
AcDbEntity
  8
0
100
AcDbLine
 62
7
  6
CONTINUOUS
 10
141.8016332475
 20
100.2824711025
 11
139.0626999816
 21
98.8352118241
  0
LINE
  5
2A7
100
AcDbEntity
  8
DRAFT
100
AcDbLine
 62
7
  6
CONTINUOUS
 10
142.9330040974
 20
100.8481565274
 11
141.8328709607
 21
100.2668522458
  0
LINE
  5
2A8
100
AcDbEntity
  8
0
100
AcDbLine
 62
7
  6
CONTINUOUS
 10
151.5781356896
 20
95.3942198814
 11
141.8016332475
 21
100.2824711025
  0
LINE
  5
2A9
100
AcDbEntity
  8
RACCORDO
100
AcDbLine
 62
7
  6
CONTINUOUS
 10
146.4396772915
 20
98.805930606
 11
148.6371479204
 21
97.7071952915
  0
LINE
  5
2AA
100
AcDbEntity
  8
RACCORDO
100
AcDbLine
 62
7
  6
CONTINUOUS
 10
152.7095065395
 20
95.9599053064
 11
149.2664007944
 21
97.6814581789
  0
LINE
  5
2AB
100
AcDbEntity
  8
RACCORDO
100
AcDbLine
 62
7
  6
CONTINUOUS
 10
146.3761098424
 20
99.1266036549
 11
142.9330040974
 21
100.8481565274
  0
LINE
  5
2AC
100
AcDbEntity
  8
0
100
AcDbLine
 62
7
  6
CONTINUOUS
 10
138.9210302578
 20
105.5775917907
 11
138.8523440266
 21
105.6405618364
  0
LINE
  5
2AD
100
AcDbEntity
  8
0
100
AcDbLine
 62
7
  6
CONTINUOUS
 10
148.3618325902
 20
93.3234490825
 11
148.304885236
 21
93.4200498386
  0
LINE
  5
2AE
100
AcDbEntity
  8
0
100
AcDbLine
 62
7
  6
CONTINUOUS
 10
148.4182224057
 20
93.2261910374
 11
148.3618325902
 21
93.3234490825
  0
LINE
  5
2AF
100
AcDbEntity
  8
0
100
AcDbLine
 62
7
  6
CONTINUOUS
 10
148.4740546826
 20
93.1282757032
 11
148.4182224057
 21
93.2261910374
  0
LWPOLYLINE
  5
2B0
100
AcDbEntity
  8
0
100
AcDbPolyline
 62
7
  6
CONTINUOUS
 90
10
 70
0
 10
141.7236907774
 20
109.3972505777
 10
141.7515942795
 20
109.2755388081
 10
141.7890665194
 20
109.1576738774
 10
141.8361074972
 20
109.0436557854
 10
141.8938920586
 20
108.9315969876
 10
141.9612453579
 20
108.8233850287
 10
142.034642858
 20
108.7246825423
 10
142.1129097133
 20
108.6373770729
 10
142.1972207694
 20
108.559581076
 10
142.2875760262
 20
108.4912945516
  0
LWPOLYLINE
  5
2B1
100
AcDbEntity
  8
0
100
AcDbPolyline
 62
7
  6
CONTINUOUS
 90
13
 70
0
 10
141.7166197096
 20
109.3937150438
 10
141.7359226484
 20
109.303662
 10
141.761013075
 20
109.2149083622
 10
141.7918909895
 20
109.1274541304
 10
141.8289828375
 20
109.0404469195
 10
141.8718621733
 20
108.9547391145
 10
141.9192496602
 20
108.8728878718
 10
141.9712811533
 20
108.7950094103
 10
142.0278207973
 20
108.7209875111
 10
142.0871816901
 20
108.6530306723
 10
142.1488015308
 20
108.5918750603
 10
142.2132426203
 20
108.5367845087
 10
142.2805049584
 20
108.4877590177
  0
LWPOLYLINE
  5
2B2
100
AcDbEntity
  8
0
100
AcDbPolyline
 62
7
  6
CONTINUOUS
 90
13
 70
0
 10
141.9720331607
 20
109.3266835015
 10
141.9814599138
 20
109.2759826314
 10
141.994286455
 20
109.2258492315
 10
142.0105127843
 20
109.1762833015
 10
142.0303787252
 20
109.1267804146
 10
142.0536444543
 20
109.0778449978
 10
142.079590501
 20
109.030990332
 10
142.108300615
 20
108.9862814328
 10
142.1396910466
 20
108.9436532848
 10
142.1727910767
 20
108.9044241226
 10
142.2072771322
 20
108.869033358
 10
142.2434727863
 20
108.8370415794
 10
142.2813780389
 20
108.8084487867
  0
LWPOLYLINE
  5
2B3
100
AcDbEntity
  8
0
100
AcDbPolyline
 62
7
  6
CONTINUOUS
 90
10
 70
0
 10
143.3456125748
 20
110.1860111124
 10
143.3699670574
 20
109.9997794527
 10
143.3882734732
 20
109.8149058904
 10
143.4005318223
 20
109.6313904254
 10
143.406755525
 20
109.4482284879
 10
143.4069311609
 20
109.2664246477
 10
143.4010184687
 20
109.0889926142
 10
143.3890040279
 20
108.9169369572
 10
143.3709012588
 20
108.7492531069
 10
143.3467101617
 20
108.5859410633
  0
LWPOLYLINE
  5
2B4
100
AcDbEntity
  8
0
100
AcDbPolyline
 62
7
  6
CONTINUOUS
 90
10
 70
0
 10
143.0974947044
 20
110.2570158585
 10
143.1200663568
 20
110.0837133973
 10
143.1369911945
 20
109.9117441666
 10
143.1482692175
 20
109.7411081662
 10
143.1539035388
 20
109.5708481351
 10
143.1538910454
 20
109.4019213344
 10
143.1482223985
 20
109.2371995473
 10
143.1368944852
 20
109.0776400348
 10
143.1199104183
 20
108.9222855359
 10
143.097270198
 20
108.7711360506
  0
LINE
  5
2B5
100
AcDbEntity
  8
0
100
AcDbLine
 62
7
  6
CONTINUOUS
 10
144.9010924025
 20
89.771772328
 11
144.9105216715
 21
87.782466084
  0
LINE
  5
2B6
100
AcDbEntity
  8
0
100
AcDbLine
 62
7
  6
CONTINUOUS
 10
144.9081634703
 20
89.7753078619
 11
144.9175927393
 21
87.7860016179
  0
LINE
  5
2B7
100
AcDbEntity
  8
0
100
AcDbLine
 62
7
  6
CONTINUOUS
 10
145.5093303965
 20
106.9538799254
 11
145.4974814478
 21
109.6793724276
  0
LINE
  5
2B8
100
AcDbEntity
  8
0
100
AcDbLine
 62
7
  6
CONTINUOUS
 10
145.1626420085
 20
89.1880419901
 11
145.1611203147
 21
89.6417583719
  0
LINE
  5
2B9
100
AcDbEntity
  8
0
100
AcDbLine
 62
7
  6
CONTINUOUS
 10
145.2471069245
 20
109.7868092958
 11
145.2482045114
 21
107.5806595471
  0
LINE
  5
2BA
100
AcDbEntity
  8
0
100
AcDbLine
 62
7
  6
CONTINUOUS
 10
145.2541779923
 20
109.7903448297
 11
145.2552755792
 21
107.584195081
  0
LINE
  5
2BB
100
AcDbEntity
  8
0
100
AcDbLine
 62
7
  6
CONTINUOUS
 10
145.1611203147
 20
87.6716484392
 11
145.1626420085
 21
88.865815588
  0
LWPOLYLINE
  5
2BC
100
AcDbEntity
  8
0
100
AcDbPolyline
 62
7
  6
CONTINUOUS
 90
7
 70
0
 10
142.5521065709
 20
89.5250119104
 10
142.5337139667
 20
89.4469568112
 10
142.5082573416
 20
89.3774817745
 10
142.4757366955
 20
89.3165868002
 10
142.4349939123
 20
89.2637160533
 10
142.387187108
 20
89.2194253688
 10
142.3312242763
 20
89.1829502353
  0
LINE
  5
2BD
100
AcDbEntity
  8
0
100
AcDbLine
 62
7
  6
CONTINUOUS
 10
139.0626999816
 20
105.4483135861
 11
138.9210302578
 21
105.5775917907
  0
LWPOLYLINE
  5
2BE
100
AcDbEntity
  8
0
100
AcDbPolyline
 62
7
  6
CONTINUOUS
 90
7
 70
0
 10
149.1872779734
 20
93.3004779755
 10
149.1250441494
 20
93.4128134398
 10
149.0619735333
 20
93.5245932852
 10
148.9980762866
 20
93.6357994992
 10
148.9333627041
 20
93.7464141618
 10
148.8678432119
 20
93.8564194482
 10
148.8015283664
 20
93.9657976317
  0
LWPOLYLINE
  5
2BF
100
AcDbEntity
  8
0
100
AcDbPolyline
 62
7
  6
CONTINUOUS
 90
13
 70
0
 10
143.3456125748
 20
110.1860111124
 10
143.329610183
 20
110.2722346151
 10
143.3078219652
 20
110.3574956858
 10
143.2802479214
 20
110.4417943245
 10
143.2464799646
 20
110.5259892638
 10
143.2069261817
 20
110.6092217711
 10
143.1628108345
 20
110.6889156489
 10
143.1139912624
 20
110.7649602283
 10
143.0606101258
 20
110.8374661781
 10
143.0043196682
 20
110.9041893073
 10
142.9456706374
 20
110.9643815521
 10
142.8841122855
 20
111.0187909762
 10
142.8196446126
 20
111.0674175796
  0
LWPOLYLINE
  5
2C0
100
AcDbEntity
  8
0
100
AcDbPolyline
 62
7
  6
CONTINUOUS
 90
13
 70
0
 10
143.0904236366
 20
110.2534803246
 10
143.0810252077
 20
110.3042038382
 10
143.0682151352
 20
110.3543588278
 10
143.0519934193
 20
110.4039452933
 10
143.0321186264
 20
110.4534708201
 10
143.0088321901
 20
110.5024278227
 10
142.9828584103
 20
110.5492935451
 10
142.9541128245
 20
110.5940022589
 10
142.9226798953
 20
110.6366196924
 10
142.8895373109
 20
110.6758202753
 10
142.8550109673
 20
110.7111621507
 10
142.8187749686
 20
110.7430871754
 10
142.7808293148
 20
110.7715953495
  0
LINE
  5
2C1
100
AcDbEntity
  8
RACCORDO
100
AcDbLine
 62
7
  6
CONTINUOUS
 10
146.3761098424
 20
118.61217524
 11
146.3761098424
 21
118.3312245982
  0
LINE
  5
2C2
100
AcDbEntity
  8
RACCORDO
100
AcDbLine
 62
7
  6
CONTINUOUS
 10
146.3761098424
 20
99.1266036549
 11
146.3761098424
 21
98.8456530131
  0
LWPOLYLINE
  5
2C3
100
AcDbEntity
  8
0
100
AcDbPolyline
 62
7
  6
CONTINUOUS
 90
10
 70
0
 10
144.4400304969
 20
89.2405334792
 10
144.4456495692
 20
89.2718324023
 10
144.4495316519
 20
89.3040966499
 10
144.4516767452
 20
89.3373262221
 10
144.4520797956
 20
89.3716548211
 10
144.4507458567
 20
89.4069487446
 10
144.4476900881
 20
89.4428068863
 10
144.4429175432
 20
89.4790955439
 10
144.4364231688
 20
89.5159484195
 10
144.4282069647
 20
89.5533655133
  0
LWPOLYLINE
  5
2C4
100
AcDbEntity
  8
0
100
AcDbPolyline
 62
7
  6
CONTINUOUS
 90
7
 70
0
 10
148.304885236
 20
100.9142912317
 10
148.3335590323
 20
100.9340606055
 10
148.3620412733
 20
100.9540958757
 10
148.3903319588
 20
100.9743970423
 10
148.4184310888
 20
100.9949641053
 10
148.4463386634
 20
101.0157970647
 10
148.4740546826
 20
101.0368959206
  0
LINE
  5
2C5
100
AcDbEntity
  8
DRAFT
100
AcDbLine
 62
7
  6
CONTINUOUS
 10
153.1245561773
 20
102.7559009312
 11
151.9931853274
 21
102.2189165651
  0
LINE
  5
2C6
100
AcDbEntity
  8
0
100
AcDbLine
 62
7
  6
CONTINUOUS
 10
151.9931853274
 20
102.1902155062
 11
149.1872779734
 21
100.8584694429
  0
LINE
  5
2C7
100
AcDbEntity
  8
DRAFT
100
AcDbLine
 62
7
  6
CONTINUOUS
 10
152.7095065395
 20
102.4550958347
 11
151.7417693361
 21
101.9983332162
  0
LINE
  5
2C8
100
AcDbEntity
  8
0
100
AcDbLine
 62
7
  6
CONTINUOUS
 10
151.5781356896
 20
101.8894104098
 11
148.8015283664
 21
100.5788993937
  0
LINE
  5
2C9
100
AcDbEntity
  8
0
100
AcDbLine
 62
7
  6
CONTINUOUS
 10
149.1872779734
 20
100.8584694429
 11
148.7086959408
 21
100.9776147482
  0
LINE
  5
2CA
100
AcDbEntity
  8
0
100
AcDbLine
 62
7
  6
CONTINUOUS
 10
148.7086959408
 20
100.9776147482
 11
148.4740546826
 21
101.0368959206
  0
LINE
  5
2CB
100
AcDbEntity
  8
0
100
AcDbLine
 62
7
  6
CONTINUOUS
 10
139.0626999816
 20
105.4483135861
 11
148.8015283664
 21
100.5788993937
  0
LINE
  5
2CC
100
AcDbEntity
  8
0
100
AcDbLine
 62
7
  6
CONTINUOUS
 10
138.8523440266
 20
105.6405618364
 11
148.304885236
 21
100.9142912317
  0
LINE
  5
2CD
100
AcDbEntity
  8
0
100
AcDbLine
 62
7
  6
CONTINUOUS
 10
148.8015283664
 20
100.5788993937
 11
148.304885236
 21
100.9142912317
  0
LINE
  5
2CE
100
AcDbEntity
  8
0
100
AcDbLine
 62
7
  6
CONTINUOUS
 10
144.1408142341
 20
109.8359483417
 11
145.2037023544
 21
107.0889741045
  0
LINE
  5
2CF
100
AcDbEntity
  8
0
100
AcDbLine
 62
7
  6
CONTINUOUS
 10
144.1478853019
 20
109.8394838756
 11
145.2107734222
 21
107.0925096384
  0
LINE
  5
2D0
100
AcDbEntity
  8
0
100
AcDbLine
 62
7
  6
CONTINUOUS
 10
148.4740546826
 20
81.5513243354
 11
148.4740546826
 21
93.1282757032
  0
LINE
  5
2D1
100
AcDbEntity
  8
0
100
AcDbLine
 62
7
  6
CONTINUOUS
 10
148.4740546826
 20
101.0368959206
 11
148.4740546826
 21
112.6138472883
  0
LWPOLYLINE
  5
2D2
100
AcDbEntity
  8
0
100
AcDbPolyline
 62
7
  6
CONTINUOUS
 90
10
 70
0
 10
146.2832280658
 20
88.3189346948
 10
146.2888990759
 20
88.350205459
 10
146.2928193368
 20
88.3824505267
 10
146.2949888487
 20
88.415669898
 10
146.2954024674
 20
88.449999389
 10
146.294065337
 20
88.4853031835
 10
146.2909928896
 20
88.5211738326
 10
146.2861902692
 20
88.5574755199
 10
146.2796523318
 20
88.5943440617
 10
146.2713790774
 20
88.6317794581
  0
LWPOLYLINE
  5
2D3
100
AcDbEntity
  8
0
100
AcDbPolyline
 62
7
  6
CONTINUOUS
 90
10
 70
0
 10
144.4282069644
 20
90.4630957564
 10
144.437984922
 20
90.4928363132
 10
144.4453183901
 20
90.5241770534
 10
144.4502073689
 20
90.5571179771
 10
144.4526518583
 20
90.5919110435
 10
144.4526518583
 20
90.6283042934
 10
144.4502073689
 20
90.6655418491
 10
144.4453183901
 20
90.7033717516
 10
144.437984922
 20
90.74204596
 10
144.4282069644
 20
90.7815644743
  0
LWPOLYLINE
  5
2D4
100
AcDbEntity
  8
0
100
AcDbPolyline
 62
7
  6
CONTINUOUS
 90
9
 70
0
 10
151.6259096952
 20
101.9199469134
 10
151.673272186
 20
101.9512070393
 10
151.7202231621
 20
101.9831907874
 10
151.7667663969
 20
102.0159008926
 10
151.8128981169
 20
102.0493346201
 10
151.858607002
 20
102.0834837656
 10
151.9038892787
 20
102.1183455944
 10
151.9487487205
 20
102.1539228413
 10
151.9931853274
 20
102.1902155062
  0
LWPOLYLINE
  5
2D5
100
AcDbEntity
  8
0
100
AcDbPolyline
 62
7
  6
CONTINUOUS
 90
7
 70
0
 10
148.8015283664
 20
100.5788993937
 10
148.867843169
 20
100.6219627031
 10
148.9333626362
 20
100.6664484788
 10
148.9980762113
 20
100.7123495513
 10
149.0619734672
 20
100.7596585232
 10
149.1250441086
 20
100.8083677704
 10
149.1872779734
 20
100.8584694429
  0
LINE
  5
2D6
100
AcDbEntity
  8
0
100
AcDbLine
 62
7
  6
CONTINUOUS
 10
151.5781356896
 20
101.8894104098
 11
151.6259096952
 21
101.9199469134
  0
LWPOLYLINE
  5
2D7
100
AcDbEntity
  8
DRAFT
100
AcDbPolyline
 62
7
  6
CONTINUOUS
 90
10
 70
0
 10
152.7095065395
 20
102.4550958347
 10
152.7572805451
 20
102.4856323383
 10
152.8046430359
 20
102.5168924642
 10
152.851594012
 20
102.5488762124
 10
152.8981372468
 20
102.5815863176
 10
152.9442689668
 20
102.6150200451
 10
152.9899778519
 20
102.6491691906
 10
153.0352601286
 20
102.6840310194
 10
153.0801195704
 20
102.7196082663
 10
153.1245561773
 20
102.7559009312
  0
LWPOLYLINE
  5
2D8
100
AcDbEntity
  8
0
100
AcDbPolyline
 62
7
  6
CONTINUOUS
 90
10
 70
0
 10
151.9931853274
 20
94.6783651471
 10
151.9487487205
 20
94.7590944189
 10
151.9038892787
 20
94.8395311076
 10
151.858607002
 20
94.9196752132
 10
151.8128981169
 20
94.9995332438
 10
151.7667663969
 20
95.0790986913
 10
151.7202231621
 20
95.1583520312
 10
151.673272186
 20
95.2372867555
 10
151.6259096952
 20
95.3159093722
 10
151.5781356896
 20
95.3942198814
  0
LINE
  5
2D9
100
AcDbEntity
  8
0
100
AcDbLine
 62
7
  6
CONTINUOUS
 10
145.2482045114
 20
107.5806595471
 11
144.1853163911
 21
110.3281837104
  0
LINE
  5
2DA
100
AcDbEntity
  8
0
100
AcDbLine
 62
7
  6
CONTINUOUS
 10
149.1872779734
 20
81.3728978578
 11
149.1872779734
 21
93.3004779755
  0
LINE
  5
2DB
100
AcDbEntity
  8
0
100
AcDbLine
 62
7
  6
CONTINUOUS
 10
149.1872779734
 20
100.8584694429
 11
149.1872779734
 21
112.7860495606
  0
LWPOLYLINE
  5
2DC
100
AcDbEntity
  8
0
100
AcDbPolyline
 62
7
  6
CONTINUOUS
 90
10
 70
0
 10
146.2713790774
 20
89.5415096999
 10
146.2811598133
 20
89.5712484402
 10
146.2884953651
 20
89.6025879249
 10
146.2933857331
 20
89.6355281541
 10
146.295830917
 20
89.6703212293
 10
146.295830917
 20
89.7067150489
 10
146.2933857331
 20
89.7439533081
 10
146.2884953651
 20
89.7817839051
 10
146.2811598133
 20
89.8204589417
 10
146.2713790774
 20
89.8599784178
  0
LWPOLYLINE
  5
2DD
100
AcDbEntity
  8
0
100
AcDbPolyline
 62
7
  6
CONTINUOUS
 90
65
 70
0
 10
141.104398244
 20
92.2640121589
 10
141.0911675913
 20
92.2540302691
 10
141.0779901908
 20
92.2429380452
 10
141.0648508633
 20
92.2307465215
 10
141.0517647881
 20
92.2174446639
 10
141.038881985
 20
92.2027963292
 10
141.0261825363
 20
92.1868121053
 10
141.0136863597
 20
92.1694814044
 10
141.0016032292
 20
92.1505363201
 10
140.9899081029
 20
92.1299858512
 10
140.9786260227
 20
92.1078209989
 10
140.9680418873
 20
92.0837468601
 10
140.9581736638
 20
92.05772714
 10
140.949003385
 20
92.0297981333
 10
140.940762049
 20
91.999773821
 10
140.9337597194
 20
91.9673986716
 10
140.9276863324
 20
91.9329282166
 10
140.9218426947
 20
91.8969430307
 10
140.9160040023
 20
91.8596804683
 10
140.9103950592
 20
91.8209031751
 10
140.9049910831
 20
91.7804796629
 10
140.8997383407
 20
91.738466456
 10
140.8946905655
 20
91.6948070301
 10
140.8899841754
 20
91.6492003244
 10
140.8856454119
 20
91.6016406825
 10
140.8816480336
 20
91.5521337607
 10
140.8780497342
 20
91.5003954672
 10
140.8747666248
 20
91.4464734994
 10
140.8718825943
 20
91.3903201598
 10
140.8697070033
 20
91.331508264
 10
140.8682828362
 20
91.2700534817
 10
140.8675671086
 20
91.2059401432
 10
140.8677402286
 20
91.1386940551
 10
140.868700569
 20
91.0684055671
 10
140.870549757
 20
90.9949843296
 10
140.8737730822
 20
90.9176850999
 10
140.8784037366
 20
90.8363139254
 10
140.8844085283
 20
90.7510647588
 10
140.892173171
 20
90.661774215
 10
140.9010637752
 20
90.5668231336
 10
140.9117142305
 20
90.4678306752
 10
140.9264119191
 20
90.3694909364
 10
140.9448890498
 20
90.2731140495
 10
140.9674134138
 20
90.1773898823
 10
140.9970757678
 20
90.0830821355
 10
141.0354884117
 20
89.989307264
 10
141.0810390455
 20
89.8969488129
 10
141.1319815258
 20
89.8094211186
 10
141.1885207365
 20
89.7269912547
 10
141.2504517937
 20
89.6493921474
 10
141.3154139017
 20
89.5792369126
 10
141.3827729249
 20
89.5187256901
 10
141.4531629989
 20
89.4656583401
 10
141.5261257347
 20
89.4160475577
 10
141.6030162067
 20
89.3682012265
 10
141.6824793405
 20
89.323811463
 10
141.7599915237
 20
89.2839673125
 10
141.8343812414
 20
89.2487537739
 10
141.9068200084
 20
89.2180858482
 10
141.976298757
 20
89.192797584
 10
142.0419788035
 20
89.171942923
 10
142.1046988316
 20
89.1564679234
 10
142.1659658242
 20
89.1500448082
 10
142.2271440576
 20
89.1534842159
 10
142.2868692557
 20
89.165975508
  0
LWPOLYLINE
  5
2DE
100
AcDbEntity
  8
DRAFT
100
AcDbPolyline
 62
7
  6
CONTINUOUS
 90
10
 70
0
 10
153.1245561773
 20
95.2440505721
 10
153.0801195704
 20
95.3247798439
 10
153.0352601286
 20
95.4052165326
 10
152.9899778519
 20
95.4853606381
 10
152.9442689668
 20
95.5652186687
 10
152.8981372468
 20
95.6447841162
 10
152.851594012
 20
95.7240374562
 10
152.8046430359
 20
95.8029721804
 10
152.7572805451
 20
95.8815947972
 10
152.7095065395
 20
95.9599053064
  0
LINE
  5
2DF
100
AcDbEntity
  8
RACCORDO
100
AcDbLine
 62
7
  6
CONTINUOUS
 10
153.1245561773
 20
114.6895452304
 11
153.1299275656
 21
114.7222113591
  0
LWPOLYLINE
  5
2E0
100
AcDbEntity
  8
0
100
AcDbPolyline
 62
7
  6
CONTINUOUS
 90
23
 70
0
 10
141.308584484
 20
91.9595735753
 10
141.3050961462
 20
91.957771256
 10
141.2966338672
 20
91.9530651522
 10
141.2881245815
 20
91.9478176212
 10
141.2796332989
 20
91.9419018057
 10
141.2711513261
 20
91.9353251328
 10
141.2626873564
 20
91.9280801754
 10
141.2543324802
 20
91.920017796
 10
141.2460748462
 20
91.9111403241
 10
141.2379263056
 20
91.9014454301
 10
141.2300135025
 20
91.8907769879
 10
141.2223212991
 20
91.879133882
 10
141.2148648331
 20
91.8665172279
 10
141.2078161613
 20
91.8527742453
 10
141.2011659894
 20
91.8378892719
 10
141.1949236116
 20
91.8218779701
 10
141.1892889681
 20
91.8046345465
 10
141.1844339283
 20
91.7860204017
 10
141.1801866227
 20
91.7661741351
 10
141.1762313825
 20
91.7454057524
 10
141.1725559325
 20
91.7237632985
 10
141.1691725479
 20
91.7011987284
 10
141.1623393728
 20
91.6538804665
  0
LINE
  5
2E1
100
AcDbEntity
  8
0
100
AcDbLine
 62
7
  6
CONTINUOUS
 10
141.3156649361
 20
91.9631001405
 11
141.3085899541
 21
91.9595626496
  0
LWPOLYLINE
  5
2E2
100
AcDbEntity
  8
0
100
AcDbPolyline
 62
7
  6
CONTINUOUS
 90
35
 70
0
 10
141.1440020018
 20
92.2888129079
 10
141.1564289497
 20
92.2946672139
 10
141.1700412788
 20
92.3004474161
 10
141.1834992879
 20
92.3054972198
 10
141.1968112653
 20
92.3098068525
 10
141.2099313803
 20
92.313524941
 10
141.2228534156
 20
92.3166598497
 10
141.2355835885
 20
92.3192032143
 10
141.2480947195
 20
92.3212785692
 10
141.2603824448
 20
92.3228932907
 10
141.2724511283
 20
92.3240400025
 10
141.2842866826
 20
92.3248201101
 10
141.2958860881
 20
92.3252391772
 10
141.3072523644
 20
92.32529164
 10
141.3183804829
 20
92.3250622122
 10
141.3292686404
 20
92.3245573509
 10
141.3399186401
 20
92.3237705989
 10
141.3503308631
 20
92.3227672989
 10
141.3605031691
 20
92.3215497213
 10
141.3704376983
 20
92.3201155956
 10
141.3801412522
 20
92.3185234526
 10
141.3896124606
 20
92.3167742677
 10
141.3988526938
 20
92.3148670654
 10
141.4078728633
 20
92.3128574506
 10
141.4166756882
 20
92.3107685187
 10
141.4252584495
 20
92.3085771741
 10
141.4336239007
 20
92.3062697352
 10
141.441767999
 20
92.3037968867
 10
141.4496947873
 20
92.3012079439
 10
141.4574191481
 20
92.2986371706
 10
141.464940559
 20
92.2960476495
 10
141.4722595424
 20
92.293476298
 10
141.4793925485
 20
92.2911681308
 10
141.4863500853
 20
92.2892680798
 10
141.4996921537
 20
92.2860677509
  0
LWPOLYLINE
  5
2E3
100
AcDbEntity
  8
0
100
AcDbPolyline
 62
7
  6
CONTINUOUS
 90
10
 70
0
 10
142.2875760262
 20
108.4912945516
 10
142.3427716722
 20
108.4557810324
 10
142.3982118106
 20
108.4221235531
 10
142.4538964416
 20
108.3903221136
 10
142.5099789208
 20
108.3602991857
 10
142.5663058925
 20
108.3321322976
 10
142.6224172899
 20
108.3060540345
 10
142.6781597574
 20
108.2821419247
 10
142.7336866505
 20
108.2603184399
 10
142.7889979693
 20
108.2405835801
  0
LWPOLYLINE
  5
2E4
100
AcDbEntity
  8
0
100
AcDbPolyline
 62
7
  6
CONTINUOUS
 90
10
 70
0
 10
142.2813780389
 20
108.8084487867
 10
142.3361816415
 20
108.772120614
 10
142.3913016398
 20
108.7378637854
 10
142.4467380337
 20
108.7056783011
 10
142.5026823564
 20
108.67546566
 10
142.5589430747
 20
108.647324363
 10
142.6149455896
 20
108.6215499131
 10
142.6704983681
 20
108.5982408113
 10
142.7257929431
 20
108.5772985565
 10
142.7808293148
 20
108.5587231487
  0
LWPOLYLINE
  5
2E5
100
AcDbEntity
  8
0
100
AcDbPolyline
 62
7
  6
CONTINUOUS
 90
10
 70
0
 10
143.8988079267
 20
107.7404268029
 10
143.9285744042
 20
107.7187504537
 10
143.9578090001
 20
107.699561013
 10
143.9865117144
 20
107.6828584808
 10
144.0146224004
 20
107.6686931925
 10
144.0422012048
 20
107.6570148127
 10
144.0694285679
 20
107.647672335
 10
144.0963646366
 20
107.6406154242
 10
144.1229492639
 20
107.6358944157
 10
144.1424881682
 20
107.6341179496
  0
LWPOLYLINE
  5
2E6
100
AcDbEntity
  8
0
100
AcDbPolyline
 62
7
  6
CONTINUOUS
 90
10
 70
0
 10
145.2107734222
 20
107.0925096384
 10
145.244102236
 20
107.0653644264
 10
145.2777294788
 20
107.0411669068
 10
145.3116551508
 20
107.0199170795
 10
145.3460672048
 20
107.0015002853
 10
145.3807776879
 20
106.9860311834
 10
145.4152227413
 20
106.973853752
 10
145.449214412
 20
106.9650826506
 10
145.4829406531
 20
106.9596032197
 10
145.509590675
 20
106.9578607676
  0
LWPOLYLINE
  5
2E7
100
AcDbEntity
  8
0
100
AcDbPolyline
 62
7
  6
CONTINUOUS
 90
56
 70
0
 10
142.7220585289
 20
110.8103905895
 10
142.7188561888
 20
110.8131685276
 10
142.7159065842
 20
110.8165611583
 10
142.7132097151
 20
110.8205684815
 10
142.7107951136
 20
110.8253371099
 10
142.7086332475
 20
110.8307204308
 10
142.7066355208
 20
110.8362786065
 10
142.7047750679
 20
110.8419233744
 10
142.7030787542
 20
110.8477429971
 10
142.7015385807
 20
110.8535624247
 10
142.7001648332
 20
110.859294309
 10
142.6989472257
 20
110.8650259983
 10
142.6978469009
 20
110.8708444871
 10
142.6968691642
 20
110.8767421166
 10
142.6960087102
 20
110.8827265457
 10
142.695210766
 20
110.8889077455
 10
142.6944593486
 20
110.8953213091
 10
142.6937704409
 20
110.9019316435
 10
142.6931372186
 20
110.9087419408
 10
142.6925556113
 20
110.9157525731
 10
142.6920296892
 20
110.9229631684
 10
142.6915648387
 20
110.9303758021
 10
142.6911617136
 20
110.9380136562
 10
142.69081966
 20
110.9458535487
 10
142.6905421026
 20
110.9538280091
 10
142.6903311444
 20
110.9619567899
 10
142.6901846823
 20
110.9702201386
 10
142.6900998319
 20
110.9784913283
 10
142.6900731925
 20
110.9867694636
 10
142.6901081647
 20
110.9950554398
 10
142.6902120653
 20
111.0032252153
 10
142.6903861647
 20
111.0112587706
 10
142.6906291926
 20
111.0191761252
 10
142.6909446554
 20
111.0269132964
 10
142.6913376561
 20
111.0344761891
 10
142.6918030918
 20
111.0418588984
 10
142.6923291597
 20
111.0489797257
 10
142.6929171056
 20
111.055835392
 10
142.6935656837
 20
111.0624291764
 10
142.6942593546
 20
111.0686892173
 10
142.6949878342
 20
111.0745913374
 10
142.6957614065
 20
111.080159714
 10
142.6965953839
 20
111.0853950182
 10
142.6974817976
 20
111.0902434015
 10
142.6984286163
 20
111.0947587123
 10
142.6994750588
 20
111.0991031676
 10
142.7006293744
 20
111.1033089688
 10
142.7018833138
 20
111.1073439143
 10
142.7032513469
 20
111.1112736169
 10
142.7047345718
 20
111.1152096839
 10
142.7063318905
 20
111.1190405079
 10
142.7080544782
 20
111.1224968797
 10
142.7098684482
 20
111.1256413089
 10
142.7118076873
 20
111.1284112859
 10
142.7139850313
 20
111.1303500733
 10
142.7152075976
 20
111.1309416445
  0
LWPOLYLINE
  5
2E8
100
AcDbEntity
  8
RACCORDO
100
AcDbPolyline
 62
7
  6
CONTINUOUS
 90
3
 70
0
 10
153.1328040772
 20
84.4646712926
 10
153.1295126908
 20
84.5223893421
 10
153.1245561773
 20
84.5518052647
  0
LWPOLYLINE
  5
2E9
100
AcDbEntity
  8
RACCORDO
100
AcDbPolyline
 62
7
  6
CONTINUOUS
 90
12
 70
0
 10
153.1328040772
 20
95.2899888399
 10
153.1295126908
 20
95.3477068894
 10
153.1201456326
 20
95.4032985187
 10
153.105173852
 20
95.4570559506
 10
153.0839891121
 20
95.5108480655
 10
153.0565188957
 20
95.5635206458
 10
153.0248060363
 20
95.6112875627
 10
152.9896261769
 20
95.6539615033
 10
152.9502493902
 20
95.6927004778
 10
152.9081714195
 20
95.7261260031
 10
152.864504228
 20
95.7538330461
 10
152.8211006324
 20
95.7753034087
  0
LINE
  5
2EA
100
AcDbEntity
  8
0
100
AcDbLine
 62
7
  6
CONTINUOUS
 10
151.9931853274
 20
82.7046439211
 11
151.9931853274
 21
94.6783651471
  0
LINE
  5
2EB
100
AcDbEntity
  8
0
100
AcDbLine
 62
7
  6
CONTINUOUS
 10
151.9931853274
 20
102.1902155062
 11
151.9931853274
 21
114.1639367323
  0
LINE
  5
2EC
100
AcDbEntity
  8
DRAFT
100
AcDbLine
 62
7
  6
CONTINUOUS
 10
153.1245561773
 20
83.270329346
 11
153.1245561773
 21
95.2440505721
  0
LINE
  5
2ED
100
AcDbEntity
  8
DRAFT
100
AcDbLine
 62
7
  6
CONTINUOUS
 10
153.1245561773
 20
102.7559009312
 11
153.1245561773
 21
114.7296221572
  0
LINE
  5
2EE
100
AcDbEntity
  8
DRAFT
100
AcDbLine
 62
7
  6
CONTINUOUS
 10
153.1296329756
 20
88.1057253734
 11
153.1296329756
 21
91.9693662616
  0
LINE
  5
2EF
100
AcDbEntity
  8
DRAFT
100
AcDbLine
 62
7
  6
CONTINUOUS
 10
153.1296329756
 20
107.5912969585
 11
153.1296329756
 21
111.4549378467
  0
LINE
  5
2F0
100
AcDbEntity
  8
RACCORDO
100
AcDbLine
 62
7
  6
CONTINUOUS
 10
153.1299275656
 20
114.7222113591
 11
153.1328040772
 21
114.775560436
  0
LWPOLYLINE
  5
2F1
100
AcDbEntity
  8
RACCORDO
100
AcDbPolyline
 62
7
  6
CONTINUOUS
 90
3
 70
0
 10
153.1245561773
 20
103.8642276831
 10
153.1299275656
 20
103.8968938118
 10
153.1328040772
 20
103.9502428887
  0
LWPOLYLINE
  5
2F2
100
AcDbEntity
  8
0
100
AcDbPolyline
 62
7
  6
CONTINUOUS
 90
3
 70
0
 10
148.8015283664
 20
93.9657976317
 10
148.3865447335
 20
93.5093090835
 10
148.304885236
 20
93.4200498386
  0
LWPOLYLINE
  5
2F3
100
AcDbEntity
  8
0
100
AcDbPolyline
 62
7
  6
CONTINUOUS
 90
10
 70
0
 10
143.2900076059
 20
91.1763013301
 10
143.2670742215
 20
91.1635889177
 10
143.2200031663
 20
91.1294743472
 10
143.1784882166
 20
91.0876377458
 10
143.1427106628
 20
91.0378271511
 10
143.1124892145
 20
90.9802945253
 10
143.0887993588
 20
90.916896905
 10
143.0719662579
 20
90.8482533021
 10
143.0616647495
 20
90.7737447046
 10
143.0578948337
 20
90.6933711124
  0
LINE
  5
2F4
100
AcDbEntity
  8
0
100
AcDbLine
 62
7
  6
CONTINUOUS
 10
141.9255842389
 20
92.076883784
 11
141.9326553067
 21
92.0804193179
  0
LINE
  5
2F5
100
AcDbEntity
  8
0
100
AcDbLine
 62
250
  6
CONTINUOUS
 10
141.9100625379
 20
92.0577121105
 11
141.9171336057
 21
92.0612476444
  0
LINE
  5
2F6
100
AcDbEntity
  8
0
100
AcDbLine
 62
7
  6
CONTINUOUS
 10
141.9007810543
 20
91.8440728813
 11
141.9078521221
 21
91.8476084152
  0
LINE
  5
2F7
100
AcDbEntity
  8
0
100
AcDbLine
 62
7
  6
CONTINUOUS
 10
141.9100724374
 20
91.7923950821
 11
141.9171435052
 21
91.795930616
  0
LINE
  5
2F8
100
AcDbEntity
  8
0
100
AcDbLine
 62
7
  6
CONTINUOUS
 10
141.9209024849
 20
91.7653683944
 11
141.9279735527
 21
91.7689039283
  0
LINE
  5
2F9
100
AcDbEntity
  8
0
100
AcDbLine
 62
7
  6
CONTINUOUS
 10
141.9285774219
 20
91.7564161799
 11
141.9356484897
 21
91.7599517138
  0
LINE
  5
2FA
100
AcDbEntity
  8
0
100
AcDbLine
 62
7
  6
CONTINUOUS
 10
141.9875727548
 20
91.7172640622
 11
141.9946438227
 21
91.7207995961
  0
LINE
  5
2FB
100
AcDbEntity
  8
0
100
AcDbLine
 62
7
  6
CONTINUOUS
 10
142.1487209761
 20
91.5567081754
 11
142.1557920439
 21
91.5602437093
  0
LINE
  5
2FC
100
AcDbEntity
  8
0
100
AcDbLine
 62
250
  6
CONTINUOUS
 10
142.2969176326
 20
91.1992736237
 11
142.3039887004
 21
91.2028091576
  0
LWPOLYLINE
  5
2FD
100
AcDbEntity
  8
0
100
AcDbPolyline
 62
7
  6
CONTINUOUS
 90
10
 70
0
 10
141.9255842389
 20
92.076883784
 10
141.9231789971
 20
92.0757525054
 10
141.9209371534
 20
92.0743631575
 10
141.9188587075
 20
92.0727157405
 10
141.9169346542
 20
92.0707991311
 10
141.9151739988
 20
92.0686244525
 10
141.9136037578
 20
92.0662250742
 10
141.9122329367
 20
92.0636121193
 10
141.9110525301
 20
92.0607744648
 10
141.9100625379
 20
92.0577121105
  0
LWPOLYLINE
  5
2FE
100
AcDbEntity
  8
0
100
AcDbPolyline
 62
7
  6
CONTINUOUS
 90
10
 70
0
 10
145.5093303965
 20
106.9538799254
 10
145.4751810574
 20
106.956258419
 10
145.44099723
 20
106.9618781734
 10
145.4067789144
 20
106.9707391887
 10
145.3724165702
 20
106.9829524892
 10
145.3380197379
 20
106.9984070507
 10
145.303917038
 20
107.0167698002
 10
145.2702180109
 20
107.0379297135
 10
145.2368131164
 20
107.061997815
 10
145.2037023544
 20
107.0889741045
  0
LWPOLYLINE
  5
2FF
100
AcDbEntity
  8
0
100
AcDbPolyline
 62
7
  6
CONTINUOUS
 90
10
 70
0
 10
144.1421113822
 20
107.6299737754
 10
144.1156294534
 20
107.6324292303
 10
144.088882782
 20
107.637199361
 10
144.0618713679
 20
107.6442841676
 10
144.0346880419
 20
107.6536284623
 10
144.0072399732
 20
107.6652874329
 10
143.9792486698
 20
107.6794266425
 10
143.9506213009
 20
107.6961012789
 10
143.9214506973
 20
107.7152561544
 10
143.8917368589
 20
107.736891269
  0
LWPOLYLINE
  5
300
100
AcDbEntity
  8
0
100
AcDbPolyline
 62
7
  6
CONTINUOUS
 90
7
 70
0
 10
142.7808293148
 20
108.5587231487
 10
142.8187522322
 20
108.5494482479
 10
142.8548996656
 20
108.5451910633
 10
142.889271615
 20
108.5459515949
 10
142.9221304584
 20
108.5517501944
 10
142.9532138179
 20
108.5625665101
 10
142.9607184832
 20
108.5660989104
  0
LWPOLYLINE
  5
301
100
AcDbEntity
  8
0
100
AcDbPolyline
 62
7
  6
CONTINUOUS
 90
7
 70
0
 10
142.7819269015
 20
108.2370480462
 10
142.850650875
 20
108.2158301009
 10
142.9164273296
 20
108.2042003817
 10
142.9792562653
 20
108.2021588885
 10
143.0397846009
 20
108.2099003195
 10
143.0973654177
 20
108.2272299765
 10
143.1234450508
 20
108.2388109967
  0
LWPOLYLINE
  5
302
100
AcDbEntity
  8
0
100
AcDbPolyline
 62
7
  6
CONTINUOUS
 90
10
 70
0
 10
142.7819269015
 20
108.2370480462
 10
142.7266500271
 20
108.2567689344
 10
142.671151721
 20
108.2785796526
 10
142.6154319832
 20
108.3024802008
 10
142.5593411299
 20
108.3285450568
 10
142.503028845
 20
108.3566997429
 10
142.4469441802
 20
108.3867208254
 10
142.3912368195
 20
108.4185338265
 10
142.3357570789
 20
108.4522132239
 10
142.2805049584
 20
108.4877590177
  0
LINE
  5
303
100
AcDbEntity
  8
0
100
AcDbLine
 62
7
  6
CONTINUOUS
 10
142.8196446126
 20
111.0674175796
 11
142.7220585289
 21
111.130722561
  0
LINE
  5
304
100
AcDbEntity
  8
0
100
AcDbLine
 62
7
  6
CONTINUOUS
 10
142.7220585289
 20
110.8103905895
 11
142.7808293148
 21
110.7715953495
  0
LINE
  5
305
100
AcDbEntity
  8
0
100
AcDbLine
 62
7
  6
CONTINUOUS
 10
142.7291295967
 20
110.8139261234
 11
142.7879003826
 21
110.7751308834
  0
LWPOLYLINE
  5
306
100
AcDbEntity
  8
0
100
AcDbPolyline
 62
7
  6
CONTINUOUS
 90
56
 70
0
 10
142.3401737713
 20
111.3216649398
 10
142.3430973699
 20
111.3194431884
 10
142.345782164
 20
111.3166232971
 10
142.3482281537
 20
111.3132052661
 10
142.3503971886
 20
111.3090739359
 10
142.352327419
 20
111.304344466
 10
142.3541332962
 20
111.299362334
 10
142.3558518869
 20
111.2941440254
 10
142.3574461243
 20
111.2886730549
 10
142.3589192598
 20
111.2832454443
 10
142.3602673761
 20
111.2779748058
 10
142.3614943905
 20
111.2727475273
 10
142.3626153059
 20
111.2675187948
 10
142.3636215314
 20
111.2623250926
 10
142.3645216578
 20
111.2571299364
 10
142.3653564607
 20
111.2517790597
 10
142.3661307023
 20
111.2462420923
 10
142.3668396204
 20
111.2405494043
 10
142.3675097037
 20
111.2346378393
 10
142.368151479
 20
111.2284854986
 10
142.3687544195
 20
111.2221142809
 10
142.3693134331
 20
111.2155267264
 10
142.3698309175
 20
111.2087154109
 10
142.3703044751
 20
111.2016877587
 10
142.3707218204
 20
111.1944685821
 10
142.3710812768
 20
111.1870574238
 10
142.3713845209
 20
111.1794547411
 10
142.3716242976
 20
111.171686719
 10
142.3717977522
 20
111.1637358449
 10
142.3719077394
 20
111.1556196314
 10
142.371955567
 20
111.1474168013
 10
142.3719446221
 20
111.1391084008
 10
142.3718715176
 20
111.1307133837
 10
142.3717274005
 20
111.1223673337
 10
142.3715117502
 20
111.1140673168
 10
142.3712250874
 20
111.1058162669
 10
142.3708601212
 20
111.0977585691
 10
142.3704121285
 20
111.0899074024
 10
142.3698858323
 20
111.0822495878
 10
142.3692881105
 20
111.0748899733
 10
142.36861853
 20
111.0678369714
 10
142.367877524
 20
111.0610821698
 10
142.3670732698
 20
111.0547051794
 10
142.3662235831
 20
111.0487542063
 10
142.3653106484
 20
111.0431810444
 10
142.3642891961
 20
111.0379206872
 10
142.3631558834
 20
111.0329887471
 10
142.3619140533
 20
111.0283696116
 10
142.3605284654
 20
111.0239514369
 10
142.3589929081
 20
111.0196508296
 10
142.357313593
 20
111.015551183
 10
142.3554739151
 20
111.0117908336
 10
142.3535002372
 20
111.0082417336
 10
142.3513661964
 20
111.0050319309
 10
142.3489760987
 20
111.002683905
 10
142.3470009866
 20
111.0016228204
  0
LWPOLYLINE
  5
307
100
AcDbEntity
  8
0
100
AcDbPolyline
 62
7
  6
CONTINUOUS
 90
10
 70
0
 10
142.7879003826
 20
110.7751308834
 10
142.838869869
 20
110.7354161047
 10
142.8862024656
 20
110.6903917343
 10
142.9298981725
 20
110.6400577721
 10
142.9706311757
 20
110.5832859484
 10
143.0077272891
 20
110.521204533
 10
143.0391639545
 20
110.4571983353
 10
143.0642669858
 20
110.3923956252
 10
143.0837105691
 20
110.325668133
 10
143.0974947044
 20
110.2570158585
  0
LWPOLYLINE
  5
308
100
AcDbEntity
  8
RACCORDO
100
AcDbPolyline
 62
7
  6
CONTINUOUS
 90
3
 70
0
 10
153.1328040772
 20
103.9502428778
 10
153.1295126908
 20
104.0079609273
 10
153.1245561773
 20
104.0373768499
  0
LWPOLYLINE
  5
309
100
AcDbEntity
  8
RACCORDO
100
AcDbPolyline
 62
7
  6
CONTINUOUS
 90
12
 70
0
 10
153.1328040772
 20
114.7755604251
 10
153.1295126908
 20
114.8332784746
 10
153.1201456326
 20
114.8888701038
 10
153.105173852
 20
114.9426275358
 10
153.0839891121
 20
114.9964196506
 10
153.0565188957
 20
115.049092231
 10
153.0248060363
 20
115.0968591478
 10
152.9896261769
 20
115.1395330884
 10
152.9502493902
 20
115.1782720629
 10
152.9081714195
 20
115.2116975882
 10
152.864504228
 20
115.2394046313
 10
152.8211006324
 20
115.2608749939
  0
LINE
  5
30A
100
AcDbEntity
  8
DRAFT
100
AcDbLine
 62
7
  6
CONTINUOUS
 10
153.377120349
 20
88.2347598455
 11
153.377120349
 21
92.0878191629
  0
LINE
  5
30B
100
AcDbEntity
  8
RACCORDO
100
AcDbLine
 62
7
  6
CONTINUOUS
 10
153.377120349
 20
92.0878191629
 11
153.377120349
 21
92.5737516552
  0
LINE
  5
30C
100
AcDbEntity
  8
DRAFT
100
AcDbLine
 62
7
  6
CONTINUOUS
 10
153.377120349
 20
107.7203314306
 11
153.377120349
 21
111.5733907481
  0
LINE
  5
30D
100
AcDbEntity
  8
RACCORDO
100
AcDbLine
 62
7
  6
CONTINUOUS
 10
153.377120349
 20
111.5733907481
 11
153.377120349
 21
112.0593232404
  0
LINE
  5
30E
100
AcDbEntity
  8
RACCORDO
100
AcDbLine
 62
7
  6
CONTINUOUS
 10
153.1299275656
 20
95.2366397739
 11
153.1328040772
 21
95.2899888509
  0
LINE
  5
30F
100
AcDbEntity
  8
RACCORDO
100
AcDbLine
 62
7
  6
CONTINUOUS
 10
153.1245561773
 20
95.2039736452
 11
153.1299275656
 21
95.2366397739
  0
LWPOLYLINE
  5
310
100
AcDbEntity
  8
0
100
AcDbPolyline
 62
7
  6
CONTINUOUS
 90
8
 70
0
 10
142.167631208
 20
89.5125608343
 10
142.1928869349
 20
89.5277681408
 10
142.2250885982
 20
89.5559243044
 10
142.2515857113
 20
89.5917213343
 10
142.2731436556
 20
89.6349187506
 10
142.2905822776
 20
89.6838006073
 10
142.3030618832
 20
89.7387419753
 10
142.3114221665
 20
89.7993677836
  0
LWPOLYLINE
  5
311
100
AcDbEntity
  8
0
100
AcDbPolyline
 62
7
  6
CONTINUOUS
 90
10
 70
0
 10
143.454450604
 20
90.8474143807
 10
143.4409614174
 20
90.8399370749
 10
143.4132744046
 20
90.8198710544
 10
143.3888554659
 20
90.7952629688
 10
143.3678112353
 20
90.7659646154
 10
143.3500350788
 20
90.7321241969
 10
143.3361007739
 20
90.6948340119
 10
143.3261995797
 20
90.6544581599
 10
143.320140237
 20
90.6106325414
 10
143.3179227459
 20
90.5633571563
  0
LINE
  5
312
100
AcDbEntity
  8
0
100
AcDbLine
 62
7
  6
CONTINUOUS
 10
151.5781356896
 20
95.3942198814
 11
148.8015283664
 21
93.9657976317
  0
LINE
  5
313
100
AcDbEntity
  8
DRAFT
100
AcDbLine
 62
7
  6
CONTINUOUS
 10
152.7095065395
 20
95.9599053064
 11
151.584789104
 21
95.3812869843
  0
LINE
  5
314
100
AcDbEntity
  8
0
100
AcDbLine
 62
7
  6
CONTINUOUS
 10
143.0578948337
 20
90.6933711124
 11
143.0649659015
 21
90.6969066463
  0
LINE
  5
315
100
AcDbEntity
  8
0
100
AcDbLine
 62
7
  6
CONTINUOUS
 10
143.4615029694
 20
90.8509871948
 11
143.4544319015
 21
90.8474516609
  0
LINE
  5
316
100
AcDbEntity
  8
0
100
AcDbLine
 62
250
  6
CONTINUOUS
 10
143.6893312898
 20
90.8325335937
 11
143.6964023576
 21
90.8360691277
  0
LINE
  5
317
100
AcDbEntity
  8
0
100
AcDbLine
 62
7
  6
CONTINUOUS
 10
142.1677046386
 20
89.5124147615
 11
142.1747856262
 21
89.5159552557
  0
LINE
  5
318
100
AcDbEntity
  8
0
100
AcDbLine
 62
7
  6
CONTINUOUS
 10
143.3194691884
 20
89.7874019981
 11
143.3265402562
 21
89.790937532
  0
LINE
  5
319
100
AcDbEntity
  8
DRAFT
100
AcDbLine
 62
7
  6
CONTINUOUS
 10
153.1245561773
 20
95.2440505721
 11
151.9891822646
 21
94.6865170755
  0
LINE
  5
31A
100
AcDbEntity
  8
0
100
AcDbLine
 62
7
  6
CONTINUOUS
 10
151.9931853274
 20
94.6783651471
 11
149.1872779734
 21
93.3004779755
  0
LINE
  5
31B
100
AcDbEntity
  8
0
100
AcDbLine
 62
7
  6
CONTINUOUS
 10
142.2816025453
 20
111.0212087343
 11
142.3401737713
 21
111.0013329683
  0
LINE
  5
31C
100
AcDbEntity
  8
0
100
AcDbLine
 62
7
  6
CONTINUOUS
 10
142.2886736131
 20
111.0247442682
 11
142.3472448391
 21
111.0048685022
  0
LINE
  5
31D
100
AcDbEntity
  8
0
100
AcDbLine
 62
7
  6
CONTINUOUS
 10
148.3618325902
 20
112.8090206677
 11
148.304885236
 21
112.9056214238
  0
LINE
  5
31E
100
AcDbEntity
  8
0
100
AcDbLine
 62
7
  6
CONTINUOUS
 10
148.4182224057
 20
112.7117626225
 11
148.3618325902
 21
112.8090206677
  0
LINE
  5
31F
100
AcDbEntity
  8
0
100
AcDbLine
 62
7
  6
CONTINUOUS
 10
148.4740546826
 20
112.6138472883
 11
148.4182224057
 21
112.7117626225
  0
LWPOLYLINE
  5
320
100
AcDbEntity
  8
RACCORDO
100
AcDbPolyline
 62
7
  6
CONTINUOUS
 90
3
 70
0
 10
153.1245561773
 20
84.3786560979
 10
153.1299275656
 20
84.4113222266
 10
153.1328040772
 20
84.4646713036
  0
LWPOLYLINE
  5
321
100
AcDbEntity
  8
0
100
AcDbPolyline
 62
7
  6
CONTINUOUS
 90
10
 70
0
 10
145.2976481728
 20
89.9258155963
 10
145.2841589863
 20
89.9183382905
 10
145.2564719734
 20
89.8982722699
 10
145.2320530348
 20
89.8736641844
 10
145.2110088041
 20
89.8443658309
 10
145.1932326477
 20
89.8105254125
 10
145.1792983427
 20
89.7732352275
 10
145.1693971485
 20
89.7328593755
 10
145.1633378058
 20
89.689033757
 10
145.1611203147
 20
89.6417583719
  0
LWPOLYLINE
  5
322
100
AcDbEntity
  8
0
100
AcDbPolyline
 62
7
  6
CONTINUOUS
 90
10
 70
0
 10
145.1318574611
 20
90.2563926393
 10
145.1092420374
 20
90.2438639048
 10
145.0620912008
 20
90.2096915131
 10
145.020550616
 20
90.1677340416
 10
144.9848060393
 20
90.117733725
 10
144.9546717144
 20
90.0599483286
 10
144.9311345021
 20
89.9962702508
 10
144.9145233562
 20
89.9273302912
 10
144.904509323
 20
89.8524976503
 10
144.9010924025
 20
89.771772328
  0
LINE
  5
323
100
AcDbEntity
  8
0
100
AcDbLine
 62
250
  6
CONTINUOUS
 10
144.9010924025
 20
89.771772328
 11
144.9081634703
 21
89.7753078619
  0
LINE
  5
324
100
AcDbEntity
  8
0
100
AcDbLine
 62
7
  6
CONTINUOUS
 10
145.3047005382
 20
89.9293884104
 11
145.2976294704
 21
89.9258528765
  0
LINE
  5
325
100
AcDbEntity
  8
0
100
AcDbLine
 62
7
  6
CONTINUOUS
 10
143.0673241026
 20
88.7040648684
 11
143.0743951704
 21
88.7076004023
  0
LINE
  5
326
100
AcDbEntity
  8
0
100
AcDbLine
 62
250
  6
CONTINUOUS
 10
145.5325288586
 20
89.9109348093
 11
145.5395999265
 21
89.9144703432
  0
LWPOLYLINE
  5
327
100
AcDbEntity
  8
0
100
AcDbPolyline
 62
7
  6
CONTINUOUS
 90
68
 70
0
 10
142.3312242763
 20
89.1829502353
 10
142.2811800025
 20
89.1626689445
 10
142.2229797013
 20
89.1502032047
 10
142.1635375172
 20
89.1464058169
 10
142.1041429078
 20
89.1519066722
 10
142.0435064155
 20
89.1660758794
 10
141.9801074576
 20
89.185444549
 10
141.9133843875
 20
89.2090326865
 10
141.8438988517
 20
89.2378202863
 10
141.7718152067
 20
89.2712784416
 10
141.6959650079
 20
89.309338339
 10
141.6175166998
 20
89.3520687918
 10
141.540139973
 20
89.3991473336
 10
141.4640546892
 20
89.4496798968
 10
141.3890409866
 20
89.5045605489
 10
141.3181089706
 20
89.5661490264
 10
141.2518594753
 20
89.6358031753
 10
141.1896916666
 20
89.7121651495
 10
141.1328131471
 20
89.7935211469
 10
141.0810455261
 20
89.880299799
 10
141.0345671942
 20
89.9720724743
 10
140.9951209264
 20
90.0658394766
 10
140.9641799151
 20
90.1609830894
 10
140.9402709679
 20
90.2581210292
 10
140.9207172816
 20
90.3561067483
 10
140.9054718501
 20
90.4562236721
 10
140.8945816796
 20
90.5571883753
 10
140.8855109852
 20
90.6540040346
 10
140.8775465077
 20
90.744932691
 10
140.8714015063
 20
90.8317123035
 10
140.8666799734
 20
90.9145599252
 10
140.8634190216
 20
90.9932981331
 10
140.8615815383
 20
91.0681043501
 10
140.8606601777
 20
91.139727898
 10
140.8605454381
 20
91.2082601971
 10
140.8613468211
 20
91.2736098271
 10
140.8628854864
 20
91.3362518498
 10
140.8652082072
 20
91.3961956068
 10
140.8682682103
 20
91.4534317564
 10
140.8717463358
 20
91.5084073349
 10
140.8755549239
 20
91.5611942069
 10
140.8797816344
 20
91.6117205078
 10
140.8843702867
 20
91.6602176805
 10
140.8893592025
 20
91.7066510667
 10
140.8947100601
 20
91.7510553246
 10
140.9002517148
 20
91.7937658711
 10
140.9058697088
 20
91.8348871258
 10
140.9116784998
 20
91.874314669
 10
140.9178503162
 20
91.9120706589
 10
140.9242173041
 20
91.9483489645
 10
140.9309473175
 20
91.9829557168
 10
140.9387161468
 20
92.0153314675
 10
140.9478655016
 20
92.0452020659
 10
140.9580536723
 20
92.0728416628
 10
140.9689313213
 20
92.0985132609
 10
140.9804798231
 20
92.1222009312
 10
140.9927178032
 20
92.1439206029
 10
141.0053517997
 20
92.163983066
 10
141.0183555004
 20
92.1823982802
 10
141.0317552176
 20
92.1991562858
 10
141.0453364263
 20
92.214537994
 10
141.059078324
 20
92.2285547998
 10
141.0730017132
 20
92.2411953081
 10
141.0869544763
 20
92.2527062449
 10
141.1009208109
 20
92.2630993669
 10
141.1149165194
 20
92.2723629172
 10
141.1288368915
 20
92.2807083518
 10
141.1440020018
 20
92.2888129079
  0
LWPOLYLINE
  5
328
100
AcDbEntity
  8
0
100
AcDbPolyline
 62
7
  6
CONTINUOUS
 90
6
 70
0
 10
143.4701783182
 20
90.8548151558
 10
143.5110222623
 20
90.8678177584
 10
143.5542704612
 20
90.8725093436
 10
143.5992435052
 20
90.8686736224
 10
143.646620804
 20
90.8565268838
 10
143.6964023576
 20
90.8360691277
  0
LWPOLYLINE
  5
329
100
AcDbEntity
  8
0
100
AcDbPolyline
 62
7
  6
CONTINUOUS
 90
10
 70
0
 10
143.8799128553
 20
110.4623712986
 10
143.9140156904
 20
110.4600964946
 10
143.9481592582
 20
110.4545794739
 10
143.9823435587
 20
110.4458202364
 10
144.0166792719
 20
110.4337074692
 10
144.0510557179
 20
110.4183524853
 10
144.0851408567
 20
110.4000892235
 10
144.1188240086
 20
110.3790289969
 10
144.1522158534
 20
110.3550604926
 10
144.1853163911
 20
110.3281837104
  0
LWPOLYLINE
  5
32A
100
AcDbEntity
  8
0
100
AcDbPolyline
 62
7
  6
CONTINUOUS
 90
10
 70
0
 10
145.2471069245
 20
109.7868092958
 10
145.2736096763
 20
109.7843684793
 10
145.3003799471
 20
109.7795920936
 10
145.327417737
 20
109.7724801387
 10
145.3546408581
 20
109.7630840602
 10
145.3821314982
 20
109.7513524124
 10
145.4101362209
 20
109.737130859
 10
145.438737214
 20
109.7203679543
 10
145.4678522896
 20
109.7011151438
 10
145.4974814478
 20
109.6793724276
  0
LWPOLYLINE
  5
32B
100
AcDbEntity
  8
0
100
AcDbPolyline
 62
7
  6
CONTINUOUS
 90
7
 70
0
 10
142.2423638151
 20
111.3560579784
 10
142.1779250209
 20
111.3718443577
 10
142.1163952192
 20
111.3789471613
 10
142.05777441
 20
111.3773663891
 10
142.0015128538
 20
111.366904771
 10
141.9481602901
 20
111.3477595771
 10
141.9374888418
 20
111.3426955162
  0
LWPOLYLINE
  5
32C
100
AcDbEntity
  8
0
100
AcDbPolyline
 62
7
  6
CONTINUOUS
 90
7
 70
0
 10
142.2816025453
 20
111.0212087343
 10
142.243701155
 20
111.0305511492
 10
142.2075081014
 20
111.0347833384
 10
142.1730233845
 20
111.0339053019
 10
142.1399230679
 20
111.0278013195
 10
142.1085310881
 20
111.0165871114
 10
142.102013523
 20
111.0134998789
  0
LINE
  5
32D
100
AcDbEntity
  8
0
100
AcDbLine
 62
7
  6
CONTINUOUS
 10
142.3401737713
 20
111.3216649398
 11
142.2423638151
 21
111.3560579784
  0
LWPOLYLINE
  5
32E
100
AcDbEntity
  8
0
100
AcDbPolyline
 62
7
  6
CONTINUOUS
 90
7
 70
0
 10
149.1872779734
 20
112.7860495606
 10
149.1250441494
 20
112.8983850249
 10
149.0619735333
 20
113.0101648703
 10
148.9980762866
 20
113.1213710844
 10
148.9333627041
 20
113.231985747
 10
148.8678432119
 20
113.3419910334
 10
148.8015283664
 20
113.4513692168
  0
LINE
  5
32F
100
AcDbEntity
  8
0
100
AcDbLine
 62
7
  6
CONTINUOUS
 10
145.1626420085
 20
88.865815588
 11
145.1697130763
 21
88.8693511219
  0
LINE
  5
330
100
AcDbEntity
  8
0
100
AcDbLine
 62
7
  6
CONTINUOUS
 10
144.9105216715
 20
87.782466084
 11
144.9175927393
 21
87.7860016179
  0
LINE
  5
331
100
AcDbEntity
  8
DRAFT
100
AcDbLine
 62
7
  6
CONTINUOUS
 10
153.1296329756
 20
91.9693662616
 11
153.377120349
 21
92.0878191629
  0
LWPOLYLINE
  5
332
100
AcDbEntity
  8
0
100
AcDbPolyline
 62
7
  6
CONTINUOUS
 90
6
 70
0
 10
145.3133758871
 20
89.9332163714
 10
145.3542198312
 20
89.946218974
 10
145.3974680301
 20
89.9509105592
 10
145.4424410741
 20
89.947074838
 10
145.4898183729
 20
89.9349280993
 10
145.5395999265
 20
89.9144703432
  0
LINE
  5
333
100
AcDbEntity
  8
0
100
AcDbLine
 62
7
  6
CONTINUOUS
 10
148.9462282286
 20
112.7284311175
 11
148.4740546826
 21
112.6138472883
  0
LINE
  5
334
100
AcDbEntity
  8
0
100
AcDbLine
 62
7
  6
CONTINUOUS
 10
149.1872779734
 20
112.7860495606
 11
148.9462282286
 21
112.7284311175
  0
LINE
  5
335
100
AcDbEntity
  8
0
100
AcDbLine
 62
7
  6
CONTINUOUS
 10
148.304885236
 20
112.9056214238
 11
138.8523440266
 21
117.6318920284
  0
LINE
  5
336
100
AcDbEntity
  8
0
100
AcDbLine
 62
7
  6
CONTINUOUS
 10
148.8015283664
 20
113.4513692168
 11
139.0626999816
 21
118.3207834092
  0
LWPOLYLINE
  5
337
100
AcDbEntity
  8
0
100
AcDbPolyline
 62
7
  6
CONTINUOUS
 90
10
 70
0
 10
151.9931853274
 20
114.1639367323
 10
151.9487487205
 20
114.2446660041
 10
151.9038892787
 20
114.3251026928
 10
151.858607002
 20
114.4052467983
 10
151.8128981169
 20
114.4851048289
 10
151.7667663969
 20
114.5646702764
 10
151.7202231621
 20
114.6439236164
 10
151.673272186
 20
114.7228583406
 10
151.6259096952
 20
114.8014809574
 10
151.5781356896
 20
114.8797914666
  0
LWPOLYLINE
  5
338
100
AcDbEntity
  8
DRAFT
100
AcDbPolyline
 62
7
  6
CONTINUOUS
 90
10
 70
0
 10
153.1245561773
 20
114.7296221572
 10
153.0801195704
 20
114.810351429
 10
153.0352601286
 20
114.8907881177
 10
152.9899778519
 20
114.9709322233
 10
152.9442689668
 20
115.0507902539
 10
152.8981372468
 20
115.1303557014
 10
152.851594012
 20
115.2096090413
 10
152.8046430359
 20
115.2885437656
 10
152.7572805451
 20
115.3671663823
 10
152.7095065395
 20
115.4454768915
  0
LINE
  5
339
100
AcDbEntity
  8
DRAFT
100
AcDbLine
 62
7
  6
CONTINUOUS
 10
153.1296329756
 20
88.1057253734
 11
153.377120349
 21
88.2347598455
  0
LINE
  5
33A
100
AcDbEntity
  8
0
100
AcDbLine
 62
7
  6
CONTINUOUS
 10
151.5781356896
 20
114.8797914666
 11
141.8016332475
 21
119.7680426876
  0
LINE
  5
33B
100
AcDbEntity
  8
RACCORDO
100
AcDbLine
 62
7
  6
CONTINUOUS
 10
146.4396772915
 20
118.2915021912
 11
148.6371479204
 21
117.1927668767
  0
LINE
  5
33C
100
AcDbEntity
  8
RACCORDO
100
AcDbLine
 62
7
  6
CONTINUOUS
 10
152.7095065395
 20
115.4454768915
 11
149.2664007944
 21
117.167029764
  0
LINE
  5
33D
100
AcDbEntity
  8
RACCORDO
100
AcDbLine
 62
7
  6
CONTINUOUS
 10
146.3761098424
 20
118.61217524
 11
142.9330040974
 21
120.3337281126
  0
LWPOLYLINE
  5
33E
100
AcDbEntity
  8
0
100
AcDbPolyline
 62
7
  6
CONTINUOUS
 90
7
 70
0
 10
148.304885236
 20
81.4287196466
 10
148.3335590323
 20
81.4484890204
 10
148.3620412733
 20
81.4685242906
 10
148.3903319588
 20
81.4888254572
 10
148.4184310888
 20
81.5093925202
 10
148.4463386634
 20
81.5302254796
 10
148.4740546826
 20
81.5513243354
  0
LWPOLYLINE
  5
33F
100
AcDbEntity
  8
0
100
AcDbPolyline
 62
7
  6
CONTINUOUS
 90
9
 70
0
 10
151.6259096952
 20
82.4343753282
 10
151.673272186
 20
82.4656354541
 10
151.7202231621
 20
82.4976192023
 10
151.7667663969
 20
82.5303293075
 10
151.8128981169
 20
82.563763035
 10
151.858607002
 20
82.5979121805
 10
151.9038892787
 20
82.6327740093
 10
151.9487487205
 20
82.6683512562
 10
151.9931853274
 20
82.7046439211
  0
LWPOLYLINE
  5
340
100
AcDbEntity
  8
0
100
AcDbPolyline
 62
7
  6
CONTINUOUS
 90
7
 70
0
 10
148.8015283664
 20
81.0933278085
 10
148.867843169
 20
81.1363911179
 10
148.9333626362
 20
81.1808768936
 10
148.9980762113
 20
81.2267779661
 10
149.0619734672
 20
81.2740869381
 10
149.1250441086
 20
81.3227961853
 10
149.1872779734
 20
81.3728978578
  0
LINE
  5
341
100
AcDbEntity
  8
0
100
AcDbLine
 62
7
  6
CONTINUOUS
 10
151.5781356896
 20
82.4038388246
 11
151.6259096952
 21
82.4343753282
  0
LWPOLYLINE
  5
342
100
AcDbEntity
  8
DRAFT
100
AcDbPolyline
 62
7
  6
CONTINUOUS
 90
10
 70
0
 10
152.7095065395
 20
82.9695242496
 10
152.7572805451
 20
83.0000607532
 10
152.8046430359
 20
83.0313208791
 10
152.851594012
 20
83.0633046272
 10
152.8981372468
 20
83.0960147324
 10
152.9442689668
 20
83.1294484599
 10
152.9899778519
 20
83.1635976054
 10
153.0352601286
 20
83.1984594342
 10
153.0801195704
 20
83.2340366811
 10
153.1245561773
 20
83.270329346
  0
LINE
  5
343
100
AcDbEntity
  8
DRAFT
100
AcDbLine
 62
7
  6
CONTINUOUS
 10
153.1245561773
 20
83.270329346
 11
151.9931853274
 21
82.73334498
  0
LINE
  5
344
100
AcDbEntity
  8
0
100
AcDbLine
 62
7
  6
CONTINUOUS
 10
151.9931853274
 20
82.7046439211
 11
149.1872779734
 21
81.3728978578
  0
LINE
  5
345
100
AcDbEntity
  8
DRAFT
100
AcDbLine
 62
7
  6
CONTINUOUS
 10
152.7095065395
 20
82.9695242496
 11
151.7417693361
 21
82.512761631
  0
LINE
  5
346
100
AcDbEntity
  8
0
100
AcDbLine
 62
7
  6
CONTINUOUS
 10
151.5781356896
 20
82.4038388246
 11
148.8015283664
 21
81.0933278085
  0
ELLIPSE
  5
347
100
AcDbEntity
  8
RACCORDO
100
AcDbEllipse
 62
7
  6
CONTINUOUS
 10
153.077120349
 20
92.5769583554
 30
0.0
 11
0.2999929097
 21
-0.0042158549
 31
0.0
 40
0.4892375088
 41
0.0068752354
 42
1.41874773
  0
ELLIPSE
  5
348
100
AcDbEntity
  8
RACCORDO
100
AcDbEllipse
 62
7
  6
CONTINUOUS
 10
148.990701311
 20
97.8915302517
 30
0.0
 11
0.4999863728
 21
0.0072295547
 31
0.0
 40
0.5106100819
 41
-2.3635775243
 42
-0.9941391183
  0
ELLIPSE
  5
349
100
AcDbEntity
  8
RACCORDO
100
AcDbEllipse
 62
7
  6
CONTINUOUS
 10
146.7932306821
 20
98.9902655662
 30
0.0
 11
0.4999863728
 21
0.0072295547
 31
0.0
 40
0.5106100819
 41
2.5501693769
 42
3.9196077829
  0
ELLIPSE
  5
34A
100
AcDbEntity
  8
RACCORDO
100
AcDbEllipse
 62
7
  6
CONTINUOUS
 10
153.077120349
 20
112.0625299406
 30
0.0
 11
0.2999929097
 21
-0.0042158549
 31
0.0
 40
0.4892375088
 41
0.0068752354
 42
1.41874773
  0
ELLIPSE
  5
34B
100
AcDbEntity
  8
RACCORDO
100
AcDbEllipse
 62
7
  6
CONTINUOUS
 10
148.990701311
 20
117.3771018368
 30
0.0
 11
0.4999863728
 21
0.0072295547
 31
0.0
 40
0.5106100819
 41
-2.3635775243
 42
-0.9941391183
  0
ELLIPSE
  5
34C
100
AcDbEntity
  8
RACCORDO
100
AcDbEllipse
 62
7
  6
CONTINUOUS
 10
146.7932306821
 20
118.4758371513
 30
0.0
 11
0.4999863728
 21
0.0072295547
 31
0.0
 40
0.5106100819
 41
2.5501693769
 42
3.9196077829
  0
ENDSEC
  0
SECTION
  2
OBJECTS
  0
DICTIONARY
  5
C
100
AcDbDictionary
280
0
281
1
  3
ACAD_GROUP
350
D
  3
ACAD_MLINESTYLE
350
17
  3
ACAD_LAYOUT
350
1A
  3
ACAD_PLOTSETTINGS
350
19
  3
ACAD_PLOTSTYLENAME
350
E
  0
DICTIONARY
  5
D
102
{ACAD_REACTORS
330
C
102
}
100
AcDbDictionary
280
0
281
1
  0
ACDBDICTIONARYWDFLT
  5
E
102
{ACAD_REACTORS
330
C
102
}
100
AcDbDictionary
281
1
  3
Normal
350
F
100
AcDbDictionaryWithDefault
340
F
  0
DICTIONARY
  5
17
102
{ACAD_REACTORS
330
C
102
}
100
AcDbDictionary
280
0
281
1
  3
Standard
350
18
  0
DICTIONARY
  5
19
102
{ACAD_REACTORS
330
C
102
}
100
AcDbDictionary
281
1
  0
DICTIONARY
  5
1A
102
{ACAD_REACTORS
330
C
102
}
100
AcDbDictionary
281
1
  3
Model
350
34D
  3
Layout1
350
34E
  0
ACDBPLACEHOLDER
  5
F
102
{ACAD_REACTORS
330
E
102
}
  0
MLINESTYLE
  5
18
102
{ACAD_REACTORS
330
17
102
}
100
AcDbMlineStyle
  2
STANDARD
 70
0
  3

 62
256
 51
90.0
 52
90.0
 71
2
 49
0.5
 62
256
  6
BYLAYER
 49
-0.5
 62
256
  6
BYLAYER
  0
LAYOUT
  5
34D
102
{ACAD_REACTORS
330
1A
102
}
100
AcDbPlotSettings
  1

  2
none_device
  4
ISO_A4_(297.00_x_210.00_MM)
  6

 40
0.0
 41
0.0
 42
0.0
 43
0.0
 44
297.0
 45
210.0
 46
0.0
 47
0.0
 48
0.0
 49
0.0
140
0.0
141
0.0
142
1.0
143
1.0
 70
1024
 72
1
 73
0
 74
0
  7

 75
0
147
1.0
148
0.0
149
0.0
100
AcDbLayout
  1
Model
 70
0
 71
0
 10
0.0
 20
0.0
 11
297.0
 21
210.0
 12
0.0
 22
0.0
 32
0.0
 14
0.0
 24
0.0
 34
0.0
 15
0.0
 25
0.0
 35
0.0
146
0.0
 13
0.0
 23
0.0
 33
0.0
 16
1.0
 26
0.0
 36
0.0
 17
0.0
 27
1.0
 37
0.0
 76
0
330
219
345
0
346
0
  0
LAYOUT
  5
34E
102
{ACAD_REACTORS
330
1A
102
}
100
AcDbPlotSettings
  1

  2
none_device
  4
ISO_A4_(297.00_x_210.00_MM)
  6

 40
0.0
 41
0.0
 42
0.0
 43
0.0
 44
297.0
 45
210.0
 46
0.0
 47
0.0
 48
0.0
 49
0.0
140
0.0
141
0.0
142
1.0
143
1.0
 70
0
 72
1
 73
0
 74
0
  7

 75
0
147
1.0
148
0.0
149
0.0
100
AcDbLayout
  1
Layout1
 70
0
 71
1
 10
0.0
 20
0.0
 11
297.0
 21
210.0
 12
0.0
 22
0.0
 32
0.0
 14
0.0
 24
0.0
 34
0.0
 15
0.0
 25
0.0
 35
0.0
146
0.0
 13
0.0
 23
0.0
 33
0.0
 16
1.0
 26
0.0
 36
0.0
 17
0.0
 27
1.0
 37
0.0
 76
0
330
21A
345
0
346
0
  0
ENDSEC
  0
EOF
