  0
SECTION
  2
HEADER
  9
$ACADVER
  1
AC1024
  9
$DWGCODEPAGE
  3
ANSI_1252
  9
$EXTMAX
 10
297.0
 20
210.0
 30
0.0
  9
$EXTMIN
 10
0.0
 20
0.0
 30
0.0
  9
$LIMMIN
 10
0.0
 20
0.0
  9
$LIMMAX
 10
297.0
 20
210.0
  9
$VIEWCTR
 10
148.5
 20
105.0
  9
$VIEWSIZE
 40
210.0
  9
$CLAYER
  8
0
  9
$LTSCALE
 40
16.335
  9
$CELTYPE
  6
BYLAYER
  9
$DIMSCALE
 40
1.0
  9
$DIMASZ
 40
3.0
  9
$DIMEXO
 40
0.5
  9
$DIMDLI
 40
11.286
  9
$DIMEXE
 40
1.5
  9
$DIMCEN
 40
2.673
  9
$DIMLFAC
 40
1.0
  9
$DIMBLK
  1
_FILLED
  9
$DIMALT
 70
0
  9
$DIMALTF
 40
0.0393700787
  9
$DIMTXT
 40
3.0
  9
$DIMTOL
 70
1
  9
$DIMLIM
 70
0
  9
$DIMTFAC
 40
1.0
  9
$DIMTP
 40
0.01
  9
$DIMTM
 40
0.01
  9
$DIMGAP
 40
0.625
  9
$DIMDSEP
 70
44
  9
$AUNITS
 70
0
  9
$PDMODE
 70
3
  9
$PDSIZE
 40
3.0
  9
$HANDSEED
  5
34C
  9
$TILEMODE
 70
1
  9
$MEASUREMENT
 70
1
  9
$INSUNITS
 70
4
  0
ENDSEC
  0
SECTION
  2
CLASSES
  0
CLASS
  1
ACDBDICTIONARYWDFLT
  2
AcDbDictionaryWithDefault
  3
AutoCAD 2000
 90
0
 91
1
280
0
281
0
  0
CLASS
  1
ACDBPLACEHOLDER
  2
AcDbPlaceHolder
  3
AutoCAD 2000
 90
0
 91
1
280
0
281
0
  0
CLASS
  1
LAYOUT
  2
AcDbLayout
  3
AutoCAD 2000
 90
0
 91
0
280
0
281
0
  0
ENDSEC
  0
SECTION
  2
TABLES
  0
TABLE
  2
VPORT
  5
8
100
AcDbSymbolTable
 70
2
  0
VPORT
  5
1F4
100
AcDbSymbolTableRecord
100
AcDbViewportTableRecord
  2
*ACTIVE
 70
0
 10
0.0
 20
0.0
 11
1.0
 21
1.0
 12
148.5
 22
105.0
 13
0.0
 23
0.0
 14
1.0
 24
1.0
 15
0.0
 25
0.0
 16
0.0
 26
0.0
 36
1.0
 17
0.0
 27
0.0
 37
0.0
 40
210.0
 41
1.4142857143
 42
50.0
 43
0.0
 44
0.0
 50
0.0
 51
0.0
 71
0
 72
100
 73
1
 74
1
 75
0
 76
0
 77
0
 78
0
  0
ENDTAB
  0
TABLE
  2
LTYPE
  5
5
100
AcDbSymbolTable
 70
6
  0
LTYPE
  5
14
100
AcDbSymbolTableRecord
100
AcDbLinetypeTableRecord
  2
BYBLOCK
 70
0
  3

 72
65
 73
0
 40
0.0
  0
LTYPE
  5
15
100
AcDbSymbolTableRecord
100
AcDbLinetypeTableRecord
  2
BYLAYER
 70
0
  3

 72
65
 73
0
 40
0.0
  0
LTYPE
  5
16
100
AcDbSymbolTableRecord
100
AcDbLinetypeTableRecord
  2
CONTINUOUS
 70
64
  3
Solid line
 72
65
 73
0
 40
0.0
  0
LTYPE
  5
1F5
100
AcDbSymbolTableRecord
100
AcDbLinetypeTableRecord
  2
CENTER
 70
64
  3
____ _ ____ _ ____ _ ____ _ ____ _ ____ _ ____
 72
65
 73
4
 40
0.6
 49
0.375
 74
0
 49
-0.075
 74
0
 49
0.075
 74
0
 49
-0.075
 74
0
  0
LTYPE
  5
1F6
100
AcDbSymbolTableRecord
100
AcDbLinetypeTableRecord
  2
HIDDEN
 70
64
  3
- - - - - - - - - - - - - - - - - - - -
 72
65
 73
2
 40
0.2
 49
0.1
 74
0
 49
-0.1
 74
0
  0
LTYPE
  5
1F7
100
AcDbSymbolTableRecord
100
AcDbLinetypeTableRecord
  2
PHANTOM
 70
64
  3
_____ _ _ _____ _ _ _____ _ _ _____
 72
65
 73
6
 40
0.8
 49
0.45
 74
0
 49
-0.05
 74
0
 49
0.1
 74
0
 49
-0.05
 74
0
 49
0.1
 74
0
 49
-0.05
 74
0
  0
LTYPE
  5
1F8
100
AcDbSymbolTableRecord
100
AcDbLinetypeTableRecord
  2
DOT
 70
64
  3
. . . . . . . . . . . . . . . . . . . .
 72
65
 73
2
 40
0.2
 49
0.1
 74
0
 49
-0.1
 74
0
  0
LTYPE
  5
1F9
100
AcDbSymbolTableRecord
100
AcDbLinetypeTableRecord
  2
DASHED
 70
64
  3
- - - - - - - - - - - - - - - - - - - -
 72
65
 73
2
 40
0.2
 49
0.1
 74
0
 49
-0.1
 74
0
  0
ENDTAB
  0
TABLE
  2
LAYER
  5
2
100
AcDbSymbolTable
 70
36
  0
LAYER
  5
10
100
AcDbSymbolTableRecord
100
AcDbLayerTableRecord
  2
0
 70
0
 62
7
  6
CONTINUOUS
370
-3
390
F
  0
LAYER
  5
1FA
100
AcDbSymbolTableRecord
100
AcDbLayerTableRecord
  2
DEFAULT_1
 70
0
 62
7
  6
CENTER
370
-3
390
F
  0
LAYER
  5
1FB
100
AcDbSymbolTableRecord
100
AcDbLayerTableRecord
  2
DEFAULT_2
 70
0
 62
7
  6
HIDDEN
370
-3
390
F
  0
LAYER
  5
1FC
100
AcDbSymbolTableRecord
100
AcDbLayerTableRecord
  2
DEFAULT_3
 70
0
 62
7
  6
PHANTOM
370
-3
390
F
  0
LAYER
  5
1FD
100
AcDbSymbolTableRecord
100
AcDbLayerTableRecord
  2
ASSI
 70
0
 62
7
  6
CONTINUOUS
370
-3
390
F
  0
LAYER
  5
1FE
100
AcDbSymbolTableRecord
100
AcDbLayerTableRecord
  2
COLOR9
 70
0
 62
7
  6
CONTINUOUS
370
-3
390
F
  0
LAYER
  5
1FF
100
AcDbSymbolTableRecord
100
AcDbLayerTableRecord
  2
COORDINATE
 70
0
 62
7
  6
CONTINUOUS
370
-3
390
F
  0
LAYER
  5
200
100
AcDbSymbolTableRecord
100
AcDbLayerTableRecord
  2
COORD_ORIGINE
 70
0
 62
7
  6
CONTINUOUS
370
-3
390
F
  0
LAYER
  5
201
100
AcDbSymbolTableRecord
100
AcDbLayerTableRecord
  2
COPY_PUBLISH
 70
0
 62
7
  6
CONTINUOUS
370
-3
390
F
  0
LAYER
  5
202
100
AcDbSymbolTableRecord
100
AcDbLayerTableRecord
  2
COSMETICI
 70
0
 62
7
  6
CONTINUOUS
370
-3
390
F
  0
LAYER
  5
203
100
AcDbSymbolTableRecord
100
AcDbLayerTableRecord
  2
CURVE
 70
0
 62
7
  6
CONTINUOUS
370
-3
390
F
  0
LAYER
  5
204
100
AcDbSymbolTableRecord
100
AcDbLayerTableRecord
  2
DRAFT
 70
0
 62
7
  6
CONTINUOUS
370
-3
390
F
  0
LAYER
  5
205
100
AcDbSymbolTableRecord
100
AcDbLayerTableRecord
  2
IMPORT_IGES
 70
0
 62
7
  6
CONTINUOUS
370
-3
390
F
  0
LAYER
  5
206
100
AcDbSymbolTableRecord
100
AcDbLayerTableRecord
  2
INTF_1
 70
0
 62
7
  6
CONTINUOUS
370
-3
390
F
  0
LAYER
  5
207
100
AcDbSymbolTableRecord
100
AcDbLayerTableRecord
  2
INTF_5
 70
0
 62
7
  6
CONTINUOUS
370
-3
390
F
  0
LAYER
  5
208
100
AcDbSymbolTableRecord
100
AcDbLayerTableRecord
  2
INTF_6
 70
0
 62
7
  6
CONTINUOUS
370
-3
390
F
  0
LAYER
  5
209
100
AcDbSymbolTableRecord
100
AcDbLayerTableRecord
  2
INTF_YELLOW
 70
0
 62
7
  6
CONTINUOUS
370
-3
390
F
  0
LAYER
  5
20A
100
AcDbSymbolTableRecord
100
AcDbLayerTableRecord
  2
LIVELLO_1
 70
0
 62
7
  6
CONTINUOUS
370
-3
390
F
  0
LAYER
  5
20B
100
AcDbSymbolTableRecord
100
AcDbLayerTableRecord
  2
NOTE
 70
0
 62
7
  6
CONTINUOUS
370
-3
390
F
  0
LAYER
  5
20C
100
AcDbSymbolTableRecord
100
AcDbLayerTableRecord
  2
PIANI
 70
0
 62
7
  6
CONTINUOUS
370
-3
390
F
  0
LAYER
  5
20D
100
AcDbSymbolTableRecord
100
AcDbLayerTableRecord
  2
PIANI_ORIGINE
 70
0
 62
7
  6
CONTINUOUS
370
-3
390
F
  0
LAYER
  5
20E
100
AcDbSymbolTableRecord
100
AcDbLayerTableRecord
  2
PIANI_RIFERIMENTO
 70
0
 62
7
  6
CONTINUOUS
370
-3
390
F
  0
LAYER
  5
20F
100
AcDbSymbolTableRecord
100
AcDbLayerTableRecord
  2
PUNTI
 70
0
 62
7
  6
CONTINUOUS
370
-3
390
F
  0
LAYER
  5
210
100
AcDbSymbolTableRecord
100
AcDbLayerTableRecord
  2
RACCORDO
 70
0
 62
7
  6
CONTINUOUS
370
-3
390
F
  0
LAYER
  5
211
100
AcDbSymbolTableRecord
100
AcDbLayerTableRecord
  2
SIMBOLI
 70
0
 62
7
  6
CONTINUOUS
370
-3
390
F
  0
LAYER
  5
212
100
AcDbSymbolTableRecord
100
AcDbLayerTableRecord
  2
SMUSSO
 70
0
 62
7
  6
CONTINUOUS
370
-3
390
F
  0
LAYER
  5
213
100
AcDbSymbolTableRecord
100
AcDbLayerTableRecord
  2
SUPERFICI
 70
0
 62
7
  6
CONTINUOUS
370
-3
390
F
  0
LAYER
  5
214
100
AcDbSymbolTableRecord
100
AcDbLayerTableRecord
  2
TRASH
 70
0
 62
7
  6
CONTINUOUS
370
-3
390
F
  0
LAYER
  5
215
100
AcDbSymbolTableRecord
100
AcDbLayerTableRecord
  2
WHITE
 70
0
 62
7
  6
CONTINUOUS
370
-3
390
F
  0
LAYER
  5
216
100
AcDbSymbolTableRecord
100
AcDbLayerTableRecord
  2
XSEC_DATUMS
 70
0
 62
7
  6
CONTINUOUS
370
-3
390
F
  0
ENDTAB
  0
TABLE
  2
STYLE
  5
3
100
AcDbSymbolTable
 70
1
  0
STYLE
  5
11
100
AcDbSymbolTableRecord
100
AcDbTextStyleTableRecord
  2
STANDARD
 70
0
 40
0.0
 41
0.8
 50
0.0
 71
0
 42
0.2
  3
txt
  4

  0
STYLE
  5
217
100
AcDbSymbolTableRecord
100
AcDbTextStyleTableRecord
  2
TEXTSTYLE_1
 70
0
 40
0.0
 41
0.8
 50
0.0
 71
0
 42
0.2
  3
gdt
  4

  0
ENDTAB
  0
TABLE
  2
VIEW
  5
6
100
AcDbSymbolTable
 70
0
  0
ENDTAB
  0
TABLE
  2
UCS
  5
7
100
AcDbSymbolTable
 70
0
  0
ENDTAB
  0
TABLE
  2
APPID
  5
9
100
AcDbSymbolTable
 70
1
  0
APPID
  5
218
100
AcDbSymbolTableRecord
100
AcDbRegAppTableRecord
  2
ACAD
 70
0
  0
ENDTAB
  0
TABLE
  2
BLOCK_RECORD
  5
1
100
AcDbSymbolTable
 70
0
  0
BLOCK_RECORD
  5
219
100
AcDbSymbolTableRecord
100
AcDbBlockTableRecord
  2
*Model_Space
  0
BLOCK_RECORD
  5
21A
100
AcDbSymbolTableRecord
100
AcDbBlockTableRecord
  2
*Paper_Space
  0
BLOCK_RECORD
  5
21B
100
AcDbSymbolTableRecord
100
AcDbBlockTableRecord
  2
_FILLED
  0
ENDTAB
  0
TABLE
  2
DIMSTYLE
  5
A
100
AcDbSymbolTable
 70
1
100
AcDbDimStyleTable
 71
0
  0
DIMSTYLE
105
21C
100
AcDbSymbolTableRecord
100
AcDbDimStyleTableRecord
  2
STANDARD
 70
0
  3

  4

 40
1.0
 41
3.0
 42
0.5
 43
0.38
 44
1.5
 45
0.0
 46
0.0
 47
0.01
 48
0.01
140
3.0
141
0.09
142
0.0
143
25.4
144
1.0
145
0.0
146
1.0
147
0.625
 71
1.0
 72
0.0
 73
0
 74
0
 75
0
 76
0
 77
1
 78
8
 79
2
170
0
171
1
172
0
173
0
174
0
175
0
176
0
177
0
178
0
270
2
179
2
271
2
272
2
273
2
274
2
275
0
280
0
281
0
282
0
283
1
284
8
285
0
286
0
287
3
288
0
340
11
278
44
341
21B
342
21B
343
21B
344
21B
  0
ENDTAB
  0
ENDSEC
  0
SECTION
  2
BLOCKS
  0
BLOCK
  5
20
100
AcDbEntity
  8
0
100
AcDbBlockBegin
  2
*Model_Space
 70
0
 10
0.0
 20
0.0
 30
0.0
  3
*Model_Space
  1

  0
ENDBLK
  5
21
100
AcDbEntity
  8
0
100
AcDbBlockEnd
  0
BLOCK
  5
1C
100
AcDbEntity
  8
0
100
AcDbBlockBegin
  2
*Paper_Space
 70
0
 10
0.0
 20
0.0
 30
0.0
  3
*Paper_Space
  1

  0
ENDBLK
  5
1D
100
AcDbEntity
  8
0
100
AcDbBlockEnd
  0
BLOCK
  5
21D
100
AcDbEntity
  8
0
100
AcDbBlockBegin
  2
_FILLED
 70
64
 10
0.0
 20
0.0
  3
_FILLED
  1

  0
SOLID
  5
21E
100
AcDbEntity
  8
0
  6
BYBLOCK
 62
0
100
AcDbTrace
 10
0.0
 20
0.0
 11
-1.0
 21
0.3166666667
 12
-1.0
 22
-0.3166666667
 13
-1.0
 23
-0.3166666667
  0
ENDBLK
  5
21F
100
AcDbEntity
  8
0
  6
BYBLOCK
 62
0
100
AcDbBlockEnd
  0
ENDSEC
  0
SECTION
  2
ENTITIES
  0
LWPOLYLINE
  5
220
100
AcDbEntity
  8
0
100
AcDbPolyline
 62
7
  6
CONTINUOUS
 90
7
 70
0
 10
138.8523440266
 20
117.6318920284
 10
138.8236702303
 20
117.6121226547
 10
138.7951879894
 20
117.5920873845
 10
138.7668973039
 20
117.5717862179
 10
138.7387981738
 20
117.5512191549
 10
138.7108905992
 20
117.5303861954
 10
138.68317458
 20
117.5092873396
  0
LWPOLYLINE
  5
221
100
AcDbEntity
  8
0
100
AcDbPolyline
 62
7
  6
CONTINUOUS
 90
7
 70
0
 10
139.0626999816
 20
118.3207834092
 10
138.996385179
 20
118.2777200998
 10
138.9308657118
 20
118.2332343241
 10
138.8661521368
 20
118.1873332516
 10
138.8022548808
 20
118.1400242796
 10
138.7391842394
 20
118.0913150325
 10
138.6769503747
 20
118.04121336
  0
LINE
  5
222
100
AcDbEntity
  8
0
100
AcDbLine
 62
7
  6
CONTINUOUS
 10
141.8016332475
 20
119.7680426876
 11
139.0626999816
 21
118.3207834092
  0
LINE
  5
223
100
AcDbEntity
  8
DRAFT
100
AcDbLine
 62
7
  6
CONTINUOUS
 10
142.9330040974
 20
120.3337281126
 11
141.8328709607
 21
119.752423831
  0
LINE
  5
224
100
AcDbEntity
  8
0
100
AcDbLine
 62
7
  6
CONTINUOUS
 10
149.1872779734
 20
81.3728978578
 11
148.7086959408
 21
81.4920431631
  0
LINE
  5
225
100
AcDbEntity
  8
0
100
AcDbLine
 62
7
  6
CONTINUOUS
 10
148.7086959408
 20
81.4920431631
 11
148.4740546826
 21
81.5513243354
  0
LINE
  5
226
100
AcDbEntity
  8
0
100
AcDbLine
 62
7
  6
CONTINUOUS
 10
139.0626999816
 20
85.9627420009
 11
148.8015283664
 21
81.0933278085
  0
LINE
  5
227
100
AcDbEntity
  8
0
100
AcDbLine
 62
7
  6
CONTINUOUS
 10
138.8523440266
 20
86.1549902513
 11
148.304885236
 21
81.4287196466
  0
LINE
  5
228
100
AcDbEntity
  8
0
100
AcDbLine
 62
7
  6
CONTINUOUS
 10
139.0626999816
 20
85.9627420009
 11
138.8523440266
 21
86.1549902513
  0
LINE
  5
229
100
AcDbEntity
  8
0
100
AcDbLine
 62
7
  6
CONTINUOUS
 10
148.8015283664
 20
81.0933278085
 11
148.304885236
 21
81.4287196466
  0
LINE
  5
22A
100
AcDbEntity
  8
0
100
AcDbLine
 62
7
  6
CONTINUOUS
 10
138.7951880556
 20
86.2519508182
 11
138.8523440266
 21
86.1549902513
  0
LINE
  5
22B
100
AcDbEntity
  8
0
100
AcDbLine
 62
7
  6
CONTINUOUS
 10
138.7387982401
 20
86.3492088634
 11
138.7951880556
 21
86.2519508182
  0
LINE
  5
22C
100
AcDbEntity
  8
0
100
AcDbLine
 62
7
  6
CONTINUOUS
 10
138.68317458
 20
86.4467643867
 11
138.7387982401
 21
86.3492088634
  0
LINE
  5
22D
100
AcDbEntity
  8
0
100
AcDbLine
 62
7
  6
CONTINUOUS
 10
138.9911422697
 20
118.08823144
 11
138.8523440266
 21
117.6318920284
  0
LINE
  5
22E
100
AcDbEntity
  8
0
100
AcDbLine
 62
7
  6
CONTINUOUS
 10
139.0626999816
 20
118.3207834092
 11
138.9911422697
 21
118.08823144
  0
LWPOLYLINE
  5
22F
100
AcDbEntity
  8
0
100
AcDbPolyline
 62
7
  6
CONTINUOUS
 90
13
 70
0
 10
142.0976817666
 20
111.8588556922
 10
142.0944075759
 20
111.8571014099
 10
142.0750191636
 20
111.843100669
 10
142.0589920736
 20
111.8248253901
 10
142.0465478927
 20
111.801993785
 10
142.0374650342
 20
111.774887642
 10
142.0323293881
 20
111.7452554435
 10
142.0314011644
 20
111.7129306657
 10
142.0344201532
 20
111.6780798325
 10
142.0411916144
 20
111.6429509979
 10
142.0516506348
 20
111.6082935133
 10
142.0658621276
 20
111.5733580274
 10
142.0838260929
 20
111.53814454
  0
LINE
  5
230
100
AcDbEntity
  8
0
100
AcDbLine
 62
7
  6
CONTINUOUS
 10
142.0838260929
 20
111.53814454
 11
142.0908971607
 21
111.5416800739
  0
LINE
  5
231
100
AcDbEntity
  8
0
100
AcDbLine
 62
250
  6
CONTINUOUS
 10
143.3977373105
 20
111.7305192895
 11
143.4048083783
 21
111.7340548234
  0
LWPOLYLINE
  5
232
100
AcDbEntity
  8
0
100
AcDbPolyline
 62
7
  6
CONTINUOUS
 90
7
 70
0
 10
143.5787087651
 20
89.3045461925
 10
143.6254838511
 20
89.284736723
 10
143.6704341757
 20
89.2719342942
 10
143.7135597391
 20
89.2661389061
 10
143.7553674311
 20
89.267461339
 10
143.7953503618
 20
89.2757908126
 10
143.8278018597
 20
89.2886448533
  0
LWPOLYLINE
  5
233
100
AcDbEntity
  8
0
100
AcDbPolyline
 62
7
  6
CONTINUOUS
 90
5
 70
0
 10
143.5857798329
 20
89.3080817264
 10
143.6325572094
 20
89.2882712129
 10
143.6775098568
 20
89.2754686588
 10
143.7206377752
 20
89.2696740642
 10
143.7624482486
 20
89.2709984175
  0
LWPOLYLINE
  5
234
100
AcDbEntity
  8
0
100
AcDbPolyline
 62
7
  6
CONTINUOUS
 90
7
 70
0
 10
143.4642005548
 20
111.8688339523
 10
143.4462461856
 20
111.8569739476
 10
143.4291528383
 20
111.8392689748
 10
143.4156448557
 20
111.8176566501
 10
143.4060903094
 20
111.7925182152
 10
143.4001211276
 20
111.7634724284
 10
143.3977373105
 20
111.7305192895
  0
LWPOLYLINE
  5
235
100
AcDbEntity
  8
0
100
AcDbPolyline
 62
7
  6
CONTINUOUS
 90
18
 70
0
 10
141.5314027347
 20
110.4683617431
 10
141.5226004181
 20
110.4634227307
 10
141.504260871
 20
110.4485972427
 10
141.4892409687
 20
110.4288696304
 10
141.4773351191
 20
110.4045434921
 10
141.4693124296
 20
110.377190275
 10
141.4654292694
 20
110.3466101292
 10
141.4654292694
 20
110.3130029045
 10
141.4693124296
 20
110.2785395985
 10
141.4773351191
 20
110.2431636919
 10
141.4892409687
 20
110.206931704
 10
141.504260871
 20
110.1721841894
 10
141.5226004181
 20
110.1390191543
 10
141.5440540178
 20
110.1073385926
 10
141.5672357864
 20
110.0791890409
 10
141.5916837626
 20
110.0552526782
 10
141.6178599076
 20
110.0348473254
 10
141.6457642215
 20
110.0179729827
  0
LWPOLYLINE
  5
236
100
AcDbEntity
  8
0
100
AcDbPolyline
 62
7
  6
CONTINUOUS
 90
13
 70
0
 10
142.8617474269
 20
110.4780585344
 10
142.8651671437
 20
110.479894809
 10
142.8845641329
 20
110.4939549943
 10
142.9005888559
 20
110.5122959936
 10
142.9130186076
 20
110.5352005125
 10
142.9220760932
 20
110.5623858453
 10
142.9271760385
 20
110.5920953377
 10
142.9280570868
 20
110.6244956856
 10
142.9249805948
 20
110.6594201931
 10
142.9181453584
 20
110.6946121179
 10
142.9076176429
 20
110.7293192126
 10
142.8933311831
 20
110.7642937247
 10
142.8752859789
 20
110.7995356542
  0
LINE
  5
237
100
AcDbEntity
  8
0
100
AcDbLine
 62
7
  6
CONTINUOUS
 10
151.5781356896
 20
114.8797914666
 11
148.8015283664
 21
113.4513692168
  0
LINE
  5
238
100
AcDbEntity
  8
DRAFT
100
AcDbLine
 62
7
  6
CONTINUOUS
 10
152.7095065395
 20
115.4454768915
 11
151.584789104
 21
114.8668585694
  0
LINE
  5
239
100
AcDbEntity
  8
0
100
AcDbLine
 62
250
  6
CONTINUOUS
 10
142.6194484666
 20
110.6140881698
 11
142.6265195344
 21
110.6176237037
  0
LINE
  5
23A
100
AcDbEntity
  8
0
100
AcDbLine
 62
250
  6
CONTINUOUS
 10
141.6457642215
 20
110.0179729827
 11
141.6528352893
 21
110.0215085166
  0
LINE
  5
23B
100
AcDbEntity
  8
0
100
AcDbLine
 62
250
  6
CONTINUOUS
 10
143.3977373105
 20
110.8027939061
 11
143.4048083783
 21
110.80632944
  0
LINE
  5
23C
100
AcDbEntity
  8
0
100
AcDbLine
 62
250
  6
CONTINUOUS
 10
142.4031490253
 20
109.6392805808
 11
142.4102200931
 21
109.6428161147
  0
LINE
  5
23D
100
AcDbEntity
  8
0
100
AcDbLine
 62
7
  6
CONTINUOUS
 10
144.5236368931
 20
89.7267813805
 11
144.7737419841
 21
89.7788688234
  0
LINE
  5
23E
100
AcDbEntity
  8
0
100
AcDbLine
 62
7
  6
CONTINUOUS
 10
144.6662234547
 20
90.2686881718
 11
144.4093475637
 21
90.2151360515
  0
LINE
  5
23F
100
AcDbEntity
  8
0
100
AcDbLine
 62
7
  6
CONTINUOUS
 10
142.4914798201
 20
89.3062695535
 11
142.7473608102
 21
89.3591536188
  0
LINE
  5
240
100
AcDbEntity
  8
0
100
AcDbLine
 62
7
  6
CONTINUOUS
 10
142.6336100479
 20
89.8474168189
 11
142.377037689
 21
89.7944698067
  0
LWPOLYLINE
  5
241
100
AcDbEntity
  8
0
100
AcDbPolyline
 62
7
  6
CONTINUOUS
 90
5
 70
0
 10
144.7737419841
 20
89.7788688234
 10
144.8227401663
 20
89.7872743893
 10
144.8455053291
 20
89.7937682186
 10
144.8671529408
 20
89.8027237021
 10
144.8700141283
 20
89.8040698432
  0
LWPOLYLINE
  5
242
100
AcDbEntity
  8
0
100
AcDbPolyline
 62
7
  6
CONTINUOUS
 90
4
 70
0
 10
144.4093475637
 20
90.2151360515
 10
144.3609307024
 20
90.2069751765
 10
144.3386808968
 20
90.2003054752
 10
144.319635694
 20
90.1915564139
  0
LWPOLYLINE
  5
243
100
AcDbEntity
  8
0
100
AcDbPolyline
 62
7
  6
CONTINUOUS
 90
4
 70
0
 10
142.7473608102
 20
89.3591536188
 10
142.796091373
 20
89.3672672404
 10
142.8184945273
 20
89.3739377307
 10
142.8378412595
 20
89.3827853841
  0
LWPOLYLINE
  5
244
100
AcDbEntity
  8
0
100
AcDbPolyline
 62
7
  6
CONTINUOUS
 90
4
 70
0
 10
142.377037689
 20
89.7944698067
 10
142.3282924229
 20
89.7863825669
 10
142.3059083779
 20
89.7796840776
 10
142.2871154356
 20
89.7710090529
  0
LINE
  5
245
100
AcDbEntity
  8
0
100
AcDbLine
 62
7
  6
CONTINUOUS
 10
143.5856856991
 20
90.7779896758
 11
143.6140602171
 21
90.766777956
  0
LWPOLYLINE
  5
246
100
AcDbEntity
  8
0
100
AcDbPolyline
 62
7
  6
CONTINUOUS
 90
7
 70
0
 10
143.5786146313
 20
90.2707218056
 10
143.531883982
 20
90.2905266816
 10
143.4869682601
 20
90.3033261639
 10
143.4438674656
 20
90.3091202527
 10
143.4020736295
 20
90.3078006241
 10
143.3620947208
 20
90.2994756019
 10
143.3296382719
 20
90.2866195311
  0
LWPOLYLINE
  5
247
100
AcDbEntity
  8
0
100
AcDbPolyline
 62
7
  6
CONTINUOUS
 90
15
 70
0
 10
143.5786146313
 20
90.7744541419
 10
143.5503077544
 20
90.7915781241
 10
143.5237847131
 20
90.8123801285
 10
143.4990455074
 20
90.8368601551
 10
143.4755914716
 20
90.8657749197
 10
143.4539212715
 20
90.8983677066
 10
143.4355309041
 20
90.9323683682
 10
143.4208910891
 20
90.9677112329
 10
143.4095311068
 20
91.0044619723
 10
143.4015347952
 20
91.0405474543
 10
143.3979084966
 20
91.0748261595
 10
143.3976458688
 20
91.1084396072
 10
143.3978117228
 20
91.1427392228
 10
143.3975758802
 20
91.1780870996
 10
143.3979449861
 20
91.2511065021
  0
LWPOLYLINE
  5
248
100
AcDbEntity
  8
0
100
AcDbPolyline
 62
7
  6
CONTINUOUS
 90
19
 70
0
 10
142.0908971607
 20
108.5063627924
 10
142.0701016843
 20
108.485352148
 10
142.0545108074
 20
108.4600354591
 10
142.0441245298
 20
108.4304127259
 10
142.0389435347
 20
108.3953446566
 10
142.038967139
 20
108.3559705429
 10
142.0441932937
 20
108.3157082599
 10
142.0550870636
 20
108.2744784127
 10
142.071183384
 20
108.2323603961
 10
142.0910850116
 20
108.1930102702
 10
142.1151321092
 20
108.1566754613
 10
142.1429845142
 20
108.1231085431
 10
142.1722244947
 20
108.0952232962
 10
142.2029760885
 20
108.0735276148
 10
142.235115258
 20
108.0575136048
 10
142.2658521582
 20
108.0485713644
 10
142.2942568409
 20
108.0471642597
 10
142.3212592545
 20
108.0528289245
 10
142.3256407135
 20
108.0546475
  0
LWPOLYLINE
  5
249
100
AcDbEntity
  8
0
100
AcDbPolyline
 62
7
  6
CONTINUOUS
 90
22
 70
0
 10
142.0838260929
 20
108.5028272585
 10
142.0658020937
 20
108.485613025
 10
142.0515375994
 20
108.4649109228
 10
142.0410326099
 20
108.4407209517
 10
142.0342213574
 20
108.4123566688
 10
142.0311696097
 20
108.3805045172
 10
142.0320746707
 20
108.3472238255
 10
142.0371979935
 20
108.3124202006
 10
142.046278125
 20
108.2761880356
 10
142.0587280099
 20
108.2408698394
 10
142.0747703104
 20
108.2065260039
 10
142.0941823643
 20
108.1730961371
 10
142.1157091291
 20
108.1427415714
 10
142.139490338
 20
108.1156655126
 10
142.1653862578
 20
108.091664755
 10
142.1917226465
 20
108.0722910132
 10
142.2185286086
 20
108.0578500254
 10
142.2457750395
 20
108.0480360534
 10
142.2717003829
 20
108.0434835973
 10
142.2957174532
 20
108.0444041573
 10
142.3184134359
 20
108.0505862332
 10
142.3259348964
 20
108.0539387306
  0
LWPOLYLINE
  5
24A
100
AcDbEntity
  8
0
100
AcDbPolyline
 62
7
  6
CONTINUOUS
 90
19
 70
0
 10
143.1790564038
 20
109.9779589556
 10
143.1299226192
 20
109.9334977016
 10
143.0876672372
 20
109.8771729578
 10
143.0543989215
 20
109.811795489
 10
143.0305737383
 20
109.7369058965
 10
143.0157356214
 20
109.6529635789
 10
143.0106250349
 20
109.5641574961
 10
143.0157356214
 20
109.4702408268
 10
143.0305737383
 20
109.3714603923
 10
143.0543989215
 20
109.2727456167
 10
143.0876672372
 20
109.1740998321
 10
143.1299226192
 20
109.0755197063
 10
143.1790564038
 20
108.9819246677
 10
143.2354176493
 20
108.8935676942
 10
143.2986572975
 20
108.8101958078
 10
143.3656195103
 20
108.7359695022
 10
143.4352523419
 20
108.6722756088
 10
143.5086077381
 20
108.6177272963
 10
143.5856856991
 20
108.5723245647
  0
LINE
  5
24B
100
AcDbEntity
  8
0
100
AcDbLine
 62
7
  6
CONTINUOUS
 10
142.6194484666
 20
108.891536218
 11
142.0838260929
 21
108.5028272585
  0
LINE
  5
24C
100
AcDbEntity
  8
0
100
AcDbLine
 62
7
  6
CONTINUOUS
 10
144.8174667867
 20
110.4841405075
 11
144.2818435031
 21
110.0962568921
  0
LWPOLYLINE
  5
24D
100
AcDbEntity
  8
0
100
AcDbPolyline
 62
7
  6
CONTINUOUS
 90
7
 70
0
 10
143.6929289314
 20
110.4836403912
 10
143.7108865916
 20
110.4955031274
 10
143.7279798827
 20
110.5132096279
 10
143.7414875144
 20
110.5348236027
 10
143.7510413929
 20
110.5599637528
 10
143.7570096119
 20
110.5890113771
 10
143.7593921714
 20
110.6219664756
  0
LINE
  5
24E
100
AcDbEntity
  8
0
100
AcDbLine
 62
7
  6
CONTINUOUS
 10
142.3259348964
 20
108.0539387306
 11
142.339788331
 21
108.0620298251
  0
LINE
  5
24F
100
AcDbEntity
  8
0
100
AcDbLine
 62
7
  6
CONTINUOUS
 10
142.6331368603
 20
108.8995078038
 11
142.6194484666
 21
108.891536218
  0
LINE
  5
250
100
AcDbEntity
  8
0
100
AcDbLine
 62
7
  6
CONTINUOUS
 10
144.8310892623
 20
110.4920656445
 11
144.8174667867
 21
110.4841405075
  0
LINE
  5
251
100
AcDbEntity
  8
0
100
AcDbLine
 62
7
  6
CONTINUOUS
 10
144.523932061
 20
109.6471982231
 11
144.5374814542
 21
109.655071676
  0
LWPOLYLINE
  5
252
100
AcDbEntity
  8
0
100
AcDbPolyline
 62
7
  6
CONTINUOUS
 90
18
 70
0
 10
142.5175105122
 20
109.6322239365
 10
142.5263128287
 20
109.637162949
 10
142.5446523758
 20
109.651988437
 10
142.5596722781
 20
109.6717160493
 10
142.5715781278
 20
109.6960421876
 10
142.5796008172
 20
109.7233954047
 10
142.5834839774
 20
109.7539755505
 10
142.5834839774
 20
109.7875827752
 10
142.5796008172
 20
109.8220460812
 10
142.5715781278
 20
109.8574219878
 10
142.5596722781
 20
109.8936539757
 10
142.5446523758
 20
109.9284014903
 10
142.5263128287
 20
109.9615665254
 10
142.504859229
 20
109.9932470871
 10
142.4816774604
 20
110.0213966387
 10
142.4572294842
 20
110.0453330015
 10
142.4310533392
 20
110.0657383542
 10
142.4031490253
 20
110.082612697
  0
LWPOLYLINE
  5
253
100
AcDbEntity
  8
0
100
AcDbPolyline
 62
7
  6
CONTINUOUS
 90
23
 70
0
 10
143.2149171377
 20
110.0004866078
 10
143.2089727615
 20
109.9974396575
 10
143.1606537165
 20
109.9655340825
 10
143.1172884787
 20
109.9239210561
 10
143.0805974873
 20
109.8742515017
 10
143.0508490799
 20
109.8162015072
 10
143.0277749188
 20
109.7500949845
 10
143.0122904307
 20
109.6785545933
 10
143.0047007577
 20
109.6013618652
 10
143.0047007577
 20
109.5187352685
 10
143.0122904307
 20
109.4339528675
 10
143.0277749188
 20
109.3469279882
 10
143.0508490799
 20
109.2577473044
 10
143.0805974873
 20
109.1699489024
 10
143.1172884787
 20
109.0835883566
 10
143.1606537165
 20
108.9986100925
 10
143.2089727615
 20
108.9183854725
 10
143.2624447811
 20
108.8431056166
 10
143.3208706079
 20
108.7725794049
 10
143.3819323005
 20
108.7096048401
 10
143.4448572117
 20
108.65511459
 10
143.5104179886
 20
108.6081759869
 10
143.5786146313
 20
108.5687890308
  0
LINE
  5
254
100
AcDbEntity
  8
0
100
AcDbLine
 62
250
  6
CONTINUOUS
 10
144.8174667867
 20
110.4841405075
 11
144.8245378545
 21
110.4876760414
  0
LINE
  5
255
100
AcDbEntity
  8
0
100
AcDbLine
 62
250
  6
CONTINUOUS
 10
144.2818435031
 20
110.0962568921
 11
144.2889145709
 21
110.099792426
  0
LINE
  5
256
100
AcDbEntity
  8
0
100
AcDbLine
 62
250
  6
CONTINUOUS
 10
142.6194484666
 20
108.891536218
 11
142.6265195344
 21
108.895071752
  0
LINE
  5
257
100
AcDbEntity
  8
0
100
AcDbLine
 62
250
  6
CONTINUOUS
 10
142.0838260929
 20
108.5028272585
 11
142.0908971607
 21
108.5063627924
  0
LINE
  5
258
100
AcDbEntity
  8
DRAFT
100
AcDbLine
 62
7
  6
CONTINUOUS
 10
153.1245561773
 20
114.7296221572
 11
151.9891822646
 21
114.1720886607
  0
LINE
  5
259
100
AcDbEntity
  8
0
100
AcDbLine
 62
7
  6
CONTINUOUS
 10
151.9931853274
 20
114.1639367323
 11
149.1872779734
 21
112.7860495606
  0
LWPOLYLINE
  5
25A
100
AcDbEntity
  8
0
100
AcDbPolyline
 62
7
  6
CONTINUOUS
 90
15
 70
0
 10
143.578878866
 20
91.6746730927
 10
143.6072975069
 20
91.657425901
 10
143.6338956461
 20
91.6365424196
 10
143.6586732835
 20
91.6120226485
 10
143.6821161664
 20
91.5831222124
 10
143.7037385476
 20
91.5505854867
 10
143.7220831855
 20
91.5166455969
 10
143.7366898057
 20
91.4813704487
 10
143.7480186826
 20
91.4446921364
 10
143.7559933976
 20
91.4086400694
 10
143.7596131994
 20
91.3743293599
 10
143.7598788392
 20
91.3406448957
 10
143.7597161522
 20
91.3062707492
 10
143.7599522959
 20
91.2708559693
 10
143.7595839652
 20
91.197694288
  0
LWPOLYLINE
  5
25B
100
AcDbEntity
  8
0
100
AcDbPolyline
 62
7
  6
CONTINUOUS
 90
7
 70
0
 10
144.6716522959
 20
88.2249808197
 10
144.6933754398
 20
88.2004131344
 10
144.7164108294
 20
88.1790328737
 10
144.7420097494
 20
88.1608379889
 10
144.768920915
 20
88.1458305286
 10
144.795156532
 20
88.1356807919
 10
144.8205755499
 20
88.1309493861
  0
LINE
  5
25C
100
AcDbEntity
  8
0
100
AcDbLine
 62
7
  6
CONTINUOUS
 10
144.6262373582
 20
88.2784753889
 11
144.6716522959
 21
88.2249808197
  0
LWPOLYLINE
  5
25D
100
AcDbEntity
  8
0
100
AcDbPolyline
 62
7
  6
CONTINUOUS
 90
12
 70
0
 10
144.5888417363
 20
88.824274259
 10
144.5612940765
 20
88.8569467712
 10
144.535354325
 20
88.8880097102
 10
144.5103235785
 20
88.9172182114
 10
144.4849219324
 20
88.9421079868
 10
144.4584020129
 20
88.9620938694
 10
144.4315111937
 20
88.9777610262
 10
144.4052116925
 20
88.9884006704
 10
144.3792722855
 20
88.9937908279
 10
144.3539241964
 20
88.9941534729
 10
144.3308233133
 20
88.9894457412
 10
144.3187255378
 20
88.9843588347
  0
LWPOLYLINE
  5
25E
100
AcDbEntity
  8
0
100
AcDbPolyline
 62
7
  6
CONTINUOUS
 90
12
 70
0
 10
142.5703900091
 20
90.7486654561
 10
142.5971552524
 20
90.7168859789
 10
142.622468771
 20
90.6864463512
 10
142.6469225156
 20
90.6577443795
 10
142.6718788088
 20
90.6331673071
 10
142.6981252933
 20
90.6132138499
 10
142.7248743263
 20
90.5973852921
 10
142.7511253014
 20
90.58657273
 10
142.7771158594
 20
90.5810345525
 10
142.8026083595
 20
90.5805123707
 10
142.8258892732
 20
90.5851221138
 10
142.8385484402
 20
90.5904227063
  0
LWPOLYLINE
  5
25F
100
AcDbEntity
  8
0
100
AcDbPolyline
 62
7
  6
CONTINUOUS
 90
12
 70
0
 10
144.6010805855
 20
88.296995011
 10
144.6280742028
 20
88.2648967239
 10
144.6534993996
 20
88.2342710973
 10
144.6780526018
 20
88.205420243
 10
144.7032332582
 20
88.1806703194
 10
144.7299631187
 20
88.16046341
 10
144.7573204333
 20
88.1443574312
 10
144.7840394013
 20
88.133352291
 10
144.8102596095
 20
88.1277791787
 10
144.835841471
 20
88.1273069049
 10
144.8591004243
 20
88.1319418094
 10
144.8713871564
 20
88.1370654857
  0
LINE
  5
260
100
AcDbEntity
  8
0
100
AcDbLine
 62
7
  6
CONTINUOUS
 10
144.3903403903
 20
88.5633693557
 11
144.4342591438
 21
88.5111376201
  0
LWPOLYLINE
  5
261
100
AcDbEntity
  8
0
100
AcDbPolyline
 62
7
  6
CONTINUOUS
 90
10
 70
0
 10
142.5736093187
 20
90.7569910188
 10
142.5998693446
 20
90.7256739134
 10
142.6243706607
 20
90.6957023116
 10
142.6479521951
 20
90.6673210161
 10
142.6724821211
 20
90.6425221586
 10
142.6990373387
 20
90.6214105355
 10
142.7265409481
 20
90.6038813504
 10
142.7536304228
 20
90.5916123458
 10
142.7804784525
 20
90.5851043704
 10
142.8069123477
 20
90.5838565755
  0
LINE
  5
262
100
AcDbEntity
  8
0
100
AcDbLine
 62
7
  6
CONTINUOUS
 10
142.3736252862
 20
90.985582889
 11
142.4282160115
 21
90.9204956089
  0
LINE
  5
263
100
AcDbEntity
  8
0
100
AcDbLine
 62
7
  6
CONTINUOUS
 10
144.7850653065
 20
88.5879158816
 11
144.7312302412
 21
88.6521217754
  0
LINE
  5
264
100
AcDbEntity
  8
0
100
AcDbLine
 62
7
  6
CONTINUOUS
 10
142.7523387623
 20
91.0414040392
 11
142.6981225668
 21
91.1062015152
  0
LWPOLYLINE
  5
265
100
AcDbEntity
  8
0
100
AcDbPolyline
 62
7
  6
CONTINUOUS
 90
11
 70
0
 10
142.5555835473
 20
91.2788947209
 10
142.5025284815
 20
91.3421387809
 10
142.4776397932
 20
91.3711323547
 10
142.4523196363
 20
91.395847738
 10
142.4257807639
 20
91.4157260037
 10
142.398810423
 20
91.4313260789
 10
142.3724628463
 20
91.4418963789
 10
142.3465391872
 20
91.4471903079
 10
142.3212382925
 20
91.4474544616
 10
142.2982109343
 20
91.4426770421
 10
142.2865060457
 20
91.4377413279
  0
LINE
  5
266
100
AcDbEntity
  8
0
100
AcDbLine
 62
7
  6
CONTINUOUS
 10
144.4056130028
 20
88.5330253071
 11
144.4595206993
 21
88.4684899786
  0
LINE
  5
267
100
AcDbEntity
  8
0
100
AcDbLine
 62
7
  6
CONTINUOUS
 10
142.3833122818
 20
90.98614491
 11
142.4630682742
 21
90.8905542101
  0
LINE
  5
268
100
AcDbEntity
  8
0
100
AcDbLine
 62
7
  6
CONTINUOUS
 10
144.4342591438
 20
88.5111376201
 11
144.578455516
 21
88.3368201203
  0
LINE
  5
269
100
AcDbEntity
  8
0
100
AcDbLine
 62
7
  6
CONTINUOUS
 10
142.4630682742
 20
90.8905542101
 11
142.5736093187
 21
90.7569910188
  0
LINE
  5
26A
100
AcDbEntity
  8
0
100
AcDbLine
 62
7
  6
CONTINUOUS
 10
142.4282160115
 20
90.9204956089
 11
142.5703900091
 21
90.7486654561
  0
LINE
  5
26B
100
AcDbEntity
  8
0
100
AcDbLine
 62
7
  6
CONTINUOUS
 10
144.7312302412
 20
88.6521217754
 11
144.5888417363
 21
88.824274259
  0
LINE
  5
26C
100
AcDbEntity
  8
0
100
AcDbLine
 62
7
  6
CONTINUOUS
 10
144.4595206993
 20
88.4684899786
 11
144.6010805855
 21
88.296995011
  0
LINE
  5
26D
100
AcDbEntity
  8
0
100
AcDbLine
 62
7
  6
CONTINUOUS
 10
142.6981225668
 20
91.1062015152
 11
142.5555835473
 21
91.2788947209
  0
LINE
  5
26E
100
AcDbEntity
  8
0
100
AcDbLine
 62
7
  6
CONTINUOUS
 10
144.578455516
 20
88.3368201203
 11
144.6262373582
 21
88.2784753889
  0
LINE
  5
26F
100
AcDbEntity
  8
0
100
AcDbLine
 62
7
  6
CONTINUOUS
 10
142.3223409929
 20
91.0481589022
 11
142.3736252862
 21
90.985582889
  0
LINE
  5
270
100
AcDbEntity
  8
0
100
AcDbLine
 62
7
  6
CONTINUOUS
 10
144.8356762225
 20
88.5261436148
 11
144.7850653065
 21
88.5879158816
  0
LINE
  5
271
100
AcDbEntity
  8
0
100
AcDbLine
 62
7
  6
CONTINUOUS
 10
142.8032760005
 20
90.9790862555
 11
142.7523387623
 21
91.0414040392
  0
LINE
  5
272
100
AcDbEntity
  8
0
100
AcDbLine
 62
7
  6
CONTINUOUS
 10
138.6769503747
 20
86.6280616571
 11
138.68317458
 21
86.4467643867
  0
LINE
  5
273
100
AcDbEntity
  8
0
100
AcDbLine
 62
7
  6
CONTINUOUS
 10
138.6769503747
 20
106.1136332423
 11
138.68317458
 21
105.9323359718
  0
LINE
  5
274
100
AcDbEntity
  8
0
100
AcDbLine
 62
7
  6
CONTINUOUS
 10
138.6769503747
 20
98.5556417748
 11
138.68317458
 21
98.0237157545
  0
LINE
  5
275
100
AcDbEntity
  8
0
100
AcDbLine
 62
7
  6
CONTINUOUS
 10
138.6769503747
 20
118.04121336
 11
138.68317458
 21
117.5092873396
  0
LINE
  5
276
100
AcDbEntity
  8
0
100
AcDbLine
 62
7
  6
CONTINUOUS
 10
138.6769503747
 20
118.04121336
 11
138.6769503747
 21
106.1136332423
  0
LINE
  5
277
100
AcDbEntity
  8
0
100
AcDbLine
 62
7
  6
CONTINUOUS
 10
138.6769503747
 20
98.5556417748
 11
138.6769503747
 21
86.6280616571
  0
LINE
  5
278
100
AcDbEntity
  8
0
100
AcDbLine
 62
7
  6
CONTINUOUS
 10
138.68317458
 20
117.5092873396
 11
138.68317458
 21
105.9323359718
  0
LINE
  5
279
100
AcDbEntity
  8
0
100
AcDbLine
 62
7
  6
CONTINUOUS
 10
138.68317458
 20
98.0237157545
 11
138.68317458
 21
86.4467643867
  0
LWPOLYLINE
  5
27A
100
AcDbEntity
  8
0
100
AcDbPolyline
 62
7
  6
CONTINUOUS
 90
8
 70
0
 10
142.0553564903
 20
111.8090323213
 10
142.044460894
 20
111.7787451224
 10
142.039217741
 20
111.7437658336
 10
142.0391641997
 20
111.7044786513
 10
142.0443049073
 20
111.6642862198
 10
142.0546414096
 20
111.6243227537
 10
142.0701721607
 20
111.5834540385
 10
142.0908971607
 20
111.5416800739
  0
LWPOLYLINE
  5
27B
100
AcDbEntity
  8
0
100
AcDbPolyline
 62
7
  6
CONTINUOUS
 90
13
 70
0
 10
141.4960937165
 20
110.4323783901
 10
141.4831038788
 20
110.4041287897
 10
141.4747805719
 20
110.3702461883
 10
141.4718457108
 20
110.333669364
 10
141.4747805719
 20
110.2941576785
 10
141.4831038788
 20
110.2519517702
 10
141.4960937165
 20
110.2107123321
 10
141.5141668828
 20
110.1705256858
 10
141.53690658
 20
110.1313055097
 10
141.5623405
 20
110.0964535319
 10
141.5898112069
 20
110.0671036618
 10
141.6199761367
 20
110.0421219901
 10
141.6528352893
 20
110.0215085166
  0
LWPOLYLINE
  5
27C
100
AcDbEntity
  8
0
100
AcDbPolyline
 62
7
  6
CONTINUOUS
 90
19
 70
0
 10
144.2889145709
 20
110.099792426
 10
144.2681086081
 20
110.078816407
 10
144.2525015126
 20
110.053532783
 10
144.2420932843
 20
110.0239415542
 10
144.236883611
 20
109.9889055236
 10
144.2368728049
 20
109.9495618881
 10
144.2420618031
 20
109.9093222382
 10
144.2529149148
 20
109.8681065655
 10
144.2689678308
 20
109.8259948785
 10
144.2888285604
 20
109.7866387926
 10
144.3128371169
 20
109.7502843653
 10
144.3406534869
 20
109.7166855393
 10
144.3698656397
 20
109.6887557573
 10
144.4005982095
 20
109.6670012287
 10
144.4327265621
 20
109.6509157442
 10
144.463464763
 20
109.6418941186
 10
144.4918841676
 20
109.6404012902
 10
144.5189134206
 20
109.6459723206
 10
144.5236343177
 20
109.6479199346
  0
LWPOLYLINE
  5
27D
100
AcDbEntity
  8
0
100
AcDbPolyline
 62
7
  6
CONTINUOUS
 90
22
 70
0
 10
144.2818435031
 20
110.0962568921
 10
144.2638111467
 20
110.0790713154
 10
144.2495338996
 20
110.0583973971
 10
144.239011762
 20
110.0342351371
 10
144.2321784677
 20
110.0058994394
 10
144.2291002827
 20
109.9740753999
 10
144.2299760052
 20
109.9408183074
 10
144.2350666081
 20
109.9060335748
 10
144.2441111184
 20
109.8698157891
 10
144.2565254155
 20
109.8345039997
 10
144.2725319182
 20
109.8001580059
 10
144.2919082077
 20
109.7667180083
 10
144.3134029072
 20
109.7363436588
 10
144.3371558397
 20
109.7092373018
 10
144.3630271822
 20
109.685196593
 10
144.3893460886
 20
109.6657741507
 10
144.4161420996
 20
109.6512747983
 10
144.4433856745
 20
109.6413937125
 10
144.4693173442
 20
109.6367690425
 10
144.4933506193
 20
109.6376135046
 10
144.5160719893
 20
109.6437143824
 10
144.523932061
 20
109.6471982231
  0
LWPOLYLINE
  5
27E
100
AcDbEntity
  8
0
100
AcDbPolyline
 62
7
  6
CONTINUOUS
 90
22
 70
0
 10
145.0732036084
 20
110.0429364076
 10
145.0912433966
 20
110.0601265041
 10
145.1055260441
 20
110.0808067266
 10
145.1160515508
 20
110.1049770751
 10
145.1228861934
 20
110.1333231691
 10
145.1259636952
 20
110.165159389
 10
145.1250852266
 20
110.1984288761
 10
145.1199895767
 20
110.2332262683
 10
145.1109379564
 20
110.2694569276
 10
145.0985151682
 20
110.3047800816
 10
145.0824986157
 20
110.3391358079
 10
145.0631108953
 20
110.3725840288
 10
145.0416045994
 20
110.4029637382
 10
145.0178398394
 20
110.4300723237
 10
144.9919565039
 20
110.4541123975
 10
144.9656268506
 20
110.4735307906
 10
144.9388214093
 20
110.4880223355
 10
144.9115696503
 20
110.4978921997
 10
144.8856322417
 20
110.5025027156
 10
144.8615960729
 20
110.5016413277
 10
144.8388742546
 20
110.4955205917
 10
144.8310892623
 20
110.4920656445
  0
LWPOLYLINE
  5
27F
100
AcDbEntity
  8
0
100
AcDbPolyline
 62
7
  6
CONTINUOUS
 90
22
 70
0
 10
142.8752859789
 20
108.4502512214
 10
142.8933379254
 20
108.4674439717
 10
142.9076303389
 20
108.488129555
 10
142.9181632193
 20
108.5123079712
 10
142.9250029283
 20
108.5406654275
 10
142.9280831042
 20
108.5725157168
 10
142.927204662
 20
108.6058002179
 10
142.9221061054
 20
108.6406136712
 10
142.9130489307
 20
108.6768613364
 10
142.900618542
 20
108.7122003709
 10
142.8845921134
 20
108.7465707528
 10
142.8651924708
 20
108.7800325042
 10
142.8436734966
 20
108.8104228479
 10
142.819895193
 20
108.8375388947
 10
142.7939975579
 20
108.8615835339
 10
142.7676544667
 20
108.8810026571
 10
142.7408364936
 20
108.8954907144
 10
142.7135730645
 20
108.9053532557
 10
142.687626332
 20
108.9099528225
 10
142.6635836803
 20
108.9090769288
 10
142.6408577252
 20
108.9029380606
 10
142.6331368603
 20
108.8995078038
  0
LINE
  5
280
100
AcDbEntity
  8
0
100
AcDbLine
 62
7
  6
CONTINUOUS
 10
142.339788331
 20
108.0620298251
 11
142.8752859789
 21
108.4502512214
  0
LINE
  5
281
100
AcDbEntity
  8
0
100
AcDbLine
 62
7
  6
CONTINUOUS
 10
144.5374814542
 20
109.655071676
 11
145.0732036084
 21
110.0429364076
  0
LWPOLYLINE
  5
282
100
AcDbEntity
  8
0
100
AcDbPolyline
 62
7
  6
CONTINUOUS
 90
7
 70
0
 10
143.4642005548
 20
108.0625813377
 10
143.4462461856
 20
108.050721333
 10
143.4291528383
 20
108.0330163602
 10
143.4156448557
 20
108.0114040354
 10
143.4060903094
 20
107.9862656006
 10
143.4001211276
 20
107.9572198138
 10
143.3977373105
 20
107.9242666749
  0
LWPOLYLINE
  5
283
100
AcDbEntity
  8
0
100
AcDbPolyline
 62
7
  6
CONTINUOUS
 90
18
 70
0
 10
144.6394973593
 20
108.9143143517
 10
144.6307129214
 20
108.9093867615
 10
144.6123679537
 20
108.8945629211
 10
144.597343479
 20
108.874834966
 10
144.5854337902
 20
108.8505067101
 10
144.5774084867
 20
108.8231502354
 10
144.5735241015
 20
108.7925655519
 10
144.5735241015
 20
108.7589526497
 10
144.5774084867
 20
108.724483581
 10
144.5854337902
 20
108.6891018028
 10
144.597343479
 20
108.652863858
 10
144.6123679537
 20
108.6181114283
 10
144.6307129214
 20
108.5849426201
 10
144.652172675
 20
108.553259327
 10
144.6753604939
 20
108.5251089105
 10
144.6998141378
 20
108.5011738246
 10
144.7259958469
 20
108.4807716154
 10
144.7539056212
 20
108.4639022829
  0
LWPOLYLINE
  5
284
100
AcDbEntity
  8
0
100
AcDbPolyline
 62
7
  6
CONTINUOUS
 90
13
 70
0
 10
144.2952618826
 20
108.0685223197
 10
144.2917937371
 20
108.0666586232
 10
144.2724054654
 20
108.0525862181
 10
144.2563912629
 20
108.0342333754
 10
144.2439740949
 20
108.0113172348
 10
144.2349309961
 20
107.9841206564
 10
144.2298466734
 20
107.9544021115
 10
144.2289827308
 20
107.9219949434
 10
144.2320775644
 20
107.8870658087
 10
144.2389310689
 20
107.8518731488
 10
144.2494765427
 20
107.8171697775
 10
144.2637806874
 20
107.782202881
 10
144.2818435031
 20
107.7469724593
  0
LWPOLYLINE
  5
285
100
AcDbEntity
  8
0
100
AcDbPolyline
 62
7
  6
CONTINUOUS
 90
23
 70
0
 10
143.9423121249
 20
108.5456966524
 10
143.9482565011
 20
108.5487436027
 10
143.9965755461
 20
108.5806491777
 10
144.0399407839
 20
108.622262204
 10
144.0766317753
 20
108.6719317585
 10
144.1063801827
 20
108.729981753
 10
144.1294543438
 20
108.7960882757
 10
144.1449388319
 20
108.8676286669
 10
144.1525285049
 20
108.944821395
 10
144.1525285049
 20
109.0274479916
 10
144.1449388319
 20
109.1122303927
 10
144.1294543438
 20
109.199255272
 10
144.1063801827
 20
109.2884359557
 10
144.0766317753
 20
109.3762343578
 10
144.0399407839
 20
109.4625949036
 10
143.9965755461
 20
109.5475731677
 10
143.9482565011
 20
109.6277977877
 10
143.8947844815
 20
109.7030776436
 10
143.8363586547
 20
109.7736038553
 10
143.7752969621
 20
109.83657842
 10
143.7123720509
 20
109.8910686702
 10
143.646811274
 20
109.9380072733
 10
143.5786146313
 20
109.9773942294
  0
LINE
  5
286
100
AcDbEntity
  8
0
100
AcDbLine
 62
250
  6
CONTINUOUS
 10
143.3977373105
 20
107.9242666749
 11
143.4048083783
 21
107.9278022088
  0
LINE
  5
287
100
AcDbEntity
  8
0
100
AcDbLine
 62
250
  6
CONTINUOUS
 10
144.7539056212
 20
108.4639022829
 11
144.760976689
 21
108.4674378168
  0
LINE
  5
288
100
AcDbEntity
  8
0
100
AcDbLine
 62
250
  6
CONTINUOUS
 10
144.2818435031
 20
107.7469724593
 11
144.2889145709
 21
107.7505079932
  0
LINE
  5
289
100
AcDbEntity
  8
0
100
AcDbLine
 62
250
  6
CONTINUOUS
 10
145.511614712
 20
108.0850477375
 11
145.5186857798
 21
108.0885832714
  0
LINE
  5
28A
100
AcDbEntity
  8
0
100
AcDbLine
 62
7
  6
CONTINUOUS
 10
148.9462282286
 20
93.2428595323
 11
148.4740546826
 21
93.1282757032
  0
LINE
  5
28B
100
AcDbEntity
  8
0
100
AcDbLine
 62
7
  6
CONTINUOUS
 10
149.1872779734
 20
93.3004779755
 11
148.9462282286
 21
93.2428595323
  0
LINE
  5
28C
100
AcDbEntity
  8
0
100
AcDbLine
 62
7
  6
CONTINUOUS
 10
138.9911422697
 20
98.6026598549
 11
138.8523440266
 21
98.1463204433
  0
LINE
  5
28D
100
AcDbEntity
  8
0
100
AcDbLine
 62
7
  6
CONTINUOUS
 10
139.0626999816
 20
98.8352118241
 11
138.9911422697
 21
98.6026598549
  0
LWPOLYLINE
  5
28E
100
AcDbEntity
  8
0
100
AcDbPolyline
 62
7
  6
CONTINUOUS
 90
3
 70
0
 10
148.8015283664
 20
113.4513692168
 10
148.3865447335
 20
112.9948806686
 10
148.304885236
 20
112.9056214238
  0
LWPOLYLINE
  5
28F
100
AcDbEntity
  8
0
100
AcDbPolyline
 62
7
  6
CONTINUOUS
 90
7
 70
0
 10
143.6929289272
 20
106.676849272
 10
143.7108832963
 20
106.6887092767
 10
143.7279766436
 20
106.7064142495
 10
143.7414846263
 20
106.7280265742
 10
143.7510391726
 20
106.7531650091
 10
143.7570083543
 20
106.7822107959
 10
143.7593921714
 20
106.8151639348
  0
LWPOLYLINE
  5
290
100
AcDbEntity
  8
0
100
AcDbPolyline
 62
7
  6
CONTINUOUS
 90
18
 70
0
 10
145.6259761989
 20
108.0779910932
 10
145.6347785154
 20
108.0829301056
 10
145.6531180625
 20
108.0977555937
 10
145.6681379648
 20
108.1174832059
 10
145.6800438145
 20
108.1418093442
 10
145.6880665039
 20
108.1691625613
 10
145.6919496641
 20
108.1997427072
 10
145.6919496641
 20
108.2333499318
 10
145.6880665039
 20
108.2678132378
 10
145.6800438145
 20
108.3031891444
 10
145.6681379648
 20
108.3394211324
 10
145.6531180625
 20
108.3741686469
 10
145.6347785154
 20
108.407333682
 10
145.6133249157
 20
108.4390142437
 10
145.5901431471
 20
108.4671637954
 10
145.5656951709
 20
108.4911001582
 10
145.5395190259
 20
108.5115055109
 10
145.511614712
 20
108.5283798536
  0
LWPOLYLINE
  5
291
100
AcDbEntity
  8
0
100
AcDbPolyline
 62
7
  6
CONTINUOUS
 90
13
 70
0
 10
145.0596041841
 20
106.6871368602
 10
145.0629266568
 20
106.6889184385
 10
145.082317215
 20
106.702941617
 10
145.0983401426
 20
106.721243568
 10
145.1107730141
 20
106.7441068962
 10
145.119838255
 20
106.7712489969
 10
145.1249500219
 20
106.8009158054
 10
145.1258471954
 20
106.8332740735
 10
145.122790895
 20
106.8681570494
 10
145.1159786346
 20
106.9033104121
 10
145.1054762525
 20
106.9379827214
 10
145.0912179104
 20
106.9729254176
 10
145.0732036084
 20
107.0081385007
  0
LINE
  5
292
100
AcDbEntity
  8
0
100
AcDbLine
 62
250
  6
CONTINUOUS
 10
143.3977373105
 20
106.9959913653
 11
143.4048083783
 21
106.9995268992
  0
LINE
  5
293
100
AcDbEntity
  8
0
100
AcDbLine
 62
250
  6
CONTINUOUS
 10
144.8174667867
 20
106.8231905973
 11
144.8245378545
 21
106.8267261312
  0
LINE
  5
294
100
AcDbEntity
  8
DRAFT
100
AcDbLine
 62
7
  6
CONTINUOUS
 10
153.1296329756
 20
111.4549378467
 11
153.377120349
 21
111.5733907481
  0
LINE
  5
295
100
AcDbEntity
  8
0
100
AcDbLine
 62
7
  6
CONTINUOUS
 10
148.304885236
 20
93.4200498386
 11
138.8523440266
 21
98.1463204433
  0
LWPOLYLINE
  5
296
100
AcDbEntity
  8
0
100
AcDbPolyline
 62
7
  6
CONTINUOUS
 90
3
 70
0
 10
143.4162968828
 20
111.8054298399
 10
143.4082214555
 20
111.7725563089
 10
143.4048083783
 20
111.7340548234
  0
LWPOLYLINE
  5
297
100
AcDbEntity
  8
0
100
AcDbPolyline
 62
7
  6
CONTINUOUS
 90
3
 70
0
 10
143.4162968828
 20
107.9991772253
 10
143.4082214555
 20
107.9663036943
 10
143.4048083783
 20
107.9278022088
  0
LWPOLYLINE
  5
298
100
AcDbEntity
  8
0
100
AcDbPolyline
 62
7
  6
CONTINUOUS
 90
8
 70
0
 10
144.2527780619
 20
108.0183669731
 10
144.2419259062
 20
107.9879795912
 10
144.2367455652
 20
107.9529000933
 10
144.2367715953
 20
107.9135135262
 10
144.2420017369
 20
107.8732391105
 10
144.2524352367
 20
107.8332165866
 10
144.2680728481
 20
107.7923062142
 10
144.2889145709
 20
107.7505079932
  0
LWPOLYLINE
  5
299
100
AcDbEntity
  8
0
100
AcDbPolyline
 62
7
  6
CONTINUOUS
 90
13
 70
0
 10
144.6041960904
 20
108.8783437617
 10
144.5912022261
 20
108.8500916919
 10
144.5828761625
 20
108.8162044309
 10
144.5799402791
 20
108.7796220798
 10
144.5828761625
 20
108.7401038453
 10
144.5912022261
 20
108.6978905207
 10
144.6041960904
 20
108.6566445866
 10
144.6222748007
 20
108.6164524747
 10
144.6450213115
 20
108.5772277533
 10
144.6704621073
 20
108.5423736083
 10
144.6979393496
 20
108.5130244348
 10
144.7281108768
 20
108.4880458377
 10
144.760976689
 20
108.4674378168
  0
LINE
  5
29A
100
AcDbEntity
  8
0
100
AcDbLine
 62
7
  6
CONTINUOUS
 10
148.8015283664
 20
93.9657976317
 11
139.0626999816
 21
98.8352118241
  0
LWPOLYLINE
  5
29B
100
AcDbEntity
  8
0
100
AcDbPolyline
 62
7
  6
CONTINUOUS
 90
17
 70
0
 10
143.4036609589
 20
88.2348957844
 10
143.405404376
 20
88.2008250157
 10
143.4100347255
 20
88.1661972417
 10
143.4170766993
 20
88.1315457031
 10
143.4274780347
 20
88.0974348698
 10
143.4419408091
 20
88.0633293236
 10
143.4597629451
 20
88.0297644827
 10
143.4797859488
 20
87.9989110723
 10
143.502091853
 20
87.9710020728
 10
143.5265986249
 20
87.9458045038
 10
143.5519016718
 20
87.9247901479
 10
143.5781393492
 20
87.9081669292
 10
143.6051733017
 20
87.8957269237
 10
143.6311838698
 20
87.8883181418
 10
143.6560297298
 20
87.8862950568
 10
143.6798522055
 20
87.8893031953
 10
143.6928581503
 20
87.8939669256
  0
LINE
  5
29C
100
AcDbEntity
  8
0
100
AcDbLine
 62
7
  6
CONTINUOUS
 10
143.3977373105
 20
111.7305192895
 11
143.3977373105
 21
110.8027939061
  0
LINE
  5
29D
100
AcDbEntity
  8
0
100
AcDbLine
 62
7
  6
CONTINUOUS
 10
143.3977373105
 20
107.9242666749
 11
143.3977373105
 21
106.9959913653
  0
LINE
  5
29E
100
AcDbEntity
  8
0
100
AcDbLine
 62
7
  6
CONTINUOUS
 10
143.4048083783
 20
111.7340548234
 11
143.4048083783
 21
110.80632944
  0
LINE
  5
29F
100
AcDbEntity
  8
0
100
AcDbLine
 62
7
  6
CONTINUOUS
 10
143.4048083783
 20
107.9278022088
 11
143.4048083783
 21
106.9995268992
  0
LINE
  5
2A0
100
AcDbEntity
  8
0
100
AcDbLine
 62
7
  6
CONTINUOUS
 10
143.3979449861
 20
91.2511065021
 11
143.3977062094
 21
91.447221057
  0
LINE
  5
2A1
100
AcDbEntity
  8
0
100
AcDbLine
 62
7
  6
CONTINUOUS
 10
143.4046866181
 20
91.4559269617
 11
143.4050163941
 21
91.2543182492
  0
LINE
  5
2A2
100
AcDbEntity
  8
0
100
AcDbLine
 62
7
  6
CONTINUOUS
 10
143.3979364771
 20
88.6693331235
 11
143.3979509427
 21
88.3105569213
  0
LINE
  5
2A3
100
AcDbEntity
  8
0
100
AcDbLine
 62
7
  6
CONTINUOUS
 10
143.4050075449
 20
88.6728686574
 11
143.4050353349
 21
88.3040012795
  0
LINE
  5
2A4
100
AcDbEntity
  8
DRAFT
100
AcDbLine
 62
7
  6
CONTINUOUS
 10
153.1296329756
 20
107.5912969585
 11
153.377120349
 21
107.7203314306
  0
LINE
  5
2A5
100
AcDbEntity
  8
0
100
AcDbLine
 62
7
  6
CONTINUOUS
 10
138.7951880556
 20
105.7375224034
 11
138.8523440266
 21
105.6405618364
  0
LINE
  5
2A6
100
AcDbEntity
  8
0
100
AcDbLine
 62
7
  6
CONTINUOUS
 10
138.7387982401
 20
105.8347804485
 11
138.7951880556
 21
105.7375224034
  0
LINE
  5
2A7
100
AcDbEntity
  8
0
100
AcDbLine
 62
7
  6
CONTINUOUS
 10
138.68317458
 20
105.9323359718
 11
138.7387982401
 21
105.8347804485
  0
LWPOLYLINE
  5
2A8
100
AcDbEntity
  8
0
100
AcDbPolyline
 62
7
  6
CONTINUOUS
 90
14
 70
0
 10
143.4048083783
 20
106.9995268992
 10
143.4082214555
 20
106.9576123365
 10
143.4162968828
 20
106.9166633782
 10
143.4290346603
 20
106.8766800241
 10
143.4470916349
 20
106.836529381
 10
143.4698109597
 20
106.7973443421
 10
143.4952220936
 20
106.7625235881
 10
143.5235654592
 20
106.7324569212
 10
143.554600634
 20
106.7067545391
 10
143.5856358088
 20
106.6876457159
 10
143.6166709836
 20
106.6757193643
 10
143.6477061583
 20
106.6703865716
 10
143.676049524
 20
106.6721098729
 10
143.6925052153
 20
106.6780275221
  0
LWPOLYLINE
  5
2A9
100
AcDbEntity
  8
0
100
AcDbPolyline
 62
7
  6
CONTINUOUS
 90
14
 70
0
 10
143.4048083783
 20
110.80632944
 10
143.4082200287
 20
110.7644139676
 10
143.4162944205
 20
110.7234639191
 10
143.4290315539
 20
110.6834792943
 10
143.4470883221
 20
110.6433270786
 10
143.4698078318
 20
110.6041402868
 10
143.4952194034
 20
110.5693179629
 10
143.5235634973
 20
110.5392499505
 10
143.554599653
 20
110.5135464061
 10
143.5856358088
 20
110.4944368433
 10
143.6166719645
 20
110.4825102504
 10
143.6477081203
 20
110.477177639
 10
143.6760522142
 20
110.4789015574
 10
143.6925052407
 20
110.4848185272
  0
LWPOLYLINE
  5
2AA
100
AcDbEntity
  8
0
100
AcDbPolyline
 62
7
  6
CONTINUOUS
 90
16
 70
0
 10
143.3977373105
 20
106.9959913653
 10
143.4001211276
 20
106.9606544093
 10
143.4060903094
 20
106.9256394407
 10
143.4156448557
 20
106.8909464595
 10
143.4291528383
 20
106.8558261521
 10
143.4462461856
 20
106.8210278321
 10
143.4658206822
 20
106.7887994406
 10
143.4880401354
 20
106.7593106462
 10
143.5127407379
 20
106.7323917803
 10
143.5383268523
 20
106.7097817781
 10
143.5648569408
 20
106.6917651142
 10
143.5922725412
 20
106.678057314
 10
143.6188026297
 20
106.6695438894
 10
143.6443887441
 20
106.6665677772
 10
143.6690893466
 20
106.6687860406
 10
143.6929289272
 20
106.676849272
  0
LWPOLYLINE
  5
2AB
100
AcDbEntity
  8
0
100
AcDbPolyline
 62
7
  6
CONTINUOUS
 90
16
 70
0
 10
143.7593921714
 20
107.7434392444
 10
143.7570083543
 20
107.7787762004
 10
143.7510391726
 20
107.813791169
 10
143.7414846263
 20
107.8484841501
 10
143.7279766436
 20
107.8836044576
 10
143.7108832963
 20
107.9184027776
 10
143.6913087998
 20
107.9506311691
 10
143.6690893466
 20
107.9801199635
 10
143.6443887441
 20
108.0070388294
 10
143.6188026297
 20
108.0296488316
 10
143.5922725412
 20
108.0476654955
 10
143.5648569408
 20
108.0613732957
 10
143.5383268523
 20
108.0698867203
 10
143.5127407379
 20
108.0728628325
 10
143.4880401354
 20
108.0706445691
 10
143.4642005548
 20
108.0625813377
  0
LWPOLYLINE
  5
2AC
100
AcDbEntity
  8
0
100
AcDbPolyline
 62
7
  6
CONTINUOUS
 90
16
 70
0
 10
143.7593921714
 20
111.549691859
 10
143.7570083543
 20
111.585028815
 10
143.7510391726
 20
111.6200437836
 10
143.7414846263
 20
111.6547367648
 10
143.7279766436
 20
111.6898570722
 10
143.7108832963
 20
111.7246553922
 10
143.6913087998
 20
111.7568837838
 10
143.6690893466
 20
111.7863725781
 10
143.6443887441
 20
111.813291444
 10
143.6188026297
 20
111.8359014462
 10
143.5922725412
 20
111.8539181101
 10
143.5648569408
 20
111.8676259103
 10
143.5383268523
 20
111.8761393349
 10
143.5127407379
 20
111.8791154471
 10
143.4880401354
 20
111.8768971837
 10
143.4642005548
 20
111.8688339523
  0
LWPOLYLINE
  5
2AD
100
AcDbEntity
  8
0
100
AcDbPolyline
 62
7
  6
CONTINUOUS
 90
16
 70
0
 10
143.3977373105
 20
110.8027939061
 10
143.4001198701
 20
110.767456248
 10
143.4060880891
 20
110.7324404047
 10
143.4156419675
 20
110.6977463762
 10
143.4291495992
 20
110.6626247697
 10
143.4462428904
 20
110.627824978
 10
143.4658175596
 20
110.5955951791
 10
143.4880374399
 20
110.5661050568
 10
143.5127386983
 20
110.5391849273
 10
143.5383255543
 20
110.5165739173
 10
143.5648564796
 20
110.4985565365
 10
143.5922730024
 20
110.484848275
 10
143.6188039276
 20
110.4763347307
 10
143.6443907836
 20
110.4733588847
 10
143.669092042
 20
110.4755777558
 10
143.6929289314
 20
110.4836403912
  0
LINE
  5
2AE
100
AcDbEntity
  8
0
100
AcDbLine
 62
7
  6
CONTINUOUS
 10
143.7593921714
 20
106.8151639348
 11
143.7593921714
 21
107.7434392444
  0
LINE
  5
2AF
100
AcDbEntity
  8
0
100
AcDbLine
 62
7
  6
CONTINUOUS
 10
143.7593921714
 20
110.6219664756
 11
143.7593921714
 21
111.549691859
  0
LINE
  5
2B0
100
AcDbEntity
  8
0
100
AcDbLine
 62
7
  6
CONTINUOUS
 10
143.7595839652
 20
91.197694288
 11
143.7598214166
 21
91.0015727469
  0
LINE
  5
2B1
100
AcDbEntity
  8
0
100
AcDbLine
 62
7
  6
CONTINUOUS
 10
143.7595917327
 20
88.0315496542
 11
143.7595780595
 21
88.3900172054
  0
LWPOLYLINE
  5
2B2
100
AcDbEntity
  8
0
100
AcDbPolyline
 62
7
  6
CONTINUOUS
 90
15
 70
0
 10
143.4050163941
 20
91.2543182492
 10
143.4045453323
 20
91.1787002747
 10
143.404867457
 20
91.1421252981
 10
143.4050217755
 20
91.1064845182
 10
143.4057427869
 20
91.0715936527
 10
143.4098187575
 20
91.036681576
 10
143.4182706309
 20
91.0009989134
 10
143.4300774635
 20
90.9652950396
 10
143.4449646897
 20
90.931046954
 10
143.4633126947
 20
90.8980467789
 10
143.4847410933
 20
90.8665023918
 10
143.5078341651
 20
90.8385144248
 10
143.5321200033
 20
90.8147830885
 10
143.5580705146
 20
90.7946081721
 10
143.5856856991
 20
90.7779896758
  0
LWPOLYLINE
  5
2B3
100
AcDbEntity
  8
0
100
AcDbPolyline
 62
7
  6
CONTINUOUS
 90
10
 70
0
 10
143.3977062094
 20
91.447221057
 10
143.3979905483
 20
91.4850534906
 10
143.3977997557
 20
91.5209433821
 10
143.3980026494
 20
91.5550680454
 10
143.4015915753
 20
91.586184328
 10
143.409601898
 20
91.6144403643
 10
143.4209982529
 20
91.6396880199
 10
143.4356668927
 20
91.6602397384
 10
143.4540621366
 20
91.6757880816
 10
143.4646370057
 20
91.6818780576
  0
LWPOLYLINE
  5
2B4
100
AcDbEntity
  8
0
100
AcDbPolyline
 62
7
  6
CONTINUOUS
 90
10
 70
0
 10
143.7598214166
 20
91.0015727469
 10
143.7595378611
 20
90.9638770329
 10
143.7597312404
 20
90.9281084482
 10
143.7595323138
 20
90.8941023228
 10
143.7559488715
 20
90.8630731845
 10
143.7479477791
 20
90.8348573735
 10
143.7365621711
 20
90.8096185497
 10
143.7218992409
 20
90.7890622204
 10
143.70350204
 20
90.7734981288
 10
143.6928477519
 20
90.7673561815
  0
LWPOLYLINE
  5
2B5
100
AcDbEntity
  8
0
100
AcDbPolyline
 62
7
  6
CONTINUOUS
 90
18
 70
0
 10
143.7595780595
 20
88.3900172054
 10
143.7608955279
 20
88.4566286268
 10
143.7595786223
 20
88.4898496586
 10
143.7561801047
 20
88.5241460726
 10
143.7508051244
 20
88.5588649927
 10
143.7417910213
 20
88.5934846665
 10
143.7281940731
 20
88.6286754386
 10
143.7109580019
 20
88.6637669645
 10
143.6912513147
 20
88.6962264583
 10
143.6689507954
 20
88.7257732555
 10
143.64417966
 20
88.7526880207
 10
143.6184760629
 20
88.7752799609
 10
143.5917150754
 20
88.7933016363
 10
143.5640216261
 20
88.8070004868
 10
143.5373086551
 20
88.815428039
 10
143.5117112172
 20
88.8182076988
 10
143.4870942575
 20
88.8157160603
 10
143.4644758359
 20
88.8078904907
  0
LWPOLYLINE
  5
2B6
100
AcDbEntity
  8
0
100
AcDbPolyline
 62
7
  6
CONTINUOUS
 90
18
 70
0
 10
143.3979509427
 20
88.3105569213
 10
143.3966271223
 20
88.2438796921
 10
143.3979548644
 20
88.2106272534
 10
143.4013917701
 20
88.1762905962
 10
143.4068189221
 20
88.1415328011
 10
143.4158710038
 20
88.1069073436
 10
143.4294821192
 20
88.0717636242
 10
143.4467181641
 20
88.0367522424
 10
143.4664115092
 20
88.0043784725
 10
143.4886733065
 20
87.9749219339
 10
143.513392404
 20
87.9481030071
 10
143.5390677155
 20
87.9255881075
 10
143.5658467618
 20
87.9076130793
 10
143.5935820222
 20
87.8939420783
 10
143.6203298491
 20
87.8855339874
 10
143.6459487074
 20
87.8827714925
 10
143.6705801322
 20
87.8852719077
 10
143.6931760604
 20
87.8930803562
  0
LINE
  5
2B7
100
AcDbEntity
  8
0
100
AcDbLine
 62
7
  6
CONTINUOUS
 10
143.4050353349
 20
88.3040012795
 11
143.4036609589
 21
88.2348957844
  0
LWPOLYLINE
  5
2B8
100
AcDbEntity
  8
0
100
AcDbPolyline
 62
7
  6
CONTINUOUS
 90
12
 70
0
 10
142.2313562999
 20
91.3482587736
 10
142.2275153791
 20
91.317823987
 10
142.2279310559
 20
91.2840368854
 10
142.2324979921
 20
91.2477466952
 10
142.2409001732
 20
91.2115010955
 10
142.2535092606
 20
91.1755380252
 10
142.2699535929
 20
91.1396195454
 10
142.2888021705
 20
91.1055795186
 10
142.3100918311
 20
91.0748017664
 10
142.333785737
 20
91.0459024672
 10
142.3583423757
 20
91.0165640193
 10
142.3833122818
 20
90.98614491
  0
LWPOLYLINE
  5
2B9
100
AcDbEntity
  8
0
100
AcDbPolyline
 62
7
  6
CONTINUOUS
 90
7
 70
0
 10
138.8523440266
 20
98.1463204433
 10
138.8236702303
 20
98.1265510695
 10
138.7951879894
 20
98.1065157993
 10
138.7668973039
 20
98.0862146327
 10
138.7387981738
 20
98.0656475697
 10
138.7108905992
 20
98.0448146103
 10
138.68317458
 20
98.0237157545
  0
LWPOLYLINE
  5
2BA
100
AcDbEntity
  8
0
100
AcDbPolyline
 62
7
  6
CONTINUOUS
 90
7
 70
0
 10
139.0626999816
 20
98.8352118241
 10
138.996385179
 20
98.7921485146
 10
138.9308657118
 20
98.747662739
 10
138.8661521368
 20
98.7017616665
 10
138.8022548808
 20
98.6544526945
 10
138.7391842394
 20
98.6057434473
 10
138.6769503747
 20
98.5556417748
  0
LINE
  5
2BB
100
AcDbEntity
  8
0
100
AcDbLine
 62
7
  6
CONTINUOUS
 10
141.8016332475
 20
100.2824711025
 11
139.0626999816
 21
98.8352118241
  0
LINE
  5
2BC
100
AcDbEntity
  8
DRAFT
100
AcDbLine
 62
7
  6
CONTINUOUS
 10
142.9330040974
 20
100.8481565274
 11
141.8328709607
 21
100.2668522458
  0
LINE
  5
2BD
100
AcDbEntity
  8
0
100
AcDbLine
 62
7
  6
CONTINUOUS
 10
151.5781356896
 20
95.3942198814
 11
141.8016332475
 21
100.2824711025
  0
LINE
  5
2BE
100
AcDbEntity
  8
RACCORDO
100
AcDbLine
 62
7
  6
CONTINUOUS
 10
146.4396772915
 20
98.805930606
 11
148.6371479204
 21
97.7071952915
  0
LINE
  5
2BF
100
AcDbEntity
  8
RACCORDO
100
AcDbLine
 62
7
  6
CONTINUOUS
 10
152.7095065395
 20
95.9599053064
 11
149.2664007944
 21
97.6814581789
  0
LINE
  5
2C0
100
AcDbEntity
  8
RACCORDO
100
AcDbLine
 62
7
  6
CONTINUOUS
 10
146.3761098424
 20
99.1266036549
 11
142.9330040974
 21
100.8481565274
  0
LINE
  5
2C1
100
AcDbEntity
  8
0
100
AcDbLine
 62
7
  6
CONTINUOUS
 10
138.9210302578
 20
105.5775917907
 11
138.8523440266
 21
105.6405618364
  0
LINE
  5
2C2
100
AcDbEntity
  8
0
100
AcDbLine
 62
7
  6
CONTINUOUS
 10
148.3618325902
 20
93.3234490825
 11
148.304885236
 21
93.4200498386
  0
LINE
  5
2C3
100
AcDbEntity
  8
0
100
AcDbLine
 62
7
  6
CONTINUOUS
 10
148.4182224057
 20
93.2261910374
 11
148.3618325902
 21
93.3234490825
  0
LINE
  5
2C4
100
AcDbEntity
  8
0
100
AcDbLine
 62
7
  6
CONTINUOUS
 10
148.4740546826
 20
93.1282757032
 11
148.4182224057
 21
93.2261910374
  0
LWPOLYLINE
  5
2C5
100
AcDbEntity
  8
0
100
AcDbPolyline
 62
7
  6
CONTINUOUS
 90
11
 70
0
 10
144.2642368462
 20
88.8978703504
 10
144.2601240596
 20
88.8691082537
 10
144.2598722578
 20
88.8372398178
 10
144.263376602
 20
88.8030375195
 10
144.2703225751
 20
88.7688187891
 10
144.2811323474
 20
88.7345611053
 10
144.2953837485
 20
88.7002869893
 10
144.3114957512
 20
88.6683814358
 10
144.3293050202
 20
88.6403920464
 10
144.3489748907
 20
88.6147712194
 10
144.3903403903
 20
88.5633693557
  0
LINE
  5
2C6
100
AcDbEntity
  8
0
100
AcDbLine
 62
7
  6
CONTINUOUS
 10
139.0626999816
 20
105.4483135861
 11
138.9210302578
 21
105.5775917907
  0
LWPOLYLINE
  5
2C7
100
AcDbEntity
  8
0
100
AcDbPolyline
 62
7
  6
CONTINUOUS
 90
7
 70
0
 10
149.1872779734
 20
93.3004779755
 10
149.1250441494
 20
93.4128134398
 10
149.0619735333
 20
93.5245932852
 10
148.9980762866
 20
93.6357994992
 10
148.9333627041
 20
93.7464141618
 10
148.8678432119
 20
93.8564194482
 10
148.8015283664
 20
93.9657976317
  0
LINE
  5
2C8
100
AcDbEntity
  8
RACCORDO
100
AcDbLine
 62
7
  6
CONTINUOUS
 10
146.3761098424
 20
118.61217524
 11
146.3761098424
 21
118.3312245982
  0
LINE
  5
2C9
100
AcDbEntity
  8
RACCORDO
100
AcDbLine
 62
7
  6
CONTINUOUS
 10
146.3761098424
 20
99.1266036549
 11
146.3761098424
 21
98.8456530131
  0
LWPOLYLINE
  5
2CA
100
AcDbEntity
  8
0
100
AcDbPolyline
 62
7
  6
CONTINUOUS
 90
18
 70
0
 10
142.2449795595
 20
89.7241118247
 10
142.2350440524
 20
89.6976484357
 10
142.2290315872
 20
89.6685652646
 10
142.2272423126
 20
89.6367416287
 10
142.2293760799
 20
89.6022982108
 10
142.2352916932
 20
89.5674069906
 10
142.2452446175
 20
89.5320042643
 10
142.2589793878
 20
89.4961537358
 10
142.275588413
 20
89.4622184973
 10
142.2952045532
 20
89.4303974227
 10
142.3176949483
 20
89.4004916381
 10
142.341753427
 20
89.3742676144
 10
142.3676064812
 20
89.351868557
 10
142.3950276189
 20
89.3331512605
 10
142.4220311932
 20
89.3194525799
 10
142.4479553216
 20
89.3112181333
 10
142.4734618865
 20
89.3080023025
 10
142.4985508879
 20
89.3098050874
  0
LWPOLYLINE
  5
2CB
100
AcDbEntity
  8
0
100
AcDbPolyline
 62
7
  6
CONTINUOUS
 90
12
 70
0
 10
142.8807489679
 20
90.6298588222
 10
142.8925554191
 20
90.6547863028
 10
142.900448935
 20
90.6820217395
 10
142.9044295157
 20
90.7115651324
 10
142.9044034197
 20
90.7441593546
 10
142.9004643885
 20
90.7790615329
 10
142.8928936465
 20
90.8140430481
 10
142.8815513207
 20
90.8487795464
 10
142.866577284
 20
90.8835953816
 10
142.8486723797
 20
90.9172349956
 10
142.8274396239
 20
90.9487487361
 10
142.8032760005
 20
90.9790862555
  0
LWPOLYLINE
  5
2CC
100
AcDbEntity
  8
0
100
AcDbPolyline
 62
7
  6
CONTINUOUS
 90
3
 70
0
 10
142.2514919198
 20
91.401619081
 10
142.2393484802
 20
91.3761904716
 10
142.2313562999
 20
91.3482587736
  0
LWPOLYLINE
  5
2CD
100
AcDbEntity
  8
0
100
AcDbPolyline
 62
7
  6
CONTINUOUS
 90
12
 70
0
 10
142.244420852
 20
91.3980835471
 10
142.232558782
 20
91.3734692265
 10
142.2246218573
 20
91.3464317898
 10
142.2206100778
 20
91.3169712371
 10
142.2206093355
 20
91.2843122683
 10
142.2245337385
 20
91.2492301834
 10
142.2321256111
 20
91.2140508822
 10
142.2435385968
 20
91.1791162602
 10
142.2586190521
 20
91.1440844219
 10
142.2766483716
 20
91.1102555803
 10
142.2980202502
 20
91.0786057429
 10
142.3223409929
 20
91.0481589022
  0
LWPOLYLINE
  5
2CE
100
AcDbEntity
  8
0
100
AcDbPolyline
 62
7
  6
CONTINUOUS
 90
7
 70
0
 10
148.304885236
 20
100.9142912317
 10
148.3335590323
 20
100.9340606055
 10
148.3620412733
 20
100.9540958757
 10
148.3903319588
 20
100.9743970423
 10
148.4184310888
 20
100.9949641053
 10
148.4463386634
 20
101.0157970647
 10
148.4740546826
 20
101.0368959206
  0
LINE
  5
2CF
100
AcDbEntity
  8
DRAFT
100
AcDbLine
 62
7
  6
CONTINUOUS
 10
153.1245561773
 20
102.7559009312
 11
151.9931853274
 21
102.2189165651
  0
LINE
  5
2D0
100
AcDbEntity
  8
0
100
AcDbLine
 62
7
  6
CONTINUOUS
 10
151.9931853274
 20
102.1902155062
 11
149.1872779734
 21
100.8584694429
  0
LINE
  5
2D1
100
AcDbEntity
  8
DRAFT
100
AcDbLine
 62
7
  6
CONTINUOUS
 10
152.7095065395
 20
102.4550958347
 11
151.7417693361
 21
101.9983332162
  0
LINE
  5
2D2
100
AcDbEntity
  8
0
100
AcDbLine
 62
7
  6
CONTINUOUS
 10
151.5781356896
 20
101.8894104098
 11
148.8015283664
 21
100.5788993937
  0
LINE
  5
2D3
100
AcDbEntity
  8
0
100
AcDbLine
 62
7
  6
CONTINUOUS
 10
149.1872779734
 20
100.8584694429
 11
148.7086959408
 21
100.9776147482
  0
LINE
  5
2D4
100
AcDbEntity
  8
0
100
AcDbLine
 62
7
  6
CONTINUOUS
 10
148.7086959408
 20
100.9776147482
 11
148.4740546826
 21
101.0368959206
  0
LINE
  5
2D5
100
AcDbEntity
  8
0
100
AcDbLine
 62
7
  6
CONTINUOUS
 10
139.0626999816
 20
105.4483135861
 11
148.8015283664
 21
100.5788993937
  0
LINE
  5
2D6
100
AcDbEntity
  8
0
100
AcDbLine
 62
7
  6
CONTINUOUS
 10
138.8523440266
 20
105.6405618364
 11
148.304885236
 21
100.9142912317
  0
LINE
  5
2D7
100
AcDbEntity
  8
0
100
AcDbLine
 62
7
  6
CONTINUOUS
 10
148.8015283664
 20
100.5788993937
 11
148.304885236
 21
100.9142912317
  0
LINE
  5
2D8
100
AcDbEntity
  8
0
100
AcDbLine
 62
7
  6
CONTINUOUS
 10
148.4740546826
 20
81.5513243354
 11
148.4740546826
 21
93.1282757032
  0
LINE
  5
2D9
100
AcDbEntity
  8
0
100
AcDbLine
 62
7
  6
CONTINUOUS
 10
148.4740546826
 20
101.0368959206
 11
148.4740546826
 21
112.6138472883
  0
LWPOLYLINE
  5
2DA
100
AcDbEntity
  8
0
100
AcDbPolyline
 62
7
  6
CONTINUOUS
 90
4
 70
0
 10
143.4214993006
 20
88.7573099888
 10
143.4124367095
 20
88.7326155601
 10
143.4069394576
 20
88.7044684496
 10
143.4050075449
 20
88.6728686574
  0
LWPOLYLINE
  5
2DB
100
AcDbEntity
  8
0
100
AcDbPolyline
 62
7
  6
CONTINUOUS
 90
7
 70
0
 10
143.4301711021
 20
91.6469698886
 10
143.4183355978
 20
91.6231593451
 10
143.4098766237
 20
91.5958744641
 10
143.4058442662
 20
91.5649568568
 10
143.4051884388
 20
91.530564912
 10
143.4050611622
 20
91.4942414639
 10
143.4046866181
 20
91.4559269617
  0
LWPOLYLINE
  5
2DC
100
AcDbEntity
  8
0
100
AcDbPolyline
 62
7
  6
CONTINUOUS
 90
9
 70
0
 10
151.6259096952
 20
101.9199469134
 10
151.673272186
 20
101.9512070393
 10
151.7202231621
 20
101.9831907874
 10
151.7667663969
 20
102.0159008926
 10
151.8128981169
 20
102.0493346201
 10
151.858607002
 20
102.0834837656
 10
151.9038892787
 20
102.1183455944
 10
151.9487487205
 20
102.1539228413
 10
151.9931853274
 20
102.1902155062
  0
LWPOLYLINE
  5
2DD
100
AcDbEntity
  8
0
100
AcDbPolyline
 62
7
  6
CONTINUOUS
 90
7
 70
0
 10
148.8015283664
 20
100.5788993937
 10
148.867843169
 20
100.6219627031
 10
148.9333626362
 20
100.6664484788
 10
148.9980762113
 20
100.7123495513
 10
149.0619734672
 20
100.7596585232
 10
149.1250441086
 20
100.8083677704
 10
149.1872779734
 20
100.8584694429
  0
LINE
  5
2DE
100
AcDbEntity
  8
0
100
AcDbLine
 62
7
  6
CONTINUOUS
 10
151.5781356896
 20
101.8894104098
 11
151.6259096952
 21
101.9199469134
  0
LWPOLYLINE
  5
2DF
100
AcDbEntity
  8
DRAFT
100
AcDbPolyline
 62
7
  6
CONTINUOUS
 90
10
 70
0
 10
152.7095065395
 20
102.4550958347
 10
152.7572805451
 20
102.4856323383
 10
152.8046430359
 20
102.5168924642
 10
152.851594012
 20
102.5488762124
 10
152.8981372468
 20
102.5815863176
 10
152.9442689668
 20
102.6150200451
 10
152.9899778519
 20
102.6491691906
 10
153.0352601286
 20
102.6840310194
 10
153.0801195704
 20
102.7196082663
 10
153.1245561773
 20
102.7559009312
  0
LWPOLYLINE
  5
2E0
100
AcDbEntity
  8
0
100
AcDbPolyline
 62
7
  6
CONTINUOUS
 90
10
 70
0
 10
142.6265195344
 20
110.6176237037
 10
142.6521599093
 20
110.5793065244
 10
142.6791952978
 20
110.546665429
 10
142.7076256999
 20
110.5197004176
 10
142.7383808861
 20
110.4979465265
 10
142.770531086
 20
110.4818687194
 10
142.8012869879
 20
110.4728618869
 10
142.8305240216
 20
110.4715577677
 10
142.8583667573
 20
110.4773246231
 10
142.8615175445
 20
110.4786183835
  0
LWPOLYLINE
  5
2E1
100
AcDbEntity
  8
0
100
AcDbPolyline
 62
7
  6
CONTINUOUS
 90
10
 70
0
 10
144.8245378545
 20
106.8267261312
 10
144.8501363786
 20
106.788431501
 10
144.8771324542
 20
106.7558043198
 10
144.9055260814
 20
106.7288445875
 10
144.9362461965
 20
106.7070869286
 10
144.9683638631
 20
106.6909967187
 10
144.9990922724
 20
106.6819700847
 10
145.0283072899
 20
106.6806381789
 10
145.0561330501
 20
106.686369849
 10
145.0593739709
 20
106.6876984362
  0
LWPOLYLINE
  5
2E2
100
AcDbEntity
  8
0
100
AcDbPolyline
 62
7
  6
CONTINUOUS
 90
11
 70
0
 10
142.339788331
 20
111.7229797353
 10
142.3184090028
 20
111.7557269242
 10
142.2957166702
 20
111.7845382347
 10
142.2717113334
 20
111.8094136668
 10
142.2458077909
 20
111.830726862
 10
142.2185912442
 20
111.8481041788
 10
142.1918172974
 20
111.8604246929
 10
142.1655151277
 20
111.8673550474
 10
142.1396555579
 20
111.8692285991
 10
142.1159066604
 20
111.8659244946
 10
142.0976817666
 20
111.8588556922
  0
LWPOLYLINE
  5
2E3
100
AcDbEntity
  8
0
100
AcDbPolyline
 62
7
  6
CONTINUOUS
 90
11
 70
0
 10
142.6194484666
 20
110.6140881698
 10
142.6408582175
 20
110.5812850802
 10
142.6635837574
 20
110.5524277561
 10
142.6876250864
 20
110.5275161976
 10
142.7135693656
 20
110.5061757362
 10
142.7408294338
 20
110.4887810403
 10
142.7676438075
 20
110.4764561156
 10
142.7939830529
 20
110.4695357708
 10
142.8198766037
 20
110.4676851972
 10
142.8436512777
 20
110.4710239747
 10
142.8617474269
 20
110.4780585344
  0
LWPOLYLINE
  5
2E4
100
AcDbEntity
  8
0
100
AcDbPolyline
 62
7
  6
CONTINUOUS
 90
11
 70
0
 10
144.5374814542
 20
107.9325197243
 10
144.5160742006
 20
107.9653226843
 10
144.4933509435
 20
107.9941788165
 10
144.469311683
 20
108.0190881207
 10
144.4433689216
 20
108.0404254067
 10
144.4161101567
 20
108.0578158648
 10
144.3892978804
 20
108.070135066
 10
144.3629615975
 20
108.0770478913
 10
144.3370718032
 20
108.0788894597
 10
144.3133024748
 20
108.0755406995
 10
144.2952618826
 20
108.0685223197
  0
LWPOLYLINE
  5
2E5
100
AcDbEntity
  8
0
100
AcDbPolyline
 62
7
  6
CONTINUOUS
 90
11
 70
0
 10
144.8174667867
 20
106.8231905973
 10
144.8388410307
 20
106.7904074115
 10
144.8615326201
 20
106.761563608
 10
144.885541555
 20
106.7366591865
 10
144.9114544218
 20
106.7153193102
 10
144.938684634
 20
106.6979188161
 10
144.9654724326
 20
106.6855822152
 10
144.991788597
 20
106.678643968
 10
145.0176623478
 20
106.676769614
 10
145.0414215875
 20
106.680080284
 10
145.0596041841
 20
106.6871368602
  0
LINE
  5
2E6
100
AcDbEntity
  8
0
100
AcDbLine
 62
7
  6
CONTINUOUS
 10
142.8752859789
 20
110.7995356542
 11
142.339788331
 21
111.7229797353
  0
LINE
  5
2E7
100
AcDbEntity
  8
0
100
AcDbLine
 62
7
  6
CONTINUOUS
 10
142.0838260929
 20
111.53814454
 11
142.6194484666
 21
110.6140881698
  0
LINE
  5
2E8
100
AcDbEntity
  8
0
100
AcDbLine
 62
7
  6
CONTINUOUS
 10
144.2818435031
 20
107.7469724593
 11
144.8174667867
 21
106.8231905973
  0
LINE
  5
2E9
100
AcDbEntity
  8
0
100
AcDbLine
 62
7
  6
CONTINUOUS
 10
142.0908971607
 20
111.5416800739
 11
142.6265195344
 21
110.6176237037
  0
LINE
  5
2EA
100
AcDbEntity
  8
0
100
AcDbLine
 62
7
  6
CONTINUOUS
 10
144.2889145709
 20
107.7505079932
 11
144.8245378545
 21
106.8267261312
  0
LINE
  5
2EB
100
AcDbEntity
  8
0
100
AcDbLine
 62
7
  6
CONTINUOUS
 10
145.0732036084
 20
107.0081385007
 11
144.5374814542
 21
107.9325197243
  0
LWPOLYLINE
  5
2EC
100
AcDbEntity
  8
0
100
AcDbPolyline
 62
7
  6
CONTINUOUS
 90
10
 70
0
 10
151.9931853274
 20
94.6783651471
 10
151.9487487205
 20
94.7590944189
 10
151.9038892787
 20
94.8395311076
 10
151.858607002
 20
94.9196752132
 10
151.8128981169
 20
94.9995332438
 10
151.7667663969
 20
95.0790986913
 10
151.7202231621
 20
95.1583520312
 10
151.673272186
 20
95.2372867555
 10
151.6259096952
 20
95.3159093722
 10
151.5781356896
 20
95.3942198814
  0
LINE
  5
2ED
100
AcDbEntity
  8
0
100
AcDbLine
 62
7
  6
CONTINUOUS
 10
149.1872779734
 20
81.3728978578
 11
149.1872779734
 21
93.3004779755
  0
LINE
  5
2EE
100
AcDbEntity
  8
0
100
AcDbLine
 62
7
  6
CONTINUOUS
 10
149.1872779734
 20
100.8584694429
 11
149.1872779734
 21
112.7860495606
  0
LWPOLYLINE
  5
2EF
100
AcDbEntity
  8
0
100
AcDbPolyline
 62
7
  6
CONTINUOUS
 90
12
 70
0
 10
144.913255273
 20
88.1764959314
 10
144.9250339043
 20
88.2014139985
 10
144.9328936873
 20
88.2286965944
 10
144.9368346219
 20
88.2583437193
 10
144.9367580688
 20
88.2911393203
 10
144.9327626674
 20
88.3262994503
 10
144.9251443357
 20
88.3614722672
 10
144.9137541011
 20
88.3962977245
 10
144.8987409363
 20
88.4311358687
 10
144.8808476778
 20
88.4647149977
 10
144.859701997
 20
88.4960588138
 10
144.8356762225
 20
88.5261436148
  0
LWPOLYLINE
  5
2F0
100
AcDbEntity
  8
0
100
AcDbPolyline
 62
7
  6
CONTINUOUS
 90
14
 70
0
 10
144.2766597892
 20
88.9448574226
 10
144.2647841795
 20
88.9200399307
 10
144.2568600056
 20
88.892820176
 10
144.2528872676
 20
88.8631981584
 10
144.2529652816
 20
88.8303776991
 10
144.2569947315
 20
88.7951549769
 10
144.2646776681
 20
88.7599185283
 10
144.2761710785
 20
88.7250401254
 10
144.2913179756
 20
88.6901479961
 10
144.3093494496
 20
88.6565153602
 10
144.3306408967
 20
88.6251305267
 10
144.3548169206
 20
88.5950051866
 10
144.3799824227
 20
88.5644476325
 10
144.4056130028
 20
88.5330253071
  0
LWPOLYLINE
  5
2F1
100
AcDbEntity
  8
0
100
AcDbPolyline
 62
7
  6
CONTINUOUS
 90
3
 70
0
 10
144.283730857
 20
88.9483929565
 10
144.2721057786
 20
88.9242985846
 10
144.2642368462
 20
88.8978703504
  0
LWPOLYLINE
  5
2F2
100
AcDbEntity
  8
0
100
AcDbPolyline
 62
7
  6
CONTINUOUS
 90
19
 70
0
 10
144.2857614291
 20
90.1599699322
 10
144.2739363128
 20
90.1371888682
 10
144.2653244989
 20
90.1103526387
 10
144.2604807508
 20
90.0812321192
 10
144.2596458514
 20
90.0497807448
 10
144.2625790176
 20
90.0160450804
 10
144.2691126643
 20
89.9819356965
 10
144.2794824711
 20
89.9473390415
 10
144.2934527584
 20
89.912368667
 10
144.3101489014
 20
89.8792757983
 10
144.3297339961
 20
89.848224423
 10
144.3520449466
 20
89.8190505535
 10
144.3757178407
 20
89.7935134528
 10
144.4007765682
 20
89.7718241568
 10
144.4271972393
 20
89.7537716296
 10
144.4535442723
 20
89.7404820262
 10
144.47933914
 20
89.7323307318
 10
144.5050603695
 20
89.7289423612
 10
144.5307079609
 20
89.7303169144
  0
LWPOLYLINE
  5
2F3
100
AcDbEntity
  8
DRAFT
100
AcDbPolyline
 62
7
  6
CONTINUOUS
 90
10
 70
0
 10
153.1245561773
 20
95.2440505721
 10
153.0801195704
 20
95.3247798439
 10
153.0352601286
 20
95.4052165326
 10
152.9899778519
 20
95.4853606381
 10
152.9442689668
 20
95.5652186687
 10
152.8981372468
 20
95.6447841162
 10
152.851594012
 20
95.7240374562
 10
152.8046430359
 20
95.8029721804
 10
152.7572805451
 20
95.8815947972
 10
152.7095065395
 20
95.9599053064
  0
LINE
  5
2F4
100
AcDbEntity
  8
RACCORDO
100
AcDbLine
 62
7
  6
CONTINUOUS
 10
153.1245561773
 20
114.6895452304
 11
153.1299275656
 21
114.7222113591
  0
LWPOLYLINE
  5
2F5
100
AcDbEntity
  8
0
100
AcDbPolyline
 62
7
  6
CONTINUOUS
 90
21
 70
0
 10
143.2992974074
 20
90.2660125801
 10
143.2694123524
 20
90.2373403899
 10
143.2441580173
 20
90.2032246841
 10
143.2237795237
 20
90.1635527969
 10
143.20803175
 20
90.118437394
 10
143.1974701684
 20
90.0694538165
 10
143.192280169
 20
90.0162689207
 10
143.1922763618
 20
89.9592158502
 10
143.197458049
 20
89.9008693772
 10
143.2080078464
 20
89.8413933893
 10
143.2237431382
 20
89.7806239989
 10
143.2441153801
 20
89.7206443148
 10
143.2693727192
 20
89.6613003195
 10
143.2992670083
 20
89.6027460305
 10
143.3325052614
 20
89.5475266097
 10
143.3691673059
 20
89.4958701077
 10
143.4091733144
 20
89.4475484738
 10
143.4509908182
 20
89.4044227178
 10
143.4941089944
 20
89.3671131761
 10
143.539038666
 20
89.3349995124
 10
143.5857798329
 20
89.3080817264
  0
LWPOLYLINE
  5
2F6
100
AcDbEntity
  8
RACCORDO
100
AcDbPolyline
 62
7
  6
CONTINUOUS
 90
3
 70
0
 10
153.1328040772
 20
84.4646712926
 10
153.1295126908
 20
84.5223893421
 10
153.1245561773
 20
84.5518052647
  0
LWPOLYLINE
  5
2F7
100
AcDbEntity
  8
RACCORDO
100
AcDbPolyline
 62
7
  6
CONTINUOUS
 90
12
 70
0
 10
153.1328040772
 20
95.2899888399
 10
153.1295126908
 20
95.3477068894
 10
153.1201456326
 20
95.4032985187
 10
153.105173852
 20
95.4570559506
 10
153.0839891121
 20
95.5108480655
 10
153.0565188957
 20
95.5635206458
 10
153.0248060363
 20
95.6112875627
 10
152.9896261769
 20
95.6539615033
 10
152.9502493902
 20
95.6927004778
 10
152.9081714195
 20
95.7261260031
 10
152.864504228
 20
95.7538330461
 10
152.8211006324
 20
95.7753034087
  0
LINE
  5
2F8
100
AcDbEntity
  8
0
100
AcDbLine
 62
7
  6
CONTINUOUS
 10
151.9931853274
 20
82.7046439211
 11
151.9931853274
 21
94.6783651471
  0
LINE
  5
2F9
100
AcDbEntity
  8
0
100
AcDbLine
 62
7
  6
CONTINUOUS
 10
151.9931853274
 20
102.1902155062
 11
151.9931853274
 21
114.1639367323
  0
LINE
  5
2FA
100
AcDbEntity
  8
DRAFT
100
AcDbLine
 62
7
  6
CONTINUOUS
 10
153.1245561773
 20
83.270329346
 11
153.1245561773
 21
95.2440505721
  0
LINE
  5
2FB
100
AcDbEntity
  8
DRAFT
100
AcDbLine
 62
7
  6
CONTINUOUS
 10
153.1245561773
 20
102.7559009312
 11
153.1245561773
 21
114.7296221572
  0
LINE
  5
2FC
100
AcDbEntity
  8
DRAFT
100
AcDbLine
 62
7
  6
CONTINUOUS
 10
153.1296329756
 20
88.1057253734
 11
153.1296329756
 21
91.9693662616
  0
LINE
  5
2FD
100
AcDbEntity
  8
DRAFT
100
AcDbLine
 62
7
  6
CONTINUOUS
 10
153.1296329756
 20
107.5912969585
 11
153.1296329756
 21
111.4549378467
  0
LINE
  5
2FE
100
AcDbEntity
  8
RACCORDO
100
AcDbLine
 62
7
  6
CONTINUOUS
 10
153.1299275656
 20
114.7222113591
 11
153.1328040772
 21
114.775560436
  0
LWPOLYLINE
  5
2FF
100
AcDbEntity
  8
RACCORDO
100
AcDbPolyline
 62
7
  6
CONTINUOUS
 90
3
 70
0
 10
153.1245561773
 20
103.8642276831
 10
153.1299275656
 20
103.8968938118
 10
153.1328040772
 20
103.9502428887
  0
LWPOLYLINE
  5
300
100
AcDbEntity
  8
0
100
AcDbPolyline
 62
7
  6
CONTINUOUS
 90
3
 70
0
 10
148.8015283664
 20
93.9657976317
 10
148.3865447335
 20
93.5093090835
 10
148.304885236
 20
93.4200498386
  0
LWPOLYLINE
  5
301
100
AcDbEntity
  8
0
100
AcDbPolyline
 62
7
  6
CONTINUOUS
 90
4
 70
0
 10
142.2865060457
 20
91.4377413279
 10
142.2780073702
 20
91.4328541169
 10
142.2600773428
 20
91.4179896186
 10
142.244420852
 20
91.3980835471
  0
LINE
  5
302
100
AcDbEntity
  8
0
100
AcDbLine
 62
7
  6
CONTINUOUS
 10
145.5186857798
 20
108.0885832714
 11
145.5515449324
 21
108.0763375922
  0
LINE
  5
303
100
AcDbEntity
  8
0
100
AcDbLine
 62
7
  6
CONTINUOUS
 10
142.4102200931
 20
109.6428161147
 11
142.4430792457
 21
109.6305704355
  0
LWPOLYLINE
  5
304
100
AcDbEntity
  8
0
100
AcDbPolyline
 62
7
  6
CONTINUOUS
 90
6
 70
0
 10
145.511614712
 20
108.0850477375
 10
145.5395190259
 20
108.0740177663
 10
145.5656951709
 20
108.068246974
 10
145.5901431471
 20
108.0677353606
 10
145.6133249157
 20
108.0727031437
 10
145.6259761989
 20
108.0779910932
  0
LWPOLYLINE
  5
305
100
AcDbEntity
  8
0
100
AcDbPolyline
 62
7
  6
CONTINUOUS
 90
6
 70
0
 10
142.4031490253
 20
109.6392805808
 10
142.4310533392
 20
109.6282506096
 10
142.4572294842
 20
109.6224798174
 10
142.4816774604
 20
109.621968204
 10
142.504859229
 20
109.626935987
 10
142.5175105122
 20
109.6322239365
  0
LWPOLYLINE
  5
306
100
AcDbEntity
  8
0
100
AcDbPolyline
 62
7
  6
CONTINUOUS
 90
6
 70
0
 10
144.7539056212
 20
108.907234399
 10
144.7259958469
 20
108.9182748408
 10
144.6998141378
 20
108.9240543407
 10
144.6753604939
 20
108.9245728987
 10
144.652172675
 20
108.9196103011
 10
144.6394973593
 20
108.9143143517
  0
LWPOLYLINE
  5
307
100
AcDbEntity
  8
0
100
AcDbPolyline
 62
7
  6
CONTINUOUS
 90
5
 70
0
 10
143.5856856991
 20
108.5723245647
 10
143.6627636601
 20
108.5406493353
 10
143.7361190564
 20
108.5218422516
 10
143.8057518879
 20
108.5159033134
 10
143.8727141008
 20
108.5231674061
  0
LWPOLYLINE
  5
308
100
AcDbEntity
  8
0
100
AcDbPolyline
 62
7
  6
CONTINUOUS
 90
7
 70
0
 10
143.5786146313
 20
108.5687890308
 10
143.646811274
 20
108.5399793442
 10
143.7123720509
 20
108.5213571704
 10
143.7752969621
 20
108.5129225093
 10
143.8363586547
 20
108.5148353815
 10
143.8947844815
 20
108.5269357664
 10
143.9423121249
 20
108.5456966524
  0
LINE
  5
309
100
AcDbEntity
  8
0
100
AcDbLine
 62
7
  6
CONTINUOUS
 10
141.6457642215
 20
110.0179729827
 11
142.4031490253
 21
109.6392805808
  0
LINE
  5
30A
100
AcDbEntity
  8
0
100
AcDbLine
 62
7
  6
CONTINUOUS
 10
144.7539056212
 20
108.4639022829
 11
145.511614712
 21
108.0850477375
  0
LINE
  5
30B
100
AcDbEntity
  8
0
100
AcDbLine
 62
7
  6
CONTINUOUS
 10
141.6528352893
 20
110.0215085166
 11
142.4102200931
 21
109.6428161147
  0
LINE
  5
30C
100
AcDbEntity
  8
0
100
AcDbLine
 62
7
  6
CONTINUOUS
 10
144.760976689
 20
108.4674378168
 11
145.5186857798
 21
108.0885832714
  0
LINE
  5
30D
100
AcDbEntity
  8
0
100
AcDbLine
 62
7
  6
CONTINUOUS
 10
145.511614712
 20
108.5283798536
 11
144.7539056212
 21
108.907234399
  0
LINE
  5
30E
100
AcDbEntity
  8
0
100
AcDbLine
 62
7
  6
CONTINUOUS
 10
142.4031490253
 20
110.082612697
 11
141.6457642215
 21
110.4613050989
  0
LWPOLYLINE
  5
30F
100
AcDbEntity
  8
RACCORDO
100
AcDbPolyline
 62
7
  6
CONTINUOUS
 90
3
 70
0
 10
153.1328040772
 20
103.9502428778
 10
153.1295126908
 20
104.0079609273
 10
153.1245561773
 20
104.0373768499
  0
LWPOLYLINE
  5
310
100
AcDbEntity
  8
RACCORDO
100
AcDbPolyline
 62
7
  6
CONTINUOUS
 90
12
 70
0
 10
153.1328040772
 20
114.7755604251
 10
153.1295126908
 20
114.8332784746
 10
153.1201456326
 20
114.8888701038
 10
153.105173852
 20
114.9426275358
 10
153.0839891121
 20
114.9964196506
 10
153.0565188957
 20
115.049092231
 10
153.0248060363
 20
115.0968591478
 10
152.9896261769
 20
115.1395330884
 10
152.9502493902
 20
115.1782720629
 10
152.9081714195
 20
115.2116975882
 10
152.864504228
 20
115.2394046313
 10
152.8211006324
 20
115.2608749939
  0
LINE
  5
311
100
AcDbEntity
  8
DRAFT
100
AcDbLine
 62
7
  6
CONTINUOUS
 10
153.377120349
 20
88.2347598455
 11
153.377120349
 21
92.0878191629
  0
LINE
  5
312
100
AcDbEntity
  8
RACCORDO
100
AcDbLine
 62
7
  6
CONTINUOUS
 10
153.377120349
 20
92.0878191629
 11
153.377120349
 21
92.5737516552
  0
LINE
  5
313
100
AcDbEntity
  8
DRAFT
100
AcDbLine
 62
7
  6
CONTINUOUS
 10
153.377120349
 20
107.7203314306
 11
153.377120349
 21
111.5733907481
  0
LINE
  5
314
100
AcDbEntity
  8
RACCORDO
100
AcDbLine
 62
7
  6
CONTINUOUS
 10
153.377120349
 20
111.5733907481
 11
153.377120349
 21
112.0593232404
  0
LINE
  5
315
100
AcDbEntity
  8
RACCORDO
100
AcDbLine
 62
7
  6
CONTINUOUS
 10
153.1299275656
 20
95.2366397739
 11
153.1328040772
 21
95.2899888509
  0
LINE
  5
316
100
AcDbEntity
  8
RACCORDO
100
AcDbLine
 62
7
  6
CONTINUOUS
 10
153.1245561773
 20
95.2039736452
 11
153.1299275656
 21
95.2366397739
  0
LWPOLYLINE
  5
317
100
AcDbEntity
  8
0
100
AcDbPolyline
 62
7
  6
CONTINUOUS
 90
7
 70
0
 10
143.4644758359
 20
88.8078904907
 10
143.4454397536
 20
88.7950337854
 10
143.4284022093
 20
88.776843149
 10
143.4150167286
 20
88.7550309245
 10
143.4056712479
 20
88.7300865789
 10
143.3999778308
 20
88.7015206452
 10
143.3979364771
 20
88.6693331235
  0
LWPOLYLINE
  5
318
100
AcDbEntity
  8
0
100
AcDbPolyline
 62
7
  6
CONTINUOUS
 90
21
 70
0
 10
144.319635694
 20
90.1915564139
 10
144.2984054229
 20
90.1781817053
 10
144.2822063025
 20
90.1614922705
 10
144.2694459323
 20
90.139362529
 10
144.2598357301
 20
90.1129376059
 10
144.254083221
 20
90.084022431
 10
144.25246848
 20
90.0525529213
 10
144.2547114321
 20
90.0185931598
 10
144.2606793767
 20
89.9841403254
 10
144.2706205437
 20
89.9490837422
 10
144.2842867033
 20
89.9135340862
 10
144.3008004654
 20
89.8798205641
 10
144.320334554
 20
89.8481029541
 10
144.3427162451
 20
89.8182214781
 10
144.366549977
 20
89.7920260084
 10
144.3918749034
 20
89.7697323429
 10
144.4186518706
 20
89.7511246839
 10
144.4453678555
 20
89.7374055102
 10
144.471518517
 20
89.7289756483
 10
144.4976081962
 20
89.7254342717
 10
144.5236368931
 20
89.7267813805
  0
LWPOLYLINE
  5
319
100
AcDbEntity
  8
0
100
AcDbPolyline
 62
7
  6
CONTINUOUS
 90
21
 70
0
 10
142.8378412595
 20
89.3827853841
 10
142.8589878691
 20
89.3960816751
 10
142.875252253
 20
89.4128918709
 10
142.8880505543
 20
89.435286682
 10
142.8976652348
 20
89.4620769373
 10
142.9033573907
 20
89.4914050092
 10
142.9048287306
 20
89.5233646394
 10
142.902377546
 20
89.5578620862
 10
142.8961598082
 20
89.5927584962
 10
142.8859206173
 20
89.6281234325
 10
142.8719148733
 20
89.6638873321
 10
142.8550632471
 20
89.6977026524
 10
142.8352129958
 20
89.7293902087
 10
142.8125168624
 20
89.7591291857
 10
142.7883537472
 20
89.7851095955
 10
142.7625061057
 20
89.8071364548
 10
142.7351914824
 20
89.8254047469
 10
142.7084414116
 20
89.8386894332
 10
142.6829330713
 20
89.8465821675
 10
142.6579892834
 20
89.8494912961
 10
142.6336100479
 20
89.8474168189
  0
LWPOLYLINE
  5
31A
100
AcDbEntity
  8
0
100
AcDbPolyline
 62
7
  6
CONTINUOUS
 90
4
 70
0
 10
142.8385484402
 20
90.5904227063
 10
142.8463874245
 20
90.594902425
 10
142.8646739894
 20
90.6098146611
 10
142.8807489679
 20
90.6298588222
  0
LWPOLYLINE
  5
31B
100
AcDbEntity
  8
0
100
AcDbPolyline
 62
7
  6
CONTINUOUS
 90
22
 70
0
 10
142.2871154356
 20
89.7710090529
 10
142.2849085838
 20
89.7698508122
 10
142.265527075
 20
89.7572910739
 10
142.2493436345
 20
89.7403600933
 10
142.2366439036
 20
89.7178976499
 10
142.2271422409
 20
89.6910639642
 10
142.2215615055
 20
89.661694928
 10
142.2201986999
 20
89.6296807795
 10
142.2227568216
 20
89.5951312806
 10
142.2290677225
 20
89.5602116083
 10
142.2393827596
 20
89.5248606163
 10
142.2534505759
 20
89.489139451
 10
142.2703489526
 20
89.4553967287
 10
142.290209505
 20
89.4238330743
 10
142.3129006178
 20
89.3942478631
 10
142.337105226
 20
89.3683878371
 10
142.3631251354
 20
89.3464160035
 10
142.3906585403
 20
89.3281693552
 10
142.4174829594
 20
89.3149056139
 10
142.4428575655
 20
89.3070440201
 10
142.4675231857
 20
89.3041653333
 10
142.4914798201
 20
89.3062695535
  0
LINE
  5
31C
100
AcDbEntity
  8
0
100
AcDbLine
 62
7
  6
CONTINUOUS
 10
151.5781356896
 20
95.3942198814
 11
148.8015283664
 21
93.9657976317
  0
LINE
  5
31D
100
AcDbEntity
  8
DRAFT
100
AcDbLine
 62
7
  6
CONTINUOUS
 10
152.7095065395
 20
95.9599053064
 11
151.584789104
 21
95.3812869843
  0
LWPOLYLINE
  5
31E
100
AcDbEntity
  8
0
100
AcDbPolyline
 62
7
  6
CONTINUOUS
 90
23
 70
0
 10
143.3296382719
 20
90.2866195311
 10
143.3254546465
 20
90.2844701573
 10
143.2922309789
 20
90.2624809788
 10
143.2623461456
 20
90.233811378
 10
143.237091336
 20
90.1996962601
 10
143.2167112557
 20
90.1600213604
 10
143.2009611991
 20
90.1149009437
 10
143.1903982379
 20
90.0659127096
 10
143.1852083212
 20
90.0127247082
 10
143.1852054998
 20
89.9556688894
 10
143.1903889987
 20
89.8973188025
 10
143.2009419406
 20
89.8378366913
 10
143.2166812028
 20
89.7770603119
 10
143.237056642
 20
89.7170764826
 10
143.2623160169
 20
89.6577330779
 10
143.2922115689
 20
89.5991822232
 10
143.3254498793
 20
89.5439671125
 10
143.3621102553
 20
89.4923157461
 10
143.4021133897
 20
89.4440001236
 10
143.4439279419
 20
89.4008794377
 10
143.4870434652
 20
89.3635734194
 10
143.5319704062
 20
89.3314623377
 10
143.5787087651
 20
89.3045461925
  0
LINE
  5
31F
100
AcDbEntity
  8
DRAFT
100
AcDbLine
 62
7
  6
CONTINUOUS
 10
153.1245561773
 20
95.2440505721
 11
151.9891822646
 21
94.6865170755
  0
LINE
  5
320
100
AcDbEntity
  8
0
100
AcDbLine
 62
7
  6
CONTINUOUS
 10
151.9931853274
 20
94.6783651471
 11
149.1872779734
 21
93.3004779755
  0
LWPOLYLINE
  5
321
100
AcDbEntity
  8
0
100
AcDbPolyline
 62
7
  6
CONTINUOUS
 90
6
 70
0
 10
143.6928477519
 20
90.7673561815
 10
143.6818275168
 20
90.7626165318
 10
143.6583537104
 20
90.7571937068
 10
143.6335733006
 20
90.7574884131
 10
143.6069936075
 20
90.7632418915
 10
143.5786146313
 20
90.7744541419
  0
LWPOLYLINE
  5
322
100
AcDbEntity
  8
0
100
AcDbPolyline
 62
7
  6
CONTINUOUS
 90
6
 70
0
 10
143.4646370057
 20
91.6818780576
 10
143.4757296654
 20
91.6866404879
 10
143.4991927733
 20
91.6920317162
 10
143.523959225
 20
91.6917066863
 10
143.5505212559
 20
91.6859204784
 10
143.578878866
 20
91.6746730927
  0
LWPOLYLINE
  5
323
100
AcDbEntity
  8
0
100
AcDbPolyline
 62
7
  6
CONTINUOUS
 90
6
 70
0
 10
141.6457642215
 20
110.4613050989
 10
141.6178599076
 20
110.47233507
 10
141.5916837626
 20
110.4781058623
 10
141.5672357864
 20
110.4786174757
 10
141.5440540178
 20
110.4736496926
 10
141.5314027347
 20
110.4683617431
  0
LWPOLYLINE
  5
324
100
AcDbEntity
  8
0
100
AcDbPolyline
 62
7
  6
CONTINUOUS
 90
7
 70
0
 10
143.5786146313
 20
109.9773942294
 10
143.5104179886
 20
110.006203916
 10
143.4448572117
 20
110.0248260898
 10
143.3819323005
 20
110.0332607509
 10
143.3208706079
 20
110.0313478787
 10
143.2624447811
 20
110.0192474938
 10
143.2149171377
 20
110.0004866078
  0
LINE
  5
325
100
AcDbEntity
  8
0
100
AcDbLine
 62
7
  6
CONTINUOUS
 10
148.3618325902
 20
112.8090206677
 11
148.304885236
 21
112.9056214238
  0
LINE
  5
326
100
AcDbEntity
  8
0
100
AcDbLine
 62
7
  6
CONTINUOUS
 10
148.4182224057
 20
112.7117626225
 11
148.3618325902
 21
112.8090206677
  0
LINE
  5
327
100
AcDbEntity
  8
0
100
AcDbLine
 62
7
  6
CONTINUOUS
 10
148.4740546826
 20
112.6138472883
 11
148.4182224057
 21
112.7117626225
  0
LWPOLYLINE
  5
328
100
AcDbEntity
  8
RACCORDO
100
AcDbPolyline
 62
7
  6
CONTINUOUS
 90
3
 70
0
 10
153.1245561773
 20
84.3786560979
 10
153.1299275656
 20
84.4113222266
 10
153.1328040772
 20
84.4646713036
  0
LWPOLYLINE
  5
329
100
AcDbEntity
  8
0
100
AcDbPolyline
 62
7
  6
CONTINUOUS
 90
7
 70
0
 10
143.6931760604
 20
87.8930803562
 10
143.7121945735
 20
87.9059090887
 10
143.7291775901
 20
87.9240458544
 10
143.7425220248
 20
87.945821754
 10
143.7518505093
 20
87.9707585869
 10
143.7575404119
 20
87.9993345536
 10
143.7595917327
 20
88.0315496542
  0
LWPOLYLINE
  5
32A
100
AcDbEntity
  8
0
100
AcDbPolyline
 62
7
  6
CONTINUOUS
 90
21
 70
0
 10
144.8700141283
 20
89.8040698432
 10
144.8873760099
 20
89.814037487
 10
144.9044477907
 20
89.8298923266
 10
144.9180687815
 20
89.8516289994
 10
144.9285384838
 20
89.8779067271
 10
144.9350286571
 20
89.9068859275
 10
144.9372303399
 20
89.9386672709
 10
144.9354524937
 20
89.973150087
 10
144.9297937615
 20
90.0081927836
 10
144.9199776253
 20
90.0438955542
 10
144.9062806032
 20
90.0801582052
 10
144.8896308927
 20
90.1145385628
 10
144.8698630364
 20
90.1468629895
 10
144.8471424916
 20
90.1773051229
 10
144.8228938275
 20
90.2039437015
 10
144.7969229014
 20
90.2265594094
 10
144.7694238559
 20
90.2453715625
 10
144.7424036887
 20
90.2591168467
 10
144.7165313991
 20
90.2673741573
 10
144.6911379877
 20
90.270564599
 10
144.6662234547
 20
90.2686881718
  0
LWPOLYLINE
  5
32B
100
AcDbEntity
  8
0
100
AcDbPolyline
 62
7
  6
CONTINUOUS
 90
4
 70
0
 10
144.3187255378
 20
88.9843588347
 10
144.3105215992
 20
88.9796533449
 10
144.2924670911
 20
88.9647905721
 10
144.2766597892
 20
88.9448574226
  0
LWPOLYLINE
  5
32C
100
AcDbEntity
  8
0
100
AcDbPolyline
 62
7
  6
CONTINUOUS
 90
23
 70
0
 10
143.8278018597
 20
89.2886448533
 10
143.8319878611
 20
89.2907949864
 10
143.8652021392
 20
89.3127777006
 10
143.8950709859
 20
89.3414351149
 10
143.920307101
 20
89.3755233678
 10
143.9406654914
 20
89.4151392657
 10
143.9563911502
 20
89.4601860021
 10
143.9669317572
 20
89.5091292968
 10
143.9721033405
 20
89.5623197644
 10
143.9720898719
 20
89.6194067902
 10
143.9668909468
 20
89.6778042503
 10
143.9563197579
 20
89.7373616384
 10
143.9405631123
 20
89.7982294609
 10
143.9201810273
 20
89.8582731119
 10
143.8949315158
 20
89.9176190909
 10
143.8650565648
 20
89.9761408985
 10
143.8318421523
 20
90.031324431
 10
143.7952126532
 20
90.0829454257
 10
143.7552436926
 20
90.1312281453
 10
143.7134481247
 20
90.1743312746
 10
143.6703302342
 20
90.2116410419
 10
143.6253857364
 20
90.2437712189
 10
143.5786146313
 20
90.2707218056
  0
LWPOLYLINE
  5
32D
100
AcDbEntity
  8
0
100
AcDbPolyline
 62
7
  6
CONTINUOUS
 90
7
 70
0
 10
149.1872779734
 20
112.7860495606
 10
149.1250441494
 20
112.8983850249
 10
149.0619735333
 20
113.0101648703
 10
148.9980762866
 20
113.1213710844
 10
148.9333627041
 20
113.231985747
 10
148.8678432119
 20
113.3419910334
 10
148.8015283664
 20
113.4513692168
  0
LWPOLYLINE
  5
32E
100
AcDbEntity
  8
0
100
AcDbPolyline
 62
7
  6
CONTINUOUS
 90
4
 70
0
 10
144.8713871564
 20
88.1370654857
 10
144.8794749488
 20
88.1416860052
 10
144.897526565
 20
88.1565373792
 10
144.913255273
 20
88.1764959314
  0
LINE
  5
32F
100
AcDbEntity
  8
DRAFT
100
AcDbLine
 62
7
  6
CONTINUOUS
 10
153.1296329756
 20
91.9693662616
 11
153.377120349
 21
92.0878191629
  0
LINE
  5
330
100
AcDbEntity
  8
0
100
AcDbLine
 62
7
  6
CONTINUOUS
 10
148.9462282286
 20
112.7284311175
 11
148.4740546826
 21
112.6138472883
  0
LINE
  5
331
100
AcDbEntity
  8
0
100
AcDbLine
 62
7
  6
CONTINUOUS
 10
149.1872779734
 20
112.7860495606
 11
148.9462282286
 21
112.7284311175
  0
LINE
  5
332
100
AcDbEntity
  8
0
100
AcDbLine
 62
7
  6
CONTINUOUS
 10
148.304885236
 20
112.9056214238
 11
138.8523440266
 21
117.6318920284
  0
LINE
  5
333
100
AcDbEntity
  8
0
100
AcDbLine
 62
7
  6
CONTINUOUS
 10
148.8015283664
 20
113.4513692168
 11
139.0626999816
 21
118.3207834092
  0
LWPOLYLINE
  5
334
100
AcDbEntity
  8
0
100
AcDbPolyline
 62
7
  6
CONTINUOUS
 90
10
 70
0
 10
151.9931853274
 20
114.1639367323
 10
151.9487487205
 20
114.2446660041
 10
151.9038892787
 20
114.3251026928
 10
151.858607002
 20
114.4052467983
 10
151.8128981169
 20
114.4851048289
 10
151.7667663969
 20
114.5646702764
 10
151.7202231621
 20
114.6439236164
 10
151.673272186
 20
114.7228583406
 10
151.6259096952
 20
114.8014809574
 10
151.5781356896
 20
114.8797914666
  0
LWPOLYLINE
  5
335
100
AcDbEntity
  8
DRAFT
100
AcDbPolyline
 62
7
  6
CONTINUOUS
 90
10
 70
0
 10
153.1245561773
 20
114.7296221572
 10
153.0801195704
 20
114.810351429
 10
153.0352601286
 20
114.8907881177
 10
152.9899778519
 20
114.9709322233
 10
152.9442689668
 20
115.0507902539
 10
152.8981372468
 20
115.1303557014
 10
152.851594012
 20
115.2096090413
 10
152.8046430359
 20
115.2885437656
 10
152.7572805451
 20
115.3671663823
 10
152.7095065395
 20
115.4454768915
  0
LINE
  5
336
100
AcDbEntity
  8
DRAFT
100
AcDbLine
 62
7
  6
CONTINUOUS
 10
153.1296329756
 20
88.1057253734
 11
153.377120349
 21
88.2347598455
  0
LINE
  5
337
100
AcDbEntity
  8
0
100
AcDbLine
 62
7
  6
CONTINUOUS
 10
151.5781356896
 20
114.8797914666
 11
141.8016332475
 21
119.7680426876
  0
LINE
  5
338
100
AcDbEntity
  8
RACCORDO
100
AcDbLine
 62
7
  6
CONTINUOUS
 10
146.4396772915
 20
118.2915021912
 11
148.6371479204
 21
117.1927668767
  0
LINE
  5
339
100
AcDbEntity
  8
RACCORDO
100
AcDbLine
 62
7
  6
CONTINUOUS
 10
152.7095065395
 20
115.4454768915
 11
149.2664007944
 21
117.167029764
  0
LINE
  5
33A
100
AcDbEntity
  8
RACCORDO
100
AcDbLine
 62
7
  6
CONTINUOUS
 10
146.3761098424
 20
118.61217524
 11
142.9330040974
 21
120.3337281126
  0
LWPOLYLINE
  5
33B
100
AcDbEntity
  8
0
100
AcDbPolyline
 62
7
  6
CONTINUOUS
 90
7
 70
0
 10
148.304885236
 20
81.4287196466
 10
148.3335590323
 20
81.4484890204
 10
148.3620412733
 20
81.4685242906
 10
148.3903319588
 20
81.4888254572
 10
148.4184310888
 20
81.5093925202
 10
148.4463386634
 20
81.5302254796
 10
148.4740546826
 20
81.5513243354
  0
LWPOLYLINE
  5
33C
100
AcDbEntity
  8
0
100
AcDbPolyline
 62
7
  6
CONTINUOUS
 90
9
 70
0
 10
151.6259096952
 20
82.4343753282
 10
151.673272186
 20
82.4656354541
 10
151.7202231621
 20
82.4976192023
 10
151.7667663969
 20
82.5303293075
 10
151.8128981169
 20
82.563763035
 10
151.858607002
 20
82.5979121805
 10
151.9038892787
 20
82.6327740093
 10
151.9487487205
 20
82.6683512562
 10
151.9931853274
 20
82.7046439211
  0
LWPOLYLINE
  5
33D
100
AcDbEntity
  8
0
100
AcDbPolyline
 62
7
  6
CONTINUOUS
 90
7
 70
0
 10
148.8015283664
 20
81.0933278085
 10
148.867843169
 20
81.1363911179
 10
148.9333626362
 20
81.1808768936
 10
148.9980762113
 20
81.2267779661
 10
149.0619734672
 20
81.2740869381
 10
149.1250441086
 20
81.3227961853
 10
149.1872779734
 20
81.3728978578
  0
LINE
  5
33E
100
AcDbEntity
  8
0
100
AcDbLine
 62
7
  6
CONTINUOUS
 10
151.5781356896
 20
82.4038388246
 11
151.6259096952
 21
82.4343753282
  0
LWPOLYLINE
  5
33F
100
AcDbEntity
  8
DRAFT
100
AcDbPolyline
 62
7
  6
CONTINUOUS
 90
10
 70
0
 10
152.7095065395
 20
82.9695242496
 10
152.7572805451
 20
83.0000607532
 10
152.8046430359
 20
83.0313208791
 10
152.851594012
 20
83.0633046272
 10
152.8981372468
 20
83.0960147324
 10
152.9442689668
 20
83.1294484599
 10
152.9899778519
 20
83.1635976054
 10
153.0352601286
 20
83.1984594342
 10
153.0801195704
 20
83.2340366811
 10
153.1245561773
 20
83.270329346
  0
LINE
  5
340
100
AcDbEntity
  8
DRAFT
100
AcDbLine
 62
7
  6
CONTINUOUS
 10
153.1245561773
 20
83.270329346
 11
151.9931853274
 21
82.73334498
  0
LINE
  5
341
100
AcDbEntity
  8
0
100
AcDbLine
 62
7
  6
CONTINUOUS
 10
151.9931853274
 20
82.7046439211
 11
149.1872779734
 21
81.3728978578
  0
LINE
  5
342
100
AcDbEntity
  8
DRAFT
100
AcDbLine
 62
7
  6
CONTINUOUS
 10
152.7095065395
 20
82.9695242496
 11
151.7417693361
 21
82.512761631
  0
LINE
  5
343
100
AcDbEntity
  8
0
100
AcDbLine
 62
7
  6
CONTINUOUS
 10
151.5781356896
 20
82.4038388246
 11
148.8015283664
 21
81.0933278085
  0
ELLIPSE
  5
344
100
AcDbEntity
  8
RACCORDO
100
AcDbEllipse
 62
7
  6
CONTINUOUS
 10
153.077120349
 20
92.5769583554
 30
0.0
 11
0.2999929097
 21
-0.0042158549
 31
0.0
 40
0.4892375088
 41
0.0068752354
 42
1.41874773
  0
ELLIPSE
  5
345
100
AcDbEntity
  8
RACCORDO
100
AcDbEllipse
 62
7
  6
CONTINUOUS
 10
148.990701311
 20
97.8915302517
 30
0.0
 11
0.4999863728
 21
0.0072295547
 31
0.0
 40
0.5106100819
 41
-2.3635775243
 42
-0.9941391183
  0
ELLIPSE
  5
346
100
AcDbEntity
  8
RACCORDO
100
AcDbEllipse
 62
7
  6
CONTINUOUS
 10
146.7932306821
 20
98.9902655662
 30
0.0
 11
0.4999863728
 21
0.0072295547
 31
0.0
 40
0.5106100819
 41
2.5501693769
 42
3.9196077829
  0
ELLIPSE
  5
347
100
AcDbEntity
  8
RACCORDO
100
AcDbEllipse
 62
7
  6
CONTINUOUS
 10
153.077120349
 20
112.0625299406
 30
0.0
 11
0.2999929097
 21
-0.0042158549
 31
0.0
 40
0.4892375088
 41
0.0068752354
 42
1.41874773
  0
ELLIPSE
  5
348
100
AcDbEntity
  8
RACCORDO
100
AcDbEllipse
 62
7
  6
CONTINUOUS
 10
148.990701311
 20
117.3771018368
 30
0.0
 11
0.4999863728
 21
0.0072295547
 31
0.0
 40
0.5106100819
 41
-2.3635775243
 42
-0.9941391183
  0
ELLIPSE
  5
349
100
AcDbEntity
  8
RACCORDO
100
AcDbEllipse
 62
7
  6
CONTINUOUS
 10
146.7932306821
 20
118.4758371513
 30
0.0
 11
0.4999863728
 21
0.0072295547
 31
0.0
 40
0.5106100819
 41
2.5501693769
 42
3.9196077829
  0
ENDSEC
  0
SECTION
  2
OBJECTS
  0
DICTIONARY
  5
C
100
AcDbDictionary
280
0
281
1
  3
ACAD_GROUP
350
D
  3
ACAD_MLINESTYLE
350
17
  3
ACAD_LAYOUT
350
1A
  3
ACAD_PLOTSETTINGS
350
19
  3
ACAD_PLOTSTYLENAME
350
E
  0
DICTIONARY
  5
D
102
{ACAD_REACTORS
330
C
102
}
100
AcDbDictionary
280
0
281
1
  0
ACDBDICTIONARYWDFLT
  5
E
102
{ACAD_REACTORS
330
C
102
}
100
AcDbDictionary
281
1
  3
Normal
350
F
100
AcDbDictionaryWithDefault
340
F
  0
DICTIONARY
  5
17
102
{ACAD_REACTORS
330
C
102
}
100
AcDbDictionary
280
0
281
1
  3
Standard
350
18
  0
DICTIONARY
  5
19
102
{ACAD_REACTORS
330
C
102
}
100
AcDbDictionary
281
1
  0
DICTIONARY
  5
1A
102
{ACAD_REACTORS
330
C
102
}
100
AcDbDictionary
281
1
  3
Model
350
34A
  3
Layout1
350
34B
  0
ACDBPLACEHOLDER
  5
F
102
{ACAD_REACTORS
330
E
102
}
  0
MLINESTYLE
  5
18
102
{ACAD_REACTORS
330
17
102
}
100
AcDbMlineStyle
  2
STANDARD
 70
0
  3

 62
256
 51
90.0
 52
90.0
 71
2
 49
0.5
 62
256
  6
BYLAYER
 49
-0.5
 62
256
  6
BYLAYER
  0
LAYOUT
  5
34A
102
{ACAD_REACTORS
330
1A
102
}
100
AcDbPlotSettings
  1

  2
none_device
  4
ISO_A4_(297.00_x_210.00_MM)
  6

 40
0.0
 41
0.0
 42
0.0
 43
0.0
 44
297.0
 45
210.0
 46
0.0
 47
0.0
 48
0.0
 49
0.0
140
0.0
141
0.0
142
1.0
143
1.0
 70
1024
 72
1
 73
0
 74
0
  7

 75
0
147
1.0
148
0.0
149
0.0
100
AcDbLayout
  1
Model
 70
0
 71
0
 10
0.0
 20
0.0
 11
297.0
 21
210.0
 12
0.0
 22
0.0
 32
0.0
 14
0.0
 24
0.0
 34
0.0
 15
0.0
 25
0.0
 35
0.0
146
0.0
 13
0.0
 23
0.0
 33
0.0
 16
1.0
 26
0.0
 36
0.0
 17
0.0
 27
1.0
 37
0.0
 76
0
330
219
345
0
346
0
  0
LAYOUT
  5
34B
102
{ACAD_REACTORS
330
1A
102
}
100
AcDbPlotSettings
  1

  2
none_device
  4
ISO_A4_(297.00_x_210.00_MM)
  6

 40
0.0
 41
0.0
 42
0.0
 43
0.0
 44
297.0
 45
210.0
 46
0.0
 47
0.0
 48
0.0
 49
0.0
140
0.0
141
0.0
142
1.0
143
1.0
 70
0
 72
1
 73
0
 74
0
  7

 75
0
147
1.0
148
0.0
149
0.0
100
AcDbLayout
  1
Layout1
 70
0
 71
1
 10
0.0
 20
0.0
 11
297.0
 21
210.0
 12
0.0
 22
0.0
 32
0.0
 14
0.0
 24
0.0
 34
0.0
 15
0.0
 25
0.0
 35
0.0
146
0.0
 13
0.0
 23
0.0
 33
0.0
 16
1.0
 26
0.0
 36
0.0
 17
0.0
 27
1.0
 37
0.0
 76
0
330
21A
345
0
346
0
  0
ENDSEC
  0
EOF
