  0
SECTION
  2
HEADER
  9
$ACADVER
  1
AC1024
  9
$DWGCODEPAGE
  3
ANSI_1252
  9
$EXTMAX
 10
297.0
 20
210.0
 30
0.0
  9
$EXTMIN
 10
0.0
 20
0.0
 30
0.0
  9
$LIMMIN
 10
0.0
 20
0.0
  9
$LIMMAX
 10
297.0
 20
210.0
  9
$VIEWCTR
 10
148.5
 20
105.0
  9
$VIEWSIZE
 40
210.0
  9
$CLAYER
  8
0
  9
$LTSCALE
 40
16.335
  9
$CELTYPE
  6
BYLAYER
  9
$DIMSCALE
 40
1.0
  9
$DIMASZ
 40
3.0
  9
$DIMEXO
 40
0.5
  9
$DIMDLI
 40
11.286
  9
$DIMEXE
 40
1.5
  9
$DIMCEN
 40
2.673
  9
$DIMLFAC
 40
1.0
  9
$DIMBLK
  1
_FILLED
  9
$DIMALT
 70
0
  9
$DIMALTF
 40
0.0393700787
  9
$DIMTXT
 40
3.0
  9
$DIMTOL
 70
1
  9
$DIMLIM
 70
0
  9
$DIMTFAC
 40
1.0
  9
$DIMTP
 40
0.01
  9
$DIMTM
 40
0.01
  9
$DIMGAP
 40
0.625
  9
$DIMDSEP
 70
44
  9
$AUNITS
 70
0
  9
$PDMODE
 70
3
  9
$PDSIZE
 40
3.0
  9
$HANDSEED
  5
451
  9
$TILEMODE
 70
1
  9
$MEASUREMENT
 70
1
  9
$INSUNITS
 70
4
  0
ENDSEC
  0
SECTION
  2
CLASSES
  0
CLASS
  1
ACDBDICTIONARYWDFLT
  2
AcDbDictionaryWithDefault
  3
AutoCAD 2000
 90
0
 91
1
280
0
281
0
  0
CLASS
  1
ACDBPLACEHOLDER
  2
AcDbPlaceHolder
  3
AutoCAD 2000
 90
0
 91
1
280
0
281
0
  0
CLASS
  1
LAYOUT
  2
AcDbLayout
  3
AutoCAD 2000
 90
0
 91
0
280
0
281
0
  0
ENDSEC
  0
SECTION
  2
TABLES
  0
TABLE
  2
VPORT
  5
8
100
AcDbSymbolTable
 70
2
  0
VPORT
  5
1F4
100
AcDbSymbolTableRecord
100
AcDbViewportTableRecord
  2
*ACTIVE
 70
0
 10
0.0
 20
0.0
 11
1.0
 21
1.0
 12
148.5
 22
105.0
 13
0.0
 23
0.0
 14
1.0
 24
1.0
 15
0.0
 25
0.0
 16
0.0
 26
0.0
 36
1.0
 17
0.0
 27
0.0
 37
0.0
 40
210.0
 41
1.4142857143
 42
50.0
 43
0.0
 44
0.0
 50
0.0
 51
0.0
 71
0
 72
100
 73
1
 74
1
 75
0
 76
0
 77
0
 78
0
  0
ENDTAB
  0
TABLE
  2
LTYPE
  5
5
100
AcDbSymbolTable
 70
6
  0
LTYPE
  5
14
100
AcDbSymbolTableRecord
100
AcDbLinetypeTableRecord
  2
BYBLOCK
 70
0
  3

 72
65
 73
0
 40
0.0
  0
LTYPE
  5
15
100
AcDbSymbolTableRecord
100
AcDbLinetypeTableRecord
  2
BYLAYER
 70
0
  3

 72
65
 73
0
 40
0.0
  0
LTYPE
  5
16
100
AcDbSymbolTableRecord
100
AcDbLinetypeTableRecord
  2
CONTINUOUS
 70
64
  3
Solid line
 72
65
 73
0
 40
0.0
  0
LTYPE
  5
1F5
100
AcDbSymbolTableRecord
100
AcDbLinetypeTableRecord
  2
CENTER
 70
64
  3
____ _ ____ _ ____ _ ____ _ ____ _ ____ _ ____
 72
65
 73
4
 40
0.6
 49
0.375
 74
0
 49
-0.075
 74
0
 49
0.075
 74
0
 49
-0.075
 74
0
  0
LTYPE
  5
1F6
100
AcDbSymbolTableRecord
100
AcDbLinetypeTableRecord
  2
HIDDEN
 70
64
  3
- - - - - - - - - - - - - - - - - - - -
 72
65
 73
2
 40
0.2
 49
0.1
 74
0
 49
-0.1
 74
0
  0
LTYPE
  5
1F7
100
AcDbSymbolTableRecord
100
AcDbLinetypeTableRecord
  2
PHANTOM
 70
64
  3
_____ _ _ _____ _ _ _____ _ _ _____
 72
65
 73
6
 40
0.8
 49
0.45
 74
0
 49
-0.05
 74
0
 49
0.1
 74
0
 49
-0.05
 74
0
 49
0.1
 74
0
 49
-0.05
 74
0
  0
LTYPE
  5
1F8
100
AcDbSymbolTableRecord
100
AcDbLinetypeTableRecord
  2
DOT
 70
64
  3
. . . . . . . . . . . . . . . . . . . .
 72
65
 73
2
 40
0.2
 49
0.1
 74
0
 49
-0.1
 74
0
  0
LTYPE
  5
1F9
100
AcDbSymbolTableRecord
100
AcDbLinetypeTableRecord
  2
DASHED
 70
64
  3
- - - - - - - - - - - - - - - - - - - -
 72
65
 73
2
 40
0.2
 49
0.1
 74
0
 49
-0.1
 74
0
  0
ENDTAB
  0
TABLE
  2
LAYER
  5
2
100
AcDbSymbolTable
 70
36
  0
LAYER
  5
10
100
AcDbSymbolTableRecord
100
AcDbLayerTableRecord
  2
0
 70
0
 62
7
  6
CONTINUOUS
370
-3
390
F
  0
LAYER
  5
1FA
100
AcDbSymbolTableRecord
100
AcDbLayerTableRecord
  2
DEFAULT_1
 70
0
 62
7
  6
CENTER
370
-3
390
F
  0
LAYER
  5
1FB
100
AcDbSymbolTableRecord
100
AcDbLayerTableRecord
  2
DEFAULT_2
 70
0
 62
7
  6
HIDDEN
370
-3
390
F
  0
LAYER
  5
1FC
100
AcDbSymbolTableRecord
100
AcDbLayerTableRecord
  2
DEFAULT_3
 70
0
 62
7
  6
PHANTOM
370
-3
390
F
  0
LAYER
  5
1FD
100
AcDbSymbolTableRecord
100
AcDbLayerTableRecord
  2
ASSI
 70
0
 62
7
  6
CONTINUOUS
370
-3
390
F
  0
LAYER
  5
1FE
100
AcDbSymbolTableRecord
100
AcDbLayerTableRecord
  2
COORDINATE
 70
0
 62
7
  6
CONTINUOUS
370
-3
390
F
  0
LAYER
  5
1FF
100
AcDbSymbolTableRecord
100
AcDbLayerTableRecord
  2
COPY_PUBLISH
 70
0
 62
7
  6
CONTINUOUS
370
-3
390
F
  0
LAYER
  5
200
100
AcDbSymbolTableRecord
100
AcDbLayerTableRecord
  2
COSMETICI
 70
0
 62
7
  6
CONTINUOUS
370
-3
390
F
  0
LAYER
  5
201
100
AcDbSymbolTableRecord
100
AcDbLayerTableRecord
  2
CURVE
 70
0
 62
7
  6
CONTINUOUS
370
-3
390
F
  0
LAYER
  5
202
100
AcDbSymbolTableRecord
100
AcDbLayerTableRecord
  2
DRAFT
 70
0
 62
7
  6
CONTINUOUS
370
-3
390
F
  0
LAYER
  5
203
100
AcDbSymbolTableRecord
100
AcDbLayerTableRecord
  2
IMPORT_IGES
 70
0
 62
7
  6
CONTINUOUS
370
-3
390
F
  0
LAYER
  5
204
100
AcDbSymbolTableRecord
100
AcDbLayerTableRecord
  2
INTF_11
 70
0
 62
7
  6
CONTINUOUS
370
-3
390
F
  0
LAYER
  5
205
100
AcDbSymbolTableRecord
100
AcDbLayerTableRecord
  2
INTF_8
 70
0
 62
7
  6
CONTINUOUS
370
-3
390
F
  0
LAYER
  5
206
100
AcDbSymbolTableRecord
100
AcDbLayerTableRecord
  2
INTF_9
 70
0
 62
7
  6
CONTINUOUS
370
-3
390
F
  0
LAYER
  5
207
100
AcDbSymbolTableRecord
100
AcDbLayerTableRecord
  2
NOTE
 70
0
 62
7
  6
CONTINUOUS
370
-3
390
F
  0
LAYER
  5
208
100
AcDbSymbolTableRecord
100
AcDbLayerTableRecord
  2
PIANI
 70
0
 62
7
  6
CONTINUOUS
370
-3
390
F
  0
LAYER
  5
209
100
AcDbSymbolTableRecord
100
AcDbLayerTableRecord
  2
PUNTI
 70
0
 62
7
  6
CONTINUOUS
370
-3
390
F
  0
LAYER
  5
20A
100
AcDbSymbolTableRecord
100
AcDbLayerTableRecord
  2
RACCORDO
 70
0
 62
7
  6
CONTINUOUS
370
-3
390
F
  0
LAYER
  5
20B
100
AcDbSymbolTableRecord
100
AcDbLayerTableRecord
  2
SIMBOLI
 70
0
 62
7
  6
CONTINUOUS
370
-3
390
F
  0
LAYER
  5
20C
100
AcDbSymbolTableRecord
100
AcDbLayerTableRecord
  2
SMUSSO
 70
0
 62
7
  6
CONTINUOUS
370
-3
390
F
  0
LAYER
  5
20D
100
AcDbSymbolTableRecord
100
AcDbLayerTableRecord
  2
SUPERFICI
 70
0
 62
7
  6
CONTINUOUS
370
-3
390
F
  0
LAYER
  5
20E
100
AcDbSymbolTableRecord
100
AcDbLayerTableRecord
  2
TRASH
 70
0
 62
7
  6
CONTINUOUS
370
-3
390
F
  0
ENDTAB
  0
TABLE
  2
STYLE
  5
3
100
AcDbSymbolTable
 70
1
  0
STYLE
  5
11
100
AcDbSymbolTableRecord
100
AcDbTextStyleTableRecord
  2
STANDARD
 70
0
 40
0.0
 41
0.8
 50
0.0
 71
0
 42
0.2
  3
txt
  4

  0
STYLE
  5
20F
100
AcDbSymbolTableRecord
100
AcDbTextStyleTableRecord
  2
TEXTSTYLE_1
 70
0
 40
0.0
 41
0.8
 50
0.0
 71
0
 42
0.2
  3
gdt
  4

  0
ENDTAB
  0
TABLE
  2
VIEW
  5
6
100
AcDbSymbolTable
 70
0
  0
ENDTAB
  0
TABLE
  2
UCS
  5
7
100
AcDbSymbolTable
 70
0
  0
ENDTAB
  0
TABLE
  2
APPID
  5
9
100
AcDbSymbolTable
 70
1
  0
APPID
  5
210
100
AcDbSymbolTableRecord
100
AcDbRegAppTableRecord
  2
ACAD
 70
0
  0
ENDTAB
  0
TABLE
  2
BLOCK_RECORD
  5
1
100
AcDbSymbolTable
 70
0
  0
BLOCK_RECORD
  5
211
100
AcDbSymbolTableRecord
100
AcDbBlockTableRecord
  2
*Model_Space
  0
BLOCK_RECORD
  5
212
100
AcDbSymbolTableRecord
100
AcDbBlockTableRecord
  2
*Paper_Space
  0
BLOCK_RECORD
  5
213
100
AcDbSymbolTableRecord
100
AcDbBlockTableRecord
  2
_FILLED
  0
ENDTAB
  0
TABLE
  2
DIMSTYLE
  5
A
100
AcDbSymbolTable
 70
1
100
AcDbDimStyleTable
 71
0
  0
DIMSTYLE
105
214
100
AcDbSymbolTableRecord
100
AcDbDimStyleTableRecord
  2
STANDARD
 70
0
  3

  4

 40
1.0
 41
3.0
 42
0.5
 43
0.38
 44
1.5
 45
0.0
 46
0.0
 47
0.01
 48
0.01
140
3.0
141
0.09
142
0.0
143
25.4
144
1.0
145
0.0
146
1.0
147
0.625
 71
1
 72
0
 73
0
 74
0
 75
0
 76
0
 77
1
 78
8
 79
2
170
0
171
1
172
0
173
0
174
0
175
0
176
0
177
0
178
0
270
2
179
2
271
2
272
2
273
2
274
2
275
0
280
0
281
0
282
0
283
1
284
8
285
0
286
0
287
3
288
0
340
11
278
44
341
213
342
213
343
213
344
213
  0
ENDTAB
  0
ENDSEC
  0
SECTION
  2
BLOCKS
  0
BLOCK
  5
20
100
AcDbEntity
  8
0
100
AcDbBlockBegin
  2
*Model_Space
 70
0
 10
0.0
 20
0.0
 30
0.0
  3
*Model_Space
  1

  0
ENDBLK
  5
21
100
AcDbEntity
  8
0
100
AcDbBlockEnd
  0
BLOCK
  5
1C
100
AcDbEntity
  8
0
100
AcDbBlockBegin
  2
*Paper_Space
 70
0
 10
0.0
 20
0.0
 30
0.0
  3
*Paper_Space
  1

  0
ENDBLK
  5
1D
100
AcDbEntity
  8
0
100
AcDbBlockEnd
  0
BLOCK
  5
215
100
AcDbEntity
  8
0
100
AcDbBlockBegin
  2
_FILLED
 70
64
 10
0.0
 20
0.0
  3
_FILLED
  1

  0
SOLID
  5
216
100
AcDbEntity
  8
0
  6
BYBLOCK
 62
0
100
AcDbTrace
 10
0.0
 20
0.0
 11
-1.0
 21
0.3166666667
 12
-1.0
 22
-0.3166666667
 13
-1.0
 23
-0.3166666667
  0
ENDBLK
  5
217
100
AcDbEntity
  8
0
  6
BYBLOCK
 62
0
100
AcDbBlockEnd
  0
ENDSEC
  0
SECTION
  2
ENTITIES
  0
LWPOLYLINE
  5
218
100
AcDbEntity
  8
RACCORDO
100
AcDbPolyline
 62
250
  6
CONTINUOUS
 90
4
 70
0
 10
143.2371561208
 20
125.5811417851
 10
143.2636659864
 20
125.5887624544
 10
143.2910627194
 20
125.5954468277
 10
143.319027409
 20
125.6009797045
  0
LWPOLYLINE
  5
219
100
AcDbEntity
  8
RACCORDO
100
AcDbPolyline
 62
250
  6
CONTINUOUS
 90
16
 70
0
 10
137.8761187178
 20
123.675522539
 10
137.8398375472
 20
123.6513140137
 10
137.8040388028
 20
123.6230950651
 10
137.7691017496
 20
123.591164655
 10
137.7353965233
 20
123.5558610657
 10
137.7032802097
 20
123.5175583163
 10
137.6730930608
 20
123.4766622005
 10
137.6451548903
 20
123.4336059865
 10
137.6197616854
 20
123.3888458277
 10
137.597182471
 20
123.3428559296
 10
137.5776564595
 20
123.2961235258
 10
137.5613905166
 20
123.2491437166
 10
137.5485569699
 20
123.2024142234
 10
137.5392917824
 20
123.1564301155
 10
137.533693113
 20
123.1116785654
 10
137.531820276
 20
123.0686336874
  0
LINE
  5
21A
100
AcDbEntity
  8
RACCORDO
100
AcDbLine
 62
7
  6
CONTINUOUS
 10
139.3345857763
 20
124.7930203615
 11
137.6159997165
 21
123.6940045001
  0
LINE
  5
21B
100
AcDbEntity
  8
RACCORDO
100
AcDbLine
 62
250
  6
CONTINUOUS
 10
139.486460814
 20
124.7053176406
 11
137.8761187178
 21
123.675522539
  0
LINE
  5
21C
100
AcDbEntity
  8
RACCORDO
100
AcDbLine
 62
7
  6
CONTINUOUS
 10
142.7305389246
 20
125.3695960942
 11
143.0611530329
 21
125.5351448112
  0
LINE
  5
21D
100
AcDbEntity
  8
RACCORDO
100
AcDbLine
 62
250
  6
CONTINUOUS
 10
142.7903072787
 20
125.369417044
 11
143.1071607428
 21
125.5280753805
  0
LWPOLYLINE
  5
21E
100
AcDbEntity
  8
RACCORDO
100
AcDbPolyline
 62
250
  6
CONTINUOUS
 90
3
 70
0
 10
143.1071607428
 20
125.5280753805
 10
143.1332227113
 20
125.5407569246
 10
143.1593367609
 20
125.5524480347
  0
LWPOLYLINE
  5
21F
100
AcDbEntity
  8
RACCORDO
100
AcDbPolyline
 62
250
  6
CONTINUOUS
 90
6
 70
0
 10
143.0611530329
 20
125.5351448112
 10
143.0638810125
 20
125.5363503286
 10
143.0735556357
 20
125.5384606874
 10
143.0842127506
 20
125.5377566315
 10
143.0955289338
 20
125.534259495
 10
143.1071607427
 20
125.5280753804
  0
LWPOLYLINE
  5
220
100
AcDbEntity
  8
RACCORDO
100
AcDbPolyline
 62
250
  6
CONTINUOUS
 90
4
 70
0
 10
143.1593367609
 20
125.5524480347
 10
143.1854709785
 20
125.5631207061
 10
143.2113347595
 20
125.5726559437
 10
143.2371561208
 20
125.5811417851
  0
LINE
  5
221
100
AcDbEntity
  8
RACCORDO
100
AcDbLine
 62
7
  6
CONTINUOUS
 10
141.7839468449
 20
124.2657919156
 11
141.0685614769
 21
123.7918325462
  0
LINE
  5
222
100
AcDbEntity
  8
DRAFT
100
AcDbLine
 62
7
  6
CONTINUOUS
 10
141.9253682011
 20
124.113670255
 11
141.2001929072
 21
123.7158302081
  0
LINE
  5
223
100
AcDbEntity
  8
DRAFT
100
AcDbLine
 62
7
  6
CONTINUOUS
 10
142.3792785867
 20
124.5866954118
 11
141.7839468449
 21
124.2657919156
  0
LWPOLYLINE
  5
224
100
AcDbEntity
  8
RACCORDO
100
AcDbPolyline
 62
250
  6
CONTINUOUS
 90
10
 70
0
 10
147.3172753856
 20
80.1719482712
 10
147.300044589
 20
80.1724648315
 10
147.2829550211
 20
80.1738369582
 10
147.2661338714
 20
80.1760544393
 10
147.2497063317
 20
80.1791007713
 10
147.2337946644
 20
80.1829532822
 10
147.2185172928
 20
80.1875832996
 10
147.2039879194
 20
80.1929563646
 10
147.1903146794
 20
80.1990324882
 10
147.1775993364
 20
80.2057664489
  0
LINE
  5
225
100
AcDbEntity
  8
RACCORDO
100
AcDbLine
 62
7
  6
CONTINUOUS
 10
147.7392415194
 20
80.0725777577
 11
147.312018706
 21
80.0875439747
  0
LINE
  5
226
100
AcDbEntity
  8
RACCORDO
100
AcDbLine
 62
250
  6
CONTINUOUS
 10
147.7444981989
 20
80.1569820542
 11
147.3172753856
 21
80.1719482712
  0
LINE
  5
227
100
AcDbEntity
  8
RACCORDO
100
AcDbLine
 62
7
  6
CONTINUOUS
 10
137.6353615866
 20
80.6879929746
 11
144.5486244666
 21
76.6963616312
  0
LINE
  5
228
100
AcDbEntity
  8
RACCORDO
100
AcDbLine
 62
250
  6
CONTINUOUS
 10
137.531820276
 20
80.9168614052
 11
144.445083156
 21
76.9252300618
  0
LWPOLYLINE
  5
229
100
AcDbEntity
  8
RACCORDO
100
AcDbPolyline
 62
250
  6
CONTINUOUS
 90
9
 70
0
 10
137.531820276
 20
80.9168614052
 10
137.4977954967
 20
80.9386108181
 10
137.4676551774
 20
80.9623365931
 10
137.4417616224
 20
80.9878131036
 10
137.4204144112
 20
81.0148270672
 10
137.4039317877
 20
81.0430755255
 10
137.3925816253
 20
81.0721556671
 10
137.3864902023
 20
81.1017163027
 10
137.3853736666
 20
81.1209987018
  0
LINE
  5
22A
100
AcDbEntity
  8
RACCORDO
100
AcDbLine
 62
250
  6
CONTINUOUS
 10
144.9622539692
 20
124.4569678014
 11
144.6769578287
 21
124.2800886617
  0
LINE
  5
22B
100
AcDbEntity
  8
RACCORDO
100
AcDbLine
 62
250
  6
CONTINUOUS
 10
145.0353343802
 20
124.3359859089
 11
144.7094307029
 21
124.1339307323
  0
LINE
  5
22C
100
AcDbEntity
  8
RACCORDO
100
AcDbLine
 62
7
  6
CONTINUOUS
 10
144.6945026921
 20
123.4032241152
 11
144.2254684725
 21
123.1124302437
  0
LINE
  5
22D
100
AcDbEntity
  8
RACCORDO
100
AcDbLine
 62
250
  6
CONTINUOUS
 10
143.0565642646
 20
123.4605318252
 11
143.6931459236
 21
123.8280848781
  0
LINE
  5
22E
100
AcDbEntity
  8
RACCORDO
100
AcDbLine
 62
250
  6
CONTINUOUS
 10
143.1979573666
 20
123.3788932202
 11
143.7638458322
 21
123.7056290446
  0
LINE
  5
22F
100
AcDbEntity
  8
RACCORDO
100
AcDbLine
 62
7
  6
CONTINUOUS
 10
144.0489478034
 20
122.8875420074
 11
144.2617226712
 21
123.0375725146
  0
LINE
  5
230
100
AcDbEntity
  8
RACCORDO
100
AcDbLine
 62
250
  6
CONTINUOUS
 10
144.1118744005
 20
122.8512089789
 11
144.3666960157
 21
123.0308872302
  0
LINE
  5
231
100
AcDbEntity
  8
DRAFT
100
AcDbLine
 62
7
  6
CONTINUOUS
 10
145.328518604
 20
123.0371512737
 11
144.8421836735
 21
122.7563466159
  0
LINE
  5
232
100
AcDbEntity
  8
RACCORDO
100
AcDbLine
 62
7
  6
CONTINUOUS
 10
145.328518604
 20
122.8469658384
 11
146.2714788756
 21
123.3914251011
  0
LINE
  5
233
100
AcDbEntity
  8
RACCORDO
100
AcDbLine
 62
7
  6
CONTINUOUS
 10
145.8990444189
 20
122.1509999082
 11
149.3186650944
 21
123.9899612442
  0
LINE
  5
234
100
AcDbEntity
  8
DRAFT
100
AcDbLine
 62
7
  6
CONTINUOUS
 10
146.4064584085
 20
122.4147623404
 11
145.9028438453
 21
122.1439347259
  0
LINE
  5
235
100
AcDbEntity
  8
RACCORDO
100
AcDbLine
 62
250
  6
CONTINUOUS
 10
146.4554291731
 20
122.3864872346
 11
149.4158584342
 21
123.978510288
  0
LWPOLYLINE
  5
236
100
AcDbEntity
  8
RACCORDO
100
AcDbPolyline
 62
250
  6
CONTINUOUS
 90
7
 70
0
 10
149.4158584342
 20
123.978510288
 10
149.4223814599
 20
123.9819711158
 10
149.4289028925
 20
123.985081512
 10
149.4354085468
 20
123.9878318687
 10
149.4418898332
 20
123.9902152128
 10
149.4483264129
 20
123.9922206891
 10
149.454686845
 20
123.9938370317
  0
LWPOLYLINE
  5
237
100
AcDbEntity
  8
RACCORDO
100
AcDbPolyline
 62
250
  6
CONTINUOUS
 90
10
 70
0
 10
149.9020404594
 20
123.69779488
 10
149.9085635015
 20
123.701255716
 10
149.9150849648
 20
123.7043661252
 10
149.9215906637
 20
123.7071164969
 10
149.9280720322
 20
123.7094998638
 10
149.9345087062
 20
123.7115053569
 10
149.9408691723
 20
123.7131216916
 10
149.947134004
 20
123.714344426
 10
149.9532952732
 20
123.7151725145
 10
149.9593395641
 20
123.715604154
  0
LWPOLYLINE
  5
238
100
AcDbEntity
  8
RACCORDO
100
AcDbPolyline
 62
250
  6
CONTINUOUS
 90
3
 70
0
 10
146.8650350653
 20
81.0457752018
 10
146.8537794187
 20
81.0502724819
 10
146.8422779725
 20
81.0563963696
  0
LWPOLYLINE
  5
239
100
AcDbEntity
  8
RACCORDO
100
AcDbPolyline
 62
250
  6
CONTINUOUS
 90
7
 70
0
 10
146.9306063915
 20
80.0223235558
 10
146.9243703197
 20
80.0253697228
 10
146.9138875214
 20
80.0283969699
 10
146.9025150109
 20
80.0293486168
 10
146.8904263964
 20
80.0282101284
 10
146.8778061891
 20
80.0249988746
 10
146.86484703
 20
80.0197638631
  0
LWPOLYLINE
  5
23A
100
AcDbEntity
  8
RACCORDO
100
AcDbPolyline
 62
250
  6
CONTINUOUS
 90
5
 70
0
 10
146.86484703
 20
80.0197638631
 10
146.8514337485
 20
80.0266651968
 10
146.8380114866
 20
80.0313794885
 10
146.8248067533
 20
80.0337886822
 10
146.8212440876
 20
80.0337943628
  0
LINE
  5
23B
100
AcDbEntity
  8
RACCORDO
100
AcDbLine
 62
250
  6
CONTINUOUS
 10
146.8219045066
 20
79.5034938573
 11
146.9206012092
 21
79.4465076181
  0
LINE
  5
23C
100
AcDbEntity
  8
RACCORDO
100
AcDbLine
 62
250
  6
CONTINUOUS
 10
146.86484703
 20
80.0197638631
 11
147.44750999
 21
79.6833415725
  0
LINE
  5
23D
100
AcDbEntity
  8
RACCORDO
100
AcDbLine
 62
7
  6
CONTINUOUS
 10
146.9306063915
 20
80.0223235558
 11
147.514991321
 21
79.6849070216
  0
LINE
  5
23E
100
AcDbEntity
  8
RACCORDO
100
AcDbLine
 62
7
  6
CONTINUOUS
 10
147.2190158606
 20
80.1142190767
 11
146.8212440876
 21
80.3438875132
  0
LWPOLYLINE
  5
23F
100
AcDbEntity
  8
RACCORDO
100
AcDbPolyline
 62
250
  6
CONTINUOUS
 90
6
 70
0
 10
147.9960721523
 20
123.8778404531
 10
148.0062527322
 20
123.8855939752
 10
148.0140338903
 20
123.8942244443
 10
148.0191946586
 20
123.9034867799
 10
148.0215884807
 20
123.9131179584
 10
148.0217576434
 20
123.9164333217
  0
LWPOLYLINE
  5
240
100
AcDbEntity
  8
RACCORDO
100
AcDbPolyline
 62
250
  6
CONTINUOUS
 90
6
 70
0
 10
147.9960721523
 20
123.6399160495
 10
148.0062527514
 20
123.6476695892
 10
148.0140339141
 20
123.6563000737
 10
148.0191946762
 20
123.6655624202
 10
148.0215884855
 20
123.6751936026
 10
148.0217576697
 20
123.6785508121
  0
LINE
  5
241
100
AcDbEntity
  8
RACCORDO
100
AcDbLine
 62
250
  6
CONTINUOUS
 10
146.2046174662
 20
122.5869035106
 11
146.2268712593
 21
122.6026646857
  0
LINE
  5
242
100
AcDbEntity
  8
DRAFT
100
AcDbLine
 62
7
  6
CONTINUOUS
 10
145.425546768
 20
122.0927110181
 11
144.7725960005
 21
121.6531694348
  0
LINE
  5
243
100
AcDbEntity
  8
RACCORDO
100
AcDbLine
 62
250
  6
CONTINUOUS
 10
146.151650823
 20
122.5518636214
 11
146.1600635899
 21
122.5575223687
  0
LINE
  5
244
100
AcDbEntity
  8
RACCORDO
100
AcDbLine
 62
250
  6
CONTINUOUS
 10
146.1600635899
 20
122.5575223687
 11
146.2046174327
 21
122.5869035299
  0
LINE
  5
245
100
AcDbEntity
  8
DRAFT
100
AcDbLine
 62
7
  6
CONTINUOUS
 10
146.1503312187
 20
120.8838984633
 11
147.053524661
 21
121.4795460443
  0
LINE
  5
246
100
AcDbEntity
  8
RACCORDO
100
AcDbLine
 62
250
  6
CONTINUOUS
 10
147.0431871533
 20
122.0471231432
 11
149.9020404594
 21
123.69779488
  0
LINE
  5
247
100
AcDbEntity
  8
RACCORDO
100
AcDbLine
 62
250
  6
CONTINUOUS
 10
147.3259728801
 20
121.8838462087
 11
150.0434402765
 21
123.4528832129
  0
LINE
  5
248
100
AcDbEntity
  8
DRAFT
100
AcDbLine
 62
7
  6
CONTINUOUS
 10
147.053524661
 20
121.4795460443
 11
147.5398595915
 21
121.7603507021
  0
LINE
  5
249
100
AcDbEntity
  8
RACCORDO
100
AcDbLine
 62
250
  6
CONTINUOUS
 10
146.4863280937
 20
120.6636820023
 11
144.7893815978
 21
119.6838911956
  0
LWPOLYLINE
  5
24A
100
AcDbEntity
  8
RACCORDO
100
AcDbPolyline
 62
250
  6
CONTINUOUS
 90
16
 70
0
 10
145.1428138345
 20
119.0717286053
 10
145.1035895881
 20
119.0523574486
 10
145.0611156112
 20
119.0354243053
 10
145.0158445264
 20
119.0211096236
 10
144.9682531036
 20
119.0095647697
 10
144.9188537397
 20
119.0009146242
 10
144.8681908573
 20
118.9952528392
 10
144.8168172674
 20
118.9926368191
 10
144.7652682595
 20
118.9930895123
 10
144.7140737458
 20
118.9966046829
 10
144.6637085537
 20
119.0031562442
 10
144.6147816614
 20
119.0126716161
 10
144.5679905034
 20
119.0249966058
 10
144.5238600747
 20
119.0399478936
 10
144.4827604816
 20
119.0573527857
 10
144.445083156
 20
119.077002344
  0
LWPOLYLINE
  5
24B
100
AcDbEntity
  8
RACCORDO
100
AcDbPolyline
 62
250
  6
CONTINUOUS
 90
3
 70
0
 10
148.1440178014
 20
119.7728524658
 10
148.1261322265
 20
119.7669624675
 10
148.1079001173
 20
119.7581696586
  0
LWPOLYLINE
  5
24C
100
AcDbEntity
  8
RACCORDO
100
AcDbPolyline
 62
250
  6
CONTINUOUS
 90
19
 70
0
 10
147.718355274
 20
85.5275314561
 10
147.7201455534
 20
85.5278167321
 10
147.7219573805
 20
85.5281576886
 10
147.7237907552
 20
85.5285543255
 10
147.7256443194
 20
85.5290032192
 10
147.7275194312
 20
85.5295077934
 10
147.7294201647
 20
85.530078319
 10
147.7313490823
 20
85.5307140985
 10
147.7333036217
 20
85.5314158294
 10
147.73528017
 20
85.5321958747
 10
147.7372814831
 20
85.5330539199
 10
147.7393048052
 20
85.5339902795
 10
147.7413382563
 20
85.53501826
 10
147.7433854092
 20
85.5361383297
 10
147.7454426911
 20
85.5373500202
 10
147.7474875029
 20
85.538665234
 10
147.7495123118
 20
85.5400879384
 10
147.7515246505
 20
85.5416141659
 10
147.7535245193
 20
85.5432439166
  0
LINE
  5
24D
100
AcDbEntity
  8
RACCORDO
100
AcDbLine
 62
250
  6
CONTINUOUS
 10
147.5468671115
 20
85.3091695341
 11
147.7444981989
 21
85.3384795609
  0
LINE
  5
24E
100
AcDbEntity
  8
RACCORDO
100
AcDbLine
 62
250
  6
CONTINUOUS
 10
147.5468671115
 20
85.5020986019
 11
147.718355274
 21
85.5275314561
  0
LWPOLYLINE
  5
24F
100
AcDbEntity
  8
RACCORDO
100
AcDbPolyline
 62
250
  6
CONTINUOUS
 90
19
 70
0
 10
147.7444981989
 20
85.3384795609
 10
147.7516409157
 20
85.3387960476
 10
147.7588915924
 20
85.3392783057
 10
147.7662401113
 20
85.339933309
 10
147.7736562031
 20
85.3407654514
 10
147.7811473791
 20
85.3417830335
 10
147.7887577668
 20
85.3430024328
 10
147.7964758034
 20
85.3444345199
 10
147.8042806888
 20
85.34608862
 10
147.8121977881
 20
85.3479853991
 10
147.8202066584
 20
85.3501381
 10
147.8282809326
 20
85.3525581293
 10
147.836430104
 20
85.3552687788
 10
147.844624701
 20
85.3582849357
 10
147.8528274443
 20
85.36161864
 10
147.8610271687
 20
85.3652928784
 10
147.869188598
 20
85.3693247183
 10
147.8772549858
 20
85.3737224822
 10
147.8851751801
 20
85.3784961758
  0
LINE
  5
250
100
AcDbEntity
  8
RACCORDO
100
AcDbLine
 62
250
  6
CONTINUOUS
 10
147.1775993364
 20
80.2057664489
 11
146.8212440876
 21
80.4115215034
  0
LINE
  5
251
100
AcDbEntity
  8
RACCORDO
100
AcDbLine
 62
250
  6
CONTINUOUS
 10
146.8422775968
 20
81.0563961373
 11
146.8212440876
 21
81.0685406219
  0
LINE
  5
252
100
AcDbEntity
  8
RACCORDO
100
AcDbLine
 62
250
  6
CONTINUOUS
 10
146.9062284297
 20
81.1899817152
 11
146.8212440876
 21
81.2390506092
  0
LINE
  5
253
100
AcDbEntity
  8
RACCORDO
100
AcDbLine
 62
250
  6
CONTINUOUS
 10
146.9062284297
 20
81.4327783696
 11
146.8212440876
 21
81.4818472636
  0
LINE
  5
254
100
AcDbEntity
  8
RACCORDO
100
AcDbLine
 62
250
  6
CONTINUOUS
 10
147.2190158606
 20
80.1142190767
 11
147.2189182318
 21
80.1142755565
  0
LWPOLYLINE
  5
255
100
AcDbEntity
  8
RACCORDO
100
AcDbPolyline
 62
250
  6
CONTINUOUS
 90
8
 70
0
 10
147.2189182318
 20
80.1142755565
 10
147.216395029
 20
80.1158137993
 10
147.2049244394
 20
80.1250615319
 10
147.195281253
 20
80.1369125088
 10
147.1876276606
 20
80.1511613703
 10
147.1820819125
 20
80.1675675412
 10
147.1787233921
 20
80.1858680541
 10
147.1775993364
 20
80.2057664489
  0
LWPOLYLINE
  5
256
100
AcDbEntity
  8
RACCORDO
100
AcDbPolyline
 62
250
  6
CONTINUOUS
 90
6
 70
0
 10
146.9501624125
 20
80.9962119198
 10
146.9335224311
 20
81.0076394652
 10
146.9205288069
 20
81.0205471963
 10
146.9115675964
 20
81.0345515348
 10
146.9069050246
 20
81.0492363198
 10
146.9062284423
 20
81.0574176453
  0
LWPOLYLINE
  5
257
100
AcDbEntity
  8
RACCORDO
100
AcDbPolyline
 62
250
  6
CONTINUOUS
 90
6
 70
0
 10
146.1098311172
 20
122.5187990048
 10
146.1181327983
 20
122.5260713283
 10
146.1264953191
 20
122.5329906689
 10
146.134874115
 20
122.5395919508
 10
146.1432543314
 20
122.5458868155
 10
146.151650823
 20
122.5518636214
  0
LWPOLYLINE
  5
258
100
AcDbEntity
  8
RACCORDO
100
AcDbPolyline
 62
250
  6
CONTINUOUS
 90
7
 70
0
 10
151.0276119571
 20
123.5020018468
 10
151.0442240975
 20
123.5133039121
 10
151.0582215748
 20
123.5257722098
 10
151.0693530476
 20
123.5392076456
 10
151.0774172786
 20
123.5534038593
 10
151.0822470922
 20
123.5681172678
 10
151.0837438627
 20
123.5820854193
  0
LWPOLYLINE
  5
259
100
AcDbEntity
  8
RACCORDO
100
AcDbPolyline
 62
250
  6
CONTINUOUS
 90
16
 70
0
 10
144.7893815978
 20
119.6838911956
 10
144.7531004266
 20
119.6596826699
 10
144.7173016817
 20
119.6314637207
 10
144.6823646281
 20
119.5995333101
 10
144.6486594017
 20
119.5642297204
 10
144.616543088
 20
119.5259269707
 10
144.5863559391
 20
119.4850308547
 10
144.5584177688
 20
119.4419746408
 10
144.5330245642
 20
119.3972144822
 10
144.5104453501
 20
119.3512245842
 10
144.4909193387
 20
119.3044921805
 10
144.4746533961
 20
119.2575123713
 10
144.4618198495
 20
119.2107828783
 10
144.4525546622
 20
119.1647987709
 10
144.4469559929
 20
119.1200472214
 10
144.445083156
 20
119.077002344
  0
LINE
  5
25A
100
AcDbEntity
  8
RACCORDO
100
AcDbLine
 62
250
  6
CONTINUOUS
 10
147.2000383515
 20
120.2778107208
 11
148.1197094669
 21
120.8088191199
  0
LINE
  5
25B
100
AcDbEntity
  8
RACCORDO
100
AcDbLine
 62
250
  6
CONTINUOUS
 10
147.193192567
 20
120.2555857494
 11
145.1428138345
 21
119.0717286053
  0
LINE
  5
25C
100
AcDbEntity
  8
RACCORDO
100
AcDbLine
 62
250
  6
CONTINUOUS
 10
147.4828240783
 20
120.1145337863
 11
147.9832882558
 21
120.4034965222
  0
LINE
  5
25D
100
AcDbEntity
  8
RACCORDO
100
AcDbLine
 62
7
  6
CONTINUOUS
 10
147.44750999
 20
118.8339227318
 11
146.9206012092
 21
118.4933487069
  0
LINE
  5
25E
100
AcDbEntity
  8
RACCORDO
100
AcDbLine
 62
250
  6
CONTINUOUS
 10
147.7388420841
 20
119.0979111302
 11
148.4662135769
 21
119.5467370145
  0
LINE
  5
25F
100
AcDbEntity
  8
RACCORDO
100
AcDbLine
 62
250
  6
CONTINUOUS
 10
147.8851751801
 20
118.8560467949
 11
148.6075272833
 21
119.3017754558
  0
LWPOLYLINE
  5
260
100
AcDbEntity
  8
RACCORDO
100
AcDbPolyline
 62
250
  6
CONTINUOUS
 90
4
 70
0
 10
149.4066762663
 20
118.9615757702
 10
149.4238513926
 20
118.9716028433
 10
149.4389987943
 20
118.980264136
 10
149.4702953767
 20
118.9979168625
  0
LINE
  5
261
100
AcDbEntity
  8
RACCORDO
100
AcDbLine
 62
250
  6
CONTINUOUS
 10
149.3076741824
 20
119.0654351501
 11
148.6075272833
 21
118.6695876985
  0
LINE
  5
262
100
AcDbEntity
  8
RACCORDO
100
AcDbLine
 62
250
  6
CONTINUOUS
 10
149.4066762488
 20
118.9615758
 11
148.6075272833
 21
118.509819182
  0
LWPOLYLINE
  5
263
100
AcDbEntity
  8
RACCORDO
100
AcDbPolyline
 62
250
  6
CONTINUOUS
 90
4
 70
0
 10
149.4702953767
 20
118.9979168625
 10
149.475462341
 20
119.0006209197
 10
149.4777448335
 20
119.001679201
 10
149.4778438259
 20
119.0017170843
  0
LINE
  5
264
100
AcDbEntity
  8
RACCORDO
100
AcDbLine
 62
250
  6
CONTINUOUS
 10
150.0547765348
 20
90.1424942905
 11
151.0276119571
 21
90.3746272501
  0
LINE
  5
265
100
AcDbEntity
  8
RACCORDO
100
AcDbLine
 62
250
  6
CONTINUOUS
 10
150.0547765348
 20
90.4272070451
 11
150.9250916
 21
90.634877127
  0
LINE
  5
266
100
AcDbEntity
  8
RACCORDO
100
AcDbLine
 62
7
  6
CONTINUOUS
 10
142.677060908
 20
125.3073955803
 11
142.3792785867
 21
124.5866954118
  0
LWPOLYLINE
  5
267
100
AcDbEntity
  8
RACCORDO
100
AcDbPolyline
 62
250
  6
CONTINUOUS
 90
8
 70
0
 10
145.9870219507
 20
122.1983113777
 10
145.9978206986
 20
122.2128713666
 10
146.0102804529
 20
122.2302830444
 10
146.0226201365
 20
122.2481152512
 10
146.0352172485
 20
122.2669423226
 10
146.0482048728
 20
122.2869613287
 10
146.0614612745
 20
122.3079438996
 10
146.0749854482
 20
122.3298596693
  0
LINE
  5
268
100
AcDbEntity
  8
RACCORDO
100
AcDbLine
 62
7
  6
CONTINUOUS
 10
146.9169968851
 20
120.4783230412
 11
147.5398595915
 21
121.1171505599
  0
LWPOLYLINE
  5
269
100
AcDbEntity
  8
RACCORDO
100
AcDbPolyline
 62
250
  6
CONTINUOUS
 90
7
 70
0
 10
147.8178346226
 20
113.5838378032
 10
147.8268091468
 20
113.5867407197
 10
147.843026114
 20
113.5955909843
 10
147.857368533
 20
113.6084788105
 10
147.8694031131
 20
113.6250148516
 10
147.878766284
 20
113.6446995466
 10
147.8851751801
 20
113.6669382125
  0
LINE
  5
26A
100
AcDbEntity
  8
RACCORDO
100
AcDbLine
 62
250
  6
CONTINUOUS
 10
150.0547765348
 20
90.8071327897
 11
150.4738775035
 21
90.8954024913
  0
LINE
  5
26B
100
AcDbEntity
  8
RACCORDO
100
AcDbLine
 62
7
  6
CONTINUOUS
 10
150.0547765348
 20
90.8401966308
 11
150.3913108491
 21
90.9110764085
  0
LINE
  5
26C
100
AcDbEntity
  8
RACCORDO
100
AcDbLine
 62
250
  6
CONTINUOUS
 10
150.3913108491
 20
90.9110764085
 11
150.399005671
 21
90.9123894937
  0
LWPOLYLINE
  5
26D
100
AcDbEntity
  8
RACCORDO
100
AcDbPolyline
 62
250
  6
CONTINUOUS
 90
5
 70
0
 10
150.399005671
 20
90.9123894937
 10
150.4176658169
 20
90.9131266951
 10
150.4365786453
 20
90.9105021212
 10
150.4554226543
 20
90.9045603856
 10
150.4738775035
 20
90.8954024913
  0
LINE
  5
26E
100
AcDbEntity
  8
RACCORDO
100
AcDbLine
 62
7
  6
CONTINUOUS
 10
148.0526899391
 20
86.4474922717
 11
148.5014774205
 21
86.1883680046
  0
LWPOLYLINE
  5
26F
100
AcDbEntity
  8
RACCORDO
100
AcDbPolyline
 62
250
  6
CONTINUOUS
 90
13
 70
0
 10
148.370939877
 20
86.0752459786
 10
148.3847529567
 20
86.0662045559
 10
148.398797484
 20
86.0555742651
 10
148.4128344858
 20
86.0435361735
 10
148.4266249623
 20
86.0302954676
 10
148.4399345907
 20
86.016077354
 10
148.4525376221
 20
86.0011230873
 10
148.464219688
 20
85.9856870224
 10
148.4747820765
 20
85.9700317195
 10
148.484045509
 20
85.9544227676
 10
148.4918523202
 20
85.9391254887
 10
148.4980693323
 20
85.9244004328
 10
148.5025905378
 20
85.9104982379
  0
LWPOLYLINE
  5
270
100
AcDbEntity
  8
RACCORDO
100
AcDbPolyline
 62
250
  6
CONTINUOUS
 90
10
 70
0
 10
147.7535245193
 20
85.5432439166
 10
147.7720032615
 20
85.5308285896
 10
147.7907530868
 20
85.5156933643
 10
147.809207555
 20
85.4982954823
 10
147.8268091483
 20
85.4791605414
 10
147.8430261151
 20
85.4588666164
 10
147.8573685336
 20
85.4380267957
 10
147.8694031131
 20
85.4172706594
 10
147.8787662838
 20
85.3972252593
 10
147.8851751801
 20
85.3784961758
  0
LWPOLYLINE
  5
271
100
AcDbEntity
  8
RACCORDO
100
AcDbPolyline
 62
250
  6
CONTINUOUS
 90
8
 70
0
 10
146.2384960467
 20
122.4829012746
 10
146.2131911168
 20
122.4387956305
 10
146.1859052584
 20
122.3961183567
 10
146.1568606859
 20
122.3552304128
 10
146.1262516338
 20
122.3163865337
 10
146.0943281516
 20
122.2798894762
 10
146.0614319048
 20
122.2461156
 10
146.0409237045
 20
122.2272979966
  0
LINE
  5
272
100
AcDbEntity
  8
RACCORDO
100
AcDbLine
 62
250
  6
CONTINUOUS
 10
146.0964348326
 20
122.3655883072
 11
146.1416916007
 21
122.4426582685
  0
LWPOLYLINE
  5
273
100
AcDbEntity
  8
RACCORDO
100
AcDbPolyline
 62
250
  6
CONTINUOUS
 90
3
 70
0
 10
146.1416916007
 20
122.4426582685
 10
146.1568458228
 20
122.4681015773
 10
146.1582911859
 20
122.4704997024
  0
LINE
  5
274
100
AcDbEntity
  8
RACCORDO
100
AcDbLine
 62
7
  6
CONTINUOUS
 10
146.1582911859
 20
122.4704997024
 11
146.1583215696
 21
122.4705500514
  0
LWPOLYLINE
  5
275
100
AcDbEntity
  8
RACCORDO
100
AcDbPolyline
 62
250
  6
CONTINUOUS
 90
3
 70
0
 10
146.0749854408
 20
122.3298596573
 10
146.0820223521
 20
122.3414691522
 10
146.0964348326
 20
122.3655883072
  0
LINE
  5
276
100
AcDbEntity
  8
RACCORDO
100
AcDbLine
 62
250
  6
CONTINUOUS
 10
151.0276119571
 20
121.0586532561
 11
149.1238534855
 21
119.2363954097
  0
LINE
  5
277
100
AcDbEntity
  8
RACCORDO
100
AcDbLine
 62
7
  6
CONTINUOUS
 10
151.0220389088
 20
120.9943905009
 11
149.1622538316
 21
119.2142235312
  0
LINE
  5
278
100
AcDbEntity
  8
RACCORDO
100
AcDbLine
 62
7
  6
CONTINUOUS
 10
151.0126745171
 20
115.2841875665
 11
148.6827040405
 21
113.8432988267
  0
LINE
  5
279
100
AcDbEntity
  8
RACCORDO
100
AcDbLine
 62
250
  6
CONTINUOUS
 10
148.7001441086
 20
113.9036054313
 11
151.0416269971
 21
115.3515671625
  0
LWPOLYLINE
  5
27A
100
AcDbEntity
  8
RACCORDO
100
AcDbPolyline
 62
250
  6
CONTINUOUS
 90
3
 70
0
 10
151.05492026
 20
116.018594666
 10
151.0271377133
 20
116.0015381695
 10
151.0104669105
 20
115.990892737
  0
LWPOLYLINE
  5
27B
100
AcDbEntity
  8
RACCORDO
100
AcDbPolyline
 62
7
  6
CONTINUOUS
 90
3
 70
0
 10
148.608689461
 20
113.797968913
 10
148.6292053779
 20
113.8104485953
 10
148.6824776217
 20
113.8431667122
  0
LWPOLYLINE
  5
27C
100
AcDbEntity
  8
RACCORDO
100
AcDbPolyline
 62
250
  6
CONTINUOUS
 90
3
 70
0
 10
148.6770023106
 20
113.8896660625
 10
148.6885748209
 20
113.8965902357
 10
148.7001441086
 20
113.9036054313
  0
LINE
  5
27D
100
AcDbEntity
  8
RACCORDO
100
AcDbLine
 62
250
  6
CONTINUOUS
 10
151.0104669105
 20
115.990892737
 11
148.6075272833
 21
114.5713318293
  0
LINE
  5
27E
100
AcDbEntity
  8
RACCORDO
100
AcDbLine
 62
250
  6
CONTINUOUS
 10
151.0416269971
 20
115.8706558052
 11
148.6075272833
 21
114.4328615758
  0
LINE
  5
27F
100
AcDbEntity
  8
RACCORDO
100
AcDbLine
 62
250
  6
CONTINUOUS
 10
147.5468671115
 20
113.4584447981
 11
147.7532969098
 21
113.5776351857
  0
LINE
  5
280
100
AcDbEntity
  8
RACCORDO
100
AcDbLine
 62
250
  6
CONTINUOUS
 10
147.5468671115
 20
113.1318903684
 11
148.8564296652
 21
113.8880179705
  0
LWPOLYLINE
  5
281
100
AcDbEntity
  8
RACCORDO
100
AcDbPolyline
 62
250
  6
CONTINUOUS
 90
7
 70
0
 10
148.6075272833
 20
113.8500496169
 10
148.619106814
 20
113.8564200456
 10
148.630686201
 20
113.8628833992
 10
148.6422654441
 20
113.8694396777
 10
148.6538455696
 20
113.8760895152
 10
148.6654255514
 20
113.8828322776
 10
148.6770023106
 20
113.8896660625
  0
LWPOLYLINE
  5
282
100
AcDbEntity
  8
RACCORDO
100
AcDbPolyline
 62
7
  6
CONTINUOUS
 90
3
 70
0
 10
148.576709442
 20
113.7786140977
 10
148.5723734556
 20
113.7762426527
 10
148.5622533084
 20
113.7725429485
  0
LWPOLYLINE
  5
283
100
AcDbEntity
  8
RACCORDO
100
AcDbPolyline
 62
250
  6
CONTINUOUS
 90
22
 70
0
 10
148.8564296652
 20
113.8880179705
 10
148.9012910191
 20
113.9114692253
 10
148.9447816196
 20
113.9304679326
 10
148.9869014667
 20
113.9450140923
 10
149.0276699917
 20
113.9550416866
 10
149.0670677634
 20
113.9606167334
 10
149.1050364884
 20
113.9619372861
 10
149.1418523976
 20
113.9589701493
 10
149.1772392601
 20
113.9517485185
 10
149.2103100897
 20
113.9405700334
 10
149.2409870654
 20
113.9251074697
 10
149.2693480083
 20
113.9056880516
 10
149.2947393948
 20
113.8835910923
 10
149.3167601278
 20
113.8591611164
 10
149.3358113046
 20
113.8320535991
 10
149.352442693
 20
113.8025142795
 10
149.3668365948
 20
113.7711154302
 10
149.3788107083
 20
113.7372847785
 10
149.3883678962
 20
113.6995512451
 10
149.3955091127
 20
113.6574244701
 10
149.4002334035
 20
113.6113948133
 10
149.4025407688
 20
113.5614622748
  0
LWPOLYLINE
  5
284
100
AcDbEntity
  8
RACCORDO
100
AcDbPolyline
 62
250
  6
CONTINUOUS
 90
16
 70
0
 10
147.8851751801
 20
113.6669382125
 10
147.8790119662
 20
113.6641045844
 10
147.8724307825
 20
113.6613461926
 10
147.8654240443
 20
113.6586825663
 10
147.8580009447
 20
113.6561404862
 10
147.850144406
 20
113.6537345001
 10
147.8418068612
 20
113.6514709002
 10
147.8329811087
 20
113.6493769159
 10
147.8236745494
 20
113.6474815897
 10
147.8138607389
 20
113.6458021289
 10
147.8035599378
 20
113.6443743165
 10
147.7927748052
 20
113.6432300805
 10
147.7814551471
 20
113.6423917922
 10
147.7696013988
 20
113.6418991915
 10
147.7572687478
 20
113.6418016549
 10
147.7444981989
 20
113.6421437488
  0
LWPOLYLINE
  5
285
100
AcDbEntity
  8
RACCORDO
100
AcDbPolyline
 62
250
  6
CONTINUOUS
 90
8
 70
0
 10
147.7898070295
 20
92.4539314442
 10
147.8016276029
 20
92.4553734871
 10
147.8136018046
 20
92.4572829351
 10
147.8256365518
 20
92.4596850062
 10
147.8376788831
 20
92.4626116812
 10
147.8497608683
 20
92.4661275609
 10
147.8618095332
 20
92.4702830096
 10
147.8736598791
 20
92.4750969531
  0
LWPOLYLINE
  5
286
100
AcDbEntity
  8
RACCORDO
100
AcDbPolyline
 62
250
  6
CONTINUOUS
 90
5
 70
0
 10
147.7444981989
 20
92.4521799427
 10
147.755434033
 20
92.452071636
 10
147.7666615437
 20
92.4523082026
 10
147.7781411023
 20
92.4529192781
 10
147.7898070295
 20
92.4539314442
  0
LWPOLYLINE
  5
287
100
AcDbEntity
  8
RACCORDO
100
AcDbPolyline
 62
7
  6
CONTINUOUS
 90
6
 70
0
 10
147.7330333758
 20
92.3893296548
 10
147.7543826249
 20
92.388418964
 10
147.7758958568
 20
92.3893768519
 10
147.7967250108
 20
92.3921994908
 10
147.8166667747
 20
92.3968249737
 10
147.8365489425
 20
92.4035682913
  0
LINE
  5
288
100
AcDbEntity
  8
RACCORDO
100
AcDbLine
 62
7
  6
CONTINUOUS
 10
147.5468671115
 20
92.4052411686
 11
147.7330333445
 21
92.3893296575
  0
LINE
  5
289
100
AcDbEntity
  8
RACCORDO
100
AcDbLine
 62
250
  6
CONTINUOUS
 10
147.5468671115
 20
92.4690713477
 11
147.7444981989
 21
92.4521799427
  0
LWPOLYLINE
  5
28A
100
AcDbEntity
  8
RACCORDO
100
AcDbPolyline
 62
250
  6
CONTINUOUS
 90
7
 70
0
 10
150.237581001
 20
88.061630211
 10
150.2248058428
 20
88.0673243556
 10
150.2097070838
 20
88.0705326489
 10
150.1934013805
 20
88.0706938403
 10
150.1761615713
 20
88.0678052328
 10
150.1582761246
 20
88.0619151604
 10
150.140044312
 20
88.0531221798
  0
LWPOLYLINE
  5
28B
100
AcDbEntity
  8
RACCORDO
100
AcDbPolyline
 62
250
  6
CONTINUOUS
 90
16
 70
0
 10
148.2080402306
 20
88.6436056749
 10
148.2477723702
 20
88.624984311
 10
148.2905929161
 20
88.6088053483
 10
148.3360533188
 20
88.595238263
 10
148.3836773762
 20
88.5844251718
 10
148.4329662217
 20
88.5764793428
 10
148.4834035496
 20
88.5714840093
 10
148.5344610241
 20
88.569491498
 10
148.5856038132
 20
88.5705226806
 10
148.636296191
 20
88.5745667553
 10
148.6860071501
 20
88.5815813601
 10
148.7342159632
 20
88.5914930164
 10
148.7804176383
 20
88.6041978984
 10
148.8241282083
 20
88.6195629215
 10
148.8648898007
 20
88.6374271353
 10
148.9022754339
 20
88.6576034106
  0
LWPOLYLINE
  5
28C
100
AcDbEntity
  8
RACCORDO
100
AcDbPolyline
 62
250
  6
CONTINUOUS
 90
21
 70
0
 10
151.0227639308
 20
87.608275428
 10
151.0222097306
 20
87.6085891893
 10
151.0190654209
 20
87.6101509927
 10
151.0157230055
 20
87.6114554647
 10
151.0121943992
 20
87.6124975919
 10
151.0084800615
 20
87.6132782992
 10
151.0045855337
 20
87.6137957361
 10
151.0005200029
 20
87.6140477766
 10
150.9962895618
 20
87.6140353815
 10
150.9919023181
 20
87.6137584637
 10
150.9873664663
 20
87.6132170274
 10
150.9826886868
 20
87.6124134579
 10
150.9778774675
 20
87.6113492788
 10
150.9729415147
 20
87.6100260505
 10
150.9678880661
 20
87.6084471477
 10
150.9627260661
 20
87.6066155847
 10
150.957464274
 20
87.6045342874
 10
150.9521097286
 20
87.6022070911
 10
150.9466707371
 20
87.5996379724
 10
150.9411568833
 20
87.5968311871
 10
150.9355771343
 20
87.5937914986
  0
LINE
  5
28D
100
AcDbEntity
  8
RACCORDO
100
AcDbLine
 62
250
  6
CONTINUOUS
 10
147.7087755042
 20
88.4426388333
 11
148.0065667445
 21
88.2706995582
  0
LINE
  5
28E
100
AcDbEntity
  8
RACCORDO
100
AcDbLine
 62
250
  6
CONTINUOUS
 10
147.9846038396
 20
88.772613805
 11
148.2080402306
 21
88.6436056749
  0
LINE
  5
28F
100
AcDbEntity
  8
RACCORDO
100
AcDbLine
 62
250
  6
CONTINUOUS
 10
150.140044312
 20
88.0531221798
 11
150.9355771343
 21
87.5937914986
  0
LINE
  5
290
100
AcDbEntity
  8
RACCORDO
100
AcDbLine
 62
7
  6
CONTINUOUS
 10
150.237581001
 20
88.061630211
 11
151.0227612593
 21
87.6082769705
  0
LWPOLYLINE
  5
291
100
AcDbEntity
  8
RACCORDO
100
AcDbPolyline
 62
250
  6
CONTINUOUS
 90
16
 70
0
 10
148.0065667445
 20
88.2706995582
 10
148.0427710412
 20
88.2462708806
 10
148.0784151957
 20
88.218027638
 10
148.1131342581
 20
88.1862590061
 10
148.1465727509
 20
88.1512902553
 10
148.1783883072
 20
88.113479422
 10
148.2082551758
 20
88.0732136435
 10
148.2358675596
 20
88.0309051906
 10
148.2609427455
 20
87.9869872474
 10
148.2832239967
 20
87.941909479
 10
148.3024831844
 20
87.8961334236
 10
148.318523122
 20
87.8501277676
 10
148.3311795837
 20
87.8043635494
 10
148.3403229867
 20
87.7593093337
 10
148.3458597174
 20
87.7154264148
 10
148.3477330898
 20
87.6731640941
  0
LWPOLYLINE
  5
292
100
AcDbEntity
  8
RACCORDO
100
AcDbPolyline
 62
250
  6
CONTINUOUS
 90
9
 70
0
 10
137.531820276
 20
80.9168614052
 10
137.533693113
 20
80.8759792323
 10
137.5392917824
 20
80.8376928853
 10
137.5485569699
 20
80.8024079837
 10
137.5613905166
 20
80.7704983486
 10
137.5776564595
 20
80.7423020425
 10
137.597182471
 20
80.7181177873
 10
137.6197616854
 20
80.6982018
 10
137.6353615866
 20
80.6879929746
  0
LINE
  5
293
100
AcDbEntity
  8
RACCORDO
100
AcDbLine
 62
7
  6
CONTINUOUS
 10
137.3853736666
 20
123.272770984
 11
137.3853736666
 21
81.1209987018
  0
LINE
  5
294
100
AcDbEntity
  8
RACCORDO
100
AcDbLine
 62
250
  6
CONTINUOUS
 10
137.531820276
 20
123.0686336874
 11
137.531820276
 21
80.9168614052
  0
LINE
  5
295
100
AcDbEntity
  8
RACCORDO
100
AcDbLine
 62
7
  6
CONTINUOUS
 10
144.7094307029
 20
124.1339307323
 11
144.4413062965
 21
123.3961064555
  0
LWPOLYLINE
  5
296
100
AcDbEntity
  8
RACCORDO
100
AcDbPolyline
 62
250
  6
CONTINUOUS
 90
7
 70
0
 10
148.6827040405
 20
113.8432988267
 10
148.6906568614
 20
113.8493898191
 10
148.6982887543
 20
113.858269996
 10
148.7042856969
 20
113.8690575254
 10
148.7085530367
 20
113.8815409803
 10
148.7110377073
 20
113.8955076234
 10
148.7117101737
 20
113.9107116494
  0
LWPOLYLINE
  5
297
100
AcDbEntity
  8
RACCORDO
100
AcDbPolyline
 62
250
  6
CONTINUOUS
 90
8
 70
0
 10
147.9565378197
 20
112.0621133213
 10
147.964583021
 20
112.0676298035
 10
147.971398501
 20
112.0736814091
 10
147.9768791857
 20
112.0801761984
 10
147.9809406413
 20
112.0870168103
 10
147.983519853
 20
112.0940977943
 10
147.9845768158
 20
112.1013071343
 10
147.9846038396
 20
112.1026626709
  0
LWPOLYLINE
  5
298
100
AcDbEntity
  8
RACCORDO
100
AcDbPolyline
 62
7
  6
CONTINUOUS
 90
10
 70
0
 10
151.0126743385
 20
115.2841878553
 10
151.0256956241
 20
115.2930901826
 10
151.041233911
 20
115.3062723025
 10
151.055573416
 20
115.3217020247
 10
151.0680809273
 20
115.3388888232
 10
151.0785663792
 20
115.3576298929
 10
151.0870101625
 20
115.3780924899
 10
151.0931326566
 20
115.3999780586
 10
151.0967069704
 20
115.4225930779
 10
151.0977589575
 20
115.4437721081
  0
LWPOLYLINE
  5
299
100
AcDbEntity
  8
RACCORDO
100
AcDbPolyline
 62
250
  6
CONTINUOUS
 90
9
 70
0
 10
148.2443695403
 20
112.388289437
 10
148.2609426132
 20
112.3995393913
 10
148.2832238823
 20
112.4198289064
 10
148.3024830926
 20
112.4441910702
 10
148.318523055
 20
112.4723764461
 10
148.3311795414
 20
112.5040964528
 10
148.3403229658
 20
112.539026319
 10
148.3458597117
 20
112.5768084086
 10
148.3477330898
 20
112.6170558825
  0
LINE
  5
29A
100
AcDbEntity
  8
RACCORDO
100
AcDbLine
 62
250
  6
CONTINUOUS
 10
148.3477317223
 20
112.6170550663
 11
147.5468671115
 21
112.1390772863
  0
LINE
  5
29B
100
AcDbEntity
  8
RACCORDO
100
AcDbLine
 62
7
  6
CONTINUOUS
 10
148.2443695403
 20
112.388289437
 11
147.5468671115
 21
111.9720010014
  0
LWPOLYLINE
  5
29C
100
AcDbEntity
  8
RACCORDO
100
AcDbPolyline
 62
7
  6
CONTINUOUS
 90
6
 70
0
 10
148.2443695403
 20
112.388289437
 10
148.2471098052
 20
112.3898993137
 10
148.2557651276
 20
112.3946366352
 10
148.2622041623
 20
112.3977462949
 10
148.2662680143
 20
112.3994491242
 10
148.2677002833
 20
112.3999655015
  0
LINE
  5
29D
100
AcDbEntity
  8
RACCORDO
100
AcDbLine
 62
250
  6
CONTINUOUS
 10
147.5468671115
 20
111.8255691467
 11
147.9565378197
 21
112.062113323
  0
LINE
  5
29E
100
AcDbEntity
  8
RACCORDO
100
AcDbLine
 62
250
  6
CONTINUOUS
 10
148.2080402306
 20
91.0535158363
 11
148.1279200252
 21
91.090561986
  0
LWPOLYLINE
  5
29F
100
AcDbEntity
  8
RACCORDO
100
AcDbPolyline
 62
250
  6
CONTINUOUS
 90
16
 70
0
 10
148.2080402306
 20
91.0535158363
 10
148.2477722781
 20
91.0348945111
 10
148.2905927294
 20
91.0187155724
 10
148.3360530399
 20
91.0051484973
 10
148.3836770098
 20
90.9943354039
 10
148.4329657782
 20
90.9863895615
 10
148.4834030484
 20
90.981394205
 10
148.5344604877
 20
90.9794016642
 10
148.5856032649
 20
90.9804328144
 10
148.6362956586
 20
90.9844768579
 10
148.6860066606
 20
90.9914914368
 10
148.7342155404
 20
91.0014030764
 10
148.7804173038
 20
91.0141079554
 10
148.8241279787
 20
91.0294729926
 10
148.8648896853
 20
91.0473372405
 10
148.9022754339
 20
91.067513572
  0
LWPOLYLINE
  5
2A0
100
AcDbEntity
  8
RACCORDO
100
AcDbPolyline
 62
7
  6
CONTINUOUS
 90
19
 70
0
 10
150.2376127965
 20
88.061611841
 10
150.2317269604
 20
88.0651560697
 10
150.218112491
 20
88.0744158596
 10
150.2031704178
 20
88.0861842928
 10
150.1873502052
 20
88.100424998
 10
150.1709784435
 20
88.1171283392
 10
150.1546172995
 20
88.1359600095
 10
150.1386240725
 20
88.156680212
 10
150.1233210621
 20
88.1790216639
 10
150.1091093294
 20
88.2024885067
 10
150.0962344603
 20
88.2266972418
 10
150.0849124779
 20
88.2512293098
 10
150.0753726148
 20
88.2754572243
 10
150.0676781362
 20
88.2989666444
 10
150.0618514162
 20
88.3213119364
 10
150.0578890771
 20
88.3417897458
 10
150.0556103855
 20
88.3601229627
 10
150.0547920285
 20
88.3759025311
 10
150.0547765275
 20
88.3782825501
  0
LWPOLYLINE
  5
2A1
100
AcDbEntity
  8
RACCORDO
100
AcDbPolyline
 62
250
  6
CONTINUOUS
 90
13
 70
0
 10
150.9355771343
 20
87.5937914986
 10
150.9496423686
 20
87.5848789642
 10
150.9634353887
 20
87.5740062151
 10
150.976720284
 20
87.5613592086
 10
150.9892698344
 20
87.547154247
 10
151.0008693937
 20
87.531634284
 10
151.0113205621
 20
87.515064771
 10
151.0204445846
 20
87.4977291043
 10
151.0280854033
 20
87.4799237881
 10
151.034112327
 20
87.4619533705
 10
151.038422273
 20
87.4441252164
 10
151.0409415259
 20
87.4267442494
 10
151.0416269973
 20
87.4101077483
  0
LWPOLYLINE
  5
2A2
100
AcDbEntity
  8
RACCORDO
100
AcDbPolyline
 62
250
  6
CONTINUOUS
 90
22
 70
0
 10
147.9832882558
 20
120.4034965222
 10
147.9951529116
 20
120.4246589824
 10
148.0064277057
 20
120.4461919391
 10
148.0171829868
 20
120.4679703671
 10
148.027532768
 20
120.4898468995
 10
148.0374684119
 20
120.5117228065
 10
148.0468703701
 20
120.5335753948
 10
148.0557781538
 20
120.5553351944
 10
148.0642296236
 20
120.5768991119
 10
148.0721136225
 20
120.5982318582
 10
148.0794717283
 20
120.6192815857
 10
148.0863295425
 20
120.6399562015
 10
148.0925637789
 20
120.6601761158
 10
148.0982062405
 20
120.6798835068
 10
148.10328543
 20
120.6989994103
 10
148.1076814789
 20
120.7174167884
 10
148.1114122521
 20
120.7350707412
 10
148.114511254
 20
120.7518874818
 10
148.1168848413
 20
120.767746225
 10
148.1185140499
 20
120.7825594482
 10
148.1194519325
 20
120.7962736912
 10
148.1197094669
 20
120.8088191199
  0
LWPOLYLINE
  5
2A3
100
AcDbEntity
  8
RACCORDO
100
AcDbPolyline
 62
250
  6
CONTINUOUS
 90
8
 70
0
 10
147.9565378197
 20
109.8591832759
 10
147.9645839653
 20
109.8645664297
 10
147.9713996755
 20
109.8704810849
 10
147.976880101
 20
109.8768351913
 10
147.9809409327
 20
109.8835287843
 10
147.9835197086
 20
109.8904588902
 10
147.9845767627
 20
109.8975211293
 10
147.9846038063
 20
109.8988046738
  0
LWPOLYLINE
  5
2A4
100
AcDbEntity
  8
RACCORDO
100
AcDbPolyline
 62
250
  6
CONTINUOUS
 90
3
 70
0
 10
147.9214352278
 20
109.7880003117
 10
147.924772129
 20
109.7901939362
 10
147.9282352549
 20
109.7927719365
  0
LINE
  5
2A5
100
AcDbEntity
  8
RACCORDO
100
AcDbLine
 62
7
  6
CONTINUOUS
 10
147.9214350737
 20
109.7880002164
 11
147.8883394537
 21
109.7675333886
  0
LINE
  5
2A6
100
AcDbEntity
  8
RACCORDO
100
AcDbLine
 62
250
  6
CONTINUOUS
 10
147.9565378197
 20
109.8591832742
 11
147.9180981717
 21
109.835436679
  0
LINE
  5
2A7
100
AcDbEntity
  8
RACCORDO
100
AcDbLine
 62
250
  6
CONTINUOUS
 10
147.5468671115
 20
109.2235771311
 11
148.0065667445
 21
109.4989267549
  0
LWPOLYLINE
  5
2A8
100
AcDbEntity
  8
RACCORDO
100
AcDbPolyline
 62
250
  6
CONTINUOUS
 90
19
 70
0
 10
148.0065643563
 20
109.4989281338
 10
148.026098316
 20
109.5103357148
 10
148.045082873
 20
109.5234869541
 10
148.0633880575
 20
109.5382106413
 10
148.0808174753
 20
109.5542566598
 10
148.0973464374
 20
109.5715152814
 10
148.1131008064
 20
109.5900744641
 10
148.1280444495
 20
109.6099012873
 10
148.1419916904
 20
109.6307683101
 10
148.1548331849
 20
109.652508158
 10
148.1664007785
 20
109.6748087901
 10
148.1766975312
 20
109.6976668115
 10
148.1858199709
 20
109.7213905251
 10
148.1936823399
 20
109.7460083252
 10
148.2000633567
 20
109.7711553094
 10
148.2048076705
 20
109.7965414172
 10
148.2077901278
 20
109.8219227268
 10
148.2089011955
 20
109.8471008664
 10
148.2080356202
 20
109.8718355335
  0
LINE
  5
2A9
100
AcDbEntity
  8
RACCORDO
100
AcDbLine
 62
7
  6
CONTINUOUS
 10
147.888338905
 20
109.7675330493
 11
147.8857220999
 21
109.7660221391
  0
LINE
  5
2AA
100
AcDbEntity
  8
RACCORDO
100
AcDbLine
 62
250
  6
CONTINUOUS
 10
147.9180981717
 20
109.8354365252
 11
147.5468671115
 21
109.635781647
  0
LINE
  5
2AB
100
AcDbEntity
  8
RACCORDO
100
AcDbLine
 62
7
  6
CONTINUOUS
 10
147.8857226425
 20
109.7660224747
 11
147.5468671115
 21
109.5837969359
  0
LWPOLYLINE
  5
2AC
100
AcDbEntity
  8
RACCORDO
100
AcDbPolyline
 62
250
  6
CONTINUOUS
 90
6
 70
0
 10
150.98353636
 20
90.6281691052
 10
150.9764875136
 20
90.6316705566
 10
150.9647603497
 20
90.6354656007
 10
150.9521809355
 20
90.6372597131
 10
150.9389069646
 20
90.6370544307
 10
150.9250916
 20
90.634877127
  0
LWPOLYLINE
  5
2AD
100
AcDbEntity
  8
RACCORDO
100
AcDbPolyline
 62
250
  6
CONTINUOUS
 90
6
 70
0
 10
150.5325347325
 20
90.8885723127
 10
150.5256034751
 20
90.8920543989
 10
150.5137923463
 20
90.895934003
 10
150.5011405
 20
90.8977742789
 10
150.4877834291
 20
90.8975877445
 10
150.4738775035
 20
90.8954024913
  0
LINE
  5
2AE
100
AcDbEntity
  8
RACCORDO
100
AcDbLine
 62
250
  6
CONTINUOUS
 10
150.9837488291
 20
90.6280469484
 11
150.98353636
 21
90.6281691052
  0
LINE
  5
2AF
100
AcDbEntity
  8
RACCORDO
100
AcDbLine
 62
250
  6
CONTINUOUS
 10
150.4738775035
 20
90.8954024913
 11
150.9250916
 21
90.634877127
  0
LINE
  5
2B0
100
AcDbEntity
  8
RACCORDO
100
AcDbLine
 62
7
  6
CONTINUOUS
 10
150.5325347325
 20
90.8885723127
 11
150.9837488291
 21
90.6280469484
  0
LWPOLYLINE
  5
2B1
100
AcDbEntity
  8
RACCORDO
100
AcDbPolyline
 62
250
  6
CONTINUOUS
 90
4
 70
0
 10
150.9250916
 20
90.634877127
 10
150.9434307811
 20
90.622790631
 10
150.9607553267
 20
90.6078491613
 10
150.9767707303
 20
90.5903067127
  0
LWPOLYLINE
  5
2B2
100
AcDbEntity
  8
RACCORDO
100
AcDbPolyline
 62
250
  6
CONTINUOUS
 90
22
 70
0
 10
145.9865320789
 20
122.3119874226
 10
145.9892009252
 20
122.3216087447
 10
145.9921852942
 20
122.331454705
 10
145.9954851858
 20
122.3415253033
 10
145.9990857939
 20
122.3518652145
 10
146.0030019248
 20
122.3624297637
 10
146.0072779966
 20
122.3730849268
 10
146.0119255396
 20
122.3838334243
 10
146.0169330236
 20
122.3946725357
 10
146.0223102762
 20
122.4054600753
 10
146.0280748406
 20
122.4161962975
 10
146.0342091736
 20
122.4268809479
 10
146.0406704737
 20
122.4373710771
 10
146.0474771884
 20
122.447660213
 10
146.0546108702
 20
122.4577548277
 10
146.0619733743
 20
122.4675313883
 10
146.0695662917
 20
122.4769659595
 10
146.0773880314
 20
122.4860824765
 10
146.0853356756
 20
122.4948292122
 10
146.0933966066
 20
122.5031833249
 10
146.1015834421
 20
122.5111676563
 10
146.1098311172
 20
122.5187990048
  0
LWPOLYLINE
  5
2B3
100
AcDbEntity
  8
RACCORDO
100
AcDbPolyline
 62
7
  6
CONTINUOUS
 90
3
 70
0
 10
147.9362127744
 20
109.7985066498
 10
147.9512492023
 20
109.812771763
 10
147.9636769406
 20
109.8288662546
  0
LWPOLYLINE
  5
2B4
100
AcDbEntity
  8
RACCORDO
100
AcDbPolyline
 62
250
  6
CONTINUOUS
 90
3
 70
0
 10
147.9282352549
 20
109.7927719365
 10
147.9315515185
 20
109.7955740107
 10
147.9347023171
 20
109.7985922129
  0
LINE
  5
2B5
100
AcDbEntity
  8
RACCORDO
100
AcDbLine
 62
7
  6
CONTINUOUS
 10
147.8961775603
 20
109.7735173611
 11
147.888338905
 21
109.7675330493
  0
LINE
  5
2B6
100
AcDbEntity
  8
RACCORDO
100
AcDbLine
 62
7
  6
CONTINUOUS
 10
147.9213239491
 20
109.7879317175
 11
147.9362127744
 21
109.7985066498
  0
LWPOLYLINE
  5
2B7
100
AcDbEntity
  8
RACCORDO
100
AcDbPolyline
 62
250
  6
CONTINUOUS
 90
19
 70
0
 10
148.3477330898
 20
108.9013912907
 10
148.3974992144
 20
108.9342276278
 10
148.445615344
 20
108.9705277803
 10
148.4920814786
 20
109.0102917482
 10
148.5369898371
 20
109.0537144524
 10
148.5802482006
 20
109.100600972
 10
148.6215799121
 20
109.1503665444
 10
148.661167583
 20
109.2032223029
 10
148.6988286019
 20
109.2589571142
 10
148.7337384779
 20
109.316352816
 10
148.765736398
 20
109.3750269115
 10
148.7949831751
 20
109.4353618976
 10
148.8211367565
 20
109.4972871017
 10
148.8444587393
 20
109.5613811671
 10
148.8646875263
 20
109.6270654506
 10
148.8806962737
 20
109.6925333506
 10
148.8921093668
 20
109.7571826668
 10
148.8993024202
 20
109.8216155995
 10
148.9022754339
 20
109.8858321489
  0
LWPOLYLINE
  5
2B8
100
AcDbEntity
  8
RACCORDO
100
AcDbPolyline
 62
7
  6
CONTINUOUS
 90
19
 70
0
 10
148.8177067707
 20
108.1488173807
 10
148.8650321606
 20
108.1799867444
 10
148.9245100007
 20
108.2246718948
 10
148.9820890653
 20
108.2740918622
 10
149.0374840761
 20
108.3278384763
 10
149.0905143041
 20
108.3855634162
 10
149.1409778623
 20
108.4469320886
 10
149.1886372929
 20
108.511560176
 10
149.2332283712
 20
108.5790485579
 10
149.2744771424
 20
108.6489434222
 10
149.3121467866
 20
108.7208180398
 10
149.345997208
 20
108.7942538478
 10
149.3758031619
 20
108.8687755353
 10
149.4013495334
 20
108.9439460341
 10
149.4224418677
 20
109.0193662912
 10
149.4389047216
 20
109.0946877418
 10
149.4505348626
 20
109.169562999
 10
149.4571406912
 20
109.2435358693
 10
149.4586727818
 20
109.2986059307
  0
LINE
  5
2B9
100
AcDbEntity
  8
RACCORDO
100
AcDbLine
 62
250
  6
CONTINUOUS
 10
149.9986444949
 20
109.6303967874
 11
149.4596014013
 21
109.2970444525
  0
LINE
  5
2BA
100
AcDbEntity
  8
RACCORDO
100
AcDbLine
 62
7
  6
CONTINUOUS
 10
149.9599696506
 20
109.5405130237
 11
149.4558193108
 21
109.2287388912
  0
LINE
  5
2BB
100
AcDbEntity
  8
RACCORDO
100
AcDbLine
 62
250
  6
CONTINUOUS
 10
148.8564296652
 20
108.2387308312
 11
147.5468671115
 21
107.4288777041
  0
LINE
  5
2BC
100
AcDbEntity
  8
RACCORDO
100
AcDbLine
 62
7
  6
CONTINUOUS
 10
148.8177548209
 20
108.1488470675
 11
147.5468671115
 21
107.3629110443
  0
LINE
  5
2BD
100
AcDbEntity
  8
RACCORDO
100
AcDbLine
 62
250
  6
CONTINUOUS
 10
147.5468671115
 20
108.4216907862
 11
148.3477330898
 21
108.9013912907
  0
LWPOLYLINE
  5
2BE
100
AcDbEntity
  8
RACCORDO
100
AcDbPolyline
 62
250
  6
CONTINUOUS
 90
7
 70
0
 10
149.9547789509
 20
94.5891092668
 10
149.9414723418
 20
94.5949744499
 10
149.9262075189
 20
94.5980822756
 10
149.9098432632
 20
94.5981068124
 10
149.8927141495
 20
94.5951190741
 10
149.8750826448
 20
94.589232054
 10
149.8572446778
 20
94.5805998408
  0
LWPOLYLINE
  5
2BF
100
AcDbEntity
  8
RACCORDO
100
AcDbPolyline
 62
250
  6
CONTINUOUS
 90
5
 70
0
 10
147.9167184278
 20
90.9392870897
 10
147.9125519231
 20
90.9444330228
 10
147.9081179667
 20
90.9495751774
 10
147.9034171552
 20
90.9546926602
 10
147.9022549241
 20
90.9558789165
  0
LWPOLYLINE
  5
2C0
100
AcDbEntity
  8
RACCORDO
100
AcDbPolyline
 62
250
  6
CONTINUOUS
 90
10
 70
0
 10
145.2310630054
 20
124.417294276
 10
145.2338839336
 20
124.433558721
 10
145.2344142382
 20
124.4504875999
 10
145.2326381217
 20
124.4675781933
 10
145.2286082754
 20
124.484322976
 10
145.2224443286
 20
124.5002246429
 10
145.2143293181
 20
124.5148108874
 10
145.2045042297
 20
124.5276484945
 10
145.1932608245
 20
124.5383561972
 10
145.1809329992
 20
124.5466159615
  0
LWPOLYLINE
  5
2C1
100
AcDbEntity
  8
RACCORDO
100
AcDbPolyline
 62
250
  6
CONTINUOUS
 90
13
 70
0
 10
147.9376657748
 20
109.8018114937
 10
147.9404298068
 20
109.805220077
 10
147.9429960443
 20
109.8088211877
 10
147.9453634045
 20
109.812621411
 10
147.9475171155
 20
109.8166001826
 10
147.9494601443
 20
109.8207698635
 10
147.9512068845
 20
109.825197104
 10
147.9527358305
 20
109.8298577743
 10
147.9540384486
 20
109.8347809189
 10
147.9551151494
 20
109.8401397885
 10
147.9559263772
 20
109.8460121309
 10
147.9564189064
 20
109.8523579936
 10
147.9565461553
 20
109.8591884236
  0
LINE
  5
2C2
100
AcDbEntity
  8
RACCORDO
100
AcDbLine
 62
250
  6
CONTINUOUS
 10
147.9347023171
 20
109.7985922129
 11
147.9376657748
 21
109.8018114937
  0
LWPOLYLINE
  5
2C3
100
AcDbEntity
  8
RACCORDO
100
AcDbPolyline
 62
250
  6
CONTINUOUS
 90
7
 70
0
 10
148.8177548209
 20
108.1488470675
 10
148.8281865361
 20
108.1568080048
 10
148.8383742644
 20
108.1685782405
 10
148.8464101384
 20
108.1829203524
 10
148.8521567155
 20
108.1995890378
 10
148.8555157081
 20
108.2182992014
 10
148.8564296652
 20
108.2387308312
  0
LINE
  5
2C4
100
AcDbEntity
  8
RACCORDO
100
AcDbLine
 62
250
  6
CONTINUOUS
 10
149.4369869616
 20
107.9379576595
 11
147.766214888
 21
106.7398971659
  0
LINE
  5
2C5
100
AcDbEntity
  8
RACCORDO
100
AcDbLine
 62
250
  6
CONTINUOUS
 10
149.5428114721
 20
107.7534821766
 11
147.8851751801
 21
106.5648409577
  0
LWPOLYLINE
  5
2C6
100
AcDbEntity
  8
RACCORDO
100
AcDbPolyline
 62
250
  6
CONTINUOUS
 90
13
 70
0
 10
147.766214888
 20
106.7398971659
 10
147.7640173347
 20
106.7384008073
 10
147.7617124228
 20
106.7369889408
 10
147.7593001522
 20
106.7356615666
 10
147.7568015789
 20
106.7344202703
 10
147.7541956469
 20
106.7332634663
 10
147.7514191886
 20
106.7321863969
 10
147.748451422
 20
106.7311721119
 10
147.7453131291
 20
106.7302375615
 10
147.7420034869
 20
106.7294288388
 10
147.7385222214
 20
106.7287613081
 10
147.7348696066
 20
106.7282196051
 10
147.7310456427
 20
106.7278037298
  0
LWPOLYLINE
  5
2C7
100
AcDbEntity
  8
RACCORDO
100
AcDbPolyline
 62
250
  6
CONTINUOUS
 90
13
 70
0
 10
147.8851751801
 20
106.5648409577
 10
147.8764347957
 20
106.5599068616
 10
147.8672059162
 20
106.555266876
 10
147.8575162524
 20
106.5509395276
 10
147.84750026
 20
106.5469796255
 10
147.8370924043
 20
106.5433595451
 10
147.8259923852
 20
106.5400057516
 10
147.8141264
 20
106.5369477341
 10
147.8015935729
 20
106.5342651067
 10
147.7883295332
 20
106.5320056152
 10
147.7743395718
 20
106.5302350498
 10
147.7597065204
 20
106.5290248512
 10
147.7444981989
 20
106.528443367
  0
LINE
  5
2C8
100
AcDbEntity
  8
RACCORDO
100
AcDbLine
 62
250
  6
CONTINUOUS
 10
149.5428114721
 20
94.762149633
 11
149.8572446778
 21
94.5805998408
  0
LINE
  5
2C9
100
AcDbEntity
  8
RACCORDO
100
AcDbLine
 62
7
  6
CONTINUOUS
 10
149.5428114721
 20
94.826974126
 11
149.9547813669
 21
94.5891078719
  0
LWPOLYLINE
  5
2CA
100
AcDbEntity
  8
RACCORDO
100
AcDbPolyline
 62
250
  6
CONTINUOUS
 90
13
 70
0
 10
149.8572446778
 20
94.5805998408
 10
149.8759983293
 20
94.5687164463
 10
149.8943890203
 20
94.5542194386
 10
149.912102204
 20
94.5373567651
 10
149.9288349161
 20
94.5184168407
 10
149.9443009713
 20
94.4977235988
 10
149.9582358544
 20
94.4756309464
 10
149.9704012299
 20
94.4525167267
 10
149.9805890073
 20
94.4287762903
 10
149.9886249208
 20
94.404815716
 10
149.9943715242
 20
94.3810448293
 10
149.9977305328
 20
94.3578701909
 10
149.9986444949
 20
94.3356881737
  0
LWPOLYLINE
  5
2CB
100
AcDbEntity
  8
RACCORDO
100
AcDbPolyline
 62
250
  6
CONTINUOUS
 90
10
 70
0
 10
147.9629455014
 20
90.9472041771
 10
147.9624226954
 20
90.9480159773
 10
147.9593976054
 20
90.9524160136
 10
147.9561351899
 20
90.9566829932
 10
147.9526396588
 20
90.9608124981
 10
147.9489123953
 20
90.9648021252
 10
147.9449675129
 20
90.968636786
 10
147.940803262
 20
90.9723184583
 10
147.9363922217
 20
90.9758656179
 10
147.9361004345
 20
90.9760788375
  0
LINE
  5
2CC
100
AcDbEntity
  8
RACCORDO
100
AcDbLine
 62
7
  6
CONTINUOUS
 10
147.96294565
 20
90.9472039441
 11
147.9422135941
 21
90.9797273374
  0
LWPOLYLINE
  5
2CD
100
AcDbEntity
  8
RACCORDO
100
AcDbPolyline
 62
250
  6
CONTINUOUS
 90
7
 70
0
 10
147.9375089644
 20
90.9071478049
 10
147.9345304454
 20
90.9126522753
 10
147.9313541031
 20
90.9181070476
 10
147.9279916227
 20
90.9234905758
 10
147.9244407296
 20
90.928803441
 10
147.9206788564
 20
90.9340770311
 10
147.9167184278
 20
90.9392870897
  0
LWPOLYLINE
  5
2CE
100
AcDbEntity
  8
RACCORDO
100
AcDbPolyline
 62
250
  6
CONTINUOUS
 90
9
 70
0
 10
144.445083156
 20
76.9252300618
 10
144.4469559929
 20
76.8843478895
 10
144.4525546622
 20
76.8460615429
 10
144.4618198495
 20
76.8107766415
 10
144.4746533961
 20
76.7788670064
 10
144.4909193387
 20
76.7506707002
 10
144.5104453501
 20
76.7264864449
 10
144.5330245642
 20
76.7065704575
 10
144.5486244666
 20
76.6963616312
  0
LINE
  5
2CF
100
AcDbEntity
  8
RACCORDO
100
AcDbLine
 62
7
  6
CONTINUOUS
 10
143.7638458322
 20
123.0521563124
 11
143.7638458322
 21
123.7056290446
  0
LINE
  5
2D0
100
AcDbEntity
  8
RACCORDO
100
AcDbLine
 62
7
  6
CONTINUOUS
 10
144.2254684725
 20
123.0120091768
 11
144.2254684725
 21
123.1124302437
  0
LINE
  5
2D1
100
AcDbEntity
  8
DRAFT
100
AcDbLine
 62
7
  6
CONTINUOUS
 10
144.4413062965
 20
123.2462463147
 11
144.4413062965
 21
123.3961064555
  0
LINE
  5
2D2
100
AcDbEntity
  8
RACCORDO
100
AcDbLine
 62
250
  6
CONTINUOUS
 10
144.445083156
 20
119.077002344
 11
144.445083156
 21
76.9252300618
  0
LWPOLYLINE
  5
2D3
100
AcDbEntity
  8
RACCORDO
100
AcDbPolyline
 62
250
  6
CONTINUOUS
 90
9
 70
0
 10
145.9624809809
 20
122.1851140384
 10
145.9638739201
 20
122.1950324179
 10
145.9662654582
 20
122.2110026884
 10
145.968702281
 20
122.2267827652
 10
145.9712878554
 20
122.2425634229
 10
145.9743325823
 20
122.2589169851
 10
145.9779399287
 20
122.2760342264
 10
145.9820064275
 20
122.2937243722
 10
145.9865320789
 20
122.3119874226
  0
LWPOLYLINE
  5
2D4
100
AcDbEntity
  8
RACCORDO
100
AcDbPolyline
 62
250
  6
CONTINUOUS
 90
6
 70
0
 10
147.961655575
 20
123.2602054393
 10
147.9714489625
 20
123.3191582388
 10
147.9815115234
 20
123.3966286648
 10
147.9889033743
 20
123.476106899
 10
147.9937569173
 20
123.5572026939
 10
147.9960721523
 20
123.6399160495
  0
LWPOLYLINE
  5
2D5
100
AcDbEntity
  8
RACCORDO
100
AcDbPolyline
 62
7
  6
CONTINUOUS
 90
5
 70
0
 10
147.9834494734
 20
123.2719254925
 10
147.9977854663
 20
123.3563404529
 10
148.0130666966
 20
123.4875755774
 10
148.0207738686
 20
123.6154690082
 10
148.021757647
 20
123.6785897476
  0
LWPOLYLINE
  5
2D6
100
AcDbEntity
  8
RACCORDO
100
AcDbPolyline
 62
250
  6
CONTINUOUS
 90
10
 70
0
 10
147.1584026805
 20
124.7984208447
 10
147.1612236524
 20
124.8146857251
 10
147.1617538848
 20
124.8316149379
 10
147.1599776311
 20
124.8487057256
 10
147.1559476417
 20
124.8654505325
 10
147.1497835977
 20
124.8813520776
 10
147.1416685566
 20
124.8959381229
 10
147.1318435158
 20
124.9087754976
 10
147.1206002556
 20
124.9194829621
 10
147.1082726742
 20
124.9277425302
  0
LWPOLYLINE
  5
2D7
100
AcDbEntity
  8
RACCORDO
100
AcDbPolyline
 62
250
  6
CONTINUOUS
 90
13
 70
0
 10
150.0434402765
 20
123.4528832129
 10
150.0498009432
 20
123.4771223404
 10
150.0536696906
 20
123.5023743156
 10
150.0549575087
 20
123.5282231024
 10
150.0536152622
 20
123.5542624718
 10
150.0496382904
 20
123.5800220974
 10
150.0430940908
 20
123.6049810137
 10
150.0340986525
 20
123.6287016609
 10
150.0228028228
 20
123.6507897585
 10
150.0094238532
 20
123.670834827
 10
149.9942086757
 20
123.6884965935
 10
149.9774168733
 20
123.7034997393
 10
149.9593395641
 20
123.715604154
  0
LWPOLYLINE
  5
2D8
100
AcDbEntity
  8
RACCORDO
100
AcDbPolyline
 62
7
  6
CONTINUOUS
 90
5
 70
0
 10
147.9636769406
 20
109.8288662546
 10
147.9731660761
 20
109.8460912572
 10
147.9797131639
 20
109.8638826414
 10
147.9834891012
 20
109.8820406641
 10
147.9846020263
 20
109.8988020866
  0
LWPOLYLINE
  5
2D9
100
AcDbEntity
  8
RACCORDO
100
AcDbPolyline
 62
250
  6
CONTINUOUS
 90
3
 70
0
 10
150.9767707303
 20
90.5903067127
 10
150.991204733
 20
90.570461506
 10
151.0038119749
 20
90.5486508878
  0
LWPOLYLINE
  5
2DA
100
AcDbEntity
  8
RACCORDO
100
AcDbPolyline
 62
250
  6
CONTINUOUS
 90
7
 70
0
 10
148.818742472
 20
92.7945629582
 10
148.8281878478
 20
92.7766162978
 10
148.8383752771
 20
92.7528760184
 10
148.8464108035
 20
92.7289158558
 10
148.8521570473
 20
92.705145618
 10
148.8555157954
 20
92.6819718202
 10
148.8564296652
 20
92.6597907739
  0
LWPOLYLINE
  5
2DB
100
AcDbEntity
  8
RACCORDO
100
AcDbPolyline
 62
7
  6
CONTINUOUS
 90
6
 70
0
 10
147.9100489877
 20
90.8631386302
 10
147.9039594451
 20
90.8810886513
 10
147.896221418
 20
90.8988737871
 10
147.8870388451
 20
90.9162135663
 10
147.8766134
 20
90.9328358703
 10
147.8726421908
 20
90.9382052319
  0
LINE
  5
2DC
100
AcDbEntity
  8
RACCORDO
100
AcDbLine
 62
250
  6
CONTINUOUS
 10
145.1428138345
 20
119.0717286053
 11
145.1428138345
 21
76.9199563231
  0
LINE
  5
2DD
100
AcDbEntity
  8
DRAFT
100
AcDbLine
 62
7
  6
CONTINUOUS
 10
145.328518604
 20
122.4755429222
 11
145.328518604
 21
123.0371512737
  0
LINE
  5
2DE
100
AcDbEntity
  8
DRAFT
100
AcDbLine
 62
7
  6
CONTINUOUS
 10
145.425546768
 20
122.0927110181
 11
145.425546768
 21
121.2762407413
  0
LWPOLYLINE
  5
2DF
100
AcDbEntity
  8
RACCORDO
100
AcDbPolyline
 62
7
  6
CONTINUOUS
 90
11
 70
0
 10
146.3088735221
 20
122.9507276554
 10
146.3075454121
 20
122.9108280945
 10
146.3029261774
 20
122.8642251618
 10
146.294865898
 20
122.8151844341
 10
146.283298145
 20
122.7641513916
 10
146.2682336945
 20
122.7117088274
 10
146.2497724077
 20
122.6585345195
 10
146.2280462834
 20
122.6051747149
 10
146.2032343673
 20
122.5521727073
 10
146.1756054461
 20
122.5001690964
 10
146.1582911124
 20
122.4704994062
  0
LWPOLYLINE
  5
2E0
100
AcDbEntity
  8
RACCORDO
100
AcDbPolyline
 62
250
  6
CONTINUOUS
 90
10
 70
0
 10
146.352824427
 20
122.8895138276
 10
146.3513661518
 20
122.8475856112
 10
146.3469842753
 20
122.8040879014
 10
146.3396893429
 20
122.7593185812
 10
146.329506627
 20
122.7135524192
 10
146.3164924622
 20
122.6671451096
 10
146.3007553114
 20
122.6205335665
 10
146.2824266124
 20
122.5740863087
 10
146.2616271149
 20
122.5280992259
 10
146.2384960467
 20
122.4829012746
  0
LINE
  5
2E1
100
AcDbEntity
  8
RACCORDO
100
AcDbLine
 62
250
  6
CONTINUOUS
 10
151.0340197794
 20
123.526469482
 11
151.0276119571
 21
123.5020018468
  0
LWPOLYLINE
  5
2E2
100
AcDbEntity
  8
RACCORDO
100
AcDbPolyline
 62
250
  6
CONTINUOUS
 90
6
 70
0
 10
151.0276119571
 20
87.9312786594
 10
151.0340342273
 20
87.9172541323
 10
151.0378941324
 20
87.9048387511
 10
151.0391277628
 20
87.8942428175
 10
151.0377162443
 20
87.8856461004
 10
151.0344813445
 20
87.8800495345
  0
LWPOLYLINE
  5
2E3
100
AcDbEntity
  8
RACCORDO
100
AcDbPolyline
 62
250
  6
CONTINUOUS
 90
8
 70
0
 10
151.0038119749
 20
90.5486508878
 10
151.0143781556
 20
90.5252455858
 10
151.0227236527
 20
90.5006434457
 10
151.028706575
 20
90.4752627078
 10
151.0322252008
 20
90.4495348621
 10
151.0332197122
 20
90.4238972811
 10
151.031673202
 20
90.398785782
 10
151.0276119571
 20
90.3746272501
  0
LWPOLYLINE
  5
2E4
100
AcDbEntity
  8
RACCORDO
100
AcDbPolyline
 62
250
  6
CONTINUOUS
 90
16
 70
0
 10
145.1428138345
 20
119.0717286053
 10
145.1399238868
 20
119.1151055273
 10
145.1332751859
 20
119.1603109229
 10
145.1229409931
 20
119.2068469085
 10
145.1090333417
 20
119.2542064813
 10
145.0917064585
 20
119.3018625916
 10
145.071158943
 20
119.3492738472
 10
145.0476258161
 20
119.3959085973
 10
145.0213646363
 20
119.4412657245
 10
144.9926571637
 20
119.4848620355
 10
144.9617742572
 20
119.5262751817
 10
144.9290951257
 20
119.5649863988
 10
144.895115309
 20
119.6004373161
 10
144.8602671281
 20
119.6322401127
 10
144.8248941598
 20
119.6601422887
 10
144.789381593
 20
119.6838911928
  0
LWPOLYLINE
  5
2E5
100
AcDbEntity
  8
RACCORDO
100
AcDbPolyline
 62
250
  6
CONTINUOUS
 90
10
 70
0
 10
145.0353343802
 20
124.3359859089
 10
145.0344090764
 20
124.350869506
 10
145.0312564655
 20
124.3664739333
 10
145.0259722269
 20
124.3823256081
 10
145.0187167333
 20
124.3979434438
 10
145.0097101836
 20
124.4128534507
 10
144.9992259198
 20
124.4266031211
 10
144.9875821316
 20
124.4387751628
 10
144.9751321993
 20
124.4490001633
 10
144.9622539692
 20
124.4569678014
  0
LWPOLYLINE
  5
2E6
100
AcDbEntity
  8
RACCORDO
100
AcDbPolyline
 62
7
  6
CONTINUOUS
 90
13
 70
0
 10
148.6075272833
 20
86.0046842543
 10
148.6066194926
 20
86.0207053447
 10
148.6040032639
 20
86.0376180207
 10
148.5996738007
 20
86.0551565994
 10
148.5936473279
 20
86.0730879008
 10
148.5859846497
 20
86.0910504857
 10
148.5768353336
 20
86.1085679454
 10
148.5663735011
 20
86.125282946
 10
148.5547726169
 20
86.1409621478
 10
148.5422556542
 20
86.1553428506
 10
148.5290485284
 20
86.1681804039
 10
148.5153756805
 20
86.1792517888
 10
148.5014774205
 20
86.1883680046
  0
LINE
  5
2E7
100
AcDbEntity
  8
RACCORDO
100
AcDbLine
 62
250
  6
CONTINUOUS
 10
146.9486120268
 20
118.3473370383
 11
146.9501624125
 21
118.3189911349
  0
LWPOLYLINE
  5
2E8
100
AcDbEntity
  8
RACCORDO
100
AcDbPolyline
 62
250
  6
CONTINUOUS
 90
10
 70
0
 10
147.718355274
 20
85.5275314561
 10
147.7192660209
 20
85.5098623507
 10
147.720804187
 20
85.4901891389
 10
147.7229334109
 20
85.4689768849
 10
147.7256033589
 20
85.4467270351
 10
147.7287509149
 20
85.4239655642
 10
147.7323016722
 20
85.4012305414
 10
147.7361716929
 20
85.3790594106
 10
147.7402694917
 20
85.3579762857
 10
147.7444981989
 20
85.3384795609
  0
LWPOLYLINE
  5
2E9
100
AcDbEntity
  8
RACCORDO
100
AcDbPolyline
 62
7
  6
CONTINUOUS
 90
6
 70
0
 10
147.9845987662
 20
90.874912745
 10
147.9840969925
 20
90.8858396362
 10
147.9809234012
 20
90.9052009547
 10
147.9747105236
 20
90.9244734568
 10
147.9654760022
 20
90.9430839284
 10
147.9629505492
 20
90.9471958664
  0
LWPOLYLINE
  5
2EA
100
AcDbEntity
  8
RACCORDO
100
AcDbPolyline
 62
250
  6
CONTINUOUS
 90
5
 70
0
 10
148.2089162102
 20
91.0732816784
 10
148.2081334135
 20
91.092027997
 10
148.2057151755
 20
91.1096139253
 10
148.2017131536
 20
91.1258938725
 10
148.1990532797
 20
91.1330162468
  0
LWPOLYLINE
  5
2EB
100
AcDbEntity
  8
RACCORDO
100
AcDbPolyline
 62
7
  6
CONTINUOUS
 90
4
 70
0
 10
147.9174703634
 20
90.8113041202
 10
147.9168525799
 20
90.8279462286
 10
147.9143636894
 20
90.8453214618
 10
147.9100489877
 20
90.8631386302
  0
LINE
  5
2EC
100
AcDbEntity
  8
RACCORDO
100
AcDbLine
 62
250
  6
CONTINUOUS
 10
146.351345542
 20
123.3599803265
 11
146.352824427
 21
123.3195349822
  0
LINE
  5
2ED
100
AcDbEntity
  8
RACCORDO
100
AcDbLine
 62
7
  6
CONTINUOUS
 10
146.3083883397
 20
123.4038869682
 11
146.3088733018
 21
123.3809478032
  0
LWPOLYLINE
  5
2EE
100
AcDbEntity
  8
RACCORDO
100
AcDbPolyline
 62
250
  6
CONTINUOUS
 90
4
 70
0
 10
147.9565439542
 20
90.8338896725
 10
147.9564781484
 20
90.8396774161
 10
147.9561496778
 20
90.8454341582
 10
147.9555735784
 20
90.851140957
  0
LINE
  5
2EF
100
AcDbEntity
  8
RACCORDO
100
AcDbLine
 62
7
  6
CONTINUOUS
 10
146.3088904441
 20
123.3807761712
 11
146.3088904441
 21
122.9507550203
  0
LINE
  5
2F0
100
AcDbEntity
  8
RACCORDO
100
AcDbLine
 62
250
  6
CONTINUOUS
 10
146.352824427
 20
123.3195349822
 11
146.352824427
 21
122.8895138276
  0
LINE
  5
2F1
100
AcDbEntity
  8
RACCORDO
100
AcDbLine
 62
7
  6
CONTINUOUS
 10
146.6524676172
 20
122.7165036049
 11
146.6524676172
 21
123.1465247595
  0
LINE
  5
2F2
100
AcDbEntity
  8
RACCORDO
100
AcDbLine
 62
7
  6
CONTINUOUS
 10
146.8212440876
 20
118.3169044242
 11
146.8212440876
 21
115.6572368269
  0
LINE
  5
2F3
100
AcDbEntity
  8
RACCORDO
100
AcDbLine
 62
7
  6
CONTINUOUS
 10
146.8212440876
 20
79.5140723436
 11
146.8212440876
 21
82.173739941
  0
LINE
  5
2F4
100
AcDbEntity
  8
RACCORDO
100
AcDbLine
 62
7
  6
CONTINUOUS
 10
146.9062284297
 20
118.3802327602
 11
146.9062284297
 21
116.0037412642
  0
LINE
  5
2F5
100
AcDbEntity
  8
RACCORDO
100
AcDbLine
 62
7
  6
CONTINUOUS
 10
146.9062284297
 20
82.3408637757
 11
146.9062284297
 21
81.057453107
  0
LINE
  5
2F6
100
AcDbEntity
  8
RACCORDO
100
AcDbLine
 62
250
  6
CONTINUOUS
 10
146.9169968851
 20
120.4783230412
 11
146.9169968851
 21
120.4412353161
  0
LINE
  5
2F7
100
AcDbEntity
  8
RACCORDO
100
AcDbLine
 62
250
  6
CONTINUOUS
 10
146.9501624125
 20
118.3189911349
 11
146.9501624125
 21
115.9813952104
  0
LINE
  5
2F8
100
AcDbEntity
  8
RACCORDO
100
AcDbLine
 62
250
  6
CONTINUOUS
 10
146.9501624125
 20
82.3829287708
 11
146.9501624125
 21
80.996212224
  0
LINE
  5
2F9
100
AcDbEntity
  8
RACCORDO
100
AcDbLine
 62
7
  6
CONTINUOUS
 10
146.9731289251
 20
120.5358938211
 11
146.9731289251
 21
120.4088253797
  0
LINE
  5
2FA
100
AcDbEntity
  8
RACCORDO
100
AcDbLine
 62
250
  6
CONTINUOUS
 10
147.1775993364
 20
80.2057664489
 11
147.1775993364
 21
82.6006903413
  0
LINE
  5
2FB
100
AcDbEntity
  8
RACCORDO
100
AcDbLine
 62
250
  6
CONTINUOUS
 10
147.1775993364
 20
115.850075981
 11
147.1775993364
 21
118.6594626336
  0
LINE
  5
2FC
100
AcDbEntity
  8
RACCORDO
100
AcDbLine
 62
250
  6
CONTINUOUS
 10
147.3172753856
 20
80.1719482712
 11
147.3172753856
 21
82.7344244566
  0
LINE
  5
2FD
100
AcDbEntity
  8
RACCORDO
100
AcDbLine
 62
250
  6
CONTINUOUS
 10
147.3172753856
 20
115.7694287808
 11
147.3172753856
 21
118.7497439801
  0
LINE
  5
2FE
100
AcDbEntity
  8
DRAFT
100
AcDbLine
 62
7
  6
CONTINUOUS
 10
147.5398595915
 20
121.1171505599
 11
147.5398595915
 21
121.7603507021
  0
LINE
  5
2FF
100
AcDbEntity
  8
RACCORDO
100
AcDbLine
 62
7
  6
CONTINUOUS
 10
147.5468671115
 20
120.0514169613
 11
147.5468671115
 21
119.0103670145
  0
LINE
  5
300
100
AcDbEntity
  8
RACCORDO
100
AcDbLine
 62
7
  6
CONTINUOUS
 10
147.5468671115
 20
79.615776847
 11
147.5468671115
 21
78.5747269002
  0
LINE
  5
301
100
AcDbEntity
  8
RACCORDO
100
AcDbLine
 62
7
  6
CONTINUOUS
 10
147.5468671115
 20
83.0400039585
 11
147.5468671115
 21
115.586139903
  0
LINE
  5
302
100
AcDbEntity
  8
RACCORDO
100
AcDbLine
 62
250
  6
CONTINUOUS
 10
147.7444981989
 20
118.8236412555
 11
147.7444981989
 21
113.6421437488
  0
LINE
  5
303
100
AcDbEntity
  8
RACCORDO
100
AcDbLine
 62
250
  6
CONTINUOUS
 10
147.7444981989
 20
106.528443367
 11
147.7444981989
 21
92.4521799427
  0
LINE
  5
304
100
AcDbEntity
  8
RACCORDO
100
AcDbLine
 62
250
  6
CONTINUOUS
 10
147.7444981989
 20
85.3384795609
 11
147.7444981989
 21
80.1569820542
  0
LWPOLYLINE
  5
305
100
AcDbEntity
  8
RACCORDO
100
AcDbPolyline
 62
250
  6
CONTINUOUS
 90
5
 70
0
 10
147.7388420841
 20
119.0979111302
 10
147.7387150548
 20
119.0811244882
 10
147.7387109271
 20
119.062019934
 10
147.7388297607
 20
119.040909473
 10
147.7394265013
 20
118.9940795038
  0
LWPOLYLINE
  5
306
100
AcDbEntity
  8
RACCORDO
100
AcDbPolyline
 62
7
  6
CONTINUOUS
 90
4
 70
0
 10
146.9062284423
 20
81.0574176252
 10
146.9059713101
 20
81.0495329936
 10
146.9051915847
 20
81.0423451362
 10
146.9049543065
 20
81.0409200884
  0
LINE
  5
307
100
AcDbEntity
  8
RACCORDO
100
AcDbLine
 62
250
  6
CONTINUOUS
 10
148.208036686
 20
112.2817446718
 11
148.2089162102
 21
112.301508875
  0
LWPOLYLINE
  5
308
100
AcDbEntity
  8
RACCORDO
100
AcDbPolyline
 62
250
  6
CONTINUOUS
 90
9
 70
0
 10
145.1428138345
 20
76.9199563231
 10
145.1399242067
 20
76.8777985221
 10
145.1332762967
 20
76.8384110109
 10
145.1229433109
 20
76.802227528
 10
145.1090371492
 20
76.7696428305
 10
145.0917120095
 20
76.7410203974
 10
145.0711667182
 20
76.7166835002
 10
145.0476368551
 20
76.696899474
 10
145.0288868737
 20
76.6855377132
  0
LWPOLYLINE
  5
309
100
AcDbEntity
  8
RACCORDO
100
AcDbPolyline
 62
7
  6
CONTINUOUS
 90
6
 70
0
 10
147.9187044348
 20
109.8358114182
 10
147.9175292908
 20
109.8202045236
 10
147.9146312647
 20
109.8059396285
 10
147.9100489877
 20
109.7932594642
 10
147.9038714302
 20
109.7823923129
 10
147.8961775603
 20
109.7735173611
  0
LWPOLYLINE
  5
30A
100
AcDbEntity
  8
RACCORDO
100
AcDbPolyline
 62
250
  6
CONTINUOUS
 90
11
 70
0
 10
147.9555735784
 20
90.851140957
 10
147.954771227
 20
90.8567348156
 10
147.9537544317
 20
90.8622442699
 10
147.9525098282
 20
90.8677943741
 10
147.9510263283
 20
90.8734245488
 10
147.9493144918
 20
90.8790758404
 10
147.9473808555
 20
90.8847298831
 10
147.9452293389
 20
90.8903730705
 10
147.9428627691
 20
90.895997632
 10
147.9402874393
 20
90.9015938067
 10
147.9375089644
 20
90.9071478049
  0
LWPOLYLINE
  5
30B
100
AcDbEntity
  8
RACCORDO
100
AcDbPolyline
 62
7
  6
CONTINUOUS
 90
3
 70
0
 10
146.9045570387
 20
118.4031025471
 10
146.9059830441
 20
118.3885877465
 10
146.9062284355
 20
118.3802087374
  0
LINE
  5
30C
100
AcDbEntity
  8
RACCORDO
100
AcDbLine
 62
7
  6
CONTINUOUS
 10
146.3078957423
 20
123.4100366782
 11
146.3083883397
 21
123.4038869682
  0
LWPOLYLINE
  5
30D
100
AcDbEntity
  8
RACCORDO
100
AcDbPolyline
 62
250
  6
CONTINUOUS
 90
19
 70
0
 10
149.9986441795
 20
88.2980336648
 10
149.9994201395
 20
88.2832516448
 10
150.0012941722
 20
88.2679233633
 10
150.0042539244
 20
88.2521730217
 10
150.0082907845
 20
88.2360869579
 10
150.013367212
 20
88.2198350906
 10
150.0193895639
 20
88.2036718018
 10
150.0262930835
 20
88.1877045888
 10
150.0339995162
 20
88.1720739305
 10
150.0423330608
 20
88.1570651327
 10
150.0510798796
 20
88.1429274602
 10
150.0602276692
 20
88.1295575523
 10
150.0699196244
 20
88.1167183459
 10
150.0800568834
 20
88.1045513244
 10
150.0906087834
 20
88.0930875083
 10
150.1018984309
 20
88.0820453734
 10
150.1140141516
 20
88.0715006059
 10
150.1267601258
 20
88.0617881299
 10
150.1400440506
 20
88.0531220289
  0
LWPOLYLINE
  5
30E
100
AcDbEntity
  8
RACCORDO
100
AcDbPolyline
 62
7
  6
CONTINUOUS
 90
6
 70
0
 10
147.9845987662
 20
112.1031399416
 10
147.9840969925
 20
112.1140668328
 10
147.9809234012
 20
112.1334281513
 10
147.9747105236
 20
112.1527006534
 10
147.9654760022
 20
112.171311125
 10
147.9629505492
 20
112.175423063
  0
LINE
  5
30F
100
AcDbEntity
  8
RACCORDO
100
AcDbLine
 62
250
  6
CONTINUOUS
 10
147.7435793439
 20
118.8453211173
 11
147.7444981989
 21
118.8236412555
  0
LWPOLYLINE
  5
310
100
AcDbEntity
  8
RACCORDO
100
AcDbPolyline
 62
250
  6
CONTINUOUS
 90
5
 70
0
 10
148.2089162102
 20
112.301508875
 10
148.2081334135
 20
112.3202551936
 10
148.2057151755
 20
112.3378411219
 10
148.2017131536
 20
112.3541210691
 10
148.1990532797
 20
112.3612434434
  0
LINE
  5
311
100
AcDbEntity
  8
RACCORDO
100
AcDbLine
 62
250
  6
CONTINUOUS
 10
147.995676984
 20
123.9256835672
 11
147.9937246429
 21
123.9739761921
  0
LWPOLYLINE
  5
312
100
AcDbEntity
  8
RACCORDO
100
AcDbPolyline
 62
250
  6
CONTINUOUS
 90
19
 70
0
 10
148.9022754339
 20
91.0675131689
 10
148.9000980822
 20
91.1228218751
 10
148.8940220984
 20
91.174541109
 10
148.8840474824
 20
91.2226708706
 10
148.8700516524
 20
91.2674887985
 10
148.8521571903
 20
91.308717254
 10
148.8307318421
 20
91.3455233211
 10
148.8056247451
 20
91.3778470475
 10
148.7769867619
 20
91.4057483855
 10
148.7456382274
 20
91.428574276
 10
148.7118661233
 20
91.4461981635
 10
148.6753834678
 20
91.4587466035
 10
148.6361496502
 20
91.4659462035
 10
148.5939718522
 20
91.4679815178
 10
148.5490428922
 20
91.4646679921
 10
148.5019006147
 20
91.4551785701
 10
148.4527243013
 20
91.4392375663
 10
148.4013346705
 20
91.4171206661
 10
148.3477317223
 20
91.3888278697
  0
LWPOLYLINE
  5
313
100
AcDbEntity
  8
RACCORDO
100
AcDbPolyline
 62
250
  6
CONTINUOUS
 90
19
 70
0
 10
148.9022754339
 20
112.2957403655
 10
148.9000980822
 20
112.3510490717
 10
148.8940220984
 20
112.4027683056
 10
148.8840474824
 20
112.4508980672
 10
148.8700516524
 20
112.4957159951
 10
148.8521571903
 20
112.5369444506
 10
148.8307318421
 20
112.5737505177
 10
148.8056247451
 20
112.6060742441
 10
148.7769867619
 20
112.6339755821
 10
148.7456382274
 20
112.6568014726
 10
148.7118661233
 20
112.6744253601
 10
148.6753834678
 20
112.6869738001
 10
148.6361496502
 20
112.6941734001
 10
148.5939718522
 20
112.6962087144
 10
148.5490428922
 20
112.6928951887
 10
148.5019006147
 20
112.6834057667
 10
148.4527243013
 20
112.6674647629
 10
148.4013346705
 20
112.6453478628
 10
148.3477317223
 20
112.6170550663
  0
LWPOLYLINE
  5
314
100
AcDbEntity
  8
RACCORDO
100
AcDbPolyline
 62
7
  6
CONTINUOUS
 90
4
 70
0
 10
147.9174703634
 20
112.0395313168
 10
147.9168525799
 20
112.0561734252
 10
147.9143636894
 20
112.0735486584
 10
147.9100489877
 20
112.0913658268
  0
LINE
  5
315
100
AcDbEntity
  8
RACCORDO
100
AcDbLine
 62
250
  6
CONTINUOUS
 10
147.7418832847
 20
118.8929362065
 11
147.7435793439
 21
118.8453211173
  0
LINE
  5
316
100
AcDbEntity
  8
RACCORDO
100
AcDbLine
 62
250
  6
CONTINUOUS
 10
147.7404669786
 20
118.9436547161
 11
147.7418832847
 21
118.8929362065
  0
LINE
  5
317
100
AcDbEntity
  8
RACCORDO
100
AcDbLine
 62
250
  6
CONTINUOUS
 10
147.7394265013
 20
118.9940795038
 11
147.7404669786
 21
118.9436547161
  0
LINE
  5
318
100
AcDbEntity
  8
RACCORDO
100
AcDbLine
 62
250
  6
CONTINUOUS
 10
147.9907580606
 20
119.9178294098
 11
147.9832882558
 21
120.4034965222
  0
LWPOLYLINE
  5
319
100
AcDbEntity
  8
RACCORDO
100
AcDbPolyline
 62
7
  6
CONTINUOUS
 90
13
 70
0
 10
148.0217576434
 20
123.9164333217
 10
148.0210728578
 20
123.9682417279
 10
148.0144432645
 20
124.082437855
 10
148.0008451819
 20
124.1912195622
 10
147.9803983035
 20
124.2941498873
 10
147.9532316921
 20
124.3908789498
 10
147.9194515208
 20
124.4811305898
 10
147.8791797345
 20
124.56459564
 10
147.8325972834
 20
124.6408683405
 10
147.7799531618
 20
124.7095488599
 10
147.7214505349
 20
124.7703518965
 10
147.6574719471
 20
124.8228765565
 10
147.5991432716
 20
124.8607420939
  0
LWPOLYLINE
  5
31A
100
AcDbEntity
  8
RACCORDO
100
AcDbPolyline
 62
250
  6
CONTINUOUS
 90
4
 70
0
 10
147.9565439542
 20
112.0621168691
 10
147.9564781484
 20
112.0679046127
 10
147.9561496778
 20
112.0736613548
 10
147.9555735784
 20
112.0793681536
  0
LINE
  5
31B
100
AcDbEntity
  8
RACCORDO
100
AcDbLine
 62
7
  6
CONTINUOUS
 10
148.1879324953
 20
119.7768863985
 11
148.1790341501
 21
120.3769754835
  0
LINE
  5
31C
100
AcDbEntity
  8
RACCORDO
100
AcDbLine
 62
250
  6
CONTINUOUS
 10
147.9960721523
 20
123.8778404531
 11
147.995676984
 21
123.9256835672
  0
LWPOLYLINE
  5
31D
100
AcDbEntity
  8
RACCORDO
100
AcDbPolyline
 62
7
  6
CONTINUOUS
 90
3
 70
0
 10
148.1790341501
 20
120.3769754835
 10
148.1767251484
 20
120.6456360324
 10
148.1765478621
 20
120.6751174573
  0
LWPOLYLINE
  5
31E
100
AcDbEntity
  8
RACCORDO
100
AcDbPolyline
 62
7
  6
CONTINUOUS
 90
8
 70
0
 10
148.6075272833
 20
113.8500496169
 10
148.60759209
 20
113.8376053635
 10
148.6061251732
 20
113.8251928281
 10
148.6029913889
 20
113.8131264869
 10
148.598065965
 20
113.8017362607
 10
148.5912853486
 20
113.7914720554
 10
148.5826949629
 20
113.7828403996
 10
148.576709442
 20
113.7786140977
  0
LWPOLYLINE
  5
31F
100
AcDbEntity
  8
RACCORDO
100
AcDbPolyline
 62
7
  6
CONTINUOUS
 90
12
 70
0
 10
149.4586727083
 20
92.4133367466
 10
149.4586206463
 20
92.4234007434
 10
149.4550287541
 20
92.4954904781
 10
149.4458359353
 20
92.5643993442
 10
149.431059583
 20
92.6298303495
 10
149.410738496
 20
92.691433594
 10
149.3850005639
 20
92.7487772977
 10
149.3539880662
 20
92.8015049334
 10
149.3178731534
 20
92.8492951098
 10
149.2770016094
 20
92.8916491795
 10
149.2317930016
 20
92.9281542038
 10
149.2021272166
 20
92.9471819893
  0
LWPOLYLINE
  5
320
100
AcDbEntity
  8
RACCORDO
100
AcDbPolyline
 62
7
  6
CONTINUOUS
 90
12
 70
0
 10
149.4586727083
 20
113.6415639432
 10
149.4586206463
 20
113.65162794
 10
149.4550287541
 20
113.7237176747
 10
149.4458359353
 20
113.7926265408
 10
149.431059583
 20
113.8580575461
 10
149.410738496
 20
113.9196607906
 10
149.3850005639
 20
113.9770044943
 10
149.3539880662
 20
114.02973213
 10
149.3178731534
 20
114.0775223064
 10
149.2770016094
 20
114.1198763761
 10
149.2317930016
 20
114.1563814005
 10
149.2107723206
 20
114.1698641723
  0
LINE
  5
321
100
AcDbEntity
  8
RACCORDO
100
AcDbLine
 62
250
  6
CONTINUOUS
 10
147.8851751801
 20
118.8560467949
 11
147.8851751801
 21
113.6669382125
  0
LINE
  5
322
100
AcDbEntity
  8
RACCORDO
100
AcDbLine
 62
250
  6
CONTINUOUS
 10
147.8851751801
 20
106.5648409577
 11
147.8851751801
 21
92.4805934307
  0
LINE
  5
323
100
AcDbEntity
  8
RACCORDO
100
AcDbLine
 62
250
  6
CONTINUOUS
 10
147.8851751801
 20
85.3784961758
 11
147.8851751801
 21
80.1893875935
  0
LINE
  5
324
100
AcDbEntity
  8
RACCORDO
100
AcDbLine
 62
7
  6
CONTINUOUS
 10
147.9180981717
 20
112.0398937699
 11
147.9180981717
 21
109.8354365252
  0
LINE
  5
325
100
AcDbEntity
  8
RACCORDO
100
AcDbLine
 62
7
  6
CONTINUOUS
 10
147.9180981717
 20
88.6072093286
 11
147.9180981717
 21
90.8116665732
  0
LINE
  5
326
100
AcDbEntity
  8
RACCORDO
100
AcDbLine
 62
250
  6
CONTINUOUS
 10
147.9565378197
 20
88.6309560776
 11
147.9565378197
 21
90.8338861264
  0
LINE
  5
327
100
AcDbEntity
  8
RACCORDO
100
AcDbLine
 62
250
  6
CONTINUOUS
 10
147.9565378197
 20
109.8591832742
 11
147.9565378197
 21
112.062113323
  0
LINE
  5
328
100
AcDbEntity
  8
RACCORDO
100
AcDbLine
 62
7
  6
CONTINUOUS
 10
147.9846038396
 20
88.6706241546
 11
147.9846038396
 21
90.8744354743
  0
LINE
  5
329
100
AcDbEntity
  8
RACCORDO
100
AcDbLine
 62
7
  6
CONTINUOUS
 10
147.9846038396
 20
109.8988513512
 11
147.9846038396
 21
112.1026626709
  0
LINE
  5
32A
100
AcDbEntity
  8
RACCORDO
100
AcDbLine
 62
250
  6
CONTINUOUS
 10
147.9960721523
 20
123.6399160495
 11
147.9960721523
 21
123.8778404531
  0
LINE
  5
32B
100
AcDbEntity
  8
RACCORDO
100
AcDbLine
 62
7
  6
CONTINUOUS
 10
148.0217576697
 20
123.6785508121
 11
148.0217576697
 21
123.9164752157
  0
LINE
  5
32C
100
AcDbEntity
  8
RACCORDO
100
AcDbLine
 62
250
  6
CONTINUOUS
 10
148.2080402306
 20
88.6436056749
 11
148.2080402306
 21
91.0535158363
  0
LINE
  5
32D
100
AcDbEntity
  8
RACCORDO
100
AcDbLine
 62
250
  6
CONTINUOUS
 10
148.2080402306
 20
109.8718328715
 11
148.2080402306
 21
112.2817430329
  0
LINE
  5
32E
100
AcDbEntity
  8
RACCORDO
100
AcDbLine
 62
7
  6
CONTINUOUS
 10
148.6075272833
 20
80.5491921857
 11
148.6075272833
 21
86.0046842543
  0
LINE
  5
32F
100
AcDbEntity
  8
RACCORDO
100
AcDbLine
 62
7
  6
CONTINUOUS
 10
148.6075272833
 20
113.8500496169
 11
148.6075272833
 21
119.3017754558
  0
LINE
  5
330
100
AcDbEntity
  8
RACCORDO
100
AcDbLine
 62
250
  6
CONTINUOUS
 10
148.9022754339
 20
88.6576049523
 11
148.9022754339
 21
91.0675131689
  0
LINE
  5
331
100
AcDbEntity
  8
RACCORDO
100
AcDbLine
 62
250
  6
CONTINUOUS
 10
148.9022754339
 20
109.8858321489
 11
148.9022754339
 21
112.2957403655
  0
LINE
  5
332
100
AcDbEntity
  8
RACCORDO
100
AcDbLine
 62
250
  6
CONTINUOUS
 10
149.4025407688
 20
113.5614622748
 11
149.4025407688
 21
109.2183286146
  0
LINE
  5
333
100
AcDbEntity
  8
RACCORDO
100
AcDbLine
 62
250
  6
CONTINUOUS
 10
149.4025407688
 20
92.3332350782
 11
149.4025407688
 21
87.990101418
  0
LINE
  5
334
100
AcDbEntity
  8
RACCORDO
100
AcDbLine
 62
7
  6
CONTINUOUS
 10
149.4586728087
 20
113.6416796822
 11
149.4586728087
 21
109.2985460212
  0
LINE
  5
335
100
AcDbEntity
  8
RACCORDO
100
AcDbLine
 62
7
  6
CONTINUOUS
 10
149.4586728087
 20
92.4134524856
 11
149.4586728087
 21
88.0703188246
  0
LINE
  5
336
100
AcDbEntity
  8
RACCORDO
100
AcDbLine
 62
7
  6
CONTINUOUS
 10
149.5428114721
 20
107.7534821766
 11
149.5428114721
 21
93.1404706127
  0
LWPOLYLINE
  5
337
100
AcDbEntity
  8
RACCORDO
100
AcDbPolyline
 62
250
  6
CONTINUOUS
 90
22
 70
0
 10
149.4025407688
 20
109.2183286146
 10
149.4005077897
 20
109.1648938385
 10
149.3954089187
 20
109.1111170398
 10
149.3872441557
 20
109.0569982184
 10
149.3759543315
 20
109.0024787762
 10
149.3615986153
 20
108.9476173114
 10
149.3443545147
 20
108.8925896183
 10
149.3240822433
 20
108.8370046101
 10
149.3009215875
 20
108.7812533736
 10
149.2754694134
 20
108.7266849625
 10
149.2474661344
 20
108.6731835861
 10
149.2171713371
 20
108.6208650352
 10
149.1859606484
 20
108.5714257356
 10
149.1542964943
 20
108.5256237521
 10
149.1217164488
 20
108.4827010199
 10
149.088208861
 20
108.4420797709
 10
149.0541858465
 20
108.4038191584
 10
149.0192352897
 20
108.367860029
 10
148.9821091929
 20
108.3334471545
 10
148.942391557
 20
108.3003287919
 10
148.9004983811
 20
108.2687566842
 10
148.8564296652
 20
108.2387308312
  0
LINE
  5
338
100
AcDbEntity
  8
RACCORDO
100
AcDbLine
 62
250
  6
CONTINUOUS
 10
148.208036686
 20
91.0535174752
 11
148.2089162102
 21
91.0732816784
  0
LWPOLYLINE
  5
339
100
AcDbEntity
  8
RACCORDO
100
AcDbPolyline
 62
250
  6
CONTINUOUS
 90
13
 70
0
 10
146.9501624125
 20
80.996212224
 10
146.9487770759
 20
80.9706664663
 10
146.9452851892
 20
80.9473414381
 10
146.9396867524
 20
80.9262371393
 10
146.9318520144
 20
80.90724129
 10
146.9219107262
 20
80.8904661701
 10
146.9102521416
 20
80.876248619
 10
146.8969578953
 20
80.8646245593
 10
146.8819463526
 20
80.8555580685
 10
146.8653618619
 20
80.8492782179
 10
146.8470691842
 20
80.845743017
 10
146.8272035585
 20
80.8449944563
 10
146.8212440876
 20
80.8456772117
  0
LWPOLYLINE
  5
33A
100
AcDbEntity
  8
RACCORDO
100
AcDbPolyline
 62
7
  6
CONTINUOUS
 90
6
 70
0
 10
147.9187044348
 20
88.6075842216
 10
147.9175292908
 20
88.591977327
 10
147.9146312647
 20
88.5777124319
 10
147.9100489877
 20
88.5650322676
 10
147.9038714302
 20
88.5541651163
 10
147.8961775603
 20
88.5452901645
  0
LWPOLYLINE
  5
33B
100
AcDbEntity
  8
RACCORDO
100
AcDbPolyline
 62
250
  6
CONTINUOUS
 90
7
 70
0
 10
149.4586728087
 20
109.2985460212
 10
149.4572168832
 20
109.2846376872
 10
149.4524464126
 20
109.2699563586
 10
149.4444337203
 20
109.2557535313
 10
149.4333129694
 20
109.2422668405
 10
149.4192703085
 20
109.2297219125
 10
149.4025407688
 20
109.2183286146
  0
LWPOLYLINE
  5
33C
100
AcDbEntity
  8
RACCORDO
100
AcDbPolyline
 62
250
  6
CONTINUOUS
 90
7
 70
0
 10
151.0977590371
 20
115.9508732126
 10
151.0963034174
 20
115.9369663341
 10
151.0915334639
 20
115.9222854098
 10
151.0835212576
 20
115.9080826171
 10
151.0724006267
 20
115.8945955101
 10
151.0583575826
 20
115.882049917
 10
151.0416269971
 20
115.8706558052
  0
LWPOLYLINE
  5
33D
100
AcDbEntity
  8
RACCORDO
100
AcDbPolyline
 62
250
  6
CONTINUOUS
 90
7
 70
0
 10
149.4586727083
 20
113.6415639432
 10
149.4572172794
 20
113.627773234
 10
149.4524471826
 20
113.6130917597
 10
149.4444347193
 20
113.5988886382
 10
149.4333139597
 20
113.5854015259
 10
149.4192709839
 20
113.5728560985
 10
149.4025407688
 20
113.5614622748
  0
LWPOLYLINE
  5
33E
100
AcDbEntity
  8
RACCORDO
100
AcDbPolyline
 62
250
  6
CONTINUOUS
 90
7
 70
0
 10
151.083743997
 20
121.1388706635
 10
151.0822282629
 20
121.1246805962
 10
151.0773711968
 20
121.1099522105
 10
151.0692832966
 20
121.0957588448
 10
151.0581469173
 20
121.082346756
 10
151.0441702045
 20
121.069913503
 10
151.0276119571
 20
121.0586532561
  0
LWPOLYLINE
  5
33F
100
AcDbEntity
  8
RACCORDO
100
AcDbPolyline
 62
250
  6
CONTINUOUS
 90
7
 70
0
 10
150.0547765348
 20
109.7106141948
 10
150.0532034344
 20
109.6961591346
 10
150.0482633033
 20
109.6813840695
 10
150.0401032165
 20
109.6671985691
 10
150.0289519467
 20
109.6538569014
 10
150.0150385732
 20
109.6415298892
 10
149.9986444949
 20
109.6303967874
  0
LWPOLYLINE
  5
340
100
AcDbEntity
  8
RACCORDO
100
AcDbPolyline
 62
250
  6
CONTINUOUS
 90
7
 70
0
 10
147.7444981989
 20
92.4521799427
 10
147.7421224227
 20
92.4335097424
 10
147.7398449116
 20
92.4176470119
 10
147.737726402
 20
92.4050147777
 10
147.7358233902
 20
92.3959499155
 10
147.7341866258
 20
92.3906941664
 10
147.7330333758
 20
92.3893296548
  0
LWPOLYLINE
  5
341
100
AcDbEntity
  8
RACCORDO
100
AcDbPolyline
 62
250
  6
CONTINUOUS
 90
6
 70
0
 10
147.8851751801
 20
92.4805934307
 10
147.8809937669
 20
92.4590578253
 10
147.8737827447
 20
92.4400616909
 10
147.8637605412
 20
92.4241804363
 10
147.8512307375
 20
92.4118951179
 10
147.8365489425
 20
92.4035682913
  0
LINE
  5
342
100
AcDbEntity
  8
RACCORDO
100
AcDbLine
 62
250
  6
CONTINUOUS
 10
147.7444981989
 20
106.528443367
 11
147.5468671115
 21
106.5135436028
  0
LINE
  5
343
100
AcDbEntity
  8
RACCORDO
100
AcDbLine
 62
250
  6
CONTINUOUS
 10
147.7310456427
 20
106.7278037298
 11
147.5468671115
 21
106.713918178
  0
LWPOLYLINE
  5
344
100
AcDbEntity
  8
RACCORDO
100
AcDbPolyline
 62
250
  6
CONTINUOUS
 90
10
 70
0
 10
147.8851751801
 20
106.5648409577
 10
147.8809937653
 20
106.5853606512
 10
147.8737827407
 20
106.607145925
 10
147.8637605348
 20
106.6295368844
 10
147.8512307291
 20
106.6518552885
 10
147.8365728622
 20
106.6734250939
 10
147.8202309336
 20
106.6935929332
 10
147.8026999544
 20
106.7117479059
 10
147.7845109525
 20
106.7273400833
 10
147.766214888
 20
106.7398971659
  0
LWPOLYLINE
  5
345
100
AcDbEntity
  8
RACCORDO
100
AcDbPolyline
 62
250
  6
CONTINUOUS
 90
11
 70
0
 10
147.9555735784
 20
112.0793681536
 10
147.954771227
 20
112.0849620122
 10
147.9537544317
 20
112.0904714665
 10
147.9525098282
 20
112.0960215707
 10
147.9510263283
 20
112.1016517455
 10
147.9493144918
 20
112.107303037
 10
147.9473808555
 20
112.1129570797
 10
147.9452293389
 20
112.1186002671
 10
147.9428627691
 20
112.1242248286
 10
147.9402874393
 20
112.1298210033
 10
147.9375089644
 20
112.1353750015
  0
LWPOLYLINE
  5
346
100
AcDbEntity
  8
RACCORDO
100
AcDbPolyline
 62
250
  6
CONTINUOUS
 90
10
 70
0
 10
147.7444981989
 20
106.528443367
 10
147.7421224231
 20
106.5494472575
 10
147.7398449122
 20
106.5722005904
 10
147.7377264027
 20
106.5960965811
 10
147.735823391
 20
106.6204979724
 10
147.7341866265
 20
106.6447540291
 10
147.7328597584
 20
106.6682178919
 10
147.7318781714
 20
106.6902638276
 10
147.7312680426
 20
106.7103039163
 10
147.7310456427
 20
106.7278037298
  0
LINE
  5
347
100
AcDbEntity
  8
RACCORDO
100
AcDbLine
 62
250
  6
CONTINUOUS
 10
148.1882651836
 20
119.7562801004
 11
148.1865955474
 21
119.7754619295
  0
LWPOLYLINE
  5
348
100
AcDbEntity
  8
RACCORDO
100
AcDbPolyline
 62
250
  6
CONTINUOUS
 90
20
 70
0
 10
147.9937246429
 20
123.9739761921
 10
147.990215129
 20
124.0227183279
 10
147.9853273278
 20
124.0719390678
 10
147.9788823537
 20
124.1216093185
 10
147.9703435496
 20
124.1716418005
 10
147.9596261707
 20
124.2224554181
 10
147.9468149618
 20
124.2736312669
 10
147.9316275002
 20
124.3238253543
 10
147.9139745832
 20
124.3729486221
 10
147.8939454136
 20
124.4210901286
 10
147.8715251768
 20
124.4671730561
 10
147.8466290069
 20
124.5110939403
 10
147.8193417699
 20
124.5529562457
 10
147.7899032491
 20
124.5919935475
 10
147.7581683525
 20
124.6281247539
 10
147.7242821723
 20
124.6614309568
 10
147.6889197686
 20
124.691389008
 10
147.6520660686
 20
124.717802191
 10
147.6137361453
 20
124.7408672223
 10
147.5746502778
 20
124.7606511033
  0
LWPOLYLINE
  5
349
100
AcDbEntity
  8
RACCORDO
100
AcDbPolyline
 62
250
  6
CONTINUOUS
 90
13
 70
0
 10
150.0434402765
 20
123.4528832129
 10
150.0424875802
 20
123.4754723831
 10
150.0390025665
 20
123.4990817155
 10
150.0330473092
 20
123.5232927734
 10
150.0247151972
 20
123.5477085347
 10
150.0141607471
 20
123.571863794
 10
150.0016249981
 20
123.5952390479
 10
149.9873144386
 20
123.61748614
 10
149.9715288201
 20
123.638171234
 10
149.9547599719
 20
123.6567504355
 10
149.9374112015
 20
123.672940874
 10
149.9197379604
 20
123.6866569595
 10
149.9020404594
 20
123.69779488
  0
LWPOLYLINE
  5
34A
100
AcDbEntity
  8
RACCORDO
100
AcDbPolyline
 62
7
  6
CONTINUOUS
 90
10
 70
0
 10
151.0977591012
 20
87.4783714475
 10
151.0977418731
 20
87.480647628
 10
151.0961648137
 20
87.5001858336
 10
151.0920534008
 20
87.5193517587
 10
151.0854778455
 20
87.5378179143
 10
151.0765504691
 20
87.5552688958
 10
151.0654237053
 20
87.57140675
 10
151.0522875646
 20
87.5859558873
 10
151.0373663664
 20
87.5986678529
 10
151.0227645019
 20
87.6082750119
  0
LINE
  5
34B
100
AcDbEntity
  8
RACCORDO
100
AcDbLine
 62
250
  6
CONTINUOUS
 10
149.9986444949
 20
114.6570961432
 11
149.9986444949
 21
109.6303967874
  0
LINE
  5
34C
100
AcDbEntity
  8
RACCORDO
100
AcDbLine
 62
250
  6
CONTINUOUS
 10
149.9986444949
 20
94.3356881737
 11
149.9986444949
 21
88.2980338469
  0
LINE
  5
34D
100
AcDbEntity
  8
RACCORDO
100
AcDbLine
 62
7
  6
CONTINUOUS
 10
150.0547765348
 20
114.6918090387
 11
150.0547765348
 21
109.7106141948
  0
LINE
  5
34E
100
AcDbEntity
  8
RACCORDO
100
AcDbLine
 62
7
  6
CONTINUOUS
 10
150.0547765348
 20
94.4159055811
 11
150.0547765348
 21
88.3782512533
  0
LINE
  5
34F
100
AcDbEntity
  8
RACCORDO
100
AcDbLine
 62
250
  6
CONTINUOUS
 10
151.0276119571
 20
123.5020018468
 11
151.0276119571
 21
121.0586532561
  0
LINE
  5
350
100
AcDbEntity
  8
RACCORDO
100
AcDbLine
 62
250
  6
CONTINUOUS
 10
151.0276119571
 20
90.3746272501
 11
151.0276119571
 21
87.9312786594
  0
LINE
  5
351
100
AcDbEntity
  8
RACCORDO
100
AcDbLine
 62
250
  6
CONTINUOUS
 10
151.0416269971
 20
115.8706558052
 11
151.0416269971
 21
115.3515671625
  0
LINE
  5
352
100
AcDbEntity
  8
RACCORDO
100
AcDbLine
 62
250
  6
CONTINUOUS
 10
151.0416269971
 20
87.4101077482
 11
151.0416269971
 21
86.8910191055
  0
LINE
  5
353
100
AcDbEntity
  8
RACCORDO
100
AcDbLine
 62
7
  6
CONTINUOUS
 10
151.083743997
 20
123.5822192542
 11
151.083743997
 21
121.1388706635
  0
LINE
  5
354
100
AcDbEntity
  8
RACCORDO
100
AcDbLine
 62
7
  6
CONTINUOUS
 10
151.083743997
 20
90.4548446575
 11
151.083743997
 21
88.0114960668
  0
LINE
  5
355
100
AcDbEntity
  8
RACCORDO
100
AcDbLine
 62
7
  6
CONTINUOUS
 10
151.0977590371
 20
115.9508732126
 11
151.0977590371
 21
115.4437369008
  0
LINE
  5
356
100
AcDbEntity
  8
RACCORDO
100
AcDbLine
 62
7
  6
CONTINUOUS
 10
151.0977590371
 20
87.478376376
 11
151.0977590371
 21
86.9712365129
  0
LINE
  5
357
100
AcDbEntity
  8
RACCORDO
100
AcDbLine
 62
250
  6
CONTINUOUS
 10
151.0837438627
 20
123.5820854193
 11
151.083743997
 21
123.5822192542
  0
LWPOLYLINE
  5
358
100
AcDbEntity
  8
RACCORDO
100
AcDbPolyline
 62
250
  6
CONTINUOUS
 90
3
 70
0
 10
151.0977590371
 20
115.4437345015
 10
151.0977537152
 20
115.4426817242
 10
151.0975344114
 20
115.436928044
  0
LWPOLYLINE
  5
359
100
AcDbEntity
  8
RACCORDO
100
AcDbPolyline
 62
250
  6
CONTINUOUS
 90
22
 70
0
 10
149.4025407688
 20
87.990101418
 10
149.4005077897
 20
87.9366666419
 10
149.3954089187
 20
87.8828898431
 10
149.3872441557
 20
87.8287710218
 10
149.3759543315
 20
87.7742515796
 10
149.3615986153
 20
87.7193901148
 10
149.3443545147
 20
87.6643624216
 10
149.3240822433
 20
87.6087774135
 10
149.3009215875
 20
87.553026177
 10
149.2754694134
 20
87.4984577659
 10
149.2474661344
 20
87.4449563895
 10
149.2171713371
 20
87.3926378386
 10
149.1859606484
 20
87.343198539
 10
149.1542964943
 20
87.2973965555
 10
149.1217164488
 20
87.2544738233
 10
149.088208861
 20
87.2138525743
 10
149.0541858465
 20
87.1755919618
 10
149.0192352897
 20
87.1396328324
 10
148.9821091929
 20
87.1052199579
 10
148.942391557
 20
87.0721015953
 10
148.9004983811
 20
87.0405294875
 10
148.8564296652
 20
87.0105036345
  0
LWPOLYLINE
  5
35A
100
AcDbEntity
  8
RACCORDO
100
AcDbPolyline
 62
250
  6
CONTINUOUS
 90
7
 70
0
 10
149.9986444949
 20
109.6303967874
 10
149.9977305448
 20
109.6099652217
 10
149.9943715731
 20
109.5912551025
 10
149.9886250273
 20
109.5745864417
 10
149.9805891936
 20
109.5602443394
 10
149.9704015095
 20
109.5484740946
 10
149.9599696506
 20
109.5405130237
  0
LWPOLYLINE
  5
35B
100
AcDbEntity
  8
RACCORDO
100
AcDbPolyline
 62
250
  6
CONTINUOUS
 90
7
 70
0
 10
151.0416269971
 20
115.3515671625
 10
151.0409415423
 20
115.3362435036
 10
151.0384223202
 20
115.3222109189
 10
151.0341124135
 20
115.3097094194
 10
151.0280855305
 20
115.2989528288
 10
151.020444749
 20
115.2901251308
 10
151.0126745171
 20
115.2841875665
  0
LWPOLYLINE
  5
35C
100
AcDbEntity
  8
RACCORDO
100
AcDbPolyline
 62
250
  6
CONTINUOUS
 90
19
 70
0
 10
151.0975344114
 20
115.436928044
 10
151.0969931977
 20
115.43122633
 10
151.0961316888
 20
115.4255934123
 10
151.0949509151
 20
115.4200372564
 10
151.0934520444
 20
115.4145632758
 10
151.0916378286
 20
115.409180802
 10
151.0895121454
 20
115.4039035958
 10
151.0870789729
 20
115.3987395655
 10
151.0843424116
 20
115.3936949639
 10
151.0813078668
 20
115.3887808204
 10
151.0779809015
 20
115.3840044544
 10
151.07436722
 20
115.3793718965
 10
151.0704733633
 20
115.3748919744
 10
151.0663064136
 20
115.3705715629
 10
151.0618732842
 20
115.3664161501
 10
151.0571808155
 20
115.3624322555
 10
151.0522366047
 20
115.3586258658
 10
151.0470491292
 20
115.3550023733
 10
151.0416269971
 20
115.3515671625
  0
LWPOLYLINE
  5
35D
100
AcDbEntity
  8
RACCORDO
100
AcDbPolyline
 62
250
  6
CONTINUOUS
 90
7
 70
0
 10
149.4586728087
 20
88.0703188246
 10
149.4572168832
 20
88.0564104906
 10
149.4524464126
 20
88.041729162
 10
149.4444337203
 20
88.0275263347
 10
149.4333129694
 20
88.0140396439
 10
149.4192703085
 20
88.0014947158
 10
149.4025407688
 20
87.990101418
  0
LWPOLYLINE
  5
35E
100
AcDbEntity
  8
RACCORDO
100
AcDbPolyline
 62
250
  6
CONTINUOUS
 90
7
 70
0
 10
149.4586727083
 20
92.4133367466
 10
149.4572172794
 20
92.3995460374
 10
149.4524471826
 20
92.3848645631
 10
149.4444347193
 20
92.3706614416
 10
149.4333139597
 20
92.3571743293
 10
149.4192709839
 20
92.3446289019
 10
149.4025407688
 20
92.3332350782
  0
LWPOLYLINE
  5
35F
100
AcDbEntity
  8
RACCORDO
100
AcDbPolyline
 62
250
  6
CONTINUOUS
 90
7
 70
0
 10
150.0547765348
 20
94.4159055811
 10
150.0532077852
 20
94.4014704454
 10
150.0482716657
 20
94.3866939159
 10
150.0401140055
 20
94.3725053122
 10
150.0289626339
 20
94.3591592226
 10
150.0150458588
 20
94.3468269102
 10
149.9986444949
 20
94.3356881737
  0
LWPOLYLINE
  5
360
100
AcDbEntity
  8
RACCORDO
100
AcDbPolyline
 62
7
  6
CONTINUOUS
 90
6
 70
0
 10
147.9100489877
 20
112.0913658268
 10
147.9039594451
 20
112.1093158479
 10
147.896221418
 20
112.1271009837
 10
147.8870388451
 20
112.1444407629
 10
147.8766134
 20
112.1610630669
 10
147.8726421908
 20
112.1664324285
  0
LWPOLYLINE
  5
361
100
AcDbEntity
  8
RACCORDO
100
AcDbPolyline
 62
250
  6
CONTINUOUS
 90
3
 70
0
 10
146.9388831313
 20
118.4043125901
 10
146.9448522664
 20
118.3757775234
 10
146.9486120268
 20
118.3473370383
  0
LWPOLYLINE
  5
362
100
AcDbEntity
  8
RACCORDO
100
AcDbPolyline
 62
250
  6
CONTINUOUS
 90
3
 70
0
 10
146.3417244351
 20
123.4237680086
 10
146.3469048046
 20
123.3984180195
 10
146.351345542
 20
123.3599803265
  0
LWPOLYLINE
  5
363
100
AcDbEntity
  8
RACCORDO
100
AcDbPolyline
 62
250
  6
CONTINUOUS
 90
10
 70
0
 10
151.0416269888
 20
115.8706558262
 10
151.041322831
 20
115.8833185203
 10
151.0401606418
 20
115.8961413234
 10
151.0381990615
 20
115.9091772141
 10
151.035480086
 20
115.9225778941
 10
151.0319633057
 20
115.9362872014
 10
151.0276338964
 20
115.9500126205
 10
151.0225649914
 20
115.9636446916
 10
151.0168224597
 20
115.977277495
 10
151.0104669105
 20
115.990892737
  0
LWPOLYLINE
  5
364
100
AcDbEntity
  8
RACCORDO
100
AcDbPolyline
 62
250
  6
CONTINUOUS
 90
9
 70
0
 10
151.041626999
 20
86.8910191064
 10
151.0413228382
 20
86.8789476664
 10
151.0401606468
 20
86.8675385406
 10
151.0381990653
 20
86.8567598018
 10
151.0354800898
 20
86.846556159
 10
151.0319633101
 20
86.8369638757
 10
151.0276339007
 20
86.8281255873
 10
151.0225649949
 20
86.820126254
 10
151.0168224618
 20
86.8129840293
  0
LWPOLYLINE
  5
365
100
AcDbEntity
  8
RACCORDO
100
AcDbPolyline
 62
250
  6
CONTINUOUS
 90
7
 70
0
 10
151.083743997
 20
88.0114960668
 10
151.0823230046
 20
87.9977550003
 10
151.0775786741
 20
87.9830447585
 10
151.0695776706
 20
87.968809027
 10
151.0584510001
 20
87.9552860904
 10
151.0443842223
 20
87.942705207
 10
151.0276119571
 20
87.9312786594
  0
LWPOLYLINE
  5
366
100
AcDbEntity
  8
RACCORDO
100
AcDbPolyline
 62
250
  6
CONTINUOUS
 90
7
 70
0
 10
150.0547765348
 20
88.3782512533
 10
150.0533209537
 20
88.3643445586
 10
150.0485508147
 20
88.3496631185
 10
150.0405383303
 20
88.3354600429
 10
150.0294175758
 20
88.3219729837
 10
150.0153746373
 20
88.3094276137
 10
149.9986444949
 20
88.2980338469
  0
LWPOLYLINE
  5
367
100
AcDbEntity
  8
RACCORDO
100
AcDbPolyline
 62
250
  6
CONTINUOUS
 90
7
 70
0
 10
151.0837439935
 20
90.4548230623
 10
151.082229379
 20
90.4406597957
 10
151.0773733607
 20
90.4259310352
 10
151.0692861012
 20
90.4117368628
 10
151.0581497047
 20
90.3983236173
 10
151.0441721097
 20
90.3858889747
 10
151.0276119571
 20
90.3746272501
  0
LINE
  5
368
100
AcDbEntity
  8
RACCORDO
100
AcDbLine
 62
250
  6
CONTINUOUS
 10
149.8572446778
 20
94.5805998408
 11
149.5428114721
 21
94.3990494252
  0
LINE
  5
369
100
AcDbEntity
  8
RACCORDO
100
AcDbLine
 62
7
  6
CONTINUOUS
 10
149.4369869616
 20
107.9379576595
 11
148.9309066262
 21
108.2301621025
  0
LWPOLYLINE
  5
36A
100
AcDbEntity
  8
RACCORDO
100
AcDbPolyline
 62
250
  6
CONTINUOUS
 90
7
 70
0
 10
147.9375089644
 20
112.1353750015
 10
147.9345304454
 20
112.1408794719
 10
147.9313541031
 20
112.1463342442
 10
147.9279916227
 20
112.1517177724
 10
147.9244407296
 20
112.1570306376
 10
147.9206788564
 20
112.1623042277
 10
147.9167184278
 20
112.1675142863
  0
LWPOLYLINE
  5
36B
100
AcDbEntity
  8
RACCORDO
100
AcDbPolyline
 62
250
  6
CONTINUOUS
 90
3
 70
0
 10
146.9199283734
 20
118.4623141325
 10
146.9305104397
 20
118.4332660705
 10
146.9388831313
 20
118.4043125901
  0
LWPOLYLINE
  5
36C
100
AcDbEntity
  8
RACCORDO
100
AcDbPolyline
 62
7
  6
CONTINUOUS
 90
4
 70
0
 10
146.8908021665
 20
118.4572716146
 10
146.8970767074
 20
118.4378880051
 10
146.901654105
 20
118.4196126152
 10
146.9045570387
 20
118.4031025471
  0
LWPOLYLINE
  5
36D
100
AcDbEntity
  8
RACCORDO
100
AcDbPolyline
 62
250
  6
CONTINUOUS
 90
4
 70
0
 10
148.8490617641
 20
113.9461769384
 10
148.8521570473
 20
113.9333728146
 10
148.8555157954
 20
113.9101990169
 10
148.8564296652
 20
113.8880179705
  0
LWPOLYLINE
  5
36E
100
AcDbEntity
  8
RACCORDO
100
AcDbPolyline
 62
250
  6
CONTINUOUS
 90
3
 70
0
 10
148.1865955474
 20
119.7754619295
 10
148.1815692186
 20
119.7964049956
 10
148.173287962
 20
119.816619374
  0
LWPOLYLINE
  5
36F
100
AcDbEntity
  8
RACCORDO
100
AcDbPolyline
 62
7
  6
CONTINUOUS
 90
5
 70
0
 10
147.9636769406
 20
88.600639058
 10
147.9731660761
 20
88.6178640606
 10
147.9797131639
 20
88.6356554448
 10
147.9834891012
 20
88.6538134674
 10
147.9846020263
 20
88.67057489
  0
LINE
  5
370
100
AcDbEntity
  8
RACCORDO
100
AcDbLine
 62
250
  6
CONTINUOUS
 10
149.9986444949
 20
94.3356881737
 11
149.5428114721
 21
94.0724949955
  0
LINE
  5
371
100
AcDbEntity
  8
RACCORDO
100
AcDbLine
 62
250
  6
CONTINUOUS
 10
147.5468671115
 20
92.2302176015
 11
147.8391867102
 21
92.3989998536
  0
LINE
  5
372
100
AcDbEntity
  8
RACCORDO
100
AcDbLine
 62
250
  6
CONTINUOUS
 10
147.5468671115
 20
91.9036631718
 11
148.8564296652
 21
92.6597907739
  0
LWPOLYLINE
  5
373
100
AcDbEntity
  8
RACCORDO
100
AcDbPolyline
 62
250
  6
CONTINUOUS
 90
22
 70
0
 10
148.8564296652
 20
92.6597907739
 10
148.9012910191
 20
92.6832420287
 10
148.9447816196
 20
92.7022407359
 10
148.9869014667
 20
92.7167868957
 10
149.0276699917
 20
92.72681449
 10
149.0670677634
 20
92.7323895367
 10
149.1050364884
 20
92.7337100895
 10
149.1418523976
 20
92.7307429527
 10
149.1772392601
 20
92.7235213219
 10
149.2103100897
 20
92.7123428368
 10
149.2409870654
 20
92.696880273
 10
149.2693480083
 20
92.677460855
 10
149.2947393948
 20
92.6553638957
 10
149.3167601278
 20
92.6309339198
 10
149.3358113046
 20
92.6038264025
 10
149.352442693
 20
92.5742870829
 10
149.3668365948
 20
92.5428882336
 10
149.3788107083
 20
92.5090575819
 10
149.3883678962
 20
92.4713240485
 10
149.3955091127
 20
92.4291972735
 10
149.4002334035
 20
92.3831676167
 10
149.4025407688
 20
92.3332350782
  0
LINE
  5
374
100
AcDbEntity
  8
RACCORDO
100
AcDbLine
 62
250
  6
CONTINUOUS
 10
147.8736598791
 20
92.4750969531
 11
147.8851751801
 21
92.4805934307
  0
LINE
  5
375
100
AcDbEntity
  8
RACCORDO
100
AcDbLine
 62
250
  6
CONTINUOUS
 10
147.8851751801
 20
92.4805934307
 11
149.5428114721
 21
93.1404706127
  0
LINE
  5
376
100
AcDbEntity
  8
RACCORDO
100
AcDbLine
 62
7
  6
CONTINUOUS
 10
147.8364546654
 20
92.4035306715
 11
149.5049198541
 21
93.0677186555
  0
LWPOLYLINE
  5
377
100
AcDbEntity
  8
RACCORDO
100
AcDbPolyline
 62
250
  6
CONTINUOUS
 90
16
 70
0
 10
148.2080402306
 20
109.8718328715
 10
148.2477723702
 20
109.8532115076
 10
148.2905929161
 20
109.8370325449
 10
148.3360533188
 20
109.8234654596
 10
148.3836773762
 20
109.8126523684
 10
148.4329662217
 20
109.8047065394
 10
148.4834035496
 20
109.7997112059
 10
148.5344610241
 20
109.7977186946
 10
148.5856038132
 20
109.7987498772
 10
148.636296191
 20
109.8027939519
 10
148.6860071501
 20
109.8098085567
 10
148.7342159632
 20
109.819720213
 10
148.7804176383
 20
109.832425095
 10
148.8241282083
 20
109.8477901181
 10
148.8648898007
 20
109.8656543319
 10
148.9022754339
 20
109.8858306072
  0
LINE
  5
378
100
AcDbEntity
  8
RACCORDO
100
AcDbLine
 62
250
  6
CONTINUOUS
 10
147.7087755042
 20
109.6708660299
 11
148.0065667445
 21
109.4989267549
  0
LINE
  5
379
100
AcDbEntity
  8
RACCORDO
100
AcDbLine
 62
250
  6
CONTINUOUS
 10
147.9846038396
 20
110.0008410017
 11
148.2080402306
 21
109.8718328715
  0
LWPOLYLINE
  5
37A
100
AcDbEntity
  8
RACCORDO
100
AcDbPolyline
 62
250
  6
CONTINUOUS
 90
16
 70
0
 10
148.0065667445
 20
109.4989267549
 10
148.0427710412
 20
109.4744980772
 10
148.0784151957
 20
109.4462548346
 10
148.1131342581
 20
109.4144862027
 10
148.1465727509
 20
109.3795174519
 10
148.1783883072
 20
109.3417066186
 10
148.2082551758
 20
109.3014408402
 10
148.2358675596
 20
109.2591323872
 10
148.2609427455
 20
109.215214444
 10
148.2832239967
 20
109.1701366756
 10
148.3024831844
 20
109.1243606202
 10
148.318523122
 20
109.0783549642
 10
148.3311795837
 20
109.032590746
 10
148.3403229867
 20
108.9875365303
 10
148.3458597174
 20
108.9436536114
 10
148.3477330898
 20
108.9013912907
  0
LWPOLYLINE
  5
37B
100
AcDbEntity
  8
RACCORDO
100
AcDbPolyline
 62
250
  6
CONTINUOUS
 90
5
 70
0
 10
147.9167184278
 20
112.1675142863
 10
147.9125519231
 20
112.1726602194
 10
147.9081179667
 20
112.177802374
 10
147.9034171552
 20
112.1829198568
 10
147.9022549241
 20
112.1841061131
  0
LWPOLYLINE
  5
37C
100
AcDbEntity
  8
RACCORDO
100
AcDbPolyline
 62
250
  6
CONTINUOUS
 90
10
 70
0
 10
147.9629455014
 20
112.1754313738
 10
147.9624226954
 20
112.1762431739
 10
147.9593976054
 20
112.1806432102
 10
147.9561351899
 20
112.1849101898
 10
147.9526396588
 20
112.1890396947
 10
147.9489123953
 20
112.1930293218
 10
147.9449675129
 20
112.1968639826
 10
147.940803262
 20
112.2005456549
 10
147.9363922217
 20
112.2040928145
 10
147.9361004345
 20
112.2043060341
  0
LINE
  5
37D
100
AcDbEntity
  8
RACCORDO
100
AcDbLine
 62
7
  6
CONTINUOUS
 10
147.96294565
 20
112.1754311407
 11
147.9422135941
 21
112.207954534
  0
LINE
  5
37E
100
AcDbEntity
  8
RACCORDO
100
AcDbLine
 62
250
  6
CONTINUOUS
 10
146.9062284297
 20
116.163086449
 11
146.8212440876
 21
116.3172823298
  0
LINE
  5
37F
100
AcDbEntity
  8
RACCORDO
100
AcDbLine
 62
250
  6
CONTINUOUS
 10
146.9098511518
 20
118.4855665966
 11
146.9199283734
 21
118.4623141325
  0
LINE
  5
380
100
AcDbEntity
  8
RACCORDO
100
AcDbLine
 62
7
  6
CONTINUOUS
 10
146.8874805354
 20
118.465637733
 11
146.8908021665
 21
118.4572716146
  0
LWPOLYLINE
  5
381
100
AcDbEntity
  8
RACCORDO
100
AcDbPolyline
 62
250
  6
CONTINUOUS
 90
13
 70
0
 10
147.9376657748
 20
88.5735842971
 10
147.9404298068
 20
88.5769928804
 10
147.9429960443
 20
88.580593991
 10
147.9453634045
 20
88.5843942143
 10
147.9475171155
 20
88.588372986
 10
147.9494601443
 20
88.5925426669
 10
147.9512068845
 20
88.5969699073
 10
147.9527358305
 20
88.6016305777
 10
147.9540384486
 20
88.6065537223
 10
147.9551151494
 20
88.6119125919
 10
147.9559263772
 20
88.6177849343
 10
147.9564189064
 20
88.624130797
 10
147.9565461553
 20
88.630961227
  0
LINE
  5
382
100
AcDbEntity
  8
RACCORDO
100
AcDbLine
 62
250
  6
CONTINUOUS
 10
147.9347023171
 20
88.5703650163
 11
147.9376657748
 21
88.5735842971
  0
LWPOLYLINE
  5
383
100
AcDbEntity
  8
RACCORDO
100
AcDbPolyline
 62
7
  6
CONTINUOUS
 90
3
 70
0
 10
147.9362127744
 20
88.5702794532
 10
147.9512492023
 20
88.5845445664
 10
147.9636769406
 20
88.600639058
  0
LWPOLYLINE
  5
384
100
AcDbEntity
  8
RACCORDO
100
AcDbPolyline
 62
250
  6
CONTINUOUS
 90
3
 70
0
 10
147.9282352549
 20
88.5645447399
 10
147.9315515185
 20
88.567346814
 10
147.9347023171
 20
88.5703650163
  0
LWPOLYLINE
  5
385
100
AcDbEntity
  8
RACCORDO
100
AcDbPolyline
 62
250
  6
CONTINUOUS
 90
8
 70
0
 10
147.9565378197
 20
90.8338861247
 10
147.964583021
 20
90.8394026068
 10
147.971398501
 20
90.8454542125
 10
147.9768791857
 20
90.8519490018
 10
147.9809406413
 20
90.8587896137
 10
147.983519853
 20
90.8658705976
 10
147.9845768158
 20
90.8730799377
 10
147.9846038396
 20
90.8744354743
  0
LWPOLYLINE
  5
386
100
AcDbEntity
  8
RACCORDO
100
AcDbPolyline
 62
250
  6
CONTINUOUS
 90
9
 70
0
 10
148.2443695403
 20
91.1600622404
 10
148.2609426132
 20
91.1713121947
 10
148.2832238823
 20
91.1916017097
 10
148.3024830926
 20
91.2159638736
 10
148.318523055
 20
91.2441492495
 10
148.3311795414
 20
91.2758692562
 10
148.3403229658
 20
91.3107991224
 10
148.3458597117
 20
91.348581212
 10
148.3477330898
 20
91.3888286859
  0
LINE
  5
387
100
AcDbEntity
  8
RACCORDO
100
AcDbLine
 62
250
  6
CONTINUOUS
 10
148.3477317223
 20
91.3888278697
 11
147.5468671115
 21
90.9108500897
  0
LINE
  5
388
100
AcDbEntity
  8
RACCORDO
100
AcDbLine
 62
7
  6
CONTINUOUS
 10
148.2443695403
 20
91.1600622404
 11
147.5468671115
 21
90.7437738048
  0
LWPOLYLINE
  5
389
100
AcDbEntity
  8
RACCORDO
100
AcDbPolyline
 62
7
  6
CONTINUOUS
 90
6
 70
0
 10
148.2443695403
 20
91.1600622404
 10
148.2471098052
 20
91.1616721171
 10
148.2557651276
 20
91.1664094385
 10
148.2622041623
 20
91.1695190983
 10
148.2662680143
 20
91.1712219276
 10
148.2677002833
 20
91.1717383048
  0
LINE
  5
38A
100
AcDbEntity
  8
RACCORDO
100
AcDbLine
 62
250
  6
CONTINUOUS
 10
147.5468671115
 20
90.59734195
 11
147.9565378197
 21
90.8338861264
  0
LINE
  5
38B
100
AcDbEntity
  8
RACCORDO
100
AcDbLine
 62
7
  6
CONTINUOUS
 10
148.561926921
 20
113.7724602009
 11
147.8178346226
 21
113.5838378032
  0
LINE
  5
38C
100
AcDbEntity
  8
RACCORDO
100
AcDbLine
 62
250
  6
CONTINUOUS
 10
148.6075272833
 20
113.8500496169
 11
147.8851751801
 21
113.6669382125
  0
LINE
  5
38D
100
AcDbEntity
  8
RACCORDO
100
AcDbLine
 62
250
  6
CONTINUOUS
 10
148.2080402306
 20
112.2817430329
 11
148.1279200252
 21
112.3187891826
  0
LWPOLYLINE
  5
38E
100
AcDbEntity
  8
RACCORDO
100
AcDbPolyline
 62
250
  6
CONTINUOUS
 90
16
 70
0
 10
148.2080402306
 20
112.2817430329
 10
148.2477722781
 20
112.2631217077
 10
148.2905927294
 20
112.2469427691
 10
148.3360530399
 20
112.2333756939
 10
148.3836770098
 20
112.2225626005
 10
148.4329657782
 20
112.2146167581
 10
148.4834030484
 20
112.2096214016
 10
148.5344604877
 20
112.2076288608
 10
148.5856032649
 20
112.208660011
 10
148.6362956586
 20
112.2127040545
 10
148.6860066606
 20
112.2197186334
 10
148.7342155404
 20
112.229630273
 10
148.7804173038
 20
112.242335152
 10
148.8241279787
 20
112.2577001892
 10
148.8648896853
 20
112.2755644371
 10
148.9022754339
 20
112.2957407686
  0
LWPOLYLINE
  5
38F
100
AcDbEntity
  8
RACCORDO
100
AcDbPolyline
 62
250
  6
CONTINUOUS
 90
6
 70
0
 10
151.0769082165
 20
116.0397864936
 10
151.0770600092
 20
116.0393212994
 10
151.0759434874
 20
116.036221107
 10
151.0717818104
 20
116.0317535766
 10
151.0648557307
 20
116.025634437
 10
151.05492026
 20
116.018594666
  0
LWPOLYLINE
  5
390
100
AcDbEntity
  8
RACCORDO
100
AcDbPolyline
 62
250
  6
CONTINUOUS
 90
6
 70
0
 10
151.0276119571
 20
121.0586532561
 10
151.0316731823
 20
121.0421772376
 10
151.0332197086
 20
121.0273449383
 10
151.0322252428
 20
121.0144084998
 10
151.0287066888
 20
121.0035878388
 10
151.0220389088
 20
120.9943905009
  0
LWPOLYLINE
  5
391
100
AcDbEntity
  8
RACCORDO
100
AcDbPolyline
 62
250
  6
CONTINUOUS
 90
8
 70
0
 10
147.312018706
 20
80.0875439747
 10
147.3122041795
 20
80.0879132792
 10
147.3126725978
 20
80.0910908537
 10
147.3132449682
 20
80.0974779953
 10
147.313911789
 20
80.1069703723
 10
147.3146613225
 20
80.1193984164
 10
147.3154807974
 20
80.1345447777
 10
147.3172753856
 20
80.1719482712
  0
LWPOLYLINE
  5
392
100
AcDbEntity
  8
RACCORDO
100
AcDbPolyline
 62
250
  6
CONTINUOUS
 90
8
 70
0
 10
147.7392415194
 20
80.0725777577
 10
147.7394264866
 20
80.0729451647
 10
147.7398947237
 20
80.0761183218
 10
147.7404669537
 20
80.0825011714
 10
147.7411336985
 20
80.0919901666
 10
147.7418832601
 20
80.1044168096
 10
147.7427028933
 20
80.1195646996
 10
147.7444981989
 20
80.1569820542
  0
LINE
  5
393
100
AcDbEntity
  8
RACCORDO
100
AcDbLine
 62
7
  6
CONTINUOUS
 10
147.8961775603
 20
88.5452901645
 11
147.888338905
 21
88.5393058526
  0
LINE
  5
394
100
AcDbEntity
  8
RACCORDO
100
AcDbLine
 62
7
  6
CONTINUOUS
 10
147.9213239491
 20
88.5597045209
 11
147.9362127744
 21
88.5702794532
  0
LWPOLYLINE
  5
395
100
AcDbEntity
  8
RACCORDO
100
AcDbPolyline
 62
250
  6
CONTINUOUS
 90
8
 70
0
 10
147.9565378197
 20
88.6309560793
 10
147.9645839653
 20
88.6363392331
 10
147.9713996755
 20
88.6422538883
 10
147.976880101
 20
88.6486079947
 10
147.9809409327
 20
88.6553015877
 10
147.9835197086
 20
88.6622316936
 10
147.9845767627
 20
88.6692939326
 10
147.9846038063
 20
88.6705774772
  0
LWPOLYLINE
  5
396
100
AcDbEntity
  8
RACCORDO
100
AcDbPolyline
 62
250
  6
CONTINUOUS
 90
19
 70
0
 10
148.3477330898
 20
87.6731640941
 10
148.3974992144
 20
87.7060004312
 10
148.445615344
 20
87.7423005837
 10
148.4920814786
 20
87.7820645516
 10
148.5369898371
 20
87.8254872558
 10
148.5802482006
 20
87.8723737754
 10
148.6215799121
 20
87.9221393478
 10
148.661167583
 20
87.9749951063
 10
148.6988286019
 20
88.0307299176
 10
148.7337384779
 20
88.0881256194
 10
148.765736398
 20
88.1467997149
 10
148.7949831751
 20
88.207134701
 10
148.8211367565
 20
88.2690599051
 10
148.8444587393
 20
88.3331539705
 10
148.8646875263
 20
88.398838254
 10
148.8806962737
 20
88.464306154
 10
148.8921093668
 20
88.5289554702
 10
148.8993024202
 20
88.5933884029
 10
148.9022754339
 20
88.6576049523
  0
LWPOLYLINE
  5
397
100
AcDbEntity
  8
RACCORDO
100
AcDbPolyline
 62
250
  6
CONTINUOUS
 90
3
 70
0
 10
147.9214352278
 20
88.5597731151
 10
147.924772129
 20
88.5619667396
 10
147.9282352549
 20
88.5645447399
  0
LINE
  5
398
100
AcDbEntity
  8
RACCORDO
100
AcDbLine
 62
7
  6
CONTINUOUS
 10
147.9214350737
 20
88.5597730198
 11
147.8883394537
 21
88.5393061919
  0
LINE
  5
399
100
AcDbEntity
  8
RACCORDO
100
AcDbLine
 62
250
  6
CONTINUOUS
 10
147.9565378197
 20
88.6309560776
 11
147.9180981717
 21
88.6072094824
  0
LINE
  5
39A
100
AcDbEntity
  8
RACCORDO
100
AcDbLine
 62
250
  6
CONTINUOUS
 10
147.5468671115
 20
87.9953499345
 11
148.0065667445
 21
88.2706995582
  0
LINE
  5
39B
100
AcDbEntity
  8
RACCORDO
100
AcDbLine
 62
250
  6
CONTINUOUS
 10
147.5468671115
 20
87.1934635896
 11
148.3477330898
 21
87.6731640941
  0
LWPOLYLINE
  5
39C
100
AcDbEntity
  8
RACCORDO
100
AcDbPolyline
 62
250
  6
CONTINUOUS
 90
19
 70
0
 10
148.0065643563
 20
88.2707009372
 10
148.026098316
 20
88.2821085182
 10
148.045082873
 20
88.2952597574
 10
148.0633880575
 20
88.3099834447
 10
148.0808174753
 20
88.3260294632
 10
148.0973464374
 20
88.3432880848
 10
148.1131008064
 20
88.3618472674
 10
148.1280444495
 20
88.3816740907
 10
148.1419916904
 20
88.4025411135
 10
148.1548331849
 20
88.4242809614
 10
148.1664007785
 20
88.4465815934
 10
148.1766975312
 20
88.4694396149
 10
148.1858199709
 20
88.4931633285
 10
148.1936823399
 20
88.5177811285
 10
148.2000633567
 20
88.5429281127
 10
148.2048076705
 20
88.5683142205
 10
148.2077901278
 20
88.5936955302
 10
148.2089011955
 20
88.6188736698
 10
148.2080356202
 20
88.6436083369
  0
LINE
  5
39D
100
AcDbEntity
  8
RACCORDO
100
AcDbLine
 62
7
  6
CONTINUOUS
 10
147.888338905
 20
88.5393058526
 11
147.8857220999
 21
88.5377949425
  0
LINE
  5
39E
100
AcDbEntity
  8
RACCORDO
100
AcDbLine
 62
250
  6
CONTINUOUS
 10
147.9180981717
 20
88.6072093286
 11
147.5468671115
 21
88.4075544504
  0
LINE
  5
39F
100
AcDbEntity
  8
RACCORDO
100
AcDbLine
 62
7
  6
CONTINUOUS
 10
147.8857226425
 20
88.5377952781
 11
147.5468671115
 21
88.3555697393
  0
LINE
  5
3A0
100
AcDbEntity
  8
RACCORDO
100
AcDbLine
 62
7
  6
CONTINUOUS
 10
146.8928608876
 20
115.5813924575
 11
147.4752503115
 21
115.6619842724
  0
LWPOLYLINE
  5
3A1
100
AcDbEntity
  8
RACCORDO
100
AcDbPolyline
 62
250
  6
CONTINUOUS
 90
8
 70
0
 10
147.7223522963
 20
113.5805937275
 10
147.722933414
 20
113.5806165157
 10
147.7256033624
 20
113.5828926435
 10
147.7287509184
 20
113.5886167286
 10
147.7323016754
 20
113.5976534566
 10
147.7361716954
 20
113.609789204
 10
147.7402694932
 20
113.6247370881
 10
147.7444981989
 20
113.6421437488
  0
LWPOLYLINE
  5
3A2
100
AcDbEntity
  8
RACCORDO
100
AcDbPolyline
 62
7
  6
CONTINUOUS
 90
7
 70
0
 10
147.7223522963
 20
113.5805937275
 10
147.7299189045
 20
113.5795045133
 10
147.7492634731
 20
113.5777076011
 10
147.7685148417
 20
113.5773619664
 10
147.7869958591
 20
113.5784671499
 10
147.8045497643
 20
113.5809428183
 10
147.8177721261
 20
113.5838219901
  0
LINE
  5
3A3
100
AcDbEntity
  8
RACCORDO
100
AcDbLine
 62
7
  6
CONTINUOUS
 10
147.7223420253
 20
113.5805953175
 11
147.5468671115
 21
113.6083877944
  0
LINE
  5
3A4
100
AcDbEntity
  8
RACCORDO
100
AcDbLine
 62
250
  6
CONTINUOUS
 10
147.7444981989
 20
113.6421437488
 11
147.5468671115
 21
113.6734454164
  0
LINE
  5
3A5
100
AcDbEntity
  8
RACCORDO
100
AcDbLine
 62
250
  6
CONTINUOUS
 10
146.8928608876
 20
115.5813924575
 11
146.8282148376
 21
115.6187182766
  0
LWPOLYLINE
  5
3A6
100
AcDbEntity
  8
RACCORDO
100
AcDbPolyline
 62
250
  6
CONTINUOUS
 90
10
 70
0
 10
148.173287962
 20
119.816619374
 10
148.1618912384
 20
119.8357646438
 10
148.1475709747
 20
119.8535183883
 10
148.130568332
 20
119.8695816248
 10
148.1111696439
 20
119.8836838398
 10
148.0897015949
 20
119.8955875443
 10
148.0665257184
 20
119.9050922736
 10
148.0420323088
 20
119.9120379628
 10
148.0166338482
 20
119.9163076427
 10
147.9907580606
 20
119.9178294098
  0
LWPOLYLINE
  5
3A7
100
AcDbEntity
  8
RACCORDO
100
AcDbPolyline
 62
250
  6
CONTINUOUS
 90
10
 70
0
 10
149.4066762488
 20
118.9615758
 10
149.5806768603
 20
118.6616815987
 10
149.7554807215
 20
118.3554324964
 10
149.9309505576
 20
118.0428136021
 10
150.1061058375
 20
117.7253480671
 10
150.2816634793
 20
117.4015063341
 10
150.4599194066
 20
117.0666501754
 10
150.6414083615
 20
116.7191829667
 10
150.8250220283
 20
116.3606067199
 10
151.0104669105
 20
115.990892737
  0
LWPOLYLINE
  5
3A8
100
AcDbEntity
  8
RACCORDO
100
AcDbPolyline
 62
7
  6
CONTINUOUS
 90
10
 70
0
 10
149.4778436774
 20
119.0017173451
 10
149.6657003516
 20
118.6777236555
 10
149.8510841333
 20
118.3523213669
 10
150.03396316
 20
118.0255663891
 10
150.2143059496
 20
117.6975149396
 10
150.3920815351
 20
117.3682232986
 10
150.5672594657
 20
117.0377477938
 10
150.7398096406
 20
116.7061451075
 10
150.9097023182
 20
116.3734722741
 10
151.0769082482
 20
116.0397864296
  0
LINE
  5
3A9
100
AcDbEntity
  8
RACCORDO
100
AcDbLine
 62
7
  6
CONTINUOUS
 10
147.193192567
 20
77.9829872242
 11
147.5468671115
 21
78.5747269002
  0
LINE
  5
3AA
100
AcDbEntity
  8
RACCORDO
100
AcDbLine
 62
250
  6
CONTINUOUS
 10
151.0344813445
 20
87.8800495345
 11
151.0344324827
 21
87.8799932901
  0
LINE
  5
3AB
100
AcDbEntity
  8
RACCORDO
100
AcDbLine
 62
250
  6
CONTINUOUS
 10
150.8385528404
 20
87.7146366029
 11
151.0276119571
 21
87.9312786594
  0
LINE
  5
3AC
100
AcDbEntity
  8
RACCORDO
100
AcDbLine
 62
7
  6
CONTINUOUS
 10
150.8728484091
 20
87.6948347713
 11
151.0344324827
 21
87.8799932901
  0
LINE
  5
3AD
100
AcDbEntity
  8
RACCORDO
100
AcDbLine
 62
250
  6
CONTINUOUS
 10
151.0168224618
 20
86.8129840293
 11
151.0104669105
 21
86.8067650608
  0
LINE
  5
3AE
100
AcDbEntity
  8
RACCORDO
100
AcDbLine
 62
7
  6
CONTINUOUS
 10
147.4752503115
 20
82.8856789996
 11
146.8928608876
 21
82.3280648999
  0
LWPOLYLINE
  5
3AF
100
AcDbEntity
  8
RACCORDO
100
AcDbPolyline
 62
250
  6
CONTINUOUS
 90
9
 70
0
 10
148.6075272833
 20
86.0046842543
 10
148.5959512999
 20
85.9939191746
 10
148.5843536949
 20
85.9832284763
 10
148.5727344682
 20
85.9726121593
 10
148.561092676
 20
85.96206941
 10
148.5494292621
 20
85.951601042
 10
148.5377470582
 20
85.9412094967
 10
148.5260470081
 20
85.9308955878
 10
148.514328168
 20
85.9206585015
  0
LINE
  5
3B0
100
AcDbEntity
  8
RACCORDO
100
AcDbLine
 62
250
  6
CONTINUOUS
 10
148.5014774205
 20
86.1883680046
 11
148.4000241816
 21
86.1003385139
  0
LINE
  5
3B1
100
AcDbEntity
  8
RACCORDO
100
AcDbLine
 62
250
  6
CONTINUOUS
 10
147.7535245193
 20
85.5432439166
 11
148.4000241816
 21
86.1003385139
  0
LINE
  5
3B2
100
AcDbEntity
  8
RACCORDO
100
AcDbLine
 62
250
  6
CONTINUOUS
 10
147.8851751801
 20
85.3784961758
 11
148.514328168
 21
85.9206585015
  0
LWPOLYLINE
  5
3B3
100
AcDbEntity
  8
RACCORDO
100
AcDbPolyline
 62
7
  6
CONTINUOUS
 90
10
 70
0
 10
151.028175802
 20
86.8196071377
 10
150.8901924081
 20
86.7030871727
 10
150.750400015
 20
86.5893302961
 10
150.6088156839
 20
86.4783497165
 10
150.4654579782
 20
86.3701592461
 10
150.320343183
 20
86.2647704295
 10
150.1734851695
 20
86.1621928019
 10
150.0249004908
 20
86.0624375876
 10
149.874608513
 20
85.9655174368
 10
149.7226275413
 20
85.8714437365
  0
LWPOLYLINE
  5
3B4
100
AcDbEntity
  8
RACCORDO
100
AcDbPolyline
 62
250
  6
CONTINUOUS
 90
5
 70
0
 10
151.0104669105
 20
86.8067650608
 10
150.8373465738
 20
86.6612969714
 10
150.6639217676
 20
86.5222346089
 10
150.4903457366
 20
86.3894143004
 10
150.4654579782
 20
86.3701592461
  0
LWPOLYLINE
  5
3B5
100
AcDbEntity
  8
RACCORDO
100
AcDbPolyline
 62
250
  6
CONTINUOUS
 90
7
 70
0
 10
148.8177548209
 20
86.9206198709
 10
148.8281865361
 20
86.9285808082
 10
148.8383742644
 20
86.9403510439
 10
148.8464101384
 20
86.9546931558
 10
148.8521567155
 20
86.9713618412
 10
148.8555157081
 20
86.9900720048
 10
148.8564296652
 20
87.0105036345
  0
LWPOLYLINE
  5
3B6
100
AcDbEntity
  8
RACCORDO
100
AcDbPolyline
 62
7
  6
CONTINUOUS
 90
19
 70
0
 10
148.8177067707
 20
86.9205901841
 10
148.8650321606
 20
86.9517595478
 10
148.9245100007
 20
86.9964446982
 10
148.9820890653
 20
87.0458646656
 10
149.0374840761
 20
87.0996112797
 10
149.0905143041
 20
87.1573362196
 10
149.1409778623
 20
87.218704892
 10
149.1886372929
 20
87.2833329794
 10
149.2332283712
 20
87.3508213613
 10
149.2744771424
 20
87.4207162255
 10
149.3121467866
 20
87.4925908432
 10
149.345997208
 20
87.5660266512
 10
149.3758031619
 20
87.6405483387
 10
149.4013495334
 20
87.7157188375
 10
149.4224418677
 20
87.7911390946
 10
149.4389047216
 20
87.8664605452
 10
149.4505348626
 20
87.9413358024
 10
149.4571406912
 20
88.0153086726
 10
149.4586727818
 20
88.0703787341
  0
LINE
  5
3B7
100
AcDbEntity
  8
RACCORDO
100
AcDbLine
 62
250
  6
CONTINUOUS
 10
148.8564296652
 20
87.0105036345
 11
147.5468671115
 21
86.2006505075
  0
LINE
  5
3B8
100
AcDbEntity
  8
RACCORDO
100
AcDbLine
 62
7
  6
CONTINUOUS
 10
148.8177548209
 20
86.9206198709
 11
147.5468671115
 21
86.1346838477
  0
LWPOLYLINE
  5
3B9
100
AcDbEntity
  8
RACCORDO
100
AcDbPolyline
 62
250
  6
CONTINUOUS
 90
21
 70
0
 10
151.0416269971
 20
87.4101077482
 10
151.047049095
 20
87.4134189179
 10
151.0522365427
 20
87.4167898854
 10
151.0571807314
 20
87.4202152665
 10
151.0618731781
 20
87.423688923
 10
151.0663062914
 20
87.4272056146
 10
151.070473245
 20
87.430761061
 10
151.0743671322
 20
87.4343492539
 10
151.0779808557
 20
87.4379638418
 10
151.0813078572
 20
87.4415998006
 10
151.0843424324
 20
87.4452502637
 10
151.0870790179
 20
87.4489087475
 10
151.0895121989
 20
87.4525705337
 10
151.0916378747
 20
87.4562284253
 10
151.0934520762
 20
87.4598754565
 10
151.0949509316
 20
87.4635070075
 10
151.0961316911
 20
87.4671140657
 10
151.0969931903
 20
87.4706908987
 10
151.0975344028
 20
87.4742377252
 10
151.0977537132
 20
87.4777417533
 10
151.097759037
 20
87.4783714674
  0
LINE
  5
3BA
100
AcDbEntity
  8
RACCORDO
100
AcDbLine
 62
250
  6
CONTINUOUS
 10
149.454322297
 20
87.9837479527
 11
149.9986444949
 21
88.2980338469
  0
LINE
  5
3BB
100
AcDbEntity
  8
RACCORDO
100
AcDbLine
 62
250
  6
CONTINUOUS
 10
149.3608820276
 20
87.6032420973
 11
150.140044312
 21
88.0531221798
  0
LINE
  5
3BC
100
AcDbEntity
  8
RACCORDO
100
AcDbLine
 62
250
  6
CONTINUOUS
 10
148.5014774205
 20
86.1883680046
 11
150.9355771343
 21
87.5937914986
  0
LINE
  5
3BD
100
AcDbEntity
  8
RACCORDO
100
AcDbLine
 62
250
  6
CONTINUOUS
 10
148.6075272833
 20
86.0046842543
 11
151.0416269971
 21
87.4101077482
  0
LINE
  5
3BE
100
AcDbEntity
  8
RACCORDO
100
AcDbLine
 62
250
  6
CONTINUOUS
 10
146.8918794819
 20
115.9988152781
 11
146.8212440876
 21
115.9886068121
  0
LINE
  5
3BF
100
AcDbEntity
  8
RACCORDO
100
AcDbLine
 62
7
  6
CONTINUOUS
 10
146.834147174
 20
116.0112424887
 11
146.8212440876
 21
116.009377691
  0
LWPOLYLINE
  5
3C0
100
AcDbEntity
  8
RACCORDO
100
AcDbPolyline
 62
250
  6
CONTINUOUS
 90
4
 70
0
 10
146.9283896801
 20
115.9938929937
 10
146.9172793114
 20
115.9980323232
 10
146.9050341449
 20
115.9996832095
 10
146.8918794819
 20
115.9988152781
  0
LWPOLYLINE
  5
3C1
100
AcDbEntity
  8
RACCORDO
100
AcDbPolyline
 62
250
  6
CONTINUOUS
 90
5
 70
0
 10
146.8918794819
 20
115.9988152781
 10
146.8781511385
 20
116.0055929712
 10
146.8640000296
 20
116.0100102274
 10
146.8496601097
 20
116.0119686059
 10
146.8341532041
 20
116.01124336
  0
LINE
  5
3C2
100
AcDbEntity
  8
RACCORDO
100
AcDbLine
 62
250
  6
CONTINUOUS
 10
146.9306063915
 20
115.9926866119
 11
146.9283896801
 21
115.9938929937
  0
LINE
  5
3C3
100
AcDbEntity
  8
RACCORDO
100
AcDbLine
 62
250
  6
CONTINUOUS
 10
146.8918794819
 20
115.9988152781
 11
147.4752503115
 21
115.6619842724
  0
LINE
  5
3C4
100
AcDbEntity
  8
RACCORDO
100
AcDbLine
 62
7
  6
CONTINUOUS
 10
146.9306063915
 20
115.9926866119
 11
147.514991321
 21
115.6552700777
  0
LINE
  5
3C5
100
AcDbEntity
  8
RACCORDO
100
AcDbLine
 62
250
  6
CONTINUOUS
 10
144.445083156
 20
119.077002344
 11
137.531820276
 21
123.0686336874
  0
LWPOLYLINE
  5
3C6
100
AcDbEntity
  8
RACCORDO
100
AcDbPolyline
 62
250
  6
CONTINUOUS
 90
9
 70
0
 10
137.531820276
 20
123.0686336874
 10
137.4977884355
 20
123.0903881028
 10
137.4676442204
 20
123.1141184927
 10
137.4417494986
 20
123.139598849
 10
137.4204033655
 20
123.1666154772
 10
137.4039233197
 20
123.1948652516
 10
137.3925764135
 20
123.2239454824
 10
137.3864883518
 20
123.253504553
 10
137.3853736673
 20
123.2727558171
  0
LINE
  5
3C7
100
AcDbEntity
  8
RACCORDO
100
AcDbLine
 62
7
  6
CONTINUOUS
 10
148.181031517
 20
119.784892831
 11
148.1808613895
 21
119.785091981
  0
LWPOLYLINE
  5
3C8
100
AcDbEntity
  8
RACCORDO
100
AcDbPolyline
 62
250
  6
CONTINUOUS
 90
7
 70
0
 10
151.0182372975
 20
123.6778948397
 10
151.0272077322
 20
123.6542812021
 10
151.0337464285
 20
123.6294461004
 10
151.037742554
 20
123.6038104943
 10
151.0391283737
 20
123.5778089124
 10
151.0378803977
 20
123.5518820867
 10
151.0340197794
 20
123.526469482
  0
LINE
  5
3C9
100
AcDbEntity
  8
RACCORDO
100
AcDbLine
 62
250
  6
CONTINUOUS
 10
150.320343183
 20
86.2647704295
 11
150.3183998711
 21
86.2638365505
  0
LINE
  5
3CA
100
AcDbEntity
  8
RACCORDO
100
AcDbLine
 62
250
  6
CONTINUOUS
 10
151.028175802
 20
86.8196071377
 11
151.0104669105
 21
86.8067650608
  0
LWPOLYLINE
  5
3CB
100
AcDbEntity
  8
RACCORDO
100
AcDbPolyline
 62
250
  6
CONTINUOUS
 90
5
 70
0
 10
150.1734851695
 20
86.1621928019
 10
150.1466434414
 20
86.144098352
 10
149.9701825626
 20
86.0267685294
 10
149.787249794
 20
85.9109735431
 10
149.7226275413
 20
85.8714437365
  0
LWPOLYLINE
  5
3CC
100
AcDbEntity
  8
RACCORDO
100
AcDbPolyline
 62
250
  6
CONTINUOUS
 90
7
 70
0
 10
151.0416269971
 20
86.8910191055
 10
151.0583557765
 20
86.9024118123
 10
151.0723981527
 20
86.914956251
 10
151.083518983
 20
86.9284426256
 10
151.0915320132
 20
86.9426454322
 10
151.0963028637
 20
86.9573269996
 10
151.0977590371
 20
86.9712365129
  0
LINE
  5
3CD
100
AcDbEntity
  8
DRAFT
100
AcDbLine
 62
7
  6
CONTINUOUS
 10
148.6075272833
 20
85.1954137738
 11
149.7226275413
 21
85.8714437365
  0
LINE
  5
3CE
100
AcDbEntity
  8
RACCORDO
100
AcDbLine
 62
250
  6
CONTINUOUS
 10
148.6075272833
 20
85.4181060743
 11
151.0416269971
 21
86.8910191055
  0
LINE
  5
3CF
100
AcDbEntity
  8
RACCORDO
100
AcDbLine
 62
250
  6
CONTINUOUS
 10
148.6075272833
 20
85.3527243432
 11
151.0104669105
 21
86.8067650608
  0
LINE
  5
3D0
100
AcDbEntity
  8
RACCORDO
100
AcDbLine
 62
250
  6
CONTINUOUS
 10
144.7893815978
 20
119.6838911956
 11
137.8761187178
 21
123.675522539
  0
LWPOLYLINE
  5
3D1
100
AcDbEntity
  8
RACCORDO
100
AcDbPolyline
 62
250
  6
CONTINUOUS
 90
13
 70
0
 10
147.7388420841
 20
119.0979111302
 10
147.7570477221
 20
119.0856858112
 10
147.7750669919
 20
119.0709518383
 10
147.7925914589
 20
119.0539620189
 10
147.8093205411
 20
119.0350085731
 10
147.8249689479
 20
119.0144155715
 10
147.8392710192
 20
118.992532695
 10
147.851986811
 20
118.9697243236
 10
147.8628917456
 20
118.9463901927
 10
147.8717896109
 20
118.9229569477
 10
147.8785328985
 20
118.8998337331
 10
147.8830176793
 20
118.8774041291
 10
147.8851751801
 20
118.8560467949
  0
LWPOLYLINE
  5
3D2
100
AcDbEntity
  8
RACCORDO
100
AcDbPolyline
 62
250
  6
CONTINUOUS
 90
6
 70
0
 10
146.9501624125
 20
118.3189915712
 10
146.9335227006
 20
118.330418896
 10
146.9205291529
 20
118.3433264249
 10
146.9115678687
 20
118.3573306146
 10
146.9069051299
 20
118.3720153346
 10
146.9062284355
 20
118.3802087606
  0
LWPOLYLINE
  5
3D3
100
AcDbEntity
  8
RACCORDO
100
AcDbPolyline
 62
7
  6
CONTINUOUS
 90
4
 70
0
 10
148.1899071802
 20
119.7769167702
 10
148.1885089785
 20
119.7780091806
 10
148.1833460225
 20
119.7824865554
 10
148.181031517
 20
119.784892831
  0
LINE
  5
3D4
100
AcDbEntity
  8
RACCORDO
100
AcDbLine
 62
250
  6
CONTINUOUS
 10
146.8422775968
 20
81.0563961373
 11
146.9062284297
 21
81.0959442917
  0
LINE
  5
3D5
100
AcDbEntity
  8
RACCORDO
100
AcDbLine
 62
250
  6
CONTINUOUS
 10
147.4190384275
 20
118.8155197843
 11
147.7444981989
 21
118.8236412555
  0
LINE
  5
3D6
100
AcDbEntity
  8
RACCORDO
100
AcDbLine
 62
250
  6
CONTINUOUS
 10
147.5468671115
 20
119.0931206173
 11
147.7388420841
 21
119.0979111302
  0
LWPOLYLINE
  5
3D7
100
AcDbEntity
  8
RACCORDO
100
AcDbPolyline
 62
250
  6
CONTINUOUS
 90
10
 70
0
 10
147.7444981989
 20
118.8236412555
 10
147.761741985
 20
118.8239841059
 10
147.7788704246
 20
118.8251838154
 10
147.795756039
 20
118.8272314554
 10
147.8122731567
 20
118.8301117864
 10
147.8282988485
 20
118.8338033718
 10
147.8437138425
 20
118.838278737
 10
147.8584034121
 20
118.8435045741
 10
147.8722582296
 20
118.8494419898
 10
147.8851751801
 20
118.8560467949
  0
LWPOLYLINE
  5
3D8
100
AcDbEntity
  8
RACCORDO
100
AcDbPolyline
 62
250
  6
CONTINUOUS
 90
7
 70
0
 10
149.4051134753
 20
119.0739993072
 10
149.3923621549
 20
119.0796613684
 10
149.3772368297
 20
119.0828563008
 10
149.3609204578
 20
119.0829977425
 10
149.3436960576
 20
119.0800943281
 10
149.3258476778
 20
119.0742044148
 10
149.3076741757
 20
119.065435154
  0
LWPOLYLINE
  5
3D9
100
AcDbEntity
  8
RACCORDO
100
AcDbPolyline
 62
250
  6
CONTINUOUS
 90
5
 70
0
 10
148.2054360837
 20
119.7666781071
 10
148.1926613125
 20
119.772372028
 10
148.1775629977
 20
119.7755800646
 10
148.1612575705
 20
119.7757410965
 10
148.1440178014
 20
119.7728524658
  0
LWPOLYLINE
  5
3DA
100
AcDbEntity
  8
RACCORDO
100
AcDbPolyline
 62
250
  6
CONTINUOUS
 90
9
 70
0
 10
137.8761187178
 20
123.675522539
 10
137.8387987911
 20
123.6938262014
 10
137.801828826
 20
123.7076939268
 10
137.7656138514
 20
123.7169221045
 10
137.7305138418
 20
123.7213570129
 10
137.6969783961
 20
123.7208772632
 10
137.6655174106
 20
123.7154606993
 10
137.6365167018
 20
123.7051843689
 10
137.6159997165
 20
123.6940045001
  0
LINE
  5
3DB
100
AcDbEntity
  8
RACCORDO
100
AcDbLine
 62
250
  6
CONTINUOUS
 10
149.4052108647
 20
119.0739431852
 11
149.4051134753
 21
119.0739993072
  0
LINE
  5
3DC
100
AcDbEntity
  8
RACCORDO
100
AcDbLine
 62
7
  6
CONTINUOUS
 10
147.5468671115
 20
120.0514169613
 11
144.7725960005
 21
121.6531694348
  0
LINE
  5
3DD
100
AcDbEntity
  8
RACCORDO
100
AcDbLine
 62
7
  6
CONTINUOUS
 10
148.4662135769
 20
119.5467370145
 11
146.1503312187
 21
120.8838984633
  0
LINE
  5
3DE
100
AcDbEntity
  8
RACCORDO
100
AcDbLine
 62
250
  6
CONTINUOUS
 10
148.1079001173
 20
119.7581696586
 11
149.3076741824
 21
119.0654351501
  0
LINE
  5
3DF
100
AcDbEntity
  8
RACCORDO
100
AcDbLine
 62
7
  6
CONTINUOUS
 10
148.2054360837
 20
119.7666781071
 11
149.4052108647
 21
119.0739431852
  0
LINE
  5
3E0
100
AcDbEntity
  8
DRAFT
100
AcDbLine
 62
7
  6
CONTINUOUS
 10
141.9253682011
 20
124.113670255
 11
145.425546768
 21
122.0927110181
  0
LINE
  5
3E1
100
AcDbEntity
  8
RACCORDO
100
AcDbLine
 62
7
  6
CONTINUOUS
 10
144.8421836735
 20
122.7563466159
 11
144.2254684725
 21
123.1124302437
  0
LINE
  5
3E2
100
AcDbEntity
  8
DRAFT
100
AcDbLine
 62
7
  6
CONTINUOUS
 10
144.8421836735
 20
122.7563466159
 11
147.053524661
 21
121.4795460443
  0
LINE
  5
3E3
100
AcDbEntity
  8
RACCORDO
100
AcDbLine
 62
7
  6
CONTINUOUS
 10
139.3346405734
 20
124.7929887244
 11
141.2001929072
 21
123.7158302081
  0
LWPOLYLINE
  5
3E4
100
AcDbEntity
  8
RACCORDO
100
AcDbPolyline
 62
250
  6
CONTINUOUS
 90
13
 70
0
 10
148.1079001173
 20
119.7581696586
 10
148.0900549476
 20
119.7691831456
 10
148.0736103644
 20
119.7806980329
 10
148.0585663679
 20
119.7927143203
 10
148.0448765652
 20
119.8052828523
 10
148.0325873492
 20
119.8183527845
 10
148.0218378983
 20
119.8317715835
 10
148.0126448481
 20
119.8455430755
 10
148.0049915632
 20
119.8596634343
 10
147.9989673148
 20
119.8739686483
 10
147.9946018601
 20
119.8884040469
 10
147.991865442
 20
119.9030243008
 10
147.9907580606
 20
119.9178294098
  0
LWPOLYLINE
  5
3E5
100
AcDbEntity
  8
RACCORDO
100
AcDbPolyline
 62
7
  6
CONTINUOUS
 90
3
 70
0
 10
148.2054505102
 20
119.7666697776
 10
148.1966927285
 20
119.7720845617
 10
148.1899071802
 20
119.7769167702
  0
LWPOLYLINE
  5
3E6
100
AcDbEntity
  8
RACCORDO
100
AcDbPolyline
 62
250
  6
CONTINUOUS
 90
10
 70
0
 10
149.3076741757
 20
119.065435154
 10
149.3199220869
 20
119.0578454937
 10
149.3320608054
 20
119.0490901219
 10
149.3440002623
 20
119.0392340033
 10
149.3556518672
 20
119.02835027
 10
149.3669291655
 20
119.0165196789
 10
149.37774848
 20
119.0038300126
 10
149.3880295317
 20
118.9903754282
 10
149.3976960355
 20
118.9762557582
 10
149.4066762663
 20
118.9615757702
  0
LWPOLYLINE
  5
3E7
100
AcDbEntity
  8
RACCORDO
100
AcDbPolyline
 62
7
  6
CONTINUOUS
 90
16
 70
0
 10
148.1197094669
 20
120.8088191199
 10
148.1271613396
 20
120.8039616095
 10
148.1340584001
 20
120.7984923844
 10
148.1404006485
 20
120.7924114446
 10
148.1461698517
 20
120.785697633
 10
148.1513842428
 20
120.7783721067
 10
148.1560985212
 20
120.770498337
 10
148.1603244963
 20
120.7620970357
 10
148.1640503588
 20
120.753147491
 10
148.1672953794
 20
120.743651039
 10
148.1700717381
 20
120.733612844
 10
148.172367255
 20
120.7230277417
 10
148.174164661
 20
120.7118815757
 10
148.1754581999
 20
120.700169627
 10
148.176253628
 20
120.6878966146
 10
148.1765509453
 20
120.6750625385
  0
LWPOLYLINE
  5
3E8
100
AcDbEntity
  8
RACCORDO
100
AcDbPolyline
 62
250
  6
CONTINUOUS
 90
3
 70
0
 10
150.9936480561
 20
123.7198841876
 10
151.0069871748
 20
123.6998867573
 10
151.0182372975
 20
123.6778948397
  0
LWPOLYLINE
  5
3E9
100
AcDbEntity
  8
RACCORDO
100
AcDbPolyline
 62
250
  6
CONTINUOUS
 90
8
 70
0
 10
147.8354979066
 20
80.0934757212
 10
147.8392717538
 20
80.0955057664
 10
147.8519874576
 20
80.1048223665
 10
147.8628922482
 20
80.117011365
 10
147.8717899491
 20
80.131845863
 10
147.8785330806
 20
80.1490569187
 10
147.8830177392
 20
80.1683489846
 10
147.8851751801
 20
80.1893875935
  0
LWPOLYLINE
  5
3EA
100
AcDbEntity
  8
RACCORDO
100
AcDbPolyline
 62
250
  6
CONTINUOUS
 90
10
 70
0
 10
147.8851751801
 20
80.1893875935
 10
147.8722582394
 20
80.1827827929
 10
147.8584034303
 20
80.1768453798
 10
147.8437138672
 20
80.1716195435
 10
147.8282988771
 20
80.1671441779
 10
147.8122731863
 20
80.163452591
 10
147.7957560663
 20
80.160572258
 10
147.7788704462
 20
80.1585246161
 10
147.7617419974
 20
80.1573249051
 10
147.7444981989
 20
80.1569820542
  0
LINE
  5
3EB
100
AcDbEntity
  8
RACCORDO
100
AcDbLine
 62
250
  6
CONTINUOUS
 10
147.8354142098
 20
80.093433963
 11
147.8354979066
 21
80.0934757212
  0
LINE
  5
3EC
100
AcDbEntity
  8
RACCORDO
100
AcDbLine
 62
250
  6
CONTINUOUS
 10
148.6075272833
 20
80.5491921857
 11
147.8851751801
 21
80.1893875935
  0
LINE
  5
3ED
100
AcDbEntity
  8
RACCORDO
100
AcDbLine
 62
7
  6
CONTINUOUS
 10
148.5624759091
 20
80.4555844116
 11
147.8354142098
 21
80.093433963
  0
LINE
  5
3EE
100
AcDbEntity
  8
RACCORDO
100
AcDbLine
 62
250
  6
CONTINUOUS
 10
146.86484703
 20
80.0197638631
 11
146.8212440876
 21
79.9997810836
  0
LWPOLYLINE
  5
3EF
100
AcDbEntity
  8
RACCORDO
100
AcDbPolyline
 62
250
  6
CONTINUOUS
 90
6
 70
0
 10
146.9053445413
 20
81.043755158
 10
146.9052000155
 20
81.043699661
 10
146.8961016545
 20
81.0419154304
 10
146.8863066082
 20
81.0416287584
 10
146.8759151124
 20
81.0429017221
 10
146.8650350653
 20
81.0457752018
  0
LWPOLYLINE
  5
3F0
100
AcDbEntity
  8
RACCORDO
100
AcDbPolyline
 62
250
  6
CONTINUOUS
 90
13
 70
0
 10
147.9832882558
 20
120.4034965222
 10
148.0091646556
 20
120.4019746855
 10
148.034563609
 20
120.3977048258
 10
148.0590573734
 20
120.3907588809
 10
148.0822334718
 20
120.3812538488
 10
148.1037015957
 20
120.3693498328
 10
148.1231001893
 20
120.3552473582
 10
148.1401025972
 20
120.339183958
 10
148.1544225353
 20
120.3214301736
 10
148.1658188847
 20
120.3022850295
 10
148.1740997836
 20
120.2820709627
 10
148.1791258464
 20
120.2611283871
 10
148.1808124974
 20
120.2398099803
  0
LINE
  5
3F1
100
AcDbEntity
  8
RACCORDO
100
AcDbLine
 62
250
  6
CONTINUOUS
 10
146.2168471088
 20
122.5812515831
 11
146.2046174327
 21
122.5869035299
  0
LINE
  5
3F2
100
AcDbEntity
  8
RACCORDO
100
AcDbLine
 62
7
  6
CONTINUOUS
 10
142.3792785867
 20
124.5866954118
 11
144.4413062965
 21
123.3961064555
  0
LINE
  5
3F3
100
AcDbEntity
  8
DRAFT
100
AcDbLine
 62
7
  6
CONTINUOUS
 10
144.6945026921
 20
123.4032241152
 11
145.328518604
 21
123.0371512737
  0
LINE
  5
3F4
100
AcDbEntity
  8
DRAFT
100
AcDbLine
 62
7
  6
CONTINUOUS
 10
146.4064584085
 20
122.4147623404
 11
147.5398595915
 21
121.7603507021
  0
LINE
  5
3F5
100
AcDbEntity
  8
RACCORDO
100
AcDbLine
 62
250
  6
CONTINUOUS
 10
146.2046174327
 20
122.5869035299
 11
145.5413608247
 21
122.9698595828
  0
LINE
  5
3F6
100
AcDbEntity
  8
RACCORDO
100
AcDbLine
 62
250
  6
CONTINUOUS
 10
146.352824427
 20
122.8895138276
 11
146.6524676172
 21
122.7165036049
  0
LINE
  5
3F7
100
AcDbEntity
  8
RACCORDO
100
AcDbLine
 62
7
  6
CONTINUOUS
 10
144.6769578287
 20
124.2800886617
 11
142.7903072787
 21
125.369417044
  0
LINE
  5
3F8
100
AcDbEntity
  8
RACCORDO
100
AcDbLine
 62
250
  6
CONTINUOUS
 10
146.6524676172
 20
123.1465247595
 11
146.352824427
 21
123.3195349822
  0
LINE
  5
3F9
100
AcDbEntity
  8
RACCORDO
100
AcDbLine
 62
250
  6
CONTINUOUS
 10
144.9622539692
 20
124.4569678014
 11
143.1071607428
 21
125.5280753805
  0
LINE
  5
3FA
100
AcDbEntity
  8
RACCORDO
100
AcDbLine
 62
250
  6
CONTINUOUS
 10
145.1809329992
 20
124.5466159615
 11
143.3474898083
 21
125.6052230815
  0
LWPOLYLINE
  5
3FB
100
AcDbEntity
  8
RACCORDO
100
AcDbPolyline
 62
250
  6
CONTINUOUS
 90
6
 70
0
 10
146.352824427
 20
122.8895138276
 10
146.3361862705
 20
122.9009398774
 10
146.3231932212
 20
122.9138461676
 10
146.3142315614
 20
122.9278493418
 10
146.3095678467
 20
122.942533342
 10
146.3088904516
 20
122.9507277175
  0
LWPOLYLINE
  5
3FC
100
AcDbEntity
  8
RACCORDO
100
AcDbPolyline
 62
250
  6
CONTINUOUS
 90
6
 70
0
 10
146.352824427
 20
123.3195349822
 10
146.336184715
 20
123.330962307
 10
146.3231911673
 20
123.3438698359
 10
146.3142298831
 20
123.3578740255
 10
146.3095671444
 20
123.3725587456
 10
146.3088904441
 20
123.3807761712
  0
LINE
  5
3FD
100
AcDbEntity
  8
RACCORDO
100
AcDbLine
 62
250
  6
CONTINUOUS
 10
145.1428138345
 20
76.9199563231
 11
147.193192567
 21
77.9829872242
  0
LINE
  5
3FE
100
AcDbEntity
  8
RACCORDO
100
AcDbLine
 62
7
  6
CONTINUOUS
 10
145.0287732141
 20
76.6854787302
 11
146.8267055667
 21
77.6176273223
  0
LWPOLYLINE
  5
3FF
100
AcDbEntity
  8
RACCORDO
100
AcDbPolyline
 62
250
  6
CONTINUOUS
 90
16
 70
0
 10
145.1428138345
 20
76.9199563231
 10
145.1035868616
 20
76.9005839548
 10
145.0611098931
 20
76.8836499868
 10
145.0158356696
 20
76.8693348751
 10
144.9682412759
 20
76.8577900249
 10
144.9188390335
 20
76.8491402389
 10
144.8681728337
 20
76.8434790953
 10
144.8167945553
 20
76.84086406
 10
144.7652405952
 20
76.8413182989
 10
144.7140433703
 20
76.8448354108
 10
144.6636783326
 20
76.8513888528
 10
144.6147537203
 20
76.8609057135
 10
144.5679671785
 20
76.8732313259
 10
144.5238434126
 20
76.8881819399
 10
144.4827518147
 20
76.9055845819
 10
144.445083156
 20
76.9252300618
  0
LINE
  5
400
100
AcDbEntity
  8
RACCORDO
100
AcDbLine
 62
7
  6
CONTINUOUS
 10
147.44750999
 20
79.6833415725
 11
146.9206012092
 21
79.4465076181
  0
LWPOLYLINE
  5
401
100
AcDbEntity
  8
RACCORDO
100
AcDbPolyline
 62
250
  6
CONTINUOUS
 90
3
 70
0
 10
149.454686845
 20
123.9938370317
 10
149.4609517241
 20
123.995059792
 10
149.4671130952
 20
123.9958879067
  0
LINE
  5
402
100
AcDbEntity
  8
RACCORDO
100
AcDbLine
 62
250
  6
CONTINUOUS
 10
149.4671130952
 20
123.9958879067
 11
149.473157539
 21
123.996319562
  0
LINE
  5
403
100
AcDbEntity
  8
RACCORDO
100
AcDbLine
 62
250
  6
CONTINUOUS
 10
151.0276119571
 20
123.5020018468
 11
150.0434402765
 21
123.4528832129
  0
LINE
  5
404
100
AcDbEntity
  8
RACCORDO
100
AcDbLine
 62
250
  6
CONTINUOUS
 10
150.9435112448
 20
123.7647227879
 11
149.9593395641
 21
123.715604154
  0
LWPOLYLINE
  5
405
100
AcDbEntity
  8
RACCORDO
100
AcDbPolyline
 62
250
  6
CONTINUOUS
 90
4
 70
0
 10
146.1988836944
 20
122.543983799
 10
146.1877868744
 20
122.5460406571
 10
146.1740934352
 20
122.5507051737
 10
146.1600652653
 20
122.5575217944
  0
LWPOLYLINE
  5
406
100
AcDbEntity
  8
RACCORDO
100
AcDbPolyline
 62
250
  6
CONTINUOUS
 90
12
 70
0
 10
147.5989262137
 20
124.8608688732
 10
147.5889722418
 20
124.8664907301
 10
147.5476396761
 20
124.8872853241
 10
147.5059748809
 20
124.9044334975
 10
147.463704786
 20
124.9183112816
 10
147.4198420017
 20
124.9293116967
 10
147.3745575112
 20
124.9373459205
 10
147.32779253
 20
124.9423741798
 10
147.2779901376
 20
124.9443441988
 10
147.2245523261
 20
124.9428441014
 10
147.1679802832
 20
124.9374427067
 10
147.1082726742
 20
124.9277425302
  0
LINE
  5
407
100
AcDbEntity
  8
RACCORDO
100
AcDbLine
 62
250
  6
CONTINUOUS
 10
145.4880173717
 20
125.8632576353
 11
147.1082726742
 21
124.9277425302
  0
LINE
  5
408
100
AcDbEntity
  8
RACCORDO
100
AcDbLine
 62
7
  6
CONTINUOUS
 10
146.0243151284
 20
125.7699960237
 11
147.5989233644
 21
124.8608705184
  0
LINE
  5
409
100
AcDbEntity
  8
RACCORDO
100
AcDbLine
 62
250
  6
CONTINUOUS
 10
149.9020404594
 20
123.69779488
 11
149.4158584342
 21
123.978510288
  0
LINE
  5
40A
100
AcDbEntity
  8
RACCORDO
100
AcDbLine
 62
250
  6
CONTINUOUS
 10
149.9593395641
 20
123.715604154
 11
149.473157539
 21
123.996319562
  0
LWPOLYLINE
  5
40B
100
AcDbEntity
  8
RACCORDO
100
AcDbPolyline
 62
250
  6
CONTINUOUS
 90
10
 70
0
 10
145.2310630054
 20
124.417294276
 10
145.2114988766
 20
124.4130247308
 10
145.1914828652
 20
124.4076533472
 10
145.1710149712
 20
124.4011801252
 10
145.1502205165
 20
124.3937241864
 10
145.1289741792
 20
124.3851664091
 10
145.1068999935
 20
124.3751494292
 10
145.0838726375
 20
124.3635541251
 10
145.060017433
 20
124.3504996184
 10
145.0353343802
 20
124.3359859089
  0
LWPOLYLINE
  5
40C
100
AcDbEntity
  8
RACCORDO
100
AcDbPolyline
 62
250
  6
CONTINUOUS
 90
10
 70
0
 10
145.1809329992
 20
124.5466159615
 10
145.1591096089
 20
124.5418821966
 10
145.1367404794
 20
124.5359973282
 10
145.1138439639
 20
124.5289244041
 10
145.0906032013
 20
124.5206880079
 10
145.0668816043
 20
124.5112093231
 10
145.0422110882
 20
124.5002289052
 10
145.0164474923
 20
124.487561469
 10
144.9897830209
 20
124.4731740642
 10
144.9622539692
 20
124.4569678014
  0
LINE
  5
40D
100
AcDbEntity
  8
RACCORDO
100
AcDbLine
 62
250
  6
CONTINUOUS
 10
147.1584026805
 20
124.7984208447
 11
145.2310630054
 21
124.417294276
  0
LINE
  5
40E
100
AcDbEntity
  8
RACCORDO
100
AcDbLine
 62
250
  6
CONTINUOUS
 10
147.1082726742
 20
124.9277425302
 11
145.1809329992
 21
124.5466159615
  0
LINE
  5
40F
100
AcDbEntity
  8
RACCORDO
100
AcDbLine
 62
250
  6
CONTINUOUS
 10
143.319027409
 20
125.6009797045
 11
143.3474898083
 21
125.6052230815
  0
LWPOLYLINE
  5
410
100
AcDbEntity
  8
RACCORDO
100
AcDbPolyline
 62
7
  6
CONTINUOUS
 90
9
 70
0
 10
143.3113539601
 20
125.6138194121
 10
143.2955120706
 20
125.6117033803
 10
143.2584353876
 20
125.6051661039
 10
143.2209784792
 20
125.5963687733
 10
143.1832142649
 20
125.5853259263
 10
143.1451855929
 20
125.5720460451
 10
143.1069521147
 20
125.5565401916
 10
143.0686053923
 20
125.5388356572
 10
143.0611422032
 20
125.5351393858
  0
LINE
  5
411
100
AcDbEntity
  8
RACCORDO
100
AcDbLine
 62
250
  6
CONTINUOUS
 10
143.3474898083
 20
125.6052230815
 11
145.4880173717
 21
125.8632576353
  0
LINE
  5
412
100
AcDbEntity
  8
RACCORDO
100
AcDbLine
 62
7
  6
CONTINUOUS
 10
143.3113372585
 20
125.6138174016
 11
145.4518648219
 21
125.8718519554
  0
LINE
  5
413
100
AcDbEntity
  8
RACCORDO
100
AcDbLine
 62
250
  6
CONTINUOUS
 10
145.4880173717
 20
125.8632576353
 11
145.5339593293
 21
125.8679139691
  0
LWPOLYLINE
  5
414
100
AcDbEntity
  8
RACCORDO
100
AcDbPolyline
 62
250
  6
CONTINUOUS
 90
8
 70
0
 10
145.5339593293
 20
125.8679139691
 10
145.5810906814
 20
125.8706647304
 10
145.6292821924
 20
125.8712540042
 10
145.6784048783
 20
125.8694126311
 10
145.7282833752
 20
125.8648750069
 10
145.7786965197
 20
125.8573837844
 10
145.8297377237
 20
125.8465925711
 10
145.8808954914
 20
125.8322566387
  0
LINE
  5
415
100
AcDbEntity
  8
RACCORDO
100
AcDbLine
 62
250
  6
CONTINUOUS
 10
149.473157539
 20
123.996319562
 11
150.4922971482
 21
124.0252481522
  0
LINE
  5
416
100
AcDbEntity
  8
RACCORDO
100
AcDbLine
 62
7
  6
CONTINUOUS
 10
149.4076786073
 20
124.0137344508
 11
150.4268551249
 21
124.0426640946
  0
LWPOLYLINE
  5
417
100
AcDbEntity
  8
RACCORDO
100
AcDbPolyline
 62
250
  6
CONTINUOUS
 90
4
 70
0
 10
143.3113539602
 20
125.6138194121
 10
143.3232786301
 20
125.6138447882
 10
143.3355662797
 20
125.6109658004
 10
143.3474898083
 20
125.6052230815
  0
LWPOLYLINE
  5
418
100
AcDbEntity
  8
RACCORDO
100
AcDbPolyline
 62
250
  6
CONTINUOUS
 90
4
 70
0
 10
145.4519018521
 20
125.8718564054
 10
145.4638061638
 20
125.8718793454
 10
145.4760938267
 20
125.86900036
 10
145.4880173717
 20
125.8632576353
  0
LWPOLYLINE
  5
419
100
AcDbEntity
  8
RACCORDO
100
AcDbPolyline
 62
250
  6
CONTINUOUS
 90
5
 70
0
 10
149.4077155156
 20
124.0137355044
 10
149.4156247581
 20
124.0136878578
 10
149.4353133313
 20
124.0111961453
 10
149.4545987408
 20
124.0053684695
 10
149.473157539
 20
123.996319562
  0
LINE
  5
41A
100
AcDbEntity
  8
RACCORDO
100
AcDbLine
 62
250
  6
CONTINUOUS
 10
150.4268551249
 20
124.0426640946
 11
150.4350682199
 21
124.0426037669
  0
LWPOLYLINE
  5
41B
100
AcDbEntity
  8
RACCORDO
100
AcDbPolyline
 62
250
  6
CONTINUOUS
 90
4
 70
0
 10
149.3634267455
 20
123.9976408944
 10
149.3469479371
 20
123.9980253277
 10
149.3314943067
 20
123.9952327317
 10
149.3186650944
 20
123.9899612442
  0
LWPOLYLINE
  5
41C
100
AcDbEntity
  8
RACCORDO
100
AcDbPolyline
 62
250
  6
CONTINUOUS
 90
4
 70
0
 10
150.4922971482
 20
124.0252481522
 10
150.5079363945
 20
124.0244279374
 10
150.522379093
 20
124.0207247774
 10
150.5325347325
 20
124.0159469094
  0
LWPOLYLINE
  5
41D
100
AcDbEntity
  8
RACCORDO
100
AcDbPolyline
 62
250
  6
CONTINUOUS
 90
4
 70
0
 10
150.4350682199
 20
124.0426037669
 10
150.4546755517
 20
124.0400769624
 10
150.4738573839
 20
124.0342501802
 10
150.4922971482
 20
124.0252481522
  0
LINE
  5
41E
100
AcDbEntity
  8
RACCORDO
100
AcDbLine
 62
250
  6
CONTINUOUS
 10
145.8808954914
 20
125.8322566387
 11
145.9310929218
 21
125.8144361941
  0
LWPOLYLINE
  5
41F
100
AcDbEntity
  8
RACCORDO
100
AcDbPolyline
 62
250
  6
CONTINUOUS
 90
10
 70
0
 10
147.5746502778
 20
124.7606511033
 10
147.535289713
 20
124.7770330232
 10
147.495173204
 20
124.7901337927
 10
147.4535772894
 20
124.8003828466
 10
147.410745433
 20
124.8080873727
 10
147.3664341709
 20
124.8129401831
 10
147.3191896499
 20
124.8144491485
 10
147.2685272523
 20
124.8124502256
 10
147.2149315958
 20
124.8071074577
 10
147.1584026805
 20
124.7984208447
  0
LINE
  5
420
100
AcDbEntity
  8
RACCORDO
100
AcDbLine
 62
250
  6
CONTINUOUS
 10
145.9310929218
 20
125.8144361941
 11
145.9801182117
 21
125.7930489047
  0
LWPOLYLINE
  5
421
100
AcDbEntity
  8
RACCORDO
100
AcDbPolyline
 62
250
  6
CONTINUOUS
 90
4
 70
0
 10
150.9835131188
 20
123.7555570011
 10
150.9731807756
 20
123.7603515609
 10
150.9588799039
 20
123.7639427679
 10
150.9435112448
 20
123.7647227879
  0
LWPOLYLINE
  5
422
100
AcDbEntity
  8
RACCORDO
100
AcDbPolyline
 62
7
  6
CONTINUOUS
 90
8
 70
0
 10
146.0243151284
 20
125.7699960237
 10
145.9462184663
 20
125.808808043
 10
145.8632474407
 20
125.8394658498
 10
145.775859383
 20
125.8616868509
 10
145.6846373303
 20
125.8752489436
 10
145.5900516128
 20
125.8800495741
 10
145.4924768025
 20
125.8760337732
 10
145.4519018521
 20
125.8718564054
  0
LWPOLYLINE
  5
423
100
AcDbEntity
  8
RACCORDO
100
AcDbPolyline
 62
250
  6
CONTINUOUS
 90
4
 70
0
 10
149.4158584342
 20
123.978510288
 10
149.3981654358
 20
123.9877326351
 10
149.3805885656
 20
123.9941669176
 10
149.3634267455
 20
123.9976408944
  0
LINE
  5
424
100
AcDbEntity
  8
RACCORDO
100
AcDbLine
 62
250
  6
CONTINUOUS
 10
145.9801182117
 20
125.7930489047
 11
146.0300839082
 21
125.7666987582
  0
LINE
  5
425
100
AcDbEntity
  8
RACCORDO
100
AcDbLine
 62
250
  6
CONTINUOUS
 10
150.9837488291
 20
123.7554215451
 11
150.9835131188
 21
123.7555570011
  0
LINE
  5
426
100
AcDbEntity
  8
RACCORDO
100
AcDbLine
 62
250
  6
CONTINUOUS
 10
150.4922971482
 20
124.0252481522
 11
150.9435112448
 21
123.7647227879
  0
LINE
  5
427
100
AcDbEntity
  8
RACCORDO
100
AcDbLine
 62
7
  6
CONTINUOUS
 10
150.5325347325
 20
124.0159469094
 11
150.9837488291
 21
123.7554215451
  0
LWPOLYLINE
  5
428
100
AcDbEntity
  8
RACCORDO
100
AcDbPolyline
 62
250
  6
CONTINUOUS
 90
4
 70
0
 10
150.9435112448
 20
123.7647227879
 10
150.9616388096
 20
123.7525792972
 10
150.978446042
 20
123.7375481702
 10
150.9936480561
 20
123.7198841876
  0
ARC
  5
429
100
AcDbEntity
  8
RACCORDO
100
AcDbCircle
 62
7
  6
CONTINUOUS
 10
137.8853736666
 20
123.272770984
 40
0.5
100
AcDbArc
 50
122.598915452
 51
180.0017380074
  0
ARC
  5
42A
100
AcDbEntity
  8
RACCORDO
100
AcDbCircle
 62
7
  6
CONTINUOUS
 10
137.8853736666
 20
81.1209987018
 40
0.5
100
AcDbArc
 50
179.9900082978
 51
239.9984015652
  0
ARC
  5
42B
100
AcDbEntity
  8
RACCORDO
100
AcDbCircle
 62
7
  6
CONTINUOUS
 10
144.7986365466
 20
77.1293673584
 40
0.5
100
AcDbArc
 50
239.9984015654
 51
297.4194204711
  0
ARC
  5
42C
100
AcDbEntity
  8
RACCORDO
100
AcDbCircle
 62
7
  6
CONTINUOUS
 10
149.3052060327
 20
118.9007408943
 40
0.2
100
AcDbArc
 50
30.3232289803
 51
60.0306025815
  0
ARC
  5
42D
100
AcDbEntity
  8
RACCORDO
100
AcDbCircle
 62
7
  6
CONTINUOUS
 10
150.8977590371
 20
115.9508732126
 40
0.2
100
AcDbArc
 50
0.0000000535
 51
26.395462636
  0
ARC
  5
42E
100
AcDbEntity
  8
RACCORDO
100
AcDbCircle
 62
7
  6
CONTINUOUS
 10
150.8977590371
 20
86.9712365129
 40
0.2
100
AcDbArc
 50
310.7848370799
 51
359.999999999
  0
ARC
  5
42F
100
AcDbEntity
  8
RACCORDO
100
AcDbCircle
 62
7
  6
CONTINUOUS
 10
149.8547765348
 20
109.7106141948
 40
0.2
100
AcDbArc
 50
301.7332683128
 51
0.0118325387
  0
ARC
  5
430
100
AcDbEntity
  8
RACCORDO
100
AcDbCircle
 62
7
  6
CONTINUOUS
 10
149.8547765348
 20
94.4159055811
 40
0.2
100
AcDbArc
 50
0.0007993012
 51
59.9992007891
  0
ARC
  5
431
100
AcDbEntity
  8
RACCORDO
100
AcDbCircle
 62
7
  6
CONTINUOUS
 10
147.3190206927
 20
80.2874213676
 40
0.2
100
AcDbArc
 50
239.9660898788
 51
267.9932628116
  0
ARC
  5
432
100
AcDbEntity
  8
RACCORDO
100
AcDbCircle
 62
7
  6
CONTINUOUS
 10
147.746243506
 20
80.2724551505
 40
0.2
100
AcDbArc
 50
267.9930539208
 51
296.5047555642
  0
ARC
  5
433
100
AcDbEntity
  8
RACCORDO
100
AcDbCircle
 62
7
  6
CONTINUOUS
 10
150.883743997
 20
88.0114960668
 40
0.2
100
AcDbArc
 50
318.9108019782
 51
0.0606606823
  0
ARC
  5
434
100
AcDbEntity
  8
RACCORDO
100
AcDbCircle
 62
7
  6
CONTINUOUS
 10
150.4325299005
 20
90.7153700218
 40
0.2
100
AcDbArc
 50
59.9737092302
 51
101.8936218555
  0
ARC
  5
435
100
AcDbEntity
  8
RACCORDO
100
AcDbCircle
 62
7
  6
CONTINUOUS
 10
150.883743997
 20
90.4548446575
 40
0.2
100
AcDbArc
 50
359.9938134354
 51
60.0686125004
  0
ARC
  5
436
100
AcDbEntity
  8
RACCORDO
100
AcDbCircle
 62
7
  6
CONTINUOUS
 10
150.4325299005
 20
123.8427446185
 40
0.2
100
AcDbArc
 50
59.9984015652
 51
91.6531512487
  0
ARC
  5
437
100
AcDbEntity
  8
RACCORDO
100
AcDbCircle
 62
7
  6
CONTINUOUS
 10
150.883743997
 20
123.5822192542
 40
0.2
100
AcDbArc
 50
359.9616590913
 51
60.0762836092
  0
ARC
  5
438
100
AcDbEntity
  8
RACCORDO
100
AcDbCircle
 62
7
  6
CONTINUOUS
 10
149.4133902912
 20
123.8138160283
 40
0.2
100
AcDbArc
 50
91.6364994217
 51
118.2699256373
  0
ARC
  5
439
100
AcDbEntity
  8
RACCORDO
100
AcDbCircle
 62
7
  6
CONTINUOUS
 10
150.883743997
 20
121.1388706635
 40
0.2
100
AcDbArc
 50
313.7469466189
 51
0.0080829345
  0
ARC
  5
43A
100
AcDbEntity
  8
RACCORDO
100
AcDbCircle
 62
7
  6
CONTINUOUS
 10
146.8556027675
 20
115.8627848937
 40
0.15
100
AcDbArc
 50
59.9984015652
 51
98.2213122087
  0
ARC
  5
43B
100
AcDbEntity
  8
RACCORDO
100
AcDbCircle
 62
7
  6
CONTINUOUS
 10
146.8556027675
 20
79.8924218377
 40
0.15
100
AcDbArc
 50
59.9984015652
 51
103.2469469795
  0
ELLIPSE
  5
43C
100
AcDbEntity
  8
RACCORDO
100
AcDbEllipse
 62
7
  6
CONTINUOUS
 10
149.4367292981
 20
93.2020215233
 30
0.0
 11
-0.0743849904
 21
0.1313344219
 31
0.0
 40
0.5758785049
 41
-3.2205138405
 42
-2.3478777936
  0
ELLIPSE
  5
43D
100
AcDbEntity
  8
RACCORDO
100
AcDbEllipse
 62
7
  6
CONTINUOUS
 10
149.4367292981
 20
107.8144323016
 30
0.0
 11
-0.0741940131
 21
0.1310218454
 31
0.0
 40
0.5786823096
 41
-2.3453558557
 42
-0.7769884368
  0
ELLIPSE
  5
43E
100
AcDbEntity
  8
RACCORDO
100
AcDbEllipse
 62
7
  6
CONTINUOUS
 10
148.4660843846
 20
119.3832934572
 30
0.0
 11
-0.099852121
 21
0.1733609324
 31
0.0
 40
0.5778584463
 41
-2.3545649475
 42
-0.7846820092
  0
ELLIPSE
  5
43F
100
AcDbEntity
  8
RACCORDO
100
AcDbEllipse
 62
7
  6
CONTINUOUS
 10
148.4660843846
 20
80.6310088983
 30
0.0
 11
-0.0999440089
 21
0.17351898
 31
0.0
 40
0.5768037941
 41
-3.176485885
 42
-2.355482613
  0
ELLIPSE
  5
440
100
AcDbEntity
  8
RACCORDO
100
AcDbEllipse
 62
7
  6
CONTINUOUS
 10
142.7478297681
 20
125.2664180476
 30
0.0
 11
0.0276516818
 21
0.1090458724
 31
0.0
 40
0.7134972829
 41
-0.1988664892
 42
1.3710164491
  0
ELLIPSE
  5
441
100
AcDbEntity
  8
RACCORDO
100
AcDbEllipse
 62
7
  6
CONTINUOUS
 10
144.6385879978
 20
124.1747179426
 30
0.0
 11
0.0198414053
 21
0.1121777675
 31
0.0
 40
0.6957985765
 41
-1.8175454553
 42
-0.247662517
  0
ELLIPSE
  5
442
100
AcDbEntity
  8
RACCORDO
100
AcDbEllipse
 62
7
  6
CONTINUOUS
 10
146.2504382862
 20
122.8887219447
 30
0.0
 11
0.2775110067
 21
0.5324075553
 31
0.0
 40
0.5463614449
 41
-0.8089265483
 42
0.709509901
  0
ELLIPSE
  5
443
100
AcDbEntity
  8
RACCORDO
100
AcDbEllipse
 62
7
  6
CONTINUOUS
 10
144.3670839078
 20
122.8671451149
 30
0.0
 11
-0.1002790871
 21
0.1736773754
 31
0.0
 40
0.5757524875
 41
-0.7840766935
 42
0.0522139541
  0
ELLIPSE
  5
444
100
AcDbEntity
  8
RACCORDO
100
AcDbEllipse
 62
7
  6
CONTINUOUS
 10
143.6931243829
 20
123.7464378507
 30
0.0
 11
-0.0500024182
 21
0.0866011442
 31
0.0
 40
0.5775075436
 41
-2.3560905478
 42
-0.7855988075
  0
ELLIPSE
  5
445
100
AcDbEntity
  8
RACCORDO
100
AcDbEllipse
 62
7
  6
CONTINUOUS
 10
146.2504382862
 20
122.4587007901
 30
0.0
 11
0.2775110067
 21
0.5324075553
 31
0.0
 40
0.5463614449
 41
-1.1378118242
 42
-0.8089265483
  0
ELLIPSE
  5
446
100
AcDbEntity
  8
RACCORDO
100
AcDbEllipse
 62
7
  6
CONTINUOUS
 10
147.438023658
 20
82.9803664264
 30
0.0
 11
0.0780218633
 21
0.1281425474
 31
0.0
 40
0.5922410672
 41
-1.9932867536
 42
-0.7715562772
  0
ELLIPSE
  5
447
100
AcDbEntity
  8
RACCORDO
100
AcDbEllipse
 62
7
  6
CONTINUOUS
 10
147.438023658
 20
118.9507294825
 30
0.0
 11
0.0780218633
 21
0.1281425474
 31
0.0
 40
0.5922410672
 41
-2.2550861414
 42
-0.7715562772
  0
ELLIPSE
  5
448
100
AcDbEntity
  8
RACCORDO
100
AcDbEllipse
 62
7
  6
CONTINUOUS
 10
146.8397603304
 20
78.187599977
 30
0.0
 11
0.3581392061
 21
0.5890904829
 31
0.0
 40
0.5922813513
 41
-2.3692509286
 42
-1.5580826957
  0
ELLIPSE
  5
449
100
AcDbEntity
  8
RACCORDO
100
AcDbEllipse
 62
7
  6
CONTINUOUS
 10
146.9300875412
 20
82.233377473
 30
0.0
 11
0.0780218633
 21
0.1281425474
 31
0.0
 40
0.5922410672
 41
1.1483059
 42
2.3700363764
  0
ELLIPSE
  5
44A
100
AcDbEntity
  8
RACCORDO
100
AcDbEllipse
 62
7
  6
CONTINUOUS
 10
146.9300875412
 20
118.3765419562
 30
0.0
 11
0.0780218633
 21
0.1281425474
 31
0.0
 40
0.5922410672
 41
0.8865065122
 42
2.3700363764
  0
ELLIPSE
  5
44B
100
AcDbEntity
  8
RACCORDO
100
AcDbEllipse
 62
7
  6
CONTINUOUS
 10
147.438023658
 20
79.556139315
 30
0.0
 11
0.0780218633
 21
0.1281425474
 31
0.0
 40
0.5922410672
 41
5.51162903
 42
6.9951588942
  0
ELLIPSE
  5
44C
100
AcDbEntity
  8
RACCORDO
100
AcDbEllipse
 62
7
  6
CONTINUOUS
 10
147.438023658
 20
115.526502371
 30
0.0
 11
0.0780218633
 21
0.1281425474
 31
0.0
 40
0.5922410672
 41
5.51162903
 42
6.7333595064
  0
ELLIPSE
  5
44D
100
AcDbEntity
  8
RACCORDO
100
AcDbEllipse
 62
7
  6
CONTINUOUS
 10
146.9300875412
 20
79.5737098757
 30
0.0
 11
0.0780218633
 21
0.1281425474
 31
0.0
 40
0.5922410672
 41
2.3700363764
 42
3.8535662406
  0
ELLIPSE
  5
44E
100
AcDbEntity
  8
RACCORDO
100
AcDbEllipse
 62
7
  6
CONTINUOUS
 10
146.9300875412
 20
115.7168743589
 30
0.0
 11
0.0780218633
 21
0.1281425474
 31
0.0
 40
0.5922410672
 41
2.3700363764
 42
3.5917668528
  0
ENDSEC
  0
SECTION
  2
OBJECTS
  0
DICTIONARY
  5
C
100
AcDbDictionary
280
0
281
1
  3
ACAD_GROUP
350
D
  3
ACAD_MLINESTYLE
350
17
  3
ACAD_LAYOUT
350
1A
  3
ACAD_PLOTSETTINGS
350
19
  3
ACAD_PLOTSTYLENAME
350
E
  0
DICTIONARY
  5
D
102
{ACAD_REACTORS
330
C
102
}
100
AcDbDictionary
280
0
281
1
  0
ACDBDICTIONARYWDFLT
  5
E
102
{ACAD_REACTORS
330
C
102
}
100
AcDbDictionary
281
1
  3
Normal
350
F
100
AcDbDictionaryWithDefault
340
F
  0
DICTIONARY
  5
17
102
{ACAD_REACTORS
330
C
102
}
100
AcDbDictionary
280
0
281
1
  3
Standard
350
18
  0
DICTIONARY
  5
19
102
{ACAD_REACTORS
330
C
102
}
100
AcDbDictionary
281
1
  0
DICTIONARY
  5
1A
102
{ACAD_REACTORS
330
C
102
}
100
AcDbDictionary
281
1
  3
Model
350
44F
  3
Layout1
350
450
  0
ACDBPLACEHOLDER
  5
F
102
{ACAD_REACTORS
330
E
102
}
  0
MLINESTYLE
  5
18
102
{ACAD_REACTORS
330
17
102
}
100
AcDbMlineStyle
  2
STANDARD
 70
0
  3

 62
256
 51
90.0
 52
90.0
 71
2
 49
0.5
 62
256
  6
BYLAYER
 49
-0.5
 62
256
  6
BYLAYER
  0
LAYOUT
  5
44F
102
{ACAD_REACTORS
330
1A
102
}
100
AcDbPlotSettings
  1

  2
none_device
  4
ISO_A4_(297.00_x_210.00_MM)
  6

 40
0.0
 41
0.0
 42
0.0
 43
0.0
 44
297.0
 45
210.0
 46
0.0
 47
0.0
 48
0.0
 49
0.0
140
0.0
141
0.0
142
1.0
143
1.0
 70
1024
 72
1
 73
0
 74
0
  7

 75
0
147
1.0
148
0.0
149
0.0
100
AcDbLayout
  1
Model
 70
0
 71
0
 10
0.0
 20
0.0
 11
297.0
 21
210.0
 12
0.0
 22
0.0
 32
0.0
 14
0.0
 24
0.0
 34
0.0
 15
0.0
 25
0.0
 35
0.0
146
0.0
 13
0.0
 23
0.0
 33
0.0
 16
1.0
 26
0.0
 36
0.0
 17
0.0
 27
1.0
 37
0.0
 76
0
330
211
345
0
346
0
  0
LAYOUT
  5
450
102
{ACAD_REACTORS
330
1A
102
}
100
AcDbPlotSettings
  1

  2
none_device
  4
ISO_A4_(297.00_x_210.00_MM)
  6

 40
0.0
 41
0.0
 42
0.0
 43
0.0
 44
297.0
 45
210.0
 46
0.0
 47
0.0
 48
0.0
 49
0.0
140
0.0
141
0.0
142
1.0
143
1.0
 70
0
 72
1
 73
0
 74
0
  7

 75
0
147
1.0
148
0.0
149
0.0
100
AcDbLayout
  1
Layout1
 70
0
 71
1
 10
0.0
 20
0.0
 11
297.0
 21
210.0
 12
0.0
 22
0.0
 32
0.0
 14
0.0
 24
0.0
 34
0.0
 15
0.0
 25
0.0
 35
0.0
146
0.0
 13
0.0
 23
0.0
 33
0.0
 16
1.0
 26
0.0
 36
0.0
 17
0.0
 27
1.0
 37
0.0
 76
0
330
212
345
0
346
0
  0
ENDSEC
  0
EOF
