  0
SECTION
  2
HEADER
  9
$ACADVER
  1
AC1024
  9
$DWGCODEPAGE
  3
ANSI_1252
  9
$EXTMAX
 10
297.0
 20
210.0
 30
0.0
  9
$EXTMIN
 10
0.0
 20
0.0
 30
0.0
  9
$LIMMIN
 10
0.0
 20
0.0
  9
$LIMMAX
 10
297.0
 20
210.0
  9
$VIEWCTR
 10
148.5
 20
105.0
  9
$VIEWSIZE
 40
210.0
  9
$CLAYER
  8
0
  9
$LTSCALE
 40
16.335
  9
$CELTYPE
  6
BYLAYER
  9
$DIMSCALE
 40
1.0
  9
$DIMASZ
 40
3.0
  9
$DIMEXO
 40
0.5
  9
$DIMDLI
 40
11.286
  9
$DIMEXE
 40
1.5
  9
$DIMCEN
 40
2.673
  9
$DIMLFAC
 40
1.0
  9
$DIMBLK
  1
_FILLED
  9
$DIMALT
 70
0
  9
$DIMALTF
 40
0.0393700787
  9
$DIMTXT
 40
3.0
  9
$DIMTOL
 70
1
  9
$DIMLIM
 70
0
  9
$DIMTFAC
 40
1.0
  9
$DIMTP
 40
0.01
  9
$DIMTM
 40
0.01
  9
$DIMGAP
 40
0.625
  9
$DIMDSEP
 70
44
  9
$AUNITS
 70
0
  9
$PDMODE
 70
3
  9
$PDSIZE
 40
3.0
  9
$HANDSEED
  5
530
  9
$TILEMODE
 70
1
  9
$MEASUREMENT
 70
1
  9
$INSUNITS
 70
4
  0
ENDSEC
  0
SECTION
  2
CLASSES
  0
CLASS
  1
ACDBDICTIONARYWDFLT
  2
AcDbDictionaryWithDefault
  3
AutoCAD 2000
 90
0
 91
1
280
0
281
0
  0
CLASS
  1
ACDBPLACEHOLDER
  2
AcDbPlaceHolder
  3
AutoCAD 2000
 90
0
 91
1
280
0
281
0
  0
CLASS
  1
LAYOUT
  2
AcDbLayout
  3
AutoCAD 2000
 90
0
 91
0
280
0
281
0
  0
ENDSEC
  0
SECTION
  2
TABLES
  0
TABLE
  2
VPORT
  5
8
100
AcDbSymbolTable
 70
2
  0
VPORT
  5
1F4
100
AcDbSymbolTableRecord
100
AcDbViewportTableRecord
  2
*ACTIVE
 70
0
 10
0.0
 20
0.0
 11
1.0
 21
1.0
 12
148.5
 22
105.0
 13
0.0
 23
0.0
 14
1.0
 24
1.0
 15
0.0
 25
0.0
 16
0.0
 26
0.0
 36
1.0
 17
0.0
 27
0.0
 37
0.0
 40
210.0
 41
1.4142857143
 42
50.0
 43
0.0
 44
0.0
 50
0.0
 51
0.0
 71
0
 72
100
 73
1
 74
1
 75
0
 76
0
 77
0
 78
0
  0
ENDTAB
  0
TABLE
  2
LTYPE
  5
5
100
AcDbSymbolTable
 70
6
  0
LTYPE
  5
14
100
AcDbSymbolTableRecord
100
AcDbLinetypeTableRecord
  2
BYBLOCK
 70
0
  3

 72
65
 73
0
 40
0.0
  0
LTYPE
  5
15
100
AcDbSymbolTableRecord
100
AcDbLinetypeTableRecord
  2
BYLAYER
 70
0
  3

 72
65
 73
0
 40
0.0
  0
LTYPE
  5
16
100
AcDbSymbolTableRecord
100
AcDbLinetypeTableRecord
  2
CONTINUOUS
 70
64
  3
Solid line
 72
65
 73
0
 40
0.0
  0
LTYPE
  5
1F5
100
AcDbSymbolTableRecord
100
AcDbLinetypeTableRecord
  2
CENTER
 70
64
  3
____ _ ____ _ ____ _ ____ _ ____ _ ____ _ ____
 72
65
 73
4
 40
0.6
 49
0.375
 74
0
 49
-0.075
 74
0
 49
0.075
 74
0
 49
-0.075
 74
0
  0
LTYPE
  5
1F6
100
AcDbSymbolTableRecord
100
AcDbLinetypeTableRecord
  2
HIDDEN
 70
64
  3
- - - - - - - - - - - - - - - - - - - -
 72
65
 73
2
 40
0.2
 49
0.1
 74
0
 49
-0.1
 74
0
  0
LTYPE
  5
1F7
100
AcDbSymbolTableRecord
100
AcDbLinetypeTableRecord
  2
PHANTOM
 70
64
  3
_____ _ _ _____ _ _ _____ _ _ _____
 72
65
 73
6
 40
0.8
 49
0.45
 74
0
 49
-0.05
 74
0
 49
0.1
 74
0
 49
-0.05
 74
0
 49
0.1
 74
0
 49
-0.05
 74
0
  0
LTYPE
  5
1F8
100
AcDbSymbolTableRecord
100
AcDbLinetypeTableRecord
  2
DOT
 70
64
  3
. . . . . . . . . . . . . . . . . . . .
 72
65
 73
2
 40
0.2
 49
0.1
 74
0
 49
-0.1
 74
0
  0
LTYPE
  5
1F9
100
AcDbSymbolTableRecord
100
AcDbLinetypeTableRecord
  2
DASHED
 70
64
  3
- - - - - - - - - - - - - - - - - - - -
 72
65
 73
2
 40
0.2
 49
0.1
 74
0
 49
-0.1
 74
0
  0
ENDTAB
  0
TABLE
  2
LAYER
  5
2
100
AcDbSymbolTable
 70
36
  0
LAYER
  5
10
100
AcDbSymbolTableRecord
100
AcDbLayerTableRecord
  2
0
 70
0
 62
7
  6
CONTINUOUS
370
-3
390
F
  0
LAYER
  5
1FA
100
AcDbSymbolTableRecord
100
AcDbLayerTableRecord
  2
DEFAULT_1
 70
0
 62
7
  6
CENTER
370
-3
390
F
  0
LAYER
  5
1FB
100
AcDbSymbolTableRecord
100
AcDbLayerTableRecord
  2
DEFAULT_2
 70
0
 62
7
  6
HIDDEN
370
-3
390
F
  0
LAYER
  5
1FC
100
AcDbSymbolTableRecord
100
AcDbLayerTableRecord
  2
DEFAULT_3
 70
0
 62
7
  6
PHANTOM
370
-3
390
F
  0
LAYER
  5
1FD
100
AcDbSymbolTableRecord
100
AcDbLayerTableRecord
  2
ASSI
 70
0
 62
7
  6
CONTINUOUS
370
-3
390
F
  0
LAYER
  5
1FE
100
AcDbSymbolTableRecord
100
AcDbLayerTableRecord
  2
COLOR5
 70
0
 62
7
  6
CONTINUOUS
370
-3
390
F
  0
LAYER
  5
1FF
100
AcDbSymbolTableRecord
100
AcDbLayerTableRecord
  2
COORDINATE
 70
0
 62
7
  6
CONTINUOUS
370
-3
390
F
  0
LAYER
  5
200
100
AcDbSymbolTableRecord
100
AcDbLayerTableRecord
  2
COORD_ORIGINE
 70
0
 62
7
  6
CONTINUOUS
370
-3
390
F
  0
LAYER
  5
201
100
AcDbSymbolTableRecord
100
AcDbLayerTableRecord
  2
COPY_PUBLISH
 70
0
 62
7
  6
CONTINUOUS
370
-3
390
F
  0
LAYER
  5
202
100
AcDbSymbolTableRecord
100
AcDbLayerTableRecord
  2
COSMETICI
 70
0
 62
7
  6
CONTINUOUS
370
-3
390
F
  0
LAYER
  5
203
100
AcDbSymbolTableRecord
100
AcDbLayerTableRecord
  2
CURVE
 70
0
 62
7
  6
CONTINUOUS
370
-3
390
F
  0
LAYER
  5
204
100
AcDbSymbolTableRecord
100
AcDbLayerTableRecord
  2
DRAFT
 70
0
 62
7
  6
CONTINUOUS
370
-3
390
F
  0
LAYER
  5
205
100
AcDbSymbolTableRecord
100
AcDbLayerTableRecord
  2
IMPORT_IGES
 70
0
 62
7
  6
CONTINUOUS
370
-3
390
F
  0
LAYER
  5
206
100
AcDbSymbolTableRecord
100
AcDbLayerTableRecord
  2
INTF_11
 70
0
 62
7
  6
CONTINUOUS
370
-3
390
F
  0
LAYER
  5
207
100
AcDbSymbolTableRecord
100
AcDbLayerTableRecord
  2
INTF_9
 70
0
 62
7
  6
CONTINUOUS
370
-3
390
F
  0
LAYER
  5
208
100
AcDbSymbolTableRecord
100
AcDbLayerTableRecord
  2
NOTE
 70
0
 62
7
  6
CONTINUOUS
370
-3
390
F
  0
LAYER
  5
209
100
AcDbSymbolTableRecord
100
AcDbLayerTableRecord
  2
PIANI
 70
0
 62
7
  6
CONTINUOUS
370
-3
390
F
  0
LAYER
  5
20A
100
AcDbSymbolTableRecord
100
AcDbLayerTableRecord
  2
PIANI_DI_RIFERIMENTO
 70
0
 62
7
  6
CONTINUOUS
370
-3
390
F
  0
LAYER
  5
20B
100
AcDbSymbolTableRecord
100
AcDbLayerTableRecord
  2
PIANI_ORIGINE
 70
0
 62
7
  6
CONTINUOUS
370
-3
390
F
  0
LAYER
  5
20C
100
AcDbSymbolTableRecord
100
AcDbLayerTableRecord
  2
PIANI_RIFERIMENTO
 70
0
 62
7
  6
CONTINUOUS
370
-3
390
F
  0
LAYER
  5
20D
100
AcDbSymbolTableRecord
100
AcDbLayerTableRecord
  2
PUNTI
 70
0
 62
7
  6
CONTINUOUS
370
-3
390
F
  0
LAYER
  5
20E
100
AcDbSymbolTableRecord
100
AcDbLayerTableRecord
  2
RACCORDO
 70
0
 62
7
  6
CONTINUOUS
370
-3
390
F
  0
LAYER
  5
20F
100
AcDbSymbolTableRecord
100
AcDbLayerTableRecord
  2
SIMBOLI
 70
0
 62
7
  6
CONTINUOUS
370
-3
390
F
  0
LAYER
  5
210
100
AcDbSymbolTableRecord
100
AcDbLayerTableRecord
  2
SMUSSO
 70
0
 62
7
  6
CONTINUOUS
370
-3
390
F
  0
LAYER
  5
211
100
AcDbSymbolTableRecord
100
AcDbLayerTableRecord
  2
SUPERFICI
 70
0
 62
7
  6
CONTINUOUS
370
-3
390
F
  0
LAYER
  5
212
100
AcDbSymbolTableRecord
100
AcDbLayerTableRecord
  2
TRASH
 70
0
 62
7
  6
CONTINUOUS
370
-3
390
F
  0
ENDTAB
  0
TABLE
  2
STYLE
  5
3
100
AcDbSymbolTable
 70
1
  0
STYLE
  5
11
100
AcDbSymbolTableRecord
100
AcDbTextStyleTableRecord
  2
STANDARD
 70
0
 40
0.0
 41
0.8
 50
0.0
 71
0
 42
0.2
  3
txt
  4

  0
STYLE
  5
213
100
AcDbSymbolTableRecord
100
AcDbTextStyleTableRecord
  2
TEXTSTYLE_1
 70
0
 40
0.0
 41
0.8
 50
0.0
 71
0
 42
0.2
  3
gdt
  4

  0
ENDTAB
  0
TABLE
  2
VIEW
  5
6
100
AcDbSymbolTable
 70
0
  0
ENDTAB
  0
TABLE
  2
UCS
  5
7
100
AcDbSymbolTable
 70
0
  0
ENDTAB
  0
TABLE
  2
APPID
  5
9
100
AcDbSymbolTable
 70
1
  0
APPID
  5
214
100
AcDbSymbolTableRecord
100
AcDbRegAppTableRecord
  2
ACAD
 70
0
  0
ENDTAB
  0
TABLE
  2
BLOCK_RECORD
  5
1
100
AcDbSymbolTable
 70
0
  0
BLOCK_RECORD
  5
215
100
AcDbSymbolTableRecord
100
AcDbBlockTableRecord
  2
*Model_Space
  0
BLOCK_RECORD
  5
216
100
AcDbSymbolTableRecord
100
AcDbBlockTableRecord
  2
*Paper_Space
  0
BLOCK_RECORD
  5
217
100
AcDbSymbolTableRecord
100
AcDbBlockTableRecord
  2
_FILLED
  0
ENDTAB
  0
TABLE
  2
DIMSTYLE
  5
A
100
AcDbSymbolTable
 70
1
100
AcDbDimStyleTable
 71
0
  0
DIMSTYLE
105
218
100
AcDbSymbolTableRecord
100
AcDbDimStyleTableRecord
  2
STANDARD
 70
0
  3

  4

 40
1.0
 41
3.0
 42
0.5
 43
0.38
 44
1.5
 45
0.0
 46
0.0
 47
0.01
 48
0.01
140
3.0
141
0.09
142
0.0
143
25.4
144
1.0
145
0.0
146
1.0
147
0.625
 71
1
 72
0
 73
0
 74
0
 75
0
 76
0
 77
1
 78
8
 79
2
170
0
171
1
172
0
173
0
174
0
175
0
176
0
177
0
178
0
270
2
179
2
271
2
272
2
273
2
274
2
275
0
280
0
281
0
282
0
283
1
284
8
285
0
286
0
287
3
288
0
340
11
278
44
341
217
342
217
343
217
344
217
  0
ENDTAB
  0
ENDSEC
  0
SECTION
  2
BLOCKS
  0
BLOCK
  5
20
100
AcDbEntity
  8
0
100
AcDbBlockBegin
  2
*Model_Space
 70
0
 10
0.0
 20
0.0
 30
0.0
  3
*Model_Space
  1

  0
ENDBLK
  5
21
100
AcDbEntity
  8
0
100
AcDbBlockEnd
  0
BLOCK
  5
1C
100
AcDbEntity
  8
0
100
AcDbBlockBegin
  2
*Paper_Space
 70
0
 10
0.0
 20
0.0
 30
0.0
  3
*Paper_Space
  1

  0
ENDBLK
  5
1D
100
AcDbEntity
  8
0
100
AcDbBlockEnd
  0
BLOCK
  5
219
100
AcDbEntity
  8
0
100
AcDbBlockBegin
  2
_FILLED
 70
64
 10
0.0
 20
0.0
  3
_FILLED
  1

  0
SOLID
  5
21A
100
AcDbEntity
  8
0
  6
BYBLOCK
 62
0
100
AcDbTrace
 10
0.0
 20
0.0
 11
-1.0
 21
0.3166666667
 12
-1.0
 22
-0.3166666667
 13
-1.0
 23
-0.3166666667
  0
ENDBLK
  5
21B
100
AcDbEntity
  8
0
  6
BYBLOCK
 62
0
100
AcDbBlockEnd
  0
ENDSEC
  0
SECTION
  2
ENTITIES
  0
LWPOLYLINE
  5
21C
100
AcDbEntity
  8
SUPERFICI
100
AcDbPolyline
 62
250
  6
CONTINUOUS
 90
9
 70
0
 10
116.9884502947
 20
134.3786628676
 10
117.008952242
 20
134.3898358506
 10
117.0379496673
 20
134.4001143081
 10
117.0694089475
 20
134.405533813
 10
117.1029441831
 20
134.4060165514
 10
117.1380459858
 20
134.4015840113
 10
117.1742649932
 20
134.3923568453
 10
117.211241142
 20
134.3784881335
 10
117.2485692959
 20
134.3601809065
  0
LINE
  5
21D
100
AcDbEntity
  8
SUPERFICI
100
AcDbLine
 62
7
  6
CONTINUOUS
 10
116.9884502947
 20
134.3786628676
 11
119.2735360715
 21
135.8399487306
  0
LINE
  5
21E
100
AcDbEntity
  8
SUPERFICI
100
AcDbLine
 62
250
  6
CONTINUOUS
 10
117.2485692959
 20
134.3601809065
 11
119.5299306724
 21
135.8190850586
  0
LINE
  5
21F
100
AcDbEntity
  8
ASSI
100
AcDbLine
 62
250
  6
CONTINUOUS
 10
123.9161902858
 20
133.9368392181
 11
123.912337564
 21
133.9349249528
  0
LINE
  5
220
100
AcDbEntity
  8
ASSI
100
AcDbLine
 62
250
  6
CONTINUOUS
 10
124.5435518209
 20
132.4682322688
 11
125.5367347695
 21
133.0416856248
  0
LINE
  5
221
100
AcDbEntity
  8
ASSI
100
AcDbLine
 62
250
  6
CONTINUOUS
 10
124.6279882988
 20
132.1904305707
 11
125.6781345866
 21
132.7967739577
  0
LINE
  5
222
100
AcDbEntity
  8
ASSI
100
AcDbLine
 62
250
  6
CONTINUOUS
 10
127.5577977268
 20
133.7591417087
 11
125.7342666265
 21
132.7516850351
  0
LINE
  5
223
100
AcDbEntity
  8
ASSI
100
AcDbLine
 62
250
  6
CONTINUOUS
 10
128.2181405803
 20
133.6702450718
 11
125.4636625567
 21
132.1487761628
  0
LINE
  5
224
100
AcDbEntity
  8
RACCORDO
100
AcDbLine
 62
250
  6
CONTINUOUS
 10
128.3866494696
 20
134.2149032826
 11
127.5577977268
 21
133.7591417087
  0
LINE
  5
225
100
AcDbEntity
  8
RACCORDO
100
AcDbLine
 62
250
  6
CONTINUOUS
 10
129.0384496058
 20
134.1213515168
 11
128.218081376
 21
133.6702792556
  0
LINE
  5
226
100
AcDbEntity
  8
RACCORDO
100
AcDbLine
 62
7
  6
CONTINUOUS
 10
127.2343043765
 20
133.6296128359
 11
127.2324192687
 21
133.6285773607
  0
LINE
  5
227
100
AcDbEntity
  8
ASSI
100
AcDbLine
 62
7
  6
CONTINUOUS
 10
127.2343025983
 20
133.6296118593
 11
125.7342666265
 21
132.8057494518
  0
LINE
  5
228
100
AcDbEntity
  8
ASSI
100
AcDbLine
 62
7
  6
CONTINUOUS
 10
123.912337564
 20
133.9349249528
 11
123.3328785223
 21
133.6233106322
  0
LINE
  5
229
100
AcDbEntity
  8
ASSI
100
AcDbLine
 62
250
  6
CONTINUOUS
 10
124.0095309038
 20
133.9234739966
 11
123.3900171111
 21
133.5903195271
  0
LINE
  5
22A
100
AcDbEntity
  8
RACCORDO
100
AcDbLine
 62
250
  6
CONTINUOUS
 10
127.4870670883
 20
133.7663052544
 11
127.4780469246
 21
133.7614868395
  0
LWPOLYLINE
  5
22B
100
AcDbEntity
  8
ASSI
100
AcDbPolyline
 62
250
  6
CONTINUOUS
 90
8
 70
0
 10
128.2364611162
 20
133.0656435866
 10
128.2399928306
 20
133.0674718714
 10
128.2533393204
 20
133.0721764202
 10
128.2679148809
 20
133.0741146967
 10
128.2834970122
 20
133.0732570587
 10
128.2998478551
 20
133.0696165575
 10
128.3167178285
 20
133.0632487233
 10
128.3338494108
 20
133.0542507217
  0
LWPOLYLINE
  5
22C
100
AcDbEntity
  8
ASSI
100
AcDbPolyline
 62
250
  6
CONTINUOUS
 90
8
 70
0
 10
128.0953674156
 20
132.9869832107
 10
128.0988352095
 20
132.9887680132
 10
128.1122220518
 20
132.9934572997
 10
128.126842954
 20
132.9953682035
 10
128.1424410377
 20
132.9944750087
 10
128.1587614438
 20
132.9908109595
 10
128.1755629348
 20
132.9844479554
 10
128.1925889708
 20
132.9754977122
  0
LINE
  5
22D
100
AcDbEntity
  8
RACCORDO
100
AcDbLine
 62
250
  6
CONTINUOUS
 10
127.7704817906
 20
133.9145796926
 11
127.7483432812
 21
133.9031250487
  0
LINE
  5
22E
100
AcDbEntity
  8
RACCORDO
100
AcDbLine
 62
250
  6
CONTINUOUS
 10
128.2860349527
 20
134.1710168175
 11
128.2788018552
 21
134.1674170279
  0
LWPOLYLINE
  5
22F
100
AcDbEntity
  8
ASSI
100
AcDbPolyline
 62
250
  6
CONTINUOUS
 90
9
 70
0
 10
125.5367347695
 20
133.0416856248
 10
125.551338152
 20
133.0489481911
 10
125.565758623
 20
133.0543683747
 10
125.579841679
 20
133.0578881042
 10
125.5934364211
 20
133.0594696694
 10
125.6063972044
 20
133.05909613
 10
125.6185851932
 20
133.0567714819
 10
125.6298698089
 20
133.0525206141
 10
125.6342714586
 20
133.050193656
  0
LINE
  5
230
100
AcDbEntity
  8
RACCORDO
100
AcDbLine
 62
250
  6
CONTINUOUS
 10
128.0560640035
 20
134.0587647622
 11
128.0153083696
 21
134.0383678058
  0
LINE
  5
231
100
AcDbEntity
  8
RACCORDO
100
AcDbLine
 62
250
  6
CONTINUOUS
 10
128.3950340582
 20
134.2190103233
 11
128.3866494696
 21
134.2149032826
  0
LWPOLYLINE
  5
232
100
AcDbEntity
  8
RACCORDO
100
AcDbPolyline
 62
7
  6
CONTINUOUS
 90
5
 70
0
 10
128.2787364638
 20
134.1676245152
 10
128.0560640035
 20
134.0587647622
 10
127.7704817906
 20
133.9145796926
 10
127.4870670883
 20
133.7663052544
 10
127.2324092637
 20
133.6285715766
  0
LINE
  5
233
100
AcDbEntity
  8
RACCORDO
100
AcDbLine
 62
7
  6
CONTINUOUS
 10
128.2860349842
 20
134.1710167876
 11
128.2787363195
 21
134.1676247049
  0
LINE
  5
234
100
AcDbEntity
  8
ASSI
100
AcDbLine
 62
7
  6
CONTINUOUS
 10
127.6700858131
 20
132.2530027097
 11
127.7179353105
 21
132.2744109466
  0
LINE
  5
235
100
AcDbEntity
  8
RACCORDO
100
AcDbLine
 62
250
  6
CONTINUOUS
 10
128.2788018554
 20
134.167417028
 11
128.2860656975
 21
134.1710305878
  0
LINE
  5
236
100
AcDbEntity
  8
RACCORDO
100
AcDbLine
 62
250
  6
CONTINUOUS
 10
128.2981390698
 20
134.1764257353
 11
128.3027090612
 21
134.1780806448
  0
LINE
  5
237
100
AcDbEntity
  8
RACCORDO
100
AcDbLine
 62
7
  6
CONTINUOUS
 10
128.3344106167
 20
134.1925151244
 11
128.2860656975
 21
134.1710305878
  0
LINE
  5
238
100
AcDbEntity
  8
RACCORDO
100
AcDbLine
 62
250
  6
CONTINUOUS
 10
128.3266499935
 20
134.1886807899
 11
128.3344106167
 21
134.1925151244
  0
LWPOLYLINE
  5
239
100
AcDbEntity
  8
RACCORDO
100
AcDbPolyline
 62
7
  6
CONTINUOUS
 90
3
 70
0
 10
128.3950340582
 20
134.2190103233
 10
128.3828923171
 20
134.2137433446
 10
128.3344106167
 20
134.1925151244
  0
LINE
  5
23A
100
AcDbEntity
  8
RACCORDO
100
AcDbLine
 62
250
  6
CONTINUOUS
 10
128.374632789
 20
134.2096905544
 11
128.3828923171
 21
134.2137433446
  0
LWPOLYLINE
  5
23B
100
AcDbEntity
  8
ASSI
100
AcDbPolyline
 62
250
  6
CONTINUOUS
 90
4
 70
0
 10
130.7103024111
 20
133.2731724038
 10
130.763469022
 20
133.2955450288
 10
130.8182507909
 20
133.3215406842
 10
130.8745186558
 20
133.351286992
  0
LWPOLYLINE
  5
23C
100
AcDbEntity
  8
RACCORDO
100
AcDbPolyline
 62
250
  6
CONTINUOUS
 90
8
 70
0
 10
134.6934600125
 20
136.0173582937
 10
134.7073912675
 20
136.0227992715
 10
134.722657769
 20
136.025869891
 10
134.7390881919
 20
136.0264285067
 10
134.7565304621
 20
136.0243796484
 10
134.7748102087
 20
136.019656742
 10
134.7937316458
 20
136.0122255611
 10
134.8130795931
 20
136.0020872275
  0
LINE
  5
23D
100
AcDbEntity
  8
RACCORDO
100
AcDbLine
 62
250
  6
CONTINUOUS
 10
128.3866494696
 20
134.2149032826
 11
128.4278927433
 21
134.2305449204
  0
LWPOLYLINE
  5
23E
100
AcDbEntity
  8
ASSI
100
AcDbPolyline
 62
250
  6
CONTINUOUS
 90
13
 70
0
 10
127.5577977268
 20
133.7591417087
 10
127.6047136913
 20
133.7768421935
 10
127.6537288479
 20
133.7900084438
 10
127.7046702808
 20
133.7985949628
 10
127.7573608373
 20
133.8025741484
 10
127.811611707
 20
133.8019319153
 10
127.8672230982
 20
133.7966677102
 10
127.9239992453
 20
133.7868016599
 10
127.981738422
 20
133.7723708357
 10
128.0402254437
 20
133.753425437
 10
128.0992494708
 20
133.7300346153
 10
128.1586049109
 20
133.702285398
 10
128.218081376
 20
133.6702792556
  0
LWPOLYLINE
  5
23F
100
AcDbEntity
  8
ASSI
100
AcDbPolyline
 62
7
  6
CONTINUOUS
 90
5
 70
0
 10
133.7930646937
 20
135.0297662747
 10
133.7687851356
 20
135.0223065616
 10
133.7420783179
 20
135.012182191
 10
133.715363164
 20
135.0000315436
 10
133.693102074
 20
134.9883405691
  0
LINE
  5
240
100
AcDbEntity
  8
SUPERFICI
100
AcDbLine
 62
7
  6
CONTINUOUS
 10
124.5435518209
 20
132.9242830429
 11
124.0415788836
 21
132.4015447559
  0
LINE
  5
241
100
AcDbEntity
  8
ASSI
100
AcDbLine
 62
250
  6
CONTINUOUS
 10
134.1758808449
 20
134.7544491791
 11
131.3101039377
 21
133.0997855095
  0
LINE
  5
242
100
AcDbEntity
  8
ASSI
100
AcDbLine
 62
250
  6
CONTINUOUS
 10
134.3171083881
 20
134.5181582608
 11
131.4513314809
 21
132.8634945912
  0
LINE
  5
243
100
AcDbEntity
  8
ASSI
100
AcDbLine
 62
250
  6
CONTINUOUS
 10
131.7723928646
 20
132.8160673016
 11
130.3459380008
 21
131.9924501409
  0
LINE
  5
244
100
AcDbEntity
  8
ASSI
100
AcDbLine
 62
250
  6
CONTINUOUS
 10
131.9136204078
 20
132.5797763833
 11
130.6211725269
 21
131.8335331751
  0
LWPOLYLINE
  5
245
100
AcDbEntity
  8
ASSI
100
AcDbPolyline
 62
250
  6
CONTINUOUS
 90
13
 70
0
 10
127.5491626791
 20
131.8705248624
 10
127.5618324121
 20
131.8778267415
 10
127.574482605
 20
131.8861229858
 10
127.5870290139
 20
131.895327022
 10
127.599283101
 20
131.9052480061
 10
127.6112867693
 20
131.9158748214
 10
127.6232786015
 20
131.9274556053
 10
127.6352944629
 20
131.9401075698
 10
127.6470685295
 20
131.9536329416
 10
127.6583650098
 20
131.9678360287
 10
127.6690472357
 20
131.9825695685
 10
127.6790586213
 20
131.9977547882
 10
127.6883042277
 20
132.0132637716
  0
LWPOLYLINE
  5
246
100
AcDbEntity
  8
ASSI
100
AcDbPolyline
 62
250
  6
CONTINUOUS
 90
16
 70
0
 10
131.3101039377
 20
133.0997855095
 10
131.2777282224
 20
133.0817034558
 10
131.2461249971
 20
133.0652049788
 10
131.2153189794
 20
133.0502214669
 10
131.1855739681
 20
133.0367910597
 10
131.1566620022
 20
133.0247196002
 10
131.1278723881
 20
133.0136629172
 10
131.0991966923
 20
133.0036100768
 10
131.0706842407
 20
132.9945789369
 10
131.0417292971
 20
132.9864059516
 10
131.0123009477
 20
132.9791406605
 10
130.9825006788
 20
132.9728738113
 10
130.9519472342
 20
132.967617371
 10
130.9205575013
 20
132.9634779073
 10
130.88853478
 20
132.9606039135
 10
130.8559471179
 20
132.959122429
  0
LINE
  5
247
100
AcDbEntity
  8
ASSI
100
AcDbLine
 62
7
  6
CONTINUOUS
 10
128.0952006365
 20
132.9868905549
 11
128.2364611162
 21
133.0656435866
  0
LINE
  5
248
100
AcDbEntity
  8
ASSI
100
AcDbLine
 62
250
  6
CONTINUOUS
 10
128.1925889708
 20
132.9754977122
 11
128.3338494108
 21
133.0542507217
  0
LINE
  5
249
100
AcDbEntity
  8
ASSI
100
AcDbLine
 62
7
  6
CONTINUOUS
 10
126.2869867704
 20
131.2325456453
 11
127.4517746929
 21
131.8819175031
  0
LINE
  5
24A
100
AcDbEntity
  8
ASSI
100
AcDbLine
 62
250
  6
CONTINUOUS
 10
126.3448664535
 20
131.1991266417
 11
127.5491630281
 21
131.8705246609
  0
LINE
  5
24B
100
AcDbEntity
  8
ASSI
100
AcDbLine
 62
7
  6
CONTINUOUS
 10
130.7770700494
 20
133.3626558652
 11
132.0081186787
 21
134.0489585821
  0
LINE
  5
24C
100
AcDbEntity
  8
ASSI
100
AcDbLine
 62
250
  6
CONTINUOUS
 10
130.8745186558
 20
133.351286992
 11
132.1055070457
 21
134.0375657576
  0
LINE
  5
24D
100
AcDbEntity
  8
ASSI
100
AcDbLine
 62
7
  6
CONTINUOUS
 10
132.0081186787
 20
134.0489585821
 11
132.0082439174
 21
134.0490282202
  0
LINE
  5
24E
100
AcDbEntity
  8
ASSI
100
AcDbLine
 62
250
  6
CONTINUOUS
 10
128.0952006365
 20
132.9868905549
 11
128.0953674156
 21
132.9869832107
  0
LWPOLYLINE
  5
24F
100
AcDbEntity
  8
ASSI
100
AcDbPolyline
 62
250
  6
CONTINUOUS
 90
16
 70
0
 10
131.4513314809
 20
132.8634945912
 10
131.4146045755
 20
132.8431298766
 10
131.378808068
 20
132.8243992488
 10
131.3439419583
 20
132.807302708
 10
131.3102596143
 20
132.7919956965
 10
131.277507668
 20
132.778322772
 10
131.2449260164
 20
132.765817607
 10
131.2124682693
 20
132.7543600125
 10
131.1801808168
 20
132.7440701777
 10
131.1474427255
 20
132.7348423429
 10
131.11415448
 20
132.7265650987
 10
131.0804155958
 20
132.7193498546
 10
131.0459036858
 20
132.713425079
 10
131.0105112875
 20
132.7088669282
 10
130.9743458633
 20
132.705599246
 10
130.9374074133
 20
132.7036220324
  0
LWPOLYLINE
  5
250
100
AcDbEntity
  8
ASSI
100
AcDbPolyline
 62
7
  6
CONTINUOUS
 90
16
 70
0
 10
133.6931206279
 20
134.988350917
 10
132.9248209658
 20
134.5600278049
 10
132.9125398192
 20
134.5538188444
 10
132.8979338859
 20
134.5475458765
 10
132.8811527062
 20
134.541492312
 10
132.8622481003
 20
134.5358641722
 10
132.8414885182
 20
134.5309037106
 10
132.8190569332
 20
134.5267938655
 10
132.795240623
 20
134.5237057915
 10
132.7705329584
 20
134.5217862971
 10
132.7452040764
 20
134.5211169426
 10
132.7196634499
 20
134.5217504147
 10
132.6946579979
 20
134.5236578676
 10
132.6705203357
 20
134.5267652982
 10
132.6476142218
 20
134.5309534252
 10
132.6415621177
 20
134.5322768209
  0
LINE
  5
251
100
AcDbEntity
  8
ASSI
100
AcDbLine
 62
250
  6
CONTINUOUS
 10
133.7992061684
 20
134.9817617919
 11
133.0233854552
 21
134.5492850127
  0
LWPOLYLINE
  5
252
100
AcDbEntity
  8
ASSI
100
AcDbPolyline
 62
7
  6
CONTINUOUS
 90
10
 70
0
 10
130.7770700494
 20
133.3626558652
 10
130.764793292
 20
133.3558865574
 10
130.7019677655
 20
133.3235260219
 10
130.6405694445
 20
133.2956904494
 10
130.581081824
 20
133.2724867238
 10
130.523678055
 20
133.2538464506
 10
130.4683091174
 20
133.2396320384
 10
130.4152095409
 20
133.229816319
 10
130.3647897202
 20
133.2243686434
 10
130.3568727182
 20
133.2238885428
  0
LWPOLYLINE
  5
253
100
AcDbEntity
  8
ASSI
100
AcDbPolyline
 62
250
  6
CONTINUOUS
 90
13
 70
0
 10
128.3338494108
 20
133.0542507217
 10
128.3465867453
 20
133.061208819
 10
128.358942961
 20
133.0674811158
 10
128.3709051497
 20
133.0731022911
 10
128.3824563546
 20
133.0781066122
 10
128.3935947182
 20
133.0825310676
 10
128.4043330881
 20
133.0864132898
 10
128.4146692709
 20
133.089787976
 10
128.4245977718
 20
133.0926882812
 10
128.4341286315
 20
133.0951468444
 10
128.4432635211
 20
133.0971963978
 10
128.4520014281
 20
133.0988684724
 10
128.4603500209
 20
133.1001921926
  0
LINE
  5
254
100
AcDbEntity
  8
RACCORDO
100
AcDbLine
 62
7
  6
CONTINUOUS
 10
134.6909920625
 20
136.0160804396
 11
134.6910682875
 21
136.0161214821
  0
LINE
  5
255
100
AcDbEntity
  8
ASSI
100
AcDbLine
 62
7
  6
CONTINUOUS
 10
134.6910686287
 20
136.0161216655
 11
130.1110085443
 21
133.5531135687
  0
LINE
  5
256
100
AcDbEntity
  8
RACCORDO
100
AcDbLine
 62
250
  6
CONTINUOUS
 10
134.8130795931
 20
136.0020872275
 11
130.1366586494
 21
133.4872593788
  0
LINE
  5
257
100
AcDbEntity
  8
ASSI
100
AcDbLine
 62
250
  6
CONTINUOUS
 10
133.6966538801
 20
134.9901799386
 11
133.6931206279
 21
134.988350917
  0
LWPOLYLINE
  5
258
100
AcDbEntity
  8
ASSI
100
AcDbPolyline
 62
250
  6
CONTINUOUS
 90
8
 70
0
 10
127.4517826762
 20
131.8819219531
 10
127.4553082123
 20
131.8837466527
 10
127.4686547945
 20
131.8884507885
 10
127.4832302796
 20
131.8903886808
 10
127.4988121812
 20
131.8895307581
 10
127.5151626492
 20
131.8858901228
 10
127.5320320993
 20
131.8795223546
 10
127.5491630281
 20
131.8705246609
  0
LWPOLYLINE
  5
259
100
AcDbEntity
  8
ASSI
100
AcDbPolyline
 62
250
  6
CONTINUOUS
 90
8
 70
0
 10
132.9260258045
 20
134.560693837
 10
132.9295303728
 20
134.5625068769
 10
132.942876942
 20
134.5672110741
 10
132.9574524394
 20
134.5691490235
 10
132.9730343761
 20
134.568291143
 10
132.9893849005
 20
134.564650528
 10
133.006254429
 20
134.5582827508
 10
133.0233854552
 20
134.5492850127
  0
LINE
  5
25A
100
AcDbEntity
  8
RACCORDO
100
AcDbLine
 62
250
  6
CONTINUOUS
 10
134.6910682875
 20
136.0161214821
 11
134.6934600125
 21
136.0173582937
  0
LWPOLYLINE
  5
25B
100
AcDbEntity
  8
ASSI
100
AcDbPolyline
 62
250
  6
CONTINUOUS
 90
8
 70
0
 10
132.0082439174
 20
134.0490282202
 10
132.0116519214
 20
134.0507875991
 10
132.0249984918
 20
134.0554917988
 10
132.0395739908
 20
134.0574297498
 10
132.0551559293
 20
134.05657187
 10
132.0715064553
 20
134.0529312551
 10
132.088375985
 20
134.0465634775
 10
132.1055070121
 20
134.0375657389
  0
LWPOLYLINE
  5
25C
100
AcDbEntity
  8
ASSI
100
AcDbPolyline
 62
250
  6
CONTINUOUS
 90
8
 70
0
 10
130.7771262098
 20
133.3626872206
 10
130.7806635742
 20
133.3645088566
 10
130.7940101437
 20
133.369213054
 10
130.8085856414
 20
133.3711510036
 10
130.8241675782
 20
133.3702931233
 10
130.8405181024
 20
133.3666525081
 10
130.8573876303
 20
133.3602847306
 10
130.8745186558
 20
133.351286992
  0
LWPOLYLINE
  5
25D
100
AcDbEntity
  8
ASSI
100
AcDbPolyline
 62
250
  6
CONTINUOUS
 90
6
 70
0
 10
133.0233854552
 20
134.5492850127
 10
132.9946914789
 20
134.534745019
 10
132.9641388059
 20
134.5219942312
 10
132.9317274362
 20
134.5110326496
 10
132.8970862134
 20
134.5017665355
 10
132.8605862939
 20
134.4942896274
  0
LWPOLYLINE
  5
25E
100
AcDbEntity
  8
RACCORDO
100
AcDbPolyline
 62
250
  6
CONTINUOUS
 90
7
 70
0
 10
137.0402043562
 20
134.9770608518
 10
137.0540487496
 20
134.9840066785
 10
137.0676562615
 20
134.9887381553
 10
137.0807940637
 20
134.9911743253
 10
137.0932373648
 20
134.9912735049
 10
137.1047732564
 20
134.9890339972
 10
137.1152079802
 20
134.9844920284
  0
LINE
  5
25F
100
AcDbEntity
  8
ASSI
100
AcDbLine
 62
7
  6
CONTINUOUS
 10
127.6700858131
 20
132.2530027097
 11
125.9808597156
 21
131.4092995701
  0
LWPOLYLINE
  5
260
100
AcDbEntity
  8
ASSI
100
AcDbPolyline
 62
250
  6
CONTINUOUS
 90
5
 70
0
 10
134.1017075647
 20
131.3127423874
 10
134.1400084888
 20
131.3290507214
 10
134.1802485374
 20
131.347866098
 10
134.2221035201
 20
131.3692495177
 10
134.2655174183
 20
131.3933668058
  0
LWPOLYLINE
  5
261
100
AcDbEntity
  8
ASSI
100
AcDbPolyline
 62
250
  6
CONTINUOUS
 90
6
 70
0
 10
137.1749339605
 20
133.0701920046
 10
137.1824469152
 20
133.0733858385
 10
137.1900691739
 20
133.0764348824
 10
137.1978768994
 20
133.0793565774
 10
137.2058903448
 20
133.0821398555
 10
137.2140747749
 20
133.0847527527
  0
LWPOLYLINE
  5
262
100
AcDbEntity
  8
ASSI
100
AcDbPolyline
 62
250
  6
CONTINUOUS
 90
13
 70
0
 10
139.2451032351
 20
133.0226570925
 10
139.2520953733
 20
133.0254793928
 10
139.2589883565
 20
133.0283986735
 10
139.2657762002
 20
133.0314145646
 10
139.2724240537
 20
133.0345116783
 10
139.278956002
 20
133.0377038488
 10
139.2854478993
 20
133.0410367998
 10
139.2918913003
 20
133.0445137034
 10
139.2982678132
 20
133.0481344081
 10
139.3046252768
 20
133.0519436433
 10
139.3109627163
 20
133.0559588748
 10
139.3172369534
 20
133.0601681499
 10
139.3234251644
 20
133.0645734477
  0
LWPOLYLINE
  5
263
100
AcDbEntity
  8
ASSI
100
AcDbPolyline
 62
250
  6
CONTINUOUS
 90
6
 70
0
 10
137.0339462882
 20
133.0593932798
 10
137.0476705134
 20
133.0647073712
 10
137.0627318918
 20
133.0671437091
 10
137.0788895904
 20
133.066663336
 10
137.095885246
 20
133.0632739332
 10
137.1134470962
 20
133.0570296977
  0
LINE
  5
264
100
AcDbEntity
  8
SUPERFICI
100
AcDbLine
 62
7
  6
CONTINUOUS
 10
129.5072155928
 20
130.0583257903
 11
128.6377729613
 21
129.7477598993
  0
LWPOLYLINE
  5
265
100
AcDbEntity
  8
ASSI
100
AcDbPolyline
 62
250
  6
CONTINUOUS
 90
3
 70
0
 10
134.0994362374
 20
130.7704478029
 10
134.0317611436
 20
130.7473167716
 10
134.0166216839
 20
130.7422117141
  0
LWPOLYLINE
  5
266
100
AcDbEntity
  8
ASSI
100
AcDbPolyline
 62
7
  6
CONTINUOUS
 90
5
 70
0
 10
137.1318813971
 20
133.1008992109
 10
137.1033137245
 20
133.0917182123
 10
137.0751120981
 20
133.0803261702
 10
137.047483919
 20
133.066886939
 10
137.0312526737
 20
133.057917436
  0
LINE
  5
267
100
AcDbEntity
  8
ASSI
100
AcDbLine
 62
250
  6
CONTINUOUS
 10
137.2140747749
 20
133.0847527527
 11
137.2224218613
 21
133.0871735437
  0
LWPOLYLINE
  5
268
100
AcDbEntity
  8
SUPERFICI
100
AcDbPolyline
 62
7
  6
CONTINUOUS
 90
5
 70
0
 10
134.9784096164
 20
90.2844411509
 10
134.9600015081
 20
90.2846095043
 10
134.9411965579
 20
90.2819261501
 10
134.922239018
 20
90.2762872579
 10
134.9033896748
 20
90.2676145697
  0
LINE
  5
269
100
AcDbEntity
  8
SUPERFICI
100
AcDbLine
 62
7
  6
CONTINUOUS
 10
117.0078121647
 20
91.3726513421
 11
131.8760263331
 21
82.7879308238
  0
LINE
  5
26A
100
AcDbEntity
  8
SUPERFICI
100
AcDbLine
 62
250
  6
CONTINUOUS
 10
116.9042708542
 20
91.6015197727
 11
131.7724850225
 21
83.0167992543
  0
LWPOLYLINE
  5
26B
100
AcDbEntity
  8
SUPERFICI
100
AcDbPolyline
 62
250
  6
CONTINUOUS
 90
9
 70
0
 10
117.0078121647
 20
91.3726513421
 10
116.9922122624
 20
91.3828601683
 10
116.9696330482
 20
91.4027761558
 10
116.9501070369
 20
91.426960411
 10
116.9338410942
 20
91.4551567173
 10
116.9210075476
 20
91.4870663524
 10
116.9117423603
 20
91.5223512538
 10
116.9061436911
 20
91.5606376004
 10
116.9042708542
 20
91.6015197727
  0
LWPOLYLINE
  5
26C
100
AcDbEntity
  8
ASSI
100
AcDbPolyline
 62
250
  6
CONTINUOUS
 90
3
 70
0
 10
125.3282528451
 20
132.0623291149
 10
125.3077243995
 20
132.0346704144
 10
125.2889709134
 20
132.0062366118
  0
LWPOLYLINE
  5
26D
100
AcDbEntity
  8
ASSI
100
AcDbPolyline
 62
250
  6
CONTINUOUS
 90
3
 70
0
 10
125.374655992
 20
132.1162058074
 10
125.350563376
 20
132.0895075793
 10
125.3282528451
 20
132.0623291149
  0
LWPOLYLINE
  5
26E
100
AcDbEntity
  8
ASSI
100
AcDbPolyline
 62
250
  6
CONTINUOUS
 90
8
 70
0
 10
125.6774783152
 20
132.3680723168
 10
125.6786578745
 20
132.3693715485
 10
125.6826560123
 20
132.3757792818
 10
125.6850369558
 20
132.3836254915
 10
125.6857742777
 20
132.3928240764
 10
125.6848600016
 20
132.4032743899
 10
125.6823041497
 20
132.4148627954
 10
125.6781345866
 20
132.4274629682
  0
LINE
  5
26F
100
AcDbEntity
  8
ASSI
100
AcDbLine
 62
250
  6
CONTINUOUS
 10
125.6781345866
 20
132.4274629682
 11
125.374655992
 21
132.1162058074
  0
LINE
  5
270
100
AcDbEntity
  8
ASSI
100
AcDbLine
 62
7
  6
CONTINUOUS
 10
125.6774659961
 20
132.3680596731
 11
125.3739874014
 21
132.0568025122
  0
LWPOLYLINE
  5
271
100
AcDbEntity
  8
ASSI
100
AcDbPolyline
 62
250
  6
CONTINUOUS
 90
3
 70
0
 10
129.2001373331
 20
132.6698602869
 10
129.1946520851
 20
132.6647097444
 10
129.191765978
 20
132.6584947753
  0
LWPOLYLINE
  5
272
100
AcDbEntity
  8
RACCORDO
100
AcDbPolyline
 62
250
  6
CONTINUOUS
 90
8
 70
0
 10
136.9323768949
 20
135.1973912607
 10
136.9453151246
 20
135.2058532166
 10
136.9562196448
 20
135.2151071333
 10
136.9649038761
 20
135.2249946737
 10
136.9712192292
 20
135.2353466592
 10
136.9750576467
 20
135.2459859642
 10
136.9763534524
 20
135.2567305473
 10
136.9763141317
 20
135.2586647846
  0
LWPOLYLINE
  5
273
100
AcDbEntity
  8
ASSI
100
AcDbPolyline
 62
250
  6
CONTINUOUS
 90
10
 70
0
 10
131.9291431646
 20
130.8180581508
 10
131.9127251513
 20
130.8074744602
 10
131.8965291622
 20
130.794825624
 10
131.8807742204
 20
130.7802826955
 10
131.8656733842
 20
130.7640423424
 10
131.851430867
 20
130.7463241872
 10
131.8382392748
 20
130.727367838
 10
131.8262770016
 20
130.7074296469
 10
131.8157058167
 20
130.6867792435
 10
131.8066686775
 20
130.6656958892
  0
LWPOLYLINE
  5
274
100
AcDbEntity
  8
ASSI
100
AcDbPolyline
 62
250
  6
CONTINUOUS
 90
35
 70
0
 10
133.9676579059
 20
130.7124612819
 10
133.9577353331
 20
130.7062751822
 10
133.947728503
 20
130.6999626395
 10
133.9376598568
 20
130.693532243
 10
133.9275714317
 20
130.6869563295
 10
133.917510456
 20
130.680272873
 10
133.9074297014
 20
130.6734438996
 10
133.8972295204
 20
130.666327824
 10
133.8869495732
 20
130.6589749644
 10
133.8765501996
 20
130.6513350026
 10
133.8658127709
 20
130.6431153986
 10
133.8546946036
 20
130.6343234174
 10
133.8432383813
 20
130.624951794
 10
133.8313535263
 20
130.6146861928
 10
133.8189785724
 20
130.6035180904
 10
133.8061749859
 20
130.5914560103
 10
133.7930365878
 20
130.5782111872
 10
133.779532958
 20
130.5638070548
 10
133.7656945165
 20
130.5482201793
 10
133.7517063445
 20
130.5310914946
 10
133.7374942846
 20
130.5124046826
 10
133.7231324941
 20
130.4921760613
 10
133.7090285258
 20
130.4700955184
 10
133.6950071679
 20
130.4458117902
 10
133.6812436322
 20
130.4196761403
 10
133.6686711061
 20
130.3924322471
 10
133.6573835961
 20
130.3637757574
 10
133.6472870957
 20
130.3340110243
 10
133.6390327723
 20
130.3047947855
 10
133.6329115019
 20
130.2763137981
 10
133.6286324085
 20
130.248381305
 10
133.6259740317
 20
130.222093773
 10
133.6248625513
 20
130.197816691
 10
133.6253717876
 20
130.1751845701
 10
133.6275017404
 20
130.1541974103
  0
LINE
  5
275
100
AcDbEntity
  8
ASSI
100
AcDbLine
 62
250
  6
CONTINUOUS
 10
133.9873428902
 20
130.7245333509
 11
133.9676579059
 21
130.7124612819
  0
LWPOLYLINE
  5
276
100
AcDbEntity
  8
ASSI
100
AcDbPolyline
 62
250
  6
CONTINUOUS
 90
3
 70
0
 10
134.0166216839
 20
130.7422117141
 10
134.0068986153
 20
130.7363833492
 10
133.9873428902
 20
130.7245333509
  0
LWPOLYLINE
  5
277
100
AcDbEntity
  8
ASSI
100
AcDbPolyline
 62
250
  6
CONTINUOUS
 90
10
 70
0
 10
133.627501742
 20
130.1541974084
 10
133.6444721397
 20
130.1643667984
 10
133.6631452295
 20
130.1735141619
 10
133.6832693921
 20
130.1815162383
 10
133.7045734552
 20
130.1882651995
 10
133.726770347
 20
130.1936701032
 10
133.7495609646
 20
130.1976581184
 10
133.772638205
 20
130.2001755063
 10
133.7956911026
 20
130.201188345
 10
133.8184090201
 20
130.2006829865
  0
LINE
  5
278
100
AcDbEntity
  8
ASSI
100
AcDbLine
 62
250
  6
CONTINUOUS
 10
132.0655385906
 20
130.8996201584
 11
131.9291431646
 21
130.8180581508
  0
LINE
  5
279
100
AcDbEntity
  8
ASSI
100
AcDbLine
 62
250
  6
CONTINUOUS
 10
132.2088684816
 20
130.670649217
 11
132.0724730557
 21
130.5890872094
  0
LINE
  5
27A
100
AcDbEntity
  8
ASSI
100
AcDbLine
 62
250
  6
CONTINUOUS
 10
131.429473894
 20
129.6300817987
 11
130.8495338093
 21
129.2832880753
  0
LINE
  5
27B
100
AcDbEntity
  8
ASSI
100
AcDbLine
 62
250
  6
CONTINUOUS
 10
131.5728037851
 20
129.4011108573
 11
131.1172620828
 21
129.1287051256
  0
LINE
  5
27C
100
AcDbEntity
  8
ASSI
100
AcDbLine
 62
250
  6
CONTINUOUS
 10
135.8896958058
 20
131.8526225885
 11
134.7011027001
 21
131.1418653232
  0
LINE
  5
27D
100
AcDbEntity
  8
ASSI
100
AcDbLine
 62
250
  6
CONTINUOUS
 10
136.7759624539
 20
132.3825940785
 11
137.5166662082
 21
132.8255215802
  0
LINE
  5
27E
100
AcDbEntity
  8
ASSI
100
AcDbLine
 62
250
  6
CONTINUOUS
 10
136.0330256969
 20
131.6236516472
 11
134.8444325912
 21
130.9128943819
  0
LINE
  5
27F
100
AcDbEntity
  8
ASSI
100
AcDbLine
 62
250
  6
CONTINUOUS
 10
136.9192923772
 20
132.1536231564
 11
137.6599960993
 21
132.5965506388
  0
LWPOLYLINE
  5
280
100
AcDbEntity
  8
ASSI
100
AcDbPolyline
 62
250
  6
CONTINUOUS
 90
7
 70
0
 10
134.467676565
 20
130.6566068201
 10
134.4524899552
 20
130.6475468741
 10
134.4394394475
 20
130.6377240346
 10
134.4287008778
 20
130.6272706732
 10
134.4204189276
 20
130.6163276582
 10
134.4147051672
 20
130.6050424486
 10
134.4131944852
 20
130.5993931107
  0
LWPOLYLINE
  5
281
100
AcDbEntity
  8
RACCORDO
100
AcDbPolyline
 62
250
  6
CONTINUOUS
 90
40
 70
0
 10
133.1490716698
 20
132.730369606
 10
133.1453239211
 20
132.7281538367
 10
133.1417485775
 20
132.7259692987
 10
133.138345639
 20
132.7238159921
 10
133.1351251718
 20
132.7216959166
 10
133.1320771096
 20
132.7196070724
 10
133.1291712539
 20
132.7175434601
 10
133.1264050584
 20
132.7155059377
 10
133.1237810692
 20
132.7134936472
 10
133.1212767263
 20
132.7114980148
 10
133.1188895018
 20
132.7095197343
 10
133.1166219235
 20
132.7075581121
 10
133.1144590145
 20
132.7056024929
 10
133.1123982358
 20
132.7036542452
 10
133.1104421265
 20
132.7017120005
 10
133.1085833268
 20
132.6997609981
 10
133.1068125197
 20
132.6977945769
 10
133.1051390223
 20
132.6958193979
 10
133.1035834264
 20
132.6938406836
 10
133.1021373202
 20
132.6918397174
 10
133.1008091155
 20
132.6898352159
 10
133.0996446387
 20
132.6878885511
 10
133.0986606738
 20
132.686008666
 10
133.0978404368
 20
132.6841866177
 10
133.0971794033
 20
132.6824569497
 10
133.0966868795
 20
132.6808331981
 10
133.0963535592
 20
132.6793018269
 10
133.0961469987
 20
132.6778567716
 10
133.0960633772
 20
132.6765052499
 10
133.0961065154
 20
132.6752400441
 10
133.096255432
 20
132.6740334364
 10
133.0964991498
 20
132.6728852741
 10
133.096848646
 20
132.67179571
 10
133.0973158707
 20
132.6707374842
 10
133.0978866199
 20
132.6697054403
 10
133.0985750975
 20
132.6687047347
 10
133.0994358658
 20
132.6677235765
 10
133.1004871121
 20
132.6667580356
 10
133.101710649
 20
132.6658120421
 10
133.1031064765
 20
132.6648855962
  0
LWPOLYLINE
  5
282
100
AcDbEntity
  8
ASSI
100
AcDbPolyline
 62
250
  6
CONTINUOUS
 90
13
 70
0
 10
137.6599960993
 20
132.5965506388
 10
137.664229903
 20
132.5990312695
 10
137.6684963599
 20
132.6014156093
 10
137.6727954701
 20
132.6037036582
 10
137.6771114209
 20
132.6058924014
 10
137.6814600248
 20
132.6079848536
 10
137.6858887203
 20
132.6099900596
 10
137.6904010015
 20
132.6119151695
 10
137.6949933742
 20
132.6137530332
 10
137.6997027936
 20
132.6154912452
 10
137.7045415781
 20
132.6171256704
 10
137.7094974093
 20
132.618660444
 10
137.7145702871
 20
132.6200955659
  0
LWPOLYLINE
  5
283
100
AcDbEntity
  8
ASSI
100
AcDbPolyline
 62
250
  6
CONTINUOUS
 90
10
 70
0
 10
136.0361821486
 20
131.5945449238
 10
136.0547545495
 20
131.6053331252
 10
136.0753160607
 20
131.6149021749
 10
136.0975388528
 20
131.6230995054
 10
136.1210686088
 20
131.6297944193
 10
136.145530174
 20
131.6348801737
 10
136.1705335362
 20
131.6382756818
 10
136.1956800455
 20
131.6399268059
 10
136.2205687693
 20
131.6398072207
 10
136.2448028854
 20
131.6379188324
  0
LINE
  5
284
100
AcDbEntity
  8
ASSI
100
AcDbLine
 62
7
  6
CONTINUOUS
 10
137.0312526737
 20
133.057917436
 11
137.0312894935
 21
133.0579387109
  0
LINE
  5
285
100
AcDbEntity
  8
RACCORDO
100
AcDbLine
 62
250
  6
CONTINUOUS
 10
136.9342836988
 20
135.1542790405
 11
133.0431510124
 21
132.9075877947
  0
LINE
  5
286
100
AcDbEntity
  8
RACCORDO
100
AcDbLine
 62
250
  6
CONTINUOUS
 10
137.0402043562
 20
134.9770608518
 11
133.1490716698
 21
132.730369606
  0
LINE
  5
287
100
AcDbEntity
  8
ASSI
100
AcDbLine
 62
7
  6
CONTINUOUS
 10
134.1654441414
 20
131.403235468
 11
137.0312894935
 21
133.0579387109
  0
LINE
  5
288
100
AcDbEntity
  8
ASSI
100
AcDbLine
 62
250
  6
CONTINUOUS
 10
134.2655174183
 20
131.3933668058
 11
137.1312943255
 21
133.0480304754
  0
LWPOLYLINE
  5
289
100
AcDbEntity
  8
ASSI
100
AcDbPolyline
 62
250
  6
CONTINUOUS
 90
13
 70
0
 10
137.5166662082
 20
132.8255215802
 10
137.5237650793
 20
132.8296194198
 10
137.5309197222
 20
132.8335703497
 10
137.5381270285
 20
132.8373690645
 10
137.5453535978
 20
132.8409958665
 10
137.5526263475
 20
132.8444612919
 10
137.5600319344
 20
132.8477985795
 10
137.5675699979
 20
132.8509973932
 10
137.5752317649
 20
132.8540427824
 10
137.5830893629
 20
132.8569476066
 10
137.591161781
 20
132.8596998962
 10
137.5994157108
 20
132.8622698157
 10
137.6078429364
 20
132.8646362454
  0
LWPOLYLINE
  5
28A
100
AcDbEntity
  8
ASSI
100
AcDbPolyline
 62
250
  6
CONTINUOUS
 90
13
 70
0
 10
134.8444325912
 20
130.9128943819
 10
134.8097238577
 20
130.8928617646
 10
134.7753385066
 20
130.8742160652
 10
134.7412765377
 20
130.8569572838
 10
134.7075641697
 20
130.8411214456
 10
134.674175184
 20
130.8266725254
 10
134.6410309247
 20
130.813502447
 10
134.6081391577
 20
130.8015953339
 10
134.575492117
 20
130.7909670626
 10
134.5429878492
 20
130.7815571868
 10
134.51059237
 20
130.7733455577
 10
134.4783396636
 20
130.7663523241
 10
134.4462297302
 20
130.760577486
  0
LWPOLYLINE
  5
28B
100
AcDbEntity
  8
ASSI
100
AcDbPolyline
 62
250
  6
CONTINUOUS
 90
10
 70
0
 10
134.1537736585
 20
130.5170303317
 10
134.1440454932
 20
130.5114678773
 10
134.1341877961
 20
130.5060512847
 10
134.1241988744
 20
130.5007670836
 10
134.114048678
 20
130.4955902984
 10
134.1037564927
 20
130.4905196075
 10
134.0934006216
 20
130.4855713719
 10
134.0829720787
 20
130.480717759
 10
134.0724774975
 20
130.4759478492
 10
134.0620386656
 20
130.4712912137
  0
LWPOLYLINE
  5
28C
100
AcDbEntity
  8
ASSI
100
AcDbPolyline
 62
7
  6
CONTINUOUS
 90
10
 70
0
 10
134.1654441415
 20
131.4032354681
 10
134.1538994065
 20
131.3966396047
 10
134.0927291826
 20
131.3640136259
 10
134.032757216
 20
131.3359094605
 10
133.9744063138
 20
131.3124219897
 10
133.9178640065
 20
131.2935031528
 10
133.8631894984
 20
131.2790722448
 10
133.8106460232
 20
131.2691133487
 10
133.7606224029
 20
131.2635869162
 10
133.7526748375
 20
131.2630964578
  0
LWPOLYLINE
  5
28D
100
AcDbEntity
  8
ASSI
100
AcDbPolyline
 62
250
  6
CONTINUOUS
 90
10
 70
0
 10
134.7011027001
 20
131.1418653232
 10
134.6491104062
 20
131.1123235853
 10
134.5976147675
 20
131.0863348425
 10
134.5467357195
 20
131.0638515606
 10
134.496906257
 20
131.0449295108
 10
134.4478982697
 20
131.029348957
 10
134.398856722
 20
131.0168114528
 10
134.3495956312
 20
131.0073584555
 10
134.3005637898
 20
131.0011748502
 10
134.2518939591
 20
130.9983452841
  0
LINE
  5
28E
100
AcDbEntity
  8
RACCORDO
100
AcDbLine
 62
250
  6
CONTINUOUS
 10
139.1858535041
 20
133.2856739987
 11
139.8794448033
 21
133.6795068779
  0
LINE
  5
28F
100
AcDbEntity
  8
RACCORDO
100
AcDbLine
 62
250
  6
CONTINUOUS
 10
139.3234251644
 20
133.0645734477
 11
140.0166374617
 21
133.4581911232
  0
LWPOLYLINE
  5
290
100
AcDbEntity
  8
ASSI
100
AcDbPolyline
 62
250
  6
CONTINUOUS
 90
7
 70
0
 10
137.1312943255
 20
133.0480304754
 10
137.1385063612
 20
133.0521121648
 10
137.1457471391
 20
133.05604432
 10
137.1530135415
 20
133.0598226511
 10
137.1602680541
 20
133.0634260534
 10
137.1675418172
 20
133.0668688253
 10
137.1749339605
 20
133.0701920046
  0
LWPOLYLINE
  5
291
100
AcDbEntity
  8
ASSI
100
AcDbPolyline
 62
250
  6
CONTINUOUS
 90
8
 70
0
 10
134.1655125862
 20
131.4032750413
 10
134.1681693806
 20
131.40472961
 10
134.1818936058
 20
131.4100437015
 10
134.1969549843
 20
131.4124800394
 10
134.2131126829
 20
131.4119996664
 10
134.2301083385
 20
131.4086102637
 10
134.2476701889
 20
131.4023660282
 10
134.2655174183
 20
131.3933668058
  0
LWPOLYLINE
  5
292
100
AcDbEntity
  8
ASSI
100
AcDbPolyline
 62
250
  6
CONTINUOUS
 90
13
 70
0
 10
135.8896958058
 20
131.8526225885
 10
135.9174899611
 20
131.8677340633
 10
135.9472502315
 20
131.881095027
 10
135.9789766169
 20
131.8927054797
 10
136.0130343584
 20
131.9026666097
 10
136.0490582149
 20
131.9108772287
 10
136.0859524632
 20
131.9170337711
 10
136.1237563996
 20
131.9210442646
 10
136.1624307278
 20
131.9230006815
 10
136.2007618352
 20
131.9228753729
 10
136.2383451843
 20
131.9206591225
 10
136.2755853126
 20
131.9163611467
 10
136.3401723398
 20
131.9052308645
  0
LINE
  5
293
100
AcDbEntity
  8
ASSI
100
AcDbLine
 62
250
  6
CONTINUOUS
 10
133.092533068
 20
128.6385339023
 11
133.0886803462
 21
128.6366196369
  0
LWPOLYLINE
  5
294
100
AcDbEntity
  8
ASSI
100
AcDbPolyline
 62
250
  6
CONTINUOUS
 90
13
 70
0
 10
136.0330256969
 20
131.6236516463
 10
136.0466882627
 20
131.6303715637
 10
136.0616076049
 20
131.6362477633
 10
136.0776550126
 20
131.641204495
 10
136.0947225964
 20
131.6451757681
 10
136.1126410632
 20
131.6481069474
 10
136.1311725474
 20
131.6499519193
 10
136.1501086501
 20
131.6506966851
 10
136.169325251
 20
131.6503342101
 10
136.188701044
 20
131.6488356039
 10
136.2080769002
 20
131.646187903
 10
136.2272438999
 20
131.6424235527
 10
136.2460015958
 20
131.6375746009
  0
LWPOLYLINE
  5
295
100
AcDbEntity
  8
ASSI
100
AcDbPolyline
 62
250
  6
CONTINUOUS
 90
27
 70
0
 10
134.0211344749
 20
130.4533137073
 10
134.0110204357
 20
130.4488056311
 10
134.0008108659
 20
130.4441304166
 10
133.9904242018
 20
130.4392619315
 10
133.9799029039
 20
130.4341845645
 10
133.9692722604
 20
130.4287797418
 10
133.9584660961
 20
130.4230045116
 10
133.9475045609
 20
130.4168445414
 10
133.9365399313
 20
130.4102034765
 10
133.9255786072
 20
130.4030499006
 10
133.9146055139
 20
130.3953409805
 10
133.9037530266
 20
130.3869416603
 10
133.893034452
 20
130.3778134845
 10
133.8824773561
 20
130.3679239493
 10
133.8722546842
 20
130.357133705
 10
133.8623678772
 20
130.3452826112
 10
133.8529345881
 20
130.3325023053
 10
133.8443423045
 20
130.31910298
 10
133.8367712797
 20
130.3049924873
 10
133.8302515448
 20
130.2903428761
 10
133.824944222
 20
130.2758741652
 10
133.8210251677
 20
130.2617043961
 10
133.8184379096
 20
130.2478264484
 10
133.8169248542
 20
130.2347341189
 10
133.8163799971
 20
130.222586498
 10
133.8168827495
 20
130.2112379578
 10
133.8184096498
 20
130.2006829003
  0
LINE
  5
296
100
AcDbEntity
  8
ASSI
100
AcDbLine
 62
250
  6
CONTINUOUS
 10
134.0620386656
 20
130.4712912137
 11
134.0211344749
 21
130.4533137073
  0
LWPOLYLINE
  5
297
100
AcDbEntity
  8
RACCORDO
100
AcDbPolyline
 62
250
  6
CONTINUOUS
 90
14
 70
0
 10
142.1970301553
 20
132.2344765204
 10
142.3167606279
 20
132.2850077959
 10
142.4429016423
 20
132.323818173
 10
142.5747843634
 20
132.3505942814
 10
142.7111283264
 20
132.3651336319
 10
142.8514705734
 20
132.3675452312
 10
142.9951850678
 20
132.3579709278
 10
143.1405595191
 20
132.3368188438
 10
143.2869803718
 20
132.3045949548
 10
143.4338685882
 20
132.2618301712
 10
143.5794682936
 20
132.2095493823
 10
143.7228282236
 20
132.1487507515
 10
143.8638564239
 20
132.0801096509
 10
144.0021168128
 20
132.0044193534
  0
LWPOLYLINE
  5
298
100
AcDbEntity
  8
0
100
AcDbPolyline
 62
7
  6
CONTINUOUS
 90
10
 70
0
 10
144.0450665618
 20
132.2579880627
 10
144.1427737059
 20
132.295815505
 10
144.2455237506
 20
132.3248776197
 10
144.3518759596
 20
132.3446632933
 10
144.4612956873
 20
132.3551447136
 10
144.5734740463
 20
132.3563628897
 10
144.6882386175
 20
132.3483447873
 10
144.80531999
 20
132.3310997028
 10
144.9243096915
 20
132.3046717661
 10
145.0386075105
 20
132.2711808171
  0
LWPOLYLINE
  5
299
100
AcDbEntity
  8
ASSI
100
AcDbPolyline
 62
250
  6
CONTINUOUS
 90
6
 70
0
 10
125.2889709134
 20
132.0062366118
 10
125.2719995126
 20
131.9773225729
 10
125.2568315743
 20
131.9488128958
 10
125.243597607
 20
131.9210850377
 10
125.2321671022
 20
131.8937615414
 10
125.2221699118
 20
131.8665946331
  0
LWPOLYLINE
  5
29A
100
AcDbEntity
  8
ASSI
100
AcDbPolyline
 62
250
  6
CONTINUOUS
 90
6
 70
0
 10
125.3739891306
 20
132.0568042858
 10
125.379197796
 20
132.0645677577
 10
125.3819028621
 20
132.074587142
 10
125.382041891
 20
132.0866753956
 10
125.3796125181
 20
132.1006272541
 10
125.374655992
 20
132.1162058074
  0
LINE
  5
29B
100
AcDbEntity
  8
ASSI
100
AcDbLine
 62
250
  6
CONTINUOUS
 10
136.8902454388
 20
132.1022157201
 11
136.9041110035
 21
132.1132330835
  0
LWPOLYLINE
  5
29C
100
AcDbEntity
  8
ASSI
100
AcDbPolyline
 62
7
  6
CONTINUOUS
 90
7
 70
0
 10
134.4795991108
 20
129.5097146804
 10
134.4686342922
 20
129.5015688446
 10
134.4591869227
 20
129.4929231837
 10
134.4511950754
 20
129.4837052098
 10
134.4447206773
 20
129.4739874109
 10
134.439949509
 20
129.4639872511
 10
134.437352493
 20
129.4551663878
  0
LINE
  5
29D
100
AcDbEntity
  8
ASSI
100
AcDbLine
 62
7
  6
CONTINUOUS
 10
133.2837978062
 20
128.6331272529
 11
134.0104782242
 21
129.1455196836
  0
LINE
  5
29E
100
AcDbEntity
  8
ASSI
100
AcDbLine
 62
250
  6
CONTINUOUS
 10
133.3469784077
 20
128.5969733265
 11
134.1459363481
 21
129.1603296396
  0
LINE
  5
29F
100
AcDbEntity
  8
ASSI
100
AcDbLine
 62
7
  6
CONTINUOUS
 10
134.8659629748
 20
128.0981934221
 11
135.6964911485
 21
128.6329837495
  0
LWPOLYLINE
  5
2A0
100
AcDbEntity
  8
ASSI
100
AcDbPolyline
 62
7
  6
CONTINUOUS
 90
6
 70
0
 10
136.9581805285
 20
130.9265972747
 10
136.9443030659
 20
130.9176738632
 10
136.9323487944
 20
130.9081481261
 10
136.9223177141
 20
130.8980200633
 10
136.9141265141
 20
130.8871558645
 10
136.9122262271
 20
130.8836795312
  0
LINE
  5
2A1
100
AcDbEntity
  8
ASSI
100
AcDbLine
 62
250
  6
CONTINUOUS
 10
136.9041110035
 20
132.1132330835
 11
136.920523246
 21
132.123364947
  0
LINE
  5
2A2
100
AcDbEntity
  8
ASSI
100
AcDbLine
 62
7
  6
CONTINUOUS
 10
134.4920813786
 20
129.5173606913
 11
134.4795991108
 21
129.5097146804
  0
LINE
  5
2A3
100
AcDbEntity
  8
RACCORDO
100
AcDbLine
 62
250
  6
CONTINUOUS
 10
141.8334247701
 20
131.4496406225
 11
137.8031855846
 21
129.1093211803
  0
LINE
  5
2A4
100
AcDbEntity
  8
RACCORDO
100
AcDbLine
 62
250
  6
CONTINUOUS
 10
141.9794822657
 20
131.1643229062
 11
138.1227944713
 21
128.9247830148
  0
LINE
  5
2A5
100
AcDbEntity
  8
ASSI
100
AcDbLine
 62
250
  6
CONTINUOUS
 10
134.0788728175
 20
128.1743866671
 11
134.9662055049
 21
128.6867165088
  0
LINE
  5
2A6
100
AcDbEntity
  8
ASSI
100
AcDbLine
 62
250
  6
CONTINUOUS
 10
134.3613149355
 20
128.011308128
 11
135.1074330481
 21
128.4421032288
  0
LINE
  5
2A7
100
AcDbEntity
  8
RACCORDO
100
AcDbLine
 62
250
  6
CONTINUOUS
 10
137.140707787
 20
129.4432091881
 11
141.6566749987
 21
132.0506810107
  0
LINE
  5
2A8
100
AcDbEntity
  8
ASSI
100
AcDbLine
 62
7
  6
CONTINUOUS
 10
134.5384000763
 20
127.9090613871
 11
134.8659629748
 21
128.0981934221
  0
LINE
  5
2A9
100
AcDbEntity
  8
ASSI
100
AcDbLine
 62
250
  6
CONTINUOUS
 10
134.7130775518
 20
127.743380309
 11
134.1148200363
 21
127.3979527315
  0
LINE
  5
2AA
100
AcDbEntity
  8
RACCORDO
100
AcDbLine
 62
250
  6
CONTINUOUS
 10
137.536291904
 20
129.2634222465
 11
141.8334247701
 21
131.7445414268
  0
LINE
  5
2AB
100
AcDbEntity
  8
ASSI
100
AcDbLine
 62
250
  6
CONTINUOUS
 10
134.8544773688
 20
127.4984686419
 11
134.3976057631
 21
127.2346757969
  0
LINE
  5
2AC
100
AcDbEntity
  8
SUPERFICI
100
AcDbLine
 62
250
  6
CONTINUOUS
 10
134.5208367414
 20
127.1635237746
 11
132.1167834643
 21
125.7754603882
  0
LINE
  5
2AD
100
AcDbEntity
  8
ASSI
100
AcDbLine
 62
7
  6
CONTINUOUS
 10
139.299422683
 20
132.2743931275
 11
136.9581805285
 21
130.9265972747
  0
LINE
  5
2AE
100
AcDbEntity
  8
ASSI
100
AcDbLine
 62
7
  6
CONTINUOUS
 10
136.1689890335
 20
130.4722790199
 11
134.9611155884
 21
129.7769358115
  0
LINE
  5
2AF
100
AcDbEntity
  8
RACCORDO
100
AcDbLine
 62
250
  6
CONTINUOUS
 10
137.4292372492
 20
128.3518732974
 11
138.2389168306
 21
128.8091170501
  0
LINE
  5
2B0
100
AcDbEntity
  8
ASSI
100
AcDbLine
 62
7
  6
CONTINUOUS
 10
134.9611155884
 20
129.7769358115
 11
134.4920821176
 21
129.5173611003
  0
LINE
  5
2B1
100
AcDbEntity
  8
ASSI
100
AcDbLine
 62
7
  6
CONTINUOUS
 10
133.7621390899
 20
129.1133925946
 11
132.4252183004
 21
128.3735075981
  0
LINE
  5
2B2
100
AcDbEntity
  8
DRAFT
100
AcDbLine
 62
7
  6
CONTINUOUS
 10
141.7876142674
 20
132.0115456692
 11
142.138985063
 21
132.204528501
  0
LINE
  5
2B3
100
AcDbEntity
  8
ASSI
100
AcDbLine
 62
7
  6
CONTINUOUS
 10
133.0886803462
 20
128.6366196369
 11
132.5092213045
 21
128.3250053163
  0
LINE
  5
2B4
100
AcDbEntity
  8
ASSI
100
AcDbLine
 62
250
  6
CONTINUOUS
 10
133.185873686
 20
128.6251686807
 11
132.5663598933
 21
128.2920142113
  0
LINE
  5
2B5
100
AcDbEntity
  8
ASSI
100
AcDbLine
 62
250
  6
CONTINUOUS
 10
134.7403451403
 20
126.9478373341
 11
137.4291780448
 21
128.3519074812
  0
LINE
  5
2B6
100
AcDbEntity
  8
RACCORDO
100
AcDbLine
 62
250
  6
CONTINUOUS
 10
142.1389850753
 20
132.2045285078
 11
142.1970301553
 21
132.2344765204
  0
LWPOLYLINE
  5
2B7
100
AcDbEntity
  8
RACCORDO
100
AcDbPolyline
 62
7
  6
CONTINUOUS
 90
16
 70
0
 10
142.1389850616
 20
132.2045285002
 10
142.2510038813
 20
132.2604418912
 10
142.3685281299
 20
132.3079767644
 10
142.4912407598
 20
132.3467242674
 10
142.6186567265
 20
132.3762861533
 10
142.7505511181
 20
132.3963816573
 10
142.8870436309
 20
132.406742808
 10
143.0281997824
 20
132.4070028768
 10
143.1733477097
 20
132.3967936109
 10
143.3215776483
 20
132.375917062
 10
143.4728114207
 20
132.3441576751
 10
143.626526802
 20
132.3013894347
 10
143.7811427769
 20
132.2479566554
 10
143.9359158544
 20
132.184176271
 10
144.0909574395
 20
132.1100445361
 10
144.2459585367
 20
132.0256894306
  0
LWPOLYLINE
  5
2B8
100
AcDbEntity
  8
RACCORDO
100
AcDbPolyline
 62
250
  6
CONTINUOUS
 90
8
 70
0
 10
141.9794822657
 20
131.1643229062
 10
141.9929605909
 20
131.1710503247
 10
142.0058742688
 20
131.175807376
 10
142.0180072185
 20
131.1785144633
 10
142.0291564241
 20
131.1791262917
 10
142.039135329
 20
131.177632625
 10
142.0477769588
 20
131.1740584592
 10
142.0515161405
 20
131.1715350957
  0
LWPOLYLINE
  5
2B9
100
AcDbEntity
  8
RACCORDO
100
AcDbPolyline
 62
250
  6
CONTINUOUS
 90
8
 70
0
 10
142.3237633775
 20
130.895444258
 10
142.3372416747
 20
130.9021716643
 10
142.3501553312
 20
130.906928713
 10
142.3622882667
 20
130.909635806
 10
142.3734374646
 20
130.9102476464
 10
142.3834163689
 20
130.9087539963
 10
142.3920580056
 20
130.9051798486
 10
142.3957490521
 20
130.9026939389
  0
LWPOLYLINE
  5
2BA
100
AcDbEntity
  8
SUPERFICI
100
AcDbPolyline
 62
250
  6
CONTINUOUS
 90
16
 70
0
 10
132.470215701
 20
125.1632977979
 10
132.4309914546
 20
125.1439266412
 10
132.3885174777
 20
125.1269934979
 10
132.3432463929
 20
125.1126788162
 10
132.2956549701
 20
125.1011339623
 10
132.2462556062
 20
125.0924838168
 10
132.1955927238
 20
125.0868220317
 10
132.1442191339
 20
125.0842060117
 10
132.092670126
 20
125.0846587049
 10
132.0414756123
 20
125.0881738754
 10
131.9911104202
 20
125.0947254368
 10
131.9421835279
 20
125.1042408087
 10
131.8953923699
 20
125.1165657983
 10
131.8512619412
 20
125.1315170862
 10
131.8101623481
 20
125.1489219782
 10
131.7724850225
 20
125.1685715366
  0
LWPOLYLINE
  5
2BB
100
AcDbEntity
  8
RACCORDO
100
AcDbPolyline
 62
250
  6
CONTINUOUS
 90
7
 70
0
 10
141.6566749987
 20
132.0506810107
 10
141.6703488582
 20
132.0572757461
 10
141.6837629432
 20
132.0616933004
 10
141.6966928001
 20
132.0638597561
 10
141.7089220775
 20
132.0637388625
 10
141.7202461468
 20
132.0613326425
 10
141.7297896264
 20
132.0570838887
  0
LINE
  5
2BC
100
AcDbEntity
  8
0
100
AcDbLine
 62
7
  6
CONTINUOUS
 10
144.6323425584
 20
132.1047187379
 11
144.9649754199
 21
132.2624267515
  0
LINE
  5
2BD
100
AcDbEntity
  8
0
100
AcDbLine
 62
7
  6
CONTINUOUS
 10
145.8135035573
 20
131.7724972395
 11
145.4808706958
 21
131.6147892259
  0
LINE
  5
2BE
100
AcDbEntity
  8
0
100
AcDbLine
 62
7
  6
CONTINUOUS
 10
144.0450500906
 20
132.2579807728
 11
143.9060781042
 21
132.1964720992
  0
LWPOLYLINE
  5
2BF
100
AcDbEntity
  8
0
100
AcDbPolyline
 62
7
  6
CONTINUOUS
 90
11
 70
0
 10
144.9649754199
 20
132.2624267515
 10
144.9735173889
 20
132.2661587668
 10
144.9819173275
 20
132.2692252751
 10
144.9901752358
 20
132.2716262764
 10
144.9983210294
 20
132.2733639858
 10
145.0063247926
 20
132.2744361882
 10
145.0140967787
 20
132.274836238
 10
145.0216324996
 20
132.2745559351
 10
145.0289364434
 20
132.2736034795
 10
145.0359323276
 20
132.2719968261
 10
145.0386076066
 20
132.2711810142
  0
LWPOLYLINE
  5
2C0
100
AcDbEntity
  8
RACCORDO
100
AcDbPolyline
 62
250
  6
CONTINUOUS
 90
3
 70
0
 10
142.0314295346
 20
98.0962696557
 10
142.0239480564
 20
98.0944008365
 10
142.0187247697
 20
98.0926353555
  0
LWPOLYLINE
  5
2C1
100
AcDbEntity
  8
SUPERFICI
100
AcDbPolyline
 62
7
  6
CONTINUOUS
 90
3
 70
0
 10
135.0131519442
 20
90.2760678766
 10
134.9961950827
 20
90.2815463677
 10
134.9784096164
 20
90.2844411509
  0
LWPOLYLINE
  5
2C2
100
AcDbEntity
  8
SUPERFICI
100
AcDbPolyline
 62
7
  6
CONTINUOUS
 90
10
 70
0
 10
135.411592249
 20
90.0470741627
 10
135.3982371373
 20
90.0528660548
 10
135.3841709236
 20
90.0567935148
 10
135.3693936077
 20
90.0588565425
 10
135.3537947626
 20
90.0590437826
 10
135.3374848155
 20
90.0573665904
 10
135.3207950478
 20
90.0538590326
 10
135.3038358869
 20
90.0485324645
 10
135.2864969054
 20
90.0413755308
 10
135.2687781034
 20
90.0323882314
  0
LINE
  5
2C3
100
AcDbEntity
  8
SUPERFICI
100
AcDbLine
 62
7
  6
CONTINUOUS
 10
135.5046588759
 20
90.0196119214
 11
135.0224594853
 21
90.2717545434
  0
LINE
  5
2C4
100
AcDbEntity
  8
RACCORDO
100
AcDbLine
 62
7
  6
CONTINUOUS
 10
135.775830124
 20
89.8556930089
 11
135.411592249
 21
90.0470741627
  0
LWPOLYLINE
  5
2C5
100
AcDbEntity
  8
SUPERFICI
100
AcDbPolyline
 62
250
  6
CONTINUOUS
 90
9
 70
0
 10
116.7578242448
 20
91.8056570693
 10
116.7589389299
 20
91.7863906386
 10
116.7650269916
 20
91.756831568
 10
116.7763738977
 20
91.7277513373
 10
116.7928539434
 20
91.6995015628
 10
116.8142000764
 20
91.6724849346
 10
116.8400947983
 20
91.6470045782
 10
116.8702390134
 20
91.6232741883
 10
116.9042708542
 20
91.6015197727
  0
LINE
  5
2C6
100
AcDbEntity
  8
SUPERFICI
100
AcDbLine
 62
7
  6
CONTINUOUS
 10
116.7578242448
 20
91.8056570693
 11
116.7578242448
 21
133.9574293515
  0
LINE
  5
2C7
100
AcDbEntity
  8
SUPERFICI
100
AcDbLine
 62
250
  6
CONTINUOUS
 10
116.9042708542
 20
91.6015197727
 11
116.9042708542
 21
133.7532920549
  0
LWPOLYLINE
  5
2C8
100
AcDbEntity
  8
SUPERFICI
100
AcDbPolyline
 62
250
  6
CONTINUOUS
 90
16
 70
0
 10
116.9042708542
 20
133.7532920549
 10
116.9061436911
 20
133.7963369322
 10
116.9117423603
 20
133.8410884818
 10
116.9210075476
 20
133.8870725892
 10
116.9338410942
 20
133.9338020822
 10
116.9501070369
 20
133.9807818913
 10
116.9696330482
 20
134.0275142951
 10
116.9922122624
 20
134.0735041931
 10
117.017605467
 20
134.1182643516
 10
117.0455436373
 20
134.1613205656
 10
117.0757307861
 20
134.2022166816
 10
117.1078470998
 20
134.2405194313
 10
117.1415523262
 20
134.275823021
 10
117.1764893798
 20
134.3077534316
 10
117.2122881247
 20
134.3359723807
 10
117.2485692959
 20
134.3601809065
  0
LINE
  5
2C9
100
AcDbEntity
  8
ASSI
100
AcDbLine
 62
7
  6
CONTINUOUS
 10
127.6298729648
 20
132.0876199427
 11
128.0116852354
 21
132.8974904584
  0
LINE
  5
2CA
100
AcDbEntity
  8
ASSI
100
AcDbLine
 62
250
  6
CONTINUOUS
 10
127.688302213
 20
132.0132649349
 11
128.0701144837
 21
132.8231354506
  0
LWPOLYLINE
  5
2CB
100
AcDbEntity
  8
ASSI
100
AcDbPolyline
 62
7
  6
CONTINUOUS
 90
13
 70
0
 10
127.6298738996
 20
132.0876219252
 10
127.6197071426
 20
132.0672896196
 10
127.6073801204
 20
132.0452862308
 10
127.59378916
 20
132.0235298991
 10
127.5791201273
 20
132.0023275113
 10
127.5635837006
 20
131.9819774028
 10
127.5473521671
 20
131.9626841089
 10
127.5306561277
 20
131.9446823943
 10
127.5137708458
 20
131.9282146004
 10
127.4970116616
 20
131.9135041144
 10
127.480740582
 20
131.9007472611
 10
127.4653047448
 20
131.8900668668
 10
127.4517826762
 20
131.8819219531
  0
LWPOLYLINE
  5
2CC
100
AcDbEntity
  8
ASSI
100
AcDbPolyline
 62
7
  6
CONTINUOUS
 90
7
 70
0
 10
132.0342485301
 20
134.0679500755
 10
132.0346039084
 20
134.0685048656
 10
132.0340660368
 20
134.0678811085
 10
132.0313219396
 20
134.0650987978
 10
132.0261488072
 20
134.0607125577
 10
132.0186960435
 20
134.0553714319
 10
132.0082439211
 20
134.0490282137
  0
LWPOLYLINE
  5
2CD
100
AcDbEntity
  8
ASSI
100
AcDbPolyline
 62
250
  6
CONTINUOUS
 90
11
 70
0
 10
134.2704075973
 20
130.6101423535
 10
134.2565383646
 20
130.5963947838
 10
134.2487288938
 20
130.5888417316
 10
134.2402038509
 20
130.5809092045
 10
134.2309487995
 20
130.5725737676
 10
134.2208069403
 20
130.5638852561
 10
134.2096656721
 20
130.5549197604
 10
134.1975408006
 20
130.5456881959
 10
134.1843218642
 20
130.5362351026
 10
134.16978922
 20
130.5266540857
 10
134.1537736585
 20
130.5170303317
  0
LWPOLYLINE
  5
2CE
100
AcDbEntity
  8
ASSI
100
AcDbPolyline
 62
250
  6
CONTINUOUS
 90
3
 70
0
 10
136.8959946358
 20
132.1351968591
 10
136.9069986549
 20
132.1448218973
 10
136.9192923712
 20
132.1536231234
  0
LWPOLYLINE
  5
2CF
100
AcDbEntity
  8
RACCORDO
100
AcDbPolyline
 62
250
  6
CONTINUOUS
 90
7
 70
0
 10
141.8334247701
 20
131.7445414268
 10
141.8459724775
 20
131.7530868282
 10
141.8565047327
 20
131.7624959329
 10
141.8648453053
 20
131.7726112985
 10
141.870854639
 20
131.7832636663
 10
141.8744321851
 20
131.7942747914
 10
141.8755237384
 20
131.804625954
  0
LWPOLYLINE
  5
2D0
100
AcDbEntity
  8
RACCORDO
100
AcDbPolyline
 62
250
  6
CONTINUOUS
 90
7
 70
0
 10
141.8334247701
 20
131.4496406225
 10
141.8459724314
 20
131.4581859903
 10
141.8565046632
 20
131.4675950609
 10
141.8648452329
 20
131.4777103951
 10
141.8708545804
 20
131.4883627362
 10
141.874432153
 20
131.499373842
 10
141.8755238
 20
131.5098036781
  0
LWPOLYLINE
  5
2D1
100
AcDbEntity
  8
RACCORDO
100
AcDbPolyline
 62
250
  6
CONTINUOUS
 90
7
 70
0
 10
142.4698208731
 20
130.6101265416
 10
142.482368538
 20
130.6186719122
 10
142.4929007716
 20
130.6280809854
 10
142.5012413415
 20
130.6381963221
 10
142.5072506879
 20
130.6488486654
 10
142.5108282585
 20
130.6598597726
 10
142.5119198764
 20
130.6702379484
  0
LWPOLYLINE
  5
2D2
100
AcDbEntity
  8
RACCORDO
100
AcDbPolyline
 62
250
  6
CONTINUOUS
 90
7
 70
0
 10
142.4698208731
 20
130.2345026543
 10
142.4823685345
 20
130.2430480221
 10
142.4929007663
 20
130.2524570926
 10
142.501241336
 20
130.2625724268
 10
142.5072506835
 20
130.273224768
 10
142.5108282561
 20
130.2842358737
 10
142.5119198938
 20
130.2946352748
  0
LWPOLYLINE
  5
2D3
100
AcDbEntity
  8
SUPERFICI
100
AcDbPolyline
 62
250
  6
CONTINUOUS
 90
16
 70
0
 10
132.1167834643
 20
125.7754603882
 10
132.0805022931
 20
125.7512518624
 10
132.0447035482
 20
125.7230329133
 10
132.0097664946
 20
125.6911025027
 10
131.9760612682
 20
125.6557989129
 10
131.9439449545
 20
125.6174961633
 10
131.9137578056
 20
125.5766000472
 10
131.8858196353
 20
125.5335438333
 10
131.8604264307
 20
125.4887836747
 10
131.8378472166
 20
125.4427937768
 10
131.8183212052
 20
125.396061373
 10
131.8020552626
 20
125.3490815639
 10
131.789221716
 20
125.3023520709
 10
131.7799565287
 20
125.2563679634
 10
131.7743578594
 20
125.2116164139
 10
131.7724850225
 20
125.1685715366
  0
LWPOLYLINE
  5
2D4
100
AcDbEntity
  8
ASSI
100
AcDbPolyline
 62
250
  6
CONTINUOUS
 90
9
 70
0
 10
134.8544773688
 20
127.4984686419
 10
134.868132282
 20
127.5075324563
 10
134.8800795797
 20
127.5173636371
 10
134.8901914202
 20
127.5278552847
 10
134.8983556835
 20
127.538886767
 10
134.9044924109
 20
127.5503447251
 10
134.9085423713
 20
127.5621265774
 10
134.9104538199
 20
127.5741319538
 10
134.9106093847
 20
127.5786294609
  0
LWPOLYLINE
  5
2D5
100
AcDbEntity
  8
ASSI
100
AcDbPolyline
 62
250
  6
CONTINUOUS
 90
7
 70
0
 10
134.8544773688
 20
127.1291576523
 10
134.8680837334
 20
127.1381856503
 10
134.87999877
 20
127.1479782591
 10
134.890094502
 20
127.1584303037
 10
134.8982626983
 20
127.1694298485
 10
134.9044153024
 20
127.1808584569
 10
134.9084859643
 20
127.1925923539
  0
LINE
  5
2D6
100
AcDbEntity
  8
RACCORDO
100
AcDbLine
 62
250
  6
CONTINUOUS
 10
142.3237633775
 20
130.895444258
 11
138.5076068284
 21
128.6794404539
  0
LINE
  5
2D7
100
AcDbEntity
  8
RACCORDO
100
AcDbLine
 62
250
  6
CONTINUOUS
 10
142.4698208731
 20
130.6101265416
 11
138.7454330181
 21
128.4474118971
  0
LINE
  5
2D8
100
AcDbEntity
  8
SUPERFICI
100
AcDbLine
 62
250
  6
CONTINUOUS
 10
134.874268978
 20
126.5513611842
 11
132.470215701
 21
125.1632977979
  0
LINE
  5
2D9
100
AcDbEntity
  8
RACCORDO
100
AcDbLine
 62
250
  6
CONTINUOUS
 10
135.4222767335
 20
124.1120883456
 11
134.874268978
 21
123.7956755358
  0
LINE
  5
2DA
100
AcDbEntity
  8
RACCORDO
100
AcDbLine
 62
250
  6
CONTINUOUS
 10
138.0722452139
 20
127.6882315074
 11
138.9036492046
 21
128.1573310544
  0
LINE
  5
2DB
100
AcDbEntity
  8
ASSI
100
AcDbLine
 62
250
  6
CONTINUOUS
 10
134.874268978
 20
126.0269562719
 11
138.0722452139
 21
127.6882315074
  0
LWPOLYLINE
  5
2DC
100
AcDbEntity
  8
RACCORDO
100
AcDbPolyline
 62
250
  6
CONTINUOUS
 90
4
 70
0
 10
144.7075166123
 20
124.0196833369
 10
144.7405121584
 20
124.0300465166
 10
144.7714924188
 20
124.0361258912
 10
144.8001254618
 20
124.0378563245
  0
LINE
  5
2DD
100
AcDbEntity
  8
SUPERFICI
100
AcDbLine
 62
250
  6
CONTINUOUS
 10
135.2687781034
 20
90.0323882314
 11
134.8818270416
 21
90.2558089248
  0
LINE
  5
2DE
100
AcDbEntity
  8
SUPERFICI
100
AcDbLine
 62
250
  6
CONTINUOUS
 10
135.411592249
 20
90.0470741627
 11
135.0224594853
 21
90.2717545434
  0
LINE
  5
2DF
100
AcDbEntity
  8
RACCORDO
100
AcDbLine
 62
7
  6
CONTINUOUS
 10
135.5046588759
 20
90.0196119214
 11
135.775830124
 21
89.8630410413
  0
LWPOLYLINE
  5
2E0
100
AcDbEntity
  8
SUPERFICI
100
AcDbPolyline
 62
250
  6
CONTINUOUS
 90
9
 70
0
 10
116.7578242452
 20
133.9574179447
 10
116.758940781
 20
133.9381469478
 10
116.7650322049
 20
133.9085863117
 10
116.7763823683
 20
133.8795061702
 10
116.7928649926
 20
133.8512577122
 10
116.8142122041
 20
133.8242437494
 10
116.8401057588
 20
133.7987672399
 10
116.870246077
 20
133.7750414663
 10
116.9042708542
 20
133.7532920549
  0
LINE
  5
2E1
100
AcDbEntity
  8
RACCORDO
100
AcDbLine
 62
250
  6
CONTINUOUS
 10
120.3685062167
 20
112.7312893907
 11
120.4175345301
 21
112.983018367
  0
LWPOLYLINE
  5
2E2
100
AcDbEntity
  8
ASSI
100
AcDbPolyline
 62
7
  6
CONTINUOUS
 90
12
 70
0
 10
125.2532457239
 20
131.8294147697
 10
125.2568274237
 20
131.8459656979
 10
125.2626376019
 20
131.8670335722
 10
125.2700291099
 20
131.8890933251
 10
125.2789990345
 20
131.9118113718
 10
125.2895065691
 20
131.9348463878
 10
125.3013382928
 20
131.957619888
 10
125.3143505967
 20
131.9798222682
 10
125.3283422303
 20
132.0011139325
 10
125.342892022
 20
132.0209405694
 10
125.3577465711
 20
132.039094766
 10
125.3739891306
 20
132.0568042858
  0
LWPOLYLINE
  5
2E3
100
AcDbEntity
  8
RACCORDO
100
AcDbPolyline
 62
250
  6
CONTINUOUS
 90
12
 70
0
 10
120.4175345301
 20
112.983018367
 10
120.4785909261
 20
113.2246325285
 10
120.5515236078
 20
113.4555311774
 10
120.6361512483
 20
113.6751402504
 10
120.7322634373
 20
113.8829137413
 10
120.8396212302
 20
114.078335113
 10
120.9579577486
 20
114.2609185619
 10
121.0869788513
 20
114.4302102122
 10
121.2263637289
 20
114.5857890858
 10
121.3757657001
 20
114.7272682429
 10
121.5348131061
 20
114.8542958295
 10
121.7031106811
 20
114.9665562456
  0
LINE
  5
2E4
100
AcDbEntity
  8
ASSI
100
AcDbLine
 62
250
  6
CONTINUOUS
 10
125.2221699118
 20
131.8665946331
 11
125.2169216892
 21
131.8503878121
  0
LWPOLYLINE
  5
2E5
100
AcDbEntity
  8
ASSI
100
AcDbPolyline
 62
250
  6
CONTINUOUS
 90
9
 70
0
 10
127.6298729648
 20
132.0876199427
 10
127.6289215277
 20
132.084872075
 10
127.6288849953
 20
132.0775799222
 10
127.631849077
 20
132.0690464454
 10
127.6377648753
 20
132.0594124186
 10
127.6465347991
 20
132.0488367718
 10
127.6580141733
 20
132.0374939681
 10
127.6720136263
 20
132.0255711266
 10
127.688302213
 20
132.0132649349
  0
LWPOLYLINE
  5
2E6
100
AcDbEntity
  8
ASSI
100
AcDbPolyline
 62
250
  6
CONTINUOUS
 90
11
 70
0
 10
128.0116852354
 20
132.8974904584
 10
128.0110849897
 20
132.8959902784
 10
128.0103534787
 20
132.890450235
 10
128.0115566441
 20
132.8840775355
 10
128.0146787583
 20
132.8769480452
 10
128.0196809536
 20
132.8691403757
 10
128.0265058048
 20
132.860737839
 10
128.0350692681
 20
132.8518377209
 10
128.0452699477
 20
132.8425384606
 10
128.0569949752
 20
132.8329371449
 10
128.0701144837
 20
132.8231354506
  0
LWPOLYLINE
  5
2E7
100
AcDbEntity
  8
ASSI
100
AcDbPolyline
 62
250
  6
CONTINUOUS
 90
10
 70
0
 10
128.0701144837
 20
132.8231354506
 10
128.0791516194
 20
132.8442187974
 10
128.0897228006
 20
132.8648691954
 10
128.1016850706
 20
132.8848073833
 10
128.1148766603
 20
132.9037637315
 10
128.1291191763
 20
132.9214818875
 10
128.1442200129
 20
132.9377222434
 10
128.1599749573
 20
132.9522651761
 10
128.176170951
 20
132.964914017
 10
128.1925889708
 20
132.9754977122
  0
LWPOLYLINE
  5
2E8
100
AcDbEntity
  8
RACCORDO
100
AcDbPolyline
 62
250
  6
CONTINUOUS
 90
40
 70
0
 10
133.0431510124
 20
132.9075877947
 10
133.0376983836
 20
132.8989948731
 10
133.0326796602
 20
132.8904735612
 10
133.0280784488
 20
132.8820488625
 10
133.0238872158
 20
132.8737689028
 10
133.0200776557
 20
132.8656291079
 10
133.016608711
 20
132.8575704024
 10
133.0134688862
 20
132.8496062347
 10
133.0106478611
 20
132.8417523546
 10
133.0081193656
 20
132.8339490935
 10
133.0058775393
 20
132.8262093123
 10
133.0039173254
 20
132.8185430992
 10
133.0022260967
 20
132.8108858161
 10
133.0008031444
 20
132.803256128
 10
132.999649092
 20
132.7956578352
 10
132.9987676771
 20
132.7880065519
 10
132.9981622049
 20
132.7802954339
 10
132.9978455772
 20
132.7725612034
 10
132.9978465556
 20
132.7647893143
 10
132.9981820609
 20
132.7569220554
 10
132.9988577896
 20
132.7490585548
 10
132.9998689587
 20
132.7414116675
 10
133.0012101411
 20
132.734009972
 10
133.0028635401
 20
132.7268427504
 10
133.0047750062
 20
132.7200420508
 10
133.0069122554
 20
132.7136461775
 10
133.0092620296
 20
132.7076059688
 10
133.0117886314
 20
132.7019106683
 10
133.0144548451
 20
132.6965840077
 10
133.0172604094
 20
132.6915843674
 10
133.0202343269
 20
132.6868113088
 10
133.0233500445
 20
132.6822790572
 10
133.0266162863
 20
132.6779710266
 10
133.0301322781
 20
132.673764724
 10
133.0338835695
 20
132.6696800892
 10
133.037885547
 20
132.6657257923
 10
133.0423010515
 20
132.6617985422
 10
133.0471942362
 20
132.6578993763
 10
133.0525190574
 20
132.6541113686
 10
133.0582809847
 20
132.650478486
  0
LWPOLYLINE
  5
2E9
100
AcDbEntity
  8
RACCORDO
100
AcDbPolyline
 62
250
  6
CONTINUOUS
 90
5
 70
0
 10
140.0166374617
 20
133.4581911232
 10
140.025769596
 20
133.4689293963
 10
140.0320178219
 20
133.4800997356
 10
140.035253212
 20
133.491471649
 10
140.0356137802
 20
133.5007201705
  0
LWPOLYLINE
  5
2EA
100
AcDbEntity
  8
ASSI
100
AcDbPolyline
 62
250
  6
CONTINUOUS
 90
10
 70
0
 10
134.446230563
 20
130.7605776972
 10
134.432485744
 20
130.7445598306
 10
134.4208558044
 20
130.7278732911
 10
134.4114973525
 20
130.7107427503
 10
134.4045364124
 20
130.6933988572
 10
134.4000667309
 20
130.6760751447
 10
134.3981485092
 20
130.6590048852
 10
134.398807589
 20
130.6424179319
 10
134.4020351086
 20
130.6265376247
 10
134.4061457546
 20
130.6151526648
  0
LINE
  5
2EB
100
AcDbEntity
  8
ASSI
100
AcDbLine
 62
250
  6
CONTINUOUS
 10
134.7139553935
 20
126.985033909
 11
134.8544773688
 21
127.1291576523
  0
LINE
  5
2EC
100
AcDbEntity
  8
ASSI
100
AcDbLine
 62
7
  6
CONTINUOUS
 10
134.7381627878
 20
126.9511442038
 11
134.8538087784
 21
127.0697543573
  0
LINE
  5
2ED
100
AcDbEntity
  8
RACCORDO
100
AcDbLine
 62
7
  6
CONTINUOUS
 10
140.0297611178
 20
132.9900406955
 11
139.3765693596
 21
132.3324988829
  0
LWPOLYLINE
  5
2EE
100
AcDbEntity
  8
DRAFT
100
AcDbPolyline
 62
7
  6
CONTINUOUS
 90
3
 70
0
 10
121.1127723371
 20
114.6838501547
 10
121.2846452179
 20
114.8396073483
 10
121.4044225224
 20
114.9293839947
  0
LWPOLYLINE
  5
2EF
100
AcDbEntity
  8
RACCORDO
100
AcDbPolyline
 62
7
  6
CONTINUOUS
 90
9
 70
0
 10
142.4458287458
 20
130.1545609685
 10
142.4593388685
 20
130.1663511705
 10
142.4726861398
 20
130.180941933
 10
142.4843794866
 20
130.1972054649
 10
142.4941899679
 20
130.2149204563
 10
142.5019582498
 20
130.233882897
 10
142.5075592425
 20
130.2538916356
 10
142.5108921779
 20
130.2746731663
 10
142.5119198938
 20
130.2946352748
  0
LINE
  5
2F0
100
AcDbEntity
  8
RACCORDO
100
AcDbLine
 62
250
  6
CONTINUOUS
 10
142.4460726577
 20
130.1547511142
 11
142.448368361
 21
130.1566616742
  0
LINE
  5
2F1
100
AcDbEntity
  8
RACCORDO
100
AcDbLine
 62
250
  6
CONTINUOUS
 10
139.1781576043
 20
127.6493142633
 11
142.4698208731
 21
130.2345026543
  0
LINE
  5
2F2
100
AcDbEntity
  8
RACCORDO
100
AcDbLine
 62
7
  6
CONTINUOUS
 10
139.1915441596
 20
127.5987274252
 11
142.4460731482
 21
130.1547514995
  0
LWPOLYLINE
  5
2F3
100
AcDbEntity
  8
SUPERFICI
100
AcDbPolyline
 62
7
  6
CONTINUOUS
 90
10
 70
0
 10
135.2687781034
 20
121.2732907238
 10
135.2864969054
 20
121.2847646528
 10
135.3038358869
 20
121.2976303402
 10
135.3207950478
 20
121.3118877862
 10
135.3374848155
 20
121.3276531537
 10
135.3537947626
 20
121.3448102797
 10
135.3693936077
 20
121.3630106751
 10
135.3841709236
 20
121.3821381767
 10
135.3982371373
 20
121.4023089477
 10
135.411592249
 20
121.4235229881
  0
LINE
  5
2F4
100
AcDbEntity
  8
SUPERFICI
100
AcDbLine
 62
7
  6
CONTINUOUS
 10
134.874268978
 20
121.0375548769
 11
135.2687781034
 21
121.2732907238
  0
LINE
  5
2F5
100
AcDbEntity
  8
RACCORDO
100
AcDbLine
 62
250
  6
CONTINUOUS
 10
135.775830124
 20
123.4997159105
 11
134.874268978
 21
122.979165804
  0
LINE
  5
2F6
100
AcDbEntity
  8
RACCORDO
100
AcDbLine
 62
250
  6
CONTINUOUS
 10
135.6259819917
 20
121.073728358
 11
134.874268978
 21
120.6397825728
  0
LINE
  5
2F7
100
AcDbEntity
  8
RACCORDO
100
AcDbLine
 62
250
  6
CONTINUOUS
 10
135.5839505188
 20
120.8188334642
 11
134.874268978
 21
120.4091514342
  0
LINE
  5
2F8
100
AcDbEntity
  8
RACCORDO
100
AcDbLine
 62
250
  6
CONTINUOUS
 10
121.7031106811
 20
114.9665562456
 11
121.8549999803
 21
115.0499178872
  0
LWPOLYLINE
  5
2F9
100
AcDbEntity
  8
RACCORDO
100
AcDbPolyline
 62
7
  6
CONTINUOUS
 90
16
 70
0
 10
121.148872121
 20
114.8133617479
 10
121.3309318423
 20
114.9020148931
 10
121.5203554789
 20
114.972559277
 10
121.7165186396
 20
115.0254545939
 10
121.9183537067
 20
115.0611095813
 10
122.1254766213
 20
115.0801124045
 10
122.3382998841
 20
115.0829398174
 10
122.5559313757
 20
115.0698896283
 10
122.7776834567
 20
115.0413183241
 10
123.0044530478
 20
114.9972538925
 10
123.2358012032
 20
114.9377489851
 10
123.470704397
 20
114.8630519713
 10
123.7093794948
 20
114.7730369042
 10
123.9514552744
 20
114.6676889978
 10
124.1958822494
 20
114.5473247102
 10
124.4419192489
 20
114.4122131063
  0
LWPOLYLINE
  5
2FA
100
AcDbEntity
  8
DRAFT
100
AcDbPolyline
 62
7
  6
CONTINUOUS
 90
13
 70
0
 10
128.2927766221
 20
102.4753420363
 10
128.0682620493
 20
102.4145577199
 10
127.8341428283
 20
102.3731025599
 10
127.5928992131
 20
102.3514335031
 10
127.344685291
 20
102.3497562794
 10
127.0893469746
 20
102.3678651588
 10
126.8289022561
 20
102.4055998989
 10
126.5631397033
 20
102.4631522056
 10
126.2922707483
 20
102.540330373
 10
126.0189476792
 20
102.6363990409
 10
125.7440545921
 20
102.7511130892
 10
125.466707391
 20
102.8847176381
 10
125.1869060758
 20
103.0372126875
  0
LWPOLYLINE
  5
2FB
100
AcDbEntity
  8
RACCORDO
100
AcDbPolyline
 62
250
  6
CONTINUOUS
 90
3
 70
0
 10
125.2429034335
 20
102.4515627232
 10
124.964755844
 20
102.5855490564
 10
124.6857609715
 20
102.7377573441
  0
LWPOLYLINE
  5
2FC
100
AcDbEntity
  8
RACCORDO
100
AcDbPolyline
 62
250
  6
CONTINUOUS
 90
61
 70
0
 10
124.3383779384
 20
102.1290097723
 10
124.0537823054
 20
102.3020575272
 10
123.7714136833
 20
102.4907393204
 10
123.4912720721
 20
102.695055152
 10
123.2125731504
 20
102.9156662475
 10
122.9361012395
 20
103.1519113814
 10
122.6642093036
 20
103.4018068766
 10
122.3969625175
 20
103.6654503042
 10
122.1342957063
 20
103.942744093
 10
121.8783663095
 20
104.2314118532
 10
121.6292315026
 20
104.5315456723
 10
121.3868341099
 20
104.8430534628
 10
121.1531600438
 20
105.1633825716
 10
120.9282781611
 20
105.4926116514
 10
120.7121196049
 20
105.8306620495
 10
120.5064637169
 20
106.1747451553
 10
120.3113997294
 20
106.5249099718
 10
120.1268384102
 20
106.8811074959
 10
119.9542914046
 20
107.2404021077
 10
119.7938613349
 20
107.602813218
 10
119.6454455787
 20
107.968321416
 10
119.5102479144
 20
108.333932849
 10
119.3883777407
 20
108.6996443011
 10
119.2797256587
 20
109.0654589881
 10
119.1851672507
 20
109.4283927053
 10
119.1048172559
 20
109.7884191136
 10
119.0385609349
 20
110.145564552
 10
118.9869296514
 20
110.496923832
 10
118.9500411701
 20
110.8424489598
 10
118.9277777263
 20
111.1821879293
 10
118.9203173899
 20
111.513379534
 10
118.9277789161
 20
111.835955143
 10
118.9500435498
 20
112.1499833873
 10
118.9869330949
 20
112.4529089534
 10
119.0385653182
 20
112.7446439147
 10
119.1048224529
 20
113.0252761979
 10
119.1851730025
 20
113.292514269
 10
119.2797316691
 20
113.5462518943
 10
119.3883837506
 20
113.7865953075
 10
119.5102536446
 20
114.0115716754
 10
119.6454507
 20
114.2210579063
 10
119.7938655679
 20
114.4151770921
 10
119.9542945989
 20
114.5923256746
 10
120.126840334
 20
114.7523657841
 10
120.3114002322
 20
114.8954352905
 10
120.5064630218
 20
115.0203442449
 10
120.712118068
 20
115.1269407121
 10
120.9282760057
 20
115.2153766274
 10
121.1531574673
 20
115.2849178475
 10
121.3868313719
 20
115.3354061499
 10
121.6292288005
 20
115.3669997572
 10
121.8783636286
 20
115.3794391932
 10
122.1342928904
 20
115.372566334
 10
122.3969595517
 20
115.3465393035
 10
122.6642063846
 20
115.3015729978
 10
122.9360987057
 20
115.237494554
 10
123.2125711984
 20
115.154476835
 10
123.4912706857
 20
115.0532533253
 10
123.7714127753
 20
114.9340685198
 10
124.0537818595
 20
114.7966779237
 10
124.3383779384
 20
114.6410815369
  0
LWPOLYLINE
  5
2FD
100
AcDbEntity
  8
RACCORDO
100
AcDbPolyline
 62
250
  6
CONTINUOUS
 90
44
 70
0
 10
124.6857609715
 20
102.7377573441
 10
124.4067660953
 20
102.9077253442
 10
124.1286185031
 20
103.0949368776
 10
123.8521629173
 20
103.2988233928
 10
123.5782389223
 20
103.5187656971
 10
123.3076784141
 20
103.754095837
 10
123.041303074
 20
104.0040991268
 10
122.7799218836
 20
104.2680163079
 10
122.524328637
 20
104.5450458861
 10
122.2752995321
 20
104.8343465705
 10
122.0335907455
 20
105.1350399244
 10
121.7999364671
 20
105.4462126174
 10
121.5750466035
 20
105.7669191872
 10
121.3596043042
 20
106.0961853095
 10
121.1542636002
 20
106.433011295
 10
120.9596477766
 20
106.7763747184
 10
120.7763478582
 20
107.1252328535
 10
120.6049205501
 20
107.4785262019
 10
120.4458863034
 20
107.8351822437
 10
120.2997280549
 20
108.1941180937
 10
120.1668898529
 20
108.5542434371
 10
120.047775287
 20
108.9144642466
 10
119.9427461944
 20
109.2736862884
 10
119.8521214782
 20
109.6308188643
 10
119.7761763055
 20
109.9847777752
 10
119.7151413384
 20
110.3344883938
 10
119.6692021009
 20
110.6788882551
 10
119.638498231
 20
111.0169307306
 10
119.6231229695
 20
111.347588906
 10
119.6231229643
 20
111.6698588717
 10
119.638498216
 20
111.9827620961
 10
119.6692020787
 20
112.2853485405
 10
119.7151413127
 20
112.5766989572
 10
119.7761762786
 20
112.8559279556
 10
119.85212145
 20
113.1221873035
 10
119.9427461651
 20
113.3746687433
 10
120.0477752594
 20
113.6126058382
 10
120.1668898316
 20
113.8352761533
 10
120.299728044
 20
114.0420032914
 10
120.4458863055
 20
114.2321592776
 10
120.6049205697
 20
114.4051665748
 10
120.7763478982
 20
114.5604999782
 10
120.9596478316
 20
114.6976879662
 10
121.148872121
 20
114.8133617479
  0
LWPOLYLINE
  5
2FE
100
AcDbEntity
  8
DRAFT
100
AcDbPolyline
 62
7
  6
CONTINUOUS
 90
30
 70
0
 10
125.3424150821
 20
113.7560672619
 10
125.2713289926
 20
113.66411668
 10
125.1884983934
 20
113.5344526119
 10
125.1144542568
 20
113.3938578975
 10
125.0499439906
 20
113.2437517119
 10
124.9950641556
 20
113.0840377215
 10
124.949718191
 20
112.9148122599
 10
124.9143638229
 20
112.7377835036
 10
124.889102248
 20
112.5528724195
 10
124.8738322696
 20
112.3601580408
 10
124.8687080242
 20
112.1615856429
 10
124.8738322696
 20
111.9570958949
 10
124.889102248
 20
111.7467481279
 10
124.9143638229
 20
111.5326656103
 10
124.949718191
 20
111.3148105159
 10
124.9950641556
 20
111.0932206711
 10
125.0499439906
 20
110.8701328227
 10
125.1144542568
 20
110.6455317988
 10
125.1884983934
 20
110.4194327714
 10
125.2713289926
 20
110.1941180036
 10
125.363035045
 20
109.9695954386
 10
125.4635275601
 20
109.7458571332
 10
125.5717921575
 20
109.5251615213
 10
125.6879075543
 20
109.3075394197
 10
125.8117950335
 20
109.0929600115
 10
125.9422040642
 20
108.8835892798
 10
126.0792006977
 20
108.6794799791
 10
126.2227188827
 20
108.4805793548
 10
126.3713099343
 20
108.2888951272
 10
126.5250252312
 20
108.1045003851
  0
LWPOLYLINE
  5
2FF
100
AcDbEntity
  8
RACCORDO
100
AcDbPolyline
 62
250
  6
CONTINUOUS
 90
10
 70
0
 10
142.448368361
 20
130.1566616742
 10
142.4533289393
 20
130.1616469837
 10
142.4577558769
 20
130.1674179919
 10
142.4616443604
 20
130.1740521071
 10
142.4649210654
 20
130.1815467066
 10
142.4675324897
 20
130.1899294596
 10
142.4694390903
 20
130.1993750959
 10
142.4705351329
 20
130.2099734519
 10
142.4706981027
 20
130.2216842339
 10
142.4698208731
 20
130.2345026543
  0
LINE
  5
300
100
AcDbEntity
  8
0
100
AcDbLine
 62
250
  6
CONTINUOUS
 10
146.9114923942
 20
127.2945791694
 11
146.9110447574
 21
127.2942522018
  0
LINE
  5
301
100
AcDbEntity
  8
0
100
AcDbLine
 62
7
  6
CONTINUOUS
 10
146.9110447574
 20
127.2942522018
 11
146.7885610804
 21
127.2048401517
  0
LINE
  5
302
100
AcDbEntity
  8
DRAFT
100
AcDbLine
 62
7
  6
CONTINUOUS
 10
140.3720856673
 20
122.3117607177
 11
145.911811831
 21
125.6702218468
  0
LWPOLYLINE
  5
303
100
AcDbEntity
  8
RACCORDO
100
AcDbPolyline
 62
250
  6
CONTINUOUS
 90
42
 70
0
 10
124.9190560281
 20
113.6516125437
 10
124.831432709
 20
113.5993158493
 10
124.7146488359
 20
113.5152195121
 10
124.6056928288
 20
113.4190192493
 10
124.504933354
 20
113.3110405659
 10
124.4127113635
 20
113.1916488461
 10
124.3293389133
 20
113.061248097
 10
124.2550980878
 20
112.9202795366
 10
124.1902400703
 20
112.7692201127
 10
124.1349843133
 20
112.6085809254
 10
124.0895177995
 20
112.4389055437
 10
124.0539943831
 20
112.2607681284
 10
124.0285342628
 20
112.0747714571
 10
124.0132235801
 20
111.8815448624
 10
124.0081141386
 20
111.6817421403
 10
124.0132232271
 20
111.4760393531
 10
124.0285335583
 20
111.2651325292
 10
124.0539933298
 20
111.0497352888
 10
124.0895164007
 20
110.8305764397
 10
124.1349825734
 20
110.6083975601
 10
124.190237995
 20
110.3839504763
 10
124.2550956839
 20
110.1579946801
 10
124.3293361888
 20
109.9312946898
 10
124.4127083275
 20
109.7046175126
 10
124.5049300159
 20
109.4787301128
 10
124.6056891998
 20
109.2543968496
 10
124.7146449319
 20
109.0323768235
 10
124.8314285554
 20
108.8134212523
 10
124.9556449042
 20
108.5982710293
 10
125.086873612
 20
108.3876542431
 10
125.2246705539
 20
108.1822836616
 10
125.3685695405
 20
107.9828540531
 10
125.5180838624
 20
107.7900399575
 10
125.6727074002
 20
107.6044940744
 10
125.8319171896
 20
107.4268439588
 10
125.9951754734
 20
107.2576897987
 10
126.1619306133
 20
107.0976034846
 10
126.331617737
 20
106.9471276217
 10
126.5036615236
 20
106.8067725116
 10
126.6774794097
 20
106.6770133653
 10
126.8524836195
 20
106.5582889217
 10
127.0280819739
 20
106.4510009113
  0
LINE
  5
304
100
AcDbEntity
  8
RACCORDO
100
AcDbLine
 62
250
  6
CONTINUOUS
 10
134.874268978
 20
119.9583995884
 11
140.3118006443
 21
123.1708648948
  0
LINE
  5
305
100
AcDbEntity
  8
RACCORDO
100
AcDbLine
 62
250
  6
CONTINUOUS
 10
134.874268978
 20
119.8206139894
 11
140.3299866374
 21
123.0433999277
  0
LINE
  5
306
100
AcDbEntity
  8
RACCORDO
100
AcDbLine
 62
250
  6
CONTINUOUS
 10
144.3617337808
 20
124.5435070189
 11
140.3720856673
 21
122.2230281806
  0
LINE
  5
307
100
AcDbEntity
  8
RACCORDO
100
AcDbLine
 62
250
  6
CONTINUOUS
 10
144.6369115649
 20
123.9865944089
 11
140.3720856673
 21
121.5121222261
  0
LWPOLYLINE
  5
308
100
AcDbEntity
  8
RACCORDO
100
AcDbPolyline
 62
250
  6
CONTINUOUS
 90
3
 70
0
 10
144.6369115649
 20
123.9865944089
 10
144.6728593048
 20
124.0051473868
 10
144.7075166123
 20
124.0196833369
  0
LWPOLYLINE
  5
309
100
AcDbEntity
  8
RACCORDO
100
AcDbPolyline
 62
250
  6
CONTINUOUS
 90
5
 70
0
 10
126.2387614658
 20
102.7305737417
 10
125.9950875694
 20
102.8216588493
 10
125.7495830649
 20
102.9278882415
 10
125.5028563385
 20
103.0489974413
 10
125.2555207896
 20
103.1846843107
  0
LWPOLYLINE
  5
30A
100
AcDbEntity
  8
RACCORDO
100
AcDbPolyline
 62
250
  6
CONTINUOUS
 90
36
 70
0
 10
125.2555207896
 20
103.1846843107
 10
125.0081794286
 20
103.3346180242
 10
124.7614486626
 20
103.4984257994
 10
124.5159419019
 20
103.6757011268
 10
124.2722681329
 20
103.8660051425
 10
124.0310347349
 20
104.0688643756
 10
123.7928458104
 20
104.2837711911
 10
123.5582946199
 20
104.5101901971
 10
123.3279632019
 20
104.7475594125
 10
123.1024250855
 20
104.9952876743
 10
122.8822417447
 20
105.2527579745
 10
122.6679596673
 20
105.5193309813
 10
122.4601100323
 20
105.7943458555
 10
122.2592088999
 20
106.0771200151
 10
122.0657566019
 20
106.3669494772
 10
121.8802349018
 20
106.6631125097
 10
121.7031053436
 20
106.9648721887
 10
121.5348079061
 20
107.2714788315
 10
121.3757607095
 20
107.5821706771
 10
121.226359075
 20
107.8961755397
 10
121.0869745805
 20
108.2127125159
 10
120.9579538492
 20
108.5309944505
 10
120.8396176726
 20
108.8502299614
 10
120.7322602189
 20
109.1696254487
 10
120.6361483828
 20
109.4883868769
 10
120.5515211122
 20
109.8057217606
 10
120.4785888084
 20
110.1208411386
 10
120.4175327931
 20
110.4329615726
 10
120.3685048618
 20
110.7413070801
 10
120.3316269075
 20
111.0451110567
 10
120.3069906159
 20
111.3436181856
 10
120.2946572365
 20
111.6360863203
 10
120.294657431
 20
111.9217883405
 10
120.306991199
 20
112.2000139517
 10
120.3316278777
 20
112.4700714402
 10
120.3685062167
 20
112.7312893907
  0
LWPOLYLINE
  5
30B
100
AcDbEntity
  8
DRAFT
100
AcDbPolyline
 62
7
  6
CONTINUOUS
 90
41
 70
0
 10
125.1869060758
 20
103.0372126875
 10
124.9071047606
 20
103.2078251834
 10
124.6297575595
 20
103.3944942305
 10
124.3548644724
 20
103.5972198286
 10
124.0815414033
 20
103.8167777898
 10
123.8106724483
 20
104.0523923021
 10
123.5449098955
 20
104.3017359298
 10
123.2844651769
 20
104.5647562224
 10
123.0291268606
 20
104.8415056304
 10
122.7809129385
 20
105.1298140697
 10
122.5396693233
 20
105.4300652064
 10
122.3055501022
 20
105.7418753744
 10
122.0810355295
 20
106.0619234918
 10
121.8664599537
 20
106.3899051355
 10
121.6614890263
 20
106.7261247286
 10
121.4675999546
 20
107.0681744581
 10
121.2846452179
 20
107.41657601
 10
121.1127723371
 20
107.7708076982
 10
120.9539010824
 20
108.1268966523
 10
120.8083736411
 20
108.4843210144
 10
120.6758478261
 20
108.8436026422
 10
120.5572168458
 20
109.2023342389
 10
120.4524295287
 20
109.5610935443
 10
120.3615370464
 20
109.9193028185
 10
120.2855861224
 20
110.2728215452
 10
120.2248263064
 20
110.6210098641
 10
120.1790080488
 20
110.9645076354
 10
120.1484294243
 20
111.3010939235
 10
120.1331897912
 20
111.6312868765
 10
120.1331897912
 20
111.9545683463
 10
120.1484294243
 20
112.2671629529
 10
120.1790080488
 20
112.568437812
 10
120.2248263064
 20
112.8590258079
 10
120.2855861224
 20
113.1370502142
 10
120.3615370464
 20
113.4028627177
 10
120.4524295287
 20
113.6561116316
 10
120.5572168458
 20
113.8938651698
 10
120.6758478261
 20
114.1156046841
 10
120.8083736411
 20
114.3218488226
 10
120.9539010824
 20
114.5112217432
 10
121.1127723371
 20
114.6838501547
  0
LINE
  5
30C
100
AcDbEntity
  8
SUPERFICI
100
AcDbLine
 62
7
  6
CONTINUOUS
 10
124.5435518209
 20
132.9242830429
 11
124.5435518209
 21
132.2391831347
  0
LINE
  5
30D
100
AcDbEntity
  8
ASSI
100
AcDbLine
 62
250
  6
CONTINUOUS
 10
125.6781345866
 20
132.7967739577
 11
125.6781345866
 21
132.4274629682
  0
LINE
  5
30E
100
AcDbEntity
  8
ASSI
100
AcDbLine
 62
7
  6
CONTINUOUS
 10
125.7342666265
 20
132.8769913651
 11
125.7342666265
 21
132.5076803756
  0
LWPOLYLINE
  5
30F
100
AcDbEntity
  8
ASSI
100
AcDbPolyline
 62
250
  6
CONTINUOUS
 90
9
 70
0
 10
125.7342666265
 20
132.5076803756
 10
125.734098871
 20
132.5029516436
 10
125.7321703403
 20
132.4910047691
 10
125.728113137
 20
132.4792559573
 10
125.7219735759
 20
132.4678193029
 10
125.7138118358
 20
132.4568062884
 10
125.7037093361
 20
132.4463326701
 10
125.6917748061
 20
132.4365159394
 10
125.6781345866
 20
132.4274629682
  0
LWPOLYLINE
  5
310
100
AcDbEntity
  8
ASSI
100
AcDbPolyline
 62
250
  6
CONTINUOUS
 90
9
 70
0
 10
125.7342666165
 20
132.8769548382
 10
125.7340987145
 20
132.8722604288
 10
125.7321748305
 20
132.8603335334
 10
125.7281183512
 20
132.8485788039
 10
125.7219709101
 20
132.8371261078
 10
125.7137998761
 20
132.8261032091
 10
125.7036946804
 20
132.8156301669
 10
125.6917633822
 20
132.8058185005
 10
125.6781345866
 20
132.7967739577
  0
LWPOLYLINE
  5
311
100
AcDbEntity
  8
ASSI
100
AcDbPolyline
 62
250
  6
CONTINUOUS
 90
13
 70
0
 10
129.3558479324
 20
132.6652596376
 10
129.361437769
 20
132.689417541
 10
129.3646648356
 20
132.7143614455
 10
129.3654771918
 20
132.7396899228
 10
129.3638617588
 20
132.7649953443
 10
129.3598445286
 20
132.7898704704
 10
129.3534901368
 20
132.8139150022
 10
129.3449008324
 20
132.8367419764
 10
129.3342148346
 20
132.857984016
 10
129.3216040951
 20
132.8772992656
 10
129.3072715466
 20
132.8943768585
 10
129.291447843
 20
132.9089419252
 10
129.274387637
 20
132.9207600342
  0
LWPOLYLINE
  5
312
100
AcDbEntity
  8
ASSI
100
AcDbPolyline
 62
250
  6
CONTINUOUS
 90
13
 70
0
 10
130.9374074133
 20
132.7036220324
 10
130.9429972839
 20
132.7277801376
 10
130.9462243438
 20
132.7527242308
 10
130.9470366584
 20
132.7780528735
 10
130.9454211547
 20
132.8033584385
 10
130.9414038317
 20
132.8282336698
 10
130.9350493424
 20
132.8522782371
 10
130.9264599529
 20
132.8751051785
 10
130.9157738969
 20
132.8963471278
 10
130.9031631508
 20
132.9156622271
 10
130.8888306659
 20
132.9327396283
 10
130.8730071026
 20
132.9473044957
 10
130.8559471179
 20
132.959122429
  0
LWPOLYLINE
  5
313
100
AcDbEntity
  8
ASSI
100
AcDbPolyline
 62
250
  6
CONTINUOUS
 90
13
 70
0
 10
131.9840086571
 20
132.8818971787
 10
131.9784186099
 20
132.8577380924
 10
131.9751915809
 20
132.8327931775
 10
131.9743794491
 20
132.8074639256
 10
131.9759952246
 20
132.7821580097
 10
131.9800128428
 20
132.7572826855
 10
131.9863675983
 20
132.7332382397
 10
131.9949571716
 20
132.7104116188
 10
132.0056432864
 20
132.6891701426
 10
132.0182539629
 20
132.6698555724
 10
132.0325862473
 20
132.6527786969
 10
132.0484094624
 20
132.6382143179
 10
132.0654689526
 20
132.6263967821
  0
LWPOLYLINE
  5
314
100
AcDbEntity
  8
ASSI
100
AcDbPolyline
 62
250
  6
CONTINUOUS
 90
16
 70
0
 10
131.5352829601
 20
129.7920664655
 10
131.5313242364
 20
129.7770997107
 10
131.5267336343
 20
129.7626631657
 10
131.5215924361
 20
129.7488193675
 10
131.5159884105
 20
129.7356367485
 10
131.5099879994
 20
129.7231375911
 10
131.5036294899
 20
129.7113034213
 10
131.4970303818
 20
129.7002447579
 10
131.4901969342
 20
129.6898889057
 10
131.4829644441
 20
129.6799718047
 10
131.4753948356
 20
129.670559145
 10
131.4674896432
 20
129.6616741672
 10
131.458950645
 20
129.6530850532
 10
131.4496884381
 20
129.6448220841
 10
131.4398470688
 20
129.6371098179
 10
131.4294740216
 20
129.630081725
  0
LWPOLYLINE
  5
315
100
AcDbEntity
  8
ASSI
100
AcDbPolyline
 62
250
  6
CONTINUOUS
 90
14
 70
0
 10
132.0203449569
 20
134.1147878826
 10
132.0254550031
 20
134.1323378301
 10
132.0325305049
 20
134.1497349314
 10
132.0414939388
 20
134.1667885847
 10
132.0522471035
 20
134.1833119581
 10
132.064672188
 20
134.1991240216
 10
132.0786330586
 20
134.2140515315
 10
132.0939767571
 20
134.2279309391
 10
132.110535174
 20
134.2406101783
 10
132.1281268928
 20
134.2519503336
 10
132.1465591782
 20
134.2618271617
 10
132.1656300838
 20
134.2701324497
 10
132.1851306642
 20
134.2767752017
 10
132.2048472671
 20
134.2816826375
  0
LINE
  5
316
100
AcDbEntity
  8
ASSI
100
AcDbLine
 62
250
  6
CONTINUOUS
 10
131.8066686775
 20
130.6656958892
 11
131.5352836834
 21
129.7920660479
  0
LINE
  5
317
100
AcDbEntity
  8
ASSI
100
AcDbLine
 62
250
  6
CONTINUOUS
 10
132.0724730557
 20
130.5890872094
 11
131.8010880616
 21
129.7154573681
  0
LWPOLYLINE
  5
318
100
AcDbEntity
  8
ASSI
100
AcDbPolyline
 62
250
  6
CONTINUOUS
 90
16
 70
0
 10
131.8010880616
 20
129.7154573681
 10
131.791095275
 20
129.6864000559
 10
131.7802604788
 20
129.658554485
 10
131.7685836731
 20
129.6319206556
 10
131.7559495259
 20
129.606464534
 10
131.7424733692
 20
129.5822201538
 10
131.7285011988
 20
129.5592896157
 10
131.7142032916
 20
129.5378316566
 10
131.6994093708
 20
129.5176875395
 10
131.683954602
 20
129.4984831544
 10
131.6679401414
 20
129.4801357286
 10
131.6512648328
 20
129.4627280347
 10
131.6334603732
 20
129.4461342799
 10
131.6143706615
 20
129.4303125332
 10
131.5941517988
 20
129.4153047257
 10
131.5728037851
 20
129.4011108573
  0
LWPOLYLINE
  5
319
100
AcDbEntity
  8
RACCORDO
100
AcDbPolyline
 62
250
  6
CONTINUOUS
 90
3
 70
0
 10
146.0690872395
 20
125.7828563016
 10
145.9668787306
 20
125.7055945721
 10
145.911811831
 20
125.6702218468
  0
LWPOLYLINE
  5
31A
100
AcDbEntity
  8
RACCORDO
100
AcDbPolyline
 62
7
  6
CONTINUOUS
 90
10
 70
0
 10
141.1441015007
 20
98.511876019
 10
141.1263625301
 20
98.5209349279
 10
141.1066442196
 20
98.5284449385
 10
141.0864476505
 20
98.5335847944
 10
141.0660602173
 20
98.5363039788
 10
141.0457320612
 20
98.5366081778
 10
141.0257366343
 20
98.5345339437
 10
141.0063864366
 20
98.5301753378
 10
140.9879707156
 20
98.5236827212
 10
140.9734448416
 20
98.5167434105
  0
LWPOLYLINE
  5
31B
100
AcDbEntity
  8
RACCORDO
100
AcDbPolyline
 62
7
  6
CONTINUOUS
 90
9
 70
0
 10
142.168830031
 20
98.0785955287
 10
142.152429433
 20
98.0870444691
 10
142.1328123552
 20
98.0946827529
 10
142.1127085848
 20
98.0999643215
 10
142.0924109158
 20
98.1028384691
 10
142.0721667693
 20
98.1033127227
 10
142.0522451833
 20
98.1014282425
 10
142.0329570553
 20
98.0972770577
 10
142.0182896682
 20
98.0924695101
  0
LWPOLYLINE
  5
31C
100
AcDbEntity
  8
DRAFT
100
AcDbPolyline
 62
7
  6
CONTINUOUS
 90
11
 70
0
 10
127.8739118443
 20
106.9564199449
 10
128.0496230213
 20
106.8610019422
 10
128.2235724103
 20
106.7781381041
 10
128.3957600112
 20
106.7078284306
 10
128.566755243
 20
106.6499203194
 10
128.7359886868
 20
106.6045663728
 10
128.9017520855
 20
106.5722243975
 10
129.064010294
 20
106.5530261808
 10
129.2227984574
 20
106.5468399353
 10
129.3765137543
 20
106.5537281056
 10
129.4908070192
 20
106.5691847822
  0
LWPOLYLINE
  5
31D
100
AcDbEntity
  8
RACCORDO
100
AcDbPolyline
 62
250
  6
CONTINUOUS
 90
15
 70
0
 10
127.0280819739
 20
106.4510009113
 10
127.2036794017
 20
106.3555128162
 10
127.378682667
 20
106.2721471401
 10
127.5524996008
 20
106.201185976
 10
127.7245423243
 20
106.1428693588
 10
127.8942284019
 20
106.0973947471
 10
128.0609828545
 20
106.0649161456
 10
128.2242409931
 20
106.045543306
 10
128.383450959
 20
106.0393414763
 10
128.5380747268
 20
106.0463315095
 10
128.6875892672
 20
106.0664897562
 10
128.8314885205
 20
106.0997479823
 10
128.9692857219
 20
106.1459936786
 10
129.1005146606
 20
106.2050704045
 10
129.18981656
 20
106.2549148742
  0
LWPOLYLINE
  5
31E
100
AcDbEntity
  8
RACCORDO
100
AcDbPolyline
 62
250
  6
CONTINUOUS
 90
23
 70
0
 10
126.4705453354
 20
105.7961014833
 10
126.6527886333
 20
105.6966767389
 10
126.8344813421
 20
105.6091531504
 10
127.0150716489
 20
105.5337970794
 10
127.1940124581
 20
105.4708375052
 10
127.3707587813
 20
105.4204668754
 10
127.5447695849
 20
105.3828395132
 10
127.71551492
 20
105.3580695509
 10
127.8824779003
 20
105.3462315028
 10
128.0451520931
 20
105.3473610299
 10
128.2030432569
 20
105.3614544781
 10
128.3556722527
 20
105.38846885
 10
128.5025768803
 20
105.4283223172
 10
128.6433115778
 20
105.4808942674
 10
128.7774481694
 20
105.5460250287
 10
128.9045785424
 20
105.6235164905
 10
129.0243163593
 20
105.7131330222
 10
129.1362983367
 20
105.814602578
 10
129.2401846201
 20
105.9276171694
 10
129.3356597639
 20
106.0518336694
 10
129.4224337404
 20
106.1868747808
 10
129.5002430143
 20
106.3323303993
 10
129.54369122
 20
106.4307600175
  0
LWPOLYLINE
  5
31F
100
AcDbEntity
  8
RACCORDO
100
AcDbPolyline
 62
250
  6
CONTINUOUS
 90
12
 70
0
 10
142.1105941185
 20
98.0792491205
 10
142.10418733
 20
98.0828364324
 10
142.0975613767
 20
98.0861511437
 10
142.0907284747
 20
98.0891497061
 10
142.0836987032
 20
98.0917880259
 10
142.0764948533
 20
98.0940184902
 10
142.0691524808
 20
98.0957928506
 10
142.061693664
 20
98.0970661971
 10
142.0541474442
 20
98.0977924538
 10
142.0465637846
 20
98.0979279193
 10
142.0389813633
 20
98.0974331812
 10
142.0314295346
 20
98.0962696557
  0
LWPOLYLINE
  5
320
100
AcDbEntity
  8
RACCORDO
100
AcDbPolyline
 62
250
  6
CONTINUOUS
 90
13
 70
0
 10
141.0709799914
 20
98.5054771071
 10
141.0637889757
 20
98.5095173455
 10
141.0565007502
 20
98.5131632045
 10
141.0491362452
 20
98.5163831346
 10
141.0417510345
 20
98.5191343595
 10
141.0343359549
 20
98.5214018728
 10
141.0268210956
 20
98.5231749429
 10
141.0191974417
 20
98.5244064538
 10
141.0115463061
 20
98.5250317911
 10
141.0039402242
 20
98.5250005442
 10
140.9964221542
 20
98.5242698935
 10
140.9890362664
 20
98.5227987589
 10
140.981855763
 20
98.5205580644
  0
LINE
  5
321
100
AcDbEntity
  8
RACCORDO
100
AcDbLine
 62
250
  6
CONTINUOUS
 10
140.6192758683
 20
98.3262836364
 11
140.4323824693
 21
98.4341935427
  0
LINE
  5
322
100
AcDbEntity
  8
RACCORDO
100
AcDbLine
 62
7
  6
CONTINUOUS
 10
140.6628737225
 20
98.3497291515
 11
140.4323824693
 21
98.4828119124
  0
LINE
  5
323
100
AcDbEntity
  8
RACCORDO
100
AcDbLine
 62
250
  6
CONTINUOUS
 10
141.8778601114
 20
98.0395946384
 11
141.0709799914
 21
98.5054771071
  0
LINE
  5
324
100
AcDbEntity
  8
RACCORDO
100
AcDbLine
 62
7
  6
CONTINUOUS
 10
141.9288268131
 20
98.0587854733
 11
141.1441325079
 21
98.5118581306
  0
LINE
  5
325
100
AcDbEntity
  8
RACCORDO
100
AcDbLine
 62
250
  6
CONTINUOUS
 10
142.3433655092
 20
97.9448498368
 11
142.1105941185
 21
98.0792491205
  0
LINE
  5
326
100
AcDbEntity
  8
RACCORDO
100
AcDbLine
 62
7
  6
CONTINUOUS
 10
142.401660022
 20
97.9441626224
 11
142.1688886311
 21
98.0785619062
  0
LINE
  5
327
100
AcDbEntity
  8
RACCORDO
100
AcDbLine
 62
250
  6
CONTINUOUS
 10
142.3557519251
 20
97.9371712232
 11
142.3433655092
 21
97.9448498368
  0
LWPOLYLINE
  5
328
100
AcDbEntity
  8
DRAFT
100
AcDbPolyline
 62
7
  6
CONTINUOUS
 90
9
 70
0
 10
126.5250252312
 20
108.1045003851
 10
126.6838133946
 20
107.9273220397
 10
126.846071603
 20
107.7591485444
 10
127.0118350018
 20
107.6000711019
 10
127.1810684456
 20
107.4499985095
 10
127.3520636774
 20
107.3104456131
 10
127.5242512783
 20
107.1819173611
 10
127.6982006673
 20
107.063908805
 10
127.8739118443
 20
106.9564199449
  0
LINE
  5
329
100
AcDbEntity
  8
RACCORDO
100
AcDbLine
 62
250
  6
CONTINUOUS
 10
135.6181128754
 20
91.330771812
 11
135.6259819917
 21
91.3171421027
  0
LINE
  5
32A
100
AcDbEntity
  8
DRAFT
100
AcDbLine
 62
7
  6
CONTINUOUS
 10
127.6700858131
 20
132.2530027097
 11
127.6700858131
 21
132.1729163115
  0
LINE
  5
32B
100
AcDbEntity
  8
ASSI
100
AcDbLine
 62
250
  6
CONTINUOUS
 10
129.191765978
 20
132.6584947753
 11
129.1914409324
 21
132.652636652
  0
LINE
  5
32C
100
AcDbEntity
  8
ASSI
100
AcDbLine
 62
250
  6
CONTINUOUS
 10
132.0172563587
 20
134.0972773738
 11
132.0203449569
 21
134.1147878826
  0
LWPOLYLINE
  5
32D
100
AcDbEntity
  8
ASSI
100
AcDbPolyline
 62
250
  6
CONTINUOUS
 90
13
 70
0
 10
132.2986873616
 20
130.6993664286
 10
132.3034610735
 20
130.7231716806
 10
132.3059717385
 20
130.7476168421
 10
132.3061809644
 20
130.7723283887
 10
132.304085525
 20
130.796928721
 10
132.2997174112
 20
130.8210419242
 10
132.2931433462
 20
130.8442995132
 10
132.2844637617
 20
130.8663460848
 10
132.2738112681
 20
130.8868447271
 10
132.2613486379
 20
130.9054821636
 10
132.2472663049
 20
130.9219735712
 10
132.2317794482
 20
130.9360669281
 10
132.2151247165
 20
130.9475468484
  0
LWPOLYLINE
  5
32E
100
AcDbEntity
  8
ASSI
100
AcDbPolyline
 62
250
  6
CONTINUOUS
 90
5
 70
0
 10
136.8673584207
 20
132.0901820234
 10
136.8719980931
 20
132.1021919266
 10
136.8783827999
 20
132.1137926458
 10
136.8864165246
 20
132.1248306616
 10
136.8959946358
 20
132.1351968591
  0
LWPOLYLINE
  5
32F
100
AcDbEntity
  8
ASSI
100
AcDbPolyline
 62
250
  6
CONTINUOUS
 90
4
 70
0
 10
136.8673597646
 20
132.0692455787
 10
136.8710068982
 20
132.0782618904
 10
136.8791475895
 20
132.090488502
 10
136.8902454388
 20
132.1022157201
  0
LINE
  5
330
100
AcDbEntity
  8
RACCORDO
100
AcDbLine
 62
7
  6
CONTINUOUS
 10
135.411592249
 20
121.4235229881
 11
135.775830124
 21
122.0355169101
  0
LINE
  5
331
100
AcDbEntity
  8
ASSI
100
AcDbLine
 62
7
  6
CONTINUOUS
 10
129.1914409324
 20
132.652636652
 11
129.1914467479
 21
132.6525734922
  0
LINE
  5
332
100
AcDbEntity
  8
ASSI
100
AcDbLine
 62
250
  6
CONTINUOUS
 10
129.3655371991
 20
132.5585212765
 11
129.3558479324
 21
132.6652596376
  0
LWPOLYLINE
  5
333
100
AcDbEntity
  8
SUPERFICI
100
AcDbPolyline
 62
250
  6
CONTINUOUS
 90
9
 70
0
 10
131.7724850225
 20
83.0167992543
 10
131.7743578594
 20
82.9759170821
 10
131.7799565287
 20
82.9376307355
 10
131.789221716
 20
82.9023458341
 10
131.8020552626
 20
82.870436199
 10
131.8183212052
 20
82.8422398927
 10
131.8378472166
 20
82.8180556374
 10
131.8604264307
 20
82.79813965
 10
131.8760263331
 20
82.7879308238
  0
LINE
  5
334
100
AcDbEntity
  8
SUPERFICI
100
AcDbLine
 62
250
  6
CONTINUOUS
 10
131.7724850225
 20
125.1685715366
 11
131.7724850225
 21
83.0167992543
  0
LINE
  5
335
100
AcDbEntity
  8
ASSI
100
AcDbLine
 62
7
  6
CONTINUOUS
 10
131.9877835915
 20
134.1759742158
 11
131.9877835915
 21
134.0437060092
  0
LINE
  5
336
100
AcDbEntity
  8
SUPERFICI
100
AcDbLine
 62
250
  6
CONTINUOUS
 10
132.470215701
 20
125.1632977979
 11
132.470215701
 21
83.0115255156
  0
LINE
  5
337
100
AcDbEntity
  8
ASSI
100
AcDbLine
 62
250
  6
CONTINUOUS
 10
132.0154596759
 20
134.0534073346
 11
132.016223035
 21
134.0799981735
  0
LWPOLYLINE
  5
338
100
AcDbEntity
  8
ASSI
100
AcDbPolyline
 62
7
  6
CONTINUOUS
 90
22
 70
0
 10
131.9877835957
 20
134.1759742158
 10
131.9894209256
 20
134.2072792703
 10
131.9944660085
 20
134.2390198789
 10
132.0030866651
 20
134.270849282
 10
132.0153787206
 20
134.3023564375
 10
132.0314085329
 20
134.3332110581
 10
132.0512988764
 20
134.3632128519
 10
132.0752804752
 20
134.3922346273
 10
132.1032269521
 20
134.4197228383
 10
132.134680784
 20
134.4450517042
 10
132.1698261677
 20
134.4682433816
 10
132.2083846473
 20
134.4889630336
 10
132.2488646319
 20
134.5064930054
 10
132.2906471367
 20
134.5208398164
 10
132.3338531713
 20
134.5322423798
 10
132.377751504
 20
134.5406546471
 10
132.4218528548
 20
134.5461543957
 10
132.4661459649
 20
134.5488649477
 10
132.5104826803
 20
134.5488322161
 10
132.554655412
 20
134.5460666549
 10
132.5984260274
 20
134.5405582587
 10
132.64156272
 20
134.5322766775
  0
LINE
  5
339
100
AcDbEntity
  8
ASSI
100
AcDbLine
 62
250
  6
CONTINUOUS
 10
132.0162230518
 20
134.0799981533
 11
132.0172563587
 21
134.0972773738
  0
LWPOLYLINE
  5
33A
100
AcDbEntity
  8
ASSI
100
AcDbPolyline
 62
250
  6
CONTINUOUS
 90
13
 70
0
 10
134.3723910138
 20
134.5412941448
 10
134.3749865682
 20
134.5649737279
 10
134.3752769723
 20
134.5894437531
 10
134.3732575715
 20
134.6143120225
 10
134.3689607319
 20
134.6391799555
 10
134.3624553219
 20
134.663648977
 10
134.3538456079
 20
134.6873269052
 10
134.3432695835
 20
134.7098342376
 10
134.3308967579
 20
134.730810234
 10
134.3169254386
 20
134.7499186975
 10
134.3015795536
 20
134.7668533637
 10
134.2851050618
 20
134.781342809
 10
134.267766011
 20
134.7931548011
  0
LWPOLYLINE
  5
33B
100
AcDbEntity
  8
ASSI
100
AcDbPolyline
 62
250
  6
CONTINUOUS
 90
3
 70
0
 10
134.9084859643
 20
127.1925923539
 10
134.9104314537
 20
127.204504758
 10
134.9106094088
 20
127.2093750597
  0
LWPOLYLINE
  5
33C
100
AcDbEntity
  8
ASSI
100
AcDbPolyline
 62
250
  6
CONTINUOUS
 90
10
 70
0
 10
134.3430160886
 20
130.8057179796
 10
134.3395904505
 20
130.7875493085
 10
134.3375427931
 20
130.7694524719
 10
134.3368913996
 20
130.7515890401
 10
134.3376420886
 20
130.7341184991
 10
134.3397881581
 20
130.7171968281
 10
134.3433104464
 20
130.7009751064
 10
134.3481775072
 20
130.6855981637
 10
134.3543458897
 20
130.6712032868
 10
134.3617605231
 20
130.6579189954
  0
LWPOLYLINE
  5
33D
100
AcDbEntity
  8
RACCORDO
100
AcDbPolyline
 62
7
  6
CONTINUOUS
 90
7
 70
0
 10
129.18981656
 20
106.2549148742
 10
129.2637022529
 20
106.3058671345
 10
129.3328625143
 20
106.3662987741
 10
129.397547793
 20
106.4364015818
 10
129.4574196671
 20
106.5156762737
 10
129.5125024752
 20
106.6039551793
 10
129.5189649471
 20
106.6164585004
  0
LINE
  5
33E
100
AcDbEntity
  8
RACCORDO
100
AcDbLine
 62
250
  6
CONTINUOUS
 10
128.8696854686
 20
102.903821115
 11
128.8079308981
 21
102.8626286393
  0
LINE
  5
33F
100
AcDbEntity
  8
DRAFT
100
AcDbLine
 62
7
  6
CONTINUOUS
 10
142.739061061
 20
111.6068778842
 11
146.8416915185
 21
114.0940991857
  0
LINE
  5
340
100
AcDbEntity
  8
RACCORDO
100
AcDbLine
 62
250
  6
CONTINUOUS
 10
144.9324663289
 20
112.8936360019
 11
143.1877760937
 21
111.8789115464
  0
LINE
  5
341
100
AcDbEntity
  8
0
100
AcDbLine
 62
7
  6
CONTINUOUS
 10
140.4594893802
 20
109.3653745771
 11
139.0452758178
 21
108.5488253904
  0
LWPOLYLINE
  5
342
100
AcDbEntity
  8
RACCORDO
100
AcDbPolyline
 62
250
  6
CONTINUOUS
 90
14
 70
0
 10
128.3110435197
 20
102.4089161938
 10
128.217258284
 20
102.3549266186
 10
128.0119175849
 20
102.2552229402
 10
127.7964752964
 20
102.174744194
 10
127.571585454
 20
102.1137348106
 10
127.337931204
 20
102.0723802272
 10
127.0962224358
 20
102.0508061219
 10
126.8471933272
 20
102.0490780038
 10
126.5916000643
 20
102.0672011003
 10
126.3302188607
 20
102.1051203681
 10
126.0638435177
 20
102.1627206455
 10
125.7932830105
 20
102.239826999
 10
125.5193590175
 20
102.3362052579
 10
125.2429034335
 20
102.4515627232
  0
LWPOLYLINE
  5
343
100
AcDbEntity
  8
RACCORDO
100
AcDbPolyline
 62
250
  6
CONTINUOUS
 90
13
 70
0
 10
128.8079308981
 20
102.8626286393
 10
128.6308011136
 20
102.7654142226
 10
128.445278901
 20
102.6834873687
 10
128.251825956
 20
102.6170521517
 10
128.0509244274
 20
102.5662740884
 10
127.8430750282
 20
102.5312793743
 10
127.6287935134
 20
102.5121544969
 10
127.4086103982
 20
102.5089468545
 10
127.1830718164
 20
102.521664821
 10
126.9527395247
 20
102.550277127
 10
126.7181873127
 20
102.5947126591
 10
126.4799967046
 20
102.6548614459
 10
126.2387614658
 20
102.7305737417
  0
LWPOLYLINE
  5
344
100
AcDbEntity
  8
DRAFT
100
AcDbPolyline
 62
7
  6
CONTINUOUS
 90
3
 70
0
 10
128.5357536941
 20
102.5693276231
 10
128.5073521978
 20
102.5555371837
 10
128.2927766221
 20
102.4753420363
  0
LINE
  5
345
100
AcDbEntity
  8
0
100
AcDbLine
 62
7
  6
CONTINUOUS
 10
145.8135035573
 20
113.4019160117
 11
145.4808706958
 21
113.244207998
  0
LWPOLYLINE
  5
346
100
AcDbEntity
  8
RACCORDO
100
AcDbPolyline
 62
7
  6
CONTINUOUS
 90
7
 70
0
 10
125.3956040978
 20
113.7554862272
 10
125.346652526
 20
113.7563244672
 10
125.2512969623
 20
113.7505365548
 10
125.1607037549
 20
113.7372311191
 10
125.0749998894
 20
113.7163291458
 10
124.9945370919
 20
113.6878352466
 10
124.9190560281
 20
113.6516125437
  0
LWPOLYLINE
  5
347
100
AcDbEntity
  8
RACCORDO
100
AcDbPolyline
 62
250
  6
CONTINUOUS
 90
52
 70
0
 10
125.2488968097
 20
113.8708120463
 10
125.2255757507
 20
113.8741952237
 10
125.0586127704
 20
113.8860332718
 10
124.8959385776
 20
113.8849037447
 10
124.7380474138
 20
113.8708102965
 10
124.585418418
 20
113.8437959246
 10
124.4385137904
 20
113.8039424574
 10
124.2977790929
 20
113.7513705072
 10
124.1636425013
 20
113.6862397459
 10
124.0365121283
 20
113.6087482841
 10
123.9167743115
 20
113.5191317524
 10
123.804792334
 20
113.4176621966
 10
123.7009060506
 20
113.3046476052
 10
123.6054309068
 20
113.1804311052
 10
123.5186569303
 20
113.0453899938
 10
123.4408476564
 20
112.8999343753
 10
123.3722393793
 20
112.7445059423
 10
123.3130404868
 20
112.5795767504
 10
123.2634308045
 20
112.4056478081
 10
123.2235610011
 20
112.2232474516
 10
123.1935521126
 20
112.0329295318
 10
123.1734952444
 20
111.8352718375
 10
123.1634513206
 20
111.6308744817
 10
123.1634508785
 20
111.4203583392
 10
123.1734939185
 20
111.204362981
 10
123.1935499015
 20
110.9835445642
 10
123.2235579045
 20
110.7585735365
 10
123.2634268339
 20
110.5301328349
 10
123.3130356758
 20
110.2989160161
 10
123.37223376
 20
110.0656254626
 10
123.4408412301
 20
109.830969964
 10
123.5186496496
 20
109.5956623354
 10
123.6054227499
 20
109.3604170179
 10
123.7008970864
 20
109.1259482107
 10
123.8047827491
 20
108.8929679164
 10
123.9167642255
 20
108.6621837524
 10
124.0365014551
 20
108.4342965769
 10
124.1636309118
 20
108.2099983068
 10
124.2977664305
 20
107.9899703063
 10
124.4385003426
 20
107.7748812611
 10
124.5854049014
 20
107.5653847879
 10
124.7380342241
 20
107.3621166286
 10
124.8959254108
 20
107.1656932749
 10
125.0585988381
 20
106.9767114736
 10
125.2255606537
 20
106.7957450181
 10
125.3963050146
 20
106.6233424001
 10
125.5703146949
 20
106.4600263402
 10
125.747060108
 20
106.3062943424
 10
125.9260019721
 20
106.1626155467
 10
126.1065959336
 20
106.0294267746
 10
126.2882943341
 20
105.9071316698
 10
126.4705453354
 20
105.7961014833
  0
LWPOLYLINE
  5
348
100
AcDbEntity
  8
RACCORDO
100
AcDbPolyline
 62
7
  6
CONTINUOUS
 90
46
 70
0
 10
124.4419192489
 20
114.4122131064
 10
124.7001734575
 20
114.2554741771
 10
124.9589956596
 20
114.0830803176
 10
125.2175938284
 20
113.8954191535
 10
125.4751567572
 20
113.6929503046
 10
125.7309011969
 20
113.4761708121
 10
125.9840955906
 20
113.245585987
 10
126.2339947803
 20
113.0017608376
 10
126.4798183261
 20
112.7453505342
 10
126.7208233145
 20
112.4770330835
 10
126.9563109743
 20
112.1974932876
 10
127.1855484575
 20
111.9075139222
 10
127.4077880086
 20
111.6079703181
 10
127.622372668
 20
111.2996914654
 10
127.8286698648
 20
110.9835360098
 10
128.0260235783
 20
110.6604738064
 10
128.2138700121
 20
110.3314068113
 10
128.3916623076
 20
109.9972803169
 10
128.5588341294
 20
109.6591694449
 10
128.7149103408
 20
109.3180745746
 10
128.8594811864
 20
108.9749448909
 10
128.992144454
 20
108.6308066841
 10
129.112561445
 20
108.2866337829
 10
129.2204206234
 20
107.9434376515
 10
129.3154311539
 20
107.602319178
 10
129.397381491
 20
107.2642840775
 10
129.4661153637
 20
106.930288963
 10
129.5215053714
 20
106.6013729975
 10
129.5634831658
 20
106.2785565605
 10
129.5920507691
 20
105.9626950744
 10
129.6072486485
 20
105.6546004165
 10
129.6091553902
 20
105.3553277501
 10
129.5979112905
 20
105.0655716605
 10
129.5736439393
 20
104.7856799629
 10
129.5365614451
 20
104.5167462645
 10
129.4868745016
 20
104.2593359765
 10
129.4245817502
 20
104.013222412
 10
129.3499019719
 20
103.779371057
 10
129.263071621
 20
103.5585387726
 10
129.1638918722
 20
103.3505203614
 10
129.0526001625
 20
103.1562925123
 10
128.9294013092
 20
102.9766013158
 10
128.7937221854
 20
102.8112389301
 10
128.6453022747
 20
102.6608091762
 10
128.4844146785
 20
102.526455567
 10
128.3110435197
 20
102.4089161938
  0
LWPOLYLINE
  5
349
100
AcDbEntity
  8
RACCORDO
100
AcDbPolyline
 62
250
  6
CONTINUOUS
 90
61
 70
0
 10
124.3383779384
 20
114.6410815369
 10
124.6229735713
 20
114.468033782
 10
124.9053421934
 20
114.2793519888
 10
125.1854838046
 20
114.0750361573
 10
125.4641827263
 20
113.8544250617
 10
125.7406546372
 20
113.6181799278
 10
126.0125465731
 20
113.3682844326
 10
126.2797933592
 20
113.1046410051
 10
126.5424601704
 20
112.8273472162
 10
126.7983895672
 20
112.5386794561
 10
127.0475243742
 20
112.2385456369
 10
127.2899217668
 20
111.9270378464
 10
127.5235958329
 20
111.6067087376
 10
127.7484777156
 20
111.2774796578
 10
127.9646362719
 20
110.9394292597
 10
128.1702921598
 20
110.5953461539
 10
128.3653561473
 20
110.2451813374
 10
128.5499174665
 20
109.8889838133
 10
128.7224644721
 20
109.5296892016
 10
128.8828945418
 20
109.1672780912
 10
129.031310298
 20
108.8017698932
 10
129.1665079623
 20
108.4361584602
 10
129.2883781361
 20
108.0704470082
 10
129.397030218
 20
107.7046323211
 10
129.4915886261
 20
107.3416986039
 10
129.5719386209
 20
106.9816721956
 10
129.6381949418
 20
106.6245267573
 10
129.6898262253
 20
106.2731674772
 10
129.7267147066
 20
105.9276423494
 10
129.7489781504
 20
105.58790338
 10
129.7564384869
 20
105.2567117752
 10
129.7489769606
 20
104.9341361662
 10
129.7267123269
 20
104.620107922
 10
129.6898227818
 20
104.3171823559
 10
129.6381905585
 20
104.0254473945
 10
129.5719334239
 20
103.7448151113
 10
129.4915828742
 20
103.4775770402
 10
129.3970242076
 20
103.2238394149
 10
129.2883721261
 20
102.9834960018
 10
129.1665022321
 20
102.7585196338
 10
129.0313051767
 20
102.5490334029
 10
128.8828903088
 20
102.3549142172
 10
128.7224612778
 20
102.1777656347
 10
128.5499155427
 20
102.0177255251
 10
128.3653556445
 20
101.8746560187
 10
128.1702928549
 20
101.7497470643
 10
127.9646378087
 20
101.6431505971
 10
127.748479871
 20
101.5547146818
 10
127.5235984094
 20
101.4851734617
 10
127.2899245048
 20
101.4346851593
 10
127.0475270762
 20
101.4030915521
 10
126.7983922482
 20
101.390652116
 10
126.5424629863
 20
101.3975249753
 10
126.279796325
 20
101.4235520057
 10
126.0125494921
 20
101.4685183114
 10
125.740657171
 20
101.5325967552
 10
125.4641846783
 20
101.6156144743
 10
125.185485191
 20
101.716837984
 10
124.9053431014
 20
101.8360227894
 10
124.6229740172
 20
101.9734133855
 10
124.3383779384
 20
102.1290097723
  0
LWPOLYLINE
  5
34A
100
AcDbEntity
  8
ASSI
100
AcDbPolyline
 62
250
  6
CONTINUOUS
 90
13
 70
0
 10
131.4513314809
 20
132.8634945912
 10
131.4492682346
 20
132.8851973234
 10
131.4449796608
 20
132.9077201825
 10
131.4385343682
 20
132.9307030034
 10
131.4300354534
 20
132.9537782673
 10
131.4196188441
 20
132.976577001
 10
131.4074511174
 20
132.9987346756
 10
131.393726858
 20
133.0198969934
 10
131.3786655308
 20
133.039725587
 10
131.3625079525
 20
133.0579034436
 10
131.3455124771
 20
133.0741399233
 10
131.3279508699
 20
133.0881754141
 10
131.3101039377
 20
133.0997855095
  0
LWPOLYLINE
  5
34B
100
AcDbEntity
  8
ASSI
100
AcDbPolyline
 62
250
  6
CONTINUOUS
 90
13
 70
0
 10
131.7723928646
 20
132.8160673016
 10
131.7744560377
 20
132.7943650786
 10
131.7787444632
 20
132.7718426492
 10
131.7851895685
 20
132.7488601493
 10
131.7936882959
 20
132.7257850713
 10
131.8041047498
 20
132.7029863881
 10
131.8162723701
 20
132.6808286529
 10
131.8299965954
 20
132.6596661701
 10
131.8450579738
 20
132.6398373299
 10
131.8612156724
 20
132.6216591976
 10
131.8782113281
 20
132.6054224432
 10
131.8957731784
 20
132.5913866941
 10
131.9136204078
 20
132.5797763833
  0
LWPOLYLINE
  5
34C
100
AcDbEntity
  8
RACCORDO
100
AcDbPolyline
 62
250
  6
CONTINUOUS
 90
13
 70
0
 10
133.0431510124
 20
132.9075877947
 10
133.0446983961
 20
132.8913111427
 10
133.0479147161
 20
132.8744193338
 10
133.052748544
 20
132.8571824692
 10
133.0591225871
 20
132.8398761679
 10
133.0669349246
 20
132.8227771591
 10
133.0760606369
 20
132.8061588576
 10
133.0863538035
 20
132.7902869918
 10
133.0976498361
 20
132.7754153551
 10
133.1097681102
 20
132.7617817471
 10
133.1225148534
 20
132.7496041713
 10
133.135686244
 20
132.739077349
 10
133.1490716698
 20
132.730369606
  0
LINE
  5
34D
100
AcDbEntity
  8
ASSI
100
AcDbLine
 62
250
  6
CONTINUOUS
 10
133.8472726204
 20
129.8697626102
 11
133.8742137462
 21
129.5761778082
  0
LINE
  5
34E
100
AcDbEntity
  8
ASSI
100
AcDbLine
 62
250
  6
CONTINUOUS
 10
133.8184090201
 20
130.2006829868
 11
133.8472726204
 21
129.8697626102
  0
LWPOLYLINE
  5
34F
100
AcDbEntity
  8
ASSI
100
AcDbPolyline
 62
250
  6
CONTINUOUS
 90
5
 70
0
 10
131.9877835915
 20
134.1759742158
 10
131.989595556
 20
134.1514187392
 10
131.9949691936
 20
134.127206438
 10
132.0038662099
 20
134.1033427101
 10
132.016223035
 20
134.0799981735
  0
LWPOLYLINE
  5
350
100
AcDbEntity
  8
SUPERFICI
100
AcDbPolyline
 62
250
  6
CONTINUOUS
 90
16
 70
0
 10
132.470215701
 20
125.1632977979
 10
132.4673257533
 20
125.2066747199
 10
132.4606770524
 20
125.2518801155
 10
132.4503428596
 20
125.2984161011
 10
132.4364352082
 20
125.3457756739
 10
132.419108325
 20
125.3934317842
 10
132.3985608095
 20
125.4408430398
 10
132.3750276826
 20
125.4874777899
 10
132.3487665028
 20
125.5328349171
 10
132.3200590302
 20
125.5764312281
 10
132.2891761237
 20
125.6178443743
 10
132.2564969922
 20
125.6565555914
 10
132.2225171755
 20
125.6920065087
 10
132.1876689946
 20
125.7238093053
 10
132.1522960263
 20
125.7517114813
 10
132.1167834595
 20
125.7754603854
  0
LWPOLYLINE
  5
351
100
AcDbEntity
  8
ASSI
100
AcDbPolyline
 62
250
  6
CONTINUOUS
 90
10
 70
0
 10
134.4676765664
 20
130.656606821
 10
134.4670200499
 20
130.6696256933
 10
134.4659294763
 20
130.6822776189
 10
134.4644048456
 20
130.6945625978
 10
134.4624429034
 20
130.7064802265
 10
134.4600469042
 20
130.7180309084
 10
134.4572266109
 20
130.7292158542
 10
134.453985278
 20
130.7400354675
 10
134.4503196511
 20
130.7504893448
 10
134.4462297302
 20
130.760577486
  0
LWPOLYLINE
  5
352
100
AcDbEntity
  8
ASSI
100
AcDbPolyline
 62
250
  6
CONTINUOUS
 90
16
 70
0
 10
134.8544773688
 20
127.4984686419
 10
134.8539389203
 20
127.5161767337
 10
134.8518212573
 20
127.5345735844
 10
134.8481477052
 20
127.5534564989
 10
134.8429580003
 20
127.572619799
 10
134.8363096891
 20
127.591849984
 10
134.828279256
 20
127.6109281055
 10
134.8189591386
 20
127.6296396531
 10
134.80845136
 20
127.647784186
 10
134.7968679482
 20
127.6651696211
 10
134.7843172767
 20
127.6816279722
 10
134.7709537664
 20
127.6969518102
 10
134.7569815595
 20
127.7109191967
 10
134.7425799372
 20
127.7233780028
 10
134.7278916457
 20
127.7342307684
 10
134.7130775518
 20
127.743380309
  0
LINE
  5
353
100
AcDbEntity
  8
ASSI
100
AcDbLine
 62
250
  6
CONTINUOUS
 10
134.4774410262
 20
130.317265427
 11
134.4676765664
 21
130.656606821
  0
LINE
  5
354
100
AcDbEntity
  8
ASSI
100
AcDbLine
 62
250
  6
CONTINUOUS
 10
134.4847070635
 20
130.002610277
 11
134.4774410262
 21
130.317265427
  0
LINE
  5
355
100
AcDbEntity
  8
ASSI
100
AcDbLine
 62
250
  6
CONTINUOUS
 10
134.4886442134
 20
129.7839915879
 11
134.4847070635
 21
130.002610277
  0
LWPOLYLINE
  5
356
100
AcDbEntity
  8
ASSI
100
AcDbPolyline
 62
250
  6
CONTINUOUS
 90
3
 70
0
 10
134.4920821176
 20
129.5173611003
 10
134.4914114669
 20
129.5813157869
 10
134.4886442134
 20
129.7839915879
  0
LWPOLYLINE
  5
357
100
AcDbEntity
  8
ASSI
100
AcDbPolyline
 62
250
  6
CONTINUOUS
 90
16
 70
0
 10
134.343015638
 20
130.8057180287
 10
134.3429779048
 20
130.8217164725
 10
134.3419743447
 20
130.8376770888
 10
134.3400114538
 20
130.8534977194
 10
134.3371018705
 20
130.8690770628
 10
134.3332642903
 20
130.8843154625
 10
134.3285233179
 20
130.8991155335
 10
134.3229093158
 20
130.9133826093
 10
134.316458276
 20
130.9270253284
 10
134.3092115732
 20
130.9399563553
 10
134.3012155902
 20
130.9520930053
 10
134.2925215828
 20
130.9633575496
 10
134.2831854361
 20
130.9736777378
 10
134.2732670438
 20
130.982987543
 10
134.2628298852
 20
130.9912275283
 10
134.2519408139
 20
130.9983450459
  0
LINE
  5
358
100
AcDbEntity
  8
ASSI
100
AcDbLine
 62
7
  6
CONTINUOUS
 10
134.437352493
 20
130.4810891461
 11
134.437352493
 21
129.4123184594
  0
LINE
  5
359
100
AcDbEntity
  8
ASSI
100
AcDbLine
 62
7
  6
CONTINUOUS
 10
134.5914262656
 20
129.4384704663
 11
134.5914262656
 21
129.5723406063
  0
LINE
  5
35A
100
AcDbEntity
  8
ASSI
100
AcDbLine
 62
250
  6
CONTINUOUS
 10
134.8544773688
 20
127.1291576523
 11
134.8544773688
 21
127.4984686419
  0
LINE
  5
35B
100
AcDbEntity
  8
RACCORDO
100
AcDbLine
 62
7
  6
CONTINUOUS
 10
134.874268978
 20
119.8206139894
 11
134.874268978
 21
90.9886682573
  0
LINE
  5
35C
100
AcDbEntity
  8
SUPERFICI
100
AcDbLine
 62
7
  6
CONTINUOUS
 10
134.874268978
 20
84.2579210624
 11
134.874268978
 21
126.5513611842
  0
LINE
  5
35D
100
AcDbEntity
  8
ASSI
100
AcDbLine
 62
7
  6
CONTINUOUS
 10
134.9106094088
 20
127.2093750597
 11
134.9106094088
 21
127.5786860493
  0
LINE
  5
35E
100
AcDbEntity
  8
0
100
AcDbLine
 62
7
  6
CONTINUOUS
 10
135.0864010124
 20
91.0132801771
 11
135.0864010124
 21
90.9098890466
  0
LINE
  5
35F
100
AcDbEntity
  8
DRAFT
100
AcDbLine
 62
7
  6
CONTINUOUS
 10
135.1074330481
 20
128.2536798507
 11
135.1074330481
 21
128.4421032288
  0
LINE
  5
360
100
AcDbEntity
  8
DRAFT
100
AcDbLine
 62
250
  6
CONTINUOUS
 10
135.6375534865
 20
129.3863690469
 11
135.6375534865
 21
128.5950328497
  0
LINE
  5
361
100
AcDbEntity
  8
RACCORDO
100
AcDbLine
 62
250
  6
CONTINUOUS
 10
135.775830124
 20
123.4997159105
 11
135.775830124
 21
122.0355169101
  0
LINE
  5
362
100
AcDbEntity
  8
RACCORDO
100
AcDbLine
 62
250
  6
CONTINUOUS
 10
135.775830124
 20
89.8556930089
 11
135.775830124
 21
88.3914940084
  0
LINE
  5
363
100
AcDbEntity
  8
ASSI
100
AcDbLine
 62
250
  6
CONTINUOUS
 10
134.9106093847
 20
127.5786294609
 11
134.9106094088
 21
127.5786860493
  0
LWPOLYLINE
  5
364
100
AcDbEntity
  8
ASSI
100
AcDbPolyline
 62
7
  6
CONTINUOUS
 90
21
 70
0
 10
134.4372980918
 20
129.4123195745
 10
134.4372797383
 20
129.4098983659
 10
134.4353602102
 20
129.387652926
 10
134.430282579
 20
129.3657737507
 10
134.4219682076
 20
129.3441226323
 10
134.4104957332
 20
129.3228377785
 10
134.3961010672
 20
129.302333813
 10
134.3787486404
 20
129.2826394971
 10
134.358474022
 20
129.2637260696
 10
134.3356198314
 20
129.2459218699
 10
134.3101029586
 20
129.229225763
 10
134.2820065136
 20
129.2136388841
 10
134.2519224455
 20
129.1994929775
 10
134.2198418111
 20
129.1868330157
 10
134.1857735536
 20
129.1756140263
 10
134.1503364511
 20
129.1660328364
 10
134.1135044957
 20
129.1581137113
 10
134.0753036952
 20
129.1518323857
 10
134.0364308519
 20
129.1473128907
 10
133.9971182331
 20
129.1445965697
 10
133.9571335714
 20
129.1436420792
  0
LWPOLYLINE
  5
365
100
AcDbEntity
  8
ASSI
100
AcDbPolyline
 62
250
  6
CONTINUOUS
 90
16
 70
0
 10
136.2460015484
 20
131.6377770714
 10
136.2463657868
 20
131.6554425649
 10
136.2474545115
 20
131.6741077438
 10
136.2492557943
 20
131.6935681086
 10
136.2517498997
 20
131.7136104473
 10
136.254909502
 20
131.7340151719
 10
136.2586999837
 20
131.7545587244
 10
136.2630798156
 20
131.7750160252
 10
136.2680010114
 20
131.79516294
 10
136.2734096535
 20
131.8147787352
 10
136.2792464836
 20
131.833648496
 10
136.2854475522
 20
131.8515654815
 10
136.2919449194
 20
131.8683333898
 10
136.2986673988
 20
131.8837685083
 10
136.3055413373
 20
131.8977017261
 10
136.3124914228
 20
131.9099803878
  0
LWPOLYLINE
  5
366
100
AcDbEntity
  8
ASSI
100
AcDbPolyline
 62
250
  6
CONTINUOUS
 90
22
 70
0
 10
134.437352493
 20
130.4810891461
 10
134.4360399173
 20
130.460184428
 10
134.4310138238
 20
130.4352659277
 10
134.422259959
 20
130.4106934435
 10
134.4098444076
 20
130.3866525046
 10
134.3938609271
 20
130.3633246775
 10
134.3744302064
 20
130.3408861142
 10
134.351698957
 20
130.3195062471
 10
134.3258388331
 20
130.2993465343
 10
134.2970451448
 20
130.2805592318
 10
134.2655353513
 20
130.2632862169
 10
134.2315473786
 20
130.247657906
 10
134.1953378496
 20
130.2337922972
 10
134.1571801802
 20
130.2217940915
 10
134.117362519
 20
130.2117538964
 10
134.0761855368
 20
130.2037475292
 10
134.0339601634
 20
130.1978354491
 10
133.9910052633
 20
130.1940623038
 10
133.9476452259
 20
130.1924565877
 10
133.9042074844
 20
130.193030424
 10
133.8610200422
 20
130.1957794773
 10
133.8184090201
 20
130.2006829868
  0
LWPOLYLINE
  5
367
100
AcDbEntity
  8
SUPERFICI
100
AcDbPolyline
 62
250
  6
CONTINUOUS
 90
9
 70
0
 10
132.470215701
 20
83.0115255156
 10
132.4673260732
 20
82.9693677147
 10
132.4606781632
 20
82.9299802035
 10
132.4503451774
 20
82.8937967206
 10
132.4364390157
 20
82.861212023
 10
132.419113876
 20
82.83258959
 10
132.3985685847
 20
82.8082526928
 10
132.3750387216
 20
82.7884686666
 10
132.3562887402
 20
82.7771069057
  0
LWPOLYLINE
  5
368
100
AcDbEntity
  8
ASSI
100
AcDbPolyline
 62
250
  6
CONTINUOUS
 90
3
 70
0
 10
136.8642115584
 20
132.0742153781
 10
136.864517252
 20
132.0779058554
 10
136.8673584207
 20
132.0901820234
  0
LWPOLYLINE
  5
369
100
AcDbEntity
  8
ASSI
100
AcDbPolyline
 62
7
  6
CONTINUOUS
 90
20
 70
0
 10
136.912206529
 20
130.7793288064
 10
136.9099431044
 20
130.7522753578
 10
136.9036289023
 20
130.7272208194
 10
136.8933346607
 20
130.7023985026
 10
136.8792982159
 20
130.6784249827
 10
136.8614270701
 20
130.6553289569
 10
136.8398137212
 20
130.633081728
 10
136.8149735002
 20
130.6122137809
 10
136.786828831
 20
130.5927582583
 10
136.7554572897
 20
130.5746820175
 10
136.721606936
 20
130.5584161152
 10
136.6852181935
 20
130.5440040702
 10
136.6463506386
 20
130.5314023638
 10
136.6059310599
 20
130.5209114966
 10
136.563907683
 20
130.5125835094
 10
136.5203322822
 20
130.5063663614
 10
136.476286969
 20
130.5024044313
 10
136.4321324473
 20
130.5007458453
 10
136.3875080131
 20
130.5013424771
 10
136.3424136666
 20
130.5041943269
  0
LWPOLYLINE
  5
36A
100
AcDbEntity
  8
RACCORDO
100
AcDbPolyline
 62
250
  6
CONTINUOUS
 90
6
 70
0
 10
136.9323768949
 20
135.1973912607
 10
136.9333162758
 20
135.2081166264
 10
136.9337707387
 20
135.2191601502
 10
136.933722936
 20
135.2304879192
 10
136.9331604172
 20
135.2419794072
 10
136.932073288
 20
135.2536778305
  0
LWPOLYLINE
  5
36B
100
AcDbEntity
  8
RACCORDO
100
AcDbPolyline
 62
250
  6
CONTINUOUS
 90
7
 70
0
 10
135.8344087678
 20
123.5813708292
 10
135.8326977401
 20
123.5662979917
 10
135.8275939331
 20
123.5514830546
 10
135.8191846743
 20
123.5371795056
 10
135.8076138486
 20
123.5236320825
 10
135.7930794359
 20
123.5110725853
 10
135.775830124
 20
123.4997159105
  0
LWPOLYLINE
  5
36C
100
AcDbEntity
  8
RACCORDO
100
AcDbPolyline
 62
250
  6
CONTINUOUS
 90
5
 70
0
 10
147.0302196029
 20
114.2228287923
 10
146.9822579369
 20
114.1872013512
 10
146.9334070918
 20
114.1530001686
 10
146.8836800975
 20
114.1202343668
 10
146.8416915185
 20
114.0940991857
  0
LINE
  5
36D
100
AcDbEntity
  8
RACCORDO
100
AcDbLine
 62
7
  6
CONTINUOUS
 10
140.3299866374
 20
109.3198030719
 11
139.0428540965
 21
108.5502236619
  0
LINE
  5
36E
100
AcDbEntity
  8
RACCORDO
100
AcDbLine
 62
7
  6
CONTINUOUS
 10
140.3720856673
 20
109.4158403854
 11
140.4594893802
 21
109.3653745771
  0
LWPOLYLINE
  5
36F
100
AcDbEntity
  8
RACCORDO
100
AcDbPolyline
 62
250
  6
CONTINUOUS
 90
9
 70
0
 10
142.4298446087
 20
97.8554485625
 10
142.4227969806
 20
97.8668429773
 10
142.4152031807
 20
97.8779499325
 10
142.4069768947
 20
97.8888383274
 10
142.3981391141
 20
97.8993906825
 10
142.3886895043
 20
97.9095252428
 10
142.3784821583
 20
97.919296379
 10
142.3674743
 20
97.9285906
 10
142.3557519251
 20
97.9371712232
  0
LINE
  5
370
100
AcDbEntity
  8
RACCORDO
100
AcDbLine
 62
250
  6
CONTINUOUS
 10
142.4363662268
 20
97.8437731536
 11
142.4298446087
 21
97.8554485625
  0
LINE
  5
371
100
AcDbEntity
  8
RACCORDO
100
AcDbLine
 62
7
  6
CONTINUOUS
 10
130.1332510113
 20
133.5018358037
 11
130.1366586494
 21
133.4872593788
  0
LWPOLYLINE
  5
372
100
AcDbEntity
  8
ASSI
100
AcDbPolyline
 62
250
  6
CONTINUOUS
 90
7
 70
0
 10
129.0775345109
 20
132.7591521109
 10
129.0804703983
 20
132.7448364761
 10
129.0861006723
 20
132.7287731235
 10
129.0945983406
 20
132.711430007
 10
129.1060870177
 20
132.6931397126
 10
129.1206615182
 20
132.6743200711
 10
129.1384027034
 20
132.6555136219
  0
LWPOLYLINE
  5
373
100
AcDbEntity
  8
ASSI
100
AcDbPolyline
 62
250
  6
CONTINUOUS
 90
13
 70
0
 10
132.0724730557
 20
130.5890872094
 10
132.0698268179
 20
130.6105466531
 10
132.06502667
 20
130.6326805233
 10
132.0581468998
 20
130.6551497239
 10
132.0492944049
 20
130.6776083508
 10
132.0386048583
 20
130.6997147074
 10
132.0262391108
 20
130.7211361229
 10
132.0123745285
 20
130.7415598034
 10
131.9972320562
 20
130.7606553314
 10
131.9810777812
 20
130.7780951079
 10
131.9641756763
 20
130.7936128964
 10
131.9467755801
 20
130.8069971482
 10
131.9291431646
 20
130.8180581508
  0
LWPOLYLINE
  5
374
100
AcDbEntity
  8
ASSI
100
AcDbPolyline
 62
250
  6
CONTINUOUS
 90
13
 70
0
 10
131.5728037851
 20
129.4011108573
 10
131.570163763
 20
129.4225338967
 10
131.5653761701
 20
129.4446324523
 10
131.5585140869
 20
129.4670691989
 10
131.5496822602
 20
129.4895016493
 10
131.539015504
 20
129.5115873815
 10
131.5266766419
 20
129.5329892664
 10
131.5128540212
 20
129.5533806132
 10
131.4977586384
 20
129.5724501569
 10
131.4816209182
 20
129.5899068088
 10
131.4646871958
 20
129.6054841006
 10
131.4472159574
 20
129.6189442518
 10
131.429473894
 20
129.6300817987
  0
LWPOLYLINE
  5
375
100
AcDbEntity
  8
ASSI
100
AcDbPolyline
 62
250
  6
CONTINUOUS
 90
13
 70
0
 10
132.2088684816
 20
130.670649217
 10
132.2062284596
 20
130.6920722565
 10
132.2014408667
 20
130.714170812
 10
132.1945787835
 20
130.7366075587
 10
132.1857469568
 20
130.759040009
 10
132.1750802006
 20
130.7811257413
 10
132.1627413384
 20
130.8025276261
 10
132.1489187177
 20
130.822918973
 10
132.133823335
 20
130.8419885166
 10
132.1176856147
 20
130.8594451685
 10
132.1007518924
 20
130.8750224604
 10
132.083280654
 20
130.8884826115
 10
132.0655385906
 20
130.8996201584
  0
LINE
  5
376
100
AcDbEntity
  8
ASSI
100
AcDbLine
 62
250
  6
CONTINUOUS
 10
136.0330256969
 20
131.6236516472
 11
136.0460784024
 21
131.5041471136
  0
LINE
  5
377
100
AcDbEntity
  8
ASSI
100
AcDbLine
 62
250
  6
CONTINUOUS
 10
133.893013388
 20
129.3798256119
 11
133.9164766663
 21
129.1444494124
  0
LWPOLYLINE
  5
378
100
AcDbEntity
  8
ASSI
100
AcDbPolyline
 62
250
  6
CONTINUOUS
 90
13
 70
0
 10
134.3171083881
 20
134.5181582608
 10
134.3150452149
 20
134.5398604837
 10
134.3107567895
 20
134.5623829131
 10
134.3043116842
 20
134.5853654131
 10
134.2958129568
 20
134.6084404911
 10
134.2853965029
 20
134.6312391743
 10
134.2732288826
 20
134.6533969095
 10
134.2595046573
 20
134.6745593923
 10
134.2444432789
 20
134.6943882325
 10
134.2282855803
 20
134.7125663648
 10
134.2112899246
 20
134.7288031192
 10
134.1937280743
 20
134.7428388683
 10
134.1758808449
 20
134.7544491791
  0
LINE
  5
379
100
AcDbEntity
  8
ASSI
100
AcDbLine
 62
250
  6
CONTINUOUS
 10
133.8742137462
 20
129.5761778082
 11
133.893013388
 21
129.3798256119
  0
LINE
  5
37A
100
AcDbEntity
  8
ASSI
100
AcDbLine
 62
250
  6
CONTINUOUS
 10
136.3132304784
 20
130.8267903018
 11
136.3424137431
 21
130.5041943269
  0
LINE
  5
37B
100
AcDbEntity
  8
ASSI
100
AcDbLine
 62
250
  6
CONTINUOUS
 10
136.2810327029
 20
131.2030532351
 11
136.3132304784
 21
130.8267903018
  0
LINE
  5
37C
100
AcDbEntity
  8
ASSI
100
AcDbLine
 62
250
  6
CONTINUOUS
 10
136.2460015553
 20
131.6377770675
 11
136.2810327029
 21
131.2030532351
  0
LINE
  5
37D
100
AcDbEntity
  8
RACCORDO
100
AcDbLine
 62
250
  6
CONTINUOUS
 10
136.9342836988
 20
135.1542790405
 11
136.9323768949
 21
135.1973912607
  0
LINE
  5
37E
100
AcDbEntity
  8
RACCORDO
100
AcDbLine
 62
7
  6
CONTINUOUS
 10
136.978216542
 20
135.2156545357
 11
136.9763097379
 21
135.25876676
  0
LWPOLYLINE
  5
37F
100
AcDbEntity
  8
RACCORDO
100
AcDbPolyline
 62
7
  6
CONTINUOUS
 90
16
 70
0
 10
135.8344087678
 20
123.5813708292
 10
135.8325522439
 20
123.6243010685
 10
135.8271706623
 20
123.6671368141
 10
135.8185193961
 20
123.7096673499
 10
135.8067825013
 20
123.751822327
 10
135.792136727
 20
123.793390067
 10
135.77484878
 20
123.8339262458
 10
135.7551652972
 20
123.8731249917
 10
135.7331802766
 20
123.9109562131
 10
135.7089648087
 20
123.9473247539
 10
135.6825340563
 20
123.982134896
 10
135.6540373012
 20
124.0150658188
 10
135.6237042776
 20
124.0457337085
 10
135.5916293901
 20
124.0739138791
 10
135.5578022188
 20
124.0994302621
 10
135.5222815655
 20
124.1219965811
  0
LINE
  5
380
100
AcDbEntity
  8
ASSI
100
AcDbLine
 62
250
  6
CONTINUOUS
 10
136.9367870385
 20
131.6885376676
 11
136.9192923772
 21
132.1536231564
  0
LINE
  5
381
100
AcDbEntity
  8
ASSI
100
AcDbLine
 62
250
  6
CONTINUOUS
 10
136.9464705659
 20
131.3847979822
 11
136.9367870385
 21
131.6885376676
  0
LINE
  5
382
100
AcDbEntity
  8
ASSI
100
AcDbLine
 62
250
  6
CONTINUOUS
 10
136.9541364037
 20
131.1022764186
 11
136.9464705659
 21
131.3847979822
  0
LINE
  5
383
100
AcDbEntity
  8
ASSI
100
AcDbLine
 62
250
  6
CONTINUOUS
 10
136.958179613
 20
130.9265967407
 11
136.9541364037
 21
131.1022764186
  0
LWPOLYLINE
  5
384
100
AcDbEntity
  8
RACCORDO
100
AcDbPolyline
 62
250
  6
CONTINUOUS
 90
8
 70
0
 10
136.978216542
 20
135.2156545357
 10
136.9782602565
 20
135.2136183151
 10
136.976964449
 20
135.2028737326
 10
136.9731260301
 20
135.1922344289
 10
136.9668106764
 20
135.1818824454
 10
136.9581264452
 20
135.1719949074
 10
136.9472219263
 20
135.1627409934
 10
136.9342836988
 20
135.1542790405
  0
LINE
  5
385
100
AcDbEntity
  8
RACCORDO
100
AcDbLine
 62
7
  6
CONTINUOUS
 10
135.8344087678
 20
123.5813708292
 11
135.8344087678
 21
122.2274534786
  0
LINE
  5
386
100
AcDbEntity
  8
RACCORDO
100
AcDbLine
 62
7
  6
CONTINUOUS
 10
135.8344087678
 20
89.8270662777
 11
135.8344087678
 21
88.4731489271
  0
LINE
  5
387
100
AcDbEntity
  8
ASSI
100
AcDbLine
 62
7
  6
CONTINUOUS
 10
136.9122262271
 20
131.9100502228
 11
136.9122262271
 21
130.7793286179
  0
LWPOLYLINE
  5
388
100
AcDbEntity
  8
RACCORDO
100
AcDbPolyline
 62
250
  6
CONTINUOUS
 90
9
 70
0
 10
135.775830124
 20
88.3914940084
 10
135.7738933216
 20
88.3499401021
 10
135.7681041341
 20
88.3110780399
 10
135.7585259893
 20
88.2753336029
 10
135.7452638271
 20
88.2430984145
 10
135.7284629507
 20
88.2147256503
 10
135.708307434
 20
88.1905261683
 10
135.6850181051
 20
88.1707651029
 10
135.6722888135
 20
88.1626255779
  0
LWPOLYLINE
  5
389
100
AcDbEntity
  8
RACCORDO
100
AcDbPolyline
 62
250
  6
CONTINUOUS
 90
7
 70
0
 10
140.3720854221
 20
123.103406366
 10
140.3709940204
 20
123.093133147
 10
140.3674164477
 20
123.0821220413
 10
140.3614071003
 20
123.0714697001
 10
140.3530665306
 20
123.0613543659
 10
140.3425342987
 20
123.0519452954
 10
140.3299866374
 20
123.0433999277
  0
LWPOLYLINE
  5
38A
100
AcDbEntity
  8
RACCORDO
100
AcDbPolyline
 62
250
  6
CONTINUOUS
 90
7
 70
0
 10
135.8344087678
 20
88.4731489271
 10
135.8326977402
 20
88.4580760902
 10
135.8275939332
 20
88.4432611534
 10
135.8191846744
 20
88.4289576037
 10
135.8076138487
 20
88.4154101788
 10
135.7930794359
 20
88.4028506789
 10
135.775830124
 20
88.3914940006
  0
LWPOLYLINE
  5
38B
100
AcDbEntity
  8
RACCORDO
100
AcDbPolyline
 62
7
  6
CONTINUOUS
 90
6
 70
0
 10
135.6526588091
 20
91.3443326068
 10
135.6524140108
 20
91.3423556117
 10
135.6496300578
 20
91.338480163
 10
135.6442120726
 20
91.3329557103
 10
135.6362807772
 20
91.325814966
 10
135.6259819917
 20
91.3171421027
  0
LWPOLYLINE
  5
38C
100
AcDbEntity
  8
DRAFT
100
AcDbPolyline
 62
7
  6
CONTINUOUS
 90
23
 70
0
 10
140.4594893802
 20
108.3799510915
 10
140.5843897098
 20
108.5703426494
 10
140.7150563865
 20
108.80370558
 10
140.832159129
 20
109.0523453336
 10
140.9354623554
 20
109.3159224809
 10
141.0245514932
 20
109.5935619942
 10
141.0990661795
 20
109.8841371653
 10
141.1587962454
 20
110.1865601473
 10
141.2037075773
 20
110.5003245052
 10
141.2337559697
 20
110.8251254718
 10
141.2488371897
 20
111.1605195924
 10
141.2488371897
 20
111.5053359091
 10
141.2337559697
 20
111.8581454445
 10
141.2037075773
 20
112.2176455415
 10
141.1587962454
 20
112.5832723798
 10
141.0990661795
 20
112.9546701447
 10
141.0245514932
 20
113.3312930078
 10
140.9354623554
 20
113.7118104243
 10
140.832159129
 20
114.094679548
 10
140.7150563865
 20
114.4785466134
 10
140.5843897098
 20
114.8628001469
 10
140.4403110322
 20
115.2469975504
 10
140.3720856673
 20
115.413337781
  0
LWPOLYLINE
  5
38D
100
AcDbEntity
  8
RACCORDO
100
AcDbPolyline
 62
7
  6
CONTINUOUS
 90
37
 70
0
 10
143.0226638777
 20
112.0083975717
 10
143.0852483586
 20
112.101158167
 10
143.1927758872
 20
112.2830298626
 10
143.289203905
 20
112.4776675069
 10
143.3743270639
 20
112.6848013244
 10
143.4477723179
 20
112.9036880093
 10
143.5092121845
 20
113.1333451368
 10
143.5584590127
 20
113.3728178001
 10
143.5954933393
 20
113.6216962012
 10
143.6202831775
 20
113.8797724148
 10
143.6327329636
 20
114.1467121254
 10
143.6327329636
 20
114.4214825689
 10
143.6202831775
 20
114.7027989805
 10
143.5954933393
 20
114.9895018777
 10
143.5584590127
 20
115.2811465909
 10
143.5092121845
 20
115.577488257
 10
143.4477723179
 20
115.8780946024
 10
143.3743270639
 20
116.1817940257
 10
143.289203905
 20
116.4872259334
 10
143.1927758872
 20
116.7932162356
 10
143.0852483586
 20
117.0992580259
 10
142.966754075
 20
117.4049799355
 10
142.8374716605
 20
117.7098225976
 10
142.6978369995
 20
118.0126676942
 10
142.5484008942
 20
118.3123149835
 10
142.3897032772
 20
118.6077424735
 10
142.2220909238
 20
118.8983616346
 10
142.0458751244
 20
119.1836382363
 10
141.8614387358
 20
119.4629182122
 10
141.6693601861
 20
119.7352929122
 10
141.470267184
 20
119.9998677938
 10
141.2647592502
 20
120.2558620008
 10
141.0533543613
 20
120.5026456491
 10
140.8365922854
 20
120.739593126
 10
140.6150515468
 20
120.9660704891
 10
140.3893513583
 20
121.1814432157
 10
140.3720856673
 20
121.1967835689
  0
LINE
  5
38E
100
AcDbEntity
  8
0
100
AcDbLine
 62
7
  6
CONTINUOUS
 10
140.4594893802
 20
108.3795019384
 11
143.0226638777
 21
112.0083975717
  0
LINE
  5
38F
100
AcDbEntity
  8
0
100
AcDbLine
 62
250
  6
CONTINUOUS
 10
146.9114923942
 20
108.9239979415
 11
146.9110447574
 21
108.9236709739
  0
LINE
  5
390
100
AcDbEntity
  8
0
100
AcDbLine
 62
7
  6
CONTINUOUS
 10
146.9110447574
 20
108.9236709739
 11
146.7881808361
 21
108.8339813488
  0
LINE
  5
391
100
AcDbEntity
  8
DRAFT
100
AcDbLine
 62
7
  6
CONTINUOUS
 10
140.4594893802
 20
103.9941680245
 11
145.911811831
 21
107.299640619
  0
LINE
  5
392
100
AcDbEntity
  8
RACCORDO
100
AcDbLine
 62
250
  6
CONTINUOUS
 10
128.2787271345
 20
134.1676200182
 11
128.2788019118
 21
134.1674169658
  0
LWPOLYLINE
  5
393
100
AcDbEntity
  8
ASSI
100
AcDbPolyline
 62
7
  6
CONTINUOUS
 90
4
 70
0
 10
134.577265233
 20
129.5645035409
 10
134.5841411911
 20
129.5317842852
 10
134.5895174055
 20
129.4866523007
 10
134.5914262656
 20
129.4384704663
  0
LWPOLYLINE
  5
394
100
AcDbEntity
  8
ASSI
100
AcDbPolyline
 62
7
  6
CONTINUOUS
 90
5
 70
0
 10
134.4309131811
 20
130.5429889715
 10
134.4337307838
 20
130.5275964585
 10
134.4357451072
 20
130.5121126862
 10
134.4369514475
 20
130.496597422
 10
134.4373524888
 20
130.4810891461
  0
LINE
  5
395
100
AcDbEntity
  8
ASSI
100
AcDbLine
 62
250
  6
CONTINUOUS
 10
133.738151393
 20
129.2851174421
 11
133.7621390899
 21
129.1133925946
  0
LINE
  5
396
100
AcDbEntity
  8
ASSI
100
AcDbLine
 62
250
  6
CONTINUOUS
 10
133.712810749
 20
129.4728756159
 11
133.738151393
 21
129.2851174421
  0
LINE
  5
397
100
AcDbEntity
  8
ASSI
100
AcDbLine
 62
250
  6
CONTINUOUS
 10
133.6858928435
 20
129.6795651933
 11
133.712810749
 21
129.4728756159
  0
LINE
  5
398
100
AcDbEntity
  8
ASSI
100
AcDbLine
 62
250
  6
CONTINUOUS
 10
133.6573701032
 20
129.9068537198
 11
133.6858928435
 21
129.6795651933
  0
LWPOLYLINE
  5
399
100
AcDbEntity
  8
ASSI
100
AcDbPolyline
 62
250
  6
CONTINUOUS
 90
13
 70
0
 10
134.8444325912
 20
130.9128943819
 10
134.8417924831
 20
130.9343179255
 10
134.8370047342
 20
130.9564169019
 10
134.8301424604
 20
130.9788539601
 10
134.8213104462
 20
131.0012865893
 10
134.8106435363
 20
131.0233723687
 10
134.7983045704
 20
131.0447741928
 10
134.7844819183
 20
131.0651653783
 10
134.7693865889
 20
131.0842346823
 10
134.7532489915
 20
131.1016910656
 10
134.7363154526
 20
131.1172680893
 10
134.7188444616
 20
131.1307279878
 10
134.7011027006
 20
131.1418653235
  0
LWPOLYLINE
  5
39A
100
AcDbEntity
  8
ASSI
100
AcDbPolyline
 62
250
  6
CONTINUOUS
 90
13
 70
0
 10
136.0330256969
 20
131.6236516472
 10
136.0303856749
 20
131.6450746863
 10
136.0255980821
 20
131.6671732416
 10
136.0187359989
 20
131.6896099882
 10
136.0099041723
 20
131.7120424385
 10
135.9992374161
 20
131.7341281709
 10
135.9868985539
 20
131.7555300559
 10
135.9730759332
 20
131.7759214028
 10
135.9579805504
 20
131.7949909465
 10
135.9418428301
 20
131.8124475985
 10
135.9249091077
 20
131.8280248904
 10
135.9074378692
 20
131.8414850416
 10
135.8896958058
 20
131.8526225885
  0
LWPOLYLINE
  5
39B
100
AcDbEntity
  8
ASSI
100
AcDbPolyline
 62
250
  6
CONTINUOUS
 90
13
 70
0
 10
134.0166216839
 20
130.7422117141
 10
134.0191715275
 20
130.7214482414
 10
134.023744672
 20
130.7000392635
 10
134.030275394
 20
130.678292471
 10
134.0386698356
 20
130.6565204099
 10
134.0488073529
 20
130.6350359906
 10
134.0605422493
 20
130.6141479912
 10
134.0737058711
 20
130.5941566166
 10
134.0881090303
 20
130.575349186
 10
134.1035447221
 20
130.5579960049
 10
134.119791103
 20
130.5423464767
 10
134.1366146785
 20
130.5286255188
 10
134.1537736585
 20
130.5170303317
  0
LINE
  5
39C
100
AcDbEntity
  8
ASSI
100
AcDbLine
 62
250
  6
CONTINUOUS
 10
136.120189327
 20
130.8621629206
 11
136.153339422
 21
130.5945075741
  0
LINE
  5
39D
100
AcDbEntity
  8
ASSI
100
AcDbLine
 62
250
  6
CONTINUOUS
 10
133.6275017404
 20
130.1541974103
 11
133.6573701032
 21
129.9068537198
  0
LINE
  5
39E
100
AcDbEntity
  8
ASSI
100
AcDbLine
 62
250
  6
CONTINUOUS
 10
136.0843530086
 20
131.1648451948
 11
136.120189327
 21
130.8621629206
  0
LINE
  5
39F
100
AcDbEntity
  8
ASSI
100
AcDbLine
 62
250
  6
CONTINUOUS
 10
136.0460784024
 20
131.5041471136
 11
136.0843530086
 21
131.1648451948
  0
LWPOLYLINE
  5
3A0
100
AcDbEntity
  8
RACCORDO
100
AcDbPolyline
 62
7
  6
CONTINUOUS
 90
3
 70
0
 10
136.9763141317
 20
135.2586647846
 10
136.9742793788
 20
135.279963529
 10
136.9691650752
 20
135.3047180742
  0
LWPOLYLINE
  5
3A1
100
AcDbEntity
  8
RACCORDO
100
AcDbPolyline
 62
250
  6
CONTINUOUS
 90
13
 70
0
 10
136.9342836988
 20
135.1542790405
 10
136.9358311035
 20
135.1380022001
 10
136.9390474559
 20
135.1211103046
 10
136.9438812942
 20
135.1038734685
 10
136.9502552725
 20
135.0865673673
 10
136.9580674568
 20
135.0694686657
 10
136.9671929995
 20
135.0528506035
 10
136.9774860141
 20
135.0369788794
 10
136.9887819148
 20
135.0221073115
 10
137.0009001512
 20
135.0084736408
 10
137.0136469896
 20
134.9962958844
 10
137.0268185963
 20
134.9857688295
 10
137.0402043562
 20
134.9770608518
  0
LWPOLYLINE
  5
3A2
100
AcDbEntity
  8
RACCORDO
100
AcDbPolyline
 62
7
  6
CONTINUOUS
 90
4
 70
0
 10
136.978216542
 20
135.2156545357
 10
136.979052117
 20
135.2048011798
 10
136.9807586335
 20
135.1925239069
 10
136.9834588706
 20
135.178958126
  0
LINE
  5
3A3
100
AcDbEntity
  8
ASSI
100
AcDbLine
 62
250
  6
CONTINUOUS
 10
139.299422683
 20
132.2743931275
 11
139.2451032351
 21
133.0226570925
  0
LINE
  5
3A4
100
AcDbEntity
  8
ASSI
100
AcDbLine
 62
250
  6
CONTINUOUS
 10
139.3765693596
 20
132.3324988829
 11
139.3234251644
 21
133.0645734477
  0
LINE
  5
3A5
100
AcDbEntity
  8
RACCORDO
100
AcDbLine
 62
250
  6
CONTINUOUS
 10
140.0495122208
 20
133.0053331031
 11
140.0166374617
 21
133.4581911232
  0
LINE
  5
3A6
100
AcDbEntity
  8
RACCORDO
100
AcDbLine
 62
7
  6
CONTINUOUS
 10
140.070890593
 20
133.0147732746
 11
140.0356131244
 21
133.5007292182
  0
LINE
  5
3A7
100
AcDbEntity
  8
RACCORDO
100
AcDbLine
 62
250
  6
CONTINUOUS
 10
140.32971229
 20
123.0544644312
 11
140.3299866374
 21
123.0433999277
  0
LWPOLYLINE
  5
3A8
100
AcDbEntity
  8
RACCORDO
100
AcDbPolyline
 62
7
  6
CONTINUOUS
 90
6
 70
0
 10
140.3720854221
 20
123.103406366
 10
140.372015687
 20
123.1088125004
 10
140.3700537353
 20
123.13208464
 10
140.3653727976
 20
123.1555575575
 10
140.3579591007
 20
123.1789612375
 10
140.3487812062
 20
123.2000576146
  0
LWPOLYLINE
  5
3A9
100
AcDbEntity
  8
RACCORDO
100
AcDbPolyline
 62
250
  6
CONTINUOUS
 90
9
 70
0
 10
140.0166374617
 20
133.4581911232
 10
140.0166285101
 20
133.4685647542
 10
140.0160947904
 20
133.4791104408
 10
140.0150280002
 20
133.489795649
 10
140.0134348708
 20
133.5004955015
 10
140.011306682
 20
133.5112662338
 10
140.0085732817
 20
133.5223436192
 10
140.0051557379
 20
133.5337910414
 10
140.001038974
 20
133.5454484835
  0
LINE
  5
3AA
100
AcDbEntity
  8
0
100
AcDbLine
 62
7
  6
CONTINUOUS
 10
139.0428540965
 20
108.5502236619
 11
139.0428540965
 21
99.5690506172
  0
LINE
  5
3AB
100
AcDbEntity
  8
RACCORDO
100
AcDbLine
 62
250
  6
CONTINUOUS
 10
140.3299866374
 20
123.0433999277
 11
140.3299866374
 21
109.3198030719
  0
LINE
  5
3AC
100
AcDbEntity
  8
RACCORDO
100
AcDbLine
 62
7
  6
CONTINUOUS
 10
140.3720856673
 20
123.1035629832
 11
140.3720856673
 21
109.3799661275
  0
LINE
  5
3AD
100
AcDbEntity
  8
RACCORDO
100
AcDbLine
 62
7
  6
CONTINUOUS
 10
140.4323824693
 20
100.3685771202
 11
140.4323824693
 21
94.3518132136
  0
LINE
  5
3AE
100
AcDbEntity
  8
0
100
AcDbLine
 62
7
  6
CONTINUOUS
 10
140.4594893802
 20
109.3653745771
 11
140.4594893802
 21
100.3842015323
  0
LINE
  5
3AF
100
AcDbEntity
  8
RACCORDO
100
AcDbLine
 62
250
  6
CONTINUOUS
 10
141.8334247701
 20
131.4496406225
 11
141.8334247701
 21
131.7445414268
  0
LINE
  5
3B0
100
AcDbEntity
  8
RACCORDO
100
AcDbLine
 62
7
  6
CONTINUOUS
 10
141.8755237384
 20
131.804625954
 11
141.8755238
 21
131.8047044746
  0
LWPOLYLINE
  5
3B1
100
AcDbEntity
  8
RACCORDO
100
AcDbPolyline
 62
7
  6
CONTINUOUS
 90
7
 70
0
 10
140.4323824693
 20
94.3518132136
 10
140.4314658683
 20
94.333879083
 10
140.428850359
 20
94.317511844
 10
140.4245359413
 20
94.3027114966
 10
140.4185226153
 20
94.2894780408
 10
140.4108103809
 20
94.2778114766
 10
140.4013992383
 20
94.267711804
  0
LWPOLYLINE
  5
3B2
100
AcDbEntity
  8
RACCORDO
100
AcDbPolyline
 62
7
  6
CONTINUOUS
 90
7
 70
0
 10
140.3720856641
 20
109.3799481002
 10
140.3709453597
 20
109.3696035517
 10
140.3673288748
 20
109.3584726815
 10
140.3614071003
 20
109.3478728444
 10
140.3532389024
 20
109.3379852203
 10
140.3427654147
 20
109.3286286295
 10
140.3299866374
 20
109.3198030719
  0
LWPOLYLINE
  5
3B3
100
AcDbEntity
  8
DRAFT
100
AcDbPolyline
 62
7
  6
CONTINUOUS
 90
14
 70
0
 10
140.4824015577
 20
109.2829389667
 10
140.5567170922
 20
109.5728237059
 10
140.6162094322
 20
109.8745875209
 10
140.6610558177
 20
110.1884395142
 10
140.6909836921
 20
110.5124846063
 10
140.7059022032
 20
110.8471439957
 10
140.7059022032
 20
111.191996484
 10
140.6909836921
 20
111.543883396
 10
140.6610558177
 20
111.9024884474
 10
140.6162094322
 20
112.2681279226
 10
140.5567170922
 20
112.6385920005
 10
140.4824015577
 20
113.0142944561
 10
140.3934400688
 20
113.3948215146
 10
140.3720856673
 20
113.4741503639
  0
LINE
  5
3B4
100
AcDbEntity
  8
DRAFT
100
AcDbLine
 62
7
  6
CONTINUOUS
 10
140.4594893802
 20
109.2113920063
 11
140.4824015577
 21
109.2829389667
  0
LINE
  5
3B5
100
AcDbEntity
  8
0
100
AcDbLine
 62
7
  6
CONTINUOUS
 10
140.4594893802
 20
100.3842015323
 11
139.0440649571
 21
99.5683514814
  0
LWPOLYLINE
  5
3B6
100
AcDbEntity
  8
RACCORDO
100
AcDbPolyline
 62
250
  6
CONTINUOUS
 90
7
 70
0
 10
141.0709799914
 20
98.5054771071
 10
141.0846538605
 20
98.5120718465
 10
141.0980679531
 20
98.5164894012
 10
141.1109978151
 20
98.5186558544
 10
141.1232270954
 20
98.5185349563
 10
141.1345511651
 20
98.5161287306
 10
141.1441015007
 20
98.511876019
  0
LWPOLYLINE
  5
3B7
100
AcDbEntity
  8
RACCORDO
100
AcDbPolyline
 62
250
  6
CONTINUOUS
 90
3
 70
0
 10
140.981855763
 20
98.5205580644
 10
140.9749298022
 20
98.5175214749
 10
140.9735269548
 20
98.5167884067
  0
LINE
  5
3B8
100
AcDbEntity
  8
RACCORDO
100
AcDbLine
 62
7
  6
CONTINUOUS
 10
140.4323824693
 20
97.4953192211
 11
142.0187249757
 21
98.092635433
  0
LINE
  5
3B9
100
AcDbEntity
  8
RACCORDO
100
AcDbLine
 62
250
  6
CONTINUOUS
 10
140.4323824693
 20
97.4473408024
 11
142.1105941185
 21
98.0792491205
  0
LWPOLYLINE
  5
3BA
100
AcDbEntity
  8
RACCORDO
100
AcDbPolyline
 62
250
  6
CONTINUOUS
 90
5
 70
0
 10
142.1105941185
 20
98.0792491205
 10
142.12676112
 20
98.084081303
 10
142.1421198736
 20
98.0855842096
 10
142.1562927905
 20
98.083720893
 10
142.1688300995
 20
98.0785956489
  0
LWPOLYLINE
  5
3BB
100
AcDbEntity
  8
RACCORDO
100
AcDbPolyline
 62
250
  6
CONTINUOUS
 90
5
 70
0
 10
142.3433655092
 20
97.9448498368
 10
142.3595325048
 20
97.949682018
 10
142.3748912545
 20
97.951184926
 10
142.3890641699
 20
97.9493216123
 10
142.4015889351
 20
97.9442035893
  0
LWPOLYLINE
  5
3BC
100
AcDbEntity
  8
RACCORDO
100
AcDbPolyline
 62
7
  6
CONTINUOUS
 90
3
 70
0
 10
135.6259819917
 20
121.073728358
 10
135.5377961729
 20
121.2462454066
 10
135.4300783795
 20
121.4545834579
  0
LWPOLYLINE
  5
3BD
100
AcDbEntity
  8
RACCORDO
100
AcDbPolyline
 62
7
  6
CONTINUOUS
 90
13
 70
0
 10
135.6259819917
 20
121.073728358
 10
135.6362807772
 20
121.0505560602
 10
135.6442120726
 20
121.0264760917
 10
135.6496300578
 20
121.0018622836
 10
135.6524140108
 20
120.9770893343
 10
135.6525183538
 20
120.9525527288
 10
135.6499730625
 20
120.9286626487
 10
135.6448085938
 20
120.9057940522
 10
135.6370893373
 20
120.8843084968
 10
135.6269641997
 20
120.864572296
 10
135.6146025475
 20
120.8469052674
 10
135.6001878964
 20
120.8315779197
 10
135.5839505188
 20
120.8188334642
  0
LWPOLYLINE
  5
3BE
100
AcDbEntity
  8
ASSI
100
AcDbPolyline
 62
250
  6
CONTINUOUS
 90
3
 70
0
 10
132.016223035
 20
134.0799981735
 10
132.0231784943
 20
134.0636952044
 10
132.0241581753
 20
134.0592859439
  0
LWPOLYLINE
  5
3BF
100
AcDbEntity
  8
ASSI
100
AcDbPolyline
 62
250
  6
CONTINUOUS
 90
8
 70
0
 10
134.8544773688
 20
127.1291576523
 10
134.8586560492
 20
127.1165246706
 10
134.8612113454
 20
127.1049145867
 10
134.8621176158
 20
127.0944529789
 10
134.8613678549
 20
127.0852555182
 10
134.8589732116
 20
127.0774169649
 10
134.8549571619
 20
127.0710149774
 10
134.8538240552
 20
127.0697700394
  0
LWPOLYLINE
  5
3C0
100
AcDbEntity
  8
RACCORDO
100
AcDbPolyline
 62
250
  6
CONTINUOUS
 90
7
 70
0
 10
142.4632591584
 20
97.7730909616
 10
142.4602298474
 20
97.7845947071
 10
142.4566310914
 20
97.7962950409
 10
142.4524433857
 20
97.808143699
 10
142.447673409
 20
97.8200471627
 10
142.4423161159
 20
97.8319428978
 10
142.4363662268
 20
97.8437731536
  0
LWPOLYLINE
  5
3C1
100
AcDbEntity
  8
RACCORDO
100
AcDbPolyline
 62
250
  6
CONTINUOUS
 90
3
 70
0
 10
136.932073288
 20
135.2536778305
 10
136.9304166066
 20
135.2657959504
 10
136.9281213844
 20
135.2783991393
  0
LINE
  5
3C2
100
AcDbEntity
  8
ASSI
100
AcDbLine
 62
250
  6
CONTINUOUS
 10
136.153339422
 20
130.5945075741
 11
136.1689864359
 21
130.4722775242
  0
LWPOLYLINE
  5
3C3
100
AcDbEntity
  8
ASSI
100
AcDbPolyline
 62
250
  6
CONTINUOUS
 90
13
 70
0
 10
136.9192923762
 20
132.1536231558
 10
136.9166523564
 20
132.1750461822
 10
136.9118647672
 20
132.1971447283
 10
136.9050026878
 20
132.2195814699
 10
136.8961708631
 20
132.2420139213
 10
136.8855041066
 20
132.2640996591
 10
136.8731652431
 20
132.2855015495
 10
136.8593426212
 20
132.3058929006
 10
136.8442472366
 20
132.3249624483
 10
136.8281095145
 20
132.3424191034
 10
136.8111757905
 20
132.3579963975
 10
136.7937045507
 20
132.3714565501
 10
136.7759624863
 20
132.3825940979
  0
LWPOLYLINE
  5
3C4
100
AcDbEntity
  8
RACCORDO
100
AcDbPolyline
 62
7
  6
CONTINUOUS
 90
12
 70
0
 10
140.0356137802
 20
133.5007201708
 10
140.0351601051
 20
133.5060177402
 10
140.0319239447
 20
133.5274162446
 10
140.0263724863
 20
133.548947239
 10
140.0187479122
 20
133.569697764
 10
140.0090190077
 20
133.5898534104
 10
139.9971078102
 20
133.6093766793
 10
139.9836209487
 20
133.6272532153
 10
139.9686273877
 20
133.6435037596
 10
139.9519549786
 20
133.6582428548
 10
139.9342992275
 20
133.6708319531
 10
139.926976607
 20
133.6752722436
  0
LWPOLYLINE
  5
3C5
100
AcDbEntity
  8
RACCORDO
100
AcDbPolyline
 62
7
  6
CONTINUOUS
 90
12
 70
0
 10
142.5119198764
 20
130.6702379484
 10
142.5110379219
 20
130.6912265563
 10
142.5077628065
 20
130.7161209038
 10
142.502050113
 20
130.7413240173
 10
142.4938617138
 20
130.7667001089
 10
142.483469374
 20
130.7913766225
 10
142.4708813349
 20
130.8153777445
 10
142.4560775575
 20
130.8385882474
 10
142.439616729
 20
130.8600881394
 10
142.421755095
 20
130.8796383964
 10
142.4022546829
 20
130.8974532232
 10
142.3957490521
 20
130.9026939389
  0
LWPOLYLINE
  5
3C6
100
AcDbEntity
  8
RACCORDO
100
AcDbPolyline
 62
7
  6
CONTINUOUS
 90
12
 70
0
 10
142.5119198678
 20
97.752614788
 10
142.5114144636
 20
97.7668925868
 10
142.508650346
 20
97.7890158731
 10
142.5035004846
 20
97.8111011626
 10
142.4962668657
 20
97.8322574527
 10
142.4869707901
 20
97.8527357323
 10
142.4755515665
 20
97.8725741275
 10
142.4626134612
 20
97.8907622936
 10
142.4482725099
 20
97.9073104834
 10
142.4323016901
 20
97.9224350611
 10
142.4152014454
 20
97.9355956672
 10
142.4015889351
 20
97.9442035893
  0
LWPOLYLINE
  5
3C7
100
AcDbEntity
  8
RACCORDO
100
AcDbPolyline
 62
250
  6
CONTINUOUS
 90
4
 70
0
 10
141.8334247701
 20
131.7445414268
 10
141.8326841347
 20
131.7659033898
 10
141.8301043146
 20
131.7880992714
 10
141.8257086284
 20
131.8108995972
  0
LWPOLYLINE
  5
3C8
100
AcDbEntity
  8
RACCORDO
100
AcDbPolyline
 62
7
  6
CONTINUOUS
 90
14
 70
0
 10
141.8755237384
 20
131.804625954
 10
141.8751724521
 20
131.8178290456
 10
141.8728709359
 20
131.8411748296
 10
141.868430841
 20
131.8647882618
 10
141.8618238822
 20
131.8885659839
 10
141.8532629292
 20
131.9118146798
 10
141.8427593742
 20
131.9345794253
 10
141.8303182419
 20
131.9567778797
 10
141.8164036082
 20
131.9776018616
 10
141.8011098334
 20
131.9970007572
 10
141.7843920663
 20
132.0150184121
 10
141.7667084178
 20
132.0311481886
 10
141.7481768172
 20
132.0453614811
 10
141.7297896264
 20
132.0570838887
  0
LWPOLYLINE
  5
3C9
100
AcDbEntity
  8
RACCORDO
100
AcDbPolyline
 62
250
  6
CONTINUOUS
 90
55
 70
0
 10
144.3617338326
 20
124.54350699
 10
144.3619606007
 20
124.5333946275
 10
144.3624006409
 20
124.5231594646
 10
144.3630539136
 20
124.5128077961
 10
144.3639203125
 20
124.5023445002
 10
144.3649993057
 20
124.4917774672
 10
144.3662896507
 20
124.4811177416
 10
144.3677900004
 20
124.4703743541
 10
144.3694995419
 20
124.4595517429
 10
144.371417427
 20
124.4486542486
 10
144.3735423218
 20
124.4376890949
 10
144.3758729683
 20
124.4266625937
 10
144.3784087501
 20
124.415577674
 10
144.3811489447
 20
124.4044384391
 10
144.3840914473
 20
124.393254427
 10
144.3872333307
 20
124.3820367751
 10
144.3905717306
 20
124.3707951596
 10
144.3941052578
 20
124.3595337795
 10
144.3978329908
 20
124.3482555926
 10
144.40175378
 20
124.3369646563
 10
144.4058643973
 20
124.325670814
 10
144.4101606105
 20
124.3143857039
 10
144.4146388495
 20
124.3031182279
 10
144.4192969565
 20
124.2918733344
 10
144.4241325137
 20
124.2806567073
 10
144.4291423852
 20
124.2694754584
 10
144.4343235034
 20
124.2583361946
 10
144.439673602
 20
124.2472438481
 10
144.445189993
 20
124.2362041189
 10
144.4508687406
 20
124.2252249167
 10
144.4567056468
 20
124.2143144658
 10
144.4626960876
 20
124.2034812265
 10
144.4688372551
 20
124.192729981
 10
144.4751277223
 20
124.1820634688
 10
144.4815658916
 20
124.1714848493
 10
144.4881458195
 20
124.1610042239
 10
144.494859404
 20
124.150634633
 10
144.5016993494
 20
124.140386786
 10
144.5086641802
 20
124.1302622069
 10
144.5157545156
 20
124.1202601671
 10
144.5229697076
 20
124.1103821061
 10
144.5303018661
 20
124.1006392202
 10
144.5377406972
 20
124.0910453395
 10
144.5452779919
 20
124.0816104348
 10
144.5529123806
 20
124.0723354539
 10
144.5606437532
 20
124.0632205838
 10
144.5684652035
 20
124.0542739596
 10
144.5763737973
 20
124.0454987603
 10
144.5843759023
 20
124.0368887767
 10
144.5924697279
 20
124.0284473287
 10
144.6006483097
 20
124.0201828428
 10
144.6089106737
 20
124.0120978094
 10
144.6172534435
 20
124.0041972388
 10
144.6256690354
 20
123.9964895937
 10
144.6341500754
 20
123.9889828016
  0
LWPOLYLINE
  5
3CA
100
AcDbEntity
  8
RACCORDO
100
AcDbPolyline
 62
250
  6
CONTINUOUS
 90
7
 70
0
 10
142.4698208731
 20
130.6101265416
 10
142.4697057978
 20
130.6195311626
 10
142.4692122264
 20
130.6292898778
 10
142.4683218727
 20
130.6393910542
 10
142.4670152546
 20
130.6498319556
 10
142.4652765211
 20
130.6605850651
 10
142.4630980403
 20
130.6715966041
  0
LINE
  5
3CB
100
AcDbEntity
  8
RACCORDO
100
AcDbLine
 62
7
  6
CONTINUOUS
 10
141.8755238
 20
131.5098036781
 11
141.8755238
 21
131.8047044746
  0
LINE
  5
3CC
100
AcDbEntity
  8
RACCORDO
100
AcDbLine
 62
250
  6
CONTINUOUS
 10
142.4698208731
 20
97.3168872073
 11
142.4698208731
 21
97.6925110946
  0
LINE
  5
3CD
100
AcDbEntity
  8
RACCORDO
100
AcDbLine
 62
250
  6
CONTINUOUS
 10
142.4698208731
 20
130.2345026543
 11
142.4698208731
 21
130.6101265416
  0
LINE
  5
3CE
100
AcDbEntity
  8
RACCORDO
100
AcDbLine
 62
7
  6
CONTINUOUS
 10
142.5119199031
 20
97.3770502628
 11
142.5119199031
 21
97.7526741527
  0
LINE
  5
3CF
100
AcDbEntity
  8
RACCORDO
100
AcDbLine
 62
7
  6
CONTINUOUS
 10
142.5119199031
 20
130.2946657099
 11
142.5119199031
 21
130.6702895972
  0
LINE
  5
3D0
100
AcDbEntity
  8
RACCORDO
100
AcDbLine
 62
7
  6
CONTINUOUS
 10
144.7030532365
 20
124.9374114815
 11
144.7030532365
 21
124.202610291
  0
LWPOLYLINE
  5
3D1
100
AcDbEntity
  8
RACCORDO
100
AcDbPolyline
 62
250
  6
CONTINUOUS
 90
9
 70
0
 10
142.4698208731
 20
97.6925110946
 10
142.4704737472
 20
97.7014715238
 10
142.4707486321
 20
97.7107659032
 10
142.4706257997
 20
97.7203768503
 10
142.4700884094
 20
97.7302394129
 10
142.469120054
 20
97.7403744007
 10
142.4676860144
 20
97.7508931295
 10
142.4657405591
 20
97.761829507
 10
142.4632591584
 20
97.7730909616
  0
LWPOLYLINE
  5
3D2
100
AcDbEntity
  8
RACCORDO
100
AcDbPolyline
 62
7
  6
CONTINUOUS
 90
10
 70
0
 10
142.4205777866
 20
97.2039786314
 10
142.4391735721
 20
97.2170672022
 10
142.455357806
 20
97.2316765542
 10
142.4698738006
 20
97.248277902
 10
142.4824900907
 20
97.2666817654
 10
142.4929993717
 20
97.2866395732
 10
142.5013148569
 20
97.3080638237
 10
142.507316764
 20
97.3308343562
 10
142.510872826
 20
97.3547022029
 10
142.5119198883
 20
97.3770118852
  0
LWPOLYLINE
  5
3D3
100
AcDbEntity
  8
RACCORDO
100
AcDbPolyline
 62
7
  6
CONTINUOUS
 90
4
 70
0
 10
141.7845250271
 20
96.8046775153
 10
141.799447409
 20
96.8149464083
 10
141.8160938518
 20
96.829304104
 10
141.822001586
 20
96.8357854564
  0
LWPOLYLINE
  5
3D4
100
AcDbEntity
  8
RACCORDO
100
AcDbPolyline
 62
250
  6
CONTINUOUS
 90
7
 70
0
 10
142.4698208731
 20
97.6925110946
 10
142.4823685409
 20
97.7010564682
 10
142.492900776
 20
97.7104655443
 10
142.5012413461
 20
97.7205808835
 10
142.5072506916
 20
97.7312332288
 10
142.5108282605
 20
97.7422443374
 10
142.5119198678
 20
97.752614788
  0
LWPOLYLINE
  5
3D5
100
AcDbEntity
  8
RACCORDO
100
AcDbPolyline
 62
250
  6
CONTINUOUS
 90
7
 70
0
 10
142.4698208731
 20
97.3168872073
 10
142.4823685345
 20
97.325432575
 10
142.4929007663
 20
97.3348416456
 10
142.501241336
 20
97.3449569798
 10
142.5072506835
 20
97.3556093209
 10
142.5108282561
 20
97.3666204267
 10
142.5119198883
 20
97.3770118852
  0
LWPOLYLINE
  5
3D6
100
AcDbEntity
  8
RACCORDO
100
AcDbPolyline
 62
250
  6
CONTINUOUS
 90
5
 70
0
 10
141.7845788997
 20
96.8047012464
 10
141.7858595876
 20
96.8055094213
 10
141.7974152504
 20
96.8144597149
 10
141.8077636616
 20
96.8257955702
 10
141.809091315
 20
96.8278441616
  0
LINE
  5
3D7
100
AcDbEntity
  8
RACCORDO
100
AcDbLine
 62
250
  6
CONTINUOUS
 10
142.4206024516
 20
97.2039935209
 11
142.4221375742
 21
97.20496091
  0
LINE
  5
3D8
100
AcDbEntity
  8
ASSI
100
AcDbLine
 62
7
  6
CONTINUOUS
 10
141.7845797204
 20
96.8047017539
 11
140.4323824693
 21
95.9684826905
  0
LINE
  5
3D9
100
AcDbEntity
  8
RACCORDO
100
AcDbLine
 62
7
  6
CONTINUOUS
 10
141.7845067555
 20
96.8046566821
 11
141.7845788997
 21
96.8047012464
  0
LINE
  5
3DA
100
AcDbEntity
  8
RACCORDO
100
AcDbLine
 62
250
  6
CONTINUOUS
 10
142.4698208731
 20
97.3168872073
 11
140.4323824693
 21
96.0636293283
  0
LINE
  5
3DB
100
AcDbEntity
  8
ASSI
100
AcDbLine
 62
7
  6
CONTINUOUS
 10
142.4206024227
 20
97.2039935031
 11
140.4323824693
 21
95.9810106061
  0
LINE
  5
3DC
100
AcDbEntity
  8
RACCORDO
100
AcDbLine
 62
7
  6
CONTINUOUS
 10
140.9735269548
 20
98.5167884067
 11
140.4323824693
 21
98.2257784145
  0
LINE
  5
3DD
100
AcDbEntity
  8
RACCORDO
100
AcDbLine
 62
250
  6
CONTINUOUS
 10
141.0709799914
 20
98.5054771071
 11
140.4323824693
 21
98.1620600255
  0
LINE
  5
3DE
100
AcDbEntity
  8
RACCORDO
100
AcDbLine
 62
250
  6
CONTINUOUS
 10
142.3433655092
 20
97.9448498368
 11
140.4323824693
 21
97.1605251618
  0
LINE
  5
3DF
100
AcDbEntity
  8
RACCORDO
100
AcDbLine
 62
250
  6
CONTINUOUS
 10
142.4698208731
 20
97.6925110946
 11
140.4323824693
 21
96.8562853508
  0
LWPOLYLINE
  5
3E0
100
AcDbEntity
  8
0
100
AcDbPolyline
 62
250
  6
CONTINUOUS
 90
9
 70
0
 10
144.1365079867
 20
132.2930869072
 10
144.2295619946
 20
132.3187620738
 10
144.3262498455
 20
132.3359955325
 10
144.4261456441
 20
132.3447610606
 10
144.5290056983
 20
132.3450851762
 10
144.6346448317
 20
132.3369828147
 10
144.7427778327
 20
132.3204667777
 10
144.8530061384
 20
132.2955890688
 10
144.9649754199
 20
132.2624267515
  0
LWPOLYLINE
  5
3E1
100
AcDbEntity
  8
RACCORDO
100
AcDbPolyline
 62
250
  6
CONTINUOUS
 90
5
 70
0
 10
144.8001254618
 20
124.0378563245
 10
144.8261045041
 20
124.0352192759
 10
144.8491511984
 20
124.0282429993
 10
144.8690186155
 20
124.0170022409
 10
144.873956276
 20
124.0131274608
  0
LWPOLYLINE
  5
3E2
100
AcDbEntity
  8
RACCORDO
100
AcDbPolyline
 62
250
  6
CONTINUOUS
 90
7
 70
0
 10
135.5222815655
 20
124.1219965811
 10
135.5083686005
 20
124.1280525395
 10
135.4929874114
 20
124.1310385501
 10
135.4763963437
 20
124.1309063103
 10
135.4588792755
 20
124.1276580828
 10
135.4407359284
 20
124.1213494458
 10
135.4222767403
 20
124.1120883417
  0
LINE
  5
3E3
100
AcDbEntity
  8
SUPERFICI
100
AcDbLine
 62
250
  6
CONTINUOUS
 10
131.7724850225
 20
125.1685715366
 11
116.9042708542
 21
133.7532920549
  0
LINE
  5
3E4
100
AcDbEntity
  8
SUPERFICI
100
AcDbLine
 62
250
  6
CONTINUOUS
 10
132.1167834643
 20
125.7754603882
 11
117.2485692959
 21
134.3601809065
  0
LINE
  5
3E5
100
AcDbEntity
  8
RACCORDO
100
AcDbLine
 62
250
  6
CONTINUOUS
 10
134.874268978
 20
124.4285011554
 11
135.4222767335
 21
124.1120883456
  0
LINE
  5
3E6
100
AcDbEntity
  8
RACCORDO
100
AcDbLine
 62
7
  6
CONTINUOUS
 10
134.874268978
 20
124.4961509276
 11
135.5222815655
 21
124.1219965811
  0
LWPOLYLINE
  5
3E7
100
AcDbEntity
  8
RACCORDO
100
AcDbPolyline
 62
250
  6
CONTINUOUS
 90
4
 70
0
 10
135.4222767335
 20
124.1120883456
 10
135.4592331262
 20
124.0885138328
 10
135.495784617
 20
124.0607248976
 10
135.5315307401
 20
124.0290260014
  0
LWPOLYLINE
  5
3E8
100
AcDbEntity
  8
0
100
AcDbPolyline
 62
7
  6
CONTINUOUS
 90
14
 70
0
 10
145.909482435
 20
113.3983245623
 10
145.9033779116
 20
113.402854992
 10
145.897347387
 20
113.4063871752
 10
145.8909502456
 20
113.4092940861
 10
145.8842537464
 20
113.4115443468
 10
145.8772551077
 20
113.4131313237
 10
145.8699571111
 20
113.4140616504
 10
145.8624353609
 20
113.4143238495
 10
145.854687417
 20
113.4139114062
 10
145.8467157194
 20
113.4128308352
 10
145.8386031922
 20
113.4110902036
 10
145.8303774768
 20
113.4086922003
 10
145.8220109319
 20
113.4056341363
 10
145.8135035573
 20
113.4019160117
  0
LINE
  5
3E9
100
AcDbEntity
  8
0
100
AcDbLine
 62
7
  6
CONTINUOUS
 10
145.4808706958
 20
113.244207998
 11
145.4630743397
 21
113.2583119879
  0
LWPOLYLINE
  5
3EA
100
AcDbEntity
  8
0
100
AcDbPolyline
 62
250
  6
CONTINUOUS
 90
25
 70
0
 10
145.8135035573
 20
113.4019160117
 10
145.9257598448
 20
113.3055225232
 10
146.0362702425
 20
113.2028184244
 10
146.1446773837
 20
113.0941376779
 10
146.2506300495
 20
112.9798343568
 10
146.3537867398
 20
112.8602788895
 10
146.4538165513
 20
112.7358564614
 10
146.5503948544
 20
112.6069724992
 10
146.64321135
 20
112.4740427912
 10
146.7319724478
 20
112.3374883654
 10
146.816394773
 20
112.1977440124
 10
146.8962005661
 20
112.0552682809
 10
146.9711259168
 20
111.9105330643
 10
147.0409260226
 20
111.7640142242
 10
147.1053798519
 20
111.6161789204
 10
147.1642839562
 20
111.4674947853
 10
147.2174723007
 20
111.318369461
 10
147.2647421692
 20
111.1693586086
 10
147.305886903
 20
111.0211519755
 10
147.3408443672
 20
110.8740167729
 10
147.3694650193
 20
110.7286334526
 10
147.3915751272
 20
110.5862687844
 10
147.4072152989
 20
110.4475912674
 10
147.4165196843
 20
110.3127041821
 10
147.4195944004
 20
110.1819571908
  0
LWPOLYLINE
  5
3EB
100
AcDbEntity
  8
0
100
AcDbPolyline
 62
7
  6
CONTINUOUS
 90
36
 70
0
 10
145.9094846944
 20
113.3983280051
 10
146.0179550723
 20
113.30453694
 10
146.1344297713
 20
113.1953244043
 10
146.2479934839
 20
113.0798515336
 10
146.35826442
 20
112.9585951138
 10
146.4649358723
 20
112.8319755561
 10
146.5677597261
 20
112.7003497745
 10
146.6664023917
 20
112.5641911116
 10
146.7605520676
 20
112.4239713884
 10
146.8499837109
 20
112.2800469473
 10
146.9344047937
 20
112.1328862413
 10
147.0135126867
 20
111.9830070389
 10
147.0870665218
 20
111.8308406319
 10
147.1548038162
 20
111.6768823072
 10
147.2164637053
 20
111.5216634659
 10
147.2718216328
 20
111.3656671566
 10
147.3206902923
 20
111.2092864905
 10
147.3628121481
 20
111.0531767477
 10
147.3979278597
 20
110.8981940447
 10
147.4258971626
 20
110.7449257207
 10
147.4466303321
 20
110.593791428
 10
147.460031183
 20
110.4453446879
 10
147.4660376711
 20
110.2998621059
 10
147.4645769949
 20
110.1579995861
 10
147.4556669706
 20
110.0207725936
 10
147.4393810965
 20
109.8885596113
 10
147.4158018848
 20
109.761695094
 10
147.3851547195
 20
109.6409630409
 10
147.3477668465
 20
109.5269958487
 10
147.3037421048
 20
109.4196053255
 10
147.2529378722
 20
109.3183765727
 10
147.1953448438
 20
109.2234935196
 10
147.1311827567
 20
109.1355069443
 10
147.0605645615
 20
109.054721874
 10
146.9836376958
 20
108.9814771996
 10
146.9114923942
 20
108.9239979415
  0
LWPOLYLINE
  5
3EC
100
AcDbEntity
  8
RACCORDO
100
AcDbPolyline
 62
7
  6
CONTINUOUS
 90
35
 70
0
 10
145.0740161676
 20
113.0224453206
 10
145.2053572365
 20
112.8921629004
 10
145.3520612276
 20
112.7343502704
 10
145.4937656934
 20
112.5694036903
 10
145.6300927048
 20
112.3979044962
 10
145.7606149494
 20
112.2205209183
 10
145.8849999246
 20
112.0378219202
 10
146.0029918993
 20
111.8502603672
 10
146.1142348759
 20
111.6584415688
 10
146.2183667435
 20
111.4630117831
 10
146.3151102947
 20
111.2644795715
 10
146.4041342288
 20
111.0634706136
 10
146.485114798
 20
110.8606311808
 10
146.5577888828
 20
110.6564794346
 10
146.6218691989
 20
110.4515983158
 10
146.6770461736
 20
110.2466804904
 10
146.7230450787
 20
110.0423608345
 10
146.7596333145
 20
109.8390841552
 10
146.7865137431
 20
109.6376629311
 10
146.8034169675
 20
109.4391817735
 10
146.8101836669
 20
109.2439735703
 10
146.8066296404
 20
109.0528635771
 10
146.7927126185
 20
108.8674676624
 10
146.7684346944
 20
108.6880728677
 10
146.7338347396
 20
108.515291591
 10
146.6893632242
 20
108.35091279
 10
146.6354509183
 20
108.1955428949
 10
146.5723166447
 20
108.0490618628
 10
146.5004287123
 20
107.9119772226
 10
146.4202775026
 20
107.7846343301
 10
146.3322556412
 20
107.667140365
 10
146.2368229182
 20
107.5596816831
 10
146.134527388
 20
107.4624875123
 10
146.0259784212
 20
107.3757606221
 10
145.9118118295
 20
107.2996406181
  0
LWPOLYLINE
  5
3ED
100
AcDbEntity
  8
RACCORDO
100
AcDbPolyline
 62
250
  6
CONTINUOUS
 90
35
 70
0
 10
144.910955481
 20
112.9235897163
 10
145.006870676
 20
112.826891293
 10
145.1504979892
 20
112.6707831569
 10
145.2908100428
 20
112.5065402812
 10
145.4271858702
 20
112.3347253384
 10
145.5591502193
 20
112.1557666272
 10
145.6853930458
 20
111.9713755887
 10
145.8052409727
 20
111.7826396775
 10
145.9185743401
 20
111.5898561698
 10
146.0250451311
 20
111.3936783889
 10
146.1242602204
 20
111.1949022676
 10
146.2159529597
 20
110.9941386036
 10
146.2999645588
 20
110.7917588098
 10
146.376034602
 20
110.5883487037
 10
146.4438364551
 20
110.3847357845
 10
146.5031178597
 20
110.1816514265
 10
146.5536688949
 20
109.979783974
 10
146.5952973125
 20
109.7798649987
 10
146.6278369061
 20
109.5826826454
 10
146.65117389
 20
109.3889628603
 10
146.6652374442
 20
109.1993442888
 10
146.669982184
 20
109.0144641592
 10
146.6653916145
 20
108.8349699828
 10
146.6514819066
 20
108.6614891309
 10
146.6282977818
 20
108.4946049255
 10
146.5959093539
 20
108.3348744691
 10
146.5544297342
 20
108.1828931308
 10
146.5040240691
 20
108.0392569317
 10
146.4448828766
 20
107.9044744003
 10
146.3772159929
 20
107.7789944773
 10
146.301277903
 20
107.6632623037
 10
146.2173959351
 20
107.557728795
 10
146.1258302716
 20
107.4626779591
 10
146.0267418096
 20
107.3782986761
 10
145.9118118407
 20
107.2996406249
  0
LWPOLYLINE
  5
3EE
100
AcDbEntity
  8
RACCORDO
100
AcDbPolyline
 62
250
  6
CONTINUOUS
 90
13
 70
0
 10
135.5315307401
 20
124.0290260014
 10
135.5660798534
 20
123.9937644439
 10
135.5990534297
 20
123.9553265582
 10
135.6300902035
 20
123.9141334778
 10
135.6588501293
 20
123.8706365228
 10
135.6850181074
 20
123.8253122549
 10
135.708307436
 20
123.7786572564
 10
135.7284629523
 20
123.731182689
 10
135.7452638283
 20
123.6834086942
 10
135.75852599
 20
123.6358586941
 10
135.7681041345
 20
123.5890536563
 10
135.7738933217
 20
123.5435063867
 10
135.775830124
 20
123.4997159105
  0
LWPOLYLINE
  5
3EF
100
AcDbEntity
  8
RACCORDO
100
AcDbPolyline
 62
7
  6
CONTINUOUS
 90
3
 70
0
 10
144.9067959414
 20
112.9210679938
 10
144.9158469087
 20
112.9109931771
 10
144.9324663289
 20
112.8936360019
  0
LWPOLYLINE
  5
3F0
100
AcDbEntity
  8
ASSI
100
AcDbPolyline
 62
250
  6
CONTINUOUS
 90
7
 70
0
 10
129.1784735098
 20
132.695701089
 10
129.1731219942
 20
132.702527677
 10
129.157764043
 20
132.7186367082
 10
129.140241129
 20
132.7325498781
 10
129.1208242703
 20
132.7440520511
 10
129.0998137537
 20
132.7529653959
 10
129.0775345107
 20
132.7591521125
  0
LWPOLYLINE
  5
3F1
100
AcDbEntity
  8
ASSI
100
AcDbPolyline
 62
250
  6
CONTINUOUS
 90
4
 70
0
 10
132.0162231439
 20
134.0797935954
 10
132.0218395848
 20
134.0705683191
 10
132.0256466666
 20
134.0610666403
 10
132.0257734701
 20
134.0604435672
  0
LWPOLYLINE
  5
3F2
100
AcDbEntity
  8
ASSI
100
AcDbPolyline
 62
250
  6
CONTINUOUS
 90
16
 70
0
 10
132.2048474786
 20
134.2816820231
 10
132.2139516131
 20
134.2647024491
 10
132.2207616678
 20
134.2475458596
 10
132.2252776429
 20
134.2302122546
 10
132.2275103679
 20
134.2125962037
 10
132.2274490132
 20
134.1948031373
 10
132.2250610901
 20
134.177149347
 10
132.2202847107
 20
134.159621146
 10
132.213181763
 20
134.142232221
 10
132.2039054226
 20
134.1253399241
 10
132.1924106531
 20
134.1089731604
 10
132.1787424909
 20
134.0931030248
 10
132.1631892206
 20
134.0780001531
 10
132.1458469371
 20
134.0637547573
 10
132.1266195454
 20
134.0502766255
 10
132.1055070457
 20
134.0375657576
  0
LWPOLYLINE
  5
3F3
100
AcDbEntity
  8
ASSI
100
AcDbPolyline
 62
250
  6
CONTINUOUS
 90
4
 70
0
 10
134.4059404451
 20
130.6155914256
 10
134.4036743712
 20
130.6199686788
 10
134.3990754733
 20
130.6275030947
 10
134.39409855
 20
130.6342043424
  0
LINE
  5
3F4
100
AcDbEntity
  8
ASSI
100
AcDbLine
 62
7
  6
CONTINUOUS
 10
134.4059586497
 20
130.6155540124
 11
134.4059404451
 21
130.6155914256
  0
LWPOLYLINE
  5
3F5
100
AcDbEntity
  8
ASSI
100
AcDbPolyline
 62
7
  6
CONTINUOUS
 90
6
 70
0
 10
134.4059773656
 20
130.6155156319
 10
134.4115097176
 20
130.6035334392
 10
134.4175928646
 20
130.5885840625
 10
134.4228562543
 20
130.5734778836
 10
134.427293154
 20
130.5582739428
 10
134.4309131811
 20
130.5429889715
  0
LINE
  5
3F6
100
AcDbEntity
  8
ASSI
100
AcDbLine
 62
7
  6
CONTINUOUS
 10
134.4061457546
 20
130.6151526648
 11
134.4061778226
 21
130.6150789491
  0
LWPOLYLINE
  5
3F7
100
AcDbEntity
  8
RACCORDO
100
AcDbPolyline
 62
250
  6
CONTINUOUS
 90
24
 70
0
 10
139.7892067051
 20
124.6718637023
 10
139.8031297149
 20
124.6349995309
 10
139.8165276865
 20
124.5989823961
 10
139.8294128371
 20
124.563822732
 10
139.8417838514
 20
124.5295676139
 10
139.8536639784
 20
124.4961881089
 10
139.8651008419
 20
124.4635788914
 10
139.8761074718
 20
124.4317325875
 10
139.8866864517
 20
124.4006696718
 10
139.8968677076
 20
124.3703250616
 10
139.906657362
 20
124.3407043751
 10
139.9160613842
 20
124.311812382
 10
139.925107394
 20
124.2835820549
 10
139.9338044462
 20
124.2560033821
 10
139.9421524691
 20
124.2290950207
 10
139.9501628229
 20
124.2028333424
 10
139.9578395632
 20
124.1772220909
 10
139.9651862511
 20
124.1522652577
 10
139.9722127198
 20
124.1279396213
 10
139.9789250687
 20
124.1042397651
 10
139.9853228811
 20
124.0811786644
 10
139.9914082102
 20
124.0587592405
 10
139.9971910179
 20
124.0369570416
 10
140.0026660932
 20
124.0158039553
  0
LWPOLYLINE
  5
3F8
100
AcDbEntity
  8
RACCORDO
100
AcDbPolyline
 62
7
  6
CONTINUOUS
 90
9
 70
0
 10
136.9691650752
 20
135.3047180742
 10
136.9616464965
 20
135.3278855322
 10
136.9517702759
 20
135.3501304993
 10
136.9396331042
 20
135.3713154911
 10
136.9259219888
 20
135.390458517
 10
136.9108815063
 20
135.407539305
 10
136.8942865521
 20
135.4228821428
 10
136.8766399608
 20
135.4360384952
 10
136.865987413
 20
135.442649026
  0
LWPOLYLINE
  5
3F9
100
AcDbEntity
  8
RACCORDO
100
AcDbPolyline
 62
250
  6
CONTINUOUS
 90
8
 70
0
 10
140.3487812322
 20
123.2000575622
 10
140.3488985195
 20
123.1996796126
 10
140.3480465361
 20
123.1973127448
 10
140.3449572922
 20
123.1938786465
 10
140.3396824789
 20
123.1894347791
 10
140.3323103581
 20
123.1840555006
 10
140.3229642849
 20
123.1778308206
 10
140.3118006443
 20
123.1708648948
  0
LWPOLYLINE
  5
3FA
100
AcDbEntity
  8
RACCORDO
100
AcDbPolyline
 62
7
  6
CONTINUOUS
 90
11
 70
0
 10
139.123218048
 20
127.8569275552
 10
139.1213208842
 20
127.86368902
 10
139.1167630282
 20
127.8780078945
 10
139.1112354388
 20
127.8931314981
 10
139.1047819067
 20
127.9089140793
 10
139.0975209427
 20
127.9251017306
 10
139.0894930033
 20
127.9416544223
 10
139.0805995726
 20
127.9587763315
 10
139.0707824203
 20
127.9765272572
 10
139.0599882021
 20
127.9949176868
 10
139.0535618836
 20
128.0053827142
  0
LWPOLYLINE
  5
3FB
100
AcDbEntity
  8
RACCORDO
100
AcDbPolyline
 62
250
  6
CONTINUOUS
 90
9
 70
0
 10
140.089072758
 20
123.7171191857
 10
140.0891628732
 20
123.7167952618
 10
140.0881761456
 20
123.7146964573
 10
140.0849683145
 20
123.7114983251
 10
140.0795930552
 20
123.707254377
 10
140.0721403085
 20
123.7020356265
 10
140.0627347773
 20
123.6959293962
 10
140.0515338404
 20
123.6890378571
 10
140.0387249176
 20
123.6814763211
  0
LINE
  5
3FC
100
AcDbEntity
  8
RACCORDO
100
AcDbLine
 62
250
  6
CONTINUOUS
 10
139.1043486245
 20
127.5829604709
 11
138.9985645888
 21
127.9779603943
  0
LWPOLYLINE
  5
3FD
100
AcDbEntity
  8
RACCORDO
100
AcDbPolyline
 62
250
  6
CONTINUOUS
 90
17
 70
0
 10
139.9780265177
 20
123.8590351149
 10
139.9816987335
 20
123.8451173992
 10
139.9853041139
 20
123.8317210823
 10
139.9888425959
 20
123.8188592565
 10
139.9923532108
 20
123.8064487729
 10
139.9958290499
 20
123.7945011198
 10
139.999277591
 20
123.7830050546
 10
140.0027592757
 20
123.771843262
 10
140.0062678504
 20
123.761020782
 10
140.0098099184
 20
123.7505327284
 10
140.0134650156
 20
123.7402468199
 10
140.0172302214
 20
123.7301573628
 10
140.0211085941
 20
123.7202701188
 10
140.0251884529
 20
123.7104699165
 10
140.0294991858
 20
123.7007183507
 10
140.0340113471
 20
123.6910538189
 10
140.0387249176
 20
123.6814763211
  0
LWPOLYLINE
  5
3FE
100
AcDbEntity
  8
RACCORDO
100
AcDbPolyline
 62
7
  6
CONTINUOUS
 90
16
 70
0
 10
136.9834588706
 20
135.178958126
 10
136.9872617224
 20
135.1642284777
 10
136.9922255422
 20
135.1485799193
 10
136.9983324873
 20
135.1323650802
 10
137.0055721189
 20
135.1158029113
 10
137.0138918311
 20
135.0991520372
 10
137.023118626
 20
135.0828211684
 10
137.0331267044
 20
135.0670369962
 10
137.0437657315
 20
135.052017905
 10
137.0547447867
 20
135.0381095373
 10
137.0658587033
 20
135.0254650552
 10
137.0769131813
 20
135.0141862394
 10
137.0875868857
 20
135.0044521368
 10
137.0976312093
 20
134.9963055768
 10
137.1068949237
 20
134.989676515
 10
137.1152079802
 20
134.9844920284
  0
LWPOLYLINE
  5
3FF
100
AcDbEntity
  8
RACCORDO
100
AcDbPolyline
 62
250
  6
CONTINUOUS
 90
6
 70
0
 10
140.3209739096
 20
123.1064190982
 10
140.323504348
 20
123.0965311596
 10
140.3256727063
 20
123.0864899527
 10
140.3274752769
 20
123.076116885
 10
140.3288506455
 20
123.0653954382
 10
140.32971229
 20
123.0544644312
  0
LINE
  5
400
100
AcDbEntity
  8
RACCORDO
100
AcDbLine
 62
250
  6
CONTINUOUS
 10
139.9704385587
 20
123.888594886
 11
139.9780265177
 21
123.8590351149
  0
LWPOLYLINE
  5
401
100
AcDbEntity
  8
RACCORDO
100
AcDbPolyline
 62
250
  6
CONTINUOUS
 90
4
 70
0
 10
140.0026660932
 20
124.0158039553
 10
140.0078136804
 20
123.9953884473
 10
140.0126347358
 20
123.975728994
 10
140.0145137355
 20
123.9679057041
  0
LINE
  5
402
100
AcDbEntity
  8
RACCORDO
100
AcDbLine
 62
250
  6
CONTINUOUS
 10
139.9624076825
 20
123.9207934699
 11
139.9704385587
 21
123.888594886
  0
LINE
  5
403
100
AcDbEntity
  8
RACCORDO
100
AcDbLine
 62
7
  6
CONTINUOUS
 10
140.0327236099
 20
123.893323029
 11
140.0229070779
 21
123.9330638529
  0
LINE
  5
404
100
AcDbEntity
  8
RACCORDO
100
AcDbLine
 62
250
  6
CONTINUOUS
 10
139.9538418985
 20
123.955948874
 11
139.9624076825
 21
123.9207934699
  0
LINE
  5
405
100
AcDbEntity
  8
RACCORDO
100
AcDbLine
 62
7
  6
CONTINUOUS
 10
140.0229070779
 20
123.9330638529
 11
140.0145197175
 21
123.9678820791
  0
LWPOLYLINE
  5
406
100
AcDbEntity
  8
RACCORDO
100
AcDbPolyline
 62
250
  6
CONTINUOUS
 90
30
 70
0
 10
140.0064714947
 20
124.0054492761
 10
140.0031418396
 20
124.0193898375
 10
139.9996141289
 20
124.0337983655
 10
139.9958854365
 20
124.0486721226
 10
139.9919520783
 20
124.0640117919
 10
139.9878008103
 20
124.0798571537
 10
139.9834282108
 20
124.0962054705
 10
139.9788301554
 20
124.1130569911
 10
139.9739911967
 20
124.1304556652
 10
139.9689087108
 20
124.148394004
 10
139.9635768337
 20
124.1668764892
 10
139.9579737236
 20
124.1859645917
 10
139.9520988652
 20
124.2056408997
 10
139.9459428646
 20
124.2259190728
 10
139.9394679082
 20
124.2469064211
 10
139.9326733955
 20
124.2685807387
 10
139.925547066
 20
124.2909591495
 10
139.9180291733
 20
124.3142066093
 10
139.9101181238
 20
124.3382966412
 10
139.9017979587
 20
124.3632484464
 10
139.892980761
 20
124.3892933157
 10
139.8836431019
 20
124.4164596748
 10
139.8737835629
 20
124.4447080993
 10
139.8633410656
 20
124.4741657031
 10
139.8522306203
 20
124.5050303741
 10
139.8405081987
 20
124.5370892275
 10
139.8283301986
 20
124.5698547295
 10
139.8157498982
 20
124.603162384
 10
139.8027090952
 20
124.6371676502
 10
139.7892059372
 20
124.6718656338
  0
LINE
  5
407
100
AcDbEntity
  8
RACCORDO
100
AcDbLine
 62
250
  6
CONTINUOUS
 10
139.9399321621
 20
124.014341175
 11
139.9538418985
 21
123.955948874
  0
LINE
  5
408
100
AcDbEntity
  8
RACCORDO
100
AcDbLine
 62
250
  6
CONTINUOUS
 10
139.9140989266
 20
124.1254594196
 11
139.9399321621
 21
124.014341175
  0
LWPOLYLINE
  5
409
100
AcDbEntity
  8
RACCORDO
100
AcDbPolyline
 62
250
  6
CONTINUOUS
 90
6
 70
0
 10
136.9281213844
 20
135.2783991393
 10
136.9251582612
 20
135.2913234956
 10
136.9215219124
 20
135.3044311446
 10
136.9171932371
 20
135.3176334284
 10
136.9121459245
 20
135.330872989
 10
136.9063842079
 20
135.3440505446
  0
LINE
  5
40A
100
AcDbEntity
  8
RACCORDO
100
AcDbLine
 62
250
  6
CONTINUOUS
 10
139.7892059741
 20
124.671865883
 11
139.9140989266
 21
124.1254594196
  0
LWPOLYLINE
  5
40B
100
AcDbEntity
  8
RACCORDO
100
AcDbPolyline
 62
250
  6
CONTINUOUS
 90
9
 70
0
 10
139.7892059741
 20
124.671865883
 10
139.7174814142
 20
125.0125441893
 10
139.6420805515
 20
125.3598937441
 10
139.5628895378
 20
125.7138008343
 10
139.4799049312
 20
126.0737543418
 10
139.3929091945
 20
126.4400192392
 10
139.3014462367
 20
126.8136214216
 10
139.2052658195
 20
127.194787729
 10
139.1043486245
 20
127.5829604709
  0
LWPOLYLINE
  5
40C
100
AcDbEntity
  8
RACCORDO
100
AcDbPolyline
 62
250
  6
CONTINUOUS
 90
6
 70
0
 10
140.0185913747
 20
123.9509084811
 10
140.0179567404
 20
123.9539902405
 10
140.0153505562
 20
123.9662278754
 10
140.012572959
 20
123.9788674421
 10
140.0096141916
 20
123.9919417796
 10
140.0064714947
 20
124.0054492761
  0
LWPOLYLINE
  5
40D
100
AcDbEntity
  8
RACCORDO
100
AcDbPolyline
 62
7
  6
CONTINUOUS
 90
10
 70
0
 10
140.0193591348
 20
123.9477339365
 10
139.9749794222
 20
124.1763476436
 10
139.8766771193
 20
124.665539372
 10
139.7743258693
 20
125.1528199216
 10
139.6679508878
 20
125.6380723015
 10
139.55757777
 20
126.12117772
 10
139.4432332387
 20
126.6020158054
 10
139.3249449367
 20
127.0804682219
 10
139.2027402112
 20
127.5564183441
 10
139.1232225111
 20
127.8569100643
  0
LINE
  5
40E
100
AcDbEntity
  8
RACCORDO
100
AcDbLine
 62
250
  6
CONTINUOUS
 10
140.0235186737
 20
123.9263070903
 11
140.022514357
 21
123.9314804048
  0
LWPOLYLINE
  5
40F
100
AcDbEntity
  8
0
100
AcDbPolyline
 62
250
  6
CONTINUOUS
 90
13
 70
0
 10
147.4195944004
 20
128.5525384186
 10
147.4165325404
 20
128.4256043178
 10
147.4072558924
 20
128.3015988479
 10
147.3916419077
 20
128.1810038216
 10
147.3695320403
 20
128.0640534989
 10
147.3408730929
 20
127.9515164228
 10
147.30585806
 20
127.8445715802
 10
147.2646535486
 20
127.743760915
 10
147.217312467
 20
127.6492419948
 10
147.1640373925
 20
127.561456744
 10
147.1050269387
 20
127.4807232327
 10
147.0404507389
 20
127.4072652376
 10
146.9705196317
 20
127.3413231262
  0
LWPOLYLINE
  5
410
100
AcDbEntity
  8
0
100
AcDbPolyline
 62
250
  6
CONTINUOUS
 90
13
 70
0
 10
147.4195944004
 20
110.1819571908
 10
147.4165325404
 20
110.05502309
 10
147.4072558924
 20
109.9310176201
 10
147.3916419077
 20
109.8104225937
 10
147.3695320403
 20
109.6934722711
 10
147.3408730929
 20
109.5809351949
 10
147.30585806
 20
109.4739903524
 10
147.2646535486
 20
109.3731796872
 10
147.217312467
 20
109.2786607669
 10
147.1640373925
 20
109.1908755162
 10
147.1050269387
 20
109.1101420048
 10
147.0404507389
 20
109.0366840098
 10
146.9705196317
 20
108.9707418983
  0
LWPOLYLINE
  5
411
100
AcDbEntity
  8
RACCORDO
100
AcDbPolyline
 62
250
  6
CONTINUOUS
 90
14
 70
0
 10
142.4282014551
 20
97.2092667968
 10
142.4338952943
 20
97.2141144713
 10
142.4391935961
 20
97.219475022
 10
142.4440985592
 20
97.2253429855
 10
142.4486175022
 20
97.2317286124
 10
142.4527172522
 20
97.2385860544
 10
142.4564059506
 20
97.2459297744
 10
142.4597257102
 20
97.2538895255
 10
142.4626379167
 20
97.262466474
 10
142.4651076035
 20
97.2716676407
 10
142.4671296312
 20
97.2816759858
 10
142.4686430769
 20
97.2925728847
 10
142.4695638135
 20
97.3043094688
 10
142.4698208731
 20
97.3168872073
  0
LINE
  5
412
100
AcDbEntity
  8
RACCORDO
100
AcDbLine
 62
7
  6
CONTINUOUS
 10
139.9144122963
 20
93.8667674488
 11
140.01395323
 21
93.9482930924
  0
LINE
  5
413
100
AcDbEntity
  8
RACCORDO
100
AcDbLine
 62
7
  6
CONTINUOUS
 10
139.888448144
 20
93.8456807136
 11
139.9144122963
 21
93.8667674488
  0
LWPOLYLINE
  5
414
100
AcDbEntity
  8
RACCORDO
100
AcDbPolyline
 62
7
  6
CONTINUOUS
 90
6
 70
0
 10
140.1221826999
 20
94.0348615728
 10
140.1786247251
 20
94.0805177721
 10
140.2347673916
 20
94.1266308949
 10
140.2906106992
 20
94.1732009412
 10
140.3461546481
 20
94.2202279109
 10
140.4013992383
 20
94.267711804
  0
LINE
  5
415
100
AcDbEntity
  8
RACCORDO
100
AcDbLine
 62
7
  6
CONTINUOUS
 10
140.01395323
 20
93.9482930924
 11
140.039287623
 21
93.968780598
  0
LINE
  5
416
100
AcDbEntity
  8
RACCORDO
100
AcDbLine
 62
7
  6
CONTINUOUS
 10
139.8615759841
 20
93.8240697576
 11
139.888448144
 21
93.8456807136
  0
LINE
  5
417
100
AcDbEntity
  8
RACCORDO
100
AcDbLine
 62
7
  6
CONTINUOUS
 10
135.5377961729
 20
91.2464598272
 11
135.6259819917
 21
91.3171421027
  0
LINE
  5
418
100
AcDbEntity
  8
RACCORDO
100
AcDbLine
 62
250
  6
CONTINUOUS
 10
139.7035438668
 20
93.698623943
 11
139.7892059896
 21
93.7672468219
  0
LINE
  5
419
100
AcDbEntity
  8
RACCORDO
100
AcDbLine
 62
7
  6
CONTINUOUS
 10
140.039287623
 20
93.968780598
 11
140.1221826999
 21
94.0348615728
  0
LINE
  5
41A
100
AcDbEntity
  8
RACCORDO
100
AcDbLine
 62
7
  6
CONTINUOUS
 10
139.8336338404
 20
93.8018717438
 11
139.8615759841
 21
93.8240697576
  0
LINE
  5
41B
100
AcDbEntity
  8
RACCORDO
100
AcDbLine
 62
7
  6
CONTINUOUS
 10
139.8079474672
 20
93.7817524746
 11
139.8336338404
 21
93.8018717438
  0
LINE
  5
41C
100
AcDbEntity
  8
RACCORDO
100
AcDbLine
 62
7
  6
CONTINUOUS
 10
139.7892059896
 20
93.7672468219
 11
139.8079474672
 21
93.7817524746
  0
LWPOLYLINE
  5
41D
100
AcDbEntity
  8
RACCORDO
100
AcDbPolyline
 62
250
  6
CONTINUOUS
 90
3
 70
0
 10
139.7892058405
 20
93.7672470544
 10
139.8004308865
 20
93.7757333131
 10
139.8079474672
 20
93.7817524746
  0
LWPOLYLINE
  5
41E
100
AcDbEntity
  8
RACCORDO
100
AcDbPolyline
 62
7
  6
CONTINUOUS
 90
6
 70
0
 10
135.0864010124
 20
90.9098890466
 10
135.17807552
 20
90.9749577898
 10
135.2690522898
 20
91.0411492395
 10
135.3593313219
 20
91.1084633956
 10
135.4489126163
 20
91.1769002582
 10
135.5377961729
 20
91.2464598272
  0
LWPOLYLINE
  5
41F
100
AcDbEntity
  8
RACCORDO
100
AcDbPolyline
 62
7
  6
CONTINUOUS
 90
4
 70
0
 10
139.5143838702
 20
93.5697681342
 10
139.6096109894
 20
93.6307484844
 10
139.7174674625
 20
93.7081670894
 10
139.8213489683
 20
93.7920301093
  0
LWPOLYLINE
  5
420
100
AcDbEntity
  8
RACCORDO
100
AcDbPolyline
 62
250
  6
CONTINUOUS
 90
3
 70
0
 10
139.51438592
 20
93.5697692666
 10
139.5297732119
 20
93.5791875949
 10
139.6169956366
 20
93.6360294507
  0
LINE
  5
421
100
AcDbEntity
  8
RACCORDO
100
AcDbLine
 62
7
  6
CONTINUOUS
 10
139.5142619728
 20
93.5696941179
 11
139.51438592
 21
93.5697692666
  0
LINE
  5
422
100
AcDbEntity
  8
ASSI
100
AcDbLine
 62
7
  6
CONTINUOUS
 10
139.5142662653
 20
93.5696967202
 11
134.874268978
 21
90.7566965703
  0
LINE
  5
423
100
AcDbEntity
  8
RACCORDO
100
AcDbLine
 62
250
  6
CONTINUOUS
 10
140.4323824693
 20
94.3518132136
 11
134.874268978
 21
90.9886682573
  0
LINE
  5
424
100
AcDbEntity
  8
RACCORDO
100
AcDbLine
 62
250
  6
CONTINUOUS
 10
140.4013992383
 20
94.267711804
 11
134.874268978
 21
90.9233541521
  0
LWPOLYLINE
  5
425
100
AcDbEntity
  8
RACCORDO
100
AcDbPolyline
 62
7
  6
CONTINUOUS
 90
9
 70
0
 10
135.5839505188
 20
91.3110481662
 10
135.6001878964
 20
91.3205790087
 10
135.6146025475
 20
91.3287090321
 10
135.6269641997
 20
91.3353052748
 10
135.6370893373
 20
91.3402376076
 10
135.6448085938
 20
91.3434323913
 10
135.6499730625
 20
91.3448761197
 10
135.6525183538
 20
91.3445187914
 10
135.6526588091
 20
91.3443326068
  0
LINE
  5
426
100
AcDbEntity
  8
SUPERFICI
100
AcDbLine
 62
7
  6
CONTINUOUS
 10
135.2687781034
 20
90.0323882314
 11
134.874268978
 21
89.8125548291
  0
LINE
  5
427
100
AcDbEntity
  8
SUPERFICI
100
AcDbLine
 62
7
  6
CONTINUOUS
 10
134.874268978
 20
90.2516588814
 11
134.8818270416
 21
90.2558089248
  0
LINE
  5
428
100
AcDbEntity
  8
RACCORDO
100
AcDbLine
 62
250
  6
CONTINUOUS
 10
137.2224218613
 20
133.0871735437
 11
139.7024834298
 21
133.7816821571
  0
LINE
  5
429
100
AcDbEntity
  8
ASSI
100
AcDbLine
 62
7
  6
CONTINUOUS
 10
137.131886756
 20
133.1009007117
 11
139.6139117568
 21
133.7959591585
  0
LWPOLYLINE
  5
42A
100
AcDbEntity
  8
ASSI
100
AcDbPolyline
 62
250
  6
CONTINUOUS
 90
13
 70
0
 10
139.1383758844
 20
133.2671977719
 10
139.1426167857
 20
133.268346718
 10
139.1467908798
 20
133.2695540819
 10
139.1508981669
 20
133.2708198637
 10
139.154927243
 20
133.2721366415
 10
139.1588895121
 20
133.2735118371
 10
139.1628191859
 20
133.2749677162
 10
139.1667249887
 20
133.2765031033
 10
139.1705981963
 20
133.2781191737
 10
139.1744468477
 20
133.2798417193
 10
139.1782736227
 20
133.2816793373
 10
139.1820758415
 20
133.2836234304
 10
139.1858535041
 20
133.2856739987
  0
LINE
  5
42B
100
AcDbEntity
  8
ASSI
100
AcDbLine
 62
250
  6
CONTINUOUS
 10
137.7145702871
 20
132.6200955659
 11
139.2451032351
 21
133.0226570925
  0
LINE
  5
42C
100
AcDbEntity
  8
ASSI
100
AcDbLine
 62
250
  6
CONTINUOUS
 10
137.6078429364
 20
132.8646362454
 11
139.1383758844
 21
133.2671977719
  0
LWPOLYLINE
  5
42D
100
AcDbEntity
  8
ASSI
100
AcDbPolyline
 62
7
  6
CONTINUOUS
 90
10
 70
0
 10
133.9164768668
 20
129.1444494192
 10
133.8969531327
 20
129.1447365938
 10
133.8779211375
 20
129.1440630764
 10
133.8593808812
 20
129.1424288672
 10
133.8411962224
 20
129.139798968
 10
133.8235033025
 20
129.1362083769
 10
133.8067105456
 20
129.1317620877
 10
133.790954093
 20
129.1264950984
 10
133.7760978032
 20
129.120372411
 10
133.7621416765
 20
129.1133940255
  0
LINE
  5
42E
100
AcDbEntity
  8
ASSI
100
AcDbLine
 62
7
  6
CONTINUOUS
 10
133.9571335714
 20
129.1436420792
 11
133.9164768668
 21
129.1444494192
  0
LWPOLYLINE
  5
42F
100
AcDbEntity
  8
ASSI
100
AcDbPolyline
 62
250
  6
CONTINUOUS
 90
8
 70
0
 10
133.2790094278
 20
128.6360033314
 10
133.267724846
 20
128.6402543315
 10
133.2555368095
 20
128.642579112
 10
133.2425759071
 20
128.6429527512
 10
133.2289810257
 20
128.6413712394
 10
133.214897834
 20
128.6378515229
 10
133.2004772179
 20
128.6324313122
 10
133.185873686
 20
128.6251686807
  0
LWPOLYLINE
  5
430
100
AcDbEntity
  8
ASSI
100
AcDbPolyline
 62
250
  6
CONTINUOUS
 90
9
 70
0
 10
134.8106142408
 20
127.7518883402
 10
134.8062131471
 20
127.7542150303
 10
134.7949285416
 20
127.7584660075
 10
134.7827405098
 20
127.760790758
 10
134.7697796339
 20
127.7611643731
 10
134.7561847853
 20
127.7595828481
 10
134.7421016255
 20
127.7560631279
 10
134.7276810452
 20
127.7506429237
 10
134.7130775518
 20
127.743380309
  0
LINE
  5
431
100
AcDbEntity
  8
ASSI
100
AcDbLine
 62
250
  6
CONTINUOUS
 10
133.283410375
 20
128.6336767119
 11
133.2790094278
 21
128.6360033314
  0
LINE
  5
432
100
AcDbEntity
  8
ASSI
100
AcDbLine
 62
250
  6
CONTINUOUS
 10
124.1070675928
 20
133.9319820277
 11
124.1026666456
 21
133.9343086473
  0
LWPOLYLINE
  5
433
100
AcDbEntity
  8
ASSI
100
AcDbPolyline
 62
250
  6
CONTINUOUS
 90
8
 70
0
 10
133.185873686
 20
128.6251686807
 10
133.1715418944
 20
128.6328476091
 10
133.1572797813
 20
128.6387104444
 10
133.143242913
 20
128.6426716663
 10
133.1295696595
 20
128.6446664221
 10
133.116434675
 20
128.6446424829
 10
133.1040382554
 20
128.6425882696
 10
133.0929498602
 20
128.6386807776
  0
LWPOLYLINE
  5
434
100
AcDbEntity
  8
ASSI
100
AcDbPolyline
 62
250
  6
CONTINUOUS
 90
8
 70
0
 10
124.0095309038
 20
133.9234739966
 10
123.9951991122
 20
133.931152925
 10
123.9809369991
 20
133.9370157603
 10
123.9669001307
 20
133.9409769822
 10
123.9532268773
 20
133.942971738
 10
123.9400918927
 20
133.9429477988
 10
123.9276954732
 20
133.9408935855
 10
123.916607078
 20
133.9369860935
  0
LINE
  5
435
100
AcDbEntity
  8
SUPERFICI
100
AcDbLine
 62
7
  6
CONTINUOUS
 10
124.0415788836
 20
132.4015447559
 11
128.6377729613
 21
129.7477598993
  0
LINE
  5
436
100
AcDbEntity
  8
SUPERFICI
100
AcDbLine
 62
7
  6
CONTINUOUS
 10
124.5435518209
 20
132.2391831347
 11
128.7741658747
 21
129.7964796022
  0
LINE
  5
437
100
AcDbEntity
  8
SUPERFICI
100
AcDbLine
 62
7
  6
CONTINUOUS
 10
134.5208367414
 20
127.1635237746
 11
129.5072155928
 21
130.0583257903
  0
LINE
  5
438
100
AcDbEntity
  8
SUPERFICI
100
AcDbLine
 62
7
  6
CONTINUOUS
 10
124.5435518209
 20
132.9242830429
 11
119.5299306724
 21
135.8190850586
  0
LINE
  5
439
100
AcDbEntity
  8
ASSI
100
AcDbLine
 62
250
  6
CONTINUOUS
 10
127.5491630281
 20
131.8705246609
 11
131.429473894
 21
129.6300817987
  0
LINE
  5
43A
100
AcDbEntity
  8
ASSI
100
AcDbLine
 62
250
  6
CONTINUOUS
 10
134.7130775518
 20
127.743380309
 11
133.185873686
 21
128.6251686807
  0
LINE
  5
43B
100
AcDbEntity
  8
ASSI
100
AcDbLine
 62
250
  6
CONTINUOUS
 10
125.5367347695
 20
133.0416856248
 11
124.0095309038
 21
133.9234739966
  0
LINE
  5
43C
100
AcDbEntity
  8
ASSI
100
AcDbLine
 62
7
  6
CONTINUOUS
 10
134.8106142408
 20
127.7518883402
 11
133.283410375
 21
128.6336767119
  0
LINE
  5
43D
100
AcDbEntity
  8
ASSI
100
AcDbLine
 62
7
  6
CONTINUOUS
 10
125.6342714586
 20
133.050193656
 11
124.1070675928
 21
133.9319820277
  0
LINE
  5
43E
100
AcDbEntity
  8
ASSI
100
AcDbLine
 62
250
  6
CONTINUOUS
 10
127.688302213
 20
132.0132649349
 11
131.5352836834
 21
129.7920660479
  0
LINE
  5
43F
100
AcDbEntity
  8
DRAFT
100
AcDbLine
 62
7
  6
CONTINUOUS
 10
133.706547219
 20
128.931213721
 11
133.5726496875
 21
129.0085244775
  0
LWPOLYLINE
  5
440
100
AcDbEntity
  8
ASSI
100
AcDbPolyline
 62
250
  6
CONTINUOUS
 90
16
 70
0
 10
125.5367347695
 20
133.0416856248
 10
125.5514367098
 20
133.0326120444
 10
125.5660336242
 20
133.0218461903
 10
125.5803667661
 20
133.0094774057
 10
125.5942850498
 20
132.9956057132
 10
125.607619328
 20
132.9803680819
 10
125.6201890134
 20
132.9639454967
 10
125.6318575559
 20
132.9464925893
 10
125.6424738449
 20
132.9282095765
 10
125.6518676222
 20
132.9093832733
 10
125.6599240433
 20
132.8902670966
 10
125.666581745
 20
132.8710336019
 10
125.6717818865
 20
132.8518606189
 10
125.6754676459
 20
132.8329485447
 10
125.6775934725
 20
132.8145182423
 10
125.6781345866
 20
132.7967739577
  0
LWPOLYLINE
  5
441
100
AcDbEntity
  8
ASSI
100
AcDbPolyline
 62
250
  6
CONTINUOUS
 90
3
 70
0
 10
129.1384027034
 20
132.6555136219
 10
129.1593620423
 20
132.637060419
 10
129.1835617654
 20
132.619060797
  0
LWPOLYLINE
  5
442
100
AcDbEntity
  8
ASSI
100
AcDbPolyline
 62
250
  6
CONTINUOUS
 90
7
 70
0
 10
134.39409855
 20
130.6342043424
 10
134.3888273967
 20
130.6401418679
 10
134.3833738476
 20
130.6453117582
 10
134.3778696314
 20
130.6496389309
 10
134.3723999561
 20
130.653131446
 10
134.3670117139
 20
130.6558755175
 10
134.3617605231
 20
130.6579189954
  0
LWPOLYLINE
  5
443
100
AcDbEntity
  8
RACCORDO
100
AcDbPolyline
 62
7
  6
CONTINUOUS
 90
12
 70
0
 10
138.9360412926
 20
128.1926245102
 10
138.8851595156
 20
128.2685993433
 10
138.8313238819
 20
128.3423814202
 10
138.774724406
 20
128.4136018159
 10
138.7156013819
 20
128.4818455692
 10
138.6542410377
 20
128.5467150274
 10
138.5908389483
 20
128.6079212854
 10
138.5256256873
 20
128.6651534802
 10
138.458932425
 20
128.7180339031
 10
138.3910279412
 20
128.766269048
 10
138.3221540446
 20
128.8096156568
 10
138.312011142
 20
128.8155316284
  0
LWPOLYLINE
  5
444
100
AcDbEntity
  8
ASSI
100
AcDbPolyline
 62
7
  6
CONTINUOUS
 90
10
 70
0
 10
136.8569096672
 20
132.0857422389
 10
136.8686126199
 20
132.0672678049
 10
136.8789192384
 20
132.0483775856
 10
136.8878213587
 20
132.0291515228
 10
136.8953022002
 20
132.0097180673
 10
136.901391829
 20
131.9901129279
 10
136.9061332973
 20
131.970275742
 10
136.9095247983
 20
131.9502403244
 10
136.911553158
 20
131.9301372185
 10
136.912226223
 20
131.9100502228
  0
LWPOLYLINE
  5
445
100
AcDbEntity
  8
ASSI
100
AcDbPolyline
 62
250
  6
CONTINUOUS
 90
13
 70
0
 10
138.0722452132
 20
127.688231507
 10
138.0276143141
 20
127.7587795901
 10
137.9807522043
 20
127.8273062766
 10
137.9318240697
 20
127.893564549
 10
137.8809998164
 20
127.9573140786
 10
137.8284615722
 20
128.0183264939
 10
137.7744030323
 20
128.0763861857
 10
137.7190164766
 20
128.1312828718
 10
137.6624966262
 20
128.1828195303
 10
137.6050478555
 20
128.2308168527
 10
137.54687489
 20
128.2751031346
 10
137.488182278
 20
128.3155155587
 10
137.4291780449
 20
128.3519074812
  0
LINE
  5
446
100
AcDbEntity
  8
RACCORDO
100
AcDbLine
 62
7
  6
CONTINUOUS
 10
138.9579441257
 20
128.1579792505
 11
138.9360412926
 21
128.1926245102
  0
LINE
  5
447
100
AcDbEntity
  8
RACCORDO
100
AcDbLine
 62
250
  6
CONTINUOUS
 10
138.8907169667
 20
128.1499863566
 11
138.9985645888
 21
127.9779603943
  0
LINE
  5
448
100
AcDbEntity
  8
RACCORDO
100
AcDbLine
 62
7
  6
CONTINUOUS
 10
139.0535620386
 20
128.0053825236
 11
138.9579441257
 21
128.1579792505
  0
LWPOLYLINE
  5
449
100
AcDbEntity
  8
ASSI
100
AcDbPolyline
 62
250
  6
CONTINUOUS
 90
16
 70
0
 10
136.6914946444
 20
132.1366182557
 10
136.6813658704
 20
132.1534032535
 10
136.6735190275
 20
132.1704115615
 10
136.6679541158
 20
132.1876431798
 10
136.6646539154
 20
132.205203255
 10
136.663635646
 20
132.2229866405
 10
136.6649509674
 20
132.2406778959
 10
136.6686608992
 20
132.2582919515
 10
136.6747044216
 20
132.2758138771
 10
136.6829501353
 20
132.2928834417
 10
136.6934448027
 20
132.3094726687
 10
136.7061416613
 20
132.3256095347
 10
136.7207690244
 20
132.3410177388
 10
136.7372363298
 20
132.3556051806
 10
136.7556341396
 20
132.3694639605
 10
136.7759624539
 20
132.3825940785
  0
LINE
  5
44A
100
AcDbEntity
  8
RACCORDO
100
AcDbLine
 62
250
  6
CONTINUOUS
 10
140.0387249176
 20
123.6814763211
 11
140.1552115444
 21
123.4514597524
  0
LINE
  5
44B
100
AcDbEntity
  8
RACCORDO
100
AcDbLine
 62
7
  6
CONTINUOUS
 10
140.2053023698
 20
123.4876100624
 11
140.089072758
 21
123.7171191857
  0
LINE
  5
44C
100
AcDbEntity
  8
RACCORDO
100
AcDbLine
 62
250
  6
CONTINUOUS
 10
136.9063842079
 20
135.3440505446
 11
136.8999301133
 21
135.3570159686
  0
LINE
  5
44D
100
AcDbEntity
  8
RACCORDO
100
AcDbLine
 62
250
  6
CONTINUOUS
 10
140.1552115444
 20
123.4514597524
 11
140.2704092992
 21
123.2209688705
  0
LINE
  5
44E
100
AcDbEntity
  8
RACCORDO
100
AcDbLine
 62
250
  6
CONTINUOUS
 10
140.2704092992
 20
123.2209688705
 11
140.2990062339
 21
123.1632742818
  0
LWPOLYLINE
  5
44F
100
AcDbEntity
  8
RACCORDO
100
AcDbPolyline
 62
7
  6
CONTINUOUS
 90
3
 70
0
 10
140.3487812322
 20
123.2000575622
 10
140.3202469886
 20
123.2576256706
 10
140.2053023698
 20
123.4876100624
  0
LINE
  5
450
100
AcDbEntity
  8
RACCORDO
100
AcDbLine
 62
250
  6
CONTINUOUS
 10
140.2990062339
 20
123.1632742818
 11
140.3034788285
 21
123.1539624069
  0
LWPOLYLINE
  5
451
100
AcDbEntity
  8
RACCORDO
100
AcDbPolyline
 62
7
  6
CONTINUOUS
 90
11
 70
0
 10
140.0890717949
 20
123.7171209341
 10
140.0828519165
 20
123.7300794075
 10
140.0759025999
 20
123.7465422788
 10
140.0695083716
 20
123.7637361218
 10
140.0636063246
 20
123.7813506479
 10
140.058060212
 20
123.799296846
 10
140.0527316673
 20
123.8176391889
 10
140.0475837946
 20
123.8362083237
 10
140.0425918466
 20
123.8548847242
 10
140.0376494523
 20
123.8739130188
 10
140.0327236099
 20
123.893323029
  0
LWPOLYLINE
  5
452
100
AcDbEntity
  8
RACCORDO
100
AcDbPolyline
 62
250
  6
CONTINUOUS
 90
6
 70
0
 10
140.3034788285
 20
123.1539624069
 10
140.3076437503
 20
123.1445510203
 10
140.3114877705
 20
123.1350652375
 10
140.3149725028
 20
123.1256044242
 10
140.3181177378
 20
123.1161206276
 10
140.3209739096
 20
123.1064190982
  0
LWPOLYLINE
  5
453
100
AcDbEntity
  8
RACCORDO
100
AcDbPolyline
 62
250
  6
CONTINUOUS
 90
5
 70
0
 10
141.8257086284
 20
131.8108995972
 10
141.8195274757
 20
131.834106088
 10
141.8116282943
 20
131.8574404992
 10
141.8021426368
 20
131.8805473032
 10
141.791285548
 20
131.9030069948
  0
LWPOLYLINE
  5
454
100
AcDbEntity
  8
RACCORDO
100
AcDbPolyline
 62
250
  6
CONTINUOUS
 90
9
 70
0
 10
142.4630980403
 20
130.6715966041
 10
142.4604650515
 20
130.6828603013
 10
142.457370902
 20
130.6943351173
 10
142.4538355154
 20
130.7059093269
 10
142.4498671403
 20
130.7175386658
 10
142.4454654829
 20
130.7292077632
 10
142.440653397
 20
130.7408460276
 10
142.4354425524
 20
130.7524211799
 10
142.4298442785
 20
130.7639038642
  0
LWPOLYLINE
  5
455
100
AcDbEntity
  8
RACCORDO
100
AcDbPolyline
 62
7
  6
CONTINUOUS
 90
10
 70
0
 10
135.6722888135
 20
88.1626255779
 10
135.7021368601
 20
88.1823200107
 10
135.7300936861
 20
88.2060254582
 10
135.7556330679
 20
88.2336518091
 10
135.7782064373
 20
88.2649505198
 10
135.7974278046
 20
88.299735406
 10
135.8130415144
 20
88.33807163
 10
135.8246833336
 20
88.3799450348
 10
135.8319226734
 20
88.4250540023
 10
135.8344087678
 20
88.4731489271
  0
LINE
  5
456
100
AcDbEntity
  8
RACCORDO
100
AcDbLine
 62
250
  6
CONTINUOUS
 10
135.775830124
 20
88.3914940084
 11
134.874268978
 21
87.8709439019
  0
LINE
  5
457
100
AcDbEntity
  8
RACCORDO
100
AcDbLine
 62
7
  6
CONTINUOUS
 10
135.6722888135
 20
88.1626255779
 11
134.874268978
 21
87.7018589264
  0
LWPOLYLINE
  5
458
100
AcDbEntity
  8
ASSI
100
AcDbPolyline
 62
250
  6
CONTINUOUS
 90
12
 70
0
 10
133.8823449358
 20
135.0156920995
 10
133.8753101023
 20
135.0136992177
 10
133.8682095272
 20
135.0115151072
 10
133.8610459335
 20
135.0091389633
 10
133.8538582314
 20
135.0065830865
 10
133.8466134176
 20
135.0038357215
 10
133.8392053037
 20
135.0008517082
 10
133.8316267055
 20
134.997617644
 10
133.8238892523
 20
134.99412871
 10
133.815913803
 20
134.9903379373
 10
133.8076758491
 20
134.9862166921
 10
133.7992061684
 20
134.9817617919
  0
LINE
  5
459
100
AcDbEntity
  8
RACCORDO
100
AcDbLine
 62
250
  6
CONTINUOUS
 10
128.4278927433
 20
134.2305449204
 11
128.4713103822
 21
134.2426159481
  0
LWPOLYLINE
  5
45A
100
AcDbEntity
  8
ASSI
100
AcDbPolyline
 62
250
  6
CONTINUOUS
 90
13
 70
0
 10
134.267766011
 20
134.7931548011
 10
134.2606254689
 20
134.7911991789
 10
134.2534416959
 20
134.7890466726
 10
134.2462175825
 20
134.7866972806
 10
134.2389955224
 20
134.7841655861
 10
134.2317393132
 20
134.7814393277
 10
134.224332761
 20
134.7784691303
 10
134.2167658397
 20
134.7752410586
 10
134.2090529621
 20
134.7717506282
 10
134.2011132779
 20
134.7679467606
 10
134.1929216734
 20
134.7637989944
 10
134.1845094637
 20
134.7593050092
 10
134.1758808449
 20
134.7544491791
  0
LINE
  5
45B
100
AcDbEntity
  8
ASSI
100
AcDbLine
 62
250
  6
CONTINUOUS
 10
135.3948606733
 20
135.4286565376
 11
133.8823449358
 21
135.0156920995
  0
LINE
  5
45C
100
AcDbEntity
  8
ASSI
100
AcDbLine
 62
7
  6
CONTINUOUS
 10
135.3055800208
 20
135.4427306007
 11
133.7930642833
 21
135.0297661626
  0
LWPOLYLINE
  5
45D
100
AcDbEntity
  8
ASSI
100
AcDbPolyline
 62
250
  6
CONTINUOUS
 90
13
 70
0
 10
134.3723910138
 20
134.5412941448
 10
134.3680808382
 20
134.5401339141
 10
134.3637500861
 20
134.5388545735
 10
134.3593987575
 20
134.5374561229
 10
134.3550490568
 20
134.5359501858
 10
134.3506787795
 20
134.5343251386
 10
134.3462213126
 20
134.5325461113
 10
134.3416694117
 20
134.5306166787
 10
134.3370303211
 20
134.528533266
 10
134.3322591615
 20
134.5262502774
 10
134.3273409728
 20
134.5237525144
 10
134.322290715
 20
134.5210551755
 10
134.3171083881
 20
134.5181582608
  0
LINE
  5
45E
100
AcDbEntity
  8
ASSI
100
AcDbLine
 62
250
  6
CONTINUOUS
 10
135.400020921
 20
135.4300004283
 11
135.3948606733
 21
135.4286565376
  0
LINE
  5
45F
100
AcDbEntity
  8
RACCORDO
100
AcDbLine
 62
250
  6
CONTINUOUS
 10
136.9323768949
 20
135.1973912607
 11
134.3723910138
 21
134.5412941448
  0
LINE
  5
460
100
AcDbEntity
  8
RACCORDO
100
AcDbLine
 62
250
  6
CONTINUOUS
 10
136.8184727581
 20
135.4468737738
 11
134.267766011
 21
134.7931548011
  0
LWPOLYLINE
  5
461
100
AcDbEntity
  8
ASSI
100
AcDbPolyline
 62
250
  6
CONTINUOUS
 90
6
 70
0
 10
137.131886756
 20
133.1009007117
 10
137.1482931412
 20
133.1040808757
 10
137.1666641998
 20
133.1045152545
 10
137.1853422705
 20
133.101804914
 10
137.2040279872
 20
133.0959932948
 10
137.2224218613
 20
133.0871735437
  0
LWPOLYLINE
  5
462
100
AcDbEntity
  8
RACCORDO
100
AcDbPolyline
 62
250
  6
CONTINUOUS
 90
5
 70
0
 10
139.8794448033
 20
133.6795068779
 10
139.8940035013
 20
133.6820698525
 10
139.907675073
 20
133.6817459426
 10
139.9201708197
 20
133.6785419881
 10
139.926976607
 20
133.6752722436
  0
LWPOLYLINE
  5
463
100
AcDbEntity
  8
RACCORDO
100
AcDbPolyline
 62
250
  6
CONTINUOUS
 90
5
 70
0
 10
139.7024834298
 20
133.7816821571
 10
139.7170421277
 20
133.7842451317
 10
139.7307136993
 20
133.7839212219
 10
139.7432094459
 20
133.7807172675
 10
139.7499466727
 20
133.7774869947
  0
LWPOLYLINE
  5
464
100
AcDbEntity
  8
ASSI
100
AcDbPolyline
 62
250
  6
CONTINUOUS
 90
3
 70
0
 10
128.4603500209
 20
133.1001921926
 10
128.4683141538
 20
133.1011972656
 10
128.4758957931
 20
133.1019140737
  0
LWPOLYLINE
  5
465
100
AcDbEntity
  8
ASSI
100
AcDbPolyline
 62
250
  6
CONTINUOUS
 90
7
 70
0
 10
130.4271791936
 20
133.2066876548
 10
130.4702450894
 20
133.2104044406
 10
130.5150510116
 20
133.2169188696
 10
130.5615359147
 20
133.2263466056
 10
130.6095016806
 20
133.2387740477
 10
130.6589915559
 20
133.2543135138
 10
130.7103024111
 20
133.2731724038
  0
LWPOLYLINE
  5
466
100
AcDbEntity
  8
ASSI
100
AcDbPolyline
 62
250
  6
CONTINUOUS
 90
9
 70
0
 10
133.8231655219
 20
131.2458877106
 10
133.8577647793
 20
131.2487180605
 10
133.8923637045
 20
131.2532459197
 10
133.9268887289
 20
131.2593707513
 10
133.9608764416
 20
131.2668970465
 10
133.9946495667
 20
131.2757841118
 10
134.0293556668
 20
131.2863264035
 10
134.0650934646
 20
131.2986399086
 10
134.1017075647
 20
131.3127423874
  0
LWPOLYLINE
  5
467
100
AcDbEntity
  8
ASSI
100
AcDbPolyline
 62
7
  6
CONTINUOUS
 90
7
 70
0
 10
128.4123983732
 20
133.1195687121
 10
128.3959076351
 20
133.118271559
 10
128.3590808916
 20
133.112522947
 10
128.3208615586
 20
133.1024743077
 10
128.2830263175
 20
133.0884695277
 10
128.2461449399
 20
133.0709052325
 10
128.2363730945
 20
133.0655944238
  0
LWPOLYLINE
  5
468
100
AcDbEntity
  8
RACCORDO
100
AcDbPolyline
 62
250
  6
CONTINUOUS
 90
10
 70
0
 10
133.0582810407
 20
132.6504784874
 10
133.0629923239
 20
132.6508208129
 10
133.0677978746
 20
132.651483994
 10
133.0726863999
 20
132.6524664724
 10
133.0776464119
 20
132.6537659391
 10
133.0826662546
 20
132.6553793404
 10
133.0877341314
 20
132.657302885
 10
133.092838133
 20
132.6595320525
 10
133.0979662651
 20
132.6620616043
 10
133.1031064765
 20
132.6648855962
  0
LINE
  5
469
100
AcDbEntity
  8
ASSI
100
AcDbLine
 62
250
  6
CONTINUOUS
 10
128.4758957931
 20
133.1019140737
 11
128.4830995218
 21
133.1023714236
  0
LWPOLYLINE
  5
46A
100
AcDbEntity
  8
ASSI
100
AcDbPolyline
 62
250
  6
CONTINUOUS
 90
16
 70
0
 10
132.2986873616
 20
130.6993664286
 10
132.2915367184
 20
130.6989550983
 10
132.2845336803
 20
130.6982617562
 10
132.2776782475
 20
130.6972864024
 10
132.2709621681
 20
130.6960013987
 10
132.2643936939
 20
130.6944343832
 10
132.2579975803
 20
130.6926682702
 10
132.251776039
 20
130.6907060952
 10
132.2457268583
 20
130.6885448227
 10
132.239868159
 20
130.6862582603
 10
132.2342016789
 20
130.6838490177
 10
132.2287256802
 20
130.6813144851
 10
132.2234530703
 20
130.6787206409
 10
132.2183881519
 20
130.6760894779
 10
132.2135266223
 20
130.6733990033
 10
132.2088684816
 20
130.670649217
  0
LWPOLYLINE
  5
46B
100
AcDbEntity
  8
ASSI
100
AcDbPolyline
 62
250
  6
CONTINUOUS
 90
16
 70
0
 10
132.2151247183
 20
130.9475468484
 10
132.2033469413
 20
130.9468861299
 10
132.1917475588
 20
130.9456667942
 10
132.1803546335
 20
130.9439386172
 10
132.1691993474
 20
130.9417501736
 10
132.1582990713
 20
130.9391494262
 10
132.1476571136
 20
130.9361819175
 10
132.1372889935
 20
130.9328901719
 10
132.1272134254
 20
130.9293165651
 10
132.117435051
 20
130.9255022401
 10
132.1079641978
 20
130.9214847211
 10
132.0988135994
 20
130.9173013307
 10
132.0899889588
 20
130.9129901266
 10
132.0814968863
 20
130.9085856671
 10
132.0733450063
 20
130.9041189106
 10
132.0655385906
 20
130.8996201584
  0
LINE
  5
46C
100
AcDbEntity
  8
ASSI
100
AcDbLine
 62
250
  6
CONTINUOUS
 10
132.3170627897
 20
131.1639575347
 11
133.8231655219
 21
131.2458877106
  0
LINE
  5
46D
100
AcDbEntity
  8
ASSI
100
AcDbLine
 62
7
  6
CONTINUOUS
 10
132.2459988987
 20
131.1811344074
 11
133.7525345768
 21
131.2630889091
  0
LINE
  5
46E
100
AcDbEntity
  8
ASSI
100
AcDbLine
 62
7
  6
CONTINUOUS
 10
133.7525345768
 20
131.2630889091
 11
133.7526748374
 21
131.2630964578
  0
LINE
  5
46F
100
AcDbEntity
  8
ASSI
100
AcDbLine
 62
250
  6
CONTINUOUS
 10
128.4830995218
 20
133.1023714236
 11
130.4272163451
 21
133.206666204
  0
LINE
  5
470
100
AcDbEntity
  8
ASSI
100
AcDbLine
 62
7
  6
CONTINUOUS
 10
128.412398373
 20
133.1195687121
 11
130.3567302496
 21
133.2238752295
  0
LINE
  5
471
100
AcDbEntity
  8
ASSI
100
AcDbLine
 62
7
  6
CONTINUOUS
 10
130.3567302496
 20
133.2238752295
 11
130.356870657
 21
133.2238826803
  0
LWPOLYLINE
  5
472
100
AcDbEntity
  8
ASSI
100
AcDbPolyline
 62
250
  6
CONTINUOUS
 90
16
 70
0
 10
129.274387637
 20
132.9207600342
 10
129.2372052774
 20
132.918885282
 10
129.2034992371
 20
132.9156981587
 10
129.1732695162
 20
132.9111986644
 10
129.1465973728
 20
132.9053468959
 10
129.1234015488
 20
132.8981827563
 10
129.1034382695
 20
132.8898259546
 10
129.0865759197
 20
132.8803608285
 10
129.0729461146
 20
132.8697030403
 10
129.0626999252
 20
132.8577192866
 10
129.0557042399
 20
132.8443115318
 10
129.0520921704
 20
132.8295778115
 10
129.0524141222
 20
132.8136789289
 10
129.0568535638
 20
132.7966684852
 10
129.0652270267
 20
132.7784928792
 10
129.0775345109
 20
132.7591521109
  0
LWPOLYLINE
  5
473
100
AcDbEntity
  8
ASSI
100
AcDbPolyline
 62
250
  6
CONTINUOUS
 90
10
 70
0
 10
132.0654689526
 20
132.6263967821
 10
132.0507849028
 20
132.6256769244
 10
132.0355688837
 20
132.6240016013
 10
132.0198343281
 20
132.6213163809
 10
132.0036780284
 20
132.6175935049
 10
131.9870444637
 20
132.6127665486
 10
131.9697166406
 20
132.6066793881
 10
131.9516384744
 20
132.5991971169
 10
131.932924954
 20
132.5902586774
 10
131.9136204078
 20
132.5797763833
  0
LWPOLYLINE
  5
474
100
AcDbEntity
  8
ASSI
100
AcDbPolyline
 62
250
  6
CONTINUOUS
 90
10
 70
0
 10
131.9840086571
 20
132.8818971787
 10
131.9635961025
 20
132.8809053809
 10
131.9424678353
 20
132.8784375914
 10
131.9206238557
 20
132.8744938103
 10
131.8981433173
 20
132.869213593
 10
131.8749470665
 20
132.8624573841
 10
131.8507976419
 20
132.8538065171
 10
131.8256158899
 20
132.8431214366
 10
131.7994809641
 20
132.8305416981
 10
131.7723928646
 20
132.8160673016
  0
LWPOLYLINE
  5
475
100
AcDbEntity
  8
ASSI
100
AcDbPolyline
 62
7
  6
CONTINUOUS
 90
17
 70
0
 10
132.2459988986
 20
131.1811344074
 10
132.229056535
 20
131.1804573442
 10
132.1980225315
 20
131.1802567269
 10
132.163838716
 20
131.181309869
 10
132.1269334294
 20
131.1836871737
 10
132.0878648922
 20
131.1873998938
 10
132.0469082614
 20
131.192444179
 10
132.0042726447
 20
131.1988209583
 10
131.9603017609
 20
131.2065032282
 10
131.9152799563
 20
131.2154540725
 10
131.8694554262
 20
131.2256387925
 10
131.8230898146
 20
131.2370151647
 10
131.7764817451
 20
131.2495203446
 10
131.7299140705
 20
131.2630882357
 10
131.6836630833
 20
131.2776517649
 10
131.6380899737
 20
131.2931042386
 10
131.628164525
 20
131.2966200193
  0
LINE
  5
476
100
AcDbEntity
  8
ASSI
100
AcDbLine
 62
250
  6
CONTINUOUS
 10
132.2747864195
 20
131.162890702
 11
132.3170627897
 21
131.1639575347
  0
LINE
  5
477
100
AcDbEntity
  8
ASSI
100
AcDbLine
 62
250
  6
CONTINUOUS
 10
134.0166216839
 20
130.7422117141
 11
132.2986873616
 21
130.6993664286
  0
LINE
  5
478
100
AcDbEntity
  8
ASSI
100
AcDbLine
 62
250
  6
CONTINUOUS
 10
134.2518962946
 20
130.9983439356
 11
132.2151247183
 21
130.9475468484
  0
LINE
  5
479
100
AcDbEntity
  8
RACCORDO
100
AcDbLine
 62
250
  6
CONTINUOUS
 10
133.0582810407
 20
132.6504784874
 11
132.0654689526
 21
132.6263967821
  0
LINE
  5
47A
100
AcDbEntity
  8
ASSI
100
AcDbLine
 62
250
  6
CONTINUOUS
 10
130.9374074133
 20
132.7036220324
 11
129.3558479324
 21
132.6652596376
  0
LINE
  5
47B
100
AcDbEntity
  8
RACCORDO
100
AcDbLine
 62
250
  6
CONTINUOUS
 10
133.0431510124
 20
132.9075877947
 11
131.9840086571
 21
132.8818971787
  0
LINE
  5
47C
100
AcDbEntity
  8
ASSI
100
AcDbLine
 62
250
  6
CONTINUOUS
 10
130.8559471179
 20
132.959122429
 11
129.274387637
 21
132.9207600342
  0
LWPOLYLINE
  5
47D
100
AcDbEntity
  8
ASSI
100
AcDbPolyline
 62
250
  6
CONTINUOUS
 90
5
 70
0
 10
132.2464318449
 20
131.1811587333
 10
132.2591727621
 20
131.1811842549
 10
132.2789215523
 20
131.178583555
 10
132.2983223037
 20
131.1728103445
 10
132.3170627897
 20
131.1639575347
  0
LWPOLYLINE
  5
47E
100
AcDbEntity
  8
ASSI
100
AcDbPolyline
 62
250
  6
CONTINUOUS
 90
5
 70
0
 10
133.7526748374
 20
131.2630964578
 10
133.76527674
 20
131.2631143681
 10
133.7850251722
 20
131.2605135408
 10
133.8044255001
 20
131.2547403422
 10
133.8231655219
 20
131.2458877106
  0
LWPOLYLINE
  5
47F
100
AcDbEntity
  8
ASSI
100
AcDbPolyline
 62
250
  6
CONTINUOUS
 90
5
 70
0
 10
128.4126184076
 20
133.1195807164
 10
128.4267796494
 20
133.1195146948
 10
128.4459953649
 20
133.1167799998
 10
128.4648647692
 20
133.11103632
 10
128.4830995218
 20
133.1023714236
  0
LWPOLYLINE
  5
480
100
AcDbEntity
  8
ASSI
100
AcDbPolyline
 62
250
  6
CONTINUOUS
 90
6
 70
0
 10
129.2623958251
 20
132.6785327123
 10
129.2453386483
 20
132.6789899092
 10
129.2305530165
 20
132.6782818878
 10
129.2181036216
 20
132.6765451434
 10
129.2079939041
 20
132.6738327175
 10
129.2005123673
 20
132.6700499113
  0
LWPOLYLINE
  5
481
100
AcDbEntity
  8
ASSI
100
AcDbPolyline
 62
250
  6
CONTINUOUS
 90
3
 70
0
 10
132.1861318454
 20
131.165679856
 10
132.2311427714
 20
131.1634648091
 10
132.2747864195
 20
131.162890702
  0
LWPOLYLINE
  5
482
100
AcDbEntity
  8
ASSI
100
AcDbPolyline
 62
7
  6
CONTINUOUS
 90
10
 70
0
 10
136.3424136666
 20
130.5041943269
 10
136.3208999335
 20
130.5054403987
 10
136.2997693321
 20
130.5054512976
 10
136.2790218622
 20
130.5042270236
 10
136.2584202561
 20
130.501718085
 10
136.2382017816
 20
130.4979739735
 10
136.2190782418
 20
130.4931431637
 10
136.2012869043
 20
130.4872751473
 10
136.1845905016
 20
130.4803204327
 10
136.1689890335
 20
130.4722790199
  0
LWPOLYLINE
  5
483
100
AcDbEntity
  8
RACCORDO
100
AcDbPolyline
 62
7
  6
CONTINUOUS
 90
9
 70
0
 10
137.140707787
 20
129.4432091881
 10
137.1676239429
 20
129.4402515334
 10
137.1935802595
 20
129.4359745132
 10
137.2184535604
 20
129.4304141705
 10
137.2421197327
 20
129.4236142502
 10
137.2645134137
 20
129.4156747968
 10
137.285605656
 20
129.4066899198
 10
137.3053361958
 20
129.3966999158
 10
137.3107689939
 20
129.3936363479
  0
LWPOLYLINE
  5
484
100
AcDbEntity
  8
ASSI
100
AcDbPolyline
 62
250
  6
CONTINUOUS
 90
24
 70
0
 10
136.3401723398
 20
131.9052308645
 10
136.3680177396
 20
131.902030722
 10
136.3960184195
 20
131.9003810179
 10
136.4244307354
 20
131.9002937441
 10
136.4529983315
 20
131.9017569087
 10
136.4809521397
 20
131.9047345361
 10
136.5082705806
 20
131.9092659493
 10
136.5349752338
 20
131.9153118253
 10
136.5603617702
 20
131.92271822
 10
136.5844031549
 20
131.9315242243
 10
136.6071264227
 20
131.9416907472
 10
136.6279083502
 20
131.9529465728
 10
136.6466948065
 20
131.965324722
 10
136.6635399224
 20
131.9787921738
 10
136.6779828658
 20
131.9929786492
 10
136.689952453
 20
132.007900486
 10
136.6995198677
 20
132.0235413463
 10
136.7064378286
 20
132.0394819377
 10
136.7106356812
 20
132.0557292735
 10
136.7121840801
 20
132.0722763404
 10
136.7110477076
 20
132.0886828053
 10
136.7072147912
 20
132.1048018906
 10
136.7006971035
 20
132.1207803741
 10
136.6914946444
 20
132.1366182557
  0
LWPOLYLINE
  5
485
100
AcDbEntity
  8
ASSI
100
AcDbPolyline
 62
250
  6
CONTINUOUS
 90
16
 70
0
 10
132.0724730557
 20
130.5890872094
 10
132.0587099831
 20
130.5907500588
 10
132.0435761525
 20
130.593090146
 10
132.0272316712
 20
130.5960827147
 10
132.0098491266
 20
130.5996961775
 10
131.9916127138
 20
130.6038922556
 10
131.9727164295
 20
130.6086262803
 10
131.9533609934
 20
130.6138478836
 10
131.9337504894
 20
130.6195019291
 10
131.9140912233
 20
130.6255289065
 10
131.8945834194
 20
130.6318676479
 10
131.8754413651
 20
130.6384487406
 10
131.8568883383
 20
130.6451947982
 10
131.8391245723
 20
130.6520315144
 10
131.822327042
 20
130.6588892153
 10
131.8066686775
 20
130.6656958892
  0
LWPOLYLINE
  5
486
100
AcDbEntity
  8
ASSI
100
AcDbPolyline
 62
250
  6
CONTINUOUS
 90
13
 70
0
 10
131.8010880616
 20
129.7154573681
 10
131.7836783985
 20
129.7176404848
 10
131.7641914663
 20
129.7208710378
 10
131.7429487329
 20
129.7250957346
 10
131.7203006312
 20
129.7302448825
 10
131.6966207791
 20
129.7362335384
 10
131.6722998164
 20
129.7429629096
 10
131.6477389583
 20
129.7503219842
 10
131.6233433785
 20
129.7581893619
 10
131.5995155262
 20
129.7664352566
 10
131.5766484841
 20
129.7749236377
 10
131.5551194835
 20
129.783514475
 10
131.5352836834
 20
129.7920660479
  0
LWPOLYLINE
  5
487
100
AcDbEntity
  8
ASSI
100
AcDbPolyline
 62
250
  6
CONTINUOUS
 90
4
 70
0
 10
131.628134871
 20
131.2966302465
 10
131.6275215592
 20
131.296716627
 10
131.6245980187
 20
131.2951867918
 10
131.6206897294
 20
131.290766161
  0
LWPOLYLINE
  5
488
100
AcDbEntity
  8
ASSI
100
AcDbPolyline
 62
250
  6
CONTINUOUS
 90
24
 70
0
 10
136.2460015553
 20
131.6377770675
 10
136.2864323174
 20
131.630642475
 10
136.3277624295
 20
131.6255054619
 10
136.3696964091
 20
131.6224027552
 10
136.4119344567
 20
131.6213565384
 10
136.4541745974
 20
131.6223742924
 10
136.4961148401
 20
131.6254487417
 10
136.5374553444
 20
131.6305579076
 10
136.5779005469
 20
131.6376652635
 10
136.6171612732
 20
131.6467199927
 10
136.6549568252
 20
131.6576573545
 10
136.6910170027
 20
131.6703991548
 10
136.725084016
 20
131.6848543034
 10
136.7569143088
 20
131.700919457
 10
136.7862803131
 20
131.7184797603
 10
136.8129720878
 20
131.7374096755
 10
136.8367988111
 20
131.7575738776
 10
136.8575901196
 20
131.7788281984
 10
136.8751973466
 20
131.8010206589
 10
136.8894946125
 20
131.8239925852
 10
136.9003797164
 20
131.8475797515
 10
136.9077748452
 20
131.8716135296
 10
136.9116271305
 20
131.8959220616
 10
136.9122262271
 20
131.9100502228
  0
LWPOLYLINE
  5
489
100
AcDbEntity
  8
ASSI
100
AcDbPolyline
 62
250
  6
CONTINUOUS
 90
27
 70
0
 10
134.343015638
 20
130.8057180287
 10
134.3355110497
 20
130.8071506676
 10
134.3280454603
 20
130.8083740618
 10
134.3206222448
 20
130.8093879643
 10
134.313293905
 20
130.810184958
 10
134.3060132256
 20
130.8107721796
 10
134.2986330259
 20
130.8111713101
 10
134.2911196349
 20
130.8113929727
 10
134.2835087691
 20
130.811426487
 10
134.2757565424
 20
130.8112616122
 10
134.2678636778
 20
130.8109009681
 10
134.2598291548
 20
130.8103419412
 10
134.2516057809
 20
130.8095664577
 10
134.2431864329
 20
130.8085745922
 10
134.2345749887
 20
130.8073663772
 10
134.225739729
 20
130.8059237317
 10
134.2166712756
 20
130.8042433317
 10
134.2073720159
 20
130.8023289585
 10
134.1978266489
 20
130.8001733439
 10
134.1880286817
 20
130.7977720293
 10
134.1779736009
 20
130.795130801
 10
134.1676482
 20
130.792258049
 10
134.157049515
 20
130.7891508792
 10
134.1461662803
 20
130.7858150695
 10
134.1349728997
 20
130.7822723888
 10
134.1234713219
 20
130.7785243727
 10
134.0994362374
 20
130.7704478029
  0
LWPOLYLINE
  5
48A
100
AcDbEntity
  8
ASSI
100
AcDbPolyline
 62
250
  6
CONTINUOUS
 90
5
 70
0
 10
129.3558479324
 20
132.6652596376
 10
129.328708848
 20
132.6705697797
 10
129.3040630609
 20
132.6744505952
 10
129.2819322149
 20
132.6770366033
 10
129.2623958251
 20
132.6785327123
  0
LWPOLYLINE
  5
48B
100
AcDbEntity
  8
ASSI
100
AcDbPolyline
 62
250
  6
CONTINUOUS
 90
21
 70
0
 10
134.358245207
 20
130.6589249998
 10
134.354749809
 20
130.6596522856
 10
134.3512786214
 20
130.6601104248
 10
134.3478556763
 20
130.6603173277
 10
134.3444654172
 20
130.6602748144
 10
134.3410428699
 20
130.6599651395
 10
134.3375561089
 20
130.659404209
 10
134.3340212389
 20
130.6585884275
 10
134.3304307154
 20
130.6574689704
 10
134.3267655733
 20
130.6560625985
 10
134.3230164613
 20
130.654369066
 10
134.3191770616
 20
130.6523177025
 10
134.3152149521
 20
130.6499276159
 10
134.3111140613
 20
130.6472034855
 10
134.3068745538
 20
130.6440598201
 10
134.3024501178
 20
130.6405187642
 10
134.2978112332
 20
130.636594484
 10
134.2929600047
 20
130.6321994111
 10
134.2878336451
 20
130.6273614852
 10
134.2823835164
 20
130.622106466
 10
134.2704075973
 20
130.6101423535
  0
LINE
  5
48C
100
AcDbEntity
  8
ASSI
100
AcDbLine
 62
250
  6
CONTINUOUS
 10
131.5778185126
 20
131.3024440358
 11
131.6206897292
 21
131.2907661611
  0
LWPOLYLINE
  5
48D
100
AcDbEntity
  8
ASSI
100
AcDbPolyline
 62
250
  6
CONTINUOUS
 90
3
 70
0
 10
131.4551384053
 20
131.3354637488
 10
131.495057428
 20
131.3242302075
 10
131.5778185126
 20
131.3024440358
  0
LINE
  5
48E
100
AcDbEntity
  8
ASSI
100
AcDbLine
 62
250
  6
CONTINUOUS
 10
134.3617605231
 20
130.6579189954
 11
134.358245207
 21
130.6589249998
  0
LWPOLYLINE
  5
48F
100
AcDbEntity
  8
ASSI
100
AcDbPolyline
 62
250
  6
CONTINUOUS
 90
11
 70
0
 10
131.7101670648
 20
131.2607849114
 10
131.7559551895
 20
131.2469671139
 10
131.8025348385
 20
131.2338685821
 10
131.8498141255
 20
131.2215519353
 10
131.8975173911
 20
131.2102050314
 10
131.945773392
 20
131.1997861961
 10
131.9944533716
 20
131.1903371038
 10
132.0428953996
 20
131.1821706356
 10
132.0912552751
 20
131.1752716464
 10
132.1393771992
 20
131.1696552813
 10
132.1861318454
 20
131.165679856
  0
LINE
  5
490
100
AcDbEntity
  8
SUPERFICI
100
AcDbLine
 62
7
  6
CONTINUOUS
 10
124.5435518209
 20
132.2391831347
 11
124.0415788836
 21
132.4015447559
  0
LINE
  5
491
100
AcDbEntity
  8
ASSI
100
AcDbLine
 62
250
  6
CONTINUOUS
 10
131.665078578
 20
131.2753845938
 11
131.7101670648
 21
131.2607849114
  0
LWPOLYLINE
  5
492
100
AcDbEntity
  8
ASSI
100
AcDbPolyline
 62
250
  6
CONTINUOUS
 90
3
 70
0
 10
131.3805149845
 20
131.3597650377
 10
131.4165759552
 20
131.3473504929
 10
131.4551384053
 20
131.3354637488
  0
LINE
  5
493
100
AcDbEntity
  8
ASSI
100
AcDbLine
 62
7
  6
CONTINUOUS
 10
131.628164525
 20
131.2966200193
 11
131.628134871
 21
131.2966302465
  0
LINE
  5
494
100
AcDbEntity
  8
ASSI
100
AcDbLine
 62
250
  6
CONTINUOUS
 10
131.6206897292
 20
131.2907661611
 11
131.665078578
 21
131.2753845938
  0
LINE
  5
495
100
AcDbEntity
  8
ASSI
100
AcDbLine
 62
7
  6
CONTINUOUS
 10
131.6281348717
 20
131.2966302462
 11
131.5617179733
 21
131.3199245153
  0
LWPOLYLINE
  5
496
100
AcDbEntity
  8
ASSI
100
AcDbPolyline
 62
7
  6
CONTINUOUS
 90
8
 70
0
 10
131.5617179733
 20
131.3199245153
 10
131.5269886862
 20
131.3322275784
 10
131.4942833255
 20
131.3443231505
 10
131.4637182849
 20
131.3563372889
 10
131.4352159621
 20
131.3684335159
 10
131.4091423271
 20
131.3805392899
 10
131.3855691988
 20
131.3925533399
 10
131.3687904205
 20
131.4018678934
  0
LWPOLYLINE
  5
497
100
AcDbEntity
  8
ASSI
100
AcDbPolyline
 62
250
  6
CONTINUOUS
 90
8
 70
0
 10
124.1026666456
 20
133.9343086473
 10
124.0913820638
 20
133.9385596474
 10
124.0791940273
 20
133.9408844279
 10
124.0662331249
 20
133.941258067
 10
124.0526382435
 20
133.9396765552
 10
124.0385550518
 20
133.9361568388
 10
124.0241344357
 20
133.9307366281
 10
124.0095309038
 20
133.9234739966
  0
LWPOLYLINE
  5
498
100
AcDbEntity
  8
RACCORDO
100
AcDbPolyline
 62
250
  6
CONTINUOUS
 90
7
 70
0
 10
138.312011142
 20
128.8155316285
 10
138.3024883706
 20
128.8197685536
 10
138.2911642807
 20
128.822174862
 10
138.2789349513
 20
128.8222958214
 10
138.2660050152
 20
128.8201293998
 10
138.2525908224
 20
128.8157118393
 10
138.2389168305
 20
128.8091170502
  0
LWPOLYLINE
  5
499
100
AcDbEntity
  8
RACCORDO
100
AcDbPolyline
 62
250
  6
CONTINUOUS
 90
7
 70
0
 10
129.1116021226
 20
134.1277325402
 10
129.102020754
 20
134.1320031485
 10
129.0906966847
 20
134.1344093685
 10
129.0784674073
 20
134.1345302621
 10
129.0655375504
 20
134.1323638065
 10
129.0521234653
 20
134.1279462522
 10
129.0384496058
 20
134.1213515168
  0
LWPOLYLINE
  5
49A
100
AcDbEntity
  8
ASSI
100
AcDbPolyline
 62
250
  6
CONTINUOUS
 90
7
 70
0
 10
131.3687073571
 20
131.4019159329
 10
131.3615063655
 20
131.4055138295
 10
131.3486879391
 20
131.4095634884
 10
131.3348190589
 20
131.4112380321
 10
131.3200818609
 20
131.4105154615
 10
131.3046698908
 20
131.4074052583
 10
131.2887855549
 20
131.4019482619
  0
LWPOLYLINE
  5
49B
100
AcDbEntity
  8
ASSI
100
AcDbPolyline
 62
250
  6
CONTINUOUS
 90
7
 70
0
 10
129.2909273838
 20
132.6016000474
 10
129.2837374338
 20
132.6051915538
 10
129.2709189752
 20
132.6092412033
 10
129.2570500661
 20
132.6109157424
 10
129.2423128476
 20
132.6101931793
 10
129.2269008643
 20
132.6070830033
 10
129.2110165226
 20
132.6016260606
  0
LWPOLYLINE
  5
49C
100
AcDbEntity
  8
ASSI
100
AcDbPolyline
 62
250
  6
CONTINUOUS
 90
4
 70
0
 10
131.2887851809
 20
131.4019484779
 10
131.3167791572
 20
131.386847719
 10
131.3473602478
 20
131.3728213648
 10
131.3805149845
 20
131.3597650377
  0
LWPOLYLINE
  5
49D
100
AcDbEntity
  8
RACCORDO
100
AcDbPolyline
 62
7
  6
CONTINUOUS
 90
13
 70
0
 10
129.1116156642
 20
134.1277247186
 10
129.0567878947
 20
134.1576369883
 10
128.9883982243
 20
134.1900935084
 10
128.9202538226
 20
134.2170570881
 10
128.8524969794
 20
134.2384407237
 10
128.7854575797
 20
134.2541270767
 10
128.7196725487
 20
134.2640249409
 10
128.6552968474
 20
134.2681588912
 10
128.5926023336
 20
134.2665617209
 10
128.5323078729
 20
134.2593627373
 10
128.4748012848
 20
134.2468193397
 10
128.4201452955
 20
134.2291830765
 10
128.3951775501
 20
134.2190723185
  0
LWPOLYLINE
  5
49E
100
AcDbEntity
  8
RACCORDO
100
AcDbPolyline
 62
7
  6
CONTINUOUS
 90
11
 70
0
 10
144.3617337808
 20
124.5435070189
 10
144.3924864522
 20
124.5264455748
 10
144.4230065426
 20
124.5080050129
 10
144.4532940521
 20
124.4881853333
 10
144.4836546283
 20
124.4673595041
 10
144.5137826235
 20
124.4451545573
 10
144.5427610949
 20
124.4204515879
 10
144.5706806517
 20
124.3932474622
 10
144.5974506846
 20
124.363545314
 10
144.6218824236
 20
124.3302356395
 10
144.6391571401
 20
124.3019988951
  0
LWPOLYLINE
  5
49F
100
AcDbEntity
  8
RACCORDO
100
AcDbPolyline
 62
250
  6
CONTINUOUS
 90
5
 70
0
 10
138.9985645257
 20
127.9779604027
 10
139.0079338248
 20
127.9727165864
 10
139.0168319523
 20
127.9674935734
 10
139.0252613673
 20
127.9623021249
 10
139.033218573
 20
127.9571541066
  0
LINE
  5
4A0
100
AcDbEntity
  8
ASSI
100
AcDbLine
 62
7
  6
CONTINUOUS
 10
134.9662055049
 20
128.6867165088
 11
134.1459363481
 21
129.1603296396
  0
LINE
  5
4A1
100
AcDbEntity
  8
ASSI
100
AcDbLine
 62
250
  6
CONTINUOUS
 10
128.0701144837
 20
132.8231354506
 11
131.8066686775
 21
130.6656958892
  0
LINE
  5
4A2
100
AcDbEntity
  8
ASSI
100
AcDbLine
 62
250
  6
CONTINUOUS
 10
128.1925889708
 20
132.9754977122
 11
131.9291431646
 21
130.8180581508
  0
LINE
  5
4A3
100
AcDbEntity
  8
ASSI
100
AcDbLine
 62
250
  6
CONTINUOUS
 10
134.4738640385
 20
129.5063494228
 11
134.5914262656
 21
129.4384704663
  0
LINE
  5
4A4
100
AcDbEntity
  8
ASSI
100
AcDbLine
 62
250
  6
CONTINUOUS
 10
132.0655385906
 20
130.8996201584
 11
128.3338494108
 21
133.0542507217
  0
LINE
  5
4A5
100
AcDbEntity
  8
ASSI
100
AcDbLine
 62
250
  6
CONTINUOUS
 10
129.2110165226
 20
132.6016260606
 11
131.2887851809
 21
131.4019484779
  0
LINE
  5
4A6
100
AcDbEntity
  8
ASSI
100
AcDbLine
 62
7
  6
CONTINUOUS
 10
129.2909385394
 20
132.6015936077
 11
131.3687073571
 21
131.4019159329
  0
LINE
  5
4A7
100
AcDbEntity
  8
ASSI
100
AcDbLine
 62
250
  6
CONTINUOUS
 10
132.2151247183
 20
130.9475468484
 11
131.6206897292
 21
131.2907661611
  0
LINE
  5
4A8
100
AcDbEntity
  8
ASSI
100
AcDbLine
 62
250
  6
CONTINUOUS
 10
129.0775345109
 20
132.7591521109
 11
128.4830995218
 21
133.1023714236
  0
LINE
  5
4A9
100
AcDbEntity
  8
ASSI
100
AcDbLine
 62
7
  6
CONTINUOUS
 10
128.2181405803
 20
133.6702450718
 11
129.1073122265
 21
133.1568485073
  0
LINE
  5
4AA
100
AcDbEntity
  8
ASSI
100
AcDbLine
 62
7
  6
CONTINUOUS
 10
134.9611155884
 20
129.7769358115
 11
137.4291780448
 21
128.3519074812
  0
LINE
  5
4AB
100
AcDbEntity
  8
ASSI
100
AcDbLine
 62
250
  6
CONTINUOUS
 10
134.2518962946
 20
130.9983439356
 11
133.8231655219
 21
131.2458877106
  0
LINE
  5
4AC
100
AcDbEntity
  8
ASSI
100
AcDbLine
 62
250
  6
CONTINUOUS
 10
130.8559471179
 20
132.959122429
 11
130.4272163451
 21
133.206666204
  0
LINE
  5
4AD
100
AcDbEntity
  8
RACCORDO
100
AcDbLine
 62
250
  6
CONTINUOUS
 10
129.0384496058
 20
134.1213515168
 11
130.1366586494
 21
133.4872593788
  0
LINE
  5
4AE
100
AcDbEntity
  8
RACCORDO
100
AcDbLine
 62
250
  6
CONTINUOUS
 10
137.140707787
 20
129.4432091881
 11
138.2389168306
 21
128.8091170501
  0
LINE
  5
4AF
100
AcDbEntity
  8
RACCORDO
100
AcDbLine
 62
7
  6
CONTINUOUS
 10
129.1116021226
 20
134.1277325402
 11
130.1129004974
 21
133.5495954078
  0
LINE
  5
4B0
100
AcDbEntity
  8
RACCORDO
100
AcDbLine
 62
7
  6
CONTINUOUS
 10
137.3107709726
 20
129.3936352059
 11
138.3120693475
 21
128.8154980734
  0
LINE
  5
4B1
100
AcDbEntity
  8
ASSI
100
AcDbLine
 62
250
  6
CONTINUOUS
 10
134.0521680293
 20
131.345005789
 11
131.9136204078
 21
132.5797763833
  0
LINE
  5
4B2
100
AcDbEntity
  8
ASSI
100
AcDbLine
 62
250
  6
CONTINUOUS
 10
134.1700610537
 20
131.4112316796
 11
132.0654689526
 21
132.6263967821
  0
LINE
  5
4B3
100
AcDbEntity
  8
ASSI
100
AcDbLine
 62
250
  6
CONTINUOUS
 10
134.7011027001
 20
131.1418653232
 11
134.2655174183
 21
131.3933668058
  0
LINE
  5
4B4
100
AcDbEntity
  8
ASSI
100
AcDbLine
 62
250
  6
CONTINUOUS
 10
131.3101039377
 20
133.0997855095
 11
130.8745186558
 21
133.351286992
  0
LINE
  5
4B5
100
AcDbEntity
  8
RACCORDO
100
AcDbLine
 62
250
  6
CONTINUOUS
 10
133.0582810407
 20
132.6504784874
 11
134.691937096
 21
131.7072259556
  0
LINE
  5
4B6
100
AcDbEntity
  8
RACCORDO
100
AcDbLine
 62
250
  6
CONTINUOUS
 10
133.1031064765
 20
132.6648855962
 11
134.7268259322
 21
131.7273703324
  0
LINE
  5
4B7
100
AcDbEntity
  8
RACCORDO
100
AcDbLine
 62
250
  6
CONTINUOUS
 10
138.2389168306
 20
128.8091170501
 11
138.2934256724
 21
128.775950418
  0
LWPOLYLINE
  5
4B8
100
AcDbEntity
  8
ASSI
100
AcDbPolyline
 62
7
  6
CONTINUOUS
 90
11
 70
0
 10
129.2909273836
 20
132.6016000475
 10
129.2693374142
 20
132.6147618252
 10
129.2513485628
 20
132.6269209371
 10
129.2359238238
 20
132.638410319
 10
129.2226271486
 20
132.649302726
 10
129.2113332211
 20
132.6594104183
 10
129.2018977539
 20
132.6685874434
 10
129.1939365937
 20
132.6769915529
 10
129.1872571221
 20
132.6846186379
 10
129.1819151105
 20
132.6911852265
 10
129.1784881217
 20
132.6956813658
  0
LINE
  5
4B9
100
AcDbEntity
  8
ASSI
100
AcDbLine
 62
250
  6
CONTINUOUS
 10
129.1835617654
 20
132.619060797
 11
129.2110165226
 21
132.6016260606
  0
LWPOLYLINE
  5
4BA
100
AcDbEntity
  8
RACCORDO
100
AcDbPolyline
 62
7
  6
CONTINUOUS
 90
8
 70
0
 10
130.1129070276
 20
133.5495916372
 10
130.1139218978
 20
133.5489297304
 10
130.1172549705
 20
133.5456038027
 10
130.1205190627
 20
133.5405339744
 10
130.1237861613
 20
133.5336701829
 10
130.126958675
 20
133.5249851926
 10
130.1300586898
 20
133.514397603
 10
130.1332510113
 20
133.5018358037
  0
LINE
  5
4BB
100
AcDbEntity
  8
RACCORDO
100
AcDbLine
 62
250
  6
CONTINUOUS
 10
138.2934256724
 20
128.775950418
 11
138.3479244501
 21
128.7393062237
  0
LWPOLYLINE
  5
4BC
100
AcDbEntity
  8
RACCORDO
100
AcDbPolyline
 62
250
  6
CONTINUOUS
 90
23
 70
0
 10
139.033218573
 20
127.9571541066
 10
139.0407192656
 20
127.9520596946
 10
139.0477951976
 20
127.9470257012
 10
139.0544595261
 20
127.9420596526
 10
139.0607151774
 20
127.9371723397
 10
139.0665772216
 20
127.9323735375
 10
139.0720476493
 20
127.9276806825
 10
139.0771466384
 20
127.9230935924
 10
139.0819135742
 20
127.9185934525
 10
139.0863467618
 20
127.9141969894
 10
139.0904674454
 20
127.9099007596
 10
139.0943387631
 20
127.9056508056
 10
139.0979562167
 20
127.9014553706
 10
139.1013303502
 20
127.8973126487
 10
139.104527437
 20
127.8931461118
 10
139.1075485826
 20
127.8889359036
 10
139.1103736417
 20
127.8846992394
 10
139.1130173168
 20
127.880408475
 10
139.1154893092
 20
127.8760107283
 10
139.1177399123
 20
127.8715507279
 10
139.1197033294
 20
127.867150039
 10
139.1213731559
 20
127.8628295578
 10
139.1227556104
 20
127.8585732107
  0
LWPOLYLINE
  5
4BD
100
AcDbEntity
  8
RACCORDO
100
AcDbPolyline
 62
250
  6
CONTINUOUS
 90
11
 70
0
 10
138.3479244501
 20
128.7393062237
 10
138.4022436348
 20
128.6992663041
 10
138.4556838392
 20
128.656361653
 10
138.5086164529
 20
128.6103200024
 10
138.562405335
 20
128.5597713866
 10
138.617156647
 20
128.5041915365
 10
138.6721675408
 20
128.4438573798
 10
138.7274381594
 20
128.3783319414
 10
138.7826617653
 20
128.3074298382
 10
138.8372571179
 20
128.2312882175
 10
138.8907169708
 20
128.1499863589
  0
LWPOLYLINE
  5
4BE
100
AcDbEntity
  8
ASSI
100
AcDbPolyline
 62
250
  6
CONTINUOUS
 90
10
 70
0
 10
134.4462304964
 20
130.7605777261
 10
134.4360098898
 20
130.7682139719
 10
134.4252584696
 20
130.7752354378
 10
134.4140528271
 20
130.781596113
 10
134.4023601858
 20
130.787219784
 10
134.390342342
 20
130.7921319268
 10
134.3783430734
 20
130.7964433622
 10
134.3664905189
 20
130.800175134
 10
134.3547093097
 20
130.8032712628
 10
134.3430162554
 20
130.8057218284
  0
LINE
  5
4BF
100
AcDbEntity
  8
RACCORDO
100
AcDbLine
 62
7
  6
CONTINUOUS
 10
144.8739562777
 20
124.0131274639
 11
144.8705599613
 21
124.015996267
  0
LWPOLYLINE
  5
4C0
100
AcDbEntity
  8
RACCORDO
100
AcDbPolyline
 62
250
  6
CONTINUOUS
 90
9
 70
0
 10
139.0535619095
 20
128.0053827303
 10
139.0533821976
 20
128.0055351198
 10
139.0513148148
 20
128.005347336
 10
139.047155723
 20
128.0038313632
 10
139.0409745161
 20
128.0010125666
 10
139.0328746244
 20
127.9969381079
 10
139.0229915814
 20
127.9916761619
 10
139.0114907564
 20
127.9853147763
 10
138.998564589
 20
127.9779603939
  0
LWPOLYLINE
  5
4C1
100
AcDbEntity
  8
RACCORDO
100
AcDbPolyline
 62
250
  6
CONTINUOUS
 90
126
 70
0
 10
144.6369115649
 20
123.9865944089
 10
144.7078198237
 20
123.9263457422
 10
144.7784455525
 20
123.8649256626
 10
144.8487699137
 20
123.8023505523
 10
144.9187741501
 20
123.7386371017
 10
144.9884395897
 20
123.6738023047
 10
145.0577476512
 20
123.6078634544
 10
145.1266798483
 20
123.5408381383
 10
145.195217795
 20
123.4727442337
 10
145.2633432107
 20
123.4035999029
 10
145.3310379246
 20
123.3334235885
 10
145.3982838808
 20
123.2622340082
 10
145.4650631431
 20
123.1900501501
 10
145.5313578999
 20
123.1168912673
 10
145.5971504687
 20
123.0427768732
 10
145.6624233011
 20
122.9677267359
 10
145.727158987
 20
122.8917608731
 10
145.79134026
 20
122.8148995468
 10
145.8549500012
 20
122.7371632579
 10
145.9179712444
 20
122.6585727405
 10
145.9803871802
 20
122.5791489567
 10
146.0421811608
 20
122.4989130908
 10
146.1033367042
 20
122.4178865436
 10
146.1638374987
 20
122.336090927
 10
146.2236674071
 20
122.2535480578
 10
146.2828104715
 20
122.1702799524
 10
146.3412509169
 20
122.0863088203
 10
146.3989731557
 20
122.0016570588
 10
146.455961792
 20
121.9163472466
 10
146.5122016255
 20
121.8304021379
 10
146.5676776557
 20
121.7438446564
 10
146.6223750857
 20
121.6566978892
 10
146.6762793264
 20
121.5689850804
 10
146.7293760002
 20
121.4807296253
 10
146.7816509448
 20
121.3919550637
 10
146.8330902173
 20
121.302685074
 10
146.8836800975
 20
121.2129434668
 10
146.9334070918
 20
121.1227541783
 10
146.9822579369
 20
121.0321412643
 10
147.0302196029
 20
120.9411288935
 10
147.0772792974
 20
120.8497413412
 10
147.1234244683
 20
120.7580029826
 10
147.1686428076
 20
120.6659382867
 10
147.2129222544
 20
120.5735718094
 10
147.2562509982
 20
120.4809281872
 10
147.2986174824
 20
120.3880321303
 10
147.3400104065
 20
120.2949084165
 10
147.3804187302
 20
120.2015818842
 10
147.4198316755
 20
120.1080774259
 10
147.4582387301
 20
120.0144199815
 10
147.4956296497
 20
119.9206345318
 10
147.5319944614
 20
119.8267460918
 10
147.5673234656
 20
119.7327797037
 10
147.6016072394
 20
119.6387604307
 10
147.6348366384
 20
119.5447133502
 10
147.6670027994
 20
119.4506635468
 10
147.6980971429
 20
119.3566361059
 10
147.7281113754
 20
119.262656107
 10
147.7570374912
 20
119.1687486169
 10
147.7848677751
 20
119.074938683
 10
147.811594804
 20
118.9812513267
 10
147.8372114493
 20
118.8877115369
 10
147.8617108781
 20
118.7943442628
 10
147.8850865561
 20
118.701174408
 10
147.9073322483
 20
118.6082268229
 10
147.9284420211
 20
118.5155262992
 10
147.9484102442
 20
118.4230975623
 10
147.9672315916
 20
118.3309652653
 10
147.9849010429
 20
118.2391539821
 10
148.0014138855
 20
118.147688201
 10
148.0167657149
 20
118.0565923184
 10
148.0309524364
 20
117.9658906316
 10
148.0439702661
 20
117.8756073331
 10
148.0558157317
 20
117.7857665038
 10
148.0664856739
 20
117.6963921062
 10
148.0759772465
 20
117.6075079789
 10
148.0842879181
 20
117.5191378295
 10
148.091415472
 20
117.4313052283
 10
148.097358007
 20
117.3440336027
 10
148.1021139382
 20
117.25734623
 10
148.1056819969
 20
117.171266232
 10
148.1080612316
 20
117.0858165684
 10
148.1092510077
 20
117.0010200305
 10
148.1092510077
 20
116.9168992359
 10
148.1080612316
 20
116.8334766217
 10
148.1056819969
 20
116.7507744386
 10
148.1021139382
 20
116.6688147454
 10
148.097358007
 20
116.5876194028
 10
148.091415472
 20
116.5072100677
 10
148.0842879181
 20
116.4276081871
 10
148.0759772465
 20
116.3488349929
 10
148.0664856739
 20
116.2709114958
 10
148.0558157317
 20
116.19385848
 10
148.0439702661
 20
116.1176964974
 10
148.0309524364
 20
116.0424458623
 10
148.0167657149
 20
115.9681266459
 10
148.0014138855
 20
115.8947586711
 10
147.9849010429
 20
115.8223615067
 10
147.9672315916
 20
115.7509544631
 10
147.9484102442
 20
115.6805565861
 10
147.9284420211
 20
115.6111866528
 10
147.9073322483
 20
115.5428631656
 10
147.8850865561
 20
115.4756043483
 10
147.8617108781
 20
115.4094281404
 10
147.8372114493
 20
115.3443521927
 10
147.8115948041
 20
115.2803938627
 10
147.7848677751
 20
115.2175702095
 10
147.7570374912
 20
115.1558979899
 10
147.7281113754
 20
115.0953936532
 10
147.6980971429
 20
115.0360733376
 10
147.6670027994
 20
114.9779528653
 10
147.6348366384
 20
114.9210477383
 10
147.6016072394
 20
114.8653731348
 10
147.5673234657
 20
114.8109439044
 10
147.5319944614
 20
114.7577745649
 10
147.4956296497
 20
114.7058792978
 10
147.4582387301
 20
114.6552719449
 10
147.4198316755
 20
114.6059660044
 10
147.3804187302
 20
114.5579746274
 10
147.3400104065
 20
114.5113106145
 10
147.2986174824
 20
114.465986412
 10
147.2562509982
 20
114.422014109
 10
147.2129222544
 20
114.3794054341
 10
147.1686428076
 20
114.3381717521
 10
147.1234244683
 20
114.2983240609
 10
147.0772792974
 20
114.259872989
  0
LINE
  5
4C2
100
AcDbEntity
  8
RACCORDO
100
AcDbLine
 62
250
  6
CONTINUOUS
 10
144.634150074
 20
123.9889827958
 11
144.6369115661
 21
123.9865944138
  0
LWPOLYLINE
  5
4C3
100
AcDbEntity
  8
RACCORDO
100
AcDbPolyline
 62
7
  6
CONTINUOUS
 90
40
 70
0
 10
144.8739563599
 20
124.0131273903
 10
145.1104720951
 20
123.8064593997
 10
145.342436906
 20
123.5875965229
 10
145.5692498233
 20
123.3572141373
 10
145.7903423014
 20
123.1159863251
 10
146.0051258132
 20
122.8646411262
 10
146.2129850265
 20
122.6039827384
 10
146.4133394364
 20
122.3348255671
 10
146.6056988336
 20
122.0579058738
 10
146.789595096
 20
121.7739545897
 10
146.9645199278
 20
121.4837991202
 10
147.1300095753
 20
121.188241042
 10
147.285672736
 20
120.8879841572
 10
147.4310704732
 20
120.5838501753
 10
147.5657740592
 20
120.2766941419
 10
147.6894228911
 20
119.9672652528
 10
147.8016370044
 20
119.6563995727
 10
147.9020501873
 20
119.3449633136
 10
147.9903475583
 20
119.0337300411
 10
148.0662242944
 20
118.723481624
 10
148.1293634887
 20
118.4151339139
 10
148.1794807577
 20
118.1096142841
 10
148.2163514324
 20
117.8076274469
 10
148.2397374332
 20
117.5101174821
 10
148.2494415078
 20
117.2182730189
 10
148.2453376316
 20
116.9326705553
 10
148.2273143308
 20
116.6542527101
 10
148.1954080344
 20
116.3845713366
 10
148.1496417499
 20
116.1240759154
 10
148.0901086856
 20
115.8735766198
 10
148.0173067188
 20
115.6348693036
 10
147.9316464338
 20
115.4086084723
 10
147.8333975833
 20
115.1949634858
 10
147.7231744096
 20
114.9947619416
 10
147.6015630652
 20
114.8084824554
 10
147.4690052329
 20
114.6362827139
 10
147.3260733973
 20
114.4784694809
 10
147.1734125399
 20
114.3353446537
 10
147.0117088637
 20
114.2071561177
 10
146.8416915185
 20
114.0940991857
  0
LINE
  5
4C4
100
AcDbEntity
  8
RACCORDO
100
AcDbLine
 62
7
  6
CONTINUOUS
 10
144.8705117859
 20
124.0160371747
 11
144.8473723307
 21
124.0364812315
  0
LWPOLYLINE
  5
4C5
100
AcDbEntity
  8
RACCORDO
100
AcDbPolyline
 62
250
  6
CONTINUOUS
 90
8
 70
0
 10
138.9459541283
 20
128.1770261522
 10
138.9457609684
 20
128.1771999918
 10
138.9436377306
 20
128.1771012949
 10
138.9394294725
 20
128.1756637405
 10
138.9332066096
 20
128.1729113827
 10
138.9250732672
 20
128.1688902758
 10
138.9151655379
 20
128.1636677038
 10
138.9036492046
 20
128.1573310544
  0
LWPOLYLINE
  5
4C6
100
AcDbEntity
  8
RACCORDO
100
AcDbPolyline
 62
7
  6
CONTINUOUS
 90
8
 70
0
 10
144.8473723307
 20
124.0364812315
 10
144.8166896538
 20
124.0660232396
 10
144.7853074497
 20
124.0992080038
 10
144.7537399145
 20
124.1358110649
 10
144.7226398789
 20
124.1753275448
 10
144.6924082038
 20
124.2174380354
 10
144.6634148685
 20
124.2617920047
 10
144.6393096439
 20
124.302180314
  0
LWPOLYLINE
  5
4C7
100
AcDbEntity
  8
ASSI
100
AcDbPolyline
 62
250
  6
CONTINUOUS
 90
12
 70
0
 10
136.8569096672
 20
132.0857422389
 10
136.852730698
 20
132.0915015627
 10
136.8421169248
 20
132.103431617
 10
136.8298529047
 20
132.1139361847
 10
136.8160730066
 20
132.122900173
 10
136.800928206
 20
132.1302253705
 10
136.7845844333
 20
132.1358315206
 10
136.7672207532
 20
132.1396572017
 10
136.7490274026
 20
132.141660499
 10
136.7302037102
 20
132.1418194628
 10
136.7109559127
 20
132.1401323507
 10
136.6914948931
 20
132.1366176459
  0
LINE
  5
4C8
100
AcDbEntity
  8
ASSI
100
AcDbLine
 62
7
  6
CONTINUOUS
 10
136.8569477156
 20
132.0856862186
 11
136.8569096672
 21
132.0857422389
  0
LWPOLYLINE
  5
4C9
100
AcDbEntity
  8
RACCORDO
100
AcDbPolyline
 62
250
  6
CONTINUOUS
 90
8
 70
0
 10
136.8999301133
 20
135.3570159686
 10
136.8927567003
 20
135.3697402534
 10
136.8847829457
 20
135.3822781581
 10
136.8760151642
 20
135.3944722909
 10
136.8664393531
 20
135.406211437
 10
136.855905002
 20
135.4175365925
 10
136.8443543576
 20
135.4282864129
 10
136.8318608594
 20
135.4381510539
  0
LWPOLYLINE
  5
4CA
100
AcDbEntity
  8
RACCORDO
100
AcDbPolyline
 62
250
  6
CONTINUOUS
 90
5
 70
0
 10
142.4298442785
 20
130.7639038642
 10
142.4238902924
 20
130.7752292997
 10
142.4176136015
 20
130.7863418377
 10
142.411018305
 20
130.7972408691
 10
142.4040931986
 20
130.8079437122
  0
LWPOLYLINE
  5
4CB
100
AcDbEntity
  8
RACCORDO
100
AcDbPolyline
 62
250
  6
CONTINUOUS
 90
4
 70
0
 10
140.001038974
 20
133.5454484835
 10
139.9962201514
 20
133.5572070463
 10
139.9906779228
 20
133.5690016534
 10
139.9843910127
 20
133.5807668506
  0
LINE
  5
4CC
100
AcDbEntity
  8
SUPERFICI
100
AcDbLine
 62
250
  6
CONTINUOUS
 10
132.470215701
 20
83.0115255156
 11
134.874268978
 21
84.2579210624
  0
LINE
  5
4CD
100
AcDbEntity
  8
SUPERFICI
100
AcDbLine
 62
7
  6
CONTINUOUS
 10
132.3561750806
 20
82.7770479227
 11
134.7641530907
 21
84.0254782704
  0
LWPOLYLINE
  5
4CE
100
AcDbEntity
  8
SUPERFICI
100
AcDbPolyline
 62
250
  6
CONTINUOUS
 90
16
 70
0
 10
132.470215701
 20
83.0115255156
 10
132.4309887281
 20
82.9921531474
 10
132.3885117596
 20
82.9752191794
 10
132.3432375361
 20
82.9609040676
 10
132.2956431424
 20
82.9493592174
 10
132.2462409
 20
82.9407094314
 10
132.1955747002
 20
82.9350482879
 10
132.1441964218
 20
82.9324332526
 10
132.0926424617
 20
82.9328874915
 10
132.0414452368
 20
82.9364046033
 10
131.9910801991
 20
82.9429580454
 10
131.9421555868
 20
82.9524749061
 10
131.895369045
 20
82.9648005185
 10
131.8512452791
 20
82.9797511325
 10
131.8101536812
 20
82.9971537744
 10
131.7724850225
 20
83.0167992543
  0
LWPOLYLINE
  5
4CF
100
AcDbEntity
  8
RACCORDO
100
AcDbPolyline
 62
250
  6
CONTINUOUS
 90
11
 70
0
 10
128.4713103822
 20
134.2426159481
 10
128.5168175366
 20
134.2509800123
 10
128.5639263184
 20
134.25548693
 10
128.6128983447
 20
134.25610619
 10
128.6648519849
 20
134.252607641
 10
128.7200804083
 20
134.2445339732
 10
128.7781641857
 20
134.2315079757
 10
128.8392078843
 20
134.2130890696
 10
128.9031266351
 20
134.1888370396
 10
128.9696298351
 20
134.1583774677
 10
129.0384496099
 20
134.1213515191
  0
LINE
  5
4D0
100
AcDbEntity
  8
ASSI
100
AcDbLine
 62
250
  6
CONTINUOUS
 10
135.3230606339
 20
135.445889113
 11
135.3055800208
 21
135.4427306007
  0
LWPOLYLINE
  5
4D1
100
AcDbEntity
  8
RACCORDO
100
AcDbPolyline
 62
250
  6
CONTINUOUS
 90
5
 70
0
 10
136.8184727581
 20
135.4468737738
 10
136.8330314561
 20
135.4494367484
 10
136.8467030278
 20
135.4491128385
 10
136.8591987744
 20
135.445908884
 10
136.865987413
 20
135.442649026
  0
LWPOLYLINE
  5
4D2
100
AcDbEntity
  8
RACCORDO
100
AcDbPolyline
 62
250
  6
CONTINUOUS
 90
5
 70
0
 10
136.6415113846
 20
135.549049053
 10
136.6560700733
 20
135.551612039
 10
136.6697416369
 20
135.5512881344
 10
136.6822373765
 20
135.5480841806
 10
136.6889168372
 20
135.5448870498
  0
LWPOLYLINE
  5
4D3
100
AcDbEntity
  8
ASSI
100
AcDbPolyline
 62
250
  6
CONTINUOUS
 90
5
 70
0
 10
132.8605862939
 20
134.4942896274
 10
132.8233411472
 20
134.488883141
 10
132.7853170812
 20
134.4856397868
 10
132.7465477879
 20
134.4844668541
 10
132.7082478125
 20
134.4853674266
  0
LWPOLYLINE
  5
4D4
100
AcDbEntity
  8
ASSI
100
AcDbPolyline
 62
7
  6
CONTINUOUS
 90
6
 70
0
 10
135.4009347946
 20
135.459562207
 10
135.390513177
 20
135.4585124521
 10
135.3649761209
 20
135.4551873041
 10
135.3399106532
 20
135.4507971496
 10
135.3153056337
 20
135.4452766189
 10
135.3055187061
 20
135.4427138391
  0
LWPOLYLINE
  5
4D5
100
AcDbEntity
  8
ASSI
100
AcDbPolyline
 62
250
  6
CONTINUOUS
 90
12
 70
0
 10
135.4559472537
 20
135.439275121
 10
135.4506935097
 20
135.4387579189
 10
135.4455001639
 20
135.4381831559
 10
135.4403672162
 20
135.4375508323
 10
135.4353166947
 20
135.4368662138
 10
135.4303265714
 20
135.4361240345
 10
135.4253307623
 20
135.4353084966
 10
135.4203162643
 20
135.4344212452
 10
135.4152960806
 20
135.4334606352
 10
135.4102431371
 20
135.4324059328
 10
135.405148409
 20
135.4312502267
 10
135.400020921
 20
135.4300004283
  0
LINE
  5
4D6
100
AcDbEntity
  8
RACCORDO
100
AcDbLine
 62
250
  6
CONTINUOUS
 10
136.6415113846
 20
135.549049053
 11
135.4559472537
 21
135.439275121
  0
LINE
  5
4D7
100
AcDbEntity
  8
ASSI
100
AcDbLine
 62
7
  6
CONTINUOUS
 10
136.5827871326
 20
135.5689924637
 11
135.40090516
 21
135.4595594706
  0
LWPOLYLINE
  5
4D8
100
AcDbEntity
  8
ASSI
100
AcDbPolyline
 62
250
  6
CONTINUOUS
 90
7
 70
0
 10
132.6403110827
 20
134.5325135498
 10
132.6338977488
 20
134.5323859908
 10
132.6270842004
 20
134.5301201574
 10
132.619945088
 20
134.5257408742
 10
132.6125586292
 20
134.5192961213
 10
132.6050057515
 20
134.5108565085
 10
132.597369206
 20
134.5005145017
  0
LWPOLYLINE
  5
4D9
100
AcDbEntity
  8
ASSI
100
AcDbPolyline
 62
250
  6
CONTINUOUS
 90
6
 70
0
 10
130.356870657
 20
133.2238826803
 10
130.3663324105
 20
133.2240102843
 10
130.3819145948
 20
133.2226151932
 10
130.3973569788
 20
133.2192345039
 10
130.412503742
 20
133.2139006129
 10
130.4272029747
 20
133.2066654867
  0
LWPOLYLINE
  5
4DA
100
AcDbEntity
  8
RACCORDO
100
AcDbPolyline
 62
250
  6
CONTINUOUS
 90
3
 70
0
 10
136.5951960725
 20
135.568944171
 10
136.5880336575
 20
135.5692605929
 10
136.5827865871
 20
135.5689924132
  0
LWPOLYLINE
  5
4DB
100
AcDbEntity
  8
ASSI
100
AcDbPolyline
 62
250
  6
CONTINUOUS
 90
23
 70
0
 10
132.5423593189
 20
134.5095824436
 10
132.5144759229
 20
134.5117975176
 10
132.4860863437
 20
134.5124594471
 10
132.4574475072
 20
134.5115750309
 10
132.4293301905
 20
134.5091646657
 10
132.4017535722
 20
134.5051886154
 10
132.3746984738
 20
134.499686616
 10
132.3488781375
 20
134.492798272
 10
132.3243172134
 20
134.4844839707
 10
132.3009910515
 20
134.4747833246
 10
132.2795389439
 20
134.4639547761
 10
132.2600129828
 20
134.4519642295
 10
132.242361076
 20
134.4388457803
 10
132.2270662398
 20
134.4249601578
 10
132.2141986222
 20
134.4102895933
 10
132.203688075
 20
134.3948518554
 10
132.1958071701
 20
134.3790609793
 10
132.1906260937
 20
134.3629085274
 10
132.1880746596
 20
134.3464029374
 10
132.1882148797
 20
134.3299835572
 10
132.191067425
 20
134.3137968361
 10
132.1966116247
 20
134.2976963247
 10
132.2048474786
 20
134.2816820231
  0
LWPOLYLINE
  5
4DC
100
AcDbEntity
  8
ASSI
100
AcDbPolyline
 62
250
  6
CONTINUOUS
 90
3
 70
0
 10
132.7082478125
 20
134.4853674266
 10
132.6708220034
 20
134.4883425321
 10
132.6338655123
 20
134.4933911428
  0
LINE
  5
4DD
100
AcDbEntity
  8
ASSI
100
AcDbLine
 62
250
  6
CONTINUOUS
 10
132.5699934576
 20
134.5058210239
 11
132.5423593189
 21
134.5095824436
  0
LINE
  5
4DE
100
AcDbEntity
  8
ASSI
100
AcDbLine
 62
250
  6
CONTINUOUS
 10
132.6338655123
 20
134.4933911428
 11
132.5699934576
 21
134.5058210239
  0
LWPOLYLINE
  5
4DF
100
AcDbEntity
  8
ASSI
100
AcDbPolyline
 62
250
  6
CONTINUOUS
 90
5
 70
0
 10
133.7565084076
 20
134.9923235895
 10
133.7401578832
 20
134.9959642046
 10
133.7245759465
 20
134.996822085
 10
133.7100004492
 20
134.9948841357
 10
133.6966538801
 20
134.9901799386
  0
LWPOLYLINE
  5
4E0
100
AcDbEntity
  8
ASSI
100
AcDbPolyline
 62
250
  6
CONTINUOUS
 90
6
 70
0
 10
133.8823449358
 20
135.0156920995
 10
133.8645491586
 20
135.0243625548
 10
133.8464669044
 20
135.0301763651
 10
133.828373614
 20
135.0330449706
 10
133.8105448963
 20
135.0329246749
 10
133.7930646937
 20
135.0297662747
  0
LINE
  5
4E1
100
AcDbEntity
  8
ASSI
100
AcDbLine
 62
250
  6
CONTINUOUS
 10
137.1134470962
 20
133.0570296977
 11
137.1312943255
 21
133.0480304754
  0
LWPOLYLINE
  5
4E2
100
AcDbEntity
  8
ASSI
100
AcDbPolyline
 62
250
  6
CONTINUOUS
 90
3
 70
0
 10
133.7905089622
 20
134.9769580743
 10
133.773377936
 20
134.9859558123
 10
133.7565084076
 20
134.9923235895
  0
LINE
  5
4E3
100
AcDbEntity
  8
ASSI
100
AcDbLine
 62
250
  6
CONTINUOUS
 10
137.5166662082
 20
132.8255215802
 11
137.1312943255
 21
133.0480304754
  0
LINE
  5
4E4
100
AcDbEntity
  8
ASSI
100
AcDbLine
 62
250
  6
CONTINUOUS
 10
134.1758808449
 20
134.7544491791
 11
133.7905089622
 21
134.9769580743
  0
LINE
  5
4E5
100
AcDbEntity
  8
ASSI
100
AcDbLine
 62
250
  6
CONTINUOUS
 10
137.6078429364
 20
132.8646362454
 11
137.2224218613
 21
133.0871735437
  0
LINE
  5
4E6
100
AcDbEntity
  8
ASSI
100
AcDbLine
 62
250
  6
CONTINUOUS
 10
134.267766011
 20
134.7931548011
 11
133.8823449358
 21
135.0156920995
  0
LWPOLYLINE
  5
4E7
100
AcDbEntity
  8
ASSI
100
AcDbPolyline
 62
250
  6
CONTINUOUS
 90
13
 70
0
 10
137.5166662082
 20
132.8255215802
 10
137.5344082715
 20
132.8143840334
 10
137.5518795098
 20
132.8009238823
 10
137.5688132321
 20
132.7853465905
 10
137.5849509524
 20
132.7678899387
 10
137.6000463351
 20
132.7488203951
 10
137.6138689558
 20
132.7284290483
 10
137.626207818
 20
132.7070271635
 10
137.6368745742
 20
132.6849414312
 10
137.645706401
 20
132.6625089808
 10
137.6525684842
 20
132.6400722341
 10
137.6573560772
 20
132.6179736784
 10
137.6599960993
 20
132.5965506388
  0
LWPOLYLINE
  5
4E8
100
AcDbEntity
  8
ASSI
100
AcDbPolyline
 62
250
  6
CONTINUOUS
 90
13
 70
0
 10
137.6078429364
 20
132.8646362454
 10
137.6248886895
 20
132.8531896378
 10
137.6411172365
 20
132.8391928216
 10
137.6562813734
 20
132.8228590054
 10
137.6701501103
 20
132.8044369966
 10
137.6825121894
 20
132.7842074115
 10
137.6931793033
 20
132.7624784003
 10
137.7019889636
 20
132.7395809537
 10
137.7088069758
 20
132.7158638606
 10
137.7135294833
 20
132.6916883954
 10
137.7160845499
 20
132.6674228146
 10
137.7164332551
 20
132.6434367476
 10
137.7145702871
 20
132.6200955659
  0
LWPOLYLINE
  5
4E9
100
AcDbEntity
  8
ASSI
100
AcDbPolyline
 62
250
  6
CONTINUOUS
 90
6
 70
0
 10
135.4559472537
 20
135.439275121
 10
135.4434723409
 20
135.4484212483
 10
135.4306606883
 20
135.4549433969
 10
135.4176911029
 20
135.4587505397
 10
135.404744596
 20
135.4597895417
 10
135.4009347946
 20
135.459562207
  0
LINE
  5
4EA
100
AcDbEntity
  8
RACCORDO
100
AcDbLine
 62
250
  6
CONTINUOUS
 10
142.3237633775
 20
130.895444258
 11
141.9794822657
 21
131.1643229062
  0
LINE
  5
4EB
100
AcDbEntity
  8
RACCORDO
100
AcDbLine
 62
7
  6
CONTINUOUS
 10
142.3958241121
 20
130.9026354927
 11
142.0515430003
 21
131.171514141
  0
LWPOLYLINE
  5
4EC
100
AcDbEntity
  8
RACCORDO
100
AcDbPolyline
 62
7
  6
CONTINUOUS
 90
18
 70
0
 10
142.0515161405
 20
131.1715350957
 10
142.0460159558
 20
131.1759265378
 10
142.0293990011
 20
131.1903440419
 10
142.0121705046
 20
131.2071653202
 10
141.9947402584
 20
131.2262520636
 10
141.9776788229
 20
131.247160524
 10
141.9612573396
 20
131.2696702305
 10
141.9457213649
 20
131.2935402128
 10
141.9314896315
 20
131.3181497219
 10
141.9187449741
 20
131.3431117662
 10
141.9075733679
 20
131.3681489354
 10
141.8981199089
 20
131.3927561755
 10
141.8904045622
 20
131.4165949439
 10
141.8843869924
 20
131.4394180308
 10
141.8800237091
 20
131.4608751143
 10
141.8771993695
 20
131.4807712726
 10
141.8757784172
 20
131.4988459166
 10
141.8755237912
 20
131.5098334203
  0
LINE
  5
4ED
100
AcDbEntity
  8
RACCORDO
100
AcDbLine
 62
250
  6
CONTINUOUS
 10
142.3347440067
 20
130.8865847151
 11
142.3237633775
 21
130.895444258
  0
LWPOLYLINE
  5
4EE
100
AcDbEntity
  8
RACCORDO
100
AcDbPolyline
 62
250
  6
CONTINUOUS
 90
16
 70
0
 10
141.9794821418
 20
131.1643228343
 10
141.9631353059
 20
131.1782265136
 10
141.9473324008
 20
131.193530903
 10
141.9322048685
 20
131.2100625441
 10
141.9178579347
 20
131.2276605798
 10
141.9044133773
 20
131.2461282355
 10
141.8920004675
 20
131.2652253074
 10
141.8807708564
 20
131.2846153475
 10
141.8706813874
 20
131.3042599838
 10
141.8616048343
 20
131.3243924254
 10
141.8536342177
 20
131.3448841944
 10
141.8468718616
 20
131.3655466054
 10
141.8413253433
 20
131.386533094
 10
141.8371245757
 20
131.4077521299
 10
141.8344463
 20
131.428870057
 10
141.8334246539
 20
131.4496405551
  0
LWPOLYLINE
  5
4EF
100
AcDbEntity
  8
RACCORDO
100
AcDbPolyline
 62
250
  6
CONTINUOUS
 90
3
 70
0
 10
142.3551076738
 20
130.8678560716
 10
142.3451987854
 20
130.8773556544
 10
142.3347440067
 20
130.8865847151
  0
LWPOLYLINE
  5
4F0
100
AcDbEntity
  8
RACCORDO
100
AcDbPolyline
 62
250
  6
CONTINUOUS
 90
4
 70
0
 10
141.750466368
 20
131.9667118106
 10
141.7341795218
 20
131.9863124879
 10
141.7165247271
 20
132.0048620856
 10
141.6975552359
 20
132.0220711116
  0
LWPOLYLINE
  5
4F1
100
AcDbEntity
  8
RACCORDO
100
AcDbPolyline
 62
250
  6
CONTINUOUS
 90
7
 70
0
 10
142.4040931986
 20
130.8079437122
 10
142.3968880123
 20
130.818372639
 10
142.3893880258
 20
130.8285487131
 10
142.3814680959
 20
130.8386189381
 10
142.3731382929
 20
130.8485300469
 10
142.3644034877
 20
130.8582372084
 10
142.3551076738
 20
130.8678560716
  0
LWPOLYLINE
  5
4F2
100
AcDbEntity
  8
RACCORDO
100
AcDbPolyline
 62
250
  6
CONTINUOUS
 90
9
 70
0
 10
139.9773802211
 20
133.5923905928
 10
139.9696794459
 20
133.60375044
 10
139.9612639062
 20
133.6148208952
 10
139.9520658866
 20
133.6256185842
 10
139.9421120335
 20
133.6360155892
 10
139.9313939181
 20
133.6459331501
 10
139.919763344
 20
133.6553999814
 10
139.9071749187
 20
133.6642952909
 10
139.8937169728
 20
133.6723922164
  0
LINE
  5
4F3
100
AcDbEntity
  8
RACCORDO
100
AcDbLine
 62
250
  6
CONTINUOUS
 10
139.9843910127
 20
133.5807668506
 11
139.9773802211
 21
133.5923905928
  0
LWPOLYLINE
  5
4F4
100
AcDbEntity
  8
RACCORDO
100
AcDbPolyline
 62
250
  6
CONTINUOUS
 90
4
 70
0
 10
141.791285548
 20
131.9030069948
 10
141.7791145889
 20
131.9247903386
 10
141.7654895719
 20
131.9461005608
 10
141.750466368
 20
131.9667118106
  0
LWPOLYLINE
  5
4F5
100
AcDbEntity
  8
0
100
AcDbPolyline
 62
7
  6
CONTINUOUS
 90
13
 70
0
 10
145.0826946339
 20
132.2295666935
 10
145.0994516543
 20
132.1922493554
 10
145.1158222662
 20
132.154614663
 10
145.1318064694
 20
132.1166626163
 10
145.147396457
 20
132.0784106238
 10
145.162600036
 20
132.039841277
 10
145.1774406275
 20
132.0009023504
 10
145.1919206449
 20
131.9615958347
 10
145.206037675
 20
131.9219197393
 10
145.219807899
 20
131.8818158661
 10
145.2332389468
 20
131.8412666362
 10
145.2463231886
 20
131.8002896286
 10
145.2501436486
 20
131.7878625156
  0
LWPOLYLINE
  5
4F6
100
AcDbEntity
  8
ASSI
100
AcDbPolyline
 62
250
  6
CONTINUOUS
 90
3
 70
0
 10
135.3589826419
 20
135.4431408032
 10
135.3408893515
 20
135.4460094088
 10
135.3230606339
 20
135.445889113
  0
LWPOLYLINE
  5
4F7
100
AcDbEntity
  8
RACCORDO
100
AcDbPolyline
 62
7
  6
CONTINUOUS
 90
8
 70
0
 10
140.0707545742
 20
133.014996669
 10
140.0706690772
 20
133.0150267775
 10
140.0695033955
 20
133.014908116
 10
140.0673581065
 20
133.0142051922
 10
140.0642581406
 20
133.012862695
 10
140.0602273698
 20
133.0108914242
 10
140.0552990844
 20
133.0083677718
 10
140.0495122208
 20
133.0053331031
  0
LWPOLYLINE
  5
4F8
100
AcDbEntity
  8
0
100
AcDbPolyline
 62
7
  6
CONTINUOUS
 90
10
 70
0
 10
145.0386076066
 20
132.2711810142
 10
145.0426152289
 20
132.2697299594
 10
145.0489900706
 20
132.2668088948
 10
145.0549953396
 20
132.2632696334
 10
145.0606271337
 20
132.2591077769
 10
145.0658893552
 20
132.2543277236
 10
145.0707321966
 20
132.248978669
 10
145.0751390557
 20
132.2430770117
 10
145.0791265348
 20
132.2366063533
 10
145.0826946339
 20
132.2295666935
  0
LWPOLYLINE
  5
4F9
100
AcDbEntity
  8
RACCORDO
100
AcDbPolyline
 62
250
  6
CONTINUOUS
 90
7
 70
0
 10
134.8862019316
 20
136.0084856614
 10
134.8766507408
 20
136.0127388595
 10
134.8653266714
 20
136.0151450796
 10
134.8530973939
 20
136.0152659732
 10
134.8401675371
 20
136.0130995175
 10
134.8267534523
 20
136.0086819631
 10
134.8130795931
 20
136.0020872275
  0
LWPOLYLINE
  5
4FA
100
AcDbEntity
  8
ASSI
100
AcDbPolyline
 62
250
  6
CONTINUOUS
 90
13
 70
0
 10
139.1858535041
 20
133.2856739987
 10
139.2057167343
 20
133.2761484873
 10
139.2247918943
 20
133.2642595892
 10
139.2428127598
 20
133.2501732332
 10
139.2595278207
 20
133.2340860167
 10
139.2747037917
 20
133.2162224626
 10
139.2881288678
 20
133.1968318855
 10
139.2996156806
 20
133.1761849118
 10
139.3090039131
 20
133.154569703
 10
139.3161625377
 20
133.1322879341
 10
139.3209916443
 20
133.1096505828
 10
139.3234238349
 20
133.0869735894
 10
139.3234251644
 20
133.0645734477
  0
LWPOLYLINE
  5
4FB
100
AcDbEntity
  8
ASSI
100
AcDbPolyline
 62
250
  6
CONTINUOUS
 90
3
 70
0
 10
135.3948606733
 20
135.4286565376
 10
135.3770648961
 20
135.4373269929
 10
135.3589826419
 20
135.4431408032
  0
LWPOLYLINE
  5
4FC
100
AcDbEntity
  8
RACCORDO
100
AcDbPolyline
 62
7
  6
CONTINUOUS
 90
6
 70
0
 10
136.6889168366
 20
135.5448870501
 10
136.6667371718
 20
135.5558528225
 10
136.6457012169
 20
135.5631576722
 10
136.6240542865
 20
135.5678003937
 10
136.6020611744
 20
135.5696754729
 10
136.5823711011
 20
135.56895253
  0
LINE
  5
4FD
100
AcDbEntity
  8
RACCORDO
100
AcDbLine
 62
250
  6
CONTINUOUS
 10
139.8937169728
 20
133.6723922164
 11
139.8794448033
 21
133.6795068779
  0
LWPOLYLINE
  5
4FE
100
AcDbEntity
  8
RACCORDO
100
AcDbPolyline
 62
7
  6
CONTINUOUS
 90
8
 70
0
 10
139.7499466727
 20
133.7774869947
 10
139.730160056
 20
133.7874281682
 10
139.7104165807
 20
133.7946468863
 10
139.6900023612
 20
133.7995266768
 10
139.6690209883
 20
133.8019563336
 10
139.6477772679
 20
133.8018036582
 10
139.6266618239
 20
133.7989988848
 10
139.613928016
 20
133.7959630084
  0
LWPOLYLINE
  5
4FF
100
AcDbEntity
  8
RACCORDO
100
AcDbPolyline
 62
7
  6
CONTINUOUS
 90
10
 70
0
 10
134.8862019316
 20
136.0084856614
 10
134.8659107433
 20
136.0189318734
 10
134.8429191682
 20
136.0279065001
 10
134.8195736025
 20
136.0341152363
 10
134.7961195674
 20
136.037506566
 10
134.7728168371
 20
136.038085668
 10
134.7500475276
 20
136.035913133
 10
134.7281761115
 20
136.031126991
 10
134.7074608424
 20
136.0239110231
 10
134.6910164167
 20
136.016083257
  0
LWPOLYLINE
  5
500
100
AcDbEntity
  8
RACCORDO
100
AcDbPolyline
 62
250
  6
CONTINUOUS
 90
11
 70
0
 10
139.7024834298
 20
133.7816821571
 10
139.6947702838
 20
133.7857913715
 10
139.6867212527
 20
133.7895021358
 10
139.6783534395
 20
133.7927425738
 10
139.6696804975
 20
133.7954394397
 10
139.6607399253
 20
133.7975141705
 10
139.6515934617
 20
133.798888976
 10
139.6422809875
 20
133.7994913051
 10
139.6328517118
 20
133.7992481996
 10
139.6233899536
 20
133.7980948194
 10
139.6139217992
 20
133.7959619704
  0
LINE
  5
501
100
AcDbEntity
  8
RACCORDO
100
AcDbLine
 62
250
  6
CONTINUOUS
 10
141.6566749987
 20
132.0506810107
 11
140.0297611178
 21
132.9900406955
  0
LINE
  5
502
100
AcDbEntity
  8
RACCORDO
100
AcDbLine
 62
250
  6
CONTINUOUS
 10
134.8130795931
 20
136.0020872275
 11
135.7040854904
 21
135.4876315893
  0
LINE
  5
503
100
AcDbEntity
  8
RACCORDO
100
AcDbLine
 62
7
  6
CONTINUOUS
 10
141.7298275155
 20
132.0570620341
 11
140.0707549261
 21
133.0149897541
  0
LINE
  5
504
100
AcDbEntity
  8
RACCORDO
100
AcDbLine
 62
7
  6
CONTINUOUS
 10
134.8862019316
 20
136.0084856614
 11
135.7766524291
 21
135.4943507182
  0
LINE
  5
505
100
AcDbEntity
  8
RACCORDO
100
AcDbLine
 62
250
  6
CONTINUOUS
 10
137.0402043562
 20
134.9770608518
 11
139.2582830442
 21
133.6963700164
  0
LINE
  5
506
100
AcDbEntity
  8
RACCORDO
100
AcDbLine
 62
7
  6
CONTINUOUS
 10
137.1152079802
 20
134.9844920284
 11
139.3174571643
 21
133.7129409502
  0
LINE
  5
507
100
AcDbEntity
  8
RACCORDO
100
AcDbLine
 62
250
  6
CONTINUOUS
 10
139.8794448033
 20
133.6795068779
 11
139.7024834298
 21
133.7816821571
  0
LINE
  5
508
100
AcDbEntity
  8
RACCORDO
100
AcDbLine
 62
250
  6
CONTINUOUS
 10
136.8184727581
 20
135.4468737738
 11
136.6415113846
 21
135.549049053
  0
LINE
  5
509
100
AcDbEntity
  8
RACCORDO
100
AcDbLine
 62
7
  6
CONTINUOUS
 10
139.926996522
 20
133.675260751
 11
139.7500351483
 21
133.7774360303
  0
LINE
  5
50A
100
AcDbEntity
  8
RACCORDO
100
AcDbLine
 62
7
  6
CONTINUOUS
 10
136.8660244768
 20
135.4426276469
 11
136.6890630583
 21
135.5448029521
  0
LWPOLYLINE
  5
50B
100
AcDbEntity
  8
RACCORDO
100
AcDbPolyline
 62
250
  6
CONTINUOUS
 90
40
 70
0
 10
144.0021168128
 20
132.0044193534
 10
144.1384332772
 20
131.9216880853
 10
144.2775105143
 20
131.828954227
 10
144.4189301124
 20
131.7259280578
 10
144.5626015637
 20
131.6120541106
 10
144.7076134714
 20
131.4874137076
 10
144.8522842202
 20
131.3529449287
 10
144.9960616158
 20
131.2087558042
 10
145.1383430772
 20
131.055032182
 10
145.2774582886
 20
130.8932783655
 10
145.4128096334
 20
130.7240221253
 10
145.5439267604
 20
130.5476782911
 10
145.6695108533
 20
130.3659247424
 10
145.7889032057
 20
130.1798102333
 10
145.9019847552
 20
129.9896201969
 10
146.0083962769
 20
129.7960166384
 10
146.1077476467
 20
129.5997819936
 10
146.199784847
 20
129.4014955429
 10
146.2843551295
 20
129.2015119099
 10
146.3612023915
 20
129.0004007544
 10
146.4300068229
 20
128.7989594117
 10
146.4905234903
 20
128.5978812614
 10
146.5425438201
 20
128.3978274778
 10
146.5858722285
 20
128.1995131293
 10
146.6203385052
 20
128.0037058442
 10
146.6458239257
 20
127.8111103248
 10
146.6622514781
 20
127.6223493965
 10
146.6695684566
 20
127.4380494253
 10
146.6677504349
 20
127.2588452979
 10
146.6568043947
 20
127.0853462023
 10
146.6367641349
 20
126.918118102
 10
146.6076878014
 20
126.7577070453
 10
146.5696739129
 20
126.6046985062
 10
146.5228692245
 20
126.4596769424
 10
146.4674436807
 20
126.3231400353
 10
146.4035912864
 20
126.1955413273
 10
146.3315555532
 20
126.0773387657
 10
146.2516443447
 20
125.9689835394
 10
146.1641018338
 20
125.8707581586
 10
146.0690872395
 20
125.7828563016
  0
LWPOLYLINE
  5
50C
100
AcDbEntity
  8
RACCORDO
100
AcDbPolyline
 62
7
  6
CONTINUOUS
 90
40
 70
0
 10
144.2459585367
 20
132.0256894306
 10
144.4132149844
 20
131.9230809461
 10
144.5783043425
 20
131.809798901
 10
144.7407776503
 20
131.6863350788
 10
144.9003050475
 20
131.5530917126
 10
145.0563572241
 20
131.4106396942
 10
145.2081862214
 20
131.2598184408
 10
145.3552568628
 20
131.1013515643
 10
145.4972872858
 20
130.9357186944
 10
145.6338968667
 20
130.7635060085
 10
145.7646548038
 20
130.5853878591
 10
145.8892252913
 20
130.4019391935
 10
146.007350072
 20
130.213617536
 10
146.1186701108
 20
130.021034117
 10
146.2228202763
 20
129.8248415884
 10
146.3195209001
 20
129.6255536263
 10
146.4084382353
 20
129.4238015186
 10
146.4892457967
 20
129.2202382688
 10
146.5616778709
 20
129.0153882248
 10
146.6254454629
 20
128.8098383747
 10
146.6802363666
 20
128.60428938
 10
146.7257729801
 20
128.3993869311
 10
146.7618216139
 20
128.1955774618
 10
146.788083621
 20
127.993682761
 10
146.8042895206
 20
127.7948068417
 10
146.8102804737
 20
127.5992776117
 10
146.8058735917
 20
127.4079327614
 10
146.7910372582
 20
127.2224273144
 10
146.7657833128
 20
127.0430600529
 10
146.7301592317
 20
126.8704282386
 10
146.6846325872
 20
126.7063147284
 10
146.6296511553
 20
126.5513338499
 10
146.5654392962
 20
126.4053517314
 10
146.4924618364
 20
126.2688430902
 10
146.4112183998
 20
126.1421570868
 10
146.3221087007
 20
126.0254023916
 10
146.2255765956
 20
125.918741109
 10
146.1221659481
 20
125.8224014534
 10
146.0124998726
 20
125.73660072
 10
145.911432272
 20
125.6699918306
  0
LINE
  5
50D
100
AcDbEntity
  8
RACCORDO
100
AcDbLine
 62
250
  6
CONTINUOUS
 10
141.6775295116
 20
132.0374734242
 11
141.6566749987
 21
132.0506810107
  0
LINE
  5
50E
100
AcDbEntity
  8
RACCORDO
100
AcDbLine
 62
250
  6
CONTINUOUS
 10
136.8318608594
 20
135.4381510539
 11
136.8184727581
 21
135.4468737738
  0
LWPOLYLINE
  5
50F
100
AcDbEntity
  8
ASSI
100
AcDbPolyline
 62
250
  6
CONTINUOUS
 90
13
 70
0
 10
139.1383758844
 20
133.2671977719
 10
139.1554216376
 20
133.2557511642
 10
139.1716501847
 20
133.2417543478
 10
139.1868143218
 20
133.2254205315
 10
139.2006830587
 20
133.2069985227
 10
139.2130451377
 20
133.1867689374
 10
139.2237122516
 20
133.1650399262
 10
139.2325219118
 20
133.1421424796
 10
139.2393399239
 20
133.1184253866
 10
139.2440624314
 20
133.0942499215
 10
139.2466174979
 20
133.0699843408
 10
139.2469662031
 20
133.045998274
 10
139.2451032351
 20
133.0226570925
  0
LWPOLYLINE
  5
510
100
AcDbEntity
  8
RACCORDO
100
AcDbPolyline
 62
250
  6
CONTINUOUS
 90
8
 70
0
 10
136.6415113846
 20
135.549049053
 10
136.6352454747
 20
135.5535348175
 10
136.6288465397
 20
135.5575275717
 10
136.6223291715
 20
135.560992914
 10
136.6157440037
 20
135.563881417
 10
136.6090748479
 20
135.5661831613
 10
136.6022368487
 20
135.5678909083
 10
136.5951960725
 20
135.568944171
  0
LWPOLYLINE
  5
511
100
AcDbEntity
  8
0
100
AcDbPolyline
 62
7
  6
CONTINUOUS
 90
14
 70
0
 10
145.909482435
 20
131.7689057901
 10
145.9033779116
 20
131.7734362199
 10
145.897347387
 20
131.776968403
 10
145.8909502456
 20
131.7798753139
 10
145.8842537464
 20
131.7821255746
 10
145.8772551077
 20
131.7837125516
 10
145.8699571111
 20
131.7846428783
 10
145.8624353609
 20
131.7849050774
 10
145.854687417
 20
131.784492634
 10
145.8467157194
 20
131.7834120631
 10
145.8386031922
 20
131.7816714314
 10
145.8303774768
 20
131.7792734281
 10
145.8220109319
 20
131.7762153642
 10
145.8135035573
 20
131.7724972395
  0
LINE
  5
512
100
AcDbEntity
  8
RACCORDO
100
AcDbLine
 62
250
  6
CONTINUOUS
 10
141.6975552359
 20
132.0220711116
 11
141.6775295116
 21
132.0374734242
  0
LWPOLYLINE
  5
513
100
AcDbEntity
  8
0
100
AcDbPolyline
 62
7
  6
CONTINUOUS
 90
10
 70
0
 10
145.4808706958
 20
131.6147892259
 10
145.387257223
 20
131.6889798898
 10
145.2933100345
 20
131.7583283825
 10
145.1990291303
 20
131.8228347039
 10
145.1041920334
 20
131.8826273096
 10
145.0090212208
 20
131.937577744
 10
144.9141841239
 20
131.9873006407
 10
144.8199032197
 20
132.0316675442
 10
144.7259560312
 20
132.0708069099
 10
144.6323425584
 20
132.1047187379
  0
LWPOLYLINE
  5
514
100
AcDbEntity
  8
0
100
AcDbPolyline
 62
250
  6
CONTINUOUS
 90
25
 70
0
 10
145.8135035573
 20
131.7724972395
 10
145.9257598448
 20
131.6761037511
 10
146.0362702425
 20
131.5733996522
 10
146.1446773837
 20
131.4647189057
 10
146.2506300495
 20
131.3504155846
 10
146.3537867398
 20
131.2308601173
 10
146.4538165513
 20
131.1064376892
 10
146.5503948544
 20
130.977553727
 10
146.64321135
 20
130.844624019
 10
146.7319724478
 20
130.7080695932
 10
146.816394773
 20
130.5683252402
 10
146.8962005661
 20
130.4258495087
 10
146.9711259168
 20
130.2811142922
 10
147.0409260226
 20
130.1345954521
 10
147.1053798519
 20
129.9867601482
 10
147.1642839562
 20
129.8380760131
 10
147.2174723007
 20
129.6889506888
 10
147.2647421692
 20
129.5399398364
 10
147.305886903
 20
129.3917332033
 10
147.3408443672
 20
129.2445980007
 10
147.3694650193
 20
129.0992146805
 10
147.3915751272
 20
128.9568500123
 10
147.4072152989
 20
128.8181724953
 10
147.4165196843
 20
128.6832854099
 10
147.4195944004
 20
128.5525384186
  0
LWPOLYLINE
  5
515
100
AcDbEntity
  8
0
100
AcDbPolyline
 62
7
  6
CONTINUOUS
 90
36
 70
0
 10
145.9094846944
 20
131.768909233
 10
146.0179550723
 20
131.6751181678
 10
146.1344297713
 20
131.5659056322
 10
146.2479934839
 20
131.4504327615
 10
146.35826442
 20
131.3291763416
 10
146.4649358723
 20
131.2025567839
 10
146.5677597261
 20
131.0709310023
 10
146.6664023917
 20
130.9347723394
 10
146.7605520676
 20
130.7945526163
 10
146.8499837109
 20
130.6506281751
 10
146.9344047937
 20
130.5034674692
 10
147.0135126867
 20
130.3535882667
 10
147.0870665218
 20
130.2014218598
 10
147.1548038162
 20
130.047463535
 10
147.2164637053
 20
129.8922446937
 10
147.2718216328
 20
129.7362483844
 10
147.3206902923
 20
129.5798677183
 10
147.3628121481
 20
129.4237579756
 10
147.3979278597
 20
129.2687752725
 10
147.4258971626
 20
129.1155069486
 10
147.4466303321
 20
128.9643726559
 10
147.460031183
 20
128.8159259158
 10
147.4660376711
 20
128.6704433337
 10
147.4645769949
 20
128.5285808139
 10
147.4556669706
 20
128.3913538214
 10
147.4393810965
 20
128.2591408392
 10
147.4158018848
 20
128.1322763218
 10
147.3851547195
 20
128.0115442688
 10
147.3477668465
 20
127.8975770765
 10
147.3037421048
 20
127.7901865533
 10
147.2529378722
 20
127.6889578005
 10
147.1953448438
 20
127.5940747475
 10
147.1311827567
 20
127.5060881722
 10
147.0605645615
 20
127.4253031018
 10
146.9836376958
 20
127.3520584275
 10
146.9114923942
 20
127.2945791694
  0
ARC
  5
516
100
AcDbEntity
  8
SUPERFICI
100
AcDbCircle
 62
7
  6
CONTINUOUS
 10
132.1260384131
 20
83.220936551
 40
0.5
100
AcDbArc
 50
239.9984015654
 51
297.4194204711
  0
ARC
  5
517
100
AcDbEntity
  8
SUPERFICI
100
AcDbCircle
 62
7
  6
CONTINUOUS
 10
117.2578242448
 20
91.8056570693
 40
0.5
100
AcDbArc
 50
179.9840060021
 51
239.998401565
  0
ARC
  5
518
100
AcDbEntity
  8
SUPERFICI
100
AcDbCircle
 62
7
  6
CONTINUOUS
 10
117.2578242448
 20
133.9574293515
 40
0.5
100
AcDbArc
 50
122.5992954234
 51
180.0013071251
  0
ARC
  5
519
100
AcDbEntity
  8
ASSI
100
AcDbCircle
 62
7
  6
CONTINUOUS
 10
128.1925889708
 20
132.8122036569
 40
0.2
100
AcDbArc
 50
119.0851069677
 51
154.749124799
  0
ARC
  5
51A
100
AcDbEntity
  8
ASSI
100
AcDbCircle
 62
7
  6
CONTINUOUS
 10
124.0070627608
 20
133.7587797368
 40
0.2
100
AcDbArc
 50
59.9984015652
 51
118.2824903446
  0
ARC
  5
51B
100
AcDbEntity
  8
ASSI
100
AcDbCircle
 62
7
  6
CONTINUOUS
 10
134.7106094088
 20
127.2093750597
 40
0.2
100
AcDbArc
 50
315.7312260649
 51
0.0244884554
  0
ARC
  5
51C
100
AcDbEntity
  8
ASSI
100
AcDbCircle
 62
7
  6
CONTINUOUS
 10
134.7106094088
 20
127.5786860493
 40
0.2
100
AcDbArc
 50
359.9837886302
 51
59.9984015652
  0
ARC
  5
51D
100
AcDbEntity
  8
ASSI
100
AcDbCircle
 62
7
  6
CONTINUOUS
 10
125.5342666265
 20
132.8769913651
 40
0.2
100
AcDbArc
 50
359.9895357921
 51
59.9984015652
  0
ARC
  5
51E
100
AcDbEntity
  8
ASSI
100
AcDbCircle
 62
7
  6
CONTINUOUS
 10
125.5342666265
 20
132.5076803756
 40
0.2
100
AcDbArc
 50
315.7300112915
 51
0.027209445
  0
ARC
  5
51F
100
AcDbEntity
  8
ASSI
100
AcDbCircle
 62
7
  6
CONTINUOUS
 10
133.183405543
 20
128.460474421
 40
0.2
100
AcDbArc
 50
59.9984015652
 51
118.2824903446
  0
ELLIPSE
  5
520
100
AcDbEntity
  8
SUPERFICI
100
AcDbEllipse
 62
7
  6
CONTINUOUS
 10
134.520594392
 20
84.4624081677
 30
0.0
 11
-0.2501834304
 21
0.4333025529
 31
0.0
 40
0.5769361983
 41
-3.1677535987
 42
-2.3565853618
  0
ELLIPSE
  5
521
100
AcDbEntity
  8
SUPERFICI
100
AcDbEllipse
 62
7
  6
CONTINUOUS
 10
134.520594392
 20
126.7552886257
 30
0.0
 11
-0.2500121049
 21
0.4330057129
 31
0.0
 40
0.5777274115
 41
-2.3559002616
 42
-0.7857891675
  0
ELLIPSE
  5
522
100
AcDbEntity
  8
RACCORDO
100
AcDbEllipse
 62
7
  6
CONTINUOUS
 10
135.6344087678
 20
122.1171718287
 30
0.0
 11
0.143107575
 21
0.2366201515
 31
0.0
 40
0.5904602253
 41
-1.5588007257
 42
-0.7734027153
  0
ELLIPSE
  5
523
100
AcDbEntity
  8
SUPERFICI
100
AcDbEllipse
 62
7
  6
CONTINUOUS
 10
119.5301730217
 20
135.4105700508
 30
0.0
 11
-0.2501834304
 21
0.4333025529
 31
0.0
 40
0.5769361983
 41
-0.7851038024
 42
0.0261609458
  0
ELLIPSE
  5
524
100
AcDbEntity
  8
SUPERFICI
100
AcDbEllipse
 62
7
  6
CONTINUOUS
 10
134.6659337116
 20
90.1312840259
 30
0.0
 11
0.3037200246
 21
0.1710449014
 31
0.0
 40
0.0105151745
 41
0.6673087948
 42
0.7742146559
  0
ELLIPSE
  5
525
100
AcDbEntity
  8
SUPERFICI
100
AcDbEllipse
 62
7
  6
CONTINUOUS
 10
134.5893986735
 20
90.1754743977
 30
0.0
 11
0.4568380168
 21
0.0702030008
 31
0.0
 40
0.2209951355
 41
0.2918164413
 42
0.3503969549
  0
ELLIPSE
  5
526
100
AcDbEntity
  8
RACCORDO
100
AcDbEllipse
 62
7
  6
CONTINUOUS
 10
135.6344087678
 20
89.9373479275
 30
0.0
 11
0.1999879242
 21
-0.1103320873
 31
0.0
 40
0.0199195284
 41
-0.7744091265
 42
0.7963872003
  0
ELLIPSE
  5
527
100
AcDbEntity
  8
RACCORDO
100
AcDbEllipse
 62
7
  6
CONTINUOUS
 10
23.7227865907
 20
59.476466326
 30
0.0
 11
402.8595621856
 21
232.6078586167
 31
0.0
 40
0.0628494143
 41
-1.3277255145
 42
-1.3258935879
  0
ELLIPSE
  5
528
100
AcDbEntity
  8
0
100
AcDbEllipse
 62
7
  6
CONTINUOUS
 10
-853.714467921
 20
-425.8856766409
 30
0.0
 11
1091.3872670356
 21
588.1465940607
 31
0.0
 40
0.0261556157
 41
-0.4518153808
 42
-0.4513581923
  0
ELLIPSE
  5
529
100
AcDbEntity
  8
ASSI
100
AcDbEllipse
 62
7
  6
CONTINUOUS
 10
138.9383930492
 20
132.475846101
 30
0.0
 11
0.5013109713
 21
-0.0090323087
 31
0.0
 40
0.5663187271
 41
-0.7565983455
 42
-0.4971873728
  0
ELLIPSE
  5
52A
100
AcDbEntity
  8
ASSI
100
AcDbEllipse
 62
7
  6
CONTINUOUS
 10
134.9304467053
 20
129.0066062239
 30
0.0
 11
0.999867518
 21
-0.0292282715
 31
0.0
 40
0.5568983954
 41
5.6013315027
 42
7.0848613669
  0
ELLIPSE
  5
52B
100
AcDbEntity
  8
ASSI
100
AcDbEllipse
 62
7
  6
CONTINUOUS
 10
134.9658176128
 20
128.5234223215
 30
0.0
 11
-0.100004872
 21
0.1732022678
 31
0.0
 40
0.5789151826
 41
-2.3548735497
 42
-0.7868162787
  0
ELLIPSE
  5
52C
100
AcDbEntity
  8
RACCORDO
100
AcDbEllipse
 62
7
  6
CONTINUOUS
 10
23.7227865907
 20
47.551823644
 30
0.0
 11
403.1242860915
 21
268.5419470062
 31
0.0
 40
0.0022336512
 41
-1.2929406363
 42
-1.2911087097
  0
ELLIPSE
  5
52D
100
AcDbEntity
  8
RACCORDO
100
AcDbEllipse
 62
7
  6
CONTINUOUS
 10
140.0377161956
 20
132.8608580324
 30
0.0
 11
0.0396625333
 21
0.1491105824
 31
0.0
 40
0.4377348049
 41
0.3909671288
 42
0.6503781016
  0
ENDSEC
  0
SECTION
  2
OBJECTS
  0
DICTIONARY
  5
C
100
AcDbDictionary
280
0
281
1
  3
ACAD_GROUP
350
D
  3
ACAD_MLINESTYLE
350
17
  3
ACAD_LAYOUT
350
1A
  3
ACAD_PLOTSETTINGS
350
19
  3
ACAD_PLOTSTYLENAME
350
E
  0
DICTIONARY
  5
D
102
{ACAD_REACTORS
330
C
102
}
100
AcDbDictionary
280
0
281
1
  0
ACDBDICTIONARYWDFLT
  5
E
102
{ACAD_REACTORS
330
C
102
}
100
AcDbDictionary
281
1
  3
Normal
350
F
100
AcDbDictionaryWithDefault
340
F
  0
DICTIONARY
  5
17
102
{ACAD_REACTORS
330
C
102
}
100
AcDbDictionary
280
0
281
1
  3
Standard
350
18
  0
DICTIONARY
  5
19
102
{ACAD_REACTORS
330
C
102
}
100
AcDbDictionary
281
1
  0
DICTIONARY
  5
1A
102
{ACAD_REACTORS
330
C
102
}
100
AcDbDictionary
281
1
  3
Model
350
52E
  3
Layout1
350
52F
  0
ACDBPLACEHOLDER
  5
F
102
{ACAD_REACTORS
330
E
102
}
  0
MLINESTYLE
  5
18
102
{ACAD_REACTORS
330
17
102
}
100
AcDbMlineStyle
  2
STANDARD
 70
0
  3

 62
256
 51
90.0
 52
90.0
 71
2
 49
0.5
 62
256
  6
BYLAYER
 49
-0.5
 62
256
  6
BYLAYER
  0
LAYOUT
  5
52E
102
{ACAD_REACTORS
330
1A
102
}
100
AcDbPlotSettings
  1

  2
none_device
  4
ISO_A4_(297.00_x_210.00_MM)
  6

 40
0.0
 41
0.0
 42
0.0
 43
0.0
 44
297.0
 45
210.0
 46
0.0
 47
0.0
 48
0.0
 49
0.0
140
0.0
141
0.0
142
1.0
143
1.0
 70
1024
 72
1
 73
0
 74
0
  7

 75
0
147
1.0
148
0.0
149
0.0
100
AcDbLayout
  1
Model
 70
0
 71
0
 10
0.0
 20
0.0
 11
297.0
 21
210.0
 12
0.0
 22
0.0
 32
0.0
 14
0.0
 24
0.0
 34
0.0
 15
0.0
 25
0.0
 35
0.0
146
0.0
 13
0.0
 23
0.0
 33
0.0
 16
1.0
 26
0.0
 36
0.0
 17
0.0
 27
1.0
 37
0.0
 76
0
330
215
345
0
346
0
  0
LAYOUT
  5
52F
102
{ACAD_REACTORS
330
1A
102
}
100
AcDbPlotSettings
  1

  2
none_device
  4
ISO_A4_(297.00_x_210.00_MM)
  6

 40
0.0
 41
0.0
 42
0.0
 43
0.0
 44
297.0
 45
210.0
 46
0.0
 47
0.0
 48
0.0
 49
0.0
140
0.0
141
0.0
142
1.0
143
1.0
 70
0
 72
1
 73
0
 74
0
  7

 75
0
147
1.0
148
0.0
149
0.0
100
AcDbLayout
  1
Layout1
 70
0
 71
1
 10
0.0
 20
0.0
 11
297.0
 21
210.0
 12
0.0
 22
0.0
 32
0.0
 14
0.0
 24
0.0
 34
0.0
 15
0.0
 25
0.0
 35
0.0
146
0.0
 13
0.0
 23
0.0
 33
0.0
 16
1.0
 26
0.0
 36
0.0
 17
0.0
 27
1.0
 37
0.0
 76
0
330
216
345
0
346
0
  0
ENDSEC
  0
EOF
