  0
SECTION
  2
HEADER
  9
$ACADVER
  1
AC1024
  9
$DWGCODEPAGE
  3
ANSI_1252
  9
$EXTMAX
 10
297.0
 20
210.0
 30
0.0
  9
$EXTMIN
 10
0.0
 20
0.0
 30
0.0
  9
$LIMMIN
 10
0.0
 20
0.0
  9
$LIMMAX
 10
297.0
 20
210.0
  9
$VIEWCTR
 10
148.5
 20
105.0
  9
$VIEWSIZE
 40
210.0
  9
$CLAYER
  8
0
  9
$LTSCALE
 40
16.335
  9
$CELTYPE
  6
BYLAYER
  9
$DIMSCALE
 40
1.0
  9
$DIMASZ
 40
3.0
  9
$DIMEXO
 40
0.5
  9
$DIMDLI
 40
11.286
  9
$DIMEXE
 40
1.5
  9
$DIMCEN
 40
2.673
  9
$DIMLFAC
 40
1.0
  9
$DIMBLK
  1
_FILLED
  9
$DIMALT
 70
0
  9
$DIMALTF
 40
0.0393700787
  9
$DIMTXT
 40
3.0
  9
$DIMTOL
 70
1
  9
$DIMLIM
 70
0
  9
$DIMTFAC
 40
1.0
  9
$DIMTP
 40
0.01
  9
$DIMTM
 40
0.01
  9
$DIMGAP
 40
0.625
  9
$DIMDSEP
 70
44
  9
$AUNITS
 70
0
  9
$PDMODE
 70
3
  9
$PDSIZE
 40
3.0
  9
$HANDSEED
  5
71B
  9
$TILEMODE
 70
1
  9
$MEASUREMENT
 70
1
  9
$INSUNITS
 70
4
  0
ENDSEC
  0
SECTION
  2
CLASSES
  0
CLASS
  1
ACDBDICTIONARYWDFLT
  2
AcDbDictionaryWithDefault
  3
AutoCAD 2000
 90
0
 91
1
280
0
281
0
  0
CLASS
  1
ACDBPLACEHOLDER
  2
AcDbPlaceHolder
  3
AutoCAD 2000
 90
0
 91
1
280
0
281
0
  0
CLASS
  1
LAYOUT
  2
AcDbLayout
  3
AutoCAD 2000
 90
0
 91
0
280
0
281
0
  0
ENDSEC
  0
SECTION
  2
TABLES
  0
TABLE
  2
VPORT
  5
8
100
AcDbSymbolTable
 70
2
  0
VPORT
  5
1F4
100
AcDbSymbolTableRecord
100
AcDbViewportTableRecord
  2
*ACTIVE
 70
0
 10
0.0
 20
0.0
 11
1.0
 21
1.0
 12
148.5
 22
105.0
 13
0.0
 23
0.0
 14
1.0
 24
1.0
 15
0.0
 25
0.0
 16
0.0
 26
0.0
 36
1.0
 17
0.0
 27
0.0
 37
0.0
 40
210.0
 41
1.4142857143
 42
50.0
 43
0.0
 44
0.0
 50
0.0
 51
0.0
 71
0
 72
100
 73
1
 74
1
 75
0
 76
0
 77
0
 78
0
  0
ENDTAB
  0
TABLE
  2
LTYPE
  5
5
100
AcDbSymbolTable
 70
6
  0
LTYPE
  5
14
100
AcDbSymbolTableRecord
100
AcDbLinetypeTableRecord
  2
BYBLOCK
 70
0
  3

 72
65
 73
0
 40
0.0
  0
LTYPE
  5
15
100
AcDbSymbolTableRecord
100
AcDbLinetypeTableRecord
  2
BYLAYER
 70
0
  3

 72
65
 73
0
 40
0.0
  0
LTYPE
  5
16
100
AcDbSymbolTableRecord
100
AcDbLinetypeTableRecord
  2
CONTINUOUS
 70
64
  3
Solid line
 72
65
 73
0
 40
0.0
  0
LTYPE
  5
1F5
100
AcDbSymbolTableRecord
100
AcDbLinetypeTableRecord
  2
CENTER
 70
64
  3
____ _ ____ _ ____ _ ____ _ ____ _ ____ _ ____
 72
65
 73
4
 40
0.6
 49
0.375
 74
0
 49
-0.075
 74
0
 49
0.075
 74
0
 49
-0.075
 74
0
  0
LTYPE
  5
1F6
100
AcDbSymbolTableRecord
100
AcDbLinetypeTableRecord
  2
HIDDEN
 70
64
  3
- - - - - - - - - - - - - - - - - - - -
 72
65
 73
2
 40
0.2
 49
0.1
 74
0
 49
-0.1
 74
0
  0
LTYPE
  5
1F7
100
AcDbSymbolTableRecord
100
AcDbLinetypeTableRecord
  2
PHANTOM
 70
64
  3
_____ _ _ _____ _ _ _____ _ _ _____
 72
65
 73
6
 40
0.8
 49
0.45
 74
0
 49
-0.05
 74
0
 49
0.1
 74
0
 49
-0.05
 74
0
 49
0.1
 74
0
 49
-0.05
 74
0
  0
LTYPE
  5
1F8
100
AcDbSymbolTableRecord
100
AcDbLinetypeTableRecord
  2
DOT
 70
64
  3
. . . . . . . . . . . . . . . . . . . .
 72
65
 73
2
 40
0.2
 49
0.1
 74
0
 49
-0.1
 74
0
  0
LTYPE
  5
1F9
100
AcDbSymbolTableRecord
100
AcDbLinetypeTableRecord
  2
DASHED
 70
64
  3
- - - - - - - - - - - - - - - - - - - -
 72
65
 73
2
 40
0.2
 49
0.1
 74
0
 49
-0.1
 74
0
  0
ENDTAB
  0
TABLE
  2
LAYER
  5
2
100
AcDbSymbolTable
 70
36
  0
LAYER
  5
10
100
AcDbSymbolTableRecord
100
AcDbLayerTableRecord
  2
0
 70
0
 62
7
  6
CONTINUOUS
370
-3
390
F
  0
LAYER
  5
1FA
100
AcDbSymbolTableRecord
100
AcDbLayerTableRecord
  2
DEFAULT_1
 70
0
 62
7
  6
CENTER
370
-3
390
F
  0
LAYER
  5
1FB
100
AcDbSymbolTableRecord
100
AcDbLayerTableRecord
  2
DEFAULT_2
 70
0
 62
7
  6
HIDDEN
370
-3
390
F
  0
LAYER
  5
1FC
100
AcDbSymbolTableRecord
100
AcDbLayerTableRecord
  2
DEFAULT_3
 70
0
 62
7
  6
PHANTOM
370
-3
390
F
  0
LAYER
  5
1FD
100
AcDbSymbolTableRecord
100
AcDbLayerTableRecord
  2
ASSI
 70
0
 62
7
  6
CONTINUOUS
370
-3
390
F
  0
LAYER
  5
1FE
100
AcDbSymbolTableRecord
100
AcDbLayerTableRecord
  2
COORDINATE
 70
0
 62
7
  6
CONTINUOUS
370
-3
390
F
  0
LAYER
  5
1FF
100
AcDbSymbolTableRecord
100
AcDbLayerTableRecord
  2
COORD_ORIGINE
 70
0
 62
7
  6
CONTINUOUS
370
-3
390
F
  0
LAYER
  5
200
100
AcDbSymbolTableRecord
100
AcDbLayerTableRecord
  2
COPY_PUBLISH
 70
0
 62
7
  6
CONTINUOUS
370
-3
390
F
  0
LAYER
  5
201
100
AcDbSymbolTableRecord
100
AcDbLayerTableRecord
  2
COSMETICHE
 70
0
 62
7
  6
CONTINUOUS
370
-3
390
F
  0
LAYER
  5
202
100
AcDbSymbolTableRecord
100
AcDbLayerTableRecord
  2
COSMETICI
 70
0
 62
7
  6
CONTINUOUS
370
-3
390
F
  0
LAYER
  5
203
100
AcDbSymbolTableRecord
100
AcDbLayerTableRecord
  2
CURVE
 70
0
 62
7
  6
CONTINUOUS
370
-3
390
F
  0
LAYER
  5
204
100
AcDbSymbolTableRecord
100
AcDbLayerTableRecord
  2
DIMENSIONI
 70
0
 62
7
  6
CONTINUOUS
370
-3
390
F
  0
LAYER
  5
205
100
AcDbSymbolTableRecord
100
AcDbLayerTableRecord
  2
DRAFT
 70
0
 62
7
  6
CONTINUOUS
370
-3
390
F
  0
LAYER
  5
206
100
AcDbSymbolTableRecord
100
AcDbLayerTableRecord
  2
IMPORT_IGES
 70
0
 62
7
  6
CONTINUOUS
370
-3
390
F
  0
LAYER
  5
207
100
AcDbSymbolTableRecord
100
AcDbLayerTableRecord
  2
INTF_1
 70
0
 62
7
  6
CONTINUOUS
370
-3
390
F
  0
LAYER
  5
208
100
AcDbSymbolTableRecord
100
AcDbLayerTableRecord
  2
INTF_10
 70
0
 62
7
  6
CONTINUOUS
370
-3
390
F
  0
LAYER
  5
209
100
AcDbSymbolTableRecord
100
AcDbLayerTableRecord
  2
INTF_11
 70
0
 62
7
  6
CONTINUOUS
370
-3
390
F
  0
LAYER
  5
20A
100
AcDbSymbolTableRecord
100
AcDbLayerTableRecord
  2
INTF_13
 70
0
 62
7
  6
CONTINUOUS
370
-3
390
F
  0
LAYER
  5
20B
100
AcDbSymbolTableRecord
100
AcDbLayerTableRecord
  2
INTF_14
 70
0
 62
7
  6
CONTINUOUS
370
-3
390
F
  0
LAYER
  5
20C
100
AcDbSymbolTableRecord
100
AcDbLayerTableRecord
  2
INTF_2
 70
0
 62
7
  6
CONTINUOUS
370
-3
390
F
  0
LAYER
  5
20D
100
AcDbSymbolTableRecord
100
AcDbLayerTableRecord
  2
INTF_8
 70
0
 62
7
  6
CONTINUOUS
370
-3
390
F
  0
LAYER
  5
20E
100
AcDbSymbolTableRecord
100
AcDbLayerTableRecord
  2
INTF_9
 70
0
 62
7
  6
CONTINUOUS
370
-3
390
F
  0
LAYER
  5
20F
100
AcDbSymbolTableRecord
100
AcDbLayerTableRecord
  2
LIVELLO_1
 70
0
 62
7
  6
CONTINUOUS
370
-3
390
F
  0
LAYER
  5
210
100
AcDbSymbolTableRecord
100
AcDbLayerTableRecord
  2
NOTE
 70
0
 62
7
  6
CONTINUOUS
370
-3
390
F
  0
LAYER
  5
211
100
AcDbSymbolTableRecord
100
AcDbLayerTableRecord
  2
PIANI
 70
0
 62
7
  6
CONTINUOUS
370
-3
390
F
  0
LAYER
  5
212
100
AcDbSymbolTableRecord
100
AcDbLayerTableRecord
  2
PIANI_ORIGINE
 70
0
 62
7
  6
CONTINUOUS
370
-3
390
F
  0
LAYER
  5
213
100
AcDbSymbolTableRecord
100
AcDbLayerTableRecord
  2
PUNTI
 70
0
 62
7
  6
CONTINUOUS
370
-3
390
F
  0
LAYER
  5
214
100
AcDbSymbolTableRecord
100
AcDbLayerTableRecord
  2
RACCORDO
 70
0
 62
7
  6
CONTINUOUS
370
-3
390
F
  0
LAYER
  5
215
100
AcDbSymbolTableRecord
100
AcDbLayerTableRecord
  2
RGB__255__255__255__
 70
0
 62
7
  6
CONTINUOUS
370
-3
390
F
  0
LAYER
  5
216
100
AcDbSymbolTableRecord
100
AcDbLayerTableRecord
  2
RGB____0____0____0__
 70
0
 62
7
  6
CONTINUOUS
370
-3
390
F
  0
LAYER
  5
217
100
AcDbSymbolTableRecord
100
AcDbLayerTableRecord
  2
SIMBOLI
 70
0
 62
7
  6
CONTINUOUS
370
-3
390
F
  0
LAYER
  5
218
100
AcDbSymbolTableRecord
100
AcDbLayerTableRecord
  2
SMUSSO
 70
0
 62
7
  6
CONTINUOUS
370
-3
390
F
  0
LAYER
  5
219
100
AcDbSymbolTableRecord
100
AcDbLayerTableRecord
  2
SNAPLINE
 70
0
 62
7
  6
CONTINUOUS
370
-3
390
F
  0
LAYER
  5
21A
100
AcDbSymbolTableRecord
100
AcDbLayerTableRecord
  2
SUPERFICI
 70
0
 62
7
  6
CONTINUOUS
370
-3
390
F
  0
LAYER
  5
21B
100
AcDbSymbolTableRecord
100
AcDbLayerTableRecord
  2
TRASH
 70
0
 62
7
  6
CONTINUOUS
370
-3
390
F
  0
LAYER
  5
21C
100
AcDbSymbolTableRecord
100
AcDbLayerTableRecord
  2
WHITE
 70
0
 62
7
  6
CONTINUOUS
370
-3
390
F
  0
ENDTAB
  0
TABLE
  2
STYLE
  5
3
100
AcDbSymbolTable
 70
1
  0
STYLE
  5
11
100
AcDbSymbolTableRecord
100
AcDbTextStyleTableRecord
  2
STANDARD
 70
0
 40
0.0
 41
0.8
 50
0.0
 71
0
 42
0.2
  3
txt
  4

  0
STYLE
  5
21D
100
AcDbSymbolTableRecord
100
AcDbTextStyleTableRecord
  2
TEXTSTYLE_1
 70
0
 40
0.0
 41
0.8
 50
0.0
 71
0
 42
0.2
  3
gdt
  4

  0
ENDTAB
  0
TABLE
  2
VIEW
  5
6
100
AcDbSymbolTable
 70
0
  0
ENDTAB
  0
TABLE
  2
UCS
  5
7
100
AcDbSymbolTable
 70
0
  0
ENDTAB
  0
TABLE
  2
APPID
  5
9
100
AcDbSymbolTable
 70
1
  0
APPID
  5
21E
100
AcDbSymbolTableRecord
100
AcDbRegAppTableRecord
  2
ACAD
 70
0
  0
ENDTAB
  0
TABLE
  2
BLOCK_RECORD
  5
1
100
AcDbSymbolTable
 70
0
  0
BLOCK_RECORD
  5
21F
100
AcDbSymbolTableRecord
100
AcDbBlockTableRecord
  2
*Model_Space
  0
BLOCK_RECORD
  5
220
100
AcDbSymbolTableRecord
100
AcDbBlockTableRecord
  2
*Paper_Space
  0
BLOCK_RECORD
  5
221
100
AcDbSymbolTableRecord
100
AcDbBlockTableRecord
  2
_FILLED
  0
ENDTAB
  0
TABLE
  2
DIMSTYLE
  5
A
100
AcDbSymbolTable
 70
1
100
AcDbDimStyleTable
 71
0
  0
DIMSTYLE
105
222
100
AcDbSymbolTableRecord
100
AcDbDimStyleTableRecord
  2
STANDARD
 70
0
  3

  4

 40
1.0
 41
3.0
 42
0.5
 43
0.38
 44
1.5
 45
0.0
 46
0.0
 47
0.01
 48
0.01
140
3.0
141
0.09
142
0.0
143
25.4
144
1.0
145
0.0
146
1.0
147
0.625
 71
1
 72
0
 73
0
 74
0
 75
0
 76
0
 77
1
 78
8
 79
2
170
0
171
1
172
0
173
0
174
0
175
0
176
0
177
0
178
0
270
2
179
2
271
2
272
2
273
2
274
2
275
0
280
0
281
0
282
0
283
1
284
8
285
0
286
0
287
3
288
0
340
11
278
44
341
221
342
221
343
221
344
221
  0
ENDTAB
  0
ENDSEC
  0
SECTION
  2
BLOCKS
  0
BLOCK
  5
20
100
AcDbEntity
  8
0
100
AcDbBlockBegin
  2
*Model_Space
 70
0
 10
0.0
 20
0.0
 30
0.0
  3
*Model_Space
  1

  0
ENDBLK
  5
21
100
AcDbEntity
  8
0
100
AcDbBlockEnd
  0
BLOCK
  5
1C
100
AcDbEntity
  8
0
100
AcDbBlockBegin
  2
*Paper_Space
 70
0
 10
0.0
 20
0.0
 30
0.0
  3
*Paper_Space
  1

  0
ENDBLK
  5
1D
100
AcDbEntity
  8
0
100
AcDbBlockEnd
  0
BLOCK
  5
223
100
AcDbEntity
  8
0
100
AcDbBlockBegin
  2
_FILLED
 70
64
 10
0.0
 20
0.0
  3
_FILLED
  1

  0
SOLID
  5
224
100
AcDbEntity
  8
0
  6
BYBLOCK
 62
0
100
AcDbTrace
 10
0.0
 20
0.0
 11
-1.0
 21
0.3166666667
 12
-1.0
 22
-0.3166666667
 13
-1.0
 23
-0.3166666667
  0
ENDBLK
  5
225
100
AcDbEntity
  8
0
  6
BYBLOCK
 62
0
100
AcDbBlockEnd
  0
ENDSEC
  0
SECTION
  2
ENTITIES
  0
LWPOLYLINE
  5
226
100
AcDbEntity
  8
ASSI
100
AcDbPolyline
 62
250
  6
CONTINUOUS
 90
14
 70
0
 10
-3.7498980492
 20
-26.3807040797
 10
-3.7115610383
 20
-26.4006635222
 10
-3.6698641829
 20
-26.4182343541
 10
-3.6252519227
 20
-26.4332292901
 10
-3.5781938202
 20
-26.4454898429
 10
-3.5291969329
 20
-26.454883278
 10
-3.4788025466
 20
-26.4613076218
 10
-3.4275616638
 20
-26.4646973023
 10
-3.3760077702
 20
-26.4650216166
 10
-3.3246698304
 20
-26.4622789181
 10
-3.2740213837
 20
-26.4564877859
 10
-3.2246770621
 20
-26.447711673
 10
-3.1773467396
 20
-26.4360958094
 10
-3.1325644757
 20
-26.421817175
  0
LWPOLYLINE
  5
227
100
AcDbEntity
  8
RACCORDO
100
AcDbPolyline
 62
250
  6
CONTINUOUS
 90
14
 70
0
 10
-3.7498980492
 20
-26.3807040797
 10
-3.7115610383
 20
-26.4006635222
 10
-3.6698641829
 20
-26.4182343541
 10
-3.6252519227
 20
-26.4332292901
 10
-3.5781938202
 20
-26.4454898429
 10
-3.5291969329
 20
-26.454883278
 10
-3.4788025466
 20
-26.4613076218
 10
-3.4275616638
 20
-26.4646973023
 10
-3.3760077702
 20
-26.4650216166
 10
-3.3246698304
 20
-26.4622789181
 10
-3.2740213837
 20
-26.4564877859
 10
-3.2246770621
 20
-26.447711673
 10
-3.1773467396
 20
-26.4360958094
 10
-3.1325644757
 20
-26.421817175
  0
LINE
  5
228
100
AcDbEntity
  8
ASSI
100
AcDbLine
 62
7
  6
CONTINUOUS
 10
-18.5145709071
 20
-18.0248519919
 11
-3.6463567387
 21
-26.6095725103
  0
LINE
  5
229
100
AcDbEntity
  8
RACCORDO
100
AcDbLine
 62
7
  6
CONTINUOUS
 10
-18.5145709071
 20
-18.0248519919
 11
-3.6463567387
 21
-26.6095725103
  0
LINE
  5
22A
100
AcDbEntity
  8
ASSI
100
AcDbLine
 62
250
  6
CONTINUOUS
 10
-18.6181122176
 20
-17.7959835614
 11
-3.7498980492
 21
-26.3807040797
  0
LINE
  5
22B
100
AcDbEntity
  8
RACCORDO
100
AcDbLine
 62
250
  6
CONTINUOUS
 10
-18.6181122176
 20
-17.7959835614
 11
-3.7498980492
 21
-26.3807040797
  0
LWPOLYLINE
  5
22C
100
AcDbEntity
  8
ASSI
100
AcDbPolyline
 62
250
  6
CONTINUOUS
 90
9
 70
0
 10
-18.6181122176
 20
-17.7959835614
 10
-18.6526830037
 20
-17.7738466558
 10
-18.6831161703
 20
-17.7497696538
 10
-18.7090873361
 20
-17.7240092401
 10
-18.730321927
 20
-17.6968367331
 10
-18.7465902114
 20
-17.6685448485
 10
-18.7577157373
 20
-17.6394457662
 10
-18.7635848404
 20
-17.6098570333
 10
-18.7645588268
 20
-17.5918532384
  0
LWPOLYLINE
  5
22D
100
AcDbEntity
  8
RACCORDO
100
AcDbPolyline
 62
250
  6
CONTINUOUS
 90
9
 70
0
 10
-18.6181122176
 20
-17.7959835614
 10
-18.6526830037
 20
-17.7738466558
 10
-18.6831161703
 20
-17.7497696538
 10
-18.7090873361
 20
-17.7240092401
 10
-18.730321927
 20
-17.6968367331
 10
-18.7465902114
 20
-17.6685448485
 10
-18.7577157373
 20
-17.6394457662
 10
-18.7635848404
 20
-17.6098570333
 10
-18.7645588268
 20
-17.5918532384
  0
LWPOLYLINE
  5
22E
100
AcDbEntity
  8
ASSI
100
AcDbPolyline
 62
250
  6
CONTINUOUS
 90
9
 70
0
 10
-18.6181122176
 20
-17.7959835614
 10
-18.6162279827
 20
-17.836986312
 10
-18.6105953615
 20
-17.8753761561
 10
-18.6012743903
 20
-17.9107439017
 10
-18.5883626052
 20
-17.9427162997
 10
-18.5719985909
 20
-17.970947905
 10
-18.5523646843
 20
-17.9951295315
 10
-18.5296796031
 20
-18.0150037872
 10
-18.5145709071
 20
-18.0248519919
  0
LWPOLYLINE
  5
22F
100
AcDbEntity
  8
RACCORDO
100
AcDbPolyline
 62
250
  6
CONTINUOUS
 90
9
 70
0
 10
-18.6181122176
 20
-17.7959835614
 10
-18.6162279827
 20
-17.836986312
 10
-18.6105953615
 20
-17.8753761561
 10
-18.6012743903
 20
-17.9107439017
 10
-18.5883626052
 20
-17.9427162997
 10
-18.5719985909
 20
-17.970947905
 10
-18.5523646843
 20
-17.9951295315
 10
-18.5296796031
 20
-18.0150037872
 10
-18.5145709071
 20
-18.0248519919
  0
LINE
  5
230
100
AcDbEntity
  8
CURVE
100
AcDbLine
 62
250
  6
CONTINUOUS
 10
-11.1236500341
 20
-14.6257332837
 11
-11.244964809
 21
-14.5556876531
  0
LINE
  5
231
100
AcDbEntity
  8
ASSI
100
AcDbLine
 62
250
  6
CONTINUOUS
 10
-1.1158254093
 20
-20.0613930365
 11
-1.0853971972
 21
-20.0789619048
  0
LINE
  5
232
100
AcDbEntity
  8
ASSI
100
AcDbLine
 62
250
  6
CONTINUOUS
 10
-0.7819186026
 20
-20.0273180117
 11
-1.1166224856
 21
-19.8340641845
  0
LINE
  5
233
100
AcDbEntity
  8
ASSI
100
AcDbLine
 62
7
  6
CONTINUOUS
 10
-0.7302827231
 20
-20.0354895667
 11
-1.1166224856
 21
-19.8124218298
  0
LWPOLYLINE
  5
234
100
AcDbEntity
  8
ASSI
100
AcDbPolyline
 62
250
  6
CONTINUOUS
 90
4
 70
0
 10
-0.7819186026
 20
-20.0273180117
 10
-0.7638593061
 20
-20.039276593
 10
-0.7468467121
 20
-20.0541027578
 10
-0.7311779971
 20
-20.0715764206
  0
LINE
  5
235
100
AcDbEntity
  8
ASSI
100
AcDbLine
 62
250
  6
CONTINUOUS
 10
-1.0853971972
 20
-20.0789619048
 11
-1.0671374927
 21
-20.0910737064
  0
LWPOLYLINE
  5
236
100
AcDbEntity
  8
CURVE
100
AcDbPolyline
 62
250
  6
CONTINUOUS
 90
12
 70
0
 10
-13.9012340599
 20
-10.2260498509
 10
-13.9132780544
 20
-10.2112432071
 10
-13.9266550857
 20
-10.1984555299
 10
-13.9406350593
 20
-10.188472636
 10
-13.9546663584
 20
-10.1816884268
 10
-13.9681953409
 20
-10.1783705913
 10
-13.9804808256
 20
-10.1786139951
 10
-13.9914753497
 20
-10.182417698
 10
-14.0005151608
 20
-10.1896589993
 10
-14.0072435693
 20
-10.2000521742
 10
-14.011395088
 20
-10.2131871324
 10
-14.0128059258
 20
-10.2285745062
  0
LINE
  5
237
100
AcDbEntity
  8
CURVE
100
AcDbLine
 62
250
  6
CONTINUOUS
 10
-11.244964809
 20
-14.5556876531
 11
-13.9674949151
 21
-10.7824212509
  0
LINE
  5
238
100
AcDbEntity
  8
CURVE
100
AcDbLine
 62
250
  6
CONTINUOUS
 10
-13.9012340599
 20
-10.2260498509
 11
-11.1840638233
 21
-13.9917211476
  0
LWPOLYLINE
  5
239
100
AcDbEntity
  8
0
100
AcDbPolyline
 62
250
  6
CONTINUOUS
 90
7
 70
0
 10
-16.6175866996
 20
-2.1079969772
 10
-16.6157983002
 20
-2.13870303
 10
-16.6104611983
 20
-2.1668338931
 10
-16.6016623909
 20
-2.1919125192
 10
-16.589546457
 20
-2.2135141718
 10
-16.574315804
 20
-2.2312687806
 10
-16.5554619133
 20
-2.2453180356
  0
LWPOLYLINE
  5
23A
100
AcDbEntity
  8
RACCORDO
100
AcDbPolyline
 62
250
  6
CONTINUOUS
 90
7
 70
0
 10
-16.6175866996
 20
-2.1079969772
 10
-16.6157983002
 20
-2.13870303
 10
-16.6104611983
 20
-2.1668338931
 10
-16.6016623909
 20
-2.1919125192
 10
-16.589546457
 20
-2.2135141718
 10
-16.574315804
 20
-2.2312687806
 10
-16.5554619133
 20
-2.2453180356
  0
LWPOLYLINE
  5
23B
100
AcDbEntity
  8
ASSI
100
AcDbPolyline
 62
250
  6
CONTINUOUS
 90
8
 70
0
 10
-16.2721368241
 20
6.5748443448
 10
-16.2710061532
 20
6.5548896385
 10
-16.2676322202
 20
6.5365596804
 10
-16.2620689745
 20
6.5201475683
 10
-16.254405373
 20
6.5059157334
 10
-16.2447639575
 20
6.4940917444
 10
-16.2332988952
 20
6.484864668
 10
-16.2308774958
 20
6.4833880213
  0
LWPOLYLINE
  5
23C
100
AcDbEntity
  8
RACCORDO
100
AcDbPolyline
 62
250
  6
CONTINUOUS
 90
8
 70
0
 10
-16.2721368241
 20
6.5748443448
 10
-16.2710061532
 20
6.5548896385
 10
-16.2676322202
 20
6.5365596804
 10
-16.2620689745
 20
6.5201475683
 10
-16.254405373
 20
6.5059157334
 10
-16.2447639575
 20
6.4940917444
 10
-16.2332988952
 20
6.484864668
 10
-16.2308774958
 20
6.4833880213
  0
LINE
  5
23D
100
AcDbEntity
  8
0
100
AcDbLine
 62
250
  6
CONTINUOUS
 10
-16.705454646
 20
5.6635166498
 11
-16.7054546652
 21
5.6635786048
  0
LINE
  5
23E
100
AcDbEntity
  8
RACCORDO
100
AcDbLine
 62
250
  6
CONTINUOUS
 10
-16.705454646
 20
5.6635166498
 11
-16.7054546652
 21
5.6635786048
  0
LINE
  5
23F
100
AcDbEntity
  8
ASSI
100
AcDbLine
 62
7
  6
CONTINUOUS
 10
-18.764558827
 20
24.5599260175
 11
-18.764558827
 21
-17.5918462647
  0
LINE
  5
240
100
AcDbEntity
  8
RACCORDO
100
AcDbLine
 62
7
  6
CONTINUOUS
 10
-18.764558827
 20
24.5599260175
 11
-18.764558827
 21
-17.5918462647
  0
LINE
  5
241
100
AcDbEntity
  8
ASSI
100
AcDbLine
 62
250
  6
CONTINUOUS
 10
-18.6181122176
 20
24.3557887208
 11
-18.6181122176
 21
-17.7959835614
  0
LINE
  5
242
100
AcDbEntity
  8
RACCORDO
100
AcDbLine
 62
250
  6
CONTINUOUS
 10
-18.6181122176
 20
24.3557887208
 11
-18.6181122176
 21
-17.7959835614
  0
LINE
  5
243
100
AcDbEntity
  8
ASSI
100
AcDbLine
 62
250
  6
CONTINUOUS
 10
-16.8370469968
 20
-1.7456596459
 11
-16.8370469968
 21
6.2487353324
  0
LINE
  5
244
100
AcDbEntity
  8
RACCORDO
100
AcDbLine
 62
250
  6
CONTINUOUS
 10
-16.8370469968
 20
-1.7456596459
 11
-16.8370469968
 21
6.2487353324
  0
LINE
  5
245
100
AcDbEntity
  8
0
100
AcDbLine
 62
7
  6
CONTINUOUS
 10
-16.7054546652
 20
5.6635786048
 11
-16.7054546652
 21
-1.9855145992
  0
LINE
  5
246
100
AcDbEntity
  8
RACCORDO
100
AcDbLine
 62
7
  6
CONTINUOUS
 10
-16.7054546652
 20
5.6635786048
 11
-16.7054546652
 21
-1.9855145992
  0
LINE
  5
247
100
AcDbEntity
  8
0
100
AcDbLine
 62
250
  6
CONTINUOUS
 10
-16.6175866996
 20
5.5410962268
 11
-16.6175866996
 21
-2.1079969772
  0
LINE
  5
248
100
AcDbEntity
  8
RACCORDO
100
AcDbLine
 62
250
  6
CONTINUOUS
 10
-16.6175866996
 20
5.5410962268
 11
-16.6175866996
 21
-2.1079969772
  0
LINE
  5
249
100
AcDbEntity
  8
ASSI
100
AcDbLine
 62
250
  6
CONTINUOUS
 10
-16.5617995193
 20
5.9187303614
 11
-16.5617995193
 21
6.2445737494
  0
LINE
  5
24A
100
AcDbEntity
  8
RACCORDO
100
AcDbLine
 62
250
  6
CONTINUOUS
 10
-16.5617995193
 20
5.9187303614
 11
-16.5617995193
 21
6.2445737494
  0
LWPOLYLINE
  5
24B
100
AcDbEntity
  8
ASSI
100
AcDbPolyline
 62
250
  6
CONTINUOUS
 90
11
 70
0
 10
-16.561799218
 20
6.2445738887
 10
-16.5608510266
 20
6.2860278581
 10
-16.5566381917
 20
6.3251148056
 10
-16.5492606189
 20
6.3615747082
 10
-16.5388679188
 20
6.3951128304
 10
-16.5255767191
 20
6.4256021986
 10
-16.5094199506
 20
6.453026365
 10
-16.4905165781
 20
6.4771944215
 10
-16.4690169383
 20
6.4979210359
 10
-16.4449530048
 20
6.5151338464
 10
-16.4252110524
 20
6.5256784067
  0
LWPOLYLINE
  5
24C
100
AcDbEntity
  8
RACCORDO
100
AcDbPolyline
 62
250
  6
CONTINUOUS
 90
11
 70
0
 10
-16.561799218
 20
6.2445738887
 10
-16.5608510266
 20
6.2860278581
 10
-16.5566381917
 20
6.3251148056
 10
-16.5492606189
 20
6.3615747082
 10
-16.5388679188
 20
6.3951128304
 10
-16.5255767191
 20
6.4256021986
 10
-16.5094199506
 20
6.453026365
 10
-16.4905165781
 20
6.4771944215
 10
-16.4690169383
 20
6.4979210359
 10
-16.4449530048
 20
6.5151338464
 10
-16.4252110524
 20
6.5256784067
  0
LWPOLYLINE
  5
24D
100
AcDbEntity
  8
ASSI
100
AcDbPolyline
 62
250
  6
CONTINUOUS
 90
19
 70
0
 10
-16.8370469968
 20
6.2487353324
 10
-16.8346507731
 20
6.3049222272
 10
-16.8283066882
 20
6.3572792607
 10
-16.8180147421
 20
6.4058064332
 10
-16.8036411156
 20
6.4506919299
 10
-16.7853196278
 20
6.4917475654
 10
-16.7634517364
 20
6.5284087835
 10
-16.7380233227
 20
6.5606759932
 10
-16.7090485054
 20
6.5885487856
 10
-16.6769710981
 20
6.6114613767
 10
-16.641827958
 20
6.6294203493
 10
-16.603582228
 20
6.6424191207
 10
-16.5625671507
 20
6.6498721595
 10
-16.5184067719
 20
6.6516626069
 10
-16.4714770458
 20
6.6479073216
 10
-16.4232390774
 20
6.6383713483
 10
-16.3741799019
 20
6.6229763685
 10
-16.3238124841
 20
6.6018007007
 10
-16.2721368241
 20
6.5748443448
  0
LWPOLYLINE
  5
24E
100
AcDbEntity
  8
RACCORDO
100
AcDbPolyline
 62
250
  6
CONTINUOUS
 90
19
 70
0
 10
-16.8370469968
 20
6.2487353324
 10
-16.8346507731
 20
6.3049222272
 10
-16.8283066882
 20
6.3572792607
 10
-16.8180147421
 20
6.4058064332
 10
-16.8036411156
 20
6.4506919299
 10
-16.7853196278
 20
6.4917475654
 10
-16.7634517364
 20
6.5284087835
 10
-16.7380233227
 20
6.5606759932
 10
-16.7090485054
 20
6.5885487856
 10
-16.6769710981
 20
6.6114613767
 10
-16.641827958
 20
6.6294203493
 10
-16.603582228
 20
6.6424191207
 10
-16.5625671507
 20
6.6498721595
 10
-16.5184067719
 20
6.6516626069
 10
-16.4714770458
 20
6.6479073216
 10
-16.4232390774
 20
6.6383713483
 10
-16.3741799019
 20
6.6229763685
 10
-16.3238124841
 20
6.6018007007
 10
-16.2721368241
 20
6.5748443448
  0
LWPOLYLINE
  5
24F
100
AcDbEntity
  8
ASSI
100
AcDbPolyline
 62
250
  6
CONTINUOUS
 90
16
 70
0
 10
-18.6181122176
 20
24.3557887208
 10
-18.6162277231
 20
24.3989703803
 10
-18.6105943544
 20
24.443867723
 10
-18.6012722019
 20
24.4900021177
 10
-18.5883589321
 20
24.5368873607
 10
-18.5719931619
 20
24.5840180977
 10
-18.5523570039
 20
24.6308751579
 10
-18.529668612
 20
24.6769494435
 10
-18.5041685124
 20
24.7217624294
 10
-18.4761212341
 20
24.7648529083
 10
-18.4457804182
 20
24.8058196798
 10
-18.4135082353
 20
24.8441630666
 10
-18.3797858854
 20
24.8793409962
 10
-18.345033888
 20
24.9109799128
 10
-18.3095845454
 20
24.9388398522
 10
-18.2738137758
 20
24.9626775725
  0
LWPOLYLINE
  5
250
100
AcDbEntity
  8
RACCORDO
100
AcDbPolyline
 62
250
  6
CONTINUOUS
 90
16
 70
0
 10
-18.6181122176
 20
24.3557887208
 10
-18.6162277231
 20
24.3989703803
 10
-18.6105943544
 20
24.443867723
 10
-18.6012722019
 20
24.4900021177
 10
-18.5883589321
 20
24.5368873607
 10
-18.5719931619
 20
24.5840180977
 10
-18.5523570039
 20
24.6308751579
 10
-18.529668612
 20
24.6769494435
 10
-18.5041685124
 20
24.7217624294
 10
-18.4761212341
 20
24.7648529083
 10
-18.4457804182
 20
24.8058196798
 10
-18.4135082353
 20
24.8441630666
 10
-18.3797858854
 20
24.8793409962
 10
-18.345033888
 20
24.9109799128
 10
-18.3095845454
 20
24.9388398522
 10
-18.2738137758
 20
24.9626775725
  0
LWPOLYLINE
  5
251
100
AcDbEntity
  8
0
100
AcDbPolyline
 62
250
  6
CONTINUOUS
 90
13
 70
0
 10
-16.6175866996
 20
5.5410962268
 10
-16.6158010657
 20
5.5738414367
 10
-16.6104411636
 20
5.6082599842
 10
-16.6015490121
 20
5.6437841287
 10
-16.5891681904
 20
5.6799716705
 10
-16.5735009706
 20
5.7160359323
 10
-16.5550424342
 20
5.750882686
 10
-16.5342935775
 20
5.783777788
 10
-16.5115802647
 20
5.8143884789
 10
-16.487284302
 20
5.842314804
 10
-16.4618189662
 20
5.8671711652
 10
-16.4356327977
 20
5.8886039582
 10
-16.4091568797
 20
5.9063447699
  0
LWPOLYLINE
  5
252
100
AcDbEntity
  8
RACCORDO
100
AcDbPolyline
 62
250
  6
CONTINUOUS
 90
13
 70
0
 10
-16.6175866996
 20
5.5410962268
 10
-16.6158010657
 20
5.5738414367
 10
-16.6104411636
 20
5.6082599842
 10
-16.6015490121
 20
5.6437841287
 10
-16.5891681904
 20
5.6799716705
 10
-16.5735009706
 20
5.7160359323
 10
-16.5550424342
 20
5.750882686
 10
-16.5342935775
 20
5.783777788
 10
-16.5115802647
 20
5.8143884789
 10
-16.487284302
 20
5.842314804
 10
-16.4618189662
 20
5.8671711652
 10
-16.4356327977
 20
5.8886039582
 10
-16.4091568797
 20
5.9063447699
  0
LINE
  5
253
100
AcDbEntity
  8
ASSI
100
AcDbLine
 62
7
  6
CONTINUOUS
 10
-18.5339327771
 20
24.9811595335
 11
-18.5211957772
 21
24.9893046973
  0
LINE
  5
254
100
AcDbEntity
  8
RACCORDO
100
AcDbLine
 62
7
  6
CONTINUOUS
 10
-18.5339327771
 20
24.9811595335
 11
-18.5211957772
 21
24.9893046973
  0
LINE
  5
255
100
AcDbEntity
  8
ASSI
100
AcDbLine
 62
250
  6
CONTINUOUS
 10
-18.2738137758
 20
24.9626775725
 11
-18.2648011763
 21
24.9684410253
  0
LINE
  5
256
100
AcDbEntity
  8
RACCORDO
100
AcDbLine
 62
250
  6
CONTINUOUS
 10
-18.2738137758
 20
24.9626775725
 11
-18.2648011763
 21
24.9684410253
  0
LWPOLYLINE
  5
257
100
AcDbEntity
  8
ASSI
100
AcDbPolyline
 62
250
  6
CONTINUOUS
 90
3
 70
0
 10
-1.115748548
 20
-20.0788539096
 10
-1.1110800142
 20
-20.0798728128
 10
-1.0986236844
 20
-20.0804319555
  0
LINE
  5
258
100
AcDbEntity
  8
ASSI
100
AcDbLine
 62
7
  6
CONTINUOUS
 10
-2.1571579279
 20
-16.6390695947
 11
-2.5702637728
 21
-16.3755490423
  0
LINE
  5
259
100
AcDbEntity
  8
RACCORDO
100
AcDbLine
 62
7
  6
CONTINUOUS
 10
-2.1571579279
 20
-16.6390695947
 11
-2.5702637728
 21
-16.3755490423
  0
LWPOLYLINE
  5
25A
100
AcDbEntity
  8
ASSI
100
AcDbPolyline
 62
250
  6
CONTINUOUS
 90
12
 70
0
 10
-1.0671374927
 20
-20.0910737064
 10
-1.0500091874
 20
-20.1060596907
 10
-1.0343031312
 20
-20.1236653856
 10
-1.0202860236
 20
-20.1435918347
 10
-1.0081958844
 20
-20.1655006735
 10
-0.9982380122
 20
-20.1890198752
 10
-0.9905814984
 20
-20.2137500682
 10
-0.9853563556
 20
-20.2392713172
 10
-0.9826513104
 20
-20.2651502544
 10
-0.9825122961
 20
-20.2909474381
 10
-0.9849416733
 20
-20.3162248149
 10
-0.9898981897
 20
-20.340553158
  0
LINE
  5
25B
100
AcDbEntity
  8
CURVE
100
AcDbLine
 62
250
  6
CONTINUOUS
 10
-13.9674949151
 20
-10.7824212509
 11
-14.0128056105
 21
-10.6555608781
  0
LWPOLYLINE
  5
25C
100
AcDbEntity
  8
CURVE
100
AcDbPolyline
 62
250
  6
CONTINUOUS
 90
12
 70
0
 10
-14.0122010342
 20
11.4699381343
 10
-14.0108436852
 20
11.4532990506
 10
-14.0067504152
 20
11.4354234763
 10
-14.0000824993
 20
11.4173015682
 10
-13.9912785964
 20
11.3999500222
 10
-13.9803727189
 20
11.383435873
 10
-13.9679329974
 20
11.3687266986
 10
-13.9544502741
 20
11.3564028886
 10
-13.9407033194
 20
11.347089489
 10
-13.9267452423
 20
11.3408224807
 10
-13.9133693355
 20
11.3380418716
 10
-13.901117409
 20
11.3388542038
  0
LINE
  5
25D
100
AcDbEntity
  8
CURVE
100
AcDbLine
 62
250
  6
CONTINUOUS
 10
-14.0128056105
 20
-10.6555608781
 11
-14.0128056105
 21
-10.2285746833
  0
LINE
  5
25E
100
AcDbEntity
  8
CURVE
100
AcDbLine
 62
250
  6
CONTINUOUS
 10
-14.0122010342
 20
11.4699381343
 11
-14.0122010342
 21
11.8974868771
  0
LINE
  5
25F
100
AcDbEntity
  8
CURVE
100
AcDbLine
 62
250
  6
CONTINUOUS
 10
-13.7231893164
 20
-0.1897991809
 11
-13.7231893164
 21
0.2725720105
  0
LWPOLYLINE
  5
260
100
AcDbEntity
  8
ASSI
100
AcDbPolyline
 62
250
  6
CONTINUOUS
 90
13
 70
0
 10
-16.2721368241
 20
-2.7241127658
 10
-16.271005972
 20
-2.7028506423
 10
-16.2676315757
 20
-2.6806230508
 10
-16.2620677085
 20
-2.6577854967
 10
-16.2544034608
 20
-2.6347032344
 10
-16.2447614879
 20
-2.6117453527
 10
-16.2332960257
 20
-2.5892788761
 10
-16.2201904861
 20
-2.5676630319
 10
-16.2056544769
 20
-2.5472433941
 10
-16.1899203886
 20
-2.5283463116
 10
-16.1732397912
 20
-2.5112738597
 10
-16.1558794319
 20
-2.496298989
 10
-16.1381168898
 20
-2.4836610688
  0
LWPOLYLINE
  5
261
100
AcDbEntity
  8
RACCORDO
100
AcDbPolyline
 62
250
  6
CONTINUOUS
 90
13
 70
0
 10
-16.2721368241
 20
-2.7241127658
 10
-16.271005972
 20
-2.7028506423
 10
-16.2676315757
 20
-2.6806230508
 10
-16.2620677085
 20
-2.6577854967
 10
-16.2544034608
 20
-2.6347032344
 10
-16.2447614879
 20
-2.6117453527
 10
-16.2332960257
 20
-2.5892788761
 10
-16.2201904861
 20
-2.5676630319
 10
-16.2056544769
 20
-2.5472433941
 10
-16.1899203886
 20
-2.5283463116
 10
-16.1732397912
 20
-2.5112738597
 10
-16.1558794319
 20
-2.496298989
 10
-16.1381168898
 20
-2.4836610688
  0
LWPOLYLINE
  5
262
100
AcDbEntity
  8
ASSI
100
AcDbPolyline
 62
250
  6
CONTINUOUS
 90
5
 70
0
 10
-10.2442889755
 20
22.5907704588
 10
-10.2632031132
 20
22.5560410696
 10
-10.2799247415
 20
22.5207615502
 10
-10.2945505069
 20
22.4849517636
 10
-10.3069837629
 20
22.4485918469
  0
LWPOLYLINE
  5
263
100
AcDbEntity
  8
ASSI
100
AcDbPolyline
 62
250
  6
CONTINUOUS
 90
6
 70
0
 10
-10.148393134
 20
22.6593017799
 10
-10.1431851623
 20
22.6670646785
 10
-10.1404801747
 20
22.6770840808
 10
-10.140341202
 20
22.689172303
 10
-10.1427705918
 20
22.7031240724
 10
-10.1477270797
 20
22.7187024733
  0
LWPOLYLINE
  5
264
100
AcDbEntity
  8
ASSI
100
AcDbPolyline
 62
250
  6
CONTINUOUS
 90
6
 70
0
 10
-9.8449047582
 20
22.9705689811
 10
-9.8397550022
 20
22.9782137048
 10
-9.8370154857
 20
22.9882341744
 10
-9.8368548953
 20
23.0003411586
 10
-9.8392788884
 20
23.0143287688
 10
-9.8442484851
 20
23.0299596341
  0
LWPOLYLINE
  5
265
100
AcDbEntity
  8
ASSI
100
AcDbPolyline
 62
250
  6
CONTINUOUS
 90
4
 70
0
 10
-10.1750090436
 20
22.688334568
 10
-10.2001919407
 20
22.656917208
 10
-10.2232749591
 20
22.6244512262
 10
-10.2442889755
 20
22.5907704588
  0
LINE
  5
266
100
AcDbEntity
  8
ASSI
100
AcDbLine
 62
250
  6
CONTINUOUS
 10
-18.5140332856
 20
24.9920551908
 11
-18.5339327771
 21
24.9811595335
  0
LINE
  5
267
100
AcDbEntity
  8
RACCORDO
100
AcDbLine
 62
250
  6
CONTINUOUS
 10
-18.5140332856
 20
24.9920551908
 11
-18.5339327771
 21
24.9811595335
  0
LINE
  5
268
100
AcDbEntity
  8
ASSI
100
AcDbLine
 62
7
  6
CONTINUOUS
 10
-17.5498280183
 20
25.4720659491
 11
-18.4297654327
 21
25.0158572264
  0
LINE
  5
269
100
AcDbEntity
  8
RACCORDO
100
AcDbLine
 62
7
  6
CONTINUOUS
 10
-17.5498280183
 20
25.4720659491
 11
-18.4297654327
 21
25.0158572264
  0
LINE
  5
26A
100
AcDbEntity
  8
ASSI
100
AcDbLine
 62
250
  6
CONTINUOUS
 10
-17.3080852488
 20
25.4428352279
 11
-18.2450713568
 21
24.9570492748
  0
LINE
  5
26B
100
AcDbEntity
  8
RACCORDO
100
AcDbLine
 62
250
  6
CONTINUOUS
 10
-17.3080852488
 20
25.4428352279
 11
-18.2450713568
 21
24.9570492748
  0
LWPOLYLINE
  5
26C
100
AcDbEntity
  8
ASSI
100
AcDbPolyline
 62
250
  6
CONTINUOUS
 90
7
 70
0
 10
-17.3080852488
 20
25.4428352279
 10
-17.2899678311
 20
25.4513966942
 10
-17.2722116132
 20
25.457079934
 10
-17.2551103951
 20
25.4597909798
 10
-17.2389471072
 20
25.4594850456
 10
-17.2239891907
 20
25.4561672639
 10
-17.2118248391
 20
25.4506864287
  0
LWPOLYLINE
  5
26D
100
AcDbEntity
  8
RACCORDO
100
AcDbPolyline
 62
250
  6
CONTINUOUS
 90
7
 70
0
 10
-17.3080852488
 20
25.4428352279
 10
-17.2899678311
 20
25.4513966942
 10
-17.2722116132
 20
25.457079934
 10
-17.2551103951
 20
25.4597909798
 10
-17.2389471072
 20
25.4594850456
 10
-17.2239891907
 20
25.4561672639
 10
-17.2118248391
 20
25.4506864287
  0
LINE
  5
26E
100
AcDbEntity
  8
ASSI
100
AcDbLine
 62
250
  6
CONTINUOUS
 10
-0.9898975673
 20
-20.3405530521
 11
-0.6864195951
 21
-20.2889092649
  0
LINE
  5
26F
100
AcDbEntity
  8
ASSI
100
AcDbLine
 62
250
  6
CONTINUOUS
 10
-1.0853971972
 20
-20.0789619048
 11
-0.7819186026
 21
-20.0273180117
  0
LINE
  5
270
100
AcDbEntity
  8
ASSI
100
AcDbLine
 62
250
  6
CONTINUOUS
 10
-1.0986236844
 20
-20.0804319555
 11
-1.0853977655
 21
-20.0789615766
  0
LWPOLYLINE
  5
271
100
AcDbEntity
  8
ASSI
100
AcDbPolyline
 62
250
  6
CONTINUOUS
 90
5
 70
0
 10
-0.7819186026
 20
-20.0273180117
 10
-0.7643790531
 20
-20.0261607698
 10
-0.7480521651
 20
-20.0283619511
 10
-0.7332383403
 20
-20.0338810565
 10
-0.7302827231
 20
-20.0354895667
  0
LWPOLYLINE
  5
272
100
AcDbEntity
  8
ASSI
100
AcDbPolyline
 62
250
  6
CONTINUOUS
 90
19
 70
0
 10
-16.2721368241
 20
-2.7241127658
 10
-16.3219958976
 20
-2.69255793
 10
-16.3705122285
 20
-2.6572199263
 10
-16.417685817
 20
-2.6180987547
 10
-16.4637465576
 20
-2.5749071607
 10
-16.5084645556
 20
-2.5279323989
 10
-16.5511501271
 20
-2.4780362324
 10
-16.5918106864
 20
-2.425198078
 10
-16.6304388192
 20
-2.3694385189
 10
-16.6663225982
 20
-2.3116810685
 10
-16.699449294
 20
-2.251975634
 10
-16.7298316361
 20
-2.1902723081
 10
-16.7567958857
 20
-2.1273448823
 10
-16.7804288319
 20
-2.0627091449
 10
-16.8006436856
 20
-1.9968493075
 10
-16.8165063396
 20
-1.9319917963
 10
-16.827705425
 20
-1.8688787533
 10
-16.8345523107
 20
-1.8067680365
 10
-16.8370469968
 20
-1.7456596459
  0
LWPOLYLINE
  5
273
100
AcDbEntity
  8
RACCORDO
100
AcDbPolyline
 62
250
  6
CONTINUOUS
 90
19
 70
0
 10
-16.2721368241
 20
-2.7241127658
 10
-16.3219958976
 20
-2.69255793
 10
-16.3705122285
 20
-2.6572199263
 10
-16.417685817
 20
-2.6180987547
 10
-16.4637465576
 20
-2.5749071607
 10
-16.5084645556
 20
-2.5279323989
 10
-16.5511501271
 20
-2.4780362324
 10
-16.5918106864
 20
-2.425198078
 10
-16.6304388192
 20
-2.3694385189
 10
-16.6663225982
 20
-2.3116810685
 10
-16.699449294
 20
-2.251975634
 10
-16.7298316361
 20
-2.1902723081
 10
-16.7567958857
 20
-2.1273448823
 10
-16.7804288319
 20
-2.0627091449
 10
-16.8006436856
 20
-1.9968493075
 10
-16.8165063396
 20
-1.9319917963
 10
-16.827705425
 20
-1.8688787533
 10
-16.8345523107
 20
-1.8067680365
 10
-16.8370469968
 20
-1.7456596459
  0
LWPOLYLINE
  5
274
100
AcDbEntity
  8
0
100
AcDbPolyline
 62
250
  6
CONTINUOUS
 90
7
 70
0
 10
-16.6175866996
 20
-2.1079969772
 10
-16.6432672597
 20
-2.0911073384
 10
-16.6650354443
 20
-2.0723491808
 10
-16.6824625902
 20
-2.0520185316
 10
-16.6952310994
 20
-2.0303490918
 10
-16.7029630857
 20
-2.0077926271
 10
-16.7054546651
 20
-1.9855187826
  0
LWPOLYLINE
  5
275
100
AcDbEntity
  8
RACCORDO
100
AcDbPolyline
 62
250
  6
CONTINUOUS
 90
7
 70
0
 10
-16.6175866996
 20
-2.1079969772
 10
-16.6432672597
 20
-2.0911073384
 10
-16.6650354443
 20
-2.0723491808
 10
-16.6824625902
 20
-2.0520185316
 10
-16.6952310994
 20
-2.0303490918
 10
-16.7029630857
 20
-2.0077926271
 10
-16.7054546651
 20
-1.9855187826
  0
LWPOLYLINE
  5
276
100
AcDbEntity
  8
ASSI
100
AcDbPolyline
 62
250
  6
CONTINUOUS
 90
3
 70
0
 10
-0.7311779971
 20
-20.0715764206
 10
-0.7171177038
 20
-20.0914521663
 10
-0.704941505
 20
-20.113396036
  0
LWPOLYLINE
  5
277
100
AcDbEntity
  8
ASSI
100
AcDbPolyline
 62
7
  6
CONTINUOUS
 90
7
 70
0
 10
-1.1140336579
 20
-20.0913851462
 10
-1.1135502048
 20
-20.0922039046
 10
-1.1128390943
 20
-20.0935792161
 10
-1.1133195842
 20
-20.0921937277
 10
-1.114390629
 20
-20.0879995214
 10
-1.1155323056
 20
-20.0812309842
 10
-1.1163752136
 20
-20.0719652013
  0
LWPOLYLINE
  5
278
100
AcDbEntity
  8
CURVE
100
AcDbPolyline
 62
250
  6
CONTINUOUS
 90
12
 70
0
 10
-8.3558092326
 20
-13.4948534931
 10
-8.3571665816
 20
-13.4782144094
 10
-8.3612598516
 20
-13.4603388352
 10
-8.3679277675
 20
-13.4422169271
 10
-8.3767316704
 20
-13.4248653811
 10
-8.3876375479
 20
-13.4083512318
 10
-8.4000772694
 20
-13.3936420575
 10
-8.4135599927
 20
-13.3813182474
 10
-8.4273069474
 20
-13.3720048479
 10
-8.4412650245
 20
-13.3657378395
 10
-8.4546409313
 20
-13.3629572304
 10
-8.4668928578
 20
-13.3637695626
  0
LINE
  5
279
100
AcDbEntity
  8
ASSI
100
AcDbLine
 62
250
  6
CONTINUOUS
 10
-10.3305834156
 20
22.3024788027
 11
-10.3305834156
 21
21.8214823844
  0
LINE
  5
27A
100
AcDbEntity
  8
ASSI
100
AcDbLine
 62
7
  6
CONTINUOUS
 10
-10.2744513757
 20
22.382697233
 11
-10.2744513757
 21
21.8527761216
  0
LINE
  5
27B
100
AcDbEntity
  8
ASSI
100
AcDbLine
 62
250
  6
CONTINUOUS
 10
-9.8442484851
 20
23.3992706237
 11
-9.8442484851
 21
23.0299596341
  0
LINE
  5
27C
100
AcDbEntity
  8
ASSI
100
AcDbLine
 62
7
  6
CONTINUOUS
 10
-9.7881164452
 20
23.4794880311
 11
-9.7881164452
 21
23.1101770415
  0
LWPOLYLINE
  5
27D
100
AcDbEntity
  8
ASSI
100
AcDbPolyline
 62
7
  6
CONTINUOUS
 90
15
 70
0
 10
-10.2744513759
 20
22.3826918643
 10
-10.274021028
 20
22.3957791808
 10
-10.2725273073
 20
22.4114166847
 10
-10.2697553501
 20
22.4290826496
 10
-10.2655110793
 20
22.4486441224
 10
-10.2596789034
 20
22.4697500163
 10
-10.2522655024
 20
22.4918337543
 10
-10.2432745889
 20
22.5145622491
 10
-10.232751115
 20
22.5376011603
 10
-10.22090475
 20
22.5603719493
 10
-10.2078806879
 20
22.5825630874
 10
-10.1938842823
 20
22.603838222
 10
-10.1793366309
 20
22.6236392083
 10
-10.1644897393
 20
22.6417619938
 10
-10.1483931322
 20
22.6593017817
  0
LINE
  5
27E
100
AcDbEntity
  8
ASSI
100
AcDbLine
 62
7
  6
CONTINUOUS
 10
-10.5717411555
 20
21.6321967695
 11
-10.5729088764
 21
21.6174595778
  0
LWPOLYLINE
  5
27F
100
AcDbEntity
  8
ASSI
100
AcDbPolyline
 62
250
  6
CONTINUOUS
 90
7
 70
0
 10
-9.7881164552
 20
23.4794515041
 10
-9.7895009446
 20
23.4659239359
 10
-9.794228137
 20
23.4511588109
 10
-9.8022308438
 20
23.4368764323
 10
-9.8133701485
 20
23.4233187889
 10
-9.8274560353
 20
23.4107128878
 10
-9.8442484851
 20
23.3992706237
  0
LWPOLYLINE
  5
280
100
AcDbEntity
  8
ASSI
100
AcDbPolyline
 62
250
  6
CONTINUOUS
 90
7
 70
0
 10
-9.7881164452
 20
23.1101770415
 10
-9.7895277383
 20
23.0964827852
 10
-9.7942646666
 20
23.0817646031
 10
-9.8022623463
 20
23.0675196573
 10
-9.8133905387
 20
23.0539866567
 10
-9.8274640581
 20
23.0413956507
 10
-9.8442484851
 20
23.0299596341
  0
LWPOLYLINE
  5
281
100
AcDbEntity
  8
ASSI
100
AcDbPolyline
 62
250
  6
CONTINUOUS
 90
7
 70
0
 10
-10.2744513759
 20
22.3826918644
 10
-10.275906905
 20
22.3687907848
 10
-10.2806770019
 20
22.3541093105
 10
-10.2886894651
 20
22.3399061889
 10
-10.2998102247
 20
22.3264190767
 10
-10.3138532005
 20
22.3138736493
 10
-10.3305834156
 20
22.3024798256
  0
LWPOLYLINE
  5
282
100
AcDbEntity
  8
ASSI
100
AcDbPolyline
 62
250
  6
CONTINUOUS
 90
5
 70
0
 10
-10.3069837629
 20
22.4485918469
 10
-10.3168419388
 20
22.4121207022
 10
-10.3239975111
 20
22.3756846303
 10
-10.3285780034
 20
22.3391373305
 10
-10.3305834156
 20
22.3024788027
  0
LWPOLYLINE
  5
283
100
AcDbEntity
  8
ASSI
100
AcDbPolyline
 62
250
  6
CONTINUOUS
 90
9
 70
0
 10
-7.5106978364
 20
23.4999871244
 10
-7.5116625876
 20
23.4971814261
 10
-7.5116708787
 20
23.4898671713
 10
-7.5086672473
 20
23.4813025393
 10
-7.5027002089
 20
23.4716344251
 10
-7.4938897949
 20
23.4610459185
 10
-7.4824075317
 20
23.4497251219
 10
-7.4684528433
 20
23.4378548821
 10
-7.4522685881
 20
23.4256321166
  0
LWPOLYLINE
  5
284
100
AcDbEntity
  8
ASSI
100
AcDbPolyline
 62
250
  6
CONTINUOUS
 90
9
 70
0
 10
-7.892510107
 20
22.6901166086
 10
-7.893461544
 20
22.687368741
 10
-7.8934980765
 20
22.6800765882
 10
-7.8905339947
 20
22.6715431113
 10
-7.8846181964
 20
22.6619090846
 10
-7.8758482727
 20
22.6513334377
 10
-7.8643688984
 20
22.6399906341
 10
-7.8503694455
 20
22.6280677926
 10
-7.8340808587
 20
22.6157616008
  0
LWPOLYLINE
  5
285
100
AcDbEntity
  8
ASSI
100
AcDbPolyline
 62
250
  6
CONTINUOUS
 90
10
 70
0
 10
-7.4522685881
 20
23.4256321166
 10
-7.4432314526
 20
23.4467154629
 10
-7.4326602715
 20
23.4673658606
 10
-7.4206980017
 20
23.4873040485
 10
-7.4075064121
 20
23.5062603966
 10
-7.393263896
 20
23.5239785528
 10
-7.3781630593
 20
23.5402189089
 10
-7.3624081147
 20
23.5547618418
 10
-7.346212121
 20
23.5674106829
 10
-7.329794101
 20
23.5779943782
  0
LINE
  5
286
100
AcDbEntity
  8
ASSI
100
AcDbLine
 62
7
  6
CONTINUOUS
 10
-7.892510107
 20
22.6901166086
 11
-7.5106978364
 21
23.4999871244
  0
LINE
  5
287
100
AcDbEntity
  8
ASSI
100
AcDbLine
 62
250
  6
CONTINUOUS
 10
-7.8340808587
 20
22.6157616008
 11
-7.4522685881
 21
23.4256321166
  0
LWPOLYLINE
  5
288
100
AcDbEntity
  8
ASSI
100
AcDbPolyline
 62
7
  6
CONTINUOUS
 90
13
 70
0
 10
-7.8925092186
 20
22.6901184925
 10
-7.9026928589
 20
22.6697557545
 10
-7.9150240724
 20
22.6477507799
 10
-7.9286097425
 20
22.6260035749
 10
-7.9432737487
 20
22.6048103576
 10
-7.9588113488
 20
22.5844604841
 10
-7.9750467688
 20
22.5651618263
 10
-7.991747629
 20
22.5471583328
 10
-8.00863106
 20
22.5306943776
 10
-8.0253839458
 20
22.515990558
 10
-8.0416499409
 20
22.5032388538
 10
-8.0570820157
 20
22.4925611517
 10
-8.0705994661
 20
22.4844191371
  0
LINE
  5
289
100
AcDbEntity
  8
CURVE
100
AcDbLine
 62
250
  6
CONTINUOUS
 10
-14.0122010342
 20
11.8974868771
 11
-13.9668903388
 21
11.9714610465
  0
LINE
  5
28A
100
AcDbEntity
  8
ASSI
100
AcDbLine
 62
250
  6
CONTINUOUS
 10
-10.1477262677
 20
22.7187033062
 11
-10.1750090436
 21
22.688334568
  0
LINE
  5
28B
100
AcDbEntity
  8
ASSI
100
AcDbLine
 62
250
  6
CONTINUOUS
 10
-9.8442484851
 20
23.0299596341
 11
-10.1477262677
 21
22.7187033062
  0
LINE
  5
28C
100
AcDbEntity
  8
ASSI
100
AcDbLine
 62
7
  6
CONTINUOUS
 10
-9.8449170756
 20
22.9705563391
 11
-10.1483956704
 21
22.6592991781
  0
LINE
  5
28D
100
AcDbEntity
  8
DRAFT
100
AcDbLine
 62
7
  6
CONTINUOUS
 10
-2.6984891112
 20
27.2056464154
 11
-2.6909599045
 21
27.2119618681
  0
LINE
  5
28E
100
AcDbEntity
  8
DRAFT
100
AcDbLine
 62
7
  6
CONTINUOUS
 10
-2.6909599045
 20
27.2119618681
 11
-2.6832685395
 21
27.2183129407
  0
LINE
  5
28F
100
AcDbEntity
  8
DRAFT
100
AcDbLine
 62
7
  6
CONTINUOUS
 10
-2.6832685395
 20
27.2183129407
 11
-2.6754161427
 21
27.2247000535
  0
LWPOLYLINE
  5
290
100
AcDbEntity
  8
DRAFT
100
AcDbPolyline
 62
7
  6
CONTINUOUS
 90
3
 70
0
 10
-2.6754161427
 20
27.2247000535
 10
-2.6674060337
 20
27.2311225688
 10
-2.6633417732
 20
27.2343474213
  0
LINE
  5
291
100
AcDbEntity
  8
ASSI
100
AcDbLine
 62
250
  6
CONTINUOUS
 10
-12.0343553506
 20
22.4612804558
 11
-9.9856483022
 21
23.6441822908
  0
LINE
  5
292
100
AcDbEntity
  8
ASSI
100
AcDbLine
 62
250
  6
CONTINUOUS
 10
-11.7515696238
 20
22.2980035213
 11
-9.8442484851
 21
23.3992706237
  0
LINE
  5
293
100
AcDbEntity
  8
RACCORDO
100
AcDbLine
 62
7
  6
CONTINUOUS
 10
-9.5744377857
 20
23.5229691643
 11
-9.7881164452
 21
23.4004160719
  0
LINE
  5
294
100
AcDbEntity
  8
ASSI
100
AcDbLine
 62
250
  6
CONTINUOUS
 10
-9.5105810276
 20
23.4755318012
 11
-9.7881164452
 21
23.3221580796
  0
LINE
  5
295
100
AcDbEntity
  8
ASSI
100
AcDbLine
 62
250
  6
CONTINUOUS
 10
-8.9870999544
 20
23.7647996847
 11
-9.5105810276
 21
23.4755318012
  0
LINE
  5
296
100
AcDbEntity
  8
ASSI
100
AcDbLine
 62
250
  6
CONTINUOUS
 10
-7.9356154621
 20
24.3457471119
 11
-8.9870999544
 21
23.7647996847
  0
LINE
  5
297
100
AcDbEntity
  8
RACCORDO
100
AcDbLine
 62
7
  6
CONTINUOUS
 10
-9.5458375836
 20
23.5387440568
 11
-9.5744377857
 21
23.5229691643
  0
LINE
  5
298
100
AcDbEntity
  8
DRAFT
100
AcDbLine
 62
7
  6
CONTINUOUS
 10
-2.5967095754
 20
27.3551896702
 11
-2.5161668267
 21
27.3996391175
  0
LINE
  5
299
100
AcDbEntity
  8
DRAFT
100
AcDbLine
 62
7
  6
CONTINUOUS
 10
-2.6984891112
 20
27.2056464154
 11
-5.8199191926
 21
25.4885780529
  0
LINE
  5
29A
100
AcDbEntity
  8
ASSI
100
AcDbLine
 62
250
  6
CONTINUOUS
 10
-6.2191901868
 20
25.2895789408
 11
-7.9356154621
 21
24.3457471119
  0
LINE
  5
29B
100
AcDbEntity
  8
DRAFT
100
AcDbLine
 62
7
  6
CONTINUOUS
 10
-2.6989790296
 20
27.2992334581
 11
-9.5459465699
 21
23.5386841993
  0
LINE
  5
29C
100
AcDbEntity
  8
ASSI
100
AcDbLine
 62
7
  6
CONTINUOUS
 10
-9.5341290935
 20
23.5178760282
 11
-9.7881164452
 21
23.3783789528
  0
LINE
  5
29D
100
AcDbEntity
  8
RACCORDO
100
AcDbLine
 62
7
  6
CONTINUOUS
 10
0.3678889509
 20
28.9564839058
 11
-2.4130512947
 21
27.4304050457
  0
LINE
  5
29E
100
AcDbEntity
  8
DRAFT
100
AcDbLine
 62
7
  6
CONTINUOUS
 10
-6.4569016811
 20
25.2153253369
 11
-9.0668127407
 21
23.7843968176
  0
LINE
  5
29F
100
AcDbEntity
  8
DRAFT
100
AcDbLine
 62
7
  6
CONTINUOUS
 10
-6.4631147081
 20
25.1802914952
 11
-9.0006457769
 21
23.7893145731
  0
LINE
  5
2A0
100
AcDbEntity
  8
DRAFT
100
AcDbLine
 62
7
  6
CONTINUOUS
 10
-2.5161668267
 20
27.3996391175
 11
-2.4297227881
 21
27.446983396
  0
LINE
  5
2A1
100
AcDbEntity
  8
ASSI
100
AcDbLine
 62
7
  6
CONTINUOUS
 10
-11.5915316156
 20
24.5267319294
 11
-13.6729751173
 21
23.4073989724
  0
LINE
  5
2A2
100
AcDbEntity
  8
ASSI
100
AcDbLine
 62
250
  6
CONTINUOUS
 10
-11.4943382758
 20
24.5152809732
 11
-13.6158365285
 21
23.3744078673
  0
LWPOLYLINE
  5
2A3
100
AcDbEntity
  8
0
100
AcDbPolyline
 62
250
  6
CONTINUOUS
 90
13
 70
0
 10
-6.4575303484
 20
-7.974286179
 10
-6.4282545845
 20
-7.9891244394
 10
-6.3958858466
 20
-8.0016505914
 10
-6.3609677835
 20
-8.0116512013
 10
-6.3240851145
 20
-8.0189556153
 10
-6.2858619614
 20
-8.0234372085
 10
-6.2469521522
 20
-8.0250177177
 10
-6.2079316011
 20
-8.0236638817
 10
-6.169544576
 20
-8.019391655
 10
-6.1326802655
 20
-8.0123285673
 10
-6.0980001368
 20
-8.0026708232
 10
-6.0659508277
 20
-7.9906154811
 10
-6.0370008029
 20
-7.9764051366
  0
LWPOLYLINE
  5
2A4
100
AcDbEntity
  8
RACCORDO
100
AcDbPolyline
 62
250
  6
CONTINUOUS
 90
13
 70
0
 10
-6.4575303484
 20
-7.974286179
 10
-6.4282545845
 20
-7.9891244394
 10
-6.3958858466
 20
-8.0016505914
 10
-6.3609677835
 20
-8.0116512013
 10
-6.3240851145
 20
-8.0189556153
 10
-6.2858619614
 20
-8.0234372085
 10
-6.2469521522
 20
-8.0250177177
 10
-6.2079316011
 20
-8.0236638817
 10
-6.169544576
 20
-8.019391655
 10
-6.1326802655
 20
-8.0123285673
 10
-6.0980001368
 20
-8.0026708232
 10
-6.0659508277
 20
-7.9906154811
 10
-6.0370008029
 20
-7.9764051366
  0
LWPOLYLINE
  5
2A5
100
AcDbEntity
  8
ASSI
100
AcDbPolyline
 62
250
  6
CONTINUOUS
 90
7
 70
0
 10
-16.8370469968
 20
-1.7456596459
 10
-16.8180690966
 20
-1.7553115773
 10
-16.7971333132
 20
-1.7635035029
 10
-16.7745744119
 20
-1.7701044332
 10
-16.7507531117
 20
-1.7750088184
 10
-16.7260503178
 20
-1.778138237
 10
-16.7054546652
 20
-1.7792047707
  0
LWPOLYLINE
  5
2A6
100
AcDbEntity
  8
RACCORDO
100
AcDbPolyline
 62
250
  6
CONTINUOUS
 90
7
 70
0
 10
-16.8370469968
 20
-1.7456596459
 10
-16.8180690966
 20
-1.7553115773
 10
-16.7971333132
 20
-1.7635035029
 10
-16.7745744119
 20
-1.7701044332
 10
-16.7507531117
 20
-1.7750088184
 10
-16.7260503178
 20
-1.778138237
 10
-16.7054546652
 20
-1.7792047707
  0
LINE
  5
2A7
100
AcDbEntity
  8
ASSI
100
AcDbLine
 62
250
  6
CONTINUOUS
 10
-6.0958734427
 20
-8.5997597036
 11
-16.2721368241
 21
-2.7241127658
  0
LINE
  5
2A8
100
AcDbEntity
  8
RACCORDO
100
AcDbLine
 62
250
  6
CONTINUOUS
 10
-6.0958734427
 20
-8.5997597036
 11
-16.2721368241
 21
-2.7241127658
  0
LINE
  5
2A9
100
AcDbEntity
  8
0
100
AcDbLine
 62
7
  6
CONTINUOUS
 10
-16.5554619133
 20
-2.2453180356
 11
-6.3954055621
 21
-8.1116072373
  0
LINE
  5
2AA
100
AcDbEntity
  8
RACCORDO
100
AcDbLine
 62
7
  6
CONTINUOUS
 10
-16.5554619133
 20
-2.2453180356
 11
-6.3954055621
 21
-8.1116072373
  0
LINE
  5
2AB
100
AcDbEntity
  8
ASSI
100
AcDbLine
 62
250
  6
CONTINUOUS
 10
-5.9618535084
 20
-8.3593080067
 11
-6.3629176723
 21
-8.127738585
  0
LINE
  5
2AC
100
AcDbEntity
  8
RACCORDO
100
AcDbLine
 62
250
  6
CONTINUOUS
 10
-5.9618535084
 20
-8.3593080067
 11
-6.3629176723
 21
-8.127738585
  0
LINE
  5
2AD
100
AcDbEntity
  8
0
100
AcDbLine
 62
250
  6
CONTINUOUS
 10
-16.6175866996
 20
-2.1079969772
 11
-6.4575303484
 21
-7.974286179
  0
LINE
  5
2AE
100
AcDbEntity
  8
RACCORDO
100
AcDbLine
 62
250
  6
CONTINUOUS
 10
-16.6175866996
 20
-2.1079969772
 11
-6.4575303484
 21
-7.974286179
  0
LINE
  5
2AF
100
AcDbEntity
  8
0
100
AcDbLine
 62
250
  6
CONTINUOUS
 10
-6.3954591091
 20
-8.1115762979
 11
-6.3954055621
 21
-8.1116072373
  0
LINE
  5
2B0
100
AcDbEntity
  8
RACCORDO
100
AcDbLine
 62
250
  6
CONTINUOUS
 10
-6.3954591091
 20
-8.1115762979
 11
-6.3954055621
 21
-8.1116072373
  0
LWPOLYLINE
  5
2B1
100
AcDbEntity
  8
ASSI
100
AcDbPolyline
 62
250
  6
CONTINUOUS
 90
8
 70
0
 10
-5.53096327
 20
-8.2736506913
 10
-5.547680854
 20
-8.262692325
 10
-5.561869271
 20
-8.250603536
 10
-5.5733017306
 20
-8.2375776878
 10
-5.5817955229
 20
-8.223823127
 10
-5.5872149581
 20
-8.2095598158
 10
-5.5894735062
 20
-8.1950158098
 10
-5.5895416236
 20
-8.1921924724
  0
LWPOLYLINE
  5
2B2
100
AcDbEntity
  8
RACCORDO
100
AcDbPolyline
 62
250
  6
CONTINUOUS
 90
8
 70
0
 10
-5.53096327
 20
-8.2736506913
 10
-5.547680854
 20
-8.262692325
 10
-5.561869271
 20
-8.250603536
 10
-5.5733017306
 20
-8.2375776878
 10
-5.5817955229
 20
-8.223823127
 10
-5.5872149581
 20
-8.2095598158
 10
-5.5894735062
 20
-8.1950158098
 10
-5.5895416236
 20
-8.1921924724
  0
LWPOLYLINE
  5
2B3
100
AcDbEntity
  8
ASSI
100
AcDbPolyline
 62
250
  6
CONTINUOUS
 90
6
 70
0
 10
-0.704941505
 20
-20.113396036
 10
-0.694908214
 20
-20.136969462
 10
-0.6871974326
 20
-20.1617385137
 10
-0.6819271294
 20
-20.1873087171
 10
-0.6791868493
 20
-20.2132518075
 10
-0.6790258787
 20
-20.239127734
  0
LWPOLYLINE
  5
2B4
100
AcDbEntity
  8
0
100
AcDbPolyline
 62
250
  6
CONTINUOUS
 90
13
 70
0
 10
-6.0370008029
 20
-0.3273119325
 10
-6.0392744086
 20
-0.2945601752
 10
-6.0450734857
 20
-0.2602374548
 10
-6.054298849
 20
-0.2249308152
 10
-6.0667927109
 20
-0.1892441289
 10
-6.0823413807
 20
-0.1537877686
 10
-6.1006789196
 20
-0.1191681672
 10
-6.1214916886
 20
-0.0859774462
 10
-6.1444237134
 20
-0.0547832883
 10
-6.1690827727
 20
-0.0261192275
 10
-6.1950471065
 20
-0.000475524
 10
-6.22187263
 20
0.0217092213
 10
-6.2491005285
 20
0.0400555681
  0
LWPOLYLINE
  5
2B5
100
AcDbEntity
  8
RACCORDO
100
AcDbPolyline
 62
250
  6
CONTINUOUS
 90
13
 70
0
 10
-6.0370008029
 20
-0.3273119325
 10
-6.0392744086
 20
-0.2945601752
 10
-6.0450734857
 20
-0.2602374548
 10
-6.054298849
 20
-0.2249308152
 10
-6.0667927109
 20
-0.1892441289
 10
-6.0823413807
 20
-0.1537877686
 10
-6.1006789196
 20
-0.1191681672
 10
-6.1214916886
 20
-0.0859774462
 10
-6.1444237134
 20
-0.0547832883
 10
-6.1690827727
 20
-0.0261192275
 10
-6.1950471065
 20
-0.000475524
 10
-6.22187263
 20
0.0217092213
 10
-6.2491005285
 20
0.0400555681
  0
LWPOLYLINE
  5
2B6
100
AcDbEntity
  8
0
100
AcDbPolyline
 62
250
  6
CONTINUOUS
 90
7
 70
0
 10
-6.4575303484
 20
-7.974286179
 10
-6.4557447145
 20
-8.0049693836
 10
-6.4503848124
 20
-8.0331984505
 10
-6.4414926609
 20
-8.0584541614
 10
-6.4291118392
 20
-8.0803446406
 10
-6.4134446194
 20
-8.0983167896
 10
-6.3954591091
 20
-8.1115762979
  0
LWPOLYLINE
  5
2B7
100
AcDbEntity
  8
RACCORDO
100
AcDbPolyline
 62
250
  6
CONTINUOUS
 90
7
 70
0
 10
-6.4575303484
 20
-7.974286179
 10
-6.4557447145
 20
-8.0049693836
 10
-6.4503848124
 20
-8.0331984505
 10
-6.4414926609
 20
-8.0584541614
 10
-6.4291118392
 20
-8.0803446406
 10
-6.4134446194
 20
-8.0983167896
 10
-6.3954591091
 20
-8.1115762979
  0
LWPOLYLINE
  5
2B8
100
AcDbEntity
  8
ASSI
100
AcDbPolyline
 62
250
  6
CONTINUOUS
 90
8
 70
0
 10
-6.0958734427
 20
0.6991974069
 10
-6.0947425912
 20
0.6792411628
 10
-6.0913681953
 20
0.6609102393
 10
-6.0858043285
 20
0.6444976994
 10
-6.0781400809
 20
0.6302659181
 10
-6.0684981082
 20
0.6184423449
 10
-6.0570326461
 20
0.6092158966
 10
-6.0544569194
 20
0.6076500352
  0
LWPOLYLINE
  5
2B9
100
AcDbEntity
  8
RACCORDO
100
AcDbPolyline
 62
250
  6
CONTINUOUS
 90
8
 70
0
 10
-6.0958734427
 20
0.6991974069
 10
-6.0947425912
 20
0.6792411628
 10
-6.0913681953
 20
0.6609102393
 10
-6.0858043285
 20
0.6444976994
 10
-6.0781400809
 20
0.6302659181
 10
-6.0684981082
 20
0.6184423449
 10
-6.0570326461
 20
0.6092158966
 10
-6.0544569194
 20
0.6076500352
  0
LINE
  5
2BA
100
AcDbEntity
  8
CURVE
100
AcDbLine
 62
250
  6
CONTINUOUS
 10
-9.3533709349
 20
-2.2505063563
 11
-9.3533709349
 21
-2.7128775477
  0
LINE
  5
2BB
100
AcDbEntity
  8
CURVE
100
AcDbLine
 62
250
  6
CONTINUOUS
 10
-8.3558092326
 20
-13.4948534931
 11
-8.3558092326
 21
-13.9224022359
  0
LINE
  5
2BC
100
AcDbEntity
  8
CURVE
100
AcDbLine
 62
250
  6
CONTINUOUS
 10
-8.3552046563
 20
8.6306455192
 11
-8.3552046563
 21
8.2036593245
  0
LINE
  5
2BD
100
AcDbEntity
  8
0
100
AcDbLine
 62
250
  6
CONTINUOUS
 10
-6.4575303484
 20
-7.974286179
 11
-6.4575303484
 21
-0.325192975
  0
LINE
  5
2BE
100
AcDbEntity
  8
RACCORDO
100
AcDbLine
 62
250
  6
CONTINUOUS
 10
-6.4575303484
 20
-7.974286179
 11
-6.4575303484
 21
-0.325192975
  0
LINE
  5
2BF
100
AcDbEntity
  8
ASSI
100
AcDbLine
 62
250
  6
CONTINUOUS
 10
-6.3307437722
 20
23.2605708167
 11
-6.3309459341
 21
23.255175127
  0
LWPOLYLINE
  5
2C0
100
AcDbEntity
  8
ASSI
100
AcDbPolyline
 62
250
  6
CONTINUOUS
 90
13
 70
0
 10
-6.1665351393
 20
23.2677563036
 10
-6.1609453252
 20
23.291914074
 10
-6.1577182544
 20
23.3168578521
 10
-6.1569058705
 20
23.3421862166
 10
-6.1585212556
 20
23.3674915367
 10
-6.1625384217
 20
23.3923665853
 10
-6.1688927452
 20
23.4164110879
 10
-6.177481989
 20
23.4392380807
 10
-6.1881679441
 20
23.460480179
 10
-6.200778677
 20
23.4797955317
 10
-6.2151112695
 20
23.496873259
 10
-6.2309350718
 20
23.5114384664
 10
-6.2479954347
 20
23.5232567002
  0
LWPOLYLINE
  5
2C1
100
AcDbEntity
  8
ASSI
100
AcDbPolyline
 62
250
  6
CONTINUOUS
 90
13
 70
0
 10
-4.5849756584
 20
23.3061186984
 10
-4.5793857879
 20
23.3302768035
 10
-4.5761587279
 20
23.3552208967
 10
-4.5753464133
 20
23.3805495395
 10
-4.5769619171
 20
23.4058551044
 10
-4.5809792401
 20
23.4307303357
 10
-4.5873337294
 20
23.4547749031
 10
-4.5959231188
 20
23.4776018444
 10
-4.6066091748
 20
23.4988437938
 10
-4.619219921
 20
23.5181588931
 10
-4.6335524058
 20
23.5352362943
 10
-4.6493759691
 20
23.5498011616
 10
-4.6664359539
 20
23.561619095
  0
LINE
  5
2C2
100
AcDbEntity
  8
ASSI
100
AcDbLine
 62
250
  6
CONTINUOUS
 10
-3.7157143943
 20
21.2681925551
 11
-3.9870993884
 21
20.3945627139
  0
LWPOLYLINE
  5
2C3
100
AcDbEntity
  8
ASSI
100
AcDbPolyline
 62
7
  6
CONTINUOUS
 90
7
 70
0
 10
-3.4881214968
 20
24.6704654722
 10
-3.4877729057
 20
24.6710089429
 10
-3.4883280734
 20
24.6703655894
 10
-3.4910896023
 20
24.6675678578
 10
-3.4962766561
 20
24.6631736129
 10
-3.5037400023
 20
24.6578315266
 10
-3.5141273982
 20
24.6515313799
  0
LWPOLYLINE
  5
2C4
100
AcDbEntity
  8
ASSI
100
AcDbPolyline
 62
250
  6
CONTINUOUS
 90
9
 70
0
 10
-5.9706740724
 20
19.506375754
 10
-5.9551101163
 20
19.5227273086
 10
-5.9421513548
 20
19.5398824634
 10
-5.9320079518
 20
19.5575599007
 10
-5.9248441764
 20
19.5754687936
 10
-5.9207741126
 20
19.5933175069
 10
-5.9198621506
 20
19.6108182432
 10
-5.9221277949
 20
19.6277057398
 10
-5.9243442564
 20
19.6355285828
  0
LWPOLYLINE
  5
2C5
100
AcDbEntity
  8
ASSI
100
AcDbPolyline
 62
250
  6
CONTINUOUS
 90
8
 70
0
 10
-5.8457928298
 20
19.1333242241
 10
-5.8302791209
 20
19.1496167737
 10
-5.8173487453
 20
19.1667124794
 10
-5.8072119945
 20
19.1843333072
 10
-5.8000337264
 20
19.202192683
 10
-5.7959306839
 20
19.2200001531
 10
-5.7949695962
 20
19.2374661078
 10
-5.7971660939
 20
19.2543064918
  0
LINE
  5
2C6
100
AcDbEntity
  8
CURVE
100
AcDbLine
 62
7
  6
CONTINUOUS
 10
-14.0122010342
 20
11.54624877
 11
-13.4727632985
 21
12.0856865057
  0
LINE
  5
2C7
100
AcDbEntity
  8
CURVE
100
AcDbLine
 62
7
  6
CONTINUOUS
 10
-13.769052613
 20
11.3693757632
 11
-12.9264535293
 21
12.2119748469
  0
LINE
  5
2C8
100
AcDbEntity
  8
CURVE
100
AcDbLine
 62
7
  6
CONTINUOUS
 10
-13.2227865685
 20
11.4956203797
 11
-12.38014376
 21
12.3382631881
  0
LINE
  5
2C9
100
AcDbEntity
  8
CURVE
100
AcDbLine
 62
7
  6
CONTINUOUS
 10
-12.676520524
 20
11.6218649962
 11
-11.8338339908
 21
12.4645515294
  0
LWPOLYLINE
  5
2CA
100
AcDbEntity
  8
SMUSSO
100
AcDbPolyline
 62
7
  6
CONTINUOUS
 90
4
 70
0
 10
-1.7424450939
 20
26.3403125289
 10
-1.7092805886
 20
26.3658023956
 10
-1.6223130186
 20
26.4261802285
 10
-1.5302830338
 20
26.4840006255
  0
LWPOLYLINE
  5
2CB
100
AcDbEntity
  8
ASSI
100
AcDbPolyline
 62
250
  6
CONTINUOUS
 90
4
 70
0
 10
-6.3177176243
 20
23.2749300687
 10
-6.3242008685
 20
23.2709178675
 10
-6.328535484
 20
23.2661639415
 10
-6.3307437722
 20
23.2605708167
  0
LINE
  5
2CC
100
AcDbEntity
  8
0
100
AcDbLine
 62
7
  6
CONTINUOUS
 10
-1.5302830338
 20
26.4840006255
 11
1.7854059931
 21
28.4664584719
  0
LINE
  5
2CD
100
AcDbEntity
  8
DRAFT
100
AcDbLine
 62
7
  6
CONTINUOUS
 10
-1.5003937302
 20
26.1008330167
 11
2.2272811224
 21
28.253153148
  0
LINE
  5
2CE
100
AcDbEntity
  8
0
100
AcDbLine
 62
7
  6
CONTINUOUS
 10
-5.2180389023
 20
23.2673361736
 11
-5.7795107447
 21
22.9431493687
  0
LINE
  5
2CF
100
AcDbEntity
  8
ASSI
100
AcDbLine
 62
250
  6
CONTINUOUS
 10
-1.6242681411
 20
25.1965672874
 11
-4.2122791341
 21
23.7022821754
  0
LINE
  5
2D0
100
AcDbEntity
  8
ASSI
100
AcDbLine
 62
250
  6
CONTINUOUS
 10
-1.4830405979
 20
24.9602763691
 11
-4.0710515909
 21
23.4659912572
  0
LINE
  5
2D1
100
AcDbEntity
  8
0
100
AcDbLine
 62
7
  6
CONTINUOUS
 10
-1.3060639116
 20
24.0653130339
 11
-2.577168323
 21
23.3313932774
  0
LINE
  5
2D2
100
AcDbEntity
  8
RACCORDO
100
AcDbLine
 62
7
  6
CONTINUOUS
 10
0.6758681882
 20
25.2096557889
 11
1.6503162683
 21
25.7722898976
  0
LWPOLYLINE
  5
2D3
100
AcDbEntity
  8
ASSI
100
AcDbPolyline
 62
250
  6
CONTINUOUS
 90
16
 70
0
 10
-7.9732202322
 20
22.4730214357
 10
-7.9612011845
 20
22.4799022628
 10
-7.9495946808
 20
22.4874354698
 10
-7.9384560534
 20
22.4954628748
 10
-7.9278835092
 20
22.5037689467
 10
-7.9178418527
 20
22.51227686
 10
-7.9081801796
 20
22.5210921919
 10
-7.8989416139
 20
22.5301279397
 10
-7.8901185122
 20
22.5393155655
 10
-7.8815136526
 20
22.5488672421
 10
-7.873192836
 20
22.5587181277
 10
-7.8651530345
 20
22.5688515078
 10
-7.8571596471
 20
22.579612023
 10
-7.8492100559
 20
22.5911076515
 10
-7.8414858389
 20
22.6031746551
 10
-7.8340808587
 20
22.6157616008
  0
LWPOLYLINE
  5
2D4
100
AcDbEntity
  8
ASSI
100
AcDbPolyline
 62
250
  6
CONTINUOUS
 90
16
 70
0
 10
-4.2122791341
 20
23.7022821754
 10
-4.2446209965
 20
23.6842182422
 10
-4.2762078361
 20
23.6677268334
 10
-4.3070149058
 20
23.6527411784
 10
-4.3367830889
 20
23.6392990933
 10
-4.3657353231
 20
23.6272105878
 10
-4.3945677464
 20
23.6161386241
 10
-4.4232888258
 20
23.6060726074
 10
-4.4518489318
 20
23.5970306746
 10
-4.4808391011
 20
23.5888535551
 10
-4.5102902794
 20
23.5815897491
 10
-4.5401012796
 20
23.5753286477
 10
-4.57063973
 20
23.5700829695
 10
-4.6019849479
 20
23.5659567213
 10
-4.6339393022
 20
23.5630942464
 10
-4.6664359539
 20
23.561619095
  0
LINE
  5
2D5
100
AcDbEntity
  8
ASSI
100
AcDbLine
 62
7
  6
CONTINUOUS
 10
-7.4271824352
 20
23.5893872209
 11
-7.2859219556
 21
23.6681402525
  0
LINE
  5
2D6
100
AcDbEntity
  8
ASSI
100
AcDbLine
 62
250
  6
CONTINUOUS
 10
-7.329794101
 20
23.5779943782
 11
-7.188533661
 21
23.6567473877
  0
LINE
  5
2D7
100
AcDbEntity
  8
ASSI
100
AcDbLine
 62
7
  6
CONTINUOUS
 10
-10.5299917738
 20
21.7103117812
 11
-10.0630450973
 21
21.970635592
  0
LINE
  5
2D8
100
AcDbEntity
  8
ASSI
100
AcDbLine
 62
250
  6
CONTINUOUS
 10
-10.4308361613
 20
21.6999042001
 11
-9.9656567631
 21
21.9592427493
  0
LINE
  5
2D9
100
AcDbEntity
  8
ASSI
100
AcDbLine
 62
7
  6
CONTINUOUS
 10
-9.4378767977
 20
21.7221589842
 11
-8.0706083791
 21
22.4844141689
  0
LINE
  5
2DA
100
AcDbEntity
  8
ASSI
100
AcDbLine
 62
250
  6
CONTINUOUS
 10
-9.3799971146
 20
21.6887399805
 11
-7.9732200437
 21
22.4730213269
  0
LINE
  5
2DB
100
AcDbEntity
  8
ASSI
100
AcDbLine
 62
7
  6
CONTINUOUS
 10
-2.1118953003
 20
25.4332791368
 11
-2.5963858976
 21
25.1631745511
  0
LINE
  5
2DC
100
AcDbEntity
  8
ASSI
100
AcDbLine
 62
7
  6
CONTINUOUS
 10
-4.7453131611
 20
23.9651525454
 11
-3.5142644475
 21
24.6514552177
  0
LINE
  5
2DD
100
AcDbEntity
  8
ASSI
100
AcDbLine
 62
250
  6
CONTINUOUS
 10
-4.6478644159
 20
23.953783658
 11
-3.4168758838
 21
24.640062503
  0
LINE
  5
2DE
100
AcDbEntity
  8
DRAFT
100
AcDbLine
 62
7
  6
CONTINUOUS
 10
-1.9519452818
 20
27.1977077688
 11
1.0358480368
 21
28.8625950231
  0
LINE
  5
2DF
100
AcDbEntity
  8
ASSI
100
AcDbLine
 62
7
  6
CONTINUOUS
 10
-3.5142644475
 20
24.6514552177
 11
-3.5141274085
 21
24.6515313985
  0
LWPOLYLINE
  5
2E0
100
AcDbEntity
  8
ASSI
100
AcDbPolyline
 62
250
  6
CONTINUOUS
 90
16
 70
0
 10
-4.0710515909
 20
23.4659912572
 10
-4.1077403691
 20
23.4456437081
 10
-4.1435183065
 20
23.4269217931
 10
-4.1783854032
 20
23.4098255123
 10
-4.2120938933
 20
23.3945068269
 10
-4.2448915426
 20
23.3808137757
 10
-4.2775216489
 20
23.3682904746
 10
-4.310030518
 20
23.3568189417
 10
-4.3423718442
 20
23.3465171589
 10
-4.3751500078
 20
23.3372831882
 10
-4.4084637161
 20
23.3290082669
 10
-4.4422142618
 20
23.3218011577
 10
-4.4767099031
 20
23.3158862112
 10
-4.5120533926
 20
23.3113382109
 10
-4.5481419777
 20
23.3080823733
 10
-4.5849756584
 20
23.3061186984
  0
LINE
  5
2E1
100
AcDbEntity
  8
ASSI
100
AcDbLine
 62
250
  6
CONTINUOUS
 10
-9.7033612536
 20
22.9156534369
 11
-10.12631291
 21
22.6819479494
  0
LINE
  5
2E2
100
AcDbEntity
  8
ASSI
100
AcDbLine
 62
250
  6
CONTINUOUS
 10
-7.2761005384
 20
24.2564929268
 11
-9.7033612536
 21
22.9156534369
  0
LINE
  5
2E3
100
AcDbEntity
  8
ASSI
100
AcDbLine
 62
250
  6
CONTINUOUS
 10
-2.0058253579
 20
25.4266815778
 11
-2.498997716
 21
25.1517816233
  0
LWPOLYLINE
  5
2E4
100
AcDbEntity
  8
ASSI
100
AcDbPolyline
 62
7
  6
CONTINUOUS
 90
16
 70
0
 10
-2.5963801939
 20
25.1631777073
 10
-2.5978427677
 20
25.1623707484
 10
-2.61029513
 20
25.1561047313
 10
-2.625094834
 20
25.1497893188
 10
-2.6421232094
 20
25.1436969117
 10
-2.6613074418
 20
25.1380485394
 10
-2.6822976744
 20
25.1331077298
 10
-2.7048711036
 20
25.129052233
 10
-2.7287463652
 20
25.1260390573
 10
-2.7534124021
 20
25.1242049424
 10
-2.7785735594
 20
25.1236149016
 10
-2.8038438677
 20
25.1243052082
 10
-2.8285484551
 20
25.1262414342
 10
-2.8523783272
 20
25.1293441969
 10
-2.8750080269
 20
25.1335005869
 10
-2.8808205594
 20
25.1347734271
  0
LWPOLYLINE
  5
2E5
100
AcDbEntity
  8
ASSI
100
AcDbPolyline
 62
7
  6
CONTINUOUS
 90
10
 70
0
 10
-4.7453131611
 20
23.9651525454
 10
-4.7575939574
 20
23.9583811254
 10
-4.8204298031
 20
23.9260162864
 10
-4.8818365739
 20
23.8981779567
 10
-4.9413288495
 20
23.8749732247
 10
-4.9987315465
 20
23.8563345285
 10
-5.0540938968
 20
23.8421237573
 10
-5.1071841971
 20
23.8323120158
 10
-5.1575953026
 20
23.8268654568
 10
-5.1655059502
 20
23.826385537
  0
LINE
  5
2E6
100
AcDbEntity
  8
ASSI
100
AcDbLine
 62
250
  6
CONTINUOUS
 10
-5.567992225
 20
25.1957669422
 11
-7.2761603211
 21
24.2565274446
  0
LWPOLYLINE
  5
2E7
100
AcDbEntity
  8
ASSI
100
AcDbPolyline
 62
250
  6
CONTINUOUS
 90
13
 70
0
 10
-7.188533661
 20
23.6567473877
 10
-7.1757961938
 20
23.663705555
 10
-7.1634398652
 20
23.669977902
 10
-7.1514775833
 20
23.67559911
 10
-7.1399263055
 20
23.6806034489
 10
-7.1287878889
 20
23.6850279097
 10
-7.1180494854
 20
23.6889101271
 10
-7.1077132878
 20
23.6922848006
 10
-7.0977847907
 20
23.6951850872
 10
-7.0882539531
 20
23.6976436277
 10
-7.0791191033
 20
23.6996931567
 10
-7.0703812533
 20
23.7013652066
 10
-7.0620327343
 20
23.7026889036
  0
LINE
  5
2E8
100
AcDbEntity
  8
SMUSSO
100
AcDbLine
 62
7
  6
CONTINUOUS
 10
-4.6786227465
 20
24.6822561517
 11
-1.7901834034
 21
26.2355653569
  0
LWPOLYLINE
  5
2E9
100
AcDbEntity
  8
ASSI
100
AcDbPolyline
 62
250
  6
CONTINUOUS
 90
20
 70
0
 10
-2.498997716
 20
25.1517816233
 10
-2.508432149
 20
25.1467141182
 10
-2.5179543646
 20
25.1418894666
 10
-2.527564363
 20
25.1373076683
 10
-2.5372662797
 20
25.1329779868
 10
-2.5470559791
 20
25.1288911586
 10
-2.5569210543
 20
25.125019394
 10
-2.5668567441
 20
25.1213606222
 10
-2.5768678097
 20
25.117916914
 10
-2.5869561273
 20
25.1146666923
 10
-2.5971180554
 20
25.1116076607
 10
-2.6073572356
 20
25.1087421155
 10
-2.6176864686
 20
25.1060553692
 10
-2.628103425
 20
25.1035448926
 10
-2.6386104342
 20
25.1012132148
 10
-2.6492272856
 20
25.0990532352
 10
-2.659951876
 20
25.0970623327
 10
-2.6707863085
 20
25.0952431284
 10
-2.6817566819
 20
25.0935963845
 10
-2.6928473149
 20
25.0921196686
  0
LINE
  5
2EA
100
AcDbEntity
  8
RACCORDO
100
AcDbLine
 62
7
  6
CONTINUOUS
 10
-9.3227888942
 20
23.6573946005
 11
-9.5458375836
 21
23.5387440568
  0
LWPOLYLINE
  5
2EB
100
AcDbEntity
  8
ASSI
100
AcDbPolyline
 62
250
  6
CONTINUOUS
 90
8
 70
0
 10
-7.2859219556
 20
23.6681402525
 10
-7.2823902411
 20
23.6699685373
 10
-7.2690437514
 20
23.6746730862
 10
-7.2544681909
 20
23.6766113626
 10
-7.2388860596
 20
23.6757537247
 10
-7.2225352166
 20
23.6721132234
 10
-7.2056652433
 20
23.6657453892
 10
-7.188533661
 20
23.6567473877
  0
LINE
  5
2EC
100
AcDbEntity
  8
ASSI
100
AcDbLine
 62
250
  6
CONTINUOUS
 10
-2.1083620482
 20
25.4351081583
 11
-2.1118953003
 21
25.4332791368
  0
LWPOLYLINE
  5
2ED
100
AcDbEntity
  8
ASSI
100
AcDbPolyline
 62
250
  6
CONTINUOUS
 90
8
 70
0
 10
-8.0705994661
 20
22.4844191371
 10
-8.0670752868
 20
22.4862431139
 10
-8.053728723
 20
22.4909473484
 10
-8.0391532154
 20
22.4928853315
 10
-8.023571256
 20
22.4920274754
 10
-8.0072206981
 20
22.4883868716
 10
-7.9903511247
 20
22.4820190893
 10
-7.9732200437
 20
22.4730213269
  0
LWPOLYLINE
  5
2EE
100
AcDbEntity
  8
ASSI
100
AcDbPolyline
 62
250
  6
CONTINUOUS
 90
8
 70
0
 10
-2.5963802038
 20
25.163177725
 10
-2.5928526464
 20
25.1650035722
 10
-2.5795060753
 20
25.1697077703
 10
-2.5649305758
 20
25.17164572
 10
-2.5493486378
 20
25.1707878394
 10
-2.5329981134
 20
25.1671472239
 10
-2.5161285862
 20
25.1607794465
 10
-2.4989975624
 20
25.1517817089
  0
LWPOLYLINE
  5
2EF
100
AcDbEntity
  8
ASSI
100
AcDbPolyline
 62
250
  6
CONTINUOUS
 90
8
 70
0
 10
-3.5141274085
 20
24.6515313985
 10
-3.5107311795
 20
24.6532842469
 10
-3.4973846097
 20
24.6579884404
 10
-3.4828091122
 20
24.6599263865
 10
-3.4672271768
 20
24.6590685035
 10
-3.4508766557
 20
24.6554278871
 10
-3.4340071322
 20
24.6490601105
 10
-3.4168761123
 20
24.6400623755
  0
LWPOLYLINE
  5
2F0
100
AcDbEntity
  8
ASSI
100
AcDbPolyline
 62
250
  6
CONTINUOUS
 90
8
 70
0
 10
-10.0630369839
 20
21.9706401145
 10
-10.0592837641
 20
21.9725733441
 10
-10.0458623005
 20
21.9772401669
 10
-10.0312080105
 20
21.9791195302
 10
-10.0156037106
 20
21.978191095
 10
-9.9993170164
 20
21.9745052029
 10
-9.9825829328
 20
21.968147727
 10
-9.9656567632
 20
21.9592427493
  0
LWPOLYLINE
  5
2F1
100
AcDbEntity
  8
ASSI
100
AcDbPolyline
 62
250
  6
CONTINUOUS
 90
8
 70
0
 10
-4.745256901
 20
23.9651839567
 10
-4.7417194976
 20
23.9670055225
 10
-4.728372928
 20
23.97170972
 10
-4.7137974303
 20
23.9736476696
 10
-4.6982154935
 20
23.9727897893
 10
-4.6818649693
 20
23.9691491741
 10
-4.6649954414
 20
23.9627813966
 10
-4.6478644159
 20
23.953783658
  0
LWPOLYLINE
  5
2F2
100
AcDbEntity
  8
ASSI
100
AcDbPolyline
 62
250
  6
CONTINUOUS
 90
8
 70
0
 10
-7.4270156636
 20
23.5894798726
 10
-7.4235478622
 20
23.5912646792
 10
-7.4101610199
 20
23.5959539656
 10
-7.3955401177
 20
23.5978648694
 10
-7.379942034
 20
23.5969716747
 10
-7.363621628
 20
23.5933076255
 10
-7.3468201369
 20
23.5869446213
 10
-7.329794101
 20
23.5779943782
  0
LWPOLYLINE
  5
2F3
100
AcDbEntity
  8
ASSI
100
AcDbPolyline
 62
250
  6
CONTINUOUS
 90
9
 70
0
 10
-9.9656567631
 20
21.9592427493
 10
-9.9502607689
 20
21.9671616523
 10
-9.9350477152
 20
21.9730453436
 10
-9.9201984478
 20
21.9768238517
 10
-9.9058894528
 20
21.9784522301
 10
-9.8922908813
 20
21.977911076
 10
-9.8795645047
 20
21.9752068224
 10
-9.8678616257
 20
21.9703716537
 10
-9.865651931
 20
21.9691509849
  0
LINE
  5
2F4
100
AcDbEntity
  8
DRAFT
100
AcDbLine
 62
7
  6
CONTINUOUS
 10
-1.9259463761
 20
26.4255387266
 11
-4.5983506997
 21
25.0873831671
  0
LINE
  5
2F5
100
AcDbEntity
  8
ASSI
100
AcDbLine
 62
7
  6
CONTINUOUS
 10
-7.8029118437
 20
22.8801654815
 11
-9.754917312
 21
21.9052142037
  0
LINE
  5
2F6
100
AcDbEntity
  8
RACCORDO
100
AcDbLine
 62
7
  6
CONTINUOUS
 10
-9.0668127407
 20
23.7843968176
 11
-9.3227888942
 21
23.6573946005
  0
LWPOLYLINE
  5
2F7
100
AcDbEntity
  8
DRAFT
100
AcDbPolyline
 62
7
  6
CONTINUOUS
 90
3
 70
0
 10
-9.0006457769
 20
23.7893145731
 10
-9.2682493265
 20
23.6584463919
 10
-9.5340157074
 20
23.5179383021
  0
LWPOLYLINE
  5
2F8
100
AcDbEntity
  8
ASSI
100
AcDbPolyline
 62
250
  6
CONTINUOUS
 90
7
 70
0
 10
-9.9856483022
 20
23.6441822908
 10
-9.9674165477
 20
23.6529752477
 10
-9.9495311536
 20
23.6588653161
 10
-9.932291389
 20
23.6617539387
 10
-9.9159857289
 20
23.6615927811
 10
-9.9008869996
 20
23.6583845413
 10
-9.8881116132
 20
23.652690322
  0
LINE
  5
2F9
100
AcDbEntity
  8
ASSI
100
AcDbLine
 62
250
  6
CONTINUOUS
 10
-1.5313646537
 20
26.1243276056
 11
-1.5425374162
 21
26.1190903705
  0
LINE
  5
2FA
100
AcDbEntity
  8
DRAFT
100
AcDbLine
 62
7
  6
CONTINUOUS
 10
-6.3872867488
 20
25.2478841437
 11
-6.4569016811
 21
25.2153253369
  0
LINE
  5
2FB
100
AcDbEntity
  8
DRAFT
100
AcDbLine
 62
7
  6
CONTINUOUS
 10
-6.4092146897
 20
25.2051501343
 11
-6.4631147081
 21
25.1802914952
  0
LINE
  5
2FC
100
AcDbEntity
  8
DRAFT
100
AcDbLine
 62
7
  6
CONTINUOUS
 10
-6.3173804259
 20
25.2798941021
 11
-6.3872867488
 21
25.2478841437
  0
LINE
  5
2FD
100
AcDbEntity
  8
DRAFT
100
AcDbLine
 62
7
  6
CONTINUOUS
 10
-6.355139746
 20
25.2296817839
 11
-6.4092146897
 21
25.2051501343
  0
LINE
  5
2FE
100
AcDbEntity
  8
DRAFT
100
AcDbLine
 62
7
  6
CONTINUOUS
 10
-6.3008901435
 20
25.2538863246
 11
-6.355139746
 21
25.2296817839
  0
LWPOLYLINE
  5
2FF
100
AcDbEntity
  8
SMUSSO
100
AcDbPolyline
 62
7
  6
CONTINUOUS
 90
4
 70
0
 10
-2.1639611899
 20
26.9505527027
 10
-2.1153992523
 20
26.9720369958
 10
-2.0613458707
 20
26.9973386572
 10
-2.0024635478
 20
27.0263898136
  0
LWPOLYLINE
  5
300
100
AcDbEntity
  8
DRAFT
100
AcDbPolyline
 62
7
  6
CONTINUOUS
 90
3
 70
0
 10
-6.1766920546
 20
25.34226814
 10
-6.2471827126
 20
25.3113552119
 10
-6.3173804259
 20
25.2798941021
  0
LWPOLYLINE
  5
301
100
AcDbEntity
  8
DRAFT
100
AcDbPolyline
 62
7
  6
CONTINUOUS
 90
3
 70
0
 10
-6.2191901868
 20
25.2895789408
 10
-6.2464669483
 20
25.2777632788
 10
-6.3008901435
 20
25.2538863246
  0
LWPOLYLINE
  5
302
100
AcDbEntity
  8
ASSI
100
AcDbPolyline
 62
250
  6
CONTINUOUS
 90
4
 70
0
 10
-4.8155017906
 20
23.8743261948
 10
-4.7617040148
 20
23.8967858716
 10
-4.7057810324
 20
23.9231984185
 10
-4.6478644159
 20
23.953783658
  0
LINE
  5
303
100
AcDbEntity
  8
SMUSSO
100
AcDbLine
 62
7
  6
CONTINUOUS
 10
-2.2063106886
 20
26.9329387059
 11
-2.1639611899
 21
26.9505527027
  0
LWPOLYLINE
  5
304
100
AcDbEntity
  8
DRAFT
100
AcDbPolyline
 62
7
  6
CONTINUOUS
 90
6
 70
0
 10
-5.8199191926
 20
25.4885780529
 10
-5.8918465997
 20
25.460418034
 10
-5.9634872787
 20
25.4317071666
 10
-6.0348412295
 20
25.4024454507
 10
-6.1059100062
 20
25.3726322196
 10
-6.1766920546
 20
25.34226814
  0
LINE
  5
305
100
AcDbEntity
  8
SMUSSO
100
AcDbLine
 62
7
  6
CONTINUOUS
 10
-2.2241585607
 20
26.9261231176
 11
-2.2063106886
 21
26.9329387059
  0
LWPOLYLINE
  5
306
100
AcDbEntity
  8
ASSI
100
AcDbPolyline
 62
7
  6
CONTINUOUS
 90
13
 70
0
 10
-6.2191901868
 20
25.2895789408
 10
-6.1733929804
 20
25.3066147773
 10
-6.1256831887
 20
25.3191104932
 10
-6.0760608117
 20
25.3270660883
 10
-6.0243033189
 20
25.3304895864
 10
-5.9706332408
 20
25.3293729638
 10
-5.9157181691
 20
25.3236921495
 10
-5.8595371466
 20
25.313362977
 10
-5.8021111304
 20
25.2984696128
 10
-5.7441705838
 20
25.2792404845
 10
-5.6859589946
 20
25.2557517345
 10
-5.627232875
 20
25.2279272204
 10
-5.567992225
 20
25.1957669422
  0
LWPOLYLINE
  5
307
100
AcDbEntity
  8
ASSI
100
AcDbPolyline
 62
250
  6
CONTINUOUS
 90
10
 70
0
 10
-7.9356154621
 20
24.3457471119
 10
-7.8726248498
 20
24.3682070106
 10
-7.8060252157
 20
24.3825986853
 10
-7.7362329979
 20
24.3888347059
 10
-7.6636778236
 20
24.3868827089
 10
-7.5888212272
 20
24.3767553852
 10
-7.5121540363
 20
24.3585114353
 10
-7.4341644937
 20
24.3322682555
 10
-7.3553349266
 20
24.2982000915
 10
-7.2761603211
 20
24.2565274446
  0
LINE
  5
308
100
AcDbEntity
  8
CURVE
100
AcDbLine
 62
250
  6
CONTINUOUS
 10
-9.3533709349
 20
-2.7128775477
 11
-13.7231893164
 21
-0.1897991809
  0
LINE
  5
309
100
AcDbEntity
  8
DRAFT
100
AcDbLine
 62
7
  6
CONTINUOUS
 10
-0.117763676
 20
-7.6547017138
 11
-0.0824286688
 21
-7.6751037041
  0
LINE
  5
30A
100
AcDbEntity
  8
CURVE
100
AcDbLine
 62
250
  6
CONTINUOUS
 10
-13.7231893164
 20
0.2725720105
 11
-9.3533709349
 21
-2.2505063563
  0
LINE
  5
30B
100
AcDbEntity
  8
DRAFT
100
AcDbLine
 62
7
  6
CONTINUOUS
 10
-0.0824286688
 20
-6.8586334273
 11
-0.117763676
 21
-6.838231437
  0
LWPOLYLINE
  5
30C
100
AcDbEntity
  8
RACCORDO
100
AcDbPolyline
 62
7
  6
CONTINUOUS
 90
6
 70
0
 10
-0.1194273109
 20
-6.8268959689
 10
-0.1288088268
 20
-6.8211188352
 10
-0.1367191885
 20
-6.8165001445
 10
-0.1468877653
 20
-6.81075512
 10
-0.1592911837
 20
-6.8036051684
 10
-0.173895716
 20
-6.7948790332
  0
LWPOLYLINE
  5
30D
100
AcDbEntity
  8
0
100
AcDbPolyline
 62
250
  6
CONTINUOUS
 90
7
 70
0
 10
-16.6175866996
 20
5.5410962268
 10
-16.6432856648
 20
5.557999686
 10
-16.6649801987
 20
5.5766889895
 10
-16.6823006472
 20
5.5968502415
 10
-16.6949514483
 20
5.6181458324
 10
-16.7027132954
 20
5.6402154019
 10
-16.705454646
 20
5.6635166498
  0
LWPOLYLINE
  5
30E
100
AcDbEntity
  8
RACCORDO
100
AcDbPolyline
 62
250
  6
CONTINUOUS
 90
7
 70
0
 10
-16.6175866996
 20
5.5410962268
 10
-16.6432856648
 20
5.557999686
 10
-16.6649801987
 20
5.5766889895
 10
-16.6823006472
 20
5.5968502415
 10
-16.6949514483
 20
5.6181458324
 10
-16.7027132954
 20
5.6402154019
 10
-16.705454646
 20
5.6635166498
  0
LWPOLYLINE
  5
30F
100
AcDbEntity
  8
ASSI
100
AcDbPolyline
 62
250
  6
CONTINUOUS
 90
15
 70
0
 10
-5.9974980383
 20
0.6323045674
 10
-5.9503244498
 20
0.5931833958
 10
-5.9042637092
 20
0.5499918019
 10
-5.8595457112
 20
0.50301704
 10
-5.8168601397
 20
0.4531208736
 10
-5.7761995804
 20
0.4002827191
 10
-5.7375714476
 20
0.34452316
 10
-5.7016876686
 20
0.2867657096
 10
-5.6685609728
 20
0.2270602751
 10
-5.6381786307
 20
0.1653569493
 10
-5.6112143811
 20
0.1024295235
 10
-5.5875814349
 20
0.037793786
 10
-5.5673665812
 20
-0.0280660514
 10
-5.5515039272
 20
-0.0929235626
 10
-5.5403048418
 20
-0.1560366056
  0
LWPOLYLINE
  5
310
100
AcDbEntity
  8
RACCORDO
100
AcDbPolyline
 62
250
  6
CONTINUOUS
 90
15
 70
0
 10
-5.9974980383
 20
0.6323045674
 10
-5.9503244498
 20
0.5931833958
 10
-5.9042637092
 20
0.5499918019
 10
-5.8595457112
 20
0.50301704
 10
-5.8168601397
 20
0.4531208736
 10
-5.7761995804
 20
0.4002827191
 10
-5.7375714476
 20
0.34452316
 10
-5.7016876686
 20
0.2867657096
 10
-5.6685609728
 20
0.2270602751
 10
-5.6381786307
 20
0.1653569493
 10
-5.6112143811
 20
0.1024295235
 10
-5.5875814349
 20
0.037793786
 10
-5.5673665812
 20
-0.0280660514
 10
-5.5515039272
 20
-0.0929235626
 10
-5.5403048418
 20
-0.1560366056
  0
LWPOLYLINE
  5
311
100
AcDbEntity
  8
RACCORDO
100
AcDbPolyline
 62
7
  6
CONTINUOUS
 90
3
 70
0
 10
-0.1177636767
 20
-6.8280682112
 10
-0.1178411662
 20
-6.8279526994
 10
-0.1194273109
 20
-6.8268959689
  0
LINE
  5
312
100
AcDbEntity
  8
CURVE
100
AcDbLine
 62
250
  6
CONTINUOUS
 10
-8.4005153517
 20
8.757505892
 11
-8.3552046563
 21
8.6306455192
  0
LWPOLYLINE
  5
313
100
AcDbEntity
  8
ASSI
100
AcDbPolyline
 62
250
  6
CONTINUOUS
 90
3
 70
0
 10
-5.5403048418
 20
-0.1560366056
 10
-5.5334579561
 20
-0.2181473223
 10
-5.53096327
 20
-0.2792557129
  0
LWPOLYLINE
  5
314
100
AcDbEntity
  8
RACCORDO
100
AcDbPolyline
 62
250
  6
CONTINUOUS
 90
3
 70
0
 10
-5.5403048418
 20
-0.1560366056
 10
-5.5334579561
 20
-0.2181473223
 10
-5.53096327
 20
-0.2792557129
  0
LINE
  5
315
100
AcDbEntity
  8
ASSI
100
AcDbLine
 62
7
  6
CONTINUOUS
 10
-6.3309459341
 20
23.255175127
 11
-6.330940236
 21
23.2551130866
  0
LINE
  5
316
100
AcDbEntity
  8
0
100
AcDbLine
 62
250
  6
CONTINUOUS
 10
-6.1568458727
 20
23.1610179425
 11
-6.1665351393
 21
23.2677563036
  0
LINE
  5
317
100
AcDbEntity
  8
ASSI
100
AcDbLine
 62
7
  6
CONTINUOUS
 10
-6.4210898534
 20
19.2202513085
 11
-6.4222575743
 21
19.2363369549
  0
LWPOLYLINE
  5
318
100
AcDbEntity
  8
ASSI
100
AcDbPolyline
 62
250
  6
CONTINUOUS
 90
9
 70
0
 10
-3.7498980492
 20
-26.3807040797
 10
-3.7480135548
 20
-26.4217095722
 10
-3.742380186
 20
-26.4601016418
 10
-3.7330580335
 20
-26.4954710485
 10
-3.7201447637
 20
-26.5274443713
 10
-3.7037789936
 20
-26.5556763271
 10
-3.6841428355
 20
-26.5798580441
 10
-3.6614544436
 20
-26.5997323435
 10
-3.646467253
 20
-26.6095086443
  0
LWPOLYLINE
  5
319
100
AcDbEntity
  8
RACCORDO
100
AcDbPolyline
 62
250
  6
CONTINUOUS
 90
9
 70
0
 10
-3.7498980492
 20
-26.3807040797
 10
-3.7480135548
 20
-26.4217095722
 10
-3.742380186
 20
-26.4601016418
 10
-3.7330580335
 20
-26.4954710485
 10
-3.7201447637
 20
-26.5274443713
 10
-3.7037789936
 20
-26.5556763271
 10
-3.6841428355
 20
-26.5798580441
 10
-3.6614544436
 20
-26.5997323435
 10
-3.646467253
 20
-26.6095086443
  0
LINE
  5
31A
100
AcDbEntity
  8
0
100
AcDbLine
 62
250
  6
CONTINUOUS
 10
-6.0370008029
 20
-7.9764051366
 11
-6.0370008029
 21
-0.3273119325
  0
LINE
  5
31B
100
AcDbEntity
  8
RACCORDO
100
AcDbLine
 62
250
  6
CONTINUOUS
 10
-6.0370008029
 20
-7.9764051366
 11
-6.0370008029
 21
-0.3273119325
  0
LINE
  5
31C
100
AcDbEntity
  8
ASSI
100
AcDbLine
 62
250
  6
CONTINUOUS
 10
-5.53096327
 20
-0.2792557129
 11
-5.53096327
 21
-8.2736506913
  0
LINE
  5
31D
100
AcDbEntity
  8
RACCORDO
100
AcDbLine
 62
250
  6
CONTINUOUS
 10
-5.53096327
 20
-0.2792557129
 11
-5.53096327
 21
-8.2736506913
  0
LINE
  5
31E
100
AcDbEntity
  8
DRAFT
100
AcDbLine
 62
250
  6
CONTINUOUS
 10
-5.1488456547
 20
24.9537569656
 11
-5.1488456547
 21
25.1011086026
  0
LINE
  5
31F
100
AcDbEntity
  8
DRAFT
100
AcDbLine
 62
250
  6
CONTINUOUS
 10
-4.5983506997
 20
24.7254238608
 11
-4.5983506997
 21
25.0873831671
  0
LINE
  5
320
100
AcDbEntity
  8
ASSI
100
AcDbLine
 62
250
  6
CONTINUOUS
 10
-3.7498980492
 20
-26.3807040797
 11
-3.7498980492
 21
15.7710682025
  0
LINE
  5
321
100
AcDbEntity
  8
RACCORDO
100
AcDbLine
 62
250
  6
CONTINUOUS
 10
-3.7498980492
 20
-26.3807040797
 11
-3.7498980492
 21
15.7710682025
  0
LINE
  5
322
100
AcDbEntity
  8
ASSI
100
AcDbLine
 62
7
  6
CONTINUOUS
 10
-3.5345994802
 20
24.7784708817
 11
-3.5345994802
 21
24.6461858336
  0
LINE
  5
323
100
AcDbEntity
  8
ASSI
100
AcDbLine
 62
250
  6
CONTINUOUS
 10
-3.0521673708
 20
-26.3859778184
 11
-3.0521673708
 21
15.7657944638
  0
LINE
  5
324
100
AcDbEntity
  8
RACCORDO
100
AcDbLine
 62
250
  6
CONTINUOUS
 10
-3.0521673708
 20
-26.3859778184
 11
-3.0521673708
 21
15.7657944638
  0
LINE
  5
325
100
AcDbEntity
  8
ASSI
100
AcDbLine
 62
7
  6
CONTINUOUS
 10
-3.0426700726
 20
-26.3810538883
 11
-3.0426700726
 21
15.7712780577
  0
LINE
  5
326
100
AcDbEntity
  8
RACCORDO
100
AcDbLine
 62
7
  6
CONTINUOUS
 10
-3.0426700726
 20
-26.3810538883
 11
-3.0426700726
 21
15.7712780577
  0
LINE
  5
327
100
AcDbEntity
  8
ASSI
100
AcDbLine
 62
7
  6
CONTINUOUS
 10
-5.5895416236
 20
-8.1921924724
 11
-5.5895417557
 21
-0.1974556216
  0
LINE
  5
328
100
AcDbEntity
  8
RACCORDO
100
AcDbLine
 62
7
  6
CONTINUOUS
 10
-5.5895416236
 20
-8.1921924724
 11
-5.5895417557
 21
-0.1974556216
  0
LWPOLYLINE
  5
329
100
AcDbEntity
  8
ASSI
100
AcDbPolyline
 62
7
  6
CONTINUOUS
 90
10
 70
0
 10
-5.5895416236
 20
-8.1921924728
 10
-5.5899958113
 20
-8.2140265461
 10
-5.5927063788
 20
-8.2485268303
 10
-5.5977340669
 20
-8.2800728318
 10
-5.6048750587
 20
-8.3081949863
 10
-5.6137423391
 20
-8.3322675875
 10
-5.6236206929
 20
-8.3516030167
 10
-5.633762358
 20
-8.3661472051
 10
-5.6436547518
 20
-8.3765111158
 10
-5.6500848795
 20
-8.3815856905
  0
LWPOLYLINE
  5
32A
100
AcDbEntity
  8
RACCORDO
100
AcDbPolyline
 62
7
  6
CONTINUOUS
 90
10
 70
0
 10
-5.5895416236
 20
-8.1921924728
 10
-5.5899958113
 20
-8.2140265461
 10
-5.5927063788
 20
-8.2485268303
 10
-5.5977340669
 20
-8.2800728318
 10
-5.6048750587
 20
-8.3081949863
 10
-5.6137423391
 20
-8.3322675875
 10
-5.6236206929
 20
-8.3516030167
 10
-5.633762358
 20
-8.3661472051
 10
-5.6436547518
 20
-8.3765111158
 10
-5.6500848795
 20
-8.3815856905
  0
LINE
  5
32B
100
AcDbEntity
  8
ASSI
100
AcDbLine
 62
250
  6
CONTINUOUS
 10
-3.5069234342
 20
24.6559007166
 11
-3.5061600367
 21
24.6824948395
  0
LWPOLYLINE
  5
32C
100
AcDbEntity
  8
ASSI
100
AcDbPolyline
 62
250
  6
CONTINUOUS
 90
4
 70
0
 10
-5.53096327
 20
-8.2736506913
 10
-5.5330448465
 20
-8.326851891
 10
-5.5387523102
 20
-8.3767379786
 10
-5.548085661
 20
-8.423308954
  0
LWPOLYLINE
  5
32D
100
AcDbEntity
  8
RACCORDO
100
AcDbPolyline
 62
250
  6
CONTINUOUS
 90
4
 70
0
 10
-5.53096327
 20
-8.2736506913
 10
-5.5330448465
 20
-8.326851891
 10
-5.5387523102
 20
-8.3767379786
 10
-5.548085661
 20
-8.423308954
  0
LWPOLYLINE
  5
32E
100
AcDbEntity
  8
ASSI
100
AcDbPolyline
 62
250
  6
CONTINUOUS
 90
16
 70
0
 10
-3.7498980492
 20
15.7710682025
 10
-3.7480138144
 20
15.8142468203
 10
-3.7423811932
 20
15.8591410742
 10
-3.733060222
 20
15.9052724437
 10
-3.7201484369
 20
15.9521550475
 10
-3.7037844226
 20
15.9992834063
 10
-3.6841505159
 20
16.0461377761
 10
-3.6614654348
 20
16.0922081949
 10
-3.6359693343
 20
16.1370173022
 10
-3.6079252708
 20
16.180106178
 10
-3.577586103
 20
16.2210740131
 10
-3.5453140952
 20
16.2594202407
 10
-3.5115899491
 20
16.294602693
 10
-3.4768339536
 20
16.3262473338
 10
-3.4413784997
 20
16.3541134397
 10
-3.4055996075
 20
16.3779570541
  0
LWPOLYLINE
  5
32F
100
AcDbEntity
  8
RACCORDO
100
AcDbPolyline
 62
250
  6
CONTINUOUS
 90
16
 70
0
 10
-3.7498980492
 20
15.7710682025
 10
-3.7480138144
 20
15.8142468203
 10
-3.7423811932
 20
15.8591410742
 10
-3.733060222
 20
15.9052724437
 10
-3.7201484369
 20
15.9521550475
 10
-3.7037844226
 20
15.9992834063
 10
-3.6841505159
 20
16.0461377761
 10
-3.6614654348
 20
16.0922081949
 10
-3.6359693343
 20
16.1370173022
 10
-3.6079252708
 20
16.180106178
 10
-3.577586103
 20
16.2210740131
 10
-3.5453140952
 20
16.2594202407
 10
-3.5115899491
 20
16.294602693
 10
-3.4768339536
 20
16.3262473338
 10
-3.4413784997
 20
16.3541134397
 10
-3.4055996075
 20
16.3779570541
  0
LWPOLYLINE
  5
330
100
AcDbEntity
  8
ASSI
100
AcDbPolyline
 62
250
  6
CONTINUOUS
 90
12
 70
0
 10
-6.0958734427
 20
-8.5997597036
 10
-6.0947427719
 20
-8.578499327
 10
-6.0913688388
 20
-8.5562732356
 10
-6.0858055931
 20
-8.5334368268
 10
-6.0781419917
 20
-8.5103552571
 10
-6.0685005761
 20
-8.4873976031
 10
-6.0570355138
 20
-8.4649309601
 10
-6.0439301321
 20
-8.4433145718
 10
-6.0293939875
 20
-8.4228940866
 10
-6.0136595144
 20
-8.4039960301
 10
-5.9969783085
 20
-8.386922584
 10
-5.979617104
 20
-8.3719467546
  0
LWPOLYLINE
  5
331
100
AcDbEntity
  8
RACCORDO
100
AcDbPolyline
 62
250
  6
CONTINUOUS
 90
12
 70
0
 10
-6.0958734427
 20
-8.5997597036
 10
-6.0947427719
 20
-8.578499327
 10
-6.0913688388
 20
-8.5562732356
 10
-6.0858055931
 20
-8.5334368268
 10
-6.0781419917
 20
-8.5103552571
 10
-6.0685005761
 20
-8.4873976031
 10
-6.0570355138
 20
-8.4649309601
 10
-6.0439301321
 20
-8.4433145718
 10
-6.0293939875
 20
-8.4228940866
 10
-6.0136595144
 20
-8.4039960301
 10
-5.9969783085
 20
-8.386922584
 10
-5.979617104
 20
-8.3719467546
  0
LWPOLYLINE
  5
332
100
AcDbEntity
  8
0
100
AcDbPolyline
 62
250
  6
CONTINUOUS
 90
13
 70
0
 10
-6.4575303484
 20
-0.325192975
 10
-6.4557419491
 20
-0.2924217234
 10
-6.4504048471
 20
-0.2581277087
 10
-6.4416060398
 20
-0.2228884405
 10
-6.4294901058
 20
-0.1872956111
 10
-6.4142594529
 20
-0.1519530261
 10
-6.3961732211
 20
-0.117466041
 10
-6.3754905648
 20
-0.0843500397
 10
-6.3525974338
 20
-0.0532416013
 10
-6.3280488592
 20
-0.0248470332
 10
-6.3023454819
 20
0.0003589005
 10
-6.2758812675
 20
0.0220879103
 10
-6.2491005285
 20
0.0400555681
  0
LWPOLYLINE
  5
333
100
AcDbEntity
  8
RACCORDO
100
AcDbPolyline
 62
250
  6
CONTINUOUS
 90
13
 70
0
 10
-6.4575303484
 20
-0.325192975
 10
-6.4557419491
 20
-0.2924217234
 10
-6.4504048471
 20
-0.2581277087
 10
-6.4416060398
 20
-0.2228884405
 10
-6.4294901058
 20
-0.1872956111
 10
-6.4142594529
 20
-0.1519530261
 10
-6.3961732211
 20
-0.117466041
 10
-6.3754905648
 20
-0.0843500397
 10
-6.3525974338
 20
-0.0532416013
 10
-6.3280488592
 20
-0.0248470332
 10
-6.3023454819
 20
0.0003589005
 10
-6.2758812675
 20
0.0220879103
 10
-6.2491005285
 20
0.0400555681
  0
LWPOLYLINE
  5
334
100
AcDbEntity
  8
ASSI
100
AcDbPolyline
 62
7
  6
CONTINUOUS
 90
19
 70
0
 10
-3.5345994761
 20
24.7784708817
 10
-3.53234689
 20
24.8151690464
 10
-3.5253950292
 20
24.852340152
 10
-3.5135087295
 20
24.8894309037
 10
-3.4965677799
 20
24.9258249387
 10
-3.4745285595
 20
24.9609798687
 10
-3.4472795716
 20
24.9945383638
 10
-3.4142811082
 20
25.0264855784
 10
-3.3759098743
 20
25.0558578318
 10
-3.333703692
 20
25.0814170392
 10
-3.2880296169
 20
25.1031497498
 10
-3.2390353284
 20
25.121078266
 10
-3.1885533601
 20
25.1347337251
 10
-3.1375904297
 20
25.1442224098
 10
-3.0859668483
 20
25.1498479335
 10
-3.0341019772
 20
25.1516869475
 10
-2.9824096455
 20
25.1497883901
 10
-2.9311968519
 20
25.1441618984
 10
-2.8808203365
 20
25.13477334
  0
LINE
  5
335
100
AcDbEntity
  8
ASSI
100
AcDbLine
 62
250
  6
CONTINUOUS
 10
-3.5061600298
 20
24.6824948353
 11
-3.5045463286
 21
24.7041373874
  0
LWPOLYLINE
  5
336
100
AcDbEntity
  8
ASSI
100
AcDbPolyline
 62
250
  6
CONTINUOUS
 90
10
 70
0
 10
-1.1793793584
 20
21.4082207768
 10
-1.1828074872
 20
21.3900435749
 10
-1.1848555203
 20
21.3719405252
 10
-1.1855058009
 20
21.3540733466
 10
-1.1847532778
 20
21.3366018877
 10
-1.1826052277
 20
21.3196816369
 10
-1.1790809903
 20
21.3034624725
 10
-1.1742122835
 20
21.2880887228
 10
-1.1680430952
 20
21.2736977394
 10
-1.1606288426
 20
21.2604177082
  0
LWPOLYLINE
  5
337
100
AcDbEntity
  8
ASSI
100
AcDbPolyline
 62
250
  6
CONTINUOUS
 90
13
 70
0
 10
-3.2236957101
 20
21.3018630946
 10
-3.2189219983
 20
21.3256683465
 10
-3.2164113333
 20
21.3501135081
 10
-3.2162021073
 20
21.3748250547
 10
-3.2182975467
 20
21.3994253869
 10
-3.2226656606
 20
21.4235385901
 10
-3.2292397255
 20
21.4467961791
 10
-3.23791931
 20
21.4688427508
 10
-3.2485718037
 20
21.4893413931
 10
-3.2610344338
 20
21.5079788296
 10
-3.2751167668
 20
21.5244702371
 10
-3.2906036236
 20
21.538563594
 10
-3.3072583553
 20
21.5500435143
  0
LWPOLYLINE
  5
338
100
AcDbEntity
  8
ASSI
100
AcDbPolyline
 62
250
  6
CONTINUOUS
 90
12
 70
0
 10
-3.5045463286
 20
24.7041373874
 10
-3.4997328327
 20
24.7260665092
 10
-3.4918018977
 20
24.7479069885
 10
-3.4808892179
 20
24.7692851319
 10
-3.4671815092
 20
24.7898351492
 10
-3.4509133189
 20
24.8092054136
 10
-3.4323630043
 20
24.8270644911
 10
-3.4118479635
 20
24.8431068115
 10
-3.3897192123
 20
24.8570578876
 10
-3.3663553788
 20
24.8686790121
 10
-3.3421562253
 20
24.8777713428
 10
-3.3175358064
 20
24.8841793064
  0
LWPOLYLINE
  5
339
100
AcDbEntity
  8
ASSI
100
AcDbPolyline
 62
250
  6
CONTINUOUS
 90
13
 70
0
 10
-3.9871010778
 20
20.3945636893
 10
-3.9917261152
 20
20.3772992569
 10
-3.99728061
 20
20.3605136022
 10
-4.0036749033
 20
20.3443159783
 10
-4.0107465344
 20
20.3289183608
 10
-4.0184662509
 20
20.3142849185
 10
-4.0269877748
 20
20.3001766089
 10
-4.0363098704
 20
20.2866253395
 10
-4.0463242343
 20
20.2738422218
 10
-4.0570618938
 20
20.261912786
 10
-4.0684817906
 20
20.2509625172
 10
-4.0804633884
 20
20.2411396562
 10
-4.0929087488
 20
20.2325782169
  0
LINE
  5
33A
100
AcDbEntity
  8
ASSI
100
AcDbLine
 62
250
  6
CONTINUOUS
 10
-3.4499100161
 20
21.1915838753
 11
-3.721294832
 21
20.3179546076
  0
LWPOLYLINE
  5
33B
100
AcDbEntity
  8
ASSI
100
AcDbPolyline
 62
250
  6
CONTINUOUS
 90
13
 70
0
 10
-3.721294832
 20
20.3179546076
 10
-3.7329471175
 20
20.2843108257
 10
-3.7459710568
 20
20.2519520224
 10
-3.7603666497
 20
20.220878198
 10
-3.7761306573
 20
20.191105789
 10
-3.7932663186
 20
20.1626183587
 10
-3.811783351
 20
20.1353665971
 10
-3.8317714387
 20
20.1091155196
 10
-3.8531408975
 20
20.0841001106
 10
-3.8756323921
 20
20.0609760141
 10
-3.8991594774
 20
20.039961778
 10
-3.9238085985
 20
20.0208388542
 10
-3.9495797555
 20
20.0036072429
  0
LINE
  5
33C
100
AcDbEntity
  8
ASSI
100
AcDbLine
 62
7
  6
CONTINUOUS
 10
-0.1811916472
 20
23.4158258864
 11
0.2888286122
 21
24.0157552666
  0
LINE
  5
33D
100
AcDbEntity
  8
ASSI
100
AcDbLine
 62
250
  6
CONTINUOUS
 10
-0.0912060199
 20
23.3638693129
 11
0.397235242
 21
23.9873110851
  0
LWPOLYLINE
  5
33E
100
AcDbEntity
  8
ASSI
100
AcDbPolyline
 62
250
  6
CONTINUOUS
 90
10
 70
0
 10
-1.0761525847
 20
21.3630741478
 10
-1.0898972694
 20
21.3470563925
 10
-1.1015271375
 20
21.3303699454
 10
-1.1108855682
 20
21.3132394686
 10
-1.1178465246
 20
21.2958955963
 10
-1.1223162393
 20
21.2785718668
 10
-1.1242344933
 20
21.261501577
 10
-1.1235754385
 20
21.2449145897
 10
-1.12034793
 20
21.22903424
 10
-1.1162373947
 20
21.2176495111
  0
LINE
  5
33F
100
AcDbEntity
  8
CURVE
100
AcDbLine
 62
7
  6
CONTINUOUS
 10
-12.1302544795
 20
11.7481096126
 11
-11.2875242216
 21
12.5908398706
  0
LINE
  5
340
100
AcDbEntity
  8
CURVE
100
AcDbLine
 62
7
  6
CONTINUOUS
 10
-11.583988435
 20
11.8743542291
 11
-11.0411175816
 21
12.4172250825
  0
LINE
  5
341
100
AcDbEntity
  8
CURVE
100
AcDbLine
 62
7
  6
CONTINUOUS
 10
-11.1368229476
 20
11.9014982885
 11
-10.865077433
 21
12.1732438031
  0
LINE
  5
342
100
AcDbEntity
  8
CURVE
100
AcDbLine
 62
7
  6
CONTINUOUS
 10
-10.9607782738
 20
11.6575215342
 11
-10.6890372843
 21
11.9292625238
  0
LINE
  5
343
100
AcDbEntity
  8
CURVE
100
AcDbLine
 62
7
  6
CONTINUOUS
 10
-10.7847336
 20
11.41354478
 11
-10.5129971356
 21
11.6852812444
  0
LINE
  5
344
100
AcDbEntity
  8
CURVE
100
AcDbLine
 62
7
  6
CONTINUOUS
 10
-10.6086889262
 20
11.1695680258
 11
-10.336956987
 21
11.441299965
  0
LINE
  5
345
100
AcDbEntity
  8
CURVE
100
AcDbLine
 62
7
  6
CONTINUOUS
 10
-10.4326442524
 20
10.9255912715
 11
-10.1609168383
 21
11.1973186857
  0
LINE
  5
346
100
AcDbEntity
  8
CURVE
100
AcDbLine
 62
7
  6
CONTINUOUS
 10
-10.2565995787
 20
10.6816145173
 11
-9.9848766897
 21
10.9533374063
  0
LINE
  5
347
100
AcDbEntity
  8
CURVE
100
AcDbLine
 62
7
  6
CONTINUOUS
 10
-10.0805549049
 20
10.4376377631
 11
-9.808836541
 21
10.7093561269
  0
LINE
  5
348
100
AcDbEntity
  8
CURVE
100
AcDbLine
 62
7
  6
CONTINUOUS
 10
-9.9045102311
 20
10.1936610088
 11
-9.6327963923
 21
10.4653748476
  0
LINE
  5
349
100
AcDbEntity
  8
CURVE
100
AcDbLine
 62
7
  6
CONTINUOUS
 10
-9.7284655573
 20
9.9496842546
 11
-9.4567562437
 21
10.2213935682
  0
LWPOLYLINE
  5
34A
100
AcDbEntity
  8
ASSI
100
AcDbPolyline
 62
250
  6
CONTINUOUS
 90
7
 70
0
 10
1.3738094322
 20
22.7378951726
 10
1.3771483628
 20
22.7410175126
 10
1.3806759934
 20
22.7441047642
 10
1.3844108982
 20
22.7471644661
 10
1.3883623537
 20
22.7501940357
 10
1.3925277649
 20
22.7531817469
 10
1.3969093331
 20
22.7561199029
  0
LWPOLYLINE
  5
34B
100
AcDbEntity
  8
ASSI
100
AcDbPolyline
 62
250
  6
CONTINUOUS
 90
10
 70
0
 10
0.2888308754
 20
24.0157581544
 10
0.2935641502
 20
24.0194910738
 10
0.3003305342
 20
24.0214076204
 10
0.3091208971
 20
24.021574789
 10
0.3198353959
 20
24.0199933393
 10
0.3323551114
 20
24.0166830026
 10
0.3465254958
 20
24.0116882821
 10
0.3621795544
 20
24.0050735252
 10
0.3791457995
 20
23.9969161444
 10
0.397235242
 20
23.9873110851
  0
LWPOLYLINE
  5
34C
100
AcDbEntity
  8
ASSI
100
AcDbPolyline
 62
7
  6
CONTINUOUS
 90
7
 70
0
 10
-1.0427839596
 20
20.1122113474
 10
-1.0537487768
 20
20.104065512
 10
-1.0631961445
 20
20.0954198514
 10
-1.0711879862
 20
20.0862018993
 10
-1.0776623785
 20
20.0764841219
 10
-1.0824335512
 20
20.0664839174
 10
-1.0850305788
 20
20.0576629537
  0
LWPOLYLINE
  5
34D
100
AcDbEntity
  8
ASSI
100
AcDbPolyline
 62
250
  6
CONTINUOUS
 90
10
 70
0
 10
-3.5932399072
 20
21.4205548167
 10
-3.6096579198
 20
21.4099711267
 10
-3.6258539083
 20
21.3973222911
 10
-3.6416088498
 20
21.3827793631
 10
-3.6567096857
 20
21.3665390105
 10
-3.6709522029
 20
21.3488208556
 10
-3.6841437953
 20
21.3298645064
 10
-3.696106069
 20
21.3099263149
 10
-3.7066772545
 20
21.2892759107
 10
-3.7157143943
 20
21.2681925551
  0
LWPOLYLINE
  5
34E
100
AcDbEntity
  8
ASSI
100
AcDbPolyline
 62
250
  6
CONTINUOUS
 90
10
 70
0
 10
0.4825384109
 20
24.0638795466
 10
0.4726932965
 20
24.0576794259
 10
0.4628602319
 20
24.0508493437
 10
0.4530704354
 20
24.0434054666
 10
0.4433462479
 20
24.035358277
 10
0.4337288683
 20
24.0267352742
 10
0.4242768271
 20
24.0175860648
 10
0.4150289097
 20
24.0079491665
 10
0.4060054832
 20
23.9978467981
 10
0.397235242
 20
23.9873110851
  0
LWPOLYLINE
  5
34F
100
AcDbEntity
  8
ASSI
100
AcDbPolyline
 62
250
  6
CONTINUOUS
 90
47
 70
0
 10
-1.5605758885
 20
21.3113321361
 10
-1.5717633334
 20
21.3042950565
 10
-1.5831623849
 20
21.2970270472
 10
-1.5947599513
 20
21.289515132
 10
-1.6066853946
 20
21.2815522523
 10
-1.6188997216
 20
21.2732068783
 10
-1.6314419254
 20
21.2644105397
 10
-1.6445583473
 20
21.2547507671
 10
-1.6584164088
 20
21.2441441653
 10
-1.6728486884
 20
21.2326741294
 10
-1.6875992632
 20
21.2201783752
 10
-1.7028630548
 20
21.2064136682
 10
-1.7184451416
 20
21.1916232429
 10
-1.7335048369
 20
21.1763745184
 10
-1.7478801075
 20
21.1606813794
 10
-1.7617329866
 20
21.1445299412
 10
-1.7747088863
 20
21.1284459679
 10
-1.7866430483
 20
21.1125853901
 10
-1.7977002309
 20
21.0967922772
 10
-1.8080201212
 20
21.0811246012
 10
-1.8176217153
 20
21.0655678451
 10
-1.8264860171
 20
21.0501365259
 10
-1.8346957248
 20
21.0349321668
 10
-1.8422543508
 20
21.0199514915
 10
-1.8491583827
 20
21.0051977762
 10
-1.8554799818
 20
20.990782373
 10
-1.8612105532
 20
20.9767338755
 10
-1.8663586918
 20
20.96302369
 10
-1.8710223442
 20
20.9496773873
 10
-1.8752035533
 20
20.9367125143
 10
-1.8789002762
 20
20.9241115241
 10
-1.8822043308
 20
20.9118473476
 10
-1.8851221291
 20
20.8999295881
 10
-1.887647259
 20
20.8883486423
 10
-1.8898523022
 20
20.877048632
 10
-1.8917450719
 20
20.8660360165
 10
-1.8933177549
 20
20.8553043365
 10
-1.8946194934
 20
20.8447783351
 10
-1.8956588864
 20
20.8344484954
 10
-1.8964273349
 20
20.8243243345
 10
-1.8969481831
 20
20.8143591461
 10
-1.8972306579
 20
20.804578804
 10
-1.8972655325
 20
20.7949574345
 10
-1.8970484707
 20
20.7853707097
 10
-1.8965780272
 20
20.7757771871
 10
-1.8958556475
 20
20.7662183093
 10
-1.8948813314
 20
20.7566940763
  0
LINE
  5
350
100
AcDbEntity
  8
ASSI
100
AcDbLine
 62
7
  6
CONTINUOUS
 10
0.354132195
 20
24.0742008728
 11
1.0985400445
 21
24.5345538533
  0
LINE
  5
351
100
AcDbEntity
  8
ASSI
100
AcDbLine
 62
250
  6
CONTINUOUS
 10
0.4825384109
 20
24.0638795466
 11
1.2256919525
 21
24.5234568442
  0
LINE
  5
352
100
AcDbEntity
  8
ASSI
100
AcDbLine
 62
250
  6
CONTINUOUS
 10
1.3816473701
 20
22.7156734658
 11
1.3981401743
 21
22.7258616135
  0
LINE
  5
353
100
AcDbEntity
  8
ASSI
100
AcDbLine
 62
250
  6
CONTINUOUS
 10
-1.5386279072
 20
21.324842708
 11
-1.5605758885
 21
21.3113321361
  0
LWPOLYLINE
  5
354
100
AcDbEntity
  8
ASSI
100
AcDbPolyline
 62
250
  6
CONTINUOUS
 90
3
 70
0
 10
-1.5057613878
 20
21.3447083801
 10
-1.5166870157
 20
21.3381622649
 10
-1.5386279072
 20
21.324842708
  0
LWPOLYLINE
  5
355
100
AcDbEntity
  8
ASSI
100
AcDbPolyline
 62
250
  6
CONTINUOUS
 90
10
 70
0
 10
-1.8948813299
 20
20.7566940756
 10
-1.8779109321
 20
20.7668634652
 10
-1.8592378423
 20
20.7760108284
 10
-1.8391136796
 20
20.7840129045
 10
-1.8178096165
 20
20.7907618656
 10
-1.7956127248
 20
20.7961667692
 10
-1.7728221071
 20
20.8001547844
 10
-1.7497448668
 20
20.8026721723
 10
-1.7266919692
 20
20.8036850112
 10
-1.7039740516
 20
20.8031796528
  0
LINE
  5
356
100
AcDbEntity
  8
ASSI
100
AcDbLine
 62
250
  6
CONTINUOUS
 10
-3.4568444812
 20
21.5021168244
 11
-3.5932399072
 21
21.4205548167
  0
LINE
  5
357
100
AcDbEntity
  8
ASSI
100
AcDbLine
 62
250
  6
CONTINUOUS
 10
-6.1140039635
 20
19.7353466954
 11
-6.5631625685
 21
19.4667579409
  0
LINE
  5
358
100
AcDbEntity
  8
ASSI
100
AcDbLine
 62
250
  6
CONTINUOUS
 10
-3.3135145901
 20
21.273145883
 11
-3.4499100161
 21
21.1915838753
  0
LINE
  5
359
100
AcDbEntity
  8
ASSI
100
AcDbLine
 62
250
  6
CONTINUOUS
 10
-5.9706740724
 20
19.506375754
 11
-6.4222575743
 21
19.2363369549
  0
LINE
  5
35A
100
AcDbEntity
  8
ASSI
100
AcDbLine
 62
250
  6
CONTINUOUS
 10
-4.0929091777
 20
20.2325784646
 11
-5.7023637524
 21
19.2701536224
  0
LINE
  5
35B
100
AcDbEntity
  8
ASSI
100
AcDbLine
 62
250
  6
CONTINUOUS
 10
-3.9495797555
 20
20.0036072429
 11
-5.5590338613
 21
19.0411826811
  0
LINE
  5
35C
100
AcDbEntity
  8
ASSI
100
AcDbLine
 62
250
  6
CONTINUOUS
 10
0.36731283
 20
22.4551193119
 11
-0.8212803717
 21
21.7443619892
  0
LINE
  5
35D
100
AcDbEntity
  8
ASSI
100
AcDbLine
 62
250
  6
CONTINUOUS
 10
1.2535792449
 20
22.9850906624
 11
1.7213841645
 21
23.2648295771
  0
LINE
  5
35E
100
AcDbEntity
  8
ASSI
100
AcDbLine
 62
250
  6
CONTINUOUS
 10
0.5106425728
 20
22.2261482819
 11
-0.6779504806
 21
21.5153910478
  0
LINE
  5
35F
100
AcDbEntity
  8
ASSI
100
AcDbLine
 62
250
  6
CONTINUOUS
 10
1.3969093564
 20
22.7561198528
 11
1.8647140556
 21
23.0358586357
  0
LWPOLYLINE
  5
360
100
AcDbEntity
  8
ASSI
100
AcDbPolyline
 62
250
  6
CONTINUOUS
 90
7
 70
0
 10
-1.0547065068
 20
21.2591034877
 10
-1.069892947
 20
21.2500436795
 10
-1.0829433769
 20
21.2402209542
 10
-1.0936819434
 20
21.229767674
 10
-1.1019639456
 20
21.2188246989
 10
-1.1076777856
 20
21.207539485
 10
-1.1091882777
 20
21.2018909813
  0
LINE
  5
361
100
AcDbEntity
  8
RACCORDO
100
AcDbLine
 62
250
  6
CONTINUOUS
 10
5.2456727134
 20
24.3994748993
 11
7.0709022866
 21
25.471895389
  0
LWPOLYLINE
  5
362
100
AcDbEntity
  8
ASSI
100
AcDbPolyline
 62
250
  6
CONTINUOUS
 90
13
 70
0
 10
1.8647140556
 20
23.0358586357
 10
1.8689527953
 20
23.0383420434
 10
1.8732238064
 20
23.0407287506
 10
1.877527089
 20
23.0430187573
 10
1.8818471462
 20
23.0452091364
 10
1.8861994749
 20
23.0473028149
 10
1.8906305655
 20
23.0493085747
 10
1.8951439092
 20
23.0512334483
 10
1.899736015
 20
23.0530704032
 10
1.9044428996
 20
23.0548071236
 10
1.9092765687
 20
23.0564395044
 10
1.9142250166
 20
23.0579716508
 10
1.9192882434
 20
23.0594035628
  0
LWPOLYLINE
  5
363
100
AcDbEntity
  8
ASSI
100
AcDbPolyline
 62
250
  6
CONTINUOUS
 90
10
 70
0
 10
0.5137990196
 20
22.1970415683
 10
0.5324739935
 20
22.2078830958
 10
0.5531572433
 20
22.2174918515
 10
0.5755155468
 20
22.2257130314
 10
0.5991886952
 20
22.2324141864
 10
0.6237952968
 20
22.237487356
 10
0.6489389213
 20
22.2408508077
 10
0.6742144866
 20
22.242450354
 10
0.6992147849
 20
22.2422602251
 10
0.7235370432
 20
22.240283484
  0
LINE
  5
364
100
AcDbEntity
  8
ASSI
100
AcDbLine
 62
7
  6
CONTINUOUS
 10
1.2311036741
 20
23.5000355365
 11
1.2311405075
 21
23.5000568193
  0
LINE
  5
365
100
AcDbEntity
  8
0
100
AcDbLine
 62
7
  6
CONTINUOUS
 10
4.8750119
 20
27.1177514878
 11
4.5616132216
 21
26.9367990187
  0
LINE
  5
366
100
AcDbEntity
  8
0
100
AcDbLine
 62
7
  6
CONTINUOUS
 10
5.0811018981
 20
26.9987577058
 11
4.7677032196
 21
26.8178052367
  0
LINE
  5
367
100
AcDbEntity
  8
0
100
AcDbLine
 62
7
  6
CONTINUOUS
 10
5.5320969221
 20
26.8262760903
 11
5.5068528042
 21
26.811700453
  0
LINE
  5
368
100
AcDbEntity
  8
ASSI
100
AcDbLine
 62
7
  6
CONTINUOUS
 10
-1.3569388952
 20
22.0057321543
 11
1.2311405075
 21
23.5000568193
  0
LINE
  5
369
100
AcDbEntity
  8
ASSI
100
AcDbLine
 62
250
  6
CONTINUOUS
 10
-1.2568656535
 20
21.9958634718
 11
1.3311453395
 21
23.4901485837
  0
LINE
  5
36A
100
AcDbEntity
  8
0
100
AcDbLine
 62
7
  6
CONTINUOUS
 10
6.3811507073
 20
26.3690401919
 11
6.0677520289
 21
26.1880877228
  0
LWPOLYLINE
  5
36B
100
AcDbEntity
  8
ASSI
100
AcDbPolyline
 62
250
  6
CONTINUOUS
 90
13
 70
0
 10
1.7213841645
 20
23.2648295771
 10
1.7284913007
 20
23.2689320807
 10
1.7356535741
 20
23.2728869223
 10
1.7428678678
 20
23.2766888337
 10
1.7501013025
 20
23.2803184123
 10
1.7573802595
 20
23.2837859536
 10
1.7647898117
 20
23.2871240454
 10
1.7723296347
 20
23.2903225174
 10
1.7799909439
 20
23.2933665886
 10
1.7878442454
 20
23.2962687336
 10
1.7959080363
 20
23.2990171482
 10
1.8041496283
 20
23.301582563
 10
1.8125608927
 20
23.3039442422
  0
LWPOLYLINE
  5
36C
100
AcDbEntity
  8
ASSI
100
AcDbPolyline
 62
250
  6
CONTINUOUS
 90
13
 70
0
 10
-0.6779504806
 20
21.5153910478
 10
-0.7126581944
 20
21.4953603575
 10
-0.7470350629
 20
21.4767188087
 10
-0.7810810861
 20
21.4594664016
 10
-0.8147654372
 20
21.4436412122
 10
-0.8481189429
 20
21.4292051643
 10
-0.8812340838
 20
21.4160440297
 10
-0.9141028304
 20
21.4041400281
 10
-0.9467332123
 20
21.3935109398
 10
-0.9792417984
 20
21.3840958768
 10
-1.0116674451
 20
21.3758745433
 10
-1.0439712962
 20
21.3688672351
 10
-1.0761533515
 20
21.3630739523
  0
LWPOLYLINE
  5
36D
100
AcDbEntity
  8
ASSI
100
AcDbPolyline
 62
250
  6
CONTINUOUS
 90
37
 70
0
 10
0.36731283
 20
22.4551193119
 10
0.3764339997
 20
22.4603745389
 10
0.3856576327
 20
22.4653888373
 10
0.3949837291
 20
22.4701622069
 10
0.404416984
 20
22.4746854739
 10
0.4139527022
 20
22.4789678123
 10
0.4235767985
 20
22.4830367438
 10
0.433284389
 20
22.4868942419
 10
0.4430803577
 20
22.4905383332
 10
0.4529652705
 20
22.4939906195
 10
0.462935349
 20
22.4972533223
 10
0.4729943717
 20
22.5003242202
 10
0.4831542407
 20
22.5032182509
 10
0.4934124745
 20
22.5059378947
 10
0.5037715545
 20
22.5084806713
 10
0.5142508274
 20
22.5108540772
 10
0.5248480321
 20
22.5130606893
 10
0.5355654297
 20
22.5150979307
 10
0.5464291495
 20
22.5169655675
 10
0.5574233724
 20
22.5186657134
 10
0.5685639175
 20
22.5201962548
 10
0.579924372
 20
22.5215506164
 10
0.5914884461
 20
22.5227353027
 10
0.6032724296
 20
22.5237438093
 10
0.6153987796
 20
22.5245500471
 10
0.6278850874
 20
22.5251645312
 10
0.6407137616
 20
22.5255767465
 10
0.6539544847
 20
22.5257290596
 10
0.6676482168
 20
22.525626772
 10
0.6817539977
 20
22.5252645821
 10
0.6962186297
 20
22.524568952
 10
0.7110365233
 20
22.5235438417
 10
0.726213268
 20
22.5221852912
 10
0.7417124339
 20
22.5204078824
 10
0.757521878
 20
22.5181831425
 10
0.7736537434
 20
22.5155395444
 10
0.79010803
 20
22.5124770879
  0
LWPOLYLINE
  5
36E
100
AcDbEntity
  8
ASSI
100
AcDbPolyline
 62
7
  6
CONTINUOUS
 90
10
 70
0
 10
-1.356938895
 20
22.0057321544
 10
-1.3684839747
 20
21.9991360949
 10
-1.4296541468
 20
21.9665101479
 10
-1.4896258088
 20
21.9384061469
 10
-1.547976244
 20
21.9149188499
 10
-1.6045180549
 20
21.8960001223
 10
-1.6591923814
 20
21.8815691824
 10
-1.7117360434
 20
21.8716101652
 10
-1.7617600468
 20
21.8660836247
 10
-1.7697082358
 20
21.8655931237
  0
LWPOLYLINE
  5
36F
100
AcDbEntity
  8
ASSI
100
AcDbPolyline
 62
250
  6
CONTINUOUS
 90
8
 70
0
 10
-1.3686094133
 20
21.1195269977
 10
-1.3795649778
 20
21.1132757574
 10
-1.3906581654
 20
21.1072253015
 10
-1.4018871004
 20
21.1013543026
 10
-1.4132509202
 20
21.0956499148
 10
-1.4247543378
 20
21.0900813939
 10
-1.4364145191
 20
21.0845998753
 10
-1.4482727612
 20
21.0791841976
  0
LWPOLYLINE
  5
370
100
AcDbEntity
  8
ASSI
100
AcDbPolyline
 62
250
  6
CONTINUOUS
 90
10
 70
0
 10
-0.8212803717
 20
21.7443619892
 10
-0.873224098
 20
21.7148465583
 10
-0.9246608572
 20
21.6888825289
 10
-0.9754712414
 20
21.6664205206
 10
-1.0251938468
 20
21.6475250204
 10
-1.0740871732
 20
21.6319605034
 10
-1.1230924693
 20
21.6194055561
 10
-1.1724209513
 20
21.6099107737
 10
-1.2215910095
 20
21.6036848748
 10
-1.2704646978
 20
21.6008278533
  0
LINE
  5
371
100
AcDbEntity
  8
ASSI
100
AcDbLine
 62
250
  6
CONTINUOUS
 10
4.4524047069
 20
24.0042658968
 11
5.2040285277
 21
24.431050624
  0
LINE
  5
372
100
AcDbEntity
  8
ASSI
100
AcDbLine
 62
250
  6
CONTINUOUS
 10
4.5899763672
 20
23.7831653458
 11
5.3400841802
 21
24.2090892581
  0
LINE
  5
373
100
AcDbEntity
  8
RACCORDO
100
AcDbLine
 62
7
  6
CONTINUOUS
 10
6.0704900715
 20
25.9556558111
 11
4.3014238554
 21
24.9522032495
  0
LWPOLYLINE
  5
374
100
AcDbEntity
  8
ASSI
100
AcDbPolyline
 62
250
  6
CONTINUOUS
 90
7
 70
0
 10
1.3311453395
 20
23.4901485837
 10
1.3383654768
 20
23.4942347678
 10
1.3456137498
 20
23.4981707198
 10
1.3528870323
 20
23.5019521848
 10
1.3601483388
 20
23.5055583601
 10
1.367428266
 20
23.5090032902
 10
1.3748243365
 20
23.5123273296
  0
LINE
  5
375
100
AcDbEntity
  8
DRAFT
100
AcDbLine
 62
7
  6
CONTINUOUS
 10
5.7531838656
 20
26.1388644376
 11
3.9685480726
 21
25.1444015545
  0
LWPOLYLINE
  5
376
100
AcDbEntity
  8
ASSI
100
AcDbPolyline
 62
250
  6
CONTINUOUS
 90
10
 70
0
 10
-5.7023640024
 20
19.2701537668
 10
-5.7150737219
 20
19.263145171
 10
-5.7273861496
 20
19.2578486228
 10
-5.7392195165
 20
19.2541538545
 10
-5.7505264267
 20
19.2519514842
 10
-5.7612540087
 20
19.2510961156
 10
-5.7713393718
 20
19.2514183289
 10
-5.7807240327
 20
19.2527767164
 10
-5.7894626369
 20
19.2550456293
 10
-5.7976592488
 20
19.2581314239
  0
LWPOLYLINE
  5
377
100
AcDbEntity
  8
ASSI
100
AcDbPolyline
 62
250
  6
CONTINUOUS
 90
8
 70
0
 10
-1.3568704855
 20
22.0057717073
 10
-1.3542136911
 20
22.007226276
 10
-1.3404894659
 20
22.0125403675
 10
-1.3254280875
 20
22.0149767054
 10
-1.3092703889
 20
22.0144963324
 10
-1.2922747332
 20
22.0111069297
 10
-1.2747128829
 20
22.0048626941
 10
-1.2568656535
 20
21.9958634718
  0
LWPOLYLINE
  5
378
100
AcDbEntity
  8
ASSI
100
AcDbPolyline
 62
250
  6
CONTINUOUS
 90
9
 70
0
 10
0.354132195
 20
24.0742008728
 10
0.3630212882
 20
24.0789806848
 10
0.3774462116
 20
24.0841506365
 10
0.3930552917
 20
24.0868827829
 10
0.4096776953
 20
24.0871474827
 10
0.4271316164
 20
24.0849419712
 10
0.4452260028
 20
24.0802904353
 10
0.463762599
 20
24.0732438845
 10
0.4825384109
 20
24.0638795466
  0
LWPOLYLINE
  5
379
100
AcDbEntity
  8
ASSI
100
AcDbPolyline
 62
250
  6
CONTINUOUS
 90
37
 70
0
 10
0.5106425596
 20
22.2261482764
 10
0.5152060543
 20
22.228559115
 10
0.5198445541
 20
22.2308359105
 10
0.5245462675
 20
22.2329805557
 10
0.5292933324
 20
22.2349924476
 10
0.5340817189
 20
22.2368772569
 10
0.5389226743
 20
22.2386453265
 10
0.5438082806
 20
22.2402985212
 10
0.5487307071
 20
22.2418388911
 10
0.5537043783
 20
22.2432747656
 10
0.558723093
 20
22.2446071692
 10
0.5637807084
 20
22.2458371678
 10
0.5688942118
 20
22.2469709023
 10
0.5740588356
 20
22.2480085105
 10
0.5792696799
 20
22.2489501475
 10
0.5845454101
 20
22.2497997111
 10
0.5898816887
 20
22.2505563201
 10
0.5952747456
 20
22.2512191857
 10
0.6007454952
 20
22.2517899886
 10
0.6062828197
 20
22.2522662241
 10
0.6118903315
 20
22.2526467855
 10
0.6176124323
 20
22.2529317829
 10
0.623437481
 20
22.2531167072
 10
0.6293699607
 20
22.2531976864
 10
0.6354798023
 20
22.2531693574
 10
0.6417702426
 20
22.2530231471
 10
0.6482293991
 20
22.2527504673
 10
0.6549045146
 20
22.2523388039
 10
0.6618055731
 20
22.2517748236
 10
0.6689075768
 20
22.2510475927
 10
0.6762034149
 20
22.2501448095
 10
0.6836709539
 20
22.2490566128
 10
0.6913090091
 20
22.2477689279
 10
0.6991389075
 20
22.2462604584
 10
0.707154685
 20
22.2445136216
 10
0.7153227881
 20
22.2425178647
 10
0.7236184402
 20
22.240260192
  0
LWPOLYLINE
  5
37A
100
AcDbEntity
  8
ASSI
100
AcDbPolyline
 62
250
  6
CONTINUOUS
 90
19
 70
0
 10
-5.5590338613
 20
19.0411826811
 10
-5.5849719641
 20
19.0277507104
 10
-5.6096860487
 20
19.0171671985
 10
-5.6331761154
 20
19.0094321455
 10
-5.6555004693
 20
19.0048163037
 10
-5.6766008051
 20
19.0030489207
 10
-5.6963022069
 20
19.0033177389
 10
-5.7144656956
 20
19.0055484505
 10
-5.7312302502
 20
19.0098153633
 10
-5.7468378914
 20
19.0155291437
 10
-5.7612605807
 20
19.0225153644
 10
-5.7745263566
 20
19.0309484528
 10
-5.7869613557
 20
19.040762357
 10
-5.7986366785
 20
19.0517567854
 10
-5.8094812244
 20
19.0641320296
 10
-5.819607829
 20
19.0784229133
 10
-5.829054104
 20
19.0948077108
 10
-5.8377824376
 20
19.1131081478
 10
-5.8457928298
 20
19.1333242241
  0
LWPOLYLINE
  5
37B
100
AcDbEntity
  8
ASSI
100
AcDbPolyline
 62
250
  6
CONTINUOUS
 90
5
 70
0
 10
-1.4204144271
 20
21.9153446934
 10
-1.3821152578
 20
21.9316632291
 10
-1.3419236511
 20
21.9504663143
 10
-1.3001551431
 20
21.9718129627
 10
-1.2568656535
 20
21.9958634718
  0
LWPOLYLINE
  5
37C
100
AcDbEntity
  8
ASSI
100
AcDbPolyline
 62
250
  6
CONTINUOUS
 90
6
 70
0
 10
1.3748243365
 20
23.5123273296
 10
1.3823389827
 20
23.5155208883
 10
1.3899607206
 20
23.5185686922
 10
1.3977641734
 20
23.521487772
 10
1.4057691288
 20
23.5242672127
 10
1.4139414433
 20
23.526875621
  0
LWPOLYLINE
  5
37D
100
AcDbEntity
  8
ASSI
100
AcDbPolyline
 62
250
  6
CONTINUOUS
 90
6
 70
0
 10
1.2337973022
 20
23.5015113881
 10
1.2475215275
 20
23.5068254796
 10
1.2625829059
 20
23.5092618174
 10
1.2787406044
 20
23.5087814443
 10
1.29573626
 20
23.5053920416
 10
1.3132981103
 20
23.4991478061
  0
LINE
  5
37E
100
AcDbEntity
  8
DRAFT
100
AcDbLine
 62
7
  6
CONTINUOUS
 10
5.7917084343
 20
26.1532696531
 11
5.7531838656
 21
26.1388644376
  0
LWPOLYLINE
  5
37F
100
AcDbEntity
  8
ASSI
100
AcDbPolyline
 62
7
  6
CONTINUOUS
 90
5
 70
0
 10
1.3317323968
 20
23.5430173152
 10
1.3031617478
 20
23.5338352358
 10
1.2749603185
 20
23.5224430343
 10
1.2473325437
 20
23.5090037859
 10
1.2311036741
 20
23.5000355365
  0
LWPOLYLINE
  5
380
100
AcDbEntity
  8
ASSI
100
AcDbPolyline
 62
7
  6
CONTINUOUS
 90
5
 70
0
 10
-2.0119512315
 20
25.4746944953
 10
-2.0362279777
 20
25.4672357425
 10
-2.0629348889
 20
25.4571115451
 10
-2.0896503637
 20
25.4449609472
 10
-2.1119138163
 20
25.43326881
  0
LINE
  5
381
100
AcDbEntity
  8
ASSI
100
AcDbLine
 62
250
  6
CONTINUOUS
 10
1.4139414433
 20
23.526875621
 11
1.4222728753
 21
23.529291652
  0
LINE
  5
382
100
AcDbEntity
  8
CURVE
100
AcDbLine
 62
250
  6
CONTINUOUS
 10
-8.401119928
 20
-13.9963764054
 11
-11.1236500341
 21
-14.6257332837
  0
LINE
  5
383
100
AcDbEntity
  8
CURVE
100
AcDbLine
 62
250
  6
CONTINUOUS
 10
-11.1840638233
 20
-13.9917211476
 11
-8.4668928795
 21
-13.3637703402
  0
LWPOLYLINE
  5
384
100
AcDbEntity
  8
0
100
AcDbPolyline
 62
250
  6
CONTINUOUS
 90
8
 70
0
 10
-16.4091568797
 20
5.9063447699
 10
-16.4372874482
 20
5.9199617081
 10
-16.4648735598
 20
5.929193559
 10
-16.4914433912
 20
5.933882424
 10
-16.5165425011
 20
5.9339481067
 10
-16.5397416034
 20
5.9293894837
 10
-16.5606439087
 20
5.920284524
 10
-16.5632443389
 20
5.9187303614
  0
LWPOLYLINE
  5
385
100
AcDbEntity
  8
RACCORDO
100
AcDbPolyline
 62
250
  6
CONTINUOUS
 90
8
 70
0
 10
-16.4091568797
 20
5.9063447699
 10
-16.4372874482
 20
5.9199617081
 10
-16.4648735598
 20
5.929193559
 10
-16.4914433912
 20
5.933882424
 10
-16.5165425011
 20
5.9339481067
 10
-16.5397416034
 20
5.9293894837
 10
-16.5606439087
 20
5.920284524
 10
-16.5632443389
 20
5.9187303614
  0
LWPOLYLINE
  5
386
100
AcDbEntity
  8
0
100
AcDbPolyline
 62
250
  6
CONTINUOUS
 90
13
 70
0
 10
-6.4575303484
 20
-0.325192975
 10
-6.4282545846
 20
-0.3400312353
 10
-6.395885847
 20
-0.3525573872
 10
-6.3609677843
 20
-0.3625579971
 10
-6.3240851159
 20
-0.3698624111
 10
-6.2858619637
 20
-0.3743440043
 10
-6.246952155
 20
-0.3759245136
 10
-6.2079316037
 20
-0.3745706779
 10
-6.169544578
 20
-0.3702984513
 10
-6.1326802669
 20
-0.3632353636
 10
-6.0980001377
 20
-0.3535776195
 10
-6.0659508282
 20
-0.3415222773
 10
-6.0370008029
 20
-0.3273119325
  0
LWPOLYLINE
  5
387
100
AcDbEntity
  8
RACCORDO
100
AcDbPolyline
 62
250
  6
CONTINUOUS
 90
13
 70
0
 10
-6.4575303484
 20
-0.325192975
 10
-6.4282545846
 20
-0.3400312353
 10
-6.395885847
 20
-0.3525573872
 10
-6.3609677843
 20
-0.3625579971
 10
-6.3240851159
 20
-0.3698624111
 10
-6.2858619637
 20
-0.3743440043
 10
-6.246952155
 20
-0.3759245136
 10
-6.2079316037
 20
-0.3745706779
 10
-6.169544578
 20
-0.3702984513
 10
-6.1326802669
 20
-0.3632353636
 10
-6.0980001377
 20
-0.3535776195
 10
-6.0659508282
 20
-0.3415222773
 10
-6.0370008029
 20
-0.3273119325
  0
LWPOLYLINE
  5
388
100
AcDbEntity
  8
ASSI
100
AcDbPolyline
 62
250
  6
CONTINUOUS
 90
13
 70
0
 10
-16.8370469968
 20
6.2487353324
 10
-16.8180674931
 20
6.2390826839
 10
-16.7971301789
 20
6.2308904089
 10
-16.7745699751
 20
6.2242894438
 10
-16.750747752
 20
6.2193852717
 10
-16.7260444822
 20
6.2162562218
 10
-16.7008551389
 20
6.2149522389
 10
-16.6755825291
 20
6.2154940993
 10
-16.6506307321
 20
6.2178730635
 10
-16.6263985676
 20
6.2220510463
 10
-16.6032734216
 20
6.227961213
 10
-16.5816250446
 20
6.2355090199
 10
-16.1483577106
 20
6.4357418457
  0
LWPOLYLINE
  5
389
100
AcDbEntity
  8
RACCORDO
100
AcDbPolyline
 62
250
  6
CONTINUOUS
 90
13
 70
0
 10
-16.8370469968
 20
6.2487353324
 10
-16.8180674931
 20
6.2390826839
 10
-16.7971301789
 20
6.2308904089
 10
-16.7745699751
 20
6.2242894438
 10
-16.750747752
 20
6.2193852717
 10
-16.7260444822
 20
6.2162562218
 10
-16.7008551389
 20
6.2149522389
 10
-16.6755825291
 20
6.2154940993
 10
-16.6506307321
 20
6.2178730635
 10
-16.6263985676
 20
6.2220510463
 10
-16.6032734216
 20
6.227961213
 10
-16.5816250446
 20
6.2355090199
 10
-16.1483577106
 20
6.4357418457
  0
LINE
  5
38A
100
AcDbEntity
  8
RACCORDO
100
AcDbLine
 62
7
  6
CONTINUOUS
 10
1.10816993
 20
-2.1662537308
 11
1.1083837521
 21
-2.1663712655
  0
LINE
  5
38B
100
AcDbEntity
  8
RACCORDO
100
AcDbLine
 62
250
  6
CONTINUOUS
 10
0.1087634735
 20
-4.0038031512
 11
0.0841522732
 21
-3.9902541487
  0
LWPOLYLINE
  5
38C
100
AcDbEntity
  8
RACCORDO
100
AcDbPolyline
 62
7
  6
CONTINUOUS
 90
3
 70
0
 10
3.5480601926
 20
-5.4352780532
 10
3.6011635813
 20
-5.4649383186
 10
3.6602551191
 20
-5.4983718541
  0
LWPOLYLINE
  5
38D
100
AcDbEntity
  8
RACCORDO
100
AcDbPolyline
 62
250
  6
CONTINUOUS
 90
34
 70
0
 10
1.1083837521
 20
-2.1663712655
 10
1.1135144712
 20
-2.1692504533
 10
1.149278081
 20
-2.1927387213
 10
1.1810482055
 20
-2.2195890257
 10
1.2088030878
 20
-2.2490758864
 10
1.2328890058
 20
-2.2807821657
 10
1.253606367
 20
-2.3143524176
 10
1.2711213574
 20
-2.3492474623
 10
1.2857078564
 20
-2.3850937181
 10
1.2977441372
 20
-2.4219499803
 10
1.3073677356
 20
-2.4593530594
 10
1.3148111434
 20
-2.4971486354
 10
1.3203886582
 20
-2.5360889838
 10
1.3241481208
 20
-2.5759430295
 10
1.3261627271
 20
-2.6166350243
 10
1.3264898227
 20
-2.6593821918
 10
1.3250177364
 20
-2.7042337462
 10
1.3215975699
 20
-2.7510576015
 10
1.315925464
 20
-2.8009540639
 10
1.3076436409
 20
-2.8543007409
 10
1.2964990968
 20
-2.910642241
 10
1.2822078672
 20
-2.9698372892
 10
1.2642499788
 20
-3.0325324511
 10
1.2425607591
 20
-3.0977033018
 10
1.2179242342
 20
-3.1626101698
 10
1.1905693828
 20
-3.2268000355
 10
1.1606200473
 20
-3.2901584742
 10
1.1293179018
 20
-3.350526917
 10
1.0974272599
 20
-3.4071776049
 10
1.0649745883
 20
-3.4606115651
 10
1.0322918511
 20
-3.5106620322
 10
0.9999324172
 20
-3.5569220606
 10
0.9678837375
 20
-3.5998293077
 10
0.9355255655
 20
-3.6404508837
  0
LINE
  5
38E
100
AcDbEntity
  8
RACCORDO
100
AcDbLine
 62
7
  6
CONTINUOUS
 10
3.532450236
 20
-5.426417624
 11
3.5480601926
 21
-5.4352780532
  0
LINE
  5
38F
100
AcDbEntity
  8
RACCORDO
100
AcDbLine
 62
7
  6
CONTINUOUS
 10
3.6602551191
 20
-5.4983718541
 11
3.7218643168
 21
-5.5333501583
  0
LWPOLYLINE
  5
390
100
AcDbEntity
  8
RACCORDO
100
AcDbPolyline
 62
7
  6
CONTINUOUS
 90
6
 70
0
 10
3.7218643168
 20
-5.5333501583
 10
3.7418936385
 20
-5.5448675831
 10
3.7615162299
 20
-5.5560170414
 10
3.7805201273
 20
-5.5666791055
 10
3.798533732
 20
-5.5769586863
 10
3.8152498701
 20
-5.5868864115
  0
LINE
  5
391
100
AcDbEntity
  8
0
100
AcDbLine
 62
250
  6
CONTINUOUS
 10
-6.4575303484
 20
-0.325192975
 11
-16.6175866996
 21
5.5410962268
  0
LINE
  5
392
100
AcDbEntity
  8
RACCORDO
100
AcDbLine
 62
250
  6
CONTINUOUS
 10
-6.4575303484
 20
-0.325192975
 11
-16.6175866996
 21
5.5410962268
  0
LINE
  5
393
100
AcDbEntity
  8
ASSI
100
AcDbLine
 62
7
  6
CONTINUOUS
 10
-0.009217965
 20
-3.8833735927
 11
0.1070895869
 21
-3.9505281154
  0
LINE
  5
394
100
AcDbEntity
  8
0
100
AcDbLine
 62
250
  6
CONTINUOUS
 10
-6.2491005285
 20
0.0400555681
 11
-16.4091568797
 21
5.9063447699
  0
LINE
  5
395
100
AcDbEntity
  8
RACCORDO
100
AcDbLine
 62
250
  6
CONTINUOUS
 10
-6.2491005285
 20
0.0400555681
 11
-16.4091568797
 21
5.9063447699
  0
LINE
  5
396
100
AcDbEntity
  8
RACCORDO
100
AcDbLine
 62
7
  6
CONTINUOUS
 10
3.532450236
 20
-5.426417624
 11
2.868118509
 21
-5.0428380732
  0
LINE
  5
397
100
AcDbEntity
  8
ASSI
100
AcDbLine
 62
250
  6
CONTINUOUS
 10
-16.2721368241
 20
6.5748443448
 11
-6.0958734427
 21
0.6991974069
  0
LINE
  5
398
100
AcDbEntity
  8
RACCORDO
100
AcDbLine
 62
250
  6
CONTINUOUS
 10
-16.2721368241
 20
6.5748443448
 11
-6.0958734427
 21
0.6991974069
  0
LINE
  5
399
100
AcDbEntity
  8
DRAFT
100
AcDbLine
 62
7
  6
CONTINUOUS
 10
0.391976992
 20
-2.5005417429
 11
0.421837067
 21
-2.5177825759
  0
LINE
  5
39A
100
AcDbEntity
  8
DRAFT
100
AcDbLine
 62
7
  6
CONTINUOUS
 10
0.7326244902
 20
-2.2180283907
 11
0.8368101468
 21
-2.2781838831
  0
LINE
  5
39B
100
AcDbEntity
  8
DRAFT
100
AcDbLine
 62
7
  6
CONTINUOUS
 10
0.8269930247
 20
-2.1738090902
 11
0.8510610043
 21
-2.18770564
  0
LINE
  5
39C
100
AcDbEntity
  8
ASSI
100
AcDbLine
 62
7
  6
CONTINUOUS
 10
-16.2308774958
 20
6.4833880213
 11
-6.0543301828
 21
0.6075770444
  0
LINE
  5
39D
100
AcDbEntity
  8
RACCORDO
100
AcDbLine
 62
7
  6
CONTINUOUS
 10
-16.2308774958
 20
6.4833880213
 11
-6.0543301828
 21
0.6075770444
  0
LWPOLYLINE
  5
39E
100
AcDbEntity
  8
ASSI
100
AcDbPolyline
 62
7
  6
CONTINUOUS
 90
20
 70
0
 10
-6.0543301833
 20
0.6075770447
 10
-6.0364484519
 20
0.5968021529
 10
-6.0004348502
 20
0.5724695722
 10
-5.9629346664
 20
0.5434302977
 10
-5.9246404291
 20
0.5097997732
 10
-5.8865024384
 20
0.4721155008
 10
-5.8490527785
 20
0.4307224591
 10
-5.8126814805
 20
0.3858786166
 10
-5.7780006148
 20
0.3382129475
 10
-5.7454408741
 20
0.2882651599
 10
-5.7153143563
 20
0.2364759355
 10
-5.6879561343
 20
0.1834190992
 10
-5.6636004711
 20
0.1295836573
 10
-5.6425077139
 20
0.0756070095
 10
-5.6249240244
 20
0.0223260621
 10
-5.6108902067
 20
-0.0297844187
 10
-5.6004523772
 20
-0.0800831771
 10
-5.5936157184
 20
-0.1274808471
 10
-5.5901470844
 20
-0.1713160844
 10
-5.5895417557
 20
-0.1974556223
  0
LWPOLYLINE
  5
39F
100
AcDbEntity
  8
RACCORDO
100
AcDbPolyline
 62
7
  6
CONTINUOUS
 90
20
 70
0
 10
-6.0543301833
 20
0.6075770447
 10
-6.0364484519
 20
0.5968021529
 10
-6.0004348502
 20
0.5724695722
 10
-5.9629346664
 20
0.5434302977
 10
-5.9246404291
 20
0.5097997732
 10
-5.8865024384
 20
0.4721155008
 10
-5.8490527785
 20
0.4307224591
 10
-5.8126814805
 20
0.3858786166
 10
-5.7780006148
 20
0.3382129475
 10
-5.7454408741
 20
0.2882651599
 10
-5.7153143563
 20
0.2364759355
 10
-5.6879561343
 20
0.1834190992
 10
-5.6636004711
 20
0.1295836573
 10
-5.6425077139
 20
0.0756070095
 10
-5.6249240244
 20
0.0223260621
 10
-5.6108902067
 20
-0.0297844187
 10
-5.6004523772
 20
-0.0800831771
 10
-5.5936157184
 20
-0.1274808471
 10
-5.5901470844
 20
-0.1713160844
 10
-5.5895417557
 20
-0.1974556223
  0
LINE
  5
3A0
100
AcDbEntity
  8
RACCORDO
100
AcDbLine
 62
7
  6
CONTINUOUS
 10
0.0841522732
 20
-3.9902541487
 11
0.0837045823
 21
-3.98998319
  0
LWPOLYLINE
  5
3A1
100
AcDbEntity
  8
ASSI
100
AcDbPolyline
 62
250
  6
CONTINUOUS
 90
3
 70
0
 10
-6.0958734427
 20
0.6991974069
 10
-6.0460143692
 20
0.6676425711
 10
-5.9974980383
 20
0.6323045674
  0
LWPOLYLINE
  5
3A2
100
AcDbEntity
  8
RACCORDO
100
AcDbPolyline
 62
250
  6
CONTINUOUS
 90
3
 70
0
 10
-6.0958734427
 20
0.6991974069
 10
-6.0460143692
 20
0.6676425711
 10
-5.9974980383
 20
0.6323045674
  0
LINE
  5
3A3
100
AcDbEntity
  8
RACCORDO
100
AcDbLine
 62
7
  6
CONTINUOUS
 10
0.0842294268
 20
-3.9903426037
 11
0.0756555962
 21
-3.9848887427
  0
LWPOLYLINE
  5
3A4
100
AcDbEntity
  8
ASSI
100
AcDbPolyline
 62
250
  6
CONTINUOUS
 90
8
 70
0
 10
-5.53096327
 20
-0.2792557129
 10
-5.5476798285
 20
-0.2682981112
 10
-5.5618677458
 20
-0.2562100522
 10
-5.5733001558
 20
-0.2431848254
 10
-5.5817942529
 20
-0.2294307052
 10
-5.5872142158
 20
-0.2151676216
 10
-5.5894733787
 20
-0.2006236427
 10
-5.5895419137
 20
-0.1976007943
  0
LWPOLYLINE
  5
3A5
100
AcDbEntity
  8
RACCORDO
100
AcDbPolyline
 62
250
  6
CONTINUOUS
 90
8
 70
0
 10
-5.53096327
 20
-0.2792557129
 10
-5.5476798285
 20
-0.2682981112
 10
-5.5618677458
 20
-0.2562100522
 10
-5.5733001558
 20
-0.2431848254
 10
-5.5817942529
 20
-0.2294307052
 10
-5.5872142158
 20
-0.2151676216
 10
-5.5894733787
 20
-0.2006236427
 10
-5.5895419137
 20
-0.1976007943
  0
LWPOLYLINE
  5
3A6
100
AcDbEntity
  8
RACCORDO
100
AcDbPolyline
 62
7
  6
CONTINUOUS
 90
31
 70
0
 10
0.0756555962
 20
-3.9848887427
 10
0.0476810083
 20
-3.9626043397
 10
0.0227166361
 20
-3.9353096677
 10
-0.0001062109
 20
-3.901618463
 10
-0.0205115584
 20
-3.8607599282
 10
-0.0375885909
 20
-3.8134277196
 10
-0.0507886956
 20
-3.7604988919
 10
-0.0598369546
 20
-3.7029999675
 10
-0.0647086834
 20
-3.6416274571
 10
-0.0654406756
 20
-3.5766521683
 10
-0.0620209457
 20
-3.5087998346
 10
-0.0543986978
 20
-3.4386293943
 10
-0.042367115
 20
-3.3655972995
 10
-0.0256944379
 20
-3.2896563612
 10
-0.0044009637
 20
-3.2117858733
 10
0.021409396
 20
-3.1328063967
 10
0.0516188671
 20
-3.0533339809
 10
0.0860454784
 20
-2.9739496325
 10
0.1243167531
 20
-2.8954052076
 10
0.1660549469
 20
-2.8183156354
 10
0.2109704221
 20
-2.7431961824
 10
0.2587367461
 20
-2.6706165537
 10
0.309049918
 20
-2.6011062026
 10
0.3615495699
 20
-2.535204518
 10
0.4157547711
 20
-2.4734542095
 10
0.4712261394
 20
-2.41624906
 10
0.5274994376
 20
-2.3639363366
 10
0.5840015853
 20
-2.316859585
 10
0.6402121573
 20
-2.2752044367
 10
0.6956937434
 20
-2.2390096482
 10
0.7025017353
 20
-2.2349019764
  0
LWPOLYLINE
  5
3A7
100
AcDbEntity
  8
CURVE
100
AcDbPolyline
 62
250
  6
CONTINUOUS
 90
12
 70
0
 10
-8.4667762068
 20
8.2011344921
 10
-8.4547322124
 20
8.1863278482
 10
-8.4413551811
 20
8.1735401711
 10
-8.4273752075
 20
8.1635572771
 10
-8.4133439084
 20
8.1567730679
 10
-8.3998149259
 20
8.1534552324
 10
-8.3875294412
 20
8.1536986363
 10
-8.3765349171
 20
8.1575023392
 10
-8.367495106
 20
8.1647436404
 10
-8.3607666975
 20
8.1751368153
 10
-8.3566151788
 20
8.1882717736
 10
-8.355204341
 20
8.2036591473
  0
LINE
  5
3A8
100
AcDbEntity
  8
CURVE
100
AcDbLine
 62
250
  6
CONTINUOUS
 10
-8.4667762068
 20
8.2011344921
 11
-11.1839464435
 21
11.9668057887
  0
LINE
  5
3A9
100
AcDbEntity
  8
CURVE
100
AcDbLine
 62
250
  6
CONTINUOUS
 10
-11.1230454578
 20
12.5307722943
 11
-8.4005153517
 21
8.757505892
  0
LWPOLYLINE
  5
3AA
100
AcDbEntity
  8
RACCORDO
100
AcDbPolyline
 62
7
  6
CONTINUOUS
 90
3
 70
0
 10
-0.1177636767
 20
0.52016428
 10
-0.1178411662
 20
0.5202797918
 10
-0.1194273109
 20
0.5213365223
  0
LWPOLYLINE
  5
3AB
100
AcDbEntity
  8
ASSI
100
AcDbPolyline
 62
250
  6
CONTINUOUS
 90
7
 70
0
 10
-6.4448485608
 20
23.3616487769
 10
-6.4419003895
 20
23.3474318957
 10
-6.4363613848
 20
23.3315369202
 10
-6.4280615546
 20
23.3144238061
 10
-6.4170195268
 20
23.2965213264
 10
-6.4030011637
 20
23.2781407779
 10
-6.3855068294
 20
23.2595043598
  0
LWPOLYLINE
  5
3AC
100
AcDbEntity
  8
ASSI
100
AcDbPolyline
 62
250
  6
CONTINUOUS
 90
13
 70
0
 10
-5.9706740724
 20
19.506375754
 10
-5.9733282485
 20
19.5278816425
 10
-5.9781440666
 20
19.5500591603
 10
-5.9850453091
 20
19.5725669138
 10
-5.9939227175
 20
19.5950563973
 10
-6.0046387785
 20
19.6171853258
 10
-6.0170319919
 20
19.6386223075
 10
-6.0309313847
 20
19.6590644961
 10
-6.0461081278
 20
19.6781689975
 10
-6.0622694731
 20
19.6955829434
 10
-6.079138338
 20
19.71104191
 10
-6.0964713227
 20
19.7243552604
 10
-6.1140039635
 20
19.7353466954
  0
LWPOLYLINE
  5
3AD
100
AcDbEntity
  8
ASSI
100
AcDbPolyline
 62
250
  6
CONTINUOUS
 90
13
 70
0
 10
-5.5590338613
 20
19.0411826811
 10
-5.5616738874
 20
19.0626057384
 10
-5.566461487
 20
19.0847043099
 10
-5.5733235784
 20
19.1071410694
 10
-5.5821554141
 20
19.1295735293
 10
-5.5928221788
 20
19.151659267
 10
-5.6051610476
 20
19.1730611524
 10
-5.6189836719
 20
19.193452495
 10
-5.6340790545
 20
19.2125220304
 10
-5.6502167702
 20
19.2299786709
 10
-5.6671504831
 20
19.2455559495
 10
-5.6846217074
 20
19.2590160872
 10
-5.7023637524
 20
19.2701536224
  0
LINE
  5
3AE
100
AcDbEntity
  8
ASSI
100
AcDbLine
 62
250
  6
CONTINUOUS
 10
-1.6174676206
 20
19.861549226
 11
-1.6059064055
 21
19.7469460783
  0
LINE
  5
3AF
100
AcDbEntity
  8
ASSI
100
AcDbLine
 62
250
  6
CONTINUOUS
 10
-1.6294744973
 20
19.9833992513
 11
-1.6174676206
 21
19.861549226
  0
LINE
  5
3B0
100
AcDbEntity
  8
ASSI
100
AcDbLine
 62
250
  6
CONTINUOUS
 10
-1.6419337422
 20
20.1127684584
 11
-1.6294744973
 21
19.9833992513
  0
LWPOLYLINE
  5
3B1
100
AcDbEntity
  8
ASSI
100
AcDbPolyline
 62
250
  6
CONTINUOUS
 90
13
 70
0
 10
-4.0710515909
 20
23.4659912572
 10
-4.0731148372
 20
23.4876939894
 10
-4.0774034109
 20
23.5102168485
 10
-4.0838487036
 20
23.5331996694
 10
-4.0923476183
 20
23.5562749333
 10
-4.1027642277
 20
23.579073667
 10
-4.1149319543
 20
23.6012313415
 10
-4.1286562137
 20
23.6223936593
 10
-4.143717541
 20
23.642222253
 10
-4.1598751192
 20
23.6604001096
 10
-4.1768705947
 20
23.6766365893
 10
-4.1944322019
 20
23.6906720801
 10
-4.2122791341
 20
23.7022821754
  0
LWPOLYLINE
  5
3B2
100
AcDbEntity
  8
ASSI
100
AcDbPolyline
 62
250
  6
CONTINUOUS
 90
13
 70
0
 10
-1.4830405979
 20
24.9602763691
 10
-1.485103771
 20
24.9819785921
 10
-1.4893921964
 20
25.0045010215
 10
-1.4958373018
 20
25.0274835214
 10
-1.5043360292
 20
25.0505585994
 10
-1.5147524831
 20
25.0733572826
 10
-1.5269201034
 20
25.0955150179
 10
-1.5406443286
 20
25.1166775007
 10
-1.5557057071
 20
25.1365063408
 10
-1.5718634057
 20
25.1546844732
 10
-1.5888590613
 20
25.1709212276
 10
-1.6064209117
 20
25.1849569767
 10
-1.6242681411
 20
25.1965672874
  0
LINE
  5
3B3
100
AcDbEntity
  8
ASSI
100
AcDbLine
 62
250
  6
CONTINUOUS
 10
-1.6548950498
 20
20.2505925314
 11
-1.6419337422
 21
20.1127684584
  0
LINE
  5
3B4
100
AcDbEntity
  8
ASSI
100
AcDbLine
 62
250
  6
CONTINUOUS
 10
-1.6683596887
 20
20.397341618
 11
-1.6548950498
 21
20.2505925314
  0
LINE
  5
3B5
100
AcDbEntity
  8
ASSI
100
AcDbLine
 62
250
  6
CONTINUOUS
 10
-1.6823029825
 20
20.5531202514
 11
-1.6683596887
 21
20.397341618
  0
LWPOLYLINE
  5
3B6
100
AcDbEntity
  8
ASSI
100
AcDbPolyline
 62
250
  6
CONTINUOUS
 90
3
 70
0
 10
-1.7039740516
 20
20.8031796528
 10
-1.6966513387
 20
20.7176279162
 10
-1.6823029825
 20
20.5531202514
  0
LINE
  5
3B7
100
AcDbEntity
  8
ASSI
100
AcDbLine
 62
7
  6
CONTINUOUS
 10
-0.9176464805
 20
-1.9579608142
 11
-1.2264472243
 21
2.6126815196
  0
LINE
  5
3B8
100
AcDbEntity
  8
DRAFT
100
AcDbLine
 62
7
  6
CONTINUOUS
 10
-0.9176464805
 20
-1.9579608142
 11
-1.2264472243
 21
2.6126815196
  0
LINE
  5
3B9
100
AcDbEntity
  8
ASSI
100
AcDbLine
 62
250
  6
CONTINUOUS
 10
-3.0521673708
 20
15.7657944638
 11
-3.0550427937
 21
15.8090363458
  0
LINE
  5
3BA
100
AcDbEntity
  8
RACCORDO
100
AcDbLine
 62
250
  6
CONTINUOUS
 10
-3.0521673708
 20
15.7657944638
 11
-3.0550427937
 21
15.8090363458
  0
LWPOLYLINE
  5
3BB
100
AcDbEntity
  8
ASSI
100
AcDbPolyline
 62
250
  6
CONTINUOUS
 90
13
 70
0
 10
-1.1727545256
 20
-20.1429903098
 10
-1.171065172
 20
-20.1759552289
 10
-1.1667739403
 20
-20.2061393897
 10
-1.1598808303
 20
-20.2335427923
 10
-1.1503168249
 20
-20.2582772882
 10
-1.1381509413
 20
-20.2802310257
 10
-1.1235902311
 20
-20.2990684505
 10
-1.1065722724
 20
-20.3148786838
 10
-1.087159487
 20
-20.3275726043
 10
-1.0657461921
 20
-20.3365472933
 10
-1.0424638267
 20
-20.3416017777
 10
-1.0171809518
 20
-20.3429370307
 10
-0.9898975673
 20
-20.3405530521
  0
LWPOLYLINE
  5
3BC
100
AcDbEntity
  8
ASSI
100
AcDbPolyline
 62
250
  6
CONTINUOUS
 90
13
 70
0
 10
-1.0547065053
 20
21.2591034869
 10
-1.0552773359
 20
21.2703103647
 10
-1.0561072447
 20
21.2810349398
 10
-1.0571962319
 20
21.2912772123
 10
-1.0585680292
 20
21.301024654
 10
-1.0601989048
 20
21.3102897931
 10
-1.0620176629
 20
21.3191102142
 10
-1.0640220533
 20
21.3274871446
 10
-1.0662143263
 20
21.335419357
 10
-1.068530037
 20
21.3429407538
 10
-1.070947704
 20
21.3500626356
 10
-1.0734888089
 20
21.3567737018
 10
-1.0761533515
 20
21.3630739523
  0
LWPOLYLINE
  5
3BD
100
AcDbEntity
  8
ASSI
100
AcDbPolyline
 62
250
  6
CONTINUOUS
 90
5
 70
0
 10
-3.5345994802
 20
24.7784708817
 10
-3.5338856094
 20
24.7630495426
 10
-3.5290895167
 20
24.7357301519
 10
-3.5198197169
 20
24.7087973615
 10
-3.5061600367
 20
24.6824948395
  0
LWPOLYLINE
  5
3BE
100
AcDbEntity
  8
ASSI
100
AcDbPolyline
 62
250
  6
CONTINUOUS
 90
13
 70
0
 10
-0.6864195951
 20
18.1116549971
 10
-0.6873421649
 20
18.1339281831
 10
-0.6907305052
 20
18.1572068526
 10
-0.6965281607
 20
18.1810900944
 10
-0.7046377976
 20
18.2051680992
 10
-0.7149207768
 20
18.229022912
 10
-0.7271976518
 20
18.2522359919
 10
-0.741287467
 20
18.274451194
 10
-0.7569220744
 20
18.2952335044
 10
-0.7737162858
 20
18.3141047512
 10
-0.7913208159
 20
18.3307452752
 10
-0.8094589241
 20
18.3449618592
 10
-0.8278194122
 20
18.3565666642
  0
LWPOLYLINE
  5
3BF
100
AcDbEntity
  8
ASSI
100
AcDbPolyline
 62
250
  6
CONTINUOUS
 90
15
 70
0
 10
-2.1535042876
 20
16.2846750072
 10
-2.1549410837
 20
16.3267713675
 10
-2.1598796335
 20
16.370024635
 10
-2.1681671632
 20
16.4139658615
 10
-2.1796961823
 20
16.4584020672
 10
-2.1942216542
 20
16.5026408165
 10
-2.2111836934
 20
16.5454928076
 10
-2.2301157452
 20
16.5864686734
 10
-2.2506995745
 20
16.6254354433
 10
-2.2723964334
 20
16.6618593373
 10
-2.2944694002
 20
16.6951086482
 10
-2.3168857908
 20
16.7256799652
 10
-2.3403093172
 20
16.7546885863
 10
-2.3645347915
 20
16.781927107
 10
-2.3894517943
 20
16.807339155
  0
LWPOLYLINE
  5
3C0
100
AcDbEntity
  8
RACCORDO
100
AcDbPolyline
 62
250
  6
CONTINUOUS
 90
15
 70
0
 10
-2.1535042876
 20
16.2846750072
 10
-2.1549410837
 20
16.3267713675
 10
-2.1598796335
 20
16.370024635
 10
-2.1681671632
 20
16.4139658615
 10
-2.1796961823
 20
16.4584020672
 10
-2.1942216542
 20
16.5026408165
 10
-2.2111836934
 20
16.5454928076
 10
-2.2301157452
 20
16.5864686734
 10
-2.2506995745
 20
16.6254354433
 10
-2.2723964334
 20
16.6618593373
 10
-2.2944694002
 20
16.6951086482
 10
-2.3168857908
 20
16.7256799652
 10
-2.3403093172
 20
16.7546885863
 10
-2.3645347915
 20
16.781927107
 10
-2.3894517943
 20
16.807339155
  0
LINE
  5
3C1
100
AcDbEntity
  8
ASSI
100
AcDbLine
 62
250
  6
CONTINUOUS
 10
-1.051408662
 20
21.1512419577
 11
-1.0547065053
 21
21.2591034869
  0
LINE
  5
3C2
100
AcDbEntity
  8
ASSI
100
AcDbLine
 62
250
  6
CONTINUOUS
 10
-1.0483499967
 20
21.0456250604
 11
-1.051408662
 21
21.1512419577
  0
LINE
  5
3C3
100
AcDbEntity
  8
ASSI
100
AcDbLine
 62
7
  6
CONTINUOUS
 10
-1.1163752136
 20
-20.0719652013
 11
-1.1166224878
 21
-20.0627565074
  0
LWPOLYLINE
  5
3C4
100
AcDbEntity
  8
ASSI
100
AcDbPolyline
 62
250
  6
CONTINUOUS
 90
11
 70
0
 10
-1.0303064728
 20
20.1198547125
 10
-1.0311650809
 20
20.2008620543
 10
-1.0322269553
 20
20.2845163979
 10
-1.0334920959
 20
20.3708177434
 10
-1.034953874
 20
20.4598386856
 10
-1.0366189184
 20
20.5515066296
 10
-1.0385071155
 20
20.6456037911
 10
-1.0406197523
 20
20.7421191035
 10
-1.0429555418
 20
20.8410636333
 10
-1.0455305094
 20
20.9422527951
 10
-1.0483499967
 20
21.0456250604
  0
LWPOLYLINE
  5
3C5
100
AcDbEntity
  8
ASSI
100
AcDbPolyline
 62
7
  6
CONTINUOUS
 90
17
 70
0
 10
-2.0985796522
 20
16.3639428374
 10
-2.0986100331
 20
16.3695379467
 10
-2.1009307195
 20
16.4124398257
 10
-2.106907175
 20
16.456263424
 10
-2.1164867118
 20
16.5005921752
 10
-2.1293769368
 20
16.5443980842
 10
-2.1452739629
 20
16.587254275
 10
-2.1641021623
 20
16.6292305474
 10
-2.1856317687
 20
16.6699523246
 10
-2.2097099818
 20
16.7091873367
 10
-2.2362227969
 20
16.7467165881
 10
-2.2649599972
 20
16.7821925166
 10
-2.2959953811
 20
16.8155549061
 10
-2.3291377376
 20
16.8463880488
 10
-2.3637811534
 20
16.8739951742
 10
-2.3996311802
 20
16.8981150646
 10
-2.4108503725
 20
16.9047887518
  0
LWPOLYLINE
  5
3C6
100
AcDbEntity
  8
RACCORDO
100
AcDbPolyline
 62
7
  6
CONTINUOUS
 90
17
 70
0
 10
-2.0985796522
 20
16.3639428374
 10
-2.0986100331
 20
16.3695379467
 10
-2.1009307195
 20
16.4124398257
 10
-2.106907175
 20
16.456263424
 10
-2.1164867118
 20
16.5005921752
 10
-2.1293769368
 20
16.5443980842
 10
-2.1452739629
 20
16.587254275
 10
-2.1641021623
 20
16.6292305474
 10
-2.1856317687
 20
16.6699523246
 10
-2.2097099818
 20
16.7091873367
 10
-2.2362227969
 20
16.7467165881
 10
-2.2649599972
 20
16.7821925166
 10
-2.2959953811
 20
16.8155549061
 10
-2.3291377376
 20
16.8463880488
 10
-2.3637811534
 20
16.8739951742
 10
-2.3996311802
 20
16.8981150646
 10
-2.4108503725
 20
16.9047887518
  0
LWPOLYLINE
  5
3C7
100
AcDbEntity
  8
ASSI
100
AcDbPolyline
 62
250
  6
CONTINUOUS
 90
16
 70
0
 10
-1.1793809787
 20
21.4082211101
 10
-1.1794164227
 20
21.4242169574
 10
-1.180417412
 20
21.440174937
 10
-1.1823774483
 20
21.4559929428
 10
-1.1852839015
 20
21.4715697404
 10
-1.1891180776
 20
21.4868057103
 10
-1.1938553571
 20
21.5016034771
 10
-1.1994653211
 20
21.5158682795
 10
-1.2059120354
 20
21.5295089751
 10
-1.2131543541
 20
21.5424386536
 10
-1.2211455647
 20
21.5545740275
 10
-1.229834843
 20
21.565838008
 10
-1.2391680991
 20
21.5761600643
 10
-1.2490864165
 20
21.5854740807
 10
-1.2595260673
 20
21.5937192793
 10
-1.2704203974
 20
21.6008422571
  0
LINE
  5
3C8
100
AcDbEntity
  8
ASSI
100
AcDbLine
 62
7
  6
CONTINUOUS
 10
-2.5702637728
 20
7.0508899838
 11
-2.5702637728
 21
2.5322667362
  0
LINE
  5
3C9
100
AcDbEntity
  8
DRAFT
100
AcDbLine
 62
7
  6
CONTINUOUS
 10
-2.5702637728
 20
7.0508899838
 11
-2.5702637728
 21
2.5322667362
  0
LINE
  5
3CA
100
AcDbEntity
  8
ASSI
100
AcDbLine
 62
7
  6
CONTINUOUS
 10
-2.5702637728
 20
-12.5443966592
 11
-2.5702637728
 21
-17.0630199068
  0
LINE
  5
3CB
100
AcDbEntity
  8
DRAFT
100
AcDbLine
 62
7
  6
CONTINUOUS
 10
-2.5702637728
 20
-12.5443966592
 11
-2.5702637728
 21
-17.0630199068
  0
LINE
  5
3CC
100
AcDbEntity
  8
ASSI
100
AcDbLine
 62
250
  6
CONTINUOUS
 10
-2.15350441
 20
-25.7896591951
 11
-2.15350441
 21
-16.8087689206
  0
LINE
  5
3CD
100
AcDbEntity
  8
RACCORDO
100
AcDbLine
 62
250
  6
CONTINUOUS
 10
-2.15350441
 20
-25.7896591951
 11
-2.15350441
 21
-16.8087689206
  0
LINE
  5
3CE
100
AcDbEntity
  8
ASSI
100
AcDbLine
 62
250
  6
CONTINUOUS
 10
-2.15350441
 20
7.3037846621
 11
-2.15350441
 21
16.2846749366
  0
LINE
  5
3CF
100
AcDbEntity
  8
RACCORDO
100
AcDbLine
 62
250
  6
CONTINUOUS
 10
-2.15350441
 20
7.3037846621
 11
-2.15350441
 21
16.2846749366
  0
LINE
  5
3D0
100
AcDbEntity
  8
ASSI
100
AcDbLine
 62
7
  6
CONTINUOUS
 10
-2.0985792842
 20
-25.7101697341
 11
-2.0985792842
 21
-16.7267758475
  0
LINE
  5
3D1
100
AcDbEntity
  8
RACCORDO
100
AcDbLine
 62
7
  6
CONTINUOUS
 10
-2.0985792842
 20
-25.7101697341
 11
-2.0985792842
 21
-16.7267758475
  0
LINE
  5
3D2
100
AcDbEntity
  8
ASSI
100
AcDbLine
 62
7
  6
CONTINUOUS
 10
-2.0985792842
 20
7.380770511
 11
-2.0985792842
 21
16.3641643879
  0
LINE
  5
3D3
100
AcDbEntity
  8
RACCORDO
100
AcDbLine
 62
7
  6
CONTINUOUS
 10
-2.0985792842
 20
7.380770511
 11
-2.0985792842
 21
16.3641643879
  0
LINE
  5
3D4
100
AcDbEntity
  8
ASSI
100
AcDbLine
 62
7
  6
CONTINUOUS
 10
-2.019391342
 20
2.8683356318
 11
-2.019391342
 21
2.1466343616
  0
LINE
  5
3D5
100
AcDbEntity
  8
DRAFT
100
AcDbLine
 62
7
  6
CONTINUOUS
 10
-2.019391342
 20
2.8683356318
 11
-2.019391342
 21
2.1466343616
  0
LINE
  5
3D6
100
AcDbEntity
  8
ASSI
100
AcDbLine
 62
7
  6
CONTINUOUS
 10
-2.019391342
 20
-12.2101205311
 11
-2.019391342
 21
-11.4884192609
  0
LINE
  5
3D7
100
AcDbEntity
  8
DRAFT
100
AcDbLine
 62
7
  6
CONTINUOUS
 10
-2.019391342
 20
-12.2101205311
 11
-2.019391342
 21
-11.4884192609
  0
LINE
  5
3D8
100
AcDbEntity
  8
SMUSSO
100
AcDbLine
 62
7
  6
CONTINUOUS
 10
-2.0024635478
 20
26.5798899747
 11
-2.0024635478
 21
27.0264149084
  0
LINE
  5
3D9
100
AcDbEntity
  8
DRAFT
100
AcDbLine
 62
7
  6
CONTINUOUS
 10
-1.6334844374
 20
-17.4612079916
 11
-1.6334844374
 21
-11.2456312871
  0
LINE
  5
3DA
100
AcDbEntity
  8
DRAFT
100
AcDbLine
 62
7
  6
CONTINUOUS
 10
-1.6334844374
 20
2.847699705
 11
-1.6334844374
 21
10.6133645438
  0
LINE
  5
3DB
100
AcDbEntity
  8
SMUSSO
100
AcDbLine
 62
7
  6
CONTINUOUS
 10
-1.5313646537
 20
26.1973741421
 11
-1.5313646537
 21
26.1243276056
  0
LINE
  5
3DC
100
AcDbEntity
  8
DRAFT
100
AcDbLine
 62
250
  6
CONTINUOUS
 10
-1.5302830338
 20
26.4840006255
 11
-1.5302830338
 21
26.1973741421
  0
LINE
  5
3DD
100
AcDbEntity
  8
ASSI
100
AcDbLine
 62
250
  6
CONTINUOUS
 10
-1.1727545256
 20
-18.9282564791
 11
-1.1727545256
 21
-20.1429903098
  0
LINE
  5
3DE
100
AcDbEntity
  8
ASSI
100
AcDbLine
 62
250
  6
CONTINUOUS
 10
-1.1727545256
 20
15.7267764091
 11
-1.1727545256
 21
17.0148637139
  0
LINE
  5
3DF
100
AcDbEntity
  8
DRAFT
100
AcDbLine
 62
7
  6
CONTINUOUS
 10
-1.1430888406
 20
26.2996685637
 11
-1.1430888406
 21
25.9699130617
  0
LINE
  5
3E0
100
AcDbEntity
  8
ASSI
100
AcDbLine
 62
7
  6
CONTINUOUS
 10
-1.1166224856
 20
-18.8942264081
 11
-1.1166224856
 21
-20.0627735243
  0
LINE
  5
3E1
100
AcDbEntity
  8
ASSI
100
AcDbLine
 62
7
  6
CONTINUOUS
 10
-1.1166224856
 20
15.8471379382
 11
-1.1166224856
 21
17.0950816073
  0
LINE
  5
3E2
100
AcDbEntity
  8
ASSI
100
AcDbLine
 62
7
  6
CONTINUOUS
 10
-1.0850305788
 20
21.0835858121
 11
-1.0850305788
 21
20.0148151253
  0
LINE
  5
3E3
100
AcDbEntity
  8
ASSI
100
AcDbLine
 62
7
  6
CONTINUOUS
 10
-0.9176464805
 20
-1.9579608142
 11
-0.9176464805
 21
-6.0431340377
  0
LINE
  5
3E4
100
AcDbEntity
  8
DRAFT
100
AcDbLine
 62
7
  6
CONTINUOUS
 10
-0.9176464805
 20
-1.9579608142
 11
-0.9176464805
 21
-6.0431340377
  0
LINE
  5
3E5
100
AcDbEntity
  8
ASSI
100
AcDbLine
 62
250
  6
CONTINUOUS
 10
-0.6864195951
 20
-20.2889092649
 11
-0.6864195951
 21
-20.6582202545
  0
LINE
  5
3E6
100
AcDbEntity
  8
ASSI
100
AcDbLine
 62
250
  6
CONTINUOUS
 10
-0.6864195951
 20
17.7423440076
 11
-0.6864195951
 21
18.1116549971
  0
LINE
  5
3E7
100
AcDbEntity
  8
DRAFT
100
AcDbLine
 62
7
  6
CONTINUOUS
 10
-0.6481140937
 20
10.4456822856
 11
-0.6481140937
 21
-18.431406707
  0
LINE
  5
3E8
100
AcDbEntity
  8
ASSI
100
AcDbLine
 62
7
  6
CONTINUOUS
 10
-0.6302875552
 20
-20.2086918575
 11
-0.6302875552
 21
-20.5780028471
  0
LINE
  5
3E9
100
AcDbEntity
  8
ASSI
100
AcDbLine
 62
7
  6
CONTINUOUS
 10
-0.6302875552
 20
17.822561415
 11
-0.6302875552
 21
18.1918724045
  0
LINE
  5
3EA
100
AcDbEntity
  8
DRAFT
100
AcDbLine
 62
7
  6
CONTINUOUS
 10
-0.4149500237
 20
19.2076701613
 11
-0.4149500237
 21
18.8401128571
  0
LINE
  5
3EB
100
AcDbEntity
  8
RACCORDO
100
AcDbLine
 62
250
  6
CONTINUOUS
 10
-0.173895716
 20
-7.9720054331
 11
-0.173895716
 21
-6.7948790332
  0
LINE
  5
3EC
100
AcDbEntity
  8
RACCORDO
100
AcDbLine
 62
250
  6
CONTINUOUS
 10
-0.173895716
 20
-0.6237729419
 11
-0.173895716
 21
0.553353458
  0
LINE
  5
3ED
100
AcDbEntity
  8
RACCORDO
100
AcDbLine
 62
7
  6
CONTINUOUS
 10
-0.117763676
 20
-7.7783544433
 11
-0.117763676
 21
-6.8280952082
  0
LINE
  5
3EE
100
AcDbEntity
  8
RACCORDO
100
AcDbLine
 62
7
  6
CONTINUOUS
 10
-0.117763676
 20
-0.4301219521
 11
-0.117763676
 21
0.520137283
  0
LINE
  5
3EF
100
AcDbEntity
  8
0
100
AcDbLine
 62
7
  6
CONTINUOUS
 10
-0.0824286688
 20
-7.6751037041
 11
-0.0824286688
 21
-6.8586334273
  0
LINE
  5
3F0
100
AcDbEntity
  8
0
100
AcDbLine
 62
7
  6
CONTINUOUS
 10
-0.0824286688
 20
-0.3105418074
 11
-0.0824286688
 21
0.5059284693
  0
LWPOLYLINE
  5
3F1
100
AcDbEntity
  8
RACCORDO
100
AcDbPolyline
 62
7
  6
CONTINUOUS
 90
9
 70
0
 10
-0.1178045211
 20
-0.4301138195
 10
-0.1178554355
 20
-0.4350309628
 10
-0.1192838944
 20
-0.4596505502
 10
-0.1228454413
 20
-0.4853006638
 10
-0.1286337785
 20
-0.5118558474
 10
-0.1365066128
 20
-0.5392088611
 10
-0.146536851
 20
-0.5671654934
 10
-0.1589569189
 20
-0.5954436668
 10
-0.173895716
 20
-0.6237729419
  0
LWPOLYLINE
  5
3F2
100
AcDbEntity
  8
RACCORDO
100
AcDbPolyline
 62
7
  6
CONTINUOUS
 90
9
 70
0
 10
-0.1178045211
 20
-7.7783463106
 10
-0.1178554355
 20
-7.7832634539
 10
-0.1192838944
 20
-7.8078830413
 10
-0.1228454413
 20
-7.833533155
 10
-0.1286337785
 20
-7.8600883385
 10
-0.1365066128
 20
-7.8874413522
 10
-0.146536851
 20
-7.9153979846
 10
-0.1589569189
 20
-7.9436761579
 10
-0.173895716
 20
-7.9720054331
  0
LWPOLYLINE
  5
3F3
100
AcDbEntity
  8
ASSI
100
AcDbPolyline
 62
7
  6
CONTINUOUS
 90
19
 70
0
 10
-1.0850970923
 20
20.0148164906
 10
-1.0852158993
 20
20.008661519
 10
-1.0883555355
 20
19.9828662801
 10
-1.0957608909
 20
19.9576204238
 10
-1.1075693461
 20
19.9327006105
 10
-1.1236435206
 20
19.9083301798
 10
-1.1435712725
 20
19.8851791504
 10
-1.1674549835
 20
19.863292038
 10
-1.1951922718
 20
19.842624327
 10
-1.2260638512
 20
19.823712489
 10
-1.2601516792
 20
19.8066023712
 10
-1.2973737982
 20
19.7912481264
 10
-1.3367650487
 20
19.7780486844
 10
-1.3784048791
 20
19.7670612639
 10
-1.422213841
 20
19.7582286463
 10
-1.4669884302
 20
19.7517781055
 10
-1.5123274785
 20
19.7477853995
 10
-1.558632154
 20
19.7461747702
 10
-1.625427857
 20
19.7472333354
  0
LWPOLYLINE
  5
3F4
100
AcDbEntity
  8
ASSI
100
AcDbPolyline
 62
250
  6
CONTINUOUS
 90
20
 70
0
 10
-1.0850305788
 20
21.0835858121
 10
-1.0851605436
 20
21.0770039019
 10
-1.0887557645
 20
21.0484110724
 10
-1.0972447734
 20
21.0201650931
 10
-1.1105438588
 20
20.9925445094
 10
-1.1285218744
 20
20.9658216927
 10
-1.1510015392
 20
20.9402601537
 10
-1.1777611811
 20
20.9161119544
 10
-1.2085369226
 20
20.8936152211
 10
-1.2430252826
 20
20.872991795
 10
-1.2808861719
 20
20.8544450439
 10
-1.3217462453
 20
20.8381578576
 10
-1.3652025785
 20
20.8242908459
 10
-1.4108266414
 20
20.8129807537
 10
-1.458168527
 20
20.8043391104
 10
-1.5067614003
 20
20.7984511295
 10
-1.556126098
 20
20.7953748716
 10
-1.6057758372
 20
20.7951406734
 10
-1.6552210156
 20
20.7977508463
 10
-1.7039740516
 20
20.8031796528
  0
LWPOLYLINE
  5
3F5
100
AcDbEntity
  8
ASSI
100
AcDbPolyline
 62
7
  6
CONTINUOUS
 90
9
 70
0
 10
-1.1166224857
 20
15.8471362238
 10
-1.1170619355
 20
15.8330230511
 10
-1.1194022538
 20
15.8127320124
 10
-1.1238016866
 20
15.7936666891
 10
-1.1302167644
 20
15.7760975769
 10
-1.1384819426
 20
15.7605018595
 10
-1.1484131556
 20
15.7470910207
 10
-1.1598904843
 20
15.7358257216
 10
-1.1727545256
 20
15.7267764091
  0
LWPOLYLINE
  5
3F6
100
AcDbEntity
  8
ASSI
100
AcDbPolyline
 62
7
  6
CONTINUOUS
 90
16
 70
0
 10
-1.1166224858
 20
17.095076973
 10
-1.1162150744
 20
17.107796448
 10
-1.1147959507
 20
17.1230135795
 10
-1.1121609452
 20
17.1401922937
 10
-1.1081236872
 20
17.1592161776
 10
-1.1025685358
 20
17.1797598518
 10
-1.0954945026
 20
17.2012904279
 10
-1.0868998537
 20
17.223493631
 10
-1.0768168383
 20
17.2460625448
 10
-1.0654268981
 20
17.268458238
 10
-1.0528557496
 20
17.290384583
 10
-1.0392913085
 20
17.3115121824
 10
-1.0251234228
 20
17.3313023056
 10
-1.0105858791
 20
17.3495453208
 10
-0.9959793727
 20
17.3660172957
 10
-0.9905645962
 20
17.371685792
  0
LINE
  5
3F7
100
AcDbEntity
  8
ASSI
100
AcDbLine
 62
7
  6
CONTINUOUS
 10
-1.5317136568
 20
26.1144013358
 11
-1.5313646537
 21
26.1243276056
  0
LWPOLYLINE
  5
3F8
100
AcDbEntity
  8
ASSI
100
AcDbPolyline
 62
250
  6
CONTINUOUS
 90
6
 70
0
 10
-1.1727545256
 20
17.0148637139
 10
-1.1711599513
 20
17.0490105027
 10
-1.167050196
 20
17.0835336874
 10
-1.1604252598
 20
17.1184332681
 10
-1.1513221893
 20
17.1537477735
 10
-1.1397039378
 20
17.1894386749
  0
LINE
  5
3F9
100
AcDbEntity
  8
ASSI
100
AcDbLine
 62
7
  6
CONTINUOUS
 10
-1.2264472243
 20
-10.9895494731
 11
-0.9176464805
 21
-6.0431340377
  0
LINE
  5
3FA
100
AcDbEntity
  8
DRAFT
100
AcDbLine
 62
7
  6
CONTINUOUS
 10
-1.2264472243
 20
-10.9895494731
 11
-0.9176464805
 21
-6.0431340377
  0
LWPOLYLINE
  5
3FB
100
AcDbEntity
  8
ASSI
100
AcDbPolyline
 62
250
  6
CONTINUOUS
 90
13
 70
0
 10
-1.4277579722
 20
24.9834122531
 10
-1.4251624178
 20
25.0070918363
 10
-1.4248720137
 20
25.0315618614
 10
-1.4268914145
 20
25.0564301308
 10
-1.431188254
 20
25.0812980639
 10
-1.4376936641
 20
25.1057670854
 10
-1.4463033781
 20
25.1294450135
 10
-1.4568794024
 20
25.151952346
 10
-1.4692522281
 20
25.1729283424
 10
-1.4832235473
 20
25.1920368059
 10
-1.4985694323
 20
25.208971472
 10
-1.5150439242
 20
25.2234609173
 10
-1.532382975
 20
25.2352729095
  0
LWPOLYLINE
  5
3FC
100
AcDbEntity
  8
ASSI
100
AcDbPolyline
 62
250
  6
CONTINUOUS
 90
8
 70
0
 10
1.341685757
 20
22.6769374737
 10
1.341969497
 20
22.6793044118
 10
1.3426122405
 20
22.6831621086
 10
1.3434184603
 20
22.6869489602
 10
1.3443820049
 20
22.6906675245
 10
1.3454944878
 20
22.6943106518
 10
1.346759394
 20
22.6979058163
 10
1.3481747878
 20
22.7014548334
  0
LWPOLYLINE
  5
3FD
100
AcDbEntity
  8
ASSI
100
AcDbPolyline
 62
250
  6
CONTINUOUS
 90
4
 70
0
 10
-1.1397039378
 20
17.1894386749
 10
-1.1254593653
 20
17.2253903858
 10
-1.1083558468
 20
17.262129524
 10
-1.0886260073
 20
17.2991294718
  0
LWPOLYLINE
  5
3FE
100
AcDbEntity
  8
ASSI
100
AcDbPolyline
 62
250
  6
CONTINUOUS
 90
5
 70
0
 10
1.3449909316
 20
22.6717199342
 10
1.3484719374
 20
22.680472276
 10
1.3566111923
 20
22.6927937287
 10
1.3677296369
 20
22.7045913177
 10
1.3816473701
 20
22.7156734658
  0
LWPOLYLINE
  5
3FF
100
AcDbEntity
  8
ASSI
100
AcDbPolyline
 62
250
  6
CONTINUOUS
 90
12
 70
0
 10
1.3481747878
 20
22.7014548334
 10
1.3497355831
 20
22.7049511088
 10
1.3514463723
 20
22.7084085872
 10
1.3533054091
 20
22.7118248548
 10
1.3553107457
 20
22.7151971389
 10
1.357470548
 20
22.7185378973
 10
1.3597845781
 20
22.7218439694
 10
1.3622526039
 20
22.7251122921
 10
1.3648864887
 20
22.7283542043
 10
1.3676874831
 20
22.7315657416
 10
1.3706567076
 20
22.7347428721
 10
1.3738094322
 20
22.7378951726
  0
LWPOLYLINE
  5
400
100
AcDbEntity
  8
ASSI
100
AcDbPolyline
 62
250
  6
CONTINUOUS
 90
4
 70
0
 10
-1.0886260073
 20
17.2991294718
 10
-1.0668565819
 20
17.33469479
 10
-1.043243149
 20
17.3682603322
 10
-1.0175901302
 20
17.4003912448
  0
LINE
  5
401
100
AcDbEntity
  8
ASSI
100
AcDbLine
 62
250
  6
CONTINUOUS
 10
-1.0175901302
 20
17.4003912448
 11
-0.9898975256
 21
17.4310875279
  0
LINE
  5
402
100
AcDbEntity
  8
ASSI
100
AcDbLine
 62
250
  6
CONTINUOUS
 10
-0.9898975256
 20
17.4310875279
 11
-0.6864195951
 21
17.7423440076
  0
LINE
  5
403
100
AcDbEntity
  8
ASSI
100
AcDbLine
 62
7
  6
CONTINUOUS
 10
-0.9905667801
 20
17.3716835518
 11
-0.6870881856
 21
17.6829407125
  0
LINE
  5
404
100
AcDbEntity
  8
CURVE
100
AcDbLine
 62
7
  6
CONTINUOUS
 10
-9.5524208835
 20
9.7057075004
 11
-9.280716095
 21
9.9774122889
  0
LINE
  5
405
100
AcDbEntity
  8
CURVE
100
AcDbLine
 62
7
  6
CONTINUOUS
 10
-9.3763762097
 20
9.4617307462
 11
-9.1046759463
 21
9.7334310095
  0
LINE
  5
406
100
AcDbEntity
  8
CURVE
100
AcDbLine
 62
7
  6
CONTINUOUS
 10
-9.2003315359
 20
9.2177539919
 11
-8.9286357977
 21
9.4894497301
  0
LINE
  5
407
100
AcDbEntity
  8
CURVE
100
AcDbLine
 62
7
  6
CONTINUOUS
 10
-9.0242868621
 20
8.9737772377
 11
-8.752595649
 21
9.2454684508
  0
LINE
  5
408
100
AcDbEntity
  8
CURVE
100
AcDbLine
 62
7
  6
CONTINUOUS
 10
-8.8482421883
 20
8.7298004835
 11
-8.5765555004
 21
9.0014871714
  0
LINE
  5
409
100
AcDbEntity
  8
CURVE
100
AcDbLine
 62
7
  6
CONTINUOUS
 10
-8.6721975145
 20
8.4858237292
 11
-8.4005153517
 21
8.757505892
  0
LINE
  5
40A
100
AcDbEntity
  8
CURVE
100
AcDbLine
 62
7
  6
CONTINUOUS
 10
-8.4961528407
 20
8.241846975
 11
-8.3552046563
 21
8.3827951594
  0
LWPOLYLINE
  5
40B
100
AcDbEntity
  8
SMUSSO
100
AcDbPolyline
 62
7
  6
CONTINUOUS
 90
4
 70
0
 10
5.7400338329
 20
22.0027230846
 10
5.7860355277
 20
22.0380801941
 10
5.8730084052
 20
22.0984626342
 10
5.9650488468
 20
22.1562899362
  0
LWPOLYLINE
  5
40C
100
AcDbEntity
  8
ASSI
100
AcDbPolyline
 62
250
  6
CONTINUOUS
 90
7
 70
0
 10
-2.15350441
 20
16.2846749366
 10
-2.1370319027
 20
16.2960854326
 10
-2.1232326694
 20
16.308622344
 10
-2.1123349772
 20
16.3220781971
 10
-2.1045190659
 20
16.3362303392
 10
-2.0999141991
 20
16.3508445711
 10
-2.0985796522
 20
16.3639428374
  0
LWPOLYLINE
  5
40D
100
AcDbEntity
  8
RACCORDO
100
AcDbPolyline
 62
250
  6
CONTINUOUS
 90
7
 70
0
 10
-2.15350441
 20
16.2846749366
 10
-2.1370319027
 20
16.2960854326
 10
-2.1232326694
 20
16.308622344
 10
-2.1123349772
 20
16.3220781971
 10
-2.1045190659
 20
16.3362303392
 10
-2.0999141991
 20
16.3508445711
 10
-2.0985796522
 20
16.3639428374
  0
LWPOLYLINE
  5
40E
100
AcDbEntity
  8
ASSI
100
AcDbPolyline
 62
250
  6
CONTINUOUS
 90
7
 70
0
 10
-0.6864195951
 20
18.1116549971
 10
-0.6696243769
 20
18.1230994172
 10
-0.6555365566
 20
18.1357080392
 10
-0.6443963987
 20
18.1492688853
 10
-0.6363938994
 20
18.1635553883
 10
-0.6316686597
 20
18.1783248918
 10
-0.6302875595
 20
18.1918483131
  0
LWPOLYLINE
  5
40F
100
AcDbEntity
  8
ASSI
100
AcDbPolyline
 62
250
  6
CONTINUOUS
 90
7
 70
0
 10
-0.6864195951
 20
17.7423440076
 10
-0.6696360123
 20
17.7537793668
 10
-0.6555630804
 20
17.766369546
 10
-0.6444351463
 20
17.7799015761
 10
-0.6364374028
 20
17.7941452779
 10
-0.6316998862
 20
17.8088621416
 10
-0.6302875552
 20
17.822561415
  0
LWPOLYLINE
  5
410
100
AcDbEntity
  8
ASSI
100
AcDbPolyline
 62
250
  6
CONTINUOUS
 90
7
 70
0
 10
-1.1727545256
 20
17.014864199
 10
-1.1560242913
 20
17.0262580379
 10
-1.1419813061
 20
17.0388034801
 10
-1.1308605456
 20
17.0522906056
 10
-1.1228480883
 20
17.0664937377
 10
-1.1180780023
 20
17.081175219
 10
-1.1166224858
 20
17.0950769731
  0
LWPOLYLINE
  5
411
100
AcDbEntity
  8
ASSI
100
AcDbPolyline
 62
7
  6
CONTINUOUS
 90
6
 70
0
 10
1.435797446
 20
21.529093932
 10
1.4219232249
 20
21.520157346
 10
1.4099745071
 20
21.5106379693
 10
1.3999512926
 20
21.500535802
 10
1.3917744333
 20
21.4897386933
 10
1.3898431554
 20
21.4862230162
  0
LINE
  5
412
100
AcDbEntity
  8
ASSI
100
AcDbLine
 62
7
  6
CONTINUOUS
 10
0.0942353782
 20
19.1341121826
 11
0.3916982
 21
19.3256532344
  0
LINE
  5
413
100
AcDbEntity
  8
DRAFT
100
AcDbLine
 62
7
  6
CONTINUOUS
 10
-0.9937144956
 20
19.5418415138
 11
-1.8368598094
 21
19.0039984364
  0
LINE
  5
414
100
AcDbEntity
  8
DRAFT
100
AcDbLine
 62
7
  6
CONTINUOUS
 10
5.6787604855
 20
22.0346762941
 11
3.2725168246
 21
20.5428429038
  0
LINE
  5
415
100
AcDbEntity
  8
ASSI
100
AcDbLine
 62
7
  6
CONTINUOUS
 10
-1.030301693
 20
20.1198573574
 11
-1.0427839596
 21
20.1122113474
  0
LINE
  5
416
100
AcDbEntity
  8
0
100
AcDbLine
 62
7
  6
CONTINUOUS
 10
5.9650488468
 20
22.1562899362
 11
9.2807378736
 21
24.1387477826
  0
LWPOLYLINE
  5
417
100
AcDbEntity
  8
SMUSSO
100
AcDbPolyline
 62
7
  6
CONTINUOUS
 90
10
 70
0
 10
4.5424161758
 20
23.317498367
 10
4.5502533225
 20
23.3221461446
 10
4.5577067169
 20
23.3267396551
 10
4.564776359
 20
23.3312788985
 10
4.5713920457
 20
23.3357242599
 10
4.5776239801
 20
23.3401153542
 10
4.5836827717
 20
23.3445710257
 10
4.5896386237
 20
23.3491308892
 10
4.5954213329
 20
23.3537553301
 10
4.6010308992
 20
23.3584443481
  0
LINE
  5
418
100
AcDbEntity
  8
0
100
AcDbLine
 62
7
  6
CONTINUOUS
 10
-1.3022827111
 20
18.6953403196
 11
-0.4149500237
 21
19.2076701613
  0
LINE
  5
419
100
AcDbEntity
  8
ASSI
100
AcDbLine
 62
7
  6
CONTINUOUS
 10
-0.9839829955
 20
18.5115580531
 11
0.0942353782
 21
19.1341121826
  0
LINE
  5
41A
100
AcDbEntity
  8
SMUSSO
100
AcDbLine
 62
7
  6
CONTINUOUS
 10
2.6752877779
 20
20.4362003811
 11
5.4646212282
 21
22.0467320867
  0
LINE
  5
41B
100
AcDbEntity
  8
ASSI
100
AcDbLine
 62
250
  6
CONTINUOUS
 10
-0.8278194122
 20
18.3565666642
 11
-2.8765264605
 21
17.1736648293
  0
LINE
  5
41C
100
AcDbEntity
  8
ASSI
100
AcDbLine
 62
250
  6
CONTINUOUS
 10
-0.6864195951
 20
18.1116549971
 11
-2.5937407337
 21
17.0103878947
  0
LINE
  5
41D
100
AcDbEntity
  8
ASSI
100
AcDbLine
 62
250
  6
CONTINUOUS
 10
-3.4055996075
 20
16.3779570541
 11
-2.5069366466
 21
16.8968375269
  0
LINE
  5
41E
100
AcDbEntity
  8
RACCORDO
100
AcDbLine
 62
250
  6
CONTINUOUS
 10
-3.4055996075
 20
16.3779570541
 11
-2.5069366466
 21
16.8968375269
  0
LINE
  5
41F
100
AcDbEntity
  8
DRAFT
100
AcDbLine
 62
7
  6
CONTINUOUS
 10
6.1048854459
 20
21.8366047359
 11
9.722613003
 21
23.9254424587
  0
LINE
  5
420
100
AcDbEntity
  8
ASSI
100
AcDbLine
 62
250
  6
CONTINUOUS
 10
-3.0521673708
 20
15.7657944638
 11
-2.15350441
 21
16.2846749366
  0
LINE
  5
421
100
AcDbEntity
  8
RACCORDO
100
AcDbLine
 62
250
  6
CONTINUOUS
 10
-3.0521673708
 20
15.7657944638
 11
-2.15350441
 21
16.2846749366
  0
LINE
  5
422
100
AcDbEntity
  8
ASSI
100
AcDbLine
 62
7
  6
CONTINUOUS
 10
4.5424161758
 20
23.317498367
 11
1.435797446
 21
21.529093932
  0
LINE
  5
423
100
AcDbEntity
  8
ASSI
100
AcDbLine
 62
7
  6
CONTINUOUS
 10
0.6466059579
 20
21.0747756843
 11
-0.5612674834
 21
20.3794324774
  0
LINE
  5
424
100
AcDbEntity
  8
DRAFT
100
AcDbLine
 62
250
  6
CONTINUOUS
 10
8.2251082541
 20
24.8616513314
 11
5.4928683328
 21
23.3116219171
  0
LINE
  5
425
100
AcDbEntity
  8
DRAFT
100
AcDbLine
 62
250
  6
CONTINUOUS
 10
9.2342535406
 20
24.2200144869
 11
9.2857684258
 21
24.2492394414
  0
LINE
  5
426
100
AcDbEntity
  8
ASSI
100
AcDbLine
 62
250
  6
CONTINUOUS
 10
1.8787128027
 20
18.9706184404
 11
3.5646572564
 21
19.9226895906
  0
LINE
  5
427
100
AcDbEntity
  8
DRAFT
100
AcDbLine
 62
7
  6
CONTINUOUS
 10
7.0401367223
 20
21.5826859128
 11
3.9580055802
 21
19.8429268353
  0
LWPOLYLINE
  5
428
100
AcDbEntity
  8
ASSI
100
AcDbPolyline
 62
7
  6
CONTINUOUS
 90
8
 70
0
 10
5.418489416
 20
22.3956256321
 10
5.4251089485
 20
22.399357342
 10
5.4316427765
 20
22.4019512368
 10
5.4380413902
 20
22.4034005389
 10
5.4442474883
 20
22.4037079137
 10
5.4502229951
 20
22.4028711112
 10
5.4559488914
 20
22.4008821695
 10
5.4587356354
 20
22.3994409128
  0
LINE
  5
429
100
AcDbEntity
  8
DRAFT
100
AcDbLine
 62
7
  6
CONTINUOUS
 10
6.8814023698
 20
21.6120145369
 11
7.2279646873
 21
21.8072065646
  0
LINE
  5
42A
100
AcDbEntity
  8
DRAFT
100
AcDbLine
 62
7
  6
CONTINUOUS
 10
5.5433865988
 20
22.8699970795
 11
8.5311799174
 21
24.5348843338
  0
LINE
  5
42B
100
AcDbEntity
  8
ASSI
100
AcDbLine
 62
7
  6
CONTINUOUS
 10
-0.5612674834
 20
20.3794324774
 11
-1.0303064728
 21
20.1198547125
  0
LINE
  5
42C
100
AcDbEntity
  8
ASSI
100
AcDbLine
 62
7
  6
CONTINUOUS
 10
-1.7602448245
 20
19.7158887939
 11
-4.5783529628
 21
18.1562781227
  0
LINE
  5
42D
100
AcDbEntity
  8
RACCORDO
100
AcDbLine
 62
7
  6
CONTINUOUS
 10
8.2138737114
 20
24.7180929603
 11
5.9008833671
 21
23.4519233587
  0
LINE
  5
42E
100
AcDbEntity
  8
ASSI
100
AcDbLine
 62
7
  6
CONTINUOUS
 10
-2.4337027256
 20
19.2391163029
 11
-4.5151462272
 21
18.1197833458
  0
LINE
  5
42F
100
AcDbEntity
  8
ASSI
100
AcDbLine
 62
250
  6
CONTINUOUS
 10
-2.3365093858
 20
19.2276653467
 11
-4.4580076384
 21
18.0867922408
  0
LINE
  5
430
100
AcDbEntity
  8
ASSI
100
AcDbLine
 62
250
  6
CONTINUOUS
 10
-0.7769051461
 20
17.5841160309
 11
1.8786530201
 21
18.9706529581
  0
LWPOLYLINE
  5
431
100
AcDbEntity
  8
RACCORDO
100
AcDbPolyline
 62
7
  6
CONTINUOUS
 90
6
 70
0
 10
5.9008833671
 20
23.4519233587
 10
5.8219319619
 20
23.4118368829
 10
5.7389695066
 20
23.3754045725
 10
5.6519960011
 20
23.3426264273
 10
5.5605316079
 20
23.3133743826
 10
5.4928683328
 20
23.2952332115
  0
LWPOLYLINE
  5
432
100
AcDbEntity
  8
ASSI
100
AcDbPolyline
 62
250
  6
CONTINUOUS
 90
7
 70
0
 10
-2.5069366466
 20
16.8968375269
 10
-2.4888202393
 20
16.9053985957
 10
-2.4710648275
 20
16.9110818012
 10
-2.4539641827
 20
16.9137931121
 10
-2.4378012431
 20
16.9134876686
 10
-2.4228434322
 20
16.9101705242
 10
-2.4108503725
 20
16.9047887518
  0
LWPOLYLINE
  5
433
100
AcDbEntity
  8
RACCORDO
100
AcDbPolyline
 62
250
  6
CONTINUOUS
 90
7
 70
0
 10
-2.5069366466
 20
16.8968375269
 10
-2.4888202393
 20
16.9053985957
 10
-2.4710648275
 20
16.9110818012
 10
-2.4539641827
 20
16.9137931121
 10
-2.4378012431
 20
16.9134876686
 10
-2.4228434322
 20
16.9101705242
 10
-2.4108503725
 20
16.9047887518
  0
LINE
  5
434
100
AcDbEntity
  8
ASSI
100
AcDbLine
 62
250
  6
CONTINUOUS
 10
-1.4482727612
 20
21.0791841976
 11
-1.4725082665
 21
21.0684260942
  0
LWPOLYLINE
  5
435
100
AcDbEntity
  8
ASSI
100
AcDbPolyline
 62
250
  6
CONTINUOUS
 90
42
 70
0
 10
-1.4725082665
 20
21.0684260942
 10
-1.4973710751
 20
21.0575501983
 10
-1.510106461
 20
21.0518465629
 10
-1.5232404833
 20
21.0458139358
 10
-1.5366895025
 20
21.0394805641
 10
-1.5500617904
 20
21.0328456734
 10
-1.56338319
 20
21.0257266835
 10
-1.5766399969
 20
21.0181796308
 10
-1.5892545948
 20
21.0105383477
 10
-1.6008893249
 20
21.0027792827
 10
-1.611688195
 20
20.9948160309
 10
-1.6217025746
 20
20.9869205751
 10
-1.6307472589
 20
20.9791716033
 10
-1.6388300667
 20
20.9714554667
 10
-1.6463096382
 20
20.963798608
 10
-1.6532023113
 20
20.9562010101
 10
-1.6593984459
 20
20.9486595227
 10
-1.6651013882
 20
20.9412168122
 10
-1.6703131137
 20
20.9338775778
 10
-1.6749771121
 20
20.9266439189
 10
-1.6792264183
 20
20.9195631741
 10
-1.683056854
 20
20.9126536501
 10
-1.6864428711
 20
20.9059049169
 10
-1.6894957028
 20
20.8993244641
 10
-1.6922195541
 20
20.892923504
 10
-1.694596323
 20
20.8866964558
 10
-1.6967092887
 20
20.8806271063
 10
-1.6985648694
 20
20.8747220975
 10
-1.7001510833
 20
20.8689783246
 10
-1.7015257629
 20
20.8633663081
 10
-1.7026951755
 20
20.8578914943
 10
-1.7036512331
 20
20.8525511715
 10
-1.7044303357
 20
20.8473055466
 10
-1.70503825
 20
20.8421530925
 10
-1.7054683403
 20
20.8370991811
 10
-1.7057376779
 20
20.8321165702
 10
-1.7058518897
 20
20.8272235422
 10
-1.7058051988
 20
20.8224065338
 10
-1.7055956595
 20
20.8175946631
 10
-1.7052210574
 20
20.8127696954
 10
-1.7046808042
 20
20.807962561
 10
-1.7039740507
 20
20.8031796551
  0
LWPOLYLINE
  5
436
100
AcDbEntity
  8
ASSI
100
AcDbPolyline
 62
250
  6
CONTINUOUS
 90
13
 70
0
 10
4.5116544379
 20
23.7412489906
 10
4.5186544486
 20
23.7440745478
 10
4.525554393
 20
23.746997006
 10
4.5323483125
 20
23.7500159746
 10
4.5390018692
 20
23.7531162816
 10
4.5455386696
 20
23.7563115149
 10
4.5520332123
 20
23.7596466463
 10
4.5584771988
 20
23.7631248116
 10
4.5648523872
 20
23.7667457842
 10
4.5712055061
 20
23.7705534078
 10
4.5775354832
 20
23.7745647762
 10
4.5837999217
 20
23.778768123
 10
4.5899763672
 20
23.7831653458
  0
LINE
  5
437
100
AcDbEntity
  8
ASSI
100
AcDbLine
 62
250
  6
CONTINUOUS
 10
-1.478323362
 20
21.3539831427
 11
-1.5057613878
 21
21.3447083801
  0
LWPOLYLINE
  5
438
100
AcDbEntity
  8
RACCORDO
100
AcDbPolyline
 62
250
  6
CONTINUOUS
 90
3
 70
0
 10
0.3319838146
 20
-4.0376250154
 10
0.2826738452
 20
-4.0413100755
 10
0.2349656833
 20
-4.0395265886
  0
LWPOLYLINE
  5
439
100
AcDbEntity
  8
RACCORDO
100
AcDbPolyline
 62
250
  6
CONTINUOUS
 90
4
 70
0
 10
0.2349656833
 20
-4.0395265886
 10
0.1895199948
 20
-4.0323436125
 10
0.1473922231
 20
-4.0202390526
 10
0.1087634735
 20
-4.0038031512
  0
LINE
  5
43A
100
AcDbEntity
  8
DRAFT
100
AcDbLine
 62
7
  6
CONTINUOUS
 10
-0.0824286688
 20
-0.3105418074
 11
-0.117763676
 21
-0.2901398171
  0
LINE
  5
43B
100
AcDbEntity
  8
DRAFT
100
AcDbLine
 62
7
  6
CONTINUOUS
 10
-0.1150818655
 20
0.5247820159
 11
-0.0824286688
 21
0.5059284693
  0
LINE
  5
43C
100
AcDbEntity
  8
ASSI
100
AcDbLine
 62
7
  6
CONTINUOUS
 10
-2.0894833632
 20
3.1109877698
 11
-1.2264472243
 21
2.6126815196
  0
LINE
  5
43D
100
AcDbEntity
  8
DRAFT
100
AcDbLine
 62
7
  6
CONTINUOUS
 10
-2.0894833632
 20
3.1109877698
 11
-1.2264472243
 21
2.6126815196
  0
LWPOLYLINE
  5
43E
100
AcDbEntity
  8
RACCORDO
100
AcDbPolyline
 62
7
  6
CONTINUOUS
 90
6
 70
0
 10
-0.1194273109
 20
0.5213365223
 10
-0.1288088268
 20
0.527113656
 10
-0.1367191885
 20
0.5317323467
 10
-0.1468877653
 20
0.5374773711
 10
-0.1592911837
 20
0.5446273228
 10
-0.173895716
 20
0.553353458
  0
LINE
  5
43F
100
AcDbEntity
  8
ASSI
100
AcDbLine
 62
7
  6
CONTINUOUS
 10
-2.019391342
 20
2.8683356318
 11
-2.5702637728
 21
3.2197376008
  0
LINE
  5
440
100
AcDbEntity
  8
DRAFT
100
AcDbLine
 62
7
  6
CONTINUOUS
 10
-2.019391342
 20
2.8683356318
 11
-2.5702637728
 21
3.2197376008
  0
LINE
  5
441
100
AcDbEntity
  8
ASSI
100
AcDbLine
 62
250
  6
CONTINUOUS
 10
-5.8457928298
 20
19.1333242241
 11
-5.9706740724
 21
19.506375754
  0
LINE
  5
442
100
AcDbEntity
  8
ASSI
100
AcDbLine
 62
7
  6
CONTINUOUS
 10
-5.7992543274
 20
19.2618627756
 11
-5.9243484049
 21
19.6355409785
  0
LINE
  5
443
100
AcDbEntity
  8
ASSI
100
AcDbLine
 62
250
  6
CONTINUOUS
 10
-5.7971660939
 20
19.2543064918
 11
-5.7994671624
 21
19.2624894487
  0
LWPOLYLINE
  5
444
100
AcDbEntity
  8
ASSI
100
AcDbPolyline
 62
250
  6
CONTINUOUS
 90
11
 70
0
 10
-3.0616543324
 20
15.8540972253
 10
-3.0719296129
 20
15.9004838361
 10
-3.085756155
 20
15.9476883998
 10
-3.1029826042
 20
15.9951941838
 10
-3.1234203885
 20
16.0424811584
 10
-3.1468457822
 20
16.0890316888
 10
-3.1730023555
 20
16.1343362023
 10
-3.2016037813
 20
16.1778987661
 10
-3.2323369696
 20
16.2192425155
 10
-3.2648654946
 20
16.2579148743
 10
-3.2988332772
 20
16.2934925093
  0
LWPOLYLINE
  5
445
100
AcDbEntity
  8
RACCORDO
100
AcDbPolyline
 62
250
  6
CONTINUOUS
 90
11
 70
0
 10
-3.0616543324
 20
15.8540972253
 10
-3.0719296129
 20
15.9004838361
 10
-3.085756155
 20
15.9476883998
 10
-3.1029826042
 20
15.9951941838
 10
-3.1234203885
 20
16.0424811584
 10
-3.1468457822
 20
16.0890316888
 10
-3.1730023555
 20
16.1343362023
 10
-3.2016037813
 20
16.1778987661
 10
-3.2323369696
 20
16.2192425155
 10
-3.2648654946
 20
16.2579148743
 10
-3.2988332772
 20
16.2934925093
  0
LINE
  5
446
100
AcDbEntity
  8
ASSI
100
AcDbLine
 62
250
  6
CONTINUOUS
 10
-3.0550427937
 20
15.8090363458
 11
-3.0616543324
 21
15.8540972253
  0
LINE
  5
447
100
AcDbEntity
  8
RACCORDO
100
AcDbLine
 62
250
  6
CONTINUOUS
 10
-3.0550427937
 20
15.8090363458
 11
-3.0616543324
 21
15.8540972253
  0
LINE
  5
448
100
AcDbEntity
  8
ASSI
100
AcDbLine
 62
250
  6
CONTINUOUS
 10
-1.776154891
 20
19.8290885222
 11
-1.7602448245
 21
19.7158887939
  0
LINE
  5
449
100
AcDbEntity
  8
ASSI
100
AcDbLine
 62
250
  6
CONTINUOUS
 10
-1.792668392
 20
19.9494069821
 11
-1.776154891
 21
19.8290885222
  0
LINE
  5
44A
100
AcDbEntity
  8
ASSI
100
AcDbLine
 62
250
  6
CONTINUOUS
 10
-1.8097999148
 20
20.0770882417
 11
-1.792668392
 21
19.9494069821
  0
LINE
  5
44B
100
AcDbEntity
  8
ASSI
100
AcDbLine
 62
250
  6
CONTINUOUS
 10
-1.8276095017
 20
20.2130199593
 11
-1.8097999148
 21
20.0770882417
  0
LWPOLYLINE
  5
44C
100
AcDbEntity
  8
ASSI
100
AcDbPolyline
 62
250
  6
CONTINUOUS
 90
13
 70
0
 10
-3.4499100161
 20
21.1915838753
 10
-3.4525562539
 20
21.2130433191
 10
-3.4573564017
 20
21.2351771892
 10
-3.4642361719
 20
21.2576463898
 10
-3.4730886668
 20
21.2801050166
 10
-3.4837782134
 20
21.3022113732
 10
-3.4961439608
 20
21.3236327887
 10
-3.5100085431
 20
21.3440564692
 10
-3.5251510155
 20
21.3631519973
 10
-3.5413052904
 20
21.3805917738
 10
-3.5582073953
 20
21.3961095623
 10
-3.5756074916
 20
21.4094938141
 10
-3.5932399072
 20
21.4205548167
  0
LWPOLYLINE
  5
44D
100
AcDbEntity
  8
ASSI
100
AcDbPolyline
 62
250
  6
CONTINUOUS
 90
13
 70
0
 10
-3.9495792867
 20
20.0036075232
 10
-3.9522193087
 20
20.0250305627
 10
-3.9570069016
 20
20.0471291183
 10
-3.9638689848
 20
20.0695658649
 10
-3.9727008116
 20
20.0919983152
 10
-3.9833675677
 20
20.1140840475
 10
-3.9957064299
 20
20.1354859324
 10
-4.0095290506
 20
20.1558772792
 10
-4.0246244333
 20
20.1749468228
 10
-4.0407621536
 20
20.1924034747
 10
-4.0576958759
 20
20.2079807666
 10
-4.0751671143
 20
20.2214409177
 10
-4.0929091777
 20
20.2325784646
  0
LWPOLYLINE
  5
44E
100
AcDbEntity
  8
ASSI
100
AcDbPolyline
 62
250
  6
CONTINUOUS
 90
13
 70
0
 10
-3.3135145901
 20
21.273145883
 10
-3.3161546122
 20
21.2945689224
 10
-3.3209422051
 20
21.316667478
 10
-3.3278042883
 20
21.3391042246
 10
-3.336636115
 20
21.361536675
 10
-3.3473028712
 20
21.3836224072
 10
-3.3596417334
 20
21.4050242921
 10
-3.373464354
 20
21.4254156389
 10
-3.3885597368
 20
21.4444851826
 10
-3.404697457
 20
21.4619418345
 10
-3.4216311794
 20
21.4775191264
 10
-3.4391024178
 20
21.4909792775
 10
-3.4568444812
 20
21.5021168244
  0
LWPOLYLINE
  5
44F
100
AcDbEntity
  8
ASSI
100
AcDbPolyline
 62
250
  6
CONTINUOUS
 90
13
 70
0
 10
-1.5057613878
 20
21.3447083801
 10
-1.50321154
 20
21.3239449307
 10
-1.498638395
 20
21.3025359721
 10
-1.4921076752
 20
21.2807891942
 10
-1.483713237
 20
21.259017142
 10
-1.4735757233
 20
21.237532726
 10
-1.46184083
 20
21.216644725
 10
-1.4486772102
 20
21.1966533441
 10
-1.4342740513
 20
21.1778459035
 10
-1.4188383585
 20
21.1604927103
 10
-1.4025919758
 20
21.144843169
 10
-1.3857683971
 20
21.1311221977
 10
-1.3686094133
 20
21.1195269977
  0
LWPOLYLINE
  5
450
100
AcDbEntity
  8
ASSI
100
AcDbPolyline
 62
250
  6
CONTINUOUS
 90
7
 70
0
 10
-1.8948813314
 20
20.7566940763
 10
-1.8848498055
 20
20.6726287128
 10
-1.8749562509
 20
20.5906888812
 10
-1.8652006678
 20
20.5108745812
 10
-1.8555743396
 20
20.433168654
 10
-1.8460859827
 20
20.3575882585
 10
-1.8276095017
 20
20.2130199593
  0
LINE
  5
451
100
AcDbEntity
  8
ASSI
100
AcDbLine
 62
250
  6
CONTINUOUS
 10
0.5106425728
 20
22.2261482819
 11
0.5237166306
 21
22.1064529726
  0
LINE
  5
452
100
AcDbEntity
  8
ASSI
100
AcDbLine
 62
250
  6
CONTINUOUS
 10
0.8086944397
 20
21.2299379111
 11
0.8200306714
 21
21.1066909929
  0
LINE
  5
453
100
AcDbEntity
  8
ASSI
100
AcDbLine
 62
250
  6
CONTINUOUS
 10
0.7969144189
 20
21.3608170385
 11
0.8086944397
 21
21.2299379111
  0
LINE
  5
454
100
AcDbEntity
  8
ASSI
100
AcDbLine
 62
250
  6
CONTINUOUS
 10
0.7846835939
 20
21.4996501493
 11
0.7969144189
 21
21.3608170385
  0
LINE
  5
455
100
AcDbEntity
  8
ASSI
100
AcDbLine
 62
250
  6
CONTINUOUS
 10
0.7719423
 20
21.6475638653
 11
0.7846835939
 21
21.4996501493
  0
LINE
  5
456
100
AcDbEntity
  8
ASSI
100
AcDbLine
 62
250
  6
CONTINUOUS
 10
0.7586921186
 20
21.8050391413
 11
0.7719423
 21
21.6475638653
  0
LINE
  5
457
100
AcDbEntity
  8
ASSI
100
AcDbLine
 62
250
  6
CONTINUOUS
 10
0.7449617853
 20
21.9721695466
 11
0.7586921186
 21
21.8050391413
  0
LWPOLYLINE
  5
458
100
AcDbEntity
  8
ASSI
100
AcDbPolyline
 62
250
  6
CONTINUOUS
 90
3
 70
0
 10
0.7236184835
 20
22.2402737335
 10
0.7308298292
 20
22.1485683894
 10
0.7449617853
 20
21.9721695466
  0
LWPOLYLINE
  5
459
100
AcDbEntity
  8
ASSI
100
AcDbPolyline
 62
250
  6
CONTINUOUS
 90
3
 70
0
 10
1.406796726
 20
22.5032422089
 10
1.4025918145
 20
22.6134520807
 10
1.3969093564
 20
22.7561198528
  0
LWPOLYLINE
  5
45A
100
AcDbEntity
  8
ASSI
100
AcDbPolyline
 62
250
  6
CONTINUOUS
 90
11
 70
0
 10
1.435793647
 20
21.5290917401
 10
1.433894568
 20
21.6151097206
 10
1.4317787443
 20
21.7037409765
 10
1.4294461758
 20
21.7949855075
 10
1.4269022079
 20
21.8889210744
 10
1.4241414953
 20
21.9854699165
 10
1.4211480019
 20
22.0843987523
 10
1.4179210677
 20
22.1856899515
 10
1.4144613526
 20
22.2893611443
 10
1.4107548005
 20
22.3952319402
 10
1.406796726
 20
22.5032422089
  0
LINE
  5
45B
100
AcDbEntity
  8
DRAFT
100
AcDbLine
 62
250
  6
CONTINUOUS
 10
0.3504418366
 20
19.8530229425
 11
0.3504418366
 21
19.2990876045
  0
LINE
  5
45C
100
AcDbEntity
  8
DRAFT
100
AcDbLine
 62
7
  6
CONTINUOUS
 10
0.5893227734
 20
26.2440791963
 11
0.5893227734
 21
26.1831187975
  0
LINE
  5
45D
100
AcDbEntity
  8
RACCORDO
100
AcDbLine
 62
250
  6
CONTINUOUS
 10
0.6758681882
 20
24.2731672372
 11
0.6758681882
 21
25.2096557889
  0
LINE
  5
45E
100
AcDbEntity
  8
DRAFT
100
AcDbLine
 62
7
  6
CONTINUOUS
 10
0.8368101468
 20
-3.829477409
 11
0.8368101468
 21
-2.2781838831
  0
LINE
  5
45F
100
AcDbEntity
  8
RACCORDO
100
AcDbLine
 62
250
  6
CONTINUOUS
 10
1.0995508178
 20
24.53450646
 11
1.0995508178
 21
25.2096557889
  0
LINE
  5
460
100
AcDbEntity
  8
ASSI
100
AcDbLine
 62
7
  6
CONTINUOUS
 10
1.3898431554
 20
22.5125468888
 11
1.3898431554
 21
21.3818252839
  0
LINE
  5
461
100
AcDbEntity
  8
RACCORDO
100
AcDbLine
 62
250
  6
CONTINUOUS
 10
2.3217343873
 20
1.8940620867
 11
2.3217343873
 21
1.0775918099
  0
LINE
  5
462
100
AcDbEntity
  8
RACCORDO
100
AcDbLine
 62
250
  6
CONTINUOUS
 10
2.3217343873
 20
-5.47049981
 11
2.3217343873
 21
-6.2869700868
  0
LINE
  5
463
100
AcDbEntity
  8
RACCORDO
100
AcDbLine
 62
7
  6
CONTINUOUS
 10
2.6146276061
 20
2.1538316431
 11
2.6146276061
 21
1.4858664032
  0
LINE
  5
464
100
AcDbEntity
  8
RACCORDO
100
AcDbLine
 62
7
  6
CONTINUOUS
 10
2.6146276061
 20
-5.194400848
 11
2.6146276061
 21
-5.8786954935
  0
LINE
  5
465
100
AcDbEntity
  8
ASSI
100
AcDbLine
 62
7
  6
CONTINUOUS
 10
3.1697747548
 20
20.3920364509
 11
3.1697747548
 21
20.150689798
  0
LINE
  5
466
100
AcDbEntity
  8
DRAFT
100
AcDbLine
 62
250
  6
CONTINUOUS
 10
3.2869320423
 20
20.2303962855
 11
3.2869320423
 21
20.0830446485
  0
LINE
  5
467
100
AcDbEntity
  8
RACCORDO
100
AcDbLine
 62
250
  6
CONTINUOUS
 10
3.532450236
 20
2.7025998356
 11
3.532450236
 21
1.9218148672
  0
LINE
  5
468
100
AcDbEntity
  8
RACCORDO
100
AcDbLine
 62
250
  6
CONTINUOUS
 10
3.532450236
 20
-4.6456326555
 11
3.532450236
 21
-5.426417624
  0
LWPOLYLINE
  5
469
100
AcDbEntity
  8
ASSI
100
AcDbPolyline
 62
250
  6
CONTINUOUS
 90
13
 70
0
 10
0.7236184596
 20
22.2402737409
 10
0.7241872896
 20
22.2625196246
 10
0.7258840469
 20
22.2862483417
 10
0.7286796993
 20
22.3110538874
 10
0.7325264123
 20
22.3365118314
 10
0.7373583676
 20
22.3621865818
 10
0.7430928893
 20
22.3876388379
 10
0.749631858
 20
22.412433104
 10
0.7568633904
 20
22.4361451441
 10
0.7646637543
 20
22.458369242
 10
0.7728994839
 20
22.4787251372
 10
0.7814296634
 20
22.4968645325
 10
0.790108339
 20
22.5124770562
  0
LWPOLYLINE
  5
46A
100
AcDbEntity
  8
RACCORDO
100
AcDbPolyline
 62
7
  6
CONTINUOUS
 90
9
 70
0
 10
2.6146276061
 20
1.4858664032
 10
2.6130583707
 20
1.4554311747
 10
2.6023159467
 20
1.3955431037
 10
2.5804805841
 20
1.3366694729
 10
2.5479027976
 20
1.2787782281
 10
2.5056341303
 20
1.2237379785
 10
2.4540250967
 20
1.1721715938
 10
2.3927251823
 20
1.1234562042
 10
2.3217343873
 20
1.0775918099
  0
LWPOLYLINE
  5
46B
100
AcDbEntity
  8
RACCORDO
100
AcDbPolyline
 62
7
  6
CONTINUOUS
 90
9
 70
0
 10
2.6146276061
 20
-5.8786954935
 10
2.6130583707
 20
-5.909130722
 10
2.6023159467
 20
-5.969018793
 10
2.5804805841
 20
-6.0278924238
 10
2.5479027976
 20
-6.0857836686
 10
2.5056341303
 20
-6.1408239182
 10
2.4540250967
 20
-6.1923903029
 10
2.3927251823
 20
-6.2411056924
 10
2.3217343873
 20
-6.2869700868
  0
LWPOLYLINE
  5
46C
100
AcDbEntity
  8
ASSI
100
AcDbPolyline
 62
7
  6
CONTINUOUS
 90
20
 70
0
 10
1.3898270201
 20
21.3818254388
 10
1.3875660444
 20
21.3548075526
 10
1.3812572108
 20
21.3297537982
 10
1.3709686676
 20
21.3049268123
 10
1.3569301341
 20
21.2809437587
 10
1.3390453581
 20
21.2578308999
 10
1.3174105917
 20
21.2355619734
 10
1.29254431
 20
21.2146753548
 10
1.264365964
 20
21.1952058711
 10
1.2329561028
 20
21.1771186953
 10
1.1990748487
 20
21.1608477225
 10
1.162665622
 20
21.146438949
 10
1.1237850023
 20
21.1338463785
 10
1.0833628513
 20
21.1233659167
 10
1.0413493806
 20
21.1150494675
 10
0.9977943784
 20
21.108845127
 10
0.9537770718
 20
21.1048930898
 10
0.9096572028
 20
21.1032400875
 10
0.8650750293
 20
21.1038393885
 10
0.8200305512
 20
21.1066909928
  0
LWPOLYLINE
  5
46D
100
AcDbEntity
  8
ASSI
100
AcDbPolyline
 62
250
  6
CONTINUOUS
 90
3
 70
0
 10
-0.6790258787
 20
-20.239127734
 10
-0.6814498001
 20
-20.2644916231
 10
-0.6864195951
 20
-20.2889092649
  0
LWPOLYLINE
  5
46E
100
AcDbEntity
  8
ASSI
100
AcDbPolyline
 62
250
  6
CONTINUOUS
 90
7
 70
0
 10
-0.6302875552
 20
-20.5780028471
 10
-0.6316686597
 20
-20.5915503598
 10
-0.6363938994
 20
-20.6063198633
 10
-0.6443963987
 20
-20.6206063663
 10
-0.6555365566
 20
-20.6341672124
 10
-0.6696243769
 20
-20.6467758344
 10
-0.6864195951
 20
-20.6582202545
  0
LWPOLYLINE
  5
46F
100
AcDbEntity
  8
ASSI
100
AcDbPolyline
 62
250
  6
CONTINUOUS
 90
7
 70
0
 10
-0.6302875552
 20
-20.2086918575
 10
-0.6316998862
 20
-20.2223911309
 10
-0.6364374028
 20
-20.2371079947
 10
-0.6444351463
 20
-20.2513516964
 10
-0.6555630804
 20
-20.2648837265
 10
-0.6696360123
 20
-20.2774739057
 10
-0.6864195951
 20
-20.2889092649
  0
LWPOLYLINE
  5
470
100
AcDbEntity
  8
ASSI
100
AcDbPolyline
 62
250
  6
CONTINUOUS
 90
6
 70
0
 10
-1.1166224856
 20
-20.0627735243
 10
-1.1180780354
 20
-20.0766800698
 10
-1.1228481523
 20
-20.0913615382
 10
-1.1308606284
 20
-20.1055646452
 10
-1.141981388
 20
-20.1190517352
 10
-1.1560243471
 20
-20.1315971356
  0
LINE
  5
471
100
AcDbEntity
  8
DRAFT
100
AcDbLine
 62
7
  6
CONTINUOUS
 10
0.8510610043
 20
-3.7318566184
 11
0.8368101468
 21
-3.829477409
  0
LINE
  5
472
100
AcDbEntity
  8
DRAFT
100
AcDbLine
 62
7
  6
CONTINUOUS
 10
0.8510610043
 20
-2.18770564
 11
0.8368101468
 21
-2.2781838831
  0
LWPOLYLINE
  5
473
100
AcDbEntity
  8
ASSI
100
AcDbPolyline
 62
250
  6
CONTINUOUS
 90
3
 70
0
 10
-3.0616543321
 20
-26.4672976994
 10
-3.0550427935
 20
-26.4280140125
 10
-3.0521673708
 20
-26.3859778184
  0
LWPOLYLINE
  5
474
100
AcDbEntity
  8
RACCORDO
100
AcDbPolyline
 62
250
  6
CONTINUOUS
 90
3
 70
0
 10
-3.0616543321
 20
-26.4672976994
 10
-3.0550427935
 20
-26.4280140125
 10
-3.0521673708
 20
-26.3859778184
  0
LWPOLYLINE
  5
475
100
AcDbEntity
  8
ASSI
100
AcDbPolyline
 62
250
  6
CONTINUOUS
 90
19
 70
0
 10
-5.548085661
 20
-8.423308954
 10
-5.561202768
 20
-8.4668102207
 10
-5.5779457621
 20
-8.5069963753
 10
-5.5978410365
 20
-8.5431312067
 10
-5.6212127142
 20
-8.575151026
 10
-5.6477366722
 20
-8.6031195221
 10
-5.6759669347
 20
-8.6264915511
 10
-5.7058448665
 20
-8.644827005
 10
-5.7374291029
 20
-8.6585659918
 10
-5.7694495741
 20
-8.6684836904
 10
-5.8013347233
 20
-8.6746130521
 10
-5.8336561072
 20
-8.6769211257
 10
-5.8668583268
 20
-8.6760842359
 10
-5.9007038396
 20
-8.6725726989
 10
-5.935430188
 20
-8.6659161986
 10
-5.9721945998
 20
-8.6553801113
 10
-6.0113828174
 20
-8.6407195624
 10
-6.0526090984
 20
-8.6221794265
 10
-6.0958734427
 20
-8.5997597036
  0
LWPOLYLINE
  5
476
100
AcDbEntity
  8
RACCORDO
100
AcDbPolyline
 62
250
  6
CONTINUOUS
 90
19
 70
0
 10
-5.548085661
 20
-8.423308954
 10
-5.561202768
 20
-8.4668102207
 10
-5.5779457621
 20
-8.5069963753
 10
-5.5978410365
 20
-8.5431312067
 10
-5.6212127142
 20
-8.575151026
 10
-5.6477366722
 20
-8.6031195221
 10
-5.6759669347
 20
-8.6264915511
 10
-5.7058448665
 20
-8.644827005
 10
-5.7374291029
 20
-8.6585659918
 10
-5.7694495741
 20
-8.6684836904
 10
-5.8013347233
 20
-8.6746130521
 10
-5.8336561072
 20
-8.6769211257
 10
-5.8668583268
 20
-8.6760842359
 10
-5.9007038396
 20
-8.6725726989
 10
-5.935430188
 20
-8.6659161986
 10
-5.9721945998
 20
-8.6553801113
 10
-6.0113828174
 20
-8.6407195624
 10
-6.0526090984
 20
-8.6221794265
 10
-6.0958734427
 20
-8.5997597036
  0
LINE
  5
477
100
AcDbEntity
  8
CURVE
100
AcDbLine
 62
7
  6
CONTINUOUS
 10
-13.7231893164
 20
-0.1474494175
 11
-13.4569126807
 21
0.1188272182
  0
LINE
  5
478
100
AcDbEntity
  8
CURVE
100
AcDbLine
 62
7
  6
CONTINUOUS
 10
-13.4837607216
 20
-0.3280422508
 11
-13.1906360449
 21
-0.034917574
  0
LINE
  5
479
100
AcDbEntity
  8
CURVE
100
AcDbLine
 62
7
  6
CONTINUOUS
 10
-13.2174840859
 20
-0.481787043
 11
-12.9243594091
 21
-0.1886623663
  0
LINE
  5
47A
100
AcDbEntity
  8
CURVE
100
AcDbLine
 62
7
  6
CONTINUOUS
 10
-12.9512074501
 20
-0.6355318353
 11
-12.6580827734
 21
-0.3424071585
  0
LINE
  5
47B
100
AcDbEntity
  8
CURVE
100
AcDbLine
 62
7
  6
CONTINUOUS
 10
-12.6849308143
 20
-0.7892766275
 11
-12.3918061376
 21
-0.4961519508
  0
LINE
  5
47C
100
AcDbEntity
  8
CURVE
100
AcDbLine
 62
7
  6
CONTINUOUS
 10
-12.4186541786
 20
-0.9430214198
 11
-12.1255295018
 21
-0.6498967431
  0
LINE
  5
47D
100
AcDbEntity
  8
CURVE
100
AcDbLine
 62
7
  6
CONTINUOUS
 10
-12.1523775428
 20
-1.0967662121
 11
-11.8592528661
 21
-0.8036415353
  0
LINE
  5
47E
100
AcDbEntity
  8
CURVE
100
AcDbLine
 62
7
  6
CONTINUOUS
 10
-11.886100907
 20
-1.2505110043
 11
-11.5929762303
 21
-0.9573863276
  0
LWPOLYLINE
  5
47F
100
AcDbEntity
  8
ASSI
100
AcDbPolyline
 62
7
  6
CONTINUOUS
 90
13
 70
0
 10
10.9644288132
 20
23.2804327752
 10
10.9636198331
 20
23.279916229
 10
10.9647800198
 20
23.2767029754
 10
10.9709047567
 20
23.2708190286
 10
10.9821068192
 20
23.2622037209
 10
10.998273432
 20
23.2509177199
 10
11.0190401124
 20
23.2372154732
 10
11.0445113559
 20
23.2210420929
 10
11.074582667
 20
23.2024524669
 10
11.1085760758
 20
23.1818657057
 10
11.1462655924
 20
23.1594215128
 10
11.1878772068
 20
23.1349801847
 10
11.233410919
 20
23.1085417215
  0
LINE
  5
480
100
AcDbEntity
  8
0
100
AcDbLine
 62
7
  6
CONTINUOUS
 10
-16.5632443389
 20
5.9187303614
 11
-15.9328138095
 21
6.3085980574
  0
LINE
  5
481
100
AcDbEntity
  8
RACCORDO
100
AcDbLine
 62
7
  6
CONTINUOUS
 10
-16.5632443389
 20
5.9187303614
 11
-15.9328138095
 21
6.3085980574
  0
LINE
  5
482
100
AcDbEntity
  8
0
100
AcDbLine
 62
250
  6
CONTINUOUS
 10
-16.4091568797
 20
5.9063447699
 11
-15.8405184414
 21
6.2579993099
  0
LINE
  5
483
100
AcDbEntity
  8
RACCORDO
100
AcDbLine
 62
250
  6
CONTINUOUS
 10
-16.4091568797
 20
5.9063447699
 11
-15.8405184414
 21
6.2579993099
  0
LINE
  5
484
100
AcDbEntity
  8
DRAFT
100
AcDbLine
 62
7
  6
CONTINUOUS
 10
4.4597797395
 20
18.8735491371
 11
2.04756334
 21
17.4102170956
  0
LINE
  5
485
100
AcDbEntity
  8
DRAFT
100
AcDbLine
 62
7
  6
CONTINUOUS
 10
4.5949880687
 20
18.834102708
 11
2.1137303038
 21
17.3288913887
  0
LINE
  5
486
100
AcDbEntity
  8
ASSI
100
AcDbLine
 62
7
  6
CONTINUOUS
 10
3.8016045057
 20
18.3802707536
 11
2.0888173585
 21
17.3421522709
  0
LWPOLYLINE
  5
487
100
AcDbEntity
  8
RACCORDO
100
AcDbPolyline
 62
7
  6
CONTINUOUS
 90
19
 70
0
 10
13.4021488293
 20
21.4306655724
 10
13.4254754227
 20
21.444659955
 10
13.4464540445
 20
21.4589661979
 10
13.4650846945
 20
21.4735843011
 10
13.4814416314
 20
21.4885684394
 10
13.4954505966
 20
21.5038644381
 10
13.5068888147
 20
21.5193097729
 10
13.5157443205
 20
21.5348332736
 10
13.5220290792
 20
21.5505061105
 10
13.5255562109
 20
21.56637927
 10
13.5263866263
 20
21.5825236374
 10
13.5244594148
 20
21.5988683275
 10
13.519404964
 20
21.6152516707
 10
13.5111067236
 20
21.6317433106
 10
13.4996812441
 20
21.6482736037
 10
13.4851085648
 20
21.6644719505
 10
13.4673820323
 20
21.680214818
 10
13.4465083001
 20
21.6956257392
 10
13.4224873682
 20
21.7107047141
  0
LINE
  5
488
100
AcDbEntity
  8
ASSI
100
AcDbLine
 62
7
  6
CONTINUOUS
 10
-1.1727545256
 20
15.7267764091
 11
-2.0985792842
 21
15.1816940796
  0
LINE
  5
489
100
AcDbEntity
  8
0
100
AcDbLine
 62
7
  6
CONTINUOUS
 10
12.0971244783
 20
22.9477983689
 11
11.7837257998
 21
22.7668458998
  0
LINE
  5
48A
100
AcDbEntity
  8
RACCORDO
100
AcDbLine
 62
7
  6
CONTINUOUS
 10
9.3648931741
 20
20.731138138
 11
9.0854354214
 21
20.569782734
  0
LINE
  5
48B
100
AcDbEntity
  8
0
100
AcDbLine
 62
7
  6
CONTINUOUS
 10
12.8721544178
 20
22.5003057952
 11
12.5587557393
 21
22.3193533261
  0
LINE
  5
48C
100
AcDbEntity
  8
0
100
AcDbLine
 62
7
  6
CONTINUOUS
 10
12.9965108108
 20
22.4400700579
 11
12.6831121323
 21
22.2591175888
  0
LINE
  5
48D
100
AcDbEntity
  8
RACCORDO
100
AcDbLine
 62
7
  6
CONTINUOUS
 10
10.2134238818
 20
20.24121011
 11
9.8753710537
 21
20.0460226439
  0
LINE
  5
48E
100
AcDbEntity
  8
0
100
AcDbLine
 62
7
  6
CONTINUOUS
 10
13.6083789947
 20
22.1961333267
 11
13.2949803163
 21
22.0151808576
  0
LINE
  5
48F
100
AcDbEntity
  8
DRAFT
100
AcDbLine
 62
7
  6
CONTINUOUS
 10
3.8034764915
 20
18.3771821724
 11
4.5106549924
 21
18.7854192579
  0
LINE
  5
490
100
AcDbEntity
  8
DRAFT
100
AcDbLine
 62
7
  6
CONTINUOUS
 10
2.1013758319
 20
17.3217594502
 11
2.1137303038
 21
17.3288913887
  0
LINE
  5
491
100
AcDbEntity
  8
RACCORDO
100
AcDbLine
 62
7
  6
CONTINUOUS
 10
13.4021488293
 20
21.4306655724
 11
10.1364023898
 21
19.582807595
  0
LINE
  5
492
100
AcDbEntity
  8
ASSI
100
AcDbLine
 62
250
  6
CONTINUOUS
 10
2.5208922587
 20
18.3082906047
 11
4.2158552182
 21
19.2645145058
  0
LINE
  5
493
100
AcDbEntity
  8
DRAFT
100
AcDbLine
 62
7
  6
CONTINUOUS
 10
13.2485157462
 20
21.8111537483
 11
10.2607383161
 21
20.1462573203
  0
LINE
  5
494
100
AcDbEntity
  8
DRAFT
100
AcDbLine
 62
7
  6
CONTINUOUS
 10
7.7855535364
 20
21.1010770719
 11
8.0846546539
 21
21.2648866398
  0
LWPOLYLINE
  5
495
100
AcDbEntity
  8
RACCORDO
100
AcDbPolyline
 62
7
  6
CONTINUOUS
 90
10
 70
0
 10
10.2133949859
 20
20.2411934259
 10
10.2247914502
 20
20.2472743277
 10
10.2360118526
 20
20.2522837109
 10
10.2470561934
 20
20.2562215755
 10
10.2580194523
 20
20.259098133
 10
10.2688066494
 20
20.2609031719
 10
10.2791328449
 20
20.2616060572
 10
10.2889030586
 20
20.2611965774
 10
10.2982122706
 20
20.2596849441
 10
10.3070604809
 20
20.2570711572
  0
LINE
  5
496
100
AcDbEntity
  8
ASSI
100
AcDbLine
 62
250
  6
CONTINUOUS
 10
-1.1166224856
 20
16.4189971102
 11
2.5208922587
 21
18.3082906047
  0
LWPOLYLINE
  5
497
100
AcDbEntity
  8
ASSI
100
AcDbPolyline
 62
250
  6
CONTINUOUS
 90
3
 70
0
 10
-3.1325644748
 20
15.7299551076
 10
-3.0907049285
 20
15.7467289993
 10
-3.0521673708
 20
15.7657944638
  0
LWPOLYLINE
  5
498
100
AcDbEntity
  8
RACCORDO
100
AcDbPolyline
 62
250
  6
CONTINUOUS
 90
3
 70
0
 10
-3.1325644748
 20
15.7299551076
 10
-3.0907049285
 20
15.7467289993
 10
-3.0521673708
 20
15.7657944638
  0
LINE
  5
499
100
AcDbEntity
  8
DRAFT
100
AcDbLine
 62
7
  6
CONTINUOUS
 10
13.2870403149
 20
21.8255589638
 11
13.2485157462
 21
21.8111537483
  0
LWPOLYLINE
  5
49A
100
AcDbEntity
  8
RACCORDO
100
AcDbPolyline
 62
7
  6
CONTINUOUS
 90
3
 70
0
 10
3.5480601926
 20
1.9129544379
 10
3.6011635813
 20
1.8832941726
 10
3.6602551191
 20
1.849860637
  0
LINE
  5
49B
100
AcDbEntity
  8
RACCORDO
100
AcDbLine
 62
7
  6
CONTINUOUS
 10
3.532450236
 20
1.9218148672
 11
3.5480601926
 21
1.9129544379
  0
LINE
  5
49C
100
AcDbEntity
  8
RACCORDO
100
AcDbLine
 62
7
  6
CONTINUOUS
 10
3.6602551191
 20
1.849860637
 11
3.7218643168
 21
1.8148823328
  0
LWPOLYLINE
  5
49D
100
AcDbEntity
  8
RACCORDO
100
AcDbPolyline
 62
7
  6
CONTINUOUS
 90
6
 70
0
 10
3.7218643168
 20
1.8148823328
 10
3.7418936385
 20
1.803364908
 10
3.7615162299
 20
1.7922154498
 10
3.7805201273
 20
1.7815533856
 10
3.798533732
 20
1.7712738049
 10
3.8152498701
 20
1.7613460796
  0
LINE
  5
49E
100
AcDbEntity
  8
RACCORDO
100
AcDbLine
 62
7
  6
CONTINUOUS
 10
2.868118509
 20
2.3053944179
 11
3.532450236
 21
1.9218148672
  0
LINE
  5
49F
100
AcDbEntity
  8
CURVE
100
AcDbLine
 62
250
  6
CONTINUOUS
 10
-11.2443602327
 20
12.6008179249
 11
-11.1230454578
 21
12.5307722943
  0
LWPOLYLINE
  5
4A0
100
AcDbEntity
  8
ASSI
100
AcDbPolyline
 62
7
  6
CONTINUOUS
 90
5
 70
0
 10
-5.7957849798
 20
19.2539080067
 10
-5.7957369181
 20
19.253842006
 10
-5.7961499858
 20
19.2545495011
 10
-5.7974507108
 20
19.2572140537
 10
-5.7992543274
 20
19.2618627756
  0
LINE
  5
4A1
100
AcDbEntity
  8
DRAFT
100
AcDbLine
 62
7
  6
CONTINUOUS
 10
-9.0668127407
 20
23.7843968176
 11
-9.0524004504
 21
23.7594339984
  0
LWPOLYLINE
  5
4A2
100
AcDbEntity
  8
DRAFT
100
AcDbPolyline
 62
7
  6
CONTINUOUS
 90
7
 70
0
 10
-2.0985792842
 20
13.1773242563
 10
-1.8926901012
 20
12.8146711536
 10
-1.6330501711
 20
12.3455461096
 10
-1.378745047
 20
11.8740349077
 10
-1.1298665899
 20
11.4003035249
 10
-0.8863229388
 20
10.9241859842
 10
-0.6481140937
 20
10.4456822856
  0
LWPOLYLINE
  5
4A3
100
AcDbEntity
  8
DRAFT
100
AcDbPolyline
 62
7
  6
CONTINUOUS
 90
3
 70
0
 10
-2.0985792842
 20
11.5096849697
 10
-1.9299259328
 20
11.1916447048
 10
-1.6334844374
 20
10.6133645438
  0
LINE
  5
4A4
100
AcDbEntity
  8
DRAFT
100
AcDbLine
 62
7
  6
CONTINUOUS
 10
-0.9937144956
 20
19.5418415138
 11
-1.1319985532
 21
19.8986237359
  0
LWPOLYLINE
  5
4A5
100
AcDbEntity
  8
ASSI
100
AcDbPolyline
 62
250
  6
CONTINUOUS
 90
6
 70
0
 10
-0.9898981897
 20
17.4310868468
 10
-0.9849416733
 20
17.4155083328
 10
-0.9825122961
 20
17.4015564976
 10
-0.9826513104
 20
17.3894682527
 10
-0.9853563556
 20
17.3794488645
 10
-0.9905645977
 20
17.3716857904
  0
LWPOLYLINE
  5
4A6
100
AcDbEntity
  8
ASSI
100
AcDbPolyline
 62
250
  6
CONTINUOUS
 90
6
 70
0
 10
-0.6864195951
 20
17.7423440076
 10
-0.6814497999
 20
17.7267123473
 10
-0.6790258786
 20
17.7127240709
 10
-0.6791868495
 20
17.7006166122
 10
-0.6819271304
 20
17.6905958174
 10
-0.6870729082
 20
17.6829563951
  0
LWPOLYLINE
  5
4A7
100
AcDbEntity
  8
ASSI
100
AcDbPolyline
 62
7
  6
CONTINUOUS
 90
5
 70
0
 10
-1.0914644101
 20
21.1454595105
 10
-1.0886491794
 20
21.1300732556
 10
-1.0866365867
 20
21.1145960803
 10
-1.0854312811
 20
21.0990874555
 10
-1.085030583
 20
21.0835858121
  0
LINE
  5
4A8
100
AcDbEntity
  8
ASSI
100
AcDbLine
 62
250
  6
CONTINUOUS
 10
0.6309576997
 20
21.196992903
 11
0.6466026028
 21
21.0747737519
  0
LINE
  5
4A9
100
AcDbEntity
  8
ASSI
100
AcDbLine
 62
250
  6
CONTINUOUS
 10
0.6147083667
 20
21.3267727995
 11
0.6309576997
 21
21.196992903
  0
LWPOLYLINE
  5
4AA
100
AcDbEntity
  8
ASSI
100
AcDbPolyline
 62
250
  6
CONTINUOUS
 90
13
 70
0
 10
-0.6779504806
 20
21.5153910478
 10
-0.6805905887
 20
21.5368145914
 10
-0.6853783376
 20
21.5589135679
 10
-0.6922406113
 20
21.5813506261
 10
-0.7010726255
 20
21.6037832553
 10
-0.7117395355
 20
21.6258690347
 10
-0.7240785014
 20
21.6472708588
 10
-0.7379011535
 20
21.6676620443
 10
-0.7529964829
 20
21.6867313482
 10
-0.7691340803
 20
21.7041877316
 10
-0.7860676191
 20
21.7197647552
 10
-0.8035386102
 20
21.7332246538
 10
-0.8212803711
 20
21.7443619895
  0
LWPOLYLINE
  5
4AB
100
AcDbEntity
  8
ASSI
100
AcDbPolyline
 62
250
  6
CONTINUOUS
 90
13
 70
0
 10
0.5106425732
 20
22.2261482821
 10
0.5080025529
 20
22.2475713183
 10
0.5032149616
 20
22.2696698716
 10
0.4963528797
 20
22.2921066173
 10
0.4875210529
 20
22.3145390684
 10
0.4768542954
 20
22.3366248027
 10
0.4645154315
 20
22.3580266896
 10
0.4506928089
 20
22.3784180381
 10
0.4355974239
 20
22.3974875831
 10
0.4194597022
 20
22.4149442354
 10
0.4025259799
 20
22.4305215269
 10
0.3850547428
 20
22.4439816772
 10
0.3673126817
 20
22.4551192233
  0
LWPOLYLINE
  5
4AC
100
AcDbEntity
  8
ASSI
100
AcDbPolyline
 62
250
  6
CONTINUOUS
 90
13
 70
0
 10
1.3969093576
 20
22.7561198536
 10
1.3942693329
 20
22.777542909
 10
1.3894817353
 20
22.7996414765
 10
1.3826196471
 20
22.8220782304
 10
1.373787817
 20
22.8445106812
 10
1.3631210599
 20
22.8665964087
 10
1.3507821976
 20
22.8879982886
 10
1.3369595763
 20
22.9083896323
 10
1.3218641934
 20
22.9274591726
 10
1.3057264745
 20
22.94491582
 10
1.2887927555
 20
22.9604931064
 10
1.2713215222
 20
22.9739532521
 10
1.2535794653
 20
22.9850907942
  0
LINE
  5
4AD
100
AcDbEntity
  8
ASSI
100
AcDbLine
 62
250
  6
CONTINUOUS
 10
0.5978371817
 20
21.4644044953
 11
0.6147083667
 21
21.3267727995
  0
LINE
  5
4AE
100
AcDbEntity
  8
ASSI
100
AcDbLine
 62
250
  6
CONTINUOUS
 10
0.5802722734
 20
21.6109561176
 11
0.5978371817
 21
21.4644044953
  0
LWPOLYLINE
  5
4AF
100
AcDbEntity
  8
ASSI
100
AcDbPolyline
 62
250
  6
CONTINUOUS
 90
4
 70
0
 10
0.5431386789
 20
21.9321107516
 10
0.5526526071
 20
21.8483332257
 10
0.5620287178
 20
21.7668339509
 10
0.5802722734
 20
21.6109561176
  0
LINE
  5
4B0
100
AcDbEntity
  8
ASSI
100
AcDbLine
 62
250
  6
CONTINUOUS
 10
0.5237166306
 20
22.1064529726
 11
0.5431386789
 21
21.9321107516
  0
LINE
  5
4B1
100
AcDbEntity
  8
ASSI
100
AcDbLine
 62
250
  6
CONTINUOUS
 10
4.5424161758
 20
23.317498367
 11
4.5116544379
 21
23.7412489906
  0
LINE
  5
4B2
100
AcDbEntity
  8
SMUSSO
100
AcDbLine
 62
250
  6
CONTINUOUS
 10
4.6207456164
 20
23.3593112519
 11
4.5899763672
 21
23.7831653458
  0
LINE
  5
4B3
100
AcDbEntity
  8
SMUSSO
100
AcDbLine
 62
7
  6
CONTINUOUS
 10
5.3400841802
 20
24.2090892581
 11
5.3744530927
 21
23.7356489025
  0
LWPOLYLINE
  5
4B4
100
AcDbEntity
  8
RACCORDO
100
AcDbPolyline
 62
7
  6
CONTINUOUS
 90
5
 70
0
 10
4.3369887136
 20
13.1425218097
 10
4.3359710793
 20
13.1738472832
 10
4.3330178011
 20
13.2058231157
 10
4.3281288788
 20
13.2384493072
 10
4.3212467693
 20
13.2719475412
  0
LINE
  5
4B5
100
AcDbEntity
  8
ASSI
100
AcDbLine
 62
7
  6
CONTINUOUS
 10
3.8034764915
 20
18.4754133928
 11
3.8034764915
 21
18.3771821724
  0
LINE
  5
4B6
100
AcDbEntity
  8
RACCORDO
100
AcDbLine
 62
250
  6
CONTINUOUS
 10
3.8152498701
 20
2.9384724795
 11
3.8152498701
 21
1.7613460796
  0
LINE
  5
4B7
100
AcDbEntity
  8
RACCORDO
100
AcDbLine
 62
250
  6
CONTINUOUS
 10
3.8152498701
 20
-4.4097600116
 11
3.8152498701
 21
-5.5868864115
  0
LINE
  5
4B8
100
AcDbEntity
  8
DRAFT
100
AcDbLine
 62
7
  6
CONTINUOUS
 10
4.2847116298
 20
13.3597973409
 11
4.2847116298
 21
-15.4468268117
  0
LINE
  5
4B9
100
AcDbEntity
  8
RACCORDO
100
AcDbLine
 62
7
  6
CONTINUOUS
 10
4.3369887136
 20
13.1425218097
 11
4.3369887136
 21
-15.2899195465
  0
LINE
  5
4BA
100
AcDbEntity
  8
SMUSSO
100
AcDbLine
 62
7
  6
CONTINUOUS
 10
5.4928683328
 20
23.5369855978
 11
5.4928683328
 21
23.1322077464
  0
LINE
  5
4BB
100
AcDbEntity
  8
SMUSSO
100
AcDbLine
 62
7
  6
CONTINUOUS
 10
5.4928683328
 20
22.1274736142
 11
5.4928683328
 21
22.2951906334
  0
LINE
  5
4BC
100
AcDbEntity
  8
DRAFT
100
AcDbLine
 62
250
  6
CONTINUOUS
 10
5.9650488468
 20
22.1562899362
 11
5.9650488468
 21
21.8945164267
  0
LINE
  5
4BD
100
AcDbEntity
  8
DRAFT
100
AcDbLine
 62
7
  6
CONTINUOUS
 10
6.35224304
 20
21.9719578744
 11
6.35224304
 21
21.7489693807
  0
LWPOLYLINE
  5
4BE
100
AcDbEntity
  8
SMUSSO
100
AcDbPolyline
 62
7
  6
CONTINUOUS
 90
10
 70
0
 10
5.1932332977
 20
22.8352524956
 10
5.1936520155
 20
22.862364232
 10
5.2007922002
 20
22.9502976142
 10
5.216749992
 20
23.0377600198
 10
5.2414737329
 20
23.1244617211
 10
5.2748841443
 20
23.2101186865
 10
5.3168758944
 20
23.2944735654
 10
5.3673159367
 20
23.3772557943
 10
5.4260426641
 20
23.4581826561
 10
5.4928683328
 20
23.5369855978
  0
LINE
  5
4BF
100
AcDbEntity
  8
CURVE
100
AcDbLine
 62
7
  6
CONTINUOUS
 10
-11.6198242713
 20
-1.4042557966
 11
-11.3266995945
 21
-1.1111311198
  0
LINE
  5
4C0
100
AcDbEntity
  8
CURVE
100
AcDbLine
 62
7
  6
CONTINUOUS
 10
-11.3535476355
 20
-1.5580005888
 11
-11.0604229588
 21
-1.2648759121
  0
LINE
  5
4C1
100
AcDbEntity
  8
CURVE
100
AcDbLine
 62
7
  6
CONTINUOUS
 10
-11.0872709997
 20
-1.7117453811
 11
-10.794146323
 21
-1.4186207044
  0
LINE
  5
4C2
100
AcDbEntity
  8
CURVE
100
AcDbLine
 62
7
  6
CONTINUOUS
 10
-10.820994364
 20
-1.8654901734
 11
-10.5278696873
 21
-1.5723654966
  0
LINE
  5
4C3
100
AcDbEntity
  8
CURVE
100
AcDbLine
 62
7
  6
CONTINUOUS
 10
-10.5547177282
 20
-2.0192349656
 11
-10.2615930515
 21
-1.7261102889
  0
LINE
  5
4C4
100
AcDbEntity
  8
CURVE
100
AcDbLine
 62
7
  6
CONTINUOUS
 10
-10.2884410925
 20
-2.1729797579
 11
-9.9953164157
 21
-1.8798550811
  0
LINE
  5
4C5
100
AcDbEntity
  8
CURVE
100
AcDbLine
 62
7
  6
CONTINUOUS
 10
-10.0221644567
 20
-2.3267245501
 11
-9.72903978
 21
-2.0335998734
  0
LINE
  5
4C6
100
AcDbEntity
  8
CURVE
100
AcDbLine
 62
7
  6
CONTINUOUS
 10
-9.7558878209
 20
-2.4804693424
 11
-9.4627631442
 21
-2.1873446657
  0
LINE
  5
4C7
100
AcDbEntity
  8
CURVE
100
AcDbLine
 62
7
  6
CONTINUOUS
 10
-9.4896111852
 20
-2.6342141347
 11
-9.3533709349
 21
-2.4979738844
  0
LINE
  5
4C8
100
AcDbEntity
  8
DRAFT
100
AcDbLine
 62
7
  6
CONTINUOUS
 10
-1.6334844374
 20
10.5727854136
 11
-2.0985792842
 21
10.2917718628
  0
LINE
  5
4C9
100
AcDbEntity
  8
RACCORDO
100
AcDbLine
 62
250
  6
CONTINUOUS
 10
15.697422086
 20
20.2001809458
 11
4.2597004941
 21
13.4418785408
  0
LINE
  5
4CA
100
AcDbEntity
  8
DRAFT
100
AcDbLine
 62
7
  6
CONTINUOUS
 10
4.2847116298
 20
13.3597973409
 11
-0.6481140937
 21
10.4456822856
  0
LINE
  5
4CB
100
AcDbEntity
  8
RACCORDO
100
AcDbLine
 62
250
  6
CONTINUOUS
 10
15.7755146806
 20
19.8992012444
 11
4.3369887136
 21
13.1425218097
  0
LINE
  5
4CC
100
AcDbEntity
  8
DRAFT
100
AcDbLine
 62
7
  6
CONTINUOUS
 10
-2.0985792842
 20
8.6415783192
 11
-1.6334844374
 21
8.9101201328
  0
LINE
  5
4CD
100
AcDbEntity
  8
ASSI
100
AcDbLine
 62
7
  6
CONTINUOUS
 10
-16.4252110524
 20
6.5256784067
 11
-16.4249198631
 21
6.5258133286
  0
LINE
  5
4CE
100
AcDbEntity
  8
RACCORDO
100
AcDbLine
 62
7
  6
CONTINUOUS
 10
-16.4252110524
 20
6.5256784067
 11
-16.4249198631
 21
6.5258133286
  0
LWPOLYLINE
  5
4CF
100
AcDbEntity
  8
ASSI
100
AcDbPolyline
 62
7
  6
CONTINUOUS
 90
10
 70
0
 10
-16.4252578173
 20
6.525651963
 10
-16.4176950831
 20
6.5286745301
 10
-16.4038337407
 20
6.5320716257
 10
-16.3862507776
 20
6.5335964708
 10
-16.3646815331
 20
6.5325271125
 10
-16.3395365707
 20
6.52824289
 10
-16.3117464673
 20
6.5204584554
 10
-16.2820498375
 20
6.5091598768
 10
-16.2509539142
 20
6.494402471
 10
-16.2308774963
 20
6.4833880216
  0
LWPOLYLINE
  5
4D0
100
AcDbEntity
  8
RACCORDO
100
AcDbPolyline
 62
7
  6
CONTINUOUS
 90
10
 70
0
 10
-16.4252578173
 20
6.525651963
 10
-16.4176950831
 20
6.5286745301
 10
-16.4038337407
 20
6.5320716257
 10
-16.3862507776
 20
6.5335964708
 10
-16.3646815331
 20
6.5325271125
 10
-16.3395365707
 20
6.52824289
 10
-16.3117464673
 20
6.5204584554
 10
-16.2820498375
 20
6.5091598768
 10
-16.2509539142
 20
6.494402471
 10
-16.2308774963
 20
6.4833880216
  0
LWPOLYLINE
  5
4D1
100
AcDbEntity
  8
RACCORDO
100
AcDbPolyline
 62
250
  6
CONTINUOUS
 90
49
 70
0
 10
0.9483097276
 20
-2.0494143477
 10
1.0143181724
 20
-2.0321041653
 10
1.0789944736
 20
-2.021819054
 10
1.1408323068
 20
-2.0186294722
 10
1.19985674
 20
-2.0230793731
 10
1.2560427052
 20
-2.0346248035
 10
1.3078086735
 20
-2.0517043615
 10
1.3546505516
 20
-2.074518614
 10
1.3970724329
 20
-2.1028669942
 10
1.4350050684
 20
-2.1345864001
 10
1.4681813833
 20
-2.1695040177
 10
1.4968684524
 20
-2.207792661
 10
1.5217982516
 20
-2.2478076704
 10
1.542917665
 20
-2.2893007685
 10
1.5602798085
 20
-2.3325202326
 10
1.5747760046
 20
-2.3765662348
 10
1.5864840303
 20
-2.4210430855
 10
1.5953261088
 20
-2.4663464741
 10
1.6019602322
 20
-2.5127636418
 10
1.6066097536
 20
-2.5599526008
 10
1.6090513201
 20
-2.6082553388
 10
1.6092728649
 20
-2.65898506
 10
1.6075606633
 20
-2.7121489713
 10
1.6036284402
 20
-2.7677398657
 10
1.5966053035
 20
-2.8270493265
 10
1.5865252821
 20
-2.8906824658
 10
1.5733543472
 20
-2.9580341715
 10
1.5561195206
 20
-3.0285806901
 10
1.5342001391
 20
-3.103468762
 10
1.5082168658
 20
-3.1815516469
 10
1.4790587117
 20
-3.2588653713
 10
1.446329844
 20
-3.3350795246
 10
1.4104260955
 20
-3.4105245174
 10
1.3734239751
 20
-3.4822276083
 10
1.3356634473
 20
-3.5492525377
 10
1.2968045476
 20
-3.6125355651
 10
1.257903892
 20
-3.6719127273
 10
1.219382483
 20
-3.7269382027
 10
1.1808193181
 20
-3.7780578129
 10
1.1420080051
 20
-3.8264450597
 10
1.1032435165
 20
-3.8720664881
 10
1.0642308799
 20
-3.9149555531
 10
1.0238787862
 20
-3.9563861221
 10
0.9821070638
 20
-3.9967474028
 10
0.9389958842
 20
-4.0356501874
 10
0.8936944531
 20
-4.0732007205
 10
0.8459191724
 20
-4.1094344166
 10
0.7959536402
 20
-4.1443158612
 10
0.7437978565
 20
-4.177845054
  0
LWPOLYLINE
  5
4D2
100
AcDbEntity
  8
ASSI
100
AcDbPolyline
 62
250
  6
CONTINUOUS
 90
3
 70
0
 10
-3.2988332772
 20
16.2934925093
 10
-3.3338684837
 20
16.3255859639
 10
-3.3695875954
 20
16.3538439223
  0
LWPOLYLINE
  5
4D3
100
AcDbEntity
  8
RACCORDO
100
AcDbPolyline
 62
250
  6
CONTINUOUS
 90
3
 70
0
 10
-3.2988332772
 20
16.2934925093
 10
-3.3338684837
 20
16.3255859639
 10
-3.3695875954
 20
16.3538439223
  0
LWPOLYLINE
  5
4D4
100
AcDbEntity
  8
ASSI
100
AcDbPolyline
 62
250
  6
CONTINUOUS
 90
7
 70
0
 10
-6.3439115357
 20
23.2982004185
 10
-6.3492610775
 20
23.305024343
 10
-6.3646190287
 20
23.3211333741
 10
-6.3821419428
 20
23.3350465441
 10
-6.4015588015
 20
23.346548717
 10
-6.422569318
 20
23.3554620619
 10
-6.4448485611
 20
23.3616487785
  0
LINE
  5
4D5
100
AcDbEntity
  8
ASSI
100
AcDbLine
 62
7
  6
CONTINUOUS
 10
-6.343687585
 20
23.2978974453
 11
-6.3439115357
 21
23.2982004185
  0
LINE
  5
4D6
100
AcDbEntity
  8
DRAFT
100
AcDbLine
 62
7
  6
CONTINUOUS
 10
-6.4569016811
 20
25.2153253369
 11
-6.4432848394
 21
25.1917402753
  0
LWPOLYLINE
  5
4D7
100
AcDbEntity
  8
ASSI
100
AcDbPolyline
 62
250
  6
CONTINUOUS
 90
37
 70
0
 10
-3.3175357614
 20
24.8841791602
 10
-3.3122444097
 20
24.874711894
 10
-3.3076734986
 20
24.865417833
 10
-3.3038230283
 20
24.8562969773
 10
-3.3007398709
 20
24.8473351327
 10
-3.2983771543
 20
24.8385464934
 10
-3.2965942616
 20
24.8299736415
 10
-3.2953877221
 20
24.8216239137
 10
-3.2947610064
 20
24.8134899733
 10
-3.2945839103
 20
24.8055923923
 10
-3.2948457136
 20
24.7979524221
 10
-3.2955571365
 20
24.7905488113
 10
-3.2966201351
 20
24.7833383774
 10
-3.2980171294
 20
24.7763287859
 10
-3.2997656995
 20
24.7695123713
 10
-3.3018205423
 20
24.7628229549
 10
-3.3041708644
 20
24.7562518437
 10
-3.3068274592
 20
24.7498077308
 10
-3.3097774031
 20
24.743450516
 10
-3.3130166959
 20
24.7371721118
 10
-3.3165493377
 20
24.7309806057
 10
-3.3203744051
 20
24.7248601611
 10
-3.3244872899
 20
24.7188094785
 10
-3.3288926002
 20
24.7128298575
 10
-3.3336032376
 20
24.7069093593
 10
-3.3386147837
 20
24.7010465269
 10
-3.3439316568
 20
24.6952428174
 10
-3.349580013
 20
24.6894906636
 10
-3.3555558832
 20
24.6837878552
 10
-3.3618632364
 20
24.6781366026
 10
-3.3685401357
 20
24.67253597
 10
-3.3755830554
 20
24.6669830831
 10
-3.3829955211
 20
24.6614808161
 10
-3.3908261728
 20
24.656036856
 10
-3.3990912238
 20
24.6506537649
 10
-3.4077744608
 20
24.6453289805
 10
-3.4168758838
 20
24.640062503
  0
LWPOLYLINE
  5
4D8
100
AcDbEntity
  8
ASSI
100
AcDbPolyline
 62
250
  6
CONTINUOUS
 90
4
 70
0
 10
-1.1164437575
 20
21.2180904121
 10
-1.1185918543
 20
21.2222523863
 10
-1.1230785949
 20
21.2296590417
 10
-1.1279684727
 20
21.2363089761
  0
LWPOLYLINE
  5
4D9
100
AcDbEntity
  8
RACCORDO
100
AcDbPolyline
 62
7
  6
CONTINUOUS
 90
10
 70
0
 10
4.2597004941
 20
13.4418785408
 10
4.0392463293
 20
13.8822389753
 10
3.8142389293
 20
14.3205847722
 10
3.5846782942
 20
14.7569159316
 10
3.3504890996
 20
15.1913696426
 10
3.1117466699
 20
15.6238087161
 10
2.8686769781
 20
16.0538215842
 10
2.6213553487
 20
16.4812710577
 10
2.3697064573
 20
16.9062943259
 10
2.1137303038
 20
17.3288913887
  0
LWPOLYLINE
  5
4DA
100
AcDbEntity
  8
DRAFT
100
AcDbPolyline
 62
7
  6
CONTINUOUS
 90
10
 70
0
 10
4.2847116298
 20
13.3597973409
 10
4.0556625275
 20
13.819110851
 10
3.8216712661
 20
14.276218858
 10
3.5827378457
 20
14.7311213618
 10
3.3387803642
 20
15.1839666484
 10
3.0898807236
 20
15.634606432
 10
2.8362846303
 20
16.0825958542
 10
2.5780739863
 20
16.5277866293
 10
2.3151668895
 20
16.970327043
 10
2.04756334
 20
17.4102170956
  0
LINE
  5
4DB
100
AcDbEntity
  8
ASSI
100
AcDbLine
 62
7
  6
CONTINUOUS
 10
-1.1164257511
 20
21.218053407
 11
-1.1164437575
 21
21.2180904121
  0
LINE
  5
4DC
100
AcDbEntity
  8
RACCORDO
100
AcDbLine
 62
7
  6
CONTINUOUS
 10
4.2755127594
 20
13.4080103973
 11
4.2597004941
 21
13.4418785408
  0
LWPOLYLINE
  5
4DD
100
AcDbEntity
  8
ASSI
100
AcDbPolyline
 62
7
  6
CONTINUOUS
 90
6
 70
0
 10
-1.116405638
 20
21.2180121581
 10
-1.1108497458
 20
21.2059760577
 10
-1.1047727394
 20
21.1910344317
 10
-1.0995143713
 20
21.1759356292
 10
-1.0950814017
 20
21.1607383581
 10
-1.0914644101
 20
21.1454595105
  0
LINE
  5
4DE
100
AcDbEntity
  8
ASSI
100
AcDbLine
 62
7
  6
CONTINUOUS
 10
-1.1162373947
 20
21.2176495111
 11
-1.116207616
 21
21.2175810517
  0
LWPOLYLINE
  5
4DF
100
AcDbEntity
  8
ASSI
100
AcDbPolyline
 62
250
  6
CONTINUOUS
 90
3
 70
0
 10
-3.5061600367
 20
24.6824948395
 10
-3.499288096
 20
24.6664492064
 10
-3.4982301193
 20
24.6617753703
  0
LWPOLYLINE
  5
4E0
100
AcDbEntity
  8
RACCORDO
100
AcDbPolyline
 62
7
  6
CONTINUOUS
 90
5
 70
0
 10
4.3212467693
 20
13.2719475412
 10
4.3124290159
 20
13.3060961342
 10
4.3018482486
 20
13.3402300358
 10
4.2895620109
 20
13.3741275623
 10
4.2755127594
 20
13.4080103973
  0
LWPOLYLINE
  5
4E1
100
AcDbEntity
  8
DRAFT
100
AcDbPolyline
 62
7
  6
CONTINUOUS
 90
4
 70
0
 10
6.224566724
 20
21.9057074432
 10
6.2262081761
 20
21.881853466
 10
6.2281584421
 20
21.8260634461
 10
6.2281584421
 20
21.7904928668
  0
LINE
  5
4E2
100
AcDbEntity
  8
DRAFT
100
AcDbLine
 62
7
  6
CONTINUOUS
 10
8.0846546539
 20
21.2648866398
 11
8.0846546539
 21
21.9163685071
  0
LWPOLYLINE
  5
4E3
100
AcDbEntity
  8
RACCORDO
100
AcDbPolyline
 62
7
  6
CONTINUOUS
 90
3
 70
0
 10
4.3330176278
 20
-15.3486364453
 10
4.335971017
 20
-15.3200704875
 10
4.3369887136
 20
-15.2899195465
  0
LINE
  5
4E4
100
AcDbEntity
  8
ASSI
100
AcDbLine
 62
250
  6
CONTINUOUS
 10
-3.0719296121
 20
-26.5033988536
 11
-3.0616543321
 21
-26.4672976994
  0
LINE
  5
4E5
100
AcDbEntity
  8
RACCORDO
100
AcDbLine
 62
250
  6
CONTINUOUS
 10
-3.0719296121
 20
-26.5033988536
 11
-3.0616543321
 21
-26.4672976994
  0
LINE
  5
4E6
100
AcDbEntity
  8
CURVE
100
AcDbLine
 62
250
  6
CONTINUOUS
 10
-8.3558092326
 20
-13.9224022359
 11
-8.401119928
 21
-13.9963764054
  0
LINE
  5
4E7
100
AcDbEntity
  8
CURVE
100
AcDbLine
 62
7
  6
CONTINUOUS
 10
-14.0128056105
 20
-10.4077105183
 11
-13.8718574261
 21
-10.2667623338
  0
LINE
  5
4E8
100
AcDbEntity
  8
CURVE
100
AcDbLine
 62
7
  6
CONTINUOUS
 10
-13.9674949151
 20
-10.7824212509
 11
-13.6958127523
 21
-10.5107390881
  0
LINE
  5
4E9
100
AcDbEntity
  8
CURVE
100
AcDbLine
 62
7
  6
CONTINUOUS
 10
-13.7914547664
 20
-11.0264025302
 11
-13.5197680785
 21
-10.7547158423
  0
LINE
  5
4EA
100
AcDbEntity
  8
CURVE
100
AcDbLine
 62
7
  6
CONTINUOUS
 10
-13.6154146178
 20
-11.2703838096
 11
-13.3437234047
 21
-10.9986925965
  0
LINE
  5
4EB
100
AcDbEntity
  8
CURVE
100
AcDbLine
 62
7
  6
CONTINUOUS
 10
-13.4393744691
 20
-11.514365089
 11
-13.1676787309
 21
-11.2426693508
  0
LINE
  5
4EC
100
AcDbEntity
  8
CURVE
100
AcDbLine
 62
7
  6
CONTINUOUS
 10
-13.2633343204
 20
-11.7583463683
 11
-12.9916340571
 21
-11.486646105
  0
LINE
  5
4ED
100
AcDbEntity
  8
CURVE
100
AcDbLine
 62
7
  6
CONTINUOUS
 10
-13.0872941718
 20
-12.0023276477
 11
-12.8155893833
 21
-11.7306228592
  0
LINE
  5
4EE
100
AcDbEntity
  8
DRAFT
100
AcDbLine
 62
7
  6
CONTINUOUS
 10
-2.5702637728
 20
3.8821586966
 11
-1.6334844374
 21
4.4807047467
  0
LINE
  5
4EF
100
AcDbEntity
  8
ASSI
100
AcDbLine
 62
7
  6
CONTINUOUS
 10
-2.5702637728
 20
7.0508899838
 11
-2.15350441
 21
7.3037846621
  0
LINE
  5
4F0
100
AcDbEntity
  8
RACCORDO
100
AcDbLine
 62
7
  6
CONTINUOUS
 10
-2.5702637728
 20
7.0508899838
 11
-2.15350441
 21
7.3037846621
  0
LINE
  5
4F1
100
AcDbEntity
  8
DRAFT
100
AcDbLine
 62
7
  6
CONTINUOUS
 10
-1.6334844374
 20
8.4814290899
 11
-2.0985792842
 21
8.2224344337
  0
LINE
  5
4F2
100
AcDbEntity
  8
ASSI
100
AcDbLine
 62
250
  6
CONTINUOUS
 10
-3.7498980492
 20
15.7710682025
 11
-18.6181122176
 21
24.3557887208
  0
LINE
  5
4F3
100
AcDbEntity
  8
RACCORDO
100
AcDbLine
 62
250
  6
CONTINUOUS
 10
-3.7498980492
 20
15.7710682025
 11
-18.6181122176
 21
24.3557887208
  0
LWPOLYLINE
  5
4F4
100
AcDbEntity
  8
ASSI
100
AcDbPolyline
 62
250
  6
CONTINUOUS
 90
9
 70
0
 10
-18.6181122176
 20
24.3557887208
 10
-18.6526807589
 20
24.3779240305
 10
-18.6831123718
 20
24.4019992722
 10
-18.7090826896
 20
24.4277578321
 10
-18.7303172219
 20
24.4549285907
 10
-18.7465860806
 20
24.4832187794
 10
-18.7577126536
 20
24.5123158664
 10
-18.7635833741
 20
24.5419017099
 10
-18.7645587781
 20
24.5597983951
  0
LWPOLYLINE
  5
4F5
100
AcDbEntity
  8
RACCORDO
100
AcDbPolyline
 62
250
  6
CONTINUOUS
 90
9
 70
0
 10
-18.6181122176
 20
24.3557887208
 10
-18.6526807589
 20
24.3779240305
 10
-18.6831123718
 20
24.4019992722
 10
-18.7090826896
 20
24.4277578321
 10
-18.7303172219
 20
24.4549285907
 10
-18.7465860806
 20
24.4832187794
 10
-18.7577126536
 20
24.5123158664
 10
-18.7635833741
 20
24.5419017099
 10
-18.7645587781
 20
24.5597983951
  0
LINE
  5
4F6
100
AcDbEntity
  8
ASSI
100
AcDbLine
 62
250
  6
CONTINUOUS
 10
-3.3695875954
 20
16.3538439223
 11
-3.4055996075
 21
16.3779570541
  0
LINE
  5
4F7
100
AcDbEntity
  8
RACCORDO
100
AcDbLine
 62
250
  6
CONTINUOUS
 10
-3.3695875954
 20
16.3538439223
 11
-3.4055996075
 21
16.3779570541
  0
LWPOLYLINE
  5
4F8
100
AcDbEntity
  8
RACCORDO
100
AcDbPolyline
 62
250
  6
CONTINUOUS
 90
7
 70
0
 10
17.4606767226
 20
0.3987047872
 10
17.4593043903
 20
0.399815336
 10
17.4546864313
 20
0.4027691555
 10
17.4468486456
 20
0.407533775
 10
17.4358503131
 20
0.4140731611
 10
17.4217745229
 20
0.422337925
 10
17.3848355608
 20
0.4437829592
  0
LWPOLYLINE
  5
4F9
100
AcDbEntity
  8
RACCORDO
100
AcDbPolyline
 62
250
  6
CONTINUOUS
 90
7
 70
0
 10
17.9667941026
 20
1.2960905248
 10
17.9654197271
 20
1.2972026417
 10
17.9608004494
 20
1.3001571488
 10
17.9529627879
 20
1.304921627
 10
17.9419654043
 20
1.3114604208
 10
17.9278905875
 20
1.3197246019
 10
17.8909530021
 20
1.3411688314
  0
LWPOLYLINE
  5
4FA
100
AcDbEntity
  8
ASSI
100
AcDbPolyline
 62
250
  6
CONTINUOUS
 90
3
 70
0
 10
-6.3855068294
 20
23.2595043598
 10
-6.3643464605
 20
23.2408367197
 10
-6.3396380361
 20
23.2223386141
  0
LWPOLYLINE
  5
4FB
100
AcDbEntity
  8
ASSI
100
AcDbPolyline
 62
250
  6
CONTINUOUS
 90
5
 70
0
 10
-2.3894517943
 20
16.807339155
 10
-2.4161267152
 20
16.8318769125
 10
-2.4448938372
 20
16.8554628006
 10
-2.4752241131
 20
16.877271868
 10
-2.5069366466
 20
16.8968375269
  0
LWPOLYLINE
  5
4FC
100
AcDbEntity
  8
RACCORDO
100
AcDbPolyline
 62
250
  6
CONTINUOUS
 90
5
 70
0
 10
-2.3894517943
 20
16.807339155
 10
-2.4161267152
 20
16.8318769125
 10
-2.4448938372
 20
16.8554628006
 10
-2.4752241131
 20
16.877271868
 10
-2.5069366466
 20
16.8968375269
  0
LWPOLYLINE
  5
4FD
100
AcDbEntity
  8
ASSI
100
AcDbPolyline
 62
250
  6
CONTINUOUS
 90
7
 70
0
 10
-1.1279684727
 20
21.2363089761
 10
-1.1332108708
 20
21.2422799337
 10
-1.1386971362
 20
21.2475386805
 10
-1.1442568687
 20
21.2519521289
 10
-1.1497886913
 20
21.2555112446
 10
-1.1552639859
 20
21.2583175698
 10
-1.1606288429
 20
21.2604177083
  0
LWPOLYLINE
  5
4FE
100
AcDbEntity
  8
ASSI
100
AcDbPolyline
 62
250
  6
CONTINUOUS
 90
6
 70
0
 10
-3.5061600742
 20
24.6824821393
 10
-3.5034421261
 20
24.6783899913
 10
-3.5011344022
 20
24.6743442875
 10
-3.4992138358
 20
24.6703578858
 10
-3.4976581903
 20
24.6664443071
 10
-3.4965565887
 20
24.6629732438
  0
LWPOLYLINE
  5
4FF
100
AcDbEntity
  8
ASSI
100
AcDbPolyline
 62
250
  6
CONTINUOUS
 90
10
 70
0
 10
2.5208922587
 20
18.3082906047
 10
2.4609158464
 20
18.4017257652
 10
2.3970918861
 20
18.4914273376
 10
2.3298191572
 20
18.576822353
 10
2.2595132498
 20
18.6573608525
 10
2.1866195319
 20
18.732532839
 10
2.1116099948
 20
18.8018706991
 10
2.0349597914
 20
18.8649345349
 10
1.9571446114
 20
18.9213158366
 10
1.8786530201
 20
18.9706529581
  0
LWPOLYLINE
  5
500
100
AcDbEntity
  8
ASSI
100
AcDbPolyline
 62
7
  6
CONTINUOUS
 90
10
 70
0
 10
1.3345266086
 20
22.6882388856
 10
1.3462279921
 20
22.669767114
 10
1.3565338713
 20
22.6508788092
 10
1.3654359089
 20
22.6316538057
 10
1.3729172526
 20
22.6122201346
 10
1.3790076147
 20
22.5926137557
 10
1.3837496378
 20
22.5727752896
 10
1.3871414673
 20
22.5527389117
 10
1.3891700221
 20
22.5326348411
 10
1.3898431512
 20
22.5125468888
  0
LWPOLYLINE
  5
501
100
AcDbEntity
  8
ASSI
100
AcDbPolyline
 62
250
  6
CONTINUOUS
 90
37
 70
0
 10
1.1691117695
 20
22.739114454
 10
1.1632492477
 20
22.7484688711
 10
1.1581172325
 20
22.7576647622
 10
1.1537157239
 20
22.7667021272
 10
1.1500907042
 20
22.7755960997
 10
1.1471961911
 20
22.7843315461
 10
1.1448942381
 20
22.7928630662
 10
1.1431818216
 20
22.8011832576
 10
1.1420619653
 20
22.8092995228
 10
1.141405793
 20
22.8171886685
 10
1.1412038806
 20
22.8248292396
 10
1.1414656522
 20
22.8322426913
 10
1.1420905045
 20
22.8394701966
 10
1.1430613331
 20
22.8465037392
 10
1.1443952422
 20
22.8533513353
 10
1.1460429415
 20
22.8600782069
 10
1.147993117
 20
22.8666928234
 10
1.1502570825
 20
22.8731867153
 10
1.1528194893
 20
22.8795996962
 10
1.155675849
 20
22.8859397674
 10
1.1588306499
 20
22.8921989276
 10
1.1622820087
 20
22.8983929854
 10
1.166025241
 20
22.9045231464
 10
1.1700650312
 20
22.9105882051
 10
1.1744135489
 20
22.9166003541
 10
1.1790662901
 20
22.9225609602
 10
1.1840277587
 20
22.9284686566
 10
1.1893236364
 20
22.934331535
 10
1.1949498224
 20
22.9401517243
 10
1.2009104175
 20
22.9459270955
 10
1.2072434054
 20
22.951659354
 10
1.2139450885
 20
22.9573513012
 10
1.2210191644
 20
22.9630001357
 10
1.2285147102
 20
22.9685991589
 10
1.2364480851
 20
22.974146138
 10
1.24480293
 20
22.9796433058
 10
1.2535792449
 20
22.9850906624
  0
LINE
  5
502
100
AcDbEntity
  8
DRAFT
100
AcDbLine
 62
250
  6
CONTINUOUS
 10
-1.9519452818
 20
27.1977077688
 11
-1.5302830338
 21
26.4840006255
  0
LWPOLYLINE
  5
503
100
AcDbEntity
  8
RACCORDO
100
AcDbPolyline
 62
7
  6
CONTINUOUS
 90
13
 70
0
 10
10.3203062471
 20
20.349342613
 10
10.3199386509
 20
20.3609396663
 10
10.3188266189
 20
20.3719754628
 10
10.3169701512
 20
20.3824500025
 10
10.3143526947
 20
20.3924303671
 10
10.3109908024
 20
20.4018494748
 10
10.3069341337
 20
20.4105060811
 10
10.3021617132
 20
20.4183758433
 10
10.2966945163
 20
20.425483104
 10
10.2906451293
 20
20.4316996466
 10
10.2840510809
 20
20.4369827321
 10
10.2768748423
 20
20.4413750994
 10
10.2710604623
 20
20.4441056184
  0
LINE
  5
504
100
AcDbEntity
  8
RACCORDO
100
AcDbLine
 62
7
  6
CONTINUOUS
 10
10.3203062471
 20
20.349342613
 11
10.3203062471
 21
20.2522265076
  0
LINE
  5
505
100
AcDbEntity
  8
RACCORDO
100
AcDbLine
 62
250
  6
CONTINUOUS
 10
10.943311138
 20
-4.3420954751
 11
10.943311138
 21
-11.2924295547
  0
LINE
  5
506
100
AcDbEntity
  8
RACCORDO
100
AcDbLine
 62
7
  6
CONTINUOUS
 10
11.0836412378
 20
-4.1415519566
 11
11.0836412378
 21
-11.0918860362
  0
LWPOLYLINE
  5
507
100
AcDbEntity
  8
RACCORDO
100
AcDbPolyline
 62
7
  6
CONTINUOUS
 90
24
 70
0
 10
11.0836412366
 20
-4.1415315386
 10
11.0836651912
 20
-4.1368510936
 10
11.0847161884
 20
-4.1088595406
 10
11.0876312322
 20
-4.0765672565
 10
11.0927810599
 20
-4.0403119984
 10
11.1003843126
 20
-4.0008578148
 10
11.1106359289
 20
-3.9585921966
 10
11.1236897695
 20
-3.9139083754
 10
11.1394807166
 20
-3.8676901389
 10
11.1579672798
 20
-3.8204697316
 10
11.1790907782
 20
-3.7727050946
 10
11.2025827156
 20
-3.7251709898
 10
11.2282359153
 20
-3.6783597775
 10
11.2558086244
 20
-3.6327418242
 10
11.2848515294
 20
-3.5890019178
 10
11.3150441067
 20
-3.5475135083
 10
11.3460030618
 20
-3.5086642407
 10
11.377078256
 20
-3.4730488282
 10
11.4078752883
 20
-3.4408473718
 10
11.437961501
 20
-3.412221433
 10
11.4665733518
 20
-3.3875351013
 10
11.4931853702
 20
-3.3668092705
 10
11.5175398784
 20
-3.3497959423
 10
11.5292402212
 20
-3.3423216816
  0
LWPOLYLINE
  5
508
100
AcDbEntity
  8
RACCORDO
100
AcDbPolyline
 62
250
  6
CONTINUOUS
 90
4
 70
0
 10
10.943311138
 20
-11.2924295554
 10
10.9424571097
 20
-11.3223993745
 10
10.9395800867
 20
-11.3510695654
 10
10.9346962895
 20
-11.3782784863
  0
LWPOLYLINE
  5
509
100
AcDbEntity
  8
RACCORDO
100
AcDbPolyline
 62
250
  6
CONTINUOUS
 90
9
 70
0
 10
11.0836412378
 20
-4.1415519566
 10
11.0831779525
 20
-4.153976803
 10
11.0782774043
 20
-4.1837252116
 10
11.0680771725
 20
-4.213021763
 10
11.0526865453
 20
-4.2415525649
 10
11.0322704227
 20
-4.2690119297
 10
11.0070475493
 20
-4.2951056491
 10
10.9772881707
 20
-4.3195541472
 10
10.943311138
 20
-4.3420954751
  0
LWPOLYLINE
  5
50A
100
AcDbEntity
  8
RACCORDO
100
AcDbPolyline
 62
250
  6
CONTINUOUS
 90
10
 70
0
 10
11.0836412378
 20
-11.0918860362
 10
11.0821313537
 20
-11.1143047689
 10
11.076926939
 20
-11.1390385422
 10
11.0680495002
 20
-11.1634183441
 10
11.0555663898
 20
-11.1872627755
 10
11.0395717639
 20
-11.2103945225
 10
11.0201895356
 20
-11.2326378763
 10
10.9975681763
 20
-11.2538269992
 10
10.9718775589
 20
-11.2738066704
 10
10.943311138
 20
-11.2924295547
  0
LWPOLYLINE
  5
50B
100
AcDbEntity
  8
RACCORDO
100
AcDbPolyline
 62
7
  6
CONTINUOUS
 90
3
 70
0
 10
4.3212461433
 20
-15.4011687016
 10
4.3281285462
 20
-15.3756174198
 10
4.3330176278
 20
-15.3486364453
  0
LINE
  5
50C
100
AcDbEntity
  8
ASSI
100
AcDbLine
 62
250
  6
CONTINUOUS
 10
-3.0857561539
 20
-26.5359222883
 11
-3.0719296121
 21
-26.5033988536
  0
LINE
  5
50D
100
AcDbEntity
  8
RACCORDO
100
AcDbLine
 62
250
  6
CONTINUOUS
 10
-3.0857561539
 20
-26.5359222883
 11
-3.0719296121
 21
-26.5033988536
  0
LWPOLYLINE
  5
50E
100
AcDbEntity
  8
RACCORDO
100
AcDbPolyline
 62
250
  6
CONTINUOUS
 90
4
 70
0
 10
0.9355255655
 20
-3.6404508837
 10
0.903117163
 20
-3.6786237872
 10
0.8706748471
 20
-3.7144999767
 10
0.8505480935
 20
-3.7353701443
  0
LINE
  5
50F
100
AcDbEntity
  8
CURVE
100
AcDbLine
 62
7
  6
CONTINUOUS
 10
-12.9112540231
 20
-12.2463089271
 11
-12.6395447095
 21
-11.9745996135
  0
LINE
  5
510
100
AcDbEntity
  8
CURVE
100
AcDbLine
 62
7
  6
CONTINUOUS
 10
-12.7352138745
 20
-12.4902902064
 11
-12.4635000357
 21
-12.2185763677
  0
LINE
  5
511
100
AcDbEntity
  8
CURVE
100
AcDbLine
 62
7
  6
CONTINUOUS
 10
-12.5591737258
 20
-12.7342714858
 11
-12.2874553619
 21
-12.4625531219
  0
LINE
  5
512
100
AcDbEntity
  8
CURVE
100
AcDbLine
 62
7
  6
CONTINUOUS
 10
-12.3831335771
 20
-12.9782527651
 11
-12.1114106881
 21
-12.7065298761
  0
LINE
  5
513
100
AcDbEntity
  8
CURVE
100
AcDbLine
 62
7
  6
CONTINUOUS
 10
-12.2070934285
 20
-13.2222340445
 11
-11.9353660143
 21
-12.9505066304
  0
LINE
  5
514
100
AcDbEntity
  8
CURVE
100
AcDbLine
 62
7
  6
CONTINUOUS
 10
-12.0310532798
 20
-13.4662153239
 11
-11.7593213406
 21
-13.1944833846
  0
LINE
  5
515
100
AcDbEntity
  8
CURVE
100
AcDbLine
 62
7
  6
CONTINUOUS
 10
-11.8550131312
 20
-13.7101966032
 11
-11.5832766668
 21
-13.4384601388
  0
LINE
  5
516
100
AcDbEntity
  8
CURVE
100
AcDbLine
 62
7
  6
CONTINUOUS
 10
-11.6789729825
 20
-13.9541778826
 11
-11.407231993
 21
-13.6824368931
  0
LINE
  5
517
100
AcDbEntity
  8
CURVE
100
AcDbLine
 62
7
  6
CONTINUOUS
 10
-11.5029328338
 20
-14.198159162
 11
-11.2311873192
 21
-13.9264136473
  0
LINE
  5
518
100
AcDbEntity
  8
CURVE
100
AcDbLine
 62
7
  6
CONTINUOUS
 10
-11.3268926852
 20
-14.4421404413
 11
-10.7840218318
 21
-13.8992695879
  0
LINE
  5
519
100
AcDbEntity
  8
CURVE
100
AcDbLine
 62
7
  6
CONTINUOUS
 10
-11.0804860452
 20
-14.6157552294
 11
-10.2377557873
 21
-13.7730249715
  0
LINE
  5
51A
100
AcDbEntity
  8
ASSI
100
AcDbLine
 62
7
  6
CONTINUOUS
 10
-2.5702637728
 20
2.5322667362
 11
-2.019391342
 21
2.8683356318
  0
LINE
  5
51B
100
AcDbEntity
  8
DRAFT
100
AcDbLine
 62
7
  6
CONTINUOUS
 10
-2.5702637728
 20
2.5322667362
 11
-2.019391342
 21
2.8683356318
  0
LINE
  5
51C
100
AcDbEntity
  8
ASSI
100
AcDbLine
 62
7
  6
CONTINUOUS
 10
-1.2264472243
 20
2.6126815196
 11
-2.019391342
 21
2.1466343616
  0
LINE
  5
51D
100
AcDbEntity
  8
DRAFT
100
AcDbLine
 62
7
  6
CONTINUOUS
 10
-1.2264472243
 20
2.6126815196
 11
-2.019391342
 21
2.1466343616
  0
LINE
  5
51E
100
AcDbEntity
  8
0
100
AcDbLine
 62
250
  6
CONTINUOUS
 10
-6.2491005285
 20
0.0400555681
 11
-5.7656150703
 21
0.3192130866
  0
LINE
  5
51F
100
AcDbEntity
  8
RACCORDO
100
AcDbLine
 62
250
  6
CONTINUOUS
 10
-6.2491005285
 20
0.0400555681
 11
-5.7656150703
 21
0.3192130866
  0
LINE
  5
520
100
AcDbEntity
  8
0
100
AcDbLine
 62
250
  6
CONTINUOUS
 10
-6.0370008029
 20
-0.3273119325
 11
-5.601347068
 21
-0.0757717601
  0
LINE
  5
521
100
AcDbEntity
  8
RACCORDO
100
AcDbLine
 62
250
  6
CONTINUOUS
 10
-6.0370008029
 20
-0.3273119325
 11
-5.601347068
 21
-0.0757717601
  0
LINE
  5
522
100
AcDbEntity
  8
ASSI
100
AcDbLine
 62
7
  6
CONTINUOUS
 10
-2.0894833632
 20
3.1109877698
 11
-2.2564769116
 21
3.0195727083
  0
LINE
  5
523
100
AcDbEntity
  8
DRAFT
100
AcDbLine
 62
7
  6
CONTINUOUS
 10
-2.0894833632
 20
3.1109877698
 11
-2.2564769116
 21
3.0195727083
  0
LINE
  5
524
100
AcDbEntity
  8
ASSI
100
AcDbLine
 62
250
  6
CONTINUOUS
 10
-18.2738137758
 20
24.9626775725
 11
-18.3116571234
 21
24.9812075995
  0
LINE
  5
525
100
AcDbEntity
  8
RACCORDO
100
AcDbLine
 62
250
  6
CONTINUOUS
 10
-18.2738137758
 20
24.9626775725
 11
-18.3116571234
 21
24.9812075995
  0
LWPOLYLINE
  5
526
100
AcDbEntity
  8
ASSI
100
AcDbPolyline
 62
250
  6
CONTINUOUS
 90
14
 70
0
 10
-3.7498980492
 20
15.7710682025
 10
-3.7115610382
 20
15.75110876
 10
-3.6698641828
 20
15.7335379281
 10
-3.6252519225
 20
15.718542992
 10
-3.5781938199
 20
15.7062824392
 10
-3.5291969325
 20
15.6968890041
 10
-3.4788025462
 20
15.6904646603
 10
-3.4275616633
 20
15.6870749799
 10
-3.3760077698
 20
15.6867506656
 10
-3.3246698298
 20
15.6894933642
 10
-3.2740213829
 20
15.6952844964
 10
-3.224677061
 20
15.7040606094
 10
-3.1773467385
 20
15.7156764731
 10
-3.1325644748
 20
15.7299551076
  0
LWPOLYLINE
  5
527
100
AcDbEntity
  8
RACCORDO
100
AcDbPolyline
 62
250
  6
CONTINUOUS
 90
14
 70
0
 10
-3.7498980492
 20
15.7710682025
 10
-3.7115610382
 20
15.75110876
 10
-3.6698641828
 20
15.7335379281
 10
-3.6252519225
 20
15.718542992
 10
-3.5781938199
 20
15.7062824392
 10
-3.5291969325
 20
15.6968890041
 10
-3.4788025462
 20
15.6904646603
 10
-3.4275616633
 20
15.6870749799
 10
-3.3760077698
 20
15.6867506656
 10
-3.3246698298
 20
15.6894933642
 10
-3.2740213829
 20
15.6952844964
 10
-3.224677061
 20
15.7040606094
 10
-3.1773467385
 20
15.7156764731
 10
-3.1325644748
 20
15.7299551076
  0
LWPOLYLINE
  5
528
100
AcDbEntity
  8
ASSI
100
AcDbPolyline
 62
7
  6
CONTINUOUS
 90
10
 70
0
 10
-17.2118248391
 20
25.4506864288
 10
-17.2445969201
 20
25.467910423
 10
-17.2861114713
 20
25.4850602832
 10
-17.3277633152
 20
25.4972025668
 10
-17.3693241628
 20
25.5043020822
 10
-17.4104024479
 20
25.5063537068
 10
-17.450248379
 20
25.5034478059
 10
-17.4882582906
 20
25.495845949
 10
-17.5241235691
 20
25.4838811985
 10
-17.5502760392
 20
25.4718258115
  0
LWPOLYLINE
  5
529
100
AcDbEntity
  8
RACCORDO
100
AcDbPolyline
 62
7
  6
CONTINUOUS
 90
10
 70
0
 10
-17.2118248391
 20
25.4506864288
 10
-17.2445969201
 20
25.467910423
 10
-17.2861114713
 20
25.4850602832
 10
-17.3277633152
 20
25.4972025668
 10
-17.3693241628
 20
25.5043020822
 10
-17.4104024479
 20
25.5063537068
 10
-17.450248379
 20
25.5034478059
 10
-17.4882582906
 20
25.495845949
 10
-17.5241235691
 20
25.4838811985
 10
-17.5502760392
 20
25.4718258115
  0
LWPOLYLINE
  5
52A
100
AcDbEntity
  8
ASSI
100
AcDbPolyline
 62
250
  6
CONTINUOUS
 90
9
 70
0
 10
-17.3080851277
 20
25.4428352907
 10
-17.3424686257
 20
25.4610980911
 10
-17.3762542616
 20
25.4751125477
 10
-17.409135773
 20
25.4848532919
 10
-17.4409850553
 20
25.4903573883
 10
-17.4713712348
 20
25.4916254325
 10
-17.4996254962
 20
25.4888325572
 10
-17.5255520848
 20
25.4823212205
 10
-17.5498280183
 20
25.4720659491
  0
LWPOLYLINE
  5
52B
100
AcDbEntity
  8
RACCORDO
100
AcDbPolyline
 62
250
  6
CONTINUOUS
 90
9
 70
0
 10
-17.3080851277
 20
25.4428352907
 10
-17.3424686257
 20
25.4610980911
 10
-17.3762542616
 20
25.4751125477
 10
-17.409135773
 20
25.4848532919
 10
-17.4409850553
 20
25.4903573883
 10
-17.4713712348
 20
25.4916254325
 10
-17.4996254962
 20
25.4888325572
 10
-17.5255520848
 20
25.4823212205
 10
-17.5498280183
 20
25.4720659491
  0
LWPOLYLINE
  5
52C
100
AcDbEntity
  8
ASSI
100
AcDbPolyline
 62
250
  6
CONTINUOUS
 90
9
 70
0
 10
-6.0139991314
 20
19.7452549309
 10
-6.0162093472
 20
19.7464758749
 10
-6.0279122704
 20
19.7513109429
 10
-6.0406385698
 20
19.7540150822
 10
-6.0542369702
 20
19.7545561638
 10
-6.0685458092
 20
19.7529277679
 10
-6.0833949859
 20
19.7491492671
 10
-6.0986079845
 20
19.7432655915
 10
-6.1140039635
 20
19.7353466954
  0
LINE
  5
52D
100
AcDbEntity
  8
ASSI
100
AcDbLine
 62
250
  6
CONTINUOUS
 10
-3.4055996075
 20
16.3779570541
 11
-18.2738137758
 21
24.9626775725
  0
LINE
  5
52E
100
AcDbEntity
  8
RACCORDO
100
AcDbLine
 62
250
  6
CONTINUOUS
 10
-3.4055996075
 20
16.3779570541
 11
-18.2738137758
 21
24.9626775725
  0
LINE
  5
52F
100
AcDbEntity
  8
ASSI
100
AcDbLine
 62
7
  6
CONTINUOUS
 10
-3.3961023093
 20
16.383440648
 11
-18.2648011763
 21
24.9684410253
  0
LINE
  5
530
100
AcDbEntity
  8
RACCORDO
100
AcDbLine
 62
7
  6
CONTINUOUS
 10
-3.3961023093
 20
16.383440648
 11
-18.2648011763
 21
24.9684410253
  0
LINE
  5
531
100
AcDbEntity
  8
ASSI
100
AcDbLine
 62
250
  6
CONTINUOUS
 10
-2.5069366466
 20
16.8968375269
 11
-17.3080852488
 21
25.4428352279
  0
LINE
  5
532
100
AcDbEntity
  8
RACCORDO
100
AcDbLine
 62
250
  6
CONTINUOUS
 10
-2.5069366466
 20
16.8968375269
 11
-17.3080852488
 21
25.4428352279
  0
LINE
  5
533
100
AcDbEntity
  8
ASSI
100
AcDbLine
 62
7
  6
CONTINUOUS
 10
-2.4106337941
 20
16.9046642427
 11
-17.2117823837
 21
25.4506619363
  0
LINE
  5
534
100
AcDbEntity
  8
RACCORDO
100
AcDbLine
 62
7
  6
CONTINUOUS
 10
-2.4106337941
 20
16.9046642427
 11
-17.2117823837
 21
25.4506619363
  0
LINE
  5
535
100
AcDbEntity
  8
ASSI
100
AcDbLine
 62
7
  6
CONTINUOUS
 10
-10.4308361613
 20
21.6999042001
 11
-6.5631625685
 21
19.4667579409
  0
LINE
  5
536
100
AcDbEntity
  8
ASSI
100
AcDbLine
 62
250
  6
CONTINUOUS
 10
-5.7023637524
 20
19.2701536224
 11
-5.8259128441
 21
19.3414893196
  0
LINE
  5
537
100
AcDbEntity
  8
ASSI
100
AcDbLine
 62
250
  6
CONTINUOUS
 10
-6.1140039635
 20
19.7353466954
 11
-9.9656567631
 21
21.9592427493
  0
LINE
  5
538
100
AcDbEntity
  8
ASSI
100
AcDbLine
 62
7
  6
CONTINUOUS
 10
-6.0139991314
 20
19.7452549309
 11
-9.865651931
 21
21.9691509849
  0
LINE
  5
539
100
AcDbEntity
  8
ASSI
100
AcDbLine
 62
250
  6
CONTINUOUS
 10
-7.9732200437
 20
22.4730213269
 11
-4.0929091777
 21
20.2325784646
  0
LINE
  5
53A
100
AcDbEntity
  8
ASSI
100
AcDbLine
 62
250
  6
CONTINUOUS
 10
-0.8278194122
 20
18.3565666642
 11
-2.3365093858
 21
19.2276653467
  0
LINE
  5
53B
100
AcDbEntity
  8
ASSI
100
AcDbLine
 62
250
  6
CONTINUOUS
 10
-9.9856483022
 20
23.6441822908
 11
-11.4943382758
 21
24.5152809732
  0
LINE
  5
53C
100
AcDbEntity
  8
ASSI
100
AcDbLine
 62
7
  6
CONTINUOUS
 10
-0.7302827231
 20
18.3650746954
 11
-2.2389726967
 21
19.2361733778
  0
LINE
  5
53D
100
AcDbEntity
  8
ASSI
100
AcDbLine
 62
7
  6
CONTINUOUS
 10
-9.8881116132
 20
23.652690322
 11
-11.3968015868
 21
24.5237890044
  0
LWPOLYLINE
  5
53E
100
AcDbEntity
  8
ASSI
100
AcDbPolyline
 62
250
  6
CONTINUOUS
 90
13
 70
0
 10
-9.9856483022
 20
23.6441822908
 10
-9.9672964193
 20
23.632583569
 10
-9.9491646519
 20
23.6183737958
 10
-9.9315640141
 20
23.601739809
 10
-9.9147712532
 20
23.5828739237
 10
-9.8991358549
 20
23.5620950218
 10
-9.8850434031
 20
23.5398806716
 10
-9.8727621822
 20
23.516664647
 10
-9.8624744063
 20
23.49280384
 10
-9.8543610988
 20
23.4687196805
 10
-9.8485611187
 20
23.4448313274
 10
-9.8451714455
 20
23.4215479361
 10
-9.8442484851
 20
23.3992706237
  0
LWPOLYLINE
  5
53F
100
AcDbEntity
  8
ASSI
100
AcDbPolyline
 62
250
  6
CONTINUOUS
 90
10
 70
0
 10
1.3345266086
 20
22.6882388856
 10
1.3303477109
 20
22.6939981176
 10
1.316817693
 20
22.7086927552
 10
1.3007603846
 20
22.7211139055
 10
1.2824505347
 20
22.7310490375
 10
1.2622014271
 20
22.7383281607
 10
1.2403595273
 20
22.7428267276
 10
1.2172985553
 20
22.7444677656
 10
1.1934130916
 20
22.7432231947
 10
1.1691118233
 20
22.7391143091
  0
LWPOLYLINE
  5
540
100
AcDbEntity
  8
DRAFT
100
AcDbPolyline
 62
7
  6
CONTINUOUS
 90
6
 70
0
 10
4.3147784422
 20
19.2846245641
 10
4.2439963938
 20
19.3967259791
 10
4.1729276171
 20
19.5086076521
 10
4.1015736663
 20
19.6202671218
 10
4.0299329874
 20
19.7317068495
 10
3.9580055802
 20
19.8429268353
  0
LINE
  5
541
100
AcDbEntity
  8
DRAFT
100
AcDbLine
 62
7
  6
CONTINUOUS
 10
4.2975551749
 20
19.1344768275
 11
4.2158552182
 21
19.2645145058
  0
LINE
  5
542
100
AcDbEntity
  8
DRAFT
100
AcDbLine
 62
7
  6
CONTINUOUS
 10
4.3788641482
 20
19.0041537565
 11
4.2975551749
 21
19.1344768275
  0
LWPOLYLINE
  5
543
100
AcDbEntity
  8
DRAFT
100
AcDbPolyline
 62
7
  6
CONTINUOUS
 90
4
 70
0
 10
4.5253731364
 20
18.9470510938
 10
4.4554668135
 20
19.0597871215
 10
4.3852691002
 20
19.1723107912
 10
4.3147784422
 20
19.2846245641
  0
LINE
  5
544
100
AcDbEntity
  8
DRAFT
100
AcDbLine
 62
7
  6
CONTINUOUS
 10
4.4597797395
 20
18.8735491371
 11
4.3788641482
 21
19.0041537565
  0
LINE
  5
545
100
AcDbEntity
  8
DRAFT
100
AcDbLine
 62
7
  6
CONTINUOUS
 10
4.5949880687
 20
18.834102708
 11
4.5253731364
 21
18.9470510938
  0
LINE
  5
546
100
AcDbEntity
  8
DRAFT
100
AcDbLine
 62
250
  6
CONTINUOUS
 10
5.5433865988
 20
22.8699970795
 11
5.9650488468
 21
22.1562899362
  0
LWPOLYLINE
  5
547
100
AcDbEntity
  8
RACCORDO
100
AcDbPolyline
 62
250
  6
CONTINUOUS
 90
10
 70
0
 10
17.33651885
 20
19.413798341
 10
17.3350191452
 20
19.3916025027
 10
17.3298272433
 20
19.3668726118
 10
17.3209625987
 20
19.3424938421
 10
17.3084918162
 20
19.3186481981
 10
17.2925078533
 20
19.2955125967
 10
17.2731294206
 20
19.2732586374
 10
17.2505005656
 20
19.2520518047
 10
17.2247898978
 20
19.2320501655
 10
17.1961888157
 20
19.2134026184
  0
LWPOLYLINE
  5
548
100
AcDbEntity
  8
RACCORDO
100
AcDbPolyline
 62
250
  6
CONTINUOUS
 90
6
 70
0
 10
10.9346962895
 20
-11.3782784863
 10
10.9278332529
 20
-11.4038727339
 10
10.9190296703
 20
-11.4277080086
 10
10.9083351764
 20
-11.4496499274
 10
10.8958100663
 20
-11.4695747824
 10
10.8815249564
 20
-11.4873702378
  0
LINE
  5
549
100
AcDbEntity
  8
CURVE
100
AcDbLine
 62
7
  6
CONTINUOUS
 10
-10.534176276
 20
-14.4894668882
 11
-9.6914897428
 21
-13.646780355
  0
LINE
  5
54A
100
AcDbEntity
  8
CURVE
100
AcDbLine
 62
7
  6
CONTINUOUS
 10
-9.9878665068
 20
-14.363178547
 11
-9.1452236983
 21
-13.5205357385
  0
LINE
  5
54B
100
AcDbEntity
  8
CURVE
100
AcDbLine
 62
7
  6
CONTINUOUS
 10
-9.4415567375
 20
-14.2368902058
 11
-8.5989576538
 21
-13.3942911221
  0
LINE
  5
54C
100
AcDbEntity
  8
CURVE
100
AcDbLine
 62
7
  6
CONTINUOUS
 10
-8.8952469683
 20
-14.1106018646
 11
-8.3558092326
 21
-13.5711641288
  0
LWPOLYLINE
  5
54D
100
AcDbEntity
  8
RACCORDO
100
AcDbPolyline
 62
250
  6
CONTINUOUS
 90
3
 70
0
 10
0.602977765
 20
-2.2408583699
 10
0.6479398565
 20
-2.2072028959
 10
0.694879887
 20
-2.1747250604
  0
LWPOLYLINE
  5
54E
100
AcDbEntity
  8
RACCORDO
100
AcDbPolyline
 62
7
  6
CONTINUOUS
 90
6
 70
0
 10
2.3217343873
 20
1.8940620867
 10
2.3927251823
 20
1.939926481
 10
2.4540250967
 20
1.9886418706
 10
2.5056341303
 20
2.0402082553
 10
2.5479027976
 20
2.0952485049
 10
2.5637521827
 20
2.1234131142
  0
LINE
  5
54F
100
AcDbEntity
  8
RACCORDO
100
AcDbLine
 62
250
  6
CONTINUOUS
 10
0.694879887
 20
-2.1747250604
 11
0.7437978565
 21
-2.1434248635
  0
LWPOLYLINE
  5
550
100
AcDbEntity
  8
RACCORDO
100
AcDbPolyline
 62
7
  6
CONTINUOUS
 90
9
 70
0
 10
3.6766655708
 20
2.788826506
 10
3.6822538504
 20
2.7922578619
 10
3.7025786045
 20
2.8062935252
 10
3.7227286149
 20
2.8226849517
 10
3.7426041812
 20
2.8413921317
 10
3.7619639448
 20
2.8623847659
 10
3.7806025406
 20
2.8856321348
 10
3.7984092883
 20
2.9110364132
 10
3.8152498701
 20
2.9384724795
  0
LINE
  5
551
100
AcDbEntity
  8
RACCORDO
100
AcDbLine
 62
250
  6
CONTINUOUS
 10
-0.173895716
 20
0.553353458
 11
3.8152498701
 21
2.9384724795
  0
LINE
  5
552
100
AcDbEntity
  8
RACCORDO
100
AcDbLine
 62
7
  6
CONTINUOUS
 10
-0.117770943
 20
0.5201244712
 11
3.6766576776
 21
2.7888217858
  0
LINE
  5
553
100
AcDbEntity
  8
RACCORDO
100
AcDbLine
 62
250
  6
CONTINUOUS
 10
3.5349614605
 20
1.9203649073
 11
2.5866803119
 21
1.3533854987
  0
LINE
  5
554
100
AcDbEntity
  8
RACCORDO
100
AcDbLine
 62
250
  6
CONTINUOUS
 10
3.8152498701
 20
1.7613460796
 11
-0.173895716
 21
-0.6237729419
  0
LINE
  5
555
100
AcDbEntity
  8
RACCORDO
100
AcDbLine
 62
7
  6
CONTINUOUS
 10
-0.0824286688
 20
0.5059284693
 11
2.3217343873
 21
1.8940620867
  0
LINE
  5
556
100
AcDbEntity
  8
RACCORDO
100
AcDbLine
 62
7
  6
CONTINUOUS
 10
2.3217343873
 20
1.0775918099
 11
-0.0824286688
 21
-0.3105418074
  0
LINE
  5
557
100
AcDbEntity
  8
ASSI
100
AcDbLine
 62
250
  6
CONTINUOUS
 10
-18.3116571234
 20
24.9812075995
 11
-18.3489849019
 21
24.9951259998
  0
LINE
  5
558
100
AcDbEntity
  8
RACCORDO
100
AcDbLine
 62
250
  6
CONTINUOUS
 10
-18.3116571234
 20
24.9812075995
 11
-18.3489849019
 21
24.9951259998
  0
LWPOLYLINE
  5
559
100
AcDbEntity
  8
ASSI
100
AcDbPolyline
 62
250
  6
CONTINUOUS
 90
7
 70
0
 10
-0.7302827231
 20
18.3650746954
 10
-0.7430577523
 20
18.3707687977
 10
-0.7581565302
 20
18.3739771215
 10
-0.7744622591
 20
18.3741383316
 10
-0.7917020936
 20
18.371249732
 10
-0.809587569
 20
18.3653596572
 10
-0.8278194122
 20
18.3565666642
  0
LWPOLYLINE
  5
55A
100
AcDbEntity
  8
ASSI
100
AcDbPolyline
 62
250
  6
CONTINUOUS
 90
7
 70
0
 10
-2.2389726967
 20
19.2361733778
 10
-2.2517476164
 20
19.2418674443
 10
-2.2668464011
 20
19.2450757929
 10
-2.2831521458
 20
19.2452370211
 10
-2.3003920017
 20
19.2423484308
 10
-2.3182775064
 20
19.2364583543
 10
-2.3365093858
 20
19.2276653467
  0
LWPOLYLINE
  5
55B
100
AcDbEntity
  8
ASSI
100
AcDbPolyline
 62
250
  6
CONTINUOUS
 90
7
 70
0
 10
-11.3968015868
 20
24.5237890044
 10
-11.4095765064
 20
24.5294830708
 10
-11.4246752912
 20
24.5326914194
 10
-11.4409810359
 20
24.5328526477
 10
-11.4582208917
 20
24.5299640573
 10
-11.4761063965
 20
24.5240739809
 10
-11.4943382758
 20
24.5152809732
  0
LWPOLYLINE
  5
55C
100
AcDbEntity
  8
ASSI
100
AcDbPolyline
 62
250
  6
CONTINUOUS
 90
7
 70
0
 10
-2.3365093858
 20
19.2276653467
 10
-2.3542798511
 20
19.2369221013
 10
-2.37191549
 20
19.2433608305
 10
-2.3891153632
 20
19.2468159328
 10
-2.4056110887
 20
19.2471658784
 10
-2.4210617166
 20
19.2443317932
 10
-2.4336883561
 20
19.239124028
  0
LWPOLYLINE
  5
55D
100
AcDbEntity
  8
ASSI
100
AcDbPolyline
 62
250
  6
CONTINUOUS
 90
7
 70
0
 10
-11.4943382758
 20
24.5152809732
 10
-11.5121087412
 20
24.5245377279
 10
-11.52974438
 20
24.5309764571
 10
-11.5469442533
 20
24.5344315593
 10
-11.5634399788
 20
24.5347815049
 10
-11.5788906066
 20
24.5319474197
 10
-11.5915172461
 20
24.5267396546
  0
LWPOLYLINE
  5
55E
100
AcDbEntity
  8
ASSI
100
AcDbPolyline
 62
250
  6
CONTINUOUS
 90
6
 70
0
 10
-4.1536758301
 20
22.0044126656
 10
-4.1568669469
 20
22.0061411598
 10
-4.1736951915
 20
22.0120602048
 10
-4.1923893235
 20
22.0137604155
 10
-4.2125132471
 20
22.0112021037
 10
-4.2335975168
 20
22.0044449279
  0
LWPOLYLINE
  5
55F
100
AcDbEntity
  8
ASSI
100
AcDbPolyline
 62
250
  6
CONTINUOUS
 90
6
 70
0
 10
-6.2314445324
 20
23.2040902736
 10
-6.2346357895
 20
23.2058188393
 10
-6.2514640966
 20
23.2117378693
 10
-6.27015828
 20
23.2134380784
 10
-6.2902822465
 20
23.2108798046
 10
-6.3113665491
 20
23.2041227266
  0
LWPOLYLINE
  5
560
100
AcDbEntity
  8
ASSI
100
AcDbPolyline
 62
250
  6
CONTINUOUS
 90
4
 70
0
 10
-4.2335983432
 20
22.004445405
 10
-4.2063802764
 20
21.9896695089
 10
-4.1764294111
 20
21.9758758486
 10
-4.1437585879
 20
21.9629643739
  0
LINE
  5
561
100
AcDbEntity
  8
ASSI
100
AcDbLine
 62
250
  6
CONTINUOUS
 10
-7.8340808587
 20
22.6157616008
 11
-3.9870993884
 21
20.3945627139
  0
LINE
  5
562
100
AcDbEntity
  8
DRAFT
100
AcDbLine
 62
7
  6
CONTINUOUS
 10
-0.9937144956
 20
19.5418415138
 11
-0.4149500237
 21
19.2076701613
  0
LINE
  5
563
100
AcDbEntity
  8
ASSI
100
AcDbLine
 62
250
  6
CONTINUOUS
 10
-7.4522685881
 20
23.4256321166
 11
-3.7157143943
 21
21.2681925551
  0
LINE
  5
564
100
AcDbEntity
  8
ASSI
100
AcDbLine
 62
250
  6
CONTINUOUS
 10
-7.329794101
 20
23.5779943782
 11
-3.5932399072
 21
21.4205548167
  0
LINE
  5
565
100
AcDbEntity
  8
ASSI
100
AcDbLine
 62
250
  6
CONTINUOUS
 10
-3.4568444812
 20
21.5021168244
 11
-7.188533661
 21
23.6567473877
  0
LINE
  5
566
100
AcDbEntity
  8
ASSI
100
AcDbLine
 62
250
  6
CONTINUOUS
 10
-6.3113665491
 20
23.2041227266
 11
-4.2335983432
 21
22.004445405
  0
LINE
  5
567
100
AcDbEntity
  8
ASSI
100
AcDbLine
 62
7
  6
CONTINUOUS
 10
-6.2314445324
 20
23.2040902736
 11
-4.1536758301
 21
22.0044126656
  0
LINE
  5
568
100
AcDbEntity
  8
ASSI
100
AcDbLine
 62
250
  6
CONTINUOUS
 10
-3.3072583535
 20
21.5500435144
 11
-3.9016933426
 21
21.8932628271
  0
LINE
  5
569
100
AcDbEntity
  8
ASSI
100
AcDbLine
 62
250
  6
CONTINUOUS
 10
-6.4448485608
 20
23.3616487769
 11
-7.03928355
 21
23.7048680896
  0
LINE
  5
56A
100
AcDbEntity
  8
ASSI
100
AcDbLine
 62
7
  6
CONTINUOUS
 10
-7.2761005384
 20
24.2564929268
 11
-6.4150708453
 21
23.7593451732
  0
LINE
  5
56B
100
AcDbEntity
  8
ASSI
100
AcDbLine
 62
7
  6
CONTINUOUS
 10
-0.5612674834
 20
20.3794324774
 11
1.8786530201
 21
18.9706529581
  0
LINE
  5
56C
100
AcDbEntity
  8
0
100
AcDbLine
 62
7
  6
CONTINUOUS
 10
-2.7024286423
 20
21.8148543375
 11
-5.2180389023
 21
23.2673361736
  0
LINE
  5
56D
100
AcDbEntity
  8
ASSI
100
AcDbLine
 62
250
  6
CONTINUOUS
 10
-1.2704867771
 20
21.6008406016
 11
-1.6992175499
 21
21.8483843765
  0
LINE
  5
56E
100
AcDbEntity
  8
ASSI
100
AcDbLine
 62
250
  6
CONTINUOUS
 10
-4.6664359539
 20
23.561619095
 11
-5.0951667266
 21
23.8091628699
  0
LINE
  5
56F
100
AcDbEntity
  8
ASSI
100
AcDbLine
 62
250
  6
CONTINUOUS
 10
-0.8212803717
 20
21.7443619892
 11
-1.2568656535
 21
21.9958634718
  0
LINE
  5
570
100
AcDbEntity
  8
ASSI
100
AcDbLine
 62
250
  6
CONTINUOUS
 10
-4.2122791341
 20
23.7022821754
 11
-4.6478644159
 21
23.953783658
  0
LWPOLYLINE
  5
571
100
AcDbEntity
  8
ASSI
100
AcDbPolyline
 62
7
  6
CONTINUOUS
 90
10
 70
0
 10
-6.2314139118
 20
23.2040725829
 10
-6.242850026
 20
23.2108651103
 10
-6.2668296967
 20
23.2264685338
 10
-6.2866196631
 20
23.2410327598
 10
-6.3027378302
 20
23.2543835776
 10
-6.3160452812
 20
23.2666717118
 10
-6.3268642738
 20
23.2777616309
 10
-6.3352557492
 20
23.2872682665
 10
-6.3414670369
 20
23.2949664917
 10
-6.343687585
 20
23.2978974453
  0
LWPOLYLINE
  5
572
100
AcDbEntity
  8
ASSI
100
AcDbPolyline
 62
7
  6
CONTINUOUS
 90
13
 70
0
 10
3.5646572564
 20
19.9226895906
 10
3.6238979064
 20
19.8864402512
 10
3.682624026
 20
19.8464493144
 10
3.7408356152
 20
19.8027167802
 10
3.7987761618
 20
19.7550376177
 10
3.8562021779
 20
19.7036168579
 10
3.9123832005
 20
19.6490695937
 10
3.9672982722
 20
19.5913358598
 10
4.0209683503
 20
19.5304756214
 10
4.0727258431
 20
19.467283868
 10
4.1223482201
 20
19.4020255957
 10
4.1700580118
 20
19.3344358084
 10
4.2158552182
 20
19.2645145058
  0
LINE
  5
573
100
AcDbEntity
  8
ASSI
100
AcDbLine
 62
250
  6
CONTINUOUS
 10
-6.3396380361
 20
23.2223386141
 11
-6.3113665491
 21
23.2041227266
  0
LWPOLYLINE
  5
574
100
AcDbEntity
  8
ASSI
100
AcDbPolyline
 62
250
  6
CONTINUOUS
 90
10
 70
0
 10
-1.076152641
 20
21.363074173
 10
-1.0860480057
 20
21.3705404079
 10
-1.0965619356
 20
21.3774367615
 10
-1.107622491
 20
21.3837262548
 10
-1.1192820563
 20
21.389364057
 10
-1.1313654271
 20
21.3943590368
 10
-1.1434796142
 20
21.398753367
 10
-1.155478016
 20
21.4025446576
 10
-1.1674510117
 20
21.4057031324
 10
-1.1793805042
 20
21.4082208043
  0
LINE
  5
575
100
AcDbEntity
  8
DRAFT
100
AcDbLine
 62
7
  6
CONTINUOUS
 10
-2.0958701201
 20
27.117461898
 11
-2.0024635478
 21
27.0264149084
  0
LINE
  5
576
100
AcDbEntity
  8
DRAFT
100
AcDbLine
 62
7
  6
CONTINUOUS
 10
-2.1901581272
 20
27.2099092527
 11
-2.0958701201
 21
27.117461898
  0
LINE
  5
577
100
AcDbEntity
  8
DRAFT
100
AcDbLine
 62
7
  6
CONTINUOUS
 10
-2.2853265684
 20
27.3037422765
 11
-2.1901581272
 21
27.2099092527
  0
LWPOLYLINE
  5
578
100
AcDbEntity
  8
DRAFT
100
AcDbPolyline
 62
7
  6
CONTINUOUS
 90
3
 70
0
 10
-2.4297227881
 20
27.446983396
 10
-2.3813714403
 20
27.3989021855
 10
-2.2853265684
 20
27.3037422765
  0
LWPOLYLINE
  5
579
100
AcDbEntity
  8
SMUSSO
100
AcDbPolyline
 62
7
  6
CONTINUOUS
 90
11
 70
0
 10
5.5982662846
 20
22.0184773501
 10
5.5206183177
 20
22.0958422603
 10
5.4507580772
 20
22.1754737989
 10
5.3889104678
 20
22.2571212327
 10
5.3352747061
 20
22.3405168741
 10
5.2900229153
 20
22.4253909826
 10
5.2533001719
 20
22.5114806853
 10
5.2252247503
 20
22.5985048456
 10
5.2058878828
 20
22.6861787023
 10
5.1953523575
 20
22.7742288224
 10
5.1932332977
 20
22.8352524956
  0
LINE
  5
57A
100
AcDbEntity
  8
SMUSSO
100
AcDbLine
 62
7
  6
CONTINUOUS
 10
5.3744530927
 20
23.7356489025
 11
5.4928683328
 21
23.5369855978
  0
LWPOLYLINE
  5
57B
100
AcDbEntity
  8
DRAFT
100
AcDbPolyline
 62
7
  6
CONTINUOUS
 90
10
 70
0
 10
10.1364023898
 20
19.582807595
 10
10.0798553669
 20
19.6841738419
 10
10.0230659782
 20
19.7854085911
 10
9.9660342236
 20
19.8865118427
 10
9.9087591302
 20
19.9874853026
 10
9.8512416708
 20
20.0883272649
 10
9.7934847647
 20
20.1890326117
 10
9.7354893849
 20
20.289599637
 10
9.6772545583
 20
20.3900300468
 10
9.6187802849
 20
20.4903238411
  0
LINE
  5
57C
100
AcDbEntity
  8
ASSI
100
AcDbLine
 62
7
  6
CONTINUOUS
 10
12.1632775184
 20
22.9157551659
 11
12.0414301201
 21
23.2613078073
  0
LWPOLYLINE
  5
57D
100
AcDbEntity
  8
RACCORDO
100
AcDbPolyline
 62
250
  6
CONTINUOUS
 90
13
 70
0
 10
17.1961888157
 20
13.4585865273
 10
17.1973784125
 20
13.4091806805
 10
17.2013308097
 20
13.3614774905
 10
17.2080460072
 20
13.3154769574
 10
17.2174152396
 20
13.2710137545
 10
17.2295472723
 20
13.2282532084
 10
17.2447684015
 20
13.1876912992
 10
17.2632591801
 20
13.149069656
 10
17.2848390551
 20
13.1126466497
 10
17.3092926643
 20
13.0796933727
 10
17.3365482202
 20
13.0506335224
 10
17.3666775103
 20
13.0250434013
 10
17.3996805346
 20
13.0029230094
  0
LINE
  5
57E
100
AcDbEntity
  8
RACCORDO
100
AcDbLine
 62
250
  6
CONTINUOUS
 10
17.1961888157
 20
19.2134026184
 11
17.1961888157
 21
13.4585865273
  0
LINE
  5
57F
100
AcDbEntity
  8
RACCORDO
100
AcDbLine
 62
7
  6
CONTINUOUS
 10
17.3365189155
 20
19.4139461369
 11
17.3365189155
 21
13.6591300455
  0
LINE
  5
580
100
AcDbEntity
  8
RACCORDO
100
AcDbLine
 62
250
  6
CONTINUOUS
 10
17.8909530021
 20
12.7193242414
 11
17.8909530021
 21
1.3411688314
  0
LINE
  5
581
100
AcDbEntity
  8
0
100
AcDbLine
 62
7
  6
CONTINUOUS
 10
18.0262578488
 20
8.0064328724
 11
18.0262578488
 21
6.3734923188
  0
LINE
  5
582
100
AcDbEntity
  8
RACCORDO
100
AcDbLine
 62
7
  6
CONTINUOUS
 10
18.0312831019
 20
12.9198677599
 11
18.0312831019
 21
8.0472603317
  0
LINE
  5
583
100
AcDbEntity
  8
RACCORDO
100
AcDbLine
 62
7
  6
CONTINUOUS
 10
18.0312831019
 20
6.3734923188
 11
18.0312831019
 21
1.5417123499
  0
LWPOLYLINE
  5
584
100
AcDbEntity
  8
RACCORDO
100
AcDbPolyline
 62
250
  6
CONTINUOUS
 90
9
 70
0
 10
17.3365188972
 20
13.6590517567
 10
17.3360557233
 20
13.6467064475
 10
17.3311553938
 20
13.6169580095
 10
17.3209553487
 20
13.5876613656
 10
17.3055648485
 20
13.5591304152
 10
17.2851487634
 20
13.5316708502
 10
17.2599258108
 20
13.5055768896
 10
17.2301662166
 20
13.4811281264
 10
17.1961888157
 20
13.4585865273
  0
LWPOLYLINE
  5
585
100
AcDbEntity
  8
0
100
AcDbPolyline
 62
7
  6
CONTINUOUS
 90
3
 70
0
 10
18.0312829854
 20
8.047063227
 10
18.0302195718
 20
8.0288215826
 10
18.0262578488
 20
8.0064328724
  0
LWPOLYLINE
  5
586
100
AcDbEntity
  8
0
100
AcDbPolyline
 62
7
  6
CONTINUOUS
 90
3
 70
0
 10
18.0312829854
 20
6.4141226734
 10
18.0302195718
 20
6.395881029
 10
18.0262578488
 20
6.3734923188
  0
LWPOLYLINE
  5
587
100
AcDbEntity
  8
RACCORDO
100
AcDbPolyline
 62
250
  6
CONTINUOUS
 90
8
 70
0
 10
18.0312831019
 20
1.5417123499
 10
18.0297864873
 20
1.5193921993
 10
18.024598148
 20
1.4946623019
 10
18.0157364981
 20
1.4702820129
 10
18.0032663664
 20
1.4464315242
 10
17.987280723
 20
1.4232899557
 10
17.9678997062
 20
1.4010311608
 10
17.9452685451
 20
1.3798212513
  0
LWPOLYLINE
  5
588
100
AcDbEntity
  8
RACCORDO
100
AcDbPolyline
 62
250
  6
CONTINUOUS
 90
10
 70
0
 10
18.031283053
 20
12.9197400168
 10
18.0297827079
 20
12.897519487
 10
18.0245903022
 20
12.872790296
 10
18.0157253467
 20
12.848412214
 10
18.0032544129
 20
12.8245671965
 10
17.9872704559
 20
12.8014321868
 10
17.9678921909
 20
12.7791787954
 10
17.9452636656
 20
12.7579725016
 10
17.9195534739
 20
12.7379713542
 10
17.8909530021
 20
12.7193242414
  0
LINE
  5
589
100
AcDbEntity
  8
ASSI
100
AcDbLine
 62
250
  6
CONTINUOUS
 10
-3.1029826028
 20
-26.5645119801
 11
-3.0857561539
 21
-26.5359222883
  0
LINE
  5
58A
100
AcDbEntity
  8
RACCORDO
100
AcDbLine
 62
250
  6
CONTINUOUS
 10
-3.1029826028
 20
-26.5645119801
 11
-3.0857561539
 21
-26.5359222883
  0
LINE
  5
58B
100
AcDbEntity
  8
ASSI
100
AcDbLine
 62
250
  6
CONTINUOUS
 10
-5.5895419137
 20
-8.0967859431
 11
-5.979617104
 21
-8.3719467546
  0
LINE
  5
58C
100
AcDbEntity
  8
RACCORDO
100
AcDbLine
 62
250
  6
CONTINUOUS
 10
-5.5895419137
 20
-8.0967859431
 11
-5.979617104
 21
-8.3719467546
  0
LINE
  5
58D
100
AcDbEntity
  8
ASSI
100
AcDbLine
 62
7
  6
CONTINUOUS
 10
-5.6498115188
 20
-8.3813932084
 11
-5.650071567
 21
-8.3815762661
  0
LINE
  5
58E
100
AcDbEntity
  8
RACCORDO
100
AcDbLine
 62
7
  6
CONTINUOUS
 10
-5.6498115188
 20
-8.3813932084
 11
-5.650071567
 21
-8.3815762661
  0
LWPOLYLINE
  5
58F
100
AcDbEntity
  8
ASSI
100
AcDbPolyline
 62
250
  6
CONTINUOUS
 90
13
 70
0
 10
-5.650071567
 20
-8.3815762661
 10
-5.6723280662
 20
-8.3951441701
 10
-5.6957788254
 20
-8.4055480992
 10
-5.7197855766
 20
-8.4127900356
 10
-5.7437347026
 20
-8.4170822853
 10
-5.7676687705
 20
-8.4187837314
 10
-5.7923220221
 20
-8.4181237088
 10
-5.8175329104
 20
-8.4151527576
 10
-5.8432235309
 20
-8.4098876302
 10
-5.8704529044
 20
-8.4019812732
 10
-5.8995628177
 20
-8.3910235503
 10
-5.9300737253
 20
-8.3768730435
 10
-5.9618533943
 20
-8.3593079263
  0
LWPOLYLINE
  5
590
100
AcDbEntity
  8
RACCORDO
100
AcDbPolyline
 62
250
  6
CONTINUOUS
 90
13
 70
0
 10
-5.650071567
 20
-8.3815762661
 10
-5.6723280662
 20
-8.3951441701
 10
-5.6957788254
 20
-8.4055480992
 10
-5.7197855766
 20
-8.4127900356
 10
-5.7437347026
 20
-8.4170822853
 10
-5.7676687705
 20
-8.4187837314
 10
-5.7923220221
 20
-8.4181237088
 10
-5.8175329104
 20
-8.4151527576
 10
-5.8432235309
 20
-8.4098876302
 10
-5.8704529044
 20
-8.4019812732
 10
-5.8995628177
 20
-8.3910235503
 10
-5.9300737253
 20
-8.3768730435
 10
-5.9618533943
 20
-8.3593079263
  0
LINE
  5
591
100
AcDbEntity
  8
DRAFT
100
AcDbLine
 62
7
  6
CONTINUOUS
 10
0.8368101468
 20
-2.2781838831
 11
0.421837067
 21
-2.5177825759
  0
LWPOLYLINE
  5
592
100
AcDbEntity
  8
RACCORDO
100
AcDbPolyline
 62
7
  6
CONTINUOUS
 90
11
 70
0
 10
0.7026199514
 20
-2.234831301
 10
0.7499014677
 20
-2.2083530711
 10
0.8033082478
 20
-2.1828860001
 10
0.8554046059
 20
-2.1629206885
 10
0.9054580975
 20
-2.1487913369
 10
0.9526535344
 20
-2.140651594
 10
0.9961020566
 20
-2.1384171949
 10
1.0348774237
 20
-2.1416601901
 10
1.0695848708
 20
-2.1497700689
 10
1.1018714613
 20
-2.16290092
 10
1.1085520096
 20
-2.1664259019
  0
LWPOLYLINE
  5
593
100
AcDbEntity
  8
0
100
AcDbPolyline
 62
250
  6
CONTINUOUS
 90
8
 70
0
 10
-6.1033105188
 20
-8.1160216248
 10
-6.1006789201
 20
-8.1145548801
 10
-6.0823413811
 20
-8.1010076146
 10
-6.0667927111
 20
-8.0831980538
 10
-6.0542988491
 20
-8.0614308063
 10
-6.0450734857
 20
-8.0360781713
 10
-6.0392744086
 20
-8.0075737717
 10
-6.0370008029
 20
-7.9764051366
  0
LWPOLYLINE
  5
594
100
AcDbEntity
  8
RACCORDO
100
AcDbPolyline
 62
250
  6
CONTINUOUS
 90
8
 70
0
 10
-6.1033105188
 20
-8.1160216248
 10
-6.1006789201
 20
-8.1145548801
 10
-6.0823413811
 20
-8.1010076146
 10
-6.0667927111
 20
-8.0831980538
 10
-6.0542988491
 20
-8.0614308063
 10
-6.0450734857
 20
-8.0360781713
 10
-6.0392744086
 20
-8.0075737717
 10
-6.0370008029
 20
-7.9764051366
  0
LINE
  5
595
100
AcDbEntity
  8
RACCORDO
100
AcDbLine
 62
250
  6
CONTINUOUS
 10
0.7437978565
 20
-2.1434248635
 11
0.8133006237
 21
-2.1050629537
  0
LWPOLYLINE
  5
596
100
AcDbEntity
  8
RACCORDO
100
AcDbPolyline
 62
250
  6
CONTINUOUS
 90
52
 70
0
 10
0.7437978565
 20
-4.177845054
 10
0.6758880159
 20
-4.2151842208
 10
0.6096454825
 20
-4.2459037951
 10
0.5450702565
 20
-4.2700037771
 10
0.4819042255
 20
-4.2874240459
 10
0.4204055019
 20
-4.2982247222
 10
0.3613484218
 20
-4.3025861688
 10
0.3044711873
 20
-4.3001350731
 10
0.2500355964
 20
-4.2912447477
 10
0.1996013792
 20
-4.2772154927
 10
0.1536730915
 20
-4.2578570012
 10
0.1117461775
 20
-4.23335958
 10
0.0738667
 20
-4.2055944498
 10
0.040239113
 20
-4.1747124584
 10
0.0106589624
 20
-4.1405627579
 10
-0.0154410505
 20
-4.1045640259
 10
-0.0380128679
 20
-4.0668513014
 10
-0.0571045477
 20
-4.0272895453
 10
-0.0734275617
 20
-3.9868923176
 10
-0.0869964338
 20
-3.9459451853
 10
-0.0977966402
 20
-3.9041625814
 10
-0.106496081
 20
-3.8617013644
 10
-0.1132224368
 20
-3.8188788067
 10
-0.117848027
 20
-3.775377636
 10
-0.12065771
 20
-3.7304028937
 10
-0.121871517
 20
-3.6841019054
 10
-0.1212694168
 20
-3.6363273456
 10
-0.1184761738
 20
-3.5858422791
 10
-0.1136726749
 20
-3.5324827058
 10
-0.1066780333
 20
-3.4764126258
 10
-0.096574353
 20
-3.416887105
 10
-0.0832683841
 20
-3.3532927128
 10
-0.0668533766
 20
-3.2862428799
 10
-0.0466911836
 20
-3.2168329634
 10
-0.022165995
 20
-3.1441710297
 10
0.006106379
 20
-3.0691490125
 10
0.0369166549
 20
-2.9955380704
 10
0.0704786946
 20
-2.9238355778
 10
0.1065786362
 20
-2.8535441603
 10
0.1433656108
 20
-2.7869428537
 10
0.180493854
 20
-2.7248123533
 10
0.2183091302
 20
-2.6663719638
 10
0.2559978644
 20
-2.6115586349
 10
0.2932105911
 20
-2.5607154319
 10
0.3302967757
 20
-2.5134992894
 10
0.3674912393
 20
-2.4688179619
 10
0.4045175798
 20
-2.426711747
 10
0.4416521992
 20
-2.3871403471
 10
0.4799591247
 20
-2.3488906233
 10
0.5195244877
 20
-2.3116062086
 10
0.5602621568
 20
-2.27564347
 10
0.602977765
 20
-2.2408583699
  0
LINE
  5
597
100
AcDbEntity
  8
0
100
AcDbLine
 62
250
  6
CONTINUOUS
 10
-6.0370008029
 20
-7.9764051366
 11
-5.5895419137
 21
-7.7357762263
  0
LINE
  5
598
100
AcDbEntity
  8
RACCORDO
100
AcDbLine
 62
250
  6
CONTINUOUS
 10
-6.0370008029
 20
-7.9764051366
 11
-5.5895419137
 21
-7.7357762263
  0
LINE
  5
599
100
AcDbEntity
  8
0
100
AcDbLine
 62
7
  6
CONTINUOUS
 10
-6.1033105188
 20
-8.1160216248
 11
-5.5895419137
 21
-7.8397334952
  0
LINE
  5
59A
100
AcDbEntity
  8
RACCORDO
100
AcDbLine
 62
7
  6
CONTINUOUS
 10
-6.1033105188
 20
-8.1160216248
 11
-5.5895419137
 21
-7.8397334952
  0
LINE
  5
59B
100
AcDbEntity
  8
DRAFT
100
AcDbLine
 62
7
  6
CONTINUOUS
 10
0.8368101468
 20
-3.829477409
 11
0.421837067
 21
-4.0367404218
  0
LWPOLYLINE
  5
59C
100
AcDbEntity
  8
RACCORDO
100
AcDbPolyline
 62
250
  6
CONTINUOUS
 90
3
 70
0
 10
0.8133006237
 20
-2.1050629537
 10
0.8814712474
 20
-2.0737261151
 10
0.9483097276
 20
-2.0494143477
  0
LWPOLYLINE
  5
59D
100
AcDbEntity
  8
ASSI
100
AcDbPolyline
 62
250
  6
CONTINUOUS
 90
3
 70
0
 10
-18.3489849019
 20
24.9951259998
 10
-18.3853884968
 20
25.0042804133
 10
-18.4204694104
 20
25.0085706297
  0
LWPOLYLINE
  5
59E
100
AcDbEntity
  8
RACCORDO
100
AcDbPolyline
 62
250
  6
CONTINUOUS
 90
3
 70
0
 10
-18.3489849019
 20
24.9951259998
 10
-18.3853884968
 20
25.0042804133
 10
-18.4204694104
 20
25.0085706297
  0
LINE
  5
59F
100
AcDbEntity
  8
ASSI
100
AcDbLine
 62
250
  6
CONTINUOUS
 10
-3.9457024299
 20
21.9052881744
 11
-3.9016933426
 21
21.8932628271
  0
LWPOLYLINE
  5
5A0
100
AcDbEntity
  8
ASSI
100
AcDbPolyline
 62
250
  6
CONTINUOUS
 90
3
 70
0
 10
-4.0697877247
 20
21.9386849068
 10
-4.0297777723
 20
21.9273918677
 10
-3.9457024299
 20
21.9052881744
  0
LWPOLYLINE
  5
5A1
100
AcDbEntity
  8
ASSI
100
AcDbPolyline
 62
250
  6
CONTINUOUS
 90
12
 70
0
 10
-3.8453275079
 20
21.8741952574
 10
-3.7906134419
 20
21.8568497528
 10
-3.7375511445
 20
21.8412263133
 10
-3.6858218913
 20
21.8273830396
 10
-3.6357444068
 20
21.815261831
 10
-3.5882748642
 20
21.8046883851
 10
-3.5437876151
 20
21.7957342648
 10
-3.5019083078
 20
21.7883279072
 10
-3.4624700605
 20
21.7820803216
 10
-3.4255224241
 20
21.776964556
 10
-3.3910158477
 20
21.7730075624
 10
-3.3586347958
 20
21.7699012064
  0
LINE
  5
5A2
100
AcDbEntity
  8
ASSI
100
AcDbLine
 62
250
  6
CONTINUOUS
 10
-3.9016933426
 20
21.8932628271
 11
-3.8453275079
 21
21.8741952574
  0
LWPOLYLINE
  5
5A3
100
AcDbEntity
  8
ASSI
100
AcDbPolyline
 62
250
  6
CONTINUOUS
 90
3
 70
0
 10
-4.1437585879
 20
21.9629643739
 10
-4.1080986736
 20
21.9505967572
 10
-4.0697877247
 20
21.9386849068
  0
LINE
  5
5A4
100
AcDbEntity
  8
ASSI
100
AcDbLine
 62
7
  6
CONTINUOUS
 10
-3.8669117854
 20
21.8895749489
 11
-3.9605934103
 21
21.9223972467
  0
LWPOLYLINE
  5
5A5
100
AcDbEntity
  8
ASSI
100
AcDbPolyline
 62
7
  6
CONTINUOUS
 90
8
 70
0
 10
-3.9605934103
 20
21.9223972467
 10
-3.9953195971
 20
21.9346973169
 10
-4.0280280524
 20
21.9467916557
 10
-4.0585981339
 20
21.9588073592
 10
-4.0871085869
 20
21.9709042786
 10
-4.1131942629
 20
21.9830123394
 10
-4.1367826856
 20
21.9950329462
 10
-4.1535958106
 20
22.0043663892
  0
LINE
  5
5A6
100
AcDbEntity
  8
ASSI
100
AcDbLine
 62
250
  6
CONTINUOUS
 10
1.3132981103
 20
23.4991478061
 11
1.3311453395
 21
23.4901485837
  0
LWPOLYLINE
  5
5A7
100
AcDbEntity
  8
ASSI
100
AcDbPolyline
 62
250
  6
CONTINUOUS
 90
3
 70
0
 10
-2.014506966
 20
25.4218862941
 10
-2.0316379922
 20
25.4308840321
 10
-2.0485075206
 20
25.4372518093
  0
LINE
  5
5A8
100
AcDbEntity
  8
0
100
AcDbLine
 62
7
  6
CONTINUOUS
 10
-2.577168323
 20
23.3313932774
 11
-0.8190714094
 21
22.3162901536
  0
LINE
  5
5A9
100
AcDbEntity
  8
DRAFT
100
AcDbLine
 62
7
  6
CONTINUOUS
 10
3.5646572564
 20
19.9226895906
 11
2.6752877779
 21
20.4362003811
  0
LINE
  5
5AA
100
AcDbEntity
  8
DRAFT
100
AcDbLine
 62
7
  6
CONTINUOUS
 10
-4.6786227465
 20
24.6822561517
 11
-5.567992225
 21
25.1957669422
  0
LINE
  5
5AB
100
AcDbEntity
  8
DRAFT
100
AcDbLine
 62
7
  6
CONTINUOUS
 10
3.9580055802
 20
19.8429268353
 11
3.2869320423
 21
20.2303962855
  0
LINE
  5
5AC
100
AcDbEntity
  8
DRAFT
100
AcDbLine
 62
7
  6
CONTINUOUS
 10
-5.1488456547
 20
25.1011086026
 11
-5.8199191926
 21
25.4885780529
  0
LINE
  5
5AD
100
AcDbEntity
  8
RACCORDO
100
AcDbLine
 62
250
  6
CONTINUOUS
 10
17.3996805346
 20
13.0029230094
 11
17.8909530021
 21
12.7193242414
  0
LINE
  5
5AE
100
AcDbEntity
  8
0
100
AcDbLine
 62
7
  6
CONTINUOUS
 10
-1.3060639116
 20
24.0653130339
 11
0.452033002
 21
23.0502099101
  0
LINE
  5
5AF
100
AcDbEntity
  8
RACCORDO
100
AcDbLine
 62
7
  6
CONTINUOUS
 10
17.3400170297
 20
13.6076118431
 11
17.7812831019
 21
13.3528804614
  0
LINE
  5
5B0
100
AcDbEntity
  8
ASSI
100
AcDbLine
 62
250
  6
CONTINUOUS
 10
0.397235242
 20
23.9873110851
 11
1.2336381259
 21
23.5043825425
  0
LINE
  5
5B1
100
AcDbEntity
  8
ASSI
100
AcDbLine
 62
250
  6
CONTINUOUS
 10
1.7213841645
 20
23.2648295771
 11
1.3311453395
 21
23.4901485837
  0
LINE
  5
5B2
100
AcDbEntity
  8
ASSI
100
AcDbLine
 62
250
  6
CONTINUOUS
 10
-1.6242681411
 20
25.1965672874
 11
-2.014506966
 21
25.4218862941
  0
LINE
  5
5B3
100
AcDbEntity
  8
ASSI
100
AcDbLine
 62
250
  6
CONTINUOUS
 10
0.4825384109
 20
24.0638795466
 11
1.3673603423
 21
23.5529944528
  0
LINE
  5
5B4
100
AcDbEntity
  8
ASSI
100
AcDbLine
 62
250
  6
CONTINUOUS
 10
1.8125608927
 20
23.3039442422
 11
1.4222728753
 21
23.529291652
  0
LINE
  5
5B5
100
AcDbEntity
  8
ASSI
100
AcDbLine
 62
250
  6
CONTINUOUS
 10
-1.532382975
 20
25.2352729095
 11
-1.9226709924
 21
25.4606203193
  0
LINE
  5
5B6
100
AcDbEntity
  8
ASSI
100
AcDbLine
 62
7
  6
CONTINUOUS
 10
1.2256919525
 20
24.5234568442
 11
2.4037956611
 21
23.843234528
  0
LINE
  5
5B7
100
AcDbEntity
  8
ASSI
100
AcDbLine
 62
250
  6
CONTINUOUS
 10
5.2648891283
 20
22.4843125132
 11
5.418489416
 21
22.3956256321
  0
LINE
  5
5B8
100
AcDbEntity
  8
ASSI
100
AcDbLine
 62
7
  6
CONTINUOUS
 10
5.25069296
 20
22.5195621463
 11
5.4410976775
 21
22.4096248487
  0
LINE
  5
5B9
100
AcDbEntity
  8
DRAFT
100
AcDbLine
 62
7
  6
CONTINUOUS
 10
-1.7057985227
 20
26.2982300917
 11
-1.9259463761
 21
26.4255387266
  0
LINE
  5
5BA
100
AcDbEntity
  8
DRAFT
100
AcDbLine
 62
7
  6
CONTINUOUS
 10
-1.5313646537
 20
26.1973741421
 11
-1.7057985227
 21
26.2982300917
  0
LINE
  5
5BB
100
AcDbEntity
  8
SMUSSO
100
AcDbLine
 62
7
  6
CONTINUOUS
 10
5.5837930772
 20
21.975797988
 11
5.4646212282
 21
22.0467320867
  0
LWPOLYLINE
  5
5BC
100
AcDbEntity
  8
ASSI
100
AcDbPolyline
 62
250
  6
CONTINUOUS
 90
13
 70
0
 10
1.7213841645
 20
23.2648295771
 10
1.7391262278
 20
23.2536920302
 10
1.7565974661
 20
23.2402318792
 10
1.7735311884
 20
23.2246545874
 10
1.7896689086
 20
23.2071979356
 10
1.8047642914
 20
23.188128392
 10
1.8185869121
 20
23.1677370452
 10
1.8309257743
 20
23.1463351604
 10
1.8415925305
 20
23.1242494281
 10
1.8504243573
 20
23.1018169777
 10
1.8572864405
 20
23.079380231
 10
1.8620740335
 20
23.0572816753
 10
1.8647140556
 20
23.0358586357
  0
LWPOLYLINE
  5
5BD
100
AcDbEntity
  8
ASSI
100
AcDbPolyline
 62
7
  6
CONTINUOUS
 90
13
 70
0
 10
5.4587356354
 20
22.3994409128
 10
5.4613843398
 20
22.3977503019
 10
5.466483926
 20
22.3934931873
 10
5.4712242748
 20
22.388121774
 10
5.4755701941
 20
22.3816596328
 10
5.4794842846
 20
22.3741382712
 10
5.4829440287
 20
22.3655878004
 10
5.4859223549
 20
22.3560459845
 10
5.4883920197
 20
22.3455582115
 10
5.4903363974
 20
22.3341738683
 10
5.4917399408
 20
22.3219463769
 10
5.4925872178
 20
22.3089319548
 10
5.4928683328
 20
22.2951906334
  0
LINE
  5
5BE
100
AcDbEntity
  8
DRAFT
100
AcDbLine
 62
7
  6
CONTINUOUS
 10
-2.5665628097
 20
27.1722711796
 11
-2.6633417732
 21
27.2343474213
  0
LINE
  5
5BF
100
AcDbEntity
  8
DRAFT
100
AcDbLine
 62
7
  6
CONTINUOUS
 10
-2.4710064837
 20
27.1105301188
 11
-2.5665628097
 21
27.1722711796
  0
LWPOLYLINE
  5
5C0
100
AcDbEntity
  8
RACCORDO
100
AcDbPolyline
 62
250
  6
CONTINUOUS
 90
19
 70
0
 10
17.7812831019
 20
13.3528804614
 10
17.8111328767
 20
13.3334905636
 10
17.8389051783
 20
13.3110024236
 10
17.8643896267
 20
13.2855801285
 10
17.8873944281
 20
13.2574074784
 10
17.9077416297
 20
13.2266940568
 10
17.9252709232
 20
13.1936758769
 10
17.9398493852
 20
13.1585994636
 10
17.9513662558
 20
13.1217266796
 10
17.9597318603
 20
13.0833430643
 10
17.964883804
 20
13.04374169
 10
17.9667854668
 20
13.0032150666
 10
17.9654230418
 20
12.962062375
 10
17.9608060277
 20
12.9205894692
 10
17.9529686919
 20
12.8791097527
 10
17.9419703405
 20
12.8379370632
 10
17.9278941179
 20
12.797380939
 10
17.9108456408
 20
12.7577443408
 10
17.8909530021
 20
12.7193242414
  0
LINE
  5
5C1
100
AcDbEntity
  8
DRAFT
100
AcDbLine
 62
7
  6
CONTINUOUS
 10
-2.3766952561
 20
27.0491533606
 11
-2.4710064837
 21
27.1105301188
  0
LWPOLYLINE
  5
5C2
100
AcDbEntity
  8
DRAFT
100
AcDbPolyline
 62
7
  6
CONTINUOUS
 90
16
 70
0
 10
-2.8128667627
 20
27.2113990441
 10
-2.8136537072
 20
27.2119169437
 10
-2.8153137258
 20
27.2146992203
 10
-2.8143474671
 20
27.218508194
 10
-2.8108578227
 20
27.2233372252
 10
-2.8049368864
 20
27.229162033
 10
-2.7965114589
 20
27.2360429843
 10
-2.7854323114
 20
27.2440927543
 10
-2.7717224394
 20
27.2533224327
 10
-2.7553735011
 20
27.2637487602
 10
-2.7361888873
 20
27.2754920841
 10
-2.7141803179
 20
27.2885664773
 10
-2.6893524493
 20
27.3029879693
 10
-2.6615004385
 20
27.3188837732
 10
-2.6306083271
 20
27.3362839387
 10
-2.5967095754
 20
27.3551896702
  0
LWPOLYLINE
  5
5C3
100
AcDbEntity
  8
DRAFT
100
AcDbPolyline
 62
7
  6
CONTINUOUS
 90
3
 70
0
 10
-2.2375782443
 20
26.9577884691
 10
-2.2836318035
 20
26.988142038
 10
-2.3766952561
 20
27.0491533606
  0
LWPOLYLINE
  5
5C4
100
AcDbEntity
  8
ASSI
100
AcDbPolyline
 62
250
  6
CONTINUOUS
 90
13
 70
0
 10
1.8125608927
 20
23.3039442422
 10
1.8296066458
 20
23.2924976347
 10
1.8458351928
 20
23.2785008184
 10
1.8609993297
 20
23.2621670022
 10
1.8748680666
 20
23.2437449935
 10
1.8872301457
 20
23.2235154084
 10
1.8978972596
 20
23.2017863972
 10
1.9067069199
 20
23.1788889506
 10
1.9135249321
 20
23.1551718575
 10
1.9182474396
 20
23.1309963923
 10
1.9208025062
 20
23.1067308115
 10
1.9211512114
 20
23.0827447445
 10
1.9192882434
 20
23.0594035628
  0
LWPOLYLINE
  5
5C5
100
AcDbEntity
  8
ASSI
100
AcDbPolyline
 62
250
  6
CONTINUOUS
 90
13
 70
0
 10
4.4049270873
 20
23.98578967
 10
4.4219728405
 20
23.9743430623
 10
4.4382013875
 20
23.960346246
 10
4.4533655246
 20
23.9440124296
 10
4.4672342615
 20
23.9255904208
 10
4.4795963405
 20
23.9053608355
 10
4.4902634544
 20
23.8836318243
 10
4.4990731147
 20
23.8607343777
 10
4.5058911267
 20
23.8370172847
 10
4.5106136342
 20
23.8128418196
 10
4.5131687007
 20
23.7885762389
 10
4.5135174059
 20
23.7645901721
 10
4.5116544379
 20
23.7412489906
  0
LWPOLYLINE
  5
5C6
100
AcDbEntity
  8
DRAFT
100
AcDbPolyline
 62
7
  6
CONTINUOUS
 90
7
 70
0
 10
7.7229276414
 20
21.1424314626
 10
7.6786907047
 20
21.1724218119
 10
7.5853229427
 20
21.2377024132
 10
7.4901440077
 20
21.3073700957
 10
7.3930045749
 20
21.3816918192
 10
7.2940029074
 20
21.4603582044
 10
7.1931127538
 20
21.5433465583
  0
LWPOLYLINE
  5
5C7
100
AcDbEntity
  8
SMUSSO
100
AcDbPolyline
 62
7
  6
CONTINUOUS
 90
13
 70
0
 10
5.4646212282
 20
22.0467320867
 10
5.3284959616
 20
22.1393184763
 10
5.2035110765
 20
22.2356420556
 10
5.0896665729
 20
22.3357028247
 10
4.9866059016
 20
22.4399194123
 10
4.8946856119
 20
22.5478731897
 10
4.8149753513
 20
22.65830827
 10
4.747618069
 20
22.7712530611
 10
4.6924708159
 20
22.8866791552
 10
4.6501743923
 20
23.003245442
 10
4.6209423984
 20
23.1205048847
 10
4.604561234
 20
23.2389045201
 10
4.6010308992
 20
23.3584443481
  0
LWPOLYLINE
  5
5C8
100
AcDbEntity
  8
ASSI
100
AcDbPolyline
 62
250
  6
CONTINUOUS
 90
5
 70
0
 10
0.7002648259
 20
26.1707044387
 10
0.6835480209
 20
26.1823214319
 10
0.6663382626
 20
26.1892165471
 10
0.6490621683
 20
26.1912188594
 10
0.6452523679
 20
26.1909915248
  0
LWPOLYLINE
  5
5C9
100
AcDbEntity
  8
DRAFT
100
AcDbPolyline
 62
7
  6
CONTINUOUS
 90
10
 70
0
 10
7.1931127538
 20
21.5433465583
 10
7.2123845656
 20
21.5291720276
 10
7.2312089755
 20
21.5151595136
 10
7.2495943863
 20
21.50130686
 10
7.2675537471
 20
21.487611568
 10
7.2850905479
 20
21.4740720363
 10
7.3021995811
 20
21.4606873948
 10
7.3188852496
 20
21.4474559322
 10
7.335160802
 20
21.4343752598
 10
7.3510348614
 20
21.4214434354
  0
LWPOLYLINE
  5
5CA
100
AcDbEntity
  8
SMUSSO
100
AcDbPolyline
 62
7
  6
CONTINUOUS
 90
11
 70
0
 10
-1.6979185883
 20
26.3066844224
 10
-1.7745095326
 20
26.3645288095
 10
-1.8464248689
 20
26.4243378224
 10
-1.9135145152
 20
26.4859861781
 10
-1.9756396066
 20
26.549346172
 10
-2.0326693987
 20
26.6142846801
 10
-2.0844837642
 20
26.6806651548
 10
-2.130974873
 20
26.7483500644
 10
-2.1720446916
 20
26.817197899
 10
-2.2076057103
 20
26.8870633349
 10
-2.2375824711
 20
26.9577995363
  0
LINE
  5
5CB
100
AcDbEntity
  8
SMUSSO
100
AcDbLine
 62
7
  6
CONTINUOUS
 10
7.3986248709
 20
21.3819511604
 11
7.3510656621
 21
21.4214395139
  0
LINE
  5
5CC
100
AcDbEntity
  8
RACCORDO
100
AcDbLine
 62
250
  6
CONTINUOUS
 10
17.3415617006
 20
13.5990514346
 11
17.3582024385
 21
13.5846862729
  0
LINE
  5
5CD
100
AcDbEntity
  8
SMUSSO
100
AcDbLine
 62
7
  6
CONTINUOUS
 10
5.6207573007
 20
21.9987152277
 11
5.5982662846
 21
22.0184773501
  0
LWPOLYLINE
  5
5CE
100
AcDbEntity
  8
RACCORDO
100
AcDbPolyline
 62
250
  6
CONTINUOUS
 90
4
 70
0
 10
10.3070604809
 20
20.2570711572
 10
10.3315834713
 20
20.233393215
 10
10.3559492329
 20
20.2088216086
 10
10.3618455541
 20
20.2025978889
  0
LWPOLYLINE
  5
5CF
100
AcDbEntity
  8
RACCORDO
100
AcDbPolyline
 62
250
  6
CONTINUOUS
 90
3
 70
0
 10
10.2134238818
 20
20.24121011
 10
10.2362843112
 20
20.2186010794
 10
10.2588618495
 20
20.1950978914
  0
LWPOLYLINE
  5
5D0
100
AcDbEntity
  8
RACCORDO
100
AcDbPolyline
 62
250
  6
CONTINUOUS
 90
3
 70
0
 10
10.2588618495
 20
20.1950978914
 10
10.2811564967
 20
20.1707005461
 10
10.2888388378
 20
20.1619159358
  0
LINE
  5
5D1
100
AcDbEntity
  8
RACCORDO
100
AcDbLine
 62
250
  6
CONTINUOUS
 10
17.3582024385
 20
13.5846862729
 11
17.3873264023
 21
13.5524711308
  0
LWPOLYLINE
  5
5D2
100
AcDbEntity
  8
RACCORDO
100
AcDbPolyline
 62
250
  6
CONTINUOUS
 90
13
 70
0
 10
17.3873264023
 20
13.5524711308
 10
17.4127046058
 20
13.5164920146
 10
17.4340633481
 20
13.4771369549
 10
17.4511722777
 20
13.4348303913
 10
17.4638468766
 20
13.3900285953
 10
17.4719504508
 20
13.3432147491
 10
17.4753956042
 20
13.2948937345
 10
17.4741451812
 20
13.2455866881
 10
17.4682126675
 20
13.1958253807
 10
17.4576620446
 20
13.1461464821
 10
17.4426070996
 20
13.0970857736
 10
17.4232101985
 20
13.0491723692
 10
17.3996805346
 20
13.0029230094
  0
LWPOLYLINE
  5
5D3
100
AcDbEntity
  8
RACCORDO
100
AcDbPolyline
 62
7
  6
CONTINUOUS
 90
10
 70
0
 10
17.3440751987
 20
13.5857678157
 10
17.3447546883
 20
13.5845512008
 10
17.3459444849
 20
13.5821918029
 10
17.3455914936
 20
13.583132062
 10
17.3441969139
 20
13.5875263453
 10
17.3422288505
 20
13.5954382971
 10
17.3400923831
 20
13.6070089364
 10
17.3381956507
 20
13.6221847877
 10
17.3369135265
 20
13.6406091531
 10
17.3365188972
 20
13.6590517567
  0
LWPOLYLINE
  5
5D4
100
AcDbEntity
  8
RACCORDO
100
AcDbPolyline
 62
250
  6
CONTINUOUS
 90
10
 70
0
 10
15.6974220884
 20
20.2001809446
 10
15.7134514488
 20
20.1664544986
 10
15.7277970241
 20
20.1323476266
 10
15.7403771687
 20
20.0980533846
 10
15.7511205789
 20
20.0637646578
 10
15.7599654315
 20
20.0296770129
 10
15.7668604735
 20
19.9959874821
 10
15.7717666972
 20
19.9628881218
 10
15.7746568197
 20
19.9305650478
 10
15.77551468
 20
19.8992012447
  0
LWPOLYLINE
  5
5D5
100
AcDbEntity
  8
0
100
AcDbPolyline
 62
7
  6
CONTINUOUS
 90
4
 70
0
 10
18.0243110728
 20
6.462268073
 10
18.0292693351
 20
6.4402039467
 10
18.0312234006
 20
6.4181182383
 10
18.0312829854
 20
6.4141226734
  0
LINE
  5
5D6
100
AcDbEntity
  8
RACCORDO
100
AcDbLine
 62
250
  6
CONTINUOUS
 10
17.8909530021
 20
1.3411688314
 11
17.3848355608
 21
0.4437829592
  0
LINE
  5
5D7
100
AcDbEntity
  8
RACCORDO
100
AcDbLine
 62
7
  6
CONTINUOUS
 10
17.9667931499
 20
1.2960886578
 11
17.4606757086
 21
0.3987027856
  0
LINE
  5
5D8
100
AcDbEntity
  8
RACCORDO
100
AcDbLine
 62
250
  6
CONTINUOUS
 10
17.9452685451
 20
1.3798212513
 11
17.9195557174
 21
1.3598175406
  0
LWPOLYLINE
  5
5D9
100
AcDbEntity
  8
RACCORDO
100
AcDbPolyline
 62
250
  6
CONTINUOUS
 90
22
 70
0
 10
11.6259500175
 20
-3.1175982459
 10
11.5742740442
 20
-3.1519908121
 10
11.5237149147
 20
-3.1898510167
 10
11.4742726292
 20
-3.2311788597
 10
11.4258078248
 20
-3.2761417976
 10
11.3784598642
 20
-3.3245723738
 10
11.3326468362
 20
-3.375968219
 10
11.2882418288
 20
-3.4305201975
 10
11.245371754
 20
-3.488037445
 10
11.2048354361
 20
-3.5474449992
 10
11.166773611
 20
-3.6085786004
 10
11.1310455428
 20
-3.6716025083
 10
11.0980278484
 20
-3.7359345396
 10
11.0676883697
 20
-3.8015502049
 10
11.0400592647
 20
-3.8684739937
 10
11.015613625
 20
-3.9361971903
 10
10.9942657254
 20
-4.0051506317
 10
10.976101291
 20
-4.0749034809
 10
10.9618505885
 20
-4.1436545125
 10
10.9517570399
 20
-4.2108033178
 10
10.945577223
 20
-4.2769503053
 10
10.943311138
 20
-4.3420954751
  0
LINE
  5
5DA
100
AcDbEntity
  8
RACCORDO
100
AcDbLine
 62
250
  6
CONTINUOUS
 10
17.9195557174
 20
1.3598175406
 11
17.8909530021
 21
1.3411688314
  0
LWPOLYLINE
  5
5DB
100
AcDbEntity
  8
RACCORDO
100
AcDbPolyline
 62
7
  6
CONTINUOUS
 90
6
 70
0
 10
2.3217343873
 20
-5.47049981
 10
2.3927251823
 20
-5.4246354156
 10
2.4540250967
 20
-5.3759200261
 10
2.5056341303
 20
-5.3243536414
 10
2.5479027976
 20
-5.2693133918
 10
2.5776010641
 20
-5.2165390999
  0
LINE
  5
5DC
100
AcDbEntity
  8
ASSI
100
AcDbLine
 62
7
  6
CONTINUOUS
 10
-2.019391342
 20
-11.4884192609
 11
-1.2264472243
 21
-10.9895494731
  0
LINE
  5
5DD
100
AcDbEntity
  8
DRAFT
100
AcDbLine
 62
7
  6
CONTINUOUS
 10
-2.019391342
 20
-11.4884192609
 11
-1.2264472243
 21
-10.9895494731
  0
LWPOLYLINE
  5
5DE
100
AcDbEntity
  8
RACCORDO
100
AcDbPolyline
 62
7
  6
CONTINUOUS
 90
9
 70
0
 10
3.6766655708
 20
-4.5594059851
 10
3.6822538504
 20
-4.5559746292
 10
3.7025786045
 20
-4.541938966
 10
3.7227286149
 20
-4.5255475394
 10
3.7426041812
 20
-4.5068403594
 10
3.7619639448
 20
-4.4858477252
 10
3.7806025406
 20
-4.4626003564
 10
3.7984092883
 20
-4.437196078
 10
3.8152498701
 20
-4.4097600116
  0
LINE
  5
5DF
100
AcDbEntity
  8
RACCORDO
100
AcDbLine
 62
250
  6
CONTINUOUS
 10
-0.173895716
 20
-6.7948790332
 11
3.8152498701
 21
-4.4097600116
  0
LINE
  5
5E0
100
AcDbEntity
  8
RACCORDO
100
AcDbLine
 62
7
  6
CONTINUOUS
 10
-0.117770943
 20
-6.82810802
 11
3.6766576776
 21
-4.5594107053
  0
LINE
  5
5E1
100
AcDbEntity
  8
RACCORDO
100
AcDbLine
 62
250
  6
CONTINUOUS
 10
3.5349614605
 20
-5.4278675839
 11
2.5944623361
 21
-5.9901941028
  0
LINE
  5
5E2
100
AcDbEntity
  8
RACCORDO
100
AcDbLine
 62
250
  6
CONTINUOUS
 10
3.8152498701
 20
-5.5868864115
 11
-0.173895716
 21
-7.9720054331
  0
LINE
  5
5E3
100
AcDbEntity
  8
RACCORDO
100
AcDbLine
 62
7
  6
CONTINUOUS
 10
-0.0824286688
 20
-6.8586334273
 11
2.3217343873
 21
-5.47049981
  0
LINE
  5
5E4
100
AcDbEntity
  8
RACCORDO
100
AcDbLine
 62
7
  6
CONTINUOUS
 10
2.3217343873
 20
-6.2869700868
 11
-0.0824286688
 21
-7.6751037041
  0
LINE
  5
5E5
100
AcDbEntity
  8
CURVE
100
AcDbLine
 62
250
  6
CONTINUOUS
 10
-11.1839464435
 20
11.9668057887
 11
-13.9011173873
 21
11.3388549814
  0
LINE
  5
5E6
100
AcDbEntity
  8
CURVE
100
AcDbLine
 62
250
  6
CONTINUOUS
 10
-13.9668903388
 20
11.9714610465
 11
-11.2443602327
 21
12.6008179249
  0
LWPOLYLINE
  5
5E7
100
AcDbEntity
  8
ASSI
100
AcDbPolyline
 62
7
  6
CONTINUOUS
 90
9
 70
0
 10
-1.625427857
 20
19.7472333354
 10
-1.6444611018
 20
19.7465597752
 10
-1.6630021909
 20
19.744925537
 10
-1.6811871269
 20
19.7422956276
 10
-1.6988799073
 20
19.7387050403
 10
-1.715672525
 20
19.734258755
 10
-1.7314289777
 20
19.7289917651
 10
-1.7462852677
 20
19.7228690773
 10
-1.7602413951
 20
19.7158906915
  0
LWPOLYLINE
  5
5E8
100
AcDbEntity
  8
ASSI
100
AcDbPolyline
 62
250
  6
CONTINUOUS
 90
13
 70
0
 10
-3.7212950102
 20
20.3179540341
 10
-3.7387049167
 20
20.320137185
 10
-3.7581920885
 20
20.3233677895
 10
-3.779435032
 20
20.3275925448
 10
-3.8020832897
 20
20.3327417481
 10
-3.8257632304
 20
20.3387304479
 10
-3.8500842139
 20
20.3454598468
 10
-3.8746450191
 20
20.3528189269
 10
-3.8990404773
 20
20.3606862853
 10
-3.9228681643
 20
20.3689321404
 10
-3.9457350139
 20
20.3774204647
 10
-3.9672638027
 20
20.3860112283
 10
-3.9870993884
 20
20.3945627139
  0
LWPOLYLINE
  5
5E9
100
AcDbEntity
  8
ASSI
100
AcDbPolyline
 62
250
  6
CONTINUOUS
 90
13
 70
0
 10
-3.4499100161
 20
21.1915838753
 10
-3.4673587664
 20
21.1937727289
 10
-3.4868891514
 20
21.197012659
 10
-3.5081766871
 20
21.2012494491
 10
-3.5308665048
 20
21.2064120492
 10
-3.5545839192
 20
21.2124148119
 10
-3.5789412549
 20
21.2191594788
 10
-3.6035544215
 20
21.2265403771
 10
-3.6279972636
 20
21.2344303902
 10
-3.6518159782
 20
21.2426813153
 10
-3.6746068543
 20
21.2511491549
 10
-3.6960198495
 20
21.2596995368
 10
-3.7157143943
 20
21.2681925551
  0
LWPOLYLINE
  5
5EA
100
AcDbEntity
  8
ASSI
100
AcDbPolyline
 62
250
  6
CONTINUOUS
 90
4
 70
0
 10
-3.8942485599
 20
21.8991270428
 10
-3.8948617028
 20
21.8992134489
 10
-3.8977851123
 20
21.8976837075
 10
-3.9016933429
 20
21.8932628272
  0
LWPOLYLINE
  5
5EB
100
AcDbEntity
  8
DRAFT
100
AcDbPolyline
 62
7
  6
CONTINUOUS
 90
3
 70
0
 10
9.5222627517
 20
20.5059190245
 10
9.5704094997
 20
20.4980813157
 10
9.6187802849
 20
20.4903238411
  0
LWPOLYLINE
  5
5EC
100
AcDbEntity
  8
ASSI
100
AcDbPolyline
 62
250
  6
CONTINUOUS
 90
16
 70
0
 10
-1.1793809787
 20
21.4082211101
 10
-1.1981518255
 20
21.4113226059
 10
-1.2170865413
 20
21.4132270813
 10
-1.2361528983
 20
21.4139329294
 10
-1.2556371261
 20
21.4132754519
 10
-1.2752387059
 20
21.4114189057
 10
-1.294062738
 20
21.4088563221
 10
-1.3118372081
 20
21.4055887735
 10
-1.3288747447
 20
21.401617959
 10
-1.3451401646
 20
21.397437687
 10
-1.3605715754
 20
21.3931335979
 10
-1.3752488667
 20
21.3886249791
 10
-1.3893196558
 20
21.3841537766
 10
-1.4026804155
 20
21.379808724
 10
-1.4154307594
 20
21.3755038588
 10
-1.478323362
 20
21.3539831427
  0
LWPOLYLINE
  5
5ED
100
AcDbEntity
  8
ASSI
100
AcDbPolyline
 62
250
  6
CONTINUOUS
 90
21
 70
0
 10
0.7236184835
 20
22.2402737335
 10
0.7691722437
 20
22.2323868928
 10
0.815817741
 20
22.2270346314
 10
0.8631329794
 20
22.2242653771
 10
0.9106899181
 20
22.2241041898
 10
0.9580582952
 20
22.2265525354
 10
1.0048095214
 20
22.2315882638
 10
1.0505206241
 20
22.2391658119
 10
1.0947780743
 20
22.2492166257
 10
1.1371814793
 20
22.2616497746
 10
1.1773472089
 20
22.2763527715
 10
1.2149118979
 20
22.2931926006
 10
1.249535728
 20
22.3120169271
 10
1.2809054712
 20
22.3326554644
 10
1.3087372987
 20
22.3549214885
 10
1.332779387
 20
22.3786135367
 10
1.352814226
 20
22.4035172558
 10
1.368660577
 20
22.4294073503
 10
1.3801750856
 20
22.4560495969
 10
1.3872535796
 20
22.4832029358
 10
1.3898431554
 20
22.5125468888
  0
LWPOLYLINE
  5
5EE
100
AcDbEntity
  8
DRAFT
100
AcDbPolyline
 62
7
  6
CONTINUOUS
 90
7
 70
0
 10
9.1915167346
 20
20.5631509869
 10
9.2380915869
 20
20.554697664
 10
9.2848913853
 20
20.5463380691
 10
9.3319161299
 20
20.5380722019
 10
9.3791661237
 20
20.5299045605
 10
9.4266410636
 20
20.5218306469
 10
9.5222627517
 20
20.5059190245
  0
LWPOLYLINE
  5
5EF
100
AcDbEntity
  8
ASSI
100
AcDbPolyline
 62
250
  6
CONTINUOUS
 90
4
 70
0
 10
-6.1665350087
 20
23.2677548647
 10
-6.1971516283
 20
23.2736503255
 10
-6.2240902152
 20
23.2777138665
 10
-6.2474717314
 20
23.2801871904
  0
LINE
  5
5F0
100
AcDbEntity
  8
DRAFT
100
AcDbLine
 62
7
  6
CONTINUOUS
 10
7.1931127538
 20
21.5433465583
 11
7.1594899408
 21
21.5516505012
  0
LWPOLYLINE
  5
5F1
100
AcDbEntity
  8
ASSI
100
AcDbPolyline
 62
250
  6
CONTINUOUS
 90
22
 70
0
 10
-1.1606288429
 20
21.2604177083
 10
-1.1694923689
 20
21.2626346808
 10
-1.1782969421
 20
21.2629138243
 10
-1.187089582
 20
21.2613962711
 10
-1.1960680703
 20
21.2581672896
 10
-1.205233871
 20
21.2534257886
 10
-1.2142617574
 20
21.2475024787
 10
-1.2229867957
 20
21.2404703354
 10
-1.2316549035
 20
21.2325369578
 10
-1.2403903117
 20
21.2241959226
 10
-1.2491658428
 20
21.2155302707
 10
-1.2580363915
 20
21.2065685343
 10
-1.2671119117
 20
21.1976552889
 10
-1.2763096976
 20
21.1889126166
 10
-1.285670706
 20
21.1802278561
 10
-1.2954486386
 20
21.1715820429
 10
-1.3056694692
 20
21.1630666393
 10
-1.3163541932
 20
21.1546118995
 10
-1.3278393565
 20
21.1460024313
 10
-1.3403444509
 20
21.1372114504
 10
-1.3538947081
 20
21.1283676142
 10
-1.3686094133
 20
21.1195269977
  0
LINE
  5
5F2
100
AcDbEntity
  8
DRAFT
100
AcDbLine
 62
7
  6
CONTINUOUS
 10
7.1594899408
 20
21.5516505012
 11
7.1256549299
 21
21.5602039423
  0
LINE
  5
5F3
100
AcDbEntity
  8
DRAFT
100
AcDbLine
 62
7
  6
CONTINUOUS
 10
7.1256549299
 20
21.5602039423
 11
7.0916073565
 21
21.5690073371
  0
LWPOLYLINE
  5
5F4
100
AcDbEntity
  8
DRAFT
100
AcDbPolyline
 62
7
  6
CONTINUOUS
 90
3
 70
0
 10
7.0916073565
 20
21.5690073371
 10
7.0573469052
 20
21.5780634102
 10
7.0401367223
 20
21.5826859128
  0
LWPOLYLINE
  5
5F5
100
AcDbEntity
  8
RACCORDO
100
AcDbPolyline
 62
7
  6
CONTINUOUS
 90
10
 70
0
 10
9.4578409854
 20
20.7472504971
 10
9.4496841332
 20
20.7496144561
 10
9.4403749212
 20
20.7511260894
 10
9.4306047075
 20
20.7515355692
 10
9.420278512
 20
20.7508326839
 10
9.4094913149
 20
20.749027645
 10
9.3985280559
 20
20.7461510875
 10
9.3874837152
 20
20.7422132229
 10
9.3762633127
 20
20.7372038397
 10
9.3648668485
 20
20.7311229379
  0
LWPOLYLINE
  5
5F6
100
AcDbEntity
  8
RACCORDO
100
AcDbPolyline
 62
7
  6
CONTINUOUS
 90
13
 70
0
 10
9.4578401396
 20
20.7472488
 10
9.3389298094
 20
20.7867063915
 10
9.2167566596
 20
20.8223931453
 10
9.0918455956
 20
20.8541760234
 10
8.9645312727
 20
20.8819987887
 10
8.8351389874
 20
20.9058156747
 10
8.7039898016
 20
20.9255885541
 10
8.5714327537
 20
20.9412826063
 10
8.4378017489
 20
20.9528735267
 10
8.3034039752
 20
20.960345338
 10
8.1685872466
 20
20.9636855166
 10
8.0336948521
 20
20.9628902144
 10
8.011059586
 20
20.9620617961
  0
LINE
  5
5F7
100
AcDbEntity
  8
RACCORDO
100
AcDbLine
 62
7
  6
CONTINUOUS
 10
10.3070604809
 20
20.2570711572
 11
10.399134517
 21
20.2233766325
  0
LWPOLYLINE
  5
5F8
100
AcDbEntity
  8
RACCORDO
100
AcDbPolyline
 62
7
  6
CONTINUOUS
 90
3
 70
0
 10
9.6269189018
 20
20.6852457301
 10
9.5412715841
 20
20.7167380529
 10
9.4578409854
 20
20.7472504971
  0
LINE
  5
5F9
100
AcDbEntity
  8
0
100
AcDbLine
 62
7
  6
CONTINUOUS
 10
10.1071034376
 20
20.5081847834
 11
10.1053460402
 21
20.5088328452
  0
LWPOLYLINE
  5
5FA
100
AcDbEntity
  8
RACCORDO
100
AcDbPolyline
 62
7
  6
CONTINUOUS
 90
4
 70
0
 10
9.8904057269
 20
20.5873935438
 10
9.8003984975
 20
20.6209743519
 10
9.7122118695
 20
20.6537263297
 10
9.6269189018
 20
20.6852457301
  0
LINE
  5
5FB
100
AcDbEntity
  8
RACCORDO
100
AcDbLine
 62
7
  6
CONTINUOUS
 10
10.1046496834
 20
20.5069853482
 11
9.8904057269
 21
20.5873935438
  0
LINE
  5
5FC
100
AcDbEntity
  8
RACCORDO
100
AcDbLine
 62
7
  6
CONTINUOUS
 10
10.2691164137
 20
20.4448767484
 11
10.1046496834
 21
20.5069853482
  0
LINE
  5
5FD
100
AcDbEntity
  8
RACCORDO
100
AcDbLine
 62
250
  6
CONTINUOUS
 10
10.2691164137
 20
20.4448767484
 11
10.1071034376
 21
20.5081847834
  0
LWPOLYLINE
  5
5FE
100
AcDbEntity
  8
RACCORDO
100
AcDbPolyline
 62
7
  6
CONTINUOUS
 90
3
 70
0
 10
10.2710610368
 20
20.4441067228
 10
10.1280004983
 20
20.500421718
 10
10.1071018724
 20
20.5081805676
  0
LWPOLYLINE
  5
5FF
100
AcDbEntity
  8
DRAFT
100
AcDbPolyline
 62
7
  6
CONTINUOUS
 90
11
 70
0
 10
8.5118748381
 20
20.711498013
 10
8.4731809946
 20
20.727853225
 10
8.3865759251
 20
20.7663689187
 10
8.2998699039
 20
20.8074376721
 10
8.2130651407
 20
20.8509500543
 10
8.126141878
 20
20.8970020571
 10
8.0385085382
 20
20.9459723801
 10
7.950169586
 20
20.9977529413
 10
7.8610960668
 20
21.0524328082
 10
7.7706388217
 20
21.1106811362
 10
7.7229276414
 20
21.1424314626
  0
LINE
  5
600
100
AcDbEntity
  8
RACCORDO
100
AcDbLine
 62
250
  6
CONTINUOUS
 10
15.7755146806
 20
19.8992012444
 11
17.1961888157
 21
19.2134026184
  0
LWPOLYLINE
  5
601
100
AcDbEntity
  8
ASSI
100
AcDbPolyline
 62
250
  6
CONTINUOUS
 90
6
 70
0
 10
-1.9226709924
 20
25.4606203193
 10
-1.9404667696
 20
25.4692907746
 10
-1.9585490238
 20
25.4751045849
 10
-1.9766423142
 20
25.4779731904
 10
-1.9944710319
 20
25.4778528947
 10
-2.0119512315
 20
25.4746944953
  0
LWPOLYLINE
  5
602
100
AcDbEntity
  8
ASSI
100
AcDbPolyline
 62
250
  6
CONTINUOUS
 90
3
 70
0
 10
0.6391782455
 20
26.1600858553
 10
0.6213824684
 20
26.1687563106
 10
0.6033002142
 20
26.1745701209
  0
LWPOLYLINE
  5
603
100
AcDbEntity
  8
ASSI
100
AcDbPolyline
 62
250
  6
CONTINUOUS
 90
10
 70
0
 10
4.4524047069
 20
24.0042658968
 10
4.4787272968
 20
23.9910324823
 10
4.5034900189
 20
23.9736932123
 10
4.5260790236
 20
23.9526779148
 10
4.545934346
 20
23.9285075434
 10
4.5625637873
 20
23.9017812639
 10
4.5755551159
 20
23.8731616012
 10
4.5845862863
 20
23.8433580155
 10
4.5894334224
 20
23.8131093161
 10
4.5899763672
 20
23.7831653458
  0
LINE
  5
604
100
AcDbEntity
  8
RACCORDO
100
AcDbLine
 62
250
  6
CONTINUOUS
 10
14.8659674859
 20
20.6451409347
 11
15.697422086
 21
20.2001809458
  0
LINE
  5
605
100
AcDbEntity
  8
RACCORDO
100
AcDbLine
 62
250
  6
CONTINUOUS
 10
14.602147885
 20
20.7864920774
 11
14.8659674859
 21
20.6451409347
  0
LWPOLYLINE
  5
606
100
AcDbEntity
  8
RACCORDO
100
AcDbPolyline
 62
250
  6
CONTINUOUS
 90
3
 70
0
 10
13.4021487354
 20
21.4306655224
 10
13.6251891032
 20
21.3106338538
 10
14.602147885
 20
20.7864920774
  0
LINE
  5
607
100
AcDbEntity
  8
DRAFT
100
AcDbLine
 62
7
  6
CONTINUOUS
 10
-1.1495563465
 20
26.3034028206
 11
-1.1430888406
 21
26.2996685637
  0
LINE
  5
608
100
AcDbEntity
  8
DRAFT
100
AcDbLine
 62
7
  6
CONTINUOUS
 10
6.35224304
 20
21.9719578744
 11
6.3457755341
 21
21.9756921313
  0
LINE
  5
609
100
AcDbEntity
  8
RACCORDO
100
AcDbLine
 62
7
  6
CONTINUOUS
 10
1.0995508178
 20
25.2096557889
 11
3.1191551708
 21
24.043561547
  0
LINE
  5
60A
100
AcDbEntity
  8
DRAFT
100
AcDbLine
 62
7
  6
CONTINUOUS
 10
8.6641236689
 20
20.930308493
 11
8.0846546539
 21
21.2648866398
  0
LINE
  5
60B
100
AcDbEntity
  8
DRAFT
100
AcDbLine
 62
7
  6
CONTINUOUS
 10
0.8603858426
 20
26.2454339587
 11
0.9119139108
 21
26.215682298
  0
LINE
  5
60C
100
AcDbEntity
  8
DRAFT
100
AcDbLine
 62
7
  6
CONTINUOUS
 10
10.8525919977
 20
20.4760593566
 11
8.3557177232
 21
21.9177232695
  0
LINE
  5
60D
100
AcDbEntity
  8
ASSI
100
AcDbLine
 62
7
  6
CONTINUOUS
 10
2.0346475477
 20
26.1494648414
 11
4.8905097957
 21
24.5005257718
  0
LINE
  5
60E
100
AcDbEntity
  8
ASSI
100
AcDbLine
 62
7
  6
CONTINUOUS
 10
1.9850246591
 20
26.2896631141
 11
5.2040285277
 21
24.431050624
  0
LWPOLYLINE
  5
60F
100
AcDbEntity
  8
RACCORDO
100
AcDbPolyline
 62
250
  6
CONTINUOUS
 90
19
 70
0
 10
15.6551565745
 20
20.5384210898
 10
15.6850401658
 20
20.5190445356
 10
15.7129409086
 20
20.4965234738
 10
15.7386451811
 20
20.471018221
 10
15.7619611619
 20
20.4427037403
 10
15.7827001475
 20
20.4117922072
 10
15.8006856019
 20
20.3785385643
 10
15.8157783397
 20
20.3432036104
 10
15.8278711383
 20
20.3060424909
 10
15.8368738617
 20
20.2673309689
 10
15.842718492
 20
20.227357015
 10
15.8453598996
 20
20.1864223516
 10
15.8447777192
 20
20.144837461
 10
15.8409765456
 20
20.1029156551
 10
15.8339850051
 20
20.0609703604
 10
15.8238555926
 20
20.0193162005
 10
15.8106643402
 20
19.9782657111
 10
15.7945102837
 20
19.9381269919
 10
15.7755146806
 20
19.8992012444
  0
LWPOLYLINE
  5
610
100
AcDbEntity
  8
RACCORDO
100
AcDbPolyline
 62
250
  6
CONTINUOUS
 90
13
 70
0
 10
15.6551565745
 20
20.5384210898
 10
15.6716817879
 20
20.5255034134
 10
15.6855863014
 20
20.5095729802
 10
15.6971855704
 20
20.4906044294
 10
15.706892971
 20
20.4682290459
 10
15.7144431765
 20
20.442508718
 10
15.7192550473
 20
20.4141896009
 10
15.7216826156
 20
20.3834668333
 10
15.7218944955
 20
20.3502156824
 10
15.7193393514
 20
20.3150199004
 10
15.7140481481
 20
20.2782379955
 10
15.706619485
 20
20.2398899761
 10
15.6974220884
 20
20.2001809446
  0
LWPOLYLINE
  5
611
100
AcDbEntity
  8
RACCORDO
100
AcDbPolyline
 62
250
  6
CONTINUOUS
 90
3
 70
0
 10
17.1336615617
 20
19.8106831672
 10
17.1593702575
 20
19.7851636608
 10
17.1826769474
 20
19.7568491151
  0
LWPOLYLINE
  5
612
100
AcDbEntity
  8
ASSI
100
AcDbPolyline
 62
7
  6
CONTINUOUS
 90
8
 70
0
 10
12.0414326043
 20
23.2613006505
 10
12.0394687562
 20
23.2633968993
 10
12.0345025597
 20
23.2670915654
 10
12.0265996405
 20
23.2723660494
 10
12.0161543767
 20
23.2789571395
 10
12.0032982277
 20
23.2867770986
 10
11.9878997341
 20
23.2959136638
 10
11.9699588959
 20
23.3063668352
  0
LWPOLYLINE
  5
613
100
AcDbEntity
  8
RACCORDO
100
AcDbPolyline
 62
250
  6
CONTINUOUS
 90
15
 70
0
 10
17.1826769474
 20
19.7568491151
 10
17.203400554
 20
19.7259500439
 10
17.2213766243
 20
19.6927049165
 10
17.2364685803
 20
19.6573620289
 10
17.2485615759
 20
19.6201852168
 10
17.2575609228
 20
19.5814638145
 10
17.2633993318
 20
19.5414944274
 10
17.266035325
 20
19.5005719199
 10
17.2654497086
 20
19.4589979879
 10
17.2616461042
 20
19.4170814752
 10
17.254652586
 20
19.3751397359
 10
17.2445221723
 20
19.3334907824
 10
17.2313316197
 20
19.2924481189
 10
17.2151800032
 20
19.2523184337
 10
17.1961888157
 20
19.2134026184
  0
LWPOLYLINE
  5
614
100
AcDbEntity
  8
RACCORDO
100
AcDbPolyline
 62
7
  6
CONTINUOUS
 90
6
 70
0
 10
4.2597004941
 20
-15.500025779
 10
4.2755121842
 20
-15.4844181885
 10
4.2895610684
 20
-15.4667597436
 10
4.3018471467
 20
-15.4470504443
 10
4.3124280479
 20
-15.4251350001
 10
4.3212461433
 20
-15.4011687016
  0
LWPOLYLINE
  5
615
100
AcDbEntity
  8
DRAFT
100
AcDbPolyline
 62
7
  6
CONTINUOUS
 90
7
 70
0
 10
-0.6481140937
 20
-18.431406707
 10
-0.8863229388
 20
-18.6348328023
 10
-1.1298665899
 20
-18.8297122393
 10
-1.378745047
 20
-19.0160450182
 10
-1.6330501711
 20
-19.1938910372
 10
-1.8926901012
 20
-19.363190398
 10
-2.0264436474
 20
-19.4458058392
  0
LWPOLYLINE
  5
616
100
AcDbEntity
  8
DRAFT
100
AcDbPolyline
 62
7
  6
CONTINUOUS
 90
3
 70
0
 10
-1.6334844374
 20
-17.4612079916
 10
-1.9299259328
 20
-17.6971649441
 10
-2.0985792842
 20
-17.8204485464
  0
LWPOLYLINE
  5
617
100
AcDbEntity
  8
RACCORDO
100
AcDbPolyline
 62
250
  6
CONTINUOUS
 90
10
 70
0
 10
17.28814845
 20
0.2190735501
 10
17.3045941129
 20
0.2306696094
 10
17.3232747457
 20
0.2480199934
 10
17.3396862847
 20
0.2683860464
 10
17.3537037354
 20
0.2916121304
 10
17.3652209136
 20
0.3175216894
 10
17.3741504948
 20
0.3459180182
 10
17.3804245645
 20
0.3765852571
 10
17.3839953103
 20
0.4092898588
 10
17.3848355608
 20
0.4437829592
  0
LWPOLYLINE
  5
618
100
AcDbEntity
  8
RACCORDO
100
AcDbPolyline
 62
250
  6
CONTINUOUS
 90
9
 70
0
 10
11.529262906
 20
-3.3423076555
 10
11.537653892
 20
-3.336761673
 10
11.5608449885
 20
-3.3170622121
 10
11.5808100781
 20
-3.2929817811
 10
11.5973304648
 20
-3.2647840688
 10
11.610225183
 20
-3.2327778478
 10
11.619352966
 20
-3.1973136116
 10
11.6246137984
 20
-3.1587797424
 10
11.6259500175
 20
-3.1175982459
  0
LINE
  5
619
100
AcDbEntity
  8
DRAFT
100
AcDbLine
 62
7
  6
CONTINUOUS
 10
-2.5702637728
 20
-15.7131279464
 11
-1.6334844374
 21
-15.1145818963
  0
LINE
  5
61A
100
AcDbEntity
  8
RACCORDO
100
AcDbLine
 62
250
  6
CONTINUOUS
 10
17.3848355608
 20
0.4437829592
 11
11.6259500175
 21
-3.1175982459
  0
LINE
  5
61B
100
AcDbEntity
  8
RACCORDO
100
AcDbLine
 62
7
  6
CONTINUOUS
 10
17.28814845
 20
0.2190735501
 11
11.529262906
 21
-3.3423076555
  0
LINE
  5
61C
100
AcDbEntity
  8
ASSI
100
AcDbLine
 62
7
  6
CONTINUOUS
 10
-2.5702637728
 20
-12.5443966592
 11
-2.019391342
 21
-12.2101205311
  0
LINE
  5
61D
100
AcDbEntity
  8
DRAFT
100
AcDbLine
 62
7
  6
CONTINUOUS
 10
-2.5702637728
 20
-12.5443966592
 11
-2.019391342
 21
-12.2101205311
  0
LINE
  5
61E
100
AcDbEntity
  8
ASSI
100
AcDbLine
 62
7
  6
CONTINUOUS
 10
10.9644396367
 20
23.2804353651
 11
11.6905374186
 21
23.4527308606
  0
LWPOLYLINE
  5
61F
100
AcDbEntity
  8
ASSI
100
AcDbPolyline
 62
250
  6
CONTINUOUS
 90
9
 70
0
 10
-1.6992175499
 20
21.8483843765
 10
-1.6646289228
 20
21.8512137061
 10
-1.6300250918
 20
21.8557417995
 10
-1.5954789579
 20
21.8618704913
 10
-1.5614447054
 20
21.8694086367
 10
-1.5276077617
 20
21.8783163397
 10
-1.4928468898
 20
21.8888815945
 10
-1.4570638692
 20
21.9012188523
 10
-1.4204144271
 20
21.9153446934
  0
LWPOLYLINE
  5
620
100
AcDbEntity
  8
ASSI
100
AcDbPolyline
 62
250
  6
CONTINUOUS
 90
16
 70
0
 10
-3.2236957101
 20
21.3018630946
 10
-3.2308228617
 20
21.3014544571
 10
-3.2378055761
 20
21.300764581
 10
-3.2446438531
 20
21.2997934665
 10
-3.2513458493
 20
21.298513968
 10
-3.2579034082
 20
21.296953231
 10
-3.2642920606
 20
21.2951926919
 10
-3.270509642
 20
21.293235301
 10
-3.2765583168
 20
21.291078108
 10
-3.28242011
 20
21.2887936987
 10
-3.2880933191
 20
21.2863846014
 10
-3.2935796465
 20
21.2838482878
 10
-3.2988662241
 20
21.2812497591
 10
-3.3039487625
 20
21.2786106822
 10
-3.3088315512
 20
21.2759093902
 10
-3.3135145901
 20
21.273145883
  0
LWPOLYLINE
  5
621
100
AcDbEntity
  8
ASSI
100
AcDbPolyline
 62
250
  6
CONTINUOUS
 90
16
 70
0
 10
-3.3072583535
 20
21.5500435144
 10
-3.3189977753
 20
21.5493859406
 10
-3.3305633252
 20
21.548172793
 10
-3.341927325
 20
21.5464529052
 10
-3.3530589525
 20
21.5442739719
 10
-3.3639410652
 20
21.5416830923
 10
-3.3745704566
 20
21.5387249679
 10
-3.3849317266
 20
21.5354413957
 10
-3.395006329
 20
21.5318740551
 10
-3.4047897349
 20
21.5280633643
 10
-3.4142716467
 20
21.5240462613
 10
-3.4234393788
 20
21.5198595231
 10
-3.4322873275
 20
21.5155405967
 10
-3.4408088956
 20
21.5111235468
 10
-3.4489963879
 20
21.506638972
 10
-3.4568444812
 20
21.5021168244
  0
LINE
  5
622
100
AcDbEntity
  8
ASSI
100
AcDbLine
 62
250
  6
CONTINUOUS
 10
-3.2053202821
 20
21.7664542007
 11
-1.6992175499
 21
21.8483843765
  0
LINE
  5
623
100
AcDbEntity
  8
ASSI
100
AcDbLine
 62
7
  6
CONTINUOUS
 10
-3.2765906942
 20
21.7836189241
 11
-1.769848495
 21
21.865585575
  0
LINE
  5
624
100
AcDbEntity
  8
ASSI
100
AcDbLine
 62
7
  6
CONTINUOUS
 10
-1.769848495
 20
21.865585575
 11
-1.7697082358
 21
21.8655931237
  0
LINE
  5
625
100
AcDbEntity
  8
0
100
AcDbLine
 62
7
  6
CONTINUOUS
 10
8.1028993417
 20
21.2543523857
 11
8.0616119159
 21
21.2522667573
  0
LINE
  5
626
100
AcDbEntity
  8
ASSI
100
AcDbLine
 62
250
  6
CONTINUOUS
 10
-3.2264014306
 20
21.7654732159
 11
-3.2053202821
 21
21.7664542007
  0
LWPOLYLINE
  5
627
100
AcDbEntity
  8
ASSI
100
AcDbPolyline
 62
7
  6
CONTINUOUS
 90
13
 70
0
 10
-3.2765906943
 20
21.7836189241
 10
-3.3059232863
 20
21.7827211986
 10
-3.3451491093
 20
21.7832497922
 10
-3.3885557806
 20
21.7856510606
 10
-3.435467502
 20
21.7899990823
 10
-3.4850316529
 20
21.7962731468
 10
-3.5367714418
 20
21.8044459452
 10
-3.5902815992
 20
21.814481028
 10
-3.6450335314
 20
21.8263066767
 10
-3.7005259037
 20
21.8398303819
 10
-3.7563135829
 20
21.8549553543
 10
-3.8119790728
 20
21.8715919517
 10
-3.8669117854
 20
21.8895749489
  0
LWPOLYLINE
  5
628
100
AcDbEntity
  8
DRAFT
100
AcDbPolyline
 62
7
  6
CONTINUOUS
 90
14
 70
0
 10
9.6187802849
 20
20.4903238411
 10
9.5324365379
 20
20.4877477945
 10
9.4455033315
 20
20.4889360271
 10
9.3579721873
 20
20.4938838222
 10
9.2696473124
 20
20.5027213836
 10
9.1807052612
 20
20.5153074252
 10
9.0916970452
 20
20.5312302798
 10
9.0026773698
 20
20.5504938138
 10
8.9135734576
 20
20.5730827485
 10
8.8247483113
 20
20.5985582528
 10
8.7362479809
 20
20.6268976336
 10
8.6480103465
 20
20.6581124871
 10
8.5602393361
 20
20.6918170879
 10
8.5118748381
 20
20.711498013
  0
LINE
  5
629
100
AcDbEntity
  8
ASSI
100
AcDbLine
 62
250
  6
CONTINUOUS
 10
-1.5057613878
 20
21.3447083801
 11
-3.2236957101
 21
21.3018630946
  0
LINE
  5
62A
100
AcDbEntity
  8
ASSI
100
AcDbLine
 62
250
  6
CONTINUOUS
 10
-1.2704867771
 20
21.6008406016
 11
-3.3072583535
 21
21.5500435144
  0
LWPOLYLINE
  5
62B
100
AcDbEntity
  8
RACCORDO
100
AcDbPolyline
 62
250
  6
CONTINUOUS
 90
23
 70
0
 10
8.0729538794
 20
20.926724004
 10
8.0823490528
 20
20.9269371421
 10
8.1732707929
 20
20.9270132058
 10
8.260751461
 20
20.9249961056
 10
8.3447058844
 20
20.9215276866
 10
8.4250099578
 20
20.9166559214
 10
8.5017877864
 20
20.9103328375
 10
8.5753265128
 20
20.9030563632
 10
8.6455930465
 20
20.894873589
 10
8.7126204781
 20
20.8857374244
 10
8.7767952222
 20
20.8760045261
 10
8.8381029691
 20
20.8657147418
 10
8.8965580285
 20
20.8548282237
 10
8.952589745
 20
20.8435820856
 10
9.0061943285
 20
20.8320094835
 10
9.0573755692
 20
20.8200772614
 10
9.1065741815
 20
20.807923065
 10
9.1537933264
 20
20.7955732793
 10
9.199029843
 20
20.7830015192
 10
9.2427149629
 20
20.770266276
 10
9.2849924299
 20
20.7573870465
 10
9.3257185003
 20
20.7443443339
 10
9.3648931741
 20
20.731138138
  0
LWPOLYLINE
  5
62C
100
AcDbEntity
  8
ASSI
100
AcDbPolyline
 62
250
  6
CONTINUOUS
 90
5
 70
0
 10
-3.2759512269
 20
21.7836553992
 10
-3.2632103097
 20
21.7836809209
 10
-3.2434615194
 20
21.7810802209
 10
-3.224060768
 20
21.7753070104
 10
-3.2053202821
 20
21.7664542007
  0
LWPOLYLINE
  5
62D
100
AcDbEntity
  8
ASSI
100
AcDbPolyline
 62
250
  6
CONTINUOUS
 90
5
 70
0
 10
-1.7697082358
 20
21.8655931237
 10
-1.7571063317
 20
21.865611034
 10
-1.7373578995
 20
21.8630102068
 10
-1.7179575717
 20
21.8572370082
 10
-1.6992175499
 20
21.8483843765
  0
LWPOLYLINE
  5
62E
100
AcDbEntity
  8
SMUSSO
100
AcDbPolyline
 62
7
  6
CONTINUOUS
 90
7
 70
0
 10
4.6010309231
 20
23.3584436185
 10
4.6044764944
 20
23.3583799789
 10
4.6078588321
 20
23.3584001489
 10
4.6111774191
 20
23.3585037472
 10
4.6144317455
 20
23.3586903894
 10
4.6176213094
 20
23.3589596879
 10
4.6207456164
 20
23.3593112519
  0
LWPOLYLINE
  5
62F
100
AcDbEntity
  8
ASSI
100
AcDbPolyline
 62
7
  6
CONTINUOUS
 90
10
 70
0
 10
0.8200305512
 20
21.1066909928
 10
0.798311702
 20
21.1079194849
 10
0.7770553437
 20
21.1079190518
 10
0.7562614762
 20
21.1066896933
 10
0.7357302706
 20
21.1041843883
 10
0.7156615559
 20
21.100450158
 10
0.6966548186
 20
21.0956280661
 10
0.6789098876
 20
21.0897651338
 10
0.662226934
 20
21.0828143398
 10
0.6466059579
 20
21.0747756843
  0
LWPOLYLINE
  5
630
100
AcDbEntity
  8
ASSI
100
AcDbPolyline
 62
250
  6
CONTINUOUS
 90
6
 70
0
 10
-6.2474717314
 20
23.2801871904
 10
-6.2674004954
 20
23.2813169474
 10
-6.2841361181
 20
23.2812637068
 10
-6.2980104045
 20
23.2800870002
 10
-6.3091099339
 20
23.2779482823
 10
-6.3177176243
 20
23.2749300687
  0
LWPOLYLINE
  5
631
100
AcDbEntity
  8
SMUSSO
100
AcDbPolyline
 62
7
  6
CONTINUOUS
 90
7
 70
0
 10
9.1915167346
 20
20.5631272364
 10
9.0936160531
 20
20.5688141608
 10
8.9917436263
 20
20.5808756872
 10
8.8859521444
 20
20.5995044088
 10
8.7763933022
 20
20.6248160967
 10
8.6630912627
 20
20.657088505
 10
8.578630034
 20
20.6850670943
  0
LWPOLYLINE
  5
632
100
AcDbEntity
  8
ASSI
100
AcDbPolyline
 62
7
  6
CONTINUOUS
 90
18
 70
0
 10
11.6905359885
 20
23.4527305198
 10
11.6914251735
 20
23.4526740562
 10
11.6953654637
 20
23.4515263988
 10
11.7023361201
 20
23.448694902
 10
11.7121907879
 20
23.4442608885
 10
11.7244376912
 20
23.4384456281
 10
11.7391982288
 20
23.4311790269
 10
11.7563510018
 20
23.4225311789
 10
11.7750400383
 20
23.4129336363
 10
11.7953432989
 20
23.4023382049
 10
11.8171828229
 20
23.3907930788
 10
11.8394687562
 20
23.3788743927
 10
11.8622237525
 20
23.3665631895
 10
11.885425158
 20
23.3538784263
 10
11.9079151567
 20
23.3414531086
 10
11.9293078099
 20
23.3294982385
 10
11.9499890563
 20
23.317802814
 10
11.9699588959
 20
23.3063668352
  0
LWPOLYLINE
  5
633
100
AcDbEntity
  8
ASSI
100
AcDbPolyline
 62
250
  6
CONTINUOUS
 90
6
 70
0
 10
-3.3586347958
 20
21.7699012064
 10
-3.3283864288
 20
21.7676189242
 10
-3.3002635865
 20
21.7661872796
 10
-3.2739292523
 20
21.7653778292
 10
-3.2492710874
 20
21.7651144254
 10
-3.2264014306
 20
21.7654732159
  0
LWPOLYLINE
  5
634
100
AcDbEntity
  8
ASSI
100
AcDbPolyline
 62
250
  6
CONTINUOUS
 90
21
 70
0
 10
-2.9565617654
 20
25.1089600537
 10
-2.9882886302
 20
25.1128834668
 10
-3.0201941413
 20
25.1147813664
 10
-3.0526578234
 20
25.114630005
 10
-3.0853001519
 20
25.1124531301
 10
-3.116982553
 20
25.1083219841
 10
-3.1476713657
 20
25.1021672425
 10
-3.1774002509
 20
25.0940582299
 10
-3.2051316174
 20
25.0842741622
 10
-3.2307970211
 20
25.0727533151
 10
-3.2544649062
 20
25.059557413
 10
-3.2753030135
 20
25.0451508454
 10
-3.2932068003
 20
25.0294922141
 10
-3.3082808094
 20
25.0126229174
 10
-3.3200064104
 20
24.9951315389
 10
-3.3282651863
 20
24.9769964054
 10
-3.333175554
 20
24.9582391902
 10
-3.3345741334
 20
24.9395134976
 10
-3.3324064644
 20
24.9210371958
 10
-3.3267270071
 20
24.9025924167
 10
-3.3175357614
 20
24.8841791602
  0
LWPOLYLINE
  5
635
100
AcDbEntity
  8
ASSI
100
AcDbPolyline
 62
250
  6
CONTINUOUS
 90
22
 70
0
 10
0.79010803
 20
22.5124770879
 10
0.8219978473
 20
22.5071699513
 10
0.853943303
 20
22.5038907001
 10
0.8859443973
 20
22.5026393345
 10
0.918378981
 20
22.5034472641
 10
0.9508692033
 20
22.5062830791
 10
0.9822815115
 20
22.5110525503
 10
1.0125780604
 20
22.5178242796
 10
1.0417966952
 20
22.5265296649
 10
1.0689173983
 20
22.5368686708
 10
1.0938680196
 20
22.5489015991
 10
1.1167207092
 20
22.5625681479
 10
1.1366718993
 20
22.5773873757
 10
1.1536145986
 20
22.5933985397
 10
1.1676557985
 20
22.6105623826
 10
1.178312905
 20
22.628280192
 10
1.1854662618
 20
22.646571229
 10
1.1892355253
 20
22.6654162324
 10
1.1894970703
 20
22.6841587062
 10
1.1862096885
 20
22.7025798184
 10
1.1794145882
 20
22.720898401
 10
1.1691117695
 20
22.739114454
  0
LINE
  5
636
100
AcDbEntity
  8
ASSI
100
AcDbLine
 62
250
  6
CONTINUOUS
 10
-2.9250135471
 20
25.103011127
 11
-2.9565617654
 21
25.1089600537
  0
LWPOLYLINE
  5
637
100
AcDbEntity
  8
SMUSSO
100
AcDbPolyline
 62
7
  6
CONTINUOUS
 90
8
 70
0
 10
-0.6610378916
 20
25.8435363886
 10
-0.7237258992
 20
25.8562732347
 10
-0.9169738417
 20
25.9034427221
 10
-1.1056293046
 20
25.9574929345
 10
-1.2874974736
 20
26.0177933557
 10
-1.4618467441
 20
26.0841338139
 10
-1.6294087206
 20
26.1567244809
 10
-1.7901834034
 20
26.2355653569
  0
LINE
  5
638
100
AcDbEntity
  8
ASSI
100
AcDbLine
 62
250
  6
CONTINUOUS
 10
-2.9087551819
 20
25.0996177236
 11
-2.9250135471
 21
25.103011127
  0
LWPOLYLINE
  5
639
100
AcDbEntity
  8
ASSI
100
AcDbPolyline
 62
250
  6
CONTINUOUS
 90
5
 70
0
 10
-2.0485075206
 20
25.4372518093
 10
-2.064858045
 20
25.4408924244
 10
-2.0804399817
 20
25.4417503048
 10
-2.095015479
 20
25.4398123555
 10
-2.1083620482
 20
25.4351081583
  0
LINE
  5
63A
100
AcDbEntity
  8
RACCORDO
100
AcDbLine
 62
250
  6
CONTINUOUS
 10
1.0601738125
 20
28.9541028539
 11
1.10128724
 21
28.938266616
  0
LINE
  5
63B
100
AcDbEntity
  8
RACCORDO
100
AcDbLine
 62
250
  6
CONTINUOUS
 10
15.6551565745
 20
20.5384210898
 11
17.0758307096
 21
19.8526224637
  0
LINE
  5
63C
100
AcDbEntity
  8
DRAFT
100
AcDbLine
 62
7
  6
CONTINUOUS
 10
9.722613003
 20
23.9254424587
 11
9.2807378736
 21
24.1387477826
  0
LINE
  5
63D
100
AcDbEntity
  8
DRAFT
100
AcDbLine
 62
7
  6
CONTINUOUS
 10
2.2272811224
 20
28.253153148
 11
1.7854059931
 21
28.4664584719
  0
LINE
  5
63E
100
AcDbEntity
  8
DRAFT
100
AcDbLine
 62
7
  6
CONTINUOUS
 10
7.0709022866
 20
25.471895389
 11
6.0704900715
 21
25.9556558111
  0
LINE
  5
63F
100
AcDbEntity
  8
0
100
AcDbLine
 62
7
  6
CONTINUOUS
 10
12.6831121323
 20
22.2591175888
 11
12.5587557393
 21
22.3193533261
  0
LINE
  5
640
100
AcDbEntity
  8
0
100
AcDbLine
 62
7
  6
CONTINUOUS
 10
13.2949803163
 20
22.0151808576
 11
12.7325014062
 21
22.2876343365
  0
LINE
  5
641
100
AcDbEntity
  8
0
100
AcDbLine
 62
7
  6
CONTINUOUS
 10
12.8721544178
 20
22.5003057952
 11
12.9965108108
 21
22.4400700579
  0
LINE
  5
642
100
AcDbEntity
  8
0
100
AcDbLine
 62
7
  6
CONTINUOUS
 10
12.4326865785
 20
22.7656151032
 11
13.6083789947
 21
22.1961333267
  0
LINE
  5
643
100
AcDbEntity
  8
0
100
AcDbLine
 62
7
  6
CONTINUOUS
 10
13.3971732875
 20
22.318080855
 11
12.0971244783
 21
22.9477983689
  0
LINE
  5
644
100
AcDbEntity
  8
0
100
AcDbLine
 62
7
  6
CONTINUOUS
 10
6.0677520289
 20
26.1880877228
 11
4.7677032196
 21
26.8178052367
  0
LINE
  5
645
100
AcDbEntity
  8
0
100
AcDbLine
 62
7
  6
CONTINUOUS
 10
5.0811018981
 20
26.9987577058
 11
6.3811507073
 21
26.3690401919
  0
LINE
  5
646
100
AcDbEntity
  8
0
100
AcDbLine
 62
7
  6
CONTINUOUS
 10
5.9903641198
 20
26.5774972897
 11
4.8750119
 21
27.1177514878
  0
LINE
  5
647
100
AcDbEntity
  8
0
100
AcDbLine
 62
7
  6
CONTINUOUS
 10
5.687564828
 20
26.7509705614
 11
5.5320969221
 21
26.8262760903
  0
LINE
  5
648
100
AcDbEntity
  8
DRAFT
100
AcDbLine
 62
7
  6
CONTINUOUS
 10
9.2319005776
 20
24.2241620595
 11
8.2138737114
 21
24.7180929603
  0
LINE
  5
649
100
AcDbEntity
  8
DRAFT
100
AcDbLine
 62
7
  6
CONTINUOUS
 10
13.7446154062
 20
21.6031886786
 11
13.2870403149
 21
21.8255589638
  0
LINE
  5
64A
100
AcDbEntity
  8
DRAFT
100
AcDbLine
 62
7
  6
CONTINUOUS
 10
6.2492835256
 20
25.9308993679
 11
5.7917084343
 21
26.1532696531
  0
LINE
  5
64B
100
AcDbEntity
  8
RACCORDO
100
AcDbLine
 62
250
  6
CONTINUOUS
 10
1.1415102126
 20
28.9184186004
 11
2.6126613455
 21
28.2034751885
  0
LINE
  5
64C
100
AcDbEntity
  8
RACCORDO
100
AcDbLine
 62
7
  6
CONTINUOUS
 10
1.1207454429
 20
28.9294501767
 11
2.5918965759
 21
28.2145067647
  0
LINE
  5
64D
100
AcDbEntity
  8
RACCORDO
100
AcDbLine
 62
250
  6
CONTINUOUS
 10
1.10128724
 20
28.938266616
 11
1.1415102126
 21
28.9184186004
  0
LINE
  5
64E
100
AcDbEntity
  8
RACCORDO
100
AcDbLine
 62
250
  6
CONTINUOUS
 10
15.1105431999
 20
20.8236367215
 11
15.6551565745
 21
20.5384210898
  0
LINE
  5
64F
100
AcDbEntity
  8
RACCORDO
100
AcDbLine
 62
250
  6
CONTINUOUS
 10
14.5917272694
 20
21.0957686054
 11
15.1105431999
 21
20.8236367215
  0
LINE
  5
650
100
AcDbEntity
  8
RACCORDO
100
AcDbLine
 62
250
  6
CONTINUOUS
 10
14.0999936094
 20
21.3541154767
 11
14.5917272694
 21
21.0957686054
  0
LWPOLYLINE
  5
651
100
AcDbEntity
  8
RACCORDO
100
AcDbPolyline
 62
250
  6
CONTINUOUS
 90
3
 70
0
 10
13.4224873682
 20
21.7107047141
 10
13.6404815256
 20
21.5958722756
 10
14.0999936094
 20
21.3541154767
  0
LINE
  5
652
100
AcDbEntity
  8
DRAFT
100
AcDbLine
 62
7
  6
CONTINUOUS
 10
9.2807378736
 20
24.1387477826
 11
8.5311799174
 21
24.5348843338
  0
LINE
  5
653
100
AcDbEntity
  8
DRAFT
100
AcDbLine
 62
7
  6
CONTINUOUS
 10
1.7854059931
 20
28.4664584719
 11
1.0358480368
 21
28.8625950231
  0
LINE
  5
654
100
AcDbEntity
  8
RACCORDO
100
AcDbLine
 62
250
  6
CONTINUOUS
 10
17.0758307096
 20
19.8526224637
 11
17.0865309956
 21
19.8469518641
  0
LWPOLYLINE
  5
655
100
AcDbEntity
  8
RACCORDO
100
AcDbPolyline
 62
7
  6
CONTINUOUS
 90
9
 70
0
 10
0.8618764148
 20
28.9630440572
 10
0.8355790193
 20
28.9770114496
 10
0.8086153796
 20
28.9891806868
 10
0.7809854957
 20
28.9995517688
 10
0.7524520868
 20
29.0081253714
 10
0.7232524338
 20
29.0149008189
 10
0.6940983788
 20
29.0198760832
 10
0.6651123121
 20
29.0229719161
 10
0.6361718436
 20
29.0242675658
  0
LINE
  5
656
100
AcDbEntity
  8
RACCORDO
100
AcDbLine
 62
250
  6
CONTINUOUS
 10
1.1207454429
 20
28.9294501767
 11
1.1415102126
 21
28.9184186004
  0
LINE
  5
657
100
AcDbEntity
  8
RACCORDO
100
AcDbLine
 62
250
  6
CONTINUOUS
 10
2.5918965759
 20
28.2145067647
 11
2.6233616315
 21
28.1978045889
  0
LINE
  5
658
100
AcDbEntity
  8
0
100
AcDbLine
 62
7
  6
CONTINUOUS
 10
6.1973505849
 20
26.475164079
 11
6.0959588412
 21
26.5294193492
  0
LINE
  5
659
100
AcDbEntity
  8
0
100
AcDbLine
 62
7
  6
CONTINUOUS
 10
6.0959588412
 20
26.5294193492
 11
5.9876887365
 21
26.5877500149
  0
LINE
  5
65A
100
AcDbEntity
  8
0
100
AcDbLine
 62
7
  6
CONTINUOUS
 10
5.844979152
 20
26.655867143
 11
5.9903641198
 21
26.5774972897
  0
LINE
  5
65B
100
AcDbEntity
  8
0
100
AcDbLine
 62
7
  6
CONTINUOUS
 10
5.9876887365
 20
26.5877500149
 11
5.8725956842
 21
26.6501185732
  0
LINE
  5
65C
100
AcDbEntity
  8
0
100
AcDbLine
 62
7
  6
CONTINUOUS
 10
5.6929840311
 20
26.738370703
 11
5.844979152
 21
26.655867143
  0
LWPOLYLINE
  5
65D
100
AcDbEntity
  8
0
100
AcDbPolyline
 62
7
  6
CONTINUOUS
 90
3
 70
0
 10
5.8725956842
 20
26.6501185732
 10
5.7509013389
 20
26.7163750115
 10
5.687564828
 20
26.7509705614
  0
LINE
  5
65E
100
AcDbEntity
  8
0
100
AcDbLine
 62
7
  6
CONTINUOUS
 10
5.5320969221
 20
26.8262760903
 11
5.6929840311
 21
26.738370703
  0
LWPOLYLINE
  5
65F
100
AcDbEntity
  8
ASSI
100
AcDbPolyline
 62
7
  6
CONTINUOUS
 90
18
 70
0
 10
11.7617591991
 20
23.4072145838
 10
11.7817290386
 20
23.3957786049
 10
11.802410285
 20
23.3840831804
 10
11.8238029382
 20
23.3721283103
 10
11.8462929369
 20
23.3597029927
 10
11.8694943424
 20
23.3470182294
 10
11.8922493388
 20
23.3347070262
 10
11.914535272
 20
23.3227883401
 10
11.936374796
 20
23.3112432141
 10
11.9566780567
 20
23.3006477827
 10
11.9753670931
 20
23.29105024
 10
11.9925198662
 20
23.282402392
 10
12.0072804037
 20
23.2751357908
 10
12.019527307
 20
23.2693205305
 10
12.0293819748
 20
23.264886517
 10
12.0363526312
 20
23.2620550201
 10
12.0402929214
 20
23.2609073628
 10
12.0414326043
 20
23.2613006505
  0
LWPOLYLINE
  5
660
100
AcDbEntity
  8
ASSI
100
AcDbPolyline
 62
7
  6
CONTINUOUS
 90
12
 70
0
 10
11.233410919
 20
23.1085417215
 10
11.2821243416
 20
23.0805630703
 10
11.3326664865
 20
23.0517959728
 10
11.3850373537
 20
23.0222404288
 10
11.4396611917
 20
22.9916607023
 10
11.4961137519
 20
22.9602925294
 10
11.5531222889
 20
22.9288431181
 10
11.6106994321
 20
22.897310623
 10
11.668832552
 20
22.8656968894
 10
11.7262110141
 20
22.8347146618
 10
11.7828176754
 20
22.8043782855
 10
11.8171265924
 20
22.7861310988
  0
LINE
  5
661
100
AcDbEntity
  8
RACCORDO
100
AcDbLine
 62
7
  6
CONTINUOUS
 10
0.8618764148
 20
28.9630440572
 11
1.0358480368
 21
28.8625950231
  0
LINE
  5
662
100
AcDbEntity
  8
DRAFT
100
AcDbLine
 62
7
  6
CONTINUOUS
 10
5.7531838656
 20
26.1388644376
 11
6.0704900715
 21
25.9556558111
  0
LINE
  5
663
100
AcDbEntity
  8
DRAFT
100
AcDbLine
 62
7
  6
CONTINUOUS
 10
8.2138737114
 20
24.7180929603
 11
8.5311799174
 21
24.5348843338
  0
LINE
  5
664
100
AcDbEntity
  8
RACCORDO
100
AcDbLine
 62
7
  6
CONTINUOUS
 10
13.2485157462
 20
21.8111537483
 11
13.4224873682
 21
21.7107047141
  0
LINE
  5
665
100
AcDbEntity
  8
DRAFT
100
AcDbLine
 62
7
  6
CONTINUOUS
 10
2.2272811224
 20
28.253153148
 11
6.2492835256
 21
25.9308993679
  0
LINE
  5
666
100
AcDbEntity
  8
DRAFT
100
AcDbLine
 62
7
  6
CONTINUOUS
 10
13.7446154062
 20
21.6031886786
 11
9.722613003
 21
23.9254424587
  0
LINE
  5
667
100
AcDbEntity
  8
0
100
AcDbLine
 62
7
  6
CONTINUOUS
 10
4.5616132216
 20
26.9367990187
 11
4.7677032196
 21
26.8178052367
  0
LINE
  5
668
100
AcDbEntity
  8
0
100
AcDbLine
 62
7
  6
CONTINUOUS
 10
11.7837257998
 20
22.7668458998
 11
12.5587557393
 21
22.3193533261
  0
LINE
  5
669
100
AcDbEntity
  8
DRAFT
100
AcDbLine
 62
7
  6
CONTINUOUS
 10
9.2857684258
 20
24.2492394414
 11
8.2251082541
 21
24.8616513314
  0
LINE
  5
66A
100
AcDbEntity
  8
RACCORDO
100
AcDbLine
 62
250
  6
CONTINUOUS
 10
2.6126613455
 20
28.2034751885
 11
4.6840403531
 21
27.00748691
  0
LINE
  5
66B
100
AcDbEntity
  8
RACCORDO
100
AcDbLine
 62
250
  6
CONTINUOUS
 10
6.085470986
 20
26.1983184266
 11
11.0882036496
 21
23.3098032856
  0
LINE
  5
66C
100
AcDbEntity
  8
RACCORDO
100
AcDbLine
 62
250
  6
CONTINUOUS
 10
13.3126956628
 20
22.0254094766
 11
17.0758307096
 21
19.8526224637
  0
LINE
  5
66D
100
AcDbEntity
  8
RACCORDO
100
AcDbLine
 62
7
  6
CONTINUOUS
 10
2.6233616315
 20
28.1978045889
 11
4.6844799291
 21
27.0077407157
  0
LINE
  5
66E
100
AcDbEntity
  8
RACCORDO
100
AcDbLine
 62
7
  6
CONTINUOUS
 10
6.0859105621
 20
26.1985722323
 11
11.0888267325
 21
23.3099511367
  0
LINE
  5
66F
100
AcDbEntity
  8
RACCORDO
100
AcDbLine
 62
7
  6
CONTINUOUS
 10
13.3131352389
 20
22.0256632823
 11
17.0865309956
 21
19.8469518641
  0
LINE
  5
670
100
AcDbEntity
  8
0
100
AcDbLine
 62
7
  6
CONTINUOUS
 10
4.8750119
 20
27.1177514878
 11
5.0811018981
 21
26.9987577058
  0
LINE
  5
671
100
AcDbEntity
  8
0
100
AcDbLine
 62
7
  6
CONTINUOUS
 10
12.0971244783
 20
22.9477983689
 11
12.8721544178
 21
22.5003057952
  0
LINE
  5
672
100
AcDbEntity
  8
0
100
AcDbLine
 62
7
  6
CONTINUOUS
 10
12.9965108108
 20
22.4400700579
 11
12.4326865785
 21
22.7656151032
  0
LINE
  5
673
100
AcDbEntity
  8
0
100
AcDbLine
 62
7
  6
CONTINUOUS
 10
6.3811507073
 20
26.3690401919
 11
6.1973505849
 21
26.475164079
  0
LINE
  5
674
100
AcDbEntity
  8
0
100
AcDbLine
 62
7
  6
CONTINUOUS
 10
13.6083789947
 20
22.1961333267
 11
13.3971732875
 21
22.318080855
  0
LWPOLYLINE
  5
675
100
AcDbEntity
  8
ASSI
100
AcDbPolyline
 62
7
  6
CONTINUOUS
 90
9
 70
0
 10
11.7617591991
 20
23.4072145838
 10
11.7438183609
 20
23.4176677551
 10
11.7284198672
 20
23.4268043204
 10
11.7155637182
 20
23.4346242794
 10
11.7051184544
 20
23.4412153696
 10
11.6972155352
 20
23.4464898535
 10
11.6922493388
 20
23.4501845196
 10
11.6903688948
 20
23.4522191968
 10
11.6905359885
 20
23.4527305198
  0
LWPOLYLINE
  5
676
100
AcDbEntity
  8
RACCORDO
100
AcDbPolyline
 62
250
  6
CONTINUOUS
 90
3
 70
0
 10
17.0758307096
 20
19.8526224637
 10
17.1057444358
 20
19.8332240593
 10
17.1336615617
 20
19.8106831672
  0
LINE
  5
677
100
AcDbEntity
  8
RACCORDO
100
AcDbLine
 62
250
  6
CONTINUOUS
 10
10.8815249564
 20
-11.4873702378
 11
10.8655603857
 21
-11.5029359633
  0
LINE
  5
678
100
AcDbEntity
  8
RACCORDO
100
AcDbLine
 62
250
  6
CONTINUOUS
 10
10.9101161823
 20
-11.4705865914
 11
10.9100636152
 21
-11.4706318994
  0
LWPOLYLINE
  5
679
100
AcDbEntity
  8
RACCORDO
100
AcDbPolyline
 62
250
  6
CONTINUOUS
 90
6
 70
0
 10
10.8655603852
 20
-11.5029359637
 10
10.5780247975
 20
-11.7413279734
 10
10.2875545219
 20
-11.9638982449
 10
9.9946743184
 20
-12.1711322135
 10
9.7033914042
 20
-12.3613285596
 10
9.5830351369
 20
-12.4355358817
  0
LWPOLYLINE
  5
67A
100
AcDbEntity
  8
RACCORDO
100
AcDbPolyline
 62
250
  6
CONTINUOUS
 90
3
 70
0
 10
10.9100636152
 20
-11.4706318994
 10
10.8945471449
 20
-11.4832039097
 10
10.8655603851
 20
-11.5029359636
  0
LWPOLYLINE
  5
67B
100
AcDbEntity
  8
ASSI
100
AcDbPolyline
 62
250
  6
CONTINUOUS
 90
7
 70
0
 10
-0.7250870435
 20
-20.7480994438
 10
-0.7149207768
 20
-20.7403816079
 10
-0.7046377976
 20
-20.7286052263
 10
-0.6965281607
 20
-20.7142304536
 10
-0.6907305052
 20
-20.6975091492
 10
-0.6873421649
 20
-20.6787305855
 10
-0.6864195951
 20
-20.6582202545
  0
LINE
  5
67C
100
AcDbEntity
  8
RACCORDO
100
AcDbLine
 62
7
  6
CONTINUOUS
 10
-1.6334844374
 20
-16.3919586337
 11
-2.1065325321
 21
-16.6930018612
  0
LINE
  5
67D
100
AcDbEntity
  8
DRAFT
100
AcDbLine
 62
7
  6
CONTINUOUS
 10
-1.6334844374
 20
-16.317535423
 11
-2.1523880237
 21
-16.6465915057
  0
LINE
  5
67E
100
AcDbEntity
  8
ASSI
100
AcDbLine
 62
7
  6
CONTINUOUS
 10
-2.5702637728
 20
-17.0630199068
 11
-2.15350441
 21
-16.8087689206
  0
LINE
  5
67F
100
AcDbEntity
  8
RACCORDO
100
AcDbLine
 62
7
  6
CONTINUOUS
 10
-2.5702637728
 20
-17.0630199068
 11
-2.15350441
 21
-16.8087689206
  0
LINE
  5
680
100
AcDbEntity
  8
DRAFT
100
AcDbLine
 62
7
  6
CONTINUOUS
 10
-2.0985792842
 20
-17.7126478169
 11
-1.6334844374
 21
-17.4334583607
  0
LINE
  5
681
100
AcDbEntity
  8
RACCORDO
100
AcDbLine
 62
250
  6
CONTINUOUS
 10
-1.9491578027
 20
-16.5928501071
 11
-1.6334844374
 21
-16.4105848666
  0
LINE
  5
682
100
AcDbEntity
  8
ASSI
100
AcDbLine
 62
250
  6
CONTINUOUS
 10
1.4222728753
 20
23.529291652
 11
4.8905097957
 21
24.5005257718
  0
LINE
  5
683
100
AcDbEntity
  8
ASSI
100
AcDbLine
 62
7
  6
CONTINUOUS
 10
1.33173777
 20
23.5430188201
 11
4.7064614233
 21
24.4880657797
  0
LWPOLYLINE
  5
684
100
AcDbEntity
  8
ASSI
100
AcDbPolyline
 62
250
  6
CONTINUOUS
 90
13
 70
0
 10
4.4049270873
 20
23.98578967
 10
4.4091727291
 20
23.9869399736
 10
4.413351046
 20
23.9881486773
 10
4.417462038
 20
23.9894157813
 10
4.4214945388
 20
23.9907339918
 10
4.4254597148
 20
23.9921106025
 10
4.4293910646
 20
23.993567494
 10
4.4332972027
 20
23.9951035377
 10
4.4371695146
 20
23.9967198622
 10
4.4410156555
 20
23.9984417338
 10
4.444838177
 20
24.0002775744
 10
4.4486345275
 20
24.0022189621
 10
4.4524047069
 20
24.0042658968
  0
LINE
  5
685
100
AcDbEntity
  8
ASSI
100
AcDbLine
 62
250
  6
CONTINUOUS
 10
1.9192882434
 20
23.0594035628
 11
4.5116544379
 21
23.7412489906
  0
LINE
  5
686
100
AcDbEntity
  8
ASSI
100
AcDbLine
 62
250
  6
CONTINUOUS
 10
1.8125608927
 20
23.3039442422
 11
4.4049270873
 21
23.98578967
  0
LWPOLYLINE
  5
687
100
AcDbEntity
  8
ASSI
100
AcDbPolyline
 62
250
  6
CONTINUOUS
 90
6
 70
0
 10
1.33173777
 20
23.5430188201
 10
1.3481441553
 20
23.5461989841
 10
1.3665152138
 20
23.5466333628
 10
1.3851932845
 20
23.5439230224
 10
1.4038790013
 20
23.5381114032
 10
1.4222728753
 20
23.529291652
  0
LWPOLYLINE
  5
688
100
AcDbEntity
  8
SMUSSO
100
AcDbPolyline
 62
7
  6
CONTINUOUS
 90
13
 70
0
 10
4.6207456164
 20
23.3593112519
 10
4.6921688436
 20
23.3705887494
 10
4.7615334794
 20
23.3853475687
 10
4.8288395238
 20
23.40358771
 10
4.8937119887
 20
23.4251955861
 10
4.9565258621
 20
23.4502847841
 10
5.0184061087
 20
23.4791960651
 10
5.0796491335
 20
23.5119674648
 10
5.1399585315
 20
23.5485609477
 10
5.1995700516
 20
23.5892031674
 10
5.2585622766
 20
23.6339696755
 10
5.3168566236
 20
23.6827849205
 10
5.3744530927
 20
23.7356489025
  0
LWPOLYLINE
  5
689
100
AcDbEntity
  8
ASSI
100
AcDbPolyline
 62
250
  6
CONTINUOUS
 90
3
 70
0
 10
-7.0620327343
 20
23.7026889036
 10
-7.0540686915
 20
23.7036939564
 10
-7.0464871579
 20
23.7044107491
  0
LWPOLYLINE
  5
68A
100
AcDbEntity
  8
ASSI
100
AcDbPolyline
 62
250
  6
CONTINUOUS
 90
9
 70
0
 10
-2.6928473149
 20
25.0921196686
 10
-2.7040738887
 20
25.0908154132
 10
-2.7155095457
 20
25.0896916778
 10
-2.7271384002
 20
25.0887416324
 10
-2.7389763379
 20
25.0879721069
 10
-2.7511441575
 20
25.0874116511
 10
-2.7636600774
 20
25.0870501123
 10
-2.7765058792
 20
25.0868976432
 10
-2.7897477075
 20
25.0870132511
  0
LWPOLYLINE
  5
68B
100
AcDbEntity
  8
ASSI
100
AcDbPolyline
 62
250
  6
CONTINUOUS
 90
7
 70
0
 10
-5.09520355
 20
23.8091841313
 10
-5.0530408779
 20
23.8127992133
 10
-5.0090203426
 20
23.8191248359
 10
-4.9631903866
 20
23.8283046101
 10
-4.9158464859
 20
23.8404279577
 10
-4.8668294842
 20
23.8556503269
 10
-4.8155017906
 20
23.8743261948
  0
LWPOLYLINE
  5
68C
100
AcDbEntity
  8
ASSI
100
AcDbPolyline
 62
7
  6
CONTINUOUS
 90
7
 70
0
 10
-7.1099846992
 20
23.7220653781
 10
-7.1264754363
 20
23.720768225
 10
-7.1633021866
 20
23.7150196116
 10
-7.2015215294
 20
23.7049709685
 10
-7.2393567753
 20
23.6909661847
 10
-7.2762381505
 20
23.6734018886
 10
-7.2860099781
 20
23.6680910893
  0
LINE
  5
68D
100
AcDbEntity
  8
ASSI
100
AcDbLine
 62
250
  6
CONTINUOUS
 10
-7.0464871579
 20
23.7044107491
 11
-7.03928355
 21
23.7048680896
  0
LWPOLYLINE
  5
68E
100
AcDbEntity
  8
ASSI
100
AcDbPolyline
 62
250
  6
CONTINUOUS
 90
16
 70
0
 10
-6.2479954347
 20
23.5232567002
 10
-6.2895696254
 20
23.5208127695
 10
-6.3264670858
 20
23.5169936828
 10
-6.3586878158
 20
23.5117994403
 10
-6.3859191512
 20
23.5050637946
 10
-6.4084737563
 20
23.4969529929
 10
-6.4272896235
 20
23.4879657774
 10
-6.4424413711
 20
23.4782838717
 10
-6.4538543807
 20
23.4677255522
 10
-6.4622427902
 20
23.4562443905
 10
-6.4680533993
 20
23.444055877
 10
-6.4708394081
 20
23.4309445214
 10
-6.4699745549
 20
23.4162174235
 10
-6.4652500856
 20
23.3996436168
 10
-6.4568747543
 20
23.381454068
 10
-6.4448485608
 20
23.3616487769
  0
LINE
  5
68F
100
AcDbEntity
  8
ASSI
100
AcDbLine
 62
250
  6
CONTINUOUS
 10
-7.03928355
 20
23.7048680896
 11
-5.0951667266
 21
23.8091628699
  0
LINE
  5
690
100
AcDbEntity
  8
ASSI
100
AcDbLine
 62
7
  6
CONTINUOUS
 10
-7.1099846993
 20
23.7220653781
 11
-5.1656474467
 21
23.8263721838
  0
LINE
  5
691
100
AcDbEntity
  8
ASSI
100
AcDbLine
 62
7
  6
CONTINUOUS
 10
-5.1656474467
 20
23.8263721838
 11
-5.1655079818
 21
23.8263795852
  0
LINE
  5
692
100
AcDbEntity
  8
0
100
AcDbLine
 62
7
  6
CONTINUOUS
 10
-2.577168323
 20
23.3313932774
 11
-5.2180389023
 21
23.2673361736
  0
LINE
  5
693
100
AcDbEntity
  8
ASSI
100
AcDbLine
 62
250
  6
CONTINUOUS
 10
-4.5849756584
 20
23.3061186984
 11
-6.1665351393
 21
23.2677563036
  0
LINE
  5
694
100
AcDbEntity
  8
ASSI
100
AcDbLine
 62
250
  6
CONTINUOUS
 10
-4.6664359539
 20
23.561619095
 11
-6.2479954347
 21
23.5232567002
  0
LINE
  5
695
100
AcDbEntity
  8
ASSI
100
AcDbLine
 62
250
  6
CONTINUOUS
 10
-18.4204694104
 20
25.0085706297
 11
-18.4538436236
 21
25.0079496855
  0
LINE
  5
696
100
AcDbEntity
  8
RACCORDO
100
AcDbLine
 62
250
  6
CONTINUOUS
 10
-18.4204694104
 20
25.0085706297
 11
-18.4538436236
 21
25.0079496855
  0
LWPOLYLINE
  5
697
100
AcDbEntity
  8
ASSI
100
AcDbPolyline
 62
250
  6
CONTINUOUS
 90
6
 70
0
 10
-5.1655079818
 20
23.8263795852
 10
-5.1560430729
 20
23.8265072755
 10
-5.1404591846
 20
23.8251121843
 10
-5.1250151497
 20
23.8217315588
 10
-5.1098667774
 20
23.8163978083
 10
-5.0951659665
 20
23.8091629107
  0
LWPOLYLINE
  5
698
100
AcDbEntity
  8
ASSI
100
AcDbPolyline
 62
250
  6
CONTINUOUS
 90
5
 70
0
 10
-7.1097646642
 20
23.7220773823
 10
-7.0956034223
 20
23.7220113607
 10
-7.0763877069
 20
23.7192766658
 10
-7.0575183026
 20
23.713532986
 10
-7.03928355
 20
23.7048680896
  0
LWPOLYLINE
  5
699
100
AcDbEntity
  8
ASSI
100
AcDbPolyline
 62
250
  6
CONTINUOUS
 90
6
 70
0
 10
-2.8808205669
 20
25.1347733922
 10
-2.8884853011
 20
25.1348826549
 10
-2.8970561071
 20
25.1317186579
 10
-2.9061052799
 20
25.1252694594
 10
-2.9154779854
 20
25.1156454055
 10
-2.9250138539
 20
25.103011165
  0
LWPOLYLINE
  5
69A
100
AcDbEntity
  8
ASSI
100
AcDbPolyline
 62
250
  6
CONTINUOUS
 90
9
 70
0
 10
-2.7897477075
 20
25.0870132511
 10
-2.8034268193
 20
25.0873924665
 10
-2.8175019575
 20
25.0880397589
 10
-2.8319154953
 20
25.0890275453
 10
-2.8466620871
 20
25.0903517549
 10
-2.8617470786
 20
25.0920164584
 10
-2.8771288793
 20
25.0941062845
 10
-2.8927936259
 20
25.0966494427
 10
-2.9087551819
 20
25.0996177236
  0
LWPOLYLINE
  5
69B
100
AcDbEntity
  8
ASSI
100
AcDbPolyline
 62
250
  6
CONTINUOUS
 90
3
 70
0
 10
0.6033002142
 20
26.1745701209
 10
0.5852069238
 20
26.1774387265
 10
0.5673782061
 20
26.1773184307
  0
LINE
  5
69C
100
AcDbEntity
  8
RACCORDO
100
AcDbLine
 62
250
  6
CONTINUOUS
 10
1.0575610325
 20
28.9377074443
 11
1.0979196555
 21
28.9287714662
  0
LINE
  5
69D
100
AcDbEntity
  8
RACCORDO
100
AcDbLine
 62
250
  6
CONTINUOUS
 10
1.0979196555
 20
28.9287714662
 11
1.1415102126
 21
28.9184186004
  0
LWPOLYLINE
  5
69E
100
AcDbEntity
  8
RACCORDO
100
AcDbPolyline
 62
7
  6
CONTINUOUS
 90
10
 70
0
 10
1.0226418764
 20
28.9650187357
 10
0.9717893469
 20
28.9772079084
 10
0.9147775175
 20
28.9897396635
 10
0.8622279442
 20
29.0000405099
 10
0.8143808692
 20
29.0081862875
 10
0.769939825
 20
29.0145179278
 10
0.7263221198
 20
29.0193888524
 10
0.682619905
 20
29.0227274751
 10
0.6393613433
 20
29.0242885008
 10
0.6281351102
 20
29.0243809814
  0
LINE
  5
69F
100
AcDbEntity
  8
RACCORDO
100
AcDbLine
 62
250
  6
CONTINUOUS
 10
1.0226446959
 20
28.9650181683
 11
1.0601738125
 21
28.9541028539
  0
LWPOLYLINE
  5
6A0
100
AcDbEntity
  8
ASSI
100
AcDbPolyline
 62
250
  6
CONTINUOUS
 90
10
 70
0
 10
-2.2397267541
 20
-26.0071791165
 10
-2.2219686237
 20
-25.992059557
 10
-2.2067015054
 20
-25.9751537767
 10
-2.1932913786
 20
-25.9560821794
 10
-2.1818152626
 20
-25.9350458556
 10
-2.1722667647
 20
-25.9121532784
 10
-2.1643544899
 20
-25.8863568871
 10
-2.1583127826
 20
-25.8571583924
 10
-2.1545915451
 20
-25.8249140235
 10
-2.15350441
 20
-25.7896591951
  0
LWPOLYLINE
  5
6A1
100
AcDbEntity
  8
RACCORDO
100
AcDbPolyline
 62
250
  6
CONTINUOUS
 90
10
 70
0
 10
-2.2397267541
 20
-26.0071791165
 10
-2.2219686237
 20
-25.992059557
 10
-2.2067015054
 20
-25.9751537767
 10
-2.1932913786
 20
-25.9560821794
 10
-2.1818152626
 20
-25.9350458556
 10
-2.1722667647
 20
-25.9121532784
 10
-2.1643544899
 20
-25.8863568871
 10
-2.1583127826
 20
-25.8571583924
 10
-2.1545915451
 20
-25.8249140235
 10
-2.15350441
 20
-25.7896591951
  0
LINE
  5
6A2
100
AcDbEntity
  8
ASSI
100
AcDbLine
 62
250
  6
CONTINUOUS
 10
-1.1560243471
 20
-20.1315971356
 11
-1.1727545256
 21
-20.1429909304
  0
LWPOLYLINE
  5
6A3
100
AcDbEntity
  8
RACCORDO
100
AcDbPolyline
 62
7
  6
CONTINUOUS
 90
7
 70
0
 10
2.9433841432
 20
-16.4608268644
 10
3.1117466699
 20
-16.3563276526
 10
3.3504890996
 20
-16.1995823527
 10
3.5846782942
 20
-16.0355644534
 10
3.8142389293
 20
-15.8643241613
 10
4.0392463293
 20
-15.6858112698
 10
4.2597004941
 20
-15.500025779
  0
LWPOLYLINE
  5
6A4
100
AcDbEntity
  8
DRAFT
100
AcDbPolyline
 62
7
  6
CONTINUOUS
 90
7
 70
0
 10
2.9312779163
 20
-16.4401852239
 10
3.0898807236
 20
-16.3418751218
 10
3.3387803642
 20
-16.1786584043
 10
3.5827378457
 20
-16.0075291023
 10
3.8216712661
 20
-15.8285409233
 10
4.0556625275
 20
-15.6416401598
 10
4.2847116298
 20
-15.4468268117
  0
LWPOLYLINE
  5
6A5
100
AcDbEntity
  8
RACCORDO
100
AcDbPolyline
 62
7
  6
CONTINUOUS
 90
10
 70
0
 10
9.5830351368
 20
-12.4355358815
 10
9.7375023372
 20
-12.3399110807
 10
9.8902600413
 20
-12.2413635728
 10
10.0412873015
 20
-12.1399048483
 10
10.1905577327
 20
-12.0355508666
 10
10.3380567244
 20
-11.9283101012
 10
10.483780802
 20
-11.8181824018
 10
10.6277149836
 20
-11.70517545
 10
10.7698334252
 20
-11.5893058923
 10
10.9101161823
 20
-11.4705865914
  0
LINE
  5
6A6
100
AcDbEntity
  8
ASSI
100
AcDbLine
 62
250
  6
CONTINUOUS
 10
-0.6864195951
 20
-20.6582202545
 11
-2.0985792842
 21
-21.5315209891
  0
LINE
  5
6A7
100
AcDbEntity
  8
ASSI
100
AcDbLine
 62
7
  6
CONTINUOUS
 10
-0.7250944394
 20
-20.7481040182
 11
-2.0985792842
 21
-21.5974876489
  0
LINE
  5
6A8
100
AcDbEntity
  8
ASSI
100
AcDbLine
 62
7
  6
CONTINUOUS
 10
2.9312471304
 20
-16.4402038879
 11
-2.0264825203
 21
-19.445829406
  0
LINE
  5
6A9
100
AcDbEntity
  8
DRAFT
100
AcDbLine
 62
7
  6
CONTINUOUS
 10
9.5830351369
 20
-12.4355358817
 11
2.9433599485
 21
-16.4608415325
  0
LINE
  5
6AA
100
AcDbEntity
  8
RACCORDO
100
AcDbLine
 62
250
  6
CONTINUOUS
 10
4.3369887136
 20
-15.2899195465
 11
10.943311138
 21
-11.2924295547
  0
LINE
  5
6AB
100
AcDbEntity
  8
DRAFT
100
AcDbLine
 62
7
  6
CONTINUOUS
 10
4.2847116298
 20
-15.4468268117
 11
-0.6481140937
 21
-18.431406707
  0
LINE
  5
6AC
100
AcDbEntity
  8
RACCORDO
100
AcDbLine
 62
250
  6
CONTINUOUS
 10
4.2597004941
 20
-15.500025779
 11
10.8655603852
 21
-11.5029359637
  0
LINE
  5
6AD
100
AcDbEntity
  8
RACCORDO
100
AcDbLine
 62
7
  6
CONTINUOUS
 10
2.8686769781
 20
-16.5056497334
 11
2.9433841432
 21
-16.4608268644
  0
LINE
  5
6AE
100
AcDbEntity
  8
DRAFT
100
AcDbLine
 62
7
  6
CONTINUOUS
 10
-2.0264436474
 20
-19.4458058392
 11
-2.0985792842
 21
-19.4887512942
  0
LWPOLYLINE
  5
6AF
100
AcDbEntity
  8
RACCORDO
100
AcDbPolyline
 62
7
  6
CONTINUOUS
 90
4
 70
0
 10
2.3580291998
 20
-16.7877174801
 10
2.3697064573
 20
-16.7819238248
 10
2.6213553487
 20
-16.6474983886
 10
2.8686769781
 20
-16.5056497334
  0
LWPOLYLINE
  5
6B0
100
AcDbEntity
  8
ASSI
100
AcDbPolyline
 62
250
  6
CONTINUOUS
 90
12
 70
0
 10
-1.9226709924
 20
25.4606203193
 10
-1.9297122041
 20
25.4586255539
 10
-1.9368190261
 20
25.4564392916
 10
-1.9439887248
 20
25.4540607453
 10
-1.9511829839
 20
25.4515020179
 10
-1.9584341965
 20
25.4487515578
 10
-1.9658467158
 20
25.4457649587
 10
-1.9734276764
 20
25.4425289928
 10
-1.9811654531
 20
25.4390389839
 10
-1.9891374072
 20
25.4352489476
 10
-1.9973674407
 20
25.4311308516
 10
-2.0058253579
 20
25.4266815778
  0
LWPOLYLINE
  5
6B1
100
AcDbEntity
  8
ASSI
100
AcDbPolyline
 62
250
  6
CONTINUOUS
 90
13
 70
0
 10
-1.532382975
 20
25.2352729095
 10
-1.5395295544
 20
25.2333155556
 10
-1.5467193133
 20
25.231161024
 10
-1.5539493522
 20
25.2288093229
 10
-1.5611778963
 20
25.2262748186
 10
-1.568440516
 20
25.2235454558
 10
-1.5758515005
 20
25.2205726433
 10
-1.5834207862
 20
25.217342621
 10
-1.591134005
 20
25.2138510429
 10
-1.5990702792
 20
25.210047842
 10
-1.607254133
 20
25.2059031661
 10
-1.6156548162
 20
25.201414747
 10
-1.6242681411
 20
25.1965672874
  0
LINE
  5
6B2
100
AcDbEntity
  8
ASSI
100
AcDbLine
 62
250
  6
CONTINUOUS
 10
0.6391782455
 20
26.1600858553
 11
-1.9226709924
 21
25.4606203193
  0
LINE
  5
6B3
100
AcDbEntity
  8
ASSI
100
AcDbLine
 62
7
  6
CONTINUOUS
 10
0.5498975931
 20
26.1741599185
 11
-2.0119516449
 21
25.4746943824
  0
LWPOLYLINE
  5
6B4
100
AcDbEntity
  8
ASSI
100
AcDbPolyline
 62
250
  6
CONTINUOUS
 90
13
 70
0
 10
-1.4277579722
 20
24.9834122531
 10
-1.4320717974
 20
24.9822509841
 10
-1.4364061543
 20
24.980970439
 10
-1.440761043
 20
24.9795706178
 10
-1.4451146466
 20
24.978062954
 10
-1.4494887819
 20
24.9764360142
 10
-1.4539488996
 20
24.9746554976
 10
-1.4585022071
 20
24.9727248716
 10
-1.463141497
 20
24.9706406689
 10
-1.4679105981
 20
24.9683581875
 10
-1.4728241201
 20
24.9658625267
 10
-1.4778674534
 20
24.9631685873
 10
-1.4830405979
 20
24.9602763691
  0
LINE
  5
6B5
100
AcDbEntity
  8
ASSI
100
AcDbLine
 62
250
  6
CONTINUOUS
 10
0.644329158
 20
26.1614276065
 11
0.6391782455
 21
26.1600858553
  0
LINE
  5
6B6
100
AcDbEntity
  8
ASSI
100
AcDbLine
 62
250
  6
CONTINUOUS
 10
1.6503162683
 20
25.7722898976
 11
-1.4277579722
 21
24.9834122531
  0
LINE
  5
6B7
100
AcDbEntity
  8
ASSI
100
AcDbLine
 62
250
  6
CONTINUOUS
 10
2.0346475477
 20
26.1494648414
 11
-1.532382975
 21
25.2352729095
  0
LINE
  5
6B8
100
AcDbEntity
  8
ASSI
100
AcDbLine
 62
250
  6
CONTINUOUS
 10
0.5673782061
 20
26.1773184307
 11
0.5498975931
 21
26.1741599185
  0
LWPOLYLINE
  5
6B9
100
AcDbEntity
  8
ASSI
100
AcDbPolyline
 62
7
  6
CONTINUOUS
 90
6
 70
0
 10
0.6452523679
 20
26.1909915248
 10
0.6348329611
 20
26.1899420108
 10
0.6092960747
 20
26.1866169841
 10
0.584230538
 20
26.1822269275
 10
0.5596252671
 20
26.1767064536
 10
0.549836275
 20
26.1741431559
  0
LWPOLYLINE
  5
6BA
100
AcDbEntity
  8
ASSI
100
AcDbPolyline
 62
250
  6
CONTINUOUS
 90
12
 70
0
 10
0.7002648259
 20
26.1707044387
 10
0.6950067798
 20
26.1701867831
 10
0.6898093097
 20
26.1696114862
 10
0.6846724155
 20
26.168978548
 10
0.679617722
 20
26.1682931479
 10
0.6746236044
 20
26.1675501065
 10
0.6696251885
 20
26.1667338862
 10
0.6646096064
 20
26.1658460808
 10
0.6595897259
 20
26.1648850964
 10
0.6545392766
 20
26.1638306136
 10
0.6494495017
 20
26.1626758593
 10
0.644329158
 20
26.1614276065
  0
LINE
  5
6BB
100
AcDbEntity
  8
ASSI
100
AcDbLine
 62
250
  6
CONTINUOUS
 10
1.9850246591
 20
26.2896631141
 11
0.7002648259
 21
26.1707044387
  0
LINE
  5
6BC
100
AcDbEntity
  8
ASSI
100
AcDbLine
 62
7
  6
CONTINUOUS
 10
1.9152566614
 20
26.3085839606
 11
0.6452227323
 21
26.1909887883
  0
LWPOLYLINE
  5
6BD
100
AcDbEntity
  8
RACCORDO
100
AcDbPolyline
 62
7
  6
CONTINUOUS
 90
11
 70
0
 10
0.6281362043
 20
29.0243398376
 10
0.6076216452
 20
29.023998749
 10
0.5796264998
 20
29.0222026957
 10
0.5520216245
 20
29.0188421758
 10
0.524657343
 20
29.0140412154
 10
0.4973850896
 20
29.0077948729
 10
0.4703534299
 20
29.0001080899
 10
0.4438583842
 20
28.9911197166
 10
0.4179986258
 20
28.9808760366
 10
0.3926754814
 20
28.9693307663
 10
0.3678889509
 20
28.9564839058
  0
LWPOLYLINE
  5
6BE
100
AcDbEntity
  8
RACCORDO
100
AcDbPolyline
 62
250
  6
CONTINUOUS
 90
4
 70
0
 10
0.8618764148
 20
28.9630440572
 10
0.8812419046
 20
28.9629340166
 10
0.9034317271
 20
28.9616801574
 10
0.9284458823
 20
28.9592824796
  0
LWPOLYLINE
  5
6BF
100
AcDbEntity
  8
RACCORDO
100
AcDbPolyline
 62
250
  6
CONTINUOUS
 90
5
 70
0
 10
0.9284458823
 20
28.9592824796
 10
0.9561485029
 20
28.9558320062
 10
0.9866754563
 20
28.9512377143
 10
1.0204343437
 20
28.9452265347
 10
1.0575610325
 20
28.9377074443
  0
LWPOLYLINE
  5
6C0
100
AcDbEntity
  8
ASSI
100
AcDbPolyline
 62
7
  6
CONTINUOUS
 90
10
 70
0
 10
-2.2492247263
 20
-26.01370499
 10
-2.2260377941
 20
-25.9973093936
 10
-2.1978679263
 20
-25.972359774
 10
-2.1723514109
 20
-25.9433813558
 10
-2.1499301408
 20
-25.9104691034
 10
-2.131152994
 20
-25.8739938513
 10
-2.1164762394
 20
-25.8345621997
 10
-2.1060950238
 20
-25.7925054348
 10
-2.100112302
 20
-25.7480108048
 10
-2.0985793013
 20
-25.7102174826
  0
LWPOLYLINE
  5
6C1
100
AcDbEntity
  8
RACCORDO
100
AcDbPolyline
 62
7
  6
CONTINUOUS
 90
10
 70
0
 10
-2.2492247263
 20
-26.01370499
 10
-2.2260377941
 20
-25.9973093936
 10
-2.1978679263
 20
-25.972359774
 10
-2.1723514109
 20
-25.9433813558
 10
-2.1499301408
 20
-25.9104691034
 10
-2.131152994
 20
-25.8739938513
 10
-2.1164762394
 20
-25.8345621997
 10
-2.1060950238
 20
-25.7925054348
 10
-2.100112302
 20
-25.7480108048
 10
-2.0985793013
 20
-25.7102174826
  0
LWPOLYLINE
  5
6C2
100
AcDbEntity
  8
ASSI
100
AcDbPolyline
 62
250
  6
CONTINUOUS
 90
7
 70
0
 10
-2.15350441
 20
-25.7896591951
 10
-2.1370327394
 20
-25.7782493576
 10
-2.1232339324
 20
-25.7657131108
 10
-2.1123362966
 20
-25.7522578729
 10
-2.1045201385
 20
-25.7381062671
 10
-2.0999147799
 20
-25.7234924384
 10
-2.0985793013
 20
-25.7102174826
  0
LWPOLYLINE
  5
6C3
100
AcDbEntity
  8
RACCORDO
100
AcDbPolyline
 62
250
  6
CONTINUOUS
 90
7
 70
0
 10
-2.15350441
 20
-25.7896591951
 10
-2.1370327394
 20
-25.7782493576
 10
-2.1232339324
 20
-25.7657131108
 10
-2.1123362966
 20
-25.7522578729
 10
-2.1045201385
 20
-25.7381062671
 10
-2.0999147799
 20
-25.7234924384
 10
-2.0985793013
 20
-25.7102174826
  0
LINE
  5
6C4
100
AcDbEntity
  8
ASSI
100
AcDbLine
 62
250
  6
CONTINUOUS
 10
-2.2490491729
 20
-26.0135960946
 11
-2.2397267541
 21
-26.0071791165
  0
LINE
  5
6C5
100
AcDbEntity
  8
RACCORDO
100
AcDbLine
 62
250
  6
CONTINUOUS
 10
-2.2490491729
 20
-26.0135960946
 11
-2.2397267541
 21
-26.0071791165
  0
LINE
  5
6C6
100
AcDbEntity
  8
ASSI
100
AcDbLine
 62
250
  6
CONTINUOUS
 10
-3.0426700726
 20
-26.3582703281
 11
-2.15350441
 21
-25.7896591951
  0
LINE
  5
6C7
100
AcDbEntity
  8
RACCORDO
100
AcDbLine
 62
250
  6
CONTINUOUS
 10
-3.0426700726
 20
-26.3582703281
 11
-2.15350441
 21
-25.7896591951
  0
LINE
  5
6C8
100
AcDbEntity
  8
ASSI
100
AcDbLine
 62
7
  6
CONTINUOUS
 10
-3.0840806105
 20
-26.5475890184
 11
-2.24905217
 21
-26.0135980113
  0
LINE
  5
6C9
100
AcDbEntity
  8
RACCORDO
100
AcDbLine
 62
7
  6
CONTINUOUS
 10
-3.0840806105
 20
-26.5475890184
 11
-2.24905217
 21
-26.0135980113
  0
LWPOLYLINE
  5
6CA
100
AcDbEntity
  8
ASSI
100
AcDbPolyline
 62
250
  6
CONTINUOUS
 90
4
 70
0
 10
-3.1662079912
 20
-26.6204554113
 10
-3.1468457802
 20
-26.6086847753
 10
-3.1234203868
 20
-26.5888549673
 10
-3.1029826028
 20
-26.5645119801
  0
LWPOLYLINE
  5
6CB
100
AcDbEntity
  8
RACCORDO
100
AcDbPolyline
 62
250
  6
CONTINUOUS
 90
4
 70
0
 10
-3.1662079912
 20
-26.6204554113
 10
-3.1468457802
 20
-26.6086847753
 10
-3.1234203868
 20
-26.5888549673
 10
-3.1029826028
 20
-26.5645119801
  0
LWPOLYLINE
  5
6CC
100
AcDbEntity
  8
DRAFT
100
AcDbPolyline
 62
7
  6
CONTINUOUS
 90
10
 70
0
 10
-2.6633417732
 20
27.2343474213
 10
-2.6941644796
 20
27.2272841509
 10
-2.7212474073
 20
27.2213216436
 10
-2.7446166654
 20
27.2165126929
 10
-2.7640933529
 20
27.213001763
 10
-2.779907133
 20
27.2107453161
 10
-2.7926912475
 20
27.2095024778
 10
-2.8025581261
 20
27.2092583149
 10
-2.8094318189
 20
27.2100988829
 10
-2.8128667627
 20
27.2113990441
  0
LWPOLYLINE
  5
6CD
100
AcDbEntity
  8
ASSI
100
AcDbPolyline
 62
250
  6
CONTINUOUS
 90
3
 70
0
 10
-18.4538436236
 20
25.0079496855
 10
-18.4851458001
 20
25.002424378
 10
-18.5140332856
 20
24.9920551908
  0
LWPOLYLINE
  5
6CE
100
AcDbEntity
  8
RACCORDO
100
AcDbPolyline
 62
250
  6
CONTINUOUS
 90
3
 70
0
 10
-18.4538436236
 20
25.0079496855
 10
-18.4851458001
 20
25.002424378
 10
-18.5140332856
 20
24.9920551908
  0
LINE
  5
6CF
100
AcDbEntity
  8
ASSI
100
AcDbLine
 62
250
  6
CONTINUOUS
 10
-3.0521673708
 20
-26.3859778184
 11
-3.0426700726
 21
-26.3810538883
  0
LINE
  5
6D0
100
AcDbEntity
  8
RACCORDO
100
AcDbLine
 62
250
  6
CONTINUOUS
 10
-3.0521673708
 20
-26.3859778184
 11
-3.0426700726
 21
-26.3810538883
  0
LINE
  5
6D1
100
AcDbEntity
  8
ASSI
100
AcDbLine
 62
7
  6
CONTINUOUS
 10
-3.1662079912
 20
-26.6204554113
 11
-3.15278596
 21
-26.6134966803
  0
LINE
  5
6D2
100
AcDbEntity
  8
RACCORDO
100
AcDbLine
 62
7
  6
CONTINUOUS
 10
-3.1662079912
 20
-26.6204554113
 11
-3.15278596
 21
-26.6134966803
  0
LWPOLYLINE
  5
6D3
100
AcDbEntity
  8
ASSI
100
AcDbPolyline
 62
250
  6
CONTINUOUS
 90
3
 70
0
 10
-3.1325644757
 20
-26.421817175
 10
-3.090704929
 20
-26.4050432832
 10
-3.0521673708
 20
-26.3859778184
  0
LWPOLYLINE
  5
6D4
100
AcDbEntity
  8
RACCORDO
100
AcDbPolyline
 62
250
  6
CONTINUOUS
 90
3
 70
0
 10
-3.1325644757
 20
-26.421817175
 10
-3.090704929
 20
-26.4050432832
 10
-3.0521673708
 20
-26.3859778184
  0
ARC
  5
6D5
100
AcDbEntity
  8
ASSI
100
AcDbCircle
 62
7
  6
CONTINUOUS
 10
-3.3963446586
 20
-26.176566783
 40
0.5
100
AcDbArc
 50
239.9837749632
 51
297.4047467077
  0
ARC
  5
6D6
100
AcDbEntity
  8
ASSI
100
AcDbCircle
 62
7
  6
CONTINUOUS
 10
-18.264558827
 20
-17.5918462647
 40
0.5
100
AcDbArc
 50
180.0007990885
 51
239.9992005764
  0
ARC
  5
6D7
100
AcDbEntity
  8
ASSI
100
AcDbCircle
 62
7
  6
CONTINUOUS
 10
-18.264558827
 20
24.5599260175
 40
0.5
100
AcDbArc
 50
122.5984435995
 51
180.014624453
  0
ARC
  5
6D8
100
AcDbEntity
  8
RACCORDO
100
AcDbCircle
 62
7
  6
CONTINUOUS
 10
-3.3963446586
 20
-26.176566783
 40
0.5
100
AcDbArc
 50
239.9837749632
 51
297.4047467077
  0
ARC
  5
6D9
100
AcDbEntity
  8
RACCORDO
100
AcDbCircle
 62
7
  6
CONTINUOUS
 10
-18.264558827
 20
-17.5918462647
 40
0.5
100
AcDbArc
 50
180.0007990885
 51
239.9992005764
  0
ARC
  5
6DA
100
AcDbEntity
  8
RACCORDO
100
AcDbCircle
 62
7
  6
CONTINUOUS
 10
-18.264558827
 20
24.5599260175
 40
0.5
100
AcDbArc
 50
122.5984435995
 51
180.014624453
  0
ARC
  5
6DB
100
AcDbEntity
  8
RACCORDO
100
AcDbCircle
 62
7
  6
CONTINUOUS
 10
0.9021984185
 20
28.4797422736
 40
0.5
100
AcDbArc
 50
64.1126522894
 51
76.0635439315
  0
ARC
  5
6DC
100
AcDbEntity
  8
RACCORDO
100
AcDbCircle
 62
7
  6
CONTINUOUS
 10
2.3733495514
 20
27.7647988616
 40
0.5
100
AcDbArc
 50
59.9984015652
 51
64.0814129871
  0
ARC
  5
6DD
100
AcDbEntity
  8
RACCORDO
100
AcDbCircle
 62
7
  6
CONTINUOUS
 10
16.8365189155
 20
19.4139461369
 40
0.5
100
AcDbArc
 50
359.9830638384
 51
59.9609534879
  0
ARC
  5
6DE
100
AcDbEntity
  8
RACCORDO
100
AcDbCircle
 62
7
  6
CONTINUOUS
 10
17.5312831019
 20
12.9198677599
 40
0.5
100
AcDbArc
 50
359.9853617092
 51
59.9983429099
  0
ARC
  5
6DF
100
AcDbEntity
  8
RACCORDO
100
AcDbCircle
 62
7
  6
CONTINUOUS
 10
17.5312831019
 20
1.5417123499
 40
0.5
100
AcDbArc
 50
330.5776384474
 51
0.0350228514
  0
ARC
  5
6E0
100
AcDbEntity
  8
RACCORDO
100
AcDbCircle
 62
7
  6
CONTINUOUS
 10
17.0251656607
 20
0.6443264777
 40
0.5
100
AcDbArc
 50
301.7026195229
 51
330.577655328
  0
ARC
  5
6E1
100
AcDbEntity
  8
RACCORDO
100
AcDbCircle
 62
7
  6
CONTINUOUS
 10
10.5836412378
 20
-11.0918860362
 40
0.5
100
AcDbArc
 50
310.7564294198
 51
0.0312689112
  0
ARC
  5
6E2
100
AcDbEntity
  8
0
100
AcDbCircle
 62
7
  6
CONTINUOUS
 10
-16.4054546652
 20
5.6635786048
 40
0.3
100
AcDbArc
 50
121.7332683145
 51
180.0118325391
  0
ARC
  5
6E3
100
AcDbEntity
  8
0
100
AcDbCircle
 62
7
  6
CONTINUOUS
 10
-16.4054546652
 20
-1.9855145992
 40
0.3
100
AcDbArc
 50
180.0007989311
 51
239.999200419
  0
ARC
  5
6E4
100
AcDbEntity
  8
0
100
AcDbCircle
 62
7
  6
CONTINUOUS
 10
-6.2453983141
 20
-7.851803801
 40
0.3
100
AcDbArc
 50
239.9865904596
 51
298.2699256359
  0
ARC
  5
6E5
100
AcDbEntity
  8
RACCORDO
100
AcDbCircle
 62
7
  6
CONTINUOUS
 10
-16.4054546652
 20
5.6635786048
 40
0.3
100
AcDbArc
 50
121.7332683145
 51
180.0118325391
  0
ARC
  5
6E6
100
AcDbEntity
  8
RACCORDO
100
AcDbCircle
 62
7
  6
CONTINUOUS
 10
-16.4054546652
 20
-1.9855145992
 40
0.3
100
AcDbArc
 50
180.0007989311
 51
239.999200419
  0
ARC
  5
6E7
100
AcDbEntity
  8
RACCORDO
100
AcDbCircle
 62
7
  6
CONTINUOUS
 10
-6.2453983141
 20
-7.851803801
 40
0.3
100
AcDbArc
 50
239.9865904596
 51
298.2699256359
  0
ARC
  5
6E8
100
AcDbEntity
  8
ASSI
100
AcDbCircle
 62
7
  6
CONTINUOUS
 10
0.4856235896
 20
23.861574409
 40
0.25
100
AcDbArc
 50
121.733268332
 51
141.921904304
  0
ARC
  5
6E9
100
AcDbEntity
  8
ASSI
100
AcDbCircle
 62
7
  6
CONTINUOUS
 10
-6.1140039635
 20
19.57205264
 40
0.2
100
AcDbArc
 50
18.5045349449
 51
59.9984015651
  0
ARC
  5
6EA
100
AcDbEntity
  8
ASSI
100
AcDbCircle
 62
7
  6
CONTINUOUS
 10
-7.329794101
 20
23.4147003228
 40
0.2
100
AcDbArc
 50
119.0851094039
 51
154.7491244129
  0
ARC
  5
6EB
100
AcDbEntity
  8
ASSI
100
AcDbCircle
 62
7
  6
CONTINUOUS
 10
-9.9656567631
 20
21.795948694
 40
0.2
100
AcDbArc
 50
59.9984015652
 51
119.137102911
  0
ARC
  5
6EC
100
AcDbEntity
  8
ASSI
100
AcDbCircle
 62
7
  6
CONTINUOUS
 10
-11.4968064188
 20
24.3505867135
 40
0.2
100
AcDbArc
 50
59.9984015652
 51
118.2652518899
  0
ARC
  5
6ED
100
AcDbEntity
  8
ASSI
100
AcDbCircle
 62
7
  6
CONTINUOUS
 10
-0.8302875552
 20
17.822561415
 40
0.2
100
AcDbArc
 50
315.7312262591
 51
0.0244867578
  0
ARC
  5
6EE
100
AcDbEntity
  8
ASSI
100
AcDbCircle
 62
7
  6
CONTINUOUS
 10
-0.8302875552
 20
18.1918724045
 40
0.2
100
AcDbArc
 50
359.9930983179
 51
59.9984015652
  0
ARC
  5
6EF
100
AcDbEntity
  8
ASSI
100
AcDbCircle
 62
7
  6
CONTINUOUS
 10
-0.8302875552
 20
-20.2086918575
 40
0.2
100
AcDbArc
 50
0.0061341609
 51
59.997132281
  0
ARC
  5
6F0
100
AcDbEntity
  8
ASSI
100
AcDbCircle
 62
7
  6
CONTINUOUS
 10
-0.8302875552
 20
-20.5780028471
 40
0.2
100
AcDbArc
 50
301.7357596053
 51
0.0034115243
  0
ARC
  5
6F1
100
AcDbEntity
  8
ASSI
100
AcDbCircle
 62
7
  6
CONTINUOUS
 10
-9.9881164452
 20
23.4794880311
 40
0.2
100
AcDbArc
 50
359.9895357921
 51
59.9984015652
  0
ARC
  5
6F2
100
AcDbEntity
  8
ASSI
100
AcDbCircle
 62
7
  6
CONTINUOUS
 10
-9.9881164452
 20
23.1101770415
 40
0.2
100
AcDbArc
 50
315.7300106305
 51
0.0272098211
  0
ARC
  5
6F3
100
AcDbEntity
  8
ASSI
100
AcDbCircle
 62
7
  6
CONTINUOUS
 10
-2.3389775287
 20
19.062971087
 40
0.2
100
AcDbArc
 50
59.9984015652
 51
118.2652518899
  0
ELLIPSE
  5
6F4
100
AcDbEntity
  8
DRAFT
100
AcDbEllipse
 62
7
  6
CONTINUOUS
 10
0.8140553984
 20
-3.2040021769
 30
0.0
 11
0.0774531486
 21
1.1092236317
 31
0.0
 40
0.0751331912
 41
-2.0615039901
 42
-0.3022537919
  0
ELLIPSE
  5
6F5
100
AcDbEntity
  8
DRAFT
100
AcDbEllipse
 62
7
  6
CONTINUOUS
 10
0.690450248
 20
-3.1326341121
 30
0.0
 11
0.527078084
 21
0.8501886395
 31
0.0
 40
0.5971151412
 41
1.1800063876
 42
3.5699095504
  0
ELLIPSE
  5
6F6
100
AcDbEntity
  8
DRAFT
100
AcDbEllipse
 62
7
  6
CONTINUOUS
 10
0.8140553984
 20
-3.2040021769
 30
0.0
 11
0.0774531486
 21
1.1092236317
 31
0.0
 40
0.0751331912
 41
0.3506627242
 42
0.4175235371
  0
ELLIPSE
  5
6F7
100
AcDbEntity
  8
ASSI
100
AcDbEllipse
 62
7
  6
CONTINUOUS
 10
-3.3963446586
 20
-26.176566783
 30
0.0
 11
-0.2501834304
 21
0.4333025529
 31
0.0
 40
0.5769361983
 41
-3.1677535987
 42
-2.3565853618
  0
ELLIPSE
  5
6F8
100
AcDbEntity
  8
ASSI
100
AcDbEllipse
 62
7
  6
CONTINUOUS
 10
-3.3963446586
 20
15.9752054992
 30
0.0
 11
-0.2500121049
 21
0.4330057129
 31
0.0
 40
0.5777274115
 41
-2.3559002616
 42
-0.7857891675
  0
ELLIPSE
  5
6F9
100
AcDbEntity
  8
ASSI
100
AcDbEllipse
 62
7
  6
CONTINUOUS
 10
-2.2985792842
 20
7.3747191769
 30
0.0
 11
0.1999444062
 21
0.00862956
 31
0.0
 40
0.5464172455
 41
-0.7827971114
 42
-0.0235788779
  0
ELLIPSE
  5
6FA
100
AcDbEntity
  8
ASSI
100
AcDbEllipse
 62
7
  6
CONTINUOUS
 10
-18.264558827
 20
24.5599260175
 30
0.0
 11
-0.2501834304
 21
0.4333025529
 31
0.0
 40
0.5769361983
 41
-0.7851038024
 42
0.0261609458
  0
ELLIPSE
  5
6FB
100
AcDbEntity
  8
ASSI
100
AcDbEllipse
 62
7
  6
CONTINUOUS
 10
-2.2985792842
 20
-16.7207245134
 30
0.0
 11
0.1999154856
 21
-0.0095814127
 31
0.0
 40
0.6067642562
 41
-0.7301458358
 42
0.8144705522
  0
ELLIPSE
  5
6FC
100
AcDbEntity
  8
RACCORDO
100
AcDbEllipse
 62
7
  6
CONTINUOUS
 10
-3.3963446586
 20
-26.176566783
 30
0.0
 11
-0.2501834304
 21
0.4333025529
 31
0.0
 40
0.5769361983
 41
-3.1677535987
 42
-2.3565853618
  0
ELLIPSE
  5
6FD
100
AcDbEntity
  8
RACCORDO
100
AcDbEllipse
 62
7
  6
CONTINUOUS
 10
-3.3963446586
 20
15.9752054992
 30
0.0
 11
-0.2500121049
 21
0.4330057129
 31
0.0
 40
0.5777274115
 41
-2.3559002616
 42
-0.7857891675
  0
ELLIPSE
  5
6FE
100
AcDbEntity
  8
RACCORDO
100
AcDbEllipse
 62
7
  6
CONTINUOUS
 10
-2.2985792842
 20
7.3747191769
 30
0.0
 11
0.1999444062
 21
0.00862956
 31
0.0
 40
0.5464172455
 41
-0.7827971114
 42
-0.0235788779
  0
ELLIPSE
  5
6FF
100
AcDbEntity
  8
RACCORDO
100
AcDbEllipse
 62
7
  6
CONTINUOUS
 10
-18.264558827
 20
24.5599260175
 30
0.0
 11
-0.2501834304
 21
0.4333025529
 31
0.0
 40
0.5769361983
 41
-0.7851038024
 42
0.0261609458
  0
ELLIPSE
  5
700
100
AcDbEntity
  8
RACCORDO
100
AcDbEllipse
 62
7
  6
CONTINUOUS
 10
-2.2985792842
 20
-16.7207245134
 30
0.0
 11
0.1999154856
 21
-0.0095814127
 31
0.0
 40
0.6067642562
 41
-0.7301458358
 42
0.8144705522
  0
ELLIPSE
  5
701
100
AcDbEntity
  8
DRAFT
100
AcDbEllipse
 62
7
  6
CONTINUOUS
 10
8.2967866883
 20
20.3593205767
 30
0.0
 11
2.7499023305
 21
-0.0408603024
 31
0.0
 40
0.5672251703
 41
6.4493544495
 42
8.4773492963
  0
ELLIPSE
  5
702
100
AcDbEntity
  8
ASSI
100
AcDbEllipse
 62
7
  6
CONTINUOUS
 10
1.2257458045
 20
24.3192770887
 30
0.0
 11
-0.1250441155
 21
0.2165688207
 31
0.0
 40
0.5771558487
 41
-0.7852941622
 42
0.0174472731
  0
ELLIPSE
  5
703
100
AcDbEntity
  8
DRAFT
100
AcDbEllipse
 62
7
  6
CONTINUOUS
 10
7.9020561841
 20
21.5081237042
 30
0.0
 11
3.3358090772
 21
-0.0491410979
 31
0.0
 40
0.5672266142
 41
-0.9150589526
 42
-0.7771158446
  0
ELLIPSE
  5
704
100
AcDbEntity
  8
DRAFT
100
AcDbEllipse
 62
7
  6
CONTINUOUS
 10
7.9034354254
 20
23.3363875462
 30
0.0
 11
3.2240750276
 21
-0.0474951003
 31
0.0
 40
0.5672266142
 41
-2.3239233285
 42
-1.8335047286
  0
ELLIPSE
  5
705
100
AcDbEntity
  8
DRAFT
100
AcDbEllipse
 62
7
  6
CONTINUOUS
 10
0.8014548077
 20
24.687031266
 30
0.0
 11
2.7499023305
 21
-0.0408603024
 31
0.0
 40
0.5672251703
 41
1.4680701712
 42
2.2659673116
  0
ELLIPSE
  5
706
100
AcDbEntity
  8
ASSI
100
AcDbEllipse
 62
7
  6
CONTINUOUS
 10
7.9432332977
 20
21.464776836
 30
0.0
 11
2.7402874452
 21
-0.6606281007
 31
0.0
 40
0.349548336
 41
2.8180980071
 42
2.8994687928
  0
ELLIPSE
  5
707
100
AcDbEntity
  8
DRAFT
100
AcDbEllipse
 62
7
  6
CONTINUOUS
 10
8.2967866883
 20
20.8492027428
 30
0.0
 11
2.7499023305
 21
-0.0408603024
 31
0.0
 40
0.5672251703
 41
6.1241724014
 42
8.6478078942
  0
ELLIPSE
  5
708
100
AcDbEntity
  8
DRAFT
100
AcDbEllipse
 62
7
  6
CONTINUOUS
 10
3.5697747548
 20
20.3880055062
 30
0.0
 11
0.3999857935
 21
-0.0059433167
 31
0.0
 40
0.5672251703
 41
2.4169824646
 42
3.9354189138
  0
ELLIPSE
  5
709
100
AcDbEntity
  8
DRAFT
100
AcDbEllipse
 62
7
  6
CONTINUOUS
 10
7.6267500038
 20
25.1514840416
 30
0.0
 11
0.8127139305
 21
-0.4290131046
 31
0.0
 40
0.0362549024
 41
0.7626236206
 42
2.3429104873
  0
ELLIPSE
  5
70A
100
AcDbEntity
  8
DRAFT
100
AcDbEllipse
 62
7
  6
CONTINUOUS
 10
8.6874101756
 20
24.5390721516
 30
0.0
 11
0.8127139305
 21
-0.4290131046
 31
0.0
 40
0.0362549024
 41
5.4655220611
 42
7.0458089277
  0
ELLIPSE
  5
70B
100
AcDbEntity
  8
DRAFT
100
AcDbEllipse
 62
7
  6
CONTINUOUS
 10
7.9020561841
 20
21.5081237042
 30
0.0
 11
3.3358090772
 21
-0.0491410979
 31
0.0
 40
0.5672266142
 41
2.3644714903
 42
2.5060956279
  0
ELLIPSE
  5
70C
100
AcDbEntity
  8
DRAFT
100
AcDbEllipse
 62
7
  6
CONTINUOUS
 10
0.4067243035
 20
25.8358343934
 30
0.0
 11
3.3358090772
 21
-0.0491410979
 31
0.0
 40
0.5672266142
 41
2.3644714903
 42
2.4260505255
  0
ELLIPSE
  5
70D
100
AcDbEntity
  8
DRAFT
100
AcDbEllipse
 62
7
  6
CONTINUOUS
 10
0.4081035448
 20
27.6640982355
 30
0.0
 11
3.2240750276
 21
-0.0474951003
 31
0.0
 40
0.5672266142
 41
-2.8623249329
 42
-2.371906333
  0
ELLIPSE
  5
70E
100
AcDbEntity
  8
DRAFT
100
AcDbEllipse
 62
7
  6
CONTINUOUS
 10
-4.8660029422
 20
25.2587178233
 30
0.0
 11
0.3999857935
 21
-0.0059433167
 31
0.0
 40
0.5672251703
 41
-2.3477663933
 42
-0.8293299441
  0
ELLIPSE
  5
70F
100
AcDbEntity
  8
DRAFT
100
AcDbEllipse
 62
7
  6
CONTINUOUS
 10
0.8014548077
 20
25.1769134321
 30
0.0
 11
2.7499023305
 21
-0.0408603024
 31
0.0
 40
0.5672251703
 41
0.1749409339
 42
2.3646225871
  0
ELLIPSE
  5
710
100
AcDbEntity
  8
ASSI
100
AcDbEllipse
 62
7
  6
CONTINUOUS
 10
7.9432332977
 20
22.423578345
 30
0.0
 11
2.7498876954
 21
0.042311774
 31
0.0
 40
0.5873737521
 41
2.661393961
 42
2.993083584
  0
ELLIPSE
  5
711
100
AcDbEntity
  8
ASSI
100
AcDbEllipse
 62
7
  6
CONTINUOUS
 10
1.9946073978
 20
26.115075715
 30
0.0
 11
-0.1065746657
 21
0.1850801844
 31
0.0
 40
0.5406488238
 41
-0.7513003416
 42
-0.2431306586
  0
ELLIPSE
  5
712
100
AcDbEntity
  8
ASSI
100
AcDbEllipse
 62
7
  6
CONTINUOUS
 10
5.194445789
 20
24.2675291313
 30
0.0
 11
-0.0997443216
 21
0.1733547677
 31
0.0
 40
0.6165007174
 41
-2.2349887316
 42
-0.8165063841
  0
ELLIPSE
  5
713
100
AcDbEntity
  8
RACCORDO
100
AcDbEllipse
 62
7
  6
CONTINUOUS
 10
0.887709503
 20
25.0866693766
 30
0.0
 11
0.3
 21
-0.0
 31
0.0
 40
0.5789711334
 41
0.7867676913
 42
2.3548249623
  0
ELLIPSE
  5
714
100
AcDbEntity
  8
ASSI
100
AcDbEllipse
 62
7
  6
CONTINUOUS
 10
1.4810783504
 20
25.8381079998
 30
0.0
 11
0.5676866739
 21
0.2973089125
 31
0.0
 40
0.2173140806
 41
-1.383402197
 42
0.1368199214
  0
ELLIPSE
  5
715
100
AcDbEntity
  8
ASSI
100
AcDbEllipse
 62
7
  6
CONTINUOUS
 10
4.35125867
 20
24.1809018551
 30
0.0
 11
0.5532910611
 21
0.3058874341
 31
0.0
 40
0.2232744126
 41
0.1336855848
 42
0.7571904236
  0
ELLIPSE
  5
716
100
AcDbEntity
  8
ASSI
100
AcDbEllipse
 62
7
  6
CONTINUOUS
 10
-0.1445329102
 20
19.5871889664
 30
0.0
 11
0.6999072626
 21
-0.02045979
 31
0.0
 40
0.5568983954
 41
5.6013315027
 42
7.0848613669
  0
ELLIPSE
  5
717
100
AcDbEntity
  8
ASSI
100
AcDbEllipse
 62
7
  6
CONTINUOUS
 10
-10.4308361613
 20
21.5366101447
 30
0.0
 11
-0.1000355301
 21
0.1732022922
 31
0.0
 40
0.5773316472
 41
-0.7855999596
 42
0.6979432296
  0
ELLIPSE
  5
718
100
AcDbEntity
  8
ASSI
100
AcDbEllipse
 62
7
  6
CONTINUOUS
 10
-6.5631625685
 20
19.3034638856
 30
0.0
 11
-0.1000355301
 21
0.1732022922
 31
0.0
 40
0.5773316472
 41
-2.2691431487
 42
-0.7855999596
  0
ENDSEC
  0
SECTION
  2
OBJECTS
  0
DICTIONARY
  5
C
100
AcDbDictionary
280
0
281
1
  3
ACAD_GROUP
350
D
  3
ACAD_MLINESTYLE
350
17
  3
ACAD_LAYOUT
350
1A
  3
ACAD_PLOTSETTINGS
350
19
  3
ACAD_PLOTSTYLENAME
350
E
  0
DICTIONARY
  5
D
102
{ACAD_REACTORS
330
C
102
}
100
AcDbDictionary
280
0
281
1
  0
ACDBDICTIONARYWDFLT
  5
E
102
{ACAD_REACTORS
330
C
102
}
100
AcDbDictionary
281
1
  3
Normal
350
F
100
AcDbDictionaryWithDefault
340
F
  0
DICTIONARY
  5
17
102
{ACAD_REACTORS
330
C
102
}
100
AcDbDictionary
280
0
281
1
  3
Standard
350
18
  0
DICTIONARY
  5
19
102
{ACAD_REACTORS
330
C
102
}
100
AcDbDictionary
281
1
  0
DICTIONARY
  5
1A
102
{ACAD_REACTORS
330
C
102
}
100
AcDbDictionary
281
1
  3
Model
350
719
  3
Layout1
350
71A
  0
ACDBPLACEHOLDER
  5
F
102
{ACAD_REACTORS
330
E
102
}
  0
MLINESTYLE
  5
18
102
{ACAD_REACTORS
330
17
102
}
100
AcDbMlineStyle
  2
STANDARD
 70
0
  3

 62
256
 51
90.0
 52
90.0
 71
2
 49
0.5
 62
256
  6
BYLAYER
 49
-0.5
 62
256
  6
BYLAYER
  0
LAYOUT
  5
719
102
{ACAD_REACTORS
330
1A
102
}
100
AcDbPlotSettings
  1

  2
none_device
  4
ISO_A4_(297.00_x_210.00_MM)
  6

 40
0.0
 41
0.0
 42
0.0
 43
0.0
 44
297.0
 45
210.0
 46
0.0
 47
0.0
 48
0.0
 49
0.0
140
0.0
141
0.0
142
1.0
143
1.0
 70
1024
 72
1
 73
0
 74
0
  7

 75
0
147
1.0
148
0.0
149
0.0
100
AcDbLayout
  1
Model
 70
0
 71
0
 10
0.0
 20
0.0
 11
297.0
 21
210.0
 12
0.0
 22
0.0
 32
0.0
 14
0.0
 24
0.0
 34
0.0
 15
0.0
 25
0.0
 35
0.0
146
0.0
 13
0.0
 23
0.0
 33
0.0
 16
1.0
 26
0.0
 36
0.0
 17
0.0
 27
1.0
 37
0.0
 76
0
330
21F
345
0
346
0
  0
LAYOUT
  5
71A
102
{ACAD_REACTORS
330
1A
102
}
100
AcDbPlotSettings
  1

  2
none_device
  4
ISO_A4_(297.00_x_210.00_MM)
  6

 40
0.0
 41
0.0
 42
0.0
 43
0.0
 44
297.0
 45
210.0
 46
0.0
 47
0.0
 48
0.0
 49
0.0
140
0.0
141
0.0
142
1.0
143
1.0
 70
0
 72
1
 73
0
 74
0
  7

 75
0
147
1.0
148
0.0
149
0.0
100
AcDbLayout
  1
Layout1
 70
0
 71
1
 10
0.0
 20
0.0
 11
297.0
 21
210.0
 12
0.0
 22
0.0
 32
0.0
 14
0.0
 24
0.0
 34
0.0
 15
0.0
 25
0.0
 35
0.0
146
0.0
 13
0.0
 23
0.0
 33
0.0
 16
1.0
 26
0.0
 36
0.0
 17
0.0
 27
1.0
 37
0.0
 76
0
330
220
345
0
346
0
  0
ENDSEC
  0
EOF
