  0
SECTION
  2
HEADER
  9
$ACADVER
  1
AC1024
  9
$DWGCODEPAGE
  3
ANSI_1252
  9
$EXTMAX
 10
297.0
 20
210.0
 30
0.0
  9
$EXTMIN
 10
0.0
 20
0.0
 30
0.0
  9
$LIMMIN
 10
0.0
 20
0.0
  9
$LIMMAX
 10
297.0
 20
210.0
  9
$VIEWCTR
 10
148.5
 20
105.0
  9
$VIEWSIZE
 40
210.0
  9
$CLAYER
  8
0
  9
$LTSCALE
 40
16.335
  9
$CELTYPE
  6
BYLAYER
  9
$DIMSCALE
 40
1.0
  9
$DIMASZ
 40
3.0
  9
$DIMEXO
 40
0.5
  9
$DIMDLI
 40
11.286
  9
$DIMEXE
 40
1.5
  9
$DIMCEN
 40
2.673
  9
$DIMLFAC
 40
1.0
  9
$DIMBLK
  1
_FILLED
  9
$DIMALT
 70
0
  9
$DIMALTF
 40
0.0393700787
  9
$DIMTXT
 40
3.0
  9
$DIMTOL
 70
1
  9
$DIMLIM
 70
0
  9
$DIMTFAC
 40
1.0
  9
$DIMTP
 40
0.01
  9
$DIMTM
 40
0.01
  9
$DIMGAP
 40
0.625
  9
$DIMDSEP
 70
44
  9
$AUNITS
 70
0
  9
$PDMODE
 70
3
  9
$PDSIZE
 40
3.0
  9
$HANDSEED
  5
6FE
  9
$TILEMODE
 70
1
  9
$MEASUREMENT
 70
1
  9
$INSUNITS
 70
4
  0
ENDSEC
  0
SECTION
  2
CLASSES
  0
CLASS
  1
ACDBDICTIONARYWDFLT
  2
AcDbDictionaryWithDefault
  3
AutoCAD 2000
 90
0
 91
1
280
0
281
0
  0
CLASS
  1
ACDBPLACEHOLDER
  2
AcDbPlaceHolder
  3
AutoCAD 2000
 90
0
 91
1
280
0
281
0
  0
CLASS
  1
LAYOUT
  2
AcDbLayout
  3
AutoCAD 2000
 90
0
 91
0
280
0
281
0
  0
ENDSEC
  0
SECTION
  2
TABLES
  0
TABLE
  2
VPORT
  5
8
100
AcDbSymbolTable
 70
2
  0
VPORT
  5
1F4
100
AcDbSymbolTableRecord
100
AcDbViewportTableRecord
  2
*ACTIVE
 70
0
 10
0.0
 20
0.0
 11
1.0
 21
1.0
 12
148.5
 22
105.0
 13
0.0
 23
0.0
 14
1.0
 24
1.0
 15
0.0
 25
0.0
 16
0.0
 26
0.0
 36
1.0
 17
0.0
 27
0.0
 37
0.0
 40
210.0
 41
1.4142857143
 42
50.0
 43
0.0
 44
0.0
 50
0.0
 51
0.0
 71
0
 72
100
 73
1
 74
1
 75
0
 76
0
 77
0
 78
0
  0
ENDTAB
  0
TABLE
  2
LTYPE
  5
5
100
AcDbSymbolTable
 70
6
  0
LTYPE
  5
14
100
AcDbSymbolTableRecord
100
AcDbLinetypeTableRecord
  2
BYBLOCK
 70
0
  3

 72
65
 73
0
 40
0.0
  0
LTYPE
  5
15
100
AcDbSymbolTableRecord
100
AcDbLinetypeTableRecord
  2
BYLAYER
 70
0
  3

 72
65
 73
0
 40
0.0
  0
LTYPE
  5
16
100
AcDbSymbolTableRecord
100
AcDbLinetypeTableRecord
  2
CONTINUOUS
 70
64
  3
Solid line
 72
65
 73
0
 40
0.0
  0
LTYPE
  5
1F5
100
AcDbSymbolTableRecord
100
AcDbLinetypeTableRecord
  2
CENTER
 70
64
  3
____ _ ____ _ ____ _ ____ _ ____ _ ____ _ ____
 72
65
 73
4
 40
0.6
 49
0.375
 74
0
 49
-0.075
 74
0
 49
0.075
 74
0
 49
-0.075
 74
0
  0
LTYPE
  5
1F6
100
AcDbSymbolTableRecord
100
AcDbLinetypeTableRecord
  2
HIDDEN
 70
64
  3
- - - - - - - - - - - - - - - - - - - -
 72
65
 73
2
 40
0.2
 49
0.1
 74
0
 49
-0.1
 74
0
  0
LTYPE
  5
1F7
100
AcDbSymbolTableRecord
100
AcDbLinetypeTableRecord
  2
PHANTOM
 70
64
  3
_____ _ _ _____ _ _ _____ _ _ _____
 72
65
 73
6
 40
0.8
 49
0.45
 74
0
 49
-0.05
 74
0
 49
0.1
 74
0
 49
-0.05
 74
0
 49
0.1
 74
0
 49
-0.05
 74
0
  0
LTYPE
  5
1F8
100
AcDbSymbolTableRecord
100
AcDbLinetypeTableRecord
  2
DOT
 70
64
  3
. . . . . . . . . . . . . . . . . . . .
 72
65
 73
2
 40
0.2
 49
0.1
 74
0
 49
-0.1
 74
0
  0
LTYPE
  5
1F9
100
AcDbSymbolTableRecord
100
AcDbLinetypeTableRecord
  2
DASHED
 70
64
  3
- - - - - - - - - - - - - - - - - - - -
 72
65
 73
2
 40
0.2
 49
0.1
 74
0
 49
-0.1
 74
0
  0
ENDTAB
  0
TABLE
  2
LAYER
  5
2
100
AcDbSymbolTable
 70
36
  0
LAYER
  5
10
100
AcDbSymbolTableRecord
100
AcDbLayerTableRecord
  2
0
 70
0
 62
7
  6
CONTINUOUS
370
-3
390
F
  0
LAYER
  5
1FA
100
AcDbSymbolTableRecord
100
AcDbLayerTableRecord
  2
DEFAULT_1
 70
0
 62
7
  6
CENTER
370
-3
390
F
  0
LAYER
  5
1FB
100
AcDbSymbolTableRecord
100
AcDbLayerTableRecord
  2
DEFAULT_2
 70
0
 62
7
  6
HIDDEN
370
-3
390
F
  0
LAYER
  5
1FC
100
AcDbSymbolTableRecord
100
AcDbLayerTableRecord
  2
DEFAULT_3
 70
0
 62
7
  6
PHANTOM
370
-3
390
F
  0
LAYER
  5
1FD
100
AcDbSymbolTableRecord
100
AcDbLayerTableRecord
  2
ASSI
 70
0
 62
7
  6
CONTINUOUS
370
-3
390
F
  0
LAYER
  5
1FE
100
AcDbSymbolTableRecord
100
AcDbLayerTableRecord
  2
COORDINATE
 70
0
 62
7
  6
CONTINUOUS
370
-3
390
F
  0
LAYER
  5
1FF
100
AcDbSymbolTableRecord
100
AcDbLayerTableRecord
  2
COORD_ORIGINE
 70
0
 62
7
  6
CONTINUOUS
370
-3
390
F
  0
LAYER
  5
200
100
AcDbSymbolTableRecord
100
AcDbLayerTableRecord
  2
COPY_PUBLISH
 70
0
 62
7
  6
CONTINUOUS
370
-3
390
F
  0
LAYER
  5
201
100
AcDbSymbolTableRecord
100
AcDbLayerTableRecord
  2
COSMETICHE
 70
0
 62
7
  6
CONTINUOUS
370
-3
390
F
  0
LAYER
  5
202
100
AcDbSymbolTableRecord
100
AcDbLayerTableRecord
  2
COSMETICI
 70
0
 62
7
  6
CONTINUOUS
370
-3
390
F
  0
LAYER
  5
203
100
AcDbSymbolTableRecord
100
AcDbLayerTableRecord
  2
CURVE
 70
0
 62
7
  6
CONTINUOUS
370
-3
390
F
  0
LAYER
  5
204
100
AcDbSymbolTableRecord
100
AcDbLayerTableRecord
  2
DRAFT
 70
0
 62
7
  6
CONTINUOUS
370
-3
390
F
  0
LAYER
  5
205
100
AcDbSymbolTableRecord
100
AcDbLayerTableRecord
  2
IMPORT_IGES
 70
0
 62
7
  6
CONTINUOUS
370
-3
390
F
  0
LAYER
  5
206
100
AcDbSymbolTableRecord
100
AcDbLayerTableRecord
  2
INTF_1
 70
0
 62
7
  6
CONTINUOUS
370
-3
390
F
  0
LAYER
  5
207
100
AcDbSymbolTableRecord
100
AcDbLayerTableRecord
  2
INTF_10
 70
0
 62
7
  6
CONTINUOUS
370
-3
390
F
  0
LAYER
  5
208
100
AcDbSymbolTableRecord
100
AcDbLayerTableRecord
  2
INTF_11
 70
0
 62
7
  6
CONTINUOUS
370
-3
390
F
  0
LAYER
  5
209
100
AcDbSymbolTableRecord
100
AcDbLayerTableRecord
  2
INTF_12
 70
0
 62
7
  6
CONTINUOUS
370
-3
390
F
  0
LAYER
  5
20A
100
AcDbSymbolTableRecord
100
AcDbLayerTableRecord
  2
INTF_13
 70
0
 62
7
  6
CONTINUOUS
370
-3
390
F
  0
LAYER
  5
20B
100
AcDbSymbolTableRecord
100
AcDbLayerTableRecord
  2
INTF_14
 70
0
 62
7
  6
CONTINUOUS
370
-3
390
F
  0
LAYER
  5
20C
100
AcDbSymbolTableRecord
100
AcDbLayerTableRecord
  2
INTF_2
 70
0
 62
7
  6
CONTINUOUS
370
-3
390
F
  0
LAYER
  5
20D
100
AcDbSymbolTableRecord
100
AcDbLayerTableRecord
  2
INTF_8
 70
0
 62
7
  6
CONTINUOUS
370
-3
390
F
  0
LAYER
  5
20E
100
AcDbSymbolTableRecord
100
AcDbLayerTableRecord
  2
INTF_9
 70
0
 62
7
  6
CONTINUOUS
370
-3
390
F
  0
LAYER
  5
20F
100
AcDbSymbolTableRecord
100
AcDbLayerTableRecord
  2
NOTE
 70
0
 62
7
  6
CONTINUOUS
370
-3
390
F
  0
LAYER
  5
210
100
AcDbSymbolTableRecord
100
AcDbLayerTableRecord
  2
PIANI
 70
0
 62
7
  6
CONTINUOUS
370
-3
390
F
  0
LAYER
  5
211
100
AcDbSymbolTableRecord
100
AcDbLayerTableRecord
  2
PIANI_ORIGINE
 70
0
 62
7
  6
CONTINUOUS
370
-3
390
F
  0
LAYER
  5
212
100
AcDbSymbolTableRecord
100
AcDbLayerTableRecord
  2
PUNTI
 70
0
 62
7
  6
CONTINUOUS
370
-3
390
F
  0
LAYER
  5
213
100
AcDbSymbolTableRecord
100
AcDbLayerTableRecord
  2
RACCORDO
 70
0
 62
7
  6
CONTINUOUS
370
-3
390
F
  0
LAYER
  5
214
100
AcDbSymbolTableRecord
100
AcDbLayerTableRecord
  2
RGB__255__255__255__
 70
0
 62
7
  6
CONTINUOUS
370
-3
390
F
  0
LAYER
  5
215
100
AcDbSymbolTableRecord
100
AcDbLayerTableRecord
  2
RGB____0____0____0__
 70
0
 62
7
  6
CONTINUOUS
370
-3
390
F
  0
LAYER
  5
216
100
AcDbSymbolTableRecord
100
AcDbLayerTableRecord
  2
SIMBOLI
 70
0
 62
7
  6
CONTINUOUS
370
-3
390
F
  0
LAYER
  5
217
100
AcDbSymbolTableRecord
100
AcDbLayerTableRecord
  2
SMUSSO
 70
0
 62
7
  6
CONTINUOUS
370
-3
390
F
  0
LAYER
  5
218
100
AcDbSymbolTableRecord
100
AcDbLayerTableRecord
  2
SNAPLINE
 70
0
 62
7
  6
CONTINUOUS
370
-3
390
F
  0
LAYER
  5
219
100
AcDbSymbolTableRecord
100
AcDbLayerTableRecord
  2
SUPERFICI
 70
0
 62
7
  6
CONTINUOUS
370
-3
390
F
  0
LAYER
  5
21A
100
AcDbSymbolTableRecord
100
AcDbLayerTableRecord
  2
TRASH
 70
0
 62
7
  6
CONTINUOUS
370
-3
390
F
  0
ENDTAB
  0
TABLE
  2
STYLE
  5
3
100
AcDbSymbolTable
 70
1
  0
STYLE
  5
11
100
AcDbSymbolTableRecord
100
AcDbTextStyleTableRecord
  2
STANDARD
 70
0
 40
0.0
 41
0.8
 50
0.0
 71
0
 42
0.2
  3
txt
  4

  0
STYLE
  5
21B
100
AcDbSymbolTableRecord
100
AcDbTextStyleTableRecord
  2
TEXTSTYLE_1
 70
0
 40
0.0
 41
0.8
 50
0.0
 71
0
 42
0.2
  3
gdt
  4

  0
ENDTAB
  0
TABLE
  2
VIEW
  5
6
100
AcDbSymbolTable
 70
0
  0
ENDTAB
  0
TABLE
  2
UCS
  5
7
100
AcDbSymbolTable
 70
0
  0
ENDTAB
  0
TABLE
  2
APPID
  5
9
100
AcDbSymbolTable
 70
1
  0
APPID
  5
21C
100
AcDbSymbolTableRecord
100
AcDbRegAppTableRecord
  2
ACAD
 70
0
  0
ENDTAB
  0
TABLE
  2
BLOCK_RECORD
  5
1
100
AcDbSymbolTable
 70
0
  0
BLOCK_RECORD
  5
21D
100
AcDbSymbolTableRecord
100
AcDbBlockTableRecord
  2
*Model_Space
  0
BLOCK_RECORD
  5
21E
100
AcDbSymbolTableRecord
100
AcDbBlockTableRecord
  2
*Paper_Space
  0
BLOCK_RECORD
  5
21F
100
AcDbSymbolTableRecord
100
AcDbBlockTableRecord
  2
_FILLED
  0
ENDTAB
  0
TABLE
  2
DIMSTYLE
  5
A
100
AcDbSymbolTable
 70
1
100
AcDbDimStyleTable
 71
0
  0
DIMSTYLE
105
220
100
AcDbSymbolTableRecord
100
AcDbDimStyleTableRecord
  2
STANDARD
 70
0
  3

  4

 40
1.0
 41
3.0
 42
0.5
 43
0.38
 44
1.5
 45
0.0
 46
0.0
 47
0.01
 48
0.01
140
3.0
141
0.09
142
0.0
143
25.4
144
1.0
145
0.0
146
1.0
147
0.625
 71
1
 72
0
 73
0
 74
0
 75
0
 76
0
 77
1
 78
8
 79
2
170
0
171
1
172
0
173
0
174
0
175
0
176
0
177
0
178
0
270
2
179
2
271
2
272
2
273
2
274
2
275
0
280
0
281
0
282
0
283
1
284
8
285
0
286
0
287
3
288
0
340
11
278
44
341
21F
342
21F
343
21F
344
21F
  0
ENDTAB
  0
ENDSEC
  0
SECTION
  2
BLOCKS
  0
BLOCK
  5
20
100
AcDbEntity
  8
0
100
AcDbBlockBegin
  2
*Model_Space
 70
0
 10
0.0
 20
0.0
 30
0.0
  3
*Model_Space
  1

  0
ENDBLK
  5
21
100
AcDbEntity
  8
0
100
AcDbBlockEnd
  0
BLOCK
  5
1C
100
AcDbEntity
  8
0
100
AcDbBlockBegin
  2
*Paper_Space
 70
0
 10
0.0
 20
0.0
 30
0.0
  3
*Paper_Space
  1

  0
ENDBLK
  5
1D
100
AcDbEntity
  8
0
100
AcDbBlockEnd
  0
BLOCK
  5
221
100
AcDbEntity
  8
0
100
AcDbBlockBegin
  2
_FILLED
 70
64
 10
0.0
 20
0.0
  3
_FILLED
  1

  0
SOLID
  5
222
100
AcDbEntity
  8
0
  6
BYBLOCK
 62
0
100
AcDbTrace
 10
0.0
 20
0.0
 11
-1.0
 21
0.3166666667
 12
-1.0
 22
-0.3166666667
 13
-1.0
 23
-0.3166666667
  0
ENDBLK
  5
223
100
AcDbEntity
  8
0
  6
BYBLOCK
 62
0
100
AcDbBlockEnd
  0
ENDSEC
  0
SECTION
  2
ENTITIES
  0
LWPOLYLINE
  5
224
100
AcDbEntity
  8
RACCORDO
100
AcDbPolyline
 62
250
  6
CONTINUOUS
 90
14
 70
0
 10
-10.2010480492
 20
-28.0944040987
 10
-10.1627110383
 20
-28.1143635412
 10
-10.1210141829
 20
-28.1319343731
 10
-10.0764019227
 20
-28.1469293091
 10
-10.0293438202
 20
-28.1591898619
 10
-9.9803469329
 20
-28.1685832971
 10
-9.9299525466
 20
-28.1750076409
 10
-9.8787116638
 20
-28.1783973213
 10
-9.8271577702
 20
-28.1787216356
 10
-9.7758198304
 20
-28.1759789371
 10
-9.7251713837
 20
-28.1701878049
 10
-9.6758270621
 20
-28.161411692
 10
-9.6284967396
 20
-28.1497958284
 10
-9.5837144757
 20
-28.135517194
  0
LWPOLYLINE
  5
225
100
AcDbEntity
  8
ASSI
100
AcDbPolyline
 62
250
  6
CONTINUOUS
 90
14
 70
0
 10
-10.2010480492
 20
-28.0944040987
 10
-10.1627110383
 20
-28.1143635412
 10
-10.1210141829
 20
-28.1319343731
 10
-10.0764019227
 20
-28.1469293091
 10
-10.0293438202
 20
-28.1591898619
 10
-9.9803469329
 20
-28.1685832971
 10
-9.9299525466
 20
-28.1750076409
 10
-9.8787116638
 20
-28.1783973213
 10
-9.8271577702
 20
-28.1787216356
 10
-9.7758198304
 20
-28.1759789371
 10
-9.7251713837
 20
-28.1701878049
 10
-9.6758270621
 20
-28.161411692
 10
-9.6284967396
 20
-28.1497958284
 10
-9.5837144757
 20
-28.135517194
  0
LINE
  5
226
100
AcDbEntity
  8
RACCORDO
100
AcDbLine
 62
7
  6
CONTINUOUS
 10
-24.9657209071
 20
-19.738552011
 11
-10.0975067387
 21
-28.3232725293
  0
LINE
  5
227
100
AcDbEntity
  8
ASSI
100
AcDbLine
 62
7
  6
CONTINUOUS
 10
-24.9657209071
 20
-19.738552011
 11
-10.0975067387
 21
-28.3232725293
  0
LINE
  5
228
100
AcDbEntity
  8
RACCORDO
100
AcDbLine
 62
250
  6
CONTINUOUS
 10
-25.0692622176
 20
-19.5096835804
 11
-10.2010480492
 21
-28.0944040987
  0
LINE
  5
229
100
AcDbEntity
  8
ASSI
100
AcDbLine
 62
250
  6
CONTINUOUS
 10
-25.0692622176
 20
-19.5096835804
 11
-10.2010480492
 21
-28.0944040987
  0
LWPOLYLINE
  5
22A
100
AcDbEntity
  8
RACCORDO
100
AcDbPolyline
 62
250
  6
CONTINUOUS
 90
9
 70
0
 10
-25.0692622176
 20
-19.5096835804
 10
-25.1038330037
 20
-19.4875466748
 10
-25.1342661703
 20
-19.4634696728
 10
-25.1602373361
 20
-19.4377092591
 10
-25.181471927
 20
-19.4105367522
 10
-25.1977402114
 20
-19.3822448675
 10
-25.2088657373
 20
-19.3531457852
 10
-25.2147348404
 20
-19.3235570523
 10
-25.2157088268
 20
-19.3055532574
  0
LWPOLYLINE
  5
22B
100
AcDbEntity
  8
ASSI
100
AcDbPolyline
 62
250
  6
CONTINUOUS
 90
9
 70
0
 10
-25.0692622176
 20
-19.5096835804
 10
-25.1038330037
 20
-19.4875466748
 10
-25.1342661703
 20
-19.4634696728
 10
-25.1602373361
 20
-19.4377092591
 10
-25.181471927
 20
-19.4105367522
 10
-25.1977402114
 20
-19.3822448675
 10
-25.2088657373
 20
-19.3531457852
 10
-25.2147348404
 20
-19.3235570523
 10
-25.2157088268
 20
-19.3055532574
  0
LWPOLYLINE
  5
22C
100
AcDbEntity
  8
RACCORDO
100
AcDbPolyline
 62
250
  6
CONTINUOUS
 90
9
 70
0
 10
-25.0692622176
 20
-19.5096835804
 10
-25.0673779827
 20
-19.550686331
 10
-25.0617453615
 20
-19.5890761751
 10
-25.0524243903
 20
-19.6244439208
 10
-25.0395126052
 20
-19.6564163187
 10
-25.0231485909
 20
-19.684647924
 10
-25.0035146843
 20
-19.7088295505
 10
-24.9808296031
 20
-19.7287038062
 10
-24.9657209071
 20
-19.738552011
  0
LWPOLYLINE
  5
22D
100
AcDbEntity
  8
ASSI
100
AcDbPolyline
 62
250
  6
CONTINUOUS
 90
9
 70
0
 10
-25.0692622176
 20
-19.5096835804
 10
-25.0673779827
 20
-19.550686331
 10
-25.0617453615
 20
-19.5890761751
 10
-25.0524243903
 20
-19.6244439208
 10
-25.0395126052
 20
-19.6564163187
 10
-25.0231485909
 20
-19.684647924
 10
-25.0035146843
 20
-19.7088295505
 10
-24.9808296031
 20
-19.7287038062
 10
-24.9657209071
 20
-19.738552011
  0
LINE
  5
22E
100
AcDbEntity
  8
CURVE
100
AcDbLine
 62
250
  6
CONTINUOUS
 10
-17.5748000341
 20
-16.3394333027
 11
-17.696114809
 21
-16.2693876721
  0
LINE
  5
22F
100
AcDbEntity
  8
ASSI
100
AcDbLine
 62
250
  6
CONTINUOUS
 10
-7.5669754093
 20
-21.7750930555
 11
-7.5365471972
 21
-21.7926619238
  0
LINE
  5
230
100
AcDbEntity
  8
ASSI
100
AcDbLine
 62
250
  6
CONTINUOUS
 10
-7.2330686026
 20
-21.7410180307
 11
-7.5677724856
 21
-21.5477642035
  0
LINE
  5
231
100
AcDbEntity
  8
ASSI
100
AcDbLine
 62
7
  6
CONTINUOUS
 10
-7.1814327231
 20
-21.7491895857
 11
-7.5677724856
 21
-21.5261218488
  0
LWPOLYLINE
  5
232
100
AcDbEntity
  8
ASSI
100
AcDbPolyline
 62
250
  6
CONTINUOUS
 90
4
 70
0
 10
-7.2330686026
 20
-21.7410180307
 10
-7.2150093061
 20
-21.752976612
 10
-7.1979967121
 20
-21.7678027768
 10
-7.1823279971
 20
-21.7852764396
  0
LINE
  5
233
100
AcDbEntity
  8
ASSI
100
AcDbLine
 62
250
  6
CONTINUOUS
 10
-7.5365471972
 20
-21.7926619238
 11
-7.5182874927
 21
-21.8047737254
  0
LWPOLYLINE
  5
234
100
AcDbEntity
  8
CURVE
100
AcDbPolyline
 62
250
  6
CONTINUOUS
 90
12
 70
0
 10
-20.3523840599
 20
-11.9397498699
 10
-20.3644280544
 20
-11.9249432261
 10
-20.3778050857
 20
-11.9121555489
 10
-20.3917850593
 20
-11.902172655
 10
-20.4058163584
 20
-11.8953884458
 10
-20.4193453409
 20
-11.8920706103
 10
-20.4316308256
 20
-11.8923140142
 10
-20.4426253497
 20
-11.896117717
 10
-20.4516651608
 20
-11.9033590183
 10
-20.4583935693
 20
-11.9137521932
 10
-20.462545088
 20
-11.9268871514
 10
-20.4639559258
 20
-11.9422745252
  0
LINE
  5
235
100
AcDbEntity
  8
CURVE
100
AcDbLine
 62
250
  6
CONTINUOUS
 10
-17.696114809
 20
-16.2693876721
 11
-20.4186449151
 21
-12.4961212699
  0
LINE
  5
236
100
AcDbEntity
  8
CURVE
100
AcDbLine
 62
250
  6
CONTINUOUS
 10
-20.3523840599
 20
-11.9397498699
 11
-17.6352138233
 21
-15.7054211666
  0
LINE
  5
237
100
AcDbEntity
  8
RACCORDO
100
AcDbLine
 62
7
  6
CONTINUOUS
 10
-25.215708827
 20
22.8462259985
 11
-25.215708827
 21
-19.3055462837
  0
LINE
  5
238
100
AcDbEntity
  8
ASSI
100
AcDbLine
 62
7
  6
CONTINUOUS
 10
-25.215708827
 20
22.8462259985
 11
-25.215708827
 21
-19.3055462837
  0
LINE
  5
239
100
AcDbEntity
  8
RACCORDO
100
AcDbLine
 62
250
  6
CONTINUOUS
 10
-25.0692622176
 20
22.6420887018
 11
-25.0692622176
 21
-19.5096835804
  0
LINE
  5
23A
100
AcDbEntity
  8
ASSI
100
AcDbLine
 62
250
  6
CONTINUOUS
 10
-25.0692622176
 20
22.6420887018
 11
-25.0692622176
 21
-19.5096835804
  0
LWPOLYLINE
  5
23B
100
AcDbEntity
  8
RACCORDO
100
AcDbPolyline
 62
250
  6
CONTINUOUS
 90
16
 70
0
 10
-25.0692622176
 20
22.6420887018
 10
-25.0673777231
 20
22.6852703613
 10
-25.0617443544
 20
22.730167704
 10
-25.0524222019
 20
22.7763020987
 10
-25.0395089321
 20
22.8231873417
 10
-25.0231431619
 20
22.8703180787
 10
-25.0035070039
 20
22.9171751388
 10
-24.980818612
 20
22.9632494245
 10
-24.9553185124
 20
23.0080624104
 10
-24.9272712341
 20
23.0511528893
 10
-24.8969304182
 20
23.0921196608
 10
-24.8646582353
 20
23.1304630476
 10
-24.8309358854
 20
23.1656409772
 10
-24.796183888
 20
23.1972798938
 10
-24.7607345454
 20
23.2251398332
 10
-24.7249637758
 20
23.2489775534
  0
LWPOLYLINE
  5
23C
100
AcDbEntity
  8
ASSI
100
AcDbPolyline
 62
250
  6
CONTINUOUS
 90
16
 70
0
 10
-25.0692622176
 20
22.6420887018
 10
-25.0673777231
 20
22.6852703613
 10
-25.0617443544
 20
22.730167704
 10
-25.0524222019
 20
22.7763020987
 10
-25.0395089321
 20
22.8231873417
 10
-25.0231431619
 20
22.8703180787
 10
-25.0035070039
 20
22.9171751388
 10
-24.980818612
 20
22.9632494245
 10
-24.9553185124
 20
23.0080624104
 10
-24.9272712341
 20
23.0511528893
 10
-24.8969304182
 20
23.0921196608
 10
-24.8646582353
 20
23.1304630476
 10
-24.8309358854
 20
23.1656409772
 10
-24.796183888
 20
23.1972798938
 10
-24.7607345454
 20
23.2251398332
 10
-24.7249637758
 20
23.2489775534
  0
LINE
  5
23D
100
AcDbEntity
  8
RACCORDO
100
AcDbLine
 62
7
  6
CONTINUOUS
 10
-24.9850827771
 20
23.2674595145
 11
-24.9723457772
 21
23.2756046783
  0
LINE
  5
23E
100
AcDbEntity
  8
ASSI
100
AcDbLine
 62
7
  6
CONTINUOUS
 10
-24.9850827771
 20
23.2674595145
 11
-24.9723457772
 21
23.2756046783
  0
LINE
  5
23F
100
AcDbEntity
  8
RACCORDO
100
AcDbLine
 62
250
  6
CONTINUOUS
 10
-24.7249637758
 20
23.2489775534
 11
-24.7159511763
 21
23.2547410063
  0
LINE
  5
240
100
AcDbEntity
  8
ASSI
100
AcDbLine
 62
250
  6
CONTINUOUS
 10
-24.7249637758
 20
23.2489775534
 11
-24.7159511763
 21
23.2547410063
  0
LWPOLYLINE
  5
241
100
AcDbEntity
  8
ASSI
100
AcDbPolyline
 62
250
  6
CONTINUOUS
 90
3
 70
0
 10
-7.566898548
 20
-21.7925539286
 10
-7.5622300142
 20
-21.7935728318
 10
-7.5497736844
 20
-21.7941319746
  0
LINE
  5
242
100
AcDbEntity
  8
RACCORDO
100
AcDbLine
 62
7
  6
CONTINUOUS
 10
-8.6083079279
 20
-18.1552680155
 11
-9.0214137728
 21
-17.916745878
  0
LINE
  5
243
100
AcDbEntity
  8
ASSI
100
AcDbLine
 62
7
  6
CONTINUOUS
 10
-8.6083079279
 20
-18.1552680155
 11
-9.0214137728
 21
-17.916745878
  0
LWPOLYLINE
  5
244
100
AcDbEntity
  8
ASSI
100
AcDbPolyline
 62
250
  6
CONTINUOUS
 90
12
 70
0
 10
-7.5182874927
 20
-21.8047737254
 10
-7.5011591874
 20
-21.8197597097
 10
-7.4854531312
 20
-21.8373654046
 10
-7.4714360236
 20
-21.8572918537
 10
-7.4593458844
 20
-21.8792006925
 10
-7.4493880122
 20
-21.9027198942
 10
-7.4417314984
 20
-21.9274500872
 10
-7.4365063556
 20
-21.9529713363
 10
-7.4338013104
 20
-21.9788502734
 10
-7.4336622961
 20
-22.0046474571
 10
-7.4360916733
 20
-22.0299248339
 10
-7.4410481897
 20
-22.054253177
  0
LINE
  5
245
100
AcDbEntity
  8
CURVE
100
AcDbLine
 62
250
  6
CONTINUOUS
 10
-20.4186449151
 20
-12.4961212699
 11
-20.4639556105
 21
-12.3692608971
  0
LWPOLYLINE
  5
246
100
AcDbEntity
  8
CURVE
100
AcDbPolyline
 62
250
  6
CONTINUOUS
 90
12
 70
0
 10
-20.4633510342
 20
9.7562381153
 10
-20.4619936852
 20
9.7395990316
 10
-20.4579004152
 20
9.7217234573
 10
-20.4512324993
 20
9.7036015492
 10
-20.4424285964
 20
9.6862500032
 10
-20.4315227189
 20
9.669735854
 10
-20.4190829974
 20
9.6550266796
 10
-20.4056002741
 20
9.6427028696
 10
-20.3918533194
 20
9.63338947
 10
-20.3778952423
 20
9.6271224617
 10
-20.3645193355
 20
9.6243418525
 10
-20.352267409
 20
9.6251541848
  0
LINE
  5
247
100
AcDbEntity
  8
CURVE
100
AcDbLine
 62
250
  6
CONTINUOUS
 10
-20.4639556105
 20
-12.3692608971
 11
-20.4639556105
 21
-11.9422747023
  0
LINE
  5
248
100
AcDbEntity
  8
CURVE
100
AcDbLine
 62
250
  6
CONTINUOUS
 10
-20.4633510342
 20
9.7562381153
 11
-20.4633510342
 21
10.1837868581
  0
LWPOLYLINE
  5
249
100
AcDbEntity
  8
ASSI
100
AcDbPolyline
 62
250
  6
CONTINUOUS
 90
5
 70
0
 10
-16.6954389755
 20
20.8770704398
 10
-16.7143531132
 20
20.8423410506
 10
-16.7310747415
 20
20.8070615312
 10
-16.7457005069
 20
20.7712517446
 10
-16.7581337629
 20
20.7348918279
  0
LWPOLYLINE
  5
24A
100
AcDbEntity
  8
ASSI
100
AcDbPolyline
 62
250
  6
CONTINUOUS
 90
6
 70
0
 10
-16.599543134
 20
20.9456017609
 10
-16.5943351623
 20
20.9533646595
 10
-16.5916301747
 20
20.9633840618
 10
-16.591491202
 20
20.975472284
 10
-16.5939205918
 20
20.9894240534
 10
-16.5988770797
 20
21.0050024543
  0
LWPOLYLINE
  5
24B
100
AcDbEntity
  8
ASSI
100
AcDbPolyline
 62
250
  6
CONTINUOUS
 90
6
 70
0
 10
-16.2960547582
 20
21.2568689621
 10
-16.2909050022
 20
21.2645136858
 10
-16.2881654857
 20
21.2745341554
 10
-16.2880048953
 20
21.2866411396
 10
-16.2904288884
 20
21.3006287498
 10
-16.2953984851
 20
21.3162596151
  0
LWPOLYLINE
  5
24C
100
AcDbEntity
  8
ASSI
100
AcDbPolyline
 62
250
  6
CONTINUOUS
 90
4
 70
0
 10
-16.6261590436
 20
20.974634549
 10
-16.6513419407
 20
20.943217189
 10
-16.6744249591
 20
20.9107512072
 10
-16.6954389755
 20
20.8770704398
  0
LINE
  5
24D
100
AcDbEntity
  8
RACCORDO
100
AcDbLine
 62
250
  6
CONTINUOUS
 10
-24.9651832856
 20
23.2783551718
 11
-24.9850827771
 21
23.2674595145
  0
LINE
  5
24E
100
AcDbEntity
  8
ASSI
100
AcDbLine
 62
250
  6
CONTINUOUS
 10
-24.9651832856
 20
23.2783551718
 11
-24.9850827771
 21
23.2674595145
  0
LINE
  5
24F
100
AcDbEntity
  8
RACCORDO
100
AcDbLine
 62
7
  6
CONTINUOUS
 10
-23.9857333168
 20
23.7001422015
 11
-24.8709288313
 21
23.3022662091
  0
LINE
  5
250
100
AcDbEntity
  8
ASSI
100
AcDbLine
 62
7
  6
CONTINUOUS
 10
-23.9857333168
 20
23.7001422015
 11
-24.8709288313
 21
23.3022662091
  0
LINE
  5
251
100
AcDbEntity
  8
RACCORDO
100
AcDbLine
 62
250
  6
CONTINUOUS
 10
-23.7509502745
 20
23.6681093716
 11
-24.6961059296
 21
23.2432826095
  0
LINE
  5
252
100
AcDbEntity
  8
ASSI
100
AcDbLine
 62
250
  6
CONTINUOUS
 10
-23.7509502745
 20
23.6681093716
 11
-24.6961059296
 21
23.2432826095
  0
LINE
  5
253
100
AcDbEntity
  8
ASSI
100
AcDbLine
 62
250
  6
CONTINUOUS
 10
-7.4410475673
 20
-22.0542530711
 11
-7.1375695951
 21
-22.002609284
  0
LINE
  5
254
100
AcDbEntity
  8
ASSI
100
AcDbLine
 62
250
  6
CONTINUOUS
 10
-7.5365471972
 20
-21.7926619238
 11
-7.2330686026
 21
-21.7410180307
  0
LINE
  5
255
100
AcDbEntity
  8
ASSI
100
AcDbLine
 62
250
  6
CONTINUOUS
 10
-7.5497736844
 20
-21.7941319746
 11
-7.5365477655
 21
-21.7926615957
  0
LWPOLYLINE
  5
256
100
AcDbEntity
  8
ASSI
100
AcDbPolyline
 62
250
  6
CONTINUOUS
 90
5
 70
0
 10
-7.2330686026
 20
-21.7410180307
 10
-7.2155290531
 20
-21.7398607888
 10
-7.1992021651
 20
-21.7420619702
 10
-7.1843883403
 20
-21.7475810755
 10
-7.1814327231
 20
-21.7491895857
  0
LWPOLYLINE
  5
257
100
AcDbEntity
  8
ASSI
100
AcDbPolyline
 62
250
  6
CONTINUOUS
 90
3
 70
0
 10
-7.1823279971
 20
-21.7852764396
 10
-7.1682677038
 20
-21.8051521853
 10
-7.156091505
 20
-21.827096055
  0
LWPOLYLINE
  5
258
100
AcDbEntity
  8
ASSI
100
AcDbPolyline
 62
7
  6
CONTINUOUS
 90
7
 70
0
 10
-7.5651836579
 20
-21.8050851652
 10
-7.5647002048
 20
-21.8059039236
 10
-7.5639890943
 20
-21.8072792351
 10
-7.5644695842
 20
-21.8058937468
 10
-7.565540629
 20
-21.8016995404
 10
-7.5666823056
 20
-21.7949310032
 10
-7.5675252136
 20
-21.7856652203
  0
LWPOLYLINE
  5
259
100
AcDbEntity
  8
CURVE
100
AcDbPolyline
 62
250
  6
CONTINUOUS
 90
12
 70
0
 10
-14.8069592326
 20
-15.2085535121
 10
-14.8083165816
 20
-15.1919144284
 10
-14.8124098516
 20
-15.1740388542
 10
-14.8190777675
 20
-15.1559169461
 10
-14.8278816704
 20
-15.1385654001
 10
-14.8387875479
 20
-15.1220512508
 10
-14.8512272694
 20
-15.1073420765
 10
-14.8647099927
 20
-15.0950182664
 10
-14.8784569474
 20
-15.0857048669
 10
-14.8924150245
 20
-15.0794378585
 10
-14.9057909313
 20
-15.0766572494
 10
-14.9180428578
 20
-15.0774695816
  0
LINE
  5
25A
100
AcDbEntity
  8
ASSI
100
AcDbLine
 62
250
  6
CONTINUOUS
 10
-16.7817334156
 20
20.5887787837
 11
-16.7817334156
 21
20.1077823654
  0
LINE
  5
25B
100
AcDbEntity
  8
ASSI
100
AcDbLine
 62
7
  6
CONTINUOUS
 10
-16.7256013757
 20
20.668997214
 11
-16.7256013757
 21
20.1390761026
  0
LINE
  5
25C
100
AcDbEntity
  8
ASSI
100
AcDbLine
 62
250
  6
CONTINUOUS
 10
-16.2953984851
 20
21.6855706047
 11
-16.2953984851
 21
21.3162596151
  0
LINE
  5
25D
100
AcDbEntity
  8
ASSI
100
AcDbLine
 62
7
  6
CONTINUOUS
 10
-16.2392664452
 20
21.7657880121
 11
-16.2392664452
 21
21.3964770225
  0
LWPOLYLINE
  5
25E
100
AcDbEntity
  8
ASSI
100
AcDbPolyline
 62
7
  6
CONTINUOUS
 90
15
 70
0
 10
-16.7256013759
 20
20.6689918453
 10
-16.725171028
 20
20.6820791618
 10
-16.7236773073
 20
20.6977166657
 10
-16.7209053501
 20
20.7153826305
 10
-16.7166610793
 20
20.7349441034
 10
-16.7108289034
 20
20.7560499973
 10
-16.7034155024
 20
20.7781337353
 10
-16.6944245889
 20
20.8008622301
 10
-16.683901115
 20
20.8239011413
 10
-16.67205475
 20
20.8466719303
 10
-16.6590306879
 20
20.8688630684
 10
-16.6450342823
 20
20.890138203
 10
-16.6304866309
 20
20.9099391893
 10
-16.6156397393
 20
20.9280619748
 10
-16.5995431322
 20
20.9456017627
  0
LINE
  5
25F
100
AcDbEntity
  8
ASSI
100
AcDbLine
 62
7
  6
CONTINUOUS
 10
-17.0228911555
 20
19.9184967505
 11
-17.0290320459
 21
19.8409957971
  0
LWPOLYLINE
  5
260
100
AcDbEntity
  8
ASSI
100
AcDbPolyline
 62
250
  6
CONTINUOUS
 90
7
 70
0
 10
-16.2392664552
 20
21.7657514851
 10
-16.2406509446
 20
21.7522239169
 10
-16.245378137
 20
21.7374587918
 10
-16.2533808438
 20
21.7231764133
 10
-16.2645201485
 20
21.7096187699
 10
-16.2786060353
 20
21.6970128688
 10
-16.2953984851
 20
21.6855706047
  0
LWPOLYLINE
  5
261
100
AcDbEntity
  8
ASSI
100
AcDbPolyline
 62
250
  6
CONTINUOUS
 90
7
 70
0
 10
-16.2392664452
 20
21.3964770225
 10
-16.2406777383
 20
21.3827827661
 10
-16.2454146666
 20
21.3680645841
 10
-16.2534123463
 20
21.3538196383
 10
-16.2645405387
 20
21.3402866377
 10
-16.2786140581
 20
21.3276956317
 10
-16.2953984851
 20
21.3162596151
  0
LWPOLYLINE
  5
262
100
AcDbEntity
  8
ASSI
100
AcDbPolyline
 62
250
  6
CONTINUOUS
 90
7
 70
0
 10
-16.7256013759
 20
20.6689918453
 10
-16.727056905
 20
20.6550907658
 10
-16.7318270019
 20
20.6404092914
 10
-16.7398394651
 20
20.6262061699
 10
-16.7509602247
 20
20.6127190577
 10
-16.7650032005
 20
20.6001736303
 10
-16.7817334156
 20
20.5887798066
  0
LWPOLYLINE
  5
263
100
AcDbEntity
  8
ASSI
100
AcDbPolyline
 62
250
  6
CONTINUOUS
 90
5
 70
0
 10
-16.7581337629
 20
20.7348918279
 10
-16.7679919388
 20
20.6984206832
 10
-16.7751475111
 20
20.6619846113
 10
-16.7797280034
 20
20.6254373115
 10
-16.7817334156
 20
20.5887787837
  0
LWPOLYLINE
  5
264
100
AcDbEntity
  8
ASSI
100
AcDbPolyline
 62
250
  6
CONTINUOUS
 90
9
 70
0
 10
-13.9618478364
 20
21.7862871054
 10
-13.9628125876
 20
21.7834814071
 10
-13.9628208787
 20
21.7761671523
 10
-13.9598172473
 20
21.7676025203
 10
-13.9538502089
 20
21.7579344061
 10
-13.9450397949
 20
21.7473458994
 10
-13.9335575317
 20
21.7360251029
 10
-13.9196028433
 20
21.7241548631
 10
-13.9034185881
 20
21.7119320976
  0
LWPOLYLINE
  5
265
100
AcDbEntity
  8
ASSI
100
AcDbPolyline
 62
250
  6
CONTINUOUS
 90
9
 70
0
 10
-14.343660107
 20
20.9764165896
 10
-14.344611544
 20
20.973668722
 10
-14.3446480765
 20
20.9663765692
 10
-14.3416839947
 20
20.9578430923
 10
-14.3357681964
 20
20.9482090656
 10
-14.3269982727
 20
20.9376334187
 10
-14.3155188984
 20
20.9262906151
 10
-14.3015194455
 20
20.9143677736
 10
-14.2852308587
 20
20.9020615818
  0
LWPOLYLINE
  5
266
100
AcDbEntity
  8
ASSI
100
AcDbPolyline
 62
250
  6
CONTINUOUS
 90
10
 70
0
 10
-13.9034185881
 20
21.7119320976
 10
-13.8943814526
 20
21.7330154439
 10
-13.8838102715
 20
21.7536658416
 10
-13.8718480017
 20
21.7736040294
 10
-13.8586564121
 20
21.7925603776
 10
-13.844413896
 20
21.8102785338
 10
-13.8293130593
 20
21.8265188899
 10
-13.8135581147
 20
21.8410618227
 10
-13.797362121
 20
21.8537106639
 10
-13.780944101
 20
21.8642943592
  0
LINE
  5
267
100
AcDbEntity
  8
ASSI
100
AcDbLine
 62
7
  6
CONTINUOUS
 10
-14.343660107
 20
20.9764165896
 11
-13.9618478364
 21
21.7862871054
  0
LINE
  5
268
100
AcDbEntity
  8
ASSI
100
AcDbLine
 62
250
  6
CONTINUOUS
 10
-14.2852308587
 20
20.9020615818
 11
-13.9034185881
 21
21.7119320976
  0
LWPOLYLINE
  5
269
100
AcDbEntity
  8
ASSI
100
AcDbPolyline
 62
7
  6
CONTINUOUS
 90
13
 70
0
 10
-14.3436592186
 20
20.9764184735
 10
-14.3538428589
 20
20.9560557354
 10
-14.3661740724
 20
20.9340507609
 10
-14.3797597425
 20
20.9123035559
 10
-14.3944237487
 20
20.8911103386
 10
-14.4099613488
 20
20.8707604651
 10
-14.4261967688
 20
20.8514618073
 10
-14.442897629
 20
20.8334583138
 10
-14.45978106
 20
20.8169943586
 10
-14.4765339458
 20
20.802290539
 10
-14.4927999409
 20
20.7895388348
 10
-14.5082320157
 20
20.7788611327
 10
-14.5217494661
 20
20.770719118
  0
LINE
  5
26A
100
AcDbEntity
  8
CURVE
100
AcDbLine
 62
250
  6
CONTINUOUS
 10
-20.4633510342
 20
10.1837868581
 11
-20.4180403388
 21
10.2577610275
  0
LINE
  5
26B
100
AcDbEntity
  8
ASSI
100
AcDbLine
 62
250
  6
CONTINUOUS
 10
-16.5988762677
 20
21.0050032872
 11
-16.6261590436
 21
20.974634549
  0
LINE
  5
26C
100
AcDbEntity
  8
ASSI
100
AcDbLine
 62
250
  6
CONTINUOUS
 10
-16.2953984851
 20
21.3162596151
 11
-16.5988762677
 21
21.0050032872
  0
LINE
  5
26D
100
AcDbEntity
  8
ASSI
100
AcDbLine
 62
7
  6
CONTINUOUS
 10
-16.2960670756
 20
21.2568563201
 11
-16.5995456704
 21
20.9455991591
  0
LWPOLYLINE
  5
26E
100
AcDbEntity
  8
DRAFT
100
AcDbPolyline
 62
7
  6
CONTINUOUS
 90
7
 70
0
 10
-9.1496387316
 20
25.4919467133
 10
-9.1440284437
 20
25.4966622705
 10
-9.1383062206
 20
25.5014149251
 10
-9.1324721657
 20
25.506204886
 10
-9.1265263816
 20
25.5110323607
 10
-9.1204689709
 20
25.5158975554
 10
-9.1143000354
 20
25.5208006747
  0
LINE
  5
26F
100
AcDbEntity
  8
ASSI
100
AcDbLine
 62
250
  6
CONTINUOUS
 10
-18.5423433481
 20
20.7147627767
 11
-16.4367983022
 21
21.9304822718
  0
LINE
  5
270
100
AcDbEntity
  8
ASSI
100
AcDbLine
 62
250
  6
CONTINUOUS
 10
-18.2595576213
 20
20.5514858422
 11
-16.2953984851
 21
21.6855706047
  0
LINE
  5
271
100
AcDbEntity
  8
DRAFT
100
AcDbLine
 62
7
  6
CONTINUOUS
 10
-16.0452966479
 20
21.7983250996
 11
-16.2392664452
 21
21.6863076792
  0
LINE
  5
272
100
AcDbEntity
  8
DRAFT
100
AcDbLine
 62
7
  6
CONTINUOUS
 10
-15.9969690473
 20
21.8250542181
 11
-16.0452966479
 21
21.7983250996
  0
LINE
  5
273
100
AcDbEntity
  8
ASSI
100
AcDbLine
 62
250
  6
CONTINUOUS
 10
-15.9617310276
 20
21.7618317822
 11
-16.2392664452
 21
21.6084580606
  0
LINE
  5
274
100
AcDbEntity
  8
ASSI
100
AcDbLine
 62
250
  6
CONTINUOUS
 10
-15.4382499544
 20
22.0510996657
 11
-15.9617310276
 21
21.7618317822
  0
LINE
  5
275
100
AcDbEntity
  8
ASSI
100
AcDbLine
 62
250
  6
CONTINUOUS
 10
-14.3867654621
 20
22.6320470928
 11
-15.4382499544
 21
22.0510996657
  0
LINE
  5
276
100
AcDbEntity
  8
DRAFT
100
AcDbLine
 62
7
  6
CONTINUOUS
 10
-9.0489411058
 20
25.640888832
 11
-8.9673098923
 21
25.685942907
  0
LINE
  5
277
100
AcDbEntity
  8
DRAFT
100
AcDbLine
 62
7
  6
CONTINUOUS
 10
-9.1496389496
 20
25.491946129
 11
-12.2710691926
 21
23.7748780339
  0
LINE
  5
278
100
AcDbEntity
  8
ASSI
100
AcDbLine
 62
250
  6
CONTINUOUS
 10
-12.6703401868
 20
23.5758789218
 11
-14.3867654621
 21
22.6320470928
  0
LINE
  5
279
100
AcDbEntity
  8
DRAFT
100
AcDbLine
 62
7
  6
CONTINUOUS
 10
-9.1499170532
 20
25.5856498625
 11
-15.9970965699
 21
21.8249841803
  0
LINE
  5
27A
100
AcDbEntity
  8
ASSI
100
AcDbLine
 62
7
  6
CONTINUOUS
 10
-15.9852790935
 20
21.8041760092
 11
-16.2392664452
 21
21.6646789338
  0
LINE
  5
27B
100
AcDbEntity
  8
DRAFT
100
AcDbLine
 62
7
  6
CONTINUOUS
 10
-5.8241623214
 20
27.3849658506
 11
-8.8642026829
 21
25.7167039668
  0
LINE
  5
27C
100
AcDbEntity
  8
DRAFT
100
AcDbLine
 62
7
  6
CONTINUOUS
 10
-12.9080516811
 20
23.5016253179
 11
-15.5179627407
 21
22.0706967985
  0
LINE
  5
27D
100
AcDbEntity
  8
DRAFT
100
AcDbLine
 62
7
  6
CONTINUOUS
 10
-12.9142647081
 20
23.4665914762
 11
-15.4517957769
 21
22.0756145541
  0
LINE
  5
27E
100
AcDbEntity
  8
DRAFT
100
AcDbLine
 62
7
  6
CONTINUOUS
 10
-8.9673098923
 20
25.685942907
 11
-8.8808743897
 21
25.7332824869
  0
LINE
  5
27F
100
AcDbEntity
  8
ASSI
100
AcDbLine
 62
7
  6
CONTINUOUS
 10
-18.0426816156
 20
22.8130319104
 11
-20.1829825867
 21
21.662047311
  0
LINE
  5
280
100
AcDbEntity
  8
ASSI
100
AcDbLine
 62
250
  6
CONTINUOUS
 10
-17.9454882758
 20
22.8015809542
 11
-20.1258439978
 21
21.629056206
  0
LWPOLYLINE
  5
281
100
AcDbEntity
  8
RACCORDO
100
AcDbPolyline
 62
250
  6
CONTINUOUS
 90
7
 70
0
 10
-23.7509502745
 20
23.6681093716
 10
-23.7336706614
 20
23.6750896401
 10
-23.7168431525
 20
23.6793713037
 10
-23.7007246174
 20
23.6808890736
 10
-23.6855610762
 20
23.6796198528
 10
-23.6715839928
 20
23.6755830884
 10
-23.6633161531
 20
23.6715482701
  0
LWPOLYLINE
  5
282
100
AcDbEntity
  8
ASSI
100
AcDbPolyline
 62
250
  6
CONTINUOUS
 90
7
 70
0
 10
-23.7509502745
 20
23.6681093716
 10
-23.7336706614
 20
23.6750896401
 10
-23.7168431525
 20
23.6793713037
 10
-23.7007246174
 20
23.6808890736
 10
-23.6855610762
 20
23.6796198528
 10
-23.6715839928
 20
23.6755830884
 10
-23.6633161531
 20
23.6715482701
  0
LINE
  5
283
100
AcDbEntity
  8
RACCORDO
100
AcDbLine
 62
250
  6
CONTINUOUS
 10
-23.969902787
 20
23.7063569097
 11
-23.9857294694
 21
23.7001439308
  0
LINE
  5
284
100
AcDbEntity
  8
ASSI
100
AcDbLine
 62
250
  6
CONTINUOUS
 10
-23.969902787
 20
23.7063569097
 11
-23.9857294694
 21
23.7001439308
  0
LWPOLYLINE
  5
285
100
AcDbEntity
  8
ASSI
100
AcDbPolyline
 62
250
  6
CONTINUOUS
 90
6
 70
0
 10
-7.156091505
 20
-21.827096055
 10
-7.146058214
 20
-21.850669481
 10
-7.1383474326
 20
-21.8754385327
 10
-7.1330771294
 20
-21.9010087361
 10
-7.1303368493
 20
-21.9269518265
 10
-7.1301758787
 20
-21.952827753
  0
LINE
  5
286
100
AcDbEntity
  8
CURVE
100
AcDbLine
 62
250
  6
CONTINUOUS
 10
-14.8069592326
 20
-15.2085535121
 11
-14.8069592326
 21
-15.6361022549
  0
LINE
  5
287
100
AcDbEntity
  8
CURVE
100
AcDbLine
 62
250
  6
CONTINUOUS
 10
-14.8063546563
 20
6.9169455002
 11
-14.8063546563
 21
6.4899593055
  0
LINE
  5
288
100
AcDbEntity
  8
ASSI
100
AcDbLine
 62
250
  6
CONTINUOUS
 10
-12.7818937722
 20
21.5468707977
 11
-12.7820959341
 21
21.541475108
  0
LWPOLYLINE
  5
289
100
AcDbEntity
  8
ASSI
100
AcDbPolyline
 62
250
  6
CONTINUOUS
 90
13
 70
0
 10
-12.6176851393
 20
21.5540562845
 10
-12.6120953252
 20
21.578214055
 10
-12.6088682544
 20
21.6031578331
 10
-12.6080558705
 20
21.6284861976
 10
-12.6096712556
 20
21.6537915177
 10
-12.6136884217
 20
21.6786665663
 10
-12.6200427452
 20
21.7027110689
 10
-12.628631989
 20
21.7255380616
 10
-12.6393179441
 20
21.74678016
 10
-12.651928677
 20
21.7660955127
 10
-12.6662612695
 20
21.78317324
 10
-12.6820850718
 20
21.7977384474
 10
-12.6991454347
 20
21.8095566812
  0
LWPOLYLINE
  5
28A
100
AcDbEntity
  8
ASSI
100
AcDbPolyline
 62
250
  6
CONTINUOUS
 90
13
 70
0
 10
-11.0361256584
 20
21.5924186794
 10
-11.0305357879
 20
21.6165767845
 10
-11.0273087279
 20
21.6415208777
 10
-11.0264964133
 20
21.6668495205
 10
-11.0281119171
 20
21.6921550854
 10
-11.0321292401
 20
21.7170303167
 10
-11.0384837294
 20
21.741074884
 10
-11.0470731188
 20
21.7639018254
 10
-11.0577591748
 20
21.7851437748
 10
-11.070369921
 20
21.8044588741
 10
-11.0847024058
 20
21.8215362753
 10
-11.1005259691
 20
21.8361011426
 10
-11.1175859539
 20
21.847919076
  0
LINE
  5
28B
100
AcDbEntity
  8
ASSI
100
AcDbLine
 62
250
  6
CONTINUOUS
 10
-10.1668643943
 20
19.5544925361
 11
-10.4382493884
 21
18.6808626949
  0
LWPOLYLINE
  5
28C
100
AcDbEntity
  8
ASSI
100
AcDbPolyline
 62
7
  6
CONTINUOUS
 90
7
 70
0
 10
-9.9392714968
 20
22.9567654532
 10
-9.9389229057
 20
22.9573089239
 10
-9.9394780734
 20
22.9566655704
 10
-9.9422396023
 20
22.9538678388
 10
-9.9474266561
 20
22.9494735939
 10
-9.9548900023
 20
22.9441315075
 10
-9.9652773982
 20
22.9378313609
  0
LWPOLYLINE
  5
28D
100
AcDbEntity
  8
ASSI
100
AcDbPolyline
 62
250
  6
CONTINUOUS
 90
9
 70
0
 10
-12.4218240724
 20
17.792675735
 10
-12.4062601163
 20
17.8090272896
 10
-12.3933013548
 20
17.8261824443
 10
-12.3831579518
 20
17.8438598817
 10
-12.3759941764
 20
17.8617687746
 10
-12.3719241126
 20
17.8796174879
 10
-12.3710121506
 20
17.8971182242
 10
-12.3732777949
 20
17.9140057208
 10
-12.3754942564
 20
17.9218285638
  0
LWPOLYLINE
  5
28E
100
AcDbEntity
  8
ASSI
100
AcDbPolyline
 62
250
  6
CONTINUOUS
 90
8
 70
0
 10
-12.2969428298
 20
17.4196242051
 10
-12.2814291209
 20
17.4359167547
 10
-12.2684987453
 20
17.4530124604
 10
-12.2583619945
 20
17.4706332882
 10
-12.2511837264
 20
17.488492664
 10
-12.2470806839
 20
17.5063001341
 10
-12.2461195962
 20
17.5237660888
 10
-12.2483160939
 20
17.5406064728
  0
LINE
  5
28F
100
AcDbEntity
  8
CURVE
100
AcDbLine
 62
7
  6
CONTINUOUS
 10
-20.4633510342
 20
9.7993628165
 11
-19.8807493096
 21
10.381964541
  0
LINE
  5
290
100
AcDbEntity
  8
CURVE
100
AcDbLine
 62
7
  6
CONTINUOUS
 10
-20.1770420788
 20
9.6656503439
 11
-19.3344395404
 21
10.5082528822
  0
LINE
  5
291
100
AcDbEntity
  8
CURVE
100
AcDbLine
 62
7
  6
CONTINUOUS
 10
-19.6307760343
 20
9.7918949603
 11
-18.7881297712
 21
10.6345412235
  0
LWPOLYLINE
  5
292
100
AcDbEntity
  8
SMUSSO
100
AcDbPolyline
 62
7
  6
CONTINUOUS
 90
4
 70
0
 10
-8.1935951026
 20
24.6266125032
 10
-8.1604305885
 20
24.6521023766
 10
-8.0734630186
 20
24.7124802095
 10
-7.9814330338
 20
24.7703006065
  0
LWPOLYLINE
  5
293
100
AcDbEntity
  8
ASSI
100
AcDbPolyline
 62
250
  6
CONTINUOUS
 90
4
 70
0
 10
-12.7688676243
 20
21.5612300496
 10
-12.7753508685
 20
21.5572178485
 10
-12.779685484
 20
21.5524639225
 10
-12.7818937722
 20
21.5468707977
  0
LINE
  5
294
100
AcDbEntity
  8
0
100
AcDbLine
 62
7
  6
CONTINUOUS
 10
-7.9814330338
 20
24.7703006065
 11
-4.6657440069
 21
26.7527584529
  0
LINE
  5
295
100
AcDbEntity
  8
DRAFT
100
AcDbLine
 62
7
  6
CONTINUOUS
 10
-7.9515437302
 20
24.3871329977
 11
-4.2238688776
 21
26.539453129
  0
LINE
  5
296
100
AcDbEntity
  8
0
100
AcDbLine
 62
7
  6
CONTINUOUS
 10
-11.6691889023
 20
21.5536361546
 11
-12.2306607447
 21
21.2294493497
  0
LINE
  5
297
100
AcDbEntity
  8
ASSI
100
AcDbLine
 62
250
  6
CONTINUOUS
 10
-8.0754181411
 20
23.4828672684
 11
-10.6634291341
 21
21.9885821564
  0
LINE
  5
298
100
AcDbEntity
  8
ASSI
100
AcDbLine
 62
250
  6
CONTINUOUS
 10
-7.9341905979
 20
23.2465763501
 11
-10.5222015909
 21
21.7522912382
  0
LINE
  5
299
100
AcDbEntity
  8
0
100
AcDbLine
 62
7
  6
CONTINUOUS
 10
-7.7572139116
 20
22.3516130149
 11
-9.028318323
 21
21.6176932584
  0
LINE
  5
29A
100
AcDbEntity
  8
RACCORDO
100
AcDbLine
 62
7
  6
CONTINUOUS
 10
-5.7752818118
 20
23.4959557699
 11
-4.8008337317
 21
24.0585898786
  0
LWPOLYLINE
  5
29B
100
AcDbEntity
  8
ASSI
100
AcDbPolyline
 62
250
  6
CONTINUOUS
 90
16
 70
0
 10
-14.4243702322
 20
20.7593214167
 10
-14.4123511845
 20
20.7662022437
 10
-14.4007446808
 20
20.7737354508
 10
-14.3896060534
 20
20.7817628558
 10
-14.3790335092
 20
20.7900689277
 10
-14.3689918527
 20
20.798576841
 10
-14.3593301796
 20
20.8073921729
 10
-14.3500916139
 20
20.8164279207
 10
-14.3412685122
 20
20.8256155465
 10
-14.3326636526
 20
20.8351672231
 10
-14.324342836
 20
20.8450181087
 10
-14.3163030345
 20
20.8551514888
 10
-14.3083096471
 20
20.865912004
 10
-14.3003600559
 20
20.8774076325
 10
-14.2926358389
 20
20.8894746361
 10
-14.2852308587
 20
20.9020615818
  0
LWPOLYLINE
  5
29C
100
AcDbEntity
  8
ASSI
100
AcDbPolyline
 62
250
  6
CONTINUOUS
 90
16
 70
0
 10
-10.6634291341
 20
21.9885821564
 10
-10.6957709965
 20
21.9705182232
 10
-10.7273578361
 20
21.9540268144
 10
-10.7581649058
 20
21.9390411594
 10
-10.7879330889
 20
21.9255990743
 10
-10.8168853231
 20
21.9135105688
 10
-10.8457177464
 20
21.9024386051
 10
-10.8744388258
 20
21.8923725884
 10
-10.9029989318
 20
21.8833306556
 10
-10.9319891011
 20
21.8751535361
 10
-10.9614402794
 20
21.86788973
 10
-10.9912512796
 20
21.8616286287
 10
-11.02178973
 20
21.8563829505
 10
-11.0531349479
 20
21.8522567023
 10
-11.0850893022
 20
21.8493942274
 10
-11.1175859539
 20
21.847919076
  0
LINE
  5
29D
100
AcDbEntity
  8
ASSI
100
AcDbLine
 62
7
  6
CONTINUOUS
 10
-13.8783324352
 20
21.8756872019
 11
-13.7370719556
 21
21.9544402335
  0
LINE
  5
29E
100
AcDbEntity
  8
ASSI
100
AcDbLine
 62
250
  6
CONTINUOUS
 10
-13.780944101
 20
21.8642943592
 11
-13.639683661
 21
21.9430473687
  0
LINE
  5
29F
100
AcDbEntity
  8
ASSI
100
AcDbLine
 62
7
  6
CONTINUOUS
 10
-16.9811417738
 20
19.9966117622
 11
-16.5141950973
 21
20.256935573
  0
LINE
  5
2A0
100
AcDbEntity
  8
ASSI
100
AcDbLine
 62
250
  6
CONTINUOUS
 10
-16.8819861613
 20
19.986204181
 11
-16.4168067631
 21
20.2455427303
  0
LINE
  5
2A1
100
AcDbEntity
  8
ASSI
100
AcDbLine
 62
7
  6
CONTINUOUS
 10
-15.8890267977
 20
20.0084589651
 11
-14.5217583791
 21
20.7707141499
  0
LINE
  5
2A2
100
AcDbEntity
  8
ASSI
100
AcDbLine
 62
250
  6
CONTINUOUS
 10
-15.8311471146
 20
19.9750399615
 11
-14.4243700437
 21
20.7593213079
  0
LINE
  5
2A3
100
AcDbEntity
  8
ASSI
100
AcDbLine
 62
7
  6
CONTINUOUS
 10
-8.5630453003
 20
23.7195791178
 11
-9.0475358976
 21
23.4494745321
  0
LINE
  5
2A4
100
AcDbEntity
  8
ASSI
100
AcDbLine
 62
7
  6
CONTINUOUS
 10
-11.1964631611
 20
22.2514525264
 11
-9.9654144475
 21
22.9377551987
  0
LINE
  5
2A5
100
AcDbEntity
  8
ASSI
100
AcDbLine
 62
250
  6
CONTINUOUS
 10
-11.0990144159
 20
22.240083639
 11
-9.8680258838
 21
22.9263624839
  0
LINE
  5
2A6
100
AcDbEntity
  8
DRAFT
100
AcDbLine
 62
7
  6
CONTINUOUS
 10
-8.4030952818
 20
25.4840077498
 11
-5.4153019632
 21
27.148895004
  0
LINE
  5
2A7
100
AcDbEntity
  8
ASSI
100
AcDbLine
 62
7
  6
CONTINUOUS
 10
-9.9654144475
 20
22.9377551987
 11
-9.9652774085
 21
22.9378313795
  0
LWPOLYLINE
  5
2A8
100
AcDbEntity
  8
ASSI
100
AcDbPolyline
 62
250
  6
CONTINUOUS
 90
16
 70
0
 10
-10.5222015909
 20
21.7522912382
 10
-10.5588903691
 20
21.7319436891
 10
-10.5946683065
 20
21.7132217741
 10
-10.6295354032
 20
21.6961254933
 10
-10.6632438933
 20
21.6808068079
 10
-10.6960415426
 20
21.6671137567
 10
-10.7286716489
 20
21.6545904556
 10
-10.761180518
 20
21.6431189226
 10
-10.7935218442
 20
21.6328171398
 10
-10.8263000078
 20
21.6235831692
 10
-10.8596137161
 20
21.6153082479
 10
-10.8933642618
 20
21.6081011387
 10
-10.9278599031
 20
21.6021861922
 10
-10.9632033926
 20
21.5976381919
 10
-10.9992919777
 20
21.5943823543
 10
-11.0361256584
 20
21.5924186794
  0
LINE
  5
2A9
100
AcDbEntity
  8
ASSI
100
AcDbLine
 62
250
  6
CONTINUOUS
 10
-16.1545112536
 20
21.2019534179
 11
-16.57746291
 21
20.9682479304
  0
LINE
  5
2AA
100
AcDbEntity
  8
ASSI
100
AcDbLine
 62
250
  6
CONTINUOUS
 10
-13.7272505384
 20
22.5427929078
 11
-16.1545112536
 21
21.2019534179
  0
LINE
  5
2AB
100
AcDbEntity
  8
ASSI
100
AcDbLine
 62
250
  6
CONTINUOUS
 10
-8.4569753579
 20
23.7129815588
 11
-8.950147716
 21
23.4380816043
  0
LWPOLYLINE
  5
2AC
100
AcDbEntity
  8
ASSI
100
AcDbPolyline
 62
7
  6
CONTINUOUS
 90
16
 70
0
 10
-9.0475301939
 20
23.4494776883
 10
-9.0489927677
 20
23.4486707294
 10
-9.06144513
 20
23.4424047123
 10
-9.076244834
 20
23.4360892998
 10
-9.0932732094
 20
23.4299968926
 10
-9.1124574418
 20
23.4243485204
 10
-9.1334476744
 20
23.4194077108
 10
-9.1560211036
 20
23.415352214
 10
-9.1798963652
 20
23.4123390383
 10
-9.2045624021
 20
23.4105049234
 10
-9.2297235594
 20
23.4099148826
 10
-9.2549938677
 20
23.4106051892
 10
-9.2796984551
 20
23.4125414151
 10
-9.3035283272
 20
23.4156441779
 10
-9.3261580269
 20
23.4198005679
 10
-9.3319705594
 20
23.4210734081
  0
LWPOLYLINE
  5
2AD
100
AcDbEntity
  8
ASSI
100
AcDbPolyline
 62
7
  6
CONTINUOUS
 90
10
 70
0
 10
-11.1964631611
 20
22.2514525264
 10
-11.2087439574
 20
22.2446811064
 10
-11.2715798031
 20
22.2123162674
 10
-11.3329865739
 20
22.1844779377
 10
-11.3924788495
 20
22.1612732057
 10
-11.4498815465
 20
22.1426345095
 10
-11.5052438968
 20
22.1284237382
 10
-11.5583341971
 20
22.1186119968
 10
-11.6087453026
 20
22.1131654378
 10
-11.6166559502
 20
22.112685518
  0
LINE
  5
2AE
100
AcDbEntity
  8
ASSI
100
AcDbLine
 62
250
  6
CONTINUOUS
 10
-12.019142225
 20
23.4820669232
 11
-13.7273103211
 21
22.5428274256
  0
LWPOLYLINE
  5
2AF
100
AcDbEntity
  8
ASSI
100
AcDbPolyline
 62
250
  6
CONTINUOUS
 90
13
 70
0
 10
-13.639683661
 20
21.9430473687
 10
-13.6269461938
 20
21.950005536
 10
-13.6145898652
 20
21.956277883
 10
-13.6026275833
 20
21.961899091
 10
-13.5910763055
 20
21.9669034299
 10
-13.5799378889
 20
21.9713278907
 10
-13.5691994854
 20
21.9752101081
 10
-13.5588632878
 20
21.9785847816
 10
-13.5489347907
 20
21.9814850681
 10
-13.5394039531
 20
21.9839436087
 10
-13.5302691033
 20
21.9859931377
 10
-13.5215312533
 20
21.9876651876
 10
-13.5131827343
 20
21.9889888846
  0
LINE
  5
2B0
100
AcDbEntity
  8
SMUSSO
100
AcDbLine
 62
7
  6
CONTINUOUS
 10
-11.1297727465
 20
22.9685561327
 11
-8.2413334034
 21
24.5218653379
  0
LWPOLYLINE
  5
2B1
100
AcDbEntity
  8
ASSI
100
AcDbPolyline
 62
250
  6
CONTINUOUS
 90
20
 70
0
 10
-8.950147716
 20
23.4380816043
 10
-8.959582149
 20
23.4330140992
 10
-8.9691043646
 20
23.4281894476
 10
-8.978714363
 20
23.4236076493
 10
-8.9884162797
 20
23.4192779678
 10
-8.9982059791
 20
23.4151911396
 10
-9.0080710543
 20
23.411319375
 10
-9.0180067441
 20
23.4076606032
 10
-9.0280178097
 20
23.404216895
 10
-9.0381061273
 20
23.4009666733
 10
-9.0482680554
 20
23.3979076416
 10
-9.0585072356
 20
23.3950420965
 10
-9.0688364686
 20
23.3923553502
 10
-9.079253425
 20
23.3898448736
 10
-9.0897604342
 20
23.3875131958
 10
-9.1003772856
 20
23.3853532162
 10
-9.111101876
 20
23.3833623137
 10
-9.1219363085
 20
23.3815431093
 10
-9.1329066819
 20
23.3798963654
 10
-9.1439973149
 20
23.3784196496
  0
LINE
  5
2B2
100
AcDbEntity
  8
DRAFT
100
AcDbLine
 62
7
  6
CONTINUOUS
 10
-15.7839719412
 20
21.9385188462
 11
-15.9969690473
 21
21.8250542181
  0
LWPOLYLINE
  5
2B3
100
AcDbEntity
  8
ASSI
100
AcDbPolyline
 62
250
  6
CONTINUOUS
 90
8
 70
0
 10
-13.7370719556
 20
21.9544402335
 10
-13.7335402411
 20
21.9562685183
 10
-13.7201937514
 20
21.9609730672
 10
-13.7056181909
 20
21.9629113436
 10
-13.6900360596
 20
21.9620537056
 10
-13.6736852166
 20
21.9584132044
 10
-13.6568152433
 20
21.9520453702
 10
-13.639683661
 20
21.9430473687
  0
LINE
  5
2B4
100
AcDbEntity
  8
ASSI
100
AcDbLine
 62
250
  6
CONTINUOUS
 10
-8.5595120482
 20
23.7214081393
 11
-8.5630453003
 21
23.7195791178
  0
LWPOLYLINE
  5
2B5
100
AcDbEntity
  8
ASSI
100
AcDbPolyline
 62
250
  6
CONTINUOUS
 90
8
 70
0
 10
-14.5217494661
 20
20.770719118
 10
-14.5182252868
 20
20.7725430949
 10
-14.504878723
 20
20.7772473294
 10
-14.4903032154
 20
20.7791853125
 10
-14.474721256
 20
20.7783274564
 10
-14.4583706981
 20
20.7746868526
 10
-14.4415011247
 20
20.7683190703
 10
-14.4243700437
 20
20.7593213079
  0
LWPOLYLINE
  5
2B6
100
AcDbEntity
  8
ASSI
100
AcDbPolyline
 62
250
  6
CONTINUOUS
 90
8
 70
0
 10
-9.0475302038
 20
23.449477706
 10
-9.0440026464
 20
23.4513035532
 10
-9.0306560753
 20
23.4560077513
 10
-9.0160805758
 20
23.457945701
 10
-9.0004986378
 20
23.4570878204
 10
-8.9841481134
 20
23.4534472049
 10
-8.9672785862
 20
23.4470794275
 10
-8.9501475624
 20
23.4380816899
  0
LWPOLYLINE
  5
2B7
100
AcDbEntity
  8
ASSI
100
AcDbPolyline
 62
250
  6
CONTINUOUS
 90
8
 70
0
 10
-9.9652774085
 20
22.9378313795
 10
-9.9618811795
 20
22.9395842279
 10
-9.9485346097
 20
22.9442884214
 10
-9.9339591122
 20
22.9462263675
 10
-9.9183771768
 20
22.9453684845
 10
-9.9020266557
 20
22.9417278681
 10
-9.8851571322
 20
22.9353600915
 10
-9.8680261123
 20
22.9263623565
  0
LWPOLYLINE
  5
2B8
100
AcDbEntity
  8
ASSI
100
AcDbPolyline
 62
250
  6
CONTINUOUS
 90
8
 70
0
 10
-16.5141869839
 20
20.2569400955
 10
-16.5104337641
 20
20.2588733251
 10
-16.4970123005
 20
20.2635401479
 10
-16.4823580105
 20
20.2654195112
 10
-16.4667537106
 20
20.264491076
 10
-16.4504670164
 20
20.2608051839
 10
-16.4337329328
 20
20.254447708
 10
-16.4168067632
 20
20.2455427303
  0
LWPOLYLINE
  5
2B9
100
AcDbEntity
  8
ASSI
100
AcDbPolyline
 62
250
  6
CONTINUOUS
 90
8
 70
0
 10
-11.196406901
 20
22.2514839377
 10
-11.1928694976
 20
22.2533055035
 10
-11.179522928
 20
22.258009701
 10
-11.1649474303
 20
22.2599476506
 10
-11.1493654935
 20
22.2590897703
 10
-11.1330149693
 20
22.2554491551
 10
-11.1161454414
 20
22.2490813776
 10
-11.0990144159
 20
22.240083639
  0
LWPOLYLINE
  5
2BA
100
AcDbEntity
  8
ASSI
100
AcDbPolyline
 62
250
  6
CONTINUOUS
 90
8
 70
0
 10
-13.8781656636
 20
21.8757798535
 10
-13.8746978622
 20
21.8775646602
 10
-13.8613110199
 20
21.8822539466
 10
-13.8466901177
 20
21.8841648504
 10
-13.831092034
 20
21.8832716557
 10
-13.814771628
 20
21.8796076065
 10
-13.7979701369
 20
21.8732446023
 10
-13.780944101
 20
21.8642943592
  0
LWPOLYLINE
  5
2BB
100
AcDbEntity
  8
ASSI
100
AcDbPolyline
 62
250
  6
CONTINUOUS
 90
9
 70
0
 10
-16.4168067631
 20
20.2455427303
 10
-16.4014107689
 20
20.2534616333
 10
-16.3861977152
 20
20.2593453246
 10
-16.3713484478
 20
20.2631238327
 10
-16.3570394528
 20
20.2647522111
 10
-16.3434408813
 20
20.264211057
 10
-16.3307145047
 20
20.2615068034
 10
-16.3190116257
 20
20.2566716347
 10
-16.316801931
 20
20.2554509659
  0
LINE
  5
2BC
100
AcDbEntity
  8
DRAFT
100
AcDbLine
 62
7
  6
CONTINUOUS
 10
-8.3770963761
 20
24.7118387076
 11
-11.0495006997
 21
23.3736831481
  0
LINE
  5
2BD
100
AcDbEntity
  8
ASSI
100
AcDbLine
 62
7
  6
CONTINUOUS
 10
-14.2540618437
 20
21.1664654625
 11
-16.206067312
 21
20.1915141847
  0
LINE
  5
2BE
100
AcDbEntity
  8
DRAFT
100
AcDbLine
 62
7
  6
CONTINUOUS
 10
-15.5179627407
 20
22.0706967985
 11
-15.7839719412
 21
21.9385188462
  0
LWPOLYLINE
  5
2BF
100
AcDbEntity
  8
DRAFT
100
AcDbPolyline
 62
7
  6
CONTINUOUS
 90
3
 70
0
 10
-15.4517957769
 20
22.0756145541
 10
-15.7193993265
 20
21.9447463728
 10
-15.9851657074
 20
21.8042382831
  0
LWPOLYLINE
  5
2C0
100
AcDbEntity
  8
ASSI
100
AcDbPolyline
 62
250
  6
CONTINUOUS
 90
7
 70
0
 10
-16.4367983022
 20
21.9304822718
 10
-16.4185665477
 20
21.9392752287
 10
-16.4006811536
 20
21.9451652971
 10
-16.383441389
 20
21.9480539197
 10
-16.3671357289
 20
21.9478927621
 10
-16.3520369996
 20
21.9446845223
 10
-16.3392616132
 20
21.938990303
  0
LINE
  5
2C1
100
AcDbEntity
  8
ASSI
100
AcDbLine
 62
250
  6
CONTINUOUS
 10
-7.9825146537
 20
24.4106275866
 11
-7.9936874162
 21
24.4053903514
  0
LINE
  5
2C2
100
AcDbEntity
  8
DRAFT
100
AcDbLine
 62
7
  6
CONTINUOUS
 10
-12.8384367488
 20
23.5341841247
 11
-12.9080516811
 21
23.5016253179
  0
LINE
  5
2C3
100
AcDbEntity
  8
DRAFT
100
AcDbLine
 62
7
  6
CONTINUOUS
 10
-12.8603646897
 20
23.4914501153
 11
-12.9142647081
 21
23.4665914762
  0
LINE
  5
2C4
100
AcDbEntity
  8
DRAFT
100
AcDbLine
 62
7
  6
CONTINUOUS
 10
-12.768530426
 20
23.566194083
 11
-12.8384367488
 21
23.5341841247
  0
LINE
  5
2C5
100
AcDbEntity
  8
DRAFT
100
AcDbLine
 62
7
  6
CONTINUOUS
 10
-12.806289746
 20
23.5159817649
 11
-12.8603646897
 21
23.4914501153
  0
LINE
  5
2C6
100
AcDbEntity
  8
DRAFT
100
AcDbLine
 62
7
  6
CONTINUOUS
 10
-12.7520401435
 20
23.5401863056
 11
-12.806289746
 21
23.5159817649
  0
LWPOLYLINE
  5
2C7
100
AcDbEntity
  8
SMUSSO
100
AcDbPolyline
 62
7
  6
CONTINUOUS
 90
4
 70
0
 10
-8.6152352842
 20
25.2367994474
 10
-8.5666608563
 20
25.2582935245
 10
-8.5125678764
 20
25.283613327
 10
-8.4536135478
 20
25.3126890318
  0
LWPOLYLINE
  5
2C8
100
AcDbEntity
  8
DRAFT
100
AcDbPolyline
 62
7
  6
CONTINUOUS
 90
3
 70
0
 10
-12.6278420547
 20
23.628568121
 10
-12.6983327126
 20
23.5976551929
 10
-12.768530426
 20
23.566194083
  0
LWPOLYLINE
  5
2C9
100
AcDbEntity
  8
DRAFT
100
AcDbPolyline
 62
7
  6
CONTINUOUS
 90
3
 70
0
 10
-12.6703401868
 20
23.5758789218
 10
-12.6976169483
 20
23.5640632598
 10
-12.7520401435
 20
23.5401863056
  0
LWPOLYLINE
  5
2CA
100
AcDbEntity
  8
ASSI
100
AcDbPolyline
 62
250
  6
CONTINUOUS
 90
4
 70
0
 10
-11.2666517906
 20
22.1606261758
 10
-11.2128540148
 20
22.1830858526
 10
-11.1569310324
 20
22.2094983995
 10
-11.0990144159
 20
22.240083639
  0
LINE
  5
2CB
100
AcDbEntity
  8
SMUSSO
100
AcDbLine
 62
7
  6
CONTINUOUS
 10
-8.6575757336
 20
25.2191906306
 11
-8.6152352842
 21
25.2367994474
  0
LWPOLYLINE
  5
2CC
100
AcDbEntity
  8
DRAFT
100
AcDbPolyline
 62
7
  6
CONTINUOUS
 90
6
 70
0
 10
-12.2710691926
 20
23.7748780339
 10
-12.3429965998
 20
23.746718015
 10
-12.4146372787
 20
23.7180071476
 10
-12.4859912295
 20
23.6887454317
 10
-12.5570600062
 20
23.6589322006
 10
-12.6278420547
 20
23.628568121
  0
LINE
  5
2CD
100
AcDbEntity
  8
SMUSSO
100
AcDbLine
 62
7
  6
CONTINUOUS
 10
-8.6753085606
 20
25.2124228034
 11
-8.6575757336
 21
25.2191906306
  0
LWPOLYLINE
  5
2CE
100
AcDbEntity
  8
ASSI
100
AcDbPolyline
 62
7
  6
CONTINUOUS
 90
13
 70
0
 10
-12.6703401868
 20
23.5758789218
 10
-12.6245429804
 20
23.5929147583
 10
-12.5768331887
 20
23.6054104741
 10
-12.5272108117
 20
23.6133660693
 10
-12.4754533189
 20
23.6167895674
 10
-12.4217832408
 20
23.6156729448
 10
-12.3668681691
 20
23.6099921305
 10
-12.3106871466
 20
23.599662958
 10
-12.2532611304
 20
23.5847695938
 10
-12.1953205838
 20
23.5655404655
 10
-12.1371089946
 20
23.5420517155
 10
-12.078382875
 20
23.5142272014
 10
-12.019142225
 20
23.4820669232
  0
LWPOLYLINE
  5
2CF
100
AcDbEntity
  8
ASSI
100
AcDbPolyline
 62
250
  6
CONTINUOUS
 90
10
 70
0
 10
-14.3867654621
 20
22.6320470928
 10
-14.3237748498
 20
22.6545069916
 10
-14.2571752157
 20
22.6688986663
 10
-14.1873829979
 20
22.6751346869
 10
-14.1148278236
 20
22.6731826899
 10
-14.0399712272
 20
22.6630553662
 10
-13.9633040363
 20
22.6448114163
 10
-13.8853144937
 20
22.6185682365
 10
-13.8064849266
 20
22.5845000725
 10
-13.7273103211
 20
22.5428274256
  0
LINE
  5
2D0
100
AcDbEntity
  8
RACCORDO
100
AcDbLine
 62
7
  6
CONTINUOUS
 10
-5.4223210484
 20
-7.8344299276
 11
-5.4384873014
 21
-7.8250957357
  0
LWPOLYLINE
  5
2D1
100
AcDbEntity
  8
RACCORDO
100
AcDbPolyline
 62
7
  6
CONTINUOUS
 90
6
 70
0
 10
-5.5979079519
 20
-7.9182106769
 10
-5.6072900173
 20
-7.9124332481
 10
-5.6152004484
 20
-7.9078145161
 10
-5.6253688977
 20
-7.9020695664
 10
-5.6377719525
 20
-7.8949198234
 10
-5.652375855
 20
-7.8861940643
  0
LINE
  5
2D2
100
AcDbEntity
  8
CURVE
100
AcDbLine
 62
250
  6
CONTINUOUS
 10
-14.8516653517
 20
7.043805873
 11
-14.8063546563
 21
6.9169455002
  0
LINE
  5
2D3
100
AcDbEntity
  8
ASSI
100
AcDbLine
 62
7
  6
CONTINUOUS
 10
-12.7820959341
 20
21.541475108
 11
-12.782090236
 21
21.5414130676
  0
LINE
  5
2D4
100
AcDbEntity
  8
0
100
AcDbLine
 62
250
  6
CONTINUOUS
 10
-12.6079958727
 20
21.4473179235
 11
-12.6176851393
 21
21.5540562845
  0
LINE
  5
2D5
100
AcDbEntity
  8
ASSI
100
AcDbLine
 62
7
  6
CONTINUOUS
 10
-12.8672666838
 20
17.4380446362
 11
-12.8734075743
 21
17.5226369359
  0
LWPOLYLINE
  5
2D6
100
AcDbEntity
  8
RACCORDO
100
AcDbPolyline
 62
250
  6
CONTINUOUS
 90
9
 70
0
 10
-10.2010480492
 20
-28.0944040987
 10
-10.1991635548
 20
-28.1354095912
 10
-10.193530186
 20
-28.1738016608
 10
-10.1842080335
 20
-28.2091710676
 10
-10.1712947637
 20
-28.2411443903
 10
-10.1549289936
 20
-28.2693763461
 10
-10.1352928355
 20
-28.2935580631
 10
-10.1126044436
 20
-28.3134323625
 10
-10.097617253
 20
-28.3232086633
  0
LWPOLYLINE
  5
2D7
100
AcDbEntity
  8
ASSI
100
AcDbPolyline
 62
250
  6
CONTINUOUS
 90
9
 70
0
 10
-10.2010480492
 20
-28.0944040987
 10
-10.1991635548
 20
-28.1354095912
 10
-10.193530186
 20
-28.1738016608
 10
-10.1842080335
 20
-28.2091710676
 10
-10.1712947637
 20
-28.2411443903
 10
-10.1549289936
 20
-28.2693763461
 10
-10.1352928355
 20
-28.2935580631
 10
-10.1126044436
 20
-28.3134323625
 10
-10.097617253
 20
-28.3232086633
  0
LINE
  5
2D8
100
AcDbEntity
  8
DRAFT
100
AcDbLine
 62
250
  6
CONTINUOUS
 10
-11.5999956547
 20
23.2400569466
 11
-11.5999956547
 21
23.3874085836
  0
LINE
  5
2D9
100
AcDbEntity
  8
DRAFT
100
AcDbLine
 62
250
  6
CONTINUOUS
 10
-11.0495006997
 20
23.0117238418
 11
-11.0495006997
 21
23.3736831481
  0
LINE
  5
2DA
100
AcDbEntity
  8
RACCORDO
100
AcDbLine
 62
250
  6
CONTINUOUS
 10
-10.2010480492
 20
-28.0944040987
 11
-10.2010480492
 21
14.0573681835
  0
LINE
  5
2DB
100
AcDbEntity
  8
ASSI
100
AcDbLine
 62
250
  6
CONTINUOUS
 10
-10.2010480492
 20
-28.0944040987
 11
-10.2010480492
 21
14.0573681835
  0
LINE
  5
2DC
100
AcDbEntity
  8
ASSI
100
AcDbLine
 62
7
  6
CONTINUOUS
 10
-9.9857494802
 20
23.0647708627
 11
-9.9857494802
 21
22.9324858146
  0
LINE
  5
2DD
100
AcDbEntity
  8
RACCORDO
100
AcDbLine
 62
250
  6
CONTINUOUS
 10
-9.5033173708
 20
-28.0996778374
 11
-9.5033173708
 21
14.0520944448
  0
LINE
  5
2DE
100
AcDbEntity
  8
ASSI
100
AcDbLine
 62
250
  6
CONTINUOUS
 10
-9.5033173708
 20
-28.0996778374
 11
-9.5033173708
 21
14.0520944448
  0
LINE
  5
2DF
100
AcDbEntity
  8
RACCORDO
100
AcDbLine
 62
7
  6
CONTINUOUS
 10
-9.4938200726
 20
-28.0947539074
 11
-9.4938200726
 21
14.0575780387
  0
LINE
  5
2E0
100
AcDbEntity
  8
ASSI
100
AcDbLine
 62
7
  6
CONTINUOUS
 10
-9.4938200726
 20
-28.0947539074
 11
-9.4938200726
 21
14.0575780387
  0
LINE
  5
2E1
100
AcDbEntity
  8
ASSI
100
AcDbLine
 62
250
  6
CONTINUOUS
 10
-9.9580734342
 20
22.9422006976
 11
-9.9573100367
 21
22.9687948205
  0
LWPOLYLINE
  5
2E2
100
AcDbEntity
  8
RACCORDO
100
AcDbPolyline
 62
250
  6
CONTINUOUS
 90
16
 70
0
 10
-10.2010480492
 20
14.0573681835
 10
-10.1991638144
 20
14.1005468013
 10
-10.1935311932
 20
14.1454410552
 10
-10.184210222
 20
14.1915724247
 10
-10.1712984369
 20
14.2384550285
 10
-10.1549344226
 20
14.2855833873
 10
-10.1353005159
 20
14.332437757
 10
-10.1126154348
 20
14.3785081759
 10
-10.0871193343
 20
14.4233172832
 10
-10.0590752708
 20
14.466406159
 10
-10.028736103
 20
14.507373994
 10
-9.9964640952
 20
14.5457202216
 10
-9.9627399491
 20
14.580902674
 10
-9.9279839536
 20
14.6125473148
 10
-9.8925284997
 20
14.6404134207
 10
-9.8567496075
 20
14.6642570351
  0
LWPOLYLINE
  5
2E3
100
AcDbEntity
  8
ASSI
100
AcDbPolyline
 62
250
  6
CONTINUOUS
 90
16
 70
0
 10
-10.2010480492
 20
14.0573681835
 10
-10.1991638144
 20
14.1005468013
 10
-10.1935311932
 20
14.1454410552
 10
-10.184210222
 20
14.1915724247
 10
-10.1712984369
 20
14.2384550285
 10
-10.1549344226
 20
14.2855833873
 10
-10.1353005159
 20
14.332437757
 10
-10.1126154348
 20
14.3785081759
 10
-10.0871193343
 20
14.4233172832
 10
-10.0590752708
 20
14.466406159
 10
-10.028736103
 20
14.507373994
 10
-9.9964640952
 20
14.5457202216
 10
-9.9627399491
 20
14.580902674
 10
-9.9279839536
 20
14.6125473148
 10
-9.8925284997
 20
14.6404134207
 10
-9.8567496075
 20
14.6642570351
  0
LWPOLYLINE
  5
2E4
100
AcDbEntity
  8
ASSI
100
AcDbPolyline
 62
7
  6
CONTINUOUS
 90
19
 70
0
 10
-9.9857494761
 20
23.0647708627
 10
-9.9834968716
 20
23.1014691774
 10
-9.9765449705
 20
23.1386403656
 10
-9.9646586324
 20
23.1757311329
 10
-9.9477176726
 20
23.2121251171
 10
-9.9256784901
 20
23.2472799468
 10
-9.8984295959
 20
23.2808383182
 10
-9.8654313352
 20
23.312785364
 10
-9.8270603929
 20
23.3421574599
 10
-9.7848544335
 20
23.3677166216
 10
-9.7391803827
 20
23.38944941
 10
-9.6901859864
 20
23.4073780388
 10
-9.6397038983
 20
23.421033584
 10
-9.5887408841
 20
23.4305223241
 10
-9.5371172144
 20
23.4361478882
 10
-9.4852522518
 20
23.4379869286
 10
-9.4335598272
 20
23.4360883844
 10
-9.3823469416
 20
23.4304618926
 10
-9.3319703365
 20
23.421073321
  0
LINE
  5
2E5
100
AcDbEntity
  8
ASSI
100
AcDbLine
 62
250
  6
CONTINUOUS
 10
-9.9573100298
 20
22.9687948163
 11
-9.9556963286
 21
22.9904373684
  0
LWPOLYLINE
  5
2E6
100
AcDbEntity
  8
ASSI
100
AcDbPolyline
 62
250
  6
CONTINUOUS
 90
10
 70
0
 10
-7.6305293584
 20
19.6945207578
 10
-7.6339574872
 20
19.6763435559
 10
-7.6360055203
 20
19.6582405062
 10
-7.6366558009
 20
19.6403733276
 10
-7.6359032778
 20
19.6229018686
 10
-7.6337552277
 20
19.6059816178
 10
-7.6302309903
 20
19.5897624535
 10
-7.6253622835
 20
19.5743887038
 10
-7.6191930952
 20
19.5599977204
 10
-7.6117788426
 20
19.5467176892
  0
LWPOLYLINE
  5
2E7
100
AcDbEntity
  8
ASSI
100
AcDbPolyline
 62
250
  6
CONTINUOUS
 90
13
 70
0
 10
-9.6748457101
 20
19.5881630756
 10
-9.6700719983
 20
19.6119683275
 10
-9.6675613333
 20
19.6364134891
 10
-9.6673521073
 20
19.6611250356
 10
-9.6694475467
 20
19.6857253679
 10
-9.6738156606
 20
19.7098385711
 10
-9.6803897255
 20
19.7330961601
 10
-9.68906931
 20
19.7551427318
 10
-9.6997218037
 20
19.7756413741
 10
-9.7121844338
 20
19.7942788105
 10
-9.7262667668
 20
19.8107702181
 10
-9.7417536236
 20
19.824863575
 10
-9.7584083553
 20
19.8363434953
  0
LWPOLYLINE
  5
2E8
100
AcDbEntity
  8
ASSI
100
AcDbPolyline
 62
250
  6
CONTINUOUS
 90
12
 70
0
 10
-9.9556963286
 20
22.9904373684
 10
-9.9508828327
 20
23.0123664902
 10
-9.9429518977
 20
23.0342069695
 10
-9.9320392179
 20
23.0555851128
 10
-9.9183315092
 20
23.0761351302
 10
-9.9020633189
 20
23.0955053946
 10
-9.8835130043
 20
23.1133644721
 10
-9.8629979635
 20
23.1294067925
 10
-9.8408692123
 20
23.1433578686
 10
-9.8175053788
 20
23.1549789931
 10
-9.7933062253
 20
23.1640713238
 10
-9.7686858064
 20
23.1704792873
  0
LWPOLYLINE
  5
2E9
100
AcDbEntity
  8
ASSI
100
AcDbPolyline
 62
250
  6
CONTINUOUS
 90
13
 70
0
 10
-10.4382510778
 20
18.6808636703
 10
-10.4428761152
 20
18.6635992379
 10
-10.44843061
 20
18.6468135832
 10
-10.4548249033
 20
18.6306159593
 10
-10.4618965344
 20
18.6152183418
 10
-10.4696162509
 20
18.6005848994
 10
-10.4781377748
 20
18.5864765899
 10
-10.4874598704
 20
18.5729253204
 10
-10.4974742343
 20
18.5601422028
 10
-10.5082118938
 20
18.548212767
 10
-10.5196317906
 20
18.5372624982
 10
-10.5316133884
 20
18.5274396372
 10
-10.5440587488
 20
18.5188781979
  0
LINE
  5
2EA
100
AcDbEntity
  8
ASSI
100
AcDbLine
 62
250
  6
CONTINUOUS
 10
-9.9010600161
 20
19.4778838563
 11
-10.172444832
 21
18.6042545886
  0
LWPOLYLINE
  5
2EB
100
AcDbEntity
  8
ASSI
100
AcDbPolyline
 62
250
  6
CONTINUOUS
 90
13
 70
0
 10
-10.172444832
 20
18.6042545886
 10
-10.1840971175
 20
18.5706108067
 10
-10.1971210568
 20
18.5382520034
 10
-10.2115166497
 20
18.507178179
 10
-10.2272806573
 20
18.47740577
 10
-10.2444163186
 20
18.4489183397
 10
-10.262933351
 20
18.4216665781
 10
-10.2829214387
 20
18.3954155005
 10
-10.3042908975
 20
18.3704000916
 10
-10.3267823921
 20
18.3472759951
 10
-10.3503094774
 20
18.3262617589
 10
-10.3749585985
 20
18.3071388352
 10
-10.4007297555
 20
18.2899072239
  0
LINE
  5
2EC
100
AcDbEntity
  8
ASSI
100
AcDbLine
 62
7
  6
CONTINUOUS
 10
-6.6323416472
 20
21.7021258674
 11
-6.1623213878
 21
22.3020552476
  0
LINE
  5
2ED
100
AcDbEntity
  8
ASSI
100
AcDbLine
 62
250
  6
CONTINUOUS
 10
-6.5423560199
 20
21.6501692939
 11
-6.053914758
 21
22.2736110661
  0
LWPOLYLINE
  5
2EE
100
AcDbEntity
  8
ASSI
100
AcDbPolyline
 62
250
  6
CONTINUOUS
 90
10
 70
0
 10
-7.5273025847
 20
19.6493741288
 10
-7.5410472694
 20
19.6333563735
 10
-7.5526771375
 20
19.6166699264
 10
-7.5620355682
 20
19.5995394496
 10
-7.5689965246
 20
19.5821955773
 10
-7.5734662393
 20
19.5648718478
 10
-7.5753844933
 20
19.547801558
 10
-7.5747254385
 20
19.5312145707
 10
-7.57149793
 20
19.515334221
 10
-7.5673873947
 20
19.503949492
  0
LINE
  5
2EF
100
AcDbEntity
  8
CURVE
100
AcDbLine
 62
7
  6
CONTINUOUS
 10
-19.0845099898
 20
9.9181395768
 11
-18.2418200019
 21
10.7608295647
  0
LINE
  5
2F0
100
AcDbEntity
  8
CURVE
100
AcDbLine
 62
7
  6
CONTINUOUS
 10
-18.5382439453
 20
10.0443841932
 11
-17.6955102327
 21
10.8871179059
  0
LINE
  5
2F1
100
AcDbEntity
  8
CURVE
100
AcDbLine
 62
7
  6
CONTINUOUS
 10
-17.9919779009
 20
10.1706288097
 11
-17.4783586321
 21
10.6842480785
  0
LINE
  5
2F2
100
AcDbEntity
  8
CURVE
100
AcDbLine
 62
7
  6
CONTINUOUS
 10
-17.5740636406
 20
10.168521642
 11
-17.3023184834
 21
10.4402667991
  0
LINE
  5
2F3
100
AcDbEntity
  8
CURVE
100
AcDbLine
 62
7
  6
CONTINUOUS
 10
-17.3980189668
 20
9.9245448877
 11
-17.1262783348
 21
10.1962855198
  0
LINE
  5
2F4
100
AcDbEntity
  8
CURVE
100
AcDbLine
 62
7
  6
CONTINUOUS
 10
-17.221974293
 20
9.6805681335
 11
-16.9502381861
 21
9.9523042404
  0
LINE
  5
2F5
100
AcDbEntity
  8
CURVE
100
AcDbLine
 62
7
  6
CONTINUOUS
 10
-17.0459296192
 20
9.4365913793
 11
-16.7741980374
 21
9.708322961
  0
LINE
  5
2F6
100
AcDbEntity
  8
CURVE
100
AcDbLine
 62
7
  6
CONTINUOUS
 10
-16.8698849454
 20
9.1926146251
 11
-16.5981578888
 21
9.4643416817
  0
LINE
  5
2F7
100
AcDbEntity
  8
CURVE
100
AcDbLine
 62
7
  6
CONTINUOUS
 10
-16.6938402716
 20
8.9486378708
 11
-16.4221177401
 21
9.2203604023
  0
LINE
  5
2F8
100
AcDbEntity
  8
CURVE
100
AcDbLine
 62
7
  6
CONTINUOUS
 10
-16.5177955978
 20
8.7046611166
 11
-16.2460775914
 21
8.9763791229
  0
LINE
  5
2F9
100
AcDbEntity
  8
CURVE
100
AcDbLine
 62
7
  6
CONTINUOUS
 10
-16.341750924
 20
8.4606843624
 11
-16.0700374428
 21
8.7323978436
  0
LINE
  5
2FA
100
AcDbEntity
  8
CURVE
100
AcDbLine
 62
7
  6
CONTINUOUS
 10
-16.1657062502
 20
8.2167076081
 11
-15.8939972941
 21
8.4884165642
  0
LWPOLYLINE
  5
2FB
100
AcDbEntity
  8
ASSI
100
AcDbPolyline
 62
250
  6
CONTINUOUS
 90
7
 70
0
 10
-5.0773405678
 20
21.0241951536
 10
-5.0740016372
 20
21.0273174936
 10
-5.0704740066
 20
21.0304047452
 10
-5.0667391018
 20
21.0334644471
 10
-5.0627876463
 20
21.0364940167
 10
-5.0586222351
 20
21.0394817278
 10
-5.0542406669
 20
21.0424198839
  0
LWPOLYLINE
  5
2FC
100
AcDbEntity
  8
ASSI
100
AcDbPolyline
 62
250
  6
CONTINUOUS
 90
10
 70
0
 10
-6.1623191246
 20
22.3020581354
 10
-6.1575858498
 20
22.3057910548
 10
-6.1508194658
 20
22.3077076014
 10
-6.1420291029
 20
22.30787477
 10
-6.1313146041
 20
22.3062933203
 10
-6.1187948886
 20
22.3029829836
 10
-6.1046245042
 20
22.297988263
 10
-6.0889704456
 20
22.2913735061
 10
-6.0720042005
 20
22.2832161254
 10
-6.053914758
 20
22.2736110661
  0
LWPOLYLINE
  5
2FD
100
AcDbEntity
  8
ASSI
100
AcDbPolyline
 62
7
  6
CONTINUOUS
 90
7
 70
0
 10
-7.4939339596
 20
18.3985113284
 10
-7.5048987768
 20
18.390365493
 10
-7.5143461445
 20
18.3817198324
 10
-7.5223379862
 20
18.3725018803
 10
-7.5288123785
 20
18.3627841028
 10
-7.5335835512
 20
18.3527838984
 10
-7.5361805788
 20
18.3439629347
  0
LWPOLYLINE
  5
2FE
100
AcDbEntity
  8
ASSI
100
AcDbPolyline
 62
250
  6
CONTINUOUS
 90
10
 70
0
 10
-10.0443899072
 20
19.7068547977
 10
-10.0608079198
 20
19.6962711077
 10
-10.0770039083
 20
19.683622272
 10
-10.0927588498
 20
19.6690793441
 10
-10.1078596857
 20
19.6528389914
 10
-10.1221022029
 20
19.6351208366
 10
-10.1352937953
 20
19.6161644874
 10
-10.147256069
 20
19.5962262959
 10
-10.1578272545
 20
19.5755758917
 10
-10.1668643943
 20
19.5544925361
  0
LWPOLYLINE
  5
2FF
100
AcDbEntity
  8
ASSI
100
AcDbPolyline
 62
250
  6
CONTINUOUS
 90
10
 70
0
 10
-5.9686115891
 20
22.3501795275
 10
-5.9784567031
 20
22.3439794072
 10
-5.9882897673
 20
22.3371493253
 10
-5.9980795638
 20
22.3297054482
 10
-6.0078037513
 20
22.3216582587
 10
-6.0174211311
 20
22.3130352558
 10
-6.0268731725
 20
22.3038860462
 10
-6.03612109
 20
22.2942491478
 10
-6.0451445167
 20
22.2841467792
 10
-6.053914758
 20
22.2736110661
  0
LWPOLYLINE
  5
300
100
AcDbEntity
  8
ASSI
100
AcDbPolyline
 62
250
  6
CONTINUOUS
 90
47
 70
0
 10
-8.0117258885
 20
19.5976321171
 10
-8.0229133334
 20
19.5905950375
 10
-8.0343123849
 20
19.5833270282
 10
-8.0459099513
 20
19.575815113
 10
-8.0578353946
 20
19.5678522333
 10
-8.0700497216
 20
19.5595068593
 10
-8.0825919254
 20
19.5507105207
 10
-8.0957083473
 20
19.5410507481
 10
-8.1095664088
 20
19.5304441463
 10
-8.1239986884
 20
19.5189741104
 10
-8.1387492632
 20
19.5064783562
 10
-8.1540130548
 20
19.4927136492
 10
-8.1695951416
 20
19.4779232239
 10
-8.1846548369
 20
19.4626744994
 10
-8.1990301075
 20
19.4469813604
 10
-8.2128829866
 20
19.4308299222
 10
-8.2258588863
 20
19.4147459488
 10
-8.2377930483
 20
19.3988853711
 10
-8.2488502309
 20
19.3830922582
 10
-8.2591701212
 20
19.3674245822
 10
-8.2687717153
 20
19.3518678261
 10
-8.2776360171
 20
19.3364365069
 10
-8.2858457248
 20
19.3212321478
 10
-8.2934043508
 20
19.3062514725
 10
-8.3003083827
 20
19.2914977572
 10
-8.3066299818
 20
19.277082354
 10
-8.3123605532
 20
19.2630338564
 10
-8.3175086918
 20
19.2493236709
 10
-8.3221723442
 20
19.2359773683
 10
-8.3263535533
 20
19.2230124952
 10
-8.3300502762
 20
19.210411505
 10
-8.3333543308
 20
19.1981473286
 10
-8.3362721291
 20
19.1862295691
 10
-8.338797259
 20
19.1746486233
 10
-8.3410023022
 20
19.163348613
 10
-8.3428950719
 20
19.1523359975
 10
-8.3444677549
 20
19.1416043174
 10
-8.3457694934
 20
19.131078316
 10
-8.3468088864
 20
19.1207484764
 10
-8.3475773349
 20
19.1106243155
 10
-8.3480981831
 20
19.1006591271
 10
-8.3483806579
 20
19.090878785
 10
-8.3484155325
 20
19.0812574154
 10
-8.3481984707
 20
19.0716706907
 10
-8.3477280272
 20
19.0620771681
 10
-8.3470056475
 20
19.0525182903
 10
-8.3460313314
 20
19.0429940573
  0
LINE
  5
301
100
AcDbEntity
  8
ASSI
100
AcDbLine
 62
7
  6
CONTINUOUS
 10
-6.097017805
 20
22.3605008538
 11
-5.3526099555
 21
22.8208538343
  0
LINE
  5
302
100
AcDbEntity
  8
ASSI
100
AcDbLine
 62
250
  6
CONTINUOUS
 10
-5.9686115891
 20
22.3501795275
 11
-5.2254580475
 21
22.8097568252
  0
LINE
  5
303
100
AcDbEntity
  8
ASSI
100
AcDbLine
 62
250
  6
CONTINUOUS
 10
-5.0695026299
 20
21.0019734468
 11
-5.0530098257
 21
21.0121615945
  0
LINE
  5
304
100
AcDbEntity
  8
ASSI
100
AcDbLine
 62
250
  6
CONTINUOUS
 10
-7.9897779072
 20
19.611142689
 11
-8.0117258885
 21
19.5976321171
  0
LWPOLYLINE
  5
305
100
AcDbEntity
  8
ASSI
100
AcDbPolyline
 62
250
  6
CONTINUOUS
 90
3
 70
0
 10
-7.9569113878
 20
19.6310083611
 10
-7.9678370157
 20
19.6244622459
 10
-7.9897779072
 20
19.611142689
  0
LWPOLYLINE
  5
306
100
AcDbEntity
  8
ASSI
100
AcDbPolyline
 62
250
  6
CONTINUOUS
 90
10
 70
0
 10
-8.3460313299
 20
19.0429940566
 10
-8.3290609321
 20
19.0531634462
 10
-8.3103878423
 20
19.0623108094
 10
-8.2902636796
 20
19.0703128855
 10
-8.2689596165
 20
19.0770618466
 10
-8.2467627248
 20
19.0824667502
 10
-8.2239721071
 20
19.0864547653
 10
-8.2008948668
 20
19.0889721533
 10
-8.1778419692
 20
19.0899849922
 10
-8.1551240516
 20
19.0894796338
  0
LINE
  5
307
100
AcDbEntity
  8
RACCORDO
100
AcDbLine
 62
7
  6
CONTINUOUS
 10
-6.6415050157
 20
21.7074166815
 11
-6.6164422542
 21
21.7224197011
  0
LINE
  5
308
100
AcDbEntity
  8
ASSI
100
AcDbLine
 62
250
  6
CONTINUOUS
 10
-9.9079944812
 20
19.7884168053
 11
-10.0443899072
 21
19.7068547977
  0
LINE
  5
309
100
AcDbEntity
  8
ASSI
100
AcDbLine
 62
250
  6
CONTINUOUS
 10
-12.5651539635
 20
18.0216466764
 11
-13.0143125685
 21
17.7530579219
  0
LINE
  5
30A
100
AcDbEntity
  8
ASSI
100
AcDbLine
 62
250
  6
CONTINUOUS
 10
-9.7646645901
 20
19.559445864
 11
-9.9010600161
 21
19.4778838563
  0
LINE
  5
30B
100
AcDbEntity
  8
ASSI
100
AcDbLine
 62
250
  6
CONTINUOUS
 10
-12.4218240724
 20
17.792675735
 11
-12.8734075743
 21
17.5226369359
  0
LINE
  5
30C
100
AcDbEntity
  8
ASSI
100
AcDbLine
 62
250
  6
CONTINUOUS
 10
-10.5440591777
 20
18.5188784456
 11
-12.1535137524
 21
17.5564536034
  0
LINE
  5
30D
100
AcDbEntity
  8
ASSI
100
AcDbLine
 62
250
  6
CONTINUOUS
 10
-10.4007297555
 20
18.2899072239
 11
-12.0101838613
 21
17.327482662
  0
LINE
  5
30E
100
AcDbEntity
  8
ASSI
100
AcDbLine
 62
250
  6
CONTINUOUS
 10
-6.08383717
 20
20.7414192929
 11
-7.2724303717
 21
20.0306619702
  0
LINE
  5
30F
100
AcDbEntity
  8
ASSI
100
AcDbLine
 62
250
  6
CONTINUOUS
 10
-5.1975707551
 20
21.2713906434
 11
-4.7297658355
 21
21.551129558
  0
LINE
  5
310
100
AcDbEntity
  8
ASSI
100
AcDbLine
 62
250
  6
CONTINUOUS
 10
-5.9405074272
 20
20.5124482629
 11
-7.1291004806
 21
19.8016910288
  0
LINE
  5
311
100
AcDbEntity
  8
ASSI
100
AcDbLine
 62
250
  6
CONTINUOUS
 10
-5.0542406436
 20
21.0424198338
 11
-4.5864359444
 21
21.3221586167
  0
LWPOLYLINE
  5
312
100
AcDbEntity
  8
ASSI
100
AcDbPolyline
 62
250
  6
CONTINUOUS
 90
7
 70
0
 10
-7.5058565068
 20
19.5454034687
 10
-7.521042947
 20
19.5363436605
 10
-7.5340933769
 20
19.5265209352
 10
-7.5448319434
 20
19.516067655
 10
-7.5531139456
 20
19.5051246799
 10
-7.5588277856
 20
19.493839466
 10
-7.5603382777
 20
19.4881909622
  0
LINE
  5
313
100
AcDbEntity
  8
RACCORDO
100
AcDbLine
 62
250
  6
CONTINUOUS
 10
-1.2054772866
 20
22.6857748803
 11
0.6197522866
 21
23.75819537
  0
LWPOLYLINE
  5
314
100
AcDbEntity
  8
ASSI
100
AcDbPolyline
 62
250
  6
CONTINUOUS
 90
13
 70
0
 10
-4.5864359444
 20
21.3221586167
 10
-4.5821972047
 20
21.3246420244
 10
-4.5779261936
 20
21.3270287316
 10
-4.573622911
 20
21.3293187383
 10
-4.5693028538
 20
21.3315091173
 10
-4.5649505251
 20
21.3336027959
 10
-4.5605194345
 20
21.3356085557
 10
-4.5560060908
 20
21.3375334293
 10
-4.551413985
 20
21.3393703842
 10
-4.5467071004
 20
21.3411071046
 10
-4.5418734313
 20
21.3427394854
 10
-4.5369249834
 20
21.3442716318
 10
-4.5318617566
 20
21.3457035438
  0
LWPOLYLINE
  5
315
100
AcDbEntity
  8
ASSI
100
AcDbPolyline
 62
250
  6
CONTINUOUS
 90
10
 70
0
 10
-5.9373509804
 20
20.4833415493
 10
-5.9186760065
 20
20.4941830768
 10
-5.8979927567
 20
20.5037918325
 10
-5.8756344532
 20
20.5120130124
 10
-5.8519613048
 20
20.5187141674
 10
-5.8273547032
 20
20.5237873369
 10
-5.8022110787
 20
20.5271507887
 10
-5.7769355134
 20
20.528750335
 10
-5.7519352151
 20
20.528560206
 10
-5.7276129568
 20
20.526583465
  0
LINE
  5
316
100
AcDbEntity
  8
ASSI
100
AcDbLine
 62
7
  6
CONTINUOUS
 10
-5.2200463259
 20
21.7863355175
 11
-5.2200094925
 21
21.7863568003
  0
LINE
  5
317
100
AcDbEntity
  8
0
100
AcDbLine
 62
7
  6
CONTINUOUS
 10
-1.8895367784
 20
25.2230989997
 11
-1.6806043261
 21
25.3437339791
  0
LINE
  5
318
100
AcDbEntity
  8
0
100
AcDbLine
 62
7
  6
CONTINUOUS
 10
-1.6834467804
 20
25.1041052177
 11
-1.4745143281
 21
25.2247401971
  0
LINE
  5
319
100
AcDbEntity
  8
0
100
AcDbLine
 62
7
  6
CONTINUOUS
 10
-1.048763422
 20
25.0376829443
 11
-1.023519304
 21
25.0522585816
  0
LINE
  5
31A
100
AcDbEntity
  8
ASSI
100
AcDbLine
 62
7
  6
CONTINUOUS
 10
-7.8080888952
 20
20.2920321353
 11
-5.2200094925
 21
21.7863568003
  0
LINE
  5
31B
100
AcDbEntity
  8
ASSI
100
AcDbLine
 62
250
  6
CONTINUOUS
 10
-7.7080156535
 20
20.2821634528
 11
-5.1200046605
 21
21.7764485647
  0
LINE
  5
31C
100
AcDbEntity
  8
0
100
AcDbLine
 62
7
  6
CONTINUOUS
 10
-0.3833979711
 20
24.4743877038
 11
-0.1744655189
 21
24.5950226832
  0
LWPOLYLINE
  5
31D
100
AcDbEntity
  8
ASSI
100
AcDbPolyline
 62
250
  6
CONTINUOUS
 90
13
 70
0
 10
-4.7297658355
 20
21.551129558
 10
-4.7226586993
 20
21.5552320617
 10
-4.7154964259
 20
21.5591869033
 10
-4.7082821322
 20
21.5629888147
 10
-4.7010486975
 20
21.5666183933
 10
-4.6937697405
 20
21.5700859346
 10
-4.6863601883
 20
21.5734240264
 10
-4.6788203653
 20
21.5766224984
 10
-4.6711590561
 20
21.5796665695
 10
-4.6633057546
 20
21.5825687145
 10
-4.6552419637
 20
21.5853171292
 10
-4.6470003717
 20
21.587882544
 10
-4.6385891073
 20
21.5902442232
  0
LWPOLYLINE
  5
31E
100
AcDbEntity
  8
ASSI
100
AcDbPolyline
 62
250
  6
CONTINUOUS
 90
13
 70
0
 10
-7.1291004806
 20
19.8016910288
 10
-7.1638081944
 20
19.7816603385
 10
-7.1981850629
 20
19.7630187897
 10
-7.2322310861
 20
19.7457663826
 10
-7.2659154372
 20
19.7299411932
 10
-7.2992689429
 20
19.7155051453
 10
-7.3323840838
 20
19.7023440107
 10
-7.3652528304
 20
19.6904400091
 10
-7.3978832123
 20
19.6798109208
 10
-7.4303917984
 20
19.6703958578
 10
-7.4628174451
 20
19.6621745242
 10
-7.4951212962
 20
19.6551672161
 10
-7.5273033515
 20
19.6493739333
  0
LWPOLYLINE
  5
31F
100
AcDbEntity
  8
ASSI
100
AcDbPolyline
 62
250
  6
CONTINUOUS
 90
37
 70
0
 10
-6.08383717
 20
20.7414192929
 10
-6.0747160003
 20
20.7466745199
 10
-6.0654923673
 20
20.7516888183
 10
-6.0561662709
 20
20.7564621879
 10
-6.046733016
 20
20.7609854549
 10
-6.0371972978
 20
20.7652677933
 10
-6.0275732015
 20
20.7693367248
 10
-6.017865611
 20
20.7731942229
 10
-6.0080696423
 20
20.7768383141
 10
-5.9981847295
 20
20.7802906005
 10
-5.988214651
 20
20.7835533033
 10
-5.9781556283
 20
20.7866242012
 10
-5.9679957593
 20
20.7895182319
 10
-5.9577375255
 20
20.7922378757
 10
-5.9473784455
 20
20.7947806523
 10
-5.9368991726
 20
20.7971540582
 10
-5.9263019679
 20
20.7993606702
 10
-5.9155845703
 20
20.8013979116
 10
-5.9047208505
 20
20.8032655485
 10
-5.8937266276
 20
20.8049656944
 10
-5.8825860825
 20
20.8064962358
 10
-5.871225628
 20
20.8078505974
 10
-5.8596615539
 20
20.8090352837
 10
-5.8478775704
 20
20.8100437903
 10
-5.8357512204
 20
20.8108500281
 10
-5.8232649126
 20
20.8114645122
 10
-5.8104362384
 20
20.8118767275
 10
-5.7971955153
 20
20.8120290406
 10
-5.7835017832
 20
20.811926753
 10
-5.7693960023
 20
20.8115645631
 10
-5.7549313703
 20
20.810868933
 10
-5.7401134767
 20
20.8098438227
 10
-5.724936732
 20
20.8084852722
 10
-5.7094375661
 20
20.8067078634
 10
-5.693628122
 20
20.8044831235
 10
-5.6774962566
 20
20.8018395254
 10
-5.66104197
 20
20.7987770689
  0
LWPOLYLINE
  5
320
100
AcDbEntity
  8
ASSI
100
AcDbPolyline
 62
7
  6
CONTINUOUS
 90
10
 70
0
 10
-7.808088895
 20
20.2920321354
 10
-7.8196339747
 20
20.2854360759
 10
-7.8808041468
 20
20.2528101289
 10
-7.9407758088
 20
20.2247061279
 10
-7.999126244
 20
20.2012188309
 10
-8.0556680549
 20
20.1823001033
 10
-8.1103423814
 20
20.1678691634
 10
-8.1628860434
 20
20.1579101462
 10
-8.2129100468
 20
20.1523836057
 10
-8.2208582358
 20
20.1518931047
  0
LWPOLYLINE
  5
321
100
AcDbEntity
  8
ASSI
100
AcDbPolyline
 62
250
  6
CONTINUOUS
 90
8
 70
0
 10
-7.8197594133
 20
19.4058269787
 10
-7.8307149778
 20
19.3995757383
 10
-7.8418081654
 20
19.3935252825
 10
-7.8530371004
 20
19.3876542835
 10
-7.8644009202
 20
19.3819498957
 10
-7.8759043378
 20
19.3763813748
 10
-7.8875645191
 20
19.3708998562
 10
-7.8994227612
 20
19.3654841785
  0
LWPOLYLINE
  5
322
100
AcDbEntity
  8
ASSI
100
AcDbPolyline
 62
250
  6
CONTINUOUS
 90
10
 70
0
 10
-7.2724303717
 20
20.0306619702
 10
-7.324374098
 20
20.0011465393
 10
-7.3758108572
 20
19.9751825098
 10
-7.4266212414
 20
19.9527205015
 10
-7.4763438468
 20
19.9338250014
 10
-7.5252371732
 20
19.9182604844
 10
-7.5742424693
 20
19.9057055371
 10
-7.6235709513
 20
19.8962107547
 10
-7.6727410095
 20
19.8899848558
 10
-7.7216146978
 20
19.8871278342
  0
LINE
  5
323
100
AcDbEntity
  8
ASSI
100
AcDbLine
 62
250
  6
CONTINUOUS
 10
-1.9987452931
 20
22.2905658778
 11
-1.2471214723
 21
22.717350605
  0
LINE
  5
324
100
AcDbEntity
  8
ASSI
100
AcDbLine
 62
250
  6
CONTINUOUS
 10
-1.8611736328
 20
22.0694653268
 11
-1.1110658198
 21
22.4953892391
  0
LINE
  5
325
100
AcDbEntity
  8
RACCORDO
100
AcDbLine
 62
7
  6
CONTINUOUS
 10
-0.3806599285
 20
24.2419557921
 11
-2.1497261446
 21
23.2385032305
  0
LWPOLYLINE
  5
326
100
AcDbEntity
  8
ASSI
100
AcDbPolyline
 62
250
  6
CONTINUOUS
 90
7
 70
0
 10
-5.1200046605
 20
21.7764485647
 10
-5.1127845232
 20
21.7805347488
 10
-5.1055362502
 20
21.7844707008
 10
-5.0982629677
 20
21.7882521658
 10
-5.0910016612
 20
21.7918583411
 10
-5.083721734
 20
21.7953032712
 10
-5.0763256635
 20
21.7986273106
  0
LINE
  5
327
100
AcDbEntity
  8
DRAFT
100
AcDbLine
 62
7
  6
CONTINUOUS
 10
-0.6979661344
 20
24.4251644186
 11
-2.4826019274
 21
23.4307015355
  0
LWPOLYLINE
  5
328
100
AcDbEntity
  8
ASSI
100
AcDbPolyline
 62
250
  6
CONTINUOUS
 90
10
 70
0
 10
-12.1535140024
 20
17.5564537478
 10
-12.1662237219
 20
17.549445152
 10
-12.1785361496
 20
17.5441486038
 10
-12.1903695165
 20
17.5404538355
 10
-12.2016764267
 20
17.5382514652
 10
-12.2124040087
 20
17.5373960966
 10
-12.2224893718
 20
17.5377183099
 10
-12.2318740327
 20
17.5390766974
 10
-12.2406126369
 20
17.5413456103
 10
-12.2488092488
 20
17.5444314049
  0
LWPOLYLINE
  5
329
100
AcDbEntity
  8
ASSI
100
AcDbPolyline
 62
250
  6
CONTINUOUS
 90
8
 70
0
 10
-7.8080204855
 20
20.2920716883
 10
-7.8053636911
 20
20.293526257
 10
-7.7916394659
 20
20.2988403485
 10
-7.7765780875
 20
20.3012766864
 10
-7.7604203889
 20
20.3007963134
 10
-7.7434247332
 20
20.2974069106
 10
-7.7258628829
 20
20.2911626751
 10
-7.7080156535
 20
20.2821634528
  0
LWPOLYLINE
  5
32A
100
AcDbEntity
  8
ASSI
100
AcDbPolyline
 62
250
  6
CONTINUOUS
 90
9
 70
0
 10
-6.097017805
 20
22.3605008538
 10
-6.0881285167
 20
22.365280756
 10
-6.0737035558
 20
22.3704506787
 10
-6.0580944445
 20
22.3731827884
 10
-6.0414720212
 20
22.3734474476
 10
-6.0240181127
 20
22.3712418999
 10
-6.0059237805
 20
22.3665903471
 10
-5.9873872751
 20
22.3595438101
 10
-5.9686115891
 20
22.3501795275
  0
LWPOLYLINE
  5
32B
100
AcDbEntity
  8
ASSI
100
AcDbPolyline
 62
250
  6
CONTINUOUS
 90
37
 70
0
 10
-5.9405074404
 20
20.5124482574
 10
-5.9359439457
 20
20.514859096
 10
-5.9313054459
 20
20.5171358915
 10
-5.9266037325
 20
20.5192805367
 10
-5.9218566676
 20
20.5212924286
 10
-5.9170682811
 20
20.5231772378
 10
-5.9122273257
 20
20.5249453075
 10
-5.9073417194
 20
20.5265985022
 10
-5.9024192929
 20
20.5281388721
 10
-5.8974456217
 20
20.5295747466
 10
-5.892426907
 20
20.5309071502
 10
-5.8873692916
 20
20.5321371488
 10
-5.8822557882
 20
20.5332708833
 10
-5.8770911644
 20
20.5343084915
 10
-5.8718803201
 20
20.5352501285
 10
-5.8666045899
 20
20.536099692
 10
-5.8612683113
 20
20.5368563011
 10
-5.8558752544
 20
20.5375191667
 10
-5.8504045048
 20
20.5380899696
 10
-5.8448671803
 20
20.5385662051
 10
-5.8392596685
 20
20.5389467665
 10
-5.8335375677
 20
20.5392317639
 10
-5.827712519
 20
20.5394166882
 10
-5.8217800393
 20
20.5394976674
 10
-5.8156701977
 20
20.5394693384
 10
-5.8093797574
 20
20.5393231281
 10
-5.8029206009
 20
20.5390504483
 10
-5.7962454854
 20
20.5386387848
 10
-5.7893444269
 20
20.5380748046
 10
-5.7822424232
 20
20.5373475737
 10
-5.7749465851
 20
20.5364447905
 10
-5.7674790461
 20
20.5353565938
 10
-5.7598409909
 20
20.5340689089
 10
-5.7520110925
 20
20.5325604393
 10
-5.743995315
 20
20.5308136026
 10
-5.7358272119
 20
20.5288178457
 10
-5.7275315598
 20
20.526560173
  0
LWPOLYLINE
  5
32C
100
AcDbEntity
  8
ASSI
100
AcDbPolyline
 62
250
  6
CONTINUOUS
 90
19
 70
0
 10
-12.0101838613
 20
17.327482662
 10
-12.0361219641
 20
17.3140506914
 10
-12.0608360487
 20
17.3034671795
 10
-12.0843261154
 20
17.2957321265
 10
-12.1066504693
 20
17.2911162847
 10
-12.1277508051
 20
17.2893489017
 10
-12.1474522069
 20
17.2896177199
 10
-12.1656156956
 20
17.2918484315
 10
-12.1823802502
 20
17.2961153443
 10
-12.1979878914
 20
17.3018291247
 10
-12.2124105807
 20
17.3088153454
 10
-12.2256763566
 20
17.3172484338
 10
-12.2381113557
 20
17.327062338
 10
-12.2497866785
 20
17.3380567664
 10
-12.2606312244
 20
17.3504320106
 10
-12.270757829
 20
17.3647228943
 10
-12.280204104
 20
17.3811076918
 10
-12.2889324376
 20
17.3994081288
 10
-12.2969428298
 20
17.4196242051
  0
LWPOLYLINE
  5
32D
100
AcDbEntity
  8
ASSI
100
AcDbPolyline
 62
250
  6
CONTINUOUS
 90
5
 70
0
 10
-7.8715644271
 20
20.2016446744
 10
-7.8332652578
 20
20.2179632101
 10
-7.7930736511
 20
20.2367662953
 10
-7.7513051431
 20
20.2581129437
 10
-7.7080156535
 20
20.2821634528
  0
LWPOLYLINE
  5
32E
100
AcDbEntity
  8
ASSI
100
AcDbPolyline
 62
250
  6
CONTINUOUS
 90
6
 70
0
 10
-5.0763256635
 20
21.7986273106
 10
-5.0688110173
 20
21.8018208693
 10
-5.0611892794
 20
21.8048686731
 10
-5.0533858266
 20
21.807787753
 10
-5.0453808712
 20
21.8105671937
 10
-5.0372085567
 20
21.813175602
  0
LWPOLYLINE
  5
32F
100
AcDbEntity
  8
ASSI
100
AcDbPolyline
 62
250
  6
CONTINUOUS
 90
6
 70
0
 10
-5.2173526978
 20
21.7878113691
 10
-5.2036284725
 20
21.7931254606
 10
-5.1885670941
 20
21.7955617984
 10
-5.1724093956
 20
21.7950814253
 10
-5.15541374
 20
21.7916920226
 10
-5.1378518897
 20
21.785447787
  0
LINE
  5
330
100
AcDbEntity
  8
DRAFT
100
AcDbLine
 62
7
  6
CONTINUOUS
 10
-0.6594415657
 20
24.4395696341
 11
-0.6979661344
 21
24.4251644186
  0
LWPOLYLINE
  5
331
100
AcDbEntity
  8
ASSI
100
AcDbPolyline
 62
7
  6
CONTINUOUS
 90
5
 70
0
 10
-5.1194176032
 20
21.8293172962
 10
-5.1479882522
 20
21.8201352167
 10
-5.1761896815
 20
21.8087430153
 10
-5.2038174563
 20
21.7953037669
 10
-5.2200463259
 20
21.7863355175
  0
LWPOLYLINE
  5
332
100
AcDbEntity
  8
ASSI
100
AcDbPolyline
 62
7
  6
CONTINUOUS
 90
5
 70
0
 10
-8.4631012315
 20
23.7609944763
 10
-8.4873779777
 20
23.7535357235
 10
-8.5140848889
 20
23.7434115261
 10
-8.5408003637
 20
23.7312609282
 10
-8.5630638163
 20
23.719568791
  0
LINE
  5
333
100
AcDbEntity
  8
ASSI
100
AcDbLine
 62
250
  6
CONTINUOUS
 10
-5.0372085567
 20
21.813175602
 11
-5.0288771247
 21
21.815591633
  0
LINE
  5
334
100
AcDbEntity
  8
CURVE
100
AcDbLine
 62
250
  6
CONTINUOUS
 10
-14.852269928
 20
-15.7100764244
 11
-17.5748000341
 21
-16.3394333027
  0
LINE
  5
335
100
AcDbEntity
  8
CURVE
100
AcDbLine
 62
250
  6
CONTINUOUS
 10
-17.6352138233
 20
-15.7054211666
 11
-14.9180428795
 21
-15.0774703592
  0
LINE
  5
336
100
AcDbEntity
  8
RACCORDO
100
AcDbLine
 62
7
  6
CONTINUOUS
 10
-5.3429800885
 20
-3.8799537396
 11
-5.3427664877
 21
-3.8800711526
  0
LINE
  5
337
100
AcDbEntity
  8
RACCORDO
100
AcDbLine
 62
250
  6
CONTINUOUS
 10
-6.3424094456
 20
-5.7174917314
 11
-6.3669975478
 21
-5.7039542758
  0
LWPOLYLINE
  5
338
100
AcDbEntity
  8
RACCORDO
100
AcDbPolyline
 62
7
  6
CONTINUOUS
 90
3
 70
0
 10
-2.9030889927
 20
-7.1898021131
 10
-2.8499833711
 20
-7.2194635513
 10
-2.7908907338
 20
-7.2528977195
  0
LWPOLYLINE
  5
339
100
AcDbEntity
  8
RACCORDO
100
AcDbPolyline
 62
250
  6
CONTINUOUS
 90
34
 70
0
 10
-5.3427664877
 20
-3.8800711526
 10
-5.3376053451
 20
-3.8829677485
 10
-5.3018500475
 20
-3.9064551126
 10
-5.2700869369
 20
-3.933303172
 10
-5.2423371912
 20
-3.9627874263
 10
-5.2182553398
 20
-3.9944904543
 10
-5.1975411054
 20
-4.0280569826
 10
-5.180028364
 20
-4.0629480964
 10
-5.1654433807
 20
-4.0987903449
 10
-5.1534080733
 20
-4.1356423854
 10
-5.1437849537
 20
-4.1730411728
 10
-5.1363416027
 20
-4.2108324349
 10
-5.1307638189
 20
-4.2497680255
 10
-5.1270037533
 20
-4.2896168186
 10
-5.1249881834
 20
-4.3303031569
 10
-5.1246597001
 20
-4.3730439645
 10
-5.1261298717
 20
-4.4178885165
 10
-5.1295475056
 20
-4.4647046592
 10
-5.1352162384
 20
-4.5145921443
 10
-5.1434934583
 20
-4.5679275297
 10
-5.154632101
 20
-4.6242565149
 10
-5.1689166622
 20
-4.6834405966
 10
-5.1868673175
 20
-4.7461266947
 10
-5.2085490147
 20
-4.8112904092
 10
-5.2331790956
 20
-4.8761943732
 10
-5.2605298966
 20
-4.9403871839
 10
-5.2904774737
 20
-5.0037526552
 10
-5.3217792656
 20
-5.0641293183
 10
-5.3536708075
 20
-5.1207889109
 10
-5.3861256862
 20
-5.1742326885
 10
-5.4188108984
 20
-5.2242921785
 10
-5.4511724275
 20
-5.2705596416
 10
-5.4832231929
 20
-5.3134735054
 10
-5.5155838747
 20
-5.3541015931
  0
LINE
  5
33A
100
AcDbEntity
  8
RACCORDO
100
AcDbLine
 62
7
  6
CONTINUOUS
 10
-2.918699764
 20
-7.1809411568
 11
-2.9030889927
 21
-7.1898021131
  0
LINE
  5
33B
100
AcDbEntity
  8
RACCORDO
100
AcDbLine
 62
7
  6
CONTINUOUS
 10
-2.7908907338
 20
-7.2528977195
 11
-2.7292820651
 21
-7.2878757373
  0
LWPOLYLINE
  5
33C
100
AcDbEntity
  8
RACCORDO
100
AcDbPolyline
 62
7
  6
CONTINUOUS
 90
6
 70
0
 10
-2.7292820651
 20
-7.2878757373
 10
-2.7092532666
 20
-7.2993928739
 10
-2.6896313435
 20
-7.3105419627
 10
-2.6706282225
 20
-7.3212035907
 10
-2.6526154474
 20
-7.3314827031
 10
-2.6359001299
 20
-7.3414099444
  0
LINE
  5
33D
100
AcDbEntity
  8
ASSI
100
AcDbLine
 62
7
  6
CONTINUOUS
 10
-6.4603679652
 20
-5.5970736116
 11
-6.344060232
 21
-5.664228239
  0
LINE
  5
33E
100
AcDbEntity
  8
RACCORDO
100
AcDbLine
 62
7
  6
CONTINUOUS
 10
-3.652500952
 20
-6.7572505237
 11
-2.918699764
 21
-7.1809411568
  0
LINE
  5
33F
100
AcDbEntity
  8
DRAFT
100
AcDbLine
 62
7
  6
CONTINUOUS
 10
-6.0591730065
 20
-4.2142417628
 11
-6.029312933
 21
-4.231482595
  0
LINE
  5
340
100
AcDbEntity
  8
DRAFT
100
AcDbLine
 62
7
  6
CONTINUOUS
 10
-5.7185255085
 20
-3.9317284105
 11
-5.6143398532
 21
-3.9918839021
  0
LINE
  5
341
100
AcDbEntity
  8
DRAFT
100
AcDbLine
 62
7
  6
CONTINUOUS
 10
-5.6241569655
 20
-3.8875091149
 11
-5.6000889957
 21
-3.901405659
  0
LINE
  5
342
100
AcDbEntity
  8
RACCORDO
100
AcDbLine
 62
7
  6
CONTINUOUS
 10
-6.3669975478
 20
-5.7039542758
 11
-6.3674454192
 21
-5.7036832082
  0
LINE
  5
343
100
AcDbEntity
  8
RACCORDO
100
AcDbLine
 62
7
  6
CONTINUOUS
 10
-6.3669204971
 20
-5.7040426608
 11
-6.3754943486
 21
-5.6985887975
  0
LWPOLYLINE
  5
344
100
AcDbEntity
  8
RACCORDO
100
AcDbPolyline
 62
7
  6
CONTINUOUS
 90
31
 70
0
 10
-6.3754943486
 20
-5.6985887975
 10
-6.4034688751
 20
-5.6763044832
 10
-6.4284331481
 20
-5.6490099685
 10
-6.4512559321
 20
-5.6153189583
 10
-6.4716612647
 20
-5.5744606377
 10
-6.4887383183
 20
-5.5271286364
 10
-6.5019384955
 20
-5.4741998988
 10
-6.5109868585
 20
-5.4167008414
 10
-6.5158586619
 20
-5.3553279961
 10
-6.5165906796
 20
-5.2903522429
 10
-6.5131709106
 20
-5.2224993721
 10
-6.5055485435
 20
-5.1523283466
 10
-6.4935168057
 20
-5.0792957547
 10
-6.4768439965
 20
-5.003354562
 10
-6.4555504152
 20
-4.9254839998
 10
-6.4297399489
 20
-4.8465045397
 10
-6.3995303955
 20
-4.7670322509
 10
-6.3651037774
 20
-4.6876481161
 10
-6.3268325932
 20
-4.6091039302
 10
-6.2850944812
 20
-4.5320146356
 10
-6.2401790776
 20
-4.4568954523
 10
-6.1924128734
 20
-4.3843160188
 10
-6.1420998246
 20
-4.3148058592
 10
-6.0896002819
 20
-4.2489043613
 10
-6.035395182
 20
-4.1871541853
 10
-5.9799239023
 20
-4.1299491183
 10
-5.9236506666
 20
-4.0776364446
 10
-5.8671485371
 20
-4.0305597015
 10
-5.8109379513
 20
-3.9889045329
 10
-5.7554563287
 20
-3.952709711
 10
-5.7486482731
 20
-3.9486020004
  0
LWPOLYLINE
  5
345
100
AcDbEntity
  8
CURVE
100
AcDbPolyline
 62
250
  6
CONTINUOUS
 90
12
 70
0
 10
-14.9179262068
 20
6.487434473
 10
-14.9058822124
 20
6.4726278292
 10
-14.8925051811
 20
6.4598401521
 10
-14.8785252075
 20
6.4498572581
 10
-14.8644939084
 20
6.4430730489
 10
-14.8509649259
 20
6.4397552134
 10
-14.8386794412
 20
6.4399986173
 10
-14.8276849171
 20
6.4438023202
 10
-14.818645106
 20
6.4510436214
 10
-14.8119166975
 20
6.4614367963
 10
-14.8077651788
 20
6.4745717546
 10
-14.806354341
 20
6.4899591283
  0
LINE
  5
346
100
AcDbEntity
  8
CURVE
100
AcDbLine
 62
250
  6
CONTINUOUS
 10
-14.9179262068
 20
6.487434473
 11
-17.6350964435
 21
10.2531057697
  0
LINE
  5
347
100
AcDbEntity
  8
CURVE
100
AcDbLine
 62
250
  6
CONTINUOUS
 10
-17.5741954578
 20
10.8170722753
 11
-14.8516653517
 21
7.043805873
  0
LWPOLYLINE
  5
348
100
AcDbEntity
  8
RACCORDO
100
AcDbPolyline
 62
7
  6
CONTINUOUS
 90
3
 70
0
 10
-5.5962438157
 20
-7.9193832583
 10
-5.5963214174
 20
-7.9192676244
 10
-5.5979079519
 20
-7.9182106769
  0
LWPOLYLINE
  5
349
100
AcDbEntity
  8
ASSI
100
AcDbPolyline
 62
250
  6
CONTINUOUS
 90
7
 70
0
 10
-12.8959985608
 20
21.6479487579
 10
-12.8930503895
 20
21.6337318767
 10
-12.8875113848
 20
21.6178369012
 10
-12.8792115546
 20
21.6007237871
 10
-12.8681695268
 20
21.5828213074
 10
-12.8541511637
 20
21.5644407589
 10
-12.8366568294
 20
21.5458043408
  0
LWPOLYLINE
  5
34A
100
AcDbEntity
  8
ASSI
100
AcDbPolyline
 62
250
  6
CONTINUOUS
 90
13
 70
0
 10
-12.4218240724
 20
17.792675735
 10
-12.4244782485
 20
17.8141816235
 10
-12.4292940666
 20
17.8363591413
 10
-12.4361953091
 20
17.8588668948
 10
-12.4450727175
 20
17.8813563783
 10
-12.4557887785
 20
17.9034853068
 10
-12.4681819919
 20
17.9249222884
 10
-12.4820813847
 20
17.9453644771
 10
-12.4972581278
 20
17.9644689785
 10
-12.5134194731
 20
17.9818829244
 10
-12.530288338
 20
17.997341891
 10
-12.5476213227
 20
18.0106552414
 10
-12.5651539635
 20
18.0216466764
  0
LWPOLYLINE
  5
34B
100
AcDbEntity
  8
ASSI
100
AcDbPolyline
 62
250
  6
CONTINUOUS
 90
13
 70
0
 10
-12.0101838613
 20
17.327482662
 10
-12.0128238874
 20
17.3489057194
 10
-12.017611487
 20
17.3710042909
 10
-12.0244735784
 20
17.3934410504
 10
-12.0333054141
 20
17.4158735103
 10
-12.0439721788
 20
17.437959248
 10
-12.0563110476
 20
17.4593611334
 10
-12.0701336719
 20
17.479752476
 10
-12.0852290545
 20
17.4988220114
 10
-12.1013667702
 20
17.5162786519
 10
-12.1183004831
 20
17.5318559305
 10
-12.1357717074
 20
17.5453160682
 10
-12.1535137524
 20
17.5564536034
  0
LINE
  5
34C
100
AcDbEntity
  8
ASSI
100
AcDbLine
 62
250
  6
CONTINUOUS
 10
-8.0686176206
 20
18.147849207
 11
-8.0570564055
 21
18.0332460593
  0
LINE
  5
34D
100
AcDbEntity
  8
ASSI
100
AcDbLine
 62
250
  6
CONTINUOUS
 10
-8.0806244973
 20
18.2696992323
 11
-8.0686176206
 21
18.147849207
  0
LINE
  5
34E
100
AcDbEntity
  8
ASSI
100
AcDbLine
 62
250
  6
CONTINUOUS
 10
-8.0930837422
 20
18.3990684393
 11
-8.0806244973
 21
18.2696992323
  0
LWPOLYLINE
  5
34F
100
AcDbEntity
  8
ASSI
100
AcDbPolyline
 62
250
  6
CONTINUOUS
 90
13
 70
0
 10
-10.5222015909
 20
21.7522912382
 10
-10.5242648372
 20
21.7739939704
 10
-10.5285534109
 20
21.7965168295
 10
-10.5349987036
 20
21.8194996504
 10
-10.5434976183
 20
21.8425749143
 10
-10.5539142277
 20
21.865373648
 10
-10.5660819543
 20
21.8875313225
 10
-10.5798062137
 20
21.9086936403
 10
-10.594867541
 20
21.928522234
 10
-10.6110251192
 20
21.9467000906
 10
-10.6280205947
 20
21.9629365703
 10
-10.6455822019
 20
21.9769720611
 10
-10.6634291341
 20
21.9885821564
  0
LWPOLYLINE
  5
350
100
AcDbEntity
  8
ASSI
100
AcDbPolyline
 62
250
  6
CONTINUOUS
 90
13
 70
0
 10
-7.9341905979
 20
23.2465763501
 10
-7.936253771
 20
23.2682785731
 10
-7.9405421964
 20
23.2908010025
 10
-7.9469873018
 20
23.3137835024
 10
-7.9554860292
 20
23.3368585804
 10
-7.9659024831
 20
23.3596572636
 10
-7.9780701034
 20
23.3818149988
 10
-7.9917943286
 20
23.4029774816
 10
-8.0068557071
 20
23.4228063218
 10
-8.0230134057
 20
23.4409844542
 10
-8.0400090613
 20
23.4572212086
 10
-8.0575709117
 20
23.4712569576
 10
-8.0754181411
 20
23.4828672684
  0
LINE
  5
351
100
AcDbEntity
  8
ASSI
100
AcDbLine
 62
250
  6
CONTINUOUS
 10
-8.1060450498
 20
18.5368925124
 11
-8.0930837422
 21
18.3990684393
  0
LINE
  5
352
100
AcDbEntity
  8
ASSI
100
AcDbLine
 62
250
  6
CONTINUOUS
 10
-8.1195096887
 20
18.683641599
 11
-8.1060450498
 21
18.5368925124
  0
LINE
  5
353
100
AcDbEntity
  8
ASSI
100
AcDbLine
 62
250
  6
CONTINUOUS
 10
-8.1334529825
 20
18.8394202324
 11
-8.1195096887
 21
18.683641599
  0
LWPOLYLINE
  5
354
100
AcDbEntity
  8
ASSI
100
AcDbPolyline
 62
250
  6
CONTINUOUS
 90
3
 70
0
 10
-8.1551240516
 20
19.0894796338
 10
-8.1478013387
 20
19.0039278972
 10
-8.1334529825
 20
18.8394202324
  0
LINE
  5
355
100
AcDbEntity
  8
DRAFT
100
AcDbLine
 62
7
  6
CONTINUOUS
 10
-7.3687964805
 20
-3.6716608332
 11
-7.6775972243
 21
0.8989815006
  0
LINE
  5
356
100
AcDbEntity
  8
ASSI
100
AcDbLine
 62
7
  6
CONTINUOUS
 10
-7.3687964805
 20
-3.6716608332
 11
-7.6775972243
 21
0.8989815006
  0
LINE
  5
357
100
AcDbEntity
  8
RACCORDO
100
AcDbLine
 62
250
  6
CONTINUOUS
 10
-9.5033173708
 20
14.0520944448
 11
-9.5061927937
 21
14.0953363268
  0
LINE
  5
358
100
AcDbEntity
  8
ASSI
100
AcDbLine
 62
250
  6
CONTINUOUS
 10
-9.5033173708
 20
14.0520944448
 11
-9.5061927937
 21
14.0953363268
  0
LWPOLYLINE
  5
359
100
AcDbEntity
  8
ASSI
100
AcDbPolyline
 62
250
  6
CONTINUOUS
 90
13
 70
0
 10
-7.6239045256
 20
-21.8566903288
 10
-7.622215172
 20
-21.8896552479
 10
-7.6179239403
 20
-21.9198394088
 10
-7.6110308303
 20
-21.9472428113
 10
-7.6014668249
 20
-21.9719773072
 10
-7.5893009413
 20
-21.9939310447
 10
-7.5747402311
 20
-22.0127684695
 10
-7.5577222724
 20
-22.0285787028
 10
-7.538309487
 20
-22.0412726233
 10
-7.5168961921
 20
-22.0502473123
 10
-7.4936138267
 20
-22.0553017968
 10
-7.4683309518
 20
-22.0566370497
 10
-7.4410475673
 20
-22.0542530711
  0
LWPOLYLINE
  5
35A
100
AcDbEntity
  8
ASSI
100
AcDbPolyline
 62
250
  6
CONTINUOUS
 90
13
 70
0
 10
-7.5058565053
 20
19.5454034679
 10
-7.5064273359
 20
19.5566103456
 10
-7.5072572447
 20
19.5673349208
 10
-7.5083462319
 20
19.5775771933
 10
-7.5097180292
 20
19.587324635
 10
-7.5113489048
 20
19.5965897741
 10
-7.5131676629
 20
19.6054101952
 10
-7.5151720533
 20
19.6137871256
 10
-7.5173643263
 20
19.621719338
 10
-7.519680037
 20
19.6292407348
 10
-7.522097704
 20
19.6363626166
 10
-7.5246388089
 20
19.6430736828
 10
-7.5273033515
 20
19.6493739333
  0
LWPOLYLINE
  5
35B
100
AcDbEntity
  8
ASSI
100
AcDbPolyline
 62
250
  6
CONTINUOUS
 90
5
 70
0
 10
-9.9857494802
 20
23.0647708627
 10
-9.9850356094
 20
23.0493495236
 10
-9.9802395167
 20
23.0220301328
 10
-9.9709697169
 20
22.9950973425
 10
-9.9573100367
 20
22.9687948205
  0
LWPOLYLINE
  5
35C
100
AcDbEntity
  8
ASSI
100
AcDbPolyline
 62
250
  6
CONTINUOUS
 90
13
 70
0
 10
-7.1375695951
 20
16.3979549781
 10
-7.1384921649
 20
16.4202281641
 10
-7.1418805052
 20
16.4435068336
 10
-7.1476781607
 20
16.4673900753
 10
-7.1557877976
 20
16.4914680802
 10
-7.1660707768
 20
16.5153228929
 10
-7.1783476518
 20
16.5385359729
 10
-7.192437467
 20
16.5607511749
 10
-7.2080720744
 20
16.5815334854
 10
-7.2248662858
 20
16.6004047322
 10
-7.2424708159
 20
16.6170452562
 10
-7.2606089241
 20
16.6312618402
 10
-7.2789694122
 20
16.6428666452
  0
LINE
  5
35D
100
AcDbEntity
  8
ASSI
100
AcDbLine
 62
250
  6
CONTINUOUS
 10
-7.502558662
 20
19.4375419387
 11
-7.5058565053
 21
19.5454034679
  0
LINE
  5
35E
100
AcDbEntity
  8
ASSI
100
AcDbLine
 62
250
  6
CONTINUOUS
 10
-7.4994999967
 20
19.3319250414
 11
-7.502558662
 21
19.4375419387
  0
LINE
  5
35F
100
AcDbEntity
  8
ASSI
100
AcDbLine
 62
7
  6
CONTINUOUS
 10
-7.5675252136
 20
-21.7856652203
 11
-7.5677724878
 21
-21.7764565264
  0
LWPOLYLINE
  5
360
100
AcDbEntity
  8
RACCORDO
100
AcDbPolyline
 62
250
  6
CONTINUOUS
 90
15
 70
0
 10
-8.6046539974
 20
14.5048813087
 10
-8.605270482
 20
14.54753657
 10
-8.609386729
 20
14.5913305606
 10
-8.6168653307
 20
14.6357820083
 10
-8.6276139877
 20
14.6806842826
 10
-8.6413994481
 20
14.7253389987
 10
-8.6576672813
 20
14.7685612589
 10
-8.6759508844
 20
14.8098611097
 10
-8.6959398659
 20
14.849104012
 10
-8.7171050406
 20
14.8857650029
 10
-8.7387132795
 20
14.9192143699
 10
-8.7607161882
 20
14.9499554629
 10
-8.783765626
 20
14.9791152792
 10
-8.8076721506
 20
15.0064821124
 10
-8.8323162282
 20
15.0320016073
  0
LWPOLYLINE
  5
361
100
AcDbEntity
  8
ASSI
100
AcDbPolyline
 62
250
  6
CONTINUOUS
 90
15
 70
0
 10
-8.6046539974
 20
14.5048813087
 10
-8.605270482
 20
14.54753657
 10
-8.609386729
 20
14.5913305606
 10
-8.6168653307
 20
14.6357820083
 10
-8.6276139877
 20
14.6806842826
 10
-8.6413994481
 20
14.7253389987
 10
-8.6576672813
 20
14.7685612589
 10
-8.6759508844
 20
14.8098611097
 10
-8.6959398659
 20
14.849104012
 10
-8.7171050406
 20
14.8857650029
 10
-8.7387132795
 20
14.9192143699
 10
-8.7607161882
 20
14.9499554629
 10
-8.783765626
 20
14.9791152792
 10
-8.8076721506
 20
15.0064821124
 10
-8.8323162282
 20
15.0320016073
  0
LWPOLYLINE
  5
362
100
AcDbEntity
  8
ASSI
100
AcDbPolyline
 62
250
  6
CONTINUOUS
 90
11
 70
0
 10
-7.4814564728
 20
18.4061546935
 10
-7.4823150809
 20
18.4871620353
 10
-7.4833769553
 20
18.5708163789
 10
-7.4846420959
 20
18.6571177244
 10
-7.486103874
 20
18.7461386666
 10
-7.4877689184
 20
18.8378066106
 10
-7.4896571155
 20
18.931903772
 10
-7.4917697523
 20
19.0284190845
 10
-7.4941055418
 20
19.1273636143
 10
-7.4966805094
 20
19.2285527761
 10
-7.4994999967
 20
19.3319250414
  0
LWPOLYLINE
  5
363
100
AcDbEntity
  8
RACCORDO
100
AcDbPolyline
 62
7
  6
CONTINUOUS
 90
17
 70
0
 10
-8.5497296593
 20
14.5841469158
 10
-8.5497660136
 20
14.590264463
 10
-8.5521321869
 20
14.6332801028
 10
-8.5581516445
 20
14.6771846087
 10
-8.5677669653
 20
14.7215646023
 10
-8.580683745
 20
14.765403145
 10
-8.5965972173
 20
14.808273003
 10
-8.6154305668
 20
14.8502436341
 10
-8.6369564836
 20
14.8909486379
 10
-8.6610240861
 20
14.9301575169
 10
-8.6875174214
 20
14.9676490569
 10
-8.7162266486
 20
15.0030771046
 10
-8.747223793
 20
15.0363809039
 10
-8.7803168982
 20
15.0671467955
 10
-8.8149029324
 20
15.0946838315
 10
-8.8506871027
 20
15.1187337359
 10
-8.8616603752
 20
15.1252572214
  0
LWPOLYLINE
  5
364
100
AcDbEntity
  8
ASSI
100
AcDbPolyline
 62
7
  6
CONTINUOUS
 90
17
 70
0
 10
-8.5497296593
 20
14.5841469158
 10
-8.5497660136
 20
14.590264463
 10
-8.5521321869
 20
14.6332801028
 10
-8.5581516445
 20
14.6771846087
 10
-8.5677669653
 20
14.7215646023
 10
-8.580683745
 20
14.765403145
 10
-8.5965972173
 20
14.808273003
 10
-8.6154305668
 20
14.8502436341
 10
-8.6369564836
 20
14.8909486379
 10
-8.6610240861
 20
14.9301575169
 10
-8.6875174214
 20
14.9676490569
 10
-8.7162266486
 20
15.0030771046
 10
-8.747223793
 20
15.0363809039
 10
-8.7803168982
 20
15.0671467955
 10
-8.8149029324
 20
15.0946838315
 10
-8.8506871027
 20
15.1187337359
 10
-8.8616603752
 20
15.1252572214
  0
LWPOLYLINE
  5
365
100
AcDbEntity
  8
ASSI
100
AcDbPolyline
 62
250
  6
CONTINUOUS
 90
16
 70
0
 10
-7.6305309787
 20
19.6945210911
 10
-7.6305664227
 20
19.7105169384
 10
-7.631567412
 20
19.726474918
 10
-7.6335274483
 20
19.7422929237
 10
-7.6364339015
 20
19.7578697214
 10
-7.6402680776
 20
19.7731056913
 10
-7.6450053571
 20
19.7879034581
 10
-7.6506153211
 20
19.8021682605
 10
-7.6570620354
 20
19.8158089561
 10
-7.6643043541
 20
19.8287386346
 10
-7.6722955647
 20
19.8408740085
 10
-7.680984843
 20
19.852137989
 10
-7.6903180991
 20
19.8624600453
 10
-7.7002364165
 20
19.8717740617
 10
-7.7106760673
 20
19.8800192603
 10
-7.7215703974
 20
19.8871422381
  0
LINE
  5
366
100
AcDbEntity
  8
DRAFT
100
AcDbLine
 62
7
  6
CONTINUOUS
 10
-9.0214137728
 20
5.119054033
 11
-9.0214137728
 21
1.036702649
  0
LINE
  5
367
100
AcDbEntity
  8
ASSI
100
AcDbLine
 62
7
  6
CONTINUOUS
 10
-9.0214137728
 20
5.119054033
 11
-9.0214137728
 21
1.036702649
  0
LINE
  5
368
100
AcDbEntity
  8
DRAFT
100
AcDbLine
 62
7
  6
CONTINUOUS
 10
-9.0214137728
 20
-14.47623261
 11
-9.0214137728
 21
-18.558583994
  0
LINE
  5
369
100
AcDbEntity
  8
ASSI
100
AcDbLine
 62
7
  6
CONTINUOUS
 10
-9.0214137728
 20
-14.47623261
 11
-9.0214137728
 21
-18.558583994
  0
LINE
  5
36A
100
AcDbEntity
  8
RACCORDO
100
AcDbLine
 62
250
  6
CONTINUOUS
 10
-8.60465441
 20
-27.437265397
 11
-8.60465441
 21
-18.3136366991
  0
LINE
  5
36B
100
AcDbEntity
  8
ASSI
100
AcDbLine
 62
250
  6
CONTINUOUS
 10
-8.60465441
 20
-27.437265397
 11
-8.60465441
 21
-18.3136366991
  0
LINE
  5
36C
100
AcDbEntity
  8
RACCORDO
100
AcDbLine
 62
250
  6
CONTINUOUS
 10
-8.60465441
 20
5.3812524026
 11
-8.60465441
 21
14.5048811005
  0
LINE
  5
36D
100
AcDbEntity
  8
ASSI
100
AcDbLine
 62
250
  6
CONTINUOUS
 10
-8.60465441
 20
5.3812524026
 11
-8.60465441
 21
14.5048811005
  0
LINE
  5
36E
100
AcDbEntity
  8
RACCORDO
100
AcDbLine
 62
7
  6
CONTINUOUS
 10
-8.5497292842
 20
-27.357775936
 11
-8.5497292842
 21
-18.2360880981
  0
LINE
  5
36F
100
AcDbEntity
  8
ASSI
100
AcDbLine
 62
7
  6
CONTINUOUS
 10
-8.5497292842
 20
-27.357775936
 11
-8.5497292842
 21
-18.2360880981
  0
LINE
  5
370
100
AcDbEntity
  8
RACCORDO
100
AcDbLine
 62
7
  6
CONTINUOUS
 10
-8.5497292842
 20
5.4626827236
 11
-8.5497292842
 21
14.5843705784
  0
LINE
  5
371
100
AcDbEntity
  8
ASSI
100
AcDbLine
 62
7
  6
CONTINUOUS
 10
-8.5497292842
 20
5.4626827236
 11
-8.5497292842
 21
14.5843705784
  0
LINE
  5
372
100
AcDbEntity
  8
DRAFT
100
AcDbLine
 62
7
  6
CONTINUOUS
 10
-8.470541342
 20
1.3604739275
 11
-8.470541342
 21
0.4329343426
  0
LINE
  5
373
100
AcDbEntity
  8
ASSI
100
AcDbLine
 62
7
  6
CONTINUOUS
 10
-8.470541342
 20
1.3604739275
 11
-8.470541342
 21
0.4329343426
  0
LINE
  5
374
100
AcDbEntity
  8
DRAFT
100
AcDbLine
 62
7
  6
CONTINUOUS
 10
-8.470541342
 20
-14.1296588648
 11
-8.470541342
 21
-13.2021192799
  0
LINE
  5
375
100
AcDbEntity
  8
ASSI
100
AcDbLine
 62
7
  6
CONTINUOUS
 10
-8.470541342
 20
-14.1296588648
 11
-8.470541342
 21
-13.2021192799
  0
LINE
  5
376
100
AcDbEntity
  8
SMUSSO
100
AcDbLine
 62
7
  6
CONTINUOUS
 10
-8.4536135478
 20
24.8661900022
 11
-8.4536135478
 21
25.3127148894
  0
LINE
  5
377
100
AcDbEntity
  8
DRAFT
100
AcDbLine
 62
7
  6
CONTINUOUS
 10
-8.0846344374
 20
-19.1749080106
 11
-8.0846344374
 21
-12.9593313061
  0
LINE
  5
378
100
AcDbEntity
  8
DRAFT
100
AcDbLine
 62
7
  6
CONTINUOUS
 10
-8.0846344374
 20
1.133999686
 11
-8.0846344374
 21
8.8996645248
  0
LINE
  5
379
100
AcDbEntity
  8
SMUSSO
100
AcDbLine
 62
7
  6
CONTINUOUS
 10
-7.9825146537
 20
24.4836741231
 11
-7.9825146537
 21
24.4106275866
  0
LINE
  5
37A
100
AcDbEntity
  8
DRAFT
100
AcDbLine
 62
250
  6
CONTINUOUS
 10
-7.9814330338
 20
24.7703006065
 11
-7.9814330338
 21
24.4836741231
  0
LINE
  5
37B
100
AcDbEntity
  8
ASSI
100
AcDbLine
 62
250
  6
CONTINUOUS
 10
-7.6239045256
 20
-20.6419564981
 11
-7.6239045256
 21
-21.8566903288
  0
LINE
  5
37C
100
AcDbEntity
  8
ASSI
100
AcDbLine
 62
250
  6
CONTINUOUS
 10
-7.6239045256
 20
14.0130763901
 11
-7.6239045256
 21
15.3011636949
  0
LINE
  5
37D
100
AcDbEntity
  8
DRAFT
100
AcDbLine
 62
7
  6
CONTINUOUS
 10
-7.5942388406
 20
24.5859685447
 11
-7.5942388406
 21
24.2562130427
  0
LINE
  5
37E
100
AcDbEntity
  8
ASSI
100
AcDbLine
 62
7
  6
CONTINUOUS
 10
-7.5677724856
 20
-20.6079264272
 11
-7.5677724856
 21
-21.7764735433
  0
LINE
  5
37F
100
AcDbEntity
  8
ASSI
100
AcDbLine
 62
7
  6
CONTINUOUS
 10
-7.5677724856
 20
14.1334379192
 11
-7.5677724856
 21
15.3813815883
  0
LINE
  5
380
100
AcDbEntity
  8
ASSI
100
AcDbLine
 62
7
  6
CONTINUOUS
 10
-7.5361805788
 20
19.3698857931
 11
-7.5361805788
 21
18.3011151063
  0
LINE
  5
381
100
AcDbEntity
  8
DRAFT
100
AcDbLine
 62
7
  6
CONTINUOUS
 10
-7.3687964805
 20
-3.6716608332
 11
-7.3687964805
 21
-7.7568340568
  0
LINE
  5
382
100
AcDbEntity
  8
ASSI
100
AcDbLine
 62
7
  6
CONTINUOUS
 10
-7.3687964805
 20
-3.6716608332
 11
-7.3687964805
 21
-7.7568340568
  0
LINE
  5
383
100
AcDbEntity
  8
ASSI
100
AcDbLine
 62
250
  6
CONTINUOUS
 10
-7.1375695951
 20
-22.002609284
 11
-7.1375695951
 21
-22.3719202735
  0
LINE
  5
384
100
AcDbEntity
  8
ASSI
100
AcDbLine
 62
250
  6
CONTINUOUS
 10
-7.1375695951
 20
16.0286439886
 11
-7.1375695951
 21
16.3979549781
  0
LINE
  5
385
100
AcDbEntity
  8
DRAFT
100
AcDbLine
 62
7
  6
CONTINUOUS
 10
-7.0992640937
 20
8.7319822666
 11
-7.0992640937
 21
-20.145106726
  0
LINE
  5
386
100
AcDbEntity
  8
ASSI
100
AcDbLine
 62
7
  6
CONTINUOUS
 10
-7.0814375552
 20
-21.9223918766
 11
-7.0814375552
 21
-22.2917028661
  0
LINE
  5
387
100
AcDbEntity
  8
ASSI
100
AcDbLine
 62
7
  6
CONTINUOUS
 10
-7.0814375552
 20
16.108861396
 11
-7.0814375552
 21
16.4781723855
  0
LINE
  5
388
100
AcDbEntity
  8
DRAFT
100
AcDbLine
 62
7
  6
CONTINUOUS
 10
-6.8661000237
 20
17.4939701423
 11
-6.8661000237
 21
17.1264128381
  0
LWPOLYLINE
  5
389
100
AcDbEntity
  8
ASSI
100
AcDbPolyline
 62
7
  6
CONTINUOUS
 90
19
 70
0
 10
-7.5362470923
 20
18.3011164716
 10
-7.5363658993
 20
18.2949615
 10
-7.5395055355
 20
18.2691662611
 10
-7.5469108909
 20
18.2439204048
 10
-7.5587193461
 20
18.2190005915
 10
-7.5747935206
 20
18.1946301608
 10
-7.5947212725
 20
18.1714791314
 10
-7.6186049835
 20
18.149592019
 10
-7.6463422718
 20
18.128924308
 10
-7.6772138512
 20
18.11001247
 10
-7.7113016792
 20
18.0929023522
 10
-7.7485237982
 20
18.0775481073
 10
-7.7879150487
 20
18.0643486654
 10
-7.8295548791
 20
18.0533612449
 10
-7.873363841
 20
18.0445286273
 10
-7.9181384302
 20
18.0380780865
 10
-7.9634774785
 20
18.0340853805
 10
-8.009782154
 20
18.0324747512
 10
-8.076577857
 20
18.0335333164
  0
LWPOLYLINE
  5
38A
100
AcDbEntity
  8
ASSI
100
AcDbPolyline
 62
250
  6
CONTINUOUS
 90
20
 70
0
 10
-7.5361805788
 20
19.3698857931
 10
-7.5363105436
 20
19.3633038829
 10
-7.5399057645
 20
19.3347110534
 10
-7.5483947734
 20
19.3064650741
 10
-7.5616938588
 20
19.2788444904
 10
-7.5796718744
 20
19.2521216737
 10
-7.6021515392
 20
19.2265601347
 10
-7.6289111811
 20
19.2024119354
 10
-7.6596869226
 20
19.1799152021
 10
-7.6941752826
 20
19.159291776
 10
-7.7320361719
 20
19.1407450249
 10
-7.7728962453
 20
19.1244578386
 10
-7.8163525785
 20
19.1105908269
 10
-7.8619766414
 20
19.0992807346
 10
-7.909318527
 20
19.0906390914
 10
-7.9579114003
 20
19.0847511105
 10
-8.007276098
 20
19.0816748526
 10
-8.0569258372
 20
19.0814406544
 10
-8.1063710156
 20
19.0840508273
 10
-8.1551240516
 20
19.0894796338
  0
LWPOLYLINE
  5
38B
100
AcDbEntity
  8
ASSI
100
AcDbPolyline
 62
7
  6
CONTINUOUS
 90
9
 70
0
 10
-7.5677724857
 20
14.1334362048
 10
-7.5682119355
 20
14.119323032
 10
-7.5705522538
 20
14.0990319934
 10
-7.5749516866
 20
14.0799666701
 10
-7.5813667644
 20
14.0623975579
 10
-7.5896319426
 20
14.0468018405
 10
-7.5995631556
 20
14.0333910017
 10
-7.6110404843
 20
14.0221257026
 10
-7.6239045256
 20
14.0130763901
  0
LWPOLYLINE
  5
38C
100
AcDbEntity
  8
ASSI
100
AcDbPolyline
 62
7
  6
CONTINUOUS
 90
16
 70
0
 10
-7.5677724858
 20
15.381376954
 10
-7.5673650744
 20
15.3940964289
 10
-7.5659459507
 20
15.4093135605
 10
-7.5633109452
 20
15.4264922747
 10
-7.5592736872
 20
15.4455161586
 10
-7.5537185358
 20
15.4660598328
 10
-7.5466445026
 20
15.4875904089
 10
-7.5380498537
 20
15.509793612
 10
-7.5279668383
 20
15.5323625258
 10
-7.5165768981
 20
15.554758219
 10
-7.5040057496
 20
15.576684564
 10
-7.4904413085
 20
15.5978121634
 10
-7.4762734228
 20
15.6176022866
 10
-7.4617358791
 20
15.6358453018
 10
-7.4471293727
 20
15.6523172767
 10
-7.4417145962
 20
15.657985773
  0
LINE
  5
38D
100
AcDbEntity
  8
ASSI
100
AcDbLine
 62
7
  6
CONTINUOUS
 10
-7.9828636577
 20
24.4007013172
 11
-7.9825146537
 21
24.4106275866
  0
LWPOLYLINE
  5
38E
100
AcDbEntity
  8
ASSI
100
AcDbPolyline
 62
250
  6
CONTINUOUS
 90
6
 70
0
 10
-7.6239045256
 20
15.3011636949
 10
-7.6223099513
 20
15.3353104837
 10
-7.618200196
 20
15.3698336684
 10
-7.6115752598
 20
15.4047332491
 10
-7.6024721893
 20
15.4400477545
 10
-7.5908539378
 20
15.4757386559
  0
LINE
  5
38F
100
AcDbEntity
  8
DRAFT
100
AcDbLine
 62
7
  6
CONTINUOUS
 10
-7.6775972243
 20
-12.7032494921
 11
-7.3687964805
 21
-7.7568340568
  0
LINE
  5
390
100
AcDbEntity
  8
ASSI
100
AcDbLine
 62
7
  6
CONTINUOUS
 10
-7.6775972243
 20
-12.7032494921
 11
-7.3687964805
 21
-7.7568340568
  0
LWPOLYLINE
  5
391
100
AcDbEntity
  8
ASSI
100
AcDbPolyline
 62
250
  6
CONTINUOUS
 90
13
 70
0
 10
-7.8789079722
 20
23.2697122341
 10
-7.8763124178
 20
23.2933918173
 10
-7.8760220137
 20
23.3178618424
 10
-7.8780414145
 20
23.3427301118
 10
-7.882338254
 20
23.3675980449
 10
-7.8888436641
 20
23.3920670663
 10
-7.8974533781
 20
23.4157449945
 10
-7.9080294024
 20
23.438252327
 10
-7.9204022281
 20
23.4592283233
 10
-7.9343735473
 20
23.4783367869
 10
-7.9497194323
 20
23.495271453
 10
-7.9661939242
 20
23.5097608983
 10
-7.983532975
 20
23.5215728904
  0
LWPOLYLINE
  5
392
100
AcDbEntity
  8
ASSI
100
AcDbPolyline
 62
250
  6
CONTINUOUS
 90
8
 70
0
 10
-5.1094642429
 20
20.963237455
 10
-5.109180503
 20
20.9656043928
 10
-5.1085377595
 20
20.9694620896
 10
-5.1077315397
 20
20.9732489412
 10
-5.1067679951
 20
20.9769675055
 10
-5.1056555122
 20
20.9806106328
 10
-5.104390606
 20
20.9842057973
 10
-5.1029752122
 20
20.9877548144
  0
LWPOLYLINE
  5
393
100
AcDbEntity
  8
ASSI
100
AcDbPolyline
 62
250
  6
CONTINUOUS
 90
4
 70
0
 10
-7.5908539378
 20
15.4757386559
 10
-7.5766093653
 20
15.5116903668
 10
-7.5595058468
 20
15.548429505
 10
-7.5397760073
 20
15.5854294528
  0
LWPOLYLINE
  5
394
100
AcDbEntity
  8
ASSI
100
AcDbPolyline
 62
250
  6
CONTINUOUS
 90
5
 70
0
 10
-5.1061590682
 20
20.9580199155
 10
-5.1026780626
 20
20.9667722569
 10
-5.0945388077
 20
20.9790937097
 10
-5.0834203631
 20
20.9908912987
 10
-5.0695026299
 20
21.0019734468
  0
LWPOLYLINE
  5
395
100
AcDbEntity
  8
ASSI
100
AcDbPolyline
 62
250
  6
CONTINUOUS
 90
12
 70
0
 10
-5.1029752122
 20
20.9877548144
 10
-5.1014144169
 20
20.9912510898
 10
-5.0997036277
 20
20.9947085682
 10
-5.0978445909
 20
20.9981248358
 10
-5.0958392543
 20
21.0014971199
 10
-5.093679452
 20
21.0048378783
 10
-5.0913654219
 20
21.0081439504
 10
-5.0888973961
 20
21.0114122731
 10
-5.0862635113
 20
21.0146541852
 10
-5.0834625169
 20
21.0178657226
 10
-5.0804932924
 20
21.0210428531
 10
-5.0773405678
 20
21.0241951536
  0
LWPOLYLINE
  5
396
100
AcDbEntity
  8
ASSI
100
AcDbPolyline
 62
250
  6
CONTINUOUS
 90
4
 70
0
 10
-7.5397760073
 20
15.5854294528
 10
-7.5180065819
 20
15.620994771
 10
-7.494393149
 20
15.6545603132
 10
-7.4687401302
 20
15.6866912258
  0
LINE
  5
397
100
AcDbEntity
  8
ASSI
100
AcDbLine
 62
250
  6
CONTINUOUS
 10
-7.4687401302
 20
15.6866912258
 11
-7.4410475256
 21
15.7173875089
  0
LINE
  5
398
100
AcDbEntity
  8
ASSI
100
AcDbLine
 62
250
  6
CONTINUOUS
 10
-7.4410475256
 20
15.7173875089
 11
-7.1375695951
 21
16.0286439886
  0
LINE
  5
399
100
AcDbEntity
  8
ASSI
100
AcDbLine
 62
7
  6
CONTINUOUS
 10
-7.4417167801
 20
15.6579835327
 11
-7.1382381856
 21
15.9692406935
  0
LINE
  5
39A
100
AcDbEntity
  8
CURVE
100
AcDbLine
 62
7
  6
CONTINUOUS
 10
-15.9896615764
 20
7.9727308539
 11
-15.7179571455
 21
8.2444352848
  0
LINE
  5
39B
100
AcDbEntity
  8
CURVE
100
AcDbLine
 62
7
  6
CONTINUOUS
 10
-15.8136169026
 20
7.7287540997
 11
-15.5419169968
 21
8.0004540055
  0
LINE
  5
39C
100
AcDbEntity
  8
CURVE
100
AcDbLine
 62
7
  6
CONTINUOUS
 10
-15.6375722288
 20
7.4847773454
 11
-15.3658768481
 21
7.7564727261
  0
LINE
  5
39D
100
AcDbEntity
  8
CURVE
100
AcDbLine
 62
7
  6
CONTINUOUS
 10
-15.461527555
 20
7.2408005912
 11
-15.1898366995
 21
7.5124914468
  0
LINE
  5
39E
100
AcDbEntity
  8
CURVE
100
AcDbLine
 62
7
  6
CONTINUOUS
 10
-15.2854828812
 20
6.996823837
 11
-15.0137965508
 21
7.2685101674
  0
LINE
  5
39F
100
AcDbEntity
  8
CURVE
100
AcDbLine
 62
7
  6
CONTINUOUS
 10
-15.1094382074
 20
6.7528470828
 11
-14.8429317254
 21
7.0193535648
  0
LINE
  5
3A0
100
AcDbEntity
  8
CURVE
100
AcDbLine
 62
7
  6
CONTINUOUS
 10
-14.9333935336
 20
6.5088703285
 11
-14.8063546563
 21
6.6359092059
  0
LWPOLYLINE
  5
3A1
100
AcDbEntity
  8
SMUSSO
100
AcDbPolyline
 62
7
  6
CONTINUOUS
 90
4
 70
0
 10
-0.7114603277
 20
20.2887586686
 10
-0.6650984543
 20
20.3243918725
 10
-0.5781309697
 20
20.3847696313
 10
-0.4861011532
 20
20.4425899172
  0
LWPOLYLINE
  5
3A2
100
AcDbEntity
  8
RACCORDO
100
AcDbPolyline
 62
250
  6
CONTINUOUS
 90
7
 70
0
 10
-8.60465441
 20
14.5048811005
 10
-8.5881819283
 20
14.5162915842
 10
-8.5743827075
 20
14.5288284823
 10
-8.5634850166
 20
14.5422843226
 10
-8.5556690973
 20
14.5564364537
 10
-8.5510642158
 20
14.5710506779
 10
-8.5497296593
 20
14.584146916
  0
LWPOLYLINE
  5
3A3
100
AcDbEntity
  8
ASSI
100
AcDbPolyline
 62
250
  6
CONTINUOUS
 90
7
 70
0
 10
-8.60465441
 20
14.5048811005
 10
-8.5881819283
 20
14.5162915842
 10
-8.5743827075
 20
14.5288284823
 10
-8.5634850166
 20
14.5422843226
 10
-8.5556690973
 20
14.5564364537
 10
-8.5510642158
 20
14.5710506779
 10
-8.5497296593
 20
14.584146916
  0
LWPOLYLINE
  5
3A4
100
AcDbEntity
  8
ASSI
100
AcDbPolyline
 62
250
  6
CONTINUOUS
 90
7
 70
0
 10
-7.1375695951
 20
16.3979549781
 10
-7.1207743769
 20
16.4093993982
 10
-7.1066865566
 20
16.4220080202
 10
-7.0955463987
 20
16.4355688663
 10
-7.0875438994
 20
16.4498553693
 10
-7.0828186597
 20
16.4646248728
 10
-7.0814375595
 20
16.4781482941
  0
LWPOLYLINE
  5
3A5
100
AcDbEntity
  8
ASSI
100
AcDbPolyline
 62
250
  6
CONTINUOUS
 90
7
 70
0
 10
-7.1375695951
 20
16.0286439886
 10
-7.1207860123
 20
16.0400793478
 10
-7.1067130804
 20
16.052669527
 10
-7.0955851463
 20
16.0662015571
 10
-7.0875874028
 20
16.0804452588
 10
-7.0828498862
 20
16.0951621226
 10
-7.0814375552
 20
16.108861396
  0
LWPOLYLINE
  5
3A6
100
AcDbEntity
  8
ASSI
100
AcDbPolyline
 62
250
  6
CONTINUOUS
 90
7
 70
0
 10
-7.6239045256
 20
15.30116418
 10
-7.6071742913
 20
15.3125580189
 10
-7.5931313061
 20
15.3251034611
 10
-7.5820105456
 20
15.3385905866
 10
-7.5739980883
 20
15.3527937187
 10
-7.5692280023
 20
15.3674752
 10
-7.5677724858
 20
15.381376954
  0
LWPOLYLINE
  5
3A7
100
AcDbEntity
  8
ASSI
100
AcDbPolyline
 62
7
  6
CONTINUOUS
 90
6
 70
0
 10
-5.015352554
 20
19.815393913
 10
-5.0292267751
 20
19.806457327
 10
-5.0411754929
 20
19.7969379503
 10
-5.0511987074
 20
19.786835783
 10
-5.0593755667
 20
19.7760386743
 10
-5.0613068446
 20
19.7725229972
  0
LINE
  5
3A8
100
AcDbEntity
  8
ASSI
100
AcDbLine
 62
7
  6
CONTINUOUS
 10
-6.3569146218
 20
17.4204121636
 11
-6.0594518
 21
17.6119532153
  0
LINE
  5
3A9
100
AcDbEntity
  8
DRAFT
100
AcDbLine
 62
7
  6
CONTINUOUS
 10
-7.4448644956
 20
17.8281414948
 11
-8.2880098094
 21
17.2902984174
  0
LINE
  5
3AA
100
AcDbEntity
  8
DRAFT
100
AcDbLine
 62
7
  6
CONTINUOUS
 10
-0.7723895145
 20
20.3209762751
 11
-3.1786331754
 21
18.8291428848
  0
LINE
  5
3AB
100
AcDbEntity
  8
ASSI
100
AcDbLine
 62
7
  6
CONTINUOUS
 10
-7.481451693
 20
18.4061573384
 11
-7.4939339596
 21
18.3985113284
  0
LINE
  5
3AC
100
AcDbEntity
  8
0
100
AcDbLine
 62
7
  6
CONTINUOUS
 10
-0.4861011532
 20
20.4425899172
 11
2.8295878736
 21
22.4250477636
  0
LWPOLYLINE
  5
3AD
100
AcDbEntity
  8
SMUSSO
100
AcDbPolyline
 62
7
  6
CONTINUOUS
 90
10
 70
0
 10
-1.9087338242
 20
21.603798348
 10
-1.9008966775
 20
21.6084461256
 10
-1.8934432831
 20
21.6130396361
 10
-1.886373641
 20
21.6175788795
 10
-1.8797579543
 20
21.6220242409
 10
-1.8735260199
 20
21.6264153351
 10
-1.8674672283
 20
21.6308710067
 10
-1.8615113763
 20
21.6354308702
 10
-1.8557286671
 20
21.6400553111
 10
-1.8501191008
 20
21.6447443291
  0
LINE
  5
3AE
100
AcDbEntity
  8
0
100
AcDbLine
 62
7
  6
CONTINUOUS
 10
-7.7534327111
 20
16.9816403006
 11
-6.8661000237
 21
17.4939701423
  0
LINE
  5
3AF
100
AcDbEntity
  8
ASSI
100
AcDbLine
 62
7
  6
CONTINUOUS
 10
-7.4351329955
 20
16.7978580341
 11
-6.3569146218
 21
17.4204121636
  0
LINE
  5
3B0
100
AcDbEntity
  8
SMUSSO
100
AcDbLine
 62
7
  6
CONTINUOUS
 10
-3.7758622221
 20
18.7225003621
 11
-0.9865287718
 21
20.3330320676
  0
LINE
  5
3B1
100
AcDbEntity
  8
ASSI
100
AcDbLine
 62
250
  6
CONTINUOUS
 10
-7.2789694122
 20
16.6428666452
 11
-9.384514458
 21
15.4271471502
  0
LINE
  5
3B2
100
AcDbEntity
  8
ASSI
100
AcDbLine
 62
250
  6
CONTINUOUS
 10
-7.1375695951
 20
16.3979549781
 11
-9.1017287312
 21
15.2638702156
  0
LINE
  5
3B3
100
AcDbEntity
  8
RACCORDO
100
AcDbLine
 62
250
  6
CONTINUOUS
 10
-9.8567496075
 20
14.6642570351
 11
-9.8472523093
 21
14.669740629
  0
LINE
  5
3B4
100
AcDbEntity
  8
ASSI
100
AcDbLine
 62
250
  6
CONTINUOUS
 10
-9.8567496075
 20
14.6642570351
 11
-9.8472523093
 21
14.669740629
  0
LINE
  5
3B5
100
AcDbEntity
  8
DRAFT
100
AcDbLine
 62
7
  6
CONTINUOUS
 10
-0.3463602713
 20
20.1228494507
 11
3.271463003
 21
22.2117424397
  0
LINE
  5
3B6
100
AcDbEntity
  8
DRAFT
100
AcDbLine
 62
7
  6
CONTINUOUS
 10
3.9952411205
 20
21.9773031099
 11
4.0170782805
 21
21.9899116557
  0
LINE
  5
3B7
100
AcDbEntity
  8
RACCORDO
100
AcDbLine
 62
250
  6
CONTINUOUS
 10
-9.5033173708
 20
14.0520944448
 11
-9.4938200726
 21
14.0575780387
  0
LINE
  5
3B8
100
AcDbEntity
  8
ASSI
100
AcDbLine
 62
250
  6
CONTINUOUS
 10
-9.5033173708
 20
14.0520944448
 11
-9.4938200726
 21
14.0575780387
  0
LINE
  5
3B9
100
AcDbEntity
  8
ASSI
100
AcDbLine
 62
7
  6
CONTINUOUS
 10
-1.9087338242
 20
21.603798348
 11
-5.015352554
 21
19.815393913
  0
LINE
  5
3BA
100
AcDbEntity
  8
ASSI
100
AcDbLine
 62
7
  6
CONTINUOUS
 10
-5.8045440421
 20
19.3610756653
 11
-7.0124174834
 21
18.6657324584
  0
LINE
  5
3BB
100
AcDbEntity
  8
DRAFT
100
AcDbLine
 62
250
  6
CONTINUOUS
 10
1.7739582541
 20
23.1479513124
 11
-0.9582816672
 21
21.5979218981
  0
LINE
  5
3BC
100
AcDbEntity
  8
DRAFT
100
AcDbLine
 62
250
  6
CONTINUOUS
 10
2.8346184258
 20
22.5355394224
 11
2.7831035406
 21
22.5063144679
  0
LINE
  5
3BD
100
AcDbEntity
  8
ASSI
100
AcDbLine
 62
250
  6
CONTINUOUS
 10
-4.5724371973
 20
17.2569184214
 11
-2.8864927436
 21
18.2089895716
  0
LINE
  5
3BE
100
AcDbEntity
  8
DRAFT
100
AcDbLine
 62
7
  6
CONTINUOUS
 10
0.5889862538
 20
19.8689859902
 11
-2.4931444198
 21
18.1292268163
  0
LWPOLYLINE
  5
3BF
100
AcDbEntity
  8
ASSI
100
AcDbPolyline
 62
7
  6
CONTINUOUS
 90
8
 70
0
 10
-1.032660584
 20
20.6819256131
 10
-1.0260400609
 20
20.6856578035
 10
-1.0195052872
 20
20.6882518287
 10
-1.0131057925
 20
20.6897009154
 10
-1.006898836
 20
20.6900077283
 10
-1.0009225794
 20
20.6891700173
 10
-0.9951962146
 20
20.687179906
 10
-0.9924143738
 20
20.6857408992
  0
LINE
  5
3C0
100
AcDbEntity
  8
DRAFT
100
AcDbLine
 62
7
  6
CONTINUOUS
 10
-0.9077634012
 20
21.1562970605
 11
2.0800299174
 21
22.8211843148
  0
LINE
  5
3C1
100
AcDbEntity
  8
ASSI
100
AcDbLine
 62
7
  6
CONTINUOUS
 10
-7.0124174834
 20
18.6657324584
 11
-7.4814564728
 21
18.4061546935
  0
LINE
  5
3C2
100
AcDbEntity
  8
ASSI
100
AcDbLine
 62
7
  6
CONTINUOUS
 10
-8.2113948245
 20
18.0021887749
 11
-11.0875454998
 21
16.4104559297
  0
LINE
  5
3C3
100
AcDbEntity
  8
RACCORDO
100
AcDbLine
 62
7
  6
CONTINUOUS
 10
1.7627237114
 20
23.0043929413
 11
-0.9582816672
 21
21.5148690854
  0
LINE
  5
3C4
100
AcDbEntity
  8
ASSI
100
AcDbLine
 62
7
  6
CONTINUOUS
 10
-8.8848527256
 20
17.5254162838
 11
-11.0251536966
 21
16.3744316845
  0
LINE
  5
3C5
100
AcDbEntity
  8
ASSI
100
AcDbLine
 62
250
  6
CONTINUOUS
 10
-8.7876593858
 20
17.5139653277
 11
-10.9680151078
 21
16.3414405794
  0
LINE
  5
3C6
100
AcDbEntity
  8
ASSI
100
AcDbLine
 62
250
  6
CONTINUOUS
 10
-7.2280551461
 20
15.8704160119
 11
-4.5724969799
 21
17.2569529391
  0
LINE
  5
3C7
100
AcDbEntity
  8
RACCORDO
100
AcDbLine
 62
250
  6
CONTINUOUS
 10
-9.8467261343
 20
14.6686980853
 11
-8.9491242134
 21
15.1217205144
  0
LINE
  5
3C8
100
AcDbEntity
  8
ASSI
100
AcDbLine
 62
250
  6
CONTINUOUS
 10
-9.8467261343
 20
14.6686980853
 11
-8.9491242134
 21
15.1217205144
  0
LINE
  5
3C9
100
AcDbEntity
  8
ASSI
100
AcDbLine
 62
250
  6
CONTINUOUS
 10
-7.8994227612
 20
19.3654841785
 11
-7.9236582665
 21
19.3547260751
  0
LWPOLYLINE
  5
3CA
100
AcDbEntity
  8
ASSI
100
AcDbPolyline
 62
250
  6
CONTINUOUS
 90
42
 70
0
 10
-7.9236582665
 20
19.3547260751
 10
-7.9485210751
 20
19.3438501792
 10
-7.961256461
 20
19.3381465439
 10
-7.9743904833
 20
19.3321139168
 10
-7.9878395025
 20
19.3257805451
 10
-8.0012117904
 20
19.3191456544
 10
-8.01453319
 20
19.3120266644
 10
-8.0277899969
 20
19.3044796118
 10
-8.0404045948
 20
19.2968383287
 10
-8.0520393249
 20
19.2890792637
 10
-8.062838195
 20
19.2811160119
 10
-8.0728525746
 20
19.2732205561
 10
-8.0818972589
 20
19.2654715843
 10
-8.0899800667
 20
19.2577554477
 10
-8.0974596382
 20
19.250098589
 10
-8.1043523113
 20
19.2425009911
 10
-8.1105484459
 20
19.2349595037
 10
-8.1162513882
 20
19.2275167932
 10
-8.1214631137
 20
19.2201775588
 10
-8.1261271121
 20
19.2129438999
 10
-8.1303764183
 20
19.205863155
 10
-8.134206854
 20
19.198953631
 10
-8.1375928711
 20
19.1922048979
 10
-8.1406457028
 20
19.1856244451
 10
-8.1433695541
 20
19.179223485
 10
-8.145746323
 20
19.1729964367
 10
-8.1478592887
 20
19.1669270873
 10
-8.1497148694
 20
19.1610220785
 10
-8.1513010833
 20
19.1552783055
 10
-8.1526757629
 20
19.1496662891
 10
-8.1538451755
 20
19.1441914752
 10
-8.1548012331
 20
19.1388511524
 10
-8.1555803357
 20
19.1336055276
 10
-8.15618825
 20
19.1284530735
 10
-8.1566183403
 20
19.1233991621
 10
-8.1568876779
 20
19.1184165512
 10
-8.1570018897
 20
19.1135235232
 10
-8.1569551988
 20
19.1087065148
 10
-8.1567456595
 20
19.1038946441
 10
-8.1563710574
 20
19.0990696764
 10
-8.1558308042
 20
19.094262542
 10
-8.1551240507
 20
19.0894796361
  0
LWPOLYLINE
  5
3CB
100
AcDbEntity
  8
ASSI
100
AcDbPolyline
 62
250
  6
CONTINUOUS
 90
13
 70
0
 10
-1.9394955621
 20
22.0275489715
 10
-1.9324955514
 20
22.0303745288
 10
-1.925595607
 20
22.033296987
 10
-1.9188016875
 20
22.0363159555
 10
-1.9121481308
 20
22.0394162626
 10
-1.9056113304
 20
22.0426114958
 10
-1.8991167877
 20
22.0459466272
 10
-1.8926728012
 20
22.0494247926
 10
-1.8862976128
 20
22.0530457652
 10
-1.8799444939
 20
22.0568533888
 10
-1.8736145168
 20
22.0608647572
 10
-1.8673500783
 20
22.065068104
 10
-1.8611736328
 20
22.0694653268
  0
LINE
  5
3CC
100
AcDbEntity
  8
ASSI
100
AcDbLine
 62
250
  6
CONTINUOUS
 10
-7.929473362
 20
19.6402831237
 11
-7.9569113878
 21
19.6310083611
  0
LINE
  5
3CD
100
AcDbEntity
  8
DRAFT
100
AcDbLine
 62
7
  6
CONTINUOUS
 10
2.34362323
 20
22.9595063934
 11
2.3113159026
 21
22.9495804262
  0
LWPOLYLINE
  5
3CE
100
AcDbEntity
  8
RACCORDO
100
AcDbPolyline
 62
250
  6
CONTINUOUS
 90
3
 70
0
 10
-6.1192025437
 20
-5.7513296769
 10
-6.1685142675
 20
-5.7550108446
 10
-6.2162211369
 20
-5.7532230488
  0
LWPOLYLINE
  5
3CF
100
AcDbEntity
  8
RACCORDO
100
AcDbPolyline
 62
250
  6
CONTINUOUS
 90
4
 70
0
 10
-6.2162211369
 20
-5.7532230488
 10
-6.2616633774
 20
-5.7460362181
 10
-6.3037865289
 20
-5.7339288377
 10
-6.3424094456
 20
-5.7174917314
  0
LINE
  5
3D0
100
AcDbEntity
  8
DRAFT
100
AcDbLine
 62
7
  6
CONTINUOUS
 10
-8.4721246742
 20
1.3577316924
 11
-7.6775972243
 21
0.8989815006
  0
LINE
  5
3D1
100
AcDbEntity
  8
ASSI
100
AcDbLine
 62
7
  6
CONTINUOUS
 10
-8.4721246742
 20
1.3577316924
 11
-7.6775972243
 21
0.8989815006
  0
LINE
  5
3D2
100
AcDbEntity
  8
DRAFT
100
AcDbLine
 62
7
  6
CONTINUOUS
 10
-8.470541342
 20
1.3604739275
 11
-9.0214137728
 21
1.678540765
  0
LINE
  5
3D3
100
AcDbEntity
  8
ASSI
100
AcDbLine
 62
7
  6
CONTINUOUS
 10
-8.470541342
 20
1.3604739275
 11
-9.0214137728
 21
1.678540765
  0
LWPOLYLINE
  5
3D4
100
AcDbEntity
  8
RACCORDO
100
AcDbPolyline
 62
7
  6
CONTINUOUS
 90
6
 70
0
 10
-5.5979079519
 20
-0.5699781858
 10
-5.6072900173
 20
-0.564200757
 10
-5.6152004484
 20
-0.559582025
 10
-5.6253688977
 20
-0.5538370752
 10
-5.6377719525
 20
-0.5466873323
 10
-5.652375855
 20
-0.5379615732
  0
LWPOLYLINE
  5
3D5
100
AcDbEntity
  8
RACCORDO
100
AcDbPolyline
 62
7
  6
CONTINUOUS
 90
3
 70
0
 10
-5.5962438157
 20
-0.5711507672
 10
-5.5963214174
 20
-0.5710351333
 10
-5.5979079519
 20
-0.5699781858
  0
LINE
  5
3D6
100
AcDbEntity
  8
ASSI
100
AcDbLine
 62
250
  6
CONTINUOUS
 10
-12.2969428298
 20
17.4196242051
 11
-12.4218240724
 21
17.792675735
  0
LINE
  5
3D7
100
AcDbEntity
  8
ASSI
100
AcDbLine
 62
7
  6
CONTINUOUS
 10
-12.2504043274
 20
17.5481627566
 11
-12.3754984049
 21
17.9218409595
  0
LINE
  5
3D8
100
AcDbEntity
  8
ASSI
100
AcDbLine
 62
250
  6
CONTINUOUS
 10
-12.2483160939
 20
17.5406064728
 11
-12.2506171624
 21
17.5487894297
  0
LWPOLYLINE
  5
3D9
100
AcDbEntity
  8
RACCORDO
100
AcDbPolyline
 62
250
  6
CONTINUOUS
 90
11
 70
0
 10
-9.5128043324
 20
14.1403972063
 10
-9.5230796129
 20
14.1867838171
 10
-9.536906155
 20
14.2339883808
 10
-9.5541326042
 20
14.2814941648
 10
-9.5745703885
 20
14.3287811394
 10
-9.5979957822
 20
14.3753316698
 10
-9.6241523555
 20
14.4206361833
 10
-9.6527537813
 20
14.464198747
 10
-9.6834869696
 20
14.5055424964
 10
-9.7160154946
 20
14.5442148553
 10
-9.7499832772
 20
14.5797924903
  0
LWPOLYLINE
  5
3DA
100
AcDbEntity
  8
ASSI
100
AcDbPolyline
 62
250
  6
CONTINUOUS
 90
11
 70
0
 10
-9.5128043324
 20
14.1403972063
 10
-9.5230796129
 20
14.1867838171
 10
-9.536906155
 20
14.2339883808
 10
-9.5541326042
 20
14.2814941648
 10
-9.5745703885
 20
14.3287811394
 10
-9.5979957822
 20
14.3753316698
 10
-9.6241523555
 20
14.4206361833
 10
-9.6527537813
 20
14.464198747
 10
-9.6834869696
 20
14.5055424964
 10
-9.7160154946
 20
14.5442148553
 10
-9.7499832772
 20
14.5797924903
  0
LINE
  5
3DB
100
AcDbEntity
  8
RACCORDO
100
AcDbLine
 62
250
  6
CONTINUOUS
 10
-9.5061927937
 20
14.0953363268
 11
-9.5128043324
 21
14.1403972063
  0
LINE
  5
3DC
100
AcDbEntity
  8
ASSI
100
AcDbLine
 62
250
  6
CONTINUOUS
 10
-9.5061927937
 20
14.0953363268
 11
-9.5128043324
 21
14.1403972063
  0
LINE
  5
3DD
100
AcDbEntity
  8
ASSI
100
AcDbLine
 62
250
  6
CONTINUOUS
 10
-8.227304891
 20
18.1153885031
 11
-8.2113948245
 21
18.0021887749
  0
LINE
  5
3DE
100
AcDbEntity
  8
ASSI
100
AcDbLine
 62
250
  6
CONTINUOUS
 10
-8.243818392
 20
18.2357069631
 11
-8.227304891
 21
18.1153885031
  0
LINE
  5
3DF
100
AcDbEntity
  8
ASSI
100
AcDbLine
 62
250
  6
CONTINUOUS
 10
-8.2609499148
 20
18.3633882227
 11
-8.243818392
 21
18.2357069631
  0
LINE
  5
3E0
100
AcDbEntity
  8
ASSI
100
AcDbLine
 62
250
  6
CONTINUOUS
 10
-8.2787595017
 20
18.4993199403
 11
-8.2609499148
 21
18.3633882227
  0
LWPOLYLINE
  5
3E1
100
AcDbEntity
  8
ASSI
100
AcDbPolyline
 62
250
  6
CONTINUOUS
 90
13
 70
0
 10
-9.9010600161
 20
19.4778838563
 10
-9.9037062539
 20
19.4993433001
 10
-9.9085064017
 20
19.5214771702
 10
-9.9153861719
 20
19.5439463708
 10
-9.9242386668
 20
19.5664049976
 10
-9.9349282134
 20
19.5885113542
 10
-9.9472939608
 20
19.6099327697
 10
-9.9611585431
 20
19.6303564502
 10
-9.9763010155
 20
19.6494519782
 10
-9.9924552904
 20
19.6668917548
 10
-10.0093573953
 20
19.6824095433
 10
-10.0267574916
 20
19.6957937951
 10
-10.0443899072
 20
19.7068547977
  0
LWPOLYLINE
  5
3E2
100
AcDbEntity
  8
ASSI
100
AcDbPolyline
 62
250
  6
CONTINUOUS
 90
13
 70
0
 10
-10.4007292867
 20
18.2899075042
 10
-10.4033693087
 20
18.3113305437
 10
-10.4081569016
 20
18.3334290993
 10
-10.4150189848
 20
18.3558658459
 10
-10.4238508116
 20
18.3782982962
 10
-10.4345175677
 20
18.4003840285
 10
-10.4468564299
 20
18.4217859134
 10
-10.4606790506
 20
18.4421772602
 10
-10.4757744333
 20
18.4612468038
 10
-10.4919121536
 20
18.4787034557
 10
-10.5088458759
 20
18.4942807476
 10
-10.5263171143
 20
18.5077408987
 10
-10.5440591777
 20
18.5188784456
  0
LWPOLYLINE
  5
3E3
100
AcDbEntity
  8
ASSI
100
AcDbPolyline
 62
250
  6
CONTINUOUS
 90
13
 70
0
 10
-9.7646645901
 20
19.559445864
 10
-9.7673046122
 20
19.5808689034
 10
-9.7720922051
 20
19.602967459
 10
-9.7789542883
 20
19.6254042056
 10
-9.787786115
 20
19.647836656
 10
-9.7984528712
 20
19.6699223882
 10
-9.8107917334
 20
19.6913242731
 10
-9.824614354
 20
19.7117156199
 10
-9.8397097368
 20
19.7307851635
 10
-9.855847457
 20
19.7482418155
 10
-9.8727811794
 20
19.7638191073
 10
-9.8902524178
 20
19.7772792585
 10
-9.9079944812
 20
19.7884168053
  0
LWPOLYLINE
  5
3E4
100
AcDbEntity
  8
ASSI
100
AcDbPolyline
 62
250
  6
CONTINUOUS
 90
13
 70
0
 10
-7.9569113878
 20
19.6310083611
 10
-7.95436154
 20
19.6102449117
 10
-7.949788395
 20
19.5888359531
 10
-7.9432576752
 20
19.5670891752
 10
-7.934863237
 20
19.545317123
 10
-7.9247257233
 20
19.523832707
 10
-7.91299083
 20
19.502944706
 10
-7.8998272102
 20
19.4829533251
 10
-7.8854240513
 20
19.4641458844
 10
-7.8699883585
 20
19.4467926913
 10
-7.8537419758
 20
19.43114315
 10
-7.8369183971
 20
19.4174221787
 10
-7.8197594133
 20
19.4058269787
  0
LWPOLYLINE
  5
3E5
100
AcDbEntity
  8
ASSI
100
AcDbPolyline
 62
250
  6
CONTINUOUS
 90
7
 70
0
 10
-8.3460313314
 20
19.0429940573
 10
-8.3359998055
 20
18.9589286938
 10
-8.3261062509
 20
18.8769888621
 10
-8.3163506678
 20
18.7971745622
 10
-8.3067243396
 20
18.7194686349
 10
-8.2972359827
 20
18.6438882394
 10
-8.2787595017
 20
18.4993199403
  0
LINE
  5
3E6
100
AcDbEntity
  8
ASSI
100
AcDbLine
 62
250
  6
CONTINUOUS
 10
-5.9405074272
 20
20.5124482629
 11
-5.9274333694
 21
20.3927529536
  0
LINE
  5
3E7
100
AcDbEntity
  8
ASSI
100
AcDbLine
 62
250
  6
CONTINUOUS
 10
-5.6424555603
 20
19.5162378921
 11
-5.6311193286
 21
19.3929909739
  0
LINE
  5
3E8
100
AcDbEntity
  8
ASSI
100
AcDbLine
 62
250
  6
CONTINUOUS
 10
-5.6542355811
 20
19.6471170195
 11
-5.6424555603
 21
19.5162378921
  0
LINE
  5
3E9
100
AcDbEntity
  8
ASSI
100
AcDbLine
 62
250
  6
CONTINUOUS
 10
-5.6664664061
 20
19.7859501303
 11
-5.6542355811
 21
19.6471170195
  0
LINE
  5
3EA
100
AcDbEntity
  8
ASSI
100
AcDbLine
 62
250
  6
CONTINUOUS
 10
-5.6792077
 20
19.9338638463
 11
-5.6664664061
 21
19.7859501303
  0
LINE
  5
3EB
100
AcDbEntity
  8
ASSI
100
AcDbLine
 62
250
  6
CONTINUOUS
 10
-5.6924578814
 20
20.0913391222
 11
-5.6792077
 21
19.9338638463
  0
LINE
  5
3EC
100
AcDbEntity
  8
ASSI
100
AcDbLine
 62
250
  6
CONTINUOUS
 10
-5.7061882147
 20
20.2584695276
 11
-5.6924578814
 21
20.0913391222
  0
LWPOLYLINE
  5
3ED
100
AcDbEntity
  8
ASSI
100
AcDbPolyline
 62
250
  6
CONTINUOUS
 90
3
 70
0
 10
-5.7275315165
 20
20.5265737145
 10
-5.7203201708
 20
20.4348683704
 10
-5.7061882147
 20
20.2584695276
  0
LWPOLYLINE
  5
3EE
100
AcDbEntity
  8
ASSI
100
AcDbPolyline
 62
250
  6
CONTINUOUS
 90
3
 70
0
 10
-5.044353274
 20
20.7895421899
 10
-5.0485581855
 20
20.8997520617
 10
-5.0542406436
 20
21.0424198338
  0
LWPOLYLINE
  5
3EF
100
AcDbEntity
  8
ASSI
100
AcDbPolyline
 62
250
  6
CONTINUOUS
 90
11
 70
0
 10
-5.015356353
 20
19.8153917211
 10
-5.017255432
 20
19.9014097016
 10
-5.0193712557
 20
19.9900409575
 10
-5.0217038242
 20
20.0812854885
 10
-5.0242477921
 20
20.1752210554
 10
-5.0270085047
 20
20.2717698975
 10
-5.0300019981
 20
20.3706987333
 10
-5.0332289323
 20
20.4719899325
 10
-5.0366886474
 20
20.5756611253
 10
-5.0403951995
 20
20.6815319212
 10
-5.044353274
 20
20.7895421899
  0
LINE
  5
3F0
100
AcDbEntity
  8
DRAFT
100
AcDbLine
 62
250
  6
CONTINUOUS
 10
-6.1007081634
 20
18.1393229235
 11
-6.1007081634
 21
17.5853875855
  0
LINE
  5
3F1
100
AcDbEntity
  8
DRAFT
100
AcDbLine
 62
7
  6
CONTINUOUS
 10
-5.9334088244
 20
24.5271025658
 11
-5.9334088244
 21
24.4516801846
  0
LINE
  5
3F2
100
AcDbEntity
  8
RACCORDO
100
AcDbLine
 62
250
  6
CONTINUOUS
 10
-5.7752818118
 20
22.5594672182
 11
-5.7752818118
 21
23.4959557699
  0
LINE
  5
3F3
100
AcDbEntity
  8
RACCORDO
100
AcDbLine
 62
250
  6
CONTINUOUS
 10
-5.652375855
 20
-9.1449674919
 11
-5.652375855
 21
-7.8861940643
  0
LINE
  5
3F4
100
AcDbEntity
  8
RACCORDO
100
AcDbLine
 62
250
  6
CONTINUOUS
 10
-5.652375855
 20
-1.7967350008
 11
-5.652375855
 21
-0.5379615732
  0
LINE
  5
3F5
100
AcDbEntity
  8
DRAFT
100
AcDbLine
 62
7
  6
CONTINUOUS
 10
-5.6143398532
 20
-5.543177428
 11
-5.6143398532
 21
-3.9918839021
  0
LINE
  5
3F6
100
AcDbEntity
  8
RACCORDO
100
AcDbLine
 62
7
  6
CONTINUOUS
 10
-5.5962438151
 20
-8.9513165021
 11
-5.5962438151
 21
-7.9194102393
  0
LINE
  5
3F7
100
AcDbEntity
  8
RACCORDO
100
AcDbLine
 62
7
  6
CONTINUOUS
 10
-5.5962438151
 20
-1.603084011
 11
-5.5962438151
 21
-0.5711777482
  0
LINE
  5
3F8
100
AcDbEntity
  8
RACCORDO
100
AcDbLine
 62
250
  6
CONTINUOUS
 10
-5.3625607467
 20
-0.4514670777
 11
-5.3625607467
 21
-1.2198525242
  0
LINE
  5
3F9
100
AcDbEntity
  8
RACCORDO
100
AcDbLine
 62
250
  6
CONTINUOUS
 10
-5.3625607467
 20
-7.7851518959
 11
-5.3625607467
 21
-8.5535373424
  0
LINE
  5
3FA
100
AcDbEntity
  8
RACCORDO
100
AcDbLine
 62
250
  6
CONTINUOUS
 10
-5.3515991822
 20
22.820806441
 11
-5.3515991822
 21
23.4959557699
  0
LINE
  5
3FB
100
AcDbEntity
  8
ASSI
100
AcDbLine
 62
7
  6
CONTINUOUS
 10
-5.0613068446
 20
20.7988468697
 11
-5.0613068446
 21
19.6681252649
  0
LINE
  5
3FC
100
AcDbEntity
  8
0
100
AcDbLine
 62
7
  6
CONTINUOUS
 10
-4.3743026781
 20
-7.3611811687
 11
-4.3743026781
 21
-7.1888173817
  0
LINE
  5
3FD
100
AcDbEntity
  8
0
100
AcDbLine
 62
7
  6
CONTINUOUS
 10
-4.3743026781
 20
0.0038199011
 11
-4.3743026781
 21
0.1594151095
  0
LINE
  5
3FE
100
AcDbEntity
  8
ASSI
100
AcDbLine
 62
7
  6
CONTINUOUS
 10
-3.2813752452
 20
18.6783364319
 11
-3.2813752452
 21
18.436989779
  0
LINE
  5
3FF
100
AcDbEntity
  8
DRAFT
100
AcDbLine
 62
250
  6
CONTINUOUS
 10
-3.1642179577
 20
18.5166962665
 11
-3.1642179577
 21
18.3693446295
  0
LINE
  5
400
100
AcDbEntity
  8
RACCORDO
100
AcDbLine
 62
250
  6
CONTINUOUS
 10
-2.918699764
 20
1.0297233304
 11
-2.918699764
 21
0.1672913343
  0
LINE
  5
401
100
AcDbEntity
  8
RACCORDO
100
AcDbLine
 62
250
  6
CONTINUOUS
 10
-2.918699764
 20
-6.3185091607
 11
-2.918699764
 21
-7.1809411568
  0
LWPOLYLINE
  5
402
100
AcDbEntity
  8
RACCORDO
100
AcDbPolyline
 62
7
  6
CONTINUOUS
 90
9
 70
0
 10
-5.596284649
 20
-1.6030758805
 10
-5.5963356607
 20
-1.6079978142
 10
-5.5977645181
 20
-1.6326174356
 10
-5.6013263896
 20
-1.6582673358
 10
-5.6071149608
 20
-1.6848220656
 10
-5.6149878771
 20
-1.7121743684
 10
-5.6250179945
 20
-1.7401300435
 10
-5.6374377023
 20
-1.7684070532
 10
-5.652375855
 20
-1.7967350008
  0
LWPOLYLINE
  5
403
100
AcDbEntity
  8
RACCORDO
100
AcDbPolyline
 62
7
  6
CONTINUOUS
 90
9
 70
0
 10
-5.596284649
 20
-8.9513083716
 10
-5.5963356607
 20
-8.9562303053
 10
-5.5977645181
 20
-8.9808499268
 10
-5.6013263896
 20
-9.0064998269
 10
-5.6071149608
 20
-9.0330545567
 10
-5.6149878771
 20
-9.0604068596
 10
-5.6250179945
 20
-9.0883625346
 10
-5.6374377023
 20
-9.1166395443
 10
-5.652375855
 20
-9.1449674919
  0
LWPOLYLINE
  5
404
100
AcDbEntity
  8
ASSI
100
AcDbPolyline
 62
250
  6
CONTINUOUS
 90
13
 70
0
 10
-5.7275315404
 20
20.5265737219
 10
-5.7269627104
 20
20.5488196055
 10
-5.7252659531
 20
20.5725483227
 10
-5.7224703007
 20
20.5973538684
 10
-5.7186235877
 20
20.6228118124
 10
-5.7137916324
 20
20.6484865628
 10
-5.7080571107
 20
20.6739388189
 10
-5.701518142
 20
20.698733085
 10
-5.6942866096
 20
20.7224451251
 10
-5.6864862457
 20
20.744669223
 10
-5.6782505161
 20
20.7650251182
 10
-5.6697203366
 20
20.7831645134
 10
-5.661041661
 20
20.7987770372
  0
LWPOLYLINE
  5
405
100
AcDbEntity
  8
ASSI
100
AcDbPolyline
 62
7
  6
CONTINUOUS
 90
20
 70
0
 10
-5.0613229799
 20
19.6681254197
 10
-5.0635839556
 20
19.6411075336
 10
-5.0698927892
 20
19.6160537792
 10
-5.0801813324
 20
19.5912267933
 10
-5.0942198659
 20
19.5672437397
 10
-5.1121046419
 20
19.5441308809
 10
-5.1337394083
 20
19.5218619544
 10
-5.15860569
 20
19.5009753358
 10
-5.186784036
 20
19.481505852
 10
-5.2181938972
 20
19.4634186763
 10
-5.2520751513
 20
19.4471477034
 10
-5.288484378
 20
19.43273893
 10
-5.3273649977
 20
19.4201463595
 10
-5.3677871487
 20
19.4096658977
 10
-5.4098006194
 20
19.4013494485
 10
-5.4533556216
 20
19.395145108
 10
-5.4973729282
 20
19.3911930708
 10
-5.5414927972
 20
19.3895400685
 10
-5.5860749707
 20
19.3901393695
 10
-5.6311194488
 20
19.3929909738
  0
LWPOLYLINE
  5
406
100
AcDbEntity
  8
ASSI
100
AcDbPolyline
 62
250
  6
CONTINUOUS
 90
3
 70
0
 10
-7.1301758787
 20
-21.952827753
 10
-7.1325998001
 20
-21.9781916421
 10
-7.1375695951
 20
-22.002609284
  0
LWPOLYLINE
  5
407
100
AcDbEntity
  8
ASSI
100
AcDbPolyline
 62
250
  6
CONTINUOUS
 90
7
 70
0
 10
-7.0814375552
 20
-22.2917028661
 10
-7.0828186597
 20
-22.3052503788
 10
-7.0875438994
 20
-22.3200198823
 10
-7.0955463987
 20
-22.3343063853
 10
-7.1066865566
 20
-22.3478672314
 10
-7.1207743769
 20
-22.3604758534
 10
-7.1375695951
 20
-22.3719202735
  0
LWPOLYLINE
  5
408
100
AcDbEntity
  8
ASSI
100
AcDbPolyline
 62
250
  6
CONTINUOUS
 90
7
 70
0
 10
-7.0814375552
 20
-21.9223918766
 10
-7.0828498862
 20
-21.9360911499
 10
-7.0875874028
 20
-21.9508080137
 10
-7.0955851463
 20
-21.9650517154
 10
-7.1067130804
 20
-21.9785837455
 10
-7.1207860123
 20
-21.9911739247
 10
-7.1375695951
 20
-22.002609284
  0
LWPOLYLINE
  5
409
100
AcDbEntity
  8
ASSI
100
AcDbPolyline
 62
250
  6
CONTINUOUS
 90
6
 70
0
 10
-7.5677724856
 20
-21.7764735433
 10
-7.5692280354
 20
-21.7903800889
 10
-7.5739981523
 20
-21.8050615572
 10
-7.5820106284
 20
-21.8192646642
 10
-7.593131388
 20
-21.8327517542
 10
-7.6071743471
 20
-21.8452971546
  0
LINE
  5
40A
100
AcDbEntity
  8
DRAFT
100
AcDbLine
 62
7
  6
CONTINUOUS
 10
-5.6000889957
 20
-5.4455566374
 11
-5.6143398532
 21
-5.543177428
  0
LINE
  5
40B
100
AcDbEntity
  8
DRAFT
100
AcDbLine
 62
7
  6
CONTINUOUS
 10
-5.6000889957
 20
-3.901405659
 11
-5.6143398532
 21
-3.9918839021
  0
LWPOLYLINE
  5
40C
100
AcDbEntity
  8
RACCORDO
100
AcDbPolyline
 62
250
  6
CONTINUOUS
 90
3
 70
0
 10
-9.5128043321
 20
-28.1809977184
 10
-9.5061927935
 20
-28.1417140315
 10
-9.5033173708
 20
-28.0996778374
  0
LWPOLYLINE
  5
40D
100
AcDbEntity
  8
ASSI
100
AcDbPolyline
 62
250
  6
CONTINUOUS
 90
3
 70
0
 10
-9.5128043321
 20
-28.1809977184
 10
-9.5061927935
 20
-28.1417140315
 10
-9.5033173708
 20
-28.0996778374
  0
LINE
  5
40E
100
AcDbEntity
  8
DRAFT
100
AcDbLine
 62
7
  6
CONTINUOUS
 10
-1.9913702605
 20
17.1598491181
 11
-4.40358666
 21
15.6965170765
  0
LINE
  5
40F
100
AcDbEntity
  8
DRAFT
100
AcDbLine
 62
7
  6
CONTINUOUS
 10
-1.8561619313
 20
17.120402689
 11
-4.3374196962
 21
15.6151913697
  0
LINE
  5
410
100
AcDbEntity
  8
ASSI
100
AcDbLine
 62
7
  6
CONTINUOUS
 10
-2.6495454943
 20
16.6665707346
 11
-4.3623326415
 21
15.6284522518
  0
LINE
  5
411
100
AcDbEntity
  8
ASSI
100
AcDbLine
 62
7
  6
CONTINUOUS
 10
-7.6239045256
 20
14.0130763901
 11
-8.5497292842
 21
13.4679940606
  0
LINE
  5
412
100
AcDbEntity
  8
0
100
AcDbLine
 62
7
  6
CONTINUOUS
 10
5.1636516666
 20
21.1506763887
 11
5.3725841189
 21
21.2713113681
  0
LINE
  5
413
100
AcDbEntity
  8
0
100
AcDbLine
 62
7
  6
CONTINUOUS
 10
5.5690007578
 20
21.173433361
 11
5.7362643498
 21
21.2700092627
  0
LINE
  5
414
100
AcDbEntity
  8
RACCORDO
100
AcDbLine
 62
7
  6
CONTINUOUS
 10
2.9066721063
 20
19.013355373
 11
2.6342874364
 21
18.8560838784
  0
LINE
  5
415
100
AcDbEntity
  8
0
100
AcDbLine
 62
7
  6
CONTINUOUS
 10
6.0503745897
 20
20.6386936862
 11
6.259307042
 21
20.7593286656
  0
LINE
  5
416
100
AcDbEntity
  8
0
100
AcDbLine
 62
7
  6
CONTINUOUS
 10
6.3371468007
 20
20.7704848552
 11
6.3675015211
 21
20.7880112903
  0
LINE
  5
417
100
AcDbEntity
  8
0
100
AcDbLine
 62
7
  6
CONTINUOUS
 10
6.4130114267
 20
20.7657693959
 11
6.5112942893
 21
20.822516689
  0
LINE
  5
418
100
AcDbEntity
  8
0
100
AcDbLine
 62
7
  6
CONTINUOUS
 10
6.1673789825
 20
20.5820191099
 11
6.3763114348
 21
20.7026540893
  0
LINE
  5
419
100
AcDbEntity
  8
0
100
AcDbLine
 62
7
  6
CONTINUOUS
 10
6.5352010185
 20
20.7042825747
 11
6.6356506823
 21
20.7622809517
  0
LINE
  5
41A
100
AcDbEntity
  8
0
100
AcDbLine
 62
7
  6
CONTINUOUS
 10
6.5476114114
 20
20.6568300115
 11
6.5711554671
 21
20.6704240543
  0
LINE
  5
41B
100
AcDbEntity
  8
0
100
AcDbLine
 62
250
  6
CONTINUOUS
 10
6.5222896029
 20
20.4274402405
 11
6.7312220552
 21
20.5480752199
  0
LINE
  5
41C
100
AcDbEntity
  8
0
100
AcDbLine
 62
7
  6
CONTINUOUS
 10
7.0377377673
 20
20.4321360002
 11
7.1125702308
 21
20.4753433267
  0
LINE
  5
41D
100
AcDbEntity
  8
RACCORDO
100
AcDbLine
 62
7
  6
CONTINUOUS
 10
3.755202814
 20
18.5234273451
 11
3.4242210538
 21
18.332322625
  0
LINE
  5
41E
100
AcDbEntity
  8
0
100
AcDbLine
 62
7
  6
CONTINUOUS
 10
7.1454557367
 20
20.4594142486
 11
7.2475188663
 21
20.5183442205
  0
LINE
  5
41F
100
AcDbEntity
  8
0
100
AcDbLine
 62
7
  6
CONTINUOUS
 10
7.2441513169
 20
20.3133290328
 11
7.3186602289
 21
20.3563495448
  0
LINE
  5
420
100
AcDbEntity
  8
0
100
AcDbLine
 62
250
  6
CONTINUOUS
 10
7.0767111529
 20
20.1413303125
 11
7.2856436044
 21
20.2619652915
  0
LINE
  5
421
100
AcDbEntity
  8
0
100
AcDbLine
 62
7
  6
CONTINUOUS
 10
7.1987379661
 20
20.0886578407
 11
7.4076704184
 21
20.2092928201
  0
LINE
  5
422
100
AcDbEntity
  8
0
100
AcDbLine
 62
7
  6
CONTINUOUS
 10
7.744411135
 20
20.1692922919
 11
7.7696552529
 21
20.1838679293
  0
LINE
  5
423
100
AcDbEntity
  8
DRAFT
100
AcDbLine
 62
7
  6
CONTINUOUS
 10
-2.6476735085
 20
16.6634821534
 11
-1.8561619313
 21
17.120402689
  0
LINE
  5
424
100
AcDbEntity
  8
DRAFT
100
AcDbLine
 62
7
  6
CONTINUOUS
 10
-4.3497741681
 20
15.6080594312
 11
-4.3374196962
 21
15.6151913697
  0
LINE
  5
425
100
AcDbEntity
  8
DRAFT
100
AcDbLine
 62
7
  6
CONTINUOUS
 10
7.2062261044
 20
19.8613828827
 11
3.6852523898
 21
17.869107576
  0
LINE
  5
426
100
AcDbEntity
  8
ASSI
100
AcDbLine
 62
250
  6
CONTINUOUS
 10
-3.9302577413
 20
16.5945905857
 11
-2.2352947818
 21
17.5508144868
  0
LINE
  5
427
100
AcDbEntity
  8
DRAFT
100
AcDbLine
 62
7
  6
CONTINUOUS
 10
6.7973657462
 20
20.0974537293
 11
3.8095883161
 21
18.4325573013
  0
LINE
  5
428
100
AcDbEntity
  8
DRAFT
100
AcDbLine
 62
7
  6
CONTINUOUS
 10
1.2361314098
 20
19.4528867443
 11
1.5274386368
 21
19.6124278098
  0
LWPOLYLINE
  5
429
100
AcDbEntity
  8
RACCORDO
100
AcDbPolyline
 62
7
  6
CONTINUOUS
 90
10
 70
0
 10
3.7551739181
 20
18.523410661
 10
3.7665703823
 20
18.5294915628
 10
3.7777907848
 20
18.534500946
 10
3.7888351255
 20
18.5384388105
 10
3.7997983845
 20
18.5413153681
 10
3.8105855816
 20
18.5431204069
 10
3.8209117771
 20
18.5438232923
 10
3.8306819908
 20
18.5434138125
 10
3.8399912028
 20
18.5419021791
 10
3.8488394131
 20
18.5392883922
  0
LINE
  5
42A
100
AcDbEntity
  8
ASSI
100
AcDbLine
 62
250
  6
CONTINUOUS
 10
-7.5677724856
 20
14.7052970912
 11
-3.9302577413
 21
16.5945905857
  0
LINE
  5
42B
100
AcDbEntity
  8
RACCORDO
100
AcDbLine
 62
250
  6
CONTINUOUS
 10
-9.4932321711
 20
14.0564131923
 11
-8.60465441
 21
14.5048811005
  0
LINE
  5
42C
100
AcDbEntity
  8
ASSI
100
AcDbLine
 62
250
  6
CONTINUOUS
 10
-9.4932321711
 20
14.0564131923
 11
-8.60465441
 21
14.5048811005
  0
LWPOLYLINE
  5
42D
100
AcDbEntity
  8
RACCORDO
100
AcDbPolyline
 62
250
  6
CONTINUOUS
 90
7
 70
0
 10
-8.9491242134
 20
15.1217205144
 10
-8.9318455804
 20
15.1287004486
 10
-8.9150188365
 20
15.1329821231
 10
-8.8989008303
 20
15.1345001813
 10
-8.8837375918
 20
15.133231451
 10
-8.8697605772
 20
15.1291952985
 10
-8.8616603752
 20
15.1252572214
  0
LWPOLYLINE
  5
42E
100
AcDbEntity
  8
ASSI
100
AcDbPolyline
 62
250
  6
CONTINUOUS
 90
7
 70
0
 10
-8.9491242134
 20
15.1217205144
 10
-8.9318455804
 20
15.1287004486
 10
-8.9150188365
 20
15.1329821231
 10
-8.8989008303
 20
15.1345001813
 10
-8.8837375918
 20
15.133231451
 10
-8.8697605772
 20
15.1291952985
 10
-8.8616603752
 20
15.1252572214
  0
LWPOLYLINE
  5
42F
100
AcDbEntity
  8
RACCORDO
100
AcDbPolyline
 62
250
  6
CONTINUOUS
 90
3
 70
0
 10
-9.5837144748
 20
14.0162550886
 10
-9.5418549285
 20
14.0330289803
 10
-9.5033173708
 20
14.0520944448
  0
LWPOLYLINE
  5
430
100
AcDbEntity
  8
ASSI
100
AcDbPolyline
 62
250
  6
CONTINUOUS
 90
3
 70
0
 10
-9.5837144748
 20
14.0162550886
 10
-9.5418549285
 20
14.0330289803
 10
-9.5033173708
 20
14.0520944448
  0
LINE
  5
431
100
AcDbEntity
  8
DRAFT
100
AcDbLine
 62
7
  6
CONTINUOUS
 10
6.8358903149
 20
20.1118589448
 11
6.7973657462
 21
20.0974537293
  0
LWPOLYLINE
  5
432
100
AcDbEntity
  8
RACCORDO
100
AcDbPolyline
 62
7
  6
CONTINUOUS
 90
3
 70
0
 10
-2.9030889927
 20
0.158430378
 10
-2.8499833711
 20
0.1287689398
 10
-2.7908907338
 20
0.0953347716
  0
LINE
  5
433
100
AcDbEntity
  8
RACCORDO
100
AcDbLine
 62
7
  6
CONTINUOUS
 10
-2.918699764
 20
0.1672913343
 11
-2.9030889927
 21
0.158430378
  0
LINE
  5
434
100
AcDbEntity
  8
RACCORDO
100
AcDbLine
 62
7
  6
CONTINUOUS
 10
-2.7908907338
 20
0.0953347716
 11
-2.7292820651
 21
0.0603567539
  0
LWPOLYLINE
  5
435
100
AcDbEntity
  8
RACCORDO
100
AcDbPolyline
 62
7
  6
CONTINUOUS
 90
6
 70
0
 10
-2.7292820651
 20
0.0603567539
 10
-2.7092532666
 20
0.0488396172
 10
-2.6896313435
 20
0.0376905284
 10
-2.6706282225
 20
0.0270289004
 10
-2.6526154474
 20
0.0167497881
 10
-2.6359001299
 20
0.0068225468
  0
LINE
  5
436
100
AcDbEntity
  8
RACCORDO
100
AcDbLine
 62
7
  6
CONTINUOUS
 10
-3.652500952
 20
0.5909819675
 11
-2.918699764
 21
0.1672913343
  0
LINE
  5
437
100
AcDbEntity
  8
CURVE
100
AcDbLine
 62
250
  6
CONTINUOUS
 10
-17.6955102327
 20
10.8871179059
 11
-17.5741954578
 21
10.8170722753
  0
LWPOLYLINE
  5
438
100
AcDbEntity
  8
ASSI
100
AcDbPolyline
 62
7
  6
CONTINUOUS
 90
5
 70
0
 10
-12.2469349798
 20
17.5402079877
 10
-12.2468869181
 20
17.540141987
 10
-12.2472999858
 20
17.5408494821
 10
-12.2486007108
 20
17.5435140346
 10
-12.2504043274
 20
17.5481627566
  0
LINE
  5
439
100
AcDbEntity
  8
DRAFT
100
AcDbLine
 62
7
  6
CONTINUOUS
 10
-15.5179627407
 20
22.0706967985
 11
-15.5035504504
 21
22.0457339794
  0
LWPOLYLINE
  5
43A
100
AcDbEntity
  8
DRAFT
100
AcDbPolyline
 62
7
  6
CONTINUOUS
 90
7
 70
0
 10
-8.5497292842
 20
11.4636242373
 10
-8.3438401012
 20
11.1009711346
 10
-8.0842001711
 20
10.6318460906
 10
-7.829895047
 20
10.1603348887
 10
-7.5810165899
 20
9.6866035059
 10
-7.3374729388
 20
9.2104859652
 10
-7.0992640937
 20
8.7319822666
  0
LWPOLYLINE
  5
43B
100
AcDbEntity
  8
DRAFT
100
AcDbPolyline
 62
7
  6
CONTINUOUS
 90
3
 70
0
 10
-8.5497292842
 20
9.7959849507
 10
-8.3810759328
 20
9.4779446858
 10
-8.0846344374
 20
8.8996645248
  0
LINE
  5
43C
100
AcDbEntity
  8
DRAFT
100
AcDbLine
 62
7
  6
CONTINUOUS
 10
-7.4448644956
 20
17.8281414948
 11
-7.5831485532
 21
18.1849237169
  0
LWPOLYLINE
  5
43D
100
AcDbEntity
  8
ASSI
100
AcDbPolyline
 62
250
  6
CONTINUOUS
 90
6
 70
0
 10
-7.4410481897
 20
15.7173868278
 10
-7.4360916733
 20
15.7018083138
 10
-7.4336622961
 20
15.6878564786
 10
-7.4338013104
 20
15.6757682337
 10
-7.4365063556
 20
15.6657488455
 10
-7.4417145977
 20
15.6579857714
  0
LWPOLYLINE
  5
43E
100
AcDbEntity
  8
ASSI
100
AcDbPolyline
 62
250
  6
CONTINUOUS
 90
6
 70
0
 10
-7.1375695951
 20
16.0286439886
 10
-7.1325997999
 20
16.0130123283
 10
-7.1301758786
 20
15.9990240519
 10
-7.1303368495
 20
15.9869165931
 10
-7.1330771304
 20
15.9768957984
 10
-7.1382229082
 20
15.9692563761
  0
LWPOLYLINE
  5
43F
100
AcDbEntity
  8
ASSI
100
AcDbPolyline
 62
7
  6
CONTINUOUS
 90
5
 70
0
 10
-7.5426144121
 20
19.4317595011
 10
-7.5397991805
 20
19.4163732433
 10
-7.5377865872
 20
19.4008960658
 10
-7.5365812812
 20
19.3853874387
 10
-7.536180583
 20
19.3698857931
  0
LINE
  5
440
100
AcDbEntity
  8
ASSI
100
AcDbLine
 62
250
  6
CONTINUOUS
 10
-5.8201923003
 20
19.483292884
 11
-5.8045473972
 21
19.3610737329
  0
LINE
  5
441
100
AcDbEntity
  8
ASSI
100
AcDbLine
 62
250
  6
CONTINUOUS
 10
-5.8364416333
 20
19.6130727805
 11
-5.8201923003
 21
19.483292884
  0
LWPOLYLINE
  5
442
100
AcDbEntity
  8
ASSI
100
AcDbPolyline
 62
250
  6
CONTINUOUS
 90
13
 70
0
 10
-7.1291004806
 20
19.8016910288
 10
-7.1317405887
 20
19.8231145724
 10
-7.1365283376
 20
19.8452135489
 10
-7.1433906113
 20
19.8676506071
 10
-7.1522226255
 20
19.8900832363
 10
-7.1628895355
 20
19.9121690157
 10
-7.1752285014
 20
19.9335708398
 10
-7.1890511535
 20
19.9539620253
 10
-7.2041464829
 20
19.9730313292
 10
-7.2202840803
 20
19.9904877126
 10
-7.2372176191
 20
20.0060647362
 10
-7.2546886102
 20
20.0195246347
 10
-7.2724303711
 20
20.0306619705
  0
LWPOLYLINE
  5
443
100
AcDbEntity
  8
ASSI
100
AcDbPolyline
 62
250
  6
CONTINUOUS
 90
13
 70
0
 10
-5.9405074268
 20
20.5124482631
 10
-5.9431474471
 20
20.5338712993
 10
-5.9479350384
 20
20.5559698526
 10
-5.9547971203
 20
20.5784065983
 10
-5.9636289471
 20
20.6008390494
 10
-5.9742957046
 20
20.6229247837
 10
-5.9866345685
 20
20.6443266706
 10
-6.0004571911
 20
20.6647180191
 10
-6.0155525761
 20
20.6837875641
 10
-6.0316902978
 20
20.7012442164
 10
-6.0486240201
 20
20.7168215079
 10
-6.0660952572
 20
20.7302816582
 10
-6.0838373183
 20
20.7414192042
  0
LWPOLYLINE
  5
444
100
AcDbEntity
  8
ASSI
100
AcDbPolyline
 62
250
  6
CONTINUOUS
 90
13
 70
0
 10
-5.0542406424
 20
21.0424198346
 10
-5.0568806671
 20
21.06384289
 10
-5.0616682647
 20
21.0859414575
 10
-5.0685303529
 20
21.1083782114
 10
-5.077362183
 20
21.1308106621
 10
-5.0880289401
 20
21.1528963897
 10
-5.1003678024
 20
21.1742982696
 10
-5.1141904237
 20
21.1946896133
 10
-5.1292858066
 20
21.2137591535
 10
-5.1454235255
 20
21.231215801
 10
-5.1623572445
 20
21.2467930874
 10
-5.1798284778
 20
21.2602532331
 10
-5.1975705347
 20
21.2713907752
  0
LINE
  5
445
100
AcDbEntity
  8
ASSI
100
AcDbLine
 62
250
  6
CONTINUOUS
 10
-5.8533128183
 20
19.7507044763
 11
-5.8364416333
 21
19.6130727805
  0
LINE
  5
446
100
AcDbEntity
  8
ASSI
100
AcDbLine
 62
250
  6
CONTINUOUS
 10
-5.8708777266
 20
19.8972560986
 11
-5.8533128183
 21
19.7507044763
  0
LWPOLYLINE
  5
447
100
AcDbEntity
  8
ASSI
100
AcDbPolyline
 62
250
  6
CONTINUOUS
 90
4
 70
0
 10
-5.9080113211
 20
20.2184107326
 10
-5.8984973929
 20
20.1346332067
 10
-5.8891212822
 20
20.0531339319
 10
-5.8708777266
 20
19.8972560986
  0
LINE
  5
448
100
AcDbEntity
  8
ASSI
100
AcDbLine
 62
250
  6
CONTINUOUS
 10
-5.9274333694
 20
20.3927529536
 11
-5.9080113211
 21
20.2184107326
  0
LINE
  5
449
100
AcDbEntity
  8
ASSI
100
AcDbLine
 62
250
  6
CONTINUOUS
 10
-1.9087338242
 20
21.603798348
 11
-1.9394955621
 21
22.0275489715
  0
LINE
  5
44A
100
AcDbEntity
  8
SMUSSO
100
AcDbLine
 62
250
  6
CONTINUOUS
 10
-1.8304043836
 20
21.6456112329
 11
-1.8611736328
 21
22.0694653268
  0
LINE
  5
44B
100
AcDbEntity
  8
SMUSSO
100
AcDbLine
 62
7
  6
CONTINUOUS
 10
-1.1110658198
 20
22.4953892391
 11
-1.0766969073
 21
22.0219488835
  0
LINE
  5
44C
100
AcDbEntity
  8
ASSI
100
AcDbLine
 62
7
  6
CONTINUOUS
 10
-2.6476735085
 20
16.7617133738
 11
-2.6476735085
 21
16.6634821534
  0
LINE
  5
44D
100
AcDbEntity
  8
RACCORDO
100
AcDbLine
 62
250
  6
CONTINUOUS
 10
-2.6359001299
 20
1.2655959743
 11
-2.6359001299
 21
0.0068225468
  0
LINE
  5
44E
100
AcDbEntity
  8
RACCORDO
100
AcDbLine
 62
250
  6
CONTINUOUS
 10
-2.6359001299
 20
-6.0826365168
 11
-2.6359001299
 21
-7.3414099444
  0
LINE
  5
44F
100
AcDbEntity
  8
DRAFT
100
AcDbLine
 62
7
  6
CONTINUOUS
 10
-2.1664383702
 20
11.6460973219
 11
-2.1664383702
 21
-17.1605268307
  0
LINE
  5
450
100
AcDbEntity
  8
DRAFT
100
AcDbLine
 62
7
  6
CONTINUOUS
 10
-2.1141612864
 20
11.5711078484
 11
-2.1141612864
 21
-17.1459056233
  0
LINE
  5
451
100
AcDbEntity
  8
SMUSSO
100
AcDbLine
 62
7
  6
CONTINUOUS
 10
-0.9582816672
 20
21.8232855788
 11
-0.9582816672
 21
21.4185077273
  0
LINE
  5
452
100
AcDbEntity
  8
SMUSSO
100
AcDbLine
 62
7
  6
CONTINUOUS
 10
-0.9582816672
 20
20.4137735952
 11
-0.9582816672
 21
20.5814906144
  0
LINE
  5
453
100
AcDbEntity
  8
DRAFT
100
AcDbLine
 62
250
  6
CONTINUOUS
 10
-0.4861011532
 20
20.4425899172
 11
-0.4861011532
 21
20.1806654552
  0
LINE
  5
454
100
AcDbEntity
  8
DRAFT
100
AcDbLine
 62
7
  6
CONTINUOUS
 10
-0.311311519
 20
20.1430862305
 11
-0.311311519
 21
20.1095462377
  0
LINE
  5
455
100
AcDbEntity
  8
DRAFT
100
AcDbLine
 62
7
  6
CONTINUOUS
 10
-0.09890696
 20
20.2582578554
 11
-0.09890696
 21
20.0350726008
  0
LWPOLYLINE
  5
456
100
AcDbEntity
  8
SMUSSO
100
AcDbPolyline
 62
7
  6
CONTINUOUS
 90
10
 70
0
 10
-1.2579167023
 20
21.1215524766
 10
-1.2574979845
 20
21.148664213
 10
-1.2503577998
 20
21.2365975952
 10
-1.234400008
 20
21.3240600008
 10
-1.2096762671
 20
21.4107617021
 10
-1.1762658557
 20
21.4964186675
 10
-1.1342741056
 20
21.5807735464
 10
-1.0838340633
 20
21.6635557753
 10
-1.0251073359
 20
21.7444826371
 10
-0.9582816672
 20
21.8232855788
  0
LINE
  5
457
100
AcDbEntity
  8
DRAFT
100
AcDbLine
 62
7
  6
CONTINUOUS
 10
-8.0846344374
 20
8.8590853946
 11
-8.5497292842
 21
8.5780718438
  0
LINE
  5
458
100
AcDbEntity
  8
DRAFT
100
AcDbLine
 62
7
  6
CONTINUOUS
 10
-2.1664383702
 20
11.6460973219
 11
-7.0992640937
 21
8.7319822666
  0
LINE
  5
459
100
AcDbEntity
  8
DRAFT
100
AcDbLine
 62
7
  6
CONTINUOUS
 10
9.7015840884
 20
18.5514496691
 11
-2.1141612864
 21
11.5711078484
  0
LINE
  5
45A
100
AcDbEntity
  8
0
100
AcDbLine
 62
7
  6
CONTINUOUS
 10
8.4097765858
 20
19.6059970515
 11
8.6187090381
 21
19.7266320309
  0
LINE
  5
45B
100
AcDbEntity
  8
DRAFT
100
AcDbLine
 62
7
  6
CONTINUOUS
 10
-8.5497292842
 20
6.9278783002
 11
-8.0846344374
 21
7.1964201138
  0
LWPOLYLINE
  5
45C
100
AcDbEntity
  8
RACCORDO
100
AcDbPolyline
 62
250
  6
CONTINUOUS
 90
49
 70
0
 10
-5.5028098766
 20
-3.7631047828
 10
-5.4367918269
 20
-3.7457962371
 10
-5.3721066726
 20
-3.7355149563
 10
-5.3102636684
 20
-3.7323300668
 10
-5.2512393103
 20
-3.7367860901
 10
-5.1950571023
 20
-3.7483385046
 10
-5.1432968113
 20
-3.7654228723
 10
-5.0964630317
 20
-3.7882383835
 10
-5.0540511691
 20
-3.8165858478
 10
-5.0161272079
 20
-3.8483032555
 10
-4.9829570203
 20
-3.8832179124
 10
-4.9542747342
 20
-3.9215025127
 10
-4.9293487173
 20
-3.9615131293
 10
-4.9082320652
 20
-4.0030016614
 10
-4.8908716823
 20
-4.0462162097
 10
-4.8763766501
 20
-4.0902571496
 10
-4.8646692705
 20
-4.1347289741
 10
-4.8558272416
 20
-4.1800271902
 10
-4.8491927389
 20
-4.2264386942
 10
-4.844542539
 20
-4.2736215238
 10
-4.8420998652
 20
-4.3219176412
 10
-4.8418765638
 20
-4.3726398291
 10
-4.8435864856
 20
-4.4257953435
 10
-4.8475157797
 20
-4.4813769285
 10
-4.8545347388
 20
-4.5406755985
 10
-4.8646088894
 20
-4.6042950693
 10
-4.8777727049
 20
-4.6716316253
 10
-4.894999898
 20
-4.742165134
 10
-4.9169105263
 20
-4.8170425814
 10
-4.9428845322
 20
-4.8951169816
 10
-4.9720354552
 20
-4.9724272441
 10
-5.0047601672
 20
-5.0486452284
 10
-5.0406617964
 20
-5.1240990749
 10
-5.0776632658
 20
-5.1958121144
 10
-5.1154248545
 20
-5.2628474493
 10
-5.1542862835
 20
-5.3261419772
 10
-5.1931896388
 20
-5.3855297215
 10
-5.2317133713
 20
-5.4405639413
 10
-5.27027903
 20
-5.4916913775
 10
-5.3090933483
 20
-5.540086276
 10
-5.3478614817
 20
-5.5857154526
 10
-5.3868782747
 20
-5.6286120915
 10
-5.4272349937
 20
-5.6700499917
 10
-5.4690118435
 20
-5.7104184343
 10
-5.5121286193
 20
-5.7493281382
 10
-5.5574359721
 20
-5.7868850585
 10
-5.6052174523
 20
-5.8231245136
 10
-5.6551895094
 20
-5.8580111851
 10
-5.7073521435
 20
-5.891545073
  0
LWPOLYLINE
  5
45D
100
AcDbEntity
  8
RACCORDO
100
AcDbPolyline
 62
250
  6
CONTINUOUS
 90
3
 70
0
 10
-9.7499832772
 20
14.5797924903
 10
-9.7850184837
 20
14.6118859449
 10
-9.8207375954
 20
14.6401439033
  0
LWPOLYLINE
  5
45E
100
AcDbEntity
  8
ASSI
100
AcDbPolyline
 62
250
  6
CONTINUOUS
 90
3
 70
0
 10
-9.7499832772
 20
14.5797924903
 10
-9.7850184837
 20
14.6118859449
 10
-9.8207375954
 20
14.6401439033
  0
LWPOLYLINE
  5
45F
100
AcDbEntity
  8
ASSI
100
AcDbPolyline
 62
250
  6
CONTINUOUS
 90
7
 70
0
 10
-12.7950615357
 20
21.5845003995
 10
-12.8004110775
 20
21.5913243239
 10
-12.8157690287
 20
21.6074333551
 10
-12.8332919428
 20
21.6213465251
 10
-12.8527088015
 20
21.632848698
 10
-12.873719318
 20
21.6417620429
 10
-12.8959985611
 20
21.6479487595
  0
LINE
  5
460
100
AcDbEntity
  8
ASSI
100
AcDbLine
 62
7
  6
CONTINUOUS
 10
-12.794837585
 20
21.5841974263
 11
-12.7950615357
 21
21.5845003995
  0
LINE
  5
461
100
AcDbEntity
  8
DRAFT
100
AcDbLine
 62
7
  6
CONTINUOUS
 10
-12.9080516811
 20
23.5016253179
 11
-12.8944348394
 21
23.4780402563
  0
LWPOLYLINE
  5
462
100
AcDbEntity
  8
ASSI
100
AcDbPolyline
 62
250
  6
CONTINUOUS
 90
37
 70
0
 10
-9.7686857614
 20
23.1704791412
 10
-9.7633944097
 20
23.161011875
 10
-9.7588234986
 20
23.151717814
 10
-9.7549730283
 20
23.1425969582
 10
-9.7518898709
 20
23.1336351137
 10
-9.7495271543
 20
23.1248464744
 10
-9.7477442616
 20
23.1162736225
 10
-9.7465377221
 20
23.1079238947
 10
-9.7459110064
 20
23.0997899543
 10
-9.7457339103
 20
23.0918923733
 10
-9.7459957136
 20
23.0842524031
 10
-9.7467071365
 20
23.0768487923
 10
-9.7477701351
 20
23.0696383584
 10
-9.7491671294
 20
23.0626287669
 10
-9.7509156995
 20
23.0558123523
 10
-9.7529705423
 20
23.0491229359
 10
-9.7553208644
 20
23.0425518247
 10
-9.7579774592
 20
23.0361077118
 10
-9.7609274031
 20
23.029750497
 10
-9.7641666959
 20
23.0234720927
 10
-9.7676993377
 20
23.0172805867
 10
-9.7715244051
 20
23.011160142
 10
-9.7756372899
 20
23.0051094595
 10
-9.7800426002
 20
22.9991298385
 10
-9.7847532376
 20
22.9932093403
 10
-9.7897647837
 20
22.9873465079
 10
-9.7950816568
 20
22.9815427984
 10
-9.800730013
 20
22.9757906446
 10
-9.8067058832
 20
22.9700878362
 10
-9.8130132364
 20
22.9644365836
 10
-9.8196901357
 20
22.958835951
 10
-9.8267330554
 20
22.9532830641
 10
-9.8341455211
 20
22.9477807971
 10
-9.8419761728
 20
22.942336837
 10
-9.8502412238
 20
22.9369537458
 10
-9.8589244608
 20
22.9316289615
 10
-9.8680258838
 20
22.9263624839
  0
LWPOLYLINE
  5
463
100
AcDbEntity
  8
ASSI
100
AcDbPolyline
 62
250
  6
CONTINUOUS
 90
4
 70
0
 10
-7.5675937575
 20
19.5043903931
 10
-7.5697418543
 20
19.5085523673
 10
-7.5742285949
 20
19.5159590226
 10
-7.5791184727
 20
19.5226089571
  0
LWPOLYLINE
  5
464
100
AcDbEntity
  8
DRAFT
100
AcDbPolyline
 62
7
  6
CONTINUOUS
 90
10
 70
0
 10
-2.1664383702
 20
11.6460973219
 10
-2.3954874725
 20
12.105410832
 10
-2.6294787339
 20
12.562518839
 10
-2.8684121543
 20
13.0174213427
 10
-3.1123696358
 20
13.4702666294
 10
-3.3612692764
 20
13.9209064129
 10
-3.6148653697
 20
14.3688958352
 10
-3.8730760137
 20
14.8140866102
 10
-4.1359831105
 20
15.256627024
 10
-4.40358666
 20
15.6965170765
  0
LWPOLYLINE
  5
465
100
AcDbEntity
  8
DRAFT
100
AcDbPolyline
 62
7
  6
CONTINUOUS
 90
10
 70
0
 10
-2.1141612864
 20
11.5711078484
 10
-2.3417244836
 20
12.0295521077
 10
-2.574214688
 20
12.4858312379
 10
-2.8116318994
 20
12.9399452388
 10
-3.0540569557
 20
13.3920411538
 10
-3.301409019
 20
13.8419719395
 10
-3.5534455761
 20
14.2892964669
 10
-3.8100857891
 20
14.7338676929
 10
-4.0714104958
 20
15.1758326605
 10
-4.3374196962
 20
15.6151913697
  0
LINE
  5
466
100
AcDbEntity
  8
ASSI
100
AcDbLine
 62
7
  6
CONTINUOUS
 10
-7.5675757511
 20
19.504353388
 11
-7.5675937575
 21
19.5043903931
  0
LWPOLYLINE
  5
467
100
AcDbEntity
  8
ASSI
100
AcDbPolyline
 62
7
  6
CONTINUOUS
 90
6
 70
0
 10
-7.5675556381
 20
19.5043121391
 10
-7.5619997486
 20
19.4922760451
 10
-7.5559227435
 20
19.4773344235
 10
-7.5506643755
 20
19.4622356234
 10
-7.5462314051
 20
19.4470383517
 10
-7.5426144121
 20
19.4317595011
  0
LINE
  5
468
100
AcDbEntity
  8
ASSI
100
AcDbLine
 62
7
  6
CONTINUOUS
 10
-7.5673873947
 20
19.503949492
 11
-7.567357616
 21
19.5038810327
  0
LWPOLYLINE
  5
469
100
AcDbEntity
  8
ASSI
100
AcDbPolyline
 62
250
  6
CONTINUOUS
 90
3
 70
0
 10
-9.9573100367
 20
22.9687948205
 10
-9.950438096
 20
22.9527491874
 10
-9.9493801193
 20
22.9480753513
  0
LINE
  5
46A
100
AcDbEntity
  8
DRAFT
100
AcDbLine
 62
7
  6
CONTINUOUS
 10
1.5274386368
 20
19.6124278098
 11
1.5274386368
 21
20.1978133696
  0
LINE
  5
46B
100
AcDbEntity
  8
RACCORDO
100
AcDbLine
 62
250
  6
CONTINUOUS
 10
-9.5230796121
 20
-28.2170988726
 11
-9.5128043321
 21
-28.1809977184
  0
LINE
  5
46C
100
AcDbEntity
  8
ASSI
100
AcDbLine
 62
250
  6
CONTINUOUS
 10
-9.5230796121
 20
-28.2170988726
 11
-9.5128043321
 21
-28.1809977184
  0
LINE
  5
46D
100
AcDbEntity
  8
CURVE
100
AcDbLine
 62
250
  6
CONTINUOUS
 10
-14.8069592326
 20
-15.6361022549
 11
-14.852269928
 21
-15.7100764244
  0
LINE
  5
46E
100
AcDbEntity
  8
RACCORDO
100
AcDbLine
 62
7
  6
CONTINUOUS
 10
-5.3625607467
 20
-0.4514670777
 11
-5.3327980045
 21
-0.4136713788
  0
LINE
  5
46F
100
AcDbEntity
  8
RACCORDO
100
AcDbLine
 62
7
  6
CONTINUOUS
 10
-4.3743026781
 20
0.0038199011
 11
-5.3625607467
 21
-1.2198525242
  0
LINE
  5
470
100
AcDbEntity
  8
CURVE
100
AcDbLine
 62
7
  6
CONTINUOUS
 10
-20.4639556105
 20
-12.0882246028
 11
-20.3369167332
 21
-11.9611857254
  0
LINE
  5
471
100
AcDbEntity
  8
CURVE
100
AcDbLine
 62
7
  6
CONTINUOUS
 10
-20.4273785414
 20
-12.4716689617
 11
-20.1608720594
 21
-12.2051624796
  0
LINE
  5
472
100
AcDbEntity
  8
CURVE
100
AcDbLine
 62
7
  6
CONTINUOUS
 10
-20.256513716
 20
-12.7208255643
 11
-19.9848273856
 21
-12.4491392339
  0
LINE
  5
473
100
AcDbEntity
  8
CURVE
100
AcDbLine
 62
7
  6
CONTINUOUS
 10
-20.0804735673
 20
-12.9648068436
 11
-19.8087827118
 21
-12.6931159881
  0
LINE
  5
474
100
AcDbEntity
  8
CURVE
100
AcDbLine
 62
7
  6
CONTINUOUS
 10
-19.9044334187
 20
-13.208788123
 11
-19.632738038
 21
-12.9370927423
  0
LINE
  5
475
100
AcDbEntity
  8
CURVE
100
AcDbLine
 62
7
  6
CONTINUOUS
 10
-19.72839327
 20
-13.4527694023
 11
-19.4566933642
 21
-13.1810694965
  0
LINE
  5
476
100
AcDbEntity
  8
CURVE
100
AcDbLine
 62
7
  6
CONTINUOUS
 10
-19.5523531213
 20
-13.6967506817
 11
-19.2806486904
 21
-13.4250462508
  0
LINE
  5
477
100
AcDbEntity
  8
DRAFT
100
AcDbLine
 62
7
  6
CONTINUOUS
 10
-9.0214137728
 20
2.1684586776
 11
-8.0846344374
 21
2.7670047277
  0
LINE
  5
478
100
AcDbEntity
  8
RACCORDO
100
AcDbLine
 62
7
  6
CONTINUOUS
 10
-9.0214137728
 20
5.119054033
 11
-8.60465441
 21
5.3812524026
  0
LINE
  5
479
100
AcDbEntity
  8
ASSI
100
AcDbLine
 62
7
  6
CONTINUOUS
 10
-9.0214137728
 20
5.119054033
 11
-8.60465441
 21
5.3812524026
  0
LINE
  5
47A
100
AcDbEntity
  8
DRAFT
100
AcDbLine
 62
7
  6
CONTINUOUS
 10
11.0863582554
 20
17.4162030911
 11
11.5124101611
 21
17.6622009664
  0
LINE
  5
47B
100
AcDbEntity
  8
0
100
AcDbLine
 62
7
  6
CONTINUOUS
 10
13.0226637781
 20
16.821663594
 11
13.2315962304
 21
16.9422985734
  0
LINE
  5
47C
100
AcDbEntity
  8
0
100
AcDbLine
 62
7
  6
CONTINUOUS
 10
13.7976937176
 20
16.3741710204
 11
14.0066261699
 21
16.4948059998
  0
LINE
  5
47D
100
AcDbEntity
  8
0
100
AcDbLine
 62
7
  6
CONTINUOUS
 10
13.9220501106
 20
16.313935283
 11
14.1309825629
 21
16.4345702624
  0
LINE
  5
47E
100
AcDbEntity
  8
0
100
AcDbLine
 62
7
  6
CONTINUOUS
 10
13.9568262235
 20
16.2822857364
 11
14.1657586758
 21
16.4029207158
  0
LINE
  5
47F
100
AcDbEntity
  8
RACCORDO
100
AcDbLine
 62
7
  6
CONTINUOUS
 10
11.1126463019
 20
14.4027973593
 11
11.0863582554
 21
14.3876189707
  0
LINE
  5
480
100
AcDbEntity
  8
DRAFT
100
AcDbLine
 62
7
  6
CONTINUOUS
 10
-8.0846344374
 20
6.7677290709
 11
-8.5497292842
 21
6.5087344147
  0
LINE
  5
481
100
AcDbEntity
  8
DRAFT
100
AcDbLine
 62
7
  6
CONTINUOUS
 10
15.0774487426
 20
15.5618953379
 11
15.0269578047
 21
15.5430156238
  0
LINE
  5
482
100
AcDbEntity
  8
RACCORDO
100
AcDbLine
 62
250
  6
CONTINUOUS
 10
-10.2010480492
 20
14.0573681835
 11
-25.0692622176
 21
22.6420887018
  0
LINE
  5
483
100
AcDbEntity
  8
ASSI
100
AcDbLine
 62
250
  6
CONTINUOUS
 10
-10.2010480492
 20
14.0573681835
 11
-25.0692622176
 21
22.6420887018
  0
LWPOLYLINE
  5
484
100
AcDbEntity
  8
RACCORDO
100
AcDbPolyline
 62
250
  6
CONTINUOUS
 90
9
 70
0
 10
-25.0692622176
 20
22.6420887018
 10
-25.1038307589
 20
22.6642240115
 10
-25.1342623718
 20
22.6882992532
 10
-25.1602326896
 20
22.7140578131
 10
-25.1814672219
 20
22.7412285717
 10
-25.1977360806
 20
22.7695187604
 10
-25.2088626536
 20
22.7986158474
 10
-25.2147333741
 20
22.8282016909
 10
-25.2157087781
 20
22.8460983761
  0
LWPOLYLINE
  5
485
100
AcDbEntity
  8
ASSI
100
AcDbPolyline
 62
250
  6
CONTINUOUS
 90
9
 70
0
 10
-25.0692622176
 20
22.6420887018
 10
-25.1038307589
 20
22.6642240115
 10
-25.1342623718
 20
22.6882992532
 10
-25.1602326896
 20
22.7140578131
 10
-25.1814672219
 20
22.7412285717
 10
-25.1977360806
 20
22.7695187604
 10
-25.2088626536
 20
22.7986158474
 10
-25.2147333741
 20
22.8282016909
 10
-25.2157087781
 20
22.8460983761
  0
LINE
  5
486
100
AcDbEntity
  8
RACCORDO
100
AcDbLine
 62
250
  6
CONTINUOUS
 10
-9.8207375954
 20
14.6401439033
 11
-9.8567496075
 21
14.6642570351
  0
LINE
  5
487
100
AcDbEntity
  8
ASSI
100
AcDbLine
 62
250
  6
CONTINUOUS
 10
-9.8207375954
 20
14.6401439033
 11
-9.8567496075
 21
14.6642570351
  0
LWPOLYLINE
  5
488
100
AcDbEntity
  8
ASSI
100
AcDbPolyline
 62
250
  6
CONTINUOUS
 90
3
 70
0
 10
-12.8366568294
 20
21.5458043408
 10
-12.8154964605
 20
21.5271367007
 10
-12.7907880361
 20
21.5086385951
  0
LWPOLYLINE
  5
489
100
AcDbEntity
  8
RACCORDO
100
AcDbPolyline
 62
250
  6
CONTINUOUS
 90
5
 70
0
 10
-8.8323162282
 20
15.0320016073
 10
-8.85874158
 20
15.0566340563
 10
-8.8872946488
 20
15.0802957996
 10
-8.9174759316
 20
15.1021496428
 10
-8.9491242134
 20
15.1217205144
  0
LWPOLYLINE
  5
48A
100
AcDbEntity
  8
ASSI
100
AcDbPolyline
 62
250
  6
CONTINUOUS
 90
5
 70
0
 10
-8.8323162282
 20
15.0320016073
 10
-8.85874158
 20
15.0566340563
 10
-8.8872946488
 20
15.0802957996
 10
-8.9174759316
 20
15.1021496428
 10
-8.9491242134
 20
15.1217205144
  0
LWPOLYLINE
  5
48B
100
AcDbEntity
  8
ASSI
100
AcDbPolyline
 62
250
  6
CONTINUOUS
 90
7
 70
0
 10
-7.5791184727
 20
19.5226089571
 10
-7.5843608708
 20
19.5285799147
 10
-7.5898471362
 20
19.5338386615
 10
-7.5954068687
 20
19.5382521098
 10
-7.6009386913
 20
19.5418112256
 10
-7.6064139859
 20
19.5446175507
 10
-7.6117788429
 20
19.5467176893
  0
LWPOLYLINE
  5
48C
100
AcDbEntity
  8
ASSI
100
AcDbPolyline
 62
250
  6
CONTINUOUS
 90
6
 70
0
 10
-9.9573100742
 20
22.9687821203
 10
-9.9545921261
 20
22.9646899723
 10
-9.9522844022
 20
22.9606442684
 10
-9.9503638358
 20
22.9566578668
 10
-9.9488081903
 20
22.9527442881
 10
-9.9477065887
 20
22.9492732248
  0
LWPOLYLINE
  5
48D
100
AcDbEntity
  8
ASSI
100
AcDbPolyline
 62
250
  6
CONTINUOUS
 90
10
 70
0
 10
-3.9302577413
 20
16.5945905857
 10
-3.9902341536
 20
16.6880257462
 10
-4.0540581139
 20
16.7777273186
 10
-4.1213308428
 20
16.863122334
 10
-4.1916367502
 20
16.9436608335
 10
-4.2645304681
 20
17.01883282
 10
-4.3395400052
 20
17.0881706801
 10
-4.4161902086
 20
17.1512345159
 10
-4.4940053886
 20
17.2076158176
 10
-4.5724969799
 20
17.2569529391
  0
LWPOLYLINE
  5
48E
100
AcDbEntity
  8
ASSI
100
AcDbPolyline
 62
7
  6
CONTINUOUS
 90
10
 70
0
 10
-5.1166233914
 20
20.9745388666
 10
-5.1049220134
 20
20.9560671044
 10
-5.0946161368
 20
20.9371788063
 10
-5.0857140995
 20
20.9179538065
 10
-5.078232754
 20
20.8985201346
 10
-5.0721423893
 20
20.8789137513
 10
-5.0674003643
 20
20.8590752808
 10
-5.0640085336
 20
20.8390388994
 10
-5.0619799782
 20
20.8189348255
 10
-5.0613068488
 20
20.7988468697
  0
LWPOLYLINE
  5
48F
100
AcDbEntity
  8
ASSI
100
AcDbPolyline
 62
250
  6
CONTINUOUS
 90
37
 70
0
 10
-5.2820382305
 20
21.025414435
 10
-5.2879007523
 20
21.0347688521
 10
-5.2930327675
 20
21.0439647432
 10
-5.2974342761
 20
21.0530021082
 10
-5.3010592958
 20
21.0618960807
 10
-5.3039538089
 20
21.0706315271
 10
-5.3062557619
 20
21.0791630472
 10
-5.3079681784
 20
21.0874832386
 10
-5.3090880347
 20
21.0955995037
 10
-5.309744207
 20
21.1034886495
 10
-5.3099461194
 20
21.1111292206
 10
-5.3096843478
 20
21.1185426723
 10
-5.3090594955
 20
21.1257701776
 10
-5.3080886669
 20
21.1328037202
 10
-5.3067547578
 20
21.1396513163
 10
-5.3051070585
 20
21.1463781879
 10
-5.303156883
 20
21.1529928044
 10
-5.3008929175
 20
21.1594866963
 10
-5.2983305107
 20
21.1658996772
 10
-5.295474151
 20
21.1722397484
 10
-5.2923193501
 20
21.1784989086
 10
-5.2888679913
 20
21.1846929664
 10
-5.285124759
 20
21.1908231274
 10
-5.2810849688
 20
21.1968881861
 10
-5.2767364511
 20
21.2029003351
 10
-5.2720837099
 20
21.2088609412
 10
-5.2671222413
 20
21.2147686376
 10
-5.2618263636
 20
21.220631516
 10
-5.2562001776
 20
21.2264517052
 10
-5.2502395825
 20
21.2322270765
 10
-5.2439065946
 20
21.237959335
 10
-5.2372049115
 20
21.2436512822
 10
-5.2301308356
 20
21.2493001167
 10
-5.2226352898
 20
21.2548991399
 10
-5.2147019149
 20
21.260446119
 10
-5.20634707
 20
21.2659432868
 10
-5.1975707551
 20
21.2713906434
  0
LINE
  5
490
100
AcDbEntity
  8
DRAFT
100
AcDbLine
 62
250
  6
CONTINUOUS
 10
-8.4030952818
 20
25.4840077498
 11
-7.9814330338
 21
24.7703006065
  0
LWPOLYLINE
  5
491
100
AcDbEntity
  8
RACCORDO
100
AcDbPolyline
 62
7
  6
CONTINUOUS
 90
13
 70
0
 10
3.8620851793
 20
18.6315598481
 10
3.8617175831
 20
18.6431569014
 10
3.8606055511
 20
18.6541926979
 10
3.8587490834
 20
18.6646672376
 10
3.8561316269
 20
18.6746476021
 10
3.8527697346
 20
18.6840667099
 10
3.8487130659
 20
18.6927233162
 10
3.8439406454
 20
18.7005930783
 10
3.8384734485
 20
18.7077003391
 10
3.8324240615
 20
18.7139168817
 10
3.8258300131
 20
18.7191999671
 10
3.8186537745
 20
18.7235923344
 10
3.8128393944
 20
18.7263228534
  0
LINE
  5
492
100
AcDbEntity
  8
RACCORDO
100
AcDbLine
 62
7
  6
CONTINUOUS
 10
3.8620851793
 20
18.6315598481
 11
3.8620851793
 21
18.5344437426
  0
LINE
  5
493
100
AcDbEntity
  8
RACCORDO
100
AcDbLine
 62
250
  6
CONTINUOUS
 10
-9.5369061539
 20
-28.2496223073
 11
-9.5230796121
 21
-28.2170988726
  0
LINE
  5
494
100
AcDbEntity
  8
ASSI
100
AcDbLine
 62
250
  6
CONTINUOUS
 10
-9.5369061539
 20
-28.2496223073
 11
-9.5230796121
 21
-28.2170988726
  0
LWPOLYLINE
  5
495
100
AcDbEntity
  8
RACCORDO
100
AcDbPolyline
 62
250
  6
CONTINUOUS
 90
4
 70
0
 10
-5.5155838747
 20
-5.3541015931
 10
-5.5479953483
 20
-5.3922810249
 10
-5.5804411047
 20
-5.4281635191
 10
-5.6006019309
 20
-5.4490703302
  0
LWPOLYLINE
  5
496
100
AcDbEntity
  8
RACCORDO
100
AcDbPolyline
 62
7
  6
CONTINUOUS
 90
7
 70
0
 10
-5.3625607467
 20
-1.2198525242
 10
-5.3707448501
 20
-1.2291491453
 10
-5.3796393322
 20
-1.2380123201
 10
-5.3892441931
 20
-1.2464420486
 10
-5.3995594328
 20
-1.2544383307
 10
-5.4105850512
 20
-1.2620011665
 10
-5.4223210484
 20
-1.2691305559
  0
LINE
  5
497
100
AcDbEntity
  8
CURVE
100
AcDbLine
 62
7
  6
CONTINUOUS
 10
-19.3763129727
 20
-13.9407319611
 11
-19.1046040166
 21
-13.669023005
  0
LINE
  5
498
100
AcDbEntity
  8
CURVE
100
AcDbLine
 62
7
  6
CONTINUOUS
 10
-19.200272824
 20
-14.1847132404
 11
-18.9285593428
 21
-13.9129997592
  0
LINE
  5
499
100
AcDbEntity
  8
CURVE
100
AcDbLine
 62
7
  6
CONTINUOUS
 10
-19.0242326753
 20
-14.4286945198
 11
-18.752514669
 21
-14.1569765135
  0
LINE
  5
49A
100
AcDbEntity
  8
CURVE
100
AcDbLine
 62
7
  6
CONTINUOUS
 10
-18.8481925267
 20
-14.6726757992
 11
-18.5764699952
 21
-14.4009532677
  0
LINE
  5
49B
100
AcDbEntity
  8
CURVE
100
AcDbLine
 62
7
  6
CONTINUOUS
 10
-18.672152378
 20
-14.9166570785
 11
-18.4004253214
 21
-14.6449300219
  0
LINE
  5
49C
100
AcDbEntity
  8
CURVE
100
AcDbLine
 62
7
  6
CONTINUOUS
 10
-18.4961122294
 20
-15.1606383579
 11
-18.2243806476
 21
-14.8889067762
  0
LINE
  5
49D
100
AcDbEntity
  8
CURVE
100
AcDbLine
 62
7
  6
CONTINUOUS
 10
-18.3200720807
 20
-15.4046196373
 11
-18.0483359738
 21
-15.1328835304
  0
LINE
  5
49E
100
AcDbEntity
  8
CURVE
100
AcDbLine
 62
7
  6
CONTINUOUS
 10
-18.144031932
 20
-15.6486009166
 11
-17.8722913
 21
-15.3768602846
  0
LINE
  5
49F
100
AcDbEntity
  8
CURVE
100
AcDbLine
 62
7
  6
CONTINUOUS
 10
-17.9679917834
 20
-15.892582196
 11
-17.6962466262
 21
-15.6208370388
  0
LINE
  5
4A0
100
AcDbEntity
  8
CURVE
100
AcDbLine
 62
7
  6
CONTINUOUS
 10
-17.7919516347
 20
-16.1365634753
 11
-17.2783323659
 21
-15.6229442066
  0
LINE
  5
4A1
100
AcDbEntity
  8
CURVE
100
AcDbLine
 62
7
  6
CONTINUOUS
 10
-17.5748000341
 20
-16.3394333027
 11
-16.7320663215
 21
-15.4966995901
  0
LINE
  5
4A2
100
AcDbEntity
  8
DRAFT
100
AcDbLine
 62
7
  6
CONTINUOUS
 10
17.2815474757
 20
14.3345361501
 11
11.0863582554
 21
10.6830572083
  0
LINE
  5
4A3
100
AcDbEntity
  8
DRAFT
100
AcDbLine
 62
7
  6
CONTINUOUS
 10
-9.0214137728
 20
1.036702649
 11
-8.470541342
 21
1.3604739275
  0
LINE
  5
4A4
100
AcDbEntity
  8
ASSI
100
AcDbLine
 62
7
  6
CONTINUOUS
 10
-9.0214137728
 20
1.036702649
 11
-8.470541342
 21
1.3604739275
  0
LINE
  5
4A5
100
AcDbEntity
  8
DRAFT
100
AcDbLine
 62
7
  6
CONTINUOUS
 10
-7.6775972243
 20
0.8989815006
 11
-8.470541342
 21
0.4329343426
  0
LINE
  5
4A6
100
AcDbEntity
  8
ASSI
100
AcDbLine
 62
7
  6
CONTINUOUS
 10
-7.6775972243
 20
0.8989815006
 11
-8.470541342
 21
0.4329343426
  0
LINE
  5
4A7
100
AcDbEntity
  8
0
100
AcDbLine
 62
7
  6
CONTINUOUS
 10
14.664547342
 20
16.1454221266
 11
14.7428507469
 21
16.1906335312
  0
LINE
  5
4A8
100
AcDbEntity
  8
0
100
AcDbLine
 62
7
  6
CONTINUOUS
 10
14.8435491466
 20
15.7703030338
 11
15.0524815989
 21
15.8909380132
  0
LINE
  5
4A9
100
AcDbEntity
  8
0
100
AcDbLine
 62
7
  6
CONTINUOUS
 10
15.1303213576
 20
15.9020942029
 11
15.160676078
 21
15.919620638
  0
LINE
  5
4AA
100
AcDbEntity
  8
0
100
AcDbLine
 62
7
  6
CONTINUOUS
 10
14.9605535395
 20
15.7136284576
 11
15.1694859917
 21
15.834263437
  0
LINE
  5
4AB
100
AcDbEntity
  8
RACCORDO
100
AcDbLine
 62
7
  6
CONTINUOUS
 10
11.9611770096
 20
13.9128693314
 11
11.5151315314
 21
13.6553282625
  0
LINE
  5
4AC
100
AcDbEntity
  8
0
100
AcDbLine
 62
7
  6
CONTINUOUS
 10
15.3407859683
 20
15.7884393592
 11
15.3643300241
 21
15.8020334019
  0
LINE
  5
4AD
100
AcDbEntity
  8
0
100
AcDbLine
 62
250
  6
CONTINUOUS
 10
15.3154641598
 20
15.5590495881
 11
15.5243966121
 21
15.6796845675
  0
LINE
  5
4AE
100
AcDbEntity
  8
0
100
AcDbLine
 62
250
  6
CONTINUOUS
 10
15.8698857098
 20
15.2729396602
 11
16.0788181613
 21
15.3935746392
  0
LINE
  5
4AF
100
AcDbEntity
  8
0
100
AcDbLine
 62
7
  6
CONTINUOUS
 10
15.991912523
 20
15.2202671883
 11
16.2008449753
 21
15.3409021677
  0
LINE
  5
4B0
100
AcDbEntity
  8
DRAFT
100
AcDbLine
 62
7
  6
CONTINUOUS
 10
15.3808836493
 20
15.3386632769
 11
11.0863582554
 21
12.9101266328
  0
LINE
  5
4B1
100
AcDbEntity
  8
DRAFT
100
AcDbLine
 62
7
  6
CONTINUOUS
 10
15.0269578047
 20
15.5430156238
 11
12.1211879945
 21
13.9238167742
  0
LWPOLYLINE
  5
4B2
100
AcDbEntity
  8
RACCORDO
100
AcDbPolyline
 62
7
  6
CONTINUOUS
 90
10
 70
0
 10
11.9611481137
 20
13.9128526472
 10
11.972544578
 20
13.9189335491
 10
11.9837649805
 20
13.9239429323
 10
11.9948093212
 20
13.9278807968
 10
12.0057725801
 20
13.9307573544
 10
12.0165597773
 20
13.9325623932
 10
12.0268859727
 20
13.9332652786
 10
12.0366561865
 20
13.9328557988
 10
12.0459653985
 20
13.9313441654
 10
12.0548136088
 20
13.9287303785
  0
LINE
  5
4B3
100
AcDbEntity
  8
RACCORDO
100
AcDbLine
 62
250
  6
CONTINUOUS
 10
-24.7249637758
 20
23.2489775534
 11
-24.7628071234
 21
23.2675075805
  0
LINE
  5
4B4
100
AcDbEntity
  8
ASSI
100
AcDbLine
 62
250
  6
CONTINUOUS
 10
-24.7249637758
 20
23.2489775534
 11
-24.7628071234
 21
23.2675075805
  0
LWPOLYLINE
  5
4B5
100
AcDbEntity
  8
RACCORDO
100
AcDbPolyline
 62
250
  6
CONTINUOUS
 90
14
 70
0
 10
-10.2010480492
 20
14.0573681835
 10
-10.1627110382
 20
14.037408741
 10
-10.1210141828
 20
14.0198379091
 10
-10.0764019225
 20
14.004842973
 10
-10.0293438199
 20
13.9925824202
 10
-9.9803469325
 20
13.9831889851
 10
-9.9299525462
 20
13.9767646413
 10
-9.8787116633
 20
13.9733749609
 10
-9.8271577698
 20
13.9730506466
 10
-9.7758198298
 20
13.9757933452
 10
-9.7251713829
 20
13.9815844774
 10
-9.675827061
 20
13.9903605904
 10
-9.6284967385
 20
14.0019764541
 10
-9.5837144748
 20
14.0162550886
  0
LWPOLYLINE
  5
4B6
100
AcDbEntity
  8
ASSI
100
AcDbPolyline
 62
250
  6
CONTINUOUS
 90
14
 70
0
 10
-10.2010480492
 20
14.0573681835
 10
-10.1627110382
 20
14.037408741
 10
-10.1210141828
 20
14.0198379091
 10
-10.0764019225
 20
14.004842973
 10
-10.0293438199
 20
13.9925824202
 10
-9.9803469325
 20
13.9831889851
 10
-9.9299525462
 20
13.9767646413
 10
-9.8787116633
 20
13.9733749609
 10
-9.8271577698
 20
13.9730506466
 10
-9.7758198298
 20
13.9757933452
 10
-9.7251713829
 20
13.9815844774
 10
-9.675827061
 20
13.9903605904
 10
-9.6284967385
 20
14.0019764541
 10
-9.5837144748
 20
14.0162550886
  0
LWPOLYLINE
  5
4B7
100
AcDbEntity
  8
RACCORDO
100
AcDbPolyline
 62
7
  6
CONTINUOUS
 90
10
 70
0
 10
-23.6633161537
 20
23.6715482705
 10
-23.6965306641
 20
23.6889780945
 10
-23.7385266503
 20
23.7062275747
 10
-23.7806732538
 20
23.7183466326
 10
-23.8227297497
 20
23.7252932584
 10
-23.8642854975
 20
23.7270607182
 10
-23.9045553734
 20
23.7237448763
 10
-23.9429077
 20
23.7156235154
 10
-23.9790211933
 20
23.7030503579
 10
-23.9867242614
 20
23.6996839831
  0
LWPOLYLINE
  5
4B8
100
AcDbEntity
  8
ASSI
100
AcDbPolyline
 62
7
  6
CONTINUOUS
 90
10
 70
0
 10
-23.6633161537
 20
23.6715482705
 10
-23.6965306641
 20
23.6889780945
 10
-23.7385266503
 20
23.7062275747
 10
-23.7806732538
 20
23.7183466326
 10
-23.8227297497
 20
23.7252932584
 10
-23.8642854975
 20
23.7270607182
 10
-23.9045553734
 20
23.7237448763
 10
-23.9429077
 20
23.7156235154
 10
-23.9790211933
 20
23.7030503579
 10
-23.9867242614
 20
23.6996839831
  0
LWPOLYLINE
  5
4B9
100
AcDbEntity
  8
RACCORDO
100
AcDbPolyline
 62
250
  6
CONTINUOUS
 90
7
 70
0
 10
-23.7509501539
 20
23.6681094258
 10
-23.7852862898
 20
23.6862861473
 10
-23.8191235567
 20
23.7001800696
 10
-23.8521492344
 20
23.7097683484
 10
-23.8842166296
 20
23.7150940916
 10
-23.9148963198
 20
23.7161576025
 10
-23.9435313553
 20
23.7131290622
  0
LWPOLYLINE
  5
4BA
100
AcDbEntity
  8
ASSI
100
AcDbPolyline
 62
250
  6
CONTINUOUS
 90
7
 70
0
 10
-23.7509501539
 20
23.6681094258
 10
-23.7852862898
 20
23.6862861473
 10
-23.8191235567
 20
23.7001800696
 10
-23.8521492344
 20
23.7097683484
 10
-23.8842166296
 20
23.7150940916
 10
-23.9148963198
 20
23.7161576025
 10
-23.9435313553
 20
23.7131290622
  0
LWPOLYLINE
  5
4BB
100
AcDbEntity
  8
ASSI
100
AcDbPolyline
 62
250
  6
CONTINUOUS
 90
9
 70
0
 10
-12.4651491314
 20
18.0315549119
 10
-12.4673593472
 20
18.0327758559
 10
-12.4790622704
 20
18.0376109239
 10
-12.4917885698
 20
18.0403150632
 10
-12.5053869702
 20
18.0408561448
 10
-12.5196958092
 20
18.0392277489
 10
-12.5345449859
 20
18.035449248
 10
-12.5497579845
 20
18.0295655725
 10
-12.5651539635
 20
18.0216466764
  0
LINE
  5
4BC
100
AcDbEntity
  8
RACCORDO
100
AcDbLine
 62
250
  6
CONTINUOUS
 10
-9.8567496075
 20
14.6642570351
 11
-24.7249637758
 21
23.2489775534
  0
LINE
  5
4BD
100
AcDbEntity
  8
ASSI
100
AcDbLine
 62
250
  6
CONTINUOUS
 10
-9.8567496075
 20
14.6642570351
 11
-24.7249637758
 21
23.2489775534
  0
LINE
  5
4BE
100
AcDbEntity
  8
RACCORDO
100
AcDbLine
 62
7
  6
CONTINUOUS
 10
-9.8472523093
 20
14.669740629
 11
-24.7159511763
 21
23.2547410063
  0
LINE
  5
4BF
100
AcDbEntity
  8
ASSI
100
AcDbLine
 62
7
  6
CONTINUOUS
 10
-9.8472523093
 20
14.669740629
 11
-24.7159511763
 21
23.2547410063
  0
LINE
  5
4C0
100
AcDbEntity
  8
RACCORDO
100
AcDbLine
 62
250
  6
CONTINUOUS
 10
-8.9491242134
 20
15.1217205144
 11
-23.7509502745
 21
23.6681093716
  0
LINE
  5
4C1
100
AcDbEntity
  8
ASSI
100
AcDbLine
 62
250
  6
CONTINUOUS
 10
-8.9491242134
 20
15.1217205144
 11
-23.7509502745
 21
23.6681093716
  0
LINE
  5
4C2
100
AcDbEntity
  8
RACCORDO
100
AcDbLine
 62
7
  6
CONTINUOUS
 10
-8.8614450647
 20
15.125133438
 11
-23.6632711648
 21
23.6715223178
  0
LINE
  5
4C3
100
AcDbEntity
  8
ASSI
100
AcDbLine
 62
7
  6
CONTINUOUS
 10
-8.8614450647
 20
15.125133438
 11
-23.6632711648
 21
23.6715223178
  0
LINE
  5
4C4
100
AcDbEntity
  8
ASSI
100
AcDbLine
 62
7
  6
CONTINUOUS
 10
-16.8819861613
 20
19.986204181
 11
-13.0143125685
 21
17.7530579219
  0
LINE
  5
4C5
100
AcDbEntity
  8
ASSI
100
AcDbLine
 62
250
  6
CONTINUOUS
 10
-12.1535137524
 20
17.5564536034
 11
-12.2770628441
 21
17.6277893006
  0
LINE
  5
4C6
100
AcDbEntity
  8
ASSI
100
AcDbLine
 62
250
  6
CONTINUOUS
 10
-12.5651539635
 20
18.0216466764
 11
-16.4168067631
 21
20.2455427303
  0
LINE
  5
4C7
100
AcDbEntity
  8
ASSI
100
AcDbLine
 62
7
  6
CONTINUOUS
 10
-12.4651491314
 20
18.0315549119
 11
-16.316801931
 21
20.2554509659
  0
LINE
  5
4C8
100
AcDbEntity
  8
ASSI
100
AcDbLine
 62
250
  6
CONTINUOUS
 10
-14.4243700437
 20
20.7593213079
 11
-10.5440591777
 21
18.5188784456
  0
LINE
  5
4C9
100
AcDbEntity
  8
ASSI
100
AcDbLine
 62
250
  6
CONTINUOUS
 10
-7.2789694122
 20
16.6428666452
 11
-8.7876593858
 21
17.5139653277
  0
LINE
  5
4CA
100
AcDbEntity
  8
ASSI
100
AcDbLine
 62
250
  6
CONTINUOUS
 10
-16.4367983022
 20
21.9304822718
 11
-17.9454882758
 21
22.8015809542
  0
LINE
  5
4CB
100
AcDbEntity
  8
ASSI
100
AcDbLine
 62
7
  6
CONTINUOUS
 10
-7.1814327231
 20
16.6513746764
 11
-8.6901226967
 21
17.5224733588
  0
LINE
  5
4CC
100
AcDbEntity
  8
ASSI
100
AcDbLine
 62
7
  6
CONTINUOUS
 10
-16.3392616132
 20
21.938990303
 11
-17.8479515868
 21
22.8100889854
  0
LWPOLYLINE
  5
4CD
100
AcDbEntity
  8
ASSI
100
AcDbPolyline
 62
250
  6
CONTINUOUS
 90
13
 70
0
 10
-16.4367983022
 20
21.9304822718
 10
-16.4184464193
 20
21.91888355
 10
-16.4003146519
 20
21.9046737768
 10
-16.3827140141
 20
21.88803979
 10
-16.3659212532
 20
21.8691739047
 10
-16.3502858549
 20
21.8483950028
 10
-16.3361934031
 20
21.8261806526
 10
-16.3239121822
 20
21.802964628
 10
-16.3136244063
 20
21.779103821
 10
-16.3055110988
 20
21.7550196615
 10
-16.2997111187
 20
21.7311313084
 10
-16.2963214455
 20
21.7078479171
 10
-16.2953984851
 20
21.6855706047
  0
LWPOLYLINE
  5
4CE
100
AcDbEntity
  8
ASSI
100
AcDbPolyline
 62
250
  6
CONTINUOUS
 90
10
 70
0
 10
-5.1166233914
 20
20.9745388666
 10
-5.1208022891
 20
20.9802980986
 10
-5.134332307
 20
20.9949927362
 10
-5.1503896154
 20
21.0074138865
 10
-5.1686994653
 20
21.0173490185
 10
-5.1889485729
 20
21.0246281417
 10
-5.2107904727
 20
21.0291267086
 10
-5.2338514447
 20
21.0307677465
 10
-5.2577369084
 20
21.0295231757
 10
-5.2820381767
 20
21.02541429
  0
LWPOLYLINE
  5
4CF
100
AcDbEntity
  8
DRAFT
100
AcDbPolyline
 62
7
  6
CONTINUOUS
 90
6
 70
0
 10
-2.1363715577
 20
17.570924545
 10
-2.2071536062
 20
17.68302596
 10
-2.2782223829
 20
17.794907633
 10
-2.3495763337
 20
17.9065671027
 10
-2.4212170126
 20
18.0180068305
 10
-2.4931444198
 20
18.1292268163
  0
LINE
  5
4D0
100
AcDbEntity
  8
DRAFT
100
AcDbLine
 62
7
  6
CONTINUOUS
 10
-2.1535948251
 20
17.4207768085
 11
-2.2352947818
 21
17.5508144868
  0
LINE
  5
4D1
100
AcDbEntity
  8
DRAFT
100
AcDbLine
 62
7
  6
CONTINUOUS
 10
-2.0722858518
 20
17.2904537374
 11
-2.1535948251
 21
17.4207768085
  0
LWPOLYLINE
  5
4D2
100
AcDbEntity
  8
DRAFT
100
AcDbPolyline
 62
7
  6
CONTINUOUS
 90
4
 70
0
 10
-1.9257768636
 20
17.2333510747
 10
-1.9956831864
 20
17.3460871024
 10
-2.0658808997
 20
17.4586107721
 10
-2.1363715577
 20
17.570924545
  0
LINE
  5
4D3
100
AcDbEntity
  8
DRAFT
100
AcDbLine
 62
7
  6
CONTINUOUS
 10
-1.9913702605
 20
17.1598491181
 11
-2.0722858518
 21
17.2904537374
  0
LINE
  5
4D4
100
AcDbEntity
  8
DRAFT
100
AcDbLine
 62
7
  6
CONTINUOUS
 10
-1.8561619313
 20
17.120402689
 11
-1.9257768636
 21
17.2333510747
  0
LINE
  5
4D5
100
AcDbEntity
  8
DRAFT
100
AcDbLine
 62
250
  6
CONTINUOUS
 10
-0.9077634012
 20
21.1562970605
 11
-0.4861011532
 21
20.4425899172
  0
LINE
  5
4D6
100
AcDbEntity
  8
RACCORDO
100
AcDbLine
 62
7
  6
CONTINUOUS
 10
-5.3625607467
 20
-8.5535373424
 11
-4.3743026781
 21
-7.3611811687
  0
LINE
  5
4D7
100
AcDbEntity
  8
CURVE
100
AcDbLine
 62
7
  6
CONTINUOUS
 10
-17.0284902649
 20
-16.2131449615
 11
-16.185800277
 21
-15.3704549736
  0
LINE
  5
4D8
100
AcDbEntity
  8
CURVE
100
AcDbLine
 62
7
  6
CONTINUOUS
 10
-16.4821804956
 20
-16.0868566203
 11
-15.6395342325
 21
-15.2442103572
  0
LINE
  5
4D9
100
AcDbEntity
  8
CURVE
100
AcDbLine
 62
7
  6
CONTINUOUS
 10
-15.9358707264
 20
-15.9605682791
 11
-15.093268188
 21
-15.1179657407
  0
LINE
  5
4DA
100
AcDbEntity
  8
CURVE
100
AcDbLine
 62
7
  6
CONTINUOUS
 10
-15.3895609572
 20
-15.8342799379
 11
-14.8069592326
 21
-15.2516782133
  0
LWPOLYLINE
  5
4DB
100
AcDbEntity
  8
RACCORDO
100
AcDbPolyline
 62
250
  6
CONTINUOUS
 90
3
 70
0
 10
-5.8481924982
 20
-3.9545743617
 10
-5.8032239842
 20
-3.9209130591
 10
-5.7562771993
 20
-3.8884298993
  0
LINE
  5
4DC
100
AcDbEntity
  8
RACCORDO
100
AcDbLine
 62
250
  6
CONTINUOUS
 10
-5.7562771993
 20
-3.8884298993
 11
-5.7073521435
 21
-3.8571248825
  0
LWPOLYLINE
  5
4DD
100
AcDbEntity
  8
RACCORDO
100
AcDbPolyline
 62
7
  6
CONTINUOUS
 90
9
 70
0
 10
-2.7744844336
 20
1.1159499982
 10
-2.7688920366
 20
1.1193839494
 10
-2.7485674597
 20
1.1334199761
 10
-2.7284178179
 20
1.1498115775
 10
-2.7085427638
 20
1.1685187172
 10
-2.6891836536
 20
1.1895110439
 10
-2.670545821
 20
1.2127578025
 10
-2.6527398891
 20
1.2381611558
 10
-2.6359001299
 20
1.2655959743
  0
LINE
  5
4DE
100
AcDbEntity
  8
RACCORDO
100
AcDbLine
 62
250
  6
CONTINUOUS
 10
-5.652375855
 20
-0.5379615732
 11
-2.6359001299
 21
1.2655959743
  0
LINE
  5
4DF
100
AcDbEntity
  8
RACCORDO
100
AcDbLine
 62
7
  6
CONTINUOUS
 10
-5.596251082
 20
-0.57119056
 11
-2.7744923224
 21
1.1159452807
  0
LINE
  5
4E0
100
AcDbEntity
  8
RACCORDO
100
AcDbLine
 62
250
  6
CONTINUOUS
 10
-2.9161885395
 20
0.1658413744
 11
-5.5962438151
 21
-1.4365696378
  0
LINE
  5
4E1
100
AcDbEntity
  8
RACCORDO
100
AcDbLine
 62
250
  6
CONTINUOUS
 10
-2.6359001299
 20
0.0068225468
 11
-5.652375855
 21
-1.7967350008
  0
LINE
  5
4E2
100
AcDbEntity
  8
RACCORDO
100
AcDbLine
 62
250
  6
CONTINUOUS
 10
-24.7628071234
 20
23.2675075805
 11
-24.8001349019
 21
23.2814259808
  0
LINE
  5
4E3
100
AcDbEntity
  8
ASSI
100
AcDbLine
 62
250
  6
CONTINUOUS
 10
-24.7628071234
 20
23.2675075805
 11
-24.8001349019
 21
23.2814259808
  0
LWPOLYLINE
  5
4E4
100
AcDbEntity
  8
ASSI
100
AcDbPolyline
 62
250
  6
CONTINUOUS
 90
7
 70
0
 10
-7.1814327231
 20
16.6513746764
 10
-7.1942077523
 20
16.6570687787
 10
-7.2093065302
 20
16.6602771025
 10
-7.2256122591
 20
16.6604383126
 10
-7.2428520936
 20
16.657549713
 10
-7.260737569
 20
16.6516596382
 10
-7.2789694122
 20
16.6428666452
  0
LWPOLYLINE
  5
4E5
100
AcDbEntity
  8
ASSI
100
AcDbPolyline
 62
250
  6
CONTINUOUS
 90
7
 70
0
 10
-8.6901226967
 20
17.5224733588
 10
-8.7028976164
 20
17.5281674253
 10
-8.7179964011
 20
17.5313757739
 10
-8.7343021458
 20
17.5315370021
 10
-8.7515420017
 20
17.5286484118
 10
-8.7694275064
 20
17.5227583353
 10
-8.7876593858
 20
17.5139653277
  0
LWPOLYLINE
  5
4E6
100
AcDbEntity
  8
ASSI
100
AcDbPolyline
 62
250
  6
CONTINUOUS
 90
7
 70
0
 10
-17.8479515868
 20
22.8100889854
 10
-17.8607265064
 20
22.8157830518
 10
-17.8758252912
 20
22.8189914004
 10
-17.8921310359
 20
22.8191526287
 10
-17.9093708917
 20
22.8162640383
 10
-17.9272563965
 20
22.8103739619
 10
-17.9454882758
 20
22.8015809542
  0
LWPOLYLINE
  5
4E7
100
AcDbEntity
  8
ASSI
100
AcDbPolyline
 62
250
  6
CONTINUOUS
 90
7
 70
0
 10
-8.7876593858
 20
17.5139653277
 10
-8.8054298511
 20
17.5232220823
 10
-8.82306549
 20
17.5296608115
 10
-8.8402653632
 20
17.5331159138
 10
-8.8567610887
 20
17.5334658594
 10
-8.8722117166
 20
17.5306317741
 10
-8.8848383561
 20
17.525424009
  0
LWPOLYLINE
  5
4E8
100
AcDbEntity
  8
ASSI
100
AcDbPolyline
 62
250
  6
CONTINUOUS
 90
7
 70
0
 10
-17.9454882758
 20
22.8015809542
 10
-17.9632587412
 20
22.8108377089
 10
-17.98089438
 20
22.817276438
 10
-17.9980942533
 20
22.8207315403
 10
-18.0145899788
 20
22.8210814859
 10
-18.0300406066
 20
22.8182474007
 10
-18.0426672461
 20
22.8130396356
  0
LWPOLYLINE
  5
4E9
100
AcDbEntity
  8
ASSI
100
AcDbPolyline
 62
250
  6
CONTINUOUS
 90
6
 70
0
 10
-10.6048258301
 20
20.2907126465
 10
-10.6080169469
 20
20.2924411408
 10
-10.6248451915
 20
20.2983601858
 10
-10.6435393235
 20
20.3000603965
 10
-10.6636632471
 20
20.2975020847
 10
-10.6847475168
 20
20.2907449089
  0
LWPOLYLINE
  5
4EA
100
AcDbEntity
  8
ASSI
100
AcDbPolyline
 62
250
  6
CONTINUOUS
 90
6
 70
0
 10
-12.6825945324
 20
21.4903902546
 10
-12.6857857895
 20
21.4921188202
 10
-12.7026140966
 20
21.4980378503
 10
-12.72130828
 20
21.4997380594
 10
-12.7414322465
 20
21.4971797856
 10
-12.7625165491
 20
21.4904227076
  0
LWPOLYLINE
  5
4EB
100
AcDbEntity
  8
ASSI
100
AcDbPolyline
 62
250
  6
CONTINUOUS
 90
4
 70
0
 10
-10.6847483432
 20
20.290745386
 10
-10.6575302764
 20
20.2759694899
 10
-10.6275794111
 20
20.2621758295
 10
-10.5949085879
 20
20.2492643549
  0
LINE
  5
4EC
100
AcDbEntity
  8
ASSI
100
AcDbLine
 62
250
  6
CONTINUOUS
 10
-14.2852308587
 20
20.9020615818
 11
-10.4382493884
 21
18.6808626949
  0
LINE
  5
4ED
100
AcDbEntity
  8
DRAFT
100
AcDbLine
 62
7
  6
CONTINUOUS
 10
-7.4448644956
 20
17.8281414948
 11
-6.8661000237
 21
17.4939701423
  0
LINE
  5
4EE
100
AcDbEntity
  8
ASSI
100
AcDbLine
 62
250
  6
CONTINUOUS
 10
-13.9034185881
 20
21.7119320976
 11
-10.1668643943
 21
19.5544925361
  0
LINE
  5
4EF
100
AcDbEntity
  8
ASSI
100
AcDbLine
 62
250
  6
CONTINUOUS
 10
-13.780944101
 20
21.8642943592
 11
-10.0443899072
 21
19.7068547977
  0
LINE
  5
4F0
100
AcDbEntity
  8
ASSI
100
AcDbLine
 62
250
  6
CONTINUOUS
 10
-9.9079944812
 20
19.7884168053
 11
-13.639683661
 21
21.9430473687
  0
LINE
  5
4F1
100
AcDbEntity
  8
ASSI
100
AcDbLine
 62
250
  6
CONTINUOUS
 10
-12.7625165491
 20
21.4904227076
 11
-10.6847483432
 21
20.290745386
  0
LINE
  5
4F2
100
AcDbEntity
  8
ASSI
100
AcDbLine
 62
7
  6
CONTINUOUS
 10
-12.6825945324
 20
21.4903902546
 11
-10.6048258301
 21
20.2907126465
  0
LINE
  5
4F3
100
AcDbEntity
  8
ASSI
100
AcDbLine
 62
250
  6
CONTINUOUS
 10
-9.7584083535
 20
19.8363434954
 11
-10.3528433426
 21
20.1795628081
  0
LINE
  5
4F4
100
AcDbEntity
  8
ASSI
100
AcDbLine
 62
250
  6
CONTINUOUS
 10
-12.8959985608
 20
21.6479487579
 11
-13.49043355
 21
21.9911680706
  0
LINE
  5
4F5
100
AcDbEntity
  8
ASSI
100
AcDbLine
 62
7
  6
CONTINUOUS
 10
-13.7272505384
 20
22.5427929078
 11
-12.8662208453
 21
22.0456451542
  0
LINE
  5
4F6
100
AcDbEntity
  8
ASSI
100
AcDbLine
 62
7
  6
CONTINUOUS
 10
-7.0124174834
 20
18.6657324584
 11
-4.5724969799
 21
17.2569529391
  0
LINE
  5
4F7
100
AcDbEntity
  8
0
100
AcDbLine
 62
7
  6
CONTINUOUS
 10
-9.1535786423
 20
20.1011543185
 11
-11.6691889023
 21
21.5536361546
  0
LINE
  5
4F8
100
AcDbEntity
  8
ASSI
100
AcDbLine
 62
250
  6
CONTINUOUS
 10
-7.7216367771
 20
19.8871405826
 11
-8.1503675499
 21
20.1346843575
  0
LINE
  5
4F9
100
AcDbEntity
  8
ASSI
100
AcDbLine
 62
250
  6
CONTINUOUS
 10
-11.1175859539
 20
21.847919076
 11
-11.5463167266
 21
22.0954628509
  0
LINE
  5
4FA
100
AcDbEntity
  8
ASSI
100
AcDbLine
 62
250
  6
CONTINUOUS
 10
-7.2724303717
 20
20.0306619702
 11
-7.7080156535
 21
20.2821634528
  0
LINE
  5
4FB
100
AcDbEntity
  8
ASSI
100
AcDbLine
 62
250
  6
CONTINUOUS
 10
-10.6634291341
 20
21.9885821564
 11
-11.0990144159
 21
22.240083639
  0
LWPOLYLINE
  5
4FC
100
AcDbEntity
  8
ASSI
100
AcDbPolyline
 62
7
  6
CONTINUOUS
 90
10
 70
0
 10
-12.6825639118
 20
21.4903725639
 10
-12.694000026
 20
21.4971650913
 10
-12.7179796967
 20
21.5127685148
 10
-12.7377696631
 20
21.5273327407
 10
-12.7538878302
 20
21.5406835586
 10
-12.7671952812
 20
21.5529716928
 10
-12.7780142738
 20
21.5640616119
 10
-12.7864057492
 20
21.5735682475
 10
-12.7926170369
 20
21.5812664727
 10
-12.794837585
 20
21.5841974263
  0
LWPOLYLINE
  5
4FD
100
AcDbEntity
  8
ASSI
100
AcDbPolyline
 62
7
  6
CONTINUOUS
 90
13
 70
0
 10
-2.8864927436
 20
18.2089895716
 10
-2.8272520936
 20
18.1727402322
 10
-2.768525974
 20
18.1327492953
 10
-2.7103143848
 20
18.0890167612
 10
-2.6523738382
 20
18.0413375987
 10
-2.5949478221
 20
17.9899168389
 10
-2.5387667995
 20
17.9353695747
 10
-2.4838517278
 20
17.8776358407
 10
-2.4301816497
 20
17.8167756024
 10
-2.3784241569
 20
17.753583849
 10
-2.3288017799
 20
17.6883255767
 10
-2.2810919882
 20
17.6207357894
 10
-2.2352947818
 20
17.5508144868
  0
LINE
  5
4FE
100
AcDbEntity
  8
ASSI
100
AcDbLine
 62
250
  6
CONTINUOUS
 10
-12.7907880361
 20
21.5086385951
 11
-12.7625165491
 21
21.4904227076
  0
LWPOLYLINE
  5
4FF
100
AcDbEntity
  8
ASSI
100
AcDbPolyline
 62
250
  6
CONTINUOUS
 90
10
 70
0
 10
-7.527302641
 20
19.649374154
 10
-7.5371980057
 20
19.6568403888
 10
-7.5477119356
 20
19.6637367425
 10
-7.558772491
 20
19.6700262358
 10
-7.5704320563
 20
19.675664038
 10
-7.5825154271
 20
19.6806590178
 10
-7.5946296142
 20
19.685053348
 10
-7.606628016
 20
19.6888446386
 10
-7.6186010117
 20
19.6920031134
 10
-7.6305305042
 20
19.6945207853
  0
LINE
  5
500
100
AcDbEntity
  8
DRAFT
100
AcDbLine
 62
7
  6
CONTINUOUS
 10
-8.5470305847
 20
25.4037712182
 11
-8.4536135478
 21
25.3127148894
  0
LINE
  5
501
100
AcDbEntity
  8
DRAFT
100
AcDbLine
 62
7
  6
CONTINUOUS
 10
-8.6413232589
 20
25.4962225541
 11
-8.5470305847
 21
25.4037712182
  0
LINE
  5
502
100
AcDbEntity
  8
DRAFT
100
AcDbLine
 62
7
  6
CONTINUOUS
 10
-8.7364905838
 20
25.5900541388
 11
-8.6413232589
 21
25.4962225541
  0
LWPOLYLINE
  5
503
100
AcDbEntity
  8
DRAFT
100
AcDbPolyline
 62
7
  6
CONTINUOUS
 90
3
 70
0
 10
-8.8808743897
 20
25.7332824869
 10
-8.8325286138
 20
25.6852069404
 10
-8.7364905838
 20
25.5900541388
  0
LWPOLYLINE
  5
504
100
AcDbEntity
  8
SMUSSO
100
AcDbPolyline
 62
7
  6
CONTINUOUS
 90
11
 70
0
 10
-0.8528837154
 20
20.304777331
 10
-0.9305316823
 20
20.3821422413
 10
-1.0003919228
 20
20.4617737799
 10
-1.0622395322
 20
20.5434212137
 10
-1.1158752939
 20
20.6268168551
 10
-1.1611270847
 20
20.7116909636
 10
-1.1978498281
 20
20.7977806663
 10
-1.2259252497
 20
20.8848048265
 10
-1.2452621172
 20
20.9724786833
 10
-1.2557976424
 20
21.0605288034
 10
-1.2579167023
 20
21.1215524766
  0
LINE
  5
505
100
AcDbEntity
  8
SMUSSO
100
AcDbLine
 62
7
  6
CONTINUOUS
 10
-1.0766969073
 20
22.0219488835
 11
-0.9582816672
 21
21.8232855788
  0
LWPOLYLINE
  5
506
100
AcDbEntity
  8
DRAFT
100
AcDbPolyline
 62
7
  6
CONTINUOUS
 90
10
 70
0
 10
3.6852523898
 20
17.869107576
 10
3.6287054126
 20
17.9704737412
 10
3.57191607
 20
18.0717084089
 10
3.5148843619
 20
18.1728115793
 10
3.4576093153
 20
18.2737849581
 10
3.4000919033
 20
18.3746268395
 10
3.3423350448
 20
18.4753321057
 10
3.284339713
 20
18.5758990506
 10
3.2261049348
 20
18.6763293803
 10
3.1676307101
 20
18.7766230947
  0
LWPOLYLINE
  5
507
100
AcDbEntity
  8
RACCORDO
100
AcDbPolyline
 62
7
  6
CONTINUOUS
 90
13
 70
0
 10
12.0680593749
 20
14.0210018344
 10
12.0676917787
 20
14.0325988876
 10
12.0665797468
 20
14.0436346842
 10
12.0647232791
 20
14.0541092239
 10
12.0621058225
 20
14.0640895884
 10
12.0587439302
 20
14.0735086962
 10
12.0546872616
 20
14.0821653024
 10
12.049914841
 20
14.0900350646
 10
12.0444476442
 20
14.0971423254
 10
12.0383982571
 20
14.103358868
 10
12.0318042087
 20
14.1086419534
 10
12.0246279702
 20
14.1130343207
 10
12.0188135901
 20
14.1157648397
  0
LINE
  5
508
100
AcDbEntity
  8
DRAFT
100
AcDbLine
 62
7
  6
CONTINUOUS
 10
11.0863582554
 20
-7.6725387148
 11
11.0863582554
 21
-0.4726149744
  0
LINE
  5
509
100
AcDbEntity
  8
DRAFT
100
AcDbLine
 62
7
  6
CONTINUOUS
 10
11.0863582554
 20
10.6830572083
 11
11.0863582554
 21
17.8829809488
  0
LINE
  5
50A
100
AcDbEntity
  8
RACCORDO
100
AcDbLine
 62
7
  6
CONTINUOUS
 10
12.0680593749
 20
14.0210018344
 11
12.0680593749
 21
13.9238857289
  0
LINE
  5
50B
100
AcDbEntity
  8
RACCORDO
100
AcDbLine
 62
250
  6
CONTINUOUS
 10
-9.5541326028
 20
-28.2782119992
 11
-9.5369061539
 21
-28.2496223073
  0
LINE
  5
50C
100
AcDbEntity
  8
ASSI
100
AcDbLine
 62
250
  6
CONTINUOUS
 10
-9.5541326028
 20
-28.2782119992
 11
-9.5369061539
 21
-28.2496223073
  0
LINE
  5
50D
100
AcDbEntity
  8
DRAFT
100
AcDbLine
 62
7
  6
CONTINUOUS
 10
-5.6143398532
 20
-3.9918839021
 11
-6.029312933
 21
-4.231482595
  0
LWPOLYLINE
  5
50E
100
AcDbEntity
  8
RACCORDO
100
AcDbPolyline
 62
7
  6
CONTINUOUS
 90
11
 70
0
 10
-5.7485300455
 20
-3.9485313182
 10
-5.7012485481
 20
-3.9220531013
 10
-5.6478417601
 20
-3.8965860329
 10
-5.5957453728
 20
-3.8766207073
 10
-5.5456918533
 20
-3.862491341
 10
-5.4984963983
 20
-3.8543516078
 10
-5.4550478265
 20
-3.8521172039
 10
-5.416272447
 20
-3.8553602149
 10
-5.3815650677
 20
-3.8634701329
 10
-5.3492785653
 20
-3.8766009715
 10
-5.3425981376
 20
-3.8801258838
  0
LINE
  5
50F
100
AcDbEntity
  8
RACCORDO
100
AcDbLine
 62
250
  6
CONTINUOUS
 10
-5.7073521435
 20
-3.8571248825
 11
-5.6378384924
 21
-3.8187575844
  0
LWPOLYLINE
  5
510
100
AcDbEntity
  8
RACCORDO
100
AcDbPolyline
 62
250
  6
CONTINUOUS
 90
52
 70
0
 10
-5.7073521435
 20
-5.891545073
 10
-5.7752741705
 20
-5.928889741
 10
-5.8415270615
 20
-5.9596126701
 10
-5.9061108163
 20
-5.9837138602
 10
-5.9692839022
 20
-6.0011326147
 10
-6.0307878519
 20
-6.0119296303
 10
-6.0898472642
 20
-6.0162869971
 10
-6.1467229782
 20
-6.0138313061
 10
-6.2011541548
 20
-6.0049359664
 10
-6.2515828752
 20
-5.9909032956
 10
-6.2975044909
 20
-5.9715438956
 10
-6.3394236504
 20
-5.9470471645
 10
-6.3772963806
 20
-5.9192836138
 10
-6.4109189929
 20
-5.8884040425
 10
-6.4404951759
 20
-5.8542576516
 10
-6.4665920227
 20
-5.818262556
 10
-6.4891615043
 20
-5.7805536942
 10
-6.5082516496
 20
-5.7409961276
 10
-6.5245736385
 20
-5.700603155
 10
-6.538141961
 20
-5.6596602226
 10
-6.548942127
 20
-5.6178818842
 10
-6.5576418461
 20
-5.5754250999
 10
-6.5643687197
 20
-5.5326069875
 10
-6.5689951465
 20
-5.4891104293
 10
-6.5718060321
 20
-5.444141032
 10
-6.5730212985
 20
-5.3978462012
 10
-6.5724210237
 20
-5.3500785313
 10
-6.5696303476
 20
-5.2996014128
 10
-6.5648300895
 20
-5.246250861
 10
-6.55783943
 20
-5.1901908606
 10
-6.5477410515
 20
-5.1306767564
 10
-6.5344423197
 20
-5.0670966356
 10
-6.5180358689
 20
-5.0000624111
 10
-6.4978822844
 20
-4.930665166
 10
-6.4733661394
 20
-4.8580121945
 10
-6.4451028608
 20
-4.7829962024
 10
-6.4142993147
 20
-4.7093863907
 10
-6.3807404991
 20
-4.6376781073
 10
-6.3446414161
 20
-4.5673760044
 10
-6.3078539383
 20
-4.5007632387
 10
-6.2707237505
 20
-4.4386212856
 10
-6.2329051679
 20
-4.3801686699
 10
-6.1952130085
 20
-4.3253441219
 10
-6.1579972547
 20
-4.274491537
 10
-6.120907924
 20
-4.2272670199
 10
-6.0837098876
 20
-4.1825776158
 10
-6.0466794392
 20
-4.1404633877
 10
-6.0095402852
 20
-4.1008842726
 10
-5.9712284151
 20
-4.0626271268
 10
-5.9316576771
 20
-4.0253355112
 10
-5.8909142231
 20
-3.989365865
 10
-5.8481924982
 20
-3.9545743617
  0
LINE
  5
511
100
AcDbEntity
  8
DRAFT
100
AcDbLine
 62
7
  6
CONTINUOUS
 10
-5.6143398532
 20
-5.543177428
 11
-6.029312933
 21
-5.7504404408
  0
LWPOLYLINE
  5
512
100
AcDbEntity
  8
RACCORDO
100
AcDbPolyline
 62
250
  6
CONTINUOUS
 90
3
 70
0
 10
-5.6378384924
 20
-3.8187575844
 10
-5.5696577368
 20
-3.7874175512
 10
-5.5028098766
 20
-3.7631047828
  0
LWPOLYLINE
  5
513
100
AcDbEntity
  8
RACCORDO
100
AcDbPolyline
 62
250
  6
CONTINUOUS
 90
3
 70
0
 10
-24.8001349019
 20
23.2814259808
 10
-24.8365384968
 20
23.2905803943
 10
-24.8716194104
 20
23.2948706107
  0
LWPOLYLINE
  5
514
100
AcDbEntity
  8
ASSI
100
AcDbPolyline
 62
250
  6
CONTINUOUS
 90
3
 70
0
 10
-24.8001349019
 20
23.2814259808
 10
-24.8365384968
 20
23.2905803943
 10
-24.8716194104
 20
23.2948706107
  0
LINE
  5
515
100
AcDbEntity
  8
ASSI
100
AcDbLine
 62
250
  6
CONTINUOUS
 10
-10.3968524299
 20
20.1915881554
 11
-10.3528433426
 21
20.1795628081
  0
LWPOLYLINE
  5
516
100
AcDbEntity
  8
ASSI
100
AcDbPolyline
 62
250
  6
CONTINUOUS
 90
3
 70
0
 10
-10.5209377247
 20
20.2249848878
 10
-10.4809277723
 20
20.2136918487
 10
-10.3968524299
 20
20.1915881554
  0
LWPOLYLINE
  5
517
100
AcDbEntity
  8
ASSI
100
AcDbPolyline
 62
250
  6
CONTINUOUS
 90
12
 70
0
 10
-10.2964775079
 20
20.1604952384
 10
-10.2417634419
 20
20.1431497338
 10
-10.1887011445
 20
20.1275262943
 10
-10.1369718913
 20
20.1136830206
 10
-10.0868944068
 20
20.101561812
 10
-10.0394248642
 20
20.0909883661
 10
-9.9949376151
 20
20.0820342458
 10
-9.9530583078
 20
20.0746278882
 10
-9.9136200605
 20
20.0683803026
 10
-9.8766724241
 20
20.063264537
 10
-9.8421658477
 20
20.0593075434
 10
-9.8097847958
 20
20.0562011874
  0
LINE
  5
518
100
AcDbEntity
  8
ASSI
100
AcDbLine
 62
250
  6
CONTINUOUS
 10
-10.3528433426
 20
20.1795628081
 11
-10.2964775079
 21
20.1604952384
  0
LWPOLYLINE
  5
519
100
AcDbEntity
  8
ASSI
100
AcDbPolyline
 62
250
  6
CONTINUOUS
 90
3
 70
0
 10
-10.5949085879
 20
20.2492643549
 10
-10.5592486736
 20
20.2368967382
 10
-10.5209377247
 20
20.2249848878
  0
LINE
  5
51A
100
AcDbEntity
  8
ASSI
100
AcDbLine
 62
7
  6
CONTINUOUS
 10
-10.3180617854
 20
20.1758749299
 11
-10.4117434103
 21
20.2086972276
  0
LWPOLYLINE
  5
51B
100
AcDbEntity
  8
ASSI
100
AcDbPolyline
 62
7
  6
CONTINUOUS
 90
8
 70
0
 10
-10.4117434103
 20
20.2086972276
 10
-10.4464695971
 20
20.2209972979
 10
-10.4791780524
 20
20.2330916367
 10
-10.5097481339
 20
20.2451073402
 10
-10.5382585869
 20
20.2572042596
 10
-10.5643442629
 20
20.2693123204
 10
-10.5879326856
 20
20.2813329272
 10
-10.6047458106
 20
20.2906663702
  0
LINE
  5
51C
100
AcDbEntity
  8
ASSI
100
AcDbLine
 62
250
  6
CONTINUOUS
 10
-5.1378518897
 20
21.785447787
 11
-5.1200046605
 21
21.7764485647
  0
LWPOLYLINE
  5
51D
100
AcDbEntity
  8
ASSI
100
AcDbPolyline
 62
250
  6
CONTINUOUS
 90
3
 70
0
 10
-8.465656966
 20
23.7081862751
 10
-8.4827879922
 20
23.7171840131
 10
-8.4996575206
 20
23.7235517903
  0
LINE
  5
51E
100
AcDbEntity
  8
0
100
AcDbLine
 62
7
  6
CONTINUOUS
 10
-9.028318323
 20
21.6176932584
 11
-7.2702214094
 21
20.6025901346
  0
LINE
  5
51F
100
AcDbEntity
  8
DRAFT
100
AcDbLine
 62
7
  6
CONTINUOUS
 10
-2.8864927436
 20
18.2089895716
 11
-3.7758622221
 21
18.7225003621
  0
LINE
  5
520
100
AcDbEntity
  8
DRAFT
100
AcDbLine
 62
7
  6
CONTINUOUS
 10
-11.1297727465
 20
22.9685561327
 11
-12.019142225
 21
23.4820669232
  0
LINE
  5
521
100
AcDbEntity
  8
DRAFT
100
AcDbLine
 62
7
  6
CONTINUOUS
 10
-2.4931444198
 20
18.1292268163
 11
-3.1642179577
 21
18.5166962665
  0
LINE
  5
522
100
AcDbEntity
  8
DRAFT
100
AcDbLine
 62
7
  6
CONTINUOUS
 10
-11.5999956547
 20
23.3874085836
 11
-12.2710691926
 21
23.7748780339
  0
LINE
  5
523
100
AcDbEntity
  8
0
100
AcDbLine
 62
7
  6
CONTINUOUS
 10
19.1456228178
 20
5.7598749185
 11
19.0066699805
 21
5.8401045453
  0
LINE
  5
524
100
AcDbEntity
  8
0
100
AcDbLine
 62
7
  6
CONTINUOUS
 10
-7.7572139116
 20
22.3516130149
 11
-5.999116998
 21
21.3365098911
  0
LINE
  5
525
100
AcDbEntity
  8
ASSI
100
AcDbLine
 62
250
  6
CONTINUOUS
 10
-6.053914758
 20
22.2736110661
 11
-5.2175118741
 21
21.7906825235
  0
LINE
  5
526
100
AcDbEntity
  8
ASSI
100
AcDbLine
 62
250
  6
CONTINUOUS
 10
-4.7297658355
 20
21.551129558
 11
-5.1200046605
 21
21.7764485647
  0
LINE
  5
527
100
AcDbEntity
  8
ASSI
100
AcDbLine
 62
250
  6
CONTINUOUS
 10
-8.0754181411
 20
23.4828672684
 11
-8.465656966
 21
23.7081862751
  0
LINE
  5
528
100
AcDbEntity
  8
ASSI
100
AcDbLine
 62
250
  6
CONTINUOUS
 10
-5.9686115891
 20
22.3501795275
 11
-5.0837896577
 21
21.8392944338
  0
LINE
  5
529
100
AcDbEntity
  8
ASSI
100
AcDbLine
 62
250
  6
CONTINUOUS
 10
-4.6385891073
 20
21.5902442232
 11
-5.0288771247
 21
21.815591633
  0
LINE
  5
52A
100
AcDbEntity
  8
ASSI
100
AcDbLine
 62
250
  6
CONTINUOUS
 10
-7.983532975
 20
23.5215728904
 11
-8.3738209924
 21
23.7469203002
  0
LINE
  5
52B
100
AcDbEntity
  8
ASSI
100
AcDbLine
 62
7
  6
CONTINUOUS
 10
-5.2254580475
 20
22.8097568252
 11
-4.0473543389
 21
22.129534509
  0
LINE
  5
52C
100
AcDbEntity
  8
ASSI
100
AcDbLine
 62
250
  6
CONTINUOUS
 10
-1.1862608717
 20
20.7706124942
 11
-1.032660584
 21
20.6819256131
  0
LINE
  5
52D
100
AcDbEntity
  8
ASSI
100
AcDbLine
 62
7
  6
CONTINUOUS
 10
-1.20045704
 20
20.8058621272
 11
-1.0100523225
 21
20.6959248297
  0
LINE
  5
52E
100
AcDbEntity
  8
DRAFT
100
AcDbLine
 62
7
  6
CONTINUOUS
 10
-8.1569485154
 20
24.5845300684
 11
-8.3770963761
 21
24.7118387076
  0
LINE
  5
52F
100
AcDbEntity
  8
DRAFT
100
AcDbLine
 62
7
  6
CONTINUOUS
 10
-7.9825146537
 20
24.4836741231
 11
-8.1569485154
 21
24.5845300684
  0
LINE
  5
530
100
AcDbEntity
  8
SMUSSO
100
AcDbLine
 62
7
  6
CONTINUOUS
 10
-0.8673569237
 20
20.2620979685
 11
-0.9865287718
 21
20.3330320676
  0
LWPOLYLINE
  5
531
100
AcDbEntity
  8
DRAFT
100
AcDbPolyline
 62
7
  6
CONTINUOUS
 90
16
 70
0
 10
-9.2640259851
 20
25.4976961106
 10
-9.264482444
 20
25.4979778571
 10
-9.2664091478
 20
25.5006497443
 10
-9.2657265672
 20
25.5043440523
 10
-9.2625015272
 20
25.509070319
 10
-9.256819465
 20
25.5148070837
 10
-9.2486129179
 20
25.5216103251
 10
-9.2377157848
 20
25.5295991732
 10
-9.2241474924
 20
25.5387863763
 10
-9.207903102
 20
25.5491867978
 10
-9.1887801322
 20
25.5609228878
 10
-9.1667897819
 20
25.574009199
 10
-9.1419375316
 20
25.5884618671
 10
-9.1140149829
 20
25.6044101629
 10
-9.0830042406
 20
25.6218856886
 10
-9.0489411058
 20
25.640888832
  0
LWPOLYLINE
  5
532
100
AcDbEntity
  8
SMUSSO
100
AcDbPolyline
 62
7
  6
CONTINUOUS
 90
3
 70
0
 10
-7.9825146537
 20
24.4836741231
 10
-8.0679610758
 20
24.5372254355
 10
-8.1490652357
 20
24.5929819882
  0
LWPOLYLINE
  5
533
100
AcDbEntity
  8
ASSI
100
AcDbPolyline
 62
250
  6
CONTINUOUS
 90
13
 70
0
 10
-4.7297658355
 20
21.551129558
 10
-4.7120237722
 20
21.5399920112
 10
-4.6945525339
 20
21.5265318602
 10
-4.6776188116
 20
21.5109545684
 10
-4.6614810914
 20
21.4934979166
 10
-4.6463857086
 20
21.474428373
 10
-4.6325630879
 20
21.4540370262
 10
-4.6202242257
 20
21.4326351413
 10
-4.6095574695
 20
21.4105494091
 10
-4.6007256427
 20
21.3881169587
 10
-4.5938635595
 20
21.365680212
 10
-4.5890759665
 20
21.3435816563
 10
-4.5864359444
 20
21.3221586167
  0
LWPOLYLINE
  5
534
100
AcDbEntity
  8
DRAFT
100
AcDbPolyline
 62
7
  6
CONTINUOUS
 90
13
 70
0
 10
-8.3770963761
 20
24.7118387076
 10
-8.4663678168
 20
24.7681297476
 10
-8.5512952467
 20
24.8261847858
 10
-8.6318786658
 20
24.8860038224
 10
-8.7082309575
 20
24.9476883474
 10
-8.7802392383
 20
25.0111368708
 10
-8.8475648577
 20
25.0760449217
 10
-8.910201096
 20
25.1424439077
 10
-8.9681546728
 20
25.2103024213
 10
-9.0211070958
 20
25.2792217695
 10
-9.0689522009
 20
25.3490690547
 10
-9.1117961521
 20
25.4199771745
 10
-9.1496389496
 20
25.491946129
  0
LWPOLYLINE
  5
535
100
AcDbEntity
  8
ASSI
100
AcDbPolyline
 62
7
  6
CONTINUOUS
 90
13
 70
0
 10
-0.9924143738
 20
20.6857408992
 10
-0.9897605542
 20
20.6840467026
 10
-0.9846609674
 20
20.6797881797
 10
-0.9799209037
 20
20.6744154769
 10
-0.9755755014
 20
20.6679523154
 10
-0.9716620522
 20
20.6604302822
 10
-0.968203051
 20
20.6518795768
 10
-0.9652255226
 20
20.6423381046
 10
-0.9627565873
 20
20.631851254
 10
-0.9608128018
 20
20.6204682015
 10
-0.9594097012
 20
20.6082422665
 10
-0.9585626976
 20
20.5952297331
 10
-0.9582816672
 20
20.5814906144
  0
LINE
  5
536
100
AcDbEntity
  8
DRAFT
100
AcDbLine
 62
7
  6
CONTINUOUS
 10
-9.0084921424
 20
25.4526335503
 11
-9.1144892479
 21
25.5206493993
  0
LINE
  5
537
100
AcDbEntity
  8
DRAFT
100
AcDbLine
 62
7
  6
CONTINUOUS
 10
-8.901650851
 20
25.3835237509
 11
-9.0084921424
 21
25.4526335503
  0
LINE
  5
538
100
AcDbEntity
  8
DRAFT
100
AcDbLine
 62
7
  6
CONTINUOUS
 10
-8.7952326332
 20
25.3141252337
 11
-8.901650851
 21
25.3835237509
  0
LINE
  5
539
100
AcDbEntity
  8
DRAFT
100
AcDbLine
 62
7
  6
CONTINUOUS
 10
-8.6887282443
 20
25.2440884501
 11
-8.7952326332
 21
25.3141252337
  0
LWPOLYLINE
  5
53A
100
AcDbEntity
  8
ASSI
100
AcDbPolyline
 62
250
  6
CONTINUOUS
 90
13
 70
0
 10
-4.6385891073
 20
21.5902442232
 10
-4.6215433542
 20
21.5787976157
 10
-4.6053148072
 20
21.5648007994
 10
-4.5901506703
 20
21.5484669832
 10
-4.5762819334
 20
21.5300449745
 10
-4.5639198543
 20
21.5098153894
 10
-4.5532527404
 20
21.4880863782
 10
-4.5444430801
 20
21.4651889316
 10
-4.5376250679
 20
21.4414718385
 10
-4.5329025604
 20
21.4172963733
 10
-4.5303474938
 20
21.3930307925
 10
-4.5299987886
 20
21.3690447255
 10
-4.5318617566
 20
21.3457035438
  0
LWPOLYLINE
  5
53B
100
AcDbEntity
  8
ASSI
100
AcDbPolyline
 62
250
  6
CONTINUOUS
 90
13
 70
0
 10
-2.0462229127
 20
22.272089651
 10
-2.0291771595
 20
22.2606430433
 10
-2.0129486125
 20
22.2466462269
 10
-1.9977844754
 20
22.2303124106
 10
-1.9839157385
 20
22.2118904017
 10
-1.9715536595
 20
22.1916608165
 10
-1.9608865456
 20
22.1699318053
 10
-1.9520768853
 20
22.1470343587
 10
-1.9452588733
 20
22.1233172657
 10
-1.9405363658
 20
22.0991418006
 10
-1.9379812993
 20
22.0748762199
 10
-1.9376325941
 20
22.0508901531
 10
-1.9394955621
 20
22.0275489715
  0
LWPOLYLINE
  5
53C
100
AcDbEntity
  8
DRAFT
100
AcDbPolyline
 62
7
  6
CONTINUOUS
 90
7
 70
0
 10
1.2717669802
 20
19.4287297997
 10
1.2204682817
 20
19.4635617507
 10
1.1281684077
 20
19.52828263
 10
1.0343074497
 20
19.5971685228
 10
0.9387501213
 20
19.6704733955
 10
0.8415848422
 20
19.7479040431
 10
0.7427876006
 20
19.829439556
  0
LWPOLYLINE
  5
53D
100
AcDbEntity
  8
SMUSSO
100
AcDbPolyline
 62
7
  6
CONTINUOUS
 90
13
 70
0
 10
-0.9865287718
 20
20.3330320676
 10
-1.1226540384
 20
20.4256184573
 10
-1.2476389235
 20
20.5219420366
 10
-1.3614834271
 20
20.6220028057
 10
-1.4645440984
 20
20.7262193933
 10
-1.5564643881
 20
20.8341731707
 10
-1.6361746487
 20
20.944608251
 10
-1.703531931
 20
21.0575530421
 10
-1.7586791841
 20
21.1729791362
 10
-1.8009756077
 20
21.289545423
 10
-1.8302076016
 20
21.4068048657
 10
-1.846588766
 20
21.5252045011
 10
-1.8501191008
 20
21.6447443291
  0
LWPOLYLINE
  5
53E
100
AcDbEntity
  8
ASSI
100
AcDbPolyline
 62
250
  6
CONTINUOUS
 90
5
 70
0
 10
-5.7508851741
 20
24.4570044197
 10
-5.7676019791
 20
24.4686214129
 10
-5.7848117374
 20
24.4755165281
 10
-5.8020878317
 20
24.4775188404
 10
-5.8058976321
 20
24.4772915058
  0
LWPOLYLINE
  5
53F
100
AcDbEntity
  8
SMUSSO
100
AcDbPolyline
 62
7
  6
CONTINUOUS
 90
11
 70
0
 10
-8.1490652357
 20
24.5929819882
 10
-8.2256566431
 20
24.6508265013
 10
-8.2975740516
 20
24.7106370893
 10
-8.3646665812
 20
24.7722881577
 10
-8.4267938593
 20
24.835650732
 10
-8.4838252323
 20
24.9005916992
 10
-8.5356405801
 20
24.9669744311
 10
-8.5821311197
 20
25.0346597858
 10
-8.623198965
 20
25.1035056154
 10
-8.6587574447
 20
25.1733670368
 10
-8.6887315717
 20
25.2440971623
  0
LINE
  5
540
100
AcDbEntity
  8
SMUSSO
100
AcDbLine
 62
7
  6
CONTINUOUS
 10
0.9474787116
 20
19.6682487557
 11
0.8999160041
 21
19.7077394513
  0
LINE
  5
541
100
AcDbEntity
  8
SMUSSO
100
AcDbLine
 62
7
  6
CONTINUOUS
 10
-0.8303926993
 20
20.2850152087
 11
-0.8528837154
 21
20.304777331
  0
LWPOLYLINE
  5
542
100
AcDbEntity
  8
RACCORDO
100
AcDbPolyline
 62
250
  6
CONTINUOUS
 90
4
 70
0
 10
3.8488394131
 20
18.5392883922
 10
3.8733624035
 20
18.51561045
 10
3.8977281651
 20
18.4910388436
 10
3.9035361322
 20
18.484908384
  0
LWPOLYLINE
  5
543
100
AcDbEntity
  8
RACCORDO
100
AcDbPolyline
 62
250
  6
CONTINUOUS
 90
3
 70
0
 10
3.755202814
 20
18.5234273451
 10
3.7780632434
 20
18.5008183145
 10
3.8006407817
 20
18.4773151265
  0
LWPOLYLINE
  5
544
100
AcDbEntity
  8
RACCORDO
100
AcDbPolyline
 62
250
  6
CONTINUOUS
 90
3
 70
0
 10
3.8006407817
 20
18.4773151265
 10
3.8229354289
 20
18.4529177812
 10
3.8305339852
 20
18.4442289771
  0
LWPOLYLINE
  5
545
100
AcDbEntity
  8
0
100
AcDbPolyline
 62
7
  6
CONTINUOUS
 90
11
 70
0
 10
7.4073975762
 20
20.2094418583
 10
7.4065013084
 20
20.2118717232
 10
7.40104839
 20
20.2166525212
 10
7.3906190218
 20
20.2240596903
 10
7.3756784346
 20
20.2338542014
 10
7.3576967923
 20
20.2452348054
 10
7.3367039028
 20
20.2581899756
 10
7.3126699582
 20
20.2727312388
 10
7.2869756992
 20
20.2880919267
 10
7.2597189256
 20
20.3042104391
 10
7.2013117762
 20
20.3383238713
  0
LINE
  5
546
100
AcDbEntity
  8
DRAFT
100
AcDbLine
 62
7
  6
CONTINUOUS
 10
-8.470541342
 20
-13.2021192799
 11
-7.6775972243
 21
-12.7032494921
  0
LINE
  5
547
100
AcDbEntity
  8
ASSI
100
AcDbLine
 62
7
  6
CONTINUOUS
 10
-8.470541342
 20
-13.2021192799
 11
-7.6775972243
 21
-12.7032494921
  0
LWPOLYLINE
  5
548
100
AcDbEntity
  8
RACCORDO
100
AcDbPolyline
 62
7
  6
CONTINUOUS
 90
9
 70
0
 10
-2.7744844336
 20
-6.232282493
 10
-2.7688920366
 20
-6.2288485418
 10
-2.7485674597
 20
-6.214812515
 10
-2.7284178179
 20
-6.1984209137
 10
-2.7085427638
 20
-6.1797137739
 10
-2.6891836536
 20
-6.1587214473
 10
-2.670545821
 20
-6.1354746886
 10
-2.6527398891
 20
-6.1100713353
 10
-2.6359001299
 20
-6.0826365168
  0
LWPOLYLINE
  5
549
100
AcDbEntity
  8
RACCORDO
100
AcDbPolyline
 62
7
  6
CONTINUOUS
 90
7
 70
0
 10
-5.4223210484
 20
-7.8344299276
 10
-5.4105850512
 20
-7.8273005381
 10
-5.3995594328
 20
-7.8197377023
 10
-5.3892441931
 20
-7.8117414202
 10
-5.3796393322
 20
-7.8033116918
 10
-5.3707448501
 20
-7.794448517
 10
-5.3625607467
 20
-7.7851518959
  0
LINE
  5
54A
100
AcDbEntity
  8
DRAFT
100
AcDbLine
 62
7
  6
CONTINUOUS
 10
11.0863582554
 20
-0.4726149744
 11
19.1456228178
 21
4.4145141484
  0
LINE
  5
54B
100
AcDbEntity
  8
0
100
AcDbLine
 62
7
  6
CONTINUOUS
 10
19.1456228178
 20
7.3928154721
 11
19.0066699805
 21
7.3097352615
  0
LINE
  5
54C
100
AcDbEntity
  8
RACCORDO
100
AcDbLine
 62
250
  6
CONTINUOUS
 10
-5.652375855
 20
-7.8861940643
 11
-2.6359001299
 21
-6.0826365168
  0
LINE
  5
54D
100
AcDbEntity
  8
RACCORDO
100
AcDbLine
 62
7
  6
CONTINUOUS
 10
-5.596251082
 20
-7.9194230511
 11
-2.7744923224
 21
-6.2322872105
  0
LINE
  5
54E
100
AcDbEntity
  8
RACCORDO
100
AcDbLine
 62
250
  6
CONTINUOUS
 10
-2.9161885395
 20
-7.1823911167
 11
-5.5962438151
 21
-8.7848021289
  0
LINE
  5
54F
100
AcDbEntity
  8
0
100
AcDbLine
 62
7
  6
CONTINUOUS
 10
19.1456228178
 20
5.7598749185
 11
19.0066699805
 21
5.676794708
  0
LINE
  5
550
100
AcDbEntity
  8
RACCORDO
100
AcDbLine
 62
250
  6
CONTINUOUS
 10
-2.6359001299
 20
-7.3414099444
 11
-5.652375855
 21
-9.1449674919
  0
LINE
  5
551
100
AcDbEntity
  8
CURVE
100
AcDbLine
 62
250
  6
CONTINUOUS
 10
-17.6350964435
 20
10.2531057697
 11
-20.3522673873
 21
9.6251549624
  0
LINE
  5
552
100
AcDbEntity
  8
CURVE
100
AcDbLine
 62
250
  6
CONTINUOUS
 10
-20.4180403388
 20
10.2577610275
 11
-17.6955102327
 21
10.8871179059
  0
LWPOLYLINE
  5
553
100
AcDbEntity
  8
ASSI
100
AcDbPolyline
 62
7
  6
CONTINUOUS
 90
9
 70
0
 10
-8.076577857
 20
18.0335333164
 10
-8.0956111018
 20
18.0328597562
 10
-8.1141521909
 20
18.031225518
 10
-8.1323371269
 20
18.0285956086
 10
-8.1500299073
 20
18.0250050213
 10
-8.166822525
 20
18.020558736
 10
-8.1825789777
 20
18.0152917461
 10
-8.1974352677
 20
18.0091690583
 10
-8.2113913951
 20
18.0021906725
  0
LWPOLYLINE
  5
554
100
AcDbEntity
  8
0
100
AcDbPolyline
 62
7
  6
CONTINUOUS
 90
11
 70
0
 10
15.9479758054
 20
15.4803866366
 10
15.9464849738
 20
15.480404798
 10
15.9431954784
 20
15.4812501744
 10
15.9383240944
 20
15.482990003
 10
15.9318008561
 20
15.4856501621
 10
15.9239665087
 20
15.4890339895
 10
15.9149232061
 20
15.4930848262
 10
15.9045687943
 20
15.4978593312
 10
15.8929375574
 20
15.5033308201
 10
15.8801081341
 20
15.5094550215
 10
15.8660018856
 20
15.5162762067
  0
LWPOLYLINE
  5
555
100
AcDbEntity
  8
ASSI
100
AcDbPolyline
 62
250
  6
CONTINUOUS
 90
13
 70
0
 10
-10.1724450102
 20
18.6042540151
 10
-10.1898549167
 20
18.606437166
 10
-10.2093420885
 20
18.6096677704
 10
-10.230585032
 20
18.6138925258
 10
-10.2532332897
 20
18.6190417291
 10
-10.2769132304
 20
18.6250304289
 10
-10.3012342139
 20
18.6317598277
 10
-10.3257950191
 20
18.6391189078
 10
-10.3501904773
 20
18.6469862663
 10
-10.3740181643
 20
18.6552321214
 10
-10.3968850139
 20
18.6637204457
 10
-10.4184138027
 20
18.6723112093
 10
-10.4382493884
 20
18.6808626949
  0
LWPOLYLINE
  5
556
100
AcDbEntity
  8
ASSI
100
AcDbPolyline
 62
250
  6
CONTINUOUS
 90
13
 70
0
 10
-9.9010600161
 20
19.4778838563
 10
-9.9185087664
 20
19.4800727099
 10
-9.9380391514
 20
19.48331264
 10
-9.9593266871
 20
19.4875494301
 10
-9.9820165048
 20
19.4927120302
 10
-10.0057339192
 20
19.4987147929
 10
-10.0300912549
 20
19.5054594598
 10
-10.0547044215
 20
19.5128403581
 10
-10.0791472636
 20
19.5207303711
 10
-10.1029659782
 20
19.5289812963
 10
-10.1257568543
 20
19.5374491359
 10
-10.1471698495
 20
19.5459995178
 10
-10.1668643943
 20
19.5544925361
  0
LWPOLYLINE
  5
557
100
AcDbEntity
  8
ASSI
100
AcDbPolyline
 62
250
  6
CONTINUOUS
 90
4
 70
0
 10
-10.3453985599
 20
20.1854270238
 10
-10.3460117028
 20
20.1855134299
 10
-10.3489351123
 20
20.1839836885
 10
-10.3528433429
 20
20.1795628082
  0
LWPOLYLINE
  5
558
100
AcDbEntity
  8
DRAFT
100
AcDbPolyline
 62
7
  6
CONTINUOUS
 90
3
 70
0
 10
3.0711231953
 20
18.7922166356
 10
3.1192656562
 20
18.784379628
 10
3.1676307101
 20
18.7766230947
  0
LWPOLYLINE
  5
559
100
AcDbEntity
  8
ASSI
100
AcDbPolyline
 62
250
  6
CONTINUOUS
 90
16
 70
0
 10
-7.6305309787
 20
19.6945210911
 10
-7.6493018255
 20
19.6976225869
 10
-7.6682365413
 20
19.6995270623
 10
-7.6873028983
 20
19.7002329104
 10
-7.7067871261
 20
19.6995754329
 10
-7.7263887059
 20
19.6977188867
 10
-7.745212738
 20
19.6951563031
 10
-7.7629872081
 20
19.6918887545
 10
-7.7800247447
 20
19.68791794
 10
-7.7962901646
 20
19.683737668
 10
-7.8117215754
 20
19.6794335789
 10
-7.8263988667
 20
19.6749249601
 10
-7.8404696558
 20
19.6704537576
 10
-7.8538304155
 20
19.666108705
 10
-7.8665807594
 20
19.6618038398
 10
-7.929473362
 20
19.6402831237
  0
LWPOLYLINE
  5
55A
100
AcDbEntity
  8
ASSI
100
AcDbPolyline
 62
250
  6
CONTINUOUS
 90
21
 70
0
 10
-5.7275315165
 20
20.5265737145
 10
-5.6819777563
 20
20.5186868738
 10
-5.635332259
 20
20.5133346124
 10
-5.5880170206
 20
20.5105653581
 10
-5.5404600819
 20
20.5104041707
 10
-5.4930917048
 20
20.5128525164
 10
-5.4463404786
 20
20.5178882448
 10
-5.4006293759
 20
20.5254657929
 10
-5.3563719257
 20
20.5355166067
 10
-5.3139685207
 20
20.5479497556
 10
-5.2738027911
 20
20.5626527525
 10
-5.2362381021
 20
20.5794925816
 10
-5.201614272
 20
20.5983169081
 10
-5.1702445288
 20
20.6189554454
 10
-5.1424127013
 20
20.6412214695
 10
-5.118370613
 20
20.6649135177
 10
-5.098335774
 20
20.6898172367
 10
-5.082489423
 20
20.7157073313
 10
-5.0709749144
 20
20.7423495779
 10
-5.0638964204
 20
20.7695029168
 10
-5.0613068446
 20
20.7988468697
  0
LWPOLYLINE
  5
55B
100
AcDbEntity
  8
DRAFT
100
AcDbPolyline
 62
7
  6
CONTINUOUS
 90
7
 70
0
 10
2.7403667346
 20
18.8494509678
 10
2.786947418
 20
18.8409964185
 10
2.8337516009
 20
18.8326358988
 10
2.8807792834
 20
18.8243694089
 10
2.9280307674
 20
18.8162014672
 10
2.9755057509
 20
18.8081275552
 10
3.0711231953
 20
18.7922166356
  0
LWPOLYLINE
  5
55C
100
AcDbEntity
  8
ASSI
100
AcDbPolyline
 62
250
  6
CONTINUOUS
 90
4
 70
0
 10
-12.6176850087
 20
21.5540548457
 10
-12.6483016283
 20
21.5599503065
 10
-12.6752402152
 20
21.5640138475
 10
-12.6986217314
 20
21.5664871714
  0
LWPOLYLINE
  5
55D
100
AcDbEntity
  8
ASSI
100
AcDbPolyline
 62
250
  6
CONTINUOUS
 90
22
 70
0
 10
-7.6117788429
 20
19.5467176893
 10
-7.6206423689
 20
19.5489346618
 10
-7.6294469421
 20
19.5492138053
 10
-7.638239582
 20
19.5476962521
 10
-7.6472180703
 20
19.5444672706
 10
-7.656383871
 20
19.5397257696
 10
-7.6654117574
 20
19.5338024597
 10
-7.6741367957
 20
19.5267703164
 10
-7.6828049035
 20
19.5188369388
 10
-7.6915403117
 20
19.5104959036
 10
-7.7003158428
 20
19.5018302517
 10
-7.7091863915
 20
19.4928685153
 10
-7.7182619117
 20
19.4839552699
 10
-7.7274596976
 20
19.4752125976
 10
-7.736820706
 20
19.4665278371
 10
-7.7465986386
 20
19.4578820239
 10
-7.7568194692
 20
19.4493666203
 10
-7.7675041932
 20
19.4409118805
 10
-7.7789893565
 20
19.4323024123
 10
-7.7914944509
 20
19.4235114314
 10
-7.8050447081
 20
19.4146675952
 10
-7.8197594133
 20
19.4058269787
  0
LINE
  5
55E
100
AcDbEntity
  8
DRAFT
100
AcDbLine
 62
7
  6
CONTINUOUS
 10
0.7427876006
 20
19.829439556
 11
0.6916155128
 21
19.8421533827
  0
LINE
  5
55F
100
AcDbEntity
  8
DRAFT
100
AcDbLine
 62
7
  6
CONTINUOUS
 10
0.6916155128
 20
19.8421533827
 11
0.6403493878
 21
19.8553355757
  0
LINE
  5
560
100
AcDbEntity
  8
DRAFT
100
AcDbLine
 62
7
  6
CONTINUOUS
 10
0.6403493878
 20
19.8553355757
 11
0.5889884285
 21
19.8689854446
  0
LWPOLYLINE
  5
561
100
AcDbEntity
  8
RACCORDO
100
AcDbPolyline
 62
7
  6
CONTINUOUS
 90
10
 70
0
 10
11.2055941132
 20
14.4189097185
 10
11.1974372611
 20
14.4212736774
 10
11.1881280491
 20
14.4227853108
 10
11.1783578353
 20
14.4231947906
 10
11.1680316399
 20
14.4224919052
 10
11.1572444427
 20
14.4206868663
 10
11.1462811838
 20
14.4178103088
 10
11.1352368431
 20
14.4138724443
 10
11.1240164406
 20
14.4088630611
 10
11.1126199763
 20
14.4027821592
  0
LWPOLYLINE
  5
562
100
AcDbEntity
  8
RACCORDO
100
AcDbPolyline
 62
7
  6
CONTINUOUS
 90
10
 70
0
 10
2.9996199175
 20
19.0294677322
 10
2.9914630654
 20
19.0318316911
 10
2.9821538534
 20
19.0333433245
 10
2.9723836396
 20
19.0337528043
 10
2.9620574442
 20
19.0330499189
 10
2.9512702471
 20
19.0312448801
 10
2.9403069881
 20
19.0283683225
 10
2.9292626474
 20
19.024430458
 10
2.9180422449
 20
19.0194210748
 10
2.9066457807
 20
19.013340173
  0
LINE
  5
563
100
AcDbEntity
  8
RACCORDO
100
AcDbLine
 62
7
  6
CONTINUOUS
 10
11.2055932674
 20
14.4189080213
 11
11.0863582554
 21
14.4584604523
  0
LWPOLYLINE
  5
564
100
AcDbEntity
  8
RACCORDO
100
AcDbPolyline
 62
7
  6
CONTINUOUS
 90
13
 70
0
 10
2.9996190717
 20
19.029466035
 10
2.8807087416
 20
19.0689236266
 10
2.7585355918
 20
19.1046103804
 10
2.6336245278
 20
19.1363932584
 10
2.5063102049
 20
19.1642160237
 10
2.3769179196
 20
19.1880329097
 10
2.2457687338
 20
19.2078057892
 10
2.1132116859
 20
19.2234998413
 10
1.9795806811
 20
19.2350907617
 10
1.8451829074
 20
19.242562573
 10
1.7103661788
 20
19.2459027517
 10
1.5754737843
 20
19.2451074495
 10
1.5659201457
 20
19.2447578
  0
LINE
  5
565
100
AcDbEntity
  8
RACCORDO
100
AcDbLine
 62
250
  6
CONTINUOUS
 10
11.0863582554
 20
14.4116593372
 11
11.1126463019
 21
14.4027973593
  0
LINE
  5
566
100
AcDbEntity
  8
RACCORDO
100
AcDbLine
 62
7
  6
CONTINUOUS
 10
12.0548136088
 20
13.9287303785
 11
12.0994779531
 21
13.9123943588
  0
LINE
  5
567
100
AcDbEntity
  8
RACCORDO
100
AcDbLine
 62
7
  6
CONTINUOUS
 10
3.8488394131
 20
18.5392883922
 11
3.9407593877
 21
18.5056505131
  0
LWPOLYLINE
  5
568
100
AcDbEntity
  8
RACCORDO
100
AcDbPolyline
 62
7
  6
CONTINUOUS
 90
3
 70
0
 10
11.3746720297
 20
14.3569049515
 10
11.2890247119
 20
14.3883972743
 10
11.2055941132
 20
14.4189097185
  0
LWPOLYLINE
  5
569
100
AcDbEntity
  8
RACCORDO
100
AcDbPolyline
 62
7
  6
CONTINUOUS
 90
3
 70
0
 10
3.168697834
 20
18.9674629652
 10
3.0830505163
 20
18.998955288
 10
2.9996199175
 20
19.0294677322
  0
LINE
  5
56A
100
AcDbEntity
  8
0
100
AcDbLine
 62
7
  6
CONTINUOUS
 10
11.8548565654
 20
14.1798440047
 11
11.8530991681
 21
14.1804920665
  0
LINE
  5
56B
100
AcDbEntity
  8
0
100
AcDbLine
 62
7
  6
CONTINUOUS
 10
3.6488823698
 20
18.7904020185
 11
3.6471249724
 21
18.7910500803
  0
LWPOLYLINE
  5
56C
100
AcDbEntity
  8
RACCORDO
100
AcDbPolyline
 62
7
  6
CONTINUOUS
 90
4
 70
0
 10
11.6381588548
 20
14.2590527652
 10
11.5481516253
 20
14.2926335732
 10
11.4599649973
 20
14.3253855511
 10
11.3746720297
 20
14.3569049515
  0
LWPOLYLINE
  5
56D
100
AcDbEntity
  8
RACCORDO
100
AcDbPolyline
 62
7
  6
CONTINUOUS
 90
4
 70
0
 10
3.4321846591
 20
18.8696107789
 10
3.3421774297
 20
18.9031915869
 10
3.2539908017
 20
18.9359435648
 10
3.168697834
 20
18.9674629652
  0
LINE
  5
56E
100
AcDbEntity
  8
RACCORDO
100
AcDbLine
 62
7
  6
CONTINUOUS
 10
11.8524028113
 20
14.1786445696
 11
11.6381588548
 21
14.2590527652
  0
LINE
  5
56F
100
AcDbEntity
  8
RACCORDO
100
AcDbLine
 62
7
  6
CONTINUOUS
 10
3.6464286156
 20
18.7892025833
 11
3.4321846591
 21
18.8696107789
  0
LINE
  5
570
100
AcDbEntity
  8
RACCORDO
100
AcDbLine
 62
7
  6
CONTINUOUS
 10
12.0168695415
 20
14.1165359698
 11
11.8524028113
 21
14.1786445696
  0
LINE
  5
571
100
AcDbEntity
  8
RACCORDO
100
AcDbLine
 62
7
  6
CONTINUOUS
 10
3.8108953458
 20
18.7270939835
 11
3.6464286156
 21
18.7892025833
  0
LINE
  5
572
100
AcDbEntity
  8
RACCORDO
100
AcDbLine
 62
250
  6
CONTINUOUS
 10
12.0168695415
 20
14.1165359698
 11
11.8548565654
 21
14.1798440047
  0
LINE
  5
573
100
AcDbEntity
  8
RACCORDO
100
AcDbLine
 62
250
  6
CONTINUOUS
 10
3.8108953458
 20
18.7270939835
 11
3.6488823698
 21
18.7904020185
  0
LWPOLYLINE
  5
574
100
AcDbEntity
  8
RACCORDO
100
AcDbPolyline
 62
7
  6
CONTINUOUS
 90
3
 70
0
 10
12.0188141646
 20
14.1157659441
 10
11.8757536262
 20
14.1720809393
 10
11.8548550003
 20
14.179839789
  0
LWPOLYLINE
  5
575
100
AcDbEntity
  8
RACCORDO
100
AcDbPolyline
 62
7
  6
CONTINUOUS
 90
3
 70
0
 10
3.812839969
 20
18.7263239579
 10
3.6697794305
 20
18.7826389531
 10
3.6488808046
 20
18.7903978027
  0
LINE
  5
576
100
AcDbEntity
  8
DRAFT
100
AcDbLine
 62
7
  6
CONTINUOUS
 10
2.101453744
 20
18.9811794386
 11
2.0607217411
 21
18.9978042703
  0
LWPOLYLINE
  5
577
100
AcDbEntity
  8
DRAFT
100
AcDbPolyline
 62
7
  6
CONTINUOUS
 90
11
 70
0
 10
2.0607217411
 20
18.9978042703
 10
2.0138426768
 20
19.017684122
 10
1.9267393919
 20
19.0566736526
 10
1.8396680029
 20
19.0981634371
 10
1.7526447279
 20
19.1420443727
 10
1.6656366757
 20
19.1884125991
 10
1.5780905684
 20
19.2375888838
 10
1.4900126804
 20
19.2894706475
 10
1.4013738759
 20
19.3441424789
 10
1.3115610561
 20
19.4022011479
 10
1.2717669802
 20
19.4287297997
  0
LINE
  5
578
100
AcDbEntity
  8
DRAFT
100
AcDbLine
 62
7
  6
CONTINUOUS
 10
17.2815474757
 20
14.3345361501
 11
19.1456228178
 21
13.4346955204
  0
LINE
  5
579
100
AcDbEntity
  8
DRAFT
100
AcDbLine
 62
7
  6
CONTINUOUS
 10
15.5357807833
 20
15.3391571938
 11
15.0774487426
 21
15.5618953379
  0
LWPOLYLINE
  5
57A
100
AcDbEntity
  8
ASSI
100
AcDbPolyline
 62
250
  6
CONTINUOUS
 90
6
 70
0
 10
-8.3738209924
 20
23.7469203002
 10
-8.3916167696
 20
23.7555907556
 10
-8.4096990238
 20
23.7614045659
 10
-8.4277923142
 20
23.7642731714
 10
-8.4456210319
 20
23.7641528757
 10
-8.4631012315
 20
23.7609944763
  0
LWPOLYLINE
  5
57B
100
AcDbEntity
  8
ASSI
100
AcDbPolyline
 62
250
  6
CONTINUOUS
 90
3
 70
0
 10
-5.8119717545
 20
24.4463858363
 10
-5.8297675316
 20
24.4550562916
 10
-5.8478497858
 20
24.4608701019
  0
LWPOLYLINE
  5
57C
100
AcDbEntity
  8
ASSI
100
AcDbPolyline
 62
250
  6
CONTINUOUS
 90
10
 70
0
 10
-1.9987452931
 20
22.2905658778
 10
-1.9724227032
 20
22.2773324632
 10
-1.9476599811
 20
22.2599931933
 10
-1.9250709764
 20
22.2389778958
 10
-1.905215654
 20
22.2148075244
 10
-1.8885862127
 20
22.1880812449
 10
-1.8755948841
 20
22.1594615821
 10
-1.8665637137
 20
22.1296579965
 10
-1.8617165776
 20
22.0994092971
 10
-1.8611736328
 20
22.0694653268
  0
LINE
  5
57D
100
AcDbEntity
  8
DRAFT
100
AcDbLine
 62
7
  6
CONTINUOUS
 10
-7.6007063465
 20
24.5897028016
 11
-7.5942388406
 21
24.5859685447
  0
LINE
  5
57E
100
AcDbEntity
  8
DRAFT
100
AcDbLine
 62
7
  6
CONTINUOUS
 10
-0.1053744659
 20
20.2619921123
 11
-0.09890696
 21
20.2582578554
  0
LINE
  5
57F
100
AcDbEntity
  8
RACCORDO
100
AcDbLine
 62
7
  6
CONTINUOUS
 10
-5.3515991822
 20
23.4959557699
 11
-3.3319948292
 21
22.329861528
  0
LINE
  5
580
100
AcDbEntity
  8
DRAFT
100
AcDbLine
 62
7
  6
CONTINUOUS
 10
2.2236926241
 20
19.2104194836
 11
1.5274386368
 21
19.6124278098
  0
LINE
  5
581
100
AcDbEntity
  8
DRAFT
100
AcDbLine
 62
7
  6
CONTINUOUS
 10
-5.5907641574
 20
24.5317339397
 11
-5.5392360892
 21
24.501982279
  0
LINE
  5
582
100
AcDbEntity
  8
DRAFT
100
AcDbLine
 62
7
  6
CONTINUOUS
 10
4.4014419977
 20
18.7623593375
 11
1.9045677232
 21
20.2040232504
  0
LINE
  5
583
100
AcDbEntity
  8
ASSI
100
AcDbLine
 62
7
  6
CONTINUOUS
 10
-4.4165024523
 20
24.4357648224
 11
-1.5606402043
 21
22.7868257528
  0
LINE
  5
584
100
AcDbEntity
  8
ASSI
100
AcDbLine
 62
7
  6
CONTINUOUS
 10
-4.4661253409
 20
24.5759630951
 11
-1.2471214723
 21
22.717350605
  0
LWPOLYLINE
  5
585
100
AcDbEntity
  8
RACCORDO
100
AcDbPolyline
 62
250
  6
CONTINUOUS
 90
3
 70
0
 10
12.0548136088
 20
13.9287303785
 10
12.0793365991
 20
13.9050524363
 10
12.0814577949
 20
13.9029133205
  0
LWPOLYLINE
  5
586
100
AcDbEntity
  8
RACCORDO
100
AcDbPolyline
 62
250
  6
CONTINUOUS
 90
4
 70
0
 10
11.9611770096
 20
13.9128693314
 10
11.9840374391
 20
13.8902603007
 10
12.0066149774
 20
13.8667571128
 10
12.0086028384
 20
13.8645817685
  0
LWPOLYLINE
  5
587
100
AcDbEntity
  8
DRAFT
100
AcDbPolyline
 62
7
  6
CONTINUOUS
 90
16
 70
0
 10
12.7076731153
 20
14.4436335909
 10
12.6592270892
 20
14.5369940782
 10
12.600601928
 20
14.6285474741
 10
12.5319137021
 20
14.7183143885
 10
12.453954248
 20
14.8052616731
 10
12.3666165914
 20
14.8893567636
 10
12.2700077065
 20
14.9706322243
 10
12.1652403527
 20
15.0481526002
 10
12.0522206354
 20
15.121874451
 10
11.9310424492
 20
15.191841217
 10
11.8031002364
 20
15.2572477647
 10
11.6683157566
 20
15.3180416152
 10
11.5267672503
 20
15.3742752474
 10
11.3800838816
 20
15.4253009639
 10
11.228206349
 20
15.4710586749
 10
11.0863582554
 20
15.5076921596
  0
LWPOLYLINE
  5
588
100
AcDbEntity
  8
DRAFT
100
AcDbPolyline
 62
7
  6
CONTINUOUS
 90
3
 70
0
 10
12.7625692459
 20
14.2917144353
 10
12.7460560768
 20
14.348486622
 10
12.7076731153
 20
14.4436335909
  0
LINE
  5
589
100
AcDbEntity
  8
0
100
AcDbLine
 62
7
  6
CONTINUOUS
 10
19.0066699805
 20
7.3097352615
 11
19.0066699805
 21
5.676794708
  0
LINE
  5
58A
100
AcDbEntity
  8
0
100
AcDbLine
 62
7
  6
CONTINUOUS
 10
19.1456228178
 20
4.4145141484
 11
19.1456228178
 21
5.7598749185
  0
LINE
  5
58B
100
AcDbEntity
  8
0
100
AcDbLine
 62
7
  6
CONTINUOUS
 10
19.1456228178
 20
7.3928154721
 11
19.1456228178
 21
13.4346955204
  0
LINE
  5
58C
100
AcDbEntity
  8
DRAFT
100
AcDbLine
 62
7
  6
CONTINUOUS
 10
9.7015840884
 20
-9.9969265461
 11
11.0863582554
 21
-7.6725387148
  0
LWPOLYLINE
  5
58D
100
AcDbEntity
  8
DRAFT
100
AcDbPolyline
 62
7
  6
CONTINUOUS
 90
7
 70
0
 10
-7.0992640937
 20
-20.145106726
 10
-7.3374729388
 20
-20.3485328213
 10
-7.5810165899
 20
-20.5434122584
 10
-7.829895047
 20
-20.7297450372
 10
-8.0842001711
 20
-20.9075910562
 10
-8.3438401012
 20
-21.076890417
 10
-8.4775936474
 20
-21.1595058582
  0
LWPOLYLINE
  5
58E
100
AcDbEntity
  8
DRAFT
100
AcDbPolyline
 62
7
  6
CONTINUOUS
 90
3
 70
0
 10
-8.0846344374
 20
-19.1749080106
 10
-8.3810759328
 20
-19.4108649632
 10
-8.5497292842
 20
-19.5341485654
  0
LINE
  5
58F
100
AcDbEntity
  8
DRAFT
100
AcDbLine
 62
7
  6
CONTINUOUS
 10
-9.0214137728
 20
-17.4268279654
 11
-8.0846344374
 21
-16.8282819154
  0
LINE
  5
590
100
AcDbEntity
  8
DRAFT
100
AcDbLine
 62
7
  6
CONTINUOUS
 10
-9.0214137728
 20
-14.47623261
 11
-8.470541342
 21
-14.1296588648
  0
LINE
  5
591
100
AcDbEntity
  8
ASSI
100
AcDbLine
 62
7
  6
CONTINUOUS
 10
-9.0214137728
 20
-14.47623261
 11
-8.470541342
 21
-14.1296588648
  0
LWPOLYLINE
  5
592
100
AcDbEntity
  8
ASSI
100
AcDbPolyline
 62
250
  6
CONTINUOUS
 90
9
 70
0
 10
-8.1503675499
 20
20.1346843575
 10
-8.1157789228
 20
20.1375136871
 10
-8.0811750918
 20
20.1420417804
 10
-8.0466289579
 20
20.1481704723
 10
-8.0125947054
 20
20.1557086177
 10
-7.9787577617
 20
20.1646163207
 10
-7.9439968898
 20
20.1751815755
 10
-7.9082138692
 20
20.1875188333
 10
-7.8715644271
 20
20.2016446744
  0
LWPOLYLINE
  5
593
100
AcDbEntity
  8
ASSI
100
AcDbPolyline
 62
250
  6
CONTINUOUS
 90
16
 70
0
 10
-9.6748457101
 20
19.5881630756
 10
-9.6819728617
 20
19.587754438
 10
-9.6889555761
 20
19.587064562
 10
-9.6957938531
 20
19.5860934475
 10
-9.7024958493
 20
19.5848139489
 10
-9.7090534082
 20
19.5832532119
 10
-9.7154420606
 20
19.5814926729
 10
-9.721659642
 20
19.5795352819
 10
-9.7277083168
 20
19.577378089
 10
-9.73357011
 20
19.5750936797
 10
-9.7392433191
 20
19.5726845824
 10
-9.7447296465
 20
19.5701482688
 10
-9.7500162241
 20
19.5675497401
 10
-9.7550987625
 20
19.5649106632
 10
-9.7599815512
 20
19.5622093712
 10
-9.7646645901
 20
19.559445864
  0
LWPOLYLINE
  5
594
100
AcDbEntity
  8
ASSI
100
AcDbPolyline
 62
250
  6
CONTINUOUS
 90
16
 70
0
 10
-9.7584083535
 20
19.8363434954
 10
-9.7701477753
 20
19.8356859216
 10
-9.7817133252
 20
19.8344727739
 10
-9.793077325
 20
19.8327528862
 10
-9.8042089525
 20
19.8305739529
 10
-9.8150910652
 20
19.8279830733
 10
-9.8257204566
 20
19.8250249489
 10
-9.8360817266
 20
19.8217413767
 10
-9.846156329
 20
19.8181740361
 10
-9.8559397349
 20
19.8143633453
 10
-9.8654216467
 20
19.8103462423
 10
-9.8745893788
 20
19.8061595041
 10
-9.8834373275
 20
19.8018405777
 10
-9.8919588956
 20
19.7974235278
 10
-9.9001463879
 20
19.7929389529
 10
-9.9079944812
 20
19.7884168053
  0
LINE
  5
595
100
AcDbEntity
  8
ASSI
100
AcDbLine
 62
250
  6
CONTINUOUS
 10
-9.6564702821
 20
20.0527541817
 11
-8.1503675499
 21
20.1346843575
  0
LINE
  5
596
100
AcDbEntity
  8
ASSI
100
AcDbLine
 62
7
  6
CONTINUOUS
 10
-9.7277406942
 20
20.0699189051
 11
-8.220998495
 21
20.151885556
  0
LINE
  5
597
100
AcDbEntity
  8
ASSI
100
AcDbLine
 62
7
  6
CONTINUOUS
 10
-8.220998495
 20
20.151885556
 11
-8.2208582358
 21
20.1518931047
  0
LINE
  5
598
100
AcDbEntity
  8
0
100
AcDbLine
 62
7
  6
CONTINUOUS
 10
1.6586379383
 20
19.5366749774
 11
1.3617360951
 21
19.521677023
  0
LINE
  5
599
100
AcDbEntity
  8
ASSI
100
AcDbLine
 62
250
  6
CONTINUOUS
 10
-9.6775514306
 20
20.0517731969
 11
-9.6564702821
 21
20.0527541817
  0
LWPOLYLINE
  5
59A
100
AcDbEntity
  8
ASSI
100
AcDbPolyline
 62
7
  6
CONTINUOUS
 90
13
 70
0
 10
-9.7277406943
 20
20.069918905
 10
-9.7570732863
 20
20.0690211796
 10
-9.7962991093
 20
20.0695497732
 10
-9.8397057806
 20
20.0719510416
 10
-9.886617502
 20
20.0762990633
 10
-9.9361816529
 20
20.0825731278
 10
-9.9879214418
 20
20.0907459262
 10
-10.0414315992
 20
20.1007810089
 10
-10.0961835314
 20
20.1126066577
 10
-10.1516759037
 20
20.1261303629
 10
-10.2074635829
 20
20.1412553353
 10
-10.2631290728
 20
20.1578919327
 10
-10.3180617854
 20
20.1758749299
  0
LWPOLYLINE
  5
59B
100
AcDbEntity
  8
DRAFT
100
AcDbPolyline
 62
7
  6
CONTINUOUS
 90
13
 70
0
 10
3.1676307101
 20
18.7766230947
 10
3.080676088
 20
18.7740467669
 10
2.9931243005
 20
18.7752853207
 10
2.904966688
 20
18.7803339374
 10
2.8160049228
 20
18.7893249824
 10
2.7264176718
 20
18.8021147586
 10
2.6367627566
 20
18.8182846417
 10
2.5470949281
 20
18.8378384157
 10
2.4573409605
 20
18.860760619
 10
2.3678700049
 20
18.8866053509
 10
2.2787131828
 20
18.9153575843
 10
2.189822917
 20
18.9470209696
 10
2.101453744
 20
18.9811794386
  0
LINE
  5
59C
100
AcDbEntity
  8
ASSI
100
AcDbLine
 62
250
  6
CONTINUOUS
 10
-7.9569113878
 20
19.6310083611
 11
-9.6748457101
 21
19.5881630756
  0
LINE
  5
59D
100
AcDbEntity
  8
ASSI
100
AcDbLine
 62
250
  6
CONTINUOUS
 10
-7.7216367771
 20
19.8871405826
 11
-9.7584083535
 21
19.8363434954
  0
LWPOLYLINE
  5
59E
100
AcDbEntity
  8
ASSI
100
AcDbPolyline
 62
250
  6
CONTINUOUS
 90
5
 70
0
 10
-9.7271012269
 20
20.0699553802
 10
-9.7143603097
 20
20.0699809019
 10
-9.6946115194
 20
20.0673802019
 10
-9.675210768
 20
20.0616069914
 10
-9.6564702821
 20
20.0527541817
  0
LWPOLYLINE
  5
59F
100
AcDbEntity
  8
ASSI
100
AcDbPolyline
 62
250
  6
CONTINUOUS
 90
5
 70
0
 10
-8.2208582358
 20
20.1518931047
 10
-8.2082563317
 20
20.151911015
 10
-8.1885078995
 20
20.1493101878
 10
-8.1691075717
 20
20.1435369892
 10
-8.1503675499
 20
20.1346843575
  0
LWPOLYLINE
  5
5A0
100
AcDbEntity
  8
RACCORDO
100
AcDbPolyline
 62
250
  6
CONTINUOUS
 90
22
 70
0
 10
1.6287042986
 20
19.2091582056
 10
1.7150497251
 20
19.2092304409
 10
1.8025303932
 20
19.2072133406
 10
1.8864848166
 20
19.2037449217
 10
1.96678889
 20
19.1988731565
 10
2.0435667186
 20
19.1925500726
 10
2.117105445
 20
19.1852735983
 10
2.1873719787
 20
19.1770908241
 10
2.2543994103
 20
19.1679546595
 10
2.3185741544
 20
19.1582217612
 10
2.3798819013
 20
19.1479319768
 10
2.4383369607
 20
19.1370454588
 10
2.4943686772
 20
19.1257993207
 10
2.5479732607
 20
19.1142267186
 10
2.5991545014
 20
19.1022944965
 10
2.6483531137
 20
19.0901403001
 10
2.6955722586
 20
19.0777905143
 10
2.7408087752
 20
19.0652187543
 10
2.784493895
 20
19.0524835111
 10
2.8267713621
 20
19.0396042816
 10
2.8674974325
 20
19.0265615689
 10
2.9066721063
 20
19.013355373
  0
LWPOLYLINE
  5
5A1
100
AcDbEntity
  8
0
100
AcDbPolyline
 62
7
  6
CONTINUOUS
 90
11
 70
0
 10
7.1548012484
 20
20.3487772889
 10
7.1533104169
 20
20.3487954503
 10
7.1500209215
 20
20.3496408267
 10
7.1451495375
 20
20.3513806554
 10
7.1386262992
 20
20.3540408144
 10
7.1307919518
 20
20.3574246419
 10
7.1217486491
 20
20.3614754785
 10
7.1113942373
 20
20.3662499835
 10
7.0997630005
 20
20.3717214725
 10
7.0869335771
 20
20.3778456738
 10
7.0728273286
 20
20.3846668591
  0
LWPOLYLINE
  5
5A2
100
AcDbEntity
  8
SMUSSO
100
AcDbPolyline
 62
7
  6
CONTINUOUS
 90
7
 70
0
 10
-1.8501190769
 20
21.6447435995
 10
-1.8466735113
 20
21.6446799597
 10
-1.8432911768
 20
21.6447001295
 10
-1.8399725908
 20
21.6448037278
 10
-1.8367182631
 20
21.64499037
 10
-1.8335286959
 20
21.6452596686
 10
-1.8304043836
 20
21.6456112329
  0
LWPOLYLINE
  5
5A3
100
AcDbEntity
  8
ASSI
100
AcDbPolyline
 62
7
  6
CONTINUOUS
 90
10
 70
0
 10
-5.6311194488
 20
19.3929909738
 10
-5.652838298
 20
19.3942194659
 10
-5.6740946563
 20
19.3942190327
 10
-5.6948885238
 20
19.3929896743
 10
-5.7154197294
 20
19.3904843693
 10
-5.7354884441
 20
19.386750139
 10
-5.7544951814
 20
19.3819280471
 10
-5.7722401124
 20
19.3760651148
 10
-5.788923066
 20
19.3691143208
 10
-5.8045440421
 20
19.3610756653
  0
LWPOLYLINE
  5
5A4
100
AcDbEntity
  8
ASSI
100
AcDbPolyline
 62
250
  6
CONTINUOUS
 90
6
 70
0
 10
-12.6986217314
 20
21.5664871714
 10
-12.7185504954
 20
21.5676169284
 10
-12.7352861181
 20
21.5675636878
 10
-12.7491604045
 20
21.5663869812
 10
-12.7602599339
 20
21.5642482633
 10
-12.7688676243
 20
21.5612300496
  0
LWPOLYLINE
  5
5A5
100
AcDbEntity
  8
SMUSSO
100
AcDbPolyline
 62
7
  6
CONTINUOUS
 90
7
 70
0
 10
2.7403667346
 20
18.8494257556
 10
2.6424128182
 20
18.8551214711
 10
2.5404986814
 20
18.8671926474
 10
2.4346778793
 20
18.8858310546
 10
2.3251045891
 20
18.9111519167
 10
2.2118019833
 20
18.9434315837
 10
2.127488374
 20
18.9713633639
  0
LWPOLYLINE
  5
5A6
100
AcDbEntity
  8
ASSI
100
AcDbPolyline
 62
250
  6
CONTINUOUS
 90
6
 70
0
 10
-9.8097847958
 20
20.0562011874
 10
-9.7795364288
 20
20.0539189052
 10
-9.7514135865
 20
20.0524872605
 10
-9.7250792523
 20
20.0516778102
 10
-9.7004210874
 20
20.0514144064
 10
-9.6775514306
 20
20.0517731969
  0
LWPOLYLINE
  5
5A7
100
AcDbEntity
  8
ASSI
100
AcDbPolyline
 62
250
  6
CONTINUOUS
 90
21
 70
0
 10
-9.4077117654
 20
23.3952600347
 10
-9.4394386302
 20
23.3991834478
 10
-9.4713441413
 20
23.4010813474
 10
-9.5038078234
 20
23.400929986
 10
-9.5364501519
 20
23.3987531111
 10
-9.568132553
 20
23.3946219651
 10
-9.5988213657
 20
23.3884672235
 10
-9.6285502509
 20
23.3803582109
 10
-9.6562816174
 20
23.3705741432
 10
-9.6819470211
 20
23.3590532961
 10
-9.7056149062
 20
23.345857394
 10
-9.7264530135
 20
23.3314508264
 10
-9.7443568003
 20
23.3157921951
 10
-9.7594308094
 20
23.2989228983
 10
-9.7711564104
 20
23.2814315199
 10
-9.7794151863
 20
23.2632963864
 10
-9.784325554
 20
23.2445391712
 10
-9.7857241334
 20
23.2258134786
 10
-9.7835564644
 20
23.2073371768
 10
-9.7778770071
 20
23.1888923977
 10
-9.7686857614
 20
23.1704791412
  0
LWPOLYLINE
  5
5A8
100
AcDbEntity
  8
ASSI
100
AcDbPolyline
 62
250
  6
CONTINUOUS
 90
22
 70
0
 10
-5.66104197
 20
20.7987770689
 10
-5.6291521527
 20
20.7934699323
 10
-5.597206697
 20
20.7901906811
 10
-5.5652056027
 20
20.7889393155
 10
-5.532771019
 20
20.7897472451
 10
-5.5002807967
 20
20.7925830601
 10
-5.4688684885
 20
20.7973525313
 10
-5.4385719396
 20
20.8041242605
 10
-5.4093533048
 20
20.8128296459
 10
-5.3822326017
 20
20.8231686518
 10
-5.3572819804
 20
20.8352015801
 10
-5.3344292908
 20
20.8488681289
 10
-5.3144781007
 20
20.8636873567
 10
-5.2975354014
 20
20.8796985207
 10
-5.2834942015
 20
20.8968623636
 10
-5.272837095
 20
20.914580173
 10
-5.2656837382
 20
20.93287121
 10
-5.2619144747
 20
20.9517162134
 10
-5.2616529297
 20
20.9704586872
 10
-5.2649403115
 20
20.9888797994
 10
-5.2717354118
 20
21.007198382
 10
-5.2820382305
 20
21.025414435
  0
LWPOLYLINE
  5
5A9
100
AcDbEntity
  8
DRAFT
100
AcDbPolyline
 62
7
  6
CONTINUOUS
 90
13
 70
0
 10
0.5889862538
 20
19.8689859902
 10
0.4627983764
 20
19.8917262547
 10
0.3385693
 20
19.9172839811
 10
0.2162990246
 20
19.9456591692
 10
0.0957551879
 20
19.9769143864
 10
-0.0228298478
 20
20.0109870653
 10
-0.1387589951
 20
20.0476895046
 10
-0.2519767999
 20
20.0870249678
 10
-0.3625387163
 20
20.1289901914
 10
-0.4699140185
 20
20.1733876832
 10
-0.573925798
 20
20.2201516123
 10
-0.6747509633
 20
20.2693478096
 10
-0.7723895145
 20
20.3209762751
  0
LINE
  5
5AA
100
AcDbEntity
  8
ASSI
100
AcDbLine
 62
250
  6
CONTINUOUS
 10
-9.3761635471
 20
23.389311108
 11
-9.4077117654
 21
23.3952600347
  0
LWPOLYLINE
  5
5AB
100
AcDbEntity
  8
SMUSSO
100
AcDbPolyline
 62
7
  6
CONTINUOUS
 90
8
 70
0
 10
-7.1121878916
 20
24.1298363696
 10
-7.1748758992
 20
24.1425732157
 10
-7.3681238417
 20
24.1897427031
 10
-7.5567793046
 20
24.2437929155
 10
-7.7386474736
 20
24.3040933367
 10
-7.9129967441
 20
24.3704337948
 10
-8.0805587206
 20
24.4430244619
 10
-8.2413334034
 20
24.5218653379
  0
LINE
  5
5AC
100
AcDbEntity
  8
ASSI
100
AcDbLine
 62
250
  6
CONTINUOUS
 10
-9.3599051819
 20
23.3859177046
 11
-9.3761635471
 21
23.389311108
  0
LWPOLYLINE
  5
5AD
100
AcDbEntity
  8
ASSI
100
AcDbPolyline
 62
250
  6
CONTINUOUS
 90
5
 70
0
 10
-8.4996575206
 20
23.7235517903
 10
-8.516008045
 20
23.7271924054
 10
-8.5315899817
 20
23.7280502858
 10
-8.546165479
 20
23.7261123365
 10
-8.5595120482
 20
23.7214081393
  0
LWPOLYLINE
  5
5AE
100
AcDbEntity
  8
0
100
AcDbPolyline
 62
7
  6
CONTINUOUS
 90
8
 70
0
 10
16.0788181613
 20
15.3935746392
 10
16.1099313479
 20
15.3786969375
 10
16.1364762873
 20
15.3662763847
 10
16.1584529795
 20
15.3563129807
 10
16.1758672391
 20
15.3488019408
 10
16.1887132515
 20
15.3437480497
 10
16.1969735729
 20
15.3411656615
 10
16.2005721331
 20
15.3410512059
  0
LWPOLYLINE
  5
5AF
100
AcDbEntity
  8
0
100
AcDbPolyline
 62
7
  6
CONTINUOUS
 90
8
 70
0
 10
7.2856436044
 20
20.2619652915
 10
7.3167567909
 20
20.2470875899
 10
7.3433017303
 20
20.2346670371
 10
7.3652784225
 20
20.2247036331
 10
7.3826926821
 20
20.2171925932
 10
7.3955386946
 20
20.212138702
 10
7.403799016
 20
20.2095563139
 10
7.4073975762
 20
20.2094418583
  0
LWPOLYLINE
  5
5B0
100
AcDbEntity
  8
0
100
AcDbPolyline
 62
7
  6
CONTINUOUS
 90
11
 70
0
 10
15.8698851995
 20
15.2729398956
 10
15.8920319657
 20
15.2622902212
 10
15.9121098377
 20
15.2527871159
 10
15.9301188155
 20
15.2444305796
 10
15.9461801531
 20
15.237155793
 10
15.9601725965
 20
15.2310275754
 10
15.9717323837
 20
15.226240385
 10
15.9809615967
 20
15.2227449206
 10
15.9877581535
 20
15.2205904834
 10
15.9914520471
 20
15.2201194354
 10
15.9918515037
 20
15.2203005159
  0
LWPOLYLINE
  5
5B1
100
AcDbEntity
  8
0
100
AcDbPolyline
 62
7
  6
CONTINUOUS
 90
11
 70
0
 10
7.0767106425
 20
20.1413305479
 10
7.0988574088
 20
20.1306808736
 10
7.1189352808
 20
20.1211777683
 10
7.1369442586
 20
20.112821232
 10
7.1530055962
 20
20.1055464453
 10
7.1669980395
 20
20.0994182277
 10
7.1785578268
 20
20.0946310373
 10
7.1877870397
 20
20.0911355729
 10
7.1945835966
 20
20.0889811357
 10
7.1982774902
 20
20.0885100878
 10
7.1986769467
 20
20.0886911682
  0
LINE
  5
5B2
100
AcDbEntity
  8
DRAFT
100
AcDbLine
 62
7
  6
CONTINUOUS
 10
11.5124101611
 20
17.6622009664
 11
11.0863582554
 21
17.8678679834
  0
LINE
  5
5B3
100
AcDbEntity
  8
DRAFT
100
AcDbLine
 62
7
  6
CONTINUOUS
 10
9.7015840884
 20
18.5514496691
 11
11.0863582554
 21
17.8829809488
  0
LINE
  5
5B4
100
AcDbEntity
  8
DRAFT
100
AcDbLine
 62
7
  6
CONTINUOUS
 10
3.271463003
 20
22.2117424397
 11
2.8295878736
 21
22.4250477636
  0
LINE
  5
5B5
100
AcDbEntity
  8
DRAFT
100
AcDbLine
 62
7
  6
CONTINUOUS
 10
4.0170782805
 20
21.9899116557
 11
3.7506818551
 21
22.1185085647
  0
LINE
  5
5B6
100
AcDbEntity
  8
DRAFT
100
AcDbLine
 62
7
  6
CONTINUOUS
 10
-4.2238688776
 20
26.539453129
 11
-4.6657440069
 21
26.7527584529
  0
LINE
  5
5B7
100
AcDbEntity
  8
DRAFT
100
AcDbLine
 62
7
  6
CONTINUOUS
 10
-0.3806599285
 20
24.2419557921
 11
0.6197522866
 21
23.75819537
  0
LINE
  5
5B8
100
AcDbEntity
  8
0
100
AcDbLine
 62
7
  6
CONTINUOUS
 10
14.9605535395
 20
15.7136284576
 11
14.8435491466
 21
15.7703030338
  0
LINE
  5
5B9
100
AcDbEntity
  8
0
100
AcDbLine
 62
7
  6
CONTINUOUS
 10
13.9220501106
 20
16.313935283
 11
13.7976937176
 21
16.3741710204
  0
LINE
  5
5BA
100
AcDbEntity
  8
0
100
AcDbLine
 62
7
  6
CONTINUOUS
 10
14.0201589439
 20
16.3188532554
 11
13.9714393845
 21
16.3424520307
  0
LINE
  5
5BB
100
AcDbEntity
  8
0
100
AcDbLine
 62
7
  6
CONTINUOUS
 10
15.0524815989
 20
15.8909380132
 11
15.1694859917
 21
15.834263437
  0
LINE
  5
5BC
100
AcDbEntity
  8
0
100
AcDbLine
 62
7
  6
CONTINUOUS
 10
14.2992602398
 20
16.3382552414
 11
14.1657586758
 21
16.4029207158
  0
LINE
  5
5BD
100
AcDbEntity
  8
0
100
AcDbLine
 62
7
  6
CONTINUOUS
 10
14.0066261699
 20
16.4948059998
 11
14.1309825629
 21
16.4345702624
  0
LINE
  5
5BE
100
AcDbEntity
  8
0
100
AcDbLine
 62
7
  6
CONTINUOUS
 10
13.5671583306
 20
16.7601153077
 11
14.7428507469
 21
16.1906335312
  0
LINE
  5
5BF
100
AcDbEntity
  8
0
100
AcDbLine
 62
7
  6
CONTINUOUS
 10
14.5316450396
 20
16.3125810595
 11
13.2315962304
 21
16.9422985734
  0
LINE
  5
5C0
100
AcDbEntity
  8
0
100
AcDbLine
 62
7
  6
CONTINUOUS
 10
6.1673789825
 20
20.5820191099
 11
6.0503745897
 21
20.6386936862
  0
LINE
  5
5C1
100
AcDbEntity
  8
0
100
AcDbLine
 62
7
  6
CONTINUOUS
 10
8.4097765858
 20
19.6059970515
 11
7.2966332122
 21
20.1451813289
  0
LINE
  5
5C2
100
AcDbEntity
  8
0
100
AcDbLine
 62
7
  6
CONTINUOUS
 10
6.259307042
 20
20.7593286656
 11
6.3763114348
 21
20.7026540893
  0
LINE
  5
5C3
100
AcDbEntity
  8
0
100
AcDbLine
 62
7
  6
CONTINUOUS
 10
5.5060856828
 20
21.2066458938
 11
5.3725841189
 21
21.2713113681
  0
LINE
  5
5C4
100
AcDbEntity
  8
0
100
AcDbLine
 62
7
  6
CONTINUOUS
 10
7.3186602289
 20
20.3563495448
 11
8.6187090381
 21
19.7266320309
  0
LINE
  5
5C5
100
AcDbEntity
  8
0
100
AcDbLine
 62
7
  6
CONTINUOUS
 10
8.2279224506
 20
19.9350891286
 11
7.1125702308
 21
20.4753433267
  0
LINE
  5
5C6
100
AcDbEntity
  8
0
100
AcDbLine
 62
7
  6
CONTINUOUS
 10
7.9251231588
 20
20.1085624004
 11
7.7696552529
 21
20.1838679293
  0
LINE
  5
5C7
100
AcDbEntity
  8
0
100
AcDbLine
 62
7
  6
CONTINUOUS
 10
6.5112942893
 20
20.822516689
 11
6.6356506823
 21
20.7622809517
  0
LINE
  5
5C8
100
AcDbEntity
  8
0
100
AcDbLine
 62
7
  6
CONTINUOUS
 10
6.0718264501
 20
21.087825997
 11
7.2475188663
 21
20.5183442205
  0
LINE
  5
5C9
100
AcDbEntity
  8
0
100
AcDbLine
 62
7
  6
CONTINUOUS
 10
7.0363131591
 20
20.6402917488
 11
5.7362643498
 21
21.2700092627
  0
LINE
  5
5CA
100
AcDbEntity
  8
0
100
AcDbLine
 62
7
  6
CONTINUOUS
 10
-0.3833979711
 20
24.4743877038
 11
-1.6834467804
 21
25.1041052177
  0
LINE
  5
5CB
100
AcDbEntity
  8
0
100
AcDbLine
 62
7
  6
CONTINUOUS
 10
-1.4745143281
 20
25.2247401971
 11
-0.1744655189
 21
24.5950226832
  0
LINE
  5
5CC
100
AcDbEntity
  8
0
100
AcDbLine
 62
7
  6
CONTINUOUS
 10
-0.5652521064
 20
24.8034797809
 11
-1.6806043261
 21
25.3437339791
  0
LINE
  5
5CD
100
AcDbEntity
  8
0
100
AcDbLine
 62
7
  6
CONTINUOUS
 10
-0.8680513982
 20
24.9769530527
 11
-1.023519304
 21
25.0522585816
  0
LINE
  5
5CE
100
AcDbEntity
  8
DRAFT
100
AcDbLine
 62
7
  6
CONTINUOUS
 10
1.7627237114
 20
23.0043929413
 11
2.7807505776
 21
22.5104620404
  0
LINE
  5
5CF
100
AcDbEntity
  8
DRAFT
100
AcDbLine
 62
7
  6
CONTINUOUS
 10
7.2934654062
 20
19.8894886596
 11
6.8358903149
 21
20.1118589448
  0
LINE
  5
5D0
100
AcDbEntity
  8
DRAFT
100
AcDbLine
 62
7
  6
CONTINUOUS
 10
8.0404489027
 20
19.6668678831
 11
7.7645873287
 21
19.8009298503
  0
LINE
  5
5D1
100
AcDbEntity
  8
DRAFT
100
AcDbLine
 62
7
  6
CONTINUOUS
 10
2.34362323
 20
22.9595063934
 11
4.2739297539
 21
22.0214247094
  0
LINE
  5
5D2
100
AcDbEntity
  8
DRAFT
100
AcDbLine
 62
7
  6
CONTINUOUS
 10
-0.2018664744
 20
24.2171993489
 11
-0.6594415657
 21
24.4395696341
  0
LINE
  5
5D3
100
AcDbEntity
  8
DRAFT
100
AcDbLine
 62
7
  6
CONTINUOUS
 10
-5.5056586349
 20
27.331921026
 11
-4.0716830073
 21
26.635043999
  0
LINE
  5
5D4
100
AcDbEntity
  8
0
100
AcDbLine
 62
7
  6
CONTINUOUS
 10
15.3643300241
 20
15.8020334019
 11
15.3899516685
 21
15.789548577
  0
LINE
  5
5D5
100
AcDbEntity
  8
0
100
AcDbLine
 62
7
  6
CONTINUOUS
 10
6.5711554671
 20
20.6704240543
 11
6.5967771116
 21
20.6579392294
  0
LINE
  5
5D6
100
AcDbEntity
  8
0
100
AcDbLine
 62
7
  6
CONTINUOUS
 10
15.8258156396
 20
15.2945839416
 11
15.8698851995
 21
15.2729398956
  0
LINE
  5
5D7
100
AcDbEntity
  8
0
100
AcDbLine
 62
7
  6
CONTINUOUS
 10
7.0326410826
 20
20.162974594
 11
7.0767106425
 21
20.1413305479
  0
LINE
  5
5D8
100
AcDbEntity
  8
0
100
AcDbLine
 62
7
  6
CONTINUOUS
 10
15.8660018856
 20
15.5162762067
 11
15.8333453862
 21
15.5323295062
  0
LINE
  5
5D9
100
AcDbEntity
  8
0
100
AcDbLine
 62
7
  6
CONTINUOUS
 10
7.0728273286
 20
20.3846668591
 11
7.0401708293
 21
20.4007201585
  0
LINE
  5
5DA
100
AcDbEntity
  8
0
100
AcDbLine
 62
7
  6
CONTINUOUS
 10
15.3899516685
 20
15.789548577
 11
15.4307382325
 21
15.7693943703
  0
LINE
  5
5DB
100
AcDbEntity
  8
0
100
AcDbLine
 62
7
  6
CONTINUOUS
 10
6.5967771116
 20
20.6579392294
 11
6.6375636755
 21
20.6377850226
  0
LINE
  5
5DC
100
AcDbEntity
  8
0
100
AcDbLine
 62
7
  6
CONTINUOUS
 10
15.2596867885
 20
15.8707614812
 11
15.2296861811
 21
15.88572906
  0
LINE
  5
5DD
100
AcDbEntity
  8
0
100
AcDbLine
 62
7
  6
CONTINUOUS
 10
6.4665122315
 20
20.7391521335
 11
6.4365116242
 21
20.7541197123
  0
LINE
  5
5DE
100
AcDbEntity
  8
0
100
AcDbLine
 62
7
  6
CONTINUOUS
 10
15.8333453862
 20
15.5323295062
 11
15.7945906876
 21
15.5516982143
  0
LINE
  5
5DF
100
AcDbEntity
  8
0
100
AcDbLine
 62
7
  6
CONTINUOUS
 10
7.0401708293
 20
20.4007201585
 11
7.0014161307
 21
20.4200888667
  0
LINE
  5
5E0
100
AcDbEntity
  8
0
100
AcDbLine
 62
7
  6
CONTINUOUS
 10
15.778673591
 20
15.3181536173
 11
15.8258156396
 21
15.2945839416
  0
LINE
  5
5E1
100
AcDbEntity
  8
0
100
AcDbLine
 62
7
  6
CONTINUOUS
 10
6.9854990341
 20
20.1865442697
 11
7.0326410826
 21
20.162974594
  0
LINE
  5
5E2
100
AcDbEntity
  8
0
100
AcDbLine
 62
7
  6
CONTINUOUS
 10
15.4307382325
 20
15.7693943703
 11
15.4602092313
 21
15.7546123237
  0
LINE
  5
5E3
100
AcDbEntity
  8
0
100
AcDbLine
 62
7
  6
CONTINUOUS
 10
6.6375636755
 20
20.6377850226
 11
6.6670346744
 21
20.623002976
  0
LINE
  5
5E4
100
AcDbEntity
  8
0
100
AcDbLine
 62
7
  6
CONTINUOUS
 10
15.7945906876
 20
15.5516982143
 11
15.7491005928
 21
15.5747466643
  0
LINE
  5
5E5
100
AcDbEntity
  8
0
100
AcDbLine
 62
7
  6
CONTINUOUS
 10
7.0014161307
 20
20.4200888667
 11
6.9559260359
 21
20.4431373166
  0
LINE
  5
5E6
100
AcDbEntity
  8
0
100
AcDbLine
 62
7
  6
CONTINUOUS
 10
15.7287451906
 20
15.3434797965
 11
15.778673591
 21
15.3181536173
  0
LINE
  5
5E7
100
AcDbEntity
  8
0
100
AcDbLine
 62
7
  6
CONTINUOUS
 10
15.3088464482
 20
15.8458808176
 11
15.2596867885
 21
15.8707614812
  0
LINE
  5
5E8
100
AcDbEntity
  8
0
100
AcDbLine
 62
7
  6
CONTINUOUS
 10
6.9355706336
 20
20.2118704488
 11
6.9854990341
 21
20.1865442697
  0
LINE
  5
5E9
100
AcDbEntity
  8
0
100
AcDbLine
 62
7
  6
CONTINUOUS
 10
6.5156718912
 20
20.71427147
 11
6.4665122315
 21
20.7391521335
  0
LINE
  5
5EA
100
AcDbEntity
  8
0
100
AcDbLine
 62
7
  6
CONTINUOUS
 10
15.4602092313
 20
15.7546123237
 11
15.4921351506
 21
15.7383899333
  0
LINE
  5
5EB
100
AcDbEntity
  8
0
100
AcDbLine
 62
7
  6
CONTINUOUS
 10
6.6670346744
 20
20.623002976
 11
6.6989605937
 21
20.6067805857
  0
LINE
  5
5EC
100
AcDbEntity
  8
0
100
AcDbLine
 62
7
  6
CONTINUOUS
 10
15.7491005928
 20
15.5747466643
 11
15.6970644953
 21
15.6013990925
  0
LINE
  5
5ED
100
AcDbEntity
  8
0
100
AcDbLine
 62
7
  6
CONTINUOUS
 10
6.9559260359
 20
20.4431373166
 11
6.9038899383
 21
20.4697897448
  0
LINE
  5
5EE
100
AcDbEntity
  8
0
100
AcDbLine
 62
7
  6
CONTINUOUS
 10
15.6507026707
 20
15.3835363437
 11
15.7287451906
 21
15.3434797965
  0
LINE
  5
5EF
100
AcDbEntity
  8
0
100
AcDbLine
 62
7
  6
CONTINUOUS
 10
6.8575281138
 20
20.251926996
 11
6.9355706336
 21
20.2118704488
  0
LINE
  5
5F0
100
AcDbEntity
  8
0
100
AcDbLine
 62
7
  6
CONTINUOUS
 10
15.3624477655
 20
15.818348964
 11
15.3088464482
 21
15.8458808176
  0
LINE
  5
5F1
100
AcDbEntity
  8
0
100
AcDbLine
 62
7
  6
CONTINUOUS
 10
6.5692732086
 20
20.6867396163
 11
6.5156718912
 21
20.71427147
  0
LINE
  5
5F2
100
AcDbEntity
  8
0
100
AcDbLine
 62
7
  6
CONTINUOUS
 10
15.4921351506
 20
15.7383899333
 11
15.527288289
 21
15.72026135
  0
LINE
  5
5F3
100
AcDbEntity
  8
0
100
AcDbLine
 62
7
  6
CONTINUOUS
 10
6.6989605937
 20
20.6067805857
 11
6.734113732
 21
20.5886520023
  0
LWPOLYLINE
  5
5F4
100
AcDbEntity
  8
0
100
AcDbPolyline
 62
7
  6
CONTINUOUS
 90
8
 70
0
 10
15.8070482758
 20
15.5314068782
 10
15.8553584364
 20
15.5063796335
 10
15.9006885944
 20
15.483040588
 10
15.9430352259
 20
15.4613853729
 10
15.9820557558
 20
15.4415932448
 10
16.0176359925
 20
15.4237239559
 10
16.0498901277
 20
15.407717754
 10
16.0788181613
 20
15.3935746392
  0
LWPOLYLINE
  5
5F5
100
AcDbEntity
  8
0
100
AcDbPolyline
 62
7
  6
CONTINUOUS
 90
8
 70
0
 10
7.0138737188
 20
20.3997975305
 10
7.0621838795
 20
20.3747702859
 10
7.1075140375
 20
20.3514312404
 10
7.1498606689
 20
20.3297760252
 10
7.1888811988
 20
20.3099838971
 10
7.2244614356
 20
20.2921146082
 10
7.2567155707
 20
20.2761084064
 10
7.2856436044
 20
20.2619652915
  0
LINE
  5
5F6
100
AcDbEntity
  8
0
100
AcDbLine
 62
7
  6
CONTINUOUS
 10
15.6970644953
 20
15.6013990925
 11
15.6382939518
 21
15.6317922639
  0
LINE
  5
5F7
100
AcDbEntity
  8
0
100
AcDbLine
 62
7
  6
CONTINUOUS
 10
6.9038899383
 20
20.4697897448
 11
6.8451193949
 21
20.5001829162
  0
LINE
  5
5F8
100
AcDbEntity
  8
0
100
AcDbLine
 62
7
  6
CONTINUOUS
 10
15.5422611596
 20
15.4398556806
 11
15.6507026707
 21
15.3835363437
  0
LINE
  5
5F9
100
AcDbEntity
  8
0
100
AcDbLine
 62
7
  6
CONTINUOUS
 10
6.7490866026
 20
20.3082463329
 11
6.8575281138
 21
20.251926996
  0
LINE
  5
5FA
100
AcDbEntity
  8
0
100
AcDbLine
 62
7
  6
CONTINUOUS
 10
15.7018093783
 20
15.586320496
 11
15.8070482758
 21
15.5314068782
  0
LINE
  5
5FB
100
AcDbEntity
  8
0
100
AcDbLine
 62
7
  6
CONTINUOUS
 10
6.9086348214
 20
20.4547111483
 11
7.0138737188
 21
20.3997975305
  0
LINE
  5
5FC
100
AcDbEntity
  8
0
100
AcDbLine
 62
7
  6
CONTINUOUS
 10
15.4194105845
 20
15.7886925334
 11
15.3624477655
 21
15.818348964
  0
LINE
  5
5FD
100
AcDbEntity
  8
0
100
AcDbLine
 62
7
  6
CONTINUOUS
 10
6.6262360275
 20
20.6570831857
 11
6.5692732086
 21
20.6867396163
  0
LINE
  5
5FE
100
AcDbEntity
  8
0
100
AcDbLine
 62
7
  6
CONTINUOUS
 10
15.6382939518
 20
15.6317922639
 11
15.572025771
 21
15.666435836
  0
LINE
  5
5FF
100
AcDbEntity
  8
0
100
AcDbLine
 62
7
  6
CONTINUOUS
 10
6.8451193949
 20
20.5001829162
 11
6.7788512141
 21
20.5348264884
  0
LINE
  5
600
100
AcDbEntity
  8
0
100
AcDbLine
 62
7
  6
CONTINUOUS
 10
15.527288289
 20
15.72026135
 11
15.5662898298
 21
15.6998381015
  0
LINE
  5
601
100
AcDbEntity
  8
0
100
AcDbLine
 62
7
  6
CONTINUOUS
 10
6.734113732
 20
20.5886520023
 11
6.7731152729
 21
20.5682287539
  0
LINE
  5
602
100
AcDbEntity
  8
0
100
AcDbLine
 62
7
  6
CONTINUOUS
 10
15.586185724
 20
15.6470717427
 11
15.7018093783
 21
15.586320496
  0
LINE
  5
603
100
AcDbEntity
  8
0
100
AcDbLine
 62
7
  6
CONTINUOUS
 10
6.793011167
 20
20.515462395
 11
6.9086348214
 21
20.4547111483
  0
LINE
  5
604
100
AcDbEntity
  8
0
100
AcDbLine
 62
7
  6
CONTINUOUS
 10
15.373218193
 20
15.5285624136
 11
15.5422611596
 21
15.4398556806
  0
LINE
  5
605
100
AcDbEntity
  8
0
100
AcDbLine
 62
7
  6
CONTINUOUS
 10
6.580043636
 20
20.396953066
 11
6.7490866026
 21
20.3082463329
  0
LINE
  5
606
100
AcDbEntity
  8
0
100
AcDbLine
 62
7
  6
CONTINUOUS
 10
15.572025771
 20
15.666435836
 11
14.2992602398
 21
16.3382552414
  0
LINE
  5
607
100
AcDbEntity
  8
0
100
AcDbLine
 62
7
  6
CONTINUOUS
 10
6.7788512141
 20
20.5348264884
 11
5.5060856828
 21
21.2066458938
  0
LINE
  5
608
100
AcDbEntity
  8
DRAFT
100
AcDbLine
 62
7
  6
CONTINUOUS
 10
15.3808836493
 20
15.3386632769
 11
17.2815474757
 21
14.3345361501
  0
LINE
  5
609
100
AcDbEntity
  8
0
100
AcDbLine
 62
7
  6
CONTINUOUS
 10
14.9903272028
 20
15.7308193977
 11
15.373218193
 21
15.5285624136
  0
LINE
  5
60A
100
AcDbEntity
  8
0
100
AcDbLine
 62
7
  6
CONTINUOUS
 10
6.1971526459
 20
20.59921005
 11
6.580043636
 21
20.396953066
  0
LINE
  5
60B
100
AcDbEntity
  8
0
100
AcDbLine
 62
7
  6
CONTINUOUS
 10
14.4988408799
 20
16.2214855194
 11
15.586185724
 21
15.6470717427
  0
LINE
  5
60C
100
AcDbEntity
  8
0
100
AcDbLine
 62
7
  6
CONTINUOUS
 10
5.7056663229
 20
21.0898761718
 11
6.793011167
 21
20.515462395
  0
LINE
  5
60D
100
AcDbEntity
  8
DRAFT
100
AcDbLine
 62
7
  6
CONTINUOUS
 10
2.8295878736
 20
22.4250477636
 11
2.0800299174
 21
22.8211843148
  0
LINE
  5
60E
100
AcDbEntity
  8
DRAFT
100
AcDbLine
 62
7
  6
CONTINUOUS
 10
-4.6657440069
 20
26.7527584529
 11
-5.4153019632
 21
27.148895004
  0
LINE
  5
60F
100
AcDbEntity
  8
0
100
AcDbLine
 62
7
  6
CONTINUOUS
 10
15.4795317486
 20
15.7569855291
 11
15.4194105845
 21
15.7886925334
  0
LINE
  5
610
100
AcDbEntity
  8
0
100
AcDbLine
 62
7
  6
CONTINUOUS
 10
6.6863571917
 20
20.6253761814
 11
6.6262360275
 21
20.6570831857
  0
LINE
  5
611
100
AcDbEntity
  8
0
100
AcDbLine
 62
7
  6
CONTINUOUS
 10
15.5662898298
 20
15.6998381015
 11
15.6087967236
 21
15.6772606763
  0
LINE
  5
612
100
AcDbEntity
  8
0
100
AcDbLine
 62
7
  6
CONTINUOUS
 10
6.7731152729
 20
20.5682287539
 11
6.8156221667
 21
20.5456513286
  0
LINE
  5
613
100
AcDbEntity
  8
0
100
AcDbLine
 62
7
  6
CONTINUOUS
 10
8.4349089157
 20
19.832755918
 11
8.3334641026
 21
19.8870397622
  0
LINE
  5
614
100
AcDbEntity
  8
0
100
AcDbLine
 62
7
  6
CONTINUOUS
 10
-0.3582656412
 20
24.7011465703
 11
-0.4597104544
 21
24.7554304145
  0
LINE
  5
615
100
AcDbEntity
  8
0
100
AcDbLine
 62
7
  6
CONTINUOUS
 10
15.5447591541
 20
15.7221315693
 11
15.4795317486
 21
15.7569855291
  0
LINE
  5
616
100
AcDbEntity
  8
0
100
AcDbLine
 62
7
  6
CONTINUOUS
 10
6.7515845972
 20
20.5905222217
 11
6.6863571917
 21
20.6253761814
  0
LINE
  5
617
100
AcDbEntity
  8
0
100
AcDbLine
 62
7
  6
CONTINUOUS
 10
8.3334641026
 20
19.8870397622
 11
8.2251686533
 21
19.945384218
  0
LINE
  5
618
100
AcDbEntity
  8
0
100
AcDbLine
 62
7
  6
CONTINUOUS
 10
-0.4597104544
 20
24.7554304145
 11
-0.5680059037
 21
24.8137748703
  0
LINE
  5
619
100
AcDbEntity
  8
0
100
AcDbLine
 62
7
  6
CONTINUOUS
 10
8.0825067565
 20
20.013475603
 11
8.2279224506
 21
19.9350891286
  0
LINE
  5
61A
100
AcDbEntity
  8
0
100
AcDbLine
 62
7
  6
CONTINUOUS
 10
-0.7106678004
 20
24.8818662553
 11
-0.5652521064
 21
24.8034797809
  0
LINE
  5
61B
100
AcDbEntity
  8
0
100
AcDbLine
 62
7
  6
CONTINUOUS
 10
15.6087967236
 20
15.6772606763
 11
15.653201392
 21
15.6533020439
  0
LINE
  5
61C
100
AcDbEntity
  8
0
100
AcDbLine
 62
7
  6
CONTINUOUS
 10
6.8156221667
 20
20.5456513286
 11
6.860026835
 21
20.5216926963
  0
LINE
  5
61D
100
AcDbEntity
  8
0
100
AcDbLine
 62
7
  6
CONTINUOUS
 10
15.5919997733
 20
15.6965743765
 11
15.5447591541
 21
15.7221315693
  0
LINE
  5
61E
100
AcDbEntity
  8
0
100
AcDbLine
 62
7
  6
CONTINUOUS
 10
6.7988252163
 20
20.5649650289
 11
6.7515845972
 21
20.5905222217
  0
LINE
  5
61F
100
AcDbEntity
  8
0
100
AcDbLine
 62
7
  6
CONTINUOUS
 10
8.2251686533
 20
19.945384218
 11
8.110079743
 21
20.0077507363
  0
LINE
  5
620
100
AcDbEntity
  8
0
100
AcDbLine
 62
7
  6
CONTINUOUS
 10
-0.5680059037
 20
24.8137748703
 11
-0.6830948139
 21
24.8761413887
  0
LINE
  5
621
100
AcDbEntity
  8
0
100
AcDbLine
 62
7
  6
CONTINUOUS
 10
7.9305018077
 20
20.0959846282
 11
8.0825067565
 21
20.013475603
  0
LINE
  5
622
100
AcDbEntity
  8
0
100
AcDbLine
 62
7
  6
CONTINUOUS
 10
-0.8626727493
 20
24.9643752806
 11
-0.7106678004
 21
24.8818662553
  0
LWPOLYLINE
  5
623
100
AcDbEntity
  8
0
100
AcDbPolyline
 62
7
  6
CONTINUOUS
 90
3
 70
0
 10
8.110079743
 20
20.0077507363
 10
7.9884260727
 20
20.0739851209
 10
7.9251231588
 20
20.1085624004
  0
LWPOLYLINE
  5
624
100
AcDbEntity
  8
0
100
AcDbPolyline
 62
7
  6
CONTINUOUS
 90
3
 70
0
 10
-0.6830948139
 20
24.8761413887
 10
-0.8047484842
 20
24.9423757733
 10
-0.8680513982
 20
24.9769530527
  0
LINE
  5
625
100
AcDbEntity
  8
0
100
AcDbLine
 62
7
  6
CONTINUOUS
 10
7.7696552529
 20
20.1838679293
 11
7.9305018077
 21
20.0959846282
  0
LINE
  5
626
100
AcDbEntity
  8
0
100
AcDbLine
 62
7
  6
CONTINUOUS
 10
-1.023519304
 20
25.0522585816
 11
-0.8626727493
 21
24.9643752806
  0
LINE
  5
627
100
AcDbEntity
  8
0
100
AcDbLine
 62
7
  6
CONTINUOUS
 10
15.6424112239
 20
15.6690223245
 11
15.5919997733
 21
15.6965743765
  0
LINE
  5
628
100
AcDbEntity
  8
0
100
AcDbLine
 62
7
  6
CONTINUOUS
 10
6.8492366669
 20
20.5374129768
 11
6.7988252163
 21
20.5649650289
  0
LINE
  5
629
100
AcDbEntity
  8
0
100
AcDbLine
 62
7
  6
CONTINUOUS
 10
15.653201392
 20
15.6533020439
 11
15.6973594114
 21
15.629098329
  0
LINE
  5
62A
100
AcDbEntity
  8
0
100
AcDbLine
 62
7
  6
CONTINUOUS
 10
6.860026835
 20
20.5216926963
 11
6.9041848545
 21
20.4974889814
  0
LINE
  5
62B
100
AcDbEntity
  8
0
100
AcDbLine
 62
7
  6
CONTINUOUS
 10
15.6958090014
 20
15.639531648
 11
15.6424112239
 21
15.6690223245
  0
LINE
  5
62C
100
AcDbEntity
  8
0
100
AcDbLine
 62
7
  6
CONTINUOUS
 10
6.9026344445
 20
20.5079223003
 11
6.8492366669
 21
20.5374129768
  0
LINE
  5
62D
100
AcDbEntity
  8
0
100
AcDbLine
 62
7
  6
CONTINUOUS
 10
6.9041848545
 20
20.4974889814
 11
6.947146116
 21
20.4735636877
  0
LINE
  5
62E
100
AcDbEntity
  8
0
100
AcDbLine
 62
7
  6
CONTINUOUS
 10
6.9592553509
 20
20.476354795
 11
6.9026344445
 21
20.5079223003
  0
LINE
  5
62F
100
AcDbEntity
  8
0
100
AcDbLine
 62
7
  6
CONTINUOUS
 10
15.6973594114
 20
15.629098329
 11
15.7403206729
 21
15.6051730353
  0
LINE
  5
630
100
AcDbEntity
  8
0
100
AcDbLine
 62
7
  6
CONTINUOUS
 10
15.7524299079
 20
15.6079641427
 11
15.6958090014
 21
15.639531648
  0
LINE
  5
631
100
AcDbEntity
  8
0
100
AcDbLine
 62
7
  6
CONTINUOUS
 10
7.0187340654
 20
20.4429007847
 11
6.9592553509
 21
20.476354795
  0
LINE
  5
632
100
AcDbEntity
  8
0
100
AcDbLine
 62
7
  6
CONTINUOUS
 10
15.8119086224
 20
15.5745101324
 11
15.7524299079
 21
15.6079641427
  0
LINE
  5
633
100
AcDbEntity
  8
0
100
AcDbLine
 62
7
  6
CONTINUOUS
 10
6.947146116
 20
20.4735636877
 11
6.988049303
 21
20.4504372045
  0
LINE
  5
634
100
AcDbEntity
  8
0
100
AcDbLine
 62
7
  6
CONTINUOUS
 10
15.7403206729
 20
15.6051730353
 11
15.7812238599
 21
15.5820465521
  0
LINE
  5
635
100
AcDbEntity
  8
0
100
AcDbLine
 62
7
  6
CONTINUOUS
 10
7.0798447323
 20
20.4082074708
 11
7.0187340654
 21
20.4429007847
  0
LINE
  5
636
100
AcDbEntity
  8
0
100
AcDbLine
 62
7
  6
CONTINUOUS
 10
15.8730192892
 20
15.5398168185
 11
15.8119086224
 21
15.5745101324
  0
LINE
  5
637
100
AcDbEntity
  8
0
100
AcDbLine
 62
7
  6
CONTINUOUS
 10
6.988049303
 20
20.4504372045
 11
7.0263060423
 21
20.4285479461
  0
LINE
  5
638
100
AcDbEntity
  8
0
100
AcDbLine
 62
7
  6
CONTINUOUS
 10
15.7812238599
 20
15.5820465521
 11
15.8194805992
 21
15.5601572937
  0
LINE
  5
639
100
AcDbEntity
  8
0
100
AcDbLine
 62
7
  6
CONTINUOUS
 10
7.1410250036
 20
20.3731700718
 11
7.0798447323
 21
20.4082074708
  0
LINE
  5
63A
100
AcDbEntity
  8
0
100
AcDbLine
 62
7
  6
CONTINUOUS
 10
15.9341995605
 20
15.5047794194
 11
15.8730192892
 21
15.5398168185
  0
LINE
  5
63B
100
AcDbEntity
  8
DRAFT
100
AcDbLine
 62
7
  6
CONTINUOUS
 10
-5.8241623214
 20
27.3849658506
 11
-5.4153019632
 21
27.148895004
  0
LINE
  5
63C
100
AcDbEntity
  8
DRAFT
100
AcDbLine
 62
7
  6
CONTINUOUS
 10
-0.6979661344
 20
24.4251644186
 11
-0.3806599285
 21
24.2419557921
  0
LINE
  5
63D
100
AcDbEntity
  8
DRAFT
100
AcDbLine
 62
7
  6
CONTINUOUS
 10
1.7627237114
 20
23.0043929413
 11
2.0800299174
 21
22.8211843148
  0
LINE
  5
63E
100
AcDbEntity
  8
DRAFT
100
AcDbLine
 62
7
  6
CONTINUOUS
 10
6.7973657462
 20
20.0974537293
 11
7.2062261044
 21
19.8613828827
  0
LINE
  5
63F
100
AcDbEntity
  8
DRAFT
100
AcDbLine
 62
7
  6
CONTINUOUS
 10
-4.2238688776
 20
26.539453129
 11
-0.2018664744
 21
24.2171993489
  0
LINE
  5
640
100
AcDbEntity
  8
DRAFT
100
AcDbLine
 62
7
  6
CONTINUOUS
 10
3.271463003
 20
22.2117424397
 11
7.2934654062
 21
19.8894886596
  0
LINE
  5
641
100
AcDbEntity
  8
0
100
AcDbLine
 62
7
  6
CONTINUOUS
 10
-1.8895367784
 20
25.2230989997
 11
-1.6834467804
 21
25.1041052177
  0
LINE
  5
642
100
AcDbEntity
  8
0
100
AcDbLine
 62
7
  6
CONTINUOUS
 10
5.1636516666
 20
21.1506763887
 11
6.0503745897
 21
20.6386936862
  0
LINE
  5
643
100
AcDbEntity
  8
DRAFT
100
AcDbLine
 62
7
  6
CONTINUOUS
 10
2.8346184258
 20
22.5355394224
 11
1.7739582541
 21
23.1479513124
  0
LINE
  5
644
100
AcDbEntity
  8
DRAFT
100
AcDbLine
 62
7
  6
CONTINUOUS
 10
15.3808836493
 20
15.3386632769
 11
15.0269578047
 21
15.5430156238
  0
LINE
  5
645
100
AcDbEntity
  8
DRAFT
100
AcDbLine
 62
7
  6
CONTINUOUS
 10
11.0863582554
 20
17.8829809488
 11
7.2324989516
 21
20.1081510106
  0
LINE
  5
646
100
AcDbEntity
  8
DRAFT
100
AcDbLine
 62
7
  6
CONTINUOUS
 10
5.2952800134
 20
21.2266769465
 11
-0.3564777987
 21
24.489931074
  0
LINE
  5
647
100
AcDbEntity
  8
DRAFT
100
AcDbLine
 62
7
  6
CONTINUOUS
 10
-1.7579084316
 20
25.2990995574
 11
-4.0716830073
 21
26.635043999
  0
LINE
  5
648
100
AcDbEntity
  8
DRAFT
100
AcDbLine
 62
7
  6
CONTINUOUS
 10
15.5357807833
 20
15.3391571938
 11
11.5124101611
 21
17.6622009664
  0
LINE
  5
649
100
AcDbEntity
  8
DRAFT
100
AcDbLine
 62
7
  6
CONTINUOUS
 10
8.0404489027
 20
19.6668678831
 11
7.2543361491
 21
20.1207595347
  0
LINE
  5
64A
100
AcDbEntity
  8
DRAFT
100
AcDbLine
 62
7
  6
CONTINUOUS
 10
5.3171172109
 20
21.2392854706
 11
4.0170782805
 21
21.9899116557
  0
LINE
  5
64B
100
AcDbEntity
  8
0
100
AcDbLine
 62
7
  6
CONTINUOUS
 10
13.9568262235
 20
16.2822857364
 11
14.8435491466
 21
15.7703030338
  0
LINE
  5
64C
100
AcDbEntity
  8
0
100
AcDbLine
 62
7
  6
CONTINUOUS
 10
13.0226637781
 20
16.821663594
 11
13.7976937176
 21
16.3741710204
  0
LINE
  5
64D
100
AcDbEntity
  8
0
100
AcDbLine
 62
7
  6
CONTINUOUS
 10
-1.6806043261
 20
25.3437339791
 11
-1.4745143281
 21
25.2247401971
  0
LINE
  5
64E
100
AcDbEntity
  8
0
100
AcDbLine
 62
7
  6
CONTINUOUS
 10
5.3725841189
 20
21.2713113681
 11
6.259307042
 21
20.7593286656
  0
LINE
  5
64F
100
AcDbEntity
  8
0
100
AcDbLine
 62
7
  6
CONTINUOUS
 10
6.3763114348
 20
20.7026540893
 11
5.7056663229
 21
21.0898761718
  0
LINE
  5
650
100
AcDbEntity
  8
0
100
AcDbLine
 62
7
  6
CONTINUOUS
 10
6.3675015211
 20
20.7880112903
 11
6.5711554671
 21
20.6704240543
  0
LINE
  5
651
100
AcDbEntity
  8
DRAFT
100
AcDbLine
 62
7
  6
CONTINUOUS
 10
4.2739297539
 20
22.0214247094
 11
5.6557999936
 21
21.2235501519
  0
LINE
  5
652
100
AcDbEntity
  8
DRAFT
100
AcDbLine
 62
7
  6
CONTINUOUS
 10
8.4335401182
 20
19.6197178172
 11
13.1511318742
 21
16.8958394626
  0
LINE
  5
653
100
AcDbEntity
  8
DRAFT
100
AcDbLine
 62
7
  6
CONTINUOUS
 10
16.0225168684
 20
15.2379377538
 11
19.1456228178
 21
13.4346955204
  0
LINE
  5
654
100
AcDbEntity
  8
0
100
AcDbLine
 62
7
  6
CONTINUOUS
 10
-0.1744655189
 20
24.5950226832
 11
-0.3582656412
 21
24.7011465703
  0
LINE
  5
655
100
AcDbEntity
  8
0
100
AcDbLine
 62
7
  6
CONTINUOUS
 10
7.1125702308
 20
20.4753433267
 11
7.3186602289
 21
20.3563495448
  0
LINE
  5
656
100
AcDbEntity
  8
0
100
AcDbLine
 62
7
  6
CONTINUOUS
 10
14.1657586758
 20
16.4029207158
 11
15.0524815989
 21
15.8909380132
  0
LINE
  5
657
100
AcDbEntity
  8
0
100
AcDbLine
 62
7
  6
CONTINUOUS
 10
5.7362643498
 20
21.2700092627
 11
6.5112942893
 21
20.822516689
  0
LINE
  5
658
100
AcDbEntity
  8
0
100
AcDbLine
 62
7
  6
CONTINUOUS
 10
13.2315962304
 20
16.9422985734
 11
14.0066261699
 21
16.4948059998
  0
LINE
  5
659
100
AcDbEntity
  8
0
100
AcDbLine
 62
7
  6
CONTINUOUS
 10
15.1694859917
 20
15.834263437
 11
14.4988408799
 21
16.2214855194
  0
LINE
  5
65A
100
AcDbEntity
  8
0
100
AcDbLine
 62
7
  6
CONTINUOUS
 10
14.1309825629
 20
16.4345702624
 11
13.5671583306
 21
16.7601153077
  0
LINE
  5
65B
100
AcDbEntity
  8
0
100
AcDbLine
 62
7
  6
CONTINUOUS
 10
6.6356506823
 20
20.7622809517
 11
6.0718264501
 21
21.087825997
  0
LINE
  5
65C
100
AcDbEntity
  8
0
100
AcDbLine
 62
7
  6
CONTINUOUS
 10
15.160676078
 20
15.919620638
 11
15.3643300241
 21
15.8020334019
  0
LINE
  5
65D
100
AcDbEntity
  8
0
100
AcDbLine
 62
7
  6
CONTINUOUS
 10
8.6187090381
 20
19.7266320309
 11
8.4349089157
 21
19.832755918
  0
LINE
  5
65E
100
AcDbEntity
  8
0
100
AcDbLine
 62
7
  6
CONTINUOUS
 10
14.7428507469
 20
16.1906335312
 11
14.5316450396
 21
16.3125810595
  0
LINE
  5
65F
100
AcDbEntity
  8
0
100
AcDbLine
 62
7
  6
CONTINUOUS
 10
7.2475188663
 20
20.5183442205
 11
7.0363131591
 21
20.6402917488
  0
LINE
  5
660
100
AcDbEntity
  8
0
100
AcDbLine
 62
7
  6
CONTINUOUS
 10
7.2013117762
 20
20.3383238713
 11
7.1410250036
 21
20.3731700718
  0
LINE
  5
661
100
AcDbEntity
  8
0
100
AcDbLine
 62
7
  6
CONTINUOUS
 10
15.9944863331
 20
15.469933219
 11
15.9341995605
 21
15.5047794194
  0
LINE
  5
662
100
AcDbEntity
  8
0
100
AcDbLine
 62
7
  6
CONTINUOUS
 10
7.0263060423
 20
20.4285479461
 11
7.0614266007
 21
20.408202771
  0
LINE
  5
663
100
AcDbEntity
  8
0
100
AcDbLine
 62
7
  6
CONTINUOUS
 10
15.8194805992
 20
15.5601572937
 11
15.8546011577
 21
15.5398121186
  0
LWPOLYLINE
  5
664
100
AcDbEntity
  8
0
100
AcDbPolyline
 62
7
  6
CONTINUOUS
 90
11
 70
0
 10
7.0614266007
 20
20.408202771
 10
7.0926716495
 20
20.3898264103
 10
7.1064129098
 20
20.3815994569
 10
7.1188052529
 20
20.3740577839
 10
7.129811351
 20
20.3672266272
 10
7.138923014
 20
20.3613907887
 10
7.1460735324
 20
20.3565787664
 10
7.1513296158
 20
20.3527620623
 10
7.1543832025
 20
20.3501399854
 10
7.154948058
 20
20.3488704043
 10
7.1548012484
 20
20.3487772889
  0
LWPOLYLINE
  5
665
100
AcDbEntity
  8
0
100
AcDbPolyline
 62
7
  6
CONTINUOUS
 90
11
 70
0
 10
15.8546011577
 20
15.5398121186
 10
15.8858462065
 20
15.521435758
 10
15.8995874667
 20
15.5132088046
 10
15.9119798098
 20
15.5056671316
 10
15.9229859079
 20
15.4988359748
 10
15.9320975709
 20
15.4930001364
 10
15.9392480893
 20
15.488188114
 10
15.9445041727
 20
15.48437141
 10
15.9475577594
 20
15.4817493331
 10
15.9481226149
 20
15.4804797519
 10
15.9479758054
 20
15.4803866366
  0
LWPOLYLINE
  5
666
100
AcDbEntity
  8
0
100
AcDbPolyline
 62
7
  6
CONTINUOUS
 90
11
 70
0
 10
16.2005721331
 20
15.3410512059
 10
16.1996758653
 20
15.3434810708
 10
16.1942229469
 20
15.3482618688
 10
16.1837935788
 20
15.355669038
 10
16.1688529915
 20
15.365463549
 10
16.1508713493
 20
15.3768441531
 10
16.1298784597
 20
15.3897993233
 10
16.1058445151
 20
15.4043405864
 10
16.0801502561
 20
15.4197012744
 10
16.0528934825
 20
15.4358197867
 10
15.9944863331
 20
15.469933219
  0
LINE
  5
667
100
AcDbEntity
  8
DRAFT
100
AcDbLine
 62
7
  6
CONTINUOUS
 10
-2.3417244836
 20
-17.3415656064
 11
-2.1141612864
 21
-17.1459056233
  0
LWPOLYLINE
  5
668
100
AcDbEntity
  8
ASSI
100
AcDbPolyline
 62
250
  6
CONTINUOUS
 90
7
 70
0
 10
-7.1762370435
 20
-22.4617994628
 10
-7.1660707768
 20
-22.4540816269
 10
-7.1557877976
 20
-22.4423052453
 10
-7.1476781607
 20
-22.4279304726
 10
-7.1418805052
 20
-22.4112091682
 10
-7.1384921649
 20
-22.3924306045
 10
-7.1375695951
 20
-22.3719202735
  0
LINE
  5
669
100
AcDbEntity
  8
RACCORDO
100
AcDbLine
 62
7
  6
CONTINUOUS
 10
-8.0846344374
 20
-18.1056586527
 11
-8.5497292842
 21
-18.4016405102
  0
LINE
  5
66A
100
AcDbEntity
  8
DRAFT
100
AcDbLine
 62
7
  6
CONTINUOUS
 10
-8.0846344374
 20
-18.031235442
 11
-8.5497292842
 21
-18.3261695397
  0
LINE
  5
66B
100
AcDbEntity
  8
DRAFT
100
AcDbLine
 62
7
  6
CONTINUOUS
 10
-8.5497292842
 20
-19.4263478359
 11
-8.0846344374
 21
-19.1471583797
  0
LINE
  5
66C
100
AcDbEntity
  8
RACCORDO
100
AcDbLine
 62
7
  6
CONTINUOUS
 10
-9.0214137728
 20
-18.558583994
 11
-8.60465441
 21
-18.3136366991
  0
LINE
  5
66D
100
AcDbEntity
  8
ASSI
100
AcDbLine
 62
7
  6
CONTINUOUS
 10
-9.0214137728
 20
-18.558583994
 11
-8.60465441
 21
-18.3136366991
  0
LINE
  5
66E
100
AcDbEntity
  8
RACCORDO
100
AcDbLine
 62
250
  6
CONTINUOUS
 10
-8.4003078027
 20
-18.3065501261
 11
-8.0846344374
 21
-18.1242848856
  0
LINE
  5
66F
100
AcDbEntity
  8
ASSI
100
AcDbLine
 62
250
  6
CONTINUOUS
 10
-5.0288771247
 20
21.815591633
 11
-1.5606402043
 21
22.7868257528
  0
LINE
  5
670
100
AcDbEntity
  8
ASSI
100
AcDbLine
 62
7
  6
CONTINUOUS
 10
-5.11941223
 20
21.8293188011
 11
-1.7446885767
 21
22.7743657607
  0
LWPOLYLINE
  5
671
100
AcDbEntity
  8
ASSI
100
AcDbPolyline
 62
250
  6
CONTINUOUS
 90
13
 70
0
 10
-2.0462229127
 20
22.272089651
 10
-2.0419772709
 20
22.2732399546
 10
-2.037798954
 20
22.2744486583
 10
-2.033687962
 20
22.2757157622
 10
-2.0296554612
 20
22.2770339728
 10
-2.0256902852
 20
22.2784105835
 10
-2.0217589354
 20
22.279867475
 10
-2.0178527973
 20
22.2814035187
 10
-2.0139804854
 20
22.2830198432
 10
-2.0101343445
 20
22.2847417148
 10
-2.006311823
 20
22.2865775554
 10
-2.0025154725
 20
22.2885189431
 10
-1.9987452931
 20
22.2905658778
  0
LINE
  5
672
100
AcDbEntity
  8
ASSI
100
AcDbLine
 62
250
  6
CONTINUOUS
 10
-4.5318617566
 20
21.3457035438
 11
-1.9394955621
 21
22.0275489715
  0
LINE
  5
673
100
AcDbEntity
  8
ASSI
100
AcDbLine
 62
250
  6
CONTINUOUS
 10
-4.6385891073
 20
21.5902442232
 11
-2.0462229127
 21
22.272089651
  0
LWPOLYLINE
  5
674
100
AcDbEntity
  8
ASSI
100
AcDbPolyline
 62
250
  6
CONTINUOUS
 90
6
 70
0
 10
-5.11941223
 20
21.8293188011
 10
-5.1030058447
 20
21.8324989651
 10
-5.0846347862
 20
21.8329333438
 10
-5.0659567155
 20
21.8302230034
 10
-5.0472709987
 20
21.8244113842
 10
-5.0288771247
 20
21.815591633
  0
LWPOLYLINE
  5
675
100
AcDbEntity
  8
SMUSSO
100
AcDbPolyline
 62
7
  6
CONTINUOUS
 90
13
 70
0
 10
-1.8304043836
 20
21.6456112329
 10
-1.7589812755
 20
21.6568888485
 10
-1.6896171842
 20
21.6716475024
 10
-1.6223121098
 20
21.6898871945
 10
-1.5574413801
 20
21.7114941914
 10
-1.4946296672
 20
21.7365822266
 10
-1.4327509874
 20
21.7654925005
 10
-1.3715086693
 20
21.7982629938
 10
-1.3111993842
 20
21.8348557259
 10
-1.2515871624
 20
21.8754979551
 10
-1.1925933474
 20
21.9202654341
 10
-1.1342965957
 20
21.9690824103
 10
-1.0766969073
 20
22.0219488835
  0
LWPOLYLINE
  5
676
100
AcDbEntity
  8
ASSI
100
AcDbPolyline
 62
250
  6
CONTINUOUS
 90
3
 70
0
 10
-13.5131827343
 20
21.9889888846
 10
-13.5052186915
 20
21.9899939374
 10
-13.4976371579
 20
21.9907107301
  0
LWPOLYLINE
  5
677
100
AcDbEntity
  8
ASSI
100
AcDbPolyline
 62
250
  6
CONTINUOUS
 90
9
 70
0
 10
-9.1439973149
 20
23.3784196496
 10
-9.1552238887
 20
23.3771153942
 10
-9.1666595457
 20
23.3759916588
 10
-9.1782884002
 20
23.3750416133
 10
-9.1901263379
 20
23.3742720879
 10
-9.2022941575
 20
23.3737116321
 10
-9.2148100774
 20
23.3733500933
 10
-9.2276558792
 20
23.3731976242
 10
-9.2408977075
 20
23.3733132321
  0
LWPOLYLINE
  5
678
100
AcDbEntity
  8
ASSI
100
AcDbPolyline
 62
250
  6
CONTINUOUS
 90
7
 70
0
 10
-11.54635355
 20
22.0954841123
 10
-11.5041908779
 20
22.0990991943
 10
-11.4601703426
 20
22.1054248169
 10
-11.4143403866
 20
22.114604591
 10
-11.3669964859
 20
22.1267279386
 10
-11.3179794842
 20
22.1419503079
 10
-11.2666517906
 20
22.1606261758
  0
LWPOLYLINE
  5
679
100
AcDbEntity
  8
ASSI
100
AcDbPolyline
 62
7
  6
CONTINUOUS
 90
7
 70
0
 10
-13.5611346992
 20
22.008365359
 10
-13.5776254363
 20
22.007068206
 10
-13.6144521866
 20
22.0013195926
 10
-13.6526715294
 20
21.9912709495
 10
-13.6905067753
 20
21.9772661657
 10
-13.7273881505
 20
21.9597018696
 10
-13.7371599781
 20
21.9543910703
  0
LINE
  5
67A
100
AcDbEntity
  8
ASSI
100
AcDbLine
 62
250
  6
CONTINUOUS
 10
-13.4976371579
 20
21.9907107301
 11
-13.49043355
 21
21.9911680706
  0
LWPOLYLINE
  5
67B
100
AcDbEntity
  8
ASSI
100
AcDbPolyline
 62
250
  6
CONTINUOUS
 90
16
 70
0
 10
-12.6991454347
 20
21.8095566812
 10
-12.7407196254
 20
21.8071127505
 10
-12.7776170858
 20
21.8032936638
 10
-12.8098378158
 20
21.7980994213
 10
-12.8370691512
 20
21.7913637756
 10
-12.8596237563
 20
21.7832529739
 10
-12.8784396235
 20
21.7742657584
 10
-12.8935913711
 20
21.7645838527
 10
-12.9050043807
 20
21.7540255332
 10
-12.9133927902
 20
21.7425443715
 10
-12.9192033993
 20
21.730355858
 10
-12.9219894081
 20
21.7172445024
 10
-12.9211245549
 20
21.7025174045
 10
-12.9164000856
 20
21.6859435978
 10
-12.9080247543
 20
21.6677540489
 10
-12.8959985608
 20
21.6479487579
  0
LINE
  5
67C
100
AcDbEntity
  8
ASSI
100
AcDbLine
 62
250
  6
CONTINUOUS
 10
-13.49043355
 20
21.9911680706
 11
-11.5463167266
 21
22.0954628509
  0
LINE
  5
67D
100
AcDbEntity
  8
ASSI
100
AcDbLine
 62
7
  6
CONTINUOUS
 10
-13.5611346993
 20
22.008365359
 11
-11.6167974467
 21
22.1126721648
  0
LINE
  5
67E
100
AcDbEntity
  8
ASSI
100
AcDbLine
 62
7
  6
CONTINUOUS
 10
-11.6167974467
 20
22.1126721648
 11
-11.6166579818
 21
22.1126795662
  0
LINE
  5
67F
100
AcDbEntity
  8
0
100
AcDbLine
 62
7
  6
CONTINUOUS
 10
-9.028318323
 20
21.6176932584
 11
-11.6691889023
 21
21.5536361546
  0
LINE
  5
680
100
AcDbEntity
  8
ASSI
100
AcDbLine
 62
250
  6
CONTINUOUS
 10
-11.0361256584
 20
21.5924186794
 11
-12.6176851393
 21
21.5540562845
  0
LINE
  5
681
100
AcDbEntity
  8
ASSI
100
AcDbLine
 62
250
  6
CONTINUOUS
 10
-11.1175859539
 20
21.847919076
 11
-12.6991454347
 21
21.8095566812
  0
LINE
  5
682
100
AcDbEntity
  8
RACCORDO
100
AcDbLine
 62
250
  6
CONTINUOUS
 10
-24.8716194104
 20
23.2948706107
 11
-24.9049936236
 21
23.2942496665
  0
LINE
  5
683
100
AcDbEntity
  8
ASSI
100
AcDbLine
 62
250
  6
CONTINUOUS
 10
-24.8716194104
 20
23.2948706107
 11
-24.9049936236
 21
23.2942496665
  0
LWPOLYLINE
  5
684
100
AcDbEntity
  8
ASSI
100
AcDbPolyline
 62
250
  6
CONTINUOUS
 90
6
 70
0
 10
-11.6166579818
 20
22.1126795662
 10
-11.6071930729
 20
22.1128072565
 10
-11.5916091846
 20
22.1114121653
 10
-11.5761651497
 20
22.1080315398
 10
-11.5610167774
 20
22.1026977893
 10
-11.5463159665
 20
22.0954628917
  0
LWPOLYLINE
  5
685
100
AcDbEntity
  8
ASSI
100
AcDbPolyline
 62
250
  6
CONTINUOUS
 90
5
 70
0
 10
-13.5609146642
 20
22.0083773633
 10
-13.5467534223
 20
22.0083113417
 10
-13.5275377069
 20
22.0055766468
 10
-13.5086683026
 20
21.999832967
 10
-13.49043355
 20
21.9911680706
  0
LWPOLYLINE
  5
686
100
AcDbEntity
  8
ASSI
100
AcDbPolyline
 62
250
  6
CONTINUOUS
 90
6
 70
0
 10
-9.3319705669
 20
23.4210733732
 10
-9.3396353011
 20
23.4211826359
 10
-9.3482061071
 20
23.4180186389
 10
-9.3572552799
 20
23.4115694404
 10
-9.3666279853
 20
23.4019453865
 10
-9.3761638539
 20
23.389311146
  0
LWPOLYLINE
  5
687
100
AcDbEntity
  8
ASSI
100
AcDbPolyline
 62
250
  6
CONTINUOUS
 90
9
 70
0
 10
-9.2408977075
 20
23.3733132321
 10
-9.2545768193
 20
23.3736924475
 10
-9.2686519575
 20
23.3743397399
 10
-9.2830654953
 20
23.3753275263
 10
-9.2978120871
 20
23.3766517359
 10
-9.3128970786
 20
23.3783164394
 10
-9.3282788793
 20
23.3804062655
 10
-9.3439436259
 20
23.3829494237
 10
-9.3599051819
 20
23.3859177046
  0
LWPOLYLINE
  5
688
100
AcDbEntity
  8
ASSI
100
AcDbPolyline
 62
250
  6
CONTINUOUS
 90
3
 70
0
 10
-5.8478497858
 20
24.4608701019
 10
-5.8659430762
 20
24.4637387075
 10
-5.8837717939
 20
24.4636184117
  0
LWPOLYLINE
  5
689
100
AcDbEntity
  8
RACCORDO
100
AcDbPolyline
 62
250
  6
CONTINUOUS
 90
10
 70
0
 10
-8.6852458942
 20
-27.6514369596
 10
-8.6680298268
 20
-27.6366304702
 10
-8.6532969608
 20
-27.6200287978
 10
-8.6404512454
 20
-27.6012797341
 10
-8.629564547
 20
-27.5805842937
 10
-8.620614997
 20
-27.5580407051
 10
-8.613345982
 20
-27.5326256156
 10
-8.608000135
 20
-27.5038487417
 10
-8.6050027481
 20
-27.4720524313
 10
-8.60465441
 20
-27.437265397
  0
LWPOLYLINE
  5
68A
100
AcDbEntity
  8
ASSI
100
AcDbPolyline
 62
250
  6
CONTINUOUS
 90
10
 70
0
 10
-8.6852458942
 20
-27.6514369596
 10
-8.6680298268
 20
-27.6366304702
 10
-8.6532969608
 20
-27.6200287978
 10
-8.6404512454
 20
-27.6012797341
 10
-8.629564547
 20
-27.5805842937
 10
-8.620614997
 20
-27.5580407051
 10
-8.613345982
 20
-27.5326256156
 10
-8.608000135
 20
-27.5038487417
 10
-8.6050027481
 20
-27.4720524313
 10
-8.60465441
 20
-27.437265397
  0
LWPOLYLINE
  5
68B
100
AcDbEntity
  8
RACCORDO
100
AcDbPolyline
 62
7
  6
CONTINUOUS
 90
10
 70
0
 10
-8.6884499357
 20
-27.6537585044
 10
-8.6773225001
 20
-27.6454785683
 10
-8.6491388504
 20
-27.6205139871
 10
-8.6236031718
 20
-27.5915078325
 10
-8.6011597576
 20
-27.5585536588
 10
-8.5823602904
 20
-27.5220214044
 10
-8.5676630058
 20
-27.4825171271
 10
-8.5572641496
 20
-27.4403714238
 10
-8.5512683658
 20
-27.3957679243
 10
-8.5497293009
 20
-27.357823234
  0
LWPOLYLINE
  5
68C
100
AcDbEntity
  8
ASSI
100
AcDbPolyline
 62
7
  6
CONTINUOUS
 90
10
 70
0
 10
-8.6884499357
 20
-27.6537585044
 10
-8.6773225001
 20
-27.6454785683
 10
-8.6491388504
 20
-27.6205139871
 10
-8.6236031718
 20
-27.5915078325
 10
-8.6011597576
 20
-27.5585536588
 10
-8.5823602904
 20
-27.5220214044
 10
-8.5676630058
 20
-27.4825171271
 10
-8.5572641496
 20
-27.4403714238
 10
-8.5512683658
 20
-27.3957679243
 10
-8.5497293009
 20
-27.357823234
  0
LINE
  5
68D
100
AcDbEntity
  8
RACCORDO
100
AcDbLine
 62
250
  6
CONTINUOUS
 10
-8.6879180341
 20
-27.6533822701
 11
-8.6852458942
 21
-27.6514369596
  0
LINE
  5
68E
100
AcDbEntity
  8
ASSI
100
AcDbLine
 62
250
  6
CONTINUOUS
 10
-8.6879180341
 20
-27.6533822701
 11
-8.6852458942
 21
-27.6514369596
  0
LINE
  5
68F
100
AcDbEntity
  8
ASSI
100
AcDbLine
 62
250
  6
CONTINUOUS
 10
-7.6071743471
 20
-21.8452971546
 11
-7.6239045256
 21
-21.8566909494
  0
LWPOLYLINE
  5
690
100
AcDbEntity
  8
DRAFT
100
AcDbPolyline
 62
7
  6
CONTINUOUS
 90
6
 70
0
 10
-3.5077715476
 20
-18.1745303335
 10
-3.301409019
 20
-18.0457657921
 10
-3.0540569557
 20
-17.881470969
 10
-2.8116318994
 20
-17.7093214325
 10
-2.574214688
 20
-17.5293708762
 10
-2.3417244836
 20
-17.3415656064
  0
LWPOLYLINE
  5
691
100
AcDbEntity
  8
DRAFT
100
AcDbPolyline
 62
7
  6
CONTINUOUS
 90
7
 70
0
 10
-3.5198720837
 20
-18.1538852429
 10
-3.3612692764
 20
-18.0555751408
 10
-3.1123696358
 20
-17.8923584233
 10
-2.8684121543
 20
-17.7212291213
 10
-2.6294787339
 20
-17.5422409423
 10
-2.3954874725
 20
-17.3553401788
 10
-2.1664383702
 20
-17.1605268307
  0
LINE
  5
692
100
AcDbEntity
  8
ASSI
100
AcDbLine
 62
250
  6
CONTINUOUS
 10
-7.1375695951
 20
-22.3719202735
 11
-8.5497292842
 21
-23.2452210081
  0
LINE
  5
693
100
AcDbEntity
  8
ASSI
100
AcDbLine
 62
7
  6
CONTINUOUS
 10
-7.1762444394
 20
-22.4618040372
 11
-8.5497292842
 21
-23.3111876679
  0
LWPOLYLINE
  5
694
100
AcDbEntity
  8
DRAFT
100
AcDbPolyline
 62
7
  6
CONTINUOUS
 90
5
 70
0
 10
3.4749273498
 20
-13.9412664265
 10
3.5148834262
 20
-13.9169070123
 10
3.5719154488
 20
-13.8816624422
 10
3.6287051034
 20
-13.8460064926
 10
3.6852523898
 20
-13.8099391635
  0
LINE
  5
695
100
AcDbEntity
  8
DRAFT
100
AcDbLine
 62
7
  6
CONTINUOUS
 10
7.2062261044
 20
-11.6746598333
 11
3.6852523898
 21
-13.8099391635
  0
LINE
  5
696
100
AcDbEntity
  8
ASSI
100
AcDbLine
 62
7
  6
CONTINUOUS
 10
-3.5199028696
 20
-18.1539039069
 11
-8.4776325203
 21
-21.159529425
  0
LINE
  5
697
100
AcDbEntity
  8
DRAFT
100
AcDbLine
 62
7
  6
CONTINUOUS
 10
3.4749277663
 20
-13.9412661739
 11
-3.5077900515
 21
-18.1745415515
  0
LINE
  5
698
100
AcDbEntity
  8
DRAFT
100
AcDbLine
 62
7
  6
CONTINUOUS
 10
-2.1664383702
 20
-17.1605268307
 11
-7.0992640937
 21
-20.145106726
  0
LINE
  5
699
100
AcDbEntity
  8
DRAFT
100
AcDbLine
 62
7
  6
CONTINUOUS
 10
9.7015840884
 20
-9.9969265461
 11
-2.1141612864
 21
-17.1459056233
  0
LINE
  5
69A
100
AcDbEntity
  8
DRAFT
100
AcDbLine
 62
7
  6
CONTINUOUS
 10
-3.5534455761
 20
-18.202044821
 11
-3.5077715476
 21
-18.1745303335
  0
LINE
  5
69B
100
AcDbEntity
  8
DRAFT
100
AcDbLine
 62
7
  6
CONTINUOUS
 10
-8.4775936474
 20
-21.1595058582
 11
-8.5497292842
 21
-21.2024513133
  0
LWPOLYLINE
  5
69C
100
AcDbEntity
  8
DRAFT
100
AcDbPolyline
 62
7
  6
CONTINUOUS
 90
4
 70
0
 10
-4.0914592381
 20
-18.5004101764
 10
-4.0714104958
 20
-18.4904481085
 10
-3.8100857891
 20
-18.3502543619
 10
-3.5534455761
 20
-18.202044821
  0
LWPOLYLINE
  5
69D
100
AcDbEntity
  8
ASSI
100
AcDbPolyline
 62
250
  6
CONTINUOUS
 90
12
 70
0
 10
-8.3738209924
 20
23.7469203002
 10
-8.3808622041
 20
23.7449255349
 10
-8.3879690261
 20
23.7427392726
 10
-8.3951387248
 20
23.7403607263
 10
-8.4023329839
 20
23.7378019989
 10
-8.4095841965
 20
23.7350515388
 10
-8.4169967158
 20
23.7320649397
 10
-8.4245776764
 20
23.7288289738
 10
-8.4323154531
 20
23.7253389649
 10
-8.4402874072
 20
23.7215489286
 10
-8.4485174407
 20
23.7174308326
 10
-8.4569753579
 20
23.7129815588
  0
LWPOLYLINE
  5
69E
100
AcDbEntity
  8
ASSI
100
AcDbPolyline
 62
250
  6
CONTINUOUS
 90
13
 70
0
 10
-7.983532975
 20
23.5215728904
 10
-7.9906795544
 20
23.5196155366
 10
-7.9978693133
 20
23.517461005
 10
-8.0050993522
 20
23.5151093039
 10
-8.0123278963
 20
23.5125747996
 10
-8.019590516
 20
23.5098454368
 10
-8.0270015005
 20
23.5068726243
 10
-8.0345707862
 20
23.503642602
 10
-8.042284005
 20
23.5001510239
 10
-8.0502202792
 20
23.496347823
 10
-8.058404133
 20
23.492203147
 10
-8.0668048162
 20
23.4877147279
 10
-8.0754181411
 20
23.4828672684
  0
LINE
  5
69F
100
AcDbEntity
  8
ASSI
100
AcDbLine
 62
250
  6
CONTINUOUS
 10
-5.8119717545
 20
24.4463858363
 11
-8.3738209924
 21
23.7469203002
  0
LINE
  5
6A0
100
AcDbEntity
  8
ASSI
100
AcDbLine
 62
7
  6
CONTINUOUS
 10
-5.9012524069
 20
24.4604598995
 11
-8.4631016449
 21
23.7609943634
  0
LWPOLYLINE
  5
6A1
100
AcDbEntity
  8
ASSI
100
AcDbPolyline
 62
250
  6
CONTINUOUS
 90
13
 70
0
 10
-7.8789079722
 20
23.2697122341
 10
-7.8832217974
 20
23.2685509651
 10
-7.8875561543
 20
23.26727042
 10
-7.891911043
 20
23.2658705988
 10
-7.8962646466
 20
23.264362935
 10
-7.9006387819
 20
23.2627359951
 10
-7.9050988996
 20
23.2609554786
 10
-7.9096522071
 20
23.2590248526
 10
-7.914291497
 20
23.2569406499
 10
-7.9190605981
 20
23.2546581685
 10
-7.9239741201
 20
23.2521625077
 10
-7.9290174534
 20
23.2494685683
 10
-7.9341905979
 20
23.2465763501
  0
LINE
  5
6A2
100
AcDbEntity
  8
ASSI
100
AcDbLine
 62
250
  6
CONTINUOUS
 10
-5.806820842
 20
24.4477275875
 11
-5.8119717545
 21
24.4463858363
  0
LINE
  5
6A3
100
AcDbEntity
  8
ASSI
100
AcDbLine
 62
250
  6
CONTINUOUS
 10
-4.8008337317
 20
24.0585898786
 11
-7.8789079722
 21
23.2697122341
  0
LINE
  5
6A4
100
AcDbEntity
  8
ASSI
100
AcDbLine
 62
250
  6
CONTINUOUS
 10
-4.4165024523
 20
24.4357648224
 11
-7.983532975
 21
23.5215728904
  0
LINE
  5
6A5
100
AcDbEntity
  8
ASSI
100
AcDbLine
 62
250
  6
CONTINUOUS
 10
-5.8837717939
 20
24.4636184117
 11
-5.9012524069
 21
24.4604598995
  0
LWPOLYLINE
  5
6A6
100
AcDbEntity
  8
ASSI
100
AcDbPolyline
 62
7
  6
CONTINUOUS
 90
6
 70
0
 10
-5.8058976321
 20
24.4772915058
 10
-5.8163170389
 20
24.4762419918
 10
-5.8418539253
 20
24.4729169651
 10
-5.866919462
 20
24.4685269085
 10
-5.8915247329
 20
24.4630064345
 10
-5.901313725
 20
24.4604431369
  0
LWPOLYLINE
  5
6A7
100
AcDbEntity
  8
ASSI
100
AcDbPolyline
 62
250
  6
CONTINUOUS
 90
12
 70
0
 10
-5.7508851741
 20
24.4570044197
 10
-5.7561432202
 20
24.4564867641
 10
-5.7613406903
 20
24.4559114672
 10
-5.7664775845
 20
24.455278529
 10
-5.771532278
 20
24.4545931289
 10
-5.7765263956
 20
24.4538500875
 10
-5.7815248115
 20
24.4530338671
 10
-5.7865403936
 20
24.4521460617
 10
-5.7915602741
 20
24.4511850774
 10
-5.7966107234
 20
24.4501305946
 10
-5.8017004983
 20
24.4489758402
 10
-5.806820842
 20
24.4477275875
  0
LINE
  5
6A8
100
AcDbEntity
  8
ASSI
100
AcDbLine
 62
250
  6
CONTINUOUS
 10
-4.4661253409
 20
24.5759630951
 11
-5.7508851741
 21
24.4570044197
  0
LINE
  5
6A9
100
AcDbEntity
  8
ASSI
100
AcDbLine
 62
7
  6
CONTINUOUS
 10
-4.5358933386
 20
24.5948839416
 11
-5.8059272677
 21
24.4772887693
  0
LINE
  5
6AA
100
AcDbEntity
  8
RACCORDO
100
AcDbLine
 62
250
  6
CONTINUOUS
 10
-9.4938200726
 20
-28.0705076841
 11
-8.60465441
 21
-27.437265397
  0
LINE
  5
6AB
100
AcDbEntity
  8
ASSI
100
AcDbLine
 62
250
  6
CONTINUOUS
 10
-9.4938200726
 20
-28.0705076841
 11
-8.60465441
 21
-27.437265397
  0
LINE
  5
6AC
100
AcDbEntity
  8
RACCORDO
100
AcDbLine
 62
7
  6
CONTINUOUS
 10
-9.5306526899
 20
-28.2535575168
 11
-8.68792089
 21
-27.653384304
  0
LINE
  5
6AD
100
AcDbEntity
  8
ASSI
100
AcDbLine
 62
7
  6
CONTINUOUS
 10
-9.5306526899
 20
-28.2535575168
 11
-8.68792089
 21
-27.653384304
  0
LWPOLYLINE
  5
6AE
100
AcDbEntity
  8
RACCORDO
100
AcDbPolyline
 62
250
  6
CONTINUOUS
 90
7
 70
0
 10
-8.60465441
 20
-27.437265397
 10
-8.5881827395
 20
-27.4258555595
 10
-8.5743839325
 20
-27.4133193127
 10
-8.5634862966
 20
-27.3998640749
 10
-8.5556701385
 20
-27.3857124691
 10
-8.5510647799
 20
-27.3710986404
 10
-8.5497293009
 20
-27.357823234
  0
LWPOLYLINE
  5
6AF
100
AcDbEntity
  8
ASSI
100
AcDbPolyline
 62
250
  6
CONTINUOUS
 90
7
 70
0
 10
-8.60465441
 20
-27.437265397
 10
-8.5881827395
 20
-27.4258555595
 10
-8.5743839325
 20
-27.4133193127
 10
-8.5634862966
 20
-27.3998640749
 10
-8.5556701385
 20
-27.3857124691
 10
-8.5510647799
 20
-27.3710986404
 10
-8.5497293009
 20
-27.357823234
  0
LWPOLYLINE
  5
6B0
100
AcDbEntity
  8
RACCORDO
100
AcDbPolyline
 62
250
  6
CONTINUOUS
 90
4
 70
0
 10
-9.6173579912
 20
-28.3341554303
 10
-9.5979957802
 20
-28.3223847943
 10
-9.5745703868
 20
-28.3025549863
 10
-9.5541326028
 20
-28.2782119992
  0
LWPOLYLINE
  5
6B1
100
AcDbEntity
  8
ASSI
100
AcDbPolyline
 62
250
  6
CONTINUOUS
 90
4
 70
0
 10
-9.6173579912
 20
-28.3341554303
 10
-9.5979957802
 20
-28.3223847943
 10
-9.5745703868
 20
-28.3025549863
 10
-9.5541326028
 20
-28.2782119992
  0
LINE
  5
6B2
100
AcDbEntity
  8
RACCORDO
100
AcDbLine
 62
250
  6
CONTINUOUS
 10
-23.9435313553
 20
23.7131290622
 11
-23.969902787
 21
23.7063569097
  0
LINE
  5
6B3
100
AcDbEntity
  8
ASSI
100
AcDbLine
 62
250
  6
CONTINUOUS
 10
-23.9435313553
 20
23.7131290622
 11
-23.969902787
 21
23.7063569097
  0
LWPOLYLINE
  5
6B4
100
AcDbEntity
  8
DRAFT
100
AcDbPolyline
 62
7
  6
CONTINUOUS
 90
10
 70
0
 10
-9.1143000354
 20
25.5208006747
 10
-9.1447535013
 20
25.5137620532
 10
-9.1715653854
 20
25.5078137244
 10
-9.1947596586
 20
25.503004304
 10
-9.214162058
 20
25.4994716368
 10
-9.2299936007
 20
25.4971711276
 10
-9.2428659298
 20
25.4958670152
 10
-9.2528995039
 20
25.4955370073
 10
-9.2600075701
 20
25.4962693782
 10
-9.2640259851
 20
25.4976961106
  0
LWPOLYLINE
  5
6B5
100
AcDbEntity
  8
RACCORDO
100
AcDbPolyline
 62
250
  6
CONTINUOUS
 90
3
 70
0
 10
-24.9049936236
 20
23.2942496665
 10
-24.9362958001
 20
23.288724359
 10
-24.9651832856
 20
23.2783551718
  0
LWPOLYLINE
  5
6B6
100
AcDbEntity
  8
ASSI
100
AcDbPolyline
 62
250
  6
CONTINUOUS
 90
3
 70
0
 10
-24.9049936236
 20
23.2942496665
 10
-24.9362958001
 20
23.288724359
 10
-24.9651832856
 20
23.2783551718
  0
LINE
  5
6B7
100
AcDbEntity
  8
RACCORDO
100
AcDbLine
 62
250
  6
CONTINUOUS
 10
-9.5033173708
 20
-28.0996778374
 11
-9.4938200726
 21
-28.0947539074
  0
LINE
  5
6B8
100
AcDbEntity
  8
ASSI
100
AcDbLine
 62
250
  6
CONTINUOUS
 10
-9.5033173708
 20
-28.0996778374
 11
-9.4938200726
 21
-28.0947539074
  0
LINE
  5
6B9
100
AcDbEntity
  8
RACCORDO
100
AcDbLine
 62
7
  6
CONTINUOUS
 10
-9.6173579912
 20
-28.3341554303
 11
-9.60393596
 21
-28.3271966993
  0
LINE
  5
6BA
100
AcDbEntity
  8
ASSI
100
AcDbLine
 62
7
  6
CONTINUOUS
 10
-9.6173579912
 20
-28.3341554303
 11
-9.60393596
 21
-28.3271966993
  0
LWPOLYLINE
  5
6BB
100
AcDbEntity
  8
RACCORDO
100
AcDbPolyline
 62
250
  6
CONTINUOUS
 90
3
 70
0
 10
-9.5837144757
 20
-28.135517194
 10
-9.541854929
 20
-28.1187433022
 10
-9.5033173708
 20
-28.0996778374
  0
LWPOLYLINE
  5
6BC
100
AcDbEntity
  8
ASSI
100
AcDbPolyline
 62
250
  6
CONTINUOUS
 90
3
 70
0
 10
-9.5837144757
 20
-28.135517194
 10
-9.541854929
 20
-28.1187433022
 10
-9.5033173708
 20
-28.0996778374
  0
ARC
  5
6BD
100
AcDbEntity
  8
RACCORDO
100
AcDbCircle
 62
7
  6
CONTINUOUS
 10
-9.8474946586
 20
-27.890266802
 40
0.5
100
AcDbArc
 50
239.9837749632
 51
297.4047467077
  0
ARC
  5
6BE
100
AcDbEntity
  8
RACCORDO
100
AcDbCircle
 62
7
  6
CONTINUOUS
 10
-24.715708827
 20
-19.3055462837
 40
0.5
100
AcDbArc
 50
180.0007990885
 51
239.9992005764
  0
ARC
  5
6BF
100
AcDbEntity
  8
RACCORDO
100
AcDbCircle
 62
7
  6
CONTINUOUS
 10
-24.715708827
 20
22.8462259985
 40
0.5
100
AcDbArc
 50
122.5984435995
 51
180.014624453
  0
ARC
  5
6C0
100
AcDbEntity
  8
ASSI
100
AcDbCircle
 62
7
  6
CONTINUOUS
 10
-9.8474946586
 20
-27.890266802
 40
0.5
100
AcDbArc
 50
239.9837749632
 51
297.4047467077
  0
ARC
  5
6C1
100
AcDbEntity
  8
ASSI
100
AcDbCircle
 62
7
  6
CONTINUOUS
 10
-24.715708827
 20
-19.3055462837
 40
0.5
100
AcDbArc
 50
180.0007990885
 51
239.9992005764
  0
ARC
  5
6C2
100
AcDbEntity
  8
ASSI
100
AcDbCircle
 62
7
  6
CONTINUOUS
 10
-24.715708827
 20
22.8462259985
 40
0.5
100
AcDbArc
 50
122.5984435995
 51
180.014624453
  0
ARC
  5
6C3
100
AcDbEntity
  8
ASSI
100
AcDbCircle
 62
7
  6
CONTINUOUS
 10
-5.9655264104
 20
22.14787439
 40
0.25
100
AcDbArc
 50
121.7332683318
 51
141.9219043039
  0
ARC
  5
6C4
100
AcDbEntity
  8
ASSI
100
AcDbCircle
 62
7
  6
CONTINUOUS
 10
-12.5651539635
 20
17.858352621
 40
0.2
100
AcDbArc
 50
18.5045349449
 51
59.9984015651
  0
ARC
  5
6C5
100
AcDbEntity
  8
ASSI
100
AcDbCircle
 62
7
  6
CONTINUOUS
 10
-13.780944101
 20
21.7010003038
 40
0.2
100
AcDbArc
 50
119.0851094124
 51
154.7491244115
  0
ARC
  5
6C6
100
AcDbEntity
  8
ASSI
100
AcDbCircle
 62
7
  6
CONTINUOUS
 10
-16.4168067631
 20
20.082248675
 40
0.2
100
AcDbArc
 50
59.9984015652
 51
119.137102911
  0
ARC
  5
6C7
100
AcDbEntity
  8
ASSI
100
AcDbCircle
 62
7
  6
CONTINUOUS
 10
-17.9479564188
 20
22.6368866945
 40
0.2
100
AcDbArc
 50
59.9984015652
 51
118.2652518899
  0
ARC
  5
6C8
100
AcDbEntity
  8
ASSI
100
AcDbCircle
 62
7
  6
CONTINUOUS
 10
-7.2814375552
 20
16.108861396
 40
0.2
100
AcDbArc
 50
315.7312262598
 51
0.0244867519
  0
ARC
  5
6C9
100
AcDbEntity
  8
ASSI
100
AcDbCircle
 62
7
  6
CONTINUOUS
 10
-7.2814375552
 20
16.4781723855
 40
0.2
100
AcDbArc
 50
359.9930983179
 51
59.9984015652
  0
ARC
  5
6CA
100
AcDbEntity
  8
ASSI
100
AcDbCircle
 62
7
  6
CONTINUOUS
 10
-7.2814375552
 20
-21.9223918766
 40
0.2
100
AcDbArc
 50
0.0061341609
 51
59.997132281
  0
ARC
  5
6CB
100
AcDbEntity
  8
ASSI
100
AcDbCircle
 62
7
  6
CONTINUOUS
 10
-7.2814375552
 20
-22.2917028661
 40
0.2
100
AcDbArc
 50
301.7357596047
 51
0.0034115245
  0
ARC
  5
6CC
100
AcDbEntity
  8
ASSI
100
AcDbCircle
 62
7
  6
CONTINUOUS
 10
-16.4392664452
 20
21.7657880121
 40
0.2
100
AcDbArc
 50
359.9895357921
 51
59.9984015652
  0
ARC
  5
6CD
100
AcDbEntity
  8
ASSI
100
AcDbCircle
 62
7
  6
CONTINUOUS
 10
-16.4392664452
 20
21.3964770225
 40
0.2
100
AcDbArc
 50
315.7300106282
 51
0.0272098225
  0
ARC
  5
6CE
100
AcDbEntity
  8
ASSI
100
AcDbCircle
 62
7
  6
CONTINUOUS
 10
-8.7901275287
 20
17.3492710679
 40
0.2
100
AcDbArc
 50
59.9984015652
 51
118.2652518899
  0
ELLIPSE
  5
6CF
100
AcDbEntity
  8
RACCORDO
100
AcDbEllipse
 62
7
  6
CONTINUOUS
 10
-5.6344530828
 20
-8.4788707018
 30
0.0
 11
0.2999893451
 21
-0.0044574875
 31
0.0
 40
0.5672251703
 41
-1.4344761491
 42
-0.4279042161
  0
ELLIPSE
  5
6D0
100
AcDbEntity
  8
RACCORDO
100
AcDbEllipse
 62
7
  6
CONTINUOUS
 10
-5.6344530828
 20
-1.1466481779
 30
0.0
 11
0.2999166093
 21
-0.01294434
 31
0.0
 40
0.5464172455
 41
-1.4193579049
 42
-0.7618192766
  0
ELLIPSE
  5
6D1
100
AcDbEntity
  8
RACCORDO
100
AcDbEllipse
 62
7
  6
CONTINUOUS
 10
-5.6344530828
 20
-0.3797250257
 30
0.0
 11
0.2999877486
 21
0.0046158299
 31
0.0
 40
0.5873737521
 41
4.9425354461
 42
5.8378154801
  0
ELLIPSE
  5
6D2
100
AcDbEntity
  8
RACCORDO
100
AcDbEllipse
 62
7
  6
CONTINUOUS
 10
-5.6344530828
 20
-7.7119475496
 30
0.0
 11
0.2998732284
 21
0.014372119
 31
0.0
 40
0.6067642562
 41
5.0417213051
 42
5.468714755
  0
ELLIPSE
  5
6D3
100
AcDbEntity
  8
DRAFT
100
AcDbEllipse
 62
7
  6
CONTINUOUS
 10
-5.6370946016
 20
-4.9177021959
 30
0.0
 11
0.0774531486
 21
1.1092236317
 31
0.0
 40
0.0751331912
 41
-2.0615039901
 42
-0.3022537798
  0
ELLIPSE
  5
6D4
100
AcDbEntity
  8
DRAFT
100
AcDbEllipse
 62
7
  6
CONTINUOUS
 10
-5.6370946016
 20
-4.9177021959
 30
0.0
 11
0.0774531486
 21
1.1092236317
 31
0.0
 40
0.0751331912
 41
0.3506627399
 42
0.4175235371
  0
ELLIPSE
  5
6D5
100
AcDbEntity
  8
DRAFT
100
AcDbEllipse
 62
7
  6
CONTINUOUS
 10
-5.760699752
 20
-4.8463341311
 30
0.0
 11
0.527078084
 21
0.8501886395
 31
0.0
 40
0.5971151412
 41
1.1800063876
 42
3.5699095504
  0
ELLIPSE
  5
6D6
100
AcDbEntity
  8
RACCORDO
100
AcDbEllipse
 62
7
  6
CONTINUOUS
 10
-9.8474946586
 20
-27.890266802
 30
0.0
 11
-0.2501834304
 21
0.4333025529
 31
0.0
 40
0.5769361983
 41
-3.1677535987
 42
-2.3565853618
  0
ELLIPSE
  5
6D7
100
AcDbEntity
  8
RACCORDO
100
AcDbEllipse
 62
7
  6
CONTINUOUS
 10
-9.8474946586
 20
14.2615054802
 30
0.0
 11
-0.2500121049
 21
0.4330057129
 31
0.0
 40
0.5777274115
 41
-2.3559002616
 42
-0.7857891675
  0
ELLIPSE
  5
6D8
100
AcDbEntity
  8
RACCORDO
100
AcDbEllipse
 62
7
  6
CONTINUOUS
 10
-8.7497292842
 20
5.4606672512
 30
0.0
 11
0.1999918324
 21
0.0030772199
 31
0.0
 40
0.5873737521
 41
-0.7682557387
 42
-0.0090375014
  0
ELLIPSE
  5
6D9
100
AcDbEntity
  8
RACCORDO
100
AcDbEllipse
 62
7
  6
CONTINUOUS
 10
-24.715708827
 20
22.8462259985
 30
0.0
 11
-0.2501834304
 21
0.4333025529
 31
0.0
 40
0.5769361983
 41
-0.7851038024
 42
0.0261609458
  0
ELLIPSE
  5
6DA
100
AcDbEntity
  8
RACCORDO
100
AcDbEllipse
 62
7
  6
CONTINUOUS
 10
-8.7497292842
 20
-18.2340726258
 30
0.0
 11
0.1999928968
 21
-0.0029716584
 31
0.0
 40
0.5672251703
 41
-0.7507901278
 42
0.7938262603
  0
ELLIPSE
  5
6DB
100
AcDbEntity
  8
ASSI
100
AcDbEllipse
 62
7
  6
CONTINUOUS
 10
-9.8474946586
 20
-27.890266802
 30
0.0
 11
-0.2501834304
 21
0.4333025529
 31
0.0
 40
0.5769361983
 41
-3.1677535987
 42
-2.3565853618
  0
ELLIPSE
  5
6DC
100
AcDbEntity
  8
ASSI
100
AcDbEllipse
 62
7
  6
CONTINUOUS
 10
-9.8474946586
 20
14.2615054802
 30
0.0
 11
-0.2500121049
 21
0.4330057129
 31
0.0
 40
0.5777274115
 41
-2.3559002616
 42
-0.7857891675
  0
ELLIPSE
  5
6DD
100
AcDbEntity
  8
ASSI
100
AcDbEllipse
 62
7
  6
CONTINUOUS
 10
-8.7497292842
 20
5.4606672512
 30
0.0
 11
0.1999918324
 21
0.0030772199
 31
0.0
 40
0.5873737521
 41
-0.7682557387
 42
-0.0090375014
  0
ELLIPSE
  5
6DE
100
AcDbEntity
  8
ASSI
100
AcDbEllipse
 62
7
  6
CONTINUOUS
 10
-24.715708827
 20
22.8462259985
 30
0.0
 11
-0.2501834304
 21
0.4333025529
 31
0.0
 40
0.5769361983
 41
-0.7851038024
 42
0.0261609458
  0
ELLIPSE
  5
6DF
100
AcDbEntity
  8
ASSI
100
AcDbEllipse
 62
7
  6
CONTINUOUS
 10
-8.7497292842
 20
-18.2340726258
 30
0.0
 11
0.1999928968
 21
-0.0029716584
 31
0.0
 40
0.5672251703
 41
-0.7507901278
 42
0.7938262603
  0
ELLIPSE
  5
6E0
100
AcDbEntity
  8
ASSI
100
AcDbEllipse
 62
7
  6
CONTINUOUS
 10
1.4920832977
 20
20.709878326
 30
0.0
 11
2.7498876954
 21
0.042311774
 31
0.0
 40
0.5873737521
 41
2.661393961
 42
2.993083584
  0
ELLIPSE
  5
6E1
100
AcDbEntity
  8
ASSI
100
AcDbEllipse
 62
7
  6
CONTINUOUS
 10
-4.4565426022
 20
24.401375696
 30
0.0
 11
-0.1065746657
 21
0.1850801844
 31
0.0
 40
0.5406488238
 41
-0.7513003416
 42
-0.2431306586
  0
ELLIPSE
  5
6E2
100
AcDbEntity
  8
ASSI
100
AcDbEllipse
 62
7
  6
CONTINUOUS
 10
-1.256704211
 20
22.5538291123
 30
0.0
 11
-0.0997443216
 21
0.1733547677
 31
0.0
 40
0.6165007174
 41
-2.2349887316
 42
-0.8165063841
  0
ELLIPSE
  5
6E3
100
AcDbEntity
  8
RACCORDO
100
AcDbEllipse
 62
7
  6
CONTINUOUS
 10
-5.563440497
 20
23.3729693576
 30
0.0
 11
0.3
 21
-0.0
 31
0.0
 40
0.5789711334
 41
0.7867676913
 42
2.3548249623
  0
ELLIPSE
  5
6E4
100
AcDbEntity
  8
ASSI
100
AcDbEllipse
 62
7
  6
CONTINUOUS
 10
-4.9700716496
 20
24.1244079808
 30
0.0
 11
0.5676866739
 21
0.2973089125
 31
0.0
 40
0.2173140806
 41
-1.383402197
 42
0.1368199214
  0
ELLIPSE
  5
6E5
100
AcDbEntity
  8
ASSI
100
AcDbEllipse
 62
7
  6
CONTINUOUS
 10
-6.5956829102
 20
17.8734889474
 30
0.0
 11
0.6999072626
 21
-0.02045979
 31
0.0
 40
0.5568983954
 41
5.6013315027
 42
7.0848613669
  0
ELLIPSE
  5
6E6
100
AcDbEntity
  8
ASSI
100
AcDbEllipse
 62
7
  6
CONTINUOUS
 10
-2.09989133
 20
22.4672018361
 30
0.0
 11
0.5532910611
 21
0.3058874341
 31
0.0
 40
0.2232744126
 41
0.1336855848
 42
0.7571904236
  0
ELLIPSE
  5
6E7
100
AcDbEntity
  8
ASSI
100
AcDbEllipse
 62
7
  6
CONTINUOUS
 10
-16.8819861613
 20
19.8229101257
 30
0.0
 11
-0.1000355301
 21
0.1732022922
 31
0.0
 40
0.5773316472
 41
-0.7855999596
 42
0.6979432296
  0
ELLIPSE
  5
6E8
100
AcDbEntity
  8
ASSI
100
AcDbEllipse
 62
7
  6
CONTINUOUS
 10
-13.0143125685
 20
17.5897638666
 30
0.0
 11
-0.1000355301
 21
0.1732022922
 31
0.0
 40
0.5773316472
 41
-2.2691431487
 42
-0.7855999596
  0
ELLIPSE
  5
6E9
100
AcDbEntity
  8
ASSI
100
AcDbEllipse
 62
7
  6
CONTINUOUS
 10
-5.2254041955
 20
22.6055770697
 30
0.0
 11
-0.1250441155
 21
0.2165688207
 31
0.0
 40
0.5771558487
 41
-0.7852941622
 42
0.0174472731
  0
ELLIPSE
  5
6EA
100
AcDbEntity
  8
DRAFT
100
AcDbEllipse
 62
7
  6
CONTINUOUS
 10
7.1812926733
 20
20.358160039
 30
0.0
 11
21.7368149001
 21
34.7928033076
 31
0.0
 40
0.5525953651
 41
-2.2941257342
 42
-2.2080276888
  0
ELLIPSE
  5
6EB
100
AcDbEntity
  8
DRAFT
100
AcDbEllipse
 62
7
  6
CONTINUOUS
 10
23.09119525
 20
12.0331147949
 30
0.0
 11
29.0143588119
 21
-15.315834883
 31
0.0
 40
0.036254679
 41
2.9898155045
 42
3.0759135499
  0
ELLIPSE
  5
6EC
100
AcDbEntity
  8
DRAFT
100
AcDbEllipse
 62
7
  6
CONTINUOUS
 10
1.4509061841
 20
19.7944236851
 30
0.0
 11
3.3358090772
 21
-0.0491410979
 31
0.0
 40
0.5672266142
 41
-0.9150589525
 42
-0.7771158446
  0
ELLIPSE
  5
6ED
100
AcDbEntity
  8
DRAFT
100
AcDbEllipse
 62
7
  6
CONTINUOUS
 10
9.6514052877
 20
15.3498309023
 30
0.0
 11
3.4929350844
 21
-0.0514557821
 31
0.0
 40
0.5672266142
 41
-1.138935703
 42
-0.7771158446
  0
ELLIPSE
  5
6EE
100
AcDbEntity
  8
DRAFT
100
AcDbEllipse
 62
7
  6
CONTINUOUS
 10
-5.6496951923
 20
22.973331247
 30
0.0
 11
2.7499023305
 21
-0.0408603024
 31
0.0
 40
0.5672251703
 41
1.4680701712
 42
2.2659673116
  0
ELLIPSE
  5
6EF
100
AcDbEntity
  8
DRAFT
100
AcDbEllipse
 62
7
  6
CONTINUOUS
 10
1.8456366883
 20
18.6456205577
 30
0.0
 11
2.7499023305
 21
-0.0408603024
 31
0.0
 40
0.5672251703
 41
0.1661691424
 42
2.1939651145
  0
ELLIPSE
  5
6F0
100
AcDbEntity
  8
DRAFT
100
AcDbEllipse
 62
7
  6
CONTINUOUS
 10
-2.8813752452
 20
18.6743054872
 30
0.0
 11
0.3999857935
 21
-0.0059433167
 31
0.0
 40
0.5672251703
 41
2.4169824646
 42
3.9354189138
  0
ELLIPSE
  5
6F1
100
AcDbEntity
  8
DRAFT
100
AcDbEllipse
 62
7
  6
CONTINUOUS
 10
2.2362601756
 20
22.8253721326
 30
0.0
 11
0.8127139305
 21
-0.4290131046
 31
0.0
 40
0.0362549024
 41
5.4655220611
 42
7.0458089277
  0
ELLIPSE
  5
6F2
100
AcDbEntity
  8
DRAFT
100
AcDbEllipse
 62
7
  6
CONTINUOUS
 10
-11.3171529422
 20
23.5450178043
 30
0.0
 11
0.3999857935
 21
-0.0059433167
 31
0.0
 40
0.5672251703
 41
-2.3477663933
 42
-0.8293299441
  0
ELLIPSE
  5
6F3
100
AcDbEntity
  8
DRAFT
100
AcDbEllipse
 62
7
  6
CONTINUOUS
 10
7.1812926733
 20
21.2192931447
 30
0.0
 11
29.0143588119
 21
-15.315834883
 31
0.0
 40
0.036254679
 41
-1.5508016829
 42
-1.4647036375
  0
ELLIPSE
  5
6F4
100
AcDbEntity
  8
DRAFT
100
AcDbEllipse
 62
7
  6
CONTINUOUS
 10
-6.0444256965
 20
24.1221343744
 30
0.0
 11
3.3358090772
 21
-0.0491410979
 31
0.0
 40
0.5672266142
 41
2.3644714903
 42
2.4260507642
  0
ELLIPSE
  5
6F5
100
AcDbEntity
  8
DRAFT
100
AcDbEllipse
 62
7
  6
CONTINUOUS
 10
1.4509061841
 20
19.7944236851
 30
0.0
 11
3.3358090772
 21
-0.0491410979
 31
0.0
 40
0.5672266142
 41
2.3644714903
 42
2.506095628
  0
ELLIPSE
  5
6F6
100
AcDbEntity
  8
DRAFT
100
AcDbEllipse
 62
7
  6
CONTINUOUS
 10
10.0258827765
 20
18.5437042868
 30
0.0
 11
1.1230061628
 21
-0.5928092805
 31
0.0
 40
0.0362549024
 41
4.793660503
 42
9.297806834
  0
ELLIPSE
  5
6F7
100
AcDbEntity
  8
ASSI
100
AcDbEllipse
 62
7
  6
CONTINUOUS
 10
1.4920832977
 20
19.751076817
 30
0.0
 11
2.7402874452
 21
-0.6606281007
 31
0.0
 40
0.349548336
 41
2.8180980071
 42
2.8994687919
  0
ELLIPSE
  5
6F8
100
AcDbEntity
  8
DRAFT
100
AcDbEllipse
 62
7
  6
CONTINUOUS
 10
1.1756000038
 20
23.4377840226
 30
0.0
 11
0.8127139305
 21
-0.4290131046
 31
0.0
 40
0.0362549024
 41
0.7626236206
 42
2.3429104873
  0
ELLIPSE
  5
6F9
100
AcDbEntity
  8
DRAFT
100
AcDbEllipse
 62
7
  6
CONTINUOUS
 10
1.8456366883
 20
19.1355027238
 30
0.0
 11
2.7499023305
 21
-0.0408603024
 31
0.0
 40
0.5672251703
 41
6.1241724014
 42
8.6478078942
  0
ELLIPSE
  5
6FA
100
AcDbEntity
  8
DRAFT
100
AcDbEllipse
 62
7
  6
CONTINUOUS
 10
-5.6496951923
 20
23.4632134131
 30
0.0
 11
2.7499023305
 21
-0.0408603024
 31
0.0
 40
0.5672251703
 41
0.1749409339
 42
2.3646225871
  0
ELLIPSE
  5
6FB
100
AcDbEntity
  8
DRAFT
100
AcDbEllipse
 62
7
  6
CONTINUOUS
 10
10.0480753501
 20
14.5637268509
 30
0.0
 11
2.7499023305
 21
-0.0408603024
 31
0.0
 40
0.5672251703
 41
6.1258896172
 42
7.4751845916
  0
ENDSEC
  0
SECTION
  2
OBJECTS
  0
DICTIONARY
  5
C
100
AcDbDictionary
280
0
281
1
  3
ACAD_GROUP
350
D
  3
ACAD_MLINESTYLE
350
17
  3
ACAD_LAYOUT
350
1A
  3
ACAD_PLOTSETTINGS
350
19
  3
ACAD_PLOTSTYLENAME
350
E
  0
DICTIONARY
  5
D
102
{ACAD_REACTORS
330
C
102
}
100
AcDbDictionary
280
0
281
1
  0
ACDBDICTIONARYWDFLT
  5
E
102
{ACAD_REACTORS
330
C
102
}
100
AcDbDictionary
281
1
  3
Normal
350
F
100
AcDbDictionaryWithDefault
340
F
  0
DICTIONARY
  5
17
102
{ACAD_REACTORS
330
C
102
}
100
AcDbDictionary
280
0
281
1
  3
Standard
350
18
  0
DICTIONARY
  5
19
102
{ACAD_REACTORS
330
C
102
}
100
AcDbDictionary
281
1
  0
DICTIONARY
  5
1A
102
{ACAD_REACTORS
330
C
102
}
100
AcDbDictionary
281
1
  3
Model
350
6FC
  3
Layout1
350
6FD
  0
ACDBPLACEHOLDER
  5
F
102
{ACAD_REACTORS
330
E
102
}
  0
MLINESTYLE
  5
18
102
{ACAD_REACTORS
330
17
102
}
100
AcDbMlineStyle
  2
STANDARD
 70
0
  3

 62
256
 51
90.0
 52
90.0
 71
2
 49
0.5
 62
256
  6
BYLAYER
 49
-0.5
 62
256
  6
BYLAYER
  0
LAYOUT
  5
6FC
102
{ACAD_REACTORS
330
1A
102
}
100
AcDbPlotSettings
  1

  2
none_device
  4
ISO_A4_(297.00_x_210.00_MM)
  6

 40
0.0
 41
0.0
 42
0.0
 43
0.0
 44
297.0
 45
210.0
 46
0.0
 47
0.0
 48
0.0
 49
0.0
140
0.0
141
0.0
142
1.0
143
1.0
 70
1024
 72
1
 73
0
 74
0
  7

 75
0
147
1.0
148
0.0
149
0.0
100
AcDbLayout
  1
Model
 70
0
 71
0
 10
0.0
 20
0.0
 11
297.0
 21
210.0
 12
0.0
 22
0.0
 32
0.0
 14
0.0
 24
0.0
 34
0.0
 15
0.0
 25
0.0
 35
0.0
146
0.0
 13
0.0
 23
0.0
 33
0.0
 16
1.0
 26
0.0
 36
0.0
 17
0.0
 27
1.0
 37
0.0
 76
0
330
21D
345
0
346
0
  0
LAYOUT
  5
6FD
102
{ACAD_REACTORS
330
1A
102
}
100
AcDbPlotSettings
  1

  2
none_device
  4
ISO_A4_(297.00_x_210.00_MM)
  6

 40
0.0
 41
0.0
 42
0.0
 43
0.0
 44
297.0
 45
210.0
 46
0.0
 47
0.0
 48
0.0
 49
0.0
140
0.0
141
0.0
142
1.0
143
1.0
 70
0
 72
1
 73
0
 74
0
  7

 75
0
147
1.0
148
0.0
149
0.0
100
AcDbLayout
  1
Layout1
 70
0
 71
1
 10
0.0
 20
0.0
 11
297.0
 21
210.0
 12
0.0
 22
0.0
 32
0.0
 14
0.0
 24
0.0
 34
0.0
 15
0.0
 25
0.0
 35
0.0
146
0.0
 13
0.0
 23
0.0
 33
0.0
 16
1.0
 26
0.0
 36
0.0
 17
0.0
 27
1.0
 37
0.0
 76
0
330
21E
345
0
346
0
  0
ENDSEC
  0
EOF
