  0
SECTION
  2
HEADER
  9
$ACADVER
  1
AC1024
  9
$DWGCODEPAGE
  3
ANSI_1252
  9
$EXTMAX
 10
297.0
 20
210.0
 30
0.0
  9
$EXTMIN
 10
0.0
 20
0.0
 30
0.0
  9
$LIMMIN
 10
0.0
 20
0.0
  9
$LIMMAX
 10
297.0
 20
210.0
  9
$VIEWCTR
 10
148.5
 20
105.0
  9
$VIEWSIZE
 40
210.0
  9
$CLAYER
  8
0
  9
$LTSCALE
 40
16.335
  9
$CELTYPE
  6
BYLAYER
  9
$DIMSCALE
 40
1.0
  9
$DIMASZ
 40
3.0
  9
$DIMEXO
 40
0.5
  9
$DIMDLI
 40
11.286
  9
$DIMEXE
 40
1.5
  9
$DIMCEN
 40
2.673
  9
$DIMLFAC
 40
1.0
  9
$DIMBLK
  1
_FILLED
  9
$DIMALT
 70
0
  9
$DIMALTF
 40
0.0393700787
  9
$DIMTXT
 40
3.0
  9
$DIMTOL
 70
1
  9
$DIMLIM
 70
0
  9
$DIMTFAC
 40
1.0
  9
$DIMTP
 40
0.01
  9
$DIMTM
 40
0.01
  9
$DIMGAP
 40
0.625
  9
$DIMDSEP
 70
44
  9
$AUNITS
 70
0
  9
$PDMODE
 70
3
  9
$PDSIZE
 40
3.0
  9
$HANDSEED
  5
655
  9
$TILEMODE
 70
1
  9
$MEASUREMENT
 70
1
  9
$INSUNITS
 70
4
  0
ENDSEC
  0
SECTION
  2
CLASSES
  0
CLASS
  1
ACDBDICTIONARYWDFLT
  2
AcDbDictionaryWithDefault
  3
AutoCAD 2000
 90
0
 91
1
280
0
281
0
  0
CLASS
  1
ACDBPLACEHOLDER
  2
AcDbPlaceHolder
  3
AutoCAD 2000
 90
0
 91
1
280
0
281
0
  0
CLASS
  1
LAYOUT
  2
AcDbLayout
  3
AutoCAD 2000
 90
0
 91
0
280
0
281
0
  0
ENDSEC
  0
SECTION
  2
TABLES
  0
TABLE
  2
VPORT
  5
8
100
AcDbSymbolTable
 70
2
  0
VPORT
  5
1F4
100
AcDbSymbolTableRecord
100
AcDbViewportTableRecord
  2
*ACTIVE
 70
0
 10
0.0
 20
0.0
 11
1.0
 21
1.0
 12
148.5
 22
105.0
 13
0.0
 23
0.0
 14
1.0
 24
1.0
 15
0.0
 25
0.0
 16
0.0
 26
0.0
 36
1.0
 17
0.0
 27
0.0
 37
0.0
 40
210.0
 41
1.4142857143
 42
50.0
 43
0.0
 44
0.0
 50
0.0
 51
0.0
 71
0
 72
100
 73
1
 74
1
 75
0
 76
0
 77
0
 78
0
  0
ENDTAB
  0
TABLE
  2
LTYPE
  5
5
100
AcDbSymbolTable
 70
6
  0
LTYPE
  5
14
100
AcDbSymbolTableRecord
100
AcDbLinetypeTableRecord
  2
BYBLOCK
 70
0
  3

 72
65
 73
0
 40
0.0
  0
LTYPE
  5
15
100
AcDbSymbolTableRecord
100
AcDbLinetypeTableRecord
  2
BYLAYER
 70
0
  3

 72
65
 73
0
 40
0.0
  0
LTYPE
  5
16
100
AcDbSymbolTableRecord
100
AcDbLinetypeTableRecord
  2
CONTINUOUS
 70
64
  3
Solid line
 72
65
 73
0
 40
0.0
  0
LTYPE
  5
1F5
100
AcDbSymbolTableRecord
100
AcDbLinetypeTableRecord
  2
CENTER
 70
64
  3
____ _ ____ _ ____ _ ____ _ ____ _ ____ _ ____
 72
65
 73
4
 40
0.6
 49
0.375
 74
0
 49
-0.075
 74
0
 49
0.075
 74
0
 49
-0.075
 74
0
  0
LTYPE
  5
1F6
100
AcDbSymbolTableRecord
100
AcDbLinetypeTableRecord
  2
HIDDEN
 70
64
  3
- - - - - - - - - - - - - - - - - - - -
 72
65
 73
2
 40
0.2
 49
0.1
 74
0
 49
-0.1
 74
0
  0
LTYPE
  5
1F7
100
AcDbSymbolTableRecord
100
AcDbLinetypeTableRecord
  2
PHANTOM
 70
64
  3
_____ _ _ _____ _ _ _____ _ _ _____
 72
65
 73
6
 40
0.8
 49
0.45
 74
0
 49
-0.05
 74
0
 49
0.1
 74
0
 49
-0.05
 74
0
 49
0.1
 74
0
 49
-0.05
 74
0
  0
LTYPE
  5
1F8
100
AcDbSymbolTableRecord
100
AcDbLinetypeTableRecord
  2
DOT
 70
64
  3
. . . . . . . . . . . . . . . . . . . .
 72
65
 73
2
 40
0.2
 49
0.1
 74
0
 49
-0.1
 74
0
  0
LTYPE
  5
1F9
100
AcDbSymbolTableRecord
100
AcDbLinetypeTableRecord
  2
DASHED
 70
64
  3
- - - - - - - - - - - - - - - - - - - -
 72
65
 73
2
 40
0.2
 49
0.1
 74
0
 49
-0.1
 74
0
  0
ENDTAB
  0
TABLE
  2
LAYER
  5
2
100
AcDbSymbolTable
 70
36
  0
LAYER
  5
10
100
AcDbSymbolTableRecord
100
AcDbLayerTableRecord
  2
0
 70
0
 62
7
  6
CONTINUOUS
370
-3
390
F
  0
LAYER
  5
1FA
100
AcDbSymbolTableRecord
100
AcDbLayerTableRecord
  2
DEFAULT_1
 70
0
 62
7
  6
CENTER
370
-3
390
F
  0
LAYER
  5
1FB
100
AcDbSymbolTableRecord
100
AcDbLayerTableRecord
  2
DEFAULT_2
 70
0
 62
7
  6
HIDDEN
370
-3
390
F
  0
LAYER
  5
1FC
100
AcDbSymbolTableRecord
100
AcDbLayerTableRecord
  2
DEFAULT_3
 70
0
 62
7
  6
PHANTOM
370
-3
390
F
  0
LAYER
  5
1FD
100
AcDbSymbolTableRecord
100
AcDbLayerTableRecord
  2
ASSI
 70
0
 62
7
  6
CONTINUOUS
370
-3
390
F
  0
LAYER
  5
1FE
100
AcDbSymbolTableRecord
100
AcDbLayerTableRecord
  2
COORDINATE
 70
0
 62
7
  6
CONTINUOUS
370
-3
390
F
  0
LAYER
  5
1FF
100
AcDbSymbolTableRecord
100
AcDbLayerTableRecord
  2
COORD_ORIGINE
 70
0
 62
7
  6
CONTINUOUS
370
-3
390
F
  0
LAYER
  5
200
100
AcDbSymbolTableRecord
100
AcDbLayerTableRecord
  2
COPY_PUBLISH
 70
0
 62
7
  6
CONTINUOUS
370
-3
390
F
  0
LAYER
  5
201
100
AcDbSymbolTableRecord
100
AcDbLayerTableRecord
  2
COSMETICHE
 70
0
 62
7
  6
CONTINUOUS
370
-3
390
F
  0
LAYER
  5
202
100
AcDbSymbolTableRecord
100
AcDbLayerTableRecord
  2
COSMETICI
 70
0
 62
7
  6
CONTINUOUS
370
-3
390
F
  0
LAYER
  5
203
100
AcDbSymbolTableRecord
100
AcDbLayerTableRecord
  2
CURVE
 70
0
 62
7
  6
CONTINUOUS
370
-3
390
F
  0
LAYER
  5
204
100
AcDbSymbolTableRecord
100
AcDbLayerTableRecord
  2
DRAFT
 70
0
 62
7
  6
CONTINUOUS
370
-3
390
F
  0
LAYER
  5
205
100
AcDbSymbolTableRecord
100
AcDbLayerTableRecord
  2
IMPORT_IGES
 70
0
 62
7
  6
CONTINUOUS
370
-3
390
F
  0
LAYER
  5
206
100
AcDbSymbolTableRecord
100
AcDbLayerTableRecord
  2
INTF_1
 70
0
 62
7
  6
CONTINUOUS
370
-3
390
F
  0
LAYER
  5
207
100
AcDbSymbolTableRecord
100
AcDbLayerTableRecord
  2
INTF_10
 70
0
 62
7
  6
CONTINUOUS
370
-3
390
F
  0
LAYER
  5
208
100
AcDbSymbolTableRecord
100
AcDbLayerTableRecord
  2
INTF_11
 70
0
 62
7
  6
CONTINUOUS
370
-3
390
F
  0
LAYER
  5
209
100
AcDbSymbolTableRecord
100
AcDbLayerTableRecord
  2
INTF_13
 70
0
 62
7
  6
CONTINUOUS
370
-3
390
F
  0
LAYER
  5
20A
100
AcDbSymbolTableRecord
100
AcDbLayerTableRecord
  2
INTF_14
 70
0
 62
7
  6
CONTINUOUS
370
-3
390
F
  0
LAYER
  5
20B
100
AcDbSymbolTableRecord
100
AcDbLayerTableRecord
  2
INTF_2
 70
0
 62
7
  6
CONTINUOUS
370
-3
390
F
  0
LAYER
  5
20C
100
AcDbSymbolTableRecord
100
AcDbLayerTableRecord
  2
INTF_8
 70
0
 62
7
  6
CONTINUOUS
370
-3
390
F
  0
LAYER
  5
20D
100
AcDbSymbolTableRecord
100
AcDbLayerTableRecord
  2
INTF_9
 70
0
 62
7
  6
CONTINUOUS
370
-3
390
F
  0
LAYER
  5
20E
100
AcDbSymbolTableRecord
100
AcDbLayerTableRecord
  2
NOTE
 70
0
 62
7
  6
CONTINUOUS
370
-3
390
F
  0
LAYER
  5
20F
100
AcDbSymbolTableRecord
100
AcDbLayerTableRecord
  2
PIANI
 70
0
 62
7
  6
CONTINUOUS
370
-3
390
F
  0
LAYER
  5
210
100
AcDbSymbolTableRecord
100
AcDbLayerTableRecord
  2
PIANI_ORIGINE
 70
0
 62
7
  6
CONTINUOUS
370
-3
390
F
  0
LAYER
  5
211
100
AcDbSymbolTableRecord
100
AcDbLayerTableRecord
  2
PUNTI
 70
0
 62
7
  6
CONTINUOUS
370
-3
390
F
  0
LAYER
  5
212
100
AcDbSymbolTableRecord
100
AcDbLayerTableRecord
  2
RACCORDO
 70
0
 62
7
  6
CONTINUOUS
370
-3
390
F
  0
LAYER
  5
213
100
AcDbSymbolTableRecord
100
AcDbLayerTableRecord
  2
RGB__255__255__255__
 70
0
 62
7
  6
CONTINUOUS
370
-3
390
F
  0
LAYER
  5
214
100
AcDbSymbolTableRecord
100
AcDbLayerTableRecord
  2
RGB____0____0____0__
 70
0
 62
7
  6
CONTINUOUS
370
-3
390
F
  0
LAYER
  5
215
100
AcDbSymbolTableRecord
100
AcDbLayerTableRecord
  2
SIMBOLI
 70
0
 62
7
  6
CONTINUOUS
370
-3
390
F
  0
LAYER
  5
216
100
AcDbSymbolTableRecord
100
AcDbLayerTableRecord
  2
SMUSSO
 70
0
 62
7
  6
CONTINUOUS
370
-3
390
F
  0
LAYER
  5
217
100
AcDbSymbolTableRecord
100
AcDbLayerTableRecord
  2
SNAPLINE
 70
0
 62
7
  6
CONTINUOUS
370
-3
390
F
  0
LAYER
  5
218
100
AcDbSymbolTableRecord
100
AcDbLayerTableRecord
  2
SUPERFICI
 70
0
 62
7
  6
CONTINUOUS
370
-3
390
F
  0
LAYER
  5
219
100
AcDbSymbolTableRecord
100
AcDbLayerTableRecord
  2
TRASH
 70
0
 62
7
  6
CONTINUOUS
370
-3
390
F
  0
ENDTAB
  0
TABLE
  2
STYLE
  5
3
100
AcDbSymbolTable
 70
1
  0
STYLE
  5
11
100
AcDbSymbolTableRecord
100
AcDbTextStyleTableRecord
  2
STANDARD
 70
0
 40
0.0
 41
0.8
 50
0.0
 71
0
 42
0.2
  3
txt
  4

  0
STYLE
  5
21A
100
AcDbSymbolTableRecord
100
AcDbTextStyleTableRecord
  2
TEXTSTYLE_1
 70
0
 40
0.0
 41
0.8
 50
0.0
 71
0
 42
0.2
  3
gdt
  4

  0
ENDTAB
  0
TABLE
  2
VIEW
  5
6
100
AcDbSymbolTable
 70
0
  0
ENDTAB
  0
TABLE
  2
UCS
  5
7
100
AcDbSymbolTable
 70
0
  0
ENDTAB
  0
TABLE
  2
APPID
  5
9
100
AcDbSymbolTable
 70
1
  0
APPID
  5
21B
100
AcDbSymbolTableRecord
100
AcDbRegAppTableRecord
  2
ACAD
 70
0
  0
ENDTAB
  0
TABLE
  2
BLOCK_RECORD
  5
1
100
AcDbSymbolTable
 70
0
  0
BLOCK_RECORD
  5
21C
100
AcDbSymbolTableRecord
100
AcDbBlockTableRecord
  2
*Model_Space
  0
BLOCK_RECORD
  5
21D
100
AcDbSymbolTableRecord
100
AcDbBlockTableRecord
  2
*Paper_Space
  0
BLOCK_RECORD
  5
21E
100
AcDbSymbolTableRecord
100
AcDbBlockTableRecord
  2
_FILLED
  0
ENDTAB
  0
TABLE
  2
DIMSTYLE
  5
A
100
AcDbSymbolTable
 70
1
100
AcDbDimStyleTable
 71
0
  0
DIMSTYLE
105
21F
100
AcDbSymbolTableRecord
100
AcDbDimStyleTableRecord
  2
STANDARD
 70
0
  3

  4

 40
1.0
 41
3.0
 42
0.5
 43
0.38
 44
1.5
 45
0.0
 46
0.0
 47
0.01
 48
0.01
140
3.0
141
0.09
142
0.0
143
25.4
144
1.0
145
0.0
146
1.0
147
0.625
 71
1
 72
0
 73
0
 74
0
 75
0
 76
0
 77
1
 78
8
 79
2
170
0
171
1
172
0
173
0
174
0
175
0
176
0
177
0
178
0
270
2
179
2
271
2
272
2
273
2
274
2
275
0
280
0
281
0
282
0
283
1
284
8
285
0
286
0
287
3
288
0
340
11
278
44
341
21E
342
21E
343
21E
344
21E
  0
ENDTAB
  0
ENDSEC
  0
SECTION
  2
BLOCKS
  0
BLOCK
  5
20
100
AcDbEntity
  8
0
100
AcDbBlockBegin
  2
*Model_Space
 70
0
 10
0.0
 20
0.0
 30
0.0
  3
*Model_Space
  1

  0
ENDBLK
  5
21
100
AcDbEntity
  8
0
100
AcDbBlockEnd
  0
BLOCK
  5
1C
100
AcDbEntity
  8
0
100
AcDbBlockBegin
  2
*Paper_Space
 70
0
 10
0.0
 20
0.0
 30
0.0
  3
*Paper_Space
  1

  0
ENDBLK
  5
1D
100
AcDbEntity
  8
0
100
AcDbBlockEnd
  0
BLOCK
  5
220
100
AcDbEntity
  8
0
100
AcDbBlockBegin
  2
_FILLED
 70
64
 10
0.0
 20
0.0
  3
_FILLED
  1

  0
SOLID
  5
221
100
AcDbEntity
  8
0
  6
BYBLOCK
 62
0
100
AcDbTrace
 10
0.0
 20
0.0
 11
-1.0
 21
0.3166666667
 12
-1.0
 22
-0.3166666667
 13
-1.0
 23
-0.3166666667
  0
ENDBLK
  5
222
100
AcDbEntity
  8
0
  6
BYBLOCK
 62
0
100
AcDbBlockEnd
  0
ENDSEC
  0
SECTION
  2
ENTITIES
  0
LINE
  5
223
100
AcDbEntity
  8
RACCORDO
100
AcDbLine
 62
7
  6
CONTINUOUS
 10
-4.3462987282
 20
-29.6203809313
 11
-19.2145128965
 21
-21.035660413
  0
LINE
  5
224
100
AcDbEntity
  8
RACCORDO
100
AcDbLine
 62
250
  6
CONTINUOUS
 10
-4.4498400387
 20
-29.3915125007
 11
-19.3180542071
 21
-20.8067919824
  0
LWPOLYLINE
  5
225
100
AcDbEntity
  8
RACCORDO
100
AcDbPolyline
 62
250
  6
CONTINUOUS
 90
9
 70
0
 10
-19.3180542071
 20
-20.8067919824
 10
-19.3525240195
 20
-20.7847268396
 10
-19.3828829724
 20
-20.7607327578
 10
-19.408809432
 20
-20.735063939
 10
-19.4300287237
 20
-20.7079923279
 10
-19.4463160426
 20
-20.6798047312
 10
-19.4574988347
 20
-20.6507997787
 10
-19.4634586255
 20
-20.6212847597
 10
-19.4645008165
 20
-20.6026546858
  0
LWPOLYLINE
  5
226
100
AcDbEntity
  8
RACCORDO
100
AcDbPolyline
 62
250
  6
CONTINUOUS
 90
9
 70
0
 10
-4.3463085706
 20
-29.620375248
 10
-4.3624036585
 20
-29.6097984784
 10
-4.3849576024
 20
-29.5897516883
 10
-4.4044678698
 20
-29.5653898321
 10
-4.4206928099
 20
-29.5369972275
 10
-4.4334173472
 20
-29.5050053689
 10
-4.4425373311
 20
-29.4698400194
 10
-4.4480166491
 20
-29.4318670018
 10
-4.4498400387
 20
-29.3915125007
  0
LWPOLYLINE
  5
227
100
AcDbEntity
  8
RACCORDO
100
AcDbPolyline
 62
250
  6
CONTINUOUS
 90
9
 70
0
 10
-19.2145128965
 20
-21.035660413
 10
-19.2311648387
 20
-21.0246699795
 10
-19.2537556323
 20
-21.0044120105
 10
-19.2731698905
 20
-20.9799458013
 10
-19.2892516245
 20
-20.9515542306
 10
-19.3018411509
 20
-20.9196370246
 10
-19.3108538469
 20
-20.8846041206
 10
-19.3162586288
 20
-20.846846354
 10
-19.3180542071
 20
-20.8067919824
  0
LWPOLYLINE
  5
228
100
AcDbEntity
  8
RACCORDO
100
AcDbPolyline
 62
250
  6
CONTINUOUS
 90
9
 70
0
 10
-19.4645008165
 20
-0.1689917662
 10
-19.4634586255
 20
-0.1876218402
 10
-19.4574988347
 20
-0.2171368592
 10
-19.4463160426
 20
-0.2461418117
 10
-19.4300287237
 20
-0.2743294084
 10
-19.408809432
 20
-0.3014010194
 10
-19.3828829724
 20
-0.3270698383
 10
-19.3525240195
 20
-0.3510639201
 10
-19.3180542071
 20
-0.3731290629
  0
LINE
  5
229
100
AcDbEntity
  8
RACCORDO
100
AcDbLine
 62
7
  6
CONTINUOUS
 10
-19.4645008165
 20
21.5491175965
 11
-19.4645008165
 21
1.1154546769
  0
LINE
  5
22A
100
AcDbEntity
  8
RACCORDO
100
AcDbLine
 62
7
  6
CONTINUOUS
 10
-19.4645008165
 20
-0.1689917662
 11
-19.4645008165
 21
-20.6026546858
  0
LINE
  5
22B
100
AcDbEntity
  8
RACCORDO
100
AcDbLine
 62
250
  6
CONTINUOUS
 10
-19.3180542071
 20
21.3449802998
 11
-19.3180542071
 21
0.9113173803
  0
LINE
  5
22C
100
AcDbEntity
  8
RACCORDO
100
AcDbLine
 62
250
  6
CONTINUOUS
 10
-19.3180542071
 20
-0.3731290629
 11
-19.3180542071
 21
-20.8067919824
  0
LWPOLYLINE
  5
22D
100
AcDbEntity
  8
ASSI
100
AcDbPolyline
 62
250
  6
CONTINUOUS
 90
3
 70
0
 10
-1.8156905375
 20
-23.0896623307
 10
-1.8110220036
 20
-23.0906812338
 10
-1.7985656738
 20
-23.0912403766
  0
LINE
  5
22E
100
AcDbEntity
  8
0
100
AcDbLine
 62
7
  6
CONTINUOUS
 10
-2.8811131239
 20
-24.2442848928
 11
-2.7988085623
 21
-24.2918065151
  0
LINE
  5
22F
100
AcDbEntity
  8
ASSI
100
AcDbLine
 62
250
  6
CONTINUOUS
 10
-1.8157673988
 20
-23.0722014575
 11
-1.7853391867
 21
-23.0897703258
  0
LINE
  5
230
100
AcDbEntity
  8
ASSI
100
AcDbLine
 62
250
  6
CONTINUOUS
 10
-1.4818605921
 20
-23.0381264328
 11
-1.8165644751
 21
-22.8448726055
  0
LINE
  5
231
100
AcDbEntity
  8
ASSI
100
AcDbLine
 62
7
  6
CONTINUOUS
 10
-1.4302247126
 20
-23.0462979877
 11
-1.8165644751
 21
-22.8232302508
  0
LWPOLYLINE
  5
232
100
AcDbEntity
  8
ASSI
100
AcDbPolyline
 62
250
  6
CONTINUOUS
 90
4
 70
0
 10
-1.4818605921
 20
-23.0381264328
 10
-1.4638012956
 20
-23.0500850141
 10
-1.4467887016
 20
-23.0649111789
 10
-1.4311199866
 20
-23.0823848416
  0
LINE
  5
233
100
AcDbEntity
  8
ASSI
100
AcDbLine
 62
250
  6
CONTINUOUS
 10
-1.7853391867
 20
-23.0897703258
 11
-1.7670794822
 21
-23.1018821275
  0
LWPOLYLINE
  5
234
100
AcDbEntity
  8
ASSI
100
AcDbPolyline
 62
250
  6
CONTINUOUS
 90
12
 70
0
 10
-1.7670794822
 20
-23.1018821275
 10
-1.7499511769
 20
-23.1168681118
 10
-1.7342451207
 20
-23.1344738067
 10
-1.7202280131
 20
-23.1544002557
 10
-1.7081378739
 20
-23.1763090945
 10
-1.6981800017
 20
-23.1998282963
 10
-1.6905234879
 20
-23.2245584893
 10
-1.6852983451
 20
-23.2500797383
 10
-1.6825932998
 20
-23.2759586755
 10
-1.6824542856
 20
-23.3017558592
 10
-1.6848836628
 20
-23.3270332359
 10
-1.6898401791
 20
-23.351361579
  0
LWPOLYLINE
  5
235
100
AcDbEntity
  8
RACCORDO
100
AcDbPolyline
 62
250
  6
CONTINUOUS
 90
9
 70
0
 10
-19.4645008165
 20
21.5491175965
 10
-19.4634586255
 20
21.5304875225
 10
-19.4574988347
 20
21.5009725035
 10
-19.4463160426
 20
21.471967551
 10
-19.4300287237
 20
21.4437799543
 10
-19.408809432
 20
21.4167083433
 10
-19.3828829724
 20
21.3910395244
 10
-19.3525240195
 20
21.3670454426
 10
-19.3180542071
 20
21.3449802998
  0
LWPOLYLINE
  5
236
100
AcDbEntity
  8
RACCORDO
100
AcDbPolyline
 62
250
  6
CONTINUOUS
 90
15
 70
0
 10
-19.0101406219
 20
21.9275851919
 10
-19.0460392301
 20
21.8992685179
 10
-19.081069077
 20
21.8672208335
 10
-19.1148607081
 20
21.8317793392
 10
-19.1470498819
 20
21.7933252299
 10
-19.1772834514
 20
21.7522829097
 10
-19.2052352583
 20
21.7091023939
 10
-19.2306178269
 20
21.6642356176
 10
-19.2531717708
 20
21.6181440984
 10
-19.2726820382
 20
21.5712522745
 10
-19.2889069783
 20
21.5241235158
 10
-19.3016315155
 20
21.4774376805
 10
-19.3107514995
 20
21.4317408021
 10
-19.3162308174
 20
21.3874404055
 10
-19.3180542071
 20
21.3449802998
  0
LINE
  5
237
100
AcDbEntity
  8
RACCORDO
100
AcDbLine
 62
250
  6
CONTINUOUS
 10
-18.9737557653
 20
21.9518691514
 11
-19.0101406219
 21
21.9275851919
  0
LINE
  5
238
100
AcDbEntity
  8
RACCORDO
100
AcDbLine
 62
7
  6
CONTINUOUS
 10
-19.2211377667
 20
21.9784962762
 11
-19.2338747665
 21
21.9703511125
  0
LINE
  5
239
100
AcDbEntity
  8
RACCORDO
100
AcDbLine
 62
250
  6
CONTINUOUS
 10
-18.9647431658
 20
21.9576326043
 11
-18.9737557653
 21
21.9518691514
  0
LWPOLYLINE
  5
23A
100
AcDbEntity
  8
ASSI
100
AcDbPolyline
 62
250
  6
CONTINUOUS
 90
5
 70
0
 10
-1.4818605921
 20
-23.0381264328
 10
-1.4643210426
 20
-23.0369691909
 10
-1.4479941546
 20
-23.0391703722
 10
-1.4331803298
 20
-23.0446894775
 10
-1.4302247126
 20
-23.0462979877
  0
LINE
  5
23B
100
AcDbEntity
  8
RACCORDO
100
AcDbLine
 62
7
  6
CONTINUOUS
 10
-2.9396917676
 20
-20.2852881284
 11
-3.3585594811
 21
-20.0265496885
  0
LWPOLYLINE
  5
23C
100
AcDbEntity
  8
ASSI
100
AcDbPolyline
 62
250
  6
CONTINUOUS
 90
3
 70
0
 10
-1.4311199866
 20
-23.0823848416
 10
-1.4170596933
 20
-23.1022605873
 10
-1.4048834945
 20
-23.124204457
  0
LWPOLYLINE
  5
23D
100
AcDbEntity
  8
ASSI
100
AcDbPolyline
 62
250
  6
CONTINUOUS
 90
5
 70
0
 10
-11.0069257524
 20
19.4377834258
 10
-11.0167839283
 20
19.4013122811
 10
-11.0239395006
 20
19.3648762092
 10
-11.0285199929
 20
19.3283289094
 10
-11.0305254051
 20
19.2916703817
  0
LWPOLYLINE
  5
23E
100
AcDbEntity
  8
ASSI
100
AcDbPolyline
 62
250
  6
CONTINUOUS
 90
5
 70
0
 10
-10.944230965
 20
19.5799620378
 10
-10.9631451027
 20
19.5452326486
 10
-10.979866731
 20
19.5099531291
 10
-10.9944924964
 20
19.4741433426
 10
-11.0069257524
 20
19.4377834258
  0
LWPOLYLINE
  5
23F
100
AcDbEntity
  8
ASSI
100
AcDbPolyline
 62
250
  6
CONTINUOUS
 90
6
 70
0
 10
-10.8483351235
 20
19.6484933588
 10
-10.8431271518
 20
19.6562562574
 10
-10.8404221641
 20
19.6662756598
 10
-10.8402831915
 20
19.6783638819
 10
-10.8427125812
 20
19.6923156514
 10
-10.8476690692
 20
19.7078940523
  0
LWPOLYLINE
  5
240
100
AcDbEntity
  8
ASSI
100
AcDbPolyline
 62
250
  6
CONTINUOUS
 90
6
 70
0
 10
-10.5448467482
 20
19.9597605595
 10
-10.5396969917
 20
19.9674052838
 10
-10.5369574752
 20
19.9774257533
 10
-10.5367968848
 20
19.9895327375
 10
-10.5392208779
 20
20.0035203477
 10
-10.5441904746
 20
20.0191512131
  0
LWPOLYLINE
  5
241
100
AcDbEntity
  8
ASSI
100
AcDbPolyline
 62
250
  6
CONTINUOUS
 90
4
 70
0
 10
-10.8749510331
 20
19.6775261469
 10
-10.9001339302
 20
19.6461087869
 10
-10.9232169485
 20
19.6136428052
 10
-10.944230965
 20
19.5799620378
  0
LINE
  5
242
100
AcDbEntity
  8
ASSI
100
AcDbLine
 62
250
  6
CONTINUOUS
 10
-10.8476682571
 20
19.7078948852
 11
-10.8749510331
 21
19.6775261469
  0
LINE
  5
243
100
AcDbEntity
  8
ASSI
100
AcDbLine
 62
250
  6
CONTINUOUS
 10
-10.5441904746
 20
20.0191512131
 11
-10.8476682571
 21
19.7078948852
  0
LINE
  5
244
100
AcDbEntity
  8
ASSI
100
AcDbLine
 62
7
  6
CONTINUOUS
 10
-10.5448590651
 20
19.9597479181
 11
-10.8483376599
 21
19.648490757
  0
LINE
  5
245
100
AcDbEntity
  8
RACCORDO
100
AcDbLine
 62
250
  6
CONTINUOUS
 10
-19.2149046942
 20
21.98081331
 11
-19.2337668804
 21
21.970420046
  0
LINE
  5
246
100
AcDbEntity
  8
RACCORDO
100
AcDbLine
 62
7
  6
CONTINUOUS
 10
-18.1656006318
 20
22.4075485935
 11
-19.0629149295
 21
21.9977611504
  0
LINE
  5
247
100
AcDbEntity
  8
RACCORDO
100
AcDbLine
 62
250
  6
CONTINUOUS
 10
-17.9604476281
 20
22.3748243622
 11
-18.9246567841
 21
21.9344872299
  0
LWPOLYLINE
  5
248
100
AcDbEntity
  8
RACCORDO
100
AcDbPolyline
 62
250
  6
CONTINUOUS
 90
6
 70
0
 10
-17.9604476281
 20
22.3748243622
 10
-17.9363567156
 20
22.3856056671
 10
-17.913082787
 20
22.3912104521
 10
-17.891309704
 20
22.3914742089
 10
-17.8716771601
 20
22.3863893675
 10
-17.8641775737
 20
22.3826700027
  0
LINE
  5
249
100
AcDbEntity
  8
ASSI
100
AcDbLine
 62
250
  6
CONTINUOUS
 10
-1.6898395567
 20
-23.3513614731
 11
-1.3863615846
 21
-23.299717686
  0
LINE
  5
24A
100
AcDbEntity
  8
ASSI
100
AcDbLine
 62
250
  6
CONTINUOUS
 10
-1.7853391867
 20
-23.0897703258
 11
-1.4818605921
 21
-23.0381264328
  0
LINE
  5
24B
100
AcDbEntity
  8
ASSI
100
AcDbLine
 62
250
  6
CONTINUOUS
 10
-1.7985656738
 20
-23.0912403766
 11
-1.785339755
 21
-23.0897699977
  0
LWPOLYLINE
  5
24C
100
AcDbEntity
  8
ASSI
100
AcDbPolyline
 62
7
  6
CONTINUOUS
 90
7
 70
0
 10
-1.8139756474
 20
-23.1021935673
 10
-1.8134921943
 20
-23.1030123256
 10
-1.8127810838
 20
-23.1043876372
 10
-1.8132615737
 20
-23.1030021488
 10
-1.8143326185
 20
-23.0988079424
 10
-1.815474295
 20
-23.0920394052
 10
-1.8163172031
 20
-23.0827736223
  0
LINE
  5
24D
100
AcDbEntity
  8
ASSI
100
AcDbLine
 62
250
  6
CONTINUOUS
 10
-11.0305254051
 20
19.2916703817
 11
-11.0305254051
 21
18.8106739634
  0
LINE
  5
24E
100
AcDbEntity
  8
ASSI
100
AcDbLine
 62
7
  6
CONTINUOUS
 10
-10.9743933652
 20
19.3718888119
 11
-10.9743933652
 21
18.8419677005
  0
LINE
  5
24F
100
AcDbEntity
  8
ASSI
100
AcDbLine
 62
250
  6
CONTINUOUS
 10
-10.5441904746
 20
20.3884622026
 11
-10.5441904746
 21
20.0191512131
  0
LINE
  5
250
100
AcDbEntity
  8
ASSI
100
AcDbLine
 62
7
  6
CONTINUOUS
 10
-10.4880584347
 20
20.46867961
 11
-10.4880584347
 21
20.0993686205
  0
LWPOLYLINE
  5
251
100
AcDbEntity
  8
ASSI
100
AcDbPolyline
 62
7
  6
CONTINUOUS
 90
15
 70
0
 10
-10.9743933654
 20
19.3718834432
 10
-10.9739630174
 20
19.3849707597
 10
-10.9724692968
 20
19.4006082636
 10
-10.9696973396
 20
19.4182742285
 10
-10.9654530688
 20
19.4378357014
 10
-10.9596208929
 20
19.4589415953
 10
-10.9522074919
 20
19.4810253333
 10
-10.9432165783
 20
19.503753828
 10
-10.9326931045
 20
19.5267927393
 10
-10.9208467395
 20
19.5495635282
 10
-10.9078226774
 20
19.5717546663
 10
-10.8938262718
 20
19.593029801
 10
-10.8792786204
 20
19.6128307873
 10
-10.8644317288
 20
19.6309535728
 10
-10.8483351217
 20
19.6484933607
  0
LINE
  5
252
100
AcDbEntity
  8
ASSI
100
AcDbLine
 62
7
  6
CONTINUOUS
 10
-11.271683145
 20
18.6213883484
 11
-11.2751035469
 21
18.5782212525
  0
LWPOLYLINE
  5
253
100
AcDbEntity
  8
ASSI
100
AcDbPolyline
 62
250
  6
CONTINUOUS
 90
7
 70
0
 10
-10.4880584347
 20
20.46867961
 10
-10.4894429341
 20
20.4551155148
 10
-10.4941701265
 20
20.4403503898
 10
-10.5021728333
 20
20.4260680113
 10
-10.513312138
 20
20.4125103679
 10
-10.5273980248
 20
20.3999044667
 10
-10.5441904746
 20
20.3884622026
  0
LWPOLYLINE
  5
254
100
AcDbEntity
  8
ASSI
100
AcDbPolyline
 62
250
  6
CONTINUOUS
 90
7
 70
0
 10
-10.4880584347
 20
20.0993686205
 10
-10.4894697278
 20
20.0856743641
 10
-10.4942066561
 20
20.070956182
 10
-10.5022043358
 20
20.0567112362
 10
-10.5133325282
 20
20.0431782357
 10
-10.5274060476
 20
20.0305872297
 10
-10.5441904746
 20
20.0191512131
  0
LWPOLYLINE
  5
255
100
AcDbEntity
  8
ASSI
100
AcDbPolyline
 62
250
  6
CONTINUOUS
 90
7
 70
0
 10
-10.9743933654
 20
19.3718834433
 10
-10.9758488945
 20
19.3579823637
 10
-10.9806189913
 20
19.3433008894
 10
-10.9886314546
 20
19.3290977679
 10
-10.9997522142
 20
19.3156106556
 10
-11.01379519
 20
19.3030652282
 10
-11.0305254051
 20
19.2916714045
  0
LWPOLYLINE
  5
256
100
AcDbEntity
  8
ASSI
100
AcDbPolyline
 62
250
  6
CONTINUOUS
 90
9
 70
0
 10
-8.2106398258
 20
20.4891787034
 10
-8.2116045771
 20
20.4863730051
 10
-8.2116128682
 20
20.4790587502
 10
-8.2086092368
 20
20.4704941182
 10
-8.2026421983
 20
20.4608260041
 10
-8.1938317844
 20
20.4502374974
 10
-8.1823495212
 20
20.4389167009
 10
-8.1683948328
 20
20.4270464611
 10
-8.1522105776
 20
20.4148236956
  0
LWPOLYLINE
  5
257
100
AcDbEntity
  8
ASSI
100
AcDbPolyline
 62
250
  6
CONTINUOUS
 90
9
 70
0
 10
-8.5924520965
 20
19.6793081876
 10
-8.5934035335
 20
19.6765603199
 10
-8.593440066
 20
19.6692681672
 10
-8.5904759842
 20
19.6607346903
 10
-8.5845601859
 20
19.6511006635
 10
-8.5757902622
 20
19.6405250167
 10
-8.5643108879
 20
19.629182213
 10
-8.550311435
 20
19.6172593715
 10
-8.5340228482
 20
19.6049531798
  0
LWPOLYLINE
  5
258
100
AcDbEntity
  8
ASSI
100
AcDbPolyline
 62
250
  6
CONTINUOUS
 90
10
 70
0
 10
-8.1522105776
 20
20.4148236956
 10
-8.1431734421
 20
20.4359070419
 10
-8.132602261
 20
20.4565574396
 10
-8.1206399912
 20
20.4764956274
 10
-8.1074484015
 20
20.4954519756
 10
-8.0932058855
 20
20.5131701318
 10
-8.0781050487
 20
20.5294104879
 10
-8.0623501042
 20
20.5439534207
 10
-8.0461541104
 20
20.5566022618
 10
-8.0297360904
 20
20.5671859571
  0
LINE
  5
259
100
AcDbEntity
  8
ASSI
100
AcDbLine
 62
7
  6
CONTINUOUS
 10
-8.5924520965
 20
19.6793081876
 11
-8.2106398258
 21
20.4891787034
  0
LINE
  5
25A
100
AcDbEntity
  8
ASSI
100
AcDbLine
 62
250
  6
CONTINUOUS
 10
-8.5340228482
 20
19.6049531798
 11
-8.1522105776
 21
20.4148236956
  0
LWPOLYLINE
  5
25B
100
AcDbEntity
  8
ASSI
100
AcDbPolyline
 62
7
  6
CONTINUOUS
 90
13
 70
0
 10
-8.5924512081
 20
19.6793100715
 10
-8.6026348484
 20
19.6589473334
 10
-8.6149660619
 20
19.6369423589
 10
-8.628551732
 20
19.6151951538
 10
-8.6432157382
 20
19.5940019365
 10
-8.6587533383
 20
19.573652063
 10
-8.6749887582
 20
19.5543534053
 10
-8.6916896185
 20
19.5363499117
 10
-8.7085730495
 20
19.5198859565
 10
-8.7253259353
 20
19.5051821369
 10
-8.7415919304
 20
19.4924304327
 10
-8.7570240052
 20
19.4817527306
 10
-8.7705414555
 20
19.473610716
  0
LINE
  5
25C
100
AcDbEntity
  8
ASSI
100
AcDbLine
 62
250
  6
CONTINUOUS
 10
-12.7600430695
 20
19.4356067222
 11
-10.6855902917
 21
20.6333738698
  0
LINE
  5
25D
100
AcDbEntity
  8
ASSI
100
AcDbLine
 62
250
  6
CONTINUOUS
 10
-12.4772573427
 20
19.2723297877
 11
-10.5441904746
 21
20.3884622026
  0
LINE
  5
25E
100
AcDbEntity
  8
RACCORDO
100
AcDbLine
 62
7
  6
CONTINUOUS
 10
-3.6043596372
 20
24.1553159895
 11
-3.571263008
 21
24.1738225269
  0
LINE
  5
25F
100
AcDbEntity
  8
ASSI
100
AcDbLine
 62
250
  6
CONTINUOUS
 10
-10.1173316001
 20
20.5162228194
 11
-10.4880584347
 21
20.3113496585
  0
LINE
  5
260
100
AcDbEntity
  8
ASSI
100
AcDbLine
 62
250
  6
CONTINUOUS
 10
-8.6355574516
 20
21.3349386908
 11
-10.1173316001
 21
20.5162228194
  0
LINE
  5
261
100
AcDbEntity
  8
ASSI
100
AcDbLine
 62
250
  6
CONTINUOUS
 10
-10.4033032431
 20
19.9048450158
 11
-10.8262548995
 21
19.6711395284
  0
LINE
  5
262
100
AcDbEntity
  8
ASSI
100
AcDbLine
 62
250
  6
CONTINUOUS
 10
-7.9760425279
 20
21.2456845058
 11
-10.4033032431
 21
19.9048450158
  0
LINE
  5
263
100
AcDbEntity
  8
RACCORDO
100
AcDbLine
 62
250
  6
CONTINUOUS
 10
-3.5491010766
 20
24.115702445
 11
-6.6681456381
 21
22.4002610616
  0
LINE
  5
264
100
AcDbEntity
  8
RACCORDO
100
AcDbLine
 62
250
  6
CONTINUOUS
 10
-3.4488489873
 20
24.0098093779
 11
-6.4387961697
 21
22.3654066179
  0
LINE
  5
265
100
AcDbEntity
  8
ASSI
100
AcDbLine
 62
250
  6
CONTINUOUS
 10
-6.9191321763
 20
22.2787705198
 11
-8.6355574516
 21
21.3349386908
  0
LINE
  5
266
100
AcDbEntity
  8
ASSI
100
AcDbLine
 62
250
  6
CONTINUOUS
 10
-6.2679342145
 20
22.1849585211
 11
-7.9761023105
 21
21.2457190235
  0
LINE
  5
267
100
AcDbEntity
  8
DRAFT
100
AcDbLine
 62
7
  6
CONTINUOUS
 10
-3.7025975316
 20
24.1017258183
 11
-10.4880584347
 21
20.3749577536
  0
LINE
  5
268
100
AcDbEntity
  8
0
100
AcDbLine
 62
7
  6
CONTINUOUS
 10
-7.195131183
 20
22.15449618
 11
-10.4164324757
 21
20.385366094
  0
LINE
  5
269
100
AcDbEntity
  8
DRAFT
100
AcDbLine
 62
7
  6
CONTINUOUS
 10
-7.1481063064
 20
22.1893833572
 11
-10.4829803123
 21
20.360953306
  0
LWPOLYLINE
  5
26A
100
AcDbEntity
  8
RACCORDO
100
AcDbPolyline
 62
7
  6
CONTINUOUS
 90
3
 70
0
 10
-3.571263008
 20
24.1738225269
 10
-3.5336247777
 20
24.1944946008
 10
-3.4914802839
 20
24.2173935063
  0
LINE
  5
26B
100
AcDbEntity
  8
ASSI
100
AcDbLine
 62
7
  6
CONTINUOUS
 10
-12.2914736051
 20
21.5159235084
 11
-14.39957759
 21
20.3822534062
  0
LINE
  5
26C
100
AcDbEntity
  8
ASSI
100
AcDbLine
 62
250
  6
CONTINUOUS
 10
-12.1942802653
 20
21.5044725522
 11
-14.3424390012
 21
20.3492623011
  0
LWPOLYLINE
  5
26D
100
AcDbEntity
  8
ASSI
100
AcDbPolyline
 62
250
  6
CONTINUOUS
 90
7
 70
0
 10
-10.6855902917
 20
20.6333738698
 10
-10.6673585371
 20
20.6421668267
 10
-10.649473143
 20
20.648056895
 10
-10.6322333785
 20
20.6509455176
 10
-10.6159277184
 20
20.6507843601
 10
-10.6008289891
 20
20.6475761202
 10
-10.5880536027
 20
20.6418819009
  0
LINE
  5
26E
100
AcDbEntity
  8
RACCORDO
100
AcDbLine
 62
250
  6
CONTINUOUS
 10
-19.3180542071
 20
-0.3731290629
 11
-4.4498400387
 21
-8.9578495812
  0
LINE
  5
26F
100
AcDbEntity
  8
RACCORDO
100
AcDbLine
 62
7
  6
CONTINUOUS
 10
-2.9396917676
 20
-10.8142329176
 11
-3.3585594811
 21
-10.5554944777
  0
LWPOLYLINE
  5
270
100
AcDbEntity
  8
RACCORDO
100
AcDbPolyline
 62
250
  6
CONTINUOUS
 90
9
 70
0
 10
-19.3180542071
 20
0.9113173803
 10
-19.3525240195
 20
0.9333825231
 10
-19.3828829724
 20
0.9573766049
 10
-19.408809432
 20
0.9830454237
 10
-19.4300287237
 20
1.0101170348
 10
-19.4463160426
 20
1.0383046315
 10
-19.4574988347
 20
1.0673095839
 10
-19.4634586255
 20
1.096824603
 10
-19.4645008165
 20
1.1154546769
  0
LWPOLYLINE
  5
271
100
AcDbEntity
  8
RACCORDO
100
AcDbPolyline
 62
250
  6
CONTINUOUS
 90
9
 70
0
 10
-19.2145128965
 20
0.6824489497
 10
-19.2311648387
 20
0.6934393832
 10
-19.2537556323
 20
0.7136973522
 10
-19.2731698905
 20
0.7381635614
 10
-19.2892516245
 20
0.766555132
 10
-19.3018411509
 20
0.7984723381
 10
-19.3108538469
 20
0.8335052421
 10
-19.3162586288
 20
0.8712630086
 10
-19.3180542071
 20
0.9113173803
  0
LWPOLYLINE
  5
272
100
AcDbEntity
  8
RACCORDO
100
AcDbPolyline
 62
250
  6
CONTINUOUS
 90
3
 70
0
 10
-4.0694242983
 20
-8.3751507502
 10
-4.0336027232
 20
-8.4035091006
 10
-3.9984713012
 20
-8.4357235483
  0
LWPOLYLINE
  5
273
100
AcDbEntity
  8
RACCORDO
100
AcDbPolyline
 62
250
  6
CONTINUOUS
 90
11
 70
0
 10
-3.9984713012
 20
-8.4357235483
 10
-3.964412881
 20
-8.4714438549
 10
-3.9318068144
 20
-8.5102730065
 10
-3.9010228764
 20
-8.5517680834
 10
-3.8724044754
 20
-8.5954588477
 10
-3.8462559672
 20
-8.6408727607
 10
-3.8228535374
 20
-8.687527119
 10
-3.8024277823
 20
-8.734976861
 10
-3.7852390733
 20
-8.7826339496
 10
-3.7715233894
 20
-8.8297915604
 10
-3.7614013128
 20
-8.875881569
  0
LWPOLYLINE
  5
274
100
AcDbEntity
  8
ASSI
100
AcDbPolyline
 62
250
  6
CONTINUOUS
 90
6
 70
0
 10
-1.4048834945
 20
-23.124204457
 10
-1.3948502035
 20
-23.147777883
 10
-1.3871394221
 20
-23.1725469347
 10
-1.3818691189
 20
-23.1981171381
 10
-1.3791288387
 20
-23.2240602285
 10
-1.3789678682
 20
-23.249936155
  0
LINE
  5
275
100
AcDbEntity
  8
ASSI
100
AcDbLine
 62
7
  6
CONTINUOUS
 10
-7.1187791619
 20
16.1784116436
 11
-7.1221995637
 21
16.2255285339
  0
LINE
  5
276
100
AcDbEntity
  8
ASSI
100
AcDbLine
 62
250
  6
CONTINUOUS
 10
-7.0306857617
 20
20.2497623956
 11
-7.0308879236
 21
20.244366706
  0
LWPOLYLINE
  5
277
100
AcDbEntity
  8
ASSI
100
AcDbPolyline
 62
250
  6
CONTINUOUS
 90
12
 70
0
 10
-4.2044883181
 20
21.6933289663
 10
-4.1996748222
 20
21.7152580881
 10
-4.1917438872
 20
21.7370985674
 10
-4.1808312074
 20
21.7584767108
 10
-4.1671234987
 20
21.7790267281
 10
-4.1508553084
 20
21.7983969926
 10
-4.1323049937
 20
21.81625607
 10
-4.111789953
 20
21.8322983904
 10
-4.0896612018
 20
21.8462494665
 10
-4.0662973682
 20
21.857870591
 10
-4.0420982148
 20
21.8669629217
 10
-4.0174777959
 20
21.8733708853
  0
LWPOLYLINE
  5
278
100
AcDbEntity
  8
ASSI
100
AcDbPolyline
 62
250
  6
CONTINUOUS
 90
13
 70
0
 10
-6.8664771288
 20
20.2569478825
 10
-6.8608873147
 20
20.281105653
 10
-6.8576602439
 20
20.3060494311
 10
-6.85684786
 20
20.3313777955
 10
-6.8584632451
 20
20.3566831157
 10
-6.8624804112
 20
20.3815581643
 10
-6.8688347347
 20
20.4056026669
 10
-6.8774239785
 20
20.4284296596
 10
-6.8881099335
 20
20.4496717579
 10
-6.9007206665
 20
20.4689871106
 10
-6.915053259
 20
20.4860648379
 10
-6.9308770612
 20
20.5006300453
 10
-6.9479374242
 20
20.5124482791
  0
LWPOLYLINE
  5
279
100
AcDbEntity
  8
ASSI
100
AcDbPolyline
 62
250
  6
CONTINUOUS
 90
13
 70
0
 10
-5.2849176479
 20
20.2953102773
 10
-5.2793277774
 20
20.3194683825
 10
-5.2761007174
 20
20.3444124757
 10
-5.2752884028
 20
20.3697411184
 10
-5.2769039066
 20
20.3950466834
 10
-5.2809212296
 20
20.4199219147
 10
-5.2872757189
 20
20.443966482
 10
-5.2958651083
 20
20.4667934234
 10
-5.3065511643
 20
20.4880353727
 10
-5.3191619104
 20
20.5073504721
 10
-5.3334943953
 20
20.5244278732
 10
-5.3493179586
 20
20.5389927406
 10
-5.3663779434
 20
20.550810674
  0
LWPOLYLINE
  5
27A
100
AcDbEntity
  8
ASSI
100
AcDbPolyline
 62
250
  6
CONTINUOUS
 90
13
 70
0
 10
-4.2383164041
 20
20.4735854236
 10
-4.2439064513
 20
20.4494263373
 10
-4.2471334804
 20
20.4244814224
 10
-4.2479456121
 20
20.3991521705
 10
-4.2463298367
 20
20.3738462546
 10
-4.2423122184
 20
20.3489709304
 10
-4.2359574629
 20
20.3249264846
 10
-4.2273678896
 20
20.3020998637
 10
-4.2166817749
 20
20.2808583876
 10
-4.2040710984
 20
20.2615438173
 10
-4.1897388139
 20
20.2444669418
 10
-4.1739155988
 20
20.2299025628
 10
-4.1568561087
 20
20.218085027
  0
LWPOLYLINE
  5
27B
100
AcDbEntity
  8
ASSI
100
AcDbPolyline
 62
250
  6
CONTINUOUS
 90
13
 70
0
 10
-4.6870430673
 20
17.3837552683
 10
-4.6916681047
 20
17.3664908358
 10
-4.6972225995
 20
17.3497051811
 10
-4.7036168928
 20
17.3335075572
 10
-4.7106885239
 20
17.3181099397
 10
-4.7184082403
 20
17.3034764974
 10
-4.7269297643
 20
17.2893681879
 10
-4.7362518598
 20
17.2758169184
 10
-4.7462662238
 20
17.2630338007
 10
-4.7570038833
 20
17.2511043649
 10
-4.7684237801
 20
17.2401540962
 10
-4.7804053779
 20
17.2303312352
 10
-4.7928507383
 20
17.2217697959
  0
LINE
  5
27C
100
AcDbEntity
  8
ASSI
100
AcDbLine
 62
250
  6
CONTINUOUS
 10
-4.4156563838
 20
18.2573841341
 11
-4.6870413779
 21
17.3837542928
  0
LINE
  5
27D
100
AcDbEntity
  8
ASSI
100
AcDbLine
 62
250
  6
CONTINUOUS
 10
-4.1498520056
 20
18.1807754543
 11
-4.4212368215
 21
17.3071461866
  0
LWPOLYLINE
  5
27E
100
AcDbEntity
  8
ASSI
100
AcDbPolyline
 62
250
  6
CONTINUOUS
 90
13
 70
0
 10
-4.4212368215
 20
17.3071461866
 10
-4.432889107
 20
17.2735024046
 10
-4.4459130463
 20
17.2411436014
 10
-4.4603086392
 20
17.2100697769
 10
-4.4760726468
 20
17.1802973679
 10
-4.4932083081
 20
17.1518099377
 10
-4.5117253405
 20
17.1245581761
 10
-4.5317134282
 20
17.0983070985
 10
-4.553082887
 20
17.0732916896
 10
-4.5755743816
 20
17.0501675931
 10
-4.5991014669
 20
17.0291533569
 10
-4.623750588
 20
17.0100304332
 10
-4.649521745
 20
16.9927988218
  0
LWPOLYLINE
  5
27F
100
AcDbEntity
  8
ASSI
100
AcDbPolyline
 62
7
  6
CONTINUOUS
 90
7
 70
0
 10
-4.1880634862
 20
21.6596570511
 10
-4.1877148952
 20
21.6602005218
 10
-4.1882700629
 20
21.6595571684
 10
-4.1910315918
 20
21.6567594368
 10
-4.1962186456
 20
21.6523651919
 10
-4.2036819918
 20
21.6470231055
 10
-4.2140693877
 20
21.6407229589
  0
LINE
  5
280
100
AcDbEntity
  8
ASSI
100
AcDbLine
 62
7
  6
CONTINUOUS
 10
-0.8811336367
 20
20.4050174653
 11
-0.4111133773
 21
21.0049468456
  0
LWPOLYLINE
  5
281
100
AcDbEntity
  8
ASSI
100
AcDbPolyline
 62
250
  6
CONTINUOUS
 90
9
 70
0
 10
-6.6706160619
 20
16.4955673329
 10
-6.6550521058
 20
16.5119188875
 10
-6.6420933443
 20
16.5290740423
 10
-6.6319499412
 20
16.5467514796
 10
-6.6247861659
 20
16.5646603725
 10
-6.6207161021
 20
16.5825090858
 10
-6.61980414
 20
16.6000098222
 10
-6.6220697843
 20
16.6168973188
 10
-6.6242862459
 20
16.6247201618
  0
LWPOLYLINE
  5
282
100
AcDbEntity
  8
ASSI
100
AcDbPolyline
 62
250
  6
CONTINUOUS
 90
8
 70
0
 10
-6.5457348193
 20
16.1225158031
 10
-6.5302211104
 20
16.1388083527
 10
-6.5172907347
 20
16.1559040583
 10
-6.507153984
 20
16.1735248862
 10
-6.4999757159
 20
16.191384262
 10
-6.4958726733
 20
16.209191732
 10
-6.4949115857
 20
16.2266576868
 10
-6.4971080834
 20
16.2434980707
  0
LWPOLYLINE
  5
283
100
AcDbEntity
  8
ASSI
100
AcDbPolyline
 62
250
  6
CONTINUOUS
 90
10
 70
0
 10
-0.4111111141
 20
21.0049497334
 10
-0.4063778393
 20
21.0086826527
 10
-0.3996114553
 20
21.0105991994
 10
-0.3908210924
 20
21.0107663679
 10
-0.3801065936
 20
21.0091849182
 10
-0.3675868781
 20
21.0058745816
 10
-0.3534164937
 20
21.000879861
 10
-0.3377624351
 20
20.9942651041
 10
-0.32079619
 20
20.9861077233
 10
-0.3027067475
 20
20.9765026641
  0
LWPOLYLINE
  5
284
100
AcDbEntity
  8
ASSI
100
AcDbPolyline
 62
250
  6
CONTINUOUS
 90
4
 70
0
 10
-7.0176596138
 20
20.2641216476
 10
-7.024142858
 20
20.2601094465
 10
-7.0284774735
 20
20.2553555205
 10
-7.0306857617
 20
20.2497623956
  0
LINE
  5
285
100
AcDbEntity
  8
ASSI
100
AcDbLine
 62
250
  6
CONTINUOUS
 10
-2.3242101306
 20
22.1857588664
 11
-4.9122211236
 21
20.6914737544
  0
LINE
  5
286
100
AcDbEntity
  8
ASSI
100
AcDbLine
 62
250
  6
CONTINUOUS
 10
-2.1829825874
 20
21.9494679481
 11
-4.7709935804
 21
20.4551828361
  0
LINE
  5
287
100
AcDbEntity
  8
ASSI
100
AcDbLine
 62
250
  6
CONTINUOUS
 10
-4.4499321966
 20
20.4077555465
 11
-5.8763870604
 21
19.5841383858
  0
LINE
  5
288
100
AcDbEntity
  8
ASSI
100
AcDbLine
 62
250
  6
CONTINUOUS
 10
-4.3087046534
 20
20.1714646282
 11
-5.6011525343
 21
19.42522142
  0
LINE
  5
289
100
AcDbEntity
  8
0
100
AcDbLine
 62
7
  6
CONTINUOUS
 10
-2.958351276
 20
20.5046323291
 11
-2.0060059011
 21
21.0545046128
  0
LINE
  5
28A
100
AcDbEntity
  8
RACCORDO
100
AcDbLine
 62
7
  6
CONTINUOUS
 10
-0.0240738012
 20
22.1988473678
 11
0.9503742788
 21
22.7614814766
  0
LWPOLYLINE
  5
28B
100
AcDbEntity
  8
ASSI
100
AcDbPolyline
 62
250
  6
CONTINUOUS
 90
16
 70
0
 10
-8.6731622217
 20
19.4622130147
 10
-8.661143174
 20
19.4690938417
 10
-8.6495366703
 20
19.4766270488
 10
-8.6383980429
 20
19.4846544537
 10
-8.6278254987
 20
19.4929605257
 10
-8.6177838422
 20
19.5014684389
 10
-8.6081221691
 20
19.5102837709
 10
-8.5988836034
 20
19.5193195186
 10
-8.5900605017
 20
19.5285071445
 10
-8.581455642
 20
19.538058821
 10
-8.5731348255
 20
19.5479097066
 10
-8.565095024
 20
19.5580430868
 10
-8.5571016366
 20
19.5688036019
 10
-8.5491520454
 20
19.5802992305
 10
-8.5414278284
 20
19.5923662341
 10
-8.5340228482
 20
19.6049531798
  0
LINE
  5
28C
100
AcDbEntity
  8
DRAFT
100
AcDbLine
 62
7
  6
CONTINUOUS
 10
0.6690754102
 20
23.2471980718
 11
1.758392612
 21
23.8652757225
  0
LINE
  5
28D
100
AcDbEntity
  8
RACCORDO
100
AcDbLine
 62
7
  6
CONTINUOUS
 10
-1.9696133721
 20
23.0341745206
 11
0.3085770467
 21
24.3264133247
  0
LINE
  5
28E
100
AcDbEntity
  8
SMUSSO
100
AcDbLine
 62
7
  6
CONTINUOUS
 10
0.019611884
 20
23.1870628475
 11
1.4652196205
 21
24.0070427742
  0
LWPOLYLINE
  5
28F
100
AcDbEntity
  8
ASSI
100
AcDbPolyline
 62
250
  6
CONTINUOUS
 90
16
 70
0
 10
-4.9122211236
 20
20.6914737544
 10
-4.944562986
 20
20.6734098211
 10
-4.9761498256
 20
20.6569184123
 10
-5.0069568953
 20
20.6419327574
 10
-5.0367250784
 20
20.6284906723
 10
-5.0656773126
 20
20.6164021667
 10
-5.0945097359
 20
20.6053302031
 10
-5.1232308153
 20
20.5952641864
 10
-5.1517909213
 20
20.5862222536
 10
-5.1807810905
 20
20.5780451341
 10
-5.2102322689
 20
20.570781328
 10
-5.2400432691
 20
20.5645202266
 10
-5.2705817195
 20
20.5592745485
 10
-5.3019269374
 20
20.5551483003
 10
-5.3338812916
 20
20.5522858254
 10
-5.3663779434
 20
20.550810674
  0
LINE
  5
290
100
AcDbEntity
  8
ASSI
100
AcDbLine
 62
7
  6
CONTINUOUS
 10
-8.1271244247
 20
20.5785787998
 11
-7.985863945
 21
20.6573318315
  0
LINE
  5
291
100
AcDbEntity
  8
ASSI
100
AcDbLine
 62
250
  6
CONTINUOUS
 10
-8.0297360904
 20
20.5671859571
 11
-7.8884756505
 21
20.6459389667
  0
LINE
  5
292
100
AcDbEntity
  8
ASSI
100
AcDbLine
 62
7
  6
CONTINUOUS
 10
-11.2299337632
 20
18.6995033602
 11
-10.7629870868
 21
18.959827171
  0
LINE
  5
293
100
AcDbEntity
  8
ASSI
100
AcDbLine
 62
250
  6
CONTINUOUS
 10
-11.1307781508
 20
18.689095779
 11
-10.6655987525
 21
18.9484343283
  0
LINE
  5
294
100
AcDbEntity
  8
ASSI
100
AcDbLine
 62
7
  6
CONTINUOUS
 10
-10.1378187872
 20
18.7113505631
 11
-8.7705503686
 21
19.4736057479
  0
LINE
  5
295
100
AcDbEntity
  8
ASSI
100
AcDbLine
 62
250
  6
CONTINUOUS
 10
-10.0799391041
 20
18.6779315595
 11
-8.6731620332
 21
19.4622129058
  0
LINE
  5
296
100
AcDbEntity
  8
ASSI
100
AcDbLine
 62
7
  6
CONTINUOUS
 10
-2.8118372898
 20
22.4224707157
 11
-3.2963278871
 21
22.15236613
  0
LINE
  5
297
100
AcDbEntity
  8
ASSI
100
AcDbLine
 62
7
  6
CONTINUOUS
 10
-5.4452551506
 20
20.9543441243
 11
-4.2142064369
 21
21.6406467967
  0
LINE
  5
298
100
AcDbEntity
  8
ASSI
100
AcDbLine
 62
250
  6
CONTINUOUS
 10
-5.3478064054
 20
20.9429752369
 11
-4.1168178732
 21
21.6292540819
  0
LINE
  5
299
100
AcDbEntity
  8
SMUSSO
100
AcDbLine
 62
7
  6
CONTINUOUS
 10
-5.378564736
 20
21.6714477307
 11
-2.5075238005
 21
23.2712857478
  0
LINE
  5
29A
100
AcDbEntity
  8
ASSI
100
AcDbLine
 62
7
  6
CONTINUOUS
 10
-4.2142064369
 20
21.6406467967
 11
-4.2140693979
 21
21.6407229775
  0
LWPOLYLINE
  5
29B
100
AcDbEntity
  8
ASSI
100
AcDbPolyline
 62
250
  6
CONTINUOUS
 90
16
 70
0
 10
-4.7709935804
 20
20.4551828361
 10
-4.8076823586
 20
20.434835287
 10
-4.843460296
 20
20.4161133721
 10
-4.8783273927
 20
20.3990170912
 10
-4.9120358828
 20
20.3836984059
 10
-4.9448335321
 20
20.3700053546
 10
-4.9774636384
 20
20.3574820536
 10
-5.0099725075
 20
20.3460105206
 10
-5.0423138337
 20
20.3357087378
 10
-5.0750919972
 20
20.3264747672
 10
-5.1084057056
 20
20.3181998458
 10
-5.1421562513
 20
20.3109927367
 10
-5.1766518925
 20
20.3050777902
 10
-5.2119953821
 20
20.3005297899
 10
-5.2480839672
 20
20.2972739523
 10
-5.2849176479
 20
20.2953102773
  0
LINE
  5
29C
100
AcDbEntity
  8
ASSI
100
AcDbLine
 62
250
  6
CONTINUOUS
 10
-2.7057673474
 20
22.4158731568
 11
-3.1989397054
 21
22.1409732022
  0
LWPOLYLINE
  5
29D
100
AcDbEntity
  8
ASSI
100
AcDbPolyline
 62
7
  6
CONTINUOUS
 90
10
 70
0
 10
-5.4452551506
 20
20.9543441243
 10
-5.4575359469
 20
20.9475727044
 10
-5.5203717926
 20
20.9152078653
 10
-5.5817785634
 20
20.8873695356
 10
-5.641270839
 20
20.8641648037
 10
-5.698673536
 20
20.8455261075
 10
-5.7540358862
 20
20.8313153362
 10
-5.8071261866
 20
20.8215035947
 10
-5.8575372921
 20
20.8160570357
 10
-5.8654479397
 20
20.8155771159
  0
LWPOLYLINE
  5
29E
100
AcDbEntity
  8
ASSI
100
AcDbPolyline
 62
250
  6
CONTINUOUS
 90
13
 70
0
 10
-7.8884756505
 20
20.6459389667
 10
-7.8757381833
 20
20.652897134
 10
-7.8633818547
 20
20.6591694809
 10
-7.8514195728
 20
20.664790689
 10
-7.839868295
 20
20.6697950279
 10
-7.8287298784
 20
20.6742194887
 10
-7.8179914749
 20
20.678101706
 10
-7.8076552773
 20
20.6814763795
 10
-7.7977267802
 20
20.6843766661
 10
-7.7881959426
 20
20.6868352067
 10
-7.7790610928
 20
20.6888847356
 10
-7.7703232428
 20
20.6905567855
 10
-7.7619747238
 20
20.6918804826
  0
LINE
  5
29F
100
AcDbEntity
  8
RACCORDO
100
AcDbLine
 62
7
  6
CONTINUOUS
 10
-2.7696052164
 20
23.8439578789
 11
-0.9434709013
 21
24.8259938175
  0
LINE
  5
2A0
100
AcDbEntity
  8
RACCORDO
100
AcDbLine
 62
250
  6
CONTINUOUS
 10
-2.7135248319
 20
23.5555241496
 11
-0.4575042022
 21
24.7687390366
  0
LWPOLYLINE
  5
2A1
100
AcDbEntity
  8
ASSI
100
AcDbPolyline
 62
250
  6
CONTINUOUS
 90
20
 70
0
 10
-3.1989397054
 20
22.1409732022
 10
-3.2083741384
 20
22.1359056972
 10
-3.2178963541
 20
22.1310810455
 10
-3.2275063525
 20
22.1264992473
 10
-3.2372082692
 20
22.1221695657
 10
-3.2469979686
 20
22.1180827375
 10
-3.2568630437
 20
22.114210973
 10
-3.2667987336
 20
22.1105522012
 10
-3.2768097991
 20
22.1071084929
 10
-3.2868981168
 20
22.1038582712
 10
-3.2970600449
 20
22.1007992396
 10
-3.3072992251
 20
22.0979336945
 10
-3.3176284581
 20
22.0952469481
 10
-3.3280454145
 20
22.0927364716
 10
-3.3385524237
 20
22.0904047938
 10
-3.3491692751
 20
22.0882448141
 10
-3.3598938655
 20
22.0862539116
 10
-3.370728298
 20
22.0844347073
 10
-3.3816986713
 20
22.0827879634
 10
-3.3927893044
 20
22.0813112475
  0
LWPOLYLINE
  5
2A2
100
AcDbEntity
  8
ASSI
100
AcDbPolyline
 62
7
  6
CONTINUOUS
 90
13
 70
0
 10
-3.2963159266
 20
22.1523727731
 10
-3.3057280203
 20
22.1474503916
 10
-3.322387067
 20
22.1400349116
 10
-3.3420964513
 20
22.1328783077
 10
-3.364588523
 20
22.1263724877
 10
-3.3896320516
 20
22.1208349735
 10
-3.4165805836
 20
22.116601593
 10
-3.4450335735
 20
22.1138742795
 10
-3.4744215265
 20
22.1128156183
 10
-3.5037471293
 20
22.1134947409
 10
-3.5324983086
 20
22.115867991
 10
-3.5601115637
 20
22.119828024
 10
-3.5807641546
 20
22.1239653697
  0
LWPOLYLINE
  5
2A3
100
AcDbEntity
  8
ASSI
100
AcDbPolyline
 62
250
  6
CONTINUOUS
 90
8
 70
0
 10
-7.985863945
 20
20.6573318315
 10
-7.9823322306
 20
20.6591601163
 10
-7.9689857409
 20
20.6638646652
 10
-7.9544101804
 20
20.6658029416
 10
-7.9388280491
 20
20.6649453036
 10
-7.9224772061
 20
20.6613048024
 10
-7.9056072328
 20
20.6549369682
 10
-7.8884756505
 20
20.6459389667
  0
LINE
  5
2A4
100
AcDbEntity
  8
ASSI
100
AcDbLine
 62
250
  6
CONTINUOUS
 10
-2.8083040376
 20
22.4242997373
 11
-2.8118372898
 21
22.4224707157
  0
LWPOLYLINE
  5
2A5
100
AcDbEntity
  8
ASSI
100
AcDbPolyline
 62
250
  6
CONTINUOUS
 90
8
 70
0
 10
-8.7705414555
 20
19.473610716
 10
-8.7670172763
 20
19.4754346929
 10
-8.7536707124
 20
19.4801389273
 10
-8.7390952049
 20
19.4820769105
 10
-8.7235132455
 20
19.4812190543
 10
-8.7071626875
 20
19.4775784506
 10
-8.6902931142
 20
19.4712106683
 10
-8.6731620332
 20
19.4622129058
  0
LWPOLYLINE
  5
2A6
100
AcDbEntity
  8
ASSI
100
AcDbPolyline
 62
250
  6
CONTINUOUS
 90
8
 70
0
 10
-3.2963159365
 20
22.1523727908
 10
-3.2927946359
 20
22.1541951511
 10
-3.2794480648
 20
22.1588993492
 10
-3.2648725653
 20
22.160837299
 10
-3.2492906273
 20
22.1599794183
 10
-3.2329401029
 20
22.1563388029
 10
-3.2160705757
 20
22.1499710254
 10
-3.1989395519
 20
22.1409732878
  0
LWPOLYLINE
  5
2A7
100
AcDbEntity
  8
ASSI
100
AcDbPolyline
 62
250
  6
CONTINUOUS
 90
8
 70
0
 10
-4.2140693979
 20
21.6407229775
 10
-4.210673169
 20
21.6424758258
 10
-4.1973265992
 20
21.6471800194
 10
-4.1827511017
 20
21.6491179655
 10
-4.1671691663
 20
21.6482600824
 10
-4.1508186452
 20
21.6446194661
 10
-4.1339491217
 20
21.6382516895
 10
-4.1168181018
 20
21.6292539545
  0
LWPOLYLINE
  5
2A8
100
AcDbEntity
  8
ASSI
100
AcDbPolyline
 62
250
  6
CONTINUOUS
 90
8
 70
0
 10
-10.7629789734
 20
18.9598316935
 10
-10.7592257536
 20
18.961764923
 10
-10.74580429
 20
18.9664317459
 10
-10.73115
 20
18.9683111091
 10
-10.7155457
 20
18.967382674
 10
-10.6992590059
 20
18.9636967819
 10
-10.6825249222
 20
18.9573393059
 10
-10.6655987526
 20
18.9484343282
  0
LWPOLYLINE
  5
2A9
100
AcDbEntity
  8
ASSI
100
AcDbPolyline
 62
250
  6
CONTINUOUS
 90
8
 70
0
 10
-5.4451988904
 20
20.9543755357
 10
-5.4416614871
 20
20.9561971015
 10
-5.4283149175
 20
20.9609012989
 10
-5.4137394198
 20
20.9628392486
 10
-5.398157483
 20
20.9619813683
 10
-5.3818069588
 20
20.9583407531
 10
-5.3649374309
 20
20.9519729755
 10
-5.3478064054
 20
20.9429752369
  0
LWPOLYLINE
  5
2AA
100
AcDbEntity
  8
ASSI
100
AcDbPolyline
 62
250
  6
CONTINUOUS
 90
8
 70
0
 10
-8.1269576557
 20
20.5786714501
 10
-8.1234898517
 20
20.5804562581
 10
-8.1101030094
 20
20.5851455446
 10
-8.0954821072
 20
20.5870564484
 10
-8.0798840235
 20
20.5861632537
 10
-8.0635636174
 20
20.5824992045
 10
-8.0467621264
 20
20.5761362003
 10
-8.0297360904
 20
20.5671859571
  0
LWPOLYLINE
  5
2AB
100
AcDbEntity
  8
ASSI
100
AcDbPolyline
 62
250
  6
CONTINUOUS
 90
9
 70
0
 10
-10.6655987525
 20
18.9484343283
 10
-10.6502027584
 20
18.9563532313
 10
-10.6349897047
 20
18.9622369226
 10
-10.6201404373
 20
18.9660154306
 10
-10.6058314423
 20
18.9676438091
 10
-10.5922328708
 20
18.9671026549
 10
-10.5795064942
 20
18.9643984014
 10
-10.5678036152
 20
18.9595632326
 10
-10.5655939205
 20
18.9583425638
  0
LWPOLYLINE
  5
2AC
100
AcDbEntity
  8
RACCORDO
100
AcDbPolyline
 62
250
  6
CONTINUOUS
 90
7
 70
0
 10
-0.4575042022
 20
24.7687390366
 10
-0.4009415842
 20
24.7976363591
 10
-0.3446992055
 20
24.8211067406
 10
-0.2891438155
 20
24.8389623681
 10
-0.2346028967
 20
24.8510567713
 10
-0.1814810138
 20
24.857258032
 10
-0.1302450234
 20
24.8574928849
  0
LINE
  5
2AD
100
AcDbEntity
  8
SMUSSO
100
AcDbLine
 62
7
  6
CONTINUOUS
 10
-2.7067724983
 20
23.308672025
 11
-5.2982926891
 21
22.0110176543
  0
LINE
  5
2AE
100
AcDbEntity
  8
ASSI
100
AcDbLine
 62
7
  6
CONTINUOUS
 10
-8.5028538332
 20
19.8693570604
 11
-10.4548593015
 21
18.8944057826
  0
LINE
  5
2AF
100
AcDbEntity
  8
0
100
AcDbLine
 62
7
  6
CONTINUOUS
 10
-10.4164324757
 20
20.385366094
 11
-10.4880584347
 21
20.3502801906
  0
LINE
  5
2B0
100
AcDbEntity
  8
RACCORDO
100
AcDbLine
 62
7
  6
CONTINUOUS
 10
-7.0954452726
 20
22.2140725562
 11
-7.1481063064
 21
22.1893833572
  0
LWPOLYLINE
  5
2B1
100
AcDbEntity
  8
RACCORDO
100
AcDbPolyline
 62
7
  6
CONTINUOUS
 90
3
 70
0
 10
-6.9896207018
 20
22.2625078718
 10
-7.0426167377
 20
22.2384473944
 10
-7.0954452726
 20
22.2140725562
  0
LWPOLYLINE
  5
2B2
100
AcDbEntity
  8
ASSI
100
AcDbPolyline
 62
7
  6
CONTINUOUS
 90
7
 70
0
 10
-6.9191321763
 20
22.2787705198
 10
-6.9654461719
 20
22.2586485925
 10
-7.0116345031
 20
22.2382904802
 10
-7.0576971697
 20
22.2176961828
 10
-7.103634172
 20
22.1968657003
 10
-7.1494455097
 20
22.1757990327
 10
-7.195131183
 20
22.15449618
  0
LWPOLYLINE
  5
2B3
100
AcDbEntity
  8
RACCORDO
100
AcDbPolyline
 62
7
  6
CONTINUOUS
 90
4
 70
0
 10
-6.8296275877
 20
22.3328031397
 10
-6.8831247435
 20
22.3096863445
 10
-6.9364564732
 20
22.2862542885
 10
-6.9896207018
 20
22.2625078718
  0
LWPOLYLINE
  5
2B4
100
AcDbEntity
  8
ASSI
100
AcDbPolyline
 62
250
  6
CONTINUOUS
 90
4
 70
0
 10
-5.5154437801
 20
20.8635177738
 10
-5.4616460043
 20
20.8859774505
 10
-5.4057230219
 20
20.9123899975
 10
-5.3478064054
 20
20.9429752369
  0
LWPOLYLINE
  5
2B5
100
AcDbEntity
  8
RACCORDO
100
AcDbPolyline
 62
7
  6
CONTINUOUS
 90
4
 70
0
 10
-6.6681456381
 20
22.4002610616
 10
-6.7221383808
 20
22.3780903483
 10
-6.7759656973
 20
22.3556043744
 10
-6.8296275877
 20
22.3328031397
  0
LWPOLYLINE
  5
2B6
100
AcDbEntity
  8
SMUSSO
100
AcDbPolyline
 62
7
  6
CONTINUOUS
 90
4
 70
0
 10
-2.8589237819
 20
23.7282697842
 10
-2.8140337225
 20
23.7458478814
 10
-2.765440242
 20
23.7661174513
 10
-2.7135248319
 20
23.7890432864
  0
LWPOLYLINE
  5
2B7
100
AcDbEntity
  8
ASSI
100
AcDbPolyline
 62
7
  6
CONTINUOUS
 90
13
 70
0
 10
-6.9191321763
 20
22.2787705198
 10
-6.8733349699
 20
22.2958063563
 10
-6.8256251782
 20
22.3083020721
 10
-6.7760028012
 20
22.3162576672
 10
-6.7242453084
 20
22.3196811653
 10
-6.6705752303
 20
22.3185645428
 10
-6.6156601586
 20
22.3128837284
 10
-6.559479136
 20
22.302554556
 10
-6.5020531199
 20
22.2876611918
 10
-6.4441125733
 20
22.2684320634
 10
-6.3859009841
 20
22.2449433135
 10
-6.3271748645
 20
22.2171187994
 10
-6.2679342145
 20
22.1849585211
  0
LWPOLYLINE
  5
2B8
100
AcDbEntity
  8
ASSI
100
AcDbPolyline
 62
250
  6
CONTINUOUS
 90
10
 70
0
 10
-8.6355574516
 20
21.3349386908
 10
-8.5725668393
 20
21.3573985896
 10
-8.5059672052
 20
21.3717902642
 10
-8.4361749874
 20
21.3780262848
 10
-8.3636198131
 20
21.3760742879
 10
-8.2887632167
 20
21.3659469642
 10
-8.2120960258
 20
21.3477030142
 10
-8.1341064831
 20
21.3214598345
 10
-8.0552769161
 20
21.2873916705
 10
-7.9761023105
 20
21.2457190235
  0
LWPOLYLINE
  5
2B9
100
AcDbEntity
  8
SMUSSO
100
AcDbPolyline
 62
7
  6
CONTINUOUS
 90
3
 70
0
 10
-2.9301199589
 20
23.7032572258
 10
-2.8996851557
 20
23.7133853456
 10
-2.8589237819
 20
23.7282697842
  0
LWPOLYLINE
  5
2BA
100
AcDbEntity
  8
ASSI
100
AcDbPolyline
 62
7
  6
CONTINUOUS
 90
5
 70
0
 10
-2.711893221
 20
22.4638860742
 10
-2.7361699672
 20
22.4564273214
 10
-2.7628768784
 20
22.446303124
 10
-2.7895923532
 20
22.4341525261
 10
-2.8118558058
 20
22.422460389
  0
LINE
  5
2BB
100
AcDbEntity
  8
RACCORDO
100
AcDbLine
 62
250
  6
CONTINUOUS
 10
-18.9737557653
 20
0.2337597887
 11
-19.0117868182
 21
0.2523707862
  0
LWPOLYLINE
  5
2BC
100
AcDbEntity
  8
RACCORDO
100
AcDbPolyline
 62
250
  6
CONTINUOUS
 90
14
 70
0
 10
-4.4498400387
 20
-8.9578495812
 10
-4.4116245525
 20
-8.9777520189
 10
-4.3700682611
 20
-8.9952808978
 10
-4.325611427
 20
-9.0102505106
 10
-4.278725042
 20
-9.0225022638
 10
-4.2299058377
 20
-9.0319063576
 10
-4.179671023
 20
-9.0383631616
 10
-4.1285528039
 20
-9.0418042701
 10
-4.0770927454
 20
-9.0421932267
 10
-4.025836034
 20
-9.0395259107
 10
-3.9753257019
 20
-9.0338305806
 10
-3.9260968741
 20
-9.0251675748
 10
-3.8786710992
 20
-9.0136286722
 10
-3.833550823
 20
-8.9993361204
  0
LINE
  5
2BD
100
AcDbEntity
  8
RACCORDO
100
AcDbLine
 62
250
  6
CONTINUOUS
 10
-18.9737557653
 20
0.2337597887
 11
-4.1055415969
 21
-8.3509607296
  0
LINE
  5
2BE
100
AcDbEntity
  8
RACCORDO
100
AcDbLine
 62
7
  6
CONTINUOUS
 10
-4.0960442987
 20
-8.3454771357
 11
-18.9647431658
 21
0.2395232416
  0
LINE
  5
2BF
100
AcDbEntity
  8
RACCORDO
100
AcDbLine
 62
7
  6
CONTINUOUS
 10
-4.3462987282
 20
-7.9022715686
 11
-19.2145128965
 21
0.6824489497
  0
LINE
  5
2C0
100
AcDbEntity
  8
RACCORDO
100
AcDbLine
 62
250
  6
CONTINUOUS
 10
-4.4498400387
 20
-7.6734031381
 11
-19.3180542071
 21
0.9113173803
  0
LINE
  5
2C1
100
AcDbEntity
  8
0
100
AcDbLine
 62
250
  6
CONTINUOUS
 10
-3.2544582463
 20
-7.8343389602
 11
-3.5769592608
 21
-7.6481309163
  0
LINE
  5
2C2
100
AcDbEntity
  8
RACCORDO
100
AcDbLine
 62
7
  6
CONTINUOUS
 10
-3.1581553938
 20
-7.8265122445
 11
-3.5281147278
 21
-7.6129023617
  0
LINE
  5
2C3
100
AcDbEntity
  8
0
100
AcDbLine
 62
7
  6
CONTINUOUS
 10
-2.8811131239
 20
-6.5267378486
 11
-2.408716255
 21
-6.7994938802
  0
LWPOLYLINE
  5
2C4
100
AcDbEntity
  8
RACCORDO
100
AcDbPolyline
 62
250
  6
CONTINUOUS
 90
9
 70
0
 10
-4.3463085706
 20
-7.9022658853
 10
-4.3624036585
 20
-7.8916891157
 10
-4.3849576024
 20
-7.8716423256
 10
-4.4044678698
 20
-7.8472804694
 10
-4.4206928099
 20
-7.8188878648
 10
-4.4334173472
 20
-7.7868960062
 10
-4.4425373311
 20
-7.7517306567
 10
-4.4480166491
 20
-7.7137576391
 10
-4.4498400387
 20
-7.6734031381
  0
LINE
  5
2C5
100
AcDbEntity
  8
RACCORDO
100
AcDbLine
 62
250
  6
CONTINUOUS
 10
-4.1055415969
 20
-8.3509607296
 11
-4.0694242983
 21
-8.3751507502
  0
LWPOLYLINE
  5
2C6
100
AcDbEntity
  8
RACCORDO
100
AcDbPolyline
 62
250
  6
CONTINUOUS
 90
5
 70
0
 10
-3.1476279981
 20
-7.9115615741
 10
-3.1720071956
 20
-7.8902663169
 10
-3.198203799
 20
-7.8698951657
 10
-3.2257425227
 20
-7.8511263889
 10
-3.2544582463
 20
-7.8343389602
  0
LWPOLYLINE
  5
2C7
100
AcDbEntity
  8
RACCORDO
100
AcDbPolyline
 62
250
  6
CONTINUOUS
 90
11
 70
0
 10
-2.9532717472
 20
-8.2201423477
 10
-2.9670497934
 20
-8.1803079683
 10
-2.9830342862
 20
-8.1419578036
 10
-3.0007471047
 20
-8.10551229
 10
-3.0198584796
 20
-8.071063439
 10
-3.0399436058
 20
-8.0389632032
 10
-3.0603401411
 20
-8.0097178922
 10
-3.0809873754
 20
-7.9828997006
 10
-3.102522845
 20
-7.9575141461
 10
-3.124778681
 20
-7.9337146964
 10
-3.1476279981
 20
-7.9115615741
  0
LWPOLYLINE
  5
2C8
100
AcDbEntity
  8
ASSI
100
AcDbPolyline
 62
250
  6
CONTINUOUS
 90
13
 70
0
 10
-4.7709935804
 20
20.4551828361
 10
-4.7730568267
 20
20.4768855683
 10
-4.7773454004
 20
20.4994084274
 10
-4.7837906931
 20
20.5223912483
 10
-4.7922896078
 20
20.5454665122
 10
-4.8027062172
 20
20.5682652459
 10
-4.8148739438
 20
20.5904229205
 10
-4.8285982032
 20
20.6115852383
 10
-4.8436595304
 20
20.631413832
 10
-4.8598171087
 20
20.6495916885
 10
-4.8768125842
 20
20.6658281682
 10
-4.8943741914
 20
20.6798636591
 10
-4.9122211236
 20
20.6914737544
  0
LWPOLYLINE
  5
2C9
100
AcDbEntity
  8
ASSI
100
AcDbPolyline
 62
250
  6
CONTINUOUS
 90
13
 70
0
 10
-4.4499321966
 20
20.4077555465
 10
-4.4478690235
 20
20.3860533236
 10
-4.4435805981
 20
20.3635308942
 10
-4.4371354927
 20
20.3405483942
 10
-4.4286367653
 20
20.3174733162
 10
-4.4182203114
 20
20.294674633
 10
-4.4060526911
 20
20.2725168978
 10
-4.3923284659
 20
20.251354415
 10
-4.3772670874
 20
20.2315255748
 10
-4.3611093888
 20
20.2133474425
 10
-4.3441137332
 20
20.1971106881
 10
-4.3265518828
 20
20.183074939
 10
-4.3087046534
 20
20.1714646282
  0
LINE
  5
2CA
100
AcDbEntity
  8
ASSI
100
AcDbLine
 62
7
  6
CONTINUOUS
 10
-7.0308879236
 20
20.244366706
 11
-7.0308822255
 21
20.2443046656
  0
LINE
  5
2CB
100
AcDbEntity
  8
ASSI
100
AcDbLine
 62
250
  6
CONTINUOUS
 10
-6.8567878622
 20
20.1502095215
 11
-6.8664771288
 21
20.2569478825
  0
LINE
  5
2CC
100
AcDbEntity
  8
RACCORDO
100
AcDbLine
 62
250
  6
CONTINUOUS
 10
-3.7549208997
 20
-8.9204790651
 11
-3.7521093603
 21
-8.9631233199
  0
LINE
  5
2CD
100
AcDbEntity
  8
RACCORDO
100
AcDbLine
 62
250
  6
CONTINUOUS
 10
-3.7549208997
 20
12.7976302976
 11
-3.7521093603
 21
12.7549860428
  0
LWPOLYLINE
  5
2CE
100
AcDbEntity
  8
ASSI
100
AcDbPolyline
 62
250
  6
CONTINUOUS
 90
13
 70
0
 10
-1.8726965151
 20
-23.1537987308
 10
-1.8710071615
 20
-23.1867636499
 10
-1.8667159297
 20
-23.2169478108
 10
-1.8598228198
 20
-23.2443512134
 10
-1.8502588144
 20
-23.2690857092
 10
-1.8380929308
 20
-23.2910394468
 10
-1.8235322206
 20
-23.3098768715
 10
-1.8065142619
 20
-23.3256871049
 10
-1.7871014765
 20
-23.3383810254
 10
-1.7656881816
 20
-23.3473557143
 10
-1.7424058162
 20
-23.3524101988
 10
-1.7171229412
 20
-23.3537454517
 10
-1.6898395567
 20
-23.3513614731
  0
LWPOLYLINE
  5
2CF
100
AcDbEntity
  8
ASSI
100
AcDbPolyline
 62
250
  6
CONTINUOUS
 90
5
 70
0
 10
-4.2345414697
 20
21.7676624607
 10
-4.2338275989
 20
21.7522411216
 10
-4.2290315061
 20
21.7249217308
 10
-4.2197617064
 20
21.6979889404
 10
-4.2061020262
 20
21.6716864184
  0
LWPOLYLINE
  5
2D0
100
AcDbEntity
  8
RACCORDO
100
AcDbPolyline
 62
250
  6
CONTINUOUS
 90
5
 70
0
 10
-2.9279041194
 20
-8.3798884304
 10
-2.9293170453
 20
-8.3407256834
 10
-2.934160885
 20
-8.3007721086
 10
-2.9422127637
 20
-8.2604984671
 10
-2.9532717472
 20
-8.2201423477
  0
LWPOLYLINE
  5
2D1
100
AcDbEntity
  8
RACCORDO
100
AcDbPolyline
 62
7
  6
CONTINUOUS
 90
14
 70
0
 10
-2.8811139874
 20
-8.3060002903
 10
-2.8812429641
 20
-8.2950958675
 10
-2.8847977708
 20
-8.2481110141
 10
-2.8932194146
 20
-8.1999267667
 10
-2.9064850973
 20
-8.1512242708
 10
-2.9240133136
 20
-8.1037114028
 10
-2.9453063869
 20
-8.0580500394
 10
-2.9702806768
 20
-8.0140876759
 10
-2.9986169902
 20
-7.9723897507
 10
-3.0304074047
 20
-7.9329868861
 10
-3.0653635411
 20
-7.8965767794
 10
-3.1024982412
 20
-7.8643588935
 10
-3.1413623789
 20
-7.8367147134
 10
-3.1584797839
 20
-7.826326157
  0
LINE
  5
2D2
100
AcDbEntity
  8
DRAFT
100
AcDbLine
 62
250
  6
CONTINUOUS
 10
-5.8487876442
 20
21.9429485446
 11
-5.8487876442
 21
22.0247430898
  0
LINE
  5
2D3
100
AcDbEntity
  8
DRAFT
100
AcDbLine
 62
250
  6
CONTINUOUS
 10
-5.2982926891
 20
21.7161779435
 11
-5.2982926891
 21
22.0110176543
  0
LINE
  5
2D4
100
AcDbEntity
  8
RACCORDO
100
AcDbLine
 62
250
  6
CONTINUOUS
 10
-4.4498400387
 20
-29.3915125007
 11
-4.4498400387
 21
-8.9578495812
  0
LINE
  5
2D5
100
AcDbEntity
  8
RACCORDO
100
AcDbLine
 62
250
  6
CONTINUOUS
 10
-4.4498400387
 20
-7.6734031381
 11
-4.4498400387
 21
12.7602597815
  0
LINE
  5
2D6
100
AcDbEntity
  8
ASSI
100
AcDbLine
 62
7
  6
CONTINUOUS
 10
-4.2345414697
 20
21.7676624607
 11
-4.2345414697
 21
21.6353774126
  0
LINE
  5
2D7
100
AcDbEntity
  8
RACCORDO
100
AcDbLine
 62
250
  6
CONTINUOUS
 10
-3.7521093603
 20
-29.3967862395
 11
-3.7521093603
 21
-8.9631233199
  0
LINE
  5
2D8
100
AcDbEntity
  8
RACCORDO
100
AcDbLine
 62
250
  6
CONTINUOUS
 10
-3.7521093603
 20
-7.6786768768
 11
-3.7521093603
 21
12.7549860428
  0
LINE
  5
2D9
100
AcDbEntity
  8
RACCORDO
100
AcDbLine
 62
7
  6
CONTINUOUS
 10
-3.7426120621
 20
-29.3918623094
 11
-3.7426120621
 21
-8.957639726
  0
LINE
  5
2DA
100
AcDbEntity
  8
RACCORDO
100
AcDbLine
 62
7
  6
CONTINUOUS
 10
-3.7426120621
 20
-7.6737529467
 11
-3.7426120621
 21
12.7604696367
  0
LINE
  5
2DB
100
AcDbEntity
  8
DRAFT
100
AcDbLine
 62
7
  6
CONTINUOUS
 10
-3.3585594811
 20
-10.2915746151
 11
-3.3585594811
 21
-11.2737962911
  0
LINE
  5
2DC
100
AcDbEntity
  8
DRAFT
100
AcDbLine
 62
7
  6
CONTINUOUS
 10
-3.3585594811
 20
-19.7626298259
 11
-3.3585594811
 21
-20.7448515019
  0
LINE
  5
2DD
100
AcDbEntity
  8
DRAFT
100
AcDbLine
 62
7
  6
CONTINUOUS
 10
-3.3585594811
 20
-5.7217984089
 11
-3.3585594811
 21
-4.7395767329
  0
LINE
  5
2DE
100
AcDbEntity
  8
DRAFT
100
AcDbLine
 62
7
  6
CONTINUOUS
 10
-3.3585594811
 20
3.7492568019
 11
-3.3585594811
 21
4.7314784779
  0
LWPOLYLINE
  5
2DF
100
AcDbEntity
  8
RACCORDO
100
AcDbPolyline
 62
7
  6
CONTINUOUS
 90
7
 70
0
 10
-3.4812054868
 20
24.1122703423
 10
-3.4812255749
 20
24.0972697604
 10
-3.479004823
 20
24.0813815231
 10
-3.4746002287
 20
24.0646505696
 10
-3.4680685861
 20
24.0471190589
 10
-3.4594662628
 20
24.0288264156
 10
-3.4488489873
 20
24.0098093779
  0
LINE
  5
2E0
100
AcDbEntity
  8
ASSI
100
AcDbLine
 62
250
  6
CONTINUOUS
 10
-4.2068654237
 20
21.6450922955
 11
-4.2061020262
 21
21.6716864184
  0
LWPOLYLINE
  5
2E1
100
AcDbEntity
  8
RACCORDO
100
AcDbPolyline
 62
250
  6
CONTINUOUS
 90
4
 70
0
 10
-2.9279042352
 20
8.5214455728
 10
-2.9257875901
 20
8.5754352541
 10
-2.9202993307
 20
8.6301805889
 10
-2.911439457
 20
8.6856815771
  0
LWPOLYLINE
  5
2E2
100
AcDbEntity
  8
ASSI
100
AcDbPolyline
 62
7
  6
CONTINUOUS
 90
19
 70
0
 10
-4.2345414655
 20
21.7676624607
 10
-4.2322870295
 20
21.8043756795
 10
-4.2253311294
 20
21.8415550872
 10
-4.2134409727
 20
21.8786474098
 10
-4.1964989925
 20
21.9150363472
 10
-4.1744635721
 20
21.9501811994
 10
-4.1472239935
 20
21.9837272871
 10
-4.114245887
 20
22.0156575363
 10
-4.0759039329
 20
22.0450139689
 10
-4.0337201421
 20
22.0705685866
 10
-3.98804851
 20
22.0923091095
 10
-3.9390433978
 20
22.1102489403
 10
-3.8885494015
 20
22.1239130396
 10
-3.8375780455
 20
22.1334072878
 10
-3.785945603
 20
22.1390368705
 10
-3.7340715367
 20
22.1408785449
 10
-3.6823698884
 20
22.1389813013
 10
-3.6311478465
 20
22.133354805
 10
-3.580762326
 20
22.123964919
  0
LINE
  5
2E3
100
AcDbEntity
  8
ASSI
100
AcDbLine
 62
250
  6
CONTINUOUS
 10
-4.2061020193
 20
21.6716864143
 11
-4.2044883181
 21
21.6933289663
  0
LWPOLYLINE
  5
2E4
100
AcDbEntity
  8
ASSI
100
AcDbPolyline
 62
250
  6
CONTINUOUS
 90
13
 70
0
 10
-2.1276999616
 20
21.9726038321
 10
-2.1251044073
 20
21.9962834152
 10
-2.1248140032
 20
22.0207534403
 10
-2.126833404
 20
22.0456217097
 10
-2.1311302435
 20
22.0704896428
 10
-2.1376356535
 20
22.0949586643
 10
-2.1462453676
 20
22.1186365924
 10
-2.1568213919
 20
22.1411439249
 10
-2.1691942176
 20
22.1621199213
 10
-2.1831655368
 20
22.1812283848
 10
-2.1985114218
 20
22.198163051
 10
-2.2149859136
 20
22.2126524963
 10
-2.2323249645
 20
22.2244644884
  0
LWPOLYLINE
  5
2E5
100
AcDbEntity
  8
ASSI
100
AcDbPolyline
 62
250
  6
CONTINUOUS
 90
10
 70
0
 10
-1.8793213478
 20
18.3974123558
 10
-1.8827494766
 20
18.3792351539
 10
-1.8847975098
 20
18.3611321041
 10
-1.8854477904
 20
18.3432649255
 10
-1.8846952673
 20
18.3257934666
 10
-1.8825472172
 20
18.3088732158
 10
-1.8790229798
 20
18.2926540514
 10
-1.8741542729
 20
18.2772803017
 10
-1.8679850846
 20
18.2628893183
 10
-1.8605708321
 20
18.2496092871
  0
LWPOLYLINE
  5
2E6
100
AcDbEntity
  8
ASSI
100
AcDbPolyline
 62
250
  6
CONTINUOUS
 90
13
 70
0
 10
-3.9236376996
 20
18.2910546736
 10
-3.9188639878
 20
18.3148599255
 10
-3.9163533228
 20
18.339305087
 10
-3.9161440968
 20
18.3640166336
 10
-3.9182395362
 20
18.3886169659
 10
-3.9226076501
 20
18.4127301691
 10
-3.929181715
 20
18.4359877581
 10
-3.9378612995
 20
18.4580343298
 10
-3.9485137932
 20
18.4785329721
 10
-3.9609764233
 20
18.4971704085
 10
-3.9750587563
 20
18.5136618161
 10
-3.990545613
 20
18.527755173
 10
-4.0072003448
 20
18.5392350933
  0
LWPOLYLINE
  5
2E7
100
AcDbEntity
  8
ASSI
100
AcDbPolyline
 62
250
  6
CONTINUOUS
 90
4
 70
0
 10
-1.8396459273
 20
14.1786302538
 10
-1.8254013548
 20
14.2145819648
 10
-1.8082978363
 20
14.251321103
 10
-1.7885679968
 20
14.2883210507
  0
LWPOLYLINE
  5
2E8
100
AcDbEntity
  8
ASSI
100
AcDbPolyline
 62
250
  6
CONTINUOUS
 90
5
 70
0
 10
0.6450489566
 20
19.6609115496
 10
0.6485299479
 20
19.6696638549
 10
0.6566692028
 20
19.6819853077
 10
0.6677876475
 20
19.6937828966
 10
0.6817053806
 20
19.7048650447
  0
LWPOLYLINE
  5
2E9
100
AcDbEntity
  8
ASSI
100
AcDbPolyline
 62
250
  6
CONTINUOUS
 90
12
 70
0
 10
0.6482327984
 20
19.6906464123
 10
0.6497935936
 20
19.6941426877
 10
0.6515043828
 20
19.6976001661
 10
0.6533634197
 20
19.7010164337
 10
0.6553687562
 20
19.7043887178
 10
0.6575285585
 20
19.7077294763
 10
0.6598425886
 20
19.7110355483
 10
0.6623106144
 20
19.7143038711
 10
0.6649444992
 20
19.7175457832
 10
0.6677454936
 20
19.7207573205
 10
0.6707147181
 20
19.7239344511
 10
0.6738674427
 20
19.7270867515
  0
LWPOLYLINE
  5
2EA
100
AcDbEntity
  8
ASSI
100
AcDbPolyline
 62
250
  6
CONTINUOUS
 90
4
 70
0
 10
-1.7885679968
 20
14.2883210507
 10
-1.7667985714
 20
14.3238863689
 10
-1.7431851385
 20
14.3574519112
 10
-1.7175321197
 20
14.3895828238
  0
LINE
  5
2EB
100
AcDbEntity
  8
ASSI
100
AcDbLine
 62
250
  6
CONTINUOUS
 10
-0.7911480094
 20
20.3530608919
 11
-0.3027067475
 21
20.9765026641
  0
LWPOLYLINE
  5
2EC
100
AcDbEntity
  8
ASSI
100
AcDbPolyline
 62
250
  6
CONTINUOUS
 90
10
 70
0
 10
-1.7760945742
 20
18.3522657267
 10
-1.7898392589
 20
18.3362479715
 10
-1.801469127
 20
18.3195615244
 10
-1.8108275576
 20
18.3024310475
 10
-1.8177885141
 20
18.2850871752
 10
-1.8222582288
 20
18.2677634457
 10
-1.8241764828
 20
18.250693156
 10
-1.823517428
 20
18.2341061687
 10
-1.8202899195
 20
18.218225819
 10
-1.8161793842
 20
18.20684109
  0
LWPOLYLINE
  5
2ED
100
AcDbEntity
  8
ASSI
100
AcDbPolyline
 62
250
  6
CONTINUOUS
 90
7
 70
0
 10
0.6738674427
 20
19.7270867515
 10
0.6772063733
 20
19.7302090916
 10
0.680734004
 20
19.7332963431
 10
0.6844689087
 20
19.7363560451
 10
0.6884203642
 20
19.7393856146
 10
0.6925857755
 20
19.7423733258
 10
0.6969673436
 20
19.7453114819
  0
LWPOLYLINE
  5
2EE
100
AcDbEntity
  8
ASSI
100
AcDbPolyline
 62
7
  6
CONTINUOUS
 90
7
 70
0
 10
-1.7427259491
 20
17.1014029263
 10
-1.7536907663
 20
17.093257091
 10
-1.763138134
 20
17.0846114303
 10
-1.7711299757
 20
17.0753934782
 10
-1.777604368
 20
17.0656757008
 10
-1.7823755407
 20
17.0556754964
 10
-1.7849725683
 20
17.0468545327
  0
LINE
  5
2EF
100
AcDbEntity
  8
ASSI
100
AcDbLine
 62
7
  6
CONTINUOUS
 10
-2.9385272551
 20
16.2248154978
 11
-2.2121608013
 21
16.736986548
  0
LINE
  5
2F0
100
AcDbEntity
  8
0
100
AcDbLine
 62
250
  6
CONTINUOUS
 10
-2.8753466535
 20
16.1886615714
 11
-2.0763887131
 21
16.7520178845
  0
LWPOLYLINE
  5
2F1
100
AcDbEntity
  8
ASSI
100
AcDbPolyline
 62
250
  6
CONTINUOUS
 90
10
 70
0
 10
-4.2931818966
 20
18.4097463957
 10
-4.3095999092
 20
18.3991627056
 10
-4.3257958978
 20
18.38651387
 10
-4.3415508392
 20
18.3719709421
 10
-4.3566516752
 20
18.3557305894
 10
-4.3708941924
 20
18.3380124346
 10
-4.3840857848
 20
18.3190560854
 10
-4.3960480585
 20
18.2991178939
 10
-4.406619244
 20
18.2784674897
 10
-4.4156563838
 20
18.2573841341
  0
LWPOLYLINE
  5
2F2
100
AcDbEntity
  8
ASSI
100
AcDbPolyline
 62
7
  6
CONTINUOUS
 90
6
 70
0
 10
0.7358554565
 20
18.518285511
 10
0.7219812354
 20
18.509348925
 10
0.7100325177
 20
18.4998295483
 10
0.7000093031
 20
18.4897273809
 10
0.6918324439
 20
18.4789302722
 10
0.6899011659
 20
18.4754145951
  0
LWPOLYLINE
  5
2F3
100
AcDbEntity
  8
ASSI
100
AcDbPolyline
 62
250
  6
CONTINUOUS
 90
10
 70
0
 10
-0.2174035786
 20
21.0530711255
 10
-0.227248693
 20
21.0468710049
 10
-0.2370817575
 20
21.0400409227
 10
-0.2468715541
 20
21.0325970455
 10
-0.2565957416
 20
21.024549856
 10
-0.2662131212
 20
21.0159268532
 10
-0.2756651624
 20
21.0067776437
 10
-0.2849130798
 20
20.9971407454
 10
-0.2939365063
 20
20.987038377
 10
-0.3027067475
 20
20.9765026641
  0
LWPOLYLINE
  5
2F4
100
AcDbEntity
  8
ASSI
100
AcDbPolyline
 62
250
  6
CONTINUOUS
 90
47
 70
0
 10
-2.260517878
 20
18.300523715
 10
-2.2717053229
 20
18.2934866355
 10
-2.2831043744
 20
18.2862186261
 10
-2.2947019408
 20
18.278706711
 10
-2.3066273841
 20
18.2707438312
 10
-2.3188417111
 20
18.2623984572
 10
-2.3313839149
 20
18.2536021187
 10
-2.3445003368
 20
18.243942346
 10
-2.3583583983
 20
18.2333357442
 10
-2.3727906778
 20
18.2218657083
 10
-2.3875412527
 20
18.2093699541
 10
-2.4028050442
 20
18.1956052472
 10
-2.4183871311
 20
18.1808148219
 10
-2.4334468263
 20
18.1655660973
 10
-2.447822097
 20
18.1498729584
 10
-2.4616749761
 20
18.1337215202
 10
-2.4746508758
 20
18.1176375468
 10
-2.4865850378
 20
18.101776969
 10
-2.4976422204
 20
18.0859838562
 10
-2.5079621106
 20
18.0703161802
 10
-2.5175637048
 20
18.0547594241
 10
-2.5264280066
 20
18.0393281049
 10
-2.5346377143
 20
18.0241237458
 10
-2.5421963403
 20
18.0091430704
 10
-2.5491003722
 20
17.9943893552
 10
-2.5554219713
 20
17.9799739519
 10
-2.5611525426
 20
17.9659254544
 10
-2.5663006812
 20
17.9522152689
 10
-2.5709643337
 20
17.9388689663
 10
-2.5751455428
 20
17.9259040932
 10
-2.5788422657
 20
17.913303103
 10
-2.5821463203
 20
17.9010389266
 10
-2.5850641186
 20
17.8891211671
 10
-2.5875892485
 20
17.8775402213
 10
-2.5897942917
 20
17.8662402109
 10
-2.5916870614
 20
17.8552275955
 10
-2.5932597444
 20
17.8444959154
 10
-2.5945614828
 20
17.833969914
 10
-2.5956008759
 20
17.8236400744
 10
-2.5963693244
 20
17.8135159135
 10
-2.5968901726
 20
17.803550725
 10
-2.5971726474
 20
17.793770383
 10
-2.5972075219
 20
17.7841490134
 10
-2.5969904602
 20
17.7745622886
 10
-2.5965200167
 20
17.764968766
 10
-2.5957976369
 20
17.7554098882
 10
-2.5948233208
 20
17.7458856552
  0
LINE
  5
2F5
100
AcDbEntity
  8
ASSI
100
AcDbLine
 62
7
  6
CONTINUOUS
 10
-0.3458097945
 20
21.0633924518
 11
0.398598055
 21
21.5237454323
  0
LINE
  5
2F6
100
AcDbEntity
  8
ASSI
100
AcDbLine
 62
250
  6
CONTINUOUS
 10
-0.2174035786
 20
21.0530711255
 11
0.525749963
 21
21.5126484231
  0
LINE
  5
2F7
100
AcDbEntity
  8
ASSI
100
AcDbLine
 62
250
  6
CONTINUOUS
 10
0.6817053806
 20
19.7048650447
 11
0.6981981848
 21
19.7150531924
  0
LINE
  5
2F8
100
AcDbEntity
  8
ASSI
100
AcDbLine
 62
250
  6
CONTINUOUS
 10
-2.2385698967
 20
18.314034287
 11
-2.260517878
 21
18.300523715
  0
LINE
  5
2F9
100
AcDbEntity
  8
ASSI
100
AcDbLine
 62
7
  6
CONTINUOUS
 10
-1.7302436825
 20
17.1090489363
 11
-1.7427259491
 21
17.1014029263
  0
LWPOLYLINE
  5
2FA
100
AcDbEntity
  8
ASSI
100
AcDbPolyline
 62
250
  6
CONTINUOUS
 90
3
 70
0
 10
-2.2057033773
 20
18.333899959
 10
-2.2166290052
 20
18.3273538438
 10
-2.2385698967
 20
18.314034287
  0
LWPOLYLINE
  5
2FB
100
AcDbEntity
  8
ASSI
100
AcDbPolyline
 62
250
  6
CONTINUOUS
 90
10
 70
0
 10
-2.5948233194
 20
17.7458856546
 10
-2.5778529216
 20
17.7560550442
 10
-2.5591798318
 20
17.7652024074
 10
-2.5390556691
 20
17.7732044835
 10
-2.517751606
 20
17.7799534445
 10
-2.4955547142
 20
17.7853583482
 10
-2.4727640966
 20
17.7893463633
 10
-2.4496868563
 20
17.7918637513
 10
-2.4266339586
 20
17.7928765901
 10
-2.4039160411
 20
17.7923712318
  0
LINE
  5
2FC
100
AcDbEntity
  8
RACCORDO
100
AcDbLine
 62
7
  6
CONTINUOUS
 10
-0.8902970052
 20
20.4103082794
 11
-0.8652342437
 21
20.425311299
  0
LINE
  5
2FD
100
AcDbEntity
  8
ASSI
100
AcDbLine
 62
250
  6
CONTINUOUS
 10
-4.1567864707
 20
18.4913084033
 11
-4.2931818966
 21
18.4097463957
  0
LINE
  5
2FE
100
AcDbEntity
  8
ASSI
100
AcDbLine
 62
250
  6
CONTINUOUS
 10
-6.8139459529
 20
16.7245382743
 11
-7.263104558
 21
16.4559495199
  0
LINE
  5
2FF
100
AcDbEntity
  8
ASSI
100
AcDbLine
 62
250
  6
CONTINUOUS
 10
-4.0134565796
 20
18.2623374619
 11
-4.1498520056
 21
18.1807754543
  0
LINE
  5
300
100
AcDbEntity
  8
ASSI
100
AcDbLine
 62
250
  6
CONTINUOUS
 10
-6.6706160619
 20
16.4955673329
 11
-7.1221995637
 21
16.2255285339
  0
LINE
  5
301
100
AcDbEntity
  8
ASSI
100
AcDbLine
 62
250
  6
CONTINUOUS
 10
-4.7928511672
 20
17.2217700436
 11
-6.4023057419
 21
16.2593452014
  0
LINE
  5
302
100
AcDbEntity
  8
ASSI
100
AcDbLine
 62
250
  6
CONTINUOUS
 10
-4.649521745
 20
16.9927988218
 11
-6.2589758508
 21
16.03037426
  0
LINE
  5
303
100
AcDbEntity
  8
ASSI
100
AcDbLine
 62
250
  6
CONTINUOUS
 10
-0.3326291595
 20
19.4443108909
 11
-1.5212223611
 21
18.7335535682
  0
LINE
  5
304
100
AcDbEntity
  8
ASSI
100
AcDbLine
 62
250
  6
CONTINUOUS
 10
0.5536372554
 20
19.9742822413
 11
1.021442175
 21
20.254021156
  0
LINE
  5
305
100
AcDbEntity
  8
ASSI
100
AcDbLine
 62
250
  6
CONTINUOUS
 10
-0.1892994166
 20
19.2153398608
 11
-1.3778924701
 21
18.5045826268
  0
LINE
  5
306
100
AcDbEntity
  8
ASSI
100
AcDbLine
 62
250
  6
CONTINUOUS
 10
0.6969673669
 20
19.7453114317
 11
1.1647720661
 21
20.0250502146
  0
LWPOLYLINE
  5
307
100
AcDbEntity
  8
ASSI
100
AcDbPolyline
 62
250
  6
CONTINUOUS
 90
7
 70
0
 10
-1.7546484963
 20
18.2482950666
 10
-1.7698349365
 20
18.2392352584
 10
-1.7828853664
 20
18.2294125331
 10
-1.7936239328
 20
18.218959253
 10
-1.8019059351
 20
18.2080162779
 10
-1.8076197751
 20
18.196731064
 10
-1.8091302692
 20
18.1910825526
  0
LWPOLYLINE
  5
308
100
AcDbEntity
  8
ASSI
100
AcDbPolyline
 62
250
  6
CONTINUOUS
 90
13
 70
0
 10
1.1647720661
 20
20.0250502146
 10
1.1690108058
 20
20.0275336223
 10
1.173281817
 20
20.0299203296
 10
1.1775850996
 20
20.0322103363
 10
1.1819051567
 20
20.0344007153
 10
1.1862574854
 20
20.0364943938
 10
1.190688576
 20
20.0385001536
 10
1.1952019198
 20
20.0404250272
 10
1.1997940255
 20
20.0422619821
 10
1.2045009101
 20
20.0439987026
 10
1.2093345792
 20
20.0456310834
 10
1.2142830272
 20
20.0471632298
 10
1.219346254
 20
20.0485951417
  0
LWPOLYLINE
  5
309
100
AcDbEntity
  8
ASSI
100
AcDbPolyline
 62
250
  6
CONTINUOUS
 90
10
 70
0
 10
-0.1861429698
 20
19.1862331473
 10
-0.167467996
 20
19.1970746748
 10
-0.1467847462
 20
19.2066834305
 10
-0.1244264427
 20
19.2149046104
 10
-0.1007532943
 20
19.2216057653
 10
-0.0761466927
 20
19.2266789349
 10
-0.0510030682
 20
19.2300423866
 10
-0.0257275028
 20
19.2316419329
 10
-0.0007272046
 20
19.231451804
 10
0.0235950537
 20
19.229475063
  0
LINE
  5
30A
100
AcDbEntity
  8
ASSI
100
AcDbLine
 62
7
  6
CONTINUOUS
 10
0.5311616846
 20
20.4892271154
 11
0.531198518
 21
20.4892483982
  0
LINE
  5
30B
100
AcDbEntity
  8
0
100
AcDbLine
 62
7
  6
CONTINUOUS
 10
3.2930271501
 20
23.2374079605
 11
3.0840946978
 21
23.1167729811
  0
LINE
  5
30C
100
AcDbEntity
  8
0
100
AcDbLine
 62
7
  6
CONTINUOUS
 10
4.0680570896
 20
22.7899153868
 11
3.8591246373
 21
22.6692804074
  0
LINE
  5
30D
100
AcDbEntity
  8
0
100
AcDbLine
 62
7
  6
CONTINUOUS
 10
4.1924134826
 20
22.7296796495
 11
3.9834810303
 21
22.60904467
  0
LINE
  5
30E
100
AcDbEntity
  8
ASSI
100
AcDbLine
 62
7
  6
CONTINUOUS
 10
-2.0568808846
 20
18.9949237333
 11
0.531198518
 21
20.4892483982
  0
LINE
  5
30F
100
AcDbEntity
  8
ASSI
100
AcDbLine
 62
250
  6
CONTINUOUS
 10
-1.956807643
 20
18.9850550507
 11
0.63120335
 21
20.4793401627
  0
LINE
  5
310
100
AcDbEntity
  8
0
100
AcDbLine
 62
7
  6
CONTINUOUS
 10
4.6622619633
 20
22.4468247705
 11
4.453329511
 21
22.326189791
  0
LINE
  5
311
100
AcDbEntity
  8
0
100
AcDbLine
 62
7
  6
CONTINUOUS
 10
4.8042816666
 20
22.4857429183
 11
4.7028379409
 21
22.4271705824
  0
LINE
  5
312
100
AcDbEntity
  8
0
100
AcDbLine
 62
7
  6
CONTINUOUS
 10
4.8683519613
 20
22.3278309885
 11
4.6594195091
 21
22.2071960091
  0
LINE
  5
313
100
AcDbEntity
  8
0
100
AcDbLine
 62
7
  6
CONTINUOUS
 10
5.3193469854
 20
22.155349373
 11
5.2941028674
 21
22.1407737357
  0
LINE
  5
314
100
AcDbEntity
  8
0
100
AcDbLine
 62
7
  6
CONTINUOUS
 10
6.1684007706
 20
21.6981134746
 11
5.9594683183
 21
21.5774784952
  0
LWPOLYLINE
  5
315
100
AcDbEntity
  8
ASSI
100
AcDbPolyline
 62
250
  6
CONTINUOUS
 90
13
 70
0
 10
1.021442175
 20
20.254021156
 10
1.0285493113
 20
20.2581236597
 10
1.0357115846
 20
20.2620785013
 10
1.0429258783
 20
20.2658804127
 10
1.050159313
 20
20.2695099913
 10
1.05743827
 20
20.2729775326
 10
1.0648478222
 20
20.2763156244
 10
1.0723876452
 20
20.2795140963
 10
1.0800489544
 20
20.2825581675
 10
1.087902256
 20
20.2854603125
 10
1.0959660468
 20
20.2882087271
 10
1.1042076388
 20
20.290774142
 10
1.1126189033
 20
20.2931358212
  0
LWPOLYLINE
  5
316
100
AcDbEntity
  8
ASSI
100
AcDbPolyline
 62
250
  6
CONTINUOUS
 90
13
 70
0
 10
-1.3778924701
 20
18.5045826268
 10
-1.4126001839
 20
18.4845519364
 10
-1.4469770524
 20
18.4659103877
 10
-1.4810230756
 20
18.4486579805
 10
-1.5147074266
 20
18.4328327911
 10
-1.5480609323
 20
18.4183967433
 10
-1.5811760733
 20
18.4052356086
 10
-1.6140448199
 20
18.3933316071
 10
-1.6466752017
 20
18.3827025187
 10
-1.6791837879
 20
18.3732874558
 10
-1.7116094346
 20
18.3650661222
 10
-1.7439132857
 20
18.358058814
 10
-1.776095341
 20
18.3522655312
  0
LWPOLYLINE
  5
317
100
AcDbEntity
  8
ASSI
100
AcDbPolyline
 62
250
  6
CONTINUOUS
 90
37
 70
0
 10
-0.3326291595
 20
19.4443108909
 10
-0.3235079898
 20
19.4495661179
 10
-0.3142843567
 20
19.4545804162
 10
-0.3049582603
 20
19.4593537859
 10
-0.2955250055
 20
19.4638770529
 10
-0.2859892873
 20
19.4681593912
 10
-0.276365191
 20
19.4722283228
 10
-0.2666576004
 20
19.4760858208
 10
-0.2568616318
 20
19.4797299121
 10
-0.246976719
 20
19.4831821984
 10
-0.2370066405
 20
19.4864449013
 10
-0.2269476178
 20
19.4895157992
 10
-0.2167877488
 20
19.4924098298
 10
-0.206529515
 20
19.4951294737
 10
-0.196170435
 20
19.4976722502
 10
-0.1856911621
 20
19.5000456561
 10
-0.1750939573
 20
19.5022522682
 10
-0.1643765598
 20
19.5042895096
 10
-0.1535128399
 20
19.5061571464
 10
-0.1425186171
 20
19.5078572924
 10
-0.131378072
 20
19.5093878337
 10
-0.1200176175
 20
19.5107421953
 10
-0.1084535434
 20
19.5119268817
 10
-0.0966695598
 20
19.5129353882
 10
-0.0845432099
 20
19.5137416261
 10
-0.0720569021
 20
19.5143561101
 10
-0.0592282278
 20
19.5147683255
 10
-0.0459875048
 20
19.5149206386
 10
-0.0322937727
 20
19.5148183509
 10
-0.0181879918
 20
19.5144561611
 10
-0.0037233598
 20
19.513760531
 10
0.0110945338
 20
19.5127354207
 10
0.0262712785
 20
19.5113768702
 10
0.0417704445
 20
19.5095994613
 10
0.0575798885
 20
19.5073747215
 10
0.0737117539
 20
19.5047311233
 10
0.0901660406
 20
19.5016686669
  0
LINE
  5
318
100
AcDbEntity
  8
ASSI
100
AcDbLine
 62
7
  6
CONTINUOUS
 10
3.8424741863
 20
20.3066899459
 11
0.7358554565
 21
18.518285511
  0
LINE
  5
319
100
AcDbEntity
  8
ASSI
100
AcDbLine
 62
7
  6
CONTINUOUS
 10
-0.0533360316
 20
18.0639672632
 11
-1.2612094728
 21
17.3686240564
  0
LWPOLYLINE
  5
31A
100
AcDbEntity
  8
ASSI
100
AcDbPolyline
 62
7
  6
CONTINUOUS
 90
10
 70
0
 10
-2.0568808845
 20
18.9949237334
 10
-2.0684259642
 20
18.9883276739
 10
-2.1295961363
 20
18.9557017268
 10
-2.1895677983
 20
18.9275977258
 10
-2.2479182335
 20
18.9041104288
 10
-2.3044600444
 20
18.8851917012
 10
-2.3591343709
 20
18.8707607613
 10
-2.4116780329
 20
18.8608017442
 10
-2.4617020363
 20
18.8552752037
 10
-2.4696502252
 20
18.8547847027
  0
LWPOLYLINE
  5
31B
100
AcDbEntity
  8
ASSI
100
AcDbPolyline
 62
250
  6
CONTINUOUS
 90
8
 70
0
 10
-2.0685514028
 20
18.1087185766
 10
-2.0795069672
 20
18.1024673363
 10
-2.0906001548
 20
18.0964168804
 10
-2.1018290899
 20
18.0905458815
 10
-2.1131929097
 20
18.0848414937
 10
-2.1246963273
 20
18.0792729728
 10
-2.1363565086
 20
18.0737914542
 10
-2.1482147507
 20
18.0683757765
  0
LWPOLYLINE
  5
31C
100
AcDbEntity
  8
ASSI
100
AcDbPolyline
 62
250
  6
CONTINUOUS
 90
10
 70
0
 10
-1.5212223611
 20
18.7335535682
 10
-1.5731660875
 20
18.7040381373
 10
-1.6246028467
 20
18.6780741078
 10
-1.6754132309
 20
18.6556120995
 10
-1.7251358363
 20
18.6367165994
 10
-1.7740291627
 20
18.6211520823
 10
-1.8230344588
 20
18.608597135
 10
-1.8723629408
 20
18.5991023527
 10
-1.921532999
 20
18.5928764538
 10
-1.9704066873
 20
18.5900194322
  0
LINE
  5
31D
100
AcDbEntity
  8
ASSI
100
AcDbLine
 62
250
  6
CONTINUOUS
 10
3.7524627174
 20
20.9934574757
 11
4.5040865382
 21
21.4202422029
  0
LINE
  5
31E
100
AcDbEntity
  8
ASSI
100
AcDbLine
 62
250
  6
CONTINUOUS
 10
3.8900343777
 20
20.7723569247
 11
4.6401421907
 21
21.198280837
  0
LWPOLYLINE
  5
31F
100
AcDbEntity
  8
ASSI
100
AcDbPolyline
 62
250
  6
CONTINUOUS
 90
7
 70
0
 10
0.63120335
 20
20.4793401627
 10
0.6384234873
 20
20.4834263467
 10
0.6456717603
 20
20.4873622988
 10
0.6529450428
 20
20.4911437638
 10
0.6602063493
 20
20.4947499391
 10
0.6674862765
 20
20.4981948691
 10
0.674882347
 20
20.5015189086
  0
LINE
  5
320
100
AcDbEntity
  8
ASSI
100
AcDbLine
 62
7
  6
CONTINUOUS
 10
-1.2612094728
 20
17.3686240564
 11
-1.7302484623
 21
17.1090462915
  0
LINE
  5
321
100
AcDbEntity
  8
ASSI
100
AcDbLine
 62
7
  6
CONTINUOUS
 10
-2.460186814
 20
16.7050803728
 11
-5.3045862982
 21
15.1309194213
  0
LWPOLYLINE
  5
322
100
AcDbEntity
  8
ASSI
100
AcDbPolyline
 62
250
  6
CONTINUOUS
 90
10
 70
0
 10
-6.4023059919
 20
16.2593453457
 10
-6.4150157114
 20
16.25233675
 10
-6.427328139
 20
16.2470402018
 10
-6.439161506
 20
16.2433454335
 10
-6.4504684162
 20
16.2411430632
 10
-6.4611959982
 20
16.2402876945
 10
-6.4712813612
 20
16.2406099078
 10
-6.4806660221
 20
16.2419682954
 10
-6.4894046264
 20
16.2442372082
 10
-6.4976012383
 20
16.2473230029
  0
LINE
  5
323
100
AcDbEntity
  8
DRAFT
100
AcDbLine
 62
7
  6
CONTINUOUS
 10
4.7896149611
 20
21.4501868089
 11
4.5878572099
 21
21.3393757151
  0
LINE
  5
324
100
AcDbEntity
  8
RACCORDO
100
AcDbLine
 62
7
  6
CONTINUOUS
 10
4.7896887408
 20
21.4502273171
 11
4.7896432496
 21
21.4502023456
  0
LWPOLYLINE
  5
325
100
AcDbEntity
  8
ASSI
100
AcDbPolyline
 62
250
  6
CONTINUOUS
 90
8
 70
0
 10
-2.056812475
 20
18.9949632863
 10
-2.0541556806
 20
18.9964178549
 10
-2.0404314554
 20
19.0017319465
 10
-2.025370077
 20
19.0041682843
 10
-2.0092123783
 20
19.0036879113
 10
-1.9922167227
 20
19.0002985086
 10
-1.9746548723
 20
18.9940542731
 10
-1.956807643
 20
18.9850550507
  0
LINE
  5
326
100
AcDbEntity
  8
RACCORDO
100
AcDbLine
 62
7
  6
CONTINUOUS
 10
5.0984461553
 20
21.5608029326
 11
5.0923357859
 21
21.5574580141
  0
LWPOLYLINE
  5
327
100
AcDbEntity
  8
ASSI
100
AcDbPolyline
 62
250
  6
CONTINUOUS
 90
9
 70
0
 10
-0.3458097945
 20
21.0633924518
 10
-0.3369207013
 20
21.0681722638
 10
-0.3224957779
 20
21.0733422154
 10
-0.3068866977
 20
21.0760743618
 10
-0.2902642942
 20
21.0763390617
 10
-0.2728103731
 20
21.0741335502
 10
-0.2547159867
 20
21.0694820143
 10
-0.2361793905
 20
21.0624354634
 10
-0.2174035786
 20
21.0530711255
  0
LWPOLYLINE
  5
328
100
AcDbEntity
  8
ASSI
100
AcDbPolyline
 62
250
  6
CONTINUOUS
 90
37
 70
0
 10
-0.1892994299
 20
19.2153398553
 10
-0.1847359352
 20
19.217750694
 10
-0.1800974354
 20
19.2200274895
 10
-0.175395722
 20
19.2221721346
 10
-0.1706486571
 20
19.2241840265
 10
-0.1658602706
 20
19.2260688358
 10
-0.1610193152
 20
19.2278369055
 10
-0.1561337089
 20
19.2294901001
 10
-0.1512112824
 20
19.2310304701
 10
-0.1462376112
 20
19.2324663446
 10
-0.1412188965
 20
19.2337987482
 10
-0.136161281
 20
19.2350287468
 10
-0.1310477777
 20
19.2361624813
 10
-0.1258831539
 20
19.2372000894
 10
-0.1206723096
 20
19.2381417265
 10
-0.1153965794
 20
19.23899129
 10
-0.1100603008
 20
19.2397478991
 10
-0.1046672439
 20
19.2404107646
 10
-0.0991964943
 20
19.2409815676
 10
-0.0936591698
 20
19.2414578031
 10
-0.088051658
 20
19.2418383645
 10
-0.0823295572
 20
19.2421233619
 10
-0.0765045084
 20
19.2423082862
 10
-0.0705720287
 20
19.2423892653
 10
-0.0644621872
 20
19.2423609363
 10
-0.0581717469
 20
19.2422147261
 10
-0.0517125904
 20
19.2419420463
 10
-0.0450374749
 20
19.2415303828
 10
-0.0381364164
 20
19.2409664026
 10
-0.0310344127
 20
19.2402391717
 10
-0.0237385746
 20
19.2393363884
 10
-0.0162710356
 20
19.2382481917
 10
-0.0086329804
 20
19.2369605069
 10
-0.000803082
 20
19.2354520373
 10
0.0072126955
 20
19.2337052005
 10
0.0153807986
 20
19.2317094437
 10
0.0236764507
 20
19.229451771
  0
LWPOLYLINE
  5
329
100
AcDbEntity
  8
ASSI
100
AcDbPolyline
 62
250
  6
CONTINUOUS
 90
19
 70
0
 10
-6.2589758508
 20
16.03037426
 10
-6.2849139536
 20
16.0169422894
 10
-6.3096280382
 20
16.0063587775
 10
-6.3331181049
 20
15.9986237244
 10
-6.3554424588
 20
15.9940078826
 10
-6.3765427946
 20
15.9922404996
 10
-6.3962441964
 20
15.9925093179
 10
-6.4144076851
 20
15.9947400294
 10
-6.4311722397
 20
15.9990069422
 10
-6.4467798809
 20
16.0047207226
 10
-6.4612025702
 20
16.0117069434
 10
-6.4744683461
 20
16.0201400317
 10
-6.4869033452
 20
16.0299539359
 10
-6.4985786679
 20
16.0409483643
 10
-6.5094232139
 20
16.0533236086
 10
-6.5195498185
 20
16.0676144922
 10
-6.5289960935
 20
16.0839992898
 10
-6.5377244271
 20
16.1022997267
 10
-6.5457348193
 20
16.1225158031
  0
LINE
  5
32A
100
AcDbEntity
  8
ASSI
100
AcDbLine
 62
250
  6
CONTINUOUS
 10
-2.1482147507
 20
18.0683757765
 11
-2.172450256
 21
18.0576176731
  0
LWPOLYLINE
  5
32B
100
AcDbEntity
  8
ASSI
100
AcDbPolyline
 62
250
  6
CONTINUOUS
 90
42
 70
0
 10
-2.172450256
 20
18.0576176731
 10
-2.1973130646
 20
18.0467417772
 10
-2.2100484505
 20
18.0410381419
 10
-2.2231824728
 20
18.0350055148
 10
-2.236631492
 20
18.0286721431
 10
-2.2500037799
 20
18.0220372524
 10
-2.2633251795
 20
18.0149182624
 10
-2.2765819864
 20
18.0073712098
 10
-2.2891965842
 20
17.9997299267
 10
-2.3008313144
 20
17.9919708617
 10
-2.3116301845
 20
17.9840076099
 10
-2.3216445641
 20
17.976112154
 10
-2.3306892484
 20
17.9683631823
 10
-2.3387720561
 20
17.9606470456
 10
-2.3462516277
 20
17.9529901869
 10
-2.3531443008
 20
17.9453925891
 10
-2.3593404354
 20
17.9378511016
 10
-2.3650433777
 20
17.9304083911
 10
-2.3702551032
 20
17.9230691568
 10
-2.3749191016
 20
17.9158354978
 10
-2.3791684077
 20
17.908754753
 10
-2.3829988435
 20
17.901845229
 10
-2.3863848606
 20
17.8950964959
 10
-2.3894376922
 20
17.888516043
 10
-2.3921615435
 20
17.882115083
 10
-2.3945383125
 20
17.8758880347
 10
-2.3966512782
 20
17.8698186853
 10
-2.3985068588
 20
17.8639136765
 10
-2.4000930728
 20
17.8581699035
 10
-2.4014677524
 20
17.8525578871
 10
-2.402637165
 20
17.8470830732
 10
-2.4035932226
 20
17.8417427504
 10
-2.4043723252
 20
17.8364971255
 10
-2.4049802395
 20
17.8313446715
 10
-2.4054103298
 20
17.82629076
 10
-2.4056796674
 20
17.8213081492
 10
-2.4057938792
 20
17.8164151212
 10
-2.4057471883
 20
17.8115981128
 10
-2.405537649
 20
17.806786242
 10
-2.4051630468
 20
17.8019612744
 10
-2.4046227937
 20
17.79715414
 10
-2.4039160401
 20
17.7923712341
  0
LWPOLYLINE
  5
32C
100
AcDbEntity
  8
ASSI
100
AcDbPolyline
 62
250
  6
CONTINUOUS
 90
5
 70
0
 10
-2.1203564166
 20
18.9045362723
 10
-2.0820572473
 20
18.9208548081
 10
-2.0418656406
 20
18.9396578933
 10
-2.0000971326
 20
18.9610045417
 10
-1.956807643
 20
18.9850550507
  0
LWPOLYLINE
  5
32D
100
AcDbEntity
  8
ASSI
100
AcDbPolyline
 62
250
  6
CONTINUOUS
 90
6
 70
0
 10
0.674882347
 20
20.5015189086
 10
0.6823969933
 20
20.5047124673
 10
0.6900187312
 20
20.5077602711
 10
0.697822184
 20
20.5106793509
 10
0.7058271393
 20
20.5134587917
 10
0.7139994538
 20
20.5160672
  0
LWPOLYLINE
  5
32E
100
AcDbEntity
  8
ASSI
100
AcDbPolyline
 62
250
  6
CONTINUOUS
 90
13
 70
0
 10
3.8117124485
 20
20.7304405695
 10
3.8187124591
 20
20.7332661268
 10
3.8256124035
 20
20.7361885849
 10
3.832406323
 20
20.7392075535
 10
3.8390598797
 20
20.7423078605
 10
3.8455966801
 20
20.7455030938
 10
3.8520912228
 20
20.7488382252
 10
3.8585352093
 20
20.7523163906
 10
3.8649103977
 20
20.7559373632
 10
3.8712635166
 20
20.7597449868
 10
3.8775934937
 20
20.7637563552
 10
3.8838579322
 20
20.767959702
 10
3.8900343777
 20
20.7723569247
  0
LWPOLYLINE
  5
32F
100
AcDbEntity
  8
ASSI
100
AcDbPolyline
 62
250
  6
CONTINUOUS
 90
6
 70
0
 10
0.5338553127
 20
20.4907029671
 10
0.547579538
 20
20.4960170585
 10
0.5626409164
 20
20.4984533963
 10
0.578798615
 20
20.4979730233
 10
0.5957942705
 20
20.4945836205
 10
0.6133561208
 20
20.488339385
  0
LWPOLYLINE
  5
330
100
AcDbEntity
  8
ASSI
100
AcDbPolyline
 62
7
  6
CONTINUOUS
 90
5
 70
0
 10
0.6317904073
 20
20.5322088942
 10
0.6032197583
 20
20.5230268147
 10
0.575018329
 20
20.5116346133
 10
0.5473905542
 20
20.4981953649
 10
0.5311616846
 20
20.4892271154
  0
LWPOLYLINE
  5
331
100
AcDbEntity
  8
RACCORDO
100
AcDbPolyline
 62
7
  6
CONTINUOUS
 90
6
 70
0
 10
5.0149232511
 20
21.540460581
 10
4.96228739
 20
21.5249098995
 10
4.9097828788
 20
21.5061997002
 10
4.8577692865
 20
21.4843198137
 10
4.8064562566
 20
21.4592305079
 10
4.7897010086
 20
21.450234948
  0
LINE
  5
332
100
AcDbEntity
  8
RACCORDO
100
AcDbLine
 62
7
  6
CONTINUOUS
 10
5.4195536455
 20
21.7238598676
 11
5.3904577465
 21
21.7153063419
  0
LINE
  5
333
100
AcDbEntity
  8
ASSI
100
AcDbLine
 62
250
  6
CONTINUOUS
 10
0.7139994538
 20
20.5160672
 11
0.7223308858
 21
20.518483231
  0
LINE
  5
334
100
AcDbEntity
  8
RACCORDO
100
AcDbLine
 62
250
  6
CONTINUOUS
 10
-19.0117868182
 20
0.2523707862
 11
-19.0492841813
 21
0.2663198134
  0
LINE
  5
335
100
AcDbEntity
  8
0
100
AcDbLine
 62
7
  6
CONTINUOUS
 10
-2.408716255
 20
-5.9830236034
 11
-2.7303626783
 21
-5.7973089897
  0
LINE
  5
336
100
AcDbEntity
  8
RACCORDO
100
AcDbLine
 62
7
  6
CONTINUOUS
 10
-2.9396917676
 20
-5.2622350354
 11
-3.3585594811
 21
-5.0034965955
  0
LINE
  5
337
100
AcDbEntity
  8
ASSI
100
AcDbLine
 62
250
  6
CONTINUOUS
 10
-6.4971080834
 20
16.2434980707
 11
-6.4994091519
 21
16.2516810276
  0
LWPOLYLINE
  5
338
100
AcDbEntity
  8
ASSI
100
AcDbPolyline
 62
250
  6
CONTINUOUS
 90
7
 70
0
 10
-7.1447905503
 20
20.3508403558
 10
-7.141842379
 20
20.3366234746
 10
-7.1363033743
 20
20.3207284991
 10
-7.1280035441
 20
20.3036153851
 10
-7.1169615163
 20
20.2857129053
 10
-7.1029431532
 20
20.2673323569
 10
-7.0854488189
 20
20.2486959388
  0
LINE
  5
339
100
AcDbEntity
  8
RACCORDO
100
AcDbLine
 62
250
  6
CONTINUOUS
 10
-3.7614013128
 20
-8.875881569
 11
-3.7549208997
 21
-8.9204790651
  0
LWPOLYLINE
  5
33A
100
AcDbEntity
  8
ASSI
100
AcDbPolyline
 62
250
  6
CONTINUOUS
 90
13
 70
0
 10
-6.6706160619
 20
16.4955673329
 10
-6.673270238
 20
16.5170732215
 10
-6.6780860561
 20
16.5392507393
 10
-6.6849872986
 20
16.5617584927
 10
-6.693864707
 20
16.5842479762
 10
-6.704580768
 20
16.6063769048
 10
-6.7169739814
 20
16.6278138864
 10
-6.7308733742
 20
16.648256075
 10
-6.7460501172
 20
16.6673605765
 10
-6.7622114626
 20
16.6847745223
 10
-6.7790803275
 20
16.700233489
 10
-6.7964133121
 20
16.7135468393
 10
-6.8139459529
 20
16.7245382743
  0
LWPOLYLINE
  5
33B
100
AcDbEntity
  8
ASSI
100
AcDbPolyline
 62
250
  6
CONTINUOUS
 90
13
 70
0
 10
-6.2589758508
 20
16.03037426
 10
-6.2616158769
 20
16.0517973174
 10
-6.2664034765
 20
16.0738958888
 10
-6.2732655679
 20
16.0963326483
 10
-6.2820974036
 20
16.1187651082
 10
-6.2927641683
 20
16.140850846
 10
-6.3051030371
 20
16.1622527314
 10
-6.3189256613
 20
16.1826440739
 10
-6.334021044
 20
16.2017136093
 10
-6.3501587597
 20
16.2191702499
 10
-6.3670924726
 20
16.2347475285
 10
-6.3845636969
 20
16.2482076662
 10
-6.4023057419
 20
16.2593452014
  0
LWPOLYLINE
  5
33C
100
AcDbEntity
  8
ASSI
100
AcDbPolyline
 62
250
  6
CONTINUOUS
 90
13
 70
0
 10
-4.6495212761
 20
16.9927991022
 10
-4.6521612982
 20
17.0142221417
 10
-4.6569488911
 20
17.0363206972
 10
-4.6638109743
 20
17.0587574439
 10
-4.672642801
 20
17.0811898942
 10
-4.6833095572
 20
17.1032756264
 10
-4.6956484194
 20
17.1246775113
 10
-4.70947104
 20
17.1450688582
 10
-4.7245664228
 20
17.1641384018
 10
-4.7407041431
 20
17.1815950537
 10
-4.7576378654
 20
17.1971723456
 10
-4.7751091038
 20
17.2106324967
 10
-4.7928511672
 20
17.2217700436
  0
LINE
  5
33D
100
AcDbEntity
  8
ASSI
100
AcDbLine
 62
250
  6
CONTINUOUS
 10
-2.31740961
 20
16.8507408049
 11
-2.305848395
 21
16.7361376572
  0
LINE
  5
33E
100
AcDbEntity
  8
ASSI
100
AcDbLine
 62
250
  6
CONTINUOUS
 10
-2.3294164868
 20
16.9725908303
 11
-2.31740961
 21
16.8507408049
  0
LINE
  5
33F
100
AcDbEntity
  8
ASSI
100
AcDbLine
 62
250
  6
CONTINUOUS
 10
-2.3418757317
 20
17.1019600373
 11
-2.3294164868
 21
16.9725908303
  0
LWPOLYLINE
  5
340
100
AcDbEntity
  8
ASSI
100
AcDbPolyline
 62
250
  6
CONTINUOUS
 90
13
 70
0
 10
-2.1829825874
 20
21.9494679481
 10
-2.1850457605
 20
21.971170171
 10
-2.1893341859
 20
21.9936926004
 10
-2.1957792913
 20
22.0166751004
 10
-2.2042780186
 20
22.0397501783
 10
-2.2146944726
 20
22.0625488616
 10
-2.2268620929
 20
22.0847065968
 10
-2.2405863181
 20
22.1058690796
 10
-2.2556476965
 20
22.1256979198
 10
-2.2718053952
 20
22.1438760521
 10
-2.2888010508
 20
22.1601128065
 10
-2.3063629012
 20
22.1741485556
 10
-2.3242101306
 20
22.1857588664
  0
LINE
  5
341
100
AcDbEntity
  8
ASSI
100
AcDbLine
 62
250
  6
CONTINUOUS
 10
-2.3548370392
 20
17.2397841103
 11
-2.3418757317
 21
17.1019600373
  0
LINE
  5
342
100
AcDbEntity
  8
ASSI
100
AcDbLine
 62
250
  6
CONTINUOUS
 10
-2.3683016782
 20
17.386533197
 11
-2.3548370392
 21
17.2397841103
  0
LINE
  5
343
100
AcDbEntity
  8
ASSI
100
AcDbLine
 62
250
  6
CONTINUOUS
 10
-2.382244972
 20
17.5423118304
 11
-2.3683016782
 21
17.386533197
  0
LWPOLYLINE
  5
344
100
AcDbEntity
  8
ASSI
100
AcDbPolyline
 62
250
  6
CONTINUOUS
 90
3
 70
0
 10
-2.4039160411
 20
17.7923712318
 10
-2.3965933282
 20
17.7068194951
 10
-2.382244972
 20
17.5423118304
  0
LWPOLYLINE
  5
345
100
AcDbEntity
  8
0
100
AcDbPolyline
 62
250
  6
CONTINUOUS
 90
6
 70
0
 10
-2.5546658517
 20
9.3411186248
 10
-2.5530659351
 20
9.3198053464
 10
-2.555083398
 20
9.3007245461
 10
-2.5606710989
 20
9.2843220803
 10
-2.5696984714
 20
9.2709812214
 10
-2.5731677645
 20
9.2675150385
  0
LWPOLYLINE
  5
346
100
AcDbEntity
  8
0
100
AcDbPolyline
 62
250
  6
CONTINUOUS
 90
16
 70
0
 10
-1.9600398043
 20
11.4208987828
 10
-1.9615032562
 20
11.4462277229
 10
-1.9645834569
 20
11.4690333542
 10
-1.9692804064
 20
11.4893156767
 10
-1.9757969102
 20
11.5070138612
 10
-1.9839301627
 20
11.5221887368
 10
-1.9930717477
 20
11.5350227913
 10
-2.0030481797
 20
11.5454615453
 10
-2.0140329441
 20
11.5535594782
 10
-2.0259380805
 20
11.5596625152
 10
-2.0386054418
 20
11.5639981752
 10
-2.0521931751
 20
11.5663389393
 10
-2.0670877607
 20
11.5663481758
 10
-2.0834180253
 20
11.5639136739
 10
-2.1010551423
 20
11.5591476444
 10
-2.1199991116
 20
11.5520500871
  0
LWPOLYLINE
  5
347
100
AcDbEntity
  8
ASSI
100
AcDbPolyline
 62
250
  6
CONTINUOUS
 90
13
 70
0
 10
-1.7546484948
 20
18.2482950659
 10
-1.7552193254
 20
18.2595019436
 10
-1.7560492342
 20
18.2702265187
 10
-1.7571382213
 20
18.2804687912
 10
-1.7585100187
 20
18.2902162329
 10
-1.7601408942
 20
18.2994813721
 10
-1.7619596524
 20
18.3083017932
 10
-1.7639640428
 20
18.3166787236
 10
-1.7661563157
 20
18.324610936
 10
-1.7684720265
 20
18.3321323327
 10
-1.7708896935
 20
18.3392542146
 10
-1.7734307984
 20
18.3459652807
 10
-1.776095341
 20
18.3522655312
  0
LINE
  5
348
100
AcDbEntity
  8
RACCORDO
100
AcDbLine
 62
250
  6
CONTINUOUS
 10
-2.9259871231
 20
11.6117291229
 11
-2.9279042352
 21
11.6559563113
  0
LWPOLYLINE
  5
349
100
AcDbEntity
  8
ASSI
100
AcDbPolyline
 62
250
  6
CONTINUOUS
 90
13
 70
0
 10
-1.3863615846
 20
15.1008465761
 10
-1.3872841544
 20
15.1231197621
 10
-1.3906724946
 20
15.1463984316
 10
-1.3964701502
 20
15.1702816733
 10
-1.4045797871
 20
15.1943596781
 10
-1.4148627663
 20
15.2182144909
 10
-1.4271396413
 20
15.2414275709
 10
-1.4412294565
 20
15.2636427729
 10
-1.4568640638
 20
15.2844250834
 10
-1.4736582752
 20
15.3032963301
 10
-1.4912628054
 20
15.3199368541
 10
-1.5094009136
 20
15.3341534382
 10
-1.5277614017
 20
15.3457582432
  0
LWPOLYLINE
  5
34A
100
AcDbEntity
  8
RACCORDO
100
AcDbPolyline
 62
250
  6
CONTINUOUS
 90
5
 70
0
 10
-2.9279041194
 20
13.3382209323
 10
-2.9293170453
 20
13.3773836793
 10
-2.934160885
 20
13.4173372541
 10
-2.9422127637
 20
13.4576108956
 10
-2.9532717472
 20
13.497967015
  0
LINE
  5
34B
100
AcDbEntity
  8
ASSI
100
AcDbLine
 62
250
  6
CONTINUOUS
 10
-1.7513506515
 20
18.1404335366
 11
-1.7546484948
 21
18.2482950659
  0
LINE
  5
34C
100
AcDbEntity
  8
ASSI
100
AcDbLine
 62
250
  6
CONTINUOUS
 10
-1.7482919862
 20
18.0348166393
 11
-1.7513506515
 21
18.1404335366
  0
LINE
  5
34D
100
AcDbEntity
  8
ASSI
100
AcDbLine
 62
7
  6
CONTINUOUS
 10
-1.8163172031
 20
-23.0827736223
 11
-1.8165644773
 21
-23.0735649284
  0
LWPOLYLINE
  5
34E
100
AcDbEntity
  8
0
100
AcDbPolyline
 62
7
  6
CONTINUOUS
 90
22
 70
0
 10
-1.9600398043
 20
10.0884850768
 10
-1.9596682786
 20
10.07037729
 10
-1.9599402851
 20
10.0519369323
 10
-1.9608558238
 20
10.0331640037
 10
-1.9623087123
 20
10.0140471034
 10
-1.9644051329
 20
9.9945976322
 10
-1.9674636337
 20
9.9748497925
 10
-1.9715875559
 20
9.9547447613
 10
-1.9766735581
 20
9.9343413615
 10
-1.9827301645
 20
9.9138502645
 10
-1.9897773829
 20
9.8932741512
 10
-1.9977952055
 20
9.8726103406
 10
-2.0067321319
 20
9.8520614611
 10
-2.0165951726
 20
9.8316213075
 10
-2.0273773172
 20
9.811296085
 10
-2.0390060345
 20
9.7913070376
 10
-2.051477525
 20
9.7716605576
 10
-2.0647955882
 20
9.7523502528
 10
-2.0788990919
 20
9.7335781901
 10
-2.0937676585
 20
9.7154117251
 10
-2.1094216655
 20
9.6977835023
 10
-2.1258611129
 20
9.6806935215
  0
LWPOLYLINE
  5
34F
100
AcDbEntity
  8
RACCORDO
100
AcDbPolyline
 62
7
  6
CONTINUOUS
 90
14
 70
0
 10
-2.8811139874
 20
13.4121090724
 10
-2.8812429641
 20
13.4230134952
 10
-2.8847977708
 20
13.4699983486
 10
-2.8932194146
 20
13.518182596
 10
-2.9064850973
 20
13.5668850919
 10
-2.9240133136
 20
13.6143979599
 10
-2.9453063869
 20
13.6600593233
 10
-2.9702806768
 20
13.7040216868
 10
-2.9986169902
 20
13.7457196119
 10
-3.0304074047
 20
13.7851224766
 10
-3.0653635411
 20
13.8215325833
 10
-3.1024982412
 20
13.8537504692
 10
-3.1413623789
 20
13.8813946493
 10
-3.1584797839
 20
13.8917832057
  0
LWPOLYLINE
  5
350
100
AcDbEntity
  8
ASSI
100
AcDbPolyline
 62
250
  6
CONTINUOUS
 90
11
 70
0
 10
-1.7302484623
 20
17.1090462915
 10
-1.7311070704
 20
17.1900536333
 10
-1.7321689447
 20
17.2737079769
 10
-1.7334340854
 20
17.3600093224
 10
-1.7348958635
 20
17.4490302646
 10
-1.7365609079
 20
17.5406982086
 10
-1.738449105
 20
17.63479537
 10
-1.7405617418
 20
17.7313106824
 10
-1.7428975313
 20
17.8302552122
 10
-1.7454724989
 20
17.931444374
 10
-1.7482919862
 20
18.0348166393
  0
LWPOLYLINE
  5
351
100
AcDbEntity
  8
ASSI
100
AcDbPolyline
 62
250
  6
CONTINUOUS
 90
16
 70
0
 10
-1.8793229682
 20
18.3974126891
 10
-1.8793584122
 20
18.4134085364
 10
-1.8803594015
 20
18.429366516
 10
-1.8823194378
 20
18.4451845217
 10
-1.885225891
 20
18.4607613193
 10
-1.8890600671
 20
18.4759972892
 10
-1.8937973465
 20
18.490795056
 10
-1.8994073105
 20
18.5050598585
 10
-1.9058540249
 20
18.5187005541
 10
-1.9130963436
 20
18.5316302325
 10
-1.9210875542
 20
18.5437656064
 10
-1.9297768325
 20
18.555029587
 10
-1.9391100886
 20
18.5653516432
 10
-1.949028406
 20
18.5746656596
 10
-1.9594680568
 20
18.5829108583
 10
-1.9703623869
 20
18.590033836
  0
LINE
  5
352
100
AcDbEntity
  8
0
100
AcDbLine
 62
250
  6
CONTINUOUS
 10
-2.9279042352
 20
-28.7589230406
 11
-2.9279042352
 21
-26.6524615137
  0
LINE
  5
353
100
AcDbEntity
  8
0
100
AcDbLine
 62
250
  6
CONTINUOUS
 10
-2.9279042352
 20
-24.3663447386
 11
-2.9279042352
 21
-20.4468512039
  0
LINE
  5
354
100
AcDbEntity
  8
0
100
AcDbLine
 62
7
  6
CONTINUOUS
 10
-2.9279042352
 20
-24.3663447386
 11
-2.9279042352
 21
-26.6524615137
  0
LINE
  5
355
100
AcDbEntity
  8
RACCORDO
100
AcDbLine
 62
250
  6
CONTINUOUS
 10
-2.9279042352
 20
-19.467959284
 11
-2.9279042352
 21
-10.9757959931
  0
LINE
  5
356
100
AcDbEntity
  8
RACCORDO
100
AcDbLine
 62
250
  6
CONTINUOUS
 10
-2.9279042352
 20
-9.9969040732
 11
-2.9279042352
 21
-8.3798885062
  0
LINE
  5
357
100
AcDbEntity
  8
RACCORDO
100
AcDbLine
 62
250
  6
CONTINUOUS
 10
-2.9279042352
 20
-7.0408136779
 11
-2.9279042352
 21
-5.4237981109
  0
LINE
  5
358
100
AcDbEntity
  8
RACCORDO
100
AcDbLine
 62
250
  6
CONTINUOUS
 10
-2.9279042352
 20
-4.444906191
 11
-2.9279042352
 21
4.0472570999
  0
LINE
  5
359
100
AcDbEntity
  8
RACCORDO
100
AcDbLine
 62
250
  6
CONTINUOUS
 10
-2.9279042352
 20
5.0261490198
 11
-2.9279042352
 21
8.5214455728
  0
LINE
  5
35A
100
AcDbEntity
  8
RACCORDO
100
AcDbLine
 62
250
  6
CONTINUOUS
 10
-2.9279042352
 20
11.6559563113
 11
-2.9279042352
 21
13.3382208564
  0
LINE
  5
35B
100
AcDbEntity
  8
RACCORDO
100
AcDbLine
 62
7
  6
CONTINUOUS
 10
-2.8811131239
 20
-28.6846955386
 11
-2.8811131239
 21
-26.6254449124
  0
LINE
  5
35C
100
AcDbEntity
  8
RACCORDO
100
AcDbLine
 62
7
  6
CONTINUOUS
 10
-2.8811131239
 20
-24.2921172367
 11
-2.8811131239
 21
-20.3709752203
  0
LINE
  5
35D
100
AcDbEntity
  8
RACCORDO
100
AcDbLine
 62
7
  6
CONTINUOUS
 10
-2.8811131239
 20
-19.3953802637
 11
-2.8811131239
 21
-10.8999200095
  0
LINE
  5
35E
100
AcDbEntity
  8
RACCORDO
100
AcDbLine
 62
7
  6
CONTINUOUS
 10
-2.8811131239
 20
-9.9243250529
 11
-2.8811131239
 21
-8.3056609543
  0
LINE
  5
35F
100
AcDbEntity
  8
RACCORDO
100
AcDbLine
 62
7
  6
CONTINUOUS
 10
-2.8811131239
 20
-6.9665861759
 11
-2.8811131239
 21
-5.3479221273
  0
LINE
  5
360
100
AcDbEntity
  8
RACCORDO
100
AcDbLine
 62
7
  6
CONTINUOUS
 10
-2.8811131239
 20
-4.3723271707
 11
-2.8811131239
 21
4.1231330835
  0
LINE
  5
361
100
AcDbEntity
  8
RACCORDO
100
AcDbLine
 62
7
  6
CONTINUOUS
 10
-2.8811131239
 20
5.0987280401
 11
-2.8811131239
 21
8.5956730745
  0
LINE
  5
362
100
AcDbEntity
  8
0
100
AcDbLine
 62
7
  6
CONTINUOUS
 10
-2.7988085623
 20
-24.2918065151
 11
-2.7988085623
 21
-26.5779232901
  0
LINE
  5
363
100
AcDbEntity
  8
SMUSSO
100
AcDbLine
 62
7
  6
CONTINUOUS
 10
-2.7135248319
 20
23.3989810999
 11
-2.7135248319
 21
23.7891191269
  0
LINE
  5
364
100
AcDbEntity
  8
0
100
AcDbLine
 62
7
  6
CONTINUOUS
 10
-2.408716255
 20
-20.3974130915
 11
-2.408716255
 21
-6.7994938802
  0
LINE
  5
365
100
AcDbEntity
  8
0
100
AcDbLine
 62
7
  6
CONTINUOUS
 10
-2.408716255
 20
-5.9830236034
 11
-2.408716255
 21
7.614895608
  0
LINE
  5
366
100
AcDbEntity
  8
0
100
AcDbLine
 62
7
  6
CONTINUOUS
 10
-1.9600398043
 20
11.4208987828
 11
-1.9600398043
 21
10.0884850768
  0
LINE
  5
367
100
AcDbEntity
  8
ASSI
100
AcDbLine
 62
250
  6
CONTINUOUS
 10
-1.8726965151
 20
-21.9390649001
 11
-1.8726965151
 21
-23.1537987308
  0
LINE
  5
368
100
AcDbEntity
  8
ASSI
100
AcDbLine
 62
250
  6
CONTINUOUS
 10
-1.8726965151
 20
12.715967988
 11
-1.8726965151
 21
14.0040552929
  0
LINE
  5
369
100
AcDbEntity
  8
0
100
AcDbLine
 62
7
  6
CONTINUOUS
 10
-1.8309441315
 20
11.9722885409
 11
-1.8309441315
 21
9.6861717659
  0
LINE
  5
36A
100
AcDbEntity
  8
ASSI
100
AcDbLine
 62
7
  6
CONTINUOUS
 10
-1.8165644751
 20
-21.9050348292
 11
-1.8165644751
 21
-23.0735819453
  0
LINE
  5
36B
100
AcDbEntity
  8
ASSI
100
AcDbLine
 62
7
  6
CONTINUOUS
 10
-1.8165644751
 20
12.8363295172
 11
-1.8165644751
 21
14.0842731862
  0
LINE
  5
36C
100
AcDbEntity
  8
ASSI
100
AcDbLine
 62
7
  6
CONTINUOUS
 10
-1.7849725683
 20
18.0727773911
 11
-1.7849725683
 21
17.0040067043
  0
LINE
  5
36D
100
AcDbEntity
  8
ASSI
100
AcDbLine
 62
7
  6
CONTINUOUS
 10
-1.6308987957
 20
17.0301587112
 11
-1.6308987957
 21
17.1640288515
  0
LINE
  5
36E
100
AcDbEntity
  8
ASSI
100
AcDbLine
 62
250
  6
CONTINUOUS
 10
-1.3863615846
 20
-23.299717686
 11
-1.3863615846
 21
-23.6690286756
  0
LINE
  5
36F
100
AcDbEntity
  8
ASSI
100
AcDbLine
 62
250
  6
CONTINUOUS
 10
-1.3863615846
 20
14.7315355865
 11
-1.3863615846
 21
15.1008465761
  0
LINE
  5
370
100
AcDbEntity
  8
ASSI
100
AcDbLine
 62
7
  6
CONTINUOUS
 10
-1.3480560832
 20
7.4348738645
 11
-1.3480560832
 21
-21.4422151281
  0
LINE
  5
371
100
AcDbEntity
  8
ASSI
100
AcDbLine
 62
7
  6
CONTINUOUS
 10
-1.3302295446
 20
-23.2195002786
 11
-1.3302295446
 21
-23.5888112682
  0
LINE
  5
372
100
AcDbEntity
  8
ASSI
100
AcDbLine
 62
7
  6
CONTINUOUS
 10
-1.3302295446
 20
14.8117529939
 11
-1.3302295446
 21
15.1810639835
  0
LINE
  5
373
100
AcDbEntity
  8
DRAFT
100
AcDbLine
 62
7
  6
CONTINUOUS
 10
-1.1148920132
 20
15.829304436
 11
-1.1148920132
 21
16.0337914738
  0
LINE
  5
374
100
AcDbEntity
  8
DRAFT
100
AcDbLine
 62
250
  6
CONTINUOUS
 10
-0.3495001528
 20
16.8422145214
 11
-0.3495001528
 21
16.2882791834
  0
LINE
  5
375
100
AcDbEntity
  8
RACCORDO
100
AcDbLine
 62
250
  6
CONTINUOUS
 10
-0.0240738012
 20
21.2623588162
 11
-0.0240738012
 21
22.1988473678
  0
LINE
  5
376
100
AcDbEntity
  8
RACCORDO
100
AcDbLine
 62
7
  6
CONTINUOUS
 10
-2.8811140473
 20
11.7298329086
 11
-2.8811131239
 21
13.4124484084
  0
LWPOLYLINE
  5
377
100
AcDbEntity
  8
ASSI
100
AcDbPolyline
 62
7
  6
CONTINUOUS
 90
18
 70
0
 10
-1.7850390818
 20
17.0040080695
 10
-1.7851578888
 20
16.997853098
 10
-1.7882975249
 20
16.9720578591
 10
-1.7957028803
 20
16.9468120027
 10
-1.8075113356
 20
16.9218921894
 10
-1.8235855101
 20
16.8975217587
 10
-1.843513262
 20
16.8743707293
 10
-1.867396973
 20
16.852483617
 10
-1.8951342613
 20
16.831815906
 10
-1.9260058407
 20
16.812904068
 10
-1.9600936687
 20
16.7957939501
 10
-1.9973157876
 20
16.7804397053
 10
-2.0367070382
 20
16.7672402633
 10
-2.0783468686
 20
16.7562528429
 10
-2.1221558305
 20
16.7474202253
 10
-2.1669304197
 20
16.7409696845
 10
-2.212269468
 20
16.7369769784
 10
-2.2585741435
 20
16.7353663492
  0
LWPOLYLINE
  5
378
100
AcDbEntity
  8
ASSI
100
AcDbPolyline
 62
250
  6
CONTINUOUS
 90
20
 70
0
 10
-1.7849725683
 20
18.0727773911
 10
-1.785102533
 20
18.0661954808
 10
-1.788697754
 20
18.0376026514
 10
-1.7971867629
 20
18.009356672
 10
-1.8104858483
 20
17.9817360884
 10
-1.8284638639
 20
17.9550132717
 10
-1.8509435287
 20
17.9294517327
 10
-1.8777031706
 20
17.9053035333
 10
-1.908478912
 20
17.8828068
 10
-1.9429672721
 20
17.8621833739
 10
-1.9808281614
 20
17.8436366229
 10
-2.0216882348
 20
17.8273494365
 10
-2.0651445679
 20
17.8134824249
 10
-2.1107686309
 20
17.8021723326
 10
-2.1581105164
 20
17.7935306893
 10
-2.2067033898
 20
17.7876427085
 10
-2.2560680874
 20
17.7845664506
 10
-2.3057178267
 20
17.7843322523
 10
-2.3551630051
 20
17.7869424252
 10
-2.4039160411
 20
17.7923712318
  0
LWPOLYLINE
  5
379
100
AcDbEntity
  8
ASSI
100
AcDbPolyline
 62
250
  6
CONTINUOUS
 90
13
 70
0
 10
0.0236764701
 20
19.2294653198
 10
0.0242453001
 20
19.2517112035
 10
0.0259420574
 20
19.2754399207
 10
0.0287377098
 20
19.3002454663
 10
0.0325844229
 20
19.3257034103
 10
0.0374163781
 20
19.3513781607
 10
0.0431508998
 20
19.3768304169
 10
0.0496898685
 20
19.4016246829
 10
0.056921401
 20
19.4253367231
 10
0.0647217648
 20
19.4475608209
 10
0.0729574944
 20
19.4679167162
 10
0.0814876739
 20
19.4860561114
 10
0.0901663495
 20
19.5016686351
  0
LWPOLYLINE
  5
37A
100
AcDbEntity
  8
ASSI
100
AcDbPolyline
 62
7
  6
CONTINUOUS
 90
9
 70
0
 10
-1.8165644751
 20
12.8363278028
 10
-1.817003925
 20
12.82221463
 10
-1.8193442433
 20
12.8019235914
 10
-1.8237436761
 20
12.7828582681
 10
-1.8301587539
 20
12.7652891559
 10
-1.8384239321
 20
12.7496934385
 10
-1.848355145
 20
12.7362825997
 10
-1.8598324737
 20
12.7250173006
 10
-1.8726965151
 20
12.715967988
  0
LWPOLYLINE
  5
37B
100
AcDbEntity
  8
ASSI
100
AcDbPolyline
 62
7
  6
CONTINUOUS
 90
16
 70
0
 10
-1.8165644753
 20
14.084268552
 10
-1.8161570639
 20
14.0969880269
 10
-1.8147379402
 20
14.1122051585
 10
-1.8121029347
 20
14.1293838726
 10
-1.8080656766
 20
14.1484077566
 10
-1.8025105253
 20
14.1689514307
 10
-1.7954364921
 20
14.1904820068
 10
-1.7868418432
 20
14.21268521
 10
-1.7767588278
 20
14.2352541238
 10
-1.7653688875
 20
14.257649817
 10
-1.7527977391
 20
14.2795761619
 10
-1.739233298
 20
14.3007037614
 10
-1.7250654122
 20
14.3204938846
 10
-1.7105278685
 20
14.3387368998
 10
-1.6959213622
 20
14.3552088747
 10
-1.6905065856
 20
14.3608773709
  0
LWPOLYLINE
  5
37C
100
AcDbEntity
  8
RACCORDO
100
AcDbPolyline
 62
7
  6
CONTINUOUS
 90
13
 70
0
 10
-2.8811131269
 20
8.5956933023
 10
-2.8797409384
 20
8.634746868
 10
-2.8748428214
 20
8.68198566
 10
-2.8660896155
 20
8.7330869968
 10
-2.8532182434
 20
8.7875098604
 10
-2.8361710115
 20
8.8442195604
 10
-2.8152039125
 20
8.9017301569
 10
-2.7905500719
 20
8.9591350886
 10
-2.7625312373
 20
9.015530105
 10
-2.7318708344
 20
9.0695019179
 10
-2.6991108772
 20
9.1203027393
 10
-2.6648251782
 20
9.1672745259
 10
-2.6300423665
 20
9.2093697127
  0
LWPOLYLINE
  5
37D
100
AcDbEntity
  8
ASSI
100
AcDbPolyline
 62
250
  6
CONTINUOUS
 90
6
 70
0
 10
-1.8726965151
 20
14.0040552929
 10
-1.8711019408
 20
14.0382020816
 10
-1.8669921855
 20
14.0727252663
 10
-1.8603672493
 20
14.107624847
 10
-1.8512641788
 20
14.1429393524
 10
-1.8396459273
 20
14.1786302538
  0
LWPOLYLINE
  5
37E
100
AcDbEntity
  8
0
100
AcDbPolyline
 62
250
  6
CONTINUOUS
 90
7
 70
0
 10
-2.5546658517
 20
11.3499366012
 10
-2.5530659434
 20
11.3776506506
 10
-2.5550836335
 20
11.4064512039
 10
-2.5606716078
 20
11.43566522
 10
-2.5696991301
 20
11.4646100484
 10
-2.5819551066
 20
11.4926093806
 10
-2.5971530262
 20
11.5190090516
  0
LWPOLYLINE
  5
37F
100
AcDbEntity
  8
ASSI
100
AcDbPolyline
 62
7
  6
CONTINUOUS
 90
20
 70
0
 10
0.6898850306
 20
18.3710170177
 10
0.6876240549
 20
18.3439991315
 10
0.6813152213
 20
18.3189453772
 10
0.6710266782
 20
18.2941183913
 10
0.6569881446
 20
18.2701353376
 10
0.6391033686
 20
18.2470224789
 10
0.6174686022
 20
18.2247535523
 10
0.5926023205
 20
18.2038669337
 10
0.5644239746
 20
18.18439745
 10
0.5330141134
 20
18.1663102742
 10
0.4991328592
 20
18.1500393014
 10
0.4627236325
 20
18.1356305279
 10
0.4238430129
 20
18.1230379574
 10
0.3834208619
 20
18.1125574957
 10
0.3414073911
 20
18.1042410464
 10
0.297852389
 20
18.0980367059
 10
0.2538350823
 20
18.0940846687
 10
0.2097152133
 20
18.0924316664
 10
0.1651330398
 20
18.0930309674
 10
0.1200885617
 20
18.0958825717
  0
LWPOLYLINE
  5
380
100
AcDbEntity
  8
0
100
AcDbPolyline
 62
250
  6
CONTINUOUS
 90
7
 70
0
 10
-2.1199991116
 20
11.5520500871
 10
-2.1187525914
 20
11.565638782
 10
-2.1183979022
 20
11.5795776075
 10
-2.1189370918
 20
11.5937860802
 10
-2.1203670472
 20
11.6081821602
 10
-2.1226795115
 20
11.6226827237
 10
-2.1258611327
 20
11.6372040441
  0
LWPOLYLINE
  5
381
100
AcDbEntity
  8
ASSI
100
AcDbPolyline
 62
250
  6
CONTINUOUS
 90
8
 70
0
 10
0.6417437716
 20
19.6661290867
 10
0.6420275076
 20
19.6684959908
 10
0.6426702511
 20
19.6723536875
 10
0.6434764708
 20
19.6761405392
 10
0.6444400154
 20
19.6798591034
 10
0.6455524983
 20
19.6835022308
 10
0.6468174045
 20
19.6870973953
 10
0.6482327984
 20
19.6906464123
  0
LWPOLYLINE
  5
382
100
AcDbEntity
  8
RACCORDO
100
AcDbPolyline
 62
250
  6
CONTINUOUS
 90
3
 70
0
 10
-3.7612892132
 20
-7.7586126884
 10
-3.7548868435
 20
-7.7198660209
 10
-3.7521093651
 20
-7.6786768793
  0
LWPOLYLINE
  5
383
100
AcDbEntity
  8
RACCORDO
100
AcDbPolyline
 62
250
  6
CONTINUOUS
 90
11
 70
0
 10
-2.911439457
 20
8.6856815771
 10
-2.8991744055
 20
8.7420873393
 10
-2.8835377397
 20
8.799248755
 10
-2.8646301498
 20
8.8567184629
 10
-2.8425008386
 20
8.9146456149
 10
-2.8171006034
 20
8.9728810591
 10
-2.7883825264
 20
9.0305299786
 10
-2.7560213278
 20
9.0880792204
 10
-2.7203422874
 20
9.1450419376
 10
-2.6822743275
 20
9.1990627723
 10
-2.6421270885
 20
9.2493566055
  0
LWPOLYLINE
  5
384
100
AcDbEntity
  8
0
100
AcDbPolyline
 62
7
  6
CONTINUOUS
 90
7
 70
0
 10
-2.6110583408
 20
11.5383903343
 10
-2.6144011952
 20
11.533847576
 10
-2.6176665977
 20
11.5292925945
 10
-2.6208545482
 20
11.5247253899
 10
-2.6239650467
 20
11.5201459621
 10
-2.6269980932
 20
11.5155543111
 10
-2.6299536877
 20
11.510950437
  0
LINE
  5
385
100
AcDbEntity
  8
RACCORDO
100
AcDbLine
 62
250
  6
CONTINUOUS
 10
-2.6421270885
 20
9.2493566055
 11
-2.5995909299
 21
9.2967085564
  0
LINE
  5
386
100
AcDbEntity
  8
ASSI
100
AcDbLine
 62
250
  6
CONTINUOUS
 10
-1.7175321197
 20
14.3895828238
 11
-1.689839515
 21
14.4202791069
  0
LINE
  5
387
100
AcDbEntity
  8
RACCORDO
100
AcDbLine
 62
7
  6
CONTINUOUS
 10
-2.6300423665
 20
9.2093697127
 11
-2.595647547
 21
9.2460514975
  0
LINE
  5
388
100
AcDbEntity
  8
ASSI
100
AcDbLine
 62
250
  6
CONTINUOUS
 10
-1.689839515
 20
14.4202791069
 11
-1.3863615846
 21
14.7315355865
  0
LINE
  5
389
100
AcDbEntity
  8
ASSI
100
AcDbLine
 62
7
  6
CONTINUOUS
 10
-1.6905087696
 20
14.3608751307
 11
-1.387030175
 21
14.6721322915
  0
LWPOLYLINE
  5
38A
100
AcDbEntity
  8
0
100
AcDbPolyline
 62
250
  6
CONTINUOUS
 90
16
 70
0
 10
-2.1199991116
 20
9.7371966259
 10
-2.0983024662
 20
9.7593046151
 10
-2.0783442484
 20
9.7819510248
 10
-2.0601244583
 20
9.8051358551
 10
-2.0436873981
 20
9.8291477448
 10
-2.0289887656
 20
9.8536980551
 10
-2.0158956541
 20
9.8779208689
 10
-2.0044881806
 20
9.9014635326
 10
-1.9946862281
 20
9.9246786997
 10
-1.9861165387
 20
9.9477584143
 10
-1.9786469009
 20
9.9705922913
 10
-1.9724095262
 20
9.9932907159
 10
-1.9674277914
 20
10.0163768868
 10
-1.963709489
 20
10.0400252037
 10
-1.9612468267
 20
10.0640612671
 10
-1.9600398043
 20
10.0884850768
  0
LINE
  5
38B
100
AcDbEntity
  8
SMUSSO
100
AcDbLine
 62
7
  6
CONTINUOUS
 10
3.9709271464
 20
20.4164436689
 11
3.9196208628
 21
20.3647957014
  0
LWPOLYLINE
  5
38C
100
AcDbEntity
  8
RACCORDO
100
AcDbPolyline
 62
250
  6
CONTINUOUS
 90
6
 70
0
 10
-2.9279042352
 20
13.3382208564
 10
-2.9088848522
 20
13.3537435955
 10
-2.8945352003
 20
13.3708577408
 10
-2.8852441356
 20
13.3890992405
 10
-2.8812633447
 20
13.4079735327
 10
-2.8811139873
 20
13.4121090792
  0
LWPOLYLINE
  5
38D
100
AcDbEntity
  8
RACCORDO
100
AcDbPolyline
 62
250
  6
CONTINUOUS
 90
6
 70
0
 10
-2.9279042352
 20
11.6559563113
 10
-2.9088857974
 20
11.6714781061
 10
-2.8945363829
 20
11.6885913924
 10
-2.8852449995
 20
11.7068322349
 10
-2.8812635334
 20
11.7257061306
 10
-2.8811140473
 20
11.7298329086
  0
LWPOLYLINE
  5
38E
100
AcDbEntity
  8
RACCORDO
100
AcDbPolyline
 62
250
  6
CONTINUOUS
 90
15
 70
0
 10
-4.1420036407
 20
13.3428084945
 10
-4.1779662934
 20
13.3144277676
 10
-4.2130455336
 20
13.2823133113
 10
-4.2468479507
 20
13.2468331602
 10
-4.2790349389
 20
13.208350886
 10
-4.3093160707
 20
13.1672049597
 10
-4.3374143772
 20
13.1237319567
 10
-4.3629506704
 20
13.0784754432
 10
-4.3855414639
 20
13.032130192
 10
-4.4049557221
 20
12.9852448841
 10
-4.4210374561
 20
12.9382825301
 10
-4.4336269826
 20
12.8918272545
 10
-4.4426396785
 20
12.8463867151
 10
-4.4480444605
 20
12.8023876419
 10
-4.4498400387
 20
12.7602597815
  0
LWPOLYLINE
  5
38F
100
AcDbEntity
  8
RACCORDO
100
AcDbPolyline
 62
250
  6
CONTINUOUS
 90
15
 70
0
 10
-19.0101406219
 20
0.2094758292
 10
-19.0460392301
 20
0.1811591552
 10
-19.081069077
 20
0.1491114708
 10
-19.1148607081
 20
0.1136699765
 10
-19.1470498819
 20
0.0752158672
 10
-19.1772834514
 20
0.034173547
 10
-19.2052352583
 20
-0.0090069688
 10
-19.2306178269
 20
-0.0538737451
 10
-19.2531717708
 20
-0.0999652643
 10
-19.2726820382
 20
-0.1468570882
 10
-19.2889069783
 20
-0.1939858469
 10
-19.3016315155
 20
-0.2406716822
 10
-19.3107514995
 20
-0.2863685606
 10
-19.3162308174
 20
-0.3306689572
 10
-19.3180542071
 20
-0.3731290629
  0
LWPOLYLINE
  5
390
100
AcDbEntity
  8
ASSI
100
AcDbPolyline
 62
250
  6
CONTINUOUS
 90
7
 70
0
 10
-1.3863615846
 20
15.1008465761
 10
-1.3695663663
 20
15.1122909962
 10
-1.355478546
 20
15.1248996182
 10
-1.3443383882
 20
15.1384604643
 10
-1.3363358889
 20
15.1527469673
 10
-1.3316106492
 20
15.1675164708
 10
-1.330229549
 20
15.1810398921
  0
LWPOLYLINE
  5
391
100
AcDbEntity
  8
ASSI
100
AcDbPolyline
 62
250
  6
CONTINUOUS
 90
7
 70
0
 10
-1.3863615846
 20
14.7315355865
 10
-1.3695780017
 20
14.7429709458
 10
-1.3555050699
 20
14.7555611249
 10
-1.3443771358
 20
14.769093155
 10
-1.3363793923
 20
14.7833368568
 10
-1.3316418757
 20
14.7980537206
 10
-1.3302295446
 20
14.8117529939
  0
LWPOLYLINE
  5
392
100
AcDbEntity
  8
ASSI
100
AcDbPolyline
 62
250
  6
CONTINUOUS
 90
7
 70
0
 10
-1.8726965151
 20
14.004055778
 10
-1.8559662808
 20
14.0154496168
 10
-1.8419232956
 20
14.0279950591
 10
-1.8308025351
 20
14.0414821845
 10
-1.8227900778
 20
14.0556853166
 10
-1.8180199918
 20
14.0703667979
 10
-1.8165644753
 20
14.084268552
  0
LINE
  5
393
100
AcDbEntity
  8
RACCORDO
100
AcDbLine
 62
250
  6
CONTINUOUS
 10
-4.1055415969
 20
13.3671486331
 11
-4.1420036407
 21
13.3428084945
  0
LINE
  5
394
100
AcDbEntity
  8
RACCORDO
100
AcDbLine
 62
250
  6
CONTINUOUS
 10
-4.0651448268
 20
13.3527960334
 11
-3.2544582463
 21
13.8837704025
  0
LINE
  5
395
100
AcDbEntity
  8
RACCORDO
100
AcDbLine
 62
250
  6
CONTINUOUS
 10
-3.7446362974
 20
12.8032868859
 11
-2.9279042352
 21
13.3382208564
  0
LINE
  5
396
100
AcDbEntity
  8
ASSI
100
AcDbLine
 62
7
  6
CONTINUOUS
 10
-0.6057066113
 20
16.1233037616
 11
-0.3082437895
 21
16.3148448133
  0
LINE
  5
397
100
AcDbEntity
  8
SMUSSO
100
AcDbLine
 62
7
  6
CONTINUOUS
 10
4.9059897908
 20
18.9131581244
 11
2.5725748351
 21
17.4664773909
  0
LINE
  5
398
100
AcDbEntity
  8
0
100
AcDbLine
 62
250
  6
CONTINUOUS
 10
-2.1434522437
 20
15.766074912
 11
-1.2561195563
 21
16.2784047537
  0
LINE
  5
399
100
AcDbEntity
  8
0
100
AcDbLine
 62
250
  6
CONTINUOUS
 10
-1.8610101258
 20
15.6029963729
 11
-1.1148920132
 21
16.0337914738
  0
LINE
  5
39A
100
AcDbEntity
  8
ASSI
100
AcDbLine
 62
7
  6
CONTINUOUS
 10
-1.683924985
 20
15.500749632
 11
-0.6057066113
 21
16.1233037616
  0
LINE
  5
39B
100
AcDbEntity
  8
ASSI
100
AcDbLine
 62
250
  6
CONTINUOUS
 10
-1.5277614017
 20
15.3457582432
 11
-3.6022141795
 21
14.1479910957
  0
LINE
  5
39C
100
AcDbEntity
  8
ASSI
100
AcDbLine
 62
250
  6
CONTINUOUS
 10
-1.3863615846
 20
15.1008465761
 11
-3.3194284527
 21
13.9847141611
  0
LINE
  5
39D
100
AcDbEntity
  8
RACCORDO
100
AcDbLine
 62
250
  6
CONTINUOUS
 10
-4.1055415969
 20
13.3671486331
 11
-4.0960442987
 21
13.372632227
  0
LINE
  5
39E
100
AcDbEntity
  8
RACCORDO
100
AcDbLine
 62
250
  6
CONTINUOUS
 10
-3.7521093603
 20
12.7549860428
 11
-3.7426120621
 21
12.7604696367
  0
LINE
  5
39F
100
AcDbEntity
  8
RACCORDO
100
AcDbLine
 62
7
  6
CONTINUOUS
 10
7.3600271665
 20
19.7940667035
 11
5.4093552
 21
18.6841801299
  0
LINE
  5
3A0
100
AcDbEntity
  8
DRAFT
100
AcDbLine
 62
7
  6
CONTINUOUS
 10
6.7463302085
 20
18.1148716562
 11
9.2537244926
 21
19.5375650333
  0
LINE
  5
3A1
100
AcDbEntity
  8
RACCORDO
100
AcDbLine
 62
7
  6
CONTINUOUS
 10
5.4567878525
 20
18.6673648747
 11
7.8039089273
 21
19.9987026354
  0
LINE
  5
3A2
100
AcDbEntity
  8
SMUSSO
100
AcDbLine
 62
7
  6
CONTINUOUS
 10
6.524533924
 20
18.2975703083
 11
8.960551501
 21
19.6793320849
  0
LINE
  5
3A3
100
AcDbEntity
  8
ASSI
100
AcDbLine
 62
250
  6
CONTINUOUS
 10
1.1787708133
 20
15.9598100193
 11
2.8647152669
 21
16.9118811696
  0
LINE
  5
3A4
100
AcDbEntity
  8
RACCORDO
100
AcDbLine
 62
250
  6
CONTINUOUS
 10
3.1769985783
 20
16.8133672446
 11
6.1287061349
 21
18.4798490555
  0
LINE
  5
3A5
100
AcDbEntity
  8
RACCORDO
100
AcDbLine
 62
250
  6
CONTINUOUS
 10
3.4063480467
 20
16.5833746711
 11
6.4860317466
 21
18.321529422
  0
LINE
  5
3A6
100
AcDbEntity
  8
ASSI
100
AcDbLine
 62
250
  6
CONTINUOUS
 10
1.8209502692
 20
15.2974821836
 11
3.5159132287
 21
16.2537060848
  0
LINE
  5
3A7
100
AcDbEntity
  8
SMUSSO
100
AcDbLine
 62
7
  6
CONTINUOUS
 10
1.9753457884
 20
17.42539196
 11
4.8463867238
 21
19.0252299772
  0
LINE
  5
3A8
100
AcDbEntity
  8
ASSI
100
AcDbLine
 62
7
  6
CONTINUOUS
 10
-3.1336447151
 20
16.2283078818
 11
-5.2417487
 21
15.0946377796
  0
LINE
  5
3A9
100
AcDbEntity
  8
ASSI
100
AcDbLine
 62
250
  6
CONTINUOUS
 10
-3.0364513752
 20
16.2168569256
 11
-5.1846101112
 21
15.0616466746
  0
LWPOLYLINE
  5
3AA
100
AcDbEntity
  8
ASSI
100
AcDbPolyline
 62
7
  6
CONTINUOUS
 90
8
 70
0
 10
4.704912049
 20
19.3926901071
 10
4.7117937153
 20
19.3962873034
 10
4.7185780433
 20
19.3987467707
 10
4.725215329
 20
19.4000621223
 10
4.7316495125
 20
19.4002358941
 10
4.7378409689
 20
19.3992667167
 10
4.7437666938
 20
19.3971492538
 10
4.746574537
 20
19.3956876522
  0
LINE
  5
3AB
100
AcDbEntity
  8
ASSI
100
AcDbLine
 62
250
  6
CONTINUOUS
 10
-1.4768471356
 20
14.5733076099
 11
1.1787110306
 21
15.9598445371
  0
LWPOLYLINE
  5
3AC
100
AcDbEntity
  8
RACCORDO
100
AcDbPolyline
 62
250
  6
CONTINUOUS
 90
6
 70
0
 10
-3.2544582463
 20
13.8837704025
 10
-3.2303685804
 20
13.8945512773
 10
-3.2070955049
 20
13.9001562204
 10
-3.1853228428
 20
13.9004205441
 10
-3.1656903313
 20
13.8953364818
 10
-3.1584797837
 20
13.8917832056
  0
LINE
  5
3AD
100
AcDbEntity
  8
ASSI
100
AcDbLine
 62
250
  6
CONTINUOUS
 10
-2.1782653515
 20
18.3431747217
 11
-2.2057033773
 21
18.333899959
  0
LINE
  5
3AE
100
AcDbEntity
  8
RACCORDO
100
AcDbLine
 62
250
  6
CONTINUOUS
 10
-19.0492841813
 20
0.2663198134
 11
-19.0858341697
 21
0.2754569038
  0
LWPOLYLINE
  5
3AF
100
AcDbEntity
  8
RACCORDO
100
AcDbPolyline
 62
250
  6
CONTINUOUS
 90
10
 70
0
 10
14.0668583702
 20
-11.2341953482
 10
14.0996492244
 20
-11.2567508699
 10
14.1283467782
 20
-11.2770043996
 10
14.1527826175
 20
-11.2948386249
 10
14.1728158259
 20
-11.3101527986
 10
14.1883171899
 20
-11.32285071
 10
14.1991823201
 20
-11.3328484101
 10
14.2053493247
 20
-11.3400887164
 10
14.2067864062
 20
-11.3445338884
 10
14.2066162096
 20
-11.3449200357
  0
LWPOLYLINE
  5
3B0
100
AcDbEntity
  8
0
100
AcDbPolyline
 62
7
  6
CONTINUOUS
 90
3
 70
0
 10
-2.8811131239
 20
8.5229277505
 10
-2.7135623154
 20
8.2080669025
 10
-2.408716255
 20
7.614895608
  0
LWPOLYLINE
  5
3B1
100
AcDbEntity
  8
RACCORDO
100
AcDbPolyline
 62
250
  6
CONTINUOUS
 90
11
 70
0
 10
-2.9532717472
 20
13.497967015
 10
-2.9670497934
 20
13.5378013943
 10
-2.9830342862
 20
13.5761515591
 10
-3.0007471047
 20
13.6125970727
 10
-3.0198584796
 20
13.6470459237
 10
-3.0399436058
 20
13.6791461594
 10
-3.0603401411
 20
13.7083914705
 10
-3.0809873754
 20
13.7352096621
 10
-3.102522845
 20
13.7605952166
 10
-3.124778681
 20
13.7843946663
 10
-3.1476279981
 20
13.8065477886
  0
LINE
  5
3B2
100
AcDbEntity
  8
ASSI
100
AcDbLine
 62
250
  6
CONTINUOUS
 10
-6.5457348193
 20
16.1225158031
 11
-6.6706160619
 21
16.4955673329
  0
LINE
  5
3B3
100
AcDbEntity
  8
ASSI
100
AcDbLine
 62
7
  6
CONTINUOUS
 10
-6.4991963169
 20
16.2510543545
 11
-6.6242903944
 21
16.6247325575
  0
LINE
  5
3B4
100
AcDbEntity
  8
RACCORDO
100
AcDbLine
 62
250
  6
CONTINUOUS
 10
-3.7614013128
 20
12.8422277937
 11
-3.7549208997
 21
12.7976302976
  0
LINE
  5
3B5
100
AcDbEntity
  8
ASSI
100
AcDbLine
 62
250
  6
CONTINUOUS
 10
-2.4760968805
 20
16.8182801011
 11
-2.460186814
 21
16.7050803728
  0
LINE
  5
3B6
100
AcDbEntity
  8
ASSI
100
AcDbLine
 62
250
  6
CONTINUOUS
 10
-2.4926103815
 20
16.9385985611
 11
-2.4760968805
 21
16.8182801011
  0
LINE
  5
3B7
100
AcDbEntity
  8
ASSI
100
AcDbLine
 62
250
  6
CONTINUOUS
 10
-2.5097419042
 20
17.0662798206
 11
-2.4926103815
 21
16.9385985611
  0
LINE
  5
3B8
100
AcDbEntity
  8
ASSI
100
AcDbLine
 62
250
  6
CONTINUOUS
 10
-2.5275514912
 20
17.2022115382
 11
-2.5097419042
 21
17.0662798206
  0
LWPOLYLINE
  5
3B9
100
AcDbEntity
  8
ASSI
100
AcDbPolyline
 62
250
  6
CONTINUOUS
 90
13
 70
0
 10
-4.1498520056
 20
18.1807754543
 10
-4.1524982434
 20
18.202234898
 10
-4.1572983912
 20
18.2243687682
 10
-4.1641781614
 20
18.2468379687
 10
-4.1730306563
 20
18.2692965955
 10
-4.1837202029
 20
18.2914029522
 10
-4.1960859503
 20
18.3128243677
 10
-4.2099505326
 20
18.3332480481
 10
-4.2250930049
 20
18.3523435762
 10
-4.2412472799
 20
18.3697833527
 10
-4.2581493848
 20
18.3853011412
 10
-4.2755494811
 20
18.398685393
 10
-4.2931818966
 20
18.4097463957
  0
LWPOLYLINE
  5
3BA
100
AcDbEntity
  8
ASSI
100
AcDbPolyline
 62
250
  6
CONTINUOUS
 90
13
 70
0
 10
-4.0134565796
 20
18.2623374619
 10
-4.0160966016
 20
18.2837605014
 10
-4.0208841945
 20
18.305859057
 10
-4.0277462778
 20
18.3282958036
 10
-4.0365781045
 20
18.3507282539
 10
-4.0472448607
 20
18.3728139862
 10
-4.0595837228
 20
18.394215871
 10
-4.0734063435
 20
18.4146072179
 10
-4.0885017262
 20
18.4336767615
 10
-4.1046394465
 20
18.4511334134
 10
-4.1215731689
 20
18.4667107053
 10
-4.1390444073
 20
18.4801708564
 10
-4.1567864707
 20
18.4913084033
  0
LWPOLYLINE
  5
3BB
100
AcDbEntity
  8
ASSI
100
AcDbPolyline
 62
250
  6
CONTINUOUS
 90
13
 70
0
 10
-1.3778924701
 20
18.5045826268
 10
-1.3805325782
 20
18.5260061704
 10
-1.3853203271
 20
18.5481051468
 10
-1.3921826008
 20
18.570542205
 10
-1.401014615
 20
18.5929748342
 10
-1.411681525
 20
18.6150606136
 10
-1.4240204908
 20
18.6364624377
 10
-1.437843143
 20
18.6568536232
 10
-1.4529384723
 20
18.6759229272
 10
-1.4690760698
 20
18.6933793106
 10
-1.4860096086
 20
18.7089563342
 10
-1.5034805997
 20
18.7224162327
 10
-1.5212223606
 20
18.7335535685
  0
LWPOLYLINE
  5
3BC
100
AcDbEntity
  8
ASSI
100
AcDbPolyline
 62
250
  6
CONTINUOUS
 90
13
 70
0
 10
-2.2057033773
 20
18.333899959
 10
-2.2031535295
 20
18.3131365096
 10
-2.1985803845
 20
18.2917275511
 10
-2.1920496647
 20
18.2699807732
 10
-2.1836552265
 20
18.248208721
 10
-2.1735177127
 20
18.226724305
 10
-2.1617828195
 20
18.205836304
 10
-2.1486191997
 20
18.1858449231
 10
-2.1342160408
 20
18.1670374824
 10
-2.118780348
 20
18.1496842892
 10
-2.1025339652
 20
18.134034748
 10
-2.0857103866
 20
18.1203137766
 10
-2.0685514028
 20
18.1087185766
  0
LWPOLYLINE
  5
3BD
100
AcDbEntity
  8
ASSI
100
AcDbPolyline
 62
250
  6
CONTINUOUS
 90
7
 70
0
 10
-2.5948233208
 20
17.7458856552
 10
-2.5847917949
 20
17.6618202918
 10
-2.5748982404
 20
17.5798804601
 10
-2.5651426573
 20
17.5000661601
 10
-2.5555163291
 20
17.4223602329
 10
-2.5460279722
 20
17.3467798374
 10
-2.5275514912
 20
17.2022115382
  0
LWPOLYLINE
  5
3BE
100
AcDbEntity
  8
0
100
AcDbPolyline
 62
250
  6
CONTINUOUS
 90
7
 70
0
 10
-2.1199991116
 20
9.7371966259
 10
-2.1187526111
 20
9.7263610356
 10
-2.1183978895
 20
9.7160164517
 10
-2.1189370268
 20
9.7062226205
 10
-2.1203669423
 20
9.6970361124
 10
-2.1226794114
 20
9.6885099939
 10
-2.1258611127
 20
9.6806935216
  0
LINE
  5
3BF
100
AcDbEntity
  8
ASSI
100
AcDbLine
 62
250
  6
CONTINUOUS
 10
-0.1892994166
 20
19.2153398608
 11
-0.1762253588
 21
19.0956445515
  0
LINE
  5
3C0
100
AcDbEntity
  8
ASSI
100
AcDbLine
 62
250
  6
CONTINUOUS
 10
0.1087524502
 20
18.2191294901
 11
0.1200886819
 21
18.0958825718
  0
LINE
  5
3C1
100
AcDbEntity
  8
ASSI
100
AcDbLine
 62
250
  6
CONTINUOUS
 10
0.0969724295
 20
18.3500086174
 11
0.1087524502
 21
18.2191294901
  0
LINE
  5
3C2
100
AcDbEntity
  8
ASSI
100
AcDbLine
 62
250
  6
CONTINUOUS
 10
0.0847416044
 20
18.4888417283
 11
0.0969724295
 21
18.3500086174
  0
LINE
  5
3C3
100
AcDbEntity
  8
ASSI
100
AcDbLine
 62
250
  6
CONTINUOUS
 10
0.0720003105
 20
18.6367554443
 11
0.0847416044
 21
18.4888417283
  0
LINE
  5
3C4
100
AcDbEntity
  8
ASSI
100
AcDbLine
 62
250
  6
CONTINUOUS
 10
0.0587501292
 20
18.7942307202
 11
0.0720003105
 21
18.6367554443
  0
LINE
  5
3C5
100
AcDbEntity
  8
ASSI
100
AcDbLine
 62
250
  6
CONTINUOUS
 10
0.0450197959
 20
18.9613611255
 11
0.0587501292
 21
18.7942307202
  0
LWPOLYLINE
  5
3C6
100
AcDbEntity
  8
ASSI
100
AcDbPolyline
 62
250
  6
CONTINUOUS
 90
3
 70
0
 10
0.023676494
 20
19.2294653124
 10
0.0308878398
 20
19.1377599683
 10
0.0450197959
 20
18.9613611255
  0
LWPOLYLINE
  5
3C7
100
AcDbEntity
  8
ASSI
100
AcDbPolyline
 62
250
  6
CONTINUOUS
 90
3
 70
0
 10
0.7068547365
 20
19.4924337879
 10
0.702649825
 20
19.6026436596
 10
0.6969673669
 20
19.7453114317
  0
LWPOLYLINE
  5
3C8
100
AcDbEntity
  8
ASSI
100
AcDbPolyline
 62
250
  6
CONTINUOUS
 90
11
 70
0
 10
0.7358516575
 20
18.518283319
 10
0.7339525785
 20
18.6043012996
 10
0.7318367548
 20
18.6929325554
 10
0.7295041863
 20
18.7841770865
 10
0.7269602185
 20
18.8781126533
 10
0.7241995059
 20
18.9746614955
 10
0.7212060124
 20
19.0735903313
 10
0.7179790782
 20
19.1748815304
 10
0.7145193631
 20
19.2785527233
 10
0.710812811
 20
19.3844235192
 10
0.7068547365
 20
19.4924337879
  0
LINE
  5
3C9
100
AcDbEntity
  8
RACCORDO
100
AcDbLine
 62
250
  6
CONTINUOUS
 10
0.3996088283
 20
21.5236980389
 11
0.3996088283
 21
22.1988473678
  0
LINE
  5
3CA
100
AcDbEntity
  8
ASSI
100
AcDbLine
 62
7
  6
CONTINUOUS
 10
0.6899011659
 20
19.5017384677
 11
0.6899011659
 21
18.3710168628
  0
LINE
  5
3CB
100
AcDbEntity
  8
ASSI
100
AcDbLine
 62
7
  6
CONTINUOUS
 10
2.4698327653
 20
17.315670938
 11
2.4698327653
 21
17.139881377
  0
LINE
  5
3CC
100
AcDbEntity
  8
DRAFT
100
AcDbLine
 62
250
  6
CONTINUOUS
 10
2.5869900528
 20
17.1540307727
 11
2.5869900528
 21
17.0722362275
  0
LINE
  5
3CD
100
AcDbEntity
  8
0
100
AcDbLine
 62
7
  6
CONTINUOUS
 10
2.965295282
 20
9.7848217817
 11
2.965295282
 21
-18.8112130066
  0
LINE
  5
3CE
100
AcDbEntity
  8
ASSI
100
AcDbLine
 62
7
  6
CONTINUOUS
 10
3.1035345021
 20
15.4132533732
 11
3.1035345021
 21
15.3663737514
  0
LWPOLYLINE
  5
3CF
100
AcDbEntity
  8
ASSI
100
AcDbPolyline
 62
250
  6
CONTINUOUS
 90
3
 70
0
 10
-1.3789678682
 20
-23.249936155
 10
-1.3813917896
 20
-23.2753000442
 10
-1.3863615846
 20
-23.299717686
  0
LWPOLYLINE
  5
3D0
100
AcDbEntity
  8
ASSI
100
AcDbPolyline
 62
250
  6
CONTINUOUS
 90
7
 70
0
 10
-1.3302295446
 20
-23.5888112682
 10
-1.3316106492
 20
-23.6023587809
 10
-1.3363358889
 20
-23.6171282843
 10
-1.3443383882
 20
-23.6314147873
 10
-1.355478546
 20
-23.6449756334
 10
-1.3695663663
 20
-23.6575842554
 10
-1.3863615846
 20
-23.6690286756
  0
LWPOLYLINE
  5
3D1
100
AcDbEntity
  8
ASSI
100
AcDbPolyline
 62
250
  6
CONTINUOUS
 90
7
 70
0
 10
-1.3302295446
 20
-23.2195002786
 10
-1.3316418757
 20
-23.233199552
 10
-1.3363793923
 20
-23.2479164157
 10
-1.3443771358
 20
-23.2621601175
 10
-1.3555050699
 20
-23.2756921476
 10
-1.3695780017
 20
-23.2882823268
 10
-1.3863615846
 20
-23.299717686
  0
LWPOLYLINE
  5
3D2
100
AcDbEntity
  8
ASSI
100
AcDbPolyline
 62
250
  6
CONTINUOUS
 90
6
 70
0
 10
-1.8165644751
 20
-23.0735819453
 10
-1.8180200249
 20
-23.0874884909
 10
-1.8227901418
 20
-23.1021699593
 10
-1.8308026179
 20
-23.1163730662
 10
-1.8419233775
 20
-23.1298601563
 10
-1.8559663365
 20
-23.1424055566
  0
LWPOLYLINE
  5
3D3
100
AcDbEntity
  8
RACCORDO
100
AcDbPolyline
 62
250
  6
CONTINUOUS
 90
3
 70
0
 10
-3.7612892132
 20
-29.4767220511
 10
-3.7548868435
 20
-29.4379753836
 10
-3.7521093651
 20
-29.3967862419
  0
LWPOLYLINE
  5
3D4
100
AcDbEntity
  8
RACCORDO
100
AcDbPolyline
 62
250
  6
CONTINUOUS
 90
3
 70
0
 10
-3.784883045
 20
-7.8270024409
 10
-3.7713027422
 20
-7.7944627862
 10
-3.7612892132
 20
-7.7586126884
  0
LWPOLYLINE
  5
3D5
100
AcDbEntity
  8
RACCORDO
100
AcDbPolyline
 62
7
  6
CONTINUOUS
 90
13
 70
0
 10
7.657656125
 20
20.0831471705
 10
7.6728465493
 20
20.1183336815
 10
7.6865300159
 20
20.152184993
 10
7.6985638245
 20
20.1845186736
 10
7.7088132632
 20
20.2151601721
 10
7.7170949032
 20
20.2439263392
 10
7.7231800485
 20
20.2706413527
 10
7.7268502041
 20
20.295232021
 10
7.7279504385
 20
20.3174689781
 10
7.7263664816
 20
20.337050793
 10
7.7219623314
 20
20.3538956981
 10
7.7145498565
 20
20.3680517859
 10
7.703967312
 20
20.3795149138
  0
LWPOLYLINE
  5
3D6
100
AcDbEntity
  8
RACCORDO
100
AcDbPolyline
 62
7
  6
CONTINUOUS
 90
10
 70
0
 10
7.657656125
 20
20.0831471705
 10
7.6416320412
 20
20.0505451863
 10
7.6213637009
 20
20.0179296902
 10
7.5968511041
 20
19.9853006821
 10
7.5681171755
 20
19.952479502
 10
7.5351389903
 20
19.91964481
 10
7.4978477742
 20
19.8873325861
 10
7.4562206025
 20
19.8557214904
 10
7.4102804
 20
19.8246328629
 10
7.3600271665
 20
19.7940667035
  0
LINE
  5
3D7
100
AcDbEntity
  8
RACCORDO
100
AcDbLine
 62
250
  6
CONTINUOUS
 10
-2.5995909299
 20
9.2967085564
 11
-2.5546658517
 21
9.3411186248
  0
LINE
  5
3D8
100
AcDbEntity
  8
RACCORDO
100
AcDbLine
 62
7
  6
CONTINUOUS
 10
-2.595647547
 20
9.2460514975
 11
-2.5732911878
 21
9.2674029254
  0
LINE
  5
3D9
100
AcDbEntity
  8
RACCORDO
100
AcDbLine
 62
250
  6
CONTINUOUS
 10
-2.5546658517
 20
9.3411186248
 11
-2.1199991116
 21
9.7371966259
  0
LINE
  5
3DA
100
AcDbEntity
  8
RACCORDO
100
AcDbLine
 62
7
  6
CONTINUOUS
 10
-2.5731677645
 20
9.2675150385
 11
-2.3003276945
 21
9.5161329785
  0
LINE
  5
3DB
100
AcDbEntity
  8
0
100
AcDbLine
 62
7
  6
CONTINUOUS
 10
-2.5731677645
 20
9.2675150385
 11
-2.573291188
 21
9.2674029253
  0
LWPOLYLINE
  5
3DC
100
AcDbEntity
  8
RACCORDO
100
AcDbPolyline
 62
250
  6
CONTINUOUS
 90
6
 70
0
 10
-2.9279042352
 20
8.5214455728
 10
-2.9088841952
 20
8.5369689345
 10
-2.8945344221
 20
8.5540835862
 10
-2.8852436087
 20
8.5723253856
 10
-2.8812632481
 20
8.5911996377
 10
-2.8811131239
 20
8.5956730745
  0
LINE
  5
3DD
100
AcDbEntity
  8
RACCORDO
100
AcDbLine
 62
250
  6
CONTINUOUS
 10
-18.9737557653
 20
0.2337597887
 11
-19.0101406219
 21
0.2094758292
  0
LINE
  5
3DE
100
AcDbEntity
  8
RACCORDO
100
AcDbLine
 62
7
  6
CONTINUOUS
 10
-19.2211377667
 20
0.2603869136
 11
-19.2338747665
 21
0.2522417498
  0
LINE
  5
3DF
100
AcDbEntity
  8
RACCORDO
100
AcDbLine
 62
250
  6
CONTINUOUS
 10
-18.9647431658
 20
0.2395232416
 11
-18.9737557653
 21
0.2337597887
  0
LINE
  5
3E0
100
AcDbEntity
  8
DRAFT
100
AcDbLine
 62
7
  6
CONTINUOUS
 10
3.8863087151
 20
15.8182504175
 11
0.715800334
 21
13.8949177145
  0
LINE
  5
3E1
100
AcDbEntity
  8
0
100
AcDbLine
 62
7
  6
CONTINUOUS
 10
3.1016625163
 20
15.3694623325
 11
0.699394049
 21
13.9134499493
  0
LINE
  5
3E2
100
AcDbEntity
  8
ASSI
100
AcDbLine
 62
7
  6
CONTINUOUS
 10
-1.8726965151
 20
12.715967988
 11
-2.4897508187
 21
12.3526752653
  0
LINE
  5
3E3
100
AcDbEntity
  8
0
100
AcDbLine
 62
7
  6
CONTINUOUS
 10
-2.5380509126
 20
12.3805631342
 11
-2.8811131239
 21
12.182483313
  0
LINE
  5
3E4
100
AcDbEntity
  8
0
100
AcDbLine
 62
7
  6
CONTINUOUS
 10
3.7919122354
 20
15.8107150102
 11
0.6492524974
 21
13.9961782762
  0
LINE
  5
3E5
100
AcDbEntity
  8
0
100
AcDbLine
 62
7
  6
CONTINUOUS
 10
-1.8309441315
 20
11.9722885409
 11
-2.6299536877
 21
11.510950437
  0
LINE
  5
3E6
100
AcDbEntity
  8
0
100
AcDbLine
 62
7
  6
CONTINUOUS
 10
11.6095860884
 20
18.435526891
 11
11.4006536362
 21
18.3148919116
  0
LINE
  5
3E7
100
AcDbEntity
  8
0
100
AcDbLine
 62
7
  6
CONTINUOUS
 10
11.8156760865
 20
18.316533109
 11
11.6067436342
 21
18.1958981296
  0
LINE
  5
3E8
100
AcDbEntity
  8
0
100
AcDbLine
 62
7
  6
CONTINUOUS
 10
12.2666711105
 20
18.1440514935
 11
12.2414269926
 21
18.1294758562
  0
LINE
  5
3E9
100
AcDbEntity
  8
0
100
AcDbLine
 62
7
  6
CONTINUOUS
 10
-1.8309441315
 20
9.6861717659
 11
-2.5985301641
 21
9.2429772107
  0
LINE
  5
3EA
100
AcDbEntity
  8
RACCORDO
100
AcDbLine
 62
7
  6
CONTINUOUS
 10
9.4781265532
 20
16.1485765995
 11
9.4482949379
 21
16.1313521987
  0
LINE
  5
3EB
100
AcDbEntity
  8
DRAFT
100
AcDbLine
 62
7
  6
CONTINUOUS
 10
3.1035345021
 20
15.3663737514
 11
3.8863087151
 21
15.8182504175
  0
LINE
  5
3EC
100
AcDbEntity
  8
DRAFT
100
AcDbLine
 62
7
  6
CONTINUOUS
 10
0.7121162785
 20
13.8927909981
 11
0.715800334
 21
13.8949177145
  0
LINE
  5
3ED
100
AcDbEntity
  8
RACCORDO
100
AcDbLine
 62
250
  6
CONTINUOUS
 10
-19.2149046942
 20
0.2627039473
 11
-19.2337668804
 21
0.2523106833
  0
LWPOLYLINE
  5
3EE
100
AcDbEntity
  8
RACCORDO
100
AcDbPolyline
 62
7
  6
CONTINUOUS
 90
10
 70
0
 10
9.4780976574
 20
16.1485599154
 10
9.4894941216
 20
16.1546408172
 10
9.5007145241
 20
16.1596502004
 10
9.5117588648
 20
16.1635880649
 10
9.5227221237
 20
16.1664646225
 10
9.5335093209
 20
16.1682696613
 10
9.5438355163
 20
16.1689725467
 10
9.5536057301
 20
16.1685630669
 10
9.5629149421
 20
16.1670514335
 10
9.5717631524
 20
16.1644376466
  0
LINE
  5
3EF
100
AcDbEntity
  8
ASSI
100
AcDbLine
 62
250
  6
CONTINUOUS
 10
-1.8165644751
 20
13.4081886892
 11
1.8209502692
 21
15.2974821836
  0
LINE
  5
3F0
100
AcDbEntity
  8
0
100
AcDbLine
 62
250
  6
CONTINUOUS
 10
-2.5839805615
 20
11.6453466136
 11
-2.6833171795
 21
11.5991565827
  0
LINE
  5
3F1
100
AcDbEntity
  8
RACCORDO
100
AcDbLine
 62
250
  6
CONTINUOUS
 10
-2.1199991116
 20
11.5520500871
 11
-2.5546658517
 21
11.3499366012
  0
LWPOLYLINE
  5
3F2
100
AcDbEntity
  8
RACCORDO
100
AcDbPolyline
 62
250
  6
CONTINUOUS
 90
8
 70
0
 10
-2.6833178197
 20
11.5991569523
 10
-2.71056145
 20
11.5869984525
 10
-2.7368591331
 20
11.5786348358
 10
-2.7620064543
 20
11.5739784173
 10
-2.7859651648
 20
11.5729120113
 10
-2.8084204707
 20
11.5753387957
 10
-2.8288731139
 20
11.5809666721
 10
-2.8477181283
 20
11.5896567922
  0
LWPOLYLINE
  5
3F3
100
AcDbEntity
  8
RACCORDO
100
AcDbPolyline
 62
250
  6
CONTINUOUS
 90
3
 70
0
 10
-3.833550823
 20
12.7187732423
 10
-3.7912140663
 20
12.7356680229
 10
-3.7521093603
 20
12.7549860428
  0
LWPOLYLINE
  5
3F4
100
AcDbEntity
  8
RACCORDO
100
AcDbPolyline
 62
250
  6
CONTINUOUS
 90
18
 70
0
 10
-2.5546658517
 20
11.3499366012
 10
-2.5947651105
 20
11.334071446
 10
-2.6329516507
 20
11.3231674338
 10
-2.6692254723
 20
11.3172245645
 10
-2.7039041228
 20
11.3166130076
 10
-2.7366700547
 20
11.3209625936
 10
-2.7665706254
 20
11.3291628141
 10
-2.7932178422
 20
11.3413264466
 10
-2.8169996978
 20
11.3573407136
 10
-2.8381275272
 20
11.3757567741
 10
-2.8564329012
 20
11.3960858895
 10
-2.8720842491
 20
11.4188167983
 10
-2.8857981931
 20
11.4439668748
 10
-2.8978478811
 20
11.4711622176
 10
-2.9079601653
 20
11.5007767282
 10
-2.9160322249
 20
11.5339494849
 10
-2.9220297863
 20
11.5710601808
 10
-2.9259871231
 20
11.6117291229
  0
LINE
  5
3F5
100
AcDbEntity
  8
RACCORDO
100
AcDbLine
 62
7
  6
CONTINUOUS
 10
12.914885526
 20
17.3961491783
 11
12.885789627
 21
17.3875956526
  0
LWPOLYLINE
  5
3F6
100
AcDbEntity
  8
RACCORDO
100
AcDbPolyline
 62
250
  6
CONTINUOUS
 90
3
 70
0
 10
-19.0858341697
 20
0.2754569038
 10
-19.1210138748
 20
0.2796843941
 10
-19.154458707
 20
0.2789668336
  0
LINE
  5
3F7
100
AcDbEntity
  8
RACCORDO
100
AcDbLine
 62
7
  6
CONTINUOUS
 10
-2.9396917676
 20
4.2088201754
 11
-3.3585594811
 21
4.4675586153
  0
LWPOLYLINE
  5
3F8
100
AcDbEntity
  8
ASSI
100
AcDbPolyline
 62
7
  6
CONTINUOUS
 90
5
 70
0
 10
-6.4957269692
 20
16.2430995857
 10
-6.4956789076
 20
16.2430335849
 10
-6.4960919753
 20
16.24374108
 10
-6.4973927003
 20
16.2464056326
 10
-6.4991963169
 20
16.2510543545
  0
LINE
  5
3F9
100
AcDbEntity
  8
DRAFT
100
AcDbLine
 62
7
  6
CONTINUOUS
 10
-7.1481063064
 20
22.1893833572
 11
-7.1421897793
 21
22.1791356316
  0
LWPOLYLINE
  5
3FA
100
AcDbEntity
  8
ASSI
100
AcDbPolyline
 62
7
  6
CONTINUOUS
 90
6
 70
0
 10
-2.3588110522
 20
9.3813880216
 10
-2.332992259
 20
9.334737869
 10
-2.0786871227
 20
8.8632266487
 10
-1.8298086456
 20
8.3894952297
 10
-1.5862649657
 20
7.913377635
 10
-1.3480560832
 20
7.4348738645
  0
LWPOLYLINE
  5
3FB
100
AcDbEntity
  8
ASSI
100
AcDbPolyline
 62
250
  6
CONTINUOUS
 90
3
 70
0
 10
-4.2061020262
 20
21.6716864185
 10
-4.1992300855
 20
21.6556407853
 10
-4.1981721088
 20
21.6509669492
  0
LWPOLYLINE
  5
3FC
100
AcDbEntity
  8
ASSI
100
AcDbPolyline
 62
250
  6
CONTINUOUS
 90
6
 70
0
 10
-1.6898401791
 20
14.4202784257
 10
-1.6848836628
 20
14.4046999118
 10
-1.6824542856
 20
14.3907480766
 10
-1.6825932998
 20
14.3786598316
 10
-1.6852983451
 20
14.3686404434
 10
-1.6905065871
 20
14.3608773694
  0
LWPOLYLINE
  5
3FD
100
AcDbEntity
  8
ASSI
100
AcDbPolyline
 62
250
  6
CONTINUOUS
 90
6
 70
0
 10
-1.3863615846
 20
14.7315355865
 10
-1.3813917894
 20
14.7159039263
 10
-1.378967868
 20
14.7019156498
 10
-1.379128839
 20
14.6898081911
 10
-1.3818691199
 20
14.6797873963
 10
-1.3870148976
 20
14.6721479742
  0
LWPOLYLINE
  5
3FE
100
AcDbEntity
  8
ASSI
100
AcDbPolyline
 62
7
  6
CONTINUOUS
 90
4
 70
0
 10
-1.6450598284
 20
17.1561917862
 10
-1.6381838702
 20
17.1234725301
 10
-1.6328076557
 20
17.0783405456
 10
-1.6308987957
 20
17.0301587112
  0
LWPOLYLINE
  5
3FF
100
AcDbEntity
  8
ASSI
100
AcDbPolyline
 62
7
  6
CONTINUOUS
 90
5
 70
0
 10
-1.7914066028
 20
18.1346520585
 10
-1.7885912738
 20
18.1192655053
 10
-1.7865786226
 20
18.1037881064
 10
-1.7853732821
 20
18.0882792574
 10
-1.7849725724
 20
18.0727773911
  0
LINE
  5
400
100
AcDbEntity
  8
ASSI
100
AcDbLine
 62
250
  6
CONTINUOUS
 10
-0.0689842898
 20
18.186184482
 11
-0.0533393867
 21
18.0639653309
  0
LINE
  5
401
100
AcDbEntity
  8
ASSI
100
AcDbLine
 62
250
  6
CONTINUOUS
 10
-0.0852336228
 20
18.3159643785
 11
-0.0689842898
 21
18.186184482
  0
LWPOLYLINE
  5
402
100
AcDbEntity
  8
ASSI
100
AcDbPolyline
 62
250
  6
CONTINUOUS
 90
13
 70
0
 10
-0.1892994162
 20
19.2153398611
 10
-0.1919394366
 20
19.2367628972
 10
-0.1967270278
 20
19.2588614506
 10
-0.2035891098
 20
19.2812981962
 10
-0.2124209366
 20
19.3037306474
 10
-0.2230876941
 20
19.3258163817
 10
-0.235426558
 20
19.3472182685
 10
-0.2492491806
 20
19.367609617
 10
-0.2643445656
 20
19.386679162
 10
-0.2804822872
 20
19.4041358144
 10
-0.2974160095
 20
19.4197131058
 10
-0.3148872467
 20
19.4331732562
 10
-0.3326293077
 20
19.4443108022
  0
LWPOLYLINE
  5
403
100
AcDbEntity
  8
ASSI
100
AcDbPolyline
 62
250
  6
CONTINUOUS
 90
13
 70
0
 10
0.6969673682
 20
19.7453114325
 10
0.6943273434
 20
19.7667344879
 10
0.6895397459
 20
19.7888330555
 10
0.6826776576
 20
19.8112698093
 10
0.6738458275
 20
19.8337022601
 10
0.6631790704
 20
19.8557879876
 10
0.6508402082
 20
19.8771898676
 10
0.6370175868
 20
19.8975812112
 10
0.6219222039
 20
19.9166507515
 10
0.605784485
 20
19.9341073989
 10
0.5888507661
 20
19.9496846853
 10
0.5713795327
 20
19.963144831
 10
0.5536374758
 20
19.9742823732
  0
LINE
  5
404
100
AcDbEntity
  8
ASSI
100
AcDbLine
 62
250
  6
CONTINUOUS
 10
-0.1021048078
 20
18.4535960742
 11
-0.0852336228
 21
18.3159643785
  0
LINE
  5
405
100
AcDbEntity
  8
ASSI
100
AcDbLine
 62
250
  6
CONTINUOUS
 10
-0.1196697161
 20
18.6001476966
 11
-0.1021048078
 21
18.4535960742
  0
LWPOLYLINE
  5
406
100
AcDbEntity
  8
ASSI
100
AcDbPolyline
 62
250
  6
CONTINUOUS
 90
4
 70
0
 10
-0.1568033106
 20
18.9213023305
 10
-0.1472893824
 20
18.8375248047
 10
-0.1379132717
 20
18.7560255299
 10
-0.1196697161
 20
18.6001476966
  0
LINE
  5
407
100
AcDbEntity
  8
ASSI
100
AcDbLine
 62
250
  6
CONTINUOUS
 10
-0.1762253588
 20
19.0956445515
 11
-0.1568033106
 21
18.9213023305
  0
LINE
  5
408
100
AcDbEntity
  8
ASSI
100
AcDbLine
 62
250
  6
CONTINUOUS
 10
3.8424741863
 20
20.3066899459
 11
3.8117124485
 21
20.7304405695
  0
LINE
  5
409
100
AcDbEntity
  8
ASSI
100
AcDbLine
 62
250
  6
CONTINUOUS
 10
3.9196208628
 20
20.3647957014
 11
3.8900343777
 21
20.7723569247
  0
LINE
  5
40A
100
AcDbEntity
  8
SMUSSO
100
AcDbLine
 62
7
  6
CONTINUOUS
 10
4.6401421907
 20
21.198280837
 11
4.6687591266
 21
20.8040753957
  0
LINE
  5
40B
100
AcDbEntity
  8
SMUSSO
100
AcDbLine
 62
7
  6
CONTINUOUS
 10
4.7818070487
 20
20.6136867213
 11
4.7818070487
 21
20.1278194667
  0
LINE
  5
40C
100
AcDbEntity
  8
SMUSSO
100
AcDbLine
 62
7
  6
CONTINUOUS
 10
4.7818070487
 20
19.1507532927
 11
4.7818070487
 21
19.2908023537
  0
LINE
  5
40D
100
AcDbEntity
  8
SMUSSO
100
AcDbLine
 62
7
  6
CONTINUOUS
 10
5.1939677168
 20
18.8177372215
 11
5.1939677168
 21
18.7720952338
  0
LWPOLYLINE
  5
40E
100
AcDbEntity
  8
SMUSSO
100
AcDbPolyline
 62
7
  6
CONTINUOUS
 90
10
 70
0
 10
4.4579359692
 20
19.8853958021
 10
4.4583861998
 20
19.9135281262
 10
4.4661073277
 20
20.0050845706
 10
4.4833744781
 20
20.0961186555
 10
4.5101277975
 20
20.1863051695
 10
4.5462744607
 20
20.2753232042
 10
4.5916891709
 20
20.3628782323
 10
4.6462143383
 20
20.4486648302
 10
4.7096604663
 20
20.5323677902
 10
4.7818070487
 20
20.6136867213
  0
LINE
  5
40F
100
AcDbEntity
  8
RACCORDO
100
AcDbLine
 62
7
  6
CONTINUOUS
 10
-2.9279042352
 20
4.0472570999
 11
-3.3585594811
 21
3.7492568019
  0
LINE
  5
410
100
AcDbEntity
  8
RACCORDO
100
AcDbLine
 62
7
  6
CONTINUOUS
 10
-2.9279042352
 20
5.0261490198
 11
-3.3585594811
 21
4.7314784779
  0
LINE
  5
411
100
AcDbEntity
  8
RACCORDO
100
AcDbLine
 62
250
  6
CONTINUOUS
 10
10.0814047481
 20
14.5036825374
 11
2.7725432113
 21
10.1841067355
  0
LINE
  5
412
100
AcDbEntity
  8
RACCORDO
100
AcDbLine
 62
250
  6
CONTINUOUS
 10
10.2981924975
 20
13.9316148107
 11
2.965295282
 21
9.600596458
  0
LINE
  5
413
100
AcDbEntity
  8
DRAFT
100
AcDbLine
 62
7
  6
CONTINUOUS
 10
-2.8811131239
 20
7.4718576791
 11
-2.462052372
 21
7.7186773447
  0
LINE
  5
414
100
AcDbEntity
  8
0
100
AcDbLine
 62
7
  6
CONTINUOUS
 10
13.1157248957
 20
17.6868155951
 11
12.9067924434
 21
17.5661806157
  0
LINE
  5
415
100
AcDbEntity
  8
RACCORDO
100
AcDbLine
 62
250
  6
CONTINUOUS
 10
13.3598592848
 20
16.7907665314
 11
10.0946751257
 21
14.9054836471
  0
LINE
  5
416
100
AcDbEntity
  8
RACCORDO
100
AcDbLine
 62
250
  6
CONTINUOUS
 10
14.0668583702
 20
15.5662081959
 11
10.7088540535
 21
13.6273319318
  0
LINE
  5
417
100
AcDbEntity
  8
RACCORDO
100
AcDbLine
 62
7
  6
CONTINUOUS
 10
-2.8811131239
 20
8.4590244809
 11
-2.8549691648
 21
8.4737981211
  0
LINE
  5
418
100
AcDbEntity
  8
RACCORDO
100
AcDbLine
 62
7
  6
CONTINUOUS
 10
12.5937780359
 20
17.2330922433
 11
9.7063258313
 21
15.6524526109
  0
LINE
  5
419
100
AcDbEntity
  8
0
100
AcDbLine
 62
7
  6
CONTINUOUS
 10
2.965295282
 20
9.7848217817
 11
-1.3480560832
 21
7.4348738645
  0
LWPOLYLINE
  5
41A
100
AcDbEntity
  8
RACCORDO
100
AcDbPolyline
 62
250
  6
CONTINUOUS
 90
10
 70
0
 10
13.3598592848
 20
16.7907665314
 10
13.4164242337
 20
16.8196649363
 10
13.47266836
 20
16.8431357435
 10
13.5282248977
 20
16.8609912853
 10
13.5827664255
 20
16.8730852584
 10
13.6358883437
 20
16.8792858888
 10
13.6871236823
 20
16.8795200935
 10
13.7361028474
 20
16.8737926092
 10
13.7825434679
 20
16.8621431717
 10
13.8261421581
 20
16.8446478866
  0
LINE
  5
41B
100
AcDbEntity
  8
RACCORDO
100
AcDbLine
 62
7
  6
CONTINUOUS
 10
-18.7580356606
 20
0.4188847147
 11
-19.0629149295
 21
0.2796517877
  0
LINE
  5
41C
100
AcDbEntity
  8
RACCORDO
100
AcDbLine
 62
250
  6
CONTINUOUS
 10
-18.6357866883
 20
0.3482996902
 11
-18.9246567841
 21
0.2163778672
  0
LWPOLYLINE
  5
41D
100
AcDbEntity
  8
RACCORDO
100
AcDbPolyline
 62
250
  6
CONTINUOUS
 90
6
 70
0
 10
13.8146896488
 20
-2.1224870763
 10
13.76452548
 20
-2.1039284312
 10
13.7132323395
 20
-2.0888805885
 10
13.6606528803
 20
-2.0772289226
 10
13.6071708703
 20
-2.0689000301
 10
13.5768835981
 20
-2.066022748
  0
LINE
  5
41E
100
AcDbEntity
  8
RACCORDO
100
AcDbLine
 62
250
  6
CONTINUOUS
 10
13.863585584
 20
-2.1446401781
 11
13.8146896488
 21
-2.1224870763
  0
LINE
  5
41F
100
AcDbEntity
  8
RACCORDO
100
AcDbLine
 62
250
  6
CONTINUOUS
 10
13.9592556029
 20
-2.1918003679
 11
13.906259514
 21
-2.1657914265
  0
LINE
  5
420
100
AcDbEntity
  8
RACCORDO
100
AcDbLine
 62
250
  6
CONTINUOUS
 10
13.906259514
 20
-2.1657914265
 11
13.863585584
 21
-2.1446401781
  0
LINE
  5
421
100
AcDbEntity
  8
RACCORDO
100
AcDbLine
 62
250
  6
CONTINUOUS
 10
13.9801355947
 20
-2.2023047671
 11
13.9592556029
 21
-2.1918003679
  0
LINE
  5
422
100
AcDbEntity
  8
RACCORDO
100
AcDbLine
 62
250
  6
CONTINUOUS
 10
12.7511243327
 20
-1.9314814755
 11
14.4434703151
 21
-2.9084286225
  0
LINE
  5
423
100
AcDbEntity
  8
RACCORDO
100
AcDbLine
 62
7
  6
CONTINUOUS
 10
12.6853223926
 20
-1.5513477435
 11
13.9458784454
 21
-2.2790338386
  0
LWPOLYLINE
  5
424
100
AcDbEntity
  8
RACCORDO
100
AcDbPolyline
 62
7
  6
CONTINUOUS
 90
3
 70
0
 10
12.6859445315
 20
-1.5517084255
 10
12.6819857951
 20
-1.5493507462
 10
12.6663201327
 20
-1.537782721
  0
LWPOLYLINE
  5
425
100
AcDbEntity
  8
RACCORDO
100
AcDbPolyline
 62
250
  6
CONTINUOUS
 90
16
 70
0
 10
12.6859445879
 20
-1.5517084583
 10
12.7067040998
 20
-1.5655612786
 10
12.7262374752
 20
-1.5824235175
 10
12.7437118535
 20
-1.6017526027
 10
12.7589387756
 20
-1.6233400725
 10
12.771754021
 20
-1.6469531083
 10
12.7820193787
 20
-1.6723370464
 10
12.789624138
 20
-1.699218124
 10
12.7944862825
 20
-1.7273064317
 10
12.7965533745
 20
-1.7562990405
 10
12.7958031207
 20
-1.7858832683
 10
12.7922436125
 20
-1.8157400527
 10
12.7859132387
 20
-1.8455473918
 10
12.7768802718
 20
-1.8749838169
 10
12.7652421311
 20
-1.9037318596
 10
12.7511243327
 20
-1.9314814755
  0
LWPOLYLINE
  5
426
100
AcDbEntity
  8
RACCORDO
100
AcDbPolyline
 62
7
  6
CONTINUOUS
 90
10
 70
0
 10
12.6663201327
 20
-1.537782721
 10
12.6506634218
 20
-1.5220965236
 10
12.6353565188
 20
-1.5018531912
 10
12.6207050294
 20
-1.4766852764
 10
12.606986729
 20
-1.4460535423
 10
12.5947524522
 20
-1.4098388606
 10
12.5846275565
 20
-1.3685030759
 10
12.5770257331
 20
-1.3222169299
 10
12.5723063637
 20
-1.2712140804
 10
12.5707828743
 20
-1.2190310451
  0
LWPOLYLINE
  5
427
100
AcDbEntity
  8
RACCORDO
100
AcDbPolyline
 62
250
  6
CONTINUOUS
 90
11
 70
0
 10
-3.9984713012
 20
13.2823858144
 10
-3.964412881
 20
13.2466655078
 10
-3.9318068144
 20
13.2078363562
 10
-3.9010228764
 20
13.1663412793
 10
-3.8724044754
 20
13.122650515
 10
-3.8462559672
 20
13.077236602
 10
-3.8228535374
 20
13.0305822437
 10
-3.8024277823
 20
12.9831325017
 10
-3.7852390733
 20
12.9354754131
 10
-3.7715233894
 20
12.8883178023
 10
-3.7614013128
 20
12.8422277937
  0
LWPOLYLINE
  5
428
100
AcDbEntity
  8
0
100
AcDbPolyline
 62
250
  6
CONTINUOUS
 90
7
 70
0
 10
-2.6110583408
 20
11.5383903343
 10
-2.621799422
 20
11.5511390199
 10
-2.6331774324
 20
11.5629479783
 10
-2.6451081612
 20
11.5737298353
 10
-2.6575033098
 20
11.58340482
 10
-2.6702711454
 20
11.5919013542
 10
-2.6833171795
 20
11.5991565827
  0
LWPOLYLINE
  5
429
100
AcDbEntity
  8
ASSI
100
AcDbPolyline
 62
250
  6
CONTINUOUS
 90
7
 70
0
 10
-7.0438535251
 20
20.2873919975
 10
-7.049203067
 20
20.2942159219
 10
-7.0645610182
 20
20.3103249531
 10
-7.0820839323
 20
20.324238123
 10
-7.1015007909
 20
20.335740296
 10
-7.1225113075
 20
20.3446536409
 10
-7.1447905506
 20
20.3508403574
  0
LINE
  5
42A
100
AcDbEntity
  8
ASSI
100
AcDbLine
 62
7
  6
CONTINUOUS
 10
-7.0436295745
 20
20.2870890243
 11
-7.0438535251
 21
20.2873919975
  0
LWPOLYLINE
  5
42B
100
AcDbEntity
  8
ASSI
100
AcDbPolyline
 62
250
  6
CONTINUOUS
 90
6
 70
0
 10
-4.2061020636
 20
21.6716737182
 10
-4.2033841155
 20
21.6675815702
 10
-4.2010763917
 20
21.6635358664
 10
-4.1991558252
 20
21.6595494647
 10
-4.1976001798
 20
21.6556358861
 10
-4.1964985781
 20
21.6521648228
  0
LWPOLYLINE
  5
42C
100
AcDbEntity
  8
ASSI
100
AcDbPolyline
 62
250
  6
CONTINUOUS
 90
37
 70
0
 10
-4.0174777509
 20
21.8733707392
 10
-4.0121863991
 20
21.8639034729
 10
-4.0076154881
 20
21.8546094119
 10
-4.0037650178
 20
21.8454885562
 10
-4.0006818604
 20
21.8365267117
 10
-3.9983191438
 20
21.8277380724
 10
-3.9965362511
 20
21.8191652204
 10
-3.9953297115
 20
21.8108154927
 10
-3.9947029959
 20
21.8026815523
 10
-3.9945258998
 20
21.7947839713
 10
-3.9947877031
 20
21.7871440011
 10
-3.995499126
 20
21.7797403903
 10
-3.9965621246
 20
21.7725299564
 10
-3.9979591189
 20
21.7655203649
 10
-3.999707689
 20
21.7587039502
 10
-4.0017625318
 20
21.7520145338
 10
-4.0041128539
 20
21.7454434227
 10
-4.0067694487
 20
21.7389993097
 10
-4.0097193925
 20
21.732642095
 10
-4.0129586853
 20
21.7263636907
 10
-4.0164913272
 20
21.7201721846
 10
-4.0203163946
 20
21.71405174
 10
-4.0244292794
 20
21.7080010575
 10
-4.0288345897
 20
21.7020214364
 10
-4.0335452271
 20
21.6961009383
 10
-4.0385567732
 20
21.6902381059
 10
-4.0438736463
 20
21.6844343963
 10
-4.0495220025
 20
21.6786822426
 10
-4.0554978727
 20
21.6729794342
 10
-4.0618052259
 20
21.6673281816
 10
-4.0684821252
 20
21.661727549
 10
-4.0755250448
 20
21.656174662
 10
-4.0829375106
 20
21.6506723951
 10
-4.0907681623
 20
21.6452284349
 10
-4.0990332133
 20
21.6398453438
 10
-4.1077164503
 20
21.6345205595
 10
-4.1168178732
 20
21.6292540819
  0
LWPOLYLINE
  5
42D
100
AcDbEntity
  8
ASSI
100
AcDbPolyline
 62
250
  6
CONTINUOUS
 90
4
 70
0
 10
-1.8163857485
 20
18.2072819942
 10
-1.8185338438
 20
18.2114439652
 10
-1.8230205844
 20
18.2188506206
 10
-1.8279104621
 20
18.2255005551
  0
LWPOLYLINE
  5
42E
100
AcDbEntity
  8
RACCORDO
100
AcDbPolyline
 62
7
  6
CONTINUOUS
 90
10
 70
0
 10
2.7725432113
 20
10.1841067355
 10
2.5604051743
 20
10.6042056784
 10
2.3441193438
 20
11.0224500743
 10
2.1236857198
 20
11.4388399231
 10
1.8990368941
 20
11.8534980329
 10
1.6702402748
 20
12.2663015957
 10
1.4374980867
 20
12.6768821877
 10
1.200877738
 20
13.0851170008
 10
0.9603118204
 20
13.4911288431
 10
0.715800334
 20
13.8949177145
  0
LWPOLYLINE
  5
42F
100
AcDbEntity
  8
0
100
AcDbPolyline
 62
7
  6
CONTINUOUS
 90
10
 70
0
 10
2.965295282
 20
9.7848217817
 10
2.7290832347
 20
10.262614749
 10
2.4875211271
 20
10.7380662471
 10
2.2406089593
 20
11.211176276
 10
1.9882553309
 20
11.6821110329
 10
1.7305516424
 20
12.1507043207
 10
1.4677720946
 20
12.616457548
 10
1.2000080881
 20
13.0792045178
 10
0.9271682223
 20
13.5391114272
 10
0.6492524974
 20
13.9961782762
  0
LINE
  5
430
100
AcDbEntity
  8
ASSI
100
AcDbLine
 62
7
  6
CONTINUOUS
 10
-1.8163677406
 20
18.2072449859
 11
-1.8163857485
 21
18.2072819942
  0
LWPOLYLINE
  5
431
100
AcDbEntity
  8
ASSI
100
AcDbPolyline
 62
7
  6
CONTINUOUS
 90
6
 70
0
 10
-1.8163476291
 20
18.2072037402
 10
-1.8107920146
 20
18.1951682761
 10
-1.8047151383
 20
18.1802270961
 10
-1.7994567836
 20
18.1651285306
 10
-1.7950237244
 20
18.149931199
 10
-1.7914066028
 20
18.1346520585
  0
LINE
  5
432
100
AcDbEntity
  8
ASSI
100
AcDbLine
 62
7
  6
CONTINUOUS
 10
-1.8161793842
 20
18.20684109
 11
-1.8161496055
 21
18.2067726307
  0
LWPOLYLINE
  5
433
100
AcDbEntity
  8
RACCORDO
100
AcDbPolyline
 62
7
  6
CONTINUOUS
 90
4
 70
0
 10
2.823331477
 20
10.0719760925
 10
2.8192355907
 20
10.0822546965
 10
2.796855319
 20
10.1333104546
 10
2.7725432113
 20
10.1841067355
  0
LWPOLYLINE
  5
434
100
AcDbEntity
  8
RACCORDO
100
AcDbPolyline
 62
7
  6
CONTINUOUS
 90
13
 70
0
 10
9.5850089185
 20
16.2567091025
 10
9.5846413223
 20
16.2683061558
 10
9.5835292904
 20
16.2793419523
 10
9.5816728227
 20
16.289816492
 10
9.5790553661
 20
16.2997968565
 10
9.5756934738
 20
16.3092159643
 10
9.5716368052
 20
16.3178725705
 10
9.5668643846
 20
16.3257423327
 10
9.5613971878
 20
16.3328495935
 10
9.5553478007
 20
16.3390661361
 10
9.5487537523
 20
16.3443492215
 10
9.5415775138
 20
16.3487415888
 10
9.5357631337
 20
16.3514721078
  0
LINE
  5
435
100
AcDbEntity
  8
RACCORDO
100
AcDbLine
 62
7
  6
CONTINUOUS
 10
9.5850089185
 20
16.2567091025
 11
9.5850089185
 21
16.159592997
  0
LWPOLYLINE
  5
436
100
AcDbEntity
  8
DRAFT
100
AcDbPolyline
 62
7
  6
CONTINUOUS
 90
6
 70
0
 10
10.3114897312
 20
16.3206213452
 10
10.3074115763
 20
16.2357340533
 10
10.2925473035
 20
16.138873578
 10
10.2670254265
 20
16.0422955671
 10
10.2313832676
 20
15.9476205264
 10
10.2261042517
 20
15.936988012
  0
LWPOLYLINE
  5
437
100
AcDbEntity
  8
RACCORDO
100
AcDbPolyline
 62
250
  6
CONTINUOUS
 90
10
 70
0
 10
10.1311527859
 20
14.8341083608
 10
10.1304446593
 20
14.8291388386
 10
10.1249030638
 20
14.8219320644
 10
10.1146501462
 20
14.8124336259
 10
10.0997958333
 20
14.8007453297
 10
10.0804993461
 20
14.7869924361
 10
10.056967495
 20
14.7713223244
 10
10.029452462
 20
14.7539029118
 10
9.9982490971
 20
14.7349208545
 10
9.9636917582
 20
14.7145795452
  0
LINE
  5
438
100
AcDbEntity
  8
SMUSSO
100
AcDbLine
 62
7
  6
CONTINUOUS
 10
-2.408716255
 20
2.8235662647
 11
-2.8811131239
 21
2.5409499832
  0
LINE
  5
439
100
AcDbEntity
  8
DRAFT
100
AcDbLine
 62
7
  6
CONTINUOUS
 10
-2.8811131239
 20
3.9282750153
 11
-2.408716255
 21
4.2105530117
  0
LINE
  5
43A
100
AcDbEntity
  8
DRAFT
100
AcDbLine
 62
7
  6
CONTINUOUS
 10
-2.8811131239
 20
1.9364737622
 11
-2.408716255
 21
2.2187517586
  0
LINE
  5
43B
100
AcDbEntity
  8
SMUSSO
100
AcDbLine
 62
7
  6
CONTINUOUS
 10
-2.408716255
 20
3.7738553867
 11
-2.8811131239
 21
3.5010993551
  0
LINE
  5
43C
100
AcDbEntity
  8
DRAFT
100
AcDbLine
 62
7
  6
CONTINUOUS
 10
-2.408716255
 20
3.2509880547
 11
-2.8811131239
 21
2.9782320231
  0
LWPOLYLINE
  5
43D
100
AcDbEntity
  8
RACCORDO
100
AcDbPolyline
 62
250
  6
CONTINUOUS
 90
14
 70
0
 10
-4.4498400387
 20
12.7602597815
 10
-4.4116245525
 20
12.7403573438
 10
-4.3700682611
 20
12.7228284649
 10
-4.325611427
 20
12.707858852
 10
-4.278725042
 20
12.6956070989
 10
-4.2299058377
 20
12.6862030051
 10
-4.179671023
 20
12.6797462011
 10
-4.1285528039
 20
12.6763050926
 10
-4.0770927454
 20
12.675916136
 10
-4.025836034
 20
12.678583452
 10
-3.9753257019
 20
12.6842787821
 10
-3.9260968741
 20
12.6929417879
 10
-3.8786710992
 20
12.7044806905
 10
-3.833550823
 20
12.7187732423
  0
LWPOLYLINE
  5
43E
100
AcDbEntity
  8
RACCORDO
100
AcDbPolyline
 62
250
  6
CONTINUOUS
 90
9
 70
0
 10
15.9857019736
 20
-0.5043560262
 10
15.9750069822
 20
-0.498716454
 10
15.9467955351
 20
-0.4880888189
 10
15.9163254439
 20
-0.4822767485
 10
15.8839231673
 20
-0.4813425454
 10
15.8499358881
 20
-0.4852962444
 10
15.8147277638
 20
-0.4940955021
 10
15.7786760215
 20
-0.507646059
 10
15.7421669367
 20
-0.5258027467
  0
LINE
  5
43F
100
AcDbEntity
  8
RACCORDO
100
AcDbLine
 62
250
  6
CONTINUOUS
 10
-2.8477181283
 20
11.5896567922
 11
-2.8488369034
 21
11.5902952964
  0
LINE
  5
440
100
AcDbEntity
  8
RACCORDO
100
AcDbLine
 62
250
  6
CONTINUOUS
 10
12.5707831581
 20
1.3053145003
 11
15.7421669367
 21
-0.5258027467
  0
LINE
  5
441
100
AcDbEntity
  8
RACCORDO
100
AcDbLine
 62
7
  6
CONTINUOUS
 10
12.5707831581
 20
1.4673757329
 11
15.9860086724
 21
-0.5045326763
  0
LINE
  5
442
100
AcDbEntity
  8
RACCORDO
100
AcDbLine
 62
250
  6
CONTINUOUS
 10
-2.8807384994
 20
11.7131451786
 11
-2.6833171795
 21
11.5991565827
  0
LINE
  5
443
100
AcDbEntity
  8
0
100
AcDbLine
 62
7
  6
CONTINUOUS
 10
-2.8811131239
 20
11.8169072311
 11
-2.5839805615
 21
11.6453466136
  0
LINE
  5
444
100
AcDbEntity
  8
RACCORDO
100
AcDbLine
 62
250
  6
CONTINUOUS
 10
-19.3180542071
 20
21.3449802998
 11
-4.4498400387
 21
12.7602597815
  0
LINE
  5
445
100
AcDbEntity
  8
0
100
AcDbLine
 62
7
  6
CONTINUOUS
 10
-2.5380509126
 20
12.3805631342
 11
-1.8309441315
 21
11.9722885409
  0
LINE
  5
446
100
AcDbEntity
  8
RACCORDO
100
AcDbLine
 62
250
  6
CONTINUOUS
 10
-18.9737557653
 20
21.9518691514
 11
-4.1055415969
 21
13.3671486331
  0
LINE
  5
447
100
AcDbEntity
  8
RACCORDO
100
AcDbLine
 62
7
  6
CONTINUOUS
 10
-4.0960442987
 20
13.372632227
 11
-18.9647431658
 21
21.9576326043
  0
LWPOLYLINE
  5
448
100
AcDbEntity
  8
RACCORDO
100
AcDbPolyline
 62
7
  6
CONTINUOUS
 90
10
 70
0
 10
-2.8478045288
 20
11.5896739986
 10
-2.8485749263
 20
11.5901408276
 10
-2.8507760196
 20
11.5923625176
 10
-2.8545424828
 20
11.597535577
 10
-2.8601439196
 20
11.6077113625
 10
-2.8667690351
 20
11.6242900341
 10
-2.8729924823
 20
11.6469027363
 10
-2.877826359
 20
11.6749791551
 10
-2.8806246275
 20
11.7080851985
 10
-2.8811140472
 20
11.7298329093
  0
LWPOLYLINE
  5
449
100
AcDbEntity
  8
RACCORDO
100
AcDbPolyline
 62
250
  6
CONTINUOUS
 90
22
 70
0
 10
15.7421669367
 20
-0.5258027467
 10
15.7992038141
 20
-0.5608198136
 10
15.8558553401
 20
-0.6008772344
 10
15.9117549433
 20
-0.645723712
 10
15.9665673025
 20
-0.6951045807
 10
16.0199090259
 20
-0.7486840943
 10
16.0713598644
 20
-0.8060262399
 10
16.1208364777
 20
-0.8670565617
 10
16.167765204
 20
-0.9310963331
 10
16.2111545491
 20
-0.9966126074
 10
16.2508887491
 20
-1.0630586905
 10
16.2868955239
 20
-1.1299398745
 10
16.3186016821
 20
-1.1956321953
 10
16.3457503893
 20
-1.2586151671
 10
16.3690771823
 20
-1.3195433264
 10
16.389433963
 20
-1.3801180613
 10
16.4067041186
 20
-1.4397404545
 10
16.4210092778
 20
-1.4984952662
 10
16.4328620861
 20
-1.5590789029
 10
16.4419271615
 20
-1.6220703872
 10
16.4475189759
 20
-1.6860121607
 10
16.4491660221
 20
-1.7503610822
  0
LINE
  5
44A
100
AcDbEntity
  8
RACCORDO
100
AcDbLine
 62
250
  6
CONTINUOUS
 10
-4.1055415969
 20
13.3671486331
 11
-4.0694242983
 21
13.3429586125
  0
LWPOLYLINE
  5
44B
100
AcDbEntity
  8
RACCORDO
100
AcDbPolyline
 62
250
  6
CONTINUOUS
 90
3
 70
0
 10
-4.0694242983
 20
13.3429586125
 10
-4.0336027232
 20
13.3146002621
 10
-3.9984713012
 20
13.2823858144
  0
LWPOLYLINE
  5
44C
100
AcDbEntity
  8
RACCORDO
100
AcDbPolyline
 62
250
  6
CONTINUOUS
 90
5
 70
0
 10
-3.1476279981
 20
13.8065477886
 10
-3.1720071956
 20
13.8278430458
 10
-3.198203799
 20
13.848214197
 10
-3.2257425227
 20
13.8669829738
 10
-3.2544582463
 20
13.8837704025
  0
LWPOLYLINE
  5
44D
100
AcDbEntity
  8
ASSI
100
AcDbPolyline
 62
250
  6
CONTINUOUS
 90
3
 70
0
 10
-7.0854488189
 20
20.2486959388
 10
-7.06428845
 20
20.2300282987
 10
-7.0395800255
 20
20.211530193
  0
LWPOLYLINE
  5
44E
100
AcDbEntity
  8
ASSI
100
AcDbPolyline
 62
250
  6
CONTINUOUS
 90
7
 70
0
 10
-1.8279104621
 20
18.2255005551
 10
-1.8331528603
 20
18.2314715127
 10
-1.8386391256
 20
18.2367302595
 10
-1.8441988582
 20
18.2411437078
 10
-1.8497306807
 20
18.2447028236
 10
-1.8552059754
 20
18.2475091487
 10
-1.8605708323
 20
18.2496092872
  0
LWPOLYLINE
  5
44F
100
AcDbEntity
  8
ASSI
100
AcDbPolyline
 62
250
  6
CONTINUOUS
 90
10
 70
0
 10
1.8209502692
 20
15.2974821836
 10
1.7609738569
 20
15.3909173441
 10
1.6971498966
 20
15.4806189166
 10
1.6298771677
 20
15.566013932
 10
1.5595712603
 20
15.6465524314
 10
1.4866775424
 20
15.721724418
 10
1.4116680053
 20
15.7910622781
 10
1.3350178019
 20
15.8541261139
 10
1.257202622
 20
15.9105074156
 10
1.1787110306
 20
15.9598445371
  0
LWPOLYLINE
  5
450
100
AcDbEntity
  8
RACCORDO
100
AcDbPolyline
 62
7
  6
CONTINUOUS
 90
3
 70
0
 10
3.514168106
 20
16.414210082
 10
3.4603407894
 20
16.4988544919
 10
3.4063480467
 20
16.5833746711
  0
LWPOLYLINE
  5
451
100
AcDbEntity
  8
ASSI
100
AcDbPolyline
 62
7
  6
CONTINUOUS
 90
10
 70
0
 10
0.6345846191
 20
19.6774304646
 10
0.6462854501
 20
19.6589596313
 10
0.656591069
 20
19.6400720022
 10
0.6654930779
 20
19.6208473722
 10
0.6729745995
 20
19.6014136243
 10
0.679065221
 20
19.581806807
 10
0.6838074403
 20
19.5619678882
 10
0.6871993861
 20
19.5419311705
 10
0.6892280099
 20
19.5218267586
 10
0.6899011617
 20
19.5017384677
  0
LINE
  5
452
100
AcDbEntity
  8
RACCORDO
100
AcDbLine
 62
7
  6
CONTINUOUS
 10
3.5872338085
 20
16.2986497737
 11
3.514168106
 21
16.414210082
  0
LWPOLYLINE
  5
453
100
AcDbEntity
  8
ASSI
100
AcDbPolyline
 62
250
  6
CONTINUOUS
 90
37
 70
0
 10
0.46916978
 20
19.728306033
 10
0.4633072582
 20
19.7376604501
 10
0.458175243
 20
19.7468563411
 10
0.4537737345
 20
19.7558937062
 10
0.4501487147
 20
19.7647876786
 10
0.4472542016
 20
19.773523125
 10
0.4449522486
 20
19.7820546452
 10
0.4432398322
 20
19.7903748366
 10
0.4421199758
 20
19.7984911017
 10
0.4414638035
 20
19.8063802475
 10
0.4412618911
 20
19.8140208185
 10
0.4415236627
 20
19.8214342702
 10
0.442148515
 20
19.8286617755
 10
0.4431193436
 20
19.8356953181
 10
0.4444532528
 20
19.8425429143
 10
0.446100952
 20
19.8492697859
 10
0.4480511275
 20
19.8558844024
 10
0.450315093
 20
19.8623782943
 10
0.4528774999
 20
19.8687912751
 10
0.4557338595
 20
19.8751313464
 10
0.4588886604
 20
19.8813905065
 10
0.4623400192
 20
19.8875845644
 10
0.4660832515
 20
19.8937147254
 10
0.4701230417
 20
19.8997797841
 10
0.4744715594
 20
19.905791933
 10
0.4791243006
 20
19.9117525392
 10
0.4840857692
 20
19.9176602356
 10
0.4893816469
 20
19.923523114
 10
0.4950078329
 20
19.9293433032
 10
0.500968428
 20
19.9351186744
 10
0.5073014159
 20
19.940850933
 10
0.514003099
 20
19.9465428801
 10
0.5210771749
 20
19.9521917146
 10
0.5285727208
 20
19.9577907378
 10
0.5365060957
 20
19.9633377169
 10
0.5448609405
 20
19.9688348848
 10
0.5536372554
 20
19.9742822413
  0
LWPOLYLINE
  5
454
100
AcDbEntity
  8
RACCORDO
100
AcDbPolyline
 62
7
  6
CONTINUOUS
 90
6
 70
0
 10
3.8336476813
 20
15.9037512583
 10
3.7808191464
 20
15.9891311644
 10
3.7278231104
 20
16.0743901358
 10
3.6746588818
 20
16.159529271
 10
3.6213271522
 20
16.2445474716
 10
3.5872338085
 20
16.2986497737
  0
LWPOLYLINE
  5
455
100
AcDbEntity
  8
ASSI
100
AcDbPolyline
 62
7
  6
CONTINUOUS
 90
7
 70
0
 10
3.7919122354
 20
15.8107150102
 10
3.7462265621
 20
15.8847745332
 10
3.7004152244
 20
15.9587429854
 10
3.6544782221
 20
16.0326203666
 10
3.6084155555
 20
16.1064066769
 10
3.5622272243
 20
16.1801019163
 10
3.5159132287
 20
16.2537060848
  0
LINE
  5
456
100
AcDbEntity
  8
RACCORDO
100
AcDbLine
 62
7
  6
CONTINUOUS
 10
3.8863087151
 20
15.8182504175
 11
3.8336476813
 21
15.9037512583
  0
LWPOLYLINE
  5
457
100
AcDbEntity
  8
RACCORDO
100
AcDbPolyline
 62
250
  6
CONTINUOUS
 90
13
 70
0
 10
12.4865850982
 20
-1.3391189022
 10
12.4882984958
 20
-1.4034419742
 10
12.4933807223
 20
-1.465137553
 10
12.5018317777
 20
-1.5242056386
 10
12.51342737
 20
-1.5805340935
 10
12.5283917912
 20
-1.6342350552
 10
12.5473979175
 20
-1.6856449367
 10
12.5705415928
 20
-1.7354382048
 10
12.5977269732
 20
-1.7829403928
 10
12.629339403
 20
-1.8264645126
 10
12.6655073302
 20
-1.865448235
 10
12.7061023068
 20
-1.9004538893
 10
12.7511243327
 20
-1.9314814755
  0
LINE
  5
458
100
AcDbEntity
  8
RACCORDO
100
AcDbLine
 62
250
  6
CONTINUOUS
 10
12.4865850982
 20
3.7814339392
 11
12.4865850982
 21
-1.3391189022
  0
LINE
  5
459
100
AcDbEntity
  8
RACCORDO
100
AcDbLine
 62
7
  6
CONTINUOUS
 10
12.5707831581
 20
3.9017600503
 11
12.5707828743
 21
-1.219031045
  0
LWPOLYLINE
  5
45A
100
AcDbEntity
  8
RACCORDO
100
AcDbPolyline
 62
7
  6
CONTINUOUS
 90
12
 70
0
 10
12.570783156
 20
3.9017807751
 10
12.5721785763
 20
3.9541516162
 10
12.5772350468
 20
4.016976856
 10
12.586122466
 20
4.0829522301
 10
12.5989385565
 20
4.1515679914
 10
12.6157142516
 20
4.2222984856
 10
12.6364433845
 20
4.2946497035
 10
12.6610781574
 20
4.3681038832
 10
12.6895371687
 20
4.4421637432
 10
12.7217472977
 20
4.5164122377
 10
12.7575662946
 20
4.5903355927
 10
12.7966284495
 20
4.6630856521
  0
LWPOLYLINE
  5
45B
100
AcDbEntity
  8
RACCORDO
100
AcDbPolyline
 62
250
  6
CONTINUOUS
 90
9
 70
0
 10
12.5707831581
 20
3.9017600503
 10
12.5705051869
 20
3.8943051425
 10
12.567564858
 20
3.8764560973
 10
12.5614447189
 20
3.8588781665
 10
12.5522103426
 20
3.8417596853
 10
12.539960669
 20
3.8252840664
 10
12.524826945
 20
3.8096278348
 10
12.5069713178
 20
3.7949587359
 10
12.4865850982
 20
3.7814339392
  0
LWPOLYLINE
  5
45C
100
AcDbEntity
  8
RACCORDO
100
AcDbPolyline
 62
250
  6
CONTINUOUS
 90
9
 70
0
 10
12.5707828743
 20
-1.219031045
 10
12.570505273
 20
-1.2262465439
 10
12.5675651476
 20
-1.2440956115
 10
12.5614451839
 20
-1.261673624
 10
12.5522109287
 20
-1.2787922395
 10
12.5399612925
 20
-1.2952680433
 10
12.5248274954
 20
-1.3109245005
 10
12.5069716657
 20
-1.3255938489
 10
12.4865850982
 20
-1.3391189022
  0
LWPOLYLINE
  5
45D
100
AcDbEntity
  8
RACCORDO
100
AcDbPolyline
 62
250
  6
CONTINUOUS
 90
3
 70
0
 10
-3.784883045
 20
-29.5451118036
 10
-3.7713027422
 20
-29.5125721489
 10
-3.7612892132
 20
-29.4767220511
  0
LWPOLYLINE
  5
45E
100
AcDbEntity
  8
RACCORDO
100
AcDbPolyline
 62
250
  6
CONTINUOUS
 90
22
 70
0
 10
14.0668583702
 20
15.5662081959
 10
14.0995829579
 20
15.6323795524
 10
14.1282464598
 20
15.7004733995
 10
14.1526744958
 20
15.770124549
 10
14.1727217581
 20
15.8409844428
 10
14.1882486702
 20
15.9126401191
 10
14.1991402454
 20
15.9846143254
 10
14.2053318926
 20
16.0564880389
 10
14.2067901383
 20
16.1278864364
 10
14.2035049896
 20
16.1983972852
 10
14.195495706
 20
16.2676253473
 10
14.1828066176
 20
16.3351948928
 10
14.1655076934
 20
16.4007339685
 10
14.1436939313
 20
16.4638821366
 10
14.1174860436
 20
16.5242895326
 10
14.087030229
 20
16.5816201356
 10
14.0524933861
 20
16.6355605751
 10
14.0140680686
 20
16.685810823
 10
13.9719753473
 20
16.7320855975
 10
13.9264530049
 20
16.7741300736
 10
13.877751766
 20
16.8117187647
 10
13.8261421581
 20
16.8446478866
  0
LINE
  5
45F
100
AcDbEntity
  8
RACCORDO
100
AcDbLine
 62
250
  6
CONTINUOUS
 10
14.4434703151
 20
7.6907957097
 11
16.4491660221
 21
8.931148021
  0
LINE
  5
460
100
AcDbEntity
  8
DRAFT
100
AcDbLine
 62
7
  6
CONTINUOUS
 10
-2.8811131239
 20
0.1238117416
 11
-2.408716255
 21
0.4064280231
  0
LINE
  5
461
100
AcDbEntity
  8
DRAFT
100
AcDbLine
 62
7
  6
CONTINUOUS
 10
-2.408716255
 20
-1.58537323
 11
-2.8811131239
 21
-1.8679895115
  0
LINE
  5
462
100
AcDbEntity
  8
SMUSSO
100
AcDbLine
 62
7
  6
CONTINUOUS
 10
-2.408716255
 20
-0.1983864829
 11
-2.8811131239
 21
-0.4806644793
  0
LINE
  5
463
100
AcDbEntity
  8
DRAFT
100
AcDbLine
 62
7
  6
CONTINUOUS
 10
-2.8811131239
 20
0.602633818
 11
-2.408716255
 21
0.8753898496
  0
LINE
  5
464
100
AcDbEntity
  8
SMUSSO
100
AcDbLine
 62
7
  6
CONTINUOUS
 10
-2.8811131239
 20
-0.5812520288
 11
-2.408716255
 21
-0.3084959973
  0
LWPOLYLINE
  5
465
100
AcDbEntity
  8
RACCORDO
100
AcDbPolyline
 62
250
  6
CONTINUOUS
 90
3
 70
0
 10
-19.154458707
 20
0.2789668336
 10
-19.1858553426
 20
0.2733021222
 10
-19.2149046942
 20
0.2627039473
  0
LINE
  5
466
100
AcDbEntity
  8
RACCORDO
100
AcDbLine
 62
250
  6
CONTINUOUS
 10
-18.9737557653
 20
21.9518691514
 11
-19.0117868182
 21
21.9704801489
  0
LWPOLYLINE
  5
467
100
AcDbEntity
  8
RACCORDO
100
AcDbPolyline
 62
7
  6
CONTINUOUS
 90
10
 70
0
 10
-17.8641775929
 20
22.3826700138
 10
-17.8975097073
 20
22.3999858294
 10
-17.9355883097
 20
22.4152669321
 10
-17.9738661767
 20
22.4259848285
 10
-18.012110502
 20
22.432102877
 10
-18.0499444784
 20
22.4336214449
 10
-18.0866682575
 20
22.4306338138
 10
-18.1217142507
 20
22.4233910693
 10
-18.154786325
 20
22.4122089986
 10
-18.1662707593
 20
22.4072322469
  0
LWPOLYLINE
  5
468
100
AcDbEntity
  8
ASSI
100
AcDbPolyline
 62
250
  6
CONTINUOUS
 90
9
 70
0
 10
-6.7139411209
 20
16.7344465099
 10
-6.7161513367
 20
16.7356674538
 10
-6.7278542599
 20
16.7405025219
 10
-6.7405805593
 20
16.7432066611
 10
-6.7541789597
 20
16.7437477428
 10
-6.7684877987
 20
16.7421193468
 10
-6.7833369754
 20
16.738340846
 10
-6.798549974
 20
16.7324571704
 10
-6.8139459529
 20
16.7245382743
  0
LWPOLYLINE
  5
469
100
AcDbEntity
  8
RACCORDO
100
AcDbPolyline
 62
250
  6
CONTINUOUS
 90
9
 70
0
 10
-17.960447174
 20
22.3748245695
 10
-17.991404054
 20
22.3921762263
 10
-18.0216635884
 20
22.4054286534
 10
-18.0509533388
 20
22.4145972658
 10
-18.0791738015
 20
22.4197585631
 10
-18.10594872
 20
22.4209607212
 10
-18.1306824677
 20
22.4184230624
 10
-18.1531902219
 20
22.412527636
 10
-18.1656006318
 20
22.4075485935
  0
LINE
  5
46A
100
AcDbEntity
  8
RACCORDO
100
AcDbLine
 62
250
  6
CONTINUOUS
 10
-3.2544582463
 20
13.8837704025
 11
-17.9604476281
 21
22.3748243622
  0
LINE
  5
46B
100
AcDbEntity
  8
RACCORDO
100
AcDbLine
 62
7
  6
CONTINUOUS
 10
-3.1581553938
 20
13.8915971182
 11
-17.8641447719
 21
22.3826510757
  0
LINE
  5
46C
100
AcDbEntity
  8
ASSI
100
AcDbLine
 62
7
  6
CONTINUOUS
 10
-11.1307781508
 20
18.689095779
 11
-7.263104558
 21
16.4559495199
  0
LINE
  5
46D
100
AcDbEntity
  8
ASSI
100
AcDbLine
 62
250
  6
CONTINUOUS
 10
-6.4023057419
 20
16.2593452014
 11
-6.5258548336
 21
16.3306808985
  0
LINE
  5
46E
100
AcDbEntity
  8
ASSI
100
AcDbLine
 62
250
  6
CONTINUOUS
 10
-6.8139459529
 20
16.7245382743
 11
-10.6655987525
 21
18.9484343283
  0
LINE
  5
46F
100
AcDbEntity
  8
ASSI
100
AcDbLine
 62
7
  6
CONTINUOUS
 10
-6.7139411209
 20
16.7344465099
 11
-10.5655939205
 21
18.9583425638
  0
LINE
  5
470
100
AcDbEntity
  8
0
100
AcDbLine
 62
7
  6
CONTINUOUS
 10
-4.3302654456
 20
15.5848039771
 11
-4.4057233144
 21
15.6283724048
  0
LINE
  5
471
100
AcDbEntity
  8
0
100
AcDbLine
 62
7
  6
CONTINUOUS
 10
-4.3324248926
 20
15.6689375625
 11
-4.2559378948
 21
15.6247749286
  0
LINE
  5
472
100
AcDbEntity
  8
ASSI
100
AcDbLine
 62
250
  6
CONTINUOUS
 10
-8.6731620332
 20
19.4622129058
 11
-4.7928511672
 21
17.2217700436
  0
LINE
  5
473
100
AcDbEntity
  8
ASSI
100
AcDbLine
 62
250
  6
CONTINUOUS
 10
-1.5277614017
 20
15.3457582432
 11
-3.0364513752
 21
16.2168569256
  0
LINE
  5
474
100
AcDbEntity
  8
ASSI
100
AcDbLine
 62
250
  6
CONTINUOUS
 10
-10.6855902917
 20
20.6333738698
 11
-12.1942802653
 21
21.5044725522
  0
LINE
  5
475
100
AcDbEntity
  8
ASSI
100
AcDbLine
 62
7
  6
CONTINUOUS
 10
-1.4302247126
 20
15.3542662744
 11
-2.9389146862
 21
16.2253649568
  0
LINE
  5
476
100
AcDbEntity
  8
ASSI
100
AcDbLine
 62
7
  6
CONTINUOUS
 10
-10.5880536027
 20
20.6418819009
 11
-12.0967435762
 21
21.5129805834
  0
LINE
  5
477
100
AcDbEntity
  8
ASSI
100
AcDbLine
 62
250
  6
CONTINUOUS
 10
-8.5340228482
 20
19.6049531798
 11
-4.6870413779
 21
17.3837542928
  0
LWPOLYLINE
  5
478
100
AcDbEntity
  8
ASSI
100
AcDbPolyline
 62
250
  6
CONTINUOUS
 90
13
 70
0
 10
-10.6855902917
 20
20.6333738698
 10
-10.6672384088
 20
20.6217751479
 10
-10.6491066414
 20
20.6075653747
 10
-10.6315060036
 20
20.5909313879
 10
-10.6147132427
 20
20.5720655027
 10
-10.5990778444
 20
20.5512866007
 10
-10.5849853926
 20
20.5290722506
 10
-10.5727041717
 20
20.505856226
 10
-10.5624163958
 20
20.4819954189
 10
-10.5543030882
 20
20.4579112594
 10
-10.5485031081
 20
20.4340229063
 10
-10.5451134349
 20
20.410739515
 10
-10.5441904746
 20
20.3884622026
  0
LINE
  5
479
100
AcDbEntity
  8
ASSI
100
AcDbLine
 62
250
  6
CONTINUOUS
 10
-7.0395800255
 20
20.211530193
 11
-7.0113085386
 21
20.1933143056
  0
LWPOLYLINE
  5
47A
100
AcDbEntity
  8
ASSI
100
AcDbPolyline
 62
250
  6
CONTINUOUS
 90
10
 70
0
 10
-1.7760946304
 20
18.3522657519
 10
-1.7859899952
 20
18.3597319868
 10
-1.7965039251
 20
18.3666283405
 10
-1.8075644805
 20
18.3729178337
 10
-1.8192240458
 20
18.378555636
 10
-1.8313074166
 20
18.3835506157
 10
-1.8434216037
 20
18.387944946
 10
-1.8554200055
 20
18.3917362365
 10
-1.8673930012
 20
18.3948947113
 10
-1.8793224937
 20
18.3974123833
  0
LWPOLYLINE
  5
47B
100
AcDbEntity
  8
RACCORDO
100
AcDbPolyline
 62
250
  6
CONTINUOUS
 90
6
 70
0
 10
12.7966284495
 20
4.6630856521
 10
12.7958032513
 20
4.663754753
 10
12.7922438823
 20
4.6660133293
 10
12.7859135886
 20
4.6698297767
 10
12.7768806168
 20
4.675162949
 10
12.7511243328
 20
4.6901337063
  0
LWPOLYLINE
  5
47C
100
AcDbEntity
  8
ASSI
100
AcDbPolyline
 62
250
  6
CONTINUOUS
 90
10
 70
0
 10
0.6345846191
 20
19.6774304646
 10
0.6304057214
 20
19.6831896966
 10
0.6168757036
 20
19.6978843341
 10
0.6008183952
 20
19.7103054845
 10
0.5825085452
 20
19.7202406164
 10
0.5622594376
 20
19.7275197396
 10
0.5404175378
 20
19.7320183066
 10
0.5173565658
 20
19.7336593445
 10
0.4934711021
 20
19.7324147736
 10
0.4691698338
 20
19.728305888
  0
LWPOLYLINE
  5
47D
100
AcDbEntity
  8
RACCORDO
100
AcDbPolyline
 62
7
  6
CONTINUOUS
 90
10
 70
0
 10
3.4063480467
 20
16.5833746711
 10
3.3844055676
 20
16.6159522859
 10
3.3614372529
 20
16.6469156285
 10
3.3374431025
 20
16.6762646989
 10
3.3122356008
 20
16.7041880956
 10
3.2860022634
 20
16.7304972201
 10
3.2593056377
 20
16.7546262768
 10
3.2323332395
 20
16.7763866672
 10
3.2048975531
 20
16.7959669898
 10
3.1769985783
 20
16.8133672446
  0
LINE
  5
47E
100
AcDbEntity
  8
SMUSSO
100
AcDbLine
 62
7
  6
CONTINUOUS
 10
4.6687591266
 20
20.8040753957
 11
4.7818070487
 21
20.6136867213
  0
LWPOLYLINE
  5
47F
100
AcDbEntity
  8
RACCORDO
100
AcDbPolyline
 62
250
  6
CONTINUOUS
 90
28
 70
0
 10
14.4434783561
 20
-2.9084332644
 10
14.4302140512
 20
-2.8713343802
 10
14.415878054
 20
-2.8347947403
 10
14.4005609515
 20
-2.7990264375
 10
14.3843891793
 20
-2.7642662136
 10
14.3674686107
 20
-2.7306175553
 10
14.3498568265
 20
-2.6980499292
 10
14.3316739441
 20
-2.6666684155
 10
14.3130328725
 20
-2.6365593443
 10
14.2939476444
 20
-2.6076348023
 10
14.2745156707
 20
-2.5799347817
 10
14.2548487305
 20
-2.553514033
 10
14.2349541784
 20
-2.5282923396
 10
14.2149170028
 20
-2.5042798269
 10
14.1948349596
 20
-2.4814978306
 10
14.1747151244
 20
-2.4598755677
 10
14.1546395292
 20
-2.4394128405
 10
14.1346829849
 20
-2.4200986088
 10
14.1148258192
 20
-2.4018435324
 10
14.0951347317
 20
-2.3846340412
 10
14.0756699731
 20
-2.3684487168
 10
14.0563866955
 20
-2.3531895983
 10
14.0373361576
 20
-2.3388365225
 10
14.0185653342
 20
-2.3253650345
 10
14.0000088516
 20
-2.3126779203
 10
13.9816673857
 20
-2.3007303677
 10
13.9636128016
 20
-2.2895237772
 10
13.9458784454
 20
-2.2790338386
  0
LWPOLYLINE
  5
480
100
AcDbEntity
  8
RACCORDO
100
AcDbPolyline
 62
250
  6
CONTINUOUS
 90
10
 70
0
 10
16.4491660221
 20
-7.2354155844
 10
16.4639964882
 20
-7.2854812983
 10
16.4751041619
 20
-7.3322290378
 10
16.4825394487
 20
-7.3756685401
 10
16.4863195124
 20
-7.4158017974
 10
16.4866295985
 20
-7.4527096149
 10
16.4837080351
 20
-7.4864850494
 10
16.4775606131
 20
-7.5173126335
 10
16.4682295621
 20
-7.545007825
 10
16.4565486902
 20
-7.5683362446
  0
LWPOLYLINE
  5
481
100
AcDbEntity
  8
RACCORDO
100
AcDbPolyline
 62
250
  6
CONTINUOUS
 90
27
 70
0
 10
14.4434709035
 20
-2.9084282828
 10
14.4382708626
 20
-2.8652956829
 10
14.4309269017
 20
-2.8227798169
 10
14.421662908
 20
-2.7811092787
 10
14.4107534574
 20
-2.7405111557
 10
14.398360862
 20
-2.7011348486
 10
14.3845138649
 20
-2.6630479011
 10
14.3693649083
 20
-2.6263950923
 10
14.3531165369
 20
-2.5912589058
 10
14.3358270222
 20
-2.5575772831
 10
14.3176137034
 20
-2.5254150149
 10
14.298635554
 20
-2.4948326881
 10
14.2789758236
 20
-2.465740262
 10
14.2587287501
 20
-2.4381680116
 10
14.2380156817
 20
-2.4121445579
 10
14.2169343083
 20
-2.3875653181
 10
14.19557054
 20
-2.3644483747
 10
14.1740063344
 20
-2.3427911115
 10
14.1523125782
 20
-2.3224522583
 10
14.1305583337
 20
-2.3034318052
 10
14.1088002574
 20
-2.2857198842
 10
14.0870721559
 20
-2.2691600004
 10
14.0654272328
 20
-2.2537410877
 10
14.0439036357
 20
-2.2394521758
 10
14.0224971343
 20
-2.2261400188
 10
14.0012258198
 20
-2.2137464571
 10
13.9801355947
 20
-2.2023047671
  0
LWPOLYLINE
  5
482
100
AcDbEntity
  8
RACCORDO
100
AcDbPolyline
 62
7
  6
CONTINUOUS
 90
17
 70
0
 10
16.5894957667
 20
-1.5501616977
 10
16.5863501481
 20
-1.4709135854
 10
16.5774686885
 20
-1.3940111953
 10
16.5629802547
 20
-1.3167654917
 10
16.5430572312
 20
-1.2396452647
 10
16.5181926616
 20
-1.1639095425
 10
16.4887530373
 20
-1.089958042
 10
16.4548153236
 20
-1.017643366
 10
16.4167229097
 20
-0.9475226355
 10
16.3746206706
 20
-0.8797887772
 10
16.3285990942
 20
-0.8146466941
 10
16.2789835549
 20
-0.7526466558
 10
16.2256139688
 20
-0.6938136879
 10
16.1686518458
 20
-0.6386195175
 10
16.1088978543
 20
-0.58807527
 10
16.0466685437
 20
-0.5425509828
 10
15.9857019736
 20
-0.5043560262
  0
LWPOLYLINE
  5
483
100
AcDbEntity
  8
RACCORDO
100
AcDbPolyline
 62
250
  6
CONTINUOUS
 90
22
 70
0
 10
14.0668583702
 20
15.5662081959
 10
14.0657530198
 20
15.6288724372
 10
14.0606315562
 20
15.6934292126
 10
14.0515225792
 20
15.7595175591
 10
14.0384769661
 20
15.8267680369
 10
14.0215676376
 20
15.8948045185
 10
14.0008892038
 20
15.9632462832
 10
13.9765573364
 20
16.0317105378
 10
13.9487080806
 20
16.0998145315
 10
13.9174971878
 20
16.1671774153
 10
13.8830986289
 20
16.2334235516
 10
13.8457052352
 20
16.2981814397
 10
13.8055280968
 20
16.36108602
 10
13.7627934985
 20
16.4217841826
 10
13.717739602
 20
16.4799387631
 10
13.6706167725
 20
16.5352271003
 10
13.6216858653
 20
16.5873429046
 10
13.5712229
 20
16.6359919665
 10
13.5195163021
 20
16.6808972914
 10
13.4668576043
 20
16.7218078911
 10
13.4135392655
 20
16.7584987105
 10
13.3598592848
 20
16.7907665314
  0
LINE
  5
484
100
AcDbEntity
  8
RACCORDO
100
AcDbLine
 62
250
  6
CONTINUOUS
 10
16.4491660221
 20
14.4162025232
 11
16.4491660221
 21
8.931148021
  0
LINE
  5
485
100
AcDbEntity
  8
RACCORDO
100
AcDbLine
 62
250
  6
CONTINUOUS
 10
16.4491660221
 20
-1.7503610822
 11
16.4491660221
 21
-7.2354155844
  0
LINE
  5
486
100
AcDbEntity
  8
RACCORDO
100
AcDbLine
 62
7
  6
CONTINUOUS
 10
16.589496122
 20
14.6167460417
 11
16.589496122
 21
9.1316915422
  0
LINE
  5
487
100
AcDbEntity
  8
RACCORDO
100
AcDbLine
 62
7
  6
CONTINUOUS
 10
16.589496122
 20
-1.5498175637
 11
16.589496122
 21
-7.0348720206
  0
LWPOLYLINE
  5
488
100
AcDbEntity
  8
RACCORDO
100
AcDbPolyline
 62
250
  6
CONTINUOUS
 90
11
 70
0
 10
16.4491660221
 20
8.931148021
 10
16.4474917242
 20
8.8694470458
 10
16.4415562169
 20
8.8105736672
 10
16.4313984079
 20
8.7548752737
 10
16.4170888971
 20
8.7027029585
 10
16.3987147346
 20
8.6543358368
 10
16.376359112
 20
8.609998194
 10
16.3500585596
 20
8.5698531592
 10
16.3200195504
 20
8.5342957265
 10
16.2866825928
 20
8.5037708592
 10
16.2532845574
 20
8.4801786859
  0
LWPOLYLINE
  5
489
100
AcDbEntity
  8
RACCORDO
100
AcDbPolyline
 62
250
  6
CONTINUOUS
 90
9
 70
0
 10
16.5894957385
 20
14.6163884977
 10
16.5890328366
 20
14.6043211954
 10
16.5841322884
 20
14.5745727868
 10
16.5739320566
 20
14.5452762354
 10
16.5585414294
 20
14.5167454334
 10
16.5381253068
 20
14.4892860687
 10
16.5129024334
 20
14.4631923492
 10
16.4831430548
 20
14.4387438511
 10
16.4491660221
 20
14.4162025232
  0
LWPOLYLINE
  5
48A
100
AcDbEntity
  8
RACCORDO
100
AcDbPolyline
 62
250
  6
CONTINUOUS
 90
8
 70
0
 10
10.7088698162
 20
-13.310982463
 10
10.6971513498
 20
-13.3829415269
 10
10.6820640956
 20
-13.4490028214
 10
10.6642572267
 20
-13.5093397394
 10
10.644382163
 20
-13.5641319693
 10
10.6229726203
 20
-13.6137095209
 10
10.6004511771
 20
-13.658548139
 10
10.5915102919
 20
-13.6747522785
  0
LWPOLYLINE
  5
48B
100
AcDbEntity
  8
RACCORDO
100
AcDbPolyline
 62
250
  6
CONTINUOUS
 90
8
 70
0
 10
16.5890330119
 20
9.1192690465
 10
16.5841328511
 20
9.0895204874
 10
16.5739329194
 20
9.0602236857
 10
16.5585424616
 20
9.031692548
 10
16.5381263553
 20
9.0042327993
 10
16.5129033285
 20
8.9781386718
 10
16.4831436044
 20
8.9536897552
 10
16.4491660221
 20
8.931148021
  0
LWPOLYLINE
  5
48C
100
AcDbEntity
  8
RACCORDO
100
AcDbPolyline
 62
250
  6
CONTINUOUS
 90
7
 70
0
 10
10.2981886919
 20
-14.1061916869
 10
10.2856033445
 20
-14.1707076765
 10
10.2703864951
 20
-14.2326930485
 10
10.2524387413
 20
-14.2917595434
 10
10.2318017434
 20
-14.3474177804
 10
10.2083083236
 20
-14.399370538
 10
10.1815621095
 20
-14.4474946416
  0
LWPOLYLINE
  5
48D
100
AcDbEntity
  8
RACCORDO
100
AcDbPolyline
 62
250
  6
CONTINUOUS
 90
12
 70
0
 10
12.71301544
 20
4.6197158579
 10
12.6776578464
 20
4.5485774062
 10
12.6450515519
 20
4.4767183509
 10
12.6151861706
 20
4.4044930505
 10
12.5880720884
 20
4.3315471465
 10
12.5637404636
 20
4.2568175645
 10
12.5418187022
 20
4.1794841218
 10
12.5226793981
 20
4.100367001
 10
12.5074714917
 20
4.020863675
 10
12.4965779629
 20
3.9414399682
 10
12.4896158317
 20
3.8616300563
 10
12.4865850982
 20
3.7814339392
  0
LINE
  5
48E
100
AcDbEntity
  8
RACCORDO
100
AcDbLine
 62
250
  6
CONTINUOUS
 10
12.7511243327
 20
4.6901337062
 11
12.71301544
 21
4.6197158579
  0
LWPOLYLINE
  5
48F
100
AcDbEntity
  8
RACCORDO
100
AcDbPolyline
 62
250
  6
CONTINUOUS
 90
7
 70
0
 10
14.314077784
 20
7.3536423232
 10
14.3320581899
 20
7.3868273554
 10
14.3594460648
 20
7.4430548611
 10
14.3842630521
 20
7.5016207311
 10
14.4064755359
 20
7.5624145777
 10
14.4261875339
 20
7.6255010379
 10
14.443487941
 20
7.6908269617
  0
LINE
  5
490
100
AcDbEntity
  8
RACCORDO
100
AcDbLine
 62
250
  6
CONTINUOUS
 10
14.4434703151
 20
7.6907957097
 11
12.7511243327
 21
4.6901337062
  0
LINE
  5
491
100
AcDbEntity
  8
RACCORDO
100
AcDbLine
 62
7
  6
CONTINUOUS
 10
14.314077784
 20
7.3536423232
 11
12.7966284215
 21
4.6630856022
  0
LWPOLYLINE
  5
492
100
AcDbEntity
  8
RACCORDO
100
AcDbPolyline
 62
250
  6
CONTINUOUS
 90
7
 70
0
 10
14.3434582505
 20
7.3731764543
 10
14.3697315118
 20
7.4190361641
 10
14.392061834
 20
7.467826252
 10
14.4107029995
 20
7.5195373688
 10
14.4256607252
 20
7.574050715
 10
14.4366293819
 20
7.6311967248
 10
14.443471295
 20
7.6907963157
  0
LWPOLYLINE
  5
493
100
AcDbEntity
  8
RACCORDO
100
AcDbPolyline
 62
250
  6
CONTINUOUS
 90
3
 70
0
 10
14.2799515993
 20
7.2902611683
 10
14.3134404337
 20
7.3302532064
 10
14.3434582505
 20
7.3731764543
  0
LWPOLYLINE
  5
494
100
AcDbEntity
  8
RACCORDO
100
AcDbPolyline
 62
250
  6
CONTINUOUS
 90
10
 70
0
 10
-3.0086376571
 20
-7.2382355321
 10
-2.9910067377
 20
-7.2234777475
 10
-2.9769360519
 20
-7.2080780505
 10
-2.9645621632
 20
-7.1907437852
 10
-2.9539596077
 20
-7.1716364524
 10
-2.9451365906
 20
-7.1508600875
 10
-2.9378412848
 20
-7.1275309278
 10
-2.9322877809
 20
-7.1012446058
 10
-2.9288811653
 20
-7.0723225629
 10
-2.9279042352
 20
-7.0408136779
  0
LWPOLYLINE
  5
495
100
AcDbEntity
  8
RACCORDO
100
AcDbPolyline
 62
250
  6
CONTINUOUS
 90
6
 70
0
 10
-2.9279042352
 20
-7.0408136779
 10
-2.9088857969
 20
-7.0252918826
 10
-2.8945363824
 20
-7.0081785959
 10
-2.8852449991
 20
-6.9899377533
 10
-2.8812635333
 20
-6.9710638576
 10
-2.8811131345
 20
-6.9666238354
  0
LWPOLYLINE
  5
496
100
AcDbEntity
  8
RACCORDO
100
AcDbPolyline
 62
250
  6
CONTINUOUS
 90
6
 70
0
 10
-2.9279042352
 20
-8.3798885062
 10
-2.9088848522
 20
-8.3643657672
 10
-2.8945352003
 20
-8.3472516219
 10
-2.8852441356
 20
-8.3290101222
 10
-2.8812633447
 20
-8.31013583
 10
-2.8811139873
 20
-8.3060002835
  0
LWPOLYLINE
  5
497
100
AcDbEntity
  8
RACCORDO
100
AcDbPolyline
 62
250
  6
CONTINUOUS
 90
15
 70
0
 10
-4.1420036407
 20
-8.3753008682
 10
-4.1779662934
 20
-8.4036815951
 10
-4.2130455336
 20
-8.4357960514
 10
-4.2468479507
 20
-8.4712762025
 10
-4.2790349389
 20
-8.5097584767
 10
-4.3093160707
 20
-8.550904403
 10
-4.3374143772
 20
-8.594377406
 10
-4.3629506704
 20
-8.6396339195
 10
-4.3855414639
 20
-8.6859791707
 10
-4.4049557221
 20
-8.7328644786
 10
-4.4210374561
 20
-8.7798268326
 10
-4.4336269826
 20
-8.8262821082
 10
-4.4426396785
 20
-8.8717226476
 10
-4.4480444605
 20
-8.9157217208
 10
-4.4498400387
 20
-8.9578495812
  0
LWPOLYLINE
  5
498
100
AcDbEntity
  8
RACCORDO
100
AcDbPolyline
 62
7
  6
CONTINUOUS
 90
10
 70
0
 10
-3.00928704
 20
-7.2387009093
 10
-3.0037861848
 20
-7.2346561444
 10
-2.9770712834
 20
-7.2117986778
 10
-2.9527631165
 20
-7.1851563755
 10
-2.9313035488
 20
-7.1548247542
 10
-2.9132401034
 20
-7.1211651095
 10
-2.8990288375
 20
-7.0847662911
 10
-2.8888685576
 20
-7.0459666894
 10
-2.8828659223
 20
-7.0049699235
 10
-2.8811131345
 20
-6.9666238358
  0
LINE
  5
499
100
AcDbEntity
  8
RACCORDO
100
AcDbLine
 62
250
  6
CONTINUOUS
 10
-2.9279042352
 20
-7.0408136779
 11
-3.7426120621
 21
-7.6284122761
  0
LINE
  5
49A
100
AcDbEntity
  8
RACCORDO
100
AcDbLine
 62
7
  6
CONTINUOUS
 10
-3.0086387323
 20
-7.2382363076
 11
-3.7566509557
 21
-7.7777314732
  0
LINE
  5
49B
100
AcDbEntity
  8
RACCORDO
100
AcDbLine
 62
7
  6
CONTINUOUS
 10
-2.9279042352
 20
-5.4237981109
 11
-3.3585594811
 21
-5.7217984089
  0
LINE
  5
49C
100
AcDbEntity
  8
RACCORDO
100
AcDbLine
 62
7
  6
CONTINUOUS
 10
-2.9279042352
 20
-4.444906191
 11
-3.3585594811
 21
-4.7395767329
  0
LINE
  5
49D
100
AcDbEntity
  8
RACCORDO
100
AcDbLine
 62
250
  6
CONTINUOUS
 10
-4.1055415969
 20
-8.3509607296
 11
-4.1420036407
 21
-8.3753008682
  0
LWPOLYLINE
  5
49E
100
AcDbEntity
  8
RACCORDO
100
AcDbPolyline
 62
7
  6
CONTINUOUS
 90
13
 70
0
 10
16.2531356911
 20
8.4800921492
 10
16.2912409594
 20
8.5054876155
 10
16.3385295204
 20
8.5427371708
 10
16.383128536
 20
8.5849295526
 10
16.4245503085
 20
8.6319683847
 10
16.4622278076
 20
8.683585244
 10
16.4956088413
 20
8.7393641509
 10
16.5243620595
 20
8.7990690379
 10
16.5481504246
 20
8.8623026842
 10
16.5666615246
 20
8.928466221
 10
16.5797600372
 20
8.9972289875
 10
16.5873850688
 20
9.0683836208
 10
16.5894961159
 20
9.1316466881
  0
LINE
  5
49F
100
AcDbEntity
  8
RACCORDO
100
AcDbLine
 62
250
  6
CONTINUOUS
 10
-4.0651448268
 20
-8.3653133293
 11
-3.2544582463
 21
-7.8343389602
  0
LINE
  5
4A0
100
AcDbEntity
  8
RACCORDO
100
AcDbLine
 62
7
  6
CONTINUOUS
 10
16.2532833157
 20
8.480177918
 11
14.2511173812
 21
7.242008471
  0
LINE
  5
4A1
100
AcDbEntity
  8
DRAFT
100
AcDbLine
 62
7
  6
CONTINUOUS
 10
-2.408716255
 20
-5.5983980167
 11
-2.8811131239
 21
-5.8905353265
  0
LINE
  5
4A2
100
AcDbEntity
  8
RACCORDO
100
AcDbLine
 62
250
  6
CONTINUOUS
 10
-19.0117868182
 20
21.9704801489
 11
-19.0492841813
 21
21.9844291761
  0
LWPOLYLINE
  5
4A3
100
AcDbEntity
  8
ASSI
100
AcDbPolyline
 62
250
  6
CONTINUOUS
 90
7
 70
0
 10
-1.4302247126
 20
15.3542662744
 10
-1.4429997418
 20
15.3599603767
 10
-1.4580985197
 20
15.3631687004
 10
-1.4744042486
 20
15.3633299106
 10
-1.491644083
 20
15.3604413109
 10
-1.5095295584
 20
15.3545512361
 10
-1.5277614017
 20
15.3457582432
  0
LWPOLYLINE
  5
4A4
100
AcDbEntity
  8
ASSI
100
AcDbPolyline
 62
250
  6
CONTINUOUS
 90
7
 70
0
 10
-2.9389146862
 20
16.2253649568
 10
-2.9516896059
 20
16.2310590232
 10
-2.9667883906
 20
16.2342673718
 10
-2.9830941353
 20
16.2344286001
 10
-3.0003339912
 20
16.2315400097
 10
-3.0182194959
 20
16.2256499332
 10
-3.0364513752
 20
16.2168569256
  0
LWPOLYLINE
  5
4A5
100
AcDbEntity
  8
ASSI
100
AcDbPolyline
 62
250
  6
CONTINUOUS
 90
7
 70
0
 10
-12.0967435762
 20
21.5129805834
 10
-12.1095184959
 20
21.5186746498
 10
-12.1246172807
 20
21.5218829984
 10
-12.1409230253
 20
21.5220442266
 10
-12.1581628812
 20
21.5191556363
 10
-12.1760483859
 20
21.5132655598
 10
-12.1942802653
 20
21.5044725522
  0
LWPOLYLINE
  5
4A6
100
AcDbEntity
  8
ASSI
100
AcDbPolyline
 62
250
  6
CONTINUOUS
 90
7
 70
0
 10
-3.0364513752
 20
16.2168569256
 10
-3.0542218406
 20
16.2261136803
 10
-3.0718574795
 20
16.2325524094
 10
-3.0890573527
 20
16.2360075117
 10
-3.1055530782
 20
16.2363574573
 10
-3.1210037061
 20
16.2335233721
 10
-3.1336303455
 20
16.228315607
  0
LWPOLYLINE
  5
4A7
100
AcDbEntity
  8
ASSI
100
AcDbPolyline
 62
250
  6
CONTINUOUS
 90
7
 70
0
 10
-12.1942802653
 20
21.5044725522
 10
-12.2120507306
 20
21.5137293068
 10
-12.2296863695
 20
21.520168036
 10
-12.2468862427
 20
21.5236231383
 10
-12.2633819683
 20
21.5239730839
 10
-12.2788325961
 20
21.5211389987
 10
-12.2914592356
 20
21.5159312336
  0
LWPOLYLINE
  5
4A8
100
AcDbEntity
  8
ASSI
100
AcDbPolyline
 62
250
  6
CONTINUOUS
 90
6
 70
0
 10
-4.8536178196
 20
18.9936042445
 10
-4.8568089364
 20
18.9953327387
 10
-4.873637181
 20
19.0012517838
 10
-4.892331313
 20
19.0029519944
 10
-4.9124552365
 20
19.0003936827
 10
-4.9335395063
 20
18.9936365069
  0
LWPOLYLINE
  5
4A9
100
AcDbEntity
  8
ASSI
100
AcDbPolyline
 62
250
  6
CONTINUOUS
 90
6
 70
0
 10
-6.9313865218
 20
20.1932818526
 10
-6.934577779
 20
20.1950104182
 10
-6.9514060861
 20
20.2009294482
 10
-6.9701002695
 20
20.2026296574
 10
-6.9902242359
 20
20.2000713835
 10
-7.0113085386
 20
20.1933143056
  0
LWPOLYLINE
  5
4AA
100
AcDbEntity
  8
ASSI
100
AcDbPolyline
 62
250
  6
CONTINUOUS
 90
4
 70
0
 10
-4.9335403326
 20
18.993636984
 10
-4.9063222659
 20
18.9788610878
 10
-4.8763714006
 20
18.9650674275
 10
-4.8437005774
 20
18.9521559529
  0
LINE
  5
4AB
100
AcDbEntity
  8
DRAFT
100
AcDbLine
 62
7
  6
CONTINUOUS
 10
-2.5935802108
 20
16.4680424379
 11
-2.7379142896
 21
16.551379126
  0
LINE
  5
4AC
100
AcDbEntity
  8
ASSI
100
AcDbLine
 62
7
  6
CONTINUOUS
 10
-1.2561195563
 20
16.2784047537
 11
-2.0763887131
 21
16.7520178845
  0
LINE
  5
4AD
100
AcDbEntity
  8
ASSI
100
AcDbLine
 62
250
  6
CONTINUOUS
 10
-8.1522105776
 20
20.4148236956
 11
-4.4156563838
 21
18.2573841341
  0
LINE
  5
4AE
100
AcDbEntity
  8
ASSI
100
AcDbLine
 62
250
  6
CONTINUOUS
 10
-8.0297360904
 20
20.5671859571
 11
-4.2931818966
 21
18.4097463957
  0
LINE
  5
4AF
100
AcDbEntity
  8
ASSI
100
AcDbLine
 62
250
  6
CONTINUOUS
 10
-1.7484608927
 20
17.0980375927
 11
-1.6308987957
 21
17.0301587112
  0
LINE
  5
4B0
100
AcDbEntity
  8
ASSI
100
AcDbLine
 62
250
  6
CONTINUOUS
 10
-4.1567864707
 20
18.4913084033
 11
-7.8884756505
 21
20.6459389667
  0
LINE
  5
4B1
100
AcDbEntity
  8
ASSI
100
AcDbLine
 62
250
  6
CONTINUOUS
 10
-7.0113085386
 20
20.1933143056
 11
-4.9335403326
 21
18.993636984
  0
LINE
  5
4B2
100
AcDbEntity
  8
ASSI
100
AcDbLine
 62
250
  6
CONTINUOUS
 10
-4.0072003429
 20
18.5392350933
 11
-4.6016353321
 21
18.882454406
  0
LINE
  5
4B3
100
AcDbEntity
  8
ASSI
100
AcDbLine
 62
250
  6
CONTINUOUS
 10
-7.1447905503
 20
20.3508403558
 11
-7.7392255395
 21
20.6940596685
  0
LINE
  5
4B4
100
AcDbEntity
  8
ASSI
100
AcDbLine
 62
7
  6
CONTINUOUS
 10
-7.9760425279
 20
21.2456845058
 11
-7.1150128348
 21
20.7485367522
  0
LINE
  5
4B5
100
AcDbEntity
  8
ASSI
100
AcDbLine
 62
7
  6
CONTINUOUS
 10
-1.2612094728
 20
17.3686240564
 11
1.1787110306
 21
15.9598445371
  0
LINE
  5
4B6
100
AcDbEntity
  8
ASSI
100
AcDbLine
 62
250
  6
CONTINUOUS
 10
-1.9704287666
 20
18.5900321805
 11
-2.3991595394
 21
18.8375759555
  0
LINE
  5
4B7
100
AcDbEntity
  8
ASSI
100
AcDbLine
 62
250
  6
CONTINUOUS
 10
-5.3663779434
 20
20.550810674
 11
-5.7951087161
 21
20.7983544489
  0
LINE
  5
4B8
100
AcDbEntity
  8
ASSI
100
AcDbLine
 62
250
  6
CONTINUOUS
 10
-2.1701570237
 20
18.9366940291
 11
-4.3087046534
 21
20.1714646282
  0
LINE
  5
4B9
100
AcDbEntity
  8
ASSI
100
AcDbLine
 62
250
  6
CONTINUOUS
 10
-2.0522639899
 20
19.0029199144
 11
-4.1568561087
 21
20.218085027
  0
LINE
  5
4BA
100
AcDbEntity
  8
ASSI
100
AcDbLine
 62
250
  6
CONTINUOUS
 10
-1.5212223611
 20
18.7335535682
 11
-1.956807643
 21
18.9850550507
  0
LINE
  5
4BB
100
AcDbEntity
  8
ASSI
100
AcDbLine
 62
250
  6
CONTINUOUS
 10
-4.9122211236
 20
20.6914737544
 11
-5.3478064054
 21
20.9429752369
  0
LINE
  5
4BC
100
AcDbEntity
  8
ASSI
100
AcDbLine
 62
7
  6
CONTINUOUS
 10
-1.5190133989
 20
19.3054817326
 11
-3.1422120492
 21
20.2426962898
  0
LINE
  5
4BD
100
AcDbEntity
  8
ASSI
100
AcDbLine
 62
7
  6
CONTINUOUS
 10
2.8647152669
 20
16.9118811696
 11
1.9753457884
 21
17.42539196
  0
LINE
  5
4BE
100
AcDbEntity
  8
ASSI
100
AcDbLine
 62
7
  6
CONTINUOUS
 10
-5.378564736
 20
21.6714477307
 11
-6.2679342145
 21
22.1849585211
  0
LINE
  5
4BF
100
AcDbEntity
  8
RACCORDO
100
AcDbLine
 62
7
  6
CONTINUOUS
 10
3.1769985783
 20
16.8133672446
 11
2.5869900528
 21
17.1540307727
  0
LINE
  5
4C0
100
AcDbEntity
  8
RACCORDO
100
AcDbLine
 62
7
  6
CONTINUOUS
 10
-5.8487876442
 20
22.0247430898
 11
-6.4387961697
 21
22.3654066179
  0
LINE
  5
4C1
100
AcDbEntity
  8
ASSI
100
AcDbLine
 62
7
  6
CONTINUOUS
 10
-4.8534822968
 20
18.9935257829
 11
-6.9313865218
 21
20.1932818526
  0
LWPOLYLINE
  5
4C2
100
AcDbEntity
  8
ASSI
100
AcDbPolyline
 62
7
  6
CONTINUOUS
 90
10
 70
0
 10
-6.9313559012
 20
20.1932641618
 10
-6.9427920154
 20
20.2000566893
 10
-6.9667716862
 20
20.2156601128
 10
-6.9865616526
 20
20.2302243387
 10
-7.0026798197
 20
20.2435751565
 10
-7.0159872707
 20
20.2558632908
 10
-7.0268062633
 20
20.2669532098
 10
-7.0351977387
 20
20.2764598454
 10
-7.0414090264
 20
20.2841580706
 10
-7.0436295745
 20
20.2870890243
  0
LWPOLYLINE
  5
4C3
100
AcDbEntity
  8
ASSI
100
AcDbPolyline
 62
7
  6
CONTINUOUS
 90
13
 70
0
 10
2.8647152669
 20
16.9118811696
 10
2.9239559169
 20
16.8756318301
 10
2.9826820365
 20
16.8356408933
 10
3.0408936257
 20
16.7919083592
 10
3.0988341723
 20
16.7442291967
 10
3.1562601884
 20
16.6928084369
 10
3.212441211
 20
16.6382611727
 10
3.2673562827
 20
16.5805274387
 10
3.3210263608
 20
16.5196672004
 10
3.3727838536
 20
16.4564754469
 10
3.4224062306
 20
16.3912171747
 10
3.4701160223
 20
16.3236273873
 10
3.5159132287
 20
16.2537060848
  0
LINE
  5
4C4
100
AcDbEntity
  8
SMUSSO
100
AcDbLine
 62
7
  6
CONTINUOUS
 10
-2.5516648817
 20
23.246688892
 11
-2.5739182571
 21
23.2649212659
  0
LWPOLYLINE
  5
4C5
100
AcDbEntity
  8
SMUSSO
100
AcDbPolyline
 62
7
  6
CONTINUOUS
 90
9
 70
0
 10
-2.5739182571
 20
23.2649212659
 10
-2.6384315398
 20
23.3229408437
 10
-2.6984637259
 20
23.38244362
 10
-2.75389935
 20
23.4433133544
 10
-2.8046334994
 20
23.5054346652
 10
-2.8505726239
 20
23.5686972819
 10
-2.8916287906
 20
23.6329825544
 10
-2.9277210875
 20
23.6981633529
 10
-2.9587792877
 20
23.7641137496
  0
LWPOLYLINE
  5
4C6
100
AcDbEntity
  8
RACCORDO
100
AcDbPolyline
 62
7
  6
CONTINUOUS
 90
19
 70
0
 10
-2.906206216
 20
23.9782499862
 10
-2.9390338875
 20
24.0091675174
 10
-2.973231121
 20
24.0388387786
 10
-3.0086003479
 20
24.0670192022
 10
-3.0450469419
 20
24.093518682
 10
-3.0822324904
 20
24.1180771562
 10
-3.1195368772
 20
24.1404259684
 10
-3.1564597336
 20
24.1603388631
 10
-3.1929373024
 20
24.1778850484
 10
-3.2290036761
 20
24.1932323257
 10
-3.2644623784
 20
24.2062095015
 10
-3.2990123553
 20
24.2167323651
 10
-3.3325558545
 20
24.2249091598
 10
-3.3650540886
 20
24.2305775612
 10
-3.3959579036
 20
24.2334604289
 10
-3.424399826
 20
24.233539187
 10
-3.4499031077
 20
24.2308781655
 10
-3.4723583738
 20
24.2254765289
 10
-3.4914802838
 20
24.2173935062
  0
LINE
  5
4C7
100
AcDbEntity
  8
RACCORDO
100
AcDbLine
 62
7
  6
CONTINUOUS
 10
-2.8079842633
 20
23.8815841133
 11
-2.7135248319
 21
23.7891191269
  0
LINE
  5
4C8
100
AcDbEntity
  8
RACCORDO
100
AcDbLine
 62
7
  6
CONTINUOUS
 10
-2.906206216
 20
23.9782499862
 11
-2.8079842633
 21
23.8815841133
  0
LINE
  5
4C9
100
AcDbEntity
  8
RACCORDO
100
AcDbLine
 62
250
  6
CONTINUOUS
 10
10.2651671529
 20
14.6399902476
 11
10.3058011
 21
14.5957787593
  0
LWPOLYLINE
  5
4CA
100
AcDbEntity
  8
RACCORDO
100
AcDbPolyline
 62
250
  6
CONTINUOUS
 90
4
 70
0
 10
10.3058011
 20
14.5957787593
 10
10.3452801364
 20
14.5493055093
 10
10.3833706562
 20
14.5008506356
 10
10.4198460895
 20
14.4507254115
  0
LWPOLYLINE
  5
4CB
100
AcDbEntity
  8
RACCORDO
100
AcDbPolyline
 62
250
  6
CONTINUOUS
 90
15
 70
0
 10
10.4198460895
 20
14.4507254115
 10
10.4546532344
 20
14.3990254761
 10
10.4878124575
 20
14.3457081335
 10
10.5190912448
 20
14.2911107651
 10
10.5484336073
 20
14.2353014334
 10
10.576025656
 20
14.177790645
 10
10.6017328094
 20
14.1185554297
 10
10.6252162222
 20
14.0580457344
 10
10.6462663157
 20
13.9964833211
 10
10.6647108988
 20
13.9339390248
 10
10.6802382645
 20
13.8709348869
 10
10.6925250575
 20
13.8083908836
 10
10.7014343171
 20
13.7468236298
 10
10.7069111621
 20
13.6863638057
 10
10.7088730592
 20
13.6273429055
  0
LWPOLYLINE
  5
4CC
100
AcDbEntity
  8
RACCORDO
100
AcDbPolyline
 62
7
  6
CONTINUOUS
 90
9
 70
0
 10
8.8227028813
 20
17.2432192402
 10
8.822160377
 20
17.2440332676
 10
8.8167203191
 20
17.2485793392
 10
8.8069001702
 20
17.2534388856
 10
8.7926858604
 20
17.2585574192
 10
8.7743073023
 20
17.2637128791
 10
8.7519286734
 20
17.2688752381
 10
8.7255779969
 20
17.2741638809
 10
8.6953773069
 20
17.2796389195
  0
LINE
  5
4CD
100
AcDbEntity
  8
RACCORDO
100
AcDbLine
 62
7
  6
CONTINUOUS
 10
10.3806610348
 20
14.3656301161
 11
10.3807188607
 21
14.3655408863
  0
LWPOLYLINE
  5
4CE
100
AcDbEntity
  8
RACCORDO
100
AcDbPolyline
 62
250
  6
CONTINUOUS
 90
12
 70
0
 10
10.3807188607
 20
14.3655408863
 10
10.418205637
 20
14.3072946786
 10
10.4533602143
 20
14.2512712228
 10
10.488947717
 20
14.192151043
 10
10.524373642
 20
14.1298079927
 10
10.5590859715
 20
14.0642024253
 10
10.592563869
 20
13.994976713
 10
10.623779273
 20
13.9228188577
 10
10.6516489431
 20
13.8494367328
 10
10.6755077537
 20
13.7756780654
 10
10.6948030506
 20
13.7015715884
 10
10.708871968
 20
13.6277072496
  0
LWPOLYLINE
  5
4CF
100
AcDbEntity
  8
RACCORDO
100
AcDbPolyline
 62
250
  6
CONTINUOUS
 90
13
 70
0
 10
10.2981924975
 20
13.9316148107
 10
10.3241465268
 20
13.8896677743
 10
10.3519230484
 20
13.8514630934
 10
10.3815220621
 20
13.817000768
 10
10.4131411235
 20
13.786747873
 10
10.4465826772
 20
13.7602373335
 10
10.4812540563
 20
13.7360679248
 10
10.5171454563
 20
13.7141459364
 10
10.5542666818
 20
13.6945650788
 10
10.5920544795
 20
13.6762052589
 10
10.6303210986
 20
13.6586931122
 10
10.6692542899
 20
13.6424020032
 10
10.7088540535
 20
13.6273319318
  0
LWPOLYLINE
  5
4D0
100
AcDbEntity
  8
RACCORDO
100
AcDbPolyline
 62
7
  6
CONTINUOUS
 90
6
 70
0
 10
10.2230347363
 20
14.6693823606
 10
10.2028066225
 20
14.7036501748
 10
10.1834913282
 20
14.737155032
 10
10.1651406924
 20
14.7699346297
 10
10.1478117911
 20
14.8019915898
 10
10.1311462294
 20
14.8341184768
  0
LWPOLYLINE
  5
4D1
100
AcDbEntity
  8
RACCORDO
100
AcDbPolyline
 62
250
  6
CONTINUOUS
 90
13
 70
0
 10
8.5858855498
 20
17.2440714254
 10
8.7225136132
 20
17.008452229
 10
8.8539857134
 20
16.7788269947
 10
8.9804001789
 20
16.555277811
 10
9.1015011404
 20
16.3385172711
 10
9.2177438611
 20
16.1279848518
 10
9.3302625067
 20
15.9218310091
 10
9.438265344
 20
15.7217013823
 10
9.5426881933
 20
15.5260534175
 10
9.6471312949
 20
15.3281934676
 10
9.7527301445
 20
15.1258723924
 10
9.8582616329
 20
14.9213334788
 10
9.9636917538
 20
14.7145795531
  0
LINE
  5
4D2
100
AcDbEntity
  8
RACCORDO
100
AcDbLine
 62
7
  6
CONTINUOUS
 10
10.3806938333
 20
14.3655816126
 11
10.3806111053
 21
14.3657343357
  0
LWPOLYLINE
  5
4D3
100
AcDbEntity
  8
RACCORDO
100
AcDbPolyline
 62
250
  6
CONTINUOUS
 90
13
 70
0
 10
10.0814047481
 20
14.5036825374
 10
10.1101031301
 20
14.4498886628
 10
10.1362014919
 20
14.397491876
 10
10.1598229077
 20
14.3467262184
 10
10.1808368524
 20
14.2983525281
 10
10.1997097324
 20
14.2519696996
 10
10.2172698334
 20
14.2060277912
 10
10.2333599389
 20
14.1606295794
 10
10.2480588473
 20
14.115945486
 10
10.2621160968
 20
14.0705946521
 10
10.2754909227
 20
14.0243110227
 10
10.2876124303
 20
13.9778807793
 10
10.2981924975
 20
13.9316148107
  0
LWPOLYLINE
  5
4D4
100
AcDbEntity
  8
RACCORDO
100
AcDbPolyline
 62
7
  6
CONTINUOUS
 90
5
 70
0
 10
10.3806088468
 20
14.3657386107
 10
10.3794643024
 20
14.3679279214
 10
10.3770822497
 20
14.3725956958
 10
10.3741433114
 20
14.3784928298
 10
10.370710428
 20
14.3855090077
  0
LWPOLYLINE
  5
4D5
100
AcDbEntity
  8
RACCORDO
100
AcDbPolyline
 62
250
  6
CONTINUOUS
 90
10
 70
0
 10
9.9636917538
 20
14.7145795531
 10
9.9760302917
 20
14.6906521967
 10
9.9884737211
 20
14.6670161909
 10
10.0010223319
 20
14.6436716856
 10
10.0135696282
 20
14.6208427355
 10
10.0262229327
 20
14.5983056728
 10
10.0393021294
 20
14.5753886432
 10
10.0529127573
 20
14.5518673229
 10
10.0669472663
 20
14.5279653826
 10
10.0814047481
 20
14.5036825374
  0
LWPOLYLINE
  5
4D6
100
AcDbEntity
  8
RACCORDO
100
AcDbPolyline
 62
7
  6
CONTINUOUS
 90
10
 70
0
 10
10.1311527859
 20
14.8341083608
 10
9.9868083273
 20
15.1165449811
 10
9.8405189157
 20
15.3981945979
 10
9.692303314
 20
15.6790213227
 10
9.5421804818
 20
15.9589894571
 10
9.3901693021
 20
16.2380639834
 10
9.2362885624
 20
16.5162105557
 10
9.0805575749
 20
16.7933943607
 10
8.9229961913
 20
17.0695801349
 10
8.822683035
 20
17.2432534371
  0
LWPOLYLINE
  5
4D7
100
AcDbEntity
  8
RACCORDO
100
AcDbPolyline
 62
250
  6
CONTINUOUS
 90
12
 70
0
 10
10.2298281338
 20
14.6580192107
 10
10.2304240029
 20
14.6568407325
 10
10.2311061584
 20
14.6498032975
 10
10.2281157165
 20
14.6406413034
 10
10.2214781903
 20
14.6294329834
 10
10.2112502508
 20
14.6162740221
 10
10.1975192172
 20
14.601276768
 10
10.1804023153
 20
14.5845692725
 10
10.1600456947
 20
14.5662941842
 10
10.1366231629
 20
14.5466075378
 10
10.110334697
 20
14.5256774209
 10
10.0814047482
 20
14.5036825371
  0
LWPOLYLINE
  5
4D8
100
AcDbEntity
  8
RACCORDO
100
AcDbPolyline
 62
7
  6
CONTINUOUS
 90
13
 70
0
 10
10.3188451734
 20
14.4935532702
 10
10.3123692101
 20
14.5066006297
 10
10.3056886518
 20
14.5198920003
 10
10.2988055449
 20
14.5334008384
 10
10.2917338711
 20
14.5470784068
 10
10.2844776565
 20
14.5608969651
 10
10.2770372669
 20
14.5748375229
 10
10.269420164
 20
14.5888705547
 10
10.2616315269
 20
14.6029722248
 10
10.2536721385
 20
14.6171274765
 10
10.2455411877
 20
14.6313244357
 10
10.237242547
 20
14.645543452
 10
10.2230347363
 20
14.6693823606
  0
LINE
  5
4D9
100
AcDbEntity
  8
RACCORDO
100
AcDbLine
 62
7
  6
CONTINUOUS
 10
10.3311650562
 20
14.4683210757
 11
10.3188451734
 21
14.4935532702
  0
LINE
  5
4DA
100
AcDbEntity
  8
RACCORDO
100
AcDbLine
 62
7
  6
CONTINUOUS
 10
10.3425792848
 20
14.4445396815
 11
10.3311650562
 21
14.4683210757
  0
LINE
  5
4DB
100
AcDbEntity
  8
RACCORDO
100
AcDbLine
 62
7
  6
CONTINUOUS
 10
10.370710428
 20
14.3855090077
 11
10.362536408
 21
14.4025314153
  0
LINE
  5
4DC
100
AcDbEntity
  8
RACCORDO
100
AcDbLine
 62
7
  6
CONTINUOUS
 10
10.362536408
 20
14.4025314153
 11
10.3425792848
 21
14.4445396815
  0
LWPOLYLINE
  5
4DD
100
AcDbEntity
  8
RACCORDO
100
AcDbPolyline
 62
250
  6
CONTINUOUS
 90
12
 70
0
 10
10.3806111053
 20
14.3657343357
 10
10.3920077981
 20
14.3416136436
 10
10.4050504529
 20
14.3035577117
 10
10.413085739
 20
14.2636620223
 10
10.4160273868
 20
14.2223547718
 10
10.4138437894
 20
14.1800792933
 10
10.4065583456
 20
14.1372893365
 10
10.3942492162
 20
14.0944441862
 10
10.3770484734
 20
14.0520037086
 10
10.3551406967
 20
14.0104234428
 10
10.3287609999
 20
13.9701497101
 10
10.2981924982
 20
13.9316148096
  0
LWPOLYLINE
  5
4DE
100
AcDbEntity
  8
RACCORDO
100
AcDbPolyline
 62
7
  6
CONTINUOUS
 90
18
 70
0
 10
16.5894957385
 20
14.6163884976
 10
16.5890041953
 20
14.6536272966
 10
16.5829583681
 20
14.7526354068
 10
16.5706652765
 20
14.8492018561
 10
16.5527948922
 20
14.9431074897
 10
16.5298319925
 20
15.0341917463
 10
16.5022591908
 20
15.1221111748
 10
16.4704954626
 20
15.2064345442
 10
16.4347756686
 20
15.2871849139
 10
16.3951286196
 20
15.3644878714
 10
16.3514145062
 20
15.4385110913
 10
16.3039295347
 20
15.5085565102
 10
16.2531020058
 20
15.573830034
 10
16.1989151086
 20
15.6342620348
 10
16.1417522492
 20
15.6892695304
 10
16.0827603107
 20
15.7378079529
 10
16.0228418302
 20
15.7796281404
 10
15.9899271521
 20
15.7996380461
  0
LWPOLYLINE
  5
4DF
100
AcDbEntity
  8
RACCORDO
100
AcDbPolyline
 62
250
  6
CONTINUOUS
 90
9
 70
0
 10
16.5894961213
 20
-7.0348869297
 10
16.5890328025
 20
-7.0472973245
 10
16.5841321745
 20
-7.0770457228
 10
16.5739318749
 20
-7.1063422427
 10
16.5585412021
 20
-7.1348729946
 10
16.5381250665
 20
-7.1623322924
 10
16.5129022221
 20
-7.1884259321
 10
16.4831429218
 20
-7.2128743435
 10
16.4491660221
 20
-7.2354155844
  0
LWPOLYLINE
  5
4E0
100
AcDbEntity
  8
RACCORDO
100
AcDbPolyline
 62
250
  6
CONTINUOUS
 90
9
 70
0
 10
16.5894957667
 20
-1.5501616977
 10
16.5890328366
 20
-1.5622424101
 10
16.5841322884
 20
-1.5919908187
 10
16.5739320566
 20
-1.6212873701
 10
16.5585414294
 20
-1.649818172
 10
16.5381253068
 20
-1.6772775368
 10
16.5129024334
 20
-1.7033712562
 10
16.4831430548
 20
-1.7278197543
 10
16.4491660221
 20
-1.7503610822
  0
LINE
  5
4E1
100
AcDbEntity
  8
RACCORDO
100
AcDbLine
 62
7
  6
CONTINUOUS
 10
10.4142821751
 20
-14.0594381299
 11
10.41421181
 21
-14.05965796
  0
LWPOLYLINE
  5
4E2
100
AcDbEntity
  8
RACCORDO
100
AcDbPolyline
 62
7
  6
CONTINUOUS
 90
9
 70
0
 10
10.4142118102
 20
-14.0596579597
 10
10.4276097252
 20
-14.0203818979
 10
10.4453330427
 20
-13.9733553959
 10
10.4655057831
 20
-13.9245334577
 10
10.4878349164
 20
-13.8746170866
 10
10.5123761232
 20
-13.8234026162
 10
10.5396745168
 20
-13.7697721135
 10
10.5699460456
 20
-13.7133805171
 10
10.5914679171
 20
-13.6748316657
  0
LWPOLYLINE
  5
4E3
100
AcDbEntity
  8
RACCORDO
100
AcDbPolyline
 62
250
  6
CONTINUOUS
 90
10
 70
0
 10
13.9592556029
 20
-2.1918003679
 10
13.9534015871
 20
-2.2071618156
 10
13.9485579542
 20
-2.2214161033
 10
13.944777617
 20
-2.2344075015
 10
13.9421018704
 20
-2.2459940833
 10
13.9405599422
 20
-2.2560492655
 10
13.9401686706
 20
-2.2644631953
 10
13.9409323204
 20
-2.2711439603
 10
13.9428425385
 20
-2.2760185883
 10
13.9458784454
 20
-2.2790338386
  0
LWPOLYLINE
  5
4E4
100
AcDbEntity
  8
RACCORDO
100
AcDbPolyline
 62
250
  6
CONTINUOUS
 90
10
 70
0
 10
13.863585584
 20
-2.1446401781
 10
13.8572560247
 20
-2.1582346061
 10
13.851742792
 20
-2.1706986119
 10
13.8471006181
 20
-2.1819084472
 10
13.8433755863
 20
-2.1917528146
 10
13.840604671
 20
-2.2001339868
 10
13.8388153746
 20
-2.2069687705
 10
13.8380254571
 20
-2.2121893148
 10
13.8382427559
 20
-2.2157437911
 10
13.8394651075
 20
-2.2175969183
  0
LINE
  5
4E5
100
AcDbEntity
  8
RACCORDO
100
AcDbLine
 62
7
  6
CONTINUOUS
 10
-2.9279042352
 20
-10.9757959931
 11
-3.3585594811
 21
-11.2737962911
  0
LINE
  5
4E6
100
AcDbEntity
  8
RACCORDO
100
AcDbLine
 62
7
  6
CONTINUOUS
 10
-2.9279042352
 20
-9.9969040732
 11
-3.3585594811
 21
-10.2915746151
  0
LINE
  5
4E7
100
AcDbEntity
  8
RACCORDO
100
AcDbLine
 62
250
  6
CONTINUOUS
 10
-3.7446362974
 20
-8.9148224768
 11
-2.9279042352
 21
-8.3798885062
  0
LWPOLYLINE
  5
4E8
100
AcDbEntity
  8
RACCORDO
100
AcDbPolyline
 62
250
  6
CONTINUOUS
 90
5
 70
0
 10
-3.8661499807
 20
-7.9131544697
 10
-3.8457093034
 20
-7.9006177693
 10
-3.8222624911
 20
-7.8804368786
 10
-3.8019292279
 20
-7.855799857
 10
-3.784883045
 20
-7.8270024409
  0
LINE
  5
4E9
100
AcDbEntity
  8
DRAFT
100
AcDbLine
 62
7
  6
CONTINUOUS
 10
-2.4087243031
 20
-6.7994799414
 11
-2.8983532933
 21
-7.0821865546
  0
LINE
  5
4EA
100
AcDbEntity
  8
RACCORDO
100
AcDbLine
 62
250
  6
CONTINUOUS
 10
-4.1055415969
 20
-8.3509607296
 11
-4.0960442987
 21
-8.3454771357
  0
LINE
  5
4EB
100
AcDbEntity
  8
RACCORDO
100
AcDbLine
 62
250
  6
CONTINUOUS
 10
-3.7521093603
 20
-8.9631233199
 11
-3.7426120621
 21
-8.957639726
  0
LINE
  5
4EC
100
AcDbEntity
  8
RACCORDO
100
AcDbLine
 62
250
  6
CONTINUOUS
 10
-3.7426120621
 20
-7.6737529467
 11
-3.7521093603
 21
-7.6786768768
  0
LINE
  5
4ED
100
AcDbEntity
  8
RACCORDO
100
AcDbLine
 62
7
  6
CONTINUOUS
 10
-3.8527279494
 20
-7.9061957387
 11
-3.8661499807
 21
-7.9131544697
  0
LINE
  5
4EE
100
AcDbEntity
  8
RACCORDO
100
AcDbLine
 62
250
  6
CONTINUOUS
 10
-3.7521093603
 20
-7.6786768768
 11
-3.7912140663
 21
-7.6979948966
  0
LWPOLYLINE
  5
4EF
100
AcDbEntity
  8
RACCORDO
100
AcDbPolyline
 62
250
  6
CONTINUOUS
 90
6
 70
0
 10
-3.2544582463
 20
-7.8343389602
 10
-3.2303685804
 20
-7.8235580854
 10
-3.2070955049
 20
-7.8179531423
 10
-3.1853228428
 20
-7.8176888186
 10
-3.1656903313
 20
-7.8227728809
 10
-3.1584797837
 20
-7.8263261571
  0
LWPOLYLINE
  5
4F0
100
AcDbEntity
  8
0
100
AcDbPolyline
 62
7
  6
CONTINUOUS
 90
22
 70
0
 10
-2.1258611327
 20
11.6372040441
 10
-2.1093098672
 20
11.6391136575
 10
-2.0935507437
 20
11.6395528591
 10
-2.0785837622
 20
11.638521649
 10
-2.0643833156
 20
11.6359719162
 10
-2.0509750111
 20
11.6319517717
 10
-2.0384356698
 20
11.6266055485
 10
-2.026765581
 20
11.6199264908
 10
-2.0159644556
 20
11.6119213544
 10
-2.006108247
 20
11.6027547401
 10
-1.9972105838
 20
11.5924273742
 10
-1.9892578374
 20
11.5809385304
 10
-1.9822850766
 20
11.56845063
 10
-1.9763136988
 20
11.5549434682
 10
-1.9713223065
 20
11.5404372498
 10
-1.9672817758
 20
11.5251550101
 10
-1.9642901257
 20
11.5090492954
 10
-1.9622493371
 20
11.4921675593
 10
-1.9608362288
 20
11.4748751976
 10
-1.9599430737
 20
11.4572940087
 10
-1.9596775989
 20
11.4393021942
 10
-1.9600398043
 20
11.4208997541
  0
LINE
  5
4F1
100
AcDbEntity
  8
RACCORDO
100
AcDbLine
 62
250
  6
CONTINUOUS
 10
-19.0492841813
 20
21.9844291761
 11
-19.0858341697
 21
21.9935662665
  0
LINE
  5
4F2
100
AcDbEntity
  8
ASSI
100
AcDbLine
 62
250
  6
CONTINUOUS
 10
-4.6456444194
 20
18.8944797533
 11
-4.6016353321
 21
18.882454406
  0
LWPOLYLINE
  5
4F3
100
AcDbEntity
  8
ASSI
100
AcDbPolyline
 62
250
  6
CONTINUOUS
 90
3
 70
0
 10
-4.7697297142
 20
18.9278764857
 10
-4.7297197618
 20
18.9165834467
 10
-4.6456444194
 20
18.8944797533
  0
LWPOLYLINE
  5
4F4
100
AcDbEntity
  8
ASSI
100
AcDbPolyline
 62
250
  6
CONTINUOUS
 90
12
 70
0
 10
-4.5452694974
 20
18.8633868364
 10
-4.4905554313
 20
18.8460413318
 10
-4.4374931339
 20
18.8304178922
 10
-4.3857638808
 20
18.8165746185
 10
-4.3356863963
 20
18.8044534099
 10
-4.2882168536
 20
18.7938799641
 10
-4.2437296046
 20
18.7849258437
 10
-4.2018502973
 20
18.7775194861
 10
-4.16241205
 20
18.7712719006
 10
-4.1254644136
 20
18.766156135
 10
-4.0909578371
 20
18.7621991414
 10
-4.0585767853
 20
18.7590927854
  0
LINE
  5
4F5
100
AcDbEntity
  8
ASSI
100
AcDbLine
 62
250
  6
CONTINUOUS
 10
-4.5941635361
 20
18.8883093294
 11
-4.594254915
 21
18.8883386749
  0
LINE
  5
4F6
100
AcDbEntity
  8
ASSI
100
AcDbLine
 62
250
  6
CONTINUOUS
 10
-4.6016353321
 20
18.882454406
 11
-4.5452694974
 21
18.8633868364
  0
LWPOLYLINE
  5
4F7
100
AcDbEntity
  8
ASSI
100
AcDbPolyline
 62
250
  6
CONTINUOUS
 90
3
 70
0
 10
-4.8437005774
 20
18.9521559529
 10
-4.8080406631
 20
18.9397883362
 10
-4.7697297142
 20
18.9278764857
  0
LINE
  5
4F8
100
AcDbEntity
  8
ASSI
100
AcDbLine
 62
7
  6
CONTINUOUS
 10
-4.5668537749
 20
18.8787665278
 11
-4.660637918
 21
18.9116247862
  0
LWPOLYLINE
  5
4F9
100
AcDbEntity
  8
ASSI
100
AcDbPolyline
 62
7
  6
CONTINUOUS
 90
6
 70
0
 10
-4.660637918
 20
18.9116247862
 10
-4.7061310571
 20
18.9278370584
 10
-4.7486732725
 20
18.9440287817
 10
-4.787067192
 20
18.960103241
 10
-4.8209881164
 20
18.9760808373
 10
-4.8534823012
 20
18.9935257854
  0
LINE
  5
4FA
100
AcDbEntity
  8
ASSI
100
AcDbLine
 62
250
  6
CONTINUOUS
 10
0.6133561208
 20
20.488339385
 11
0.63120335
 21
20.4793401627
  0
LWPOLYLINE
  5
4FB
100
AcDbEntity
  8
ASSI
100
AcDbPolyline
 62
250
  6
CONTINUOUS
 90
3
 70
0
 10
-2.7144489555
 20
22.411077873
 10
-2.7315799817
 20
22.420075611
 10
-2.7484495101
 20
22.4264433883
  0
LWPOLYLINE
  5
4FC
100
AcDbEntity
  8
RACCORDO
100
AcDbPolyline
 62
7
  6
CONTINUOUS
 90
10
 70
0
 10
-6.4387961697
 20
22.3654066179
 10
-6.4666951444
 20
22.3802233998
 10
-6.4941308309
 20
22.3923251202
 10
-6.5211032291
 20
22.4017117792
 10
-6.5477998547
 20
22.4084113166
 10
-6.5740331921
 20
22.4123957926
 10
-6.5992406939
 20
22.4135813871
 10
-6.6232348442
 20
22.4119401601
 10
-6.646203159
 20
22.4075000516
 10
-6.6681456381
 20
22.4002610616
  0
LINE
  5
4FD
100
AcDbEntity
  8
0
100
AcDbLine
 62
7
  6
CONTINUOUS
 10
-2.0060059011
 20
21.0545046128
 11
-0.2479089875
 21
20.039401489
  0
LINE
  5
4FE
100
AcDbEntity
  8
ASSI
100
AcDbLine
 62
250
  6
CONTINUOUS
 10
-0.3027067475
 20
20.9765026641
 11
0.5336961364
 21
20.4935741215
  0
LINE
  5
4FF
100
AcDbEntity
  8
ASSI
100
AcDbLine
 62
250
  6
CONTINUOUS
 10
1.021442175
 20
20.254021156
 11
0.63120335
 21
20.4793401627
  0
LINE
  5
500
100
AcDbEntity
  8
ASSI
100
AcDbLine
 62
250
  6
CONTINUOUS
 10
-2.3242101306
 20
22.1857588664
 11
-2.7144489555
 21
22.411077873
  0
LINE
  5
501
100
AcDbEntity
  8
ASSI
100
AcDbLine
 62
250
  6
CONTINUOUS
 10
-0.2174035786
 20
21.0530711255
 11
0.6674183528
 21
20.5421860317
  0
LINE
  5
502
100
AcDbEntity
  8
ASSI
100
AcDbLine
 62
250
  6
CONTINUOUS
 10
1.1126189033
 20
20.2931358212
 11
0.7223308858
 21
20.518483231
  0
LINE
  5
503
100
AcDbEntity
  8
ASSI
100
AcDbLine
 62
250
  6
CONTINUOUS
 10
-2.2323249645
 20
22.2244644884
 11
-2.6226129819
 21
22.4498118982
  0
LINE
  5
504
100
AcDbEntity
  8
ASSI
100
AcDbLine
 62
7
  6
CONTINUOUS
 10
0.525749963
 20
21.5126484231
 11
1.7038536716
 21
20.8324261069
  0
LINE
  5
505
100
AcDbEntity
  8
ASSI
100
AcDbLine
 62
250
  6
CONTINUOUS
 10
4.5532615838
 20
19.4802511851
 11
4.704912049
 21
19.3926901071
  0
LINE
  5
506
100
AcDbEntity
  8
ASSI
100
AcDbLine
 62
7
  6
CONTINUOUS
 10
4.5370905672
 20
19.5166410709
 11
4.7300363934
 21
19.405236569
  0
LINE
  5
507
100
AcDbEntity
  8
RACCORDO
100
AcDbLine
 62
7
  6
CONTINUOUS
 10
0.3996088283
 20
22.1988473678
 11
2.4192131813
 21
21.032753126
  0
LINE
  5
508
100
AcDbEntity
  8
SMUSSO
100
AcDbLine
 62
7
  6
CONTINUOUS
 10
5.1939677168
 20
18.8177372215
 11
4.8463867238
 21
19.0252299772
  0
LINE
  5
509
100
AcDbEntity
  8
SMUSSO
100
AcDbLine
 62
7
  6
CONTINUOUS
 10
-2.5782772522
 20
23.2318596079
 11
-2.706787487
 21
23.3086645197
  0
LWPOLYLINE
  5
50A
100
AcDbEntity
  8
ASSI
100
AcDbPolyline
 62
250
  6
CONTINUOUS
 90
13
 70
0
 10
1.021442175
 20
20.254021156
 10
1.0391842383
 20
20.2428836092
 10
1.0566554766
 20
20.2294234581
 10
1.0735891989
 20
20.2138461663
 10
1.0897269192
 20
20.1963895145
 10
1.1048223019
 20
20.177319971
 10
1.1186449226
 20
20.1569286242
 10
1.1309837848
 20
20.1355267393
 10
1.141650541
 20
20.113441007
 10
1.1504823678
 20
20.0910085566
 10
1.1573444511
 20
20.0685718099
 10
1.162132044
 20
20.0464732542
 10
1.1647720661
 20
20.0250502146
  0
LWPOLYLINE
  5
50B
100
AcDbEntity
  8
RACCORDO
100
AcDbPolyline
 62
7
  6
CONTINUOUS
 90
10
 70
0
 10
-2.7067724983
 20
23.308672025
 10
-2.81495565
 20
23.3774888946
 10
-2.9168440249
 20
23.4487204652
 10
-3.0124376229
 20
23.5223667368
 10
-3.1019201445
 20
23.5986182172
 10
-3.1851078892
 20
23.6772843986
 10
-3.2614497559
 20
23.7577937577
 10
-3.3307620444
 20
23.8399557868
 10
-3.3932284548
 20
23.9239609935
 10
-3.4488489873
 20
24.0098093779
  0
LWPOLYLINE
  5
50C
100
AcDbEntity
  8
ASSI
100
AcDbPolyline
 62
7
  6
CONTINUOUS
 90
13
 70
0
 10
4.746574537
 20
19.3956876522
 10
4.749386156
 20
19.3938939473
 10
4.7546545153
 20
19.3895196375
 10
4.7595455153
 20
19.384040821
 10
4.7640245812
 20
19.377482934
 10
4.7680557067
 20
19.3698785025
 10
4.7716149567
 20
19.3612600556
 10
4.774675883
 20
19.351667168
 10
4.7772129359
 20
19.3411453934
 10
4.7792091269
 20
19.3297432515
 10
4.7806489557
 20
19.3175136908
 10
4.7815180371
 20
19.304513412
 10
4.7818070487
 20
19.2908023537
  0
LWPOLYLINE
  5
50D
100
AcDbEntity
  8
SMUSSO
100
AcDbPolyline
 62
7
  6
CONTINUOUS
 90
16
 70
0
 10
4.8463867238
 20
19.0252299772
 10
4.7276210648
 20
19.1022469533
 10
4.6169742259
 20
19.1821777129
 10
4.5144462072
 20
19.2650222562
 10
4.4198125898
 20
19.3510227265
 10
4.3332977925
 20
19.4399369804
 10
4.2555750721
 20
19.5310385872
 10
4.1866888438
 20
19.6243689793
 10
4.1265946923
 20
19.7198867243
 10
4.0758326295
 20
19.816741095
 10
4.0344858812
 20
19.9149370838
 10
4.0024712215
 20
20.0144696984
 10
3.9800789847
 20
20.1144732346
 10
3.967405949
 20
20.2146591244
 10
3.9643553362
 20
20.3153159358
 10
3.9709271464
 20
20.4164436689
  0
LWPOLYLINE
  5
50E
100
AcDbEntity
  8
SMUSSO
100
AcDbPolyline
 62
7
  6
CONTINUOUS
 90
3
 70
0
 10
5.1939677168
 20
18.8177372215
 10
5.087043465
 20
18.8880133018
 10
4.9875012189
 20
18.9616502187
  0
LWPOLYLINE
  5
50F
100
AcDbEntity
  8
ASSI
100
AcDbPolyline
 62
250
  6
CONTINUOUS
 90
13
 70
0
 10
1.1126189033
 20
20.2931358212
 10
1.1296646563
 20
20.2816892136
 10
1.1458932033
 20
20.2676923974
 10
1.1610573403
 20
20.2513585812
 10
1.1749260771
 20
20.2329365724
 10
1.1872881562
 20
20.2127069873
 10
1.1979552701
 20
20.1909779762
 10
1.2067649305
 20
20.1680805295
 10
1.2135829426
 20
20.1443634365
 10
1.2183054501
 20
20.1201879712
 10
1.2208605167
 20
20.0959223905
 10
1.2212092219
 20
20.0719363235
 10
1.219346254
 20
20.0485951417
  0
LWPOLYLINE
  5
510
100
AcDbEntity
  8
ASSI
100
AcDbPolyline
 62
250
  6
CONTINUOUS
 90
13
 70
0
 10
3.7049850978
 20
20.974981249
 10
3.722030851
 20
20.9635346413
 10
3.7382593981
 20
20.9495378249
 10
3.7534235351
 20
20.9332040086
 10
3.767292272
 20
20.9147819997
 10
3.7796543511
 20
20.8945524145
 10
3.7903214649
 20
20.8728234033
 10
3.7991311252
 20
20.8499259567
 10
3.8059491373
 20
20.8262088636
 10
3.8106716447
 20
20.8020333985
 10
3.8132267112
 20
20.7777678179
 10
3.8135754164
 20
20.753781751
 10
3.8117124485
 20
20.7304405695
  0
LWPOLYLINE
  5
511
100
AcDbEntity
  8
RACCORDO
100
AcDbPolyline
 62
7
  6
CONTINUOUS
 90
10
 70
0
 10
-2.9587661017
 20
23.7640830443
 10
-3.0147189339
 20
23.8020489306
 10
-3.0709319319
 20
23.8400308179
 10
-3.1273989422
 20
23.8780194601
 10
-3.1837389101
 20
23.9157523677
 10
-3.2403208718
 20
23.9534751287
 10
-3.298259074
 20
23.9919322872
 10
-3.3579148349
 20
24.0313559972
 10
-3.4189013939
 20
24.071475151
 10
-3.4812054868
 20
24.1122703423
  0
LWPOLYLINE
  5
512
100
AcDbEntity
  8
ASSI
100
AcDbPolyline
 62
250
  6
CONTINUOUS
 90
5
 70
0
 10
0.0003228365
 20
23.1598960177
 10
-0.0163939686
 20
23.1715130108
 10
-0.0336037269
 20
23.1784081261
 10
-0.0508798212
 20
23.1804104384
 10
-0.0546896216
 20
23.1801831038
  0
LWPOLYLINE
  5
513
100
AcDbEntity
  8
RACCORDO
100
AcDbPolyline
 62
7
  6
CONTINUOUS
 90
8
 70
0
 10
-3.6956734238
 20
24.0891188456
 10
-3.6968771682
 20
24.0900215387
 10
-3.6962770465
 20
24.0948378964
 10
-3.6889850913
 20
24.1023335282
 10
-3.6760014743
 20
24.1120879085
 10
-3.6573867566
 20
24.1241908077
 10
-3.6331835949
 20
24.1387403297
 10
-3.6043596372
 20
24.1553159895
  0
LINE
  5
514
100
AcDbEntity
  8
RACCORDO
100
AcDbLine
 62
7
  6
CONTINUOUS
 10
6.853356296
 20
18.0356798192
 11
6.6788619004
 21
18.1669147478
  0
LWPOLYLINE
  5
515
100
AcDbEntity
  8
RACCORDO
100
AcDbPolyline
 62
7
  6
CONTINUOUS
 90
7
 70
0
 10
6.3619614105
 20
18.4289379246
 10
6.3991138756
 20
18.4002818647
 10
6.4341562115
 20
18.372581818
 10
6.4671812368
 20
18.345816312
 10
6.4982786629
 20
18.3199653704
 10
6.5275350395
 20
18.295010434
 10
6.5432439763
 20
18.2813343257
  0
LINE
  5
516
100
AcDbEntity
  8
RACCORDO
100
AcDbLine
 62
7
  6
CONTINUOUS
 10
6.6788619004
 20
18.1669147478
 11
6.4860317466
 21
18.321529422
  0
LWPOLYLINE
  5
517
100
AcDbEntity
  8
SMUSSO
100
AcDbPolyline
 62
7
  6
CONTINUOUS
 90
12
 70
0
 10
4.9875012189
 20
18.9616502187
 10
4.8956875765
 20
19.0383905191
 10
4.8119223263
 20
19.1179621907
 10
4.7364970601
 20
19.2000891971
 10
4.6696742475
 20
19.2844924776
 10
4.6116866962
 20
19.3708737532
 10
4.5627364862
 20
19.4589296676
 10
4.5229941375
 20
19.5483624821
 10
4.4925982648
 20
19.6388547752
 10
4.4716550376
 20
19.7300874839
 10
4.4602376744
 20
19.821754162
 10
4.4579359692
 20
19.8853958021
  0
LINE
  5
518
100
AcDbEntity
  8
RACCORDO
100
AcDbLine
 62
7
  6
CONTINUOUS
 10
6.5432439763
 20
18.2813343257
 11
6.5550337046
 21
18.270934286
  0
LWPOLYLINE
  5
519
100
AcDbEntity
  8
RACCORDO
100
AcDbPolyline
 62
7
  6
CONTINUOUS
 90
7
 70
0
 10
6.3619614105
 20
18.4289379246
 10
6.3808620649
 20
18.4120587851
 10
6.4004946035
 20
18.394745678
 10
6.4208448969
 20
18.3770165099
 10
6.4418968813
 20
18.3588903686
 10
6.463632517
 20
18.3403875229
 10
6.4860317466
 20
18.321529422
  0
LWPOLYLINE
  5
51A
100
AcDbEntity
  8
RACCORDO
100
AcDbPolyline
 62
250
  6
CONTINUOUS
 90
3
 70
0
 10
10.2063382713
 20
14.6976673192
 10
10.2237436077
 20
14.6815815511
 10
10.2651671529
 20
14.6399902476
  0
LWPOLYLINE
  5
51B
100
AcDbEntity
  8
RACCORDO
100
AcDbPolyline
 62
250
  6
CONTINUOUS
 90
15
 70
0
 10
9.5717631524
 20
16.1644376466
 10
9.5962861427
 20
16.1407597044
 10
9.6206519044
 20
16.116188098
 10
9.6447886546
 20
16.0907111332
 10
9.6685535395
 20
16.0643957521
 10
9.6919433553
 20
16.037156386
 10
9.7150666612
 20
16.0087470897
 10
9.7378142347
 20
15.9791539448
 10
9.7600722324
 20
15.9483648865
 10
9.7818819165
 20
15.9161255008
 10
9.8030898353
 20
15.8824211303
 10
9.8235349446
 20
15.8472411358
 10
9.8431761206
 20
15.8103286804
 10
9.8618037563
 20
15.7716745927
 10
9.8736893858
 20
15.74407022
  0
LWPOLYLINE
  5
51C
100
AcDbEntity
  8
RACCORDO
100
AcDbPolyline
 62
250
  6
CONTINUOUS
 90
17
 70
0
 10
9.4781265532
 20
16.1485765995
 10
9.5009869827
 20
16.1259675689
 10
9.523564521
 20
16.1024643809
 10
9.5458591681
 20
16.0780670356
 10
9.5679046665
 20
16.0528584293
 10
9.5896672737
 20
16.0267556657
 10
9.611045763
 20
15.9995100556
 10
9.6320854661
 20
15.9711236678
 10
9.6527410512
 20
15.9415944334
 10
9.672775297
 20
15.9106674566
 10
9.6922456705
 20
15.8783405089
 10
9.7110947047
 20
15.8446158186
 10
9.7289127771
 20
15.8092451752
 10
9.7457688747
 20
15.7722204618
 10
9.7615940105
 20
15.7335497953
 10
9.7757716009
 20
15.6930093148
 10
9.7764211806
 20
15.6908239775
  0
LWPOLYLINE
  5
51D
100
AcDbEntity
  8
RACCORDO
100
AcDbPolyline
 62
250
  6
CONTINUOUS
 90
36
 70
0
 10
7.3600420251
 20
19.7940723415
 10
7.2769218822
 20
19.8770061047
 10
7.1922208617
 20
19.9594880773
 10
7.1061901037
 20
20.041214601
 10
7.0190877896
 20
20.1218127348
 10
6.9311665952
 20
20.2011145383
 10
6.8426501439
 20
20.2791460457
 10
6.7537746136
 20
20.3556935269
 10
6.6647681284
 20
20.4305277496
 10
6.5758075269
 20
20.5036564768
 10
6.4871449671
 20
20.5748714857
 10
6.3989616086
 20
20.6440177266
 10
6.311295977
 20
20.7111702618
 10
6.224403023
 20
20.7761021476
 10
6.1384255402
 20
20.8387190075
 10
6.0531961797
 20
20.8992381093
 10
5.9689061833
 20
20.9574174669
 10
5.8857293076
 20
21.0131360736
 10
5.8034401369
 20
21.0666727796
 10
5.7221410713
 20
21.1177834942
 10
5.6421036987
 20
21.1662145511
 10
5.5633526385
 20
21.2120843165
 10
5.4859939127
 20
21.2551331553
 10
5.410373286
 20
21.2949864718
 10
5.3368988586
 20
21.3315052061
 10
5.2657990378
 20
21.3644128768
 10
5.1974074119
 20
21.3933465165
 10
5.1323120059
 20
21.4180620361
 10
5.0708913933
 20
21.438325361
 10
5.0134057121
 20
21.4538764528
 10
4.9602721218
 20
21.4645047147
 10
4.9119120677
 20
21.470052152
 10
4.8685867174
 20
21.4703426071
 10
4.830487974
 20
21.46516715
 10
4.7980185547
 20
21.4544153853
 10
4.7896887408
 20
21.4502273171
  0
LWPOLYLINE
  5
51E
100
AcDbEntity
  8
RACCORDO
100
AcDbPolyline
 62
250
  6
CONTINUOUS
 90
8
 70
0
 10
10.6352127368
 20
-13.630201656
 10
10.6542762061
 20
-13.5927246293
 10
10.6705493851
 20
-13.5524242553
 10
10.6840104334
 20
-13.5094051562
 10
10.6946537697
 20
-13.4635990774
 10
10.7024026167
 20
-13.4150750125
 10
10.7071630974
 20
-13.3640866868
 10
10.7088735618
 20
-13.3108235245
  0
LINE
  5
51F
100
AcDbEntity
  8
RACCORDO
100
AcDbLine
 62
7
  6
CONTINUOUS
 10
10.5915102919
 20
-13.6747522785
 11
10.5914569563
 21
-13.6748465796
  0
LWPOLYLINE
  5
520
100
AcDbEntity
  8
RACCORDO
100
AcDbPolyline
 62
250
  6
CONTINUOUS
 90
7
 70
0
 10
10.41421181
 20
-14.05965796
 10
10.4065596741
 20
-14.073129876
 10
10.3942502277
 20
-14.0837291891
 10
10.3770490596
 20
-14.0924173234
 10
10.3551404819
 20
-14.0991009445
 10
10.3287594896
 20
-14.1037082048
 10
10.2981890553
 20
-14.1061895576
  0
LWPOLYLINE
  5
521
100
AcDbEntity
  8
RACCORDO
100
AcDbPolyline
 62
250
  6
CONTINUOUS
 90
19
 70
0
 10
10.7088609799
 20
-13.3108313054
 10
10.6749631769
 20
-13.3646000198
 10
10.6424516561
 20
-13.416875805
 10
10.6113264175
 20
-13.4676586612
 10
10.5816210563
 20
-13.5167892492
 10
10.5533019773
 20
-13.5644269081
 10
10.5262683949
 20
-13.6110496552
 10
10.5004990993
 20
-13.6567539039
 10
10.4760153003
 20
-13.7014432409
 10
10.4527798414
 20
-13.7453064436
 10
10.4307913073
 20
-13.7883838608
 10
10.4100511133
 20
-13.8306351438
 10
10.3905263492
 20
-13.8721280243
 10
10.3722298796
 20
-13.9128519276
 10
10.3551488398
 20
-13.9528174284
 10
10.339211726
 20
-13.9921239825
 10
10.3243947035
 20
-14.030804742
 10
10.310721607
 20
-14.0688265547
 10
10.2981924364
 20
-14.1061894208
  0
LWPOLYLINE
  5
522
100
AcDbEntity
  8
RACCORDO
100
AcDbPolyline
 62
250
  6
CONTINUOUS
 90
3
 70
0
 10
10.1815621095
 20
-14.4474946416
 10
10.1514202399
 20
-14.4914638739
 10
10.1180181945
 20
-14.5307741288
  0
LINE
  5
523
100
AcDbEntity
  8
SMUSSO
100
AcDbLine
 62
7
  6
CONTINUOUS
 10
-2.408716255
 20
-12.1994868283
 11
-2.8811131239
 21
-12.4821031098
  0
LINE
  5
524
100
AcDbEntity
  8
DRAFT
100
AcDbLine
 62
7
  6
CONTINUOUS
 10
-2.408716255
 20
-10.8125000812
 11
-2.8811131239
 21
-11.0947780776
  0
LINE
  5
525
100
AcDbEntity
  8
DRAFT
100
AcDbLine
 62
7
  6
CONTINUOUS
 10
-2.8811131239
 20
-13.0865793308
 11
-2.408716255
 21
-12.8043013344
  0
LINE
  5
526
100
AcDbEntity
  8
RACCORDO
100
AcDbLine
 62
250
  6
CONTINUOUS
 10
13.3257209981
 20
-1.9210331371
 11
15.7421669367
 21
-0.5258027467
  0
LINE
  5
527
100
AcDbEntity
  8
SMUSSO
100
AcDbLine
 62
7
  6
CONTINUOUS
 10
-2.408716255
 20
-11.2491977063
 11
-2.8811131239
 21
-11.5219537379
  0
LINE
  5
528
100
AcDbEntity
  8
DRAFT
100
AcDbLine
 62
7
  6
CONTINUOUS
 10
-2.408716255
 20
-11.7720650383
 11
-2.8811131239
 21
-12.0448210698
  0
LINE
  5
529
100
AcDbEntity
  8
RACCORDO
100
AcDbLine
 62
250
  6
CONTINUOUS
 10
16.4491660221
 20
-1.7503610822
 11
14.4434703151
 21
-2.9084286225
  0
LINE
  5
52A
100
AcDbEntity
  8
RACCORDO
100
AcDbLine
 62
250
  6
CONTINUOUS
 10
-3.7912140663
 20
-7.6979948966
 11
-3.833550823
 21
-7.7148896773
  0
LWPOLYLINE
  5
52B
100
AcDbEntity
  8
RACCORDO
100
AcDbPolyline
 62
250
  6
CONTINUOUS
 90
3
 70
0
 10
-3.833550823
 20
-8.9993361204
 10
-3.7912140663
 20
-8.9824413398
 10
-3.7521093603
 20
-8.9631233199
  0
LWPOLYLINE
  5
52C
100
AcDbEntity
  8
RACCORDO
100
AcDbPolyline
 62
250
  6
CONTINUOUS
 90
14
 70
0
 10
-3.833550823
 20
-7.7148896773
 10
-3.8786710992
 20
-7.7291822291
 10
-3.9260968741
 20
-7.7407211316
 10
-3.9753257019
 20
-7.7493841375
 10
-4.025836034
 20
-7.7550794676
 10
-4.0770927454
 20
-7.7577467835
 10
-4.1285528039
 20
-7.7573578269
 10
-4.179671023
 20
-7.7539167184
 10
-4.2299058377
 20
-7.7474599144
 10
-4.278725042
 20
-7.7380558206
 10
-4.325611427
 20
-7.7258040675
 10
-4.3700682611
 20
-7.7108344547
 10
-4.4116245525
 20
-7.6933055757
 10
-4.4498400387
 20
-7.6734031381
  0
LWPOLYLINE
  5
52D
100
AcDbEntity
  8
0
100
AcDbPolyline
 62
7
  6
CONTINUOUS
 90
7
 70
0
 10
-2.6299536877
 20
11.510950437
 10
-2.6245339997
 20
11.512045211
 10
-2.6190954761
 20
11.5132393164
 10
-2.6136381168
 20
11.5145327532
 10
-2.608161922
 20
11.5159255213
 10
-2.6026668916
 20
11.5174176209
 10
-2.5971530257
 20
11.5190090518
  0
LINE
  5
52E
100
AcDbEntity
  8
ASSI
100
AcDbLine
 62
7
  6
CONTINUOUS
 10
-2.2585741435
 20
16.7353663492
 11
-2.3253698465
 21
16.7364249144
  0
LWPOLYLINE
  5
52F
100
AcDbEntity
  8
SMUSSO
100
AcDbPolyline
 62
7
  6
CONTINUOUS
 90
5
 70
0
 10
8.5026940397
 20
17.3129361866
 10
8.4006278785
 20
17.3190963097
 10
8.2941056187
 20
17.3323581281
 10
8.1831827387
 20
17.3529469317
 10
8.068045218
 20
17.3809974766
  0
LWPOLYLINE
  5
530
100
AcDbEntity
  8
ASSI
100
AcDbPolyline
 62
250
  6
CONTINUOUS
 90
4
 70
0
 10
-4.594254915
 20
18.8883386749
 10
-4.5948036922
 20
18.8884050279
 10
-4.5977271018
 20
18.8868752865
 10
-4.6016353324
 20
18.8824544062
  0
LWPOLYLINE
  5
531
100
AcDbEntity
  8
ASSI
100
AcDbPolyline
 62
250
  6
CONTINUOUS
 90
13
 70
0
 10
-4.4212369997
 20
17.307145613
 10
-4.4386469062
 20
17.309328764
 10
-4.458134078
 20
17.3125593684
 10
-4.4793770215
 20
17.3167841238
 10
-4.5020252792
 20
17.3219333271
 10
-4.5257052198
 20
17.3279220269
 10
-4.5500262034
 20
17.3346514257
 10
-4.5745870086
 20
17.3420105058
 10
-4.5989824668
 20
17.3498778643
 10
-4.6228101538
 20
17.3581237194
 10
-4.6456770034
 20
17.3666120437
 10
-4.6672057922
 20
17.3752028072
 10
-4.6870413779
 20
17.3837542928
  0
LWPOLYLINE
  5
532
100
AcDbEntity
  8
ASSI
100
AcDbPolyline
 62
250
  6
CONTINUOUS
 90
13
 70
0
 10
-4.1498520056
 20
18.1807754543
 10
-4.1673007559
 20
18.1829643078
 10
-4.1868311409
 20
18.1862042379
 10
-4.2081186765
 20
18.1904410281
 10
-4.2308084943
 20
18.1956036282
 10
-4.2545259087
 20
18.2016063908
 10
-4.2788832444
 20
18.2083510578
 10
-4.303496411
 20
18.2157319561
 10
-4.3279392531
 20
18.2236219691
 10
-4.3517579677
 20
18.2318728942
 10
-4.3745488438
 20
18.2403407338
 10
-4.3959618389
 20
18.2488911157
 10
-4.4156563838
 20
18.2573841341
  0
LWPOLYLINE
  5
533
100
AcDbEntity
  8
RACCORDO
100
AcDbPolyline
 62
7
  6
CONTINUOUS
 90
12
 70
0
 10
8.5858855497
 20
17.2440714253
 10
8.6297710811
 20
17.2378563754
 10
8.669567721
 20
17.2332457057
 10
8.7050734043
 20
17.230132054
 10
8.7361568069
 20
17.2285289963
 10
8.762593999
 20
17.2282260218
 10
8.7841842071
 20
17.2288563765
 10
8.8007875715
 20
17.2304608179
 10
8.8126383138
 20
17.2330441635
 10
8.8201397491
 20
17.2362088481
 10
8.8233307763
 20
17.2398427899
 10
8.8227028813
 20
17.2432192402
  0
LWPOLYLINE
  5
534
100
AcDbEntity
  8
ASSI
100
AcDbPolyline
 62
250
  6
CONTINUOUS
 90
16
 70
0
 10
-1.8793229682
 20
18.3974126891
 10
-1.8980938149
 20
18.4005141849
 10
-1.9170285308
 20
18.4024186602
 10
-1.9360948878
 20
18.4031245083
 10
-1.9555791156
 20
18.4024670309
 10
-1.9751806953
 20
18.4006104846
 10
-1.9940047275
 20
18.3980479011
 10
-2.0117791976
 20
18.3947803524
 10
-2.0288167342
 20
18.390809538
 10
-2.045082154
 20
18.386629266
 10
-2.0605135648
 20
18.3823251768
 10
-2.0751908562
 20
18.3778165581
 10
-2.0892616452
 20
18.3733453556
 10
-2.102622405
 20
18.3690003029
 10
-2.1153727489
 20
18.3646954378
 10
-2.1782653515
 20
18.3431747217
  0
LINE
  5
535
100
AcDbEntity
  8
RACCORDO
100
AcDbLine
 62
7
  6
CONTINUOUS
 10
8.5984716098
 20
17.2961702844
 11
8.6953773069
 21
17.2796389195
  0
LWPOLYLINE
  5
536
100
AcDbEntity
  8
ASSI
100
AcDbPolyline
 62
250
  6
CONTINUOUS
 90
21
 70
0
 10
0.023676494
 20
19.2294653124
 10
0.0692302542
 20
19.2215784718
 10
0.1158757515
 20
19.2162262104
 10
0.1631909899
 20
19.213456956
 10
0.2107479286
 20
19.2132957687
 10
0.2581163058
 20
19.2157441144
 10
0.3048675319
 20
19.2207798427
 10
0.3505786346
 20
19.2283573909
 10
0.3948360848
 20
19.2384082046
 10
0.4372394898
 20
19.2508413536
 10
0.4774052194
 20
19.2655443505
 10
0.5149699084
 20
19.2823841795
 10
0.5495937385
 20
19.301208506
 10
0.5809634818
 20
19.3218470433
 10
0.6087953092
 20
19.3441130674
 10
0.6328373975
 20
19.3678051156
 10
0.6528722366
 20
19.3927088347
 10
0.6687185875
 20
19.4185989293
 10
0.6802330961
 20
19.4452411758
 10
0.6873115901
 20
19.4723945148
 10
0.6899011659
 20
19.5017384677
  0
LINE
  5
537
100
AcDbEntity
  8
RACCORDO
100
AcDbLine
 62
7
  6
CONTINUOUS
 10
8.5026940397
 20
17.3130149227
 11
8.5984716098
 21
17.2961702844
  0
LWPOLYLINE
  5
538
100
AcDbEntity
  8
RACCORDO
100
AcDbPolyline
 62
7
  6
CONTINUOUS
 90
5
 70
0
 10
8.5858855498
 20
17.2440714254
 10
8.4386539458
 20
17.2703265094
 10
8.2856790222
 20
17.3078072436
 10
8.126888168
 20
17.3564710396
 10
8.0043991141
 20
17.3997126153
  0
LWPOLYLINE
  5
539
100
AcDbEntity
  8
ASSI
100
AcDbPolyline
 62
250
  6
CONTINUOUS
 90
4
 70
0
 10
-6.8664769982
 20
20.2569464436
 10
-6.8970936177
 20
20.2628419045
 10
-6.9240322047
 20
20.2669054455
 10
-6.9474137209
 20
20.2693787694
  0
LWPOLYLINE
  5
53A
100
AcDbEntity
  8
RACCORDO
100
AcDbPolyline
 62
7
  6
CONTINUOUS
 90
4
 70
0
 10
6.1287061349
 20
18.4798490555
 10
6.1637104124
 20
18.4725696758
 10
6.2003521053
 20
18.4647667154
 10
6.2385679736
 20
18.4564709505
  0
LWPOLYLINE
  5
53B
100
AcDbEntity
  8
RACCORDO
100
AcDbPolyline
 62
7
  6
CONTINUOUS
 90
10
 70
0
 10
6.1287061349
 20
18.4798490555
 10
5.9782512453
 20
18.5129505599
 10
5.8311964375
 20
18.5498960907
 10
5.6875417117
 20
18.590685648
 10
5.5469546709
 20
18.6354299509
 10
5.409767712
 20
18.6840182803
 10
5.2769780255
 20
18.7361184781
 10
5.1489180083
 20
18.7916198251
 10
5.0252552633
 20
18.8506330405
 10
4.9059897908
 20
18.9131581244
  0
LWPOLYLINE
  5
53C
100
AcDbEntity
  8
RACCORDO
100
AcDbPolyline
 62
7
  6
CONTINUOUS
 90
3
 70
0
 10
6.2385679736
 20
18.4564709505
 10
6.3194470767
 20
18.4385253411
 10
6.3619614105
 20
18.4289379246
  0
LWPOLYLINE
  5
53D
100
AcDbEntity
  8
ASSI
100
AcDbPolyline
 62
250
  6
CONTINUOUS
 90
22
 70
0
 10
-1.8605708323
 20
18.2496092872
 10
-1.8694343584
 20
18.2518262597
 10
-1.8782389316
 20
18.2521054032
 10
-1.8870315715
 20
18.25058785
 10
-1.8960100598
 20
18.2473588686
 10
-1.9051758604
 20
18.2426173675
 10
-1.9142037469
 20
18.2366940577
 10
-1.9229287852
 20
18.2296619143
 10
-1.931596893
 20
18.2217285368
 10
-1.9403323011
 20
18.2133875015
 10
-1.9491078323
 20
18.2047218497
 10
-1.957978381
 20
18.1957601133
 10
-1.9670539012
 20
18.1868468678
 10
-1.9762516871
 20
18.1781041955
 10
-1.9856126955
 20
18.169419435
 10
-1.995390628
 20
18.1607736218
 10
-2.0056114587
 20
18.1522582182
 10
-2.0162961827
 20
18.1438034785
 10
-2.027781346
 20
18.1351940103
 10
-2.0402864404
 20
18.1264030293
 10
-2.0538366976
 20
18.1175591931
 10
-2.0685514028
 20
18.1087185766
  0
LWPOLYLINE
  5
53E
100
AcDbEntity
  8
RACCORDO
100
AcDbPolyline
 62
7
  6
CONTINUOUS
 90
6
 70
0
 10
9.5717631524
 20
16.1644376466
 10
9.6543187761
 20
16.134242861
 10
9.7387400303
 20
16.1032027732
 10
9.825026915
 20
16.0713173832
 10
9.9131638466
 20
16.0385844677
 10
10.0031664086
 20
16.00500625
  0
LINE
  5
53F
100
AcDbEntity
  8
0
100
AcDbLine
 62
7
  6
CONTINUOUS
 10
9.371806109
 20
16.4155512729
 11
9.2715165906
 21
16.4525342613
  0
LWPOLYLINE
  5
540
100
AcDbEntity
  8
RACCORDO
100
AcDbPolyline
 62
7
  6
CONTINUOUS
 90
3
 70
0
 10
10.0031664086
 20
16.00500625
 10
10.1889242607
 20
15.9353361409
 10
10.2091561935
 20
15.9277103615
  0
LWPOLYLINE
  5
541
100
AcDbEntity
  8
RACCORDO
100
AcDbPolyline
 62
7
  6
CONTINUOUS
 90
8
 70
0
 10
8.0043991141
 20
17.3997126153
 10
7.9617711916
 20
17.4158093309
 10
7.7906712178
 20
17.4862271899
 10
7.6147805298
 20
17.5690395628
 10
7.4332814801
 20
17.6647394259
 10
7.2467661456
 20
17.7726757332
 10
7.0585461333
 20
17.8924432354
 10
6.853356296
 20
18.0356798192
  0
LWPOLYLINE
  5
542
100
AcDbEntity
  8
RACCORDO
100
AcDbPolyline
 62
7
  6
CONTINUOUS
 90
3
 70
0
 10
9.5338190851
 20
16.3522432379
 10
9.4363420314
 20
16.3891020454
 10
9.2724894321
 20
16.4507758052
  0
LINE
  5
543
100
AcDbEntity
  8
RACCORDO
100
AcDbLine
 62
250
  6
CONTINUOUS
 10
9.5338190851
 20
16.3522432379
 11
9.371806109
 21
16.4155512729
  0
LWPOLYLINE
  5
544
100
AcDbEntity
  8
RACCORDO
100
AcDbPolyline
 62
7
  6
CONTINUOUS
 90
3
 70
0
 10
9.5357637082
 20
16.3514732123
 10
9.3927031698
 20
16.4077882074
 10
9.3718045439
 20
16.4155470571
  0
LINE
  5
545
100
AcDbEntity
  8
RACCORDO
100
AcDbLine
 62
7
  6
CONTINUOUS
 10
5.9043899805
 20
21.3976646439
 11
5.8590211048
 21
21.418420832
  0
LWPOLYLINE
  5
546
100
AcDbEntity
  8
RACCORDO
100
AcDbPolyline
 62
250
  6
CONTINUOUS
 90
20
 70
0
 10
5.9920162269
 20
21.3539367519
 10
5.9350878948
 20
21.3803004705
 10
5.8869785103
 20
21.4019161139
 10
5.8472288892
 20
21.4190466976
 10
5.8144614788
 20
21.4324812682
 10
5.7885246102
 20
21.4423041236
 10
5.7695699523
 20
21.448430966
 10
5.7566749592
 20
21.4513979486
 10
5.7498103133
 20
21.4512215322
 10
5.7490053322
 20
21.447885256
 10
5.7534254224
 20
21.4418758919
 10
5.7631295212
 20
21.4331624446
 10
5.7780586913
 20
21.4217759094
 10
5.7972015268
 20
21.408296044
 10
5.8205466993
 20
21.3927386661
 10
5.8481055373
 20
21.375087958
 10
5.8789006212
 20
21.3558762246
 10
5.9127351318
 20
21.3352174182
 10
5.9498058884
 20
21.3129975865
 10
5.989725929
 20
21.289407177
  0
LINE
  5
547
100
AcDbEntity
  8
RACCORDO
100
AcDbLine
 62
7
  6
CONTINUOUS
 10
5.9555566848
 20
21.3738182308
 11
5.9043899805
 21
21.3976646439
  0
LINE
  5
548
100
AcDbEntity
  8
RACCORDO
100
AcDbLine
 62
7
  6
CONTINUOUS
 10
6.0135807452
 20
21.3463269601
 11
5.9555566848
 21
21.3738182308
  0
LWPOLYLINE
  5
549
100
AcDbEntity
  8
RACCORDO
100
AcDbPolyline
 62
250
  6
CONTINUOUS
 90
3
 70
0
 10
6.1309521813
 20
21.2877541358
 10
6.0573043224
 20
21.3230879737
 10
5.9920162269
 20
21.3539367519
  0
LINE
  5
54A
100
AcDbEntity
  8
RACCORDO
100
AcDbLine
 62
7
  6
CONTINUOUS
 10
6.0556822096
 20
21.3261319745
 11
6.0135807452
 21
21.3463269601
  0
LINE
  5
54B
100
AcDbEntity
  8
RACCORDO
100
AcDbLine
 62
250
  6
CONTINUOUS
 10
16.4491660221
 20
14.4162025232
 11
14.0668583702
 21
15.5662081959
  0
LINE
  5
54C
100
AcDbEntity
  8
RACCORDO
100
AcDbLine
 62
250
  6
CONTINUOUS
 10
15.9793778723
 20
15.8052215623
 11
13.8261421581
 21
16.8446478866
  0
LINE
  5
54D
100
AcDbEntity
  8
SMUSSO
100
AcDbLine
 62
7
  6
CONTINUOUS
 10
9.2537244926
 20
19.5375650333
 11
8.960551501
 21
19.6793320849
  0
LINE
  5
54E
100
AcDbEntity
  8
0
100
AcDbLine
 62
7
  6
CONTINUOUS
 10
12.9067924434
 20
17.5661806157
 11
11.6067436342
 21
18.1958981296
  0
LINE
  5
54F
100
AcDbEntity
  8
0
100
AcDbLine
 62
7
  6
CONTINUOUS
 10
11.8156760865
 20
18.316533109
 11
13.1157248957
 21
17.6868155951
  0
LINE
  5
550
100
AcDbEntity
  8
0
100
AcDbLine
 62
7
  6
CONTINUOUS
 10
12.7249383082
 20
17.8952726929
 11
11.6095860884
 21
18.435526891
  0
LINE
  5
551
100
AcDbEntity
  8
0
100
AcDbLine
 62
7
  6
CONTINUOUS
 10
12.4221390164
 20
18.0687459646
 11
12.2666711105
 21
18.1440514935
  0
LINE
  5
552
100
AcDbEntity
  8
0
100
AcDbLine
 62
7
  6
CONTINUOUS
 10
5.9594683183
 20
21.5774784952
 11
4.6594195091
 21
22.2071960091
  0
LINE
  5
553
100
AcDbEntity
  8
0
100
AcDbLine
 62
7
  6
CONTINUOUS
 10
3.9834810303
 20
22.60904467
 11
3.8591246373
 21
22.6692804074
  0
LINE
  5
554
100
AcDbEntity
  8
0
100
AcDbLine
 62
7
  6
CONTINUOUS
 10
4.5547732367
 20
22.3847621269
 11
4.0328703042
 21
22.6375614178
  0
LINE
  5
555
100
AcDbEntity
  8
SMUSSO
100
AcDbLine
 62
7
  6
CONTINUOUS
 10
13.2132205297
 20
17.2514016456
 11
12.914885526
 21
17.3961491783
  0
LINE
  5
556
100
AcDbEntity
  8
SMUSSO
100
AcDbLine
 62
7
  6
CONTINUOUS
 10
5.7178886491
 20
21.5791123349
 11
5.4195536455
 21
21.7238598676
  0
LWPOLYLINE
  5
557
100
AcDbEntity
  8
ASSI
100
AcDbPolyline
 62
250
  6
CONTINUOUS
 90
6
 70
0
 10
-2.6226129819
 20
22.4498118982
 10
-2.6404087591
 20
22.4584823535
 10
-2.6584910133
 20
22.4642961639
 10
-2.6765843037
 20
22.4671647694
 10
-2.6944130214
 20
22.4670444736
 10
-2.711893221
 20
22.4638860742
  0
LWPOLYLINE
  5
558
100
AcDbEntity
  8
ASSI
100
AcDbPolyline
 62
250
  6
CONTINUOUS
 90
3
 70
0
 10
-0.0607637439
 20
23.1492774342
 10
-0.0785595211
 20
23.1579478896
 10
-0.0966417753
 20
23.1637616999
  0
LWPOLYLINE
  5
559
100
AcDbEntity
  8
ASSI
100
AcDbPolyline
 62
250
  6
CONTINUOUS
 90
10
 70
0
 10
3.7524627174
 20
20.9934574757
 10
3.7787853073
 20
20.9802240612
 10
3.8035480294
 20
20.9628847913
 10
3.8261370341
 20
20.9418694937
 10
3.8459923565
 20
20.9176991223
 10
3.8626217979
 20
20.8909728428
 10
3.8756131265
 20
20.8623531801
 10
3.8846442968
 20
20.8325495945
 10
3.8894914329
 20
20.802300895
 10
3.8900343777
 20
20.7723569247
  0
LINE
  5
55A
100
AcDbEntity
  8
RACCORDO
100
AcDbLine
 62
7
  6
CONTINUOUS
 10
6.1309521813
 20
21.2877541358
 11
6.0556753382
 21
21.3261406416
  0
LINE
  5
55B
100
AcDbEntity
  8
RACCORDO
100
AcDbLine
 62
7
  6
CONTINUOUS
 10
8.4444630826
 20
19.9519619365
 11
8.960551501
 21
19.6793320849
  0
LINE
  5
55C
100
AcDbEntity
  8
RACCORDO
100
AcDbLine
 62
7
  6
CONTINUOUS
 10
0.9491312021
 20
24.2796726257
 11
1.4652196205
 21
24.0070427742
  0
LINE
  5
55D
100
AcDbEntity
  8
RACCORDO
100
AcDbLine
 62
250
  6
CONTINUOUS
 10
15.9899271372
 20
15.7996380547
 11
15.9793778723
 21
15.8052215623
  0
LINE
  5
55E
100
AcDbEntity
  8
RACCORDO
100
AcDbLine
 62
250
  6
CONTINUOUS
 10
-0.0327508683
 20
24.8446835442
 11
0.008778671
 21
24.8226203918
  0
LINE
  5
55F
100
AcDbEntity
  8
RACCORDO
100
AcDbLine
 62
7
  6
CONTINUOUS
 10
2.249189598
 20
23.7333677994
 11
2.1992974531
 21
23.7599447928
  0
LINE
  5
560
100
AcDbEntity
  8
0
100
AcDbLine
 62
7
  6
CONTINUOUS
 10
12.9319247733
 20
17.7929394822
 11
12.8305320241
 21
17.8471952938
  0
LINE
  5
561
100
AcDbEntity
  8
0
100
AcDbLine
 62
7
  6
CONTINUOUS
 10
5.9846006482
 20
21.8042373617
 11
5.8832078989
 21
21.8584931733
  0
LINE
  5
562
100
AcDbEntity
  8
0
100
AcDbLine
 62
7
  6
CONTINUOUS
 10
12.8305320241
 20
17.8471952938
 11
12.7222614389
 21
17.9055262209
  0
LINE
  5
563
100
AcDbEntity
  8
0
100
AcDbLine
 62
7
  6
CONTINUOUS
 10
5.8832078989
 20
21.8584931733
 11
5.7749373138
 21
21.9168241004
  0
LINE
  5
564
100
AcDbEntity
  8
0
100
AcDbLine
 62
7
  6
CONTINUOUS
 10
12.579552758
 20
17.9736428613
 11
12.7249383082
 21
17.8952726929
  0
LINE
  5
565
100
AcDbEntity
  8
0
100
AcDbLine
 62
7
  6
CONTINUOUS
 10
5.6322286328
 20
21.9849407408
 11
5.7776141831
 21
21.9065705723
  0
LINE
  5
566
100
AcDbEntity
  8
0
100
AcDbLine
 62
7
  6
CONTINUOUS
 10
12.7222614389
 20
17.9055262209
 11
12.607168465
 21
17.9678947406
  0
LINE
  5
567
100
AcDbEntity
  8
0
100
AcDbLine
 62
7
  6
CONTINUOUS
 10
5.7749373138
 20
21.9168241004
 11
5.6598443398
 21
21.9791926201
  0
LINE
  5
568
100
AcDbEntity
  8
0
100
AcDbLine
 62
7
  6
CONTINUOUS
 10
12.4275574507
 20
18.056146525
 11
12.579552758
 21
17.9736428613
  0
LINE
  5
569
100
AcDbEntity
  8
0
100
AcDbLine
 62
7
  6
CONTINUOUS
 10
5.4802333255
 20
22.0674444044
 11
5.6322286328
 21
21.9849407408
  0
LWPOLYLINE
  5
56A
100
AcDbEntity
  8
0
100
AcDbPolyline
 62
7
  6
CONTINUOUS
 90
3
 70
0
 10
12.607168465
 20
17.9678947406
 10
12.4854748906
 20
18.034150761
 10
12.4221390164
 20
18.0687459646
  0
LWPOLYLINE
  5
56B
100
AcDbEntity
  8
0
100
AcDbPolyline
 62
7
  6
CONTINUOUS
 90
3
 70
0
 10
5.6598443398
 20
21.9791926201
 10
5.5381507654
 20
22.0454486404
 10
5.4748148913
 20
22.0800438441
  0
LINE
  5
56C
100
AcDbEntity
  8
0
100
AcDbLine
 62
7
  6
CONTINUOUS
 10
12.2666711105
 20
18.1440514935
 11
12.4275574507
 21
18.056146525
  0
LINE
  5
56D
100
AcDbEntity
  8
0
100
AcDbLine
 62
7
  6
CONTINUOUS
 10
5.3193469854
 20
22.155349373
 11
5.4802333255
 21
22.0674444044
  0
LWPOLYLINE
  5
56E
100
AcDbEntity
  8
RACCORDO
100
AcDbPolyline
 62
250
  6
CONTINUOUS
 90
12
 70
0
 10
-0.4575042022
 20
24.7687390366
 10
-0.509410634
 20
24.7974354869
 10
-0.561102937
 20
24.8213764959
 10
-0.6122922542
 20
24.8404264386
 10
-0.6626943505
 20
24.8544773939
 10
-0.7120251122
 20
24.8634479794
 10
-0.7600026162
 20
24.8672858772
 10
-0.8063562147
 20
24.865969658
 10
-0.8508293036
 20
24.859506837
 10
-0.8931747602
 20
24.8479328318
 10
-0.9331566236
 20
24.8313110546
 10
-0.9434709012
 20
24.8259938176
  0
LINE
  5
56F
100
AcDbEntity
  8
ASSI
100
AcDbLine
 62
7
  6
CONTINUOUS
 10
1.3347055583
 20
23.1386564204
 11
4.1905678062
 21
21.4897173507
  0
LINE
  5
570
100
AcDbEntity
  8
ASSI
100
AcDbLine
 62
7
  6
CONTINUOUS
 10
1.2850826697
 20
23.278854693
 11
4.5040865382
 21
21.4202422029
  0
LINE
  5
571
100
AcDbEntity
  8
RACCORDO
100
AcDbLine
 62
250
  6
CONTINUOUS
 10
13.3598592848
 20
16.7907665314
 11
12.5937780359
 21
17.2330922433
  0
LINE
  5
572
100
AcDbEntity
  8
RACCORDO
100
AcDbLine
 62
250
  6
CONTINUOUS
 10
7.8039089273
 20
19.9987026354
 11
7.657656125
 21
20.0831471705
  0
LINE
  5
573
100
AcDbEntity
  8
RACCORDO
100
AcDbLine
 62
250
  6
CONTINUOUS
 10
0.3085770467
 20
24.3264133247
 11
-0.4575042022
 21
24.7687390366
  0
LINE
  5
574
100
AcDbEntity
  8
RACCORDO
100
AcDbLine
 62
250
  6
CONTINUOUS
 10
13.8261421581
 20
16.8446478866
 11
12.885789627
 21
17.3875956526
  0
LINE
  5
575
100
AcDbEntity
  8
RACCORDO
100
AcDbLine
 62
250
  6
CONTINUOUS
 10
8.4444630826
 20
19.9519619365
 11
7.703967312
 21
20.3795149138
  0
LINE
  5
576
100
AcDbEntity
  8
RACCORDO
100
AcDbLine
 62
250
  6
CONTINUOUS
 10
6.1309521813
 20
21.2877541358
 11
5.3904577465
 21
21.7153063419
  0
LINE
  5
577
100
AcDbEntity
  8
RACCORDO
100
AcDbLine
 62
250
  6
CONTINUOUS
 10
0.9491312021
 20
24.2796726257
 11
0.008778671
 21
24.8226203918
  0
LINE
  5
578
100
AcDbEntity
  8
DRAFT
100
AcDbLine
 62
7
  6
CONTINUOUS
 10
1.758392612
 20
23.8652757225
 11
5.7178886491
 21
21.5791123349
  0
LINE
  5
579
100
AcDbEntity
  8
DRAFT
100
AcDbLine
 62
7
  6
CONTINUOUS
 10
9.2537244926
 20
19.5375650333
 11
13.2132205297
 21
17.2514016456
  0
LINE
  5
57A
100
AcDbEntity
  8
0
100
AcDbLine
 62
7
  6
CONTINUOUS
 10
4.453329511
 20
22.326189791
 11
4.6594195091
 21
22.2071960091
  0
LINE
  5
57B
100
AcDbEntity
  8
0
100
AcDbLine
 62
7
  6
CONTINUOUS
 10
11.4006536362
 20
18.3148919116
 11
11.6067436342
 21
18.1958981296
  0
LINE
  5
57C
100
AcDbEntity
  8
0
100
AcDbLine
 62
7
  6
CONTINUOUS
 10
3.0840946978
 20
23.1167729811
 11
3.8591246373
 21
22.6692804074
  0
LINE
  5
57D
100
AcDbEntity
  8
RACCORDO
100
AcDbLine
 62
250
  6
CONTINUOUS
 10
2.2385195258
 20
23.7390209581
 11
3.2001549502
 21
23.1837847162
  0
LINE
  5
57E
100
AcDbEntity
  8
RACCORDO
100
AcDbLine
 62
250
  6
CONTINUOUS
 10
5.9708240069
 20
21.5840351275
 11
11.5167174991
 21
18.3819057315
  0
LINE
  5
57F
100
AcDbEntity
  8
RACCORDO
100
AcDbLine
 62
250
  6
CONTINUOUS
 10
12.9181481321
 20
17.572737248
 11
15.9793778723
 21
15.8052215623
  0
LINE
  5
580
100
AcDbEntity
  8
RACCORDO
100
AcDbLine
 62
7
  6
CONTINUOUS
 10
2.2492198118
 20
23.7333503585
 11
3.2005945262
 21
23.1840385219
  0
LINE
  5
581
100
AcDbEntity
  8
RACCORDO
100
AcDbLine
 62
7
  6
CONTINUOUS
 10
5.971263583
 20
21.5842889332
 11
11.5171570752
 21
18.3821595372
  0
LINE
  5
582
100
AcDbEntity
  8
RACCORDO
100
AcDbLine
 62
7
  6
CONTINUOUS
 10
12.9185877081
 20
17.5729910537
 11
15.9900784038
 21
15.7995508209
  0
LINE
  5
583
100
AcDbEntity
  8
RACCORDO
100
AcDbLine
 62
7
  6
CONTINUOUS
 10
2.2492198118
 20
23.7333503585
 11
2.2491895988
 21
23.7333677989
  0
LINE
  5
584
100
AcDbEntity
  8
0
100
AcDbLine
 62
7
  6
CONTINUOUS
 10
4.6622619633
 20
22.4468247705
 11
4.8683519613
 21
22.3278309885
  0
LINE
  5
585
100
AcDbEntity
  8
0
100
AcDbLine
 62
7
  6
CONTINUOUS
 10
11.6095860884
 20
18.435526891
 11
11.8156760865
 21
18.316533109
  0
LINE
  5
586
100
AcDbEntity
  8
0
100
AcDbLine
 62
7
  6
CONTINUOUS
 10
3.2930271501
 20
23.2374079605
 11
4.0680570896
 21
22.7899153868
  0
LINE
  5
587
100
AcDbEntity
  8
0
100
AcDbLine
 62
7
  6
CONTINUOUS
 10
4.1924134826
 20
22.7296796495
 11
3.6285892503
 21
23.0552246948
  0
LINE
  5
588
100
AcDbEntity
  8
0
100
AcDbLine
 62
7
  6
CONTINUOUS
 10
13.1157248957
 20
17.6868155951
 11
12.9319247733
 21
17.7929394822
  0
LINE
  5
589
100
AcDbEntity
  8
0
100
AcDbLine
 62
7
  6
CONTINUOUS
 10
6.1684007706
 20
21.6981134746
 11
5.9846006482
 21
21.8042373617
  0
LINE
  5
58A
100
AcDbEntity
  8
0
100
AcDbLine
 62
7
  6
CONTINUOUS
 10
4.8042816666
 20
22.4857429183
 11
4.5930759593
 21
22.6076904466
  0
LWPOLYLINE
  5
58B
100
AcDbEntity
  8
RACCORDO
100
AcDbPolyline
 62
250
  6
CONTINUOUS
 90
25
 70
0
 10
5.989725929
 20
21.289407177
 10
6.0322995345
 20
21.2645482653
 10
6.0777224241
 20
21.2383187758
 10
6.126194794
 20
21.2106029302
 10
6.1776660771
 20
21.1814186529
 10
6.2321868405
 20
21.1507480196
 10
6.290108981
 20
21.1184214782
 10
6.3516409131
 20
21.0843187874
 10
6.4165742224
 20
21.0485601886
 10
6.4846355622
 20
21.0113368545
 10
6.5560530791
 20
20.9725270598
 10
6.6305986266
 20
20.9322525298
 10
6.7073144188
 20
20.8910696129
 10
6.7861944022
 20
20.8489845405
 10
6.8672446304
 20
20.8059910812
 10
6.9495254775
 20
20.7626268893
 10
7.0330546237
 20
20.7188811091
 10
7.117814389
 20
20.6747645964
 10
7.2028121069
 20
20.6308475729
 10
7.2881555099
 20
20.587066788
 10
7.3737368656
 20
20.5434854925
 10
7.45824031
 20
20.5008636599
 10
7.5412272219
 20
20.4594546149
 10
7.6231362225
 20
20.4190050329
 10
7.703967312
 20
20.3795149138
  0
LINE
  5
58C
100
AcDbEntity
  8
RACCORDO
100
AcDbLine
 62
250
  6
CONTINUOUS
 10
15.9793778723
 20
15.8052215623
 11
16.0277326111
 21
15.7746410722
  0
LINE
  5
58D
100
AcDbEntity
  8
RACCORDO
100
AcDbLine
 62
250
  6
CONTINUOUS
 10
16.0277326111
 20
15.7746410722
 11
16.0746979645
 21
15.7395006924
  0
LWPOLYLINE
  5
58E
100
AcDbEntity
  8
RACCORDO
100
AcDbPolyline
 62
250
  6
CONTINUOUS
 90
20
 70
0
 10
16.0746979645
 20
15.7395006924
 10
16.1200550417
 20
15.6999598297
 10
16.1634641629
 20
15.6563426997
 10
16.204886373
 20
15.6087210347
 10
16.2444807511
 20
15.5568039531
 10
16.2821515128
 20
15.5004650467
 10
16.3174355183
 20
15.4401164179
 10
16.3499072071
 20
15.3762558692
 10
16.3792913492
 20
15.3094001653
 10
16.4055402508
 20
15.2395942584
 10
16.4285482696
 20
15.1666539228
 10
16.4480884685
 20
15.0908845872
 10
16.4639495717
 20
15.0126054038
 10
16.4758714927
 20
14.9316402165
 10
16.4836208464
 20
14.8481317994
 10
16.4868787995
 20
14.7627839058
 10
16.4852098669
 20
14.6763185363
 10
16.4783905397
 20
14.5893613639
 10
16.4663931171
 20
14.5024410914
 10
16.4491660221
 20
14.4162025232
  0
LWPOLYLINE
  5
58F
100
AcDbEntity
  8
RACCORDO
100
AcDbPolyline
 62
7
  6
CONTINUOUS
 90
9
 70
0
 10
16.456546539
 20
-7.5683398716
 10
16.4649003035
 20
-7.5539872091
 10
16.4962278831
 20
-7.4932063712
 10
16.5235674634
 20
-7.4277086839
 10
16.5465721341
 20
-7.3576788245
 10
16.5650665402
 20
-7.2826435864
 10
16.5786884097
 20
-7.2023317018
 10
16.5869836483
 20
-7.1168468047
 10
16.5894961213
 20
-7.0348869296
  0
LINE
  5
590
100
AcDbEntity
  8
RACCORDO
100
AcDbLine
 62
250
  6
CONTINUOUS
 10
14.0668583702
 20
-11.2341953482
 11
16.4491660221
 21
-7.2354155844
  0
LINE
  5
591
100
AcDbEntity
  8
RACCORDO
100
AcDbLine
 62
7
  6
CONTINUOUS
 10
14.2066148354
 20
-11.3449223465
 11
16.456551065
 21
-7.5683322583
  0
LWPOLYLINE
  5
592
100
AcDbEntity
  8
RACCORDO
100
AcDbPolyline
 62
250
  6
CONTINUOUS
 90
4
 70
0
 10
10.5671738047
 20
-13.7185448116
 10
10.5891179454
 20
-13.6957948229
 10
10.6134606649
 20
-13.6646124505
 10
10.6352127368
 20
-13.630201656
  0
LWPOLYLINE
  5
593
100
AcDbEntity
  8
RACCORDO
100
AcDbPolyline
 62
7
  6
CONTINUOUS
 90
4
 70
0
 10
2.7725432113
 20
-18.9879127007
 10
2.796855319
 20
-18.9651914324
 10
2.8192355907
 20
-18.939979851
 10
2.823331477
 20
-18.9344310738
  0
LWPOLYLINE
  5
594
100
AcDbEntity
  8
ASSI
100
AcDbPolyline
 62
7
  6
CONTINUOUS
 90
7
 70
0
 10
-1.3480560832
 20
-21.4422151281
 10
-1.5862649657
 20
-21.6456412519
 10
-1.8298086456
 20
-21.8405207098
 10
-2.0786871227
 20
-22.0268535017
 10
-2.332992259
 20
-22.2046995251
 10
-2.5926321925
 20
-22.3739988825
 10
-2.7263856369
 20
-22.4566142603
  0
LWPOLYLINE
  5
595
100
AcDbEntity
  8
0
100
AcDbPolyline
 62
7
  6
CONTINUOUS
 90
3
 70
0
 10
-2.408716255
 20
-20.3974130915
 10
-2.7135623154
 20
-20.6385557967
 10
-2.8811131239
 20
-20.759933171
  0
LINE
  5
596
100
AcDbEntity
  8
RACCORDO
100
AcDbLine
 62
7
  6
CONTINUOUS
 10
-2.9279042352
 20
-19.467959284
 11
-3.3585594811
 21
-19.7626298259
  0
LINE
  5
597
100
AcDbEntity
  8
DRAFT
100
AcDbLine
 62
7
  6
CONTINUOUS
 10
-2.8811131239
 20
-14.8992413514
 11
-2.408716255
 21
-14.6166250699
  0
LINE
  5
598
100
AcDbEntity
  8
DRAFT
100
AcDbLine
 62
7
  6
CONTINUOUS
 10
-2.408716255
 20
-16.608426323
 11
-2.8811131239
 21
-16.8910426045
  0
LINE
  5
599
100
AcDbEntity
  8
SMUSSO
100
AcDbLine
 62
7
  6
CONTINUOUS
 10
-2.408716255
 20
-15.2214395759
 11
-2.8811131239
 21
-15.5037175723
  0
LINE
  5
59A
100
AcDbEntity
  8
DRAFT
100
AcDbLine
 62
7
  6
CONTINUOUS
 10
-2.8811131239
 20
-14.420419275
 11
-2.408716255
 21
-14.1476632434
  0
LINE
  5
59B
100
AcDbEntity
  8
SMUSSO
100
AcDbLine
 62
7
  6
CONTINUOUS
 10
-2.8811131239
 20
-15.6043051218
 11
-2.408716255
 21
-15.3315490903
  0
LWPOLYLINE
  5
59C
100
AcDbEntity
  8
DRAFT
100
AcDbPolyline
 62
7
  6
CONTINUOUS
 90
31
 70
0
 10
7.0659853365
 20
17.8877095475
 10
7.0700934576
 20
17.888164019
 10
7.2407852947
 20
17.9009227144
 10
7.4117857176
 20
17.9076321334
 10
7.5826708159
 20
17.908174881
 10
7.7538645
 20
17.9026683522
 10
7.9237724832
 20
17.8911887859
 10
8.0926294015
 20
17.8736455676
 10
8.260200619
 20
17.8501293118
 10
8.4241879409
 20
17.8209881005
 10
8.5842490187
 20
17.7862312742
 10
8.7407262011
 20
17.7458494925
 10
8.8923483397
 20
17.7001628162
 10
9.0394019621
 20
17.6489988918
 10
9.1816005408
 20
17.5925300729
 10
9.3168133457
 20
17.5315934811
 10
9.4446680269
 20
17.4662730617
 10
9.5655369344
 20
17.3964848694
 10
9.6784063879
 20
17.3228141904
 10
9.7834177439
 20
17.2450483624
 10
9.880429646
 20
17.1634000477
 10
9.9680043452
 20
17.0790925198
 10
10.0458431229
 20
16.9922913388
 10
10.1142446976
 20
16.9028309446
 10
10.1726674766
 20
16.8114379302
 10
10.221121843
 20
16.7179179731
 10
10.2595974137
 20
16.6224653959
 10
10.2875214466
 20
16.5263897592
 10
10.3047383831
 20
16.4298257421
 10
10.3114037819
 20
16.3326386655
 10
10.3114897312
 20
16.3206213452
  0
LWPOLYLINE
  5
59D
100
AcDbEntity
  8
ASSI
100
AcDbPolyline
 62
250
  6
CONTINUOUS
 90
9
 70
0
 10
-2.3991595394
 20
18.8375759555
 10
-2.3645709123
 20
18.8404052851
 10
-2.3299670813
 20
18.8449333784
 10
-2.2954209474
 20
18.8510620703
 10
-2.2613866949
 20
18.8586002157
 10
-2.2275497511
 20
18.8675079187
 10
-2.1927888793
 20
18.8780731735
 10
-2.1570058587
 20
18.8904104312
 10
-2.1203564166
 20
18.9045362723
  0
LWPOLYLINE
  5
59E
100
AcDbEntity
  8
ASSI
100
AcDbPolyline
 62
250
  6
CONTINUOUS
 90
16
 70
0
 10
-3.9236376996
 20
18.2910546736
 10
-3.9307648512
 20
18.290646036
 10
-3.9377475655
 20
18.28995616
 10
-3.9445858426
 20
18.2889850454
 10
-3.9512878388
 20
18.2877055469
 10
-3.9578453977
 20
18.2861448099
 10
-3.9642340501
 20
18.2843842708
 10
-3.9704516315
 20
18.2824268799
 10
-3.9765003063
 20
18.2802696869
 10
-3.9823620995
 20
18.2779852777
 10
-3.9880353086
 20
18.2755761803
 10
-3.9935216359
 20
18.2730398668
 10
-3.9988082135
 20
18.270441338
 10
-4.003890752
 20
18.2678022611
 10
-4.0087735407
 20
18.2651009691
 10
-4.0134565796
 20
18.2623374619
  0
LWPOLYLINE
  5
59F
100
AcDbEntity
  8
ASSI
100
AcDbPolyline
 62
250
  6
CONTINUOUS
 90
16
 70
0
 10
-4.0072003429
 20
18.5392350933
 10
-4.0189397648
 20
18.5385775196
 10
-4.0305053147
 20
18.5373643719
 10
-4.0418693145
 20
18.5356444841
 10
-4.053000942
 20
18.5334655509
 10
-4.0638830547
 20
18.5308746713
 10
-4.0745124461
 20
18.5279165468
 10
-4.0848737161
 20
18.5246329747
 10
-4.0949483185
 20
18.521065634
 10
-4.1047317244
 20
18.5172549433
 10
-4.1142136362
 20
18.5132378403
 10
-4.1233813683
 20
18.5090511021
 10
-4.132229317
 20
18.5047321756
 10
-4.1407508851
 20
18.5003151257
 10
-4.1489383774
 20
18.4958305509
 10
-4.1567864707
 20
18.4913084033
  0
LINE
  5
5A0
100
AcDbEntity
  8
ASSI
100
AcDbLine
 62
250
  6
CONTINUOUS
 10
-3.9052622715
 20
18.7556457796
 11
-2.3991595394
 21
18.8375759555
  0
LINE
  5
5A1
100
AcDbEntity
  8
ASSI
100
AcDbLine
 62
7
  6
CONTINUOUS
 10
-3.9765326837
 20
18.772810503
 11
-2.4697904845
 21
18.854777154
  0
LINE
  5
5A2
100
AcDbEntity
  8
ASSI
100
AcDbLine
 62
7
  6
CONTINUOUS
 10
-2.4697904845
 20
18.854777154
 11
-2.4696502253
 21
18.8547847027
  0
LINE
  5
5A3
100
AcDbEntity
  8
ASSI
100
AcDbLine
 62
250
  6
CONTINUOUS
 10
-3.9263434201
 20
18.7546647949
 11
-3.9052622715
 21
18.7556457796
  0
LWPOLYLINE
  5
5A4
100
AcDbEntity
  8
ASSI
100
AcDbPolyline
 62
7
  6
CONTINUOUS
 90
9
 70
0
 10
-2.3253698465
 20
16.7364249144
 10
-2.3444030912
 20
16.7357513541
 10
-2.3629441804
 20
16.734117116
 10
-2.3811291164
 20
16.7314872066
 10
-2.3988218968
 20
16.7278966192
 10
-2.4156145145
 20
16.723450334
 10
-2.4313709672
 20
16.7181833441
 10
-2.4462272572
 20
16.7120606563
 10
-2.4601833846
 20
16.7050822705
  0
LWPOLYLINE
  5
5A5
100
AcDbEntity
  8
ASSI
100
AcDbPolyline
 62
7
  6
CONTINUOUS
 90
13
 70
0
 10
-3.9765326838
 20
18.772810503
 10
-4.0058652757
 20
18.7719127775
 10
-4.0450910988
 20
18.7724413712
 10
-4.0884977701
 20
18.7748426395
 10
-4.1354094915
 20
18.7791906613
 10
-4.1849736424
 20
18.7854647258
 10
-4.2367134313
 20
18.7936375242
 10
-4.2902235887
 20
18.8036726069
 10
-4.3449755208
 20
18.8154982556
 10
-4.4004678932
 20
18.8290219609
 10
-4.4562555724
 20
18.8441469332
 10
-4.5119210623
 20
18.8607835307
 10
-4.5668537749
 20
18.8787665278
  0
LINE
  5
5A6
100
AcDbEntity
  8
ASSI
100
AcDbLine
 62
250
  6
CONTINUOUS
 10
-2.2057033773
 20
18.333899959
 11
-3.9236376996
 21
18.2910546736
  0
LINE
  5
5A7
100
AcDbEntity
  8
ASSI
100
AcDbLine
 62
250
  6
CONTINUOUS
 10
-1.9704287666
 20
18.5900321805
 11
-4.0072003429
 21
18.5392350933
  0
LWPOLYLINE
  5
5A8
100
AcDbEntity
  8
ASSI
100
AcDbPolyline
 62
250
  6
CONTINUOUS
 90
5
 70
0
 10
-3.9758932163
 20
18.7728469782
 10
-3.9631522992
 20
18.7728724998
 10
-3.9434035089
 20
18.7702717999
 10
-3.9240027575
 20
18.7644985894
 10
-3.9052622715
 20
18.7556457796
  0
LWPOLYLINE
  5
5A9
100
AcDbEntity
  8
ASSI
100
AcDbPolyline
 62
250
  6
CONTINUOUS
 90
5
 70
0
 10
-2.4696502253
 20
18.8547847027
 10
-2.4570483212
 20
18.854802613
 10
-2.437299889
 20
18.8522017858
 10
-2.4178995612
 20
18.8464285871
 10
-2.3991595394
 20
18.8375759555
  0
LWPOLYLINE
  5
5AA
100
AcDbEntity
  8
ASSI
100
AcDbPolyline
 62
7
  6
CONTINUOUS
 90
10
 70
0
 10
0.1200885617
 20
18.0958825717
 10
0.0983697126
 20
18.0971110639
 10
0.0771133542
 20
18.0971106307
 10
0.0563194867
 20
18.0958812722
 10
0.0357882812
 20
18.0933759672
 10
0.0157195664
 20
18.089641737
 10
-0.0032871709
 20
18.084819645
 10
-0.0210321019
 20
18.0789567127
 10
-0.0377150555
 20
18.0720059188
 10
-0.0533360316
 20
18.0639672632
  0
LWPOLYLINE
  5
5AB
100
AcDbEntity
  8
ASSI
100
AcDbPolyline
 62
250
  6
CONTINUOUS
 90
6
 70
0
 10
-6.9474137209
 20
20.2693787694
 10
-6.9673424849
 20
20.2705085263
 10
-6.9840781076
 20
20.2704552857
 10
-6.997952394
 20
20.2692785792
 10
-7.0090519233
 20
20.2671398612
 10
-7.0176596138
 20
20.2641216476
  0
LWPOLYLINE
  5
5AC
100
AcDbEntity
  8
ASSI
100
AcDbPolyline
 62
250
  6
CONTINUOUS
 90
6
 70
0
 10
-4.0585767853
 20
18.7590927854
 10
-4.0283284183
 20
18.7568105031
 10
-4.000205576
 20
18.7553788585
 10
-3.9738712417
 20
18.7545694082
 10
-3.9492130769
 20
18.7543060044
 10
-3.9263434201
 20
18.7546647949
  0
LWPOLYLINE
  5
5AD
100
AcDbEntity
  8
RACCORDO
100
AcDbPolyline
 62
250
  6
CONTINUOUS
 90
3
 70
0
 10
-19.0858341697
 20
21.9935662665
 10
-19.1210138748
 20
21.9977937568
 10
-19.154458707
 20
21.9970761963
  0
LWPOLYLINE
  5
5AE
100
AcDbEntity
  8
ASSI
100
AcDbPolyline
 62
250
  6
CONTINUOUS
 90
21
 70
0
 10
-3.6565037549
 20
22.0981516326
 10
-3.6882306197
 20
22.1020750458
 10
-3.7201361308
 20
22.1039729454
 10
-3.7525998129
 20
22.103821584
 10
-3.7852421414
 20
22.1016447091
 10
-3.8169245425
 20
22.0975135631
 10
-3.8476133551
 20
22.0913588215
 10
-3.8773422404
 20
22.0832498088
 10
-3.9050736069
 20
22.0734657412
 10
-3.9307390106
 20
22.0619448941
 10
-3.9544068956
 20
22.0487489919
 10
-3.975245003
 20
22.0343424243
 10
-3.9931487898
 20
22.0186837931
 10
-4.0082227989
 20
22.0018144963
 10
-4.0199483998
 20
21.9843231179
 10
-4.0282071757
 20
21.9661879843
 10
-4.0331175435
 20
21.9474307691
 10
-4.0345161228
 20
21.9287050766
 10
-4.0323484539
 20
21.9102287748
 10
-4.0266689965
 20
21.8917839956
 10
-4.0174777509
 20
21.8733707392
  0
LWPOLYLINE
  5
5AF
100
AcDbEntity
  8
ASSI
100
AcDbPolyline
 62
250
  6
CONTINUOUS
 90
22
 70
0
 10
0.0901660406
 20
19.5016686669
 10
0.1220558578
 20
19.4963615302
 10
0.1540013135
 20
19.4930822791
 10
0.1860024078
 20
19.4918309134
 10
0.2184369916
 20
19.492638843
 10
0.2509272138
 20
19.4954746581
 10
0.282339522
 20
19.5002441292
 10
0.3126360709
 20
19.5070158585
 10
0.3418547058
 20
19.5157212439
 10
0.3689754088
 20
19.5260602497
 10
0.3939260302
 20
19.538093178
 10
0.4167787197
 20
19.5517597268
 10
0.4367299098
 20
19.5665789547
 10
0.4536726092
 20
19.5825901186
 10
0.467713809
 20
19.5997539616
 10
0.4783709155
 20
19.617471771
 10
0.4855242723
 20
19.635762808
 10
0.4892935358
 20
19.6546078114
 10
0.4895550808
 20
19.6733502852
 10
0.486267699
 20
19.6917713974
 10
0.4794725987
 20
19.71008998
 10
0.46916978
 20
19.728306033
  0
LWPOLYLINE
  5
5B0
100
AcDbEntity
  8
SMUSSO
100
AcDbPolyline
 62
7
  6
CONTINUOUS
 90
10
 70
0
 10
-1.2953367717
 20
22.8506506041
 10
-1.2964234517
 20
22.8508459564
 10
-1.4637528249
 20
22.8866503194
 10
-1.6270728886
 20
22.9274062393
 10
-1.7863403443
 20
22.9731551491
 10
-1.9415984905
 20
23.0238556157
 10
-2.0914824018
 20
23.0790633389
 10
-2.235537103
 20
23.1386302186
 10
-2.3742175692
 20
23.2027043549
 10
-2.5075238005
 20
23.2712857478
  0
LINE
  5
5B1
100
AcDbEntity
  8
ASSI
100
AcDbLine
 62
250
  6
CONTINUOUS
 10
-3.6249555366
 20
22.092202706
 11
-3.6565037549
 21
22.0981516326
  0
LINE
  5
5B2
100
AcDbEntity
  8
ASSI
100
AcDbLine
 62
250
  6
CONTINUOUS
 10
-3.6086971713
 20
22.0888093025
 11
-3.6249555366
 21
22.092202706
  0
LWPOLYLINE
  5
5B3
100
AcDbEntity
  8
ASSI
100
AcDbPolyline
 62
250
  6
CONTINUOUS
 90
5
 70
0
 10
-2.7484495101
 20
22.4264433883
 10
-2.7648000345
 20
22.4300840033
 10
-2.7803819712
 20
22.4309418838
 10
-2.7949574685
 20
22.4290039344
 10
-2.8083040376
 20
22.4242997373
  0
LINE
  5
5B4
100
AcDbEntity
  8
RACCORDO
100
AcDbLine
 62
250
  6
CONTINUOUS
 10
-0.0348221515
 20
24.8401163671
 11
0.008778671
 21
24.8226203918
  0
LWPOLYLINE
  5
5B5
100
AcDbEntity
  8
RACCORDO
100
AcDbPolyline
 62
7
  6
CONTINUOUS
 90
23
 70
0
 10
5.8182490203
 20
21.4366827214
 10
5.7991298016
 20
21.4450916647
 10
5.7807398609
 20
21.4530713129
 10
5.7629831748
 20
21.4606627246
 10
5.7454067052
 20
21.4680537222
 10
5.7280722494
 20
21.4752080383
 10
5.7108487108
 20
21.4821680143
 10
5.6930029193
 20
21.4892051378
 10
5.6746206316
 20
21.4962477074
 10
5.6555528592
 20
21.5033088924
 10
5.6346576698
 20
21.5107345002
 10
5.6117912999
 20
21.5184547112
 10
5.5869292576
 20
21.5263330828
 10
5.5589522979
 20
21.534520586
 10
5.5270826542
 20
21.542938643
 10
5.4917345514
 20
21.5511169686
 10
5.4534858169
 20
21.5585785935
 10
5.412048445
 20
21.5650302787
 10
5.3674827843
 20
21.5700787445
 10
5.3209816655
 20
21.5732646237
 10
5.2727307922
 20
21.5743260679
 10
5.2226403709
 20
21.5730041507
 10
5.1715975399
 20
21.5690971634
  0
LINE
  5
5B6
100
AcDbEntity
  8
RACCORDO
100
AcDbLine
 62
7
  6
CONTINUOUS
 10
5.8590211048
 20
21.418420832
 11
5.8182490203
 21
21.4366827214
  0
LINE
  5
5B7
100
AcDbEntity
  8
SMUSSO
100
AcDbLine
 62
7
  6
CONTINUOUS
 10
1.758392612
 20
23.8652757225
 11
1.4652196205
 21
24.0070427742
  0
LINE
  5
5B8
100
AcDbEntity
  8
0
100
AcDbLine
 62
7
  6
CONTINUOUS
 10
4.8683519613
 20
22.3278309885
 11
6.1684007706
 21
21.6981134746
  0
LINE
  5
5B9
100
AcDbEntity
  8
0
100
AcDbLine
 62
7
  6
CONTINUOUS
 10
5.7776141831
 20
21.9065705723
 11
4.6622619633
 21
22.4468247705
  0
LINE
  5
5BA
100
AcDbEntity
  8
0
100
AcDbLine
 62
7
  6
CONTINUOUS
 10
5.4748148913
 20
22.0800438441
 11
5.3193469854
 21
22.155349373
  0
LINE
  5
5BB
100
AcDbEntity
  8
0
100
AcDbLine
 62
7
  6
CONTINUOUS
 10
4.0680570896
 20
22.7899153868
 11
4.1924134826
 21
22.7296796495
  0
LINE
  5
5BC
100
AcDbEntity
  8
0
100
AcDbLine
 62
7
  6
CONTINUOUS
 10
3.6285892503
 20
23.0552246948
 11
4.8042816666
 21
22.4857429183
  0
LINE
  5
5BD
100
AcDbEntity
  8
0
100
AcDbLine
 62
7
  6
CONTINUOUS
 10
4.5930759593
 20
22.6076904466
 11
3.2930271501
 21
23.2374079605
  0
LINE
  5
5BE
100
AcDbEntity
  8
RACCORDO
100
AcDbLine
 62
250
  6
CONTINUOUS
 10
0.008778671
 20
24.8226203918
 11
2.2385195258
 21
23.7390209581
  0
LINE
  5
5BF
100
AcDbEntity
  8
RACCORDO
100
AcDbLine
 62
7
  6
CONTINUOUS
 10
-0.0327508683
 20
24.8446835442
 11
2.1972125122
 21
23.7609759686
  0
LINE
  5
5C0
100
AcDbEntity
  8
RACCORDO
100
AcDbLine
 62
7
  6
CONTINUOUS
 10
2.1973490408
 20
23.760909619
 11
2.1992597122
 21
23.7599770965
  0
LINE
  5
5C1
100
AcDbEntity
  8
RACCORDO
100
AcDbLine
 62
250
  6
CONTINUOUS
 10
10.1180181945
 20
-14.5307741288
 11
10.0814042518
 21
-14.5650231325
  0
LWPOLYLINE
  5
5C2
100
AcDbEntity
  8
RACCORDO
100
AcDbPolyline
 62
7
  6
CONTINUOUS
 90
11
 70
0
 10
10.116961054
 20
-14.5401984774
 10
10.1560918526
 20
-14.505936016
 10
10.1951111739
 20
-14.4664659685
 10
10.2333547917
 20
-14.4216104196
 10
10.2696802699
 20
-14.372030936
 10
10.3025196828
 20
-14.3198501088
 10
10.3319971577
 20
-14.2654948141
 10
10.358315472
 20
-14.2094056616
 10
10.3810373511
 20
-14.1539590918
 10
10.4005862776
 20
-14.1003709364
 10
10.4142821751
 20
-14.0594381299
  0
LWPOLYLINE
  5
5C3
100
AcDbEntity
  8
RACCORDO
100
AcDbPolyline
 62
7
  6
CONTINUOUS
 90
4
 70
0
 10
10.0017400999
 20
-14.6338764538
 10
10.0617950543
 20
-14.5849815068
 10
10.0843004328
 20
-14.5667155953
 10
10.116961055
 20
-14.5401984766
  0
LINE
  5
5C4
100
AcDbEntity
  8
RACCORDO
100
AcDbLine
 62
250
  6
CONTINUOUS
 10
10.0814042518
 20
-14.5650231325
 11
9.9636916814
 21
-14.6607611241
  0
LWPOLYLINE
  5
5C5
100
AcDbEntity
  8
RACCORDO
100
AcDbPolyline
 62
250
  6
CONTINUOUS
 90
9
 70
0
 10
9.9636916814
 20
-14.6607611241
 10
9.8697204894
 20
-14.7366454834
 10
9.7726066019
 20
-14.8130499783
 10
9.6722939569
 20
-14.8898745299
 10
9.5690366176
 20
-14.9667880413
 10
9.462472332
 20
-15.0439220452
 10
9.3515942476
 20
-15.1218252736
 10
9.2361056645
 20
-15.2004856576
 10
9.1161291994
 20
-15.2795944745
  0
LWPOLYLINE
  5
5C6
100
AcDbEntity
  8
0
100
AcDbPolyline
 62
7
  6
CONTINUOUS
 90
7
 70
0
 10
-2.9279042352
 20
-24.3663447386
 10
-2.9129836874
 20
-24.3545360907
 10
-2.9009246416
 20
-24.3421665979
 10
-2.891727098
 20
-24.3292362604
 10
-2.8853385583
 20
-24.3155327609
 10
-2.8818115208
 20
-24.3012684167
 10
-2.8811131703
 20
-24.2921959645
  0
LWPOLYLINE
  5
5C7
100
AcDbEntity
  8
RACCORDO
100
AcDbPolyline
 62
250
  6
CONTINUOUS
 90
3
 70
0
 10
10.1160060842
 20
-14.5409760632
 10
10.1103336103
 20
-14.545456439
 10
10.0814042518
 20
-14.5650231325
  0
LWPOLYLINE
  5
5C8
100
AcDbEntity
  8
RACCORDO
100
AcDbPolyline
 62
250
  6
CONTINUOUS
 90
11
 70
0
 10
13.8831103096
 20
-11.6774302234
 10
13.9175068503
 20
-11.6511309354
 10
13.9487159637
 20
-11.6202580206
 10
13.97656354
 20
-11.5849838417
 10
14.0008938702
 20
-11.5455056378
 10
14.021570941
 20
-11.5020440912
 10
14.0384791072
 20
-11.4548422646
 10
14.0515237863
 20
-11.4041642968
 10
14.0606320814
 20
-11.350293664
 10
14.0657531366
 20
-11.2935315458
 10
14.0668583702
 20
-11.2341953482
  0
LWPOLYLINE
  5
5C9
100
AcDbEntity
  8
ASSI
100
AcDbPolyline
 62
250
  6
CONTINUOUS
 90
7
 70
0
 10
-1.4250290331
 20
-23.7589078649
 10
-1.4148627663
 20
-23.7511900289
 10
-1.4045797871
 20
-23.7394136473
 10
-1.3964701502
 20
-23.7250388747
 10
-1.3906724946
 20
-23.7083175702
 10
-1.3872841544
 20
-23.6895390065
 10
-1.3863615846
 20
-23.6690286756
  0
LINE
  5
5CA
100
AcDbEntity
  8
RACCORDO
100
AcDbLine
 62
250
  6
CONTINUOUS
 10
9.9982500016
 20
-14.6366917942
 11
9.9636916813
 21
-14.660761124
  0
LINE
  5
5CB
100
AcDbEntity
  8
RACCORDO
100
AcDbLine
 62
7
  6
CONTINUOUS
 10
-2.9279042352
 20
-20.4468512039
 11
-3.3585594811
 21
-20.7448515019
  0
LINE
  5
5CC
100
AcDbEntity
  8
ASSI
100
AcDbLine
 62
250
  6
CONTINUOUS
 10
-1.8559663365
 20
-23.1424055566
 11
-1.8726965151
 21
-23.1537993515
  0
LINE
  5
5CD
100
AcDbEntity
  8
RACCORDO
100
AcDbLine
 62
250
  6
CONTINUOUS
 10
13.8734841487
 20
-11.6836141665
 11
13.8831103096
 21
-11.6774302234
  0
LINE
  5
5CE
100
AcDbEntity
  8
RACCORDO
100
AcDbLine
 62
250
  6
CONTINUOUS
 10
9.1161291994
 20
-15.2795944745
 11
8.9912504477
 21
-15.3591914249
  0
LINE
  5
5CF
100
AcDbEntity
  8
RACCORDO
100
AcDbLine
 62
250
  6
CONTINUOUS
 10
14.0668583702
 20
-11.2341953482
 11
10.7088609799
 21
-13.3108313054
  0
LINE
  5
5D0
100
AcDbEntity
  8
RACCORDO
100
AcDbLine
 62
7
  6
CONTINUOUS
 10
13.8734841487
 20
-11.6836141665
 11
10.5593459991
 21
-13.7331269113
  0
LINE
  5
5D1
100
AcDbEntity
  8
DRAFT
100
AcDbLine
 62
7
  6
CONTINUOUS
 10
-2.8811131239
 20
-20.4346252682
 11
-2.408716255
 21
-20.147964723
  0
LINE
  5
5D2
100
AcDbEntity
  8
RACCORDO
100
AcDbLine
 62
250
  6
CONTINUOUS
 10
2.965295282
 20
-18.5438821833
 11
10.2981924364
 21
-14.1061894208
  0
LINE
  5
5D3
100
AcDbEntity
  8
ASSI
100
AcDbLine
 62
250
  6
CONTINUOUS
 10
0.7223308858
 20
20.518483231
 11
4.1905678062
 21
21.4897173507
  0
LINE
  5
5D4
100
AcDbEntity
  8
ASSI
100
AcDbLine
 62
7
  6
CONTINUOUS
 10
0.6317957805
 20
20.532210399
 11
4.0065194338
 21
21.4772573586
  0
LWPOLYLINE
  5
5D5
100
AcDbEntity
  8
ASSI
100
AcDbPolyline
 62
250
  6
CONTINUOUS
 90
13
 70
0
 10
3.7049850978
 20
20.974981249
 10
3.7092307396
 20
20.9761315525
 10
3.7134090565
 20
20.9773402563
 10
3.7175200485
 20
20.9786073602
 10
3.7215525493
 20
20.9799255707
 10
3.7255177253
 20
20.9813021814
 10
3.7294490751
 20
20.9827590729
 10
3.7333552132
 20
20.9842951167
 10
3.7372275251
 20
20.9859114412
 10
3.741073666
 20
20.9876333127
 10
3.7448961875
 20
20.9894691534
 10
3.748692538
 20
20.991410541
 10
3.7524627174
 20
20.9934574757
  0
LINE
  5
5D6
100
AcDbEntity
  8
ASSI
100
AcDbLine
 62
250
  6
CONTINUOUS
 10
1.219346254
 20
20.0485951417
 11
3.8117124485
 21
20.7304405695
  0
LINE
  5
5D7
100
AcDbEntity
  8
ASSI
100
AcDbLine
 62
250
  6
CONTINUOUS
 10
1.1126189033
 20
20.2931358212
 11
3.7049850978
 21
20.974981249
  0
LWPOLYLINE
  5
5D8
100
AcDbEntity
  8
SMUSSO
100
AcDbPolyline
 62
7
  6
CONTINUOUS
 90
10
 70
0
 10
3.9709271464
 20
20.4164436689
 10
4.0538256971
 20
20.4348923597
 10
4.1353706721
 20
20.4594265526
 10
4.2155620715
 20
20.4900462476
 10
4.2943823493
 20
20.5266582806
 10
4.3718490514
 20
20.5693558156
 10
4.4480148163
 20
20.6184183454
 10
4.5228971903
 20
20.6739390341
 10
4.596478627
 20
20.7358247175
 10
4.6687591266
 20
20.8040753957
  0
LWPOLYLINE
  5
5D9
100
AcDbEntity
  8
ASSI
100
AcDbPolyline
 62
250
  6
CONTINUOUS
 90
6
 70
0
 10
0.6317957805
 20
20.532210399
 10
0.6482021658
 20
20.535390563
 10
0.6665732243
 20
20.5358249418
 10
0.6852512951
 20
20.5331146013
 10
0.7039370118
 20
20.5273029821
 10
0.7223308858
 20
20.518483231
  0
LWPOLYLINE
  5
5DA
100
AcDbEntity
  8
RACCORDO
100
AcDbPolyline
 62
7
  6
CONTINUOUS
 90
4
 70
0
 10
5.1715975399
 20
21.5690971634
 10
5.1199039688
 20
21.5624684718
 10
5.0675337801
 20
21.5529503031
 10
5.0149232511
 20
21.540460581
  0
LWPOLYLINE
  5
5DB
100
AcDbEntity
  8
ASSI
100
AcDbPolyline
 62
250
  6
CONTINUOUS
 90
3
 70
0
 10
-7.7619747238
 20
20.6918804826
 10
-7.754010681
 20
20.6928855354
 10
-7.7464291473
 20
20.6936023281
  0
LWPOLYLINE
  5
5DC
100
AcDbEntity
  8
ASSI
100
AcDbPolyline
 62
250
  6
CONTINUOUS
 90
7
 70
0
 10
-5.7951455395
 20
20.7983757103
 10
-5.7529828674
 20
20.8019907922
 10
-5.7089623321
 20
20.8083164149
 10
-5.6631323761
 20
20.817496189
 10
-5.6157884754
 20
20.8296195366
 10
-5.5667714737
 20
20.8448419058
 10
-5.5154437801
 20
20.8635177738
  0
LWPOLYLINE
  5
5DD
100
AcDbEntity
  8
ASSI
100
AcDbPolyline
 62
7
  6
CONTINUOUS
 90
7
 70
0
 10
-7.8099266887
 20
20.711256957
 10
-7.8264174258
 20
20.7099598039
 10
-7.8632441761
 20
20.7042111906
 10
-7.9014635189
 20
20.6941625474
 10
-7.9392987648
 20
20.6801577637
 10
-7.97618014
 20
20.6625934676
 10
-7.9859519676
 20
20.6572826683
  0
LINE
  5
5DE
100
AcDbEntity
  8
ASSI
100
AcDbLine
 62
250
  6
CONTINUOUS
 10
-7.7464291473
 20
20.6936023281
 11
-7.7392255395
 21
20.6940596685
  0
LWPOLYLINE
  5
5DF
100
AcDbEntity
  8
ASSI
100
AcDbPolyline
 62
250
  6
CONTINUOUS
 90
16
 70
0
 10
-6.9479374242
 20
20.5124482791
 10
-6.9895116149
 20
20.5100043484
 10
-7.0264090753
 20
20.5061852618
 10
-7.0586298052
 20
20.5009910193
 10
-7.0858611407
 20
20.4942553735
 10
-7.1084157458
 20
20.4861445718
 10
-7.127231613
 20
20.4771573564
 10
-7.1423833606
 20
20.4674754507
 10
-7.1537963702
 20
20.4569171311
 10
-7.1621847797
 20
20.4454359694
 10
-7.1679953887
 20
20.433247456
 10
-7.1707813976
 20
20.4201361003
 10
-7.1699165444
 20
20.4054090025
 10
-7.1651920751
 20
20.3888351958
 10
-7.1568167438
 20
20.3706456469
 10
-7.1447905503
 20
20.3508403558
  0
LINE
  5
5E0
100
AcDbEntity
  8
ASSI
100
AcDbLine
 62
250
  6
CONTINUOUS
 10
-7.7392255395
 20
20.6940596685
 11
-5.7951087161
 21
20.7983544489
  0
LINE
  5
5E1
100
AcDbEntity
  8
ASSI
100
AcDbLine
 62
7
  6
CONTINUOUS
 10
-7.8099266888
 20
20.711256957
 11
-5.8655894362
 21
20.8155637628
  0
LINE
  5
5E2
100
AcDbEntity
  8
ASSI
100
AcDbLine
 62
7
  6
CONTINUOUS
 10
-5.8655894362
 20
20.8155637628
 11
-5.8654499712
 21
20.8155711642
  0
LWPOLYLINE
  5
5E3
100
AcDbEntity
  8
ASSI
100
AcDbPolyline
 62
250
  6
CONTINUOUS
 90
10
 70
0
 10
-4.1568561087
 20
20.218085027
 10
-4.1715854358
 20
20.2173614755
 10
-4.1868391722
 20
20.2156781279
 10
-4.2026032456
 20
20.21298206
 10
-4.2187835861
 20
20.2092461416
 10
-4.2354320141
 20
20.2044061201
 10
-4.252755022
 20
20.1983116386
 10
-4.2708047749
 20
20.1908330631
 10
-4.2894693901
 20
20.1819119992
 10
-4.3087046534
 20
20.1714646282
  0
LWPOLYLINE
  5
5E4
100
AcDbEntity
  8
ASSI
100
AcDbPolyline
 62
250
  6
CONTINUOUS
 90
10
 70
0
 10
-4.2383164041
 20
20.4735854236
 10
-4.2587931815
 20
20.4725845061
 10
-4.2799736198
 20
20.4701059926
 10
-4.301857719
 20
20.4661498831
 10
-4.3243716643
 20
20.4608505541
 10
-4.3475892705
 20
20.4540736291
 10
-4.3717319823
 20
20.4454159788
 10
-4.3968736147
 20
20.4347432267
 10
-4.4229403528
 20
20.4221897493
 10
-4.4499321966
 20
20.4077555465
  0
LINE
  5
5E5
100
AcDbEntity
  8
ASSI
100
AcDbLine
 62
250
  6
CONTINUOUS
 10
-3.1422120492
 20
20.2426962898
 11
-4.1568561087
 21
20.218085027
  0
LINE
  5
5E6
100
AcDbEntity
  8
ASSI
100
AcDbLine
 62
250
  6
CONTINUOUS
 10
-5.2849176479
 20
20.2953102773
 11
-6.8664771288
 21
20.2569478825
  0
LINE
  5
5E7
100
AcDbEntity
  8
ASSI
100
AcDbLine
 62
250
  6
CONTINUOUS
 10
-2.958351276
 20
20.5046323291
 11
-4.2383164041
 21
20.4735854236
  0
LINE
  5
5E8
100
AcDbEntity
  8
ASSI
100
AcDbLine
 62
250
  6
CONTINUOUS
 10
-5.3663779434
 20
20.550810674
 11
-6.9479374242
 21
20.5124482791
  0
LWPOLYLINE
  5
5E9
100
AcDbEntity
  8
ASSI
100
AcDbPolyline
 62
250
  6
CONTINUOUS
 90
6
 70
0
 10
-5.8654499712
 20
20.8155711642
 10
-5.8559850623
 20
20.8156988544
 10
-5.8404011741
 20
20.8143037632
 10
-5.8249571392
 20
20.8109231378
 10
-5.8098087669
 20
20.8055893873
 10
-5.795107956
 20
20.7983544897
  0
LWPOLYLINE
  5
5EA
100
AcDbEntity
  8
ASSI
100
AcDbPolyline
 62
250
  6
CONTINUOUS
 90
5
 70
0
 10
-7.8097066537
 20
20.7112689613
 10
-7.7955454118
 20
20.7112029397
 10
-7.7763296964
 20
20.7084682447
 10
-7.7574602921
 20
20.7027245649
 10
-7.7392255395
 20
20.6940596685
  0
LWPOLYLINE
  5
5EB
100
AcDbEntity
  8
ASSI
100
AcDbPolyline
 62
250
  6
CONTINUOUS
 90
6
 70
0
 10
-3.5807641621
 20
22.1239653349
 10
-3.5884272906
 20
22.1240742338
 10
-3.5969980966
 20
22.1209102369
 10
-3.6060472694
 20
22.1144610384
 10
-3.6154199748
 20
22.1048369845
 10
-3.6249558434
 20
22.0922027439
  0
LWPOLYLINE
  5
5EC
100
AcDbEntity
  8
ASSI
100
AcDbPolyline
 62
250
  6
CONTINUOUS
 90
9
 70
0
 10
-3.489689697
 20
22.0762048301
 10
-3.5033688087
 20
22.0765840454
 10
-3.517443947
 20
22.0772313379
 10
-3.5318574848
 20
22.0782191242
 10
-3.5466040766
 20
22.0795433338
 10
-3.561689068
 20
22.0812080373
 10
-3.5770708688
 20
22.0832978634
 10
-3.5927356154
 20
22.0858410217
 10
-3.6086971713
 20
22.0888093025
  0
LWPOLYLINE
  5
5ED
100
AcDbEntity
  8
RACCORDO
100
AcDbPolyline
 62
250
  6
CONTINUOUS
 90
3
 70
0
 10
-0.1302450234
 20
24.8574928849
 10
-0.0812645563
 20
24.8517658277
 10
-0.0348221515
 20
24.8401163671
  0
LWPOLYLINE
  5
5EE
100
AcDbEntity
  8
ASSI
100
AcDbPolyline
 62
250
  6
CONTINUOUS
 90
3
 70
0
 10
-0.0966417753
 20
23.1637616999
 10
-0.1147350657
 20
23.1666303054
 10
-0.1325637833
 20
23.1665100097
  0
LWPOLYLINE
  5
5EF
100
AcDbEntity
  8
RACCORDO
100
AcDbPolyline
 62
250
  6
CONTINUOUS
 90
10
 70
0
 10
-3.0086376571
 20
-28.9563448948
 10
-2.9910067377
 20
-28.9415871102
 10
-2.9769360519
 20
-28.9261874132
 10
-2.9645621632
 20
-28.9088531479
 10
-2.9539596077
 20
-28.889745815
 10
-2.9451365906
 20
-28.8689694502
 10
-2.9378412848
 20
-28.8456402905
 10
-2.9322877809
 20
-28.8193539685
 10
-2.9288811653
 20
-28.7904319256
 10
-2.9279042352
 20
-28.7589230406
  0
LWPOLYLINE
  5
5F0
100
AcDbEntity
  8
RACCORDO
100
AcDbPolyline
 62
250
  6
CONTINUOUS
 90
6
 70
0
 10
-2.9279042352
 20
-28.7589230406
 10
-2.9088857969
 20
-28.7434012453
 10
-2.8945363824
 20
-28.7262879586
 10
-2.8852449991
 20
-28.7080471159
 10
-2.8812635333
 20
-28.6891732203
 10
-2.8811131345
 20
-28.6847331981
  0
LWPOLYLINE
  5
5F1
100
AcDbEntity
  8
RACCORDO
100
AcDbPolyline
 62
7
  6
CONTINUOUS
 90
10
 70
0
 10
-3.00928704
 20
-28.956810272
 10
-3.0037861848
 20
-28.9527655071
 10
-2.9770712834
 20
-28.9299080405
 10
-2.9527631165
 20
-28.9032657382
 10
-2.9313035488
 20
-28.8729341169
 10
-2.9132401034
 20
-28.8392744722
 10
-2.8990288375
 20
-28.8028756538
 10
-2.8888685576
 20
-28.7640760521
 10
-2.8828659223
 20
-28.7230792862
 10
-2.8811131345
 20
-28.6847331985
  0
LINE
  5
5F2
100
AcDbEntity
  8
RACCORDO
100
AcDbLine
 62
250
  6
CONTINUOUS
 10
-2.9279042352
 20
-28.7589230406
 11
-3.7426120621
 21
-29.3465216388
  0
LINE
  5
5F3
100
AcDbEntity
  8
RACCORDO
100
AcDbLine
 62
7
  6
CONTINUOUS
 10
-3.0086387323
 20
-28.9563456703
 11
-3.7566509557
 21
-29.4958408358
  0
LWPOLYLINE
  5
5F4
100
AcDbEntity
  8
0
100
AcDbPolyline
 62
7
  6
CONTINUOUS
 90
7
 70
0
 10
1.5330599495
 20
-19.8743237263
 10
1.7305516424
 20
-19.7512445405
 10
1.9882553309
 20
-19.5802410127
 10
2.2406089593
 20
-19.4007179004
 10
2.4875211271
 20
-19.2127358537
 10
2.7290832347
 20
-19.0162342225
 10
2.965295282
 20
-18.8112130066
  0
LINE
  5
5F5
100
AcDbEntity
  8
ASSI
100
AcDbLine
 62
250
  6
CONTINUOUS
 10
-1.3863615846
 20
-23.6690286756
 11
-2.7988085623
 21
-24.5425070738
  0
LINE
  5
5F6
100
AcDbEntity
  8
ASSI
100
AcDbLine
 62
7
  6
CONTINUOUS
 10
-1.4250364289
 20
-23.7589124392
 11
-2.7988085623
 21
-24.6084737336
  0
LWPOLYLINE
  5
5F7
100
AcDbEntity
  8
RACCORDO
100
AcDbPolyline
 62
7
  6
CONTINUOUS
 90
7
 70
0
 10
1.5363363703
 20
-19.8799092739
 10
1.6702402748
 20
-19.79719576
 10
1.8990368941
 20
-19.6486007981
 10
2.1236857198
 20
-19.4933615213
 10
2.3441193438
 20
-19.331522896
 10
2.5604051743
 20
-19.1630399558
 10
2.7725432113
 20
-18.9879127007
  0
LWPOLYLINE
  5
5F8
100
AcDbEntity
  8
RACCORDO
100
AcDbPolyline
 62
7
  6
CONTINUOUS
 90
10
 70
0
 10
8.8742581313
 20
-15.4312913682
 10
9.0044806133
 20
-15.3509390467
 10
9.1335036318
 20
-15.2685029232
 10
9.2613005375
 20
-15.1839984874
 10
9.3878554071
 20
-15.0974353277
 10
9.5131595879
 20
-15.008818436
 10
9.6372113646
 20
-14.9181476178
 10
9.7600018801
 20
-14.8254274464
 10
9.8815154718
 20
-14.7306678512
 10
10.0017400999
 20
-14.6338764538
  0
LINE
  5
5F9
100
AcDbEntity
  8
0
100
AcDbLine
 62
7
  6
CONTINUOUS
 10
2.965295282
 20
-18.8112130066
 11
-1.3480560832
 21
-21.4422151281
  0
LINE
  5
5FA
100
AcDbEntity
  8
ASSI
100
AcDbLine
 62
7
  6
CONTINUOUS
 10
1.5330333591
 20
-19.8743398467
 11
-2.7264245098
 21
-22.4566378271
  0
LINE
  5
5FB
100
AcDbEntity
  8
DRAFT
100
AcDbLine
 62
7
  6
CONTINUOUS
 10
8.874258148
 20
-15.4312913583
 11
1.5363111778
 21
-19.8799245469
  0
LINE
  5
5FC
100
AcDbEntity
  8
RACCORDO
100
AcDbLine
 62
250
  6
CONTINUOUS
 10
2.7725432113
 20
-18.9879127007
 11
10.0814042518
 21
-14.5650231325
  0
LINE
  5
5FD
100
AcDbEntity
  8
RACCORDO
100
AcDbLine
 62
7
  6
CONTINUOUS
 10
1.4374980867
 20
-19.9390115071
 11
1.5363363703
 21
-19.8799092739
  0
LWPOLYLINE
  5
5FE
100
AcDbEntity
  8
ASSI
100
AcDbPolyline
 62
7
  6
CONTINUOUS
 90
3
 70
0
 10
-2.7263856369
 20
-22.4566142603
 10
-2.857331338
 20
-22.5345718815
 10
-2.8811131239
 20
-22.5479578967
  0
LINE
  5
5FF
100
AcDbEntity
  8
0
100
AcDbLine
 62
7
  6
CONTINUOUS
 10
-2.7988085623
 20
-24.2918065151
 11
-2.9279042352
 21
-24.3663447386
  0
LINE
  5
600
100
AcDbEntity
  8
RACCORDO
100
AcDbLine
 62
7
  6
CONTINUOUS
 10
1.2486024981
 20
-20.0467761662
 11
1.4374980867
 21
-19.9390115071
  0
LWPOLYLINE
  5
601
100
AcDbEntity
  8
ASSI
100
AcDbPolyline
 62
250
  6
CONTINUOUS
 90
12
 70
0
 10
-2.6226129819
 20
22.4498118982
 10
-2.6296541935
 20
22.4478171329
 10
-2.6367610156
 20
22.4456308705
 10
-2.6439307143
 20
22.4432523243
 10
-2.6511249733
 20
22.4406935969
 10
-2.658376186
 20
22.4379431367
 10
-2.6657887053
 20
22.4349565377
 10
-2.6733696659
 20
22.4317205717
 10
-2.6811074426
 20
22.4282305628
 10
-2.6890793967
 20
22.4244405265
 10
-2.6973094302
 20
22.4203224306
 10
-2.7057673474
 20
22.4158731568
  0
LWPOLYLINE
  5
602
100
AcDbEntity
  8
ASSI
100
AcDbPolyline
 62
250
  6
CONTINUOUS
 90
13
 70
0
 10
-2.2323249645
 20
22.2244644884
 10
-2.2394715439
 20
22.2225071346
 10
-2.2466613027
 20
22.220352603
 10
-2.2538913417
 20
22.2180009019
 10
-2.2611198858
 20
22.2154663975
 10
-2.2683825054
 20
22.2127370348
 10
-2.27579349
 20
22.2097642223
 10
-2.2833627757
 20
22.2065341999
 10
-2.2910759945
 20
22.2030426219
 10
-2.2990122687
 20
22.199239421
 10
-2.3071961225
 20
22.195094745
 10
-2.3155968057
 20
22.1906063259
 10
-2.3242101306
 20
22.1857588664
  0
LINE
  5
603
100
AcDbEntity
  8
ASSI
100
AcDbLine
 62
250
  6
CONTINUOUS
 10
-0.0607637439
 20
23.1492774342
 11
-2.6226129819
 21
22.4498118982
  0
LINE
  5
604
100
AcDbEntity
  8
ASSI
100
AcDbLine
 62
7
  6
CONTINUOUS
 10
-0.1500443964
 20
23.1633514974
 11
-2.7118936344
 21
22.4638859614
  0
LWPOLYLINE
  5
605
100
AcDbEntity
  8
ASSI
100
AcDbPolyline
 62
250
  6
CONTINUOUS
 90
13
 70
0
 10
-2.1276999616
 20
21.9726038321
 10
-2.1320137869
 20
21.9714425631
 10
-2.1363481438
 20
21.970162018
 10
-2.1407030325
 20
21.9687621968
 10
-2.1450566361
 20
21.967254533
 10
-2.1494307714
 20
21.9656275931
 10
-2.1538908891
 20
21.9638470766
 10
-2.1584441966
 20
21.9619164505
 10
-2.1630834865
 20
21.9598322478
 10
-2.1678525876
 20
21.9575497664
 10
-2.1727661096
 20
21.9550541057
 10
-2.1778094429
 20
21.9523601662
 10
-2.1829825874
 20
21.9494679481
  0
LINE
  5
606
100
AcDbEntity
  8
ASSI
100
AcDbLine
 62
250
  6
CONTINUOUS
 10
-0.0556128315
 20
23.1506191854
 11
-0.0607637439
 21
23.1492774342
  0
LINE
  5
607
100
AcDbEntity
  8
ASSI
100
AcDbLine
 62
250
  6
CONTINUOUS
 10
0.9503742788
 20
22.7614814766
 11
-2.1276999616
 21
21.9726038321
  0
LINE
  5
608
100
AcDbEntity
  8
ASSI
100
AcDbLine
 62
250
  6
CONTINUOUS
 10
1.3347055583
 20
23.1386564204
 11
-2.2323249645
 21
22.2244644884
  0
LINE
  5
609
100
AcDbEntity
  8
ASSI
100
AcDbLine
 62
250
  6
CONTINUOUS
 10
-0.1325637833
 20
23.1665100097
 11
-0.1500443964
 21
23.1633514974
  0
LWPOLYLINE
  5
60A
100
AcDbEntity
  8
RACCORDO
100
AcDbPolyline
 62
7
  6
CONTINUOUS
 90
7
 70
0
 10
-3.5491010766
 20
24.115702445
 10
-3.5412481381
 20
24.1170357956
 10
-3.5319790007
 20
24.1175999995
 10
-3.5213176051
 20
24.1174007449
 10
-3.5092869899
 20
24.1164431363
 10
-3.4959092484
 20
24.1147316917
 10
-3.4812054868
 20
24.1122703423
  0
LWPOLYLINE
  5
60B
100
AcDbEntity
  8
ASSI
100
AcDbPolyline
 62
250
  6
CONTINUOUS
 90
9
 70
0
 10
-3.3927893044
 20
22.0813112475
 10
-3.4040158782
 20
22.0800069921
 10
-3.4154515352
 20
22.0788832567
 10
-3.4270803897
 20
22.0779332113
 10
-3.4389183274
 20
22.0771636859
 10
-3.451086147
 20
22.0766032301
 10
-3.4636020668
 20
22.0762416913
 10
-3.4764478687
 20
22.0760892221
 10
-3.489689697
 20
22.0762048301
  0
LWPOLYLINE
  5
60C
100
AcDbEntity
  8
ASSI
100
AcDbPolyline
 62
7
  6
CONTINUOUS
 90
6
 70
0
 10
-0.0546896216
 20
23.1801831038
 10
-0.0651090284
 20
23.1791335898
 10
-0.0906459148
 20
23.175808563
 10
-0.1157114514
 20
23.1714185064
 10
-0.1403167224
 20
23.1658980325
 10
-0.1501057145
 20
23.1633347349
  0
LWPOLYLINE
  5
60D
100
AcDbEntity
  8
ASSI
100
AcDbPolyline
 62
250
  6
CONTINUOUS
 90
12
 70
0
 10
0.0003228365
 20
23.1598960177
 10
-0.0049352096
 20
23.159378362
 10
-0.0101326798
 20
23.1588030651
 10
-0.015269574
 20
23.158170127
 10
-0.0203242675
 20
23.1574847268
 10
-0.025318385
 20
23.1567416855
 10
-0.0303168009
 20
23.1559254651
 10
-0.0353323831
 20
23.1550376597
 10
-0.0403522636
 20
23.1540766753
 10
-0.0454027129
 20
23.1530221926
 10
-0.0504924878
 20
23.1518674382
 10
-0.0556128315
 20
23.1506191854
  0
LINE
  5
60E
100
AcDbEntity
  8
ASSI
100
AcDbLine
 62
250
  6
CONTINUOUS
 10
1.2850826697
 20
23.278854693
 11
0.0003228365
 21
23.1598960177
  0
LINE
  5
60F
100
AcDbEntity
  8
ASSI
100
AcDbLine
 62
7
  6
CONTINUOUS
 10
1.2153146719
 20
23.2977755395
 11
-0.0547192572
 21
23.1801803673
  0
LWPOLYLINE
  5
610
100
AcDbEntity
  8
RACCORDO
100
AcDbPolyline
 62
250
  6
CONTINUOUS
 90
5
 70
0
 10
-3.8661499807
 20
-29.6312638323
 10
-3.8457093034
 20
-29.618727132
 10
-3.8222624911
 20
-29.5985462413
 10
-3.8019292279
 20
-29.5739092197
 10
-3.784883045
 20
-29.5451118036
  0
LINE
  5
611
100
AcDbEntity
  8
0
100
AcDbLine
 62
7
  6
CONTINUOUS
 10
-2.7988085623
 20
-26.5779232901
 11
-2.9279042352
 21
-26.6524615137
  0
LWPOLYLINE
  5
612
100
AcDbEntity
  8
RACCORDO
100
AcDbPolyline
 62
7
  6
CONTINUOUS
 90
7
 70
0
 10
-3.5491010766
 20
24.115702445
 10
-3.5927191581
 20
24.1050592851
 10
-3.6286649353
 20
24.0968046545
 10
-3.6569972087
 20
24.0910598991
 10
-3.6775624903
 20
24.088073397
 10
-3.6906251949
 20
24.0878207083
 10
-3.6956734238
 20
24.0891188456
  0
LWPOLYLINE
  5
613
100
AcDbEntity
  8
RACCORDO
100
AcDbPolyline
 62
250
  6
CONTINUOUS
 90
3
 70
0
 10
-19.154458707
 20
21.9970761963
 10
-19.1858553426
 20
21.9914114849
 10
-19.2149046942
 20
21.98081331
  0
LINE
  5
614
100
AcDbEntity
  8
RACCORDO
100
AcDbLine
 62
250
  6
CONTINUOUS
 10
-3.7426120621
 20
-29.3918623094
 11
-3.7521093603
 21
-29.3967862395
  0
LINE
  5
615
100
AcDbEntity
  8
RACCORDO
100
AcDbLine
 62
7
  6
CONTINUOUS
 10
-3.8527279494
 20
-29.6243051014
 11
-3.8661499807
 21
-29.6312638323
  0
LINE
  5
616
100
AcDbEntity
  8
RACCORDO
100
AcDbLine
 62
250
  6
CONTINUOUS
 10
-3.7521093603
 20
-29.3967862395
 11
-3.7912140663
 21
-29.4161042593
  0
LINE
  5
617
100
AcDbEntity
  8
RACCORDO
100
AcDbLine
 62
250
  6
CONTINUOUS
 10
-3.7912140663
 20
-29.4161042593
 11
-3.833550823
 21
-29.4329990399
  0
LWPOLYLINE
  5
618
100
AcDbEntity
  8
RACCORDO
100
AcDbPolyline
 62
250
  6
CONTINUOUS
 90
14
 70
0
 10
-3.833550823
 20
-29.4329990399
 10
-3.8786710992
 20
-29.4472915918
 10
-3.9260968741
 20
-29.4588304943
 10
-3.9753257019
 20
-29.4674935002
 10
-4.025836034
 20
-29.4731888303
 10
-4.0770927454
 20
-29.4758561462
 10
-4.1285528039
 20
-29.4754671896
 10
-4.179671023
 20
-29.4720260811
 10
-4.2299058377
 20
-29.4655692771
 10
-4.278725042
 20
-29.4561651833
 10
-4.325611427
 20
-29.4439134302
 10
-4.3700682611
 20
-29.4289438174
 10
-4.4116245525
 20
-29.4114149384
 10
-4.4498400387
 20
-29.3915125007
  0
ARC
  5
619
100
AcDbEntity
  8
RACCORDO
100
AcDbCircle
 62
7
  6
CONTINUOUS
 10
-0.4698449172
 20
23.945267738
 40
1.0
100
AcDbArc
 50
64.1098273597
 51
118.269925631
  0
ARC
  5
61A
100
AcDbEntity
  8
RACCORDO
100
AcDbCircle
 62
7
  6
CONTINUOUS
 10
13.3475185699
 20
-10.8331083112
 40
1.0
100
AcDbArc
 50
301.7332683214
 51
329.2154166083
  0
ARC
  5
61B
100
AcDbEntity
  8
RACCORDO
100
AcDbCircle
 62
7
  6
CONTINUOUS
 10
-18.9645008165
 20
-0.1689917662
 40
0.5
100
AcDbArc
 50
122.583772633
 51
179.9999999998
  0
ARC
  5
61C
100
AcDbEntity
  8
RACCORDO
100
AcDbCircle
 62
7
  6
CONTINUOUS
 10
-4.0962866481
 20
-29.1873752041
 40
0.5
100
AcDbArc
 50
239.9970991862
 51
297.4038962755
  0
ARC
  5
61D
100
AcDbEntity
  8
RACCORDO
100
AcDbCircle
 62
7
  6
CONTINUOUS
 10
-18.9645008165
 20
-20.6026546858
 40
0.5
100
AcDbArc
 50
180.0000000002
 51
240.0143991376
  0
ARC
  5
61E
100
AcDbEntity
  8
RACCORDO
100
AcDbCircle
 62
7
  6
CONTINUOUS
 10
-4.0962866481
 20
-7.4692658414
 40
0.5
100
AcDbArc
 50
239.9970991862
 51
297.4038962755
  0
ARC
  5
61F
100
AcDbEntity
  8
RACCORDO
100
AcDbCircle
 62
7
  6
CONTINUOUS
 10
-18.9645008165
 20
1.1154546769
 40
0.5
100
AcDbArc
 50
180.0000000002
 51
240.0143991376
  0
ARC
  5
620
100
AcDbEntity
  8
RACCORDO
100
AcDbCircle
 62
7
  6
CONTINUOUS
 10
-18.9645008165
 20
21.5491175965
 40
0.5
100
AcDbArc
 50
122.5837726329
 51
179.9999999998
  0
ARC
  5
621
100
AcDbEntity
  8
ASSI
100
AcDbCircle
 62
7
  6
CONTINUOUS
 10
-0.2143183998
 20
20.8507659879
 40
0.25
100
AcDbArc
 50
121.733268332
 51
141.921904304
  0
ARC
  5
622
100
AcDbEntity
  8
ASSI
100
AcDbCircle
 62
7
  6
CONTINUOUS
 10
-6.8139459529
 20
16.561244219
 40
0.2
100
AcDbArc
 50
18.5045349449
 51
59.9984015651
  0
ARC
  5
623
100
AcDbEntity
  8
ASSI
100
AcDbCircle
 62
7
  6
CONTINUOUS
 10
-8.0297360904
 20
20.4038919018
 40
0.2
100
AcDbArc
 50
119.0851102635
 51
154.7491242767
  0
ARC
  5
624
100
AcDbEntity
  8
ASSI
100
AcDbCircle
 62
7
  6
CONTINUOUS
 10
-10.6655987525
 20
18.7851402729
 40
0.2
100
AcDbArc
 50
59.9984015652
 51
119.137102911
  0
ARC
  5
625
100
AcDbEntity
  8
ASSI
100
AcDbCircle
 62
7
  6
CONTINUOUS
 10
-12.1967484083
 20
21.3397782925
 40
0.2
100
AcDbArc
 50
59.9984015652
 51
118.2652518899
  0
ARC
  5
626
100
AcDbEntity
  8
ASSI
100
AcDbCircle
 62
7
  6
CONTINUOUS
 10
-1.5302295446
 20
14.8117529939
 40
0.2
100
AcDbArc
 50
315.7312263277
 51
0.0244861589
  0
ARC
  5
627
100
AcDbEntity
  8
ASSI
100
AcDbCircle
 62
7
  6
CONTINUOUS
 10
-1.5302295446
 20
15.1810639835
 40
0.2
100
AcDbArc
 50
359.9930983179
 51
59.9984015652
  0
ARC
  5
628
100
AcDbEntity
  8
ASSI
100
AcDbCircle
 62
7
  6
CONTINUOUS
 10
-1.5302295446
 20
-23.2195002786
 40
0.2
100
AcDbArc
 50
0.0059059372
 51
59.9971610135
  0
ARC
  5
629
100
AcDbEntity
  8
ASSI
100
AcDbCircle
 62
7
  6
CONTINUOUS
 10
-1.5302295446
 20
-23.5888112682
 40
0.2
100
AcDbArc
 50
301.7357595473
 51
0.0034115392
  0
ARC
  5
62A
100
AcDbEntity
  8
ASSI
100
AcDbCircle
 62
7
  6
CONTINUOUS
 10
-10.6880584347
 20
20.46867961
 40
0.2
100
AcDbArc
 50
0.0114213296
 51
59.9984015652
  0
ARC
  5
62B
100
AcDbEntity
  8
ASSI
100
AcDbCircle
 62
7
  6
CONTINUOUS
 10
-10.6880584347
 20
20.0993686205
 40
0.2
100
AcDbArc
 50
315.7300103973
 51
0.0272099538
  0
ARC
  5
62C
100
AcDbEntity
  8
ASSI
100
AcDbCircle
 62
7
  6
CONTINUOUS
 10
-3.0389195182
 20
16.0521626659
 40
0.2
100
AcDbArc
 50
59.9984015652
 51
118.2652518899
  0
ELLIPSE
  5
62D
100
AcDbEntity
  8
RACCORDO
100
AcDbEllipse
 62
7
  6
CONTINUOUS
 10
-4.0962866481
 20
-8.7537122845
 30
0.0
 11
-0.2500121049
 21
0.4330057129
 31
0.0
 40
0.5777274115
 41
-2.3559002616
 42
-0.7857891675
  0
ELLIPSE
  5
62E
100
AcDbEntity
  8
RACCORDO
100
AcDbEllipse
 62
7
  6
CONTINUOUS
 10
-18.9645008165
 20
-0.1689917662
 30
0.0
 11
-0.2501834304
 21
0.4333025529
 31
0.0
 40
0.5769361983
 41
5.4980815048
 42
6.3093462571
  0
ELLIPSE
  5
62F
100
AcDbEntity
  8
RACCORDO
100
AcDbEllipse
 62
7
  6
CONTINUOUS
 10
-3.0811131239
 20
-9.9283572261
 30
0.0
 11
0.1999735036
 21
0.0058456543
 31
0.0
 40
0.5568983954
 41
-0.7144095971
 42
-0.0162776696
  0
ELLIPSE
  5
630
100
AcDbEntity
  8
RACCORDO
100
AcDbEllipse
 62
7
  6
CONTINUOUS
 10
-3.0811131239
 20
-19.3994124369
 30
0.0
 11
0.1999735036
 21
0.0058456543
 31
0.0
 40
0.5568983954
 41
-0.7144095971
 42
-0.0162776696
  0
ELLIPSE
  5
631
100
AcDbEntity
  8
RACCORDO
100
AcDbEllipse
 62
7
  6
CONTINUOUS
 10
-4.0962866481
 20
-29.1873752041
 30
0.0
 11
-0.2501834304
 21
0.4333025529
 31
0.0
 40
0.5769361983
 41
3.1154316989
 42
3.9265999453
  0
ELLIPSE
  5
632
100
AcDbEntity
  8
RACCORDO
100
AcDbEllipse
 62
7
  6
CONTINUOUS
 10
-3.0811131239
 20
-20.3669430471
 30
0.0
 11
0.1999649683
 21
-0.0062682032
 31
0.0
 40
0.5971709375
 41
-0.6794146642
 42
0.8041152
  0
ELLIPSE
  5
633
100
AcDbEntity
  8
RACCORDO
100
AcDbEllipse
 62
7
  6
CONTINUOUS
 10
-3.0811131239
 20
-10.8958878363
 30
0.0
 11
0.1999649683
 21
-0.0062682032
 31
0.0
 40
0.5971709375
 41
-0.6794146642
 42
0.8041152
  0
ELLIPSE
  5
634
100
AcDbEntity
  8
RACCORDO
100
AcDbEllipse
 62
7
  6
CONTINUOUS
 10
-18.9645008165
 20
21.5491175965
 30
0.0
 11
-0.2501834304
 21
0.4333025529
 31
0.0
 40
0.5769361983
 41
5.4980815048
 42
6.3093462571
  0
ELLIPSE
  5
635
100
AcDbEntity
  8
RACCORDO
100
AcDbEllipse
 62
7
  6
CONTINUOUS
 10
-4.0962866481
 20
12.9643970781
 30
0.0
 11
-0.2500121049
 21
0.4330057129
 31
0.0
 40
0.5777274115
 41
-2.3559002616
 42
-0.7857891675
  0
ELLIPSE
  5
636
100
AcDbEntity
  8
RACCORDO
100
AcDbEllipse
 62
7
  6
CONTINUOUS
 10
-3.0811131239
 20
-4.376359344
 30
0.0
 11
0.1999735036
 21
0.0058456543
 31
0.0
 40
0.5568983954
 41
-0.7144095971
 42
-0.0162776696
  0
ELLIPSE
  5
637
100
AcDbEntity
  8
RACCORDO
100
AcDbEllipse
 62
7
  6
CONTINUOUS
 10
-3.0811131239
 20
5.0946958668
 30
0.0
 11
0.1999735036
 21
0.0058456543
 31
0.0
 40
0.5568983954
 41
-0.7144095971
 42
-0.0162776696
  0
ELLIPSE
  5
638
100
AcDbEntity
  8
RACCORDO
100
AcDbEllipse
 62
7
  6
CONTINUOUS
 10
-4.0962866481
 20
-7.4692658414
 30
0.0
 11
-0.2501834304
 21
0.4333025529
 31
0.0
 40
0.5769361983
 41
3.1154316989
 42
3.9265999453
  0
ELLIPSE
  5
639
100
AcDbEntity
  8
0
100
AcDbEllipse
 62
7
  6
CONTINUOUS
 10
-3.5826678926
 20
11.0173984659
 30
0.0
 11
1.6216972704
 21
0.6142958553
 31
0.0
 40
0.0894575453
 41
0.4221588036
 42
0.8841932512
  0
ELLIPSE
  5
63A
100
AcDbEntity
  8
0
100
AcDbEllipse
 62
7
  6
CONTINUOUS
 10
-3.3292902852
 20
11.1352152363
 30
0.0
 11
0.7543030225
 21
0.5019000099
 31
0.0
 40
0.162624222
 41
-0.435896287
 42
0.0804096903
  0
ELLIPSE
  5
63B
100
AcDbEntity
  8
0
100
AcDbEllipse
 62
7
  6
CONTINUOUS
 10
-3.5826678926
 20
8.6182151499
 30
0.0
 11
1.6206243515
 21
1.2714150084
 31
0.0
 40
0.0634049813
 41
-0.709222322
 42
-0.5057337826
  0
ELLIPSE
  5
63C
100
AcDbEntity
  8
RACCORDO
100
AcDbEllipse
 62
7
  6
CONTINUOUS
 10
-3.0811131239
 20
4.1271652567
 30
0.0
 11
0.1999649683
 21
-0.0062682032
 31
0.0
 40
0.5971709375
 41
-0.6794146642
 42
0.8041152
  0
ELLIPSE
  5
63D
100
AcDbEntity
  8
RACCORDO
100
AcDbEllipse
 62
7
  6
CONTINUOUS
 10
-3.0811131239
 20
-5.3438899541
 30
0.0
 11
0.1999649683
 21
-0.0062682032
 31
0.0
 40
0.5971709375
 41
-0.6794146642
 42
0.8041152
  0
ELLIPSE
  5
63E
100
AcDbEntity
  8
ASSI
100
AcDbEllipse
 62
7
  6
CONTINUOUS
 10
7.2079359692
 20
19.3916436172
 30
0.0
 11
2.7498876954
 21
0.042311774
 31
0.0
 40
0.5873737521
 41
2.6423338625
 42
2.9681910929
  0
ELLIPSE
  5
63F
100
AcDbEntity
  8
ASSI
100
AcDbEllipse
 62
7
  6
CONTINUOUS
 10
4.4945037995
 20
21.2567207103
 30
0.0
 11
-0.0997443216
 21
0.1733547677
 31
0.0
 40
0.6165007174
 41
-2.2349887316
 42
-0.8165063841
  0
ELLIPSE
  5
640
100
AcDbEntity
  8
ASSI
100
AcDbEllipse
 62
7
  6
CONTINUOUS
 10
1.2946654083
 20
23.1042672939
 30
0.0
 11
-0.1065746657
 21
0.1850801844
 31
0.0
 40
0.5406488238
 41
-0.7513003416
 42
-0.2431306586
  0
ELLIPSE
  5
641
100
AcDbEntity
  8
ASSI
100
AcDbEllipse
 62
7
  6
CONTINUOUS
 10
-11.1307781508
 20
18.5258017236
 30
0.0
 11
-0.1000355301
 21
0.1732022922
 31
0.0
 40
0.5773316472
 41
-0.7855999596
 42
0.6979432296
  0
ELLIPSE
  5
642
100
AcDbEntity
  8
ASSI
100
AcDbEllipse
 62
7
  6
CONTINUOUS
 10
-7.263104558
 20
16.2926554645
 30
0.0
 11
-0.1000355301
 21
0.1732022922
 31
0.0
 40
0.5773316472
 41
-2.2691431487
 42
-0.7855999596
  0
ELLIPSE
  5
643
100
AcDbEntity
  8
RACCORDO
100
AcDbEllipse
 62
7
  6
CONTINUOUS
 10
0.1877675135
 20
22.0758609556
 30
0.0
 11
0.3
 21
-0.0
 31
0.0
 40
0.5789711334
 41
0.7867676913
 42
2.3548249623
  0
ELLIPSE
  5
644
100
AcDbEntity
  8
ASSI
100
AcDbEllipse
 62
7
  6
CONTINUOUS
 10
-2.8008634402
 20
20.4320298767
 30
0.0
 11
0.3652263551
 21
0.1644105368
 31
0.0
 40
0.3407407308
 41
1.8589059539
 42
3.382251992
  0
ELLIPSE
  5
645
100
AcDbEntity
  8
ASSI
100
AcDbEllipse
 62
7
  6
CONTINUOUS
 10
3.4814445524
 20
20.5081429195
 30
0.0
 11
0.5013109713
 21
-0.0090323087
 31
0.0
 40
0.5663187271
 41
-0.7565983455
 42
-0.4971873728
  0
ELLIPSE
  5
646
100
AcDbEntity
  8
ASSI
100
AcDbEllipse
 62
7
  6
CONTINUOUS
 10
0.781136361
 20
22.8272995788
 30
0.0
 11
0.5676866739
 21
0.2973089125
 31
0.0
 40
0.2173140806
 41
-1.383402197
 42
0.1368199214
  0
ELLIPSE
  5
647
100
AcDbEntity
  8
ASSI
100
AcDbEllipse
 62
7
  6
CONTINUOUS
 10
3.6513166805
 20
21.1700934341
 30
0.0
 11
0.5532910611
 21
0.3058874341
 31
0.0
 40
0.2232744126
 41
0.1336855848
 42
0.7571904236
  0
ELLIPSE
  5
648
100
AcDbEntity
  8
ASSI
100
AcDbEllipse
 62
7
  6
CONTINUOUS
 10
-0.8444748997
 20
16.5763805453
 30
0.0
 11
0.6999072626
 21
-0.02045979
 31
0.0
 40
0.5568983954
 41
5.6013315027
 42
7.0848613669
  0
ELLIPSE
  5
649
100
AcDbEntity
  8
ASSI
100
AcDbEllipse
 62
7
  6
CONTINUOUS
 10
-1.2565074484
 20
16.1151105664
 30
0.0
 11
-0.100004872
 21
0.1732022678
 31
0.0
 40
0.5789151826
 41
-2.3548735497
 42
-0.7868162787
  0
ELLIPSE
  5
64A
100
AcDbEntity
  8
DRAFT
100
AcDbEllipse
 62
7
  6
CONTINUOUS
 10
7.5614893597
 20
15.9400989554
 30
0.0
 11
2.7499023305
 21
-0.0408603024
 31
0.0
 40
0.5672251703
 41
0.1408821785
 42
1.50073571
  0
ELLIPSE
  5
64B
100
AcDbEntity
  8
ASSI
100
AcDbEllipse
 62
7
  6
CONTINUOUS
 10
0.525803815
 20
21.3084686676
 30
0.0
 11
-0.1250441155
 21
0.2165688207
 31
0.0
 40
0.5771558487
 41
-0.7852941622
 42
0.0174472731
  0
ELLIPSE
  5
64C
100
AcDbEntity
  8
RACCORDO
100
AcDbEllipse
 62
7
  6
CONTINUOUS
 10
11.8741959185
 20
16.8179732667
 30
0.0
 11
1.0130980814
 21
0.5697436012
 31
0.0
 40
0.0111953669
 41
0.0485691797
 42
0.7746261485
  0
ELLIPSE
  5
64D
100
AcDbEntity
  8
RACCORDO
100
AcDbEllipse
 62
7
  6
CONTINUOUS
 10
4.3788640379
 20
21.145683956
 30
0.0
 11
1.0130980814
 21
0.5697436012
 31
0.0
 40
0.0111953669
 41
0.0485691797
 42
0.7746261485
  0
ELLIPSE
  5
64E
100
AcDbEntity
  8
DRAFT
100
AcDbEllipse
 62
7
  6
CONTINUOUS
 10
2.8698327653
 20
17.3116399933
 30
0.0
 11
0.3999857935
 21
-0.0059433167
 31
0.0
 40
0.5672251703
 41
2.4169824646
 42
3.9354189138
  0
ELLIPSE
  5
64F
100
AcDbEntity
  8
DRAFT
100
AcDbEllipse
 62
7
  6
CONTINUOUS
 10
-5.5659449317
 20
22.1823523104
 30
0.0
 11
0.3999857935
 21
-0.0059433167
 31
0.0
 40
0.5672251703
 41
-2.3477663933
 42
-0.8293299441
  0
ELLIPSE
  5
650
100
AcDbEntity
  8
ASSI
100
AcDbEllipse
 62
7
  6
CONTINUOUS
 10
7.2079359692
 20
18.4484132292
 30
0.0
 11
2.7402874452
 21
-0.6606281007
 31
0.0
 40
0.349548336
 41
2.7986105654
 42
2.8692489345
  0
ELLIPSE
  5
651
100
AcDbEntity
  8
RACCORDO
100
AcDbEllipse
 62
7
  6
CONTINUOUS
 10
8.4988096148
 20
18.7668790149
 30
0.0
 11
-0.6935120037
 21
1.2326081262
 31
0.0
 40
0.5696890978
 41
-0.7240774234
 42
0.0019795454
  0
ELLIPSE
  5
652
100
AcDbEntity
  8
RACCORDO
100
AcDbEllipse
 62
7
  6
CONTINUOUS
 10
1.0034777342
 20
23.0945897042
 30
0.0
 11
-0.6935120037
 21
1.2326081262
 31
0.0
 40
0.5696890978
 41
-0.7240774234
 42
0.0019795454
  0
ENDSEC
  0
SECTION
  2
OBJECTS
  0
DICTIONARY
  5
C
100
AcDbDictionary
280
0
281
1
  3
ACAD_GROUP
350
D
  3
ACAD_MLINESTYLE
350
17
  3
ACAD_LAYOUT
350
1A
  3
ACAD_PLOTSETTINGS
350
19
  3
ACAD_PLOTSTYLENAME
350
E
  0
DICTIONARY
  5
D
102
{ACAD_REACTORS
330
C
102
}
100
AcDbDictionary
280
0
281
1
  0
ACDBDICTIONARYWDFLT
  5
E
102
{ACAD_REACTORS
330
C
102
}
100
AcDbDictionary
281
1
  3
Normal
350
F
100
AcDbDictionaryWithDefault
340
F
  0
DICTIONARY
  5
17
102
{ACAD_REACTORS
330
C
102
}
100
AcDbDictionary
280
0
281
1
  3
Standard
350
18
  0
DICTIONARY
  5
19
102
{ACAD_REACTORS
330
C
102
}
100
AcDbDictionary
281
1
  0
DICTIONARY
  5
1A
102
{ACAD_REACTORS
330
C
102
}
100
AcDbDictionary
281
1
  3
Model
350
653
  3
Layout1
350
654
  0
ACDBPLACEHOLDER
  5
F
102
{ACAD_REACTORS
330
E
102
}
  0
MLINESTYLE
  5
18
102
{ACAD_REACTORS
330
17
102
}
100
AcDbMlineStyle
  2
STANDARD
 70
0
  3

 62
256
 51
90.0
 52
90.0
 71
2
 49
0.5
 62
256
  6
BYLAYER
 49
-0.5
 62
256
  6
BYLAYER
  0
LAYOUT
  5
653
102
{ACAD_REACTORS
330
1A
102
}
100
AcDbPlotSettings
  1

  2
none_device
  4
ISO_A4_(297.00_x_210.00_MM)
  6

 40
0.0
 41
0.0
 42
0.0
 43
0.0
 44
297.0
 45
210.0
 46
0.0
 47
0.0
 48
0.0
 49
0.0
140
0.0
141
0.0
142
1.0
143
1.0
 70
1024
 72
1
 73
0
 74
0
  7

 75
0
147
1.0
148
0.0
149
0.0
100
AcDbLayout
  1
Model
 70
0
 71
0
 10
0.0
 20
0.0
 11
297.0
 21
210.0
 12
0.0
 22
0.0
 32
0.0
 14
0.0
 24
0.0
 34
0.0
 15
0.0
 25
0.0
 35
0.0
146
0.0
 13
0.0
 23
0.0
 33
0.0
 16
1.0
 26
0.0
 36
0.0
 17
0.0
 27
1.0
 37
0.0
 76
0
330
21C
345
0
346
0
  0
LAYOUT
  5
654
102
{ACAD_REACTORS
330
1A
102
}
100
AcDbPlotSettings
  1

  2
none_device
  4
ISO_A4_(297.00_x_210.00_MM)
  6

 40
0.0
 41
0.0
 42
0.0
 43
0.0
 44
297.0
 45
210.0
 46
0.0
 47
0.0
 48
0.0
 49
0.0
140
0.0
141
0.0
142
1.0
143
1.0
 70
0
 72
1
 73
0
 74
0
  7

 75
0
147
1.0
148
0.0
149
0.0
100
AcDbLayout
  1
Layout1
 70
0
 71
1
 10
0.0
 20
0.0
 11
297.0
 21
210.0
 12
0.0
 22
0.0
 32
0.0
 14
0.0
 24
0.0
 34
0.0
 15
0.0
 25
0.0
 35
0.0
146
0.0
 13
0.0
 23
0.0
 33
0.0
 16
1.0
 26
0.0
 36
0.0
 17
0.0
 27
1.0
 37
0.0
 76
0
330
21D
345
0
346
0
  0
ENDSEC
  0
EOF
