  0
SECTION
  2
HEADER
  9
$ACADVER
  1
AC1024
  9
$DWGCODEPAGE
  3
ANSI_1252
  9
$EXTMAX
 10
297.0
 20
210.0
 30
0.0
  9
$EXTMIN
 10
0.0
 20
0.0
 30
0.0
  9
$LIMMIN
 10
0.0
 20
0.0
  9
$LIMMAX
 10
297.0
 20
210.0
  9
$VIEWCTR
 10
148.5
 20
105.0
  9
$VIEWSIZE
 40
210.0
  9
$CLAYER
  8
0
  9
$LTSCALE
 40
16.335
  9
$CELTYPE
  6
BYLAYER
  9
$DIMSCALE
 40
1.0
  9
$DIMASZ
 40
3.0
  9
$DIMEXO
 40
0.5
  9
$DIMDLI
 40
11.286
  9
$DIMEXE
 40
1.5
  9
$DIMCEN
 40
2.673
  9
$DIMLFAC
 40
1.0
  9
$DIMBLK
  1
_FILLED
  9
$DIMALT
 70
0
  9
$DIMALTF
 40
0.0393700787
  9
$DIMTXT
 40
3.0
  9
$DIMTOL
 70
1
  9
$DIMLIM
 70
0
  9
$DIMTFAC
 40
1.0
  9
$DIMTP
 40
0.01
  9
$DIMTM
 40
0.01
  9
$DIMGAP
 40
0.625
  9
$DIMDSEP
 70
44
  9
$AUNITS
 70
0
  9
$PDMODE
 70
3
  9
$PDSIZE
 40
3.0
  9
$HANDSEED
  5
605
  9
$TILEMODE
 70
1
  9
$MEASUREMENT
 70
1
  9
$INSUNITS
 70
4
  0
ENDSEC
  0
SECTION
  2
CLASSES
  0
CLASS
  1
ACDBDICTIONARYWDFLT
  2
AcDbDictionaryWithDefault
  3
AutoCAD 2000
 90
0
 91
1
280
0
281
0
  0
CLASS
  1
ACDBPLACEHOLDER
  2
AcDbPlaceHolder
  3
AutoCAD 2000
 90
0
 91
1
280
0
281
0
  0
CLASS
  1
LAYOUT
  2
AcDbLayout
  3
AutoCAD 2000
 90
0
 91
0
280
0
281
0
  0
ENDSEC
  0
SECTION
  2
TABLES
  0
TABLE
  2
VPORT
  5
8
100
AcDbSymbolTable
 70
2
  0
VPORT
  5
1F4
100
AcDbSymbolTableRecord
100
AcDbViewportTableRecord
  2
*ACTIVE
 70
0
 10
0.0
 20
0.0
 11
1.0
 21
1.0
 12
148.5
 22
105.0
 13
0.0
 23
0.0
 14
1.0
 24
1.0
 15
0.0
 25
0.0
 16
0.0
 26
0.0
 36
1.0
 17
0.0
 27
0.0
 37
0.0
 40
210.0
 41
1.4142857143
 42
50.0
 43
0.0
 44
0.0
 50
0.0
 51
0.0
 71
0
 72
100
 73
1
 74
1
 75
0
 76
0
 77
0
 78
0
  0
ENDTAB
  0
TABLE
  2
LTYPE
  5
5
100
AcDbSymbolTable
 70
6
  0
LTYPE
  5
14
100
AcDbSymbolTableRecord
100
AcDbLinetypeTableRecord
  2
BYBLOCK
 70
0
  3

 72
65
 73
0
 40
0.0
  0
LTYPE
  5
15
100
AcDbSymbolTableRecord
100
AcDbLinetypeTableRecord
  2
BYLAYER
 70
0
  3

 72
65
 73
0
 40
0.0
  0
LTYPE
  5
16
100
AcDbSymbolTableRecord
100
AcDbLinetypeTableRecord
  2
CONTINUOUS
 70
64
  3
Solid line
 72
65
 73
0
 40
0.0
  0
LTYPE
  5
1F5
100
AcDbSymbolTableRecord
100
AcDbLinetypeTableRecord
  2
CENTER
 70
64
  3
____ _ ____ _ ____ _ ____ _ ____ _ ____ _ ____
 72
65
 73
4
 40
0.6
 49
0.375
 74
0
 49
-0.075
 74
0
 49
0.075
 74
0
 49
-0.075
 74
0
  0
LTYPE
  5
1F6
100
AcDbSymbolTableRecord
100
AcDbLinetypeTableRecord
  2
HIDDEN
 70
64
  3
- - - - - - - - - - - - - - - - - - - -
 72
65
 73
2
 40
0.2
 49
0.1
 74
0
 49
-0.1
 74
0
  0
LTYPE
  5
1F7
100
AcDbSymbolTableRecord
100
AcDbLinetypeTableRecord
  2
PHANTOM
 70
64
  3
_____ _ _ _____ _ _ _____ _ _ _____
 72
65
 73
6
 40
0.8
 49
0.45
 74
0
 49
-0.05
 74
0
 49
0.1
 74
0
 49
-0.05
 74
0
 49
0.1
 74
0
 49
-0.05
 74
0
  0
LTYPE
  5
1F8
100
AcDbSymbolTableRecord
100
AcDbLinetypeTableRecord
  2
DOT
 70
64
  3
. . . . . . . . . . . . . . . . . . . .
 72
65
 73
2
 40
0.2
 49
0.1
 74
0
 49
-0.1
 74
0
  0
LTYPE
  5
1F9
100
AcDbSymbolTableRecord
100
AcDbLinetypeTableRecord
  2
DASHED
 70
64
  3
- - - - - - - - - - - - - - - - - - - -
 72
65
 73
2
 40
0.2
 49
0.1
 74
0
 49
-0.1
 74
0
  0
ENDTAB
  0
TABLE
  2
LAYER
  5
2
100
AcDbSymbolTable
 70
36
  0
LAYER
  5
10
100
AcDbSymbolTableRecord
100
AcDbLayerTableRecord
  2
0
 70
0
 62
7
  6
CONTINUOUS
370
-3
390
F
  0
LAYER
  5
1FA
100
AcDbSymbolTableRecord
100
AcDbLayerTableRecord
  2
DEFAULT_1
 70
0
 62
7
  6
CENTER
370
-3
390
F
  0
LAYER
  5
1FB
100
AcDbSymbolTableRecord
100
AcDbLayerTableRecord
  2
DEFAULT_2
 70
0
 62
7
  6
HIDDEN
370
-3
390
F
  0
LAYER
  5
1FC
100
AcDbSymbolTableRecord
100
AcDbLayerTableRecord
  2
DEFAULT_3
 70
0
 62
7
  6
PHANTOM
370
-3
390
F
  0
LAYER
  5
1FD
100
AcDbSymbolTableRecord
100
AcDbLayerTableRecord
  2
ASSI
 70
0
 62
7
  6
CONTINUOUS
370
-3
390
F
  0
LAYER
  5
1FE
100
AcDbSymbolTableRecord
100
AcDbLayerTableRecord
  2
COORDINATE
 70
0
 62
7
  6
CONTINUOUS
370
-3
390
F
  0
LAYER
  5
1FF
100
AcDbSymbolTableRecord
100
AcDbLayerTableRecord
  2
COPY_PUBLISH
 70
0
 62
7
  6
CONTINUOUS
370
-3
390
F
  0
LAYER
  5
200
100
AcDbSymbolTableRecord
100
AcDbLayerTableRecord
  2
COSMETIC
 70
0
 62
7
  6
CONTINUOUS
370
-3
390
F
  0
LAYER
  5
201
100
AcDbSymbolTableRecord
100
AcDbLayerTableRecord
  2
COSMETICI
 70
0
 62
7
  6
CONTINUOUS
370
-3
390
F
  0
LAYER
  5
202
100
AcDbSymbolTableRecord
100
AcDbLayerTableRecord
  2
CURVE
 70
0
 62
7
  6
CONTINUOUS
370
-3
390
F
  0
LAYER
  5
203
100
AcDbSymbolTableRecord
100
AcDbLayerTableRecord
  2
DRAFT
 70
0
 62
7
  6
CONTINUOUS
370
-3
390
F
  0
LAYER
  5
204
100
AcDbSymbolTableRecord
100
AcDbLayerTableRecord
  2
IMPORT_IGES
 70
0
 62
7
  6
CONTINUOUS
370
-3
390
F
  0
LAYER
  5
205
100
AcDbSymbolTableRecord
100
AcDbLayerTableRecord
  2
INTF_11
 70
0
 62
7
  6
CONTINUOUS
370
-3
390
F
  0
LAYER
  5
206
100
AcDbSymbolTableRecord
100
AcDbLayerTableRecord
  2
INTF_8
 70
0
 62
7
  6
CONTINUOUS
370
-3
390
F
  0
LAYER
  5
207
100
AcDbSymbolTableRecord
100
AcDbLayerTableRecord
  2
INTF_9
 70
0
 62
7
  6
CONTINUOUS
370
-3
390
F
  0
LAYER
  5
208
100
AcDbSymbolTableRecord
100
AcDbLayerTableRecord
  2
NOTE
 70
0
 62
7
  6
CONTINUOUS
370
-3
390
F
  0
LAYER
  5
209
100
AcDbSymbolTableRecord
100
AcDbLayerTableRecord
  2
PIANI
 70
0
 62
7
  6
CONTINUOUS
370
-3
390
F
  0
LAYER
  5
20A
100
AcDbSymbolTableRecord
100
AcDbLayerTableRecord
  2
PUNTI
 70
0
 62
7
  6
CONTINUOUS
370
-3
390
F
  0
LAYER
  5
20B
100
AcDbSymbolTableRecord
100
AcDbLayerTableRecord
  2
RACCORDO
 70
0
 62
7
  6
CONTINUOUS
370
-3
390
F
  0
LAYER
  5
20C
100
AcDbSymbolTableRecord
100
AcDbLayerTableRecord
  2
SIMBOLI
 70
0
 62
7
  6
CONTINUOUS
370
-3
390
F
  0
LAYER
  5
20D
100
AcDbSymbolTableRecord
100
AcDbLayerTableRecord
  2
SMUSSO
 70
0
 62
7
  6
CONTINUOUS
370
-3
390
F
  0
LAYER
  5
20E
100
AcDbSymbolTableRecord
100
AcDbLayerTableRecord
  2
SUPERFICI
 70
0
 62
7
  6
CONTINUOUS
370
-3
390
F
  0
LAYER
  5
20F
100
AcDbSymbolTableRecord
100
AcDbLayerTableRecord
  2
TRASH
 70
0
 62
7
  6
CONTINUOUS
370
-3
390
F
  0
LAYER
  5
210
100
AcDbSymbolTableRecord
100
AcDbLayerTableRecord
  2
___SHELL
 70
0
 62
7
  6
CONTINUOUS
370
-3
390
F
  0
ENDTAB
  0
TABLE
  2
STYLE
  5
3
100
AcDbSymbolTable
 70
1
  0
STYLE
  5
11
100
AcDbSymbolTableRecord
100
AcDbTextStyleTableRecord
  2
STANDARD
 70
0
 40
0.0
 41
0.8
 50
0.0
 71
0
 42
0.2
  3
txt
  4

  0
STYLE
  5
211
100
AcDbSymbolTableRecord
100
AcDbTextStyleTableRecord
  2
TEXTSTYLE_1
 70
0
 40
0.0
 41
0.8
 50
0.0
 71
0
 42
0.2
  3
gdt
  4

  0
ENDTAB
  0
TABLE
  2
VIEW
  5
6
100
AcDbSymbolTable
 70
0
  0
ENDTAB
  0
TABLE
  2
UCS
  5
7
100
AcDbSymbolTable
 70
0
  0
ENDTAB
  0
TABLE
  2
APPID
  5
9
100
AcDbSymbolTable
 70
1
  0
APPID
  5
212
100
AcDbSymbolTableRecord
100
AcDbRegAppTableRecord
  2
ACAD
 70
0
  0
ENDTAB
  0
TABLE
  2
BLOCK_RECORD
  5
1
100
AcDbSymbolTable
 70
0
  0
BLOCK_RECORD
  5
213
100
AcDbSymbolTableRecord
100
AcDbBlockTableRecord
  2
*Model_Space
  0
BLOCK_RECORD
  5
214
100
AcDbSymbolTableRecord
100
AcDbBlockTableRecord
  2
*Paper_Space
  0
BLOCK_RECORD
  5
215
100
AcDbSymbolTableRecord
100
AcDbBlockTableRecord
  2
_FILLED
  0
ENDTAB
  0
TABLE
  2
DIMSTYLE
  5
A
100
AcDbSymbolTable
 70
1
100
AcDbDimStyleTable
 71
0
  0
DIMSTYLE
105
216
100
AcDbSymbolTableRecord
100
AcDbDimStyleTableRecord
  2
STANDARD
 70
0
  3

  4

 40
1.0
 41
3.0
 42
0.5
 43
0.38
 44
1.5
 45
0.0
 46
0.0
 47
0.01
 48
0.01
140
3.0
141
0.09
142
0.0
143
25.4
144
1.0
145
0.0
146
1.0
147
0.625
 71
1
 72
0
 73
0
 74
0
 75
0
 76
0
 77
1
 78
8
 79
2
170
0
171
1
172
0
173
0
174
0
175
0
176
0
177
0
178
0
270
2
179
2
271
2
272
2
273
2
274
2
275
0
280
0
281
0
282
0
283
1
284
8
285
0
286
0
287
3
288
0
340
11
278
44
341
215
342
215
343
215
344
215
  0
ENDTAB
  0
ENDSEC
  0
SECTION
  2
BLOCKS
  0
BLOCK
  5
20
100
AcDbEntity
  8
0
100
AcDbBlockBegin
  2
*Model_Space
 70
0
 10
0.0
 20
0.0
 30
0.0
  3
*Model_Space
  1

  0
ENDBLK
  5
21
100
AcDbEntity
  8
0
100
AcDbBlockEnd
  0
BLOCK
  5
1C
100
AcDbEntity
  8
0
100
AcDbBlockBegin
  2
*Paper_Space
 70
0
 10
0.0
 20
0.0
 30
0.0
  3
*Paper_Space
  1

  0
ENDBLK
  5
1D
100
AcDbEntity
  8
0
100
AcDbBlockEnd
  0
BLOCK
  5
217
100
AcDbEntity
  8
0
100
AcDbBlockBegin
  2
_FILLED
 70
64
 10
0.0
 20
0.0
  3
_FILLED
  1

  0
SOLID
  5
218
100
AcDbEntity
  8
0
  6
BYBLOCK
 62
0
100
AcDbTrace
 10
0.0
 20
0.0
 11
-1.0
 21
0.3166666667
 12
-1.0
 22
-0.3166666667
 13
-1.0
 23
-0.3166666667
  0
ENDBLK
  5
219
100
AcDbEntity
  8
0
  6
BYBLOCK
 62
0
100
AcDbBlockEnd
  0
ENDSEC
  0
SECTION
  2
ENTITIES
  0
LWPOLYLINE
  5
21A
100
AcDbEntity
  8
SUPERFICI
100
AcDbPolyline
 62
250
  6
CONTINUOUS
 90
9
 70
0
 10
126.9950175223
 20
123.380560786
 10
127.0155194696
 20
123.3917337691
 10
127.044516895
 20
123.4020122266
 10
127.0759761751
 20
123.4074317315
 10
127.1095114107
 20
123.4079144699
 10
127.1446132134
 20
123.4034819297
 10
127.1808322208
 20
123.3942547638
 10
127.2178083696
 20
123.380386052
 10
127.2551365236
 20
123.362078825
  0
LINE
  5
21B
100
AcDbEntity
  8
SUPERFICI
100
AcDbLine
 62
7
  6
CONTINUOUS
 10
126.9950175223
 20
123.380560786
 11
129.2801032992
 21
124.8418466491
  0
LINE
  5
21C
100
AcDbEntity
  8
SUPERFICI
100
AcDbLine
 62
250
  6
CONTINUOUS
 10
127.2551365236
 20
123.362078825
 11
129.5364979
 21
124.8209829771
  0
LINE
  5
21D
100
AcDbEntity
  8
ASSI
100
AcDbLine
 62
250
  6
CONTINUOUS
 10
133.9227575134
 20
122.9387371366
 11
133.9189047916
 21
122.9368228712
  0
LINE
  5
21E
100
AcDbEntity
  8
ASSI
100
AcDbLine
 62
250
  6
CONTINUOUS
 10
134.5501190485
 20
121.4701301873
 11
135.5433019972
 21
122.0435835433
  0
LINE
  5
21F
100
AcDbEntity
  8
ASSI
100
AcDbLine
 62
250
  6
CONTINUOUS
 10
134.6345555264
 20
121.1923284891
 11
135.6847018142
 21
121.7986718762
  0
LINE
  5
220
100
AcDbEntity
  8
0
100
AcDbLine
 62
7
  6
CONTINUOUS
 10
139.8276772631
 20
123.6593875875
 11
138.9863456929
 21
123.1737029678
  0
LINE
  5
221
100
AcDbEntity
  8
RACCORDO
100
AcDbLine
 62
250
  6
CONTINUOUS
 10
138.3582594607
 20
123.1975792837
 11
135.7408338542
 21
121.7535835287
  0
LINE
  5
222
100
AcDbEntity
  8
RACCORDO
100
AcDbLine
 62
250
  6
CONTINUOUS
 10
139.0100506956
 20
123.104023664
 11
135.4702327079
 21
121.1506770797
  0
LINE
  5
223
100
AcDbEntity
  8
RACCORDO
100
AcDbLine
 62
250
  6
CONTINUOUS
 10
138.2344197267
 20
123.1429190542
 11
138.2298344621
 21
123.1406422364
  0
LINE
  5
224
100
AcDbEntity
  8
RACCORDO
100
AcDbLine
 62
7
  6
CONTINUOUS
 10
138.2298344621
 20
123.1406422364
 11
135.767602794
 21
121.7914615753
  0
LINE
  5
225
100
AcDbEntity
  8
ASSI
100
AcDbLine
 62
7
  6
CONTINUOUS
 10
133.9189047916
 20
122.9368228712
 11
133.33944575
 21
122.6252085507
  0
LINE
  5
226
100
AcDbEntity
  8
ASSI
100
AcDbLine
 62
250
  6
CONTINUOUS
 10
134.0160981314
 20
122.925371915
 11
133.3965843388
 21
122.5922174456
  0
LWPOLYLINE
  5
227
100
AcDbEntity
  8
ASSI
100
AcDbPolyline
 62
250
  6
CONTINUOUS
 90
8
 70
0
 10
138.2430283438
 20
122.067541505
 10
138.2465600583
 20
122.0693697898
 10
138.259906548
 20
122.0740743387
 10
138.2744821085
 20
122.0760126151
 10
138.2900642398
 20
122.0751549772
 10
138.3064150827
 20
122.0715144759
 10
138.3232850561
 20
122.0651466417
 10
138.3404166384
 20
122.0561486402
  0
LWPOLYLINE
  5
228
100
AcDbEntity
  8
ASSI
100
AcDbPolyline
 62
250
  6
CONTINUOUS
 90
8
 70
0
 10
138.1019346433
 20
121.9888811292
 10
138.1054024372
 20
121.9906659317
 10
138.1187892794
 20
121.9953552182
 10
138.1334101817
 20
121.9972661219
 10
138.1490082653
 20
121.9963729272
 10
138.1653286714
 20
121.992708878
 10
138.1821301625
 20
121.9863458738
 10
138.1991561984
 20
121.9773956307
  0
LWPOLYLINE
  5
229
100
AcDbEntity
  8
RACCORDO
100
AcDbPolyline
 62
7
  6
CONTINUOUS
 90
10
 70
0
 10
141.3113009603
 20
123.4642189363
 10
141.3274899922
 20
123.4724849161
 10
141.3442611443
 20
123.4798073389
 10
141.3615661019
 20
123.4861457109
 10
141.379322488
 20
123.4914557931
 10
141.3975060462
 20
123.4957184368
 10
141.4161598497
 20
123.4989217905
 10
141.4352675152
 20
123.501030865
 10
141.454744255
 20
123.5020058991
 10
141.4745352409
 20
123.5018186853
  0
LWPOLYLINE
  5
22A
100
AcDbEntity
  8
ASSI
100
AcDbPolyline
 62
250
  6
CONTINUOUS
 90
9
 70
0
 10
135.5433019972
 20
122.0435835433
 10
135.5579053796
 20
122.0508461096
 10
135.5723258507
 20
122.0562662932
 10
135.5864089066
 20
122.0597860227
 10
135.6000036487
 20
122.0613675879
 10
135.6129644321
 20
122.0609940485
 10
135.6251524209
 20
122.0586694004
 10
135.6364370366
 20
122.0544185326
 10
135.6408386862
 20
122.0520915745
  0
LINE
  5
22B
100
AcDbEntity
  8
RACCORDO
100
AcDbLine
 62
250
  6
CONTINUOUS
 10
138.2436108011
 20
123.1475147451
 11
138.2298344621
 21
123.1406422364
  0
LWPOLYLINE
  5
22C
100
AcDbEntity
  8
RACCORDO
100
AcDbPolyline
 62
250
  6
CONTINUOUS
 90
5
 70
0
 10
141.3113009603
 20
123.4642189363
 10
141.3246589823
 20
123.4708037977
 10
141.3511205919
 20
123.4799480974
 10
141.3794729602
 20
123.4849857406
 10
141.4094593236
 20
123.4858711064
  0
LINE
  5
22D
100
AcDbEntity
  8
RACCORDO
100
AcDbLine
 62
250
  6
CONTINUOUS
 10
138.3582594607
 20
123.1975792837
 11
138.369441406
 21
123.2030564178
  0
LWPOLYLINE
  5
22E
100
AcDbEntity
  8
RACCORDO
100
AcDbPolyline
 62
250
  6
CONTINUOUS
 90
7
 70
0
 10
139.0100506956
 20
123.104023664
 10
139.0282828808
 20
123.1128167953
 10
139.0461686305
 20
123.1187068848
 10
139.0634086616
 20
123.1215953964
 10
139.07971451
 20
123.1214340203
 10
139.0948133257
 20
123.1182254793
 10
139.1075873863
 20
123.1125316942
  0
LWPOLYLINE
  5
22F
100
AcDbEntity
  8
RACCORDO
100
AcDbPolyline
 62
250
  6
CONTINUOUS
 90
7
 70
0
 10
143.4892932814
 20
124.2885640644
 10
143.5075250988
 20
124.2973570469
 10
143.5254105493
 20
124.3032471195
 10
143.542650361
 20
124.3061357258
 10
143.5589560656
 20
124.3059745321
 10
143.5740548249
 20
124.302766236
 10
143.586758962
 20
124.2971130367
  0
LWPOLYLINE
  5
230
100
AcDbEntity
  8
0
100
AcDbPolyline
 62
7
  6
CONTINUOUS
 90
10
 70
0
 10
139.8276772631
 20
123.6593875875
 10
139.8507122402
 20
123.6703565153
 10
139.8750851408
 20
123.6778798637
 10
139.9007959648
 20
123.6819576326
 10
139.928060366
 20
123.6825684552
 10
139.9566626906
 20
123.6797336983
 10
139.9859559771
 20
123.6735174627
 10
140.0157245718
 20
123.6639411154
 10
140.0461841283
 20
123.6509832894
 10
140.0773346468
 20
123.6346439848
  0
LINE
  5
231
100
AcDbEntity
  8
RACCORDO
100
AcDbLine
 62
250
  6
CONTINUOUS
 10
135.7408338542
 20
121.7785533426
 11
135.7676604667
 21
121.7912799009
  0
LINE
  5
232
100
AcDbEntity
  8
RACCORDO
100
AcDbLine
 62
7
  6
CONTINUOUS
 10
135.7676029517
 20
121.7914616543
 11
135.7408338542
 21
121.7791514168
  0
LINE
  5
233
100
AcDbEntity
  8
ASSI
100
AcDbLine
 62
7
  6
CONTINUOUS
 10
137.6766530408
 20
121.2549006282
 11
137.7245025381
 21
121.2763088651
  0
LINE
  5
234
100
AcDbEntity
  8
RACCORDO
100
AcDbLine
 62
250
  6
CONTINUOUS
 10
138.2438853299
 20
123.1476386201
 11
138.2344197267
 21
123.1429190542
  0
LINE
  5
235
100
AcDbEntity
  8
RACCORDO
100
AcDbLine
 62
7
  6
CONTINUOUS
 10
138.2856352484
 20
123.1663020501
 11
138.2438853299
 21
123.1476386201
  0
LWPOLYLINE
  5
236
100
AcDbEntity
  8
RACCORDO
100
AcDbPolyline
 62
250
  6
CONTINUOUS
 90
9
 70
0
 10
143.838736312
 20
123.9997530683
 10
143.8343987182
 20
123.9978276946
 10
143.8299892644
 20
123.9958102412
 10
143.8255083999
 20
123.9936981783
 10
143.8209595889
 20
123.9914902875
 10
143.8163404439
 20
123.9891828109
 10
143.8116427055
 20
123.9867690206
 10
143.8068640884
 20
123.9842445536
 10
143.8020083062
 20
123.9816078484
  0
LINE
  5
237
100
AcDbEntity
  8
RACCORDO
100
AcDbLine
 62
250
  6
CONTINUOUS
 10
138.2856352484
 20
123.1663020501
 11
138.2755996157
 21
123.1613276597
  0
LINE
  5
238
100
AcDbEntity
  8
RACCORDO
100
AcDbLine
 62
7
  6
CONTINUOUS
 10
138.3274873658
 20
123.1847746956
 11
138.2856352484
 21
123.1663020501
  0
LWPOLYLINE
  5
239
100
AcDbEntity
  8
RACCORDO
100
AcDbPolyline
 62
250
  6
CONTINUOUS
 90
3
 70
0
 10
143.3774479364
 20
124.3072598061
 10
143.369772039
 20
124.3038943953
 10
143.3675418437
 20
124.3027380675
  0
LINE
  5
23A
100
AcDbEntity
  8
RACCORDO
100
AcDbLine
 62
250
  6
CONTINUOUS
 10
138.3274873658
 20
123.1847746956
 11
138.3168796307
 21
123.1795477819
  0
LINE
  5
23B
100
AcDbEntity
  8
RACCORDO
100
AcDbLine
 62
7
  6
CONTINUOUS
 10
138.369441406
 20
123.2030564178
 11
138.3274873658
 21
123.1847746956
  0
LINE
  5
23C
100
AcDbEntity
  8
RACCORDO
100
AcDbLine
 62
7
  6
CONTINUOUS
 10
138.369441406
 20
123.2030564178
 11
138.3696140978
 21
123.2031310402
  0
LWPOLYLINE
  5
23D
100
AcDbEntity
  8
ASSI
100
AcDbPolyline
 62
250
  6
CONTINUOUS
 90
4
 70
0
 10
140.7168696387
 20
122.2750703223
 10
140.7700362497
 20
122.2974429473
 10
140.8248180185
 20
122.3234386027
 10
140.8810858835
 20
122.3531849105
  0
LWPOLYLINE
  5
23E
100
AcDbEntity
  8
RACCORDO
100
AcDbPolyline
 62
250
  6
CONTINUOUS
 90
4
 70
0
 10
143.838736312
 20
123.9997530684
 10
143.8415409411
 20
124.0009251361
 10
143.8443278162
 20
124.0019576707
 10
143.8470924693
 20
124.0028490166
  0
LWPOLYLINE
  5
23F
100
AcDbEntity
  8
RACCORDO
100
AcDbPolyline
 62
250
  6
CONTINUOUS
 90
10
 70
0
 10
144.2238771463
 20
123.7773775793
 10
144.226681781
 20
123.7785496469
 10
144.22946866
 20
123.779582181
 10
144.2322333151
 20
123.7804735261
 10
144.2349713142
 20
123.7812222532
 10
144.2376782676
 20
123.7818271619
 10
144.2403498356
 20
123.7822872826
 10
144.242981735
 20
123.7826018774
 10
144.2455697463
 20
123.7827704421
 10
144.2481097206
 20
123.7827927064
  0
LINE
  5
240
100
AcDbEntity
  8
RACCORDO
100
AcDbLine
 62
250
  6
CONTINUOUS
 10
143.8040321355
 20
124.0327600025
 11
143.8047684565
 21
124.0330520696
  0
LWPOLYLINE
  5
241
100
AcDbEntity
  8
ASSI
100
AcDbPolyline
 62
7
  6
CONTINUOUS
 90
4
 70
0
 10
143.7753523633
 20
124.0242044801
 10
143.7486455456
 20
124.0140801094
 10
143.7219303916
 20
124.0019294621
 10
143.6996693016
 20
123.9902384876
  0
LWPOLYLINE
  5
242
100
AcDbEntity
  8
ASSI
100
AcDbPolyline
 62
250
  6
CONTINUOUS
 90
13
 70
0
 10
137.5643649544
 20
122.7610396272
 10
137.611280919
 20
122.778740112
 10
137.6602960756
 20
122.7919063623
 10
137.7112375085
 20
122.8004928813
 10
137.763928065
 20
122.8044720669
 10
137.8181789346
 20
122.8038298338
 10
137.8737903259
 20
122.7985656287
 10
137.930566473
 20
122.7886995784
 10
137.9883056496
 20
122.7742687541
 10
138.0467926713
 20
122.7553233554
 10
138.1058166984
 20
122.7319325338
 10
138.1651721386
 20
122.7041833165
 10
138.2246486036
 20
122.6721771741
  0
LINE
  5
243
100
AcDbEntity
  8
RACCORDO
100
AcDbLine
 62
250
  6
CONTINUOUS
 10
138.4057244591
 20
123.2152174669
 11
138.3582594607
 21
123.1975792837
  0
LWPOLYLINE
  5
244
100
AcDbEntity
  8
RACCORDO
100
AcDbPolyline
 62
250
  6
CONTINUOUS
 90
7
 70
0
 10
141.8940643969
 20
121.8681391037
 10
141.8762897917
 20
121.8626577009
 10
141.8579514083
 20
121.8560239336
 10
141.8390492466
 20
121.8482378019
 10
141.8195833067
 20
121.8392993057
 10
141.7995535886
 20
121.8292084451
 10
141.7789600922
 20
121.8179652201
  0
LINE
  5
245
100
AcDbEntity
  8
ASSI
100
AcDbLine
 62
7
  6
CONTINUOUS
 10
143.7996319214
 20
124.0316641932
 11
143.7753523633
 21
124.0242044801
  0
LINE
  5
246
100
AcDbEntity
  8
RACCORDO
100
AcDbLine
 62
250
  6
CONTINUOUS
 10
143.8047684565
 20
124.0330520696
 11
143.805254016
 21
124.033199202
  0
LWPOLYLINE
  5
247
100
AcDbEntity
  8
RACCORDO
100
AcDbPolyline
 62
250
  6
CONTINUOUS
 90
19
 70
0
 10
143.8606740374
 20
124.0270201851
 10
143.8627967017
 20
124.0276422938
 10
143.8649877199
 20
124.0282451348
 10
143.8672470919
 20
124.0288287082
 10
143.8695582956
 20
124.029388879
 10
143.8719378531
 20
124.0299297823
 10
143.8744353314
 20
124.0304638225
 10
143.8770654175
 20
124.0309955094
 10
143.8798134244
 20
124.0315203333
 10
143.882684857
 20
124.0320371697
 10
143.8856777631
 20
124.0325458265
 10
143.888794095
 20
124.0330464958
 10
143.8920452142
 20
124.0335386299
 10
143.8954313871
 20
124.034022465
 10
143.8989523472
 20
124.0344977649
 10
143.9026186568
 20
124.0349632734
 10
143.9064296224
 20
124.0354190778
 10
143.9103859376
 20
124.0358650908
 10
143.9145002443
 20
124.0362997946
  0
LINE
  5
248
100
AcDbEntity
  8
SUPERFICI
100
AcDbLine
 62
7
  6
CONTINUOUS
 10
134.5501190485
 20
121.9261809614
 11
134.0481461112
 21
121.4034426744
  0
LINE
  5
249
100
AcDbEntity
  8
0
100
AcDbLine
 62
250
  6
CONTINUOUS
 10
139.8276772631
 20
123.6593875875
 11
139.0511324424
 21
123.1430880189
  0
LINE
  5
24A
100
AcDbEntity
  8
0
100
AcDbLine
 62
250
  6
CONTINUOUS
 10
139.2063121462
 20
123.0555292552
 11
140.0773346728
 21
123.6346439979
  0
LINE
  5
24B
100
AcDbEntity
  8
0
100
AcDbLine
 62
250
  6
CONTINUOUS
 10
140.2851418097
 20
123.51465881
 11
139.3481241323
 21
122.9736487917
  0
LINE
  5
24C
100
AcDbEntity
  8
ASSI
100
AcDbLine
 62
250
  6
CONTINUOUS
 10
144.1824480725
 20
123.7563470976
 11
141.3166711653
 21
122.1016834279
  0
LINE
  5
24D
100
AcDbEntity
  8
ASSI
100
AcDbLine
 62
250
  6
CONTINUOUS
 10
144.3236756157
 20
123.5200561793
 11
141.4578987085
 21
121.8653925097
  0
LINE
  5
24E
100
AcDbEntity
  8
ASSI
100
AcDbLine
 62
250
  6
CONTINUOUS
 10
141.7789600922
 20
121.8179652201
 11
140.3525052285
 21
120.9943480594
  0
LINE
  5
24F
100
AcDbEntity
  8
RACCORDO
100
AcDbLine
 62
250
  6
CONTINUOUS
 10
141.8940643969
 20
121.8681391037
 11
144.3245981434
 21
123.2714988582
  0
LINE
  5
250
100
AcDbEntity
  8
RACCORDO
100
AcDbLine
 62
250
  6
CONTINUOUS
 10
142.0211706241
 20
121.6554782791
 11
144.4517029323
 21
123.0588370317
  0
LINE
  5
251
100
AcDbEntity
  8
RACCORDO
100
AcDbLine
 62
250
  6
CONTINUOUS
 10
141.9201876307
 20
121.5816742991
 11
140.6277397545
 21
120.8354310935
  0
LWPOLYLINE
  5
252
100
AcDbEntity
  8
ASSI
100
AcDbPolyline
 62
250
  6
CONTINUOUS
 90
13
 70
0
 10
137.5557299068
 20
120.8724227809
 10
137.5683996397
 20
120.87972466
 10
137.5810498326
 20
120.8880209043
 10
137.5935962415
 20
120.8972249405
 10
137.6058503286
 20
120.9071459246
 10
137.6178539969
 20
120.9177727399
 10
137.6298458291
 20
120.9293535238
 10
137.6418616905
 20
120.9420054883
 10
137.6536357572
 20
120.9555308601
 10
137.6649322374
 20
120.9697339472
 10
137.6756144633
 20
120.9844674869
 10
137.6856258489
 20
120.9996527067
 10
137.6948714554
 20
121.0151616901
  0
LINE
  5
253
100
AcDbEntity
  8
0
100
AcDbLine
 62
7
  6
CONTINUOUS
 10
148.8668161668
 20
127.2876131982
 11
148.8712489816
 21
127.2901150043
  0
LWPOLYLINE
  5
254
100
AcDbEntity
  8
ASSI
100
AcDbPolyline
 62
250
  6
CONTINUOUS
 90
16
 70
0
 10
141.3166711653
 20
122.1016834279
 10
141.28429545
 20
122.0836013743
 10
141.2526922248
 20
122.0671028973
 10
141.221886207
 20
122.0521193854
 10
141.1921411957
 20
122.0386889782
 10
141.1632292298
 20
122.0266175186
 10
141.1344396157
 20
122.0155608357
 10
141.1057639199
 20
122.0055079953
 10
141.0772514683
 20
121.9964768554
 10
141.0482965247
 20
121.98830387
 10
141.0188681753
 20
121.981038579
 10
140.9890679064
 20
121.9747717298
 10
140.9585144618
 20
121.9695152895
 10
140.9271247289
 20
121.9653758257
 10
140.8951020076
 20
121.962501832
 10
140.8625143455
 20
121.9610203475
  0
LINE
  5
255
100
AcDbEntity
  8
RACCORDO
100
AcDbLine
 62
250
  6
CONTINUOUS
 10
143.8020083062
 20
123.9816078484
 11
143.7970761898
 21
123.9788559928
  0
LINE
  5
256
100
AcDbEntity
  8
ASSI
100
AcDbLine
 62
7
  6
CONTINUOUS
 10
138.1017678642
 20
121.9887884734
 11
138.2430283438
 21
122.067541505
  0
LINE
  5
257
100
AcDbEntity
  8
ASSI
100
AcDbLine
 62
250
  6
CONTINUOUS
 10
138.1991561984
 20
121.9773956307
 11
138.3404166384
 21
122.0561486402
  0
LINE
  5
258
100
AcDbEntity
  8
ASSI
100
AcDbLine
 62
7
  6
CONTINUOUS
 10
136.293553998
 20
120.2344435638
 11
137.4583419206
 21
120.8838154216
  0
LINE
  5
259
100
AcDbEntity
  8
ASSI
100
AcDbLine
 62
250
  6
CONTINUOUS
 10
136.3514336811
 20
120.2010245602
 11
137.5557302557
 21
120.8724225794
  0
LINE
  5
25A
100
AcDbEntity
  8
ASSI
100
AcDbLine
 62
7
  6
CONTINUOUS
 10
143.6996878556
 20
123.9902488355
 11
142.9325643486
 21
123.5625757739
  0
LINE
  5
25B
100
AcDbEntity
  8
ASSI
100
AcDbLine
 62
7
  6
CONTINUOUS
 10
140.7836372771
 20
122.3645537836
 11
142.0146859064
 21
123.0508565006
  0
LINE
  5
25C
100
AcDbEntity
  8
ASSI
100
AcDbLine
 62
250
  6
CONTINUOUS
 10
143.7970761898
 20
123.9788559928
 11
143.0299526829
 21
123.5511829312
  0
LINE
  5
25D
100
AcDbEntity
  8
ASSI
100
AcDbLine
 62
250
  6
CONTINUOUS
 10
140.8810858835
 20
122.3531849105
 11
142.1120742733
 21
123.0394636761
  0
LINE
  5
25E
100
AcDbEntity
  8
ASSI
100
AcDbLine
 62
250
  6
CONTINUOUS
 10
138.1017678642
 20
121.9887884734
 11
138.1019346433
 21
121.9888811292
  0
LWPOLYLINE
  5
25F
100
AcDbEntity
  8
ASSI
100
AcDbPolyline
 62
250
  6
CONTINUOUS
 90
16
 70
0
 10
141.4578987085
 20
121.8653925097
 10
141.4211718031
 20
121.845027795
 10
141.3853752956
 20
121.8262971673
 10
141.350509186
 20
121.8092006265
 10
141.3168268419
 20
121.793893615
 10
141.2840748957
 20
121.7802206904
 10
141.251493244
 20
121.7677155255
 10
141.2190354969
 20
121.756257931
 10
141.1867480444
 20
121.7459680962
 10
141.1540099531
 20
121.7367402614
 10
141.1207217077
 20
121.7284630172
 10
141.0869828235
 20
121.7212477731
 10
141.0524709134
 20
121.7153229975
 10
141.0170785151
 20
121.7107648467
 10
140.980913091
 20
121.7074971645
 10
140.9439746409
 20
121.7055199509
  0
LWPOLYLINE
  5
260
100
AcDbEntity
  8
ASSI
100
AcDbPolyline
 62
7
  6
CONTINUOUS
 90
10
 70
0
 10
140.7836372771
 20
122.3645537836
 10
140.7713605196
 20
122.3577844759
 10
140.7085349931
 20
122.3254239404
 10
140.6471366721
 20
122.2975883679
 10
140.5876490517
 20
122.2743846423
 10
140.5302452826
 20
122.2557443691
 10
140.4748763451
 20
122.2415299569
 10
140.4217767685
 20
122.2317142375
 10
140.3713569478
 20
122.2262665619
 10
140.3634399459
 20
122.2257864613
  0
LWPOLYLINE
  5
261
100
AcDbEntity
  8
RACCORDO
100
AcDbPolyline
 62
250
  6
CONTINUOUS
 90
10
 70
0
 10
144.3245981434
 20
123.2714988582
 10
144.3612217179
 20
123.2916911904
 10
144.3979647168
 20
123.3098339568
 10
144.43482714
 20
123.3259271572
 10
144.4715239169
 20
123.3400329543
 10
144.5083401183
 20
123.3520891855
 10
144.5461309555
 20
123.3619093633
 10
144.5851814991
 20
123.3694313251
 10
144.6252066787
 20
123.3747172335
 10
144.6662064942
 20
123.3777670884
  0
LINE
  5
262
100
AcDbEntity
  8
RACCORDO
100
AcDbLine
 62
250
  6
CONTINUOUS
 10
139.9004783169
 20
122.6547264082
 11
141.4094593236
 21
123.4858711064
  0
LWPOLYLINE
  5
263
100
AcDbEntity
  8
RACCORDO
100
AcDbPolyline
 62
250
  6
CONTINUOUS
 90
10
 70
0
 10
144.4517029323
 20
123.0588370317
 10
144.4823829007
 20
123.075696547
 10
144.5133165444
 20
123.0909603536
 10
144.5444366515
 20
123.1045587725
 10
144.5753326881
 20
123.1163099527
 10
144.606279482
 20
123.1263020532
 10
144.6382049291
 20
123.1346971422
 10
144.6713187442
 20
123.141301261
 10
144.7051437027
 20
123.1457622303
 10
144.7395207601
 20
123.1478167315
  0
LINE
  5
264
100
AcDbEntity
  8
DRAFT
100
AcDbLine
 62
7
  6
CONTINUOUS
 10
139.8697414728
 20
122.6724734767
 11
141.3113009603
 21
123.4642189363
  0
LWPOLYLINE
  5
265
100
AcDbEntity
  8
ASSI
100
AcDbPolyline
 62
250
  6
CONTINUOUS
 90
13
 70
0
 10
138.3404166384
 20
122.0561486402
 10
138.3531539729
 20
122.0631067375
 10
138.3655101886
 20
122.0693790343
 10
138.3774723774
 20
122.0750002096
 10
138.3890235822
 20
122.0800045307
 10
138.4001619459
 20
122.0844289861
 10
138.4109003157
 20
122.0883112082
 10
138.4212364985
 20
122.0916858945
 10
138.4311649995
 20
122.0945861997
 10
138.4406958592
 20
122.0970447628
 10
138.4498307487
 20
122.0990943163
 10
138.4585686557
 20
122.1007663909
 10
138.4669172485
 20
122.1020901111
  0
LINE
  5
266
100
AcDbEntity
  8
RACCORDO
100
AcDbLine
 62
7
  6
CONTINUOUS
 10
143.3675418437
 20
124.3027380675
 11
143.3673972502
 21
124.302660126
  0
LINE
  5
267
100
AcDbEntity
  8
ASSI
100
AcDbLine
 62
7
  6
CONTINUOUS
 10
143.3675418391
 20
124.3027380651
 11
140.0936310623
 21
122.5421347972
  0
LINE
  5
268
100
AcDbEntity
  8
RACCORDO
100
AcDbLine
 62
250
  6
CONTINUOUS
 10
143.4892932814
 20
124.2885640644
 11
140.1078812143
 21
122.4701500815
  0
LINE
  5
269
100
AcDbEntity
  8
0
100
AcDbLine
 62
250
  6
CONTINUOUS
 10
148.8712489816
 20
127.2901150043
 11
148.8735925319
 21
127.2913739874
  0
LINE
  5
26A
100
AcDbEntity
  8
0
100
AcDbLine
 62
7
  6
CONTINUOUS
 10
141.6793742687
 20
123.4938383392
 11
148.8735925319
 21
127.2913739874
  0
LINE
  5
26B
100
AcDbEntity
  8
0
100
AcDbLine
 62
250
  6
CONTINUOUS
 10
143.6863796371
 20
124.2395933657
 11
148.6108910277
 21
126.8390437201
  0
LWPOLYLINE
  5
26C
100
AcDbEntity
  8
RACCORDO
100
AcDbPolyline
 62
250
  6
CONTINUOUS
 90
5
 70
0
 10
143.8547057077
 20
124.0245557203
 10
143.8559519077
 20
124.0252137739
 10
143.8573634159
 20
124.0258427872
 10
143.8589374591
 20
124.0264449242
 10
143.8606740374
 20
124.0270201851
  0
LINE
  5
26D
100
AcDbEntity
  8
ASSI
100
AcDbLine
 62
250
  6
CONTINUOUS
 10
143.7032211077
 20
123.992077857
 11
143.6996878556
 21
123.9902488355
  0
LWPOLYLINE
  5
26E
100
AcDbEntity
  8
ASSI
100
AcDbPolyline
 62
250
  6
CONTINUOUS
 90
8
 70
0
 10
137.4583499039
 20
120.8838198716
 10
137.46187544
 20
120.8856445712
 10
137.4752220222
 20
120.890348707
 10
137.4897975072
 20
120.8922865993
 10
137.5053794088
 20
120.8914286765
 10
137.5217298768
 20
120.8877880413
 10
137.538599327
 20
120.8814202731
 10
137.5557302557
 20
120.8724225794
  0
LWPOLYLINE
  5
26F
100
AcDbEntity
  8
ASSI
100
AcDbPolyline
 62
250
  6
CONTINUOUS
 90
8
 70
0
 10
142.9325930321
 20
123.5625917555
 10
142.9360976005
 20
123.5644047953
 10
142.9494441697
 20
123.5691089926
 10
142.964019667
 20
123.5710469419
 10
142.9796016037
 20
123.5701890615
 10
142.9959521282
 20
123.5665484465
 10
143.0128216566
 20
123.5601806692
 10
143.0299526829
 20
123.5511829312
  0
LWPOLYLINE
  5
270
100
AcDbEntity
  8
ASSI
100
AcDbPolyline
 62
250
  6
CONTINUOUS
 90
8
 70
0
 10
142.0148111451
 20
123.0509261387
 10
142.018219149
 20
123.0526855176
 10
142.0315657194
 20
123.0573897173
 10
142.0461412184
 20
123.0593276682
 10
142.0617231569
 20
123.0584697885
 10
142.0780736829
 20
123.0548291735
 10
142.0949432126
 20
123.048461396
 10
142.1120742397
 20
123.0394636574
  0
LWPOLYLINE
  5
271
100
AcDbEntity
  8
ASSI
100
AcDbPolyline
 62
250
  6
CONTINUOUS
 90
8
 70
0
 10
140.7836934374
 20
122.3645851391
 10
140.7872308018
 20
122.366406775
 10
140.8005773713
 20
122.3711109725
 10
140.815152869
 20
122.3730489221
 10
140.8307348058
 20
122.3721910418
 10
140.84708533
 20
122.3685504266
 10
140.863954858
 20
122.3621826491
 10
140.8810858835
 20
122.3531849105
  0
LWPOLYLINE
  5
272
100
AcDbEntity
  8
ASSI
100
AcDbPolyline
 62
250
  6
CONTINUOUS
 90
6
 70
0
 10
143.0299526829
 20
123.5511829312
 10
143.0012587065
 20
123.5366429374
 10
142.9707060335
 20
123.5238921497
 10
142.9382946639
 20
123.5129305681
 10
142.903653441
 20
123.503664454
 10
142.8671535216
 20
123.4961875459
  0
LWPOLYLINE
  5
273
100
AcDbEntity
  8
ASSI
100
AcDbPolyline
 62
7
  6
CONTINUOUS
 90
15
 70
0
 10
142.9313881935
 20
123.5619257234
 10
142.9191070469
 20
123.5557167629
 10
142.9045011136
 20
123.549443795
 10
142.8877199338
 20
123.5433902305
 10
142.8688153279
 20
123.5377620907
 10
142.8480557459
 20
123.5328016291
 10
142.8256241609
 20
123.5286917839
 10
142.8018078506
 20
123.52560371
 10
142.777100186
 20
123.5236842156
 10
142.7517713041
 20
123.5230148611
 10
142.7262306775
 20
123.5236483332
 10
142.7012252255
 20
123.5255557861
 10
142.6770875633
 20
123.5286632167
 10
142.6541814494
 20
123.5328513437
 10
142.6481293453
 20
123.5341747394
  0
LINE
  5
274
100
AcDbEntity
  8
RACCORDO
100
AcDbLine
 62
7
  6
CONTINUOUS
 10
137.6766530408
 20
121.2549006282
 11
135.9874269433
 21
120.4111974885
  0
LINE
  5
275
100
AcDbEntity
  8
RACCORDO
100
AcDbLine
 62
250
  6
CONTINUOUS
 10
147.1437608555
 20
122.1041326864
 11
147.1444153453
 21
122.104430895
  0
LINE
  5
276
100
AcDbEntity
  8
RACCORDO
100
AcDbLine
 62
250
  6
CONTINUOUS
 10
147.1744887483
 20
122.0689420298
 11
147.1791379787
 21
122.0710469789
  0
LWPOLYLINE
  5
277
100
AcDbEntity
  8
RACCORDO
100
AcDbPolyline
 62
250
  6
CONTINUOUS
 90
10
 70
0
 10
144.2238771463
 20
123.7773775793
 10
144.2195508025
 20
123.7754525295
 10
144.2151561547
 20
123.7734319414
 10
144.2106936444
 20
123.7713132178
 10
144.2061666443
 20
123.7690952801
 10
144.2015728465
 20
123.7667740958
 10
144.1969042413
 20
123.7643422241
 10
144.1921586246
 20
123.7617949916
 10
144.1873396243
 20
123.7591309526
 10
144.1824480725
 20
123.7563470976
  0
LWPOLYLINE
  5
278
100
AcDbEntity
  8
RACCORDO
100
AcDbPolyline
 62
250
  6
CONTINUOUS
 90
7
 70
0
 10
145.6610079829
 20
123.4396968658
 10
145.6681100859
 20
123.4427409696
 10
145.675160935
 20
123.4455405913
 10
145.6821605301
 20
123.4480957311
 10
145.6891088715
 20
123.4504063888
 10
145.6960059589
 20
123.4524725645
 10
145.7028517925
 20
123.4542942582
  0
LWPOLYLINE
  5
279
100
AcDbEntity
  8
ASSI
100
AcDbPolyline
 62
250
  6
CONTINUOUS
 90
5
 70
0
 10
144.1082747924
 20
120.3146403059
 10
144.1465757165
 20
120.3309486399
 10
144.186815765
 20
120.3497640165
 10
144.2286707478
 20
120.3711474362
 10
144.2720846459
 20
120.3952647243
  0
LWPOLYLINE
  5
27A
100
AcDbEntity
  8
RACCORDO
100
AcDbPolyline
 62
250
  6
CONTINUOUS
 90
4
 70
0
 10
147.1791379787
 20
122.0710469788
 10
147.181942604
 20
122.0722190478
 10
147.1847294776
 20
122.0732515844
 10
147.1874941317
 20
122.0741429328
  0
LWPOLYLINE
  5
27B
100
AcDbEntity
  8
RACCORDO
100
AcDbPolyline
 62
250
  6
CONTINUOUS
 90
10
 70
0
 10
147.5642788085
 20
121.8486714882
 10
147.5670834471
 20
121.8498435591
 10
147.5698703299
 20
121.850876096
 10
147.572634989
 20
121.8517674437
 10
147.5753729919
 20
121.8525161729
 10
147.5780799491
 20
121.8531210835
 10
147.5807515208
 20
121.8535812055
 10
147.5833834239
 20
121.8538958014
 10
147.5859714388
 20
121.8540643667
 10
147.5885114164
 20
121.8540866313
  0
LWPOLYLINE
  5
27C
100
AcDbEntity
  8
ASSI
100
AcDbPolyline
 62
7
  6
CONTINUOUS
 90
4
 70
0
 10
147.1098908449
 20
122.0936197195
 10
147.0816874288
 20
122.0822276972
 10
147.0540560138
 20
122.0687874268
 10
147.0378199628
 20
122.0598153901
  0
LWPOLYLINE
  5
27D
100
AcDbEntity
  8
RACCORDO
100
AcDbPolyline
 62
250
  6
CONTINUOUS
 90
9
 70
0
 10
145.7742459833
 20
123.2199033403
 10
145.7857145094
 20
123.2243603106
 10
145.7971099424
 20
123.2276238665
 10
145.8083586211
 20
123.2296671933
 10
145.8193939097
 20
123.2304692162
 10
145.8301385913
 20
123.2300195813
 10
145.8405064338
 20
123.2283218574
 10
145.8504322887
 20
123.2253826872
 10
145.8598542572
 20
123.2212178308
  0
LWPOLYLINE
  5
27E
100
AcDbEntity
  8
ASSI
100
AcDbPolyline
 62
250
  6
CONTINUOUS
 90
6
 70
0
 10
147.0405135158
 20
122.0612911983
 10
147.054237741
 20
122.0666052897
 10
147.0692991194
 20
122.0690416275
 10
147.085456818
 20
122.0685612545
 10
147.1024524736
 20
122.0651718517
 10
147.1200143239
 20
122.0589276162
  0
LINE
  5
27F
100
AcDbEntity
  8
SUPERFICI
100
AcDbLine
 62
7
  6
CONTINUOUS
 10
139.5137828204
 20
119.0602237088
 11
138.6443401889
 21
118.7496578177
  0
LWPOLYLINE
  5
280
100
AcDbEntity
  8
ASSI
100
AcDbPolyline
 62
250
  6
CONTINUOUS
 90
3
 70
0
 10
144.106003465
 20
119.7723457214
 10
144.0383283712
 20
119.7492146901
 10
144.0231889116
 20
119.7441096326
  0
LINE
  5
281
100
AcDbEntity
  8
RACCORDO
100
AcDbLine
 62
250
  6
CONTINUOUS
 10
147.1444153453
 20
122.104430895
 11
147.1451623464
 21
122.1046772189
  0
LINE
  5
282
100
AcDbEntity
  8
ASSI
100
AcDbLine
 62
7
  6
CONTINUOUS
 10
147.1384486801
 20
122.1027971449
 11
147.1098908449
 21
122.0936197195
  0
LWPOLYLINE
  5
283
100
AcDbEntity
  8
RACCORDO
100
AcDbPolyline
 62
250
  6
CONTINUOUS
 90
21
 70
0
 10
147.2005768583
 20
122.0984472489
 10
147.2025773889
 20
122.099065292
 10
147.2046856527
 20
122.099674164
 10
147.2069016497
 20
122.1002738651
 10
147.2092199751
 20
122.1008636206
 10
147.2116460338
 20
122.1014442051
 10
147.21419604
 20
122.1020179423
 10
147.2168723032
 20
122.1025858246
 10
147.2196725138
 20
122.1031468596
 10
147.2226059569
 20
122.1037003935
 10
147.2256715194
 20
122.1042464526
 10
147.2288703143
 20
122.1047850105
 10
147.2322149659
 20
122.1053153341
 10
147.235705694
 20
122.1058376739
 10
147.2393422789
 20
122.1063517793
 10
147.2431366852
 20
122.1068561657
 10
147.2470884728
 20
122.1073509589
 10
147.251198082
 20
122.1078360332
 10
147.2554787975
 20
122.1083095262
 10
147.2599293458
 20
122.108771528
 10
147.2645510006
 20
122.1092219485
  0
LWPOLYLINE
  5
284
100
AcDbEntity
  8
SUPERFICI
100
AcDbPolyline
 62
7
  6
CONTINUOUS
 90
5
 70
0
 10
144.984976844
 20
79.2863390694
 10
144.9665687357
 20
79.2865074227
 10
144.9477637856
 20
79.2838240686
 10
144.9288062457
 20
79.2781851764
 10
144.9099569024
 20
79.2695124882
  0
LINE
  5
285
100
AcDbEntity
  8
SUPERFICI
100
AcDbLine
 62
7
  6
CONTINUOUS
 10
127.0143793923
 20
80.3745492606
 11
141.8825935607
 21
71.7898287422
  0
LINE
  5
286
100
AcDbEntity
  8
SUPERFICI
100
AcDbLine
 62
250
  6
CONTINUOUS
 10
126.9108380818
 20
80.6034176911
 11
141.7790522502
 21
72.0186971728
  0
LWPOLYLINE
  5
287
100
AcDbEntity
  8
SUPERFICI
100
AcDbPolyline
 62
250
  6
CONTINUOUS
 90
9
 70
0
 10
127.0143793923
 20
80.3745492606
 10
126.99877949
 20
80.3847580868
 10
126.9762002758
 20
80.4046740742
 10
126.9566742645
 20
80.4288583295
 10
126.9404083218
 20
80.4570546358
 10
126.9275747752
 20
80.4889642709
 10
126.918309588
 20
80.5242491723
 10
126.9127109187
 20
80.5625355189
 10
126.9108380818
 20
80.6034176911
  0
LWPOLYLINE
  5
288
100
AcDbEntity
  8
ASSI
100
AcDbPolyline
 62
250
  6
CONTINUOUS
 90
3
 70
0
 10
135.3348200727
 20
121.0642270334
 10
135.3142916272
 20
121.0365683329
 10
135.2955381411
 20
121.0081345302
  0
LWPOLYLINE
  5
289
100
AcDbEntity
  8
ASSI
100
AcDbPolyline
 62
250
  6
CONTINUOUS
 90
3
 70
0
 10
135.3812232197
 20
121.1181037259
 10
135.3571306036
 20
121.0914054977
 10
135.3348200727
 20
121.0642270334
  0
LWPOLYLINE
  5
28A
100
AcDbEntity
  8
ASSI
100
AcDbPolyline
 62
250
  6
CONTINUOUS
 90
8
 70
0
 10
135.6840455428
 20
121.3699702353
 10
135.6852251022
 20
121.371269467
 10
135.6892232399
 20
121.3776772003
 10
135.6916041835
 20
121.38552341
 10
135.6923415053
 20
121.3947219949
 10
135.6914272293
 20
121.4051723084
 10
135.6888713773
 20
121.4167607139
 10
135.6847018142
 20
121.4293608866
  0
LINE
  5
28B
100
AcDbEntity
  8
ASSI
100
AcDbLine
 62
250
  6
CONTINUOUS
 10
135.6847018142
 20
121.4293608866
 11
135.3812232197
 21
121.1181037259
  0
LINE
  5
28C
100
AcDbEntity
  8
ASSI
100
AcDbLine
 62
7
  6
CONTINUOUS
 10
135.6840332238
 20
121.3699575916
 11
135.380554629
 21
121.0587004307
  0
LWPOLYLINE
  5
28D
100
AcDbEntity
  8
ASSI
100
AcDbPolyline
 62
250
  6
CONTINUOUS
 90
3
 70
0
 10
139.2067045607
 20
121.6717582054
 10
139.2012193127
 20
121.6666076629
 10
139.1983332057
 20
121.6603926937
  0
LWPOLYLINE
  5
28E
100
AcDbEntity
  8
RACCORDO
100
AcDbPolyline
 62
250
  6
CONTINUOUS
 90
13
 70
0
 10
141.9201876307
 20
121.5816742991
 10
141.9289347734
 20
121.5888491837
 10
141.9376341135
 20
121.5958808242
 10
141.946285651
 20
121.6027692203
 10
141.9548948456
 20
121.6095409087
 10
141.9634562375
 20
121.6161693529
 10
141.9719534479
 20
121.6225749434
 10
141.9803952953
 20
121.6287567387
 10
141.9887729612
 20
121.6347156803
 10
141.9970436105
 20
121.6403749837
 10
142.005192965
 20
121.6457090538
 10
142.0132353028
 20
121.6507434856
 10
142.0211706241
 20
121.6554782791
  0
LWPOLYLINE
  5
28F
100
AcDbEntity
  8
0
100
AcDbPolyline
 62
250
  6
CONTINUOUS
 90
9
 70
0
 10
148.9295719468
 20
127.2153522817
 10
148.9840050823
 20
127.2542003006
 10
149.0431975027
 20
127.288521773
 10
149.1043608917
 20
127.3153132448
 10
149.1680405288
 20
127.3327032776
 10
149.2362789379
 20
127.3401212781
 10
149.3061404694
 20
127.3372406441
 10
149.3716948528
 20
127.3250099708
 10
149.4317762512
 20
127.3057752876
  0
LWPOLYLINE
  5
290
100
AcDbEntity
  8
RACCORDO
100
AcDbPolyline
 62
250
  6
CONTINUOUS
 90
5
 70
0
 10
145.7000269921
 20
123.518276916
 10
145.7086525212
 20
123.5239182593
 10
145.7159222215
 20
123.5300875733
 10
145.72171171
 20
123.536679297
 10
145.7259219313
 20
123.5435806418
  0
LWPOLYLINE
  5
291
100
AcDbEntity
  8
RACCORDO
100
AcDbPolyline
 62
250
  6
CONTINUOUS
 90
8
 70
0
 10
145.702851796
 20
123.4542941758
 10
145.7114783496
 20
123.459935333
 10
145.7187490368
 20
123.4661045561
 10
145.7245394425
 20
123.4726962759
 10
145.7287504822
 20
123.4795976911
 10
145.7313100969
 20
123.4866907054
 10
145.7321744868
 20
123.4938539488
 10
145.7321453473
 20
123.4952132074
  0
LWPOLYLINE
  5
292
100
AcDbEntity
  8
ASSI
100
AcDbPolyline
 62
250
  6
CONTINUOUS
 90
10
 70
0
 10
141.9357103922
 20
119.8199560692
 10
141.9192923789
 20
119.8093723787
 10
141.9030963898
 20
119.7967235425
 10
141.887341448
 20
119.782180614
 10
141.8722406119
 20
119.7659402609
 10
141.8579980946
 20
119.7482221057
 10
141.8448065025
 20
119.7292657565
 10
141.8328442293
 20
119.7093275654
 10
141.8222730443
 20
119.688677162
 10
141.8132359051
 20
119.6675938076
  0
LWPOLYLINE
  5
293
100
AcDbEntity
  8
ASSI
100
AcDbPolyline
 62
250
  6
CONTINUOUS
 90
35
 70
0
 10
143.9742251335
 20
119.7143592004
 10
143.9643025607
 20
119.7081731007
 10
143.9542957306
 20
119.7018605579
 10
143.9442270844
 20
119.6954301614
 10
143.9341386593
 20
119.6888542479
 10
143.9240776836
 20
119.6821707915
 10
143.913996929
 20
119.6753418181
 10
143.903796748
 20
119.6682257425
 10
143.8935168008
 20
119.6608728829
 10
143.8831174272
 20
119.6532329211
 10
143.8723799986
 20
119.6450133171
 10
143.8612618312
 20
119.6362213359
 10
143.8498056089
 20
119.6268497124
 10
143.8379207539
 20
119.6165841112
 10
143.8255458
 20
119.6054160089
 10
143.8127422136
 20
119.5933539288
 10
143.7996038154
 20
119.5801091057
 10
143.7861001856
 20
119.5657049733
 10
143.7722617441
 20
119.5501180978
 10
143.7582735721
 20
119.532989413
 10
143.7440615122
 20
119.5143026011
 10
143.7296997217
 20
119.4940739798
 10
143.7155957534
 20
119.4719934369
 10
143.7015743956
 20
119.4477097087
 10
143.6878108599
 20
119.4215740588
 10
143.6752383337
 20
119.3943301656
 10
143.6639508237
 20
119.3656736758
 10
143.6538543233
 20
119.3359089427
 10
143.6456
 20
119.306692704
 10
143.6394787295
 20
119.2782117166
 10
143.6351996361
 20
119.2502792235
 10
143.6325412593
 20
119.2239916915
 10
143.631429779
 20
119.1997146095
 10
143.6319390152
 20
119.1770824886
 10
143.634068968
 20
119.1560953288
  0
LWPOLYLINE
  5
294
100
AcDbEntity
  8
RACCORDO
100
AcDbPolyline
 62
250
  6
CONTINUOUS
 90
5
 70
0
 10
147.1940630658
 20
122.0954831817
 10
147.1953751243
 20
122.0962863223
 10
147.1968988716
 20
122.0970463247
 10
147.1986327829
 20
122.0977666336
 10
147.2005768583
 20
122.0984472489
  0
LINE
  5
295
100
AcDbEntity
  8
ASSI
100
AcDbLine
 62
250
  6
CONTINUOUS
 10
143.9939101178
 20
119.7264312694
 11
143.9742251335
 21
119.7143592004
  0
LWPOLYLINE
  5
296
100
AcDbEntity
  8
ASSI
100
AcDbPolyline
 62
250
  6
CONTINUOUS
 90
3
 70
0
 10
144.0231889116
 20
119.7441096326
 10
144.0134658429
 20
119.7382812677
 10
143.9939101178
 20
119.7264312694
  0
LWPOLYLINE
  5
297
100
AcDbEntity
  8
ASSI
100
AcDbPolyline
 62
250
  6
CONTINUOUS
 90
10
 70
0
 10
143.6340689697
 20
119.1560953269
 10
143.6510393673
 20
119.1662647169
 10
143.6697124571
 20
119.1754120804
 10
143.6898366198
 20
119.1834141567
 10
143.7111406828
 20
119.1901631179
 10
143.7333375746
 20
119.1955680217
 10
143.7561281923
 20
119.1995560368
 10
143.7792054326
 20
119.2020734248
 10
143.8022583303
 20
119.2030862635
 10
143.8249762478
 20
119.202580905
  0
LINE
  5
298
100
AcDbEntity
  8
ASSI
100
AcDbLine
 62
250
  6
CONTINUOUS
 10
142.0721058182
 20
119.9015180769
 11
141.9357103922
 21
119.8199560692
  0
LINE
  5
299
100
AcDbEntity
  8
ASSI
100
AcDbLine
 62
250
  6
CONTINUOUS
 10
142.2154357093
 20
119.6725471355
 11
142.0790402833
 21
119.5909851278
  0
LINE
  5
29A
100
AcDbEntity
  8
ASSI
100
AcDbLine
 62
250
  6
CONTINUOUS
 10
141.4360411216
 20
118.6319797171
 11
140.8561010369
 21
118.2851859938
  0
LINE
  5
29B
100
AcDbEntity
  8
ASSI
100
AcDbLine
 62
250
  6
CONTINUOUS
 10
141.5793710127
 20
118.4030087757
 11
141.1238293104
 21
118.1306030441
  0
LINE
  5
29C
100
AcDbEntity
  8
ASSI
100
AcDbLine
 62
250
  6
CONTINUOUS
 10
145.8962630334
 20
120.854520507
 11
144.7076699277
 21
120.1437632417
  0
LINE
  5
29D
100
AcDbEntity
  8
ASSI
100
AcDbLine
 62
250
  6
CONTINUOUS
 10
146.7825296815
 20
121.384491997
 11
147.5232334358
 21
121.8274194987
  0
LINE
  5
29E
100
AcDbEntity
  8
ASSI
100
AcDbLine
 62
250
  6
CONTINUOUS
 10
146.0395929246
 20
120.6255495657
 11
144.8509998188
 21
119.9147923003
  0
LINE
  5
29F
100
AcDbEntity
  8
ASSI
100
AcDbLine
 62
250
  6
CONTINUOUS
 10
146.9258596049
 20
121.1555210749
 11
147.6665633269
 21
121.5984485573
  0
LWPOLYLINE
  5
2A0
100
AcDbEntity
  8
ASSI
100
AcDbPolyline
 62
250
  6
CONTINUOUS
 90
7
 70
0
 10
144.4742437926
 20
119.6585047386
 10
144.4590571829
 20
119.6494447926
 10
144.4460066752
 20
119.6396219531
 10
144.4352681055
 20
119.6291685917
 10
144.4269861552
 20
119.6182255767
 10
144.4212723948
 20
119.6069403671
 10
144.4197617129
 20
119.6012910292
  0
LWPOLYLINE
  5
2A1
100
AcDbEntity
  8
ASSI
100
AcDbPolyline
 62
250
  6
CONTINUOUS
 90
13
 70
0
 10
147.6665633269
 20
121.5984485573
 10
147.6707971306
 20
121.600929188
 10
147.6750635876
 20
121.6033135278
 10
147.6793626978
 20
121.6056015767
 10
147.6836786485
 20
121.6077903198
 10
147.6880272525
 20
121.6098827721
 10
147.6924559479
 20
121.6118879781
 10
147.6969682292
 20
121.613813088
 10
147.7015606019
 20
121.6156509516
 10
147.7062700213
 20
121.6173891637
 10
147.7111088058
 20
121.6190235889
 10
147.7160646369
 20
121.6205583625
 10
147.7211375148
 20
121.6219934844
  0
LWPOLYLINE
  5
2A2
100
AcDbEntity
  8
RACCORDO
100
AcDbPolyline
 62
250
  6
CONTINUOUS
 90
10
 70
0
 10
147.5232334358
 20
121.8274194987
 10
147.5277205925
 20
121.8300301052
 10
147.532223395
 20
121.8325787641
 10
147.5367410815
 20
121.8350644558
 10
147.5412667935
 20
121.8374830204
 10
147.5458058357
 20
121.8398367731
 10
147.5503756305
 20
121.842133569
 10
147.5549813736
 20
121.8443744017
 10
147.5596160793
 20
121.8465543397
 10
147.5642788084
 20
121.8486714883
  0
LWPOLYLINE
  5
2A3
100
AcDbEntity
  8
ASSI
100
AcDbPolyline
 62
250
  6
CONTINUOUS
 90
10
 70
0
 10
146.0427493762
 20
120.5964428423
 10
146.0613217771
 20
120.6072310436
 10
146.0818832883
 20
120.6168000934
 10
146.1041060804
 20
120.6249974238
 10
146.1276358365
 20
120.6316923378
 10
146.1520974016
 20
120.6367780922
 10
146.1771007639
 20
120.6401736003
 10
146.2022472731
 20
120.6418247244
 10
146.227135997
 20
120.6417051391
 10
146.251370113
 20
120.6398167509
  0
LINE
  5
2A4
100
AcDbEntity
  8
ASSI
100
AcDbLine
 62
7
  6
CONTINUOUS
 10
144.172011369
 20
120.4051333865
 11
147.0378567211
 21
122.0598366294
  0
LINE
  5
2A5
100
AcDbEntity
  8
ASSI
100
AcDbLine
 62
250
  6
CONTINUOUS
 10
144.2720846459
 20
120.3952647243
 11
147.1378615531
 21
122.0499283939
  0
LWPOLYLINE
  5
2A6
100
AcDbEntity
  8
ASSI
100
AcDbPolyline
 62
250
  6
CONTINUOUS
 90
13
 70
0
 10
144.8509998188
 20
119.9147923003
 10
144.8162910854
 20
119.894759683
 10
144.7819057342
 20
119.8761139837
 10
144.7478437653
 20
119.8588552022
 10
144.7141313973
 20
119.8430193641
 10
144.6807424117
 20
119.8285704438
 10
144.6475981524
 20
119.8154003655
 10
144.6147063853
 20
119.8034932523
 10
144.5820593446
 20
119.7928649811
 10
144.5495550769
 20
119.7834551053
 10
144.5171595976
 20
119.7752434762
 10
144.4849068913
 20
119.7682502426
 10
144.4527969579
 20
119.7624754044
  0
LWPOLYLINE
  5
2A7
100
AcDbEntity
  8
ASSI
100
AcDbPolyline
 62
250
  6
CONTINUOUS
 90
10
 70
0
 10
144.1603408861
 20
119.5189282502
 10
144.1506127208
 20
119.5133657958
 10
144.1407550237
 20
119.5079492032
 10
144.130766102
 20
119.502665002
 10
144.1206159056
 20
119.4974882169
 10
144.1103237203
 20
119.492417526
 10
144.0999678492
 20
119.4874692904
 10
144.0895393064
 20
119.4826156775
 10
144.0790447251
 20
119.4778457677
 10
144.0686058932
 20
119.4731891322
  0
LWPOLYLINE
  5
2A8
100
AcDbEntity
  8
ASSI
100
AcDbPolyline
 62
7
  6
CONTINUOUS
 90
10
 70
0
 10
144.1720113691
 20
120.4051333865
 10
144.1604666342
 20
120.3985375232
 10
144.0992964103
 20
120.3659115443
 10
144.0393244436
 20
120.337807379
 10
143.9809735414
 20
120.3143199082
 10
143.9244312342
 20
120.2954010713
 10
143.869756726
 20
120.2809701632
 10
143.8172132509
 20
120.2710112672
 10
143.7671896305
 20
120.2654848347
 10
143.7592420651
 20
120.2649943763
  0
LWPOLYLINE
  5
2A9
100
AcDbEntity
  8
RACCORDO
100
AcDbPolyline
 62
250
  6
CONTINUOUS
 90
9
 70
0
 10
147.1378615531
 20
122.0499283939
 10
147.142418903
 20
122.052526875
 10
147.1469801021
 20
122.0550616867
 10
147.1515443848
 20
122.0575321146
 10
147.1561040222
 20
122.0599338145
 10
147.1606652038
 20
122.0622699391
 10
147.1652479841
 20
122.0645500623
 10
147.1698584451
 20
122.0667758286
 10
147.1744887483
 20
122.0689420298
  0
LWPOLYLINE
  5
2AA
100
AcDbEntity
  8
ASSI
100
AcDbPolyline
 62
250
  6
CONTINUOUS
 90
10
 70
0
 10
144.7076699277
 20
120.1437632417
 10
144.6556776338
 20
120.1142215038
 10
144.6041819952
 20
120.0882327609
 10
144.5533029471
 20
120.0657494791
 10
144.5034734847
 20
120.0468274292
 10
144.4544654973
 20
120.0312468755
 10
144.4054239496
 20
120.0187093713
 10
144.3561628588
 20
120.009256374
 10
144.3071310174
 20
120.0030727687
 10
144.2584611867
 20
120.0002432026
  0
LWPOLYLINE
  5
2AB
100
AcDbEntity
  8
ASSI
100
AcDbPolyline
 62
250
  6
CONTINUOUS
 90
8
 70
0
 10
144.1720798139
 20
120.4051729598
 10
144.1747366082
 20
120.4066275285
 10
144.1884608335
 20
120.41194162
 10
144.2035222119
 20
120.4143779579
 10
144.2196799105
 20
120.4138975849
 10
144.2366755662
 20
120.4105081822
 10
144.2542374165
 20
120.4042639467
 10
144.2720846459
 20
120.3952647243
  0
LWPOLYLINE
  5
2AC
100
AcDbEntity
  8
ASSI
100
AcDbPolyline
 62
250
  6
CONTINUOUS
 90
13
 70
0
 10
145.8962630334
 20
120.854520507
 10
145.9240571887
 20
120.8696319818
 10
145.9538174591
 20
120.8829929455
 10
145.9855438445
 20
120.8946033981
 10
146.019601586
 20
120.9045645282
 10
146.0556254425
 20
120.9127751472
 10
146.0925196908
 20
120.9189316896
 10
146.1303236273
 20
120.9229421831
 10
146.1689979554
 20
120.9248985999
 10
146.2073290628
 20
120.9247732913
 10
146.2449124119
 20
120.922557041
 10
146.2821525402
 20
120.9182590652
 10
146.3467395674
 20
120.907128783
  0
LINE
  5
2AD
100
AcDbEntity
  8
ASSI
100
AcDbLine
 62
250
  6
CONTINUOUS
 10
143.0991002956
 20
117.6404318207
 11
143.0952475738
 21
117.6385175554
  0
LWPOLYLINE
  5
2AE
100
AcDbEntity
  8
ASSI
100
AcDbPolyline
 62
250
  6
CONTINUOUS
 90
13
 70
0
 10
146.0395929245
 20
120.6255495648
 10
146.0532554903
 20
120.6322694822
 10
146.0681748325
 20
120.6381456818
 10
146.0842222402
 20
120.6431024135
 10
146.101289824
 20
120.6470736865
 10
146.1192082908
 20
120.6500048659
 10
146.1377397751
 20
120.6518498377
 10
146.1566758777
 20
120.6525946036
 10
146.1758924786
 20
120.6522321286
 10
146.1952682717
 20
120.6507335224
 10
146.2146441278
 20
120.6480858215
 10
146.2338111275
 20
120.6443214712
 10
146.2525688234
 20
120.6394725194
  0
LINE
  5
2AF
100
AcDbEntity
  8
RACCORDO
100
AcDbLine
 62
250
  6
CONTINUOUS
 10
147.1425659054
 20
122.1035521847
 11
147.1437608555
 21
122.1041326864
  0
LWPOLYLINE
  5
2B0
100
AcDbEntity
  8
ASSI
100
AcDbPolyline
 62
250
  6
CONTINUOUS
 90
27
 70
0
 10
144.0277017026
 20
119.4552116258
 10
144.0175876634
 20
119.4507035496
 10
144.0073780935
 20
119.4460283351
 10
143.9969914294
 20
119.4411598499
 10
143.9864701315
 20
119.4360824829
 10
143.9758394881
 20
119.4306776602
 10
143.9650333237
 20
119.4249024301
 10
143.9540717885
 20
119.4187424599
 10
143.9431071589
 20
119.412101395
 10
143.9321458349
 20
119.4049478191
 10
143.9211727415
 20
119.397238899
 10
143.9103202542
 20
119.3888395788
 10
143.8996016796
 20
119.379711403
 10
143.8890445837
 20
119.3698218678
 10
143.8788219119
 20
119.3590316235
 10
143.8689351048
 20
119.3471805296
 10
143.8595018157
 20
119.3344002238
 10
143.8509095321
 20
119.3210008985
 10
143.8433385073
 20
119.3068904058
 10
143.8368187724
 20
119.2922407946
 10
143.8315114497
 20
119.2777720837
 10
143.8275923954
 20
119.2636023146
 10
143.8250051372
 20
119.2497243669
 10
143.8234920818
 20
119.2366320374
 10
143.8229472247
 20
119.2244844164
 10
143.8234499771
 20
119.2131358763
 10
143.8249768774
 20
119.2025808187
  0
LINE
  5
2B1
100
AcDbEntity
  8
ASSI
100
AcDbLine
 62
250
  6
CONTINUOUS
 10
144.0686058932
 20
119.4731891322
 11
144.0277017026
 21
119.4552116258
  0
LWPOLYLINE
  5
2B2
100
AcDbEntity
  8
RACCORDO
100
AcDbPolyline
 62
250
  6
CONTINUOUS
 90
3
 70
0
 10
150.7038770352
 20
118.6133859998
 10
150.7138424663
 20
118.6164503288
 10
150.7238965712
 20
118.6194574183
  0
LWPOLYLINE
  5
2B3
100
AcDbEntity
  8
RACCORDO
100
AcDbPolyline
 62
250
  6
CONTINUOUS
 90
7
 70
0
 10
150.7238965712
 20
118.6194574183
 10
150.744075799
 20
118.6253095524
 10
150.7541947853
 20
118.6281582207
 10
150.7649174632
 20
118.6309575376
 10
150.7764016347
 20
118.6337171947
 10
150.7884496749
 20
118.6364490826
 10
150.8010395826
 20
118.6391663916
  0
LINE
  5
2B4
100
AcDbEntity
  8
0
100
AcDbLine
 62
250
  6
CONTINUOUS
 10
149.8661370693
 20
83.424682572
 11
149.9062383747
 21
83.4360199814
  0
LWPOLYLINE
  5
2B5
100
AcDbEntity
  8
ASSI
100
AcDbPolyline
 62
250
  6
CONTINUOUS
 90
6
 70
0
 10
135.2955381411
 20
121.0081345302
 10
135.2785667402
 20
120.9792204914
 10
135.2633988019
 20
120.9507108143
 10
135.2501648346
 20
120.9229829562
 10
135.2387343298
 20
120.8956594598
 10
135.2287371395
 20
120.8684925516
  0
LWPOLYLINE
  5
2B6
100
AcDbEntity
  8
ASSI
100
AcDbPolyline
 62
250
  6
CONTINUOUS
 90
6
 70
0
 10
135.3805563582
 20
121.0587022043
 10
135.3857650236
 20
121.0664656762
 10
135.3884700897
 20
121.0764850605
 10
135.3886091187
 20
121.0885733141
 10
135.3861797458
 20
121.1025251726
 10
135.3812232197
 20
121.1181037259
  0
LINE
  5
2B7
100
AcDbEntity
  8
ASSI
100
AcDbLine
 62
250
  6
CONTINUOUS
 10
146.8968126665
 20
121.1041136385
 11
146.9106782311
 21
121.115131002
  0
LWPOLYLINE
  5
2B8
100
AcDbEntity
  8
ASSI
100
AcDbPolyline
 62
7
  6
CONTINUOUS
 90
7
 70
0
 10
144.4861663384
 20
118.5116125989
 10
144.4752015198
 20
118.5034667631
 10
144.4657541503
 20
118.4948211022
 10
144.4577623031
 20
118.4856031283
 10
144.4512879049
 20
118.4758853294
 10
144.4465167366
 20
118.4658851696
 10
144.4439197206
 20
118.4570643063
  0
LWPOLYLINE
  5
2B9
100
AcDbEntity
  8
RACCORDO
100
AcDbPolyline
 62
250
  6
CONTINUOUS
 90
6
 70
0
 10
149.0413964453
 20
121.593278994
 10
149.0522624795
 20
121.6008780838
 10
149.0606760939
 20
121.6092271451
 10
149.0663872896
 20
121.6180780838
 10
149.069226371
 20
121.627167893
 10
149.0694690392
 20
121.6333578259
  0
LINE
  5
2BA
100
AcDbEntity
  8
RACCORDO
100
AcDbLine
 62
7
  6
CONTINUOUS
 10
144.6672047156
 20
117.7213488291
 11
143.9676331967
 21
117.2443047834
  0
LINE
  5
2BB
100
AcDbEntity
  8
RACCORDO
100
AcDbLine
 62
250
  6
CONTINUOUS
 10
144.7153073235
 20
117.7150117864
 11
143.9986938045
 21
117.2263707777
  0
LWPOLYLINE
  5
2BC
100
AcDbEntity
  8
RACCORDO
100
AcDbPolyline
 62
250
  6
CONTINUOUS
 90
8
 70
0
 10
144.7153073235
 20
117.7150117864
 10
144.7192012873
 20
117.7175574746
 10
144.7233081312
 20
117.7201211658
 10
144.7276181816
 20
117.7226851927
 10
144.7321624452
 20
117.7252149212
 10
144.7368934873
 20
117.727710916
 10
144.7416859952
 20
117.7302070808
 10
144.7465186605
 20
117.7326890612
  0
LINE
  5
2BD
100
AcDbEntity
  8
ASSI
100
AcDbLine
 62
7
  6
CONTINUOUS
 10
144.8725302025
 20
117.1000913406
 11
145.7030583761
 21
117.634881668
  0
LWPOLYLINE
  5
2BE
100
AcDbEntity
  8
ASSI
100
AcDbPolyline
 62
7
  6
CONTINUOUS
 90
6
 70
0
 10
146.9647477562
 20
119.9284951932
 10
146.9508702935
 20
119.9195717817
 10
146.938916022
 20
119.9100460446
 10
146.9288849417
 20
119.8999179818
 10
146.9206937418
 20
119.889053783
 10
146.9187934547
 20
119.8855774497
  0
LINE
  5
2BF
100
AcDbEntity
  8
ASSI
100
AcDbLine
 62
250
  6
CONTINUOUS
 10
146.9106782311
 20
121.115131002
 11
146.9270904737
 21
121.1252628655
  0
LINE
  5
2C0
100
AcDbEntity
  8
ASSI
100
AcDbLine
 62
7
  6
CONTINUOUS
 10
144.4986486062
 20
118.5192586098
 11
144.4861663384
 21
118.5116125989
  0
LINE
  5
2C1
100
AcDbEntity
  8
RACCORDO
100
AcDbLine
 62
250
  6
CONTINUOUS
 10
150.5552845182
 20
119.7055218027
 11
147.7897121335
 21
118.0995816778
  0
LINE
  5
2C2
100
AcDbEntity
  8
RACCORDO
100
AcDbLine
 62
250
  6
CONTINUOUS
 10
150.7013420138
 20
119.4202040863
 11
148.1093210202
 21
117.9150435123
  0
LINE
  5
2C3
100
AcDbEntity
  8
RACCORDO
100
AcDbLine
 62
250
  6
CONTINUOUS
 10
147.1131430707
 20
118.4253996822
 11
150.3785347468
 21
120.3108023847
  0
LINE
  5
2C4
100
AcDbEntity
  8
RACCORDO
100
AcDbLine
 62
7
  6
CONTINUOUS
 10
144.5449673038
 20
116.9109593056
 11
144.8725302025
 21
117.1000913406
  0
LINE
  5
2C5
100
AcDbEntity
  8
ASSI
100
AcDbLine
 62
250
  6
CONTINUOUS
 10
144.7196447794
 20
116.7452782275
 11
144.121387264
 21
116.3998506499
  0
LINE
  5
2C6
100
AcDbEntity
  8
RACCORDO
100
AcDbLine
 62
250
  6
CONTINUOUS
 10
147.5227611738
 20
118.2537158162
 11
150.5552845182
 21
120.0046628008
  0
LINE
  5
2C7
100
AcDbEntity
  8
ASSI
100
AcDbLine
 62
250
  6
CONTINUOUS
 10
144.8610445965
 20
116.5003665603
 11
144.4041729908
 21
116.2365737154
  0
LINE
  5
2C8
100
AcDbEntity
  8
SUPERFICI
100
AcDbLine
 62
250
  6
CONTINUOUS
 10
144.527403969
 20
116.165421693
 11
142.1233506919
 21
114.7773583067
  0
LINE
  5
2C9
100
AcDbEntity
  8
RACCORDO
100
AcDbLine
 62
7
  6
CONTINUOUS
 10
149.0057333676
 20
121.1034406958
 11
146.9647477562
 21
119.9284951932
  0
LINE
  5
2CA
100
AcDbEntity
  8
ASSI
100
AcDbLine
 62
7
  6
CONTINUOUS
 10
146.1755562612
 20
119.4741769384
 11
144.967682816
 21
118.77883373
  0
LINE
  5
2CB
100
AcDbEntity
  8
RACCORDO
100
AcDbLine
 62
250
  6
CONTINUOUS
 10
147.4358044768
 20
117.3537712158
 11
148.2109735894
 21
117.7915260997
  0
LINE
  5
2CC
100
AcDbEntity
  8
ASSI
100
AcDbLine
 62
7
  6
CONTINUOUS
 10
144.967682816
 20
118.77883373
 11
144.4986493452
 21
118.5192590188
  0
LINE
  5
2CD
100
AcDbEntity
  8
ASSI
100
AcDbLine
 62
7
  6
CONTINUOUS
 10
143.7687063175
 20
118.115290513
 11
142.4317855281
 21
117.3754055166
  0
LINE
  5
2CE
100
AcDbEntity
  8
ASSI
100
AcDbLine
 62
7
  6
CONTINUOUS
 10
143.0952475738
 20
117.6385175554
 11
142.5157885322
 21
117.3269032348
  0
LINE
  5
2CF
100
AcDbEntity
  8
ASSI
100
AcDbLine
 62
250
  6
CONTINUOUS
 10
143.1924409136
 20
117.6270665992
 11
142.572927121
 21
117.2939121297
  0
LWPOLYLINE
  5
2D0
100
AcDbEntity
  8
RACCORDO
100
AcDbPolyline
 62
250
  6
CONTINUOUS
 90
17
 70
0
 10
144.80576127
 20
117.7622707572
 10
144.8096957268
 20
117.7643342867
 10
144.813510778
 20
117.7663754392
 10
144.8172058339
 20
117.7683911658
 10
144.8207522614
 20
117.7704125789
 10
144.8241557686
 20
117.7724312084
 10
144.8274116638
 20
117.7744463723
 10
144.8304733882
 20
117.7765010996
 10
144.8333506795
 20
117.7785860481
 10
144.8360328879
 20
117.7807020099
 10
144.8384404535
 20
117.7829068874
 10
144.8405806776
 20
117.7851929688
 10
144.8424435532
 20
117.7875589885
 10
144.8439216395
 20
117.7900718633
 10
144.8449775224
 20
117.7927504524
 10
144.8456447676
 20
117.7955659269
 10
144.8459217195
 20
117.7985132348
  0
LINE
  5
2D1
100
AcDbEntity
  8
RACCORDO
100
AcDbLine
 62
250
  6
CONTINUOUS
 10
144.7469119676
 20
115.9497358591
 11
147.4357452725
 21
117.3538053997
  0
LWPOLYLINE
  5
2D2
100
AcDbEntity
  8
RACCORDO
100
AcDbPolyline
 62
250
  6
CONTINUOUS
 90
3
 70
0
 10
144.7932891938
 20
117.7559310332
 10
144.7975474909
 20
117.7580773942
 10
144.80576127
 20
117.7622707572
  0
LINE
  5
2D3
100
AcDbEntity
  8
RACCORDO
100
AcDbLine
 62
250
  6
CONTINUOUS
 10
144.7465186605
 20
117.7326890612
 11
144.7611008037
 21
117.7399854709
  0
LWPOLYLINE
  5
2D4
100
AcDbEntity
  8
RACCORDO
100
AcDbPolyline
 62
250
  6
CONTINUOUS
 90
8
 70
0
 10
150.7013420138
 20
119.4202040863
 10
150.7193131097
 20
119.4291739757
 10
150.7365313435
 20
119.4355167104
 10
150.7527086075
 20
119.4391261611
 10
150.7675742136
 20
119.4399419341
 10
150.7808794199
 20
119.4379503813
 10
150.792401594
 20
119.4331848298
 10
150.7974038409
 20
119.4298073485
  0
LWPOLYLINE
  5
2D5
100
AcDbEntity
  8
RACCORDO
100
AcDbPolyline
 62
250
  6
CONTINUOUS
 90
8
 70
0
 10
151.0456231256
 20
119.1513254381
 10
151.0635941886
 20
119.1602953131
 10
151.0808123972
 20
119.1666380448
 10
151.0969896446
 20
119.1702475022
 10
151.1118552418
 20
119.1710632893
 10
151.1251604475
 20
119.1690717559
 10
151.1366826298
 20
119.1643062257
 10
151.1416417409
 20
119.1609623662
  0
LWPOLYLINE
  5
2D6
100
AcDbEntity
  8
SUPERFICI
100
AcDbPolyline
 62
250
  6
CONTINUOUS
 90
16
 70
0
 10
142.4767829286
 20
114.1651957163
 10
142.4375586823
 20
114.1458245597
 10
142.3950847053
 20
114.1288914163
 10
142.3498136205
 20
114.1145767347
 10
142.3022221978
 20
114.1030318807
 10
142.2528228338
 20
114.0943817353
 10
142.2021599514
 20
114.0887199502
 10
142.1507863615
 20
114.0861039301
 10
142.0992373537
 20
114.0865566234
 10
142.04804284
 20
114.0900717939
 10
141.9976776478
 20
114.0966233553
 10
141.9487507555
 20
114.1061387271
 10
141.9019595975
 20
114.1184637168
 10
141.8578291688
 20
114.1334150047
 10
141.8167295758
 20
114.1508198967
 10
141.7790522502
 20
114.170469455
  0
LWPOLYLINE
  5
2D7
100
AcDbEntity
  8
RACCORDO
100
AcDbPolyline
 62
250
  6
CONTINUOUS
 90
3
 70
0
 10
144.7611008037
 20
117.7399854709
 10
144.7799517876
 20
117.7492999541
 10
144.7932891938
 20
117.7559310332
  0
LWPOLYLINE
  5
2D8
100
AcDbEntity
  8
RACCORDO
100
AcDbPolyline
 62
250
  6
CONTINUOUS
 90
4
 70
0
 10
149.0495925903
 20
116.9685075043
 10
149.0340648901
 20
116.9609215862
 10
149.024126007
 20
116.9557152835
 10
149.000624216
 20
116.9424920928
  0
LWPOLYLINE
  5
2D9
100
AcDbEntity
  8
RACCORDO
100
AcDbPolyline
 62
250
  6
CONTINUOUS
 90
7
 70
0
 10
150.3785347468
 20
120.3108023847
 10
150.3967665595
 20
120.3195953652
 10
150.4146520062
 20
120.3254854377
 10
150.4318918154
 20
120.3283740452
 10
150.4481975186
 20
120.3282128538
 10
150.4632962777
 20
120.3250045604
 10
150.4759402247
 20
120.319385977
  0
LWPOLYLINE
  5
2DA
100
AcDbEntity
  8
0
100
AcDbPolyline
 62
250
  6
CONTINUOUS
 90
3
 70
0
 10
149.395629629
 20
115.8072050175
 10
149.4203413072
 20
115.8149372249
 10
149.4467817114
 20
115.8193669538
  0
LWPOLYLINE
  5
2DB
100
AcDbEntity
  8
SUPERFICI
100
AcDbPolyline
 62
7
  6
CONTINUOUS
 90
3
 70
0
 10
145.0197191718
 20
79.277965795
 10
145.0027623104
 20
79.2834442862
 10
144.984976844
 20
79.2863390694
  0
LWPOLYLINE
  5
2DC
100
AcDbEntity
  8
SUPERFICI
100
AcDbPolyline
 62
7
  6
CONTINUOUS
 90
10
 70
0
 10
145.4181594766
 20
79.0489720812
 10
145.4048043649
 20
79.0547639733
 10
145.3907381512
 20
79.0586914333
 10
145.3759608354
 20
79.060754461
 10
145.3603619903
 20
79.0609417011
 10
145.3440520431
 20
79.0592645089
 10
145.3273622755
 20
79.0557569511
 10
145.3104031145
 20
79.050430383
 10
145.293064133
 20
79.0432734493
 10
145.275345331
 20
79.0342861498
  0
LINE
  5
2DD
100
AcDbEntity
  8
SUPERFICI
100
AcDbLine
 62
7
  6
CONTINUOUS
 10
145.5112261036
 20
79.0215098399
 11
145.029026713
 21
79.2736524619
  0
LINE
  5
2DE
100
AcDbEntity
  8
RACCORDO
100
AcDbLine
 62
7
  6
CONTINUOUS
 10
145.7823973517
 20
78.8575909274
 11
145.4181594766
 21
79.0489720812
  0
LWPOLYLINE
  5
2DF
100
AcDbEntity
  8
SUPERFICI
100
AcDbPolyline
 62
250
  6
CONTINUOUS
 90
9
 70
0
 10
126.7643914724
 20
80.8075549878
 10
126.7655061575
 20
80.788288557
 10
126.7715942192
 20
80.7587294864
 10
126.7829411253
 20
80.7296492557
 10
126.799421171
 20
80.7013994813
 10
126.8207673041
 20
80.6743828531
 10
126.8466620259
 20
80.6489024967
 10
126.8768062411
 20
80.6251721067
 10
126.9108380818
 20
80.6034176911
  0
LINE
  5
2E0
100
AcDbEntity
  8
SUPERFICI
100
AcDbLine
 62
7
  6
CONTINUOUS
 10
126.7643914724
 20
80.8075549878
 11
126.7643914724
 21
122.95932727
  0
LINE
  5
2E1
100
AcDbEntity
  8
SUPERFICI
100
AcDbLine
 62
250
  6
CONTINUOUS
 10
126.9108380818
 20
80.6034176911
 11
126.9108380818
 21
122.7551899734
  0
LWPOLYLINE
  5
2E2
100
AcDbEntity
  8
SUPERFICI
100
AcDbPolyline
 62
250
  6
CONTINUOUS
 90
16
 70
0
 10
126.9108380818
 20
122.7551899734
 10
126.9127109187
 20
122.7982348507
 10
126.918309588
 20
122.8429864002
 10
126.9275747752
 20
122.8889705077
 10
126.9404083218
 20
122.9357000007
 10
126.9566742645
 20
122.9826798098
 10
126.9762002758
 20
123.0294122136
 10
126.99877949
 20
123.0754021115
 10
127.0241726946
 20
123.1201622701
 10
127.0521108649
 20
123.163218484
 10
127.0822980137
 20
123.2041146001
 10
127.1144143274
 20
123.2424173497
 10
127.1481195539
 20
123.2777209395
 10
127.1830566075
 20
123.3096513501
 10
127.2188553524
 20
123.3378702992
 10
127.2551365236
 20
123.362078825
  0
LINE
  5
2E3
100
AcDbEntity
  8
ASSI
100
AcDbLine
 62
7
  6
CONTINUOUS
 10
137.6364401924
 20
121.0895178611
 11
138.018252463
 21
121.8993883769
  0
LINE
  5
2E4
100
AcDbEntity
  8
ASSI
100
AcDbLine
 62
250
  6
CONTINUOUS
 10
137.6948694406
 20
121.0151628533
 11
138.0766817113
 21
121.8250333691
  0
LWPOLYLINE
  5
2E5
100
AcDbEntity
  8
ASSI
100
AcDbPolyline
 62
7
  6
CONTINUOUS
 90
13
 70
0
 10
137.6364411273
 20
121.0895198437
 10
137.6262743702
 20
121.0691875381
 10
137.613947348
 20
121.0471841493
 10
137.6003563876
 20
121.0254278176
 10
137.5856873549
 20
121.0042254297
 10
137.5701509282
 20
120.9838753213
 10
137.5539193947
 20
120.9645820273
 10
137.5372233554
 20
120.9465803128
 10
137.5203380734
 20
120.9301125189
 10
137.5035788892
 20
120.9154020329
 10
137.4873078096
 20
120.9026451795
 10
137.4718719724
 20
120.8919647852
 10
137.4583499038
 20
120.8838198715
  0
LWPOLYLINE
  5
2E6
100
AcDbEntity
  8
ASSI
100
AcDbPolyline
 62
7
  6
CONTINUOUS
 90
7
 70
0
 10
142.0408157577
 20
123.069847994
 10
142.041171136
 20
123.0704027841
 10
142.0406332645
 20
123.069779027
 10
142.0378891673
 20
123.0669967163
 10
142.0327160349
 20
123.0626104762
 10
142.0252632711
 20
123.0572693504
 10
142.0148111488
 20
123.0509261322
  0
LWPOLYLINE
  5
2E7
100
AcDbEntity
  8
0
100
AcDbPolyline
 62
250
  6
CONTINUOUS
 90
4
 70
0
 10
148.7950685447
 20
127.223885111
 10
148.8223650972
 20
127.2535109732
 10
148.8497129949
 20
127.2764603573
 10
148.8668161668
 20
127.2876131982
  0
LWPOLYLINE
  5
2E8
100
AcDbEntity
  8
ASSI
100
AcDbPolyline
 62
250
  6
CONTINUOUS
 90
11
 70
0
 10
144.2769748249
 20
119.6120402719
 10
144.2631055922
 20
119.5982927023
 10
144.2552961215
 20
119.5907396501
 10
144.2467710785
 20
119.582807123
 10
144.2375160271
 20
119.5744716861
 10
144.2273741679
 20
119.5657831745
 10
144.2162328997
 20
119.5568176789
 10
144.2041080282
 20
119.5475861144
 10
144.1908890918
 20
119.5381330211
 10
144.1763564476
 20
119.5285520042
 10
144.1603408861
 20
119.5189282502
  0
LWPOLYLINE
  5
2E9
100
AcDbEntity
  8
ASSI
100
AcDbPolyline
 62
250
  6
CONTINUOUS
 90
3
 70
0
 10
146.9025618634
 20
121.1370947776
 10
146.9135658825
 20
121.1467198158
 10
146.9258595989
 20
121.1555210419
  0
LWPOLYLINE
  5
2EA
100
AcDbEntity
  8
RACCORDO
100
AcDbPolyline
 62
250
  6
CONTINUOUS
 90
7
 70
0
 10
150.5552845182
 20
120.0046628008
 10
150.5720147419
 20
120.0160566313
 10
150.5860577219
 20
120.0286020653
 10
150.597178482
 20
120.0420891836
 10
150.6051909426
 20
120.05629231
 10
150.6099610346
 20
120.0709737876
 10
150.6114162578
 20
120.0846800841
  0
LWPOLYLINE
  5
2EB
100
AcDbEntity
  8
RACCORDO
100
AcDbPolyline
 62
250
  6
CONTINUOUS
 90
7
 70
0
 10
150.5552845182
 20
119.7055218027
 10
150.5720147333
 20
119.7169156264
 10
150.5860577091
 20
119.7294610538
 10
150.5971784687
 20
119.742948166
 10
150.6051909319
 20
119.7571512876
 10
150.6099610288
 20
119.7718327619
 10
150.6114165581
 20
119.7857392101
  0
LWPOLYLINE
  5
2EC
100
AcDbEntity
  8
RACCORDO
100
AcDbPolyline
 62
250
  6
CONTINUOUS
 90
7
 70
0
 10
151.1916806212
 20
118.8660077218
 10
151.2084108364
 20
118.8774015455
 10
151.2224538121
 20
118.8899469729
 10
151.2335745718
 20
118.9034340851
 10
151.241587035
 20
118.9176372067
 10
151.2463571319
 20
118.932318681
 10
151.2478126061
 20
118.9461394362
  0
LINE
  5
2ED
100
AcDbEntity
  8
RACCORDO
100
AcDbLine
 62
250
  6
CONTINUOUS
 10
150.9317216372
 20
118.4287483343
 11
150.9442692986
 21
118.4372937021
  0
LWPOLYLINE
  5
2EE
100
AcDbEntity
  8
SUPERFICI
100
AcDbPolyline
 62
250
  6
CONTINUOUS
 90
16
 70
0
 10
142.1233506919
 20
114.7773583067
 10
142.0870695207
 20
114.7531497809
 10
142.0512707758
 20
114.7249308318
 10
142.0163337222
 20
114.6930004211
 10
141.9826284958
 20
114.6576968314
 10
141.9505121821
 20
114.6193940818
 10
141.9203250332
 20
114.5784979657
 10
141.892386863
 20
114.5354417518
 10
141.8669936584
 20
114.4906815932
 10
141.8444144442
 20
114.4446916952
 10
141.8248884329
 20
114.3979592915
 10
141.8086224902
 20
114.3509794824
 10
141.7957889436
 20
114.3042499893
 10
141.7865237563
 20
114.2582658819
 10
141.7809250871
 20
114.2135143324
 10
141.7790522502
 20
114.170469455
  0
LINE
  5
2EF
100
AcDbEntity
  8
RACCORDO
100
AcDbLine
 62
250
  6
CONTINUOUS
 10
151.1568042699
 20
118.2585456657
 11
151.1530057769
 21
118.2560128336
  0
LWPOLYLINE
  5
2F0
100
AcDbEntity
  8
ASSI
100
AcDbPolyline
 62
250
  6
CONTINUOUS
 90
9
 70
0
 10
144.8610445965
 20
116.5003665603
 10
144.8746995096
 20
116.5094303748
 10
144.8866468073
 20
116.5192615555
 10
144.8967586479
 20
116.5297532032
 10
144.9049229111
 20
116.5407846855
 10
144.9110596385
 20
116.5522426436
 10
144.9151095989
 20
116.5640244958
 10
144.9170210475
 20
116.5760298723
 10
144.9171766124
 20
116.5805273794
  0
LWPOLYLINE
  5
2F1
100
AcDbEntity
  8
ASSI
100
AcDbPolyline
 62
250
  6
CONTINUOUS
 90
8
 70
0
 10
144.8610445965
 20
116.1310555708
 10
144.874650961
 20
116.1400835688
 10
144.8865659976
 20
116.1498761776
 10
144.8966617296
 20
116.1603282222
 10
144.9048299259
 20
116.171327767
 10
144.91098253
 20
116.1827563753
 10
144.9150531919
 20
116.1944902724
 10
144.9168584998
 20
116.2055443322
  0
LWPOLYLINE
  5
2F2
100
AcDbEntity
  8
RACCORDO
100
AcDbPolyline
 62
250
  6
CONTINUOUS
 90
9
 70
0
 10
151.1916806212
 20
118.3458965972
 10
151.2052713763
 20
118.3549130856
 10
151.2171750829
 20
118.3646924331
 10
151.2272642037
 20
118.3751298612
 10
151.2354306376
 20
118.3861135321
 10
151.2415868979
 20
118.3975257723
 10
151.2456670342
 20
118.4092443367
 10
151.2476273185
 20
118.4211436844
 10
151.2478126612
 20
118.4261140046
  0
LINE
  5
2F3
100
AcDbEntity
  8
RACCORDO
100
AcDbLine
 62
250
  6
CONTINUOUS
 10
151.0510933591
 20
118.2589553255
 11
151.1916806212
 21
118.3458965972
  0
LINE
  5
2F4
100
AcDbEntity
  8
RACCORDO
100
AcDbLine
 62
7
  6
CONTINUOUS
 10
151.089131352
 20
118.2165119311
 11
151.1530057769
 21
118.2560128336
  0
LINE
  5
2F5
100
AcDbEntity
  8
RACCORDO
100
AcDbLine
 62
250
  6
CONTINUOUS
 10
146.6425695632
 20
115.5122436832
 11
148.9866045583
 21
116.9347422889
  0
LINE
  5
2F6
100
AcDbEntity
  8
RACCORDO
100
AcDbLine
 62
7
  6
CONTINUOUS
 10
146.7866562568
 20
115.3556391188
 11
148.9926032031
 21
116.6938474998
  0
LINE
  5
2F7
100
AcDbEntity
  8
DRAFT
100
AcDbLine
 62
7
  6
CONTINUOUS
 10
147.3582265124
 20
114.4030624058
 11
149.1626835419
 21
115.4970151778
  0
LINE
  5
2F8
100
AcDbEntity
  8
RACCORDO
100
AcDbLine
 62
250
  6
CONTINUOUS
 10
150.7838446366
 20
118.4418128789
 11
148.8427470416
 21
117.3049604076
  0
LINE
  5
2F9
100
AcDbEntity
  8
RACCORDO
100
AcDbLine
 62
250
  6
CONTINUOUS
 10
150.7038770352
 20
118.6133859998
 11
148.7204110778
 21
117.4561166008
  0
LINE
  5
2FA
100
AcDbEntity
  8
RACCORDO
100
AcDbLine
 62
250
  6
CONTINUOUS
 10
151.0456231256
 20
119.1513254381
 11
148.4956798106
 21
117.6705989497
  0
LINE
  5
2FB
100
AcDbEntity
  8
RACCORDO
100
AcDbLine
 62
250
  6
CONTINUOUS
 10
150.8010395826
 20
118.6391663916
 11
151.1916806212
 21
118.8660077218
  0
LINE
  5
2FC
100
AcDbEntity
  8
SUPERFICI
100
AcDbLine
 62
250
  6
CONTINUOUS
 10
144.8808362057
 20
115.5532591027
 11
142.4767829286
 21
114.1651957163
  0
LINE
  5
2FD
100
AcDbEntity
  8
RACCORDO
100
AcDbLine
 62
250
  6
CONTINUOUS
 10
145.4288439611
 20
113.1139862641
 11
144.8808362057
 21
112.7975734542
  0
LINE
  5
2FE
100
AcDbEntity
  8
0
100
AcDbLine
 62
250
  6
CONTINUOUS
 10
149.9443559115
 20
115.4754428064
 11
149.3596486916
 21
115.1378680464
  0
LWPOLYLINE
  5
2FF
100
AcDbEntity
  8
0
100
AcDbPolyline
 62
7
  6
CONTINUOUS
 90
9
 70
0
 10
151.1940765436
 20
117.0810959706
 10
151.2205479265
 20
117.0963333064
 10
151.2492816879
 20
117.106657199
 10
151.2803003914
 20
117.1118389619
 10
151.3135429017
 20
117.1120802918
 10
151.3478900884
 20
117.1074583876
 10
151.3829689079
 20
117.0979989818
 10
151.4191524038
 20
117.0836763418
 10
151.4564405759
 20
117.0644904676
  0
LINE
  5
300
100
AcDbEntity
  8
RACCORDO
100
AcDbLine
 62
250
  6
CONTINUOUS
 10
146.9391389106
 20
115.1072827102
 11
151.4684192109
 21
117.6779537358
  0
LINE
  5
301
100
AcDbEntity
  8
RACCORDO
100
AcDbLine
 62
250
  6
CONTINUOUS
 10
148.0788124415
 20
116.6901294258
 11
148.8800078217
 21
117.142202448
  0
LINE
  5
302
100
AcDbEntity
  8
RACCORDO
100
AcDbLine
 62
250
  6
CONTINUOUS
 10
149.000624216
 20
116.9424920928
 11
148.9866045583
 21
116.9347422889
  0
LWPOLYLINE
  5
303
100
AcDbEntity
  8
RACCORDO
100
AcDbPolyline
 62
250
  6
CONTINUOUS
 90
7
 70
0
 10
150.7838446366
 20
118.4418128789
 10
150.7977085563
 20
118.4492743006
 10
150.8107906296
 20
118.4554819502
 10
150.8229575986
 20
118.4603732127
 10
150.8340857166
 20
118.463899005
 10
150.8440619976
 20
118.4660242552
 10
150.8527853527
 20
118.4667282379
  0
LWPOLYLINE
  5
304
100
AcDbEntity
  8
RACCORDO
100
AcDbPolyline
 62
250
  6
CONTINUOUS
 90
10
 70
0
 10
151.4684192109
 20
117.6779537358
 10
151.4825947012
 20
117.6855729785
 10
151.4959515994
 20
117.691879581
 10
151.5083467955
 20
117.6968059724
 10
151.5196474838
 20
117.7002993697
 10
151.529732585
 20
117.7023223438
 10
151.5384940444
 20
117.7028532197
 10
151.5458379889
 20
117.7018863096
 10
151.5516857334
 20
117.6994319732
 10
151.5551324572
 20
117.6965405237
  0
LINE
  5
305
100
AcDbEntity
  8
RACCORDO
100
AcDbLine
 62
250
  6
CONTINUOUS
 10
144.8808362057
 20
115.028854166
 11
148.0788124415
 21
116.6901294258
  0
LINE
  5
306
100
AcDbEntity
  8
0
100
AcDbLine
 62
250
  6
CONTINUOUS
 10
149.3728340926
 20
115.7962289732
 11
149.395629629
 21
115.8072050175
  0
LINE
  5
307
100
AcDbEntity
  8
0
100
AcDbLine
 62
250
  6
CONTINUOUS
 10
152.8591543535
 20
115.0437187186
 11
151.0433368613
 21
114.3155218464
  0
LINE
  5
308
100
AcDbEntity
  8
0
100
AcDbLine
 62
250
  6
CONTINUOUS
 10
151.1200103911
 20
113.9545959519
 11
152.9634090547
 21
114.6938864894
  0
LWPOLYLINE
  5
309
100
AcDbEntity
  8
0
100
AcDbPolyline
 62
250
  6
CONTINUOUS
 90
19
 70
0
 10
151.1200103429
 20
113.9545959301
 10
151.0617496316
 20
113.9323683727
 10
150.9979990391
 20
113.914572087
 10
150.9287638895
 20
113.9016655055
 10
150.8528077678
 20
113.8940942027
 10
150.7716013592
 20
113.8925350531
 10
150.689708673
 20
113.8972263582
 10
150.6097233424
 20
113.9079413631
 10
150.5303319596
 20
113.9244875388
 10
150.4504829978
 20
113.9467322231
 10
150.3695564166
 20
113.9752036134
 10
150.2892338864
 20
114.0095275751
 10
150.211826433
 20
114.0481431784
 10
150.1398416539
 20
114.0894227368
 10
150.0713726024
 20
114.1342388321
 10
150.0023820267
 20
114.1851059314
 10
149.9323101341
 20
114.2432990232
 10
149.86358089
 20
114.3081831808
 10
149.7972421782
 20
114.379933894
  0
LWPOLYLINE
  5
30A
100
AcDbEntity
  8
0
100
AcDbPolyline
 62
250
  6
CONTINUOUS
 90
19
 70
0
 10
151.0433368613
 20
114.3155218464
 10
151.014015978
 20
114.3054614699
 10
150.9826461363
 20
114.2991766762
 10
150.9492273361
 20
114.2966674653
 10
150.9130563717
 20
114.2980008096
 10
150.8748364488
 20
114.3031097367
 10
150.8366771848
 20
114.3117933293
 10
150.7996449308
 20
114.3237354769
 10
150.7626733357
 20
114.33925229
 10
150.7246729635
 20
114.3590911829
 10
150.6846496686
 20
114.3838119035
 10
150.6435975966
 20
114.412854704
 10
150.6034097483
 20
114.4452877543
 10
150.5648011225
 20
114.48049337
 10
150.5270567203
 20
114.5190892356
 10
150.4899245464
 20
114.5619965744
 10
150.4533206023
 20
114.609522461
 10
150.4173288865
 20
114.6613598207
 10
150.381949399
 20
114.7175086538
  0
LINE
  5
30B
100
AcDbEntity
  8
SUPERFICI
100
AcDbLine
 62
250
  6
CONTINUOUS
 10
145.275345331
 20
79.0342861498
 11
144.8883942692
 21
79.2577068433
  0
LINE
  5
30C
100
AcDbEntity
  8
SUPERFICI
100
AcDbLine
 62
250
  6
CONTINUOUS
 10
145.4181594766
 20
79.0489720812
 11
145.029026713
 21
79.2736524619
  0
LINE
  5
30D
100
AcDbEntity
  8
RACCORDO
100
AcDbLine
 62
7
  6
CONTINUOUS
 10
145.5112261036
 20
79.0215098399
 11
145.7823973517
 21
78.8649389598
  0
LWPOLYLINE
  5
30E
100
AcDbEntity
  8
SUPERFICI
100
AcDbPolyline
 62
250
  6
CONTINUOUS
 90
9
 70
0
 10
126.7643914728
 20
122.9593158632
 10
126.7655080086
 20
122.9400448662
 10
126.7715994326
 20
122.9104842302
 10
126.7829495959
 20
122.8814040886
 10
126.7994322202
 20
122.8531556307
 10
126.8207794317
 20
122.8261416678
 10
126.8466729864
 20
122.8006651584
 10
126.8768133046
 20
122.7769393848
 10
126.9108380818
 20
122.7551899734
  0
LWPOLYLINE
  5
30F
100
AcDbEntity
  8
RACCORDO
100
AcDbPolyline
 62
250
  6
CONTINUOUS
 90
7
 70
0
 10
130.2924228976
 20
101.8899224175
 10
130.3429607413
 20
102.14940406
 10
130.4058970463
 20
102.3984594258
 10
130.4810753442
 20
102.6364693341
 10
130.5683087358
 20
102.8628420706
 10
130.6673803526
 20
103.0770148461
 10
130.7321052393
 20
103.1948332684
  0
LWPOLYLINE
  5
310
100
AcDbEntity
  8
ASSI
100
AcDbPolyline
 62
7
  6
CONTINUOUS
 90
12
 70
0
 10
135.2598129515
 20
120.8313126882
 10
135.2633946513
 20
120.8478636164
 10
135.2692048295
 20
120.8689314906
 10
135.2765963376
 20
120.8909912436
 10
135.2855662621
 20
120.9137092903
 10
135.2960737967
 20
120.9367443062
 10
135.3079055205
 20
120.9595178065
 10
135.3209178243
 20
120.9817201867
 10
135.3349094579
 20
121.003011851
 10
135.3494592496
 20
121.0228384879
 10
135.3643137988
 20
121.0409926844
 10
135.3805563582
 20
121.0587022043
  0
LINE
  5
311
100
AcDbEntity
  8
ASSI
100
AcDbLine
 62
250
  6
CONTINUOUS
 10
135.2287371395
 20
120.8684925516
 11
135.2234889168
 21
120.8522857306
  0
LWPOLYLINE
  5
312
100
AcDbEntity
  8
ASSI
100
AcDbPolyline
 62
250
  6
CONTINUOUS
 90
9
 70
0
 10
137.6364401924
 20
121.0895178611
 10
137.6354887554
 20
121.0867699935
 10
137.6354522229
 20
121.0794778407
 10
137.6384163046
 20
121.0709443638
 10
137.644332103
 20
121.0613103371
 10
137.6531020267
 20
121.0507346902
 10
137.664581401
 20
121.0393918866
 10
137.6785808539
 20
121.0274690451
 10
137.6948694406
 20
121.0151628533
  0
LWPOLYLINE
  5
313
100
AcDbEntity
  8
ASSI
100
AcDbPolyline
 62
250
  6
CONTINUOUS
 90
11
 70
0
 10
138.018252463
 20
121.8993883769
 10
138.0176522174
 20
121.8978881969
 10
138.0169207063
 20
121.8923481535
 10
138.0181238717
 20
121.8859754539
 10
138.021245986
 20
121.8788459636
 10
138.0262481812
 20
121.8710382942
 10
138.0330730324
 20
121.8626357575
 10
138.0416364957
 20
121.8537356394
 10
138.0518371753
 20
121.844436379
 10
138.0635622028
 20
121.8348350634
 10
138.0766817113
 20
121.8250333691
  0
LWPOLYLINE
  5
314
100
AcDbEntity
  8
ASSI
100
AcDbPolyline
 62
250
  6
CONTINUOUS
 90
10
 70
0
 10
138.0766817113
 20
121.8250333691
 10
138.085718847
 20
121.8461167159
 10
138.0962900282
 20
121.8667671139
 10
138.1082522982
 20
121.8867053018
 10
138.1214438879
 20
121.90566165
 10
138.1356864039
 20
121.923379806
 10
138.1507872406
 20
121.9396201619
 10
138.166542185
 20
121.9541630945
 10
138.1827381786
 20
121.9668119355
 10
138.1991561984
 20
121.9773956307
  0
LWPOLYLINE
  5
315
100
AcDbEntity
  8
0
100
AcDbPolyline
 62
250
  6
CONTINUOUS
 90
6
 70
0
 10
148.6108910277
 20
126.8390437201
 10
148.6861745148
 20
126.9489972064
 10
148.7563806658
 20
127.0398445783
 10
148.8212514751
 20
127.1137539909
 10
148.878002041
 20
127.1707234174
 10
148.9295719468
 20
127.2153522817
  0
LWPOLYLINE
  5
316
100
AcDbEntity
  8
ASSI
100
AcDbPolyline
 62
250
  6
CONTINUOUS
 90
10
 70
0
 10
144.4527977906
 20
119.7624756156
 10
144.4390529716
 20
119.7464577491
 10
144.4274230321
 20
119.7297712095
 10
144.4180645801
 20
119.7126406688
 10
144.41110364
 20
119.6952967757
 10
144.4066339585
 20
119.6779730632
 10
144.4047157369
 20
119.6609028036
 10
144.4053748166
 20
119.6443158504
 10
144.4086023362
 20
119.6284355432
 10
144.4127129822
 20
119.6170505832
  0
LINE
  5
317
100
AcDbEntity
  8
ASSI
100
AcDbLine
 62
250
  6
CONTINUOUS
 10
144.7205226211
 20
115.9869318274
 11
144.8610445965
 21
116.1310555708
  0
LINE
  5
318
100
AcDbEntity
  8
ASSI
100
AcDbLine
 62
7
  6
CONTINUOUS
 10
144.7447300154
 20
115.9530421222
 11
144.860376006
 21
116.0716522757
  0
LWPOLYLINE
  5
319
100
AcDbEntity
  8
DRAFT
100
AcDbPolyline
 62
7
  6
CONTINUOUS
 90
3
 70
0
 10
131.1193395647
 20
103.6857480732
 10
131.2912124455
 20
103.8415052668
 10
131.41098975
 20
103.9312819131
  0
LINE
  5
31A
100
AcDbEntity
  8
0
100
AcDbLine
 62
7
  6
CONTINUOUS
 10
151.1940113767
 20
117.0812016391
 11
149.3601505147
 21
115.7881209378
  0
LINE
  5
31B
100
AcDbEntity
  8
0
100
AcDbLine
 62
250
  6
CONTINUOUS
 10
149.6297782857
 20
115.7764814035
 11
151.4564406119
 21
117.0644908544
  0
LWPOLYLINE
  5
31C
100
AcDbEntity
  8
0
100
AcDbPolyline
 62
250
  6
CONTINUOUS
 90
16
 70
0
 10
149.6297789238
 20
115.7764810548
 10
149.5941948518
 20
115.7516893262
 10
149.5591644861
 20
115.723086981
 10
149.5250464707
 20
115.6909668369
 10
149.4921902637
 20
115.655657904
 10
149.460932086
 20
115.6175215181
 10
149.4315915608
 20
115.5769475147
 10
149.4044689034
 20
115.5343507329
 10
149.3798422531
 20
115.4901676537
 10
149.3579642534
 20
115.44485143
 10
149.3390590137
 20
115.3988663823
 10
149.3233199214
 20
115.3526830438
 10
149.3109080748
 20
115.3067741575
 10
149.3019505536
 20
115.2616097396
 10
149.296539088
 20
115.2176522655
 10
149.294729088
 20
115.1753518125
  0
LWPOLYLINE
  5
31D
100
AcDbEntity
  8
SUPERFICI
100
AcDbPolyline
 62
7
  6
CONTINUOUS
 90
10
 70
0
 10
145.275345331
 20
110.2751886423
 10
145.293064133
 20
110.2866625713
 10
145.3104031145
 20
110.2995282587
 10
145.3273622755
 20
110.3137857047
 10
145.3440520431
 20
110.3295510722
 10
145.3603619903
 20
110.3467081982
 10
145.3759608354
 20
110.3649085935
 10
145.3907381512
 20
110.3840360952
 10
145.4048043649
 20
110.4042068662
 10
145.4181594766
 20
110.4254209066
  0
LINE
  5
31E
100
AcDbEntity
  8
0
100
AcDbLine
 62
250
  6
CONTINUOUS
 10
149.3601505147
 20
115.7881209378
 11
149.3728340926
 21
115.7962289732
  0
LINE
  5
31F
100
AcDbEntity
  8
0
100
AcDbLine
 62
250
  6
CONTINUOUS
 10
151.6642367519
 20
116.9445119238
 11
149.6946985279
 21
115.738997289
  0
LINE
  5
320
100
AcDbEntity
  8
0
100
AcDbLine
 62
250
  6
CONTINUOUS
 10
149.9443559115
 20
115.4754428065
 11
151.9138941769
 21
116.6809574651
  0
LINE
  5
321
100
AcDbEntity
  8
SUPERFICI
100
AcDbLine
 62
7
  6
CONTINUOUS
 10
144.8808362057
 20
110.0394527953
 11
145.275345331
 21
110.2751886423
  0
LINE
  5
322
100
AcDbEntity
  8
0
100
AcDbLine
 62
7
  6
CONTINUOUS
 10
153.2249116032
 20
115.2066262649
 11
152.8811069726
 21
115.0060837517
  0
LINE
  5
323
100
AcDbEntity
  8
RACCORDO
100
AcDbLine
 62
250
  6
CONTINUOUS
 10
145.7823973517
 20
112.501613829
 11
144.8808362057
 21
111.9810637225
  0
LINE
  5
324
100
AcDbEntity
  8
0
100
AcDbLine
 62
250
  6
CONTINUOUS
 10
150.3819494021
 20
114.7175086488
 11
149.7972421826
 21
114.3799338889
  0
LINE
  5
325
100
AcDbEntity
  8
0
100
AcDbLine
 62
7
  6
CONTINUOUS
 10
134.8487771755
 20
103.1627657652
 11
132.1442635166
 21
101.601211077
  0
LINE
  5
326
100
AcDbEntity
  8
RACCORDO
100
AcDbLine
 62
250
  6
CONTINUOUS
 10
145.6325492194
 20
110.0756262765
 11
144.8808362057
 21
109.6416804912
  0
LINE
  5
327
100
AcDbEntity
  8
RACCORDO
100
AcDbLine
 62
250
  6
CONTINUOUS
 10
145.5905177464
 20
109.8207313827
 11
144.8808362057
 21
109.4110493527
  0
LINE
  5
328
100
AcDbEntity
  8
0
100
AcDbLine
 62
250
  6
CONTINUOUS
 10
161.0608308242
 20
119.650604516
 11
153.224911603
 21
115.2066262648
  0
LINE
  5
329
100
AcDbEntity
  8
0
100
AcDbLine
 62
250
  6
CONTINUOUS
 10
153.9318029416
 20
113.9821861724
 11
163.0632168579
 21
119.1608071559
  0
LWPOLYLINE
  5
32A
100
AcDbEntity
  8
RACCORDO
100
AcDbPolyline
 62
7
  6
CONTINUOUS
 90
16
 70
0
 10
131.1554393486
 20
103.8152596664
 10
131.33749907
 20
103.9039128116
 10
131.5269227065
 20
103.9744571955
 10
131.7230858672
 20
104.0273525123
 10
131.9249209343
 20
104.0630074998
 10
132.1320438489
 20
104.082010323
 10
132.3448671117
 20
104.0848377358
 10
132.5624986034
 20
104.0717875468
 10
132.7842506843
 20
104.0432162426
 10
133.0110202754
 20
103.999151811
 10
133.2423684308
 20
103.9396469035
 10
133.4772716246
 20
103.8649498898
 10
133.7159467225
 20
103.7749348226
 10
133.958022502
 20
103.6695869163
 10
134.202449477
 20
103.5492226287
 10
134.4484864765
 20
103.4141110248
  0
LWPOLYLINE
  5
32B
100
AcDbEntity
  8
DRAFT
100
AcDbPolyline
 62
7
  6
CONTINUOUS
 90
13
 70
0
 10
138.2993438497
 20
91.4772399548
 10
138.0748292769
 20
91.4164556384
 10
137.8407100559
 20
91.3750004784
 10
137.5994664407
 20
91.3533314216
 10
137.3512525186
 20
91.3516541978
 10
137.0959142022
 20
91.3697630773
 10
136.8354694837
 20
91.4074978174
 10
136.5697069309
 20
91.4650501241
 10
136.2988379759
 20
91.5422282915
 10
136.0255149068
 20
91.6382969594
 10
135.7506218197
 20
91.7530110077
 10
135.4732746186
 20
91.8866155566
 10
135.1934733034
 20
92.039110606
  0
LWPOLYLINE
  5
32C
100
AcDbEntity
  8
RACCORDO
100
AcDbPolyline
 62
250
  6
CONTINUOUS
 90
6
 70
0
 10
137.5453427512
 20
91.3529656986
 10
137.3168995278
 20
91.3658461379
 10
137.0794770813
 20
91.3953376882
 10
136.8377050446
 20
91.4411392777
 10
136.5921844888
 20
91.5031370426
 10
136.3435258271
 20
91.5811768477
  0
LWPOLYLINE
  5
32D
100
AcDbEntity
  8
RACCORDO
100
AcDbPolyline
 62
250
  6
CONTINUOUS
 90
3
 70
0
 10
135.2494706611
 20
91.4534606417
 10
134.9713230716
 20
91.5874469749
 10
134.6923281991
 20
91.7396552626
  0
LWPOLYLINE
  5
32E
100
AcDbEntity
  8
RACCORDO
100
AcDbPolyline
 62
250
  6
CONTINUOUS
 90
61
 70
0
 10
134.344945166
 20
91.1309076908
 10
134.060349533
 20
91.3039554457
 10
133.7779809109
 20
91.4926372389
 10
133.4978392997
 20
91.6969530704
 10
133.219140378
 20
91.917564166
 10
132.9426684671
 20
92.1538092999
 10
132.6707765312
 20
92.4037047951
 10
132.4035297451
 20
92.6673482226
 10
132.140862934
 20
92.9446420115
 10
131.8849335371
 20
93.2333097716
 10
131.6357987302
 20
93.5334435908
 10
131.3934013376
 20
93.8449513813
 10
131.1597272715
 20
94.1652804901
 10
130.9348453887
 20
94.4945095699
 10
130.7186868325
 20
94.832559968
 10
130.5130309446
 20
95.1766430738
 10
130.3179669571
 20
95.5268078903
 10
130.1334056379
 20
95.8830054144
 10
129.9608586322
 20
96.2423000261
 10
129.8004285625
 20
96.6047111365
 10
129.6520128064
 20
96.9702193345
 10
129.516815142
 20
97.3358307675
 10
129.3949449683
 20
97.7015422195
 10
129.2862928864
 20
98.0673569066
 10
129.1917344783
 20
98.4302906238
 10
129.1113844835
 20
98.7903170321
 10
129.0451281625
 20
99.1474624704
 10
128.9934968791
 20
99.4988217505
 10
128.9566083977
 20
99.8443468783
 10
128.9343449539
 20
100.1840858477
 10
128.9268846175
 20
100.5152774525
 10
128.9343461438
 20
100.8378530615
 10
128.9566107775
 20
101.1518813057
 10
128.9935003226
 20
101.4548068718
 10
129.0451325458
 20
101.7465418332
 10
129.1113896805
 20
102.0271741164
 10
129.1917402301
 20
102.2944121875
 10
129.2862988967
 20
102.5481498128
 10
129.3949509782
 20
102.7884932259
 10
129.5168208723
 20
103.0134695939
 10
129.6520179277
 20
103.2229558248
 10
129.8004327955
 20
103.4170750105
 10
129.9608618266
 20
103.594223593
 10
130.1334075616
 20
103.7542637026
 10
130.3179674598
 20
103.897333209
 10
130.5130302494
 20
104.0222421634
 10
130.7186852956
 20
104.1288386306
 10
130.9348432333
 20
104.2172745459
 10
131.1597246949
 20
104.286815766
 10
131.3933985996
 20
104.3373040684
 10
131.6357960282
 20
104.3688976756
 10
131.8849308562
 20
104.3813371117
 10
132.140860118
 20
104.3744642524
 10
132.4035267793
 20
104.348437222
 10
132.6707736123
 20
104.3034709163
 10
132.9426659333
 20
104.2393924725
 10
133.219138426
 20
104.1563747534
 10
133.4978379133
 20
104.0551512437
 10
133.7779800029
 20
103.9359664383
 10
134.0603490871
 20
103.7985758421
 10
134.344945166
 20
103.6429794554
  0
LWPOLYLINE
  5
32F
100
AcDbEntity
  8
RACCORDO
100
AcDbPolyline
 62
250
  6
CONTINUOUS
 90
44
 70
0
 10
134.6923281991
 20
91.7396552626
 10
134.413333323
 20
91.9096232627
 10
134.1351857307
 20
92.0968347961
 10
133.8587301449
 20
92.3007213113
 10
133.5848061499
 20
92.5206636156
 10
133.3142456417
 20
92.7559937555
 10
133.0478703016
 20
93.0059970452
 10
132.7864891113
 20
93.2699142264
 10
132.5308958647
 20
93.5469438046
 10
132.2818667598
 20
93.836244489
 10
132.0401579731
 20
94.1369378429
 10
131.8065036947
 20
94.4481105358
 10
131.5816138311
 20
94.7688171057
 10
131.3661715318
 20
95.098083228
 10
131.1608308278
 20
95.4349092135
 10
130.9662150043
 20
95.7782726369
 10
130.7829150859
 20
96.1271307719
 10
130.6114877777
 20
96.4804241203
 10
130.4524535311
 20
96.8370801622
 10
130.3062952825
 20
97.1960160121
 10
130.1734570805
 20
97.5561413556
 10
130.0543425147
 20
97.9163621651
 10
129.949313422
 20
98.2755842068
 10
129.8586887058
 20
98.6327167827
 10
129.7827435331
 20
98.9866756936
 10
129.721708566
 20
99.3363863123
 10
129.6757693285
 20
99.6807861736
 10
129.6450654586
 20
100.0188286491
 10
129.6296901972
 20
100.3494868244
 10
129.6296901919
 20
100.6717567902
 10
129.6450654436
 20
100.9846600146
 10
129.6757693063
 20
101.2872464589
 10
129.7217085403
 20
101.5785968757
 10
129.7827435063
 20
101.8578258741
 10
129.8586886776
 20
102.124085222
 10
129.9493133928
 20
102.3765666618
 10
130.054342487
 20
102.6145037566
 10
130.1734570592
 20
102.8371740717
 10
130.3062952716
 20
103.0439012099
 10
130.4524535332
 20
103.2340571961
 10
130.6114877973
 20
103.4070644932
 10
130.7829151258
 20
103.5623978967
 10
130.9662150592
 20
103.6995858847
 10
131.1554393486
 20
103.8152596664
  0
LWPOLYLINE
  5
330
100
AcDbEntity
  8
0
100
AcDbPolyline
 62
7
  6
CONTINUOUS
 90
16
 70
0
 10
131.0897413459
 20
99.3262478805
 10
131.0947768666
 20
99.5361314892
 10
131.1098725456
 20
99.7399729568
 10
131.1350009146
 20
99.9372702524
 10
131.1701665832
 20
100.1277533567
 10
131.2152840849
 20
100.3106938159
 10
131.2700612638
 20
100.4850088108
 10
131.3342894077
 20
100.6503088565
 10
131.4077572208
 20
100.8062620864
 10
131.4899418138
 20
100.9520622129
 10
131.5803530302
 20
101.0872776795
 10
131.6787198429
 20
101.2118928407
 10
131.7847218634
 20
101.3257866845
 10
131.8979562681
 20
101.4287621746
 10
132.0179319123
 20
101.520599715
 10
132.1441562687
 20
101.6011489056
  0
LWPOLYLINE
  5
331
100
AcDbEntity
  8
0
100
AcDbPolyline
 62
250
  6
CONTINUOUS
 90
34
 70
0
 10
131.1628620973
 20
99.2242384561
 10
131.1690310881
 20
99.4478940087
 10
131.1870509947
 20
99.6622854823
 10
131.2169218172
 20
99.8674128769
 10
131.2588568202
 20
100.0640409112
 10
131.3126427391
 20
100.2514048665
 10
131.3776397796
 20
100.4272105868
 10
131.4540341839
 20
100.5912984039
 10
131.5416397099
 20
100.743827986
 10
131.6392578365
 20
100.8829841817
 10
131.746734887
 20
101.0084404547
 10
131.864224538
 20
101.1205233413
 10
131.9909892982
 20
101.2183972982
 10
132.1274313577
 20
101.3021783838
 10
132.2731485265
 20
101.3717505397
 10
132.4261967432
 20
101.4259300475
 10
132.5866014684
 20
101.4644053533
 10
132.7543372415
 20
101.4874880111
 10
132.9273836197
 20
101.4949289641
 10
133.105783177
 20
101.4865244848
 10
133.2894933395
 20
101.4624783007
 10
133.4763659425
 20
101.4231525372
 10
133.6664082248
 20
101.3683788979
 10
133.8596129477
 20
101.2983256791
 10
134.0538102303
 20
101.2138598948
 10
134.2489982536
 20
101.1148355252
 10
134.4451788367
 20
101.0013985901
 10
134.6401875559
 20
100.8748541624
 10
134.8340077207
 20
100.7350708385
 10
135.0266560216
 20
100.5821800221
 10
135.2160181062
 20
100.4178809968
 10
135.4020562031
 20
100.2420630915
 10
135.5848080836
 20
100.0548369773
 10
135.7622727096
 20
99.8582339518
  0
LINE
  5
332
100
AcDbEntity
  8
0
100
AcDbLine
 62
250
  6
CONTINUOUS
 10
144.5159404536
 20
118.3958248885
 11
144.4410322696
 21
118.2627006818
  0
LINE
  5
333
100
AcDbEntity
  8
0
100
AcDbLine
 62
250
  6
CONTINUOUS
 10
144.5968265474
 20
118.5252390728
 11
144.5159404536
 21
118.3958248885
  0
LINE
  5
334
100
AcDbEntity
  8
0
100
AcDbLine
 62
250
  6
CONTINUOUS
 10
144.6509692428
 20
118.6035566134
 11
144.5968265474
 21
118.5252390728
  0
LWPOLYLINE
  5
335
100
AcDbEntity
  8
RACCORDO
100
AcDbPolyline
 62
250
  6
CONTINUOUS
 90
3
 70
0
 10
151.6015498995
 20
116.9807065399
 10
151.6159082766
 20
116.9953116606
 10
151.6330786413
 20
117.0191167019
  0
LINE
  5
336
100
AcDbEntity
  8
RACCORDO
100
AcDbLine
 62
7
  6
CONTINUOUS
 10
151.623139663
 20
116.996403989
 11
151.6033434377
 21
116.979670973
  0
LWPOLYLINE
  5
337
100
AcDbEntity
  8
RACCORDO
100
AcDbPolyline
 62
250
  6
CONTINUOUS
 90
7
 70
0
 10
148.9811574362
 20
111.2446519142
 10
148.9895225437
 20
111.2503488261
 10
148.9965440316
 20
111.2566215397
 10
149.0021044114
 20
111.2633650959
 10
149.0061106431
 20
111.2704666566
 10
149.0084956915
 20
111.2778073938
 10
149.0092232427
 20
111.2846413361
  0
LWPOLYLINE
  5
338
100
AcDbEntity
  8
RACCORDO
100
AcDbPolyline
 62
250
  6
CONTINUOUS
 90
8
 70
0
 10
148.9587438195
 20
111.3695115153
 10
148.9661857382
 20
111.3741564922
 10
148.9724156447
 20
111.3783079136
 10
148.9773292959
 20
111.3818963152
 10
148.9808444732
 20
111.3848616533
 10
148.9829023583
 20
111.3871543099
 10
148.9834685172
 20
111.3887359226
 10
148.9833901563
 20
111.3889882315
  0
LINE
  5
339
100
AcDbEntity
  8
0
100
AcDbLine
 62
7
  6
CONTINUOUS
 10
132.4455930775
 20
101.0293443342
 11
132.447317122
 21
101.0303912748
  0
LINE
  5
33A
100
AcDbEntity
  8
RACCORDO
100
AcDbLine
 62
250
  6
CONTINUOUS
 10
148.9587438195
 20
111.3695115153
 11
144.8808362057
 21
108.9602975374
  0
LINE
  5
33B
100
AcDbEntity
  8
RACCORDO
100
AcDbLine
 62
250
  6
CONTINUOUS
 10
148.9811574362
 20
111.2446519174
 11
144.8808362057
 21
108.8225119078
  0
LINE
  5
33C
100
AcDbEntity
  8
0
100
AcDbLine
 62
250
  6
CONTINUOUS
 10
153.9317566462
 20
113.9822118732
 11
153.923440593
 21
113.9773429846
  0
LINE
  5
33D
100
AcDbEntity
  8
0
100
AcDbLine
 62
250
  6
CONTINUOUS
 10
134.5216580109
 20
101.3671394126
 11
136.0113639984
 21
102.2272858874
  0
LINE
  5
33E
100
AcDbEntity
  8
0
100
AcDbLine
 62
7
  6
CONTINUOUS
 10
152.9634089183
 20
113.4289448917
 11
153.923440593
 21
113.9773429846
  0
LWPOLYLINE
  5
33F
100
AcDbEntity
  8
0
100
AcDbPolyline
 62
250
  6
CONTINUOUS
 90
15
 70
0
 10
132.1464828435
 20
101.6024948856
 10
132.1789070061
 20
101.6207118294
 10
132.3221318421
 20
101.6899104732
 10
132.4741757462
 20
101.7454756939
 10
132.6343032152
 20
101.7867288247
 10
132.8013229477
 20
101.8131450947
 10
132.9740908668
 20
101.8245245562
 10
133.1526061135
 20
101.8208487936
 10
133.3373447081
 20
101.8018837004
 10
133.5289449663
 20
101.7670757761
 10
133.7256675848
 20
101.7162635944
 10
133.9243157276
 20
101.6502242934
 10
134.1232679893
 20
101.5698140225
 10
134.322620871
 20
101.4752996115
 10
134.5216502486
 20
101.3672395606
  0
LWPOLYLINE
  5
340
100
AcDbEntity
  8
0
100
AcDbPolyline
 62
7
  6
CONTINUOUS
 90
16
 70
0
 10
132.4480399881
 20
101.0308291656
 10
132.5517747806
 20
101.0868620457
 10
132.6625273763
 20
101.1333049453
 10
132.7776995967
 20
101.1690148041
 10
132.896761422
 20
101.1941850556
 10
133.019423338
 20
101.2090884428
 10
133.1456647136
 20
101.2139675387
 10
133.2748692595
 20
101.2090033084
 10
133.4066874158
 20
101.1944148485
 10
133.5415635328
 20
101.170249232
 10
133.6791929369
 20
101.1365562305
 10
133.8189706706
 20
101.0934889626
 10
133.9609979246
 20
101.0409926109
 10
134.1050298431
 20
100.9790737711
 10
134.250423674
 20
100.9079332474
 10
134.3967158191
 20
100.8277490414
  0
LWPOLYLINE
  5
341
100
AcDbEntity
  8
RACCORDO
100
AcDbPolyline
 62
250
  6
CONTINUOUS
 90
5
 70
0
 10
136.3435258271
 20
91.5811768477
 10
136.0923472881
 20
91.6750646667
 10
135.8392733496
 20
91.7845670741
 10
135.5849331855
 20
91.9094118307
 10
135.3299591255
 20
92.049288551
  0
LWPOLYLINE
  5
342
100
AcDbEntity
  8
0
100
AcDbPolyline
 62
250
  6
CONTINUOUS
 90
34
 70
0
 10
134.3449349053
 20
93.8318516325
 10
134.5353270349
 20
93.7288137132
 10
134.7236867935
 20
93.6401859309
 10
134.910014181
 20
93.5659682854
 10
135.0950484179
 20
93.505969829
 10
135.2780502837
 20
93.4603815094
 10
135.4568021172
 20
93.4297761704
 10
135.6312712201
 20
93.4143865243
 10
135.8014902907
 20
93.4139798588
 10
135.9653397628
 20
93.4284308809
 10
136.1224662477
 20
93.4577732027
 10
136.2732231342
 20
93.5019732123
 10
136.4165510217
 20
93.5608047802
 10
136.5527303775
 20
93.6345357922
 10
136.6814807344
 20
93.7228983626
 10
136.8009012903
 20
93.8248627053
 10
136.9107608138
 20
93.9406118858
 10
137.0112905363
 20
94.0699628384
 10
137.1012833496
 20
94.2113365801
 10
137.1805830986
 20
94.3648666595
 10
137.2493459385
 20
94.5304195279
 10
137.3068332273
 20
94.7060155554
 10
137.3529062736
 20
94.8917406909
 10
137.3877037688
 20
95.0875089855
 10
137.4109031448
 20
95.2910829631
 10
137.4223815947
 20
95.502530465
 10
137.4222619253
 20
95.7217836499
 10
137.4105899891
 20
95.9464015173
 10
137.3872481747
 20
96.1764341126
 10
137.3523540935
 20
96.4118313905
 10
137.3063064311
 20
96.6500022146
 10
137.2489933929
 20
96.8909711189
 10
137.1805267736
 20
97.1347135694
 10
137.1016406435
 20
97.3785648284
  0
LINE
  5
343
100
AcDbEntity
  8
0
100
AcDbLine
 62
7
  6
CONTINUOUS
 10
149.4631900026
 20
83.4621360842
 11
149.3982703985
 21
83.49961985
  0
LINE
  5
344
100
AcDbEntity
  8
0
100
AcDbLine
 62
250
  6
CONTINUOUS
 10
149.294729088
 20
83.7284882805
 11
149.3596486921
 21
83.6910045147
  0
LINE
  5
345
100
AcDbEntity
  8
0
100
AcDbLine
 62
7
  6
CONTINUOUS
 10
149.1482824786
 20
85.7324720321
 11
149.0092234561
 21
85.8127629689
  0
LINE
  5
346
100
AcDbEntity
  8
0
100
AcDbLine
 62
250
  6
CONTINUOUS
 10
149.1482824786
 20
85.9015570077
 11
149.0092234561
 21
85.9818479444
  0
LINE
  5
347
100
AcDbEntity
  8
0
100
AcDbLine
 62
7
  6
CONTINUOUS
 10
149.0092234561
 20
86.0289894631
 11
149.1482824786
 21
85.9486985264
  0
LINE
  5
348
100
AcDbEntity
  8
0
100
AcDbLine
 62
250
  6
CONTINUOUS
 10
149.0092234561
 20
86.3671594142
 11
149.294729088
 21
86.2023120406
  0
LWPOLYLINE
  5
349
100
AcDbEntity
  8
RACCORDO
100
AcDbPolyline
 62
250
  6
CONTINUOUS
 90
36
 70
0
 10
135.3299591255
 20
92.049288551
 10
135.074985055
 20
92.2038494907
 10
134.8206448834
 20
92.3727103862
 10
134.5675709403
 20
92.5554514239
 10
134.3163924007
 20
92.7516182876
 10
134.0677337413
 20
92.9607232715
 10
133.8222131876
 20
93.1822464897
 10
133.5804411517
 20
93.4156371882
 10
133.343018706
 20
93.6603151283
 10
133.1105361096
 20
93.915672011
 10
132.8835713512
 20
94.1810729777
 10
132.6626886996
 20
94.4558582003
 10
132.448437292
 20
94.7393445351
 10
132.2413497876
 20
95.0308271975
 10
132.0419410437
 20
95.329581511
 10
131.8507068243
 20
95.6348647239
 10
131.6681225672
 20
95.9459178568
 10
131.4946422079
 20
96.261967581
 10
131.3306970511
 20
96.5822281386
 10
131.1766946936
 20
96.9059033048
 10
131.0330180061
 20
97.2321883785
 10
130.9000241876
 20
97.5602721745
 10
130.7780438779
 20
97.8893390383
 10
130.6673803466
 20
98.2185708443
 10
130.5683087303
 20
98.54714904
 10
130.4810753394
 20
98.8742567109
 10
130.4058970421
 20
99.1990806335
 10
130.3429607377
 20
99.520813267
 10
130.2924228948
 20
99.8386547446
 10
130.2544091614
 20
100.1518148504
 10
130.2290140471
 20
100.4595150067
 10
130.2163006873
 20
100.760990214
 10
130.2163006877
 20
101.0554909671
 10
130.2290140483
 20
101.3422851047
 10
130.2544091634
 20
101.6206596188
 10
130.2924228976
 20
101.8899224175
  0
LWPOLYLINE
  5
34A
100
AcDbEntity
  8
DRAFT
100
AcDbPolyline
 62
7
  6
CONTINUOUS
 90
41
 70
0
 10
135.1934733034
 20
92.039110606
 10
134.9136719882
 20
92.2097231019
 10
134.6363247871
 20
92.3963921489
 10
134.3614317
 20
92.5991177471
 10
134.0881086309
 20
92.8186757083
 10
133.8172396759
 20
93.0542902206
 10
133.5514771231
 20
93.3036338483
 10
133.2910324046
 20
93.5666541409
 10
133.0356940882
 20
93.8434035489
 10
132.7874801661
 20
94.1317119882
 10
132.5462365509
 20
94.4319631249
 10
132.3121173299
 20
94.7437732929
 10
132.0876027571
 20
95.0638214103
 10
131.8730271814
 20
95.391803054
 10
131.6680562539
 20
95.7280226471
 10
131.4741671822
 20
96.0700723766
 10
131.2912124455
 20
96.4184739284
 10
131.1193395647
 20
96.7727056167
 10
130.96046831
 20
97.1287945708
 10
130.8149408688
 20
97.4862189328
 10
130.6824150537
 20
97.8455005607
 10
130.5637840735
 20
98.2042321574
 10
130.4589967563
 20
98.5629914628
 10
130.368104274
 20
98.921200737
 10
130.2921533501
 20
99.2747194637
 10
130.2313935341
 20
99.6229077825
 10
130.1855752764
 20
99.9664055539
 10
130.1549966519
 20
100.302991842
 10
130.1397570188
 20
100.633184795
 10
130.1397570188
 20
100.9564662648
 10
130.1549966519
 20
101.2690608714
 10
130.1855752764
 20
101.5703357304
 10
130.2313935341
 20
101.8609237263
 10
130.2921533501
 20
102.1389481327
 10
130.368104274
 20
102.4047606362
 10
130.4589967563
 20
102.6580095501
 10
130.5637840735
 20
102.8957630882
 10
130.6824150537
 20
103.1175026025
 10
130.8149408688
 20
103.323746741
 10
130.96046831
 20
103.5131196617
 10
131.1193395647
 20
103.6857480732
  0
LWPOLYLINE
  5
34B
100
AcDbEntity
  8
0
100
AcDbPolyline
 62
250
  6
CONTINUOUS
 90
40
 70
0
 10
134.5239443294
 20
94.1391892406
 10
134.3479454274
 20
94.2474108176
 10
134.1712491205
 20
94.3684769386
 10
133.994540527
 20
94.5021899052
 10
133.8182990755
 20
94.6484485593
 10
133.6434913901
 20
94.8067919457
 10
133.4715325573
 20
94.9762740781
 10
133.3028773491
 20
95.1566711312
 10
133.1385260265
 20
95.3470636986
 10
132.9805412462
 20
95.5450387752
 10
132.8302212451
 20
95.7486216627
 10
132.6872326811
 20
95.9578915658
 10
132.5511301798
 20
96.1734039314
 10
132.4219602038
 20
96.3952664554
 10
132.3008407183
 20
96.6217580745
 10
132.1888907674
 20
96.8507125065
 10
132.0865606214
 20
97.0809109611
 10
131.9939835927
 20
97.3117271862
 10
131.9115405884
 20
97.5418312284
 10
131.8396214095
 20
97.7694813424
 10
131.777982751
 20
97.9947172346
 10
131.7262205202
 20
98.2188811325
 10
131.6843086592
 20
98.4430905789
 10
131.6530207476
 20
98.6644539647
 10
131.6328369342
 20
98.8784525202
 10
131.6234588934
 20
99.0813030406
 10
131.6240998165
 20
99.2758625977
 10
131.6348055667
 20
99.4673685328
 10
131.6565145516
 20
99.6582584467
 10
131.689534309
 20
99.8437764438
 10
131.7329766102
 20
100.0184423273
 10
131.7855070949
 20
100.1796134208
 10
131.847159298
 20
100.329550885
 10
131.9187243294
 20
100.4703895211
 10
132.0007468251
 20
100.6023226197
 10
132.092626118
 20
100.7236009518
 10
132.1937520907
 20
100.8331137872
 10
132.3038986288
 20
100.9304482926
 10
132.4226289865
 20
101.0150634697
 10
132.4455930775
 20
101.0293443342
  0
LWPOLYLINE
  5
34C
100
AcDbEntity
  8
0
100
AcDbPolyline
 62
250
  6
CONTINUOUS
 90
9
 70
0
 10
149.294729088
 20
83.7284882805
 10
149.2608126214
 20
83.7501609881
 10
149.2308626434
 20
83.7737016501
 10
149.2051857824
 20
83.7988692899
 10
149.184045569
 20
83.8254053437
 10
149.1676574818
 20
83.8530390189
 10
149.1561883895
 20
83.8814904029
 10
149.149756887
 20
83.9104713884
 10
149.1482824786
 20
83.9326255772
  0
LWPOLYLINE
  5
34D
100
AcDbEntity
  8
0
100
AcDbPolyline
 62
250
  6
CONTINUOUS
 90
9
 70
0
 10
149.5253448338
 20
83.5065522153
 10
149.5657544402
 20
83.4802745003
 10
149.6076681314
 20
83.4582522569
 10
149.6506563653
 20
83.440708727
 10
149.6942769539
 20
83.4278218298
 10
149.7380846895
 20
83.4197206242
 10
149.7816295431
 20
83.4164858742
 10
149.8244600119
 20
83.4181473066
 10
149.8661370693
 20
83.424682572
  0
LWPOLYLINE
  5
34E
100
AcDbEntity
  8
0
100
AcDbPolyline
 62
250
  6
CONTINUOUS
 90
6
 70
0
 10
149.4631900026
 20
83.4621360842
 10
149.4447619051
 20
83.4744751863
 10
149.4228839275
 20
83.4945272054
 10
149.4039786755
 20
83.5186809451
 10
149.3882395602
 20
83.5466891877
 10
149.3758276963
 20
83.5782652042
  0
LINE
  5
34F
100
AcDbEntity
  8
0
100
AcDbLine
 62
250
  6
CONTINUOUS
 10
149.4868548318
 20
83.5368177357
 11
149.5253448338
 21
83.5065522153
  0
LINE
  5
350
100
AcDbEntity
  8
SUPERFICI
100
AcDbLine
 62
7
  6
CONTINUOUS
 10
134.5501190485
 20
121.9261809614
 11
134.5501190485
 21
121.2410810532
  0
LINE
  5
351
100
AcDbEntity
  8
ASSI
100
AcDbLine
 62
250
  6
CONTINUOUS
 10
135.6847018142
 20
121.7986718762
 11
135.6847018142
 21
121.4293608866
  0
LINE
  5
352
100
AcDbEntity
  8
ASSI
100
AcDbLine
 62
7
  6
CONTINUOUS
 10
135.7408338542
 20
121.8788892836
 11
135.7408338542
 21
121.509578294
  0
LWPOLYLINE
  5
353
100
AcDbEntity
  8
ASSI
100
AcDbPolyline
 62
250
  6
CONTINUOUS
 90
9
 70
0
 10
135.7408338542
 20
121.509578294
 10
135.7406660986
 20
121.5048495621
 10
135.738737568
 20
121.4929026876
 10
135.7346803647
 20
121.4811538757
 10
135.7285408035
 20
121.4697172214
 10
135.7203790634
 20
121.4587042068
 10
135.7102765638
 20
121.4482305886
 10
135.6983420337
 20
121.4384138579
 10
135.6847018142
 20
121.4293608866
  0
LWPOLYLINE
  5
354
100
AcDbEntity
  8
ASSI
100
AcDbPolyline
 62
250
  6
CONTINUOUS
 90
9
 70
0
 10
135.7408338442
 20
121.8788527566
 10
135.7406659421
 20
121.8741583472
 10
135.7387420581
 20
121.8622314518
 10
135.7346855788
 20
121.8504767224
 10
135.7285381378
 20
121.8390240263
 10
135.7203671037
 20
121.8280011275
 10
135.7102619081
 20
121.8175280854
 10
135.6983306098
 20
121.807716419
 10
135.6847018142
 20
121.7986718762
  0
LWPOLYLINE
  5
355
100
AcDbEntity
  8
0
100
AcDbPolyline
 62
250
  6
CONTINUOUS
 90
13
 70
0
 10
135.4072735732
 20
98.342925783
 10
135.4081134078
 20
98.3632711264
 10
135.410614132
 20
98.3843358767
 10
135.4147391188
 20
98.405915882
 10
135.4204170596
 20
98.4277376296
 10
135.427593099
 20
98.4496613771
 10
135.4362752801
 20
98.4716848654
 10
135.4464518659
 20
98.4936828148
 10
135.4580209963
 20
98.5153524925
 10
135.470862528
 20
98.5364228719
 10
135.4848532709
 20
98.5566631748
 10
135.4998781321
 20
98.5758804231
 10
135.5157991341
 20
98.5938704542
  0
LWPOLYLINE
  5
356
100
AcDbEntity
  8
0
100
AcDbPolyline
 62
250
  6
CONTINUOUS
 90
16
 70
0
 10
134.3449627682
 20
93.8319790932
 10
134.3460018527
 20
93.8541979691
 10
134.3489784919
 20
93.8770853762
 10
134.353802798
 20
93.9003658624
 10
134.3603218172
 20
93.9236336628
 10
134.3684388291
 20
93.9467721678
 10
134.3782138846
 20
93.9699554979
 10
134.3896458823
 20
93.9930542278
 10
134.4025972141
 20
94.015686447
 10
134.4169882041
 20
94.0376313937
 10
134.4327231306
 20
94.0586517854
 10
134.4496302534
 20
94.0784328859
 10
134.4674818609
 20
94.0966470476
 10
134.4860625564
 20
94.1130320945
 10
134.5051810761
 20
94.1273781868
 10
134.5246143993
 20
94.139473588
  0
LWPOLYLINE
  5
357
100
AcDbEntity
  8
ASSI
100
AcDbPolyline
 62
250
  6
CONTINUOUS
 90
13
 70
0
 10
139.3624151601
 20
121.6671575561
 10
139.3680049966
 20
121.6913154595
 10
139.3712320632
 20
121.716259364
 10
139.3720444195
 20
121.7415878413
 10
139.3704289864
 20
121.7668932628
 10
139.3664117562
 20
121.7917683889
 10
139.3600573644
 20
121.8158129207
 10
139.35146806
 20
121.8386398949
 10
139.3407820622
 20
121.8598819345
 10
139.3281713227
 20
121.8791971841
 10
139.3138387742
 20
121.896274777
 10
139.2980150707
 20
121.9108398436
 10
139.2809548646
 20
121.9226579527
  0
LWPOLYLINE
  5
358
100
AcDbEntity
  8
ASSI
100
AcDbPolyline
 62
250
  6
CONTINUOUS
 90
13
 70
0
 10
140.9439746409
 20
121.7055199509
 10
140.9495645115
 20
121.729678056
 10
140.9527915715
 20
121.7546221492
 10
140.9536038861
 20
121.779950792
 10
140.9519883823
 20
121.8052563569
 10
140.9479710593
 20
121.8301315882
 10
140.94161657
 20
121.8541761556
 10
140.9330271805
 20
121.8770030969
 10
140.9223411246
 20
121.8982450463
 10
140.9097303784
 20
121.9175601456
 10
140.8953978936
 20
121.9346375468
 10
140.8795743303
 20
121.9492024142
 10
140.8625143455
 20
121.9610203475
  0
LWPOLYLINE
  5
359
100
AcDbEntity
  8
ASSI
100
AcDbPolyline
 62
250
  6
CONTINUOUS
 90
16
 70
0
 10
141.5418501877
 20
118.793964384
 10
141.537891464
 20
118.7789976292
 10
141.533300862
 20
118.7645610842
 10
141.5281596637
 20
118.7507172859
 10
141.5225556382
 20
118.737534667
 10
141.516555227
 20
118.7250355095
 10
141.5101967175
 20
118.7132013398
 10
141.5035976094
 20
118.7021426764
 10
141.4967641618
 20
118.6917868242
 10
141.4895316717
 20
118.6818697232
 10
141.4819620632
 20
118.6724570634
 10
141.4740568709
 20
118.6635720857
 10
141.4655178726
 20
118.6549829716
 10
141.4562556657
 20
118.6467200025
 10
141.4464142964
 20
118.6390077364
 10
141.4360412492
 20
118.6319796435
  0
LWPOLYLINE
  5
35A
100
AcDbEntity
  8
ASSI
100
AcDbPolyline
 62
250
  6
CONTINUOUS
 90
14
 70
0
 10
142.0269121846
 20
123.116685801
 10
142.0320222308
 20
123.1342357485
 10
142.0390977325
 20
123.1516328499
 10
142.0480611664
 20
123.1686865032
 10
142.0588143311
 20
123.1852098766
 10
142.0712394156
 20
123.20102194
 10
142.0852002863
 20
123.2159494499
 10
142.1005439848
 20
123.2298288576
 10
142.1171024016
 20
123.2425080968
 10
142.1346941204
 20
123.2538482521
 10
142.1531264058
 20
123.2637250801
 10
142.1721973114
 20
123.2720303682
 10
142.1916978918
 20
123.2786731202
 10
142.2114144947
 20
123.283580556
  0
LINE
  5
35B
100
AcDbEntity
  8
ASSI
100
AcDbLine
 62
250
  6
CONTINUOUS
 10
141.8132359051
 20
119.6675938076
 11
141.541850911
 21
118.7939639664
  0
LINE
  5
35C
100
AcDbEntity
  8
ASSI
100
AcDbLine
 62
250
  6
CONTINUOUS
 10
142.0790402833
 20
119.5909851278
 11
141.8076552892
 21
118.7173552866
  0
LWPOLYLINE
  5
35D
100
AcDbEntity
  8
ASSI
100
AcDbPolyline
 62
250
  6
CONTINUOUS
 90
16
 70
0
 10
141.8076552892
 20
118.7173552866
 10
141.7976625026
 20
118.6882979743
 10
141.7868277065
 20
118.6604524035
 10
141.7751509008
 20
118.6338185741
 10
141.7625167535
 20
118.6083624525
 10
141.7490405968
 20
118.5841180723
 10
141.7350684264
 20
118.5611875341
 10
141.7207705192
 20
118.539729575
 10
141.7059765984
 20
118.519585458
 10
141.6905218296
 20
118.5003810728
 10
141.674507369
 20
118.4820336471
 10
141.6578320604
 20
118.4646259531
 10
141.6400276008
 20
118.4480321983
 10
141.6209378891
 20
118.4322104517
 10
141.6007190264
 20
118.4172026442
 10
141.5793710127
 20
118.4030087757
  0
LWPOLYLINE
  5
35E
100
AcDbEntity
  8
RACCORDO
100
AcDbPolyline
 62
250
  6
CONTINUOUS
 90
4
 70
0
 10
145.7259219313
 20
123.5435806418
 10
145.7284808528
 20
123.5506735229
 10
145.7293446962
 20
123.5578365794
 10
145.729315553
 20
123.5591939404
  0
LWPOLYLINE
  5
35F
100
AcDbEntity
  8
0
100
AcDbPolyline
 62
250
  6
CONTINUOUS
 90
8
 70
0
 10
144.4410322696
 20
118.2627006818
 10
144.3728901063
 20
118.1272787438
 10
144.3117797303
 20
117.9901441613
 10
144.2580849114
 20
117.8520773956
 10
144.2121101529
 20
117.7138870566
 10
144.174106387
 20
117.5763899338
 10
144.1443127503
 20
117.4403778894
 10
144.1307274369
 20
117.3555147061
  0
LWPOLYLINE
  5
360
100
AcDbEntity
  8
0
100
AcDbPolyline
 62
7
  6
CONTINUOUS
 90
20
 70
0
 10
135.1092035058
 20
98.5456210588
 10
135.0861991429
 20
98.5035447789
 10
135.0659266608
 20
98.4539229773
 10
135.0507034175
 20
98.3997956533
 10
135.0411514799
 20
98.3425085544
 10
135.0373825004
 20
98.2819124327
 10
135.0396190394
 20
98.2185774098
 10
135.047638738
 20
98.1551145243
 10
135.0608963117
 20
98.092442359
 10
135.0791389595
 20
98.0302386516
 10
135.1018319684
 20
97.9695165058
 10
135.1284451065
 20
97.9109336072
 10
135.1587785979
 20
97.8544556955
 10
135.1926733731
 20
97.8002173594
 10
135.2300357749
 20
97.7484064472
 10
135.2705744143
 20
97.6995570519
 10
135.3138931201
 20
97.6542728545
 10
135.3597899779
 20
97.6129153639
 10
135.4082196475
 20
97.575768304
 10
135.459040528
 20
97.5432746071
  0
LINE
  5
361
100
AcDbEntity
  8
0
100
AcDbLine
 62
7
  6
CONTINUOUS
 10
135.1090104396
 20
98.5453098776
 11
135.6313501743
 21
99.3884634066
  0
LINE
  5
362
100
AcDbEntity
  8
0
100
AcDbLine
 62
250
  6
CONTINUOUS
 10
135.1090104396
 20
98.5453098776
 11
135.1092033052
 21
98.5456207383
  0
LWPOLYLINE
  5
363
100
AcDbEntity
  8
0
100
AcDbPolyline
 62
250
  6
CONTINUOUS
 90
7
 70
0
 10
135.6313518762
 20
99.3884661538
 10
135.6428735403
 20
99.4061768986
 10
135.6787252134
 20
99.4519838862
 10
135.7195580281
 20
99.4915853718
 10
135.7653847882
 20
99.5247076463
 10
135.8160921212
 20
99.5509149648
 10
135.8363434363
 20
99.5578039755
  0
LWPOLYLINE
  5
364
100
AcDbEntity
  8
0
100
AcDbPolyline
 62
250
  6
CONTINUOUS
 90
13
 70
0
 10
135.1092033052
 20
98.5456207383
 10
135.1164535239
 20
98.5566792107
 10
135.1388018642
 20
98.584567174
 10
135.1645576429
 20
98.6083736224
 10
135.1937350779
 20
98.627827726
 10
135.2260654443
 20
98.6424926924
 10
135.2614153426
 20
98.6520928974
 10
135.299747683
 20
98.6563544876
 10
135.3406095427
 20
98.6549758749
 10
135.3831197401
 20
98.647894545
 10
135.4266755014
 20
98.6352608639
 10
135.4710368663
 20
98.617193331
 10
135.515780017
 20
98.5938793715
  0
LWPOLYLINE
  5
365
100
AcDbEntity
  8
RACCORDO
100
AcDbPolyline
 62
250
  6
CONTINUOUS
 90
3
 70
0
 10
150.9145609451
 20
118.4113003536
 10
150.9211894054
 20
118.4193392638
 10
150.9317216372
 20
118.4287483343
  0
LINE
  5
366
100
AcDbEntity
  8
0
100
AcDbLine
 62
250
  6
CONTINUOUS
 10
135.5157994563
 20
98.5938721418
 11
136.0997212716
 21
99.2132139308
  0
LINE
  5
367
100
AcDbEntity
  8
RACCORDO
100
AcDbLine
 62
7
  6
CONTINUOUS
 10
151.6455135413
 20
117.0197368141
 11
151.623139663
 21
116.996403989
  0
LWPOLYLINE
  5
368
100
AcDbEntity
  8
0
100
AcDbPolyline
 62
250
  6
CONTINUOUS
 90
7
 70
0
 10
136.9711465387
 20
97.5923701704
 10
136.9710232225
 20
97.5922505704
 10
136.9251985819
 20
97.5591295196
 10
136.8744930827
 20
97.5329232599
 10
136.8192218992
 20
97.514121779
 10
136.7596897804
 20
97.5031144581
 10
136.7215288306
 20
97.5003763125
  0
LWPOLYLINE
  5
369
100
AcDbEntity
  8
0
100
AcDbPolyline
 62
7
  6
CONTINUOUS
 90
8
 70
0
 10
135.8112812898
 20
99.5883623965
 10
135.7932303989
 20
99.5743279314
 10
135.7627774374
 20
99.5478425649
 10
135.733666114
 20
99.5195763149
 10
135.7058774582
 20
99.4894678928
 10
135.6794795083
 20
99.4575226622
 10
135.6546098522
 20
99.4238386903
 10
135.6313620394
 20
99.3884825589
  0
LWPOLYLINE
  5
36A
100
AcDbEntity
  8
0
100
AcDbPolyline
 62
250
  6
CONTINUOUS
 90
29
 70
0
 10
135.7301478209
 20
97.469537646
 10
135.7663132566
 20
97.4731582584
 10
135.8027563924
 20
97.4824845467
 10
135.8363292223
 20
97.497287005
 10
135.866630748
 20
97.5172677246
 10
135.8933455029
 20
97.5419953839
 10
135.9164494311
 20
97.5712004366
 10
135.935981644
 20
97.6048317419
 10
135.9518448884
 20
97.6428452767
 10
135.9637533345
 20
97.6847079907
 10
135.9715344483
 20
97.7295959781
 10
135.9752158311
 20
97.7766929906
 10
135.9749391472
 20
97.8258078667
 10
135.970749107
 20
97.8770157631
 10
135.9626082856
 20
97.9301874674
 10
135.9505825281
 20
97.9845873192
 10
135.934867279
 20
98.0394090545
 10
135.9157954152
 20
98.0937924816
 10
135.8934795152
 20
98.1476614967
 10
135.8677477619
 20
98.20136435
 10
135.8386178697
 20
98.254600324
 10
135.8063414915
 20
98.3066700997
 10
135.7709773799
 20
98.3572524481
 10
135.7324830239
 20
98.4060977688
 10
135.6913652513
 20
98.4522666205
 10
135.6486365577
 20
98.4945284662
 10
135.6049584897
 20
98.5323121956
 10
135.560536645
 20
98.565520844
 10
135.5157994563
 20
98.5938721418
  0
LWPOLYLINE
  5
36B
100
AcDbEntity
  8
0
100
AcDbPolyline
 62
7
  6
CONTINUOUS
 90
8
 70
0
 10
136.7215430596
 20
97.5003767553
 10
136.7636226243
 20
97.5028209425
 10
136.805109686
 20
97.5074940165
 10
136.8458879414
 20
97.5143529336
 10
136.8857940425
 20
97.5233303195
 10
136.9247982438
 20
97.5343763396
 10
136.9629891597
 20
97.5474918485
 10
136.9850900491
 20
97.556469104
  0
LINE
  5
36C
100
AcDbEntity
  8
0
100
AcDbLine
 62
7
  6
CONTINUOUS
 10
135.7301478209
 20
97.469537646
 11
136.7215140606
 21
97.5003758528
  0
LWPOLYLINE
  5
36D
100
AcDbEntity
  8
0
100
AcDbPolyline
 62
7
  6
CONTINUOUS
 90
7
 70
0
 10
135.4590484125
 20
97.5432700548
 10
135.510757804
 20
97.5165445746
 10
135.5619202607
 20
97.4960821563
 10
135.6121588669
 20
97.4816162432
 10
135.660802108
 20
97.4728802636
 10
135.7079135356
 20
97.4694197598
 10
135.7298752369
 20
97.4695292992
  0
LWPOLYLINE
  5
36E
100
AcDbEntity
  8
0
100
AcDbPolyline
 62
250
  6
CONTINUOUS
 90
9
 70
0
 10
131.1627529658
 20
99.2243016035
 10
131.1452104512
 20
99.2355819955
 10
131.1299521325
 20
99.2477391376
 10
131.1170790177
 20
99.2606146762
 10
131.1067137778
 20
99.2739691123
 10
131.0988114797
 20
99.2877192189
 10
131.0933035821
 20
99.301967186
 10
131.0902944942
 20
99.3166509413
 10
131.0897413459
 20
99.3262466012
  0
LWPOLYLINE
  5
36F
100
AcDbEntity
  8
0
100
AcDbPolyline
 62
250
  6
CONTINUOUS
 90
31
 70
0
 10
135.4072709623
 20
97.6577081461
 10
135.3753565476
 20
97.6782728221
 10
135.3445275347
 20
97.7017629023
 10
135.3147839236
 20
97.7281783868
 10
135.2858457426
 20
97.7578664822
 10
135.2579929634
 20
97.7904799819
 10
135.2320655014
 20
97.8249772661
 10
135.2080985526
 20
97.8614794224
 10
135.1860569209
 20
97.8998653632
 10
135.1666749334
 20
97.9387302064
 10
135.1500914944
 20
97.9779654119
 10
135.1361676996
 20
98.0176795198
 10
135.1252211627
 20
98.0567932682
 10
135.1173002904
 20
98.0953208995
 10
135.112356676
 20
98.1332481713
 10
135.1105627136
 20
98.1694530943
 10
135.1120123156
 20
98.2039303259
 10
135.1166115694
 20
98.2366852087
 10
135.1242511313
 20
98.266611781
 10
135.1350194178
 20
98.2936027474
 10
135.1488280123
 20
98.3177654034
 10
135.1653023216
 20
98.3383156736
 10
135.1845135015
 20
98.3551697601
 10
135.2063903962
 20
98.3684114609
 10
135.2303449443
 20
98.3775080943
 10
135.2565239354
 20
98.3823209855
 10
135.2847805798
 20
98.3829888093
 10
135.3140864478
 20
98.3793949085
 10
135.3440987292
 20
98.3715003974
 10
135.375160234
 20
98.3593441617
 10
135.4072709623
 20
98.3429262015
  0
LWPOLYLINE
  5
370
100
AcDbEntity
  8
0
100
AcDbPolyline
 62
250
  6
CONTINUOUS
 90
31
 70
0
 10
135.4072709623
 20
98.3429262015
 10
135.4391892806
 20
98.3223567223
 10
135.470019274
 20
98.2988656951
 10
135.4997609422
 20
98.2724531199
 10
135.5287144676
 20
98.2427257972
 10
135.5565796678
 20
98.2100769265
 10
135.5824559969
 20
98.1756861063
 10
135.606228254
 20
98.1395978819
 10
135.6280116399
 20
98.1017677081
 10
135.6472512103
 20
98.0632415473
 10
135.6639166418
 20
98.023968344
 10
135.6780382578
 20
97.9839991539
 10
135.6891520838
 20
97.9445331067
 10
135.6971720704
 20
97.9055218644
 10
135.702184267
 20
97.867013765
 10
135.7039828471
 20
97.8303529521
 10
135.7024381572
 20
97.795628067
 10
135.6976798509
 20
97.7627504683
 10
135.6898910627
 20
97.7327983752
 10
135.6789968591
 20
97.705898971
 10
135.6650721737
 20
97.6819250723
 10
135.6485249419
 20
97.6615733481
 10
135.6292992406
 20
97.6449140109
 10
135.6074509929
 20
97.6318768481
 10
135.5835559046
 20
97.6229478916
 10
135.5574755874
 20
97.6182487964
 10
135.5293484296
 20
97.6176579074
 10
135.5001653012
 20
97.6212962912
 10
135.4702564921
 20
97.6292043034
 10
135.4392917125
 20
97.6413415883
 10
135.4072709623
 20
97.6577081461
  0
LWPOLYLINE
  5
371
100
AcDbEntity
  8
0
100
AcDbPolyline
 62
250
  6
CONTINUOUS
 90
9
 70
0
 10
135.4590472963
 20
97.5432706992
 10
135.4477439954
 20
97.551101317
 10
135.4375059946
 20
97.561005506
 10
135.4285546637
 20
97.5729012372
 10
135.4210455891
 20
97.5866757968
 10
135.4150934928
 20
97.6021895976
 10
135.4107783609
 20
97.6192959688
 10
135.4081568413
 20
97.6378561772
 10
135.4072751263
 20
97.6577018615
  0
LINE
  5
372
100
AcDbEntity
  8
0
100
AcDbLine
 62
250
  6
CONTINUOUS
 10
149.4506825561
 20
83.5707599783
 11
149.4868548318
 21
83.5368177357
  0
LINE
  5
373
100
AcDbEntity
  8
RACCORDO
100
AcDbLine
 62
250
  6
CONTINUOUS
 10
145.624680103
 20
80.3326697305
 11
145.6325492194
 21
80.3190400212
  0
LINE
  5
374
100
AcDbEntity
  8
DRAFT
100
AcDbLine
 62
7
  6
CONTINUOUS
 10
137.6766530408
 20
121.1748142299
 11
137.6766530408
 21
121.2549006282
  0
LWPOLYLINE
  5
375
100
AcDbEntity
  8
0
100
AcDbPolyline
 62
250
  6
CONTINUOUS
 90
15
 70
0
 10
137.8803548148
 20
95.5496361817
 10
137.8747605216
 20
95.3291222445
 10
137.8580085889
 20
95.1159185407
 10
137.8301731701
 20
94.91072203
 10
137.7912191253
 20
94.7135682965
 10
137.7413681944
 20
94.5257908296
 10
137.6814540349
 20
94.3497045728
 10
137.6126838952
 20
94.1870288681
 10
137.5350932291
 20
94.036306736
 10
137.4475993484
 20
93.8952668664
 10
137.3495806879
 20
93.7637154431
 10
137.2417382978
 20
93.6433314181
 10
137.1246144605
 20
93.5350694498
 10
136.9987692671
 20
93.4396097608
 10
136.8967123648
 20
93.3753860682
  0
LWPOLYLINE
  5
376
100
AcDbEntity
  8
0
100
AcDbPolyline
 62
250
  6
CONTINUOUS
 90
52
 70
0
 10
137.5270282347
 20
95.5496486901
 10
137.5208592439
 20
95.3259931375
 10
137.5028393373
 20
95.1116016639
 10
137.4729685148
 20
94.9064742693
 10
137.4310335118
 20
94.709846235
 10
137.3772475929
 20
94.5224822797
 10
137.3122505524
 20
94.3466765594
 10
137.235856148
 20
94.1825887423
 10
137.148250622
 20
94.0300591601
 10
137.0506324955
 20
93.8909029645
 10
136.943155445
 20
93.7654466915
 10
136.825665794
 20
93.6533638049
 10
136.6989010338
 20
93.555489848
 10
136.5624589742
 20
93.4717087624
 10
136.4167418055
 20
93.4021366065
 10
136.2636935887
 20
93.3479570987
 10
136.1032888636
 20
93.3094817928
 10
135.9355530905
 20
93.286399135
 10
135.7625067123
 20
93.2789581821
 10
135.5841071549
 20
93.2873626613
 10
135.4003969924
 20
93.3114088454
 10
135.2135243894
 20
93.350734609
 10
135.0234821071
 20
93.4055082483
 10
134.8302773843
 20
93.4755614671
 10
134.6360801017
 20
93.5600272514
 10
134.4408920784
 20
93.659051621
 10
134.2447114953
 20
93.7724885561
 10
134.0497027761
 20
93.8990329838
 10
133.8558826113
 20
94.0388163077
 10
133.6632343103
 20
94.1917071241
 10
133.4738722258
 20
94.3560061494
 10
133.2878341289
 20
94.5318240547
 10
133.1050822484
 20
94.7190501689
 10
132.9276176224
 20
94.9156531944
 10
132.755477862
 20
95.1217516025
 10
132.5886253561
 20
95.3372269219
 10
132.4289483095
 20
95.5596924411
 10
132.2764359501
 20
95.7894403845
 10
132.13109905
 20
96.0261785278
 10
131.9948581299
 20
96.2666434865
 10
131.8680804366
 20
96.5103037281
 10
131.7503987233
 20
96.7576907851
 10
131.6426317716
 20
97.0071358712
 10
131.5446211172
 20
97.2591611914
 10
131.4565252243
 20
97.5132445406
 10
131.379638267
 20
97.7661505172
 10
131.3141483193
 20
98.0178433314
 10
131.2598673072
 20
98.2683587731
 10
131.2175251837
 20
98.5145688097
 10
131.1873652663
 20
98.7554307636
 10
131.1691442375
 20
98.9919873124
 10
131.1628620973
 20
99.2242384561
  0
LINE
  5
377
100
AcDbEntity
  8
ASSI
100
AcDbLine
 62
250
  6
CONTINUOUS
 10
139.1983332057
 20
121.6603926937
 11
139.19800816
 21
121.6545345705
  0
LINE
  5
378
100
AcDbEntity
  8
ASSI
100
AcDbLine
 62
250
  6
CONTINUOUS
 10
142.0238235863
 20
123.0991752923
 11
142.0269121846
 21
123.116685801
  0
LWPOLYLINE
  5
379
100
AcDbEntity
  8
ASSI
100
AcDbPolyline
 62
250
  6
CONTINUOUS
 90
13
 70
0
 10
142.3052545892
 20
119.7012643471
 10
142.3100283011
 20
119.7250695991
 10
142.3125389661
 20
119.7495147606
 10
142.312748192
 20
119.7742263072
 10
142.3106527527
 20
119.7988266395
 10
142.3062846388
 20
119.8229398426
 10
142.2997105739
 20
119.8461974317
 10
142.2910309894
 20
119.8682440033
 10
142.2803784957
 20
119.8887426456
 10
142.2679158656
 20
119.9073800821
 10
142.2538335326
 20
119.9238714896
 10
142.2383466758
 20
119.9379648465
 10
142.2216919441
 20
119.9494447668
  0
LWPOLYLINE
  5
37A
100
AcDbEntity
  8
RACCORDO
100
AcDbPolyline
 62
250
  6
CONTINUOUS
 90
10
 70
0
 10
144.6267552324
 20
123.6066997929
 10
144.6306756445
 20
123.6229104122
 10
144.632463144
 20
123.6397015999
 10
144.6320665786
 20
123.6565928497
 10
144.6294972964
 20
123.6731007919
 10
144.6248288211
 20
123.6887530258
 10
144.6181947481
 20
123.7031016382
 10
144.6097849213
 20
123.7157360207
 10
144.599840001
 20
123.72629462
 10
144.5886445765
 20
123.7344752843
  0
LWPOLYLINE
  5
37B
100
AcDbEntity
  8
RACCORDO
100
AcDbPolyline
 62
250
  6
CONTINUOUS
 90
3
 70
0
 10
145.6585283432
 20
123.5706267487
 10
145.662448755
 20
123.5868373716
 10
145.6642362535
 20
123.6036285621
  0
LWPOLYLINE
  5
37C
100
AcDbEntity
  8
0
100
AcDbPolyline
 62
250
  6
CONTINUOUS
 90
7
 70
0
 10
148.610890971
 20
126.839043689
 10
148.6470476428
 20
126.9373571256
 10
148.6805377643
 20
127.0200435076
 10
148.7118980552
 20
127.0885444734
 10
148.740911977
 20
127.1434787616
 10
148.7680950142
 20
127.1874508883
 10
148.7950685447
 20
127.223885111
  0
LWPOLYLINE
  5
37D
100
AcDbEntity
  8
ASSI
100
AcDbPolyline
 62
250
  6
CONTINUOUS
 90
5
 70
0
 10
146.8739256484
 20
121.0920799418
 10
146.8785653207
 20
121.104089845
 10
146.8849500275
 20
121.1156905642
 10
146.8929837522
 20
121.12672858
 10
146.9025618634
 20
121.1370947776
  0
LWPOLYLINE
  5
37E
100
AcDbEntity
  8
ASSI
100
AcDbPolyline
 62
250
  6
CONTINUOUS
 90
4
 70
0
 10
146.8739269922
 20
121.0711434972
 10
146.8775741258
 20
121.0801598089
 10
146.8857148172
 20
121.0923864205
 10
146.8968126665
 20
121.1041136385
  0
LINE
  5
37F
100
AcDbEntity
  8
RACCORDO
100
AcDbLine
 62
7
  6
CONTINUOUS
 10
145.4181594766
 20
110.4254209066
 11
145.7823973517
 21
111.0374148286
  0
LINE
  5
380
100
AcDbEntity
  8
0
100
AcDbLine
 62
250
  6
CONTINUOUS
 10
137.3497749569
 20
95.7138467214
 11
134.5239443294
 21
94.1391892406
  0
LINE
  5
381
100
AcDbEntity
  8
0
100
AcDbLine
 62
7
  6
CONTINUOUS
 10
136.5525842986
 20
93.922466357
 11
136.5516423007
 21
93.9219485034
  0
LWPOLYLINE
  5
382
100
AcDbEntity
  8
0
100
AcDbPolyline
 62
250
  6
CONTINUOUS
 90
14
 70
0
 10
136.5516423007
 20
93.9219485034
 10
136.5193110848
 20
93.9047499529
 10
136.3865204386
 20
93.845022581
 10
136.2456295464
 20
93.7986614797
 10
136.0964601077
 20
93.7660755424
 10
135.9385468504
 20
93.7478267772
 10
135.7730893689
 20
93.7446993606
 10
135.6026178632
 20
93.7569795897
 10
135.4283499749
 20
93.7844827473
 10
135.2505246055
 20
93.8270767407
 10
135.0704502432
 20
93.8843497717
 10
134.8890793424
 20
93.9558142441
 10
134.7069701025
 20
94.0410685471
 10
134.5248587899
 20
94.1396099769
  0
LWPOLYLINE
  5
383
100
AcDbEntity
  8
0
100
AcDbPolyline
 62
250
  6
CONTINUOUS
 90
16
 70
0
 10
137.8802454366
 20
95.5496080757
 10
137.8607048408
 20
95.5394644167
 10
137.8396460392
 20
95.5306438831
 10
137.8173433996
 20
95.5232047609
 10
137.7942118046
 20
95.5172190936
 10
137.7703954716
 20
95.5126595834
 10
137.7457174997
 20
95.509482765
 10
137.72028548
 20
95.5077475864
 10
137.6944870431
 20
95.5075277736
 10
137.6685466848
 20
95.5088640129
 10
137.6427097437
 20
95.5117914545
 10
137.6173217605
 20
95.5163199286
 10
137.5927665292
 20
95.5224195341
 10
137.5693682474
 20
95.5300390226
 10
137.5473963643
 20
95.5391217053
 10
137.5271376199
 20
95.5495856687
  0
LWPOLYLINE
  5
384
100
AcDbEntity
  8
0
100
AcDbPolyline
 62
250
  6
CONTINUOUS
 90
52
 70
0
 10
134.3449537252
 20
100.9420364961
 10
134.1545616619
 20
101.0450742968
 10
133.9662019741
 20
101.1337019592
 10
133.7798746618
 20
101.2079194832
 10
133.5948405058
 20
101.267917813
 10
133.4118387254
 20
101.3135060044
 10
133.2330869785
 20
101.344111225
 10
133.0586179631
 20
101.3595007658
 10
132.8883989813
 20
101.3599073356
 10
132.7245495974
 20
101.3454562287
 10
132.5674231999
 20
101.3161138327
 10
132.4166664003
 20
101.2719137599
 10
132.2733385978
 20
101.2130821403
 10
132.1371593258
 20
101.1393510889
 10
132.0084090509
 20
101.0509884907
 10
131.8889885714
 20
100.9490241307
 10
131.7791291176
 20
100.833274943
 10
131.6785994591
 20
100.7039239935
 10
131.5886067032
 20
100.5625502644
 10
131.5093070054
 20
100.4090202072
 10
131.4405442101
 20
100.2434673705
 10
131.3830569587
 20
100.0678713825
 10
131.3369839423
 20
99.8821462944
 10
131.3021864696
 20
99.686378055
 10
131.2789871084
 20
99.4828041383
 10
131.2675086654
 20
99.2713567029
 10
131.2676283338
 20
99.0521035901
 10
131.2793002615
 20
98.8274857977
 10
131.3026420594
 20
98.5974532805
 10
131.3375361166
 20
98.3620560837
 10
131.3835837477
 20
98.1238853408
 10
131.4408967475
 20
97.882916518
 10
131.5093633214
 20
97.6391741491
 10
131.5882493999
 20
97.3953229693
 10
131.6776782743
 20
97.1513289842
 10
131.7775266533
 20
96.9072261882
 10
131.8866905943
 20
96.6657813
 10
132.0053937627
 20
96.4268725552
 10
132.133412493
 20
96.1906217181
 10
132.2689718463
 20
95.9601608011
 10
132.4118168155
 20
95.7360282794
 10
132.5622024078
 20
95.5176856778
 10
132.7191187055
 20
95.3066495826
 10
132.8829320942
 20
95.1025341857
 10
133.0532761885
 20
94.9057252952
 10
133.2280419138
 20
94.7188969212
 10
133.4072794847
 20
94.5422372119
 10
133.5909386866
 20
94.3755580191
 10
133.7767598015
 20
94.2209689082
 10
133.9639895899
 20
94.0791730677
 10
134.1533812912
 20
93.9494673091
 10
134.3449349053
 20
93.8318516325
  0
LWPOLYLINE
  5
385
100
AcDbEntity
  8
0
100
AcDbPolyline
 62
250
  6
CONTINUOUS
 90
28
 70
0
 10
134.5216580109
 20
101.3671394126
 10
134.7163516003
 20
101.2482007071
 10
134.9100293082
 20
101.1168770007
 10
135.102047717
 20
100.9736776198
 10
135.2923088253
 20
100.8186936764
 10
135.4796442265
 20
100.6528951314
 10
135.6618983887
 20
100.4784341722
 10
135.8370775007
 20
100.2978060376
 10
136.0063240375
 20
100.1104235229
 10
136.1721029046
 20
99.9136372855
 10
136.3348738509
 20
99.7064864936
 10
136.4928609888
 20
99.4907989307
 10
136.644995511
 20
99.2678009348
 10
136.7903961983
 20
99.0386633594
 10
136.9288508934
 20
98.8035935699
 10
137.0602815748
 20
98.5624332077
 10
137.1844435748
 20
98.315124889
 10
137.3002940768
 20
98.0631997361
 10
137.4066493503
 20
97.808942594
 10
137.5027017496
 20
97.5543476861
 10
137.5885645997
 20
97.299184652
 10
137.664413403
 20
97.0424644066
 10
137.7301120659
 20
96.7833348149
 10
137.7845551133
 20
96.524599943
 10
137.8267506164
 20
96.2706981823
 10
137.8566169291
 20
96.0236114037
 10
137.8744454527
 20
95.7830010391
 10
137.8803548148
 20
95.5496361817
  0
LWPOLYLINE
  5
386
100
AcDbEntity
  8
0
100
AcDbPolyline
 62
7
  6
CONTINUOUS
 90
40
 70
0
 10
134.3967678349
 20
100.8277190075
 10
134.5696462111
 20
100.7219361408
 10
134.7427200375
 20
100.6040676353
 10
134.9152833794
 20
100.474489188
 10
135.0866093389
 20
100.3336520336
 10
135.256010645
 20
100.1820358988
 10
135.4228586565
 20
100.0201182407
 10
135.5865092362
 20
99.8484354552
 10
135.7462680851
 20
99.6676333753
 10
135.9014715227
 20
99.4783929208
 10
136.0515160694
 20
99.2813854218
 10
136.19578208
 20
99.0773653455
 10
136.3336333107
 20
98.8671918016
 10
136.4645258463
 20
98.6516710957
 10
136.5879552943
 20
98.4316178244
 10
136.7034072769
 20
98.2079487707
 10
136.8104409642
 20
97.9815380047
 10
136.9086635704
 20
97.7532482517
 10
136.9976974817
 20
97.5240081052
 10
137.0772289634
 20
97.2947007931
 10
137.1469814748
 20
97.0662231589
 10
137.2067052914
 20
96.8395418402
 10
137.256217529
 20
96.6155738685
 10
137.2953992903
 20
96.3951538237
 10
137.3241693451
 20
96.1791374826
 10
137.3424913692
 20
95.9684272094
 10
137.3503936063
 20
95.7637793659
 10
137.3479414256
 20
95.565858106
 10
137.3352594983
 20
95.3756679447
 10
137.3125098044
 20
95.1937187238
 10
137.2797598345
 20
95.0200562659
 10
137.237208955
 20
94.8555939468
 10
137.1850538159
 20
94.7009123922
 10
137.1231683352
 20
94.5558338735
 10
137.0516880026
 20
94.4211119227
 10
136.9708551766
 20
94.2975430741
 10
136.8804630215
 20
94.1852546466
 10
136.7804566136
 20
94.0847947746
 10
136.6710721821
 20
93.9969753775
 10
136.552470004
 20
93.9224035247
  0
LINE
  5
387
100
AcDbEntity
  8
0
100
AcDbLine
 62
250
  6
CONTINUOUS
 10
134.5365074076
 20
100.8244208606
 11
134.3449537252
 21
100.9420364961
  0
LWPOLYLINE
  5
388
100
AcDbEntity
  8
0
100
AcDbPolyline
 62
250
  6
CONTINUOUS
 90
9
 70
0
 10
134.3967678349
 20
100.8277190075
 10
134.3922696207
 20
100.8305103748
 10
134.3804526431
 20
100.8400007845
 10
134.3700658598
 20
100.8518488425
 10
134.3612905602
 20
100.8659695437
 10
134.3542934502
 20
100.8822053456
 10
134.3491918
 20
100.9003844657
 10
134.3460703013
 20
100.9203441284
 10
134.345000706
 20
100.9418783412
  0
LWPOLYLINE
  5
389
100
AcDbEntity
  8
0
100
AcDbPolyline
 62
250
  6
CONTINUOUS
 90
8
 70
0
 10
135.8069571796
 20
99.6713541372
 10
135.6366129978
 20
99.8681630333
 10
135.461847186
 20
100.0549914021
 10
135.2826095289
 20
100.2316510925
 10
135.0989502418
 20
100.3983302557
 10
134.9131290457
 20
100.5529193335
 10
134.7258991811
 20
100.6947151398
 10
134.5365074076
 20
100.8244208606
  0
LINE
  5
38A
100
AcDbEntity
  8
0
100
AcDbLine
 62
250
  6
CONTINUOUS
 10
135.7622727096
 20
99.8582339518
 11
135.93441247
 21
99.6521355437
  0
LINE
  5
38B
100
AcDbEntity
  8
0
100
AcDbLine
 62
250
  6
CONTINUOUS
 10
135.9707706551
 20
99.467238725
 11
135.8069571796
 21
99.6713541372
  0
LWPOLYLINE
  5
38C
100
AcDbEntity
  8
0
100
AcDbPolyline
 62
250
  6
CONTINUOUS
 90
9
 70
0
 10
135.93441247
 20
99.6521355437
 10
136.1012649758
 20
99.4366602243
 10
136.2609420225
 20
99.2141947051
 10
136.4134543819
 20
98.9844467617
 10
136.558791282
 20
98.7477086184
 10
136.695032202
 20
98.5072436597
 10
136.8218098954
 20
98.2635834181
 10
136.9394916086
 20
98.016196361
 10
137.0472585603
 20
97.766751275
  0
LWPOLYLINE
  5
38D
100
AcDbEntity
  8
0
100
AcDbPolyline
 62
250
  6
CONTINUOUS
 90
9
 70
0
 10
137.0122117116
 20
97.6225588902
 10
136.9123632689
 20
97.8666617605
 10
136.8031992589
 20
98.108106719
 10
136.6844960153
 20
98.3470155315
 10
136.5564772043
 20
98.5832664322
 10
136.4209177686
 20
98.8137274037
 10
136.278072716
 20
99.037859969
 10
136.1276870387
 20
99.256202605
 10
135.9707706551
 20
99.467238725
  0
LWPOLYLINE
  5
38E
100
AcDbEntity
  8
0
100
AcDbPolyline
 62
250
  6
CONTINUOUS
 90
10
 70
0
 10
137.0472585603
 20
97.766751275
 10
137.1452692148
 20
97.5147259548
 10
137.2333651077
 20
97.2606426056
 10
137.3102520649
 20
97.007736629
 10
137.3757420127
 20
96.7560438147
 10
137.4300230248
 20
96.505528373
 10
137.4723651483
 20
96.2593183365
 10
137.5025250657
 20
96.0184563825
 10
137.5207460945
 20
95.7818998337
 10
137.5270282347
 20
95.5496486901
  0
LINE
  5
38F
100
AcDbEntity
  8
0
100
AcDbLine
 62
250
  6
CONTINUOUS
 10
137.1016406435
 20
97.3785648284
 11
137.0122117116
 21
97.6225588902
  0
LINE
  5
390
100
AcDbEntity
  8
RACCORDO
100
AcDbLine
 62
7
  6
CONTINUOUS
 10
140.1044289092
 20
122.5036881654
 11
140.1078812143
 21
122.4701500815
  0
LINE
  5
391
100
AcDbEntity
  8
ASSI
100
AcDbLine
 62
7
  6
CONTINUOUS
 10
139.19800816
 20
121.6545345705
 11
139.1980139755
 21
121.6544714107
  0
LINE
  5
392
100
AcDbEntity
  8
ASSI
100
AcDbLine
 62
250
  6
CONTINUOUS
 10
139.3721044267
 20
121.560419195
 11
139.3624151601
 21
121.6671575561
  0
LWPOLYLINE
  5
393
100
AcDbEntity
  8
SUPERFICI
100
AcDbPolyline
 62
250
  6
CONTINUOUS
 90
9
 70
0
 10
141.7790522502
 20
72.0186971728
 10
141.7809250871
 20
71.9778150006
 10
141.7865237563
 20
71.939528654
 10
141.7957889436
 20
71.9042437526
 10
141.8086224902
 20
71.8723341175
 10
141.8248884329
 20
71.8441378112
 10
141.8444144442
 20
71.8199535559
 10
141.8669936584
 20
71.8000375685
 10
141.8825935607
 20
71.7898287422
  0
LINE
  5
394
100
AcDbEntity
  8
SUPERFICI
100
AcDbLine
 62
250
  6
CONTINUOUS
 10
141.7790522502
 20
114.170469455
 11
141.7790522502
 21
72.0186971728
  0
LINE
  5
395
100
AcDbEntity
  8
ASSI
100
AcDbLine
 62
7
  6
CONTINUOUS
 10
141.9943508192
 20
123.1778721342
 11
141.9943508192
 21
123.0456039277
  0
LINE
  5
396
100
AcDbEntity
  8
SUPERFICI
100
AcDbLine
 62
250
  6
CONTINUOUS
 10
142.4767829286
 20
114.1651957163
 11
142.4767829286
 21
72.0134234341
  0
LINE
  5
397
100
AcDbEntity
  8
0
100
AcDbLine
 62
7
  6
CONTINUOUS
 10
142.8175561306
 20
117.4891840837
 11
142.8175561306
 21
117.5889004993
  0
LINE
  5
398
100
AcDbEntity
  8
ASSI
100
AcDbLine
 62
250
  6
CONTINUOUS
 10
142.0220269035
 20
123.055305253
 11
142.0227902626
 21
123.081896092
  0
LWPOLYLINE
  5
399
100
AcDbEntity
  8
0
100
AcDbPolyline
 62
250
  6
CONTINUOUS
 90
3
 70
0
 10
143.1111370042
 20
117.6461627085
 10
143.114344664
 20
117.7508452793
 10
143.1145621232
 20
117.7532709538
  0
LWPOLYLINE
  5
39A
100
AcDbEntity
  8
ASSI
100
AcDbPolyline
 62
7
  6
CONTINUOUS
 90
22
 70
0
 10
141.9943508233
 20
123.1778721342
 10
141.9959881539
 20
123.2091771956
 10
142.0010332387
 20
123.2409178093
 10
142.0096538978
 20
123.272747216
 10
142.0219459572
 20
123.3042543757
 10
142.0379757736
 20
123.3351089989
 10
142.0578661162
 20
123.3651107869
 10
142.0818477
 20
123.3941325427
 10
142.1097941503
 20
123.4216207306
 10
142.1412479593
 20
123.4469495845
 10
142.1763933353
 20
123.4701412643
 10
142.2149518168
 20
123.4908609241
 10
142.2554318055
 20
123.5083909029
 10
142.2972143138
 20
123.5227377196
 10
142.3404203538
 20
123.534140288
 10
142.3843186926
 20
123.5425525594
 10
142.4284200496
 20
123.5480523111
 10
142.4727131662
 20
123.5507628654
 10
142.5170498883
 20
123.5507301352
 10
142.5612226266
 20
123.5479645746
 10
142.6049932486
 20
123.5424561782
 10
142.6481299476
 20
123.534174596
  0
LINE
  5
39B
100
AcDbEntity
  8
ASSI
100
AcDbLine
 62
250
  6
CONTINUOUS
 10
142.0227902794
 20
123.0818960718
 11
142.0238235863
 21
123.0991752923
  0
LWPOLYLINE
  5
39C
100
AcDbEntity
  8
RACCORDO
100
AcDbPolyline
 62
250
  6
CONTINUOUS
 90
13
 70
0
 10
144.3789582414
 20
123.5431920633
 10
144.3808260232
 20
123.557641132
 10
144.3818255357
 20
123.5724454554
 10
144.3819507141
 20
123.5875152042
 10
144.3812007988
 20
123.6027589387
 10
144.3795803401
 20
123.6180841635
 10
144.3770991705
 20
123.6333978886
 10
144.3737723429
 20
123.6486072033
 10
144.3696200448
 20
123.6636198113
 10
144.3646674816
 20
123.6783445922
 10
144.3589447123
 20
123.6926921927
 10
144.3524864625
 20
123.7065755672
 10
144.3453319228
 20
123.7199104783
  0
LWPOLYLINE
  5
39D
100
AcDbEntity
  8
RACCORDO
100
AcDbPolyline
 62
7
  6
CONTINUOUS
 90
31
 70
0
 10
144.7873430757
 20
117.881730753
 10
144.7871640251
 20
117.8806309715
 10
144.786559003
 20
117.8778866003
 10
144.7856061412
 20
117.8743479109
 10
144.7842802712
 20
117.8700248721
 10
144.782593338
 20
117.8651276118
 10
144.7805705974
 20
117.8598430053
 10
144.7782344183
 20
117.8542304798
 10
144.7755976337
 20
117.8483618153
 10
144.7726777943
 20
117.8423040622
 10
144.7694978862
 20
117.8361084777
 10
144.7660575111
 20
117.8297967161
 10
144.7623633848
 20
117.8233965889
 10
144.7584356911
 20
117.816950816
 10
144.7542843326
 20
117.8104887775
 10
144.7499263115
 20
117.8040449606
 10
144.7453682229
 20
117.7976352375
 10
144.7405996549
 20
117.7912551606
 10
144.7356190968
 20
117.7849142332
 10
144.7304438418
 20
117.7786445572
 10
144.7250882185
 20
117.7724720692
 10
144.7195364174
 20
117.7663887985
 10
144.713819157
 20
117.7604348348
 10
144.7080212399
 20
117.7546983485
 10
144.7021665805
 20
117.749197606
 10
144.6962670095
 20
117.7439311048
 10
144.6903841645
 20
117.738937577
 10
144.6845901
 20
117.7342491031
 10
144.6788487697
 20
117.72980025
 10
144.6730588651
 20
117.7255047702
 10
144.6672047156
 20
117.7213488291
  0
LWPOLYLINE
  5
39E
100
AcDbEntity
  8
ASSI
100
AcDbPolyline
 62
250
  6
CONTINUOUS
 90
10
 70
0
 10
144.3495833163
 20
119.807615898
 10
144.3461576782
 20
119.7894472269
 10
144.3441100207
 20
119.7713503904
 10
144.3434586272
 20
119.7534869586
 10
144.3442093162
 20
119.7360164176
 10
144.3463553858
 20
119.7190947466
 10
144.3498776741
 20
119.7028730249
 10
144.3547447349
 20
119.6874960822
 10
144.3609131173
 20
119.6731012053
 10
144.3683277507
 20
119.6598169139
  0
LWPOLYLINE
  5
39F
100
AcDbEntity
  8
RACCORDO
100
AcDbPolyline
 62
250
  6
CONTINUOUS
 90
10
 70
0
 10
147.9544584663
 20
121.6833616755
 10
147.9578347829
 20
121.6993205788
 10
147.9591719676
 20
121.7157381583
 10
147.9584336841
 20
121.7321682914
 10
147.9556399941
 20
121.7481645139
 10
147.9508668117
 20
121.7632921529
 10
147.9442438406
 20
121.7771401378
 10
147.9359510499
 20
121.7893321704
 10
147.9262137834
 20
121.7995369506
 10
147.9152966364
 20
121.8074771785
  0
LWPOLYLINE
  5
3A0
100
AcDbEntity
  8
RACCORDO
100
AcDbPolyline
 62
250
  6
CONTINUOUS
 90
16
 70
0
 10
151.6330786413
 20
117.0191167019
 10
151.647395388
 20
117.0463012839
 10
151.6587288625
 20
117.0766192197
 10
151.6669764272
 20
117.1097959461
 10
151.6720633902
 20
117.1455310093
 10
151.6739436833
 20
117.1835007855
 10
151.6726002783
 20
117.2233614136
 10
151.6680453416
 20
117.2647519103
 10
151.6603201233
 20
117.3072974386
 10
151.6494945836
 20
117.3506127004
 10
151.6356667603
 20
117.3943054254
 10
151.6189618801
 20
117.4379799251
 10
151.5995312241
 20
117.481240678
 10
151.5775507599
 20
117.5236959063
 10
151.5532195487
 20
117.5649611242
 10
151.5267579395
 20
117.6046626263
  0
LWPOLYLINE
  5
3A1
100
AcDbEntity
  8
RACCORDO
100
AcDbPolyline
 62
250
  6
CONTINUOUS
 90
22
 70
0
 10
139.1730694597
 20
91.7604175523
 10
139.0378724043
 20
91.5509313214
 10
138.8894575364
 20
91.3568121356
 10
138.7290285054
 20
91.1796635531
 10
138.5564827704
 20
91.0196234436
 10
138.3719228722
 20
90.8765539372
 10
138.1768600826
 20
90.7516449828
 10
137.9712050363
 20
90.6450485156
 10
137.7550470987
 20
90.5566126003
 10
137.530165637
 20
90.4870713802
 10
137.2964917324
 20
90.4365830778
 10
137.0540943038
 20
90.4049894705
 10
136.8049594758
 20
90.3925500345
 10
136.5490302139
 20
90.3994228937
 10
136.2863635527
 20
90.4254499242
 10
136.0191167197
 20
90.4704162299
 10
135.7472243987
 20
90.5344946737
 10
135.470751906
 20
90.6175123927
 10
135.1920524186
 20
90.7187359024
 10
134.911910329
 20
90.8379207079
 10
134.6295412448
 20
90.975311304
 10
134.344945166
 20
91.1309076908
  0
LINE
  5
3A2
100
AcDbEntity
  8
0
100
AcDbLine
 62
7
  6
CONTINUOUS
 10
139.6000166074
 20
94.9362400575
 11
136.8944948487
 21
93.374108091
  0
LWPOLYLINE
  5
3A3
100
AcDbEntity
  8
RACCORDO
100
AcDbPolyline
 62
250
  6
CONTINUOUS
 90
14
 70
0
 10
138.3176107473
 20
91.4108141123
 10
138.2238255116
 20
91.3568245371
 10
138.0184848125
 20
91.2571208586
 10
137.803042524
 20
91.1766421125
 10
137.5781526816
 20
91.1156327291
 10
137.3444984316
 20
91.0742781457
 10
137.1027896635
 20
91.0527040403
 10
136.8537605549
 20
91.0509759223
 10
136.5981672919
 20
91.0690990187
 10
136.3367860884
 20
91.1070182865
 10
136.0704107453
 20
91.1646185639
 10
135.7998502381
 20
91.2417249175
 10
135.5259262451
 20
91.3381031763
 10
135.2494706611
 20
91.4534606417
  0
LWPOLYLINE
  5
3A4
100
AcDbEntity
  8
0
100
AcDbPolyline
 62
7
  6
CONTINUOUS
 90
40
 70
0
 10
136.8943835032
 20
93.3740440576
 10
136.7443028202
 20
93.2970773044
 10
136.5857558447
 20
93.234152466
 10
136.4192711844
 20
93.1857843582
 10
136.2453135392
 20
93.1524061429
 10
136.0645504609
 20
93.1344258899
 10
135.8778320672
 20
93.1321478018
 10
135.685620383
 20
93.1457732094
 10
135.4886032869
 20
93.1754514828
 10
135.2879823742
 20
93.2211202283
 10
135.0842893558
 20
93.2827250725
 10
134.8782097212
 20
93.3601383911
 10
134.6712492388
 20
93.4527854484
 10
134.4642538823
 20
93.5601786806
 10
134.2576859255
 20
93.6819842912
 10
134.0525401691
 20
93.8175206984
 10
133.8495835508
 20
93.9661518157
 10
133.6493656057
 20
94.1273571047
 10
133.4525864518
 20
94.3004713113
 10
133.2599143688
 20
94.48480599
 10
133.0719590056
 20
94.6796854172
 10
132.8893412653
 20
94.8843836503
 10
132.7126889388
 20
95.0981187624
 10
132.5425670495
 20
95.3201351685
 10
132.3794950655
 20
95.5496997161
 10
132.2240264901
 20
95.7859919914
 10
132.0766892582
 20
96.0281750828
 10
131.9379474016
 20
96.2754675013
 10
131.8082856533
 20
96.5270038046
 10
131.6881607564
 20
96.7819064942
 10
131.577967998
 20
97.0393679434
 10
131.4781085155
 20
97.2985113657
 10
131.3889644164
 20
97.5584262317
 10
131.3108658543
 20
97.818263915
 10
131.2441250713
 20
98.0771514705
 10
131.1890345956
 20
98.3341742695
 10
131.1458459448
 20
98.5884543845
 10
131.1147786742
 20
98.8391311834
 10
131.0960240577
 20
99.0853374431
 10
131.0897413465
 20
99.3261779355
  0
LWPOLYLINE
  5
3A5
100
AcDbEntity
  8
DRAFT
100
AcDbPolyline
 62
7
  6
CONTINUOUS
 90
3
 70
0
 10
138.5423209218
 20
91.5712255416
 10
138.5139194254
 20
91.5574351022
 10
138.2993438497
 20
91.4772399548
  0
LWPOLYLINE
  5
3A6
100
AcDbEntity
  8
RACCORDO
100
AcDbPolyline
 62
7
  6
CONTINUOUS
 90
46
 70
0
 10
134.4484864765
 20
103.4141110248
 10
134.7067406852
 20
103.2573720956
 10
134.9655628872
 20
103.084978236
 10
135.224161056
 20
102.897317072
 10
135.4817239848
 20
102.6948482231
 10
135.7374684245
 20
102.4780687306
 10
135.9906628183
 20
102.2474839055
 10
136.2405620079
 20
102.003658756
 10
136.4863855537
 20
101.7472484527
 10
136.7273905421
 20
101.478931002
 10
136.9628782019
 20
101.199391206
 10
137.1921156852
 20
100.9094118406
 10
137.4143552362
 20
100.6098682366
 10
137.6289398956
 20
100.3015893838
 10
137.8352370924
 20
99.9854339282
 10
138.0325908059
 20
99.6623717249
 10
138.2204372398
 20
99.3333047297
 10
138.3982295352
 20
98.9991782354
 10
138.565401357
 20
98.6610673634
 10
138.7214775684
 20
98.3199724931
 10
138.866048414
 20
97.9768428094
 10
138.9987116816
 20
97.6327046026
 10
139.1191286726
 20
97.2885317014
 10
139.226987851
 20
96.94533557
 10
139.3219983815
 20
96.6042170965
 10
139.4039487186
 20
96.266181996
 10
139.4726825913
 20
95.9321868815
 10
139.528072599
 20
95.603270916
 10
139.5700503934
 20
95.2804544789
 10
139.5986179967
 20
94.9645929929
 10
139.6138158761
 20
94.6564983349
 10
139.6157226178
 20
94.3572256686
 10
139.6044785181
 20
94.067469579
 10
139.580211167
 20
93.7875778814
 10
139.5431286727
 20
93.518644183
 10
139.4934417292
 20
93.261233895
 10
139.4311489778
 20
93.0151203305
 10
139.3564691995
 20
92.7812689754
 10
139.2696388486
 20
92.5604366911
 10
139.1704590998
 20
92.3524182799
 10
139.0591673901
 20
92.1581904307
 10
138.9359685368
 20
91.9784992343
 10
138.800289413
 20
91.8131368485
 10
138.6518695023
 20
91.6627070947
 10
138.4909819061
 20
91.5283534855
 10
138.3176107473
 20
91.4108141123
  0
LWPOLYLINE
  5
3A7
100
AcDbEntity
  8
RACCORDO
100
AcDbPolyline
 62
250
  6
CONTINUOUS
 90
40
 70
0
 10
134.344945166
 20
103.6429794554
 10
134.6295407989
 20
103.4699317005
 10
134.911909421
 20
103.2812499073
 10
135.1920510323
 20
103.0769340757
 10
135.470749954
 20
102.8563229802
 10
135.7472218648
 20
102.6200778463
 10
136.0191138008
 20
102.3701823511
 10
136.2863605868
 20
102.1065389235
 10
136.549027398
 20
101.8292451347
 10
136.8049567949
 20
101.5405773745
 10
137.0540916018
 20
101.2404435554
 10
137.2964889944
 20
100.9289357649
 10
137.5301630605
 20
100.6086066561
 10
137.7550449433
 20
100.2793775763
 10
137.9712034995
 20
99.9413271782
 10
138.1768593874
 20
99.5972440724
 10
138.3719233749
 20
99.2470792559
 10
138.5564846941
 20
98.8908817318
 10
138.7290316997
 20
98.53158712
 10
138.8894617694
 20
98.1691760097
 10
139.0378775256
 20
97.8036678117
 10
139.1730751899
 20
97.4380563787
 10
139.2949453637
 20
97.0723449266
 10
139.4035974456
 20
96.7065302396
 10
139.4981558537
 20
96.3435965224
 10
139.5785058485
 20
95.9835701141
 10
139.6447621694
 20
95.6264246757
 10
139.6963934529
 20
95.2750653957
 10
139.7332819342
 20
94.9295402679
 10
139.7555453781
 20
94.5898012984
 10
139.7630057145
 20
94.2586096937
 10
139.7555441882
 20
93.9360340847
 10
139.7332795545
 20
93.6220058404
 10
139.6963900094
 20
93.3190802743
 10
139.6447577861
 20
93.027345313
 10
139.5785006515
 20
92.7467130298
 10
139.4981501019
 20
92.4794749587
 10
139.4035914353
 20
92.2257373334
 10
139.2949393537
 20
91.9853939202
 10
139.1730694597
 20
91.7604175523
  0
LWPOLYLINE
  5
3A8
100
AcDbEntity
  8
0
100
AcDbPolyline
 62
250
  6
CONTINUOUS
 90
4
 70
0
 10
149.3596486921
 20
83.6910045147
 10
149.3867513278
 20
83.6482496292
 10
149.4172003226
 20
83.6080308345
 10
149.4506825561
 20
83.5707599783
  0
LINE
  5
3A9
100
AcDbEntity
  8
RACCORDO
100
AcDbLine
 62
7
  6
CONTINUOUS
 10
149.0092234561
 20
82.6991956489
 11
149.0633553713
 21
82.6054364216
  0
LWPOLYLINE
  5
3AA
100
AcDbEntity
  8
RACCORDO
100
AcDbPolyline
 62
250
  6
CONTINUOUS
 90
4
 70
0
 10
149.0092234561
 20
82.5327010208
 10
149.0122965498
 20
82.5261983737
 10
149.0200390794
 20
82.5065261488
 10
149.0262515909
 20
82.4868411018
  0
LWPOLYLINE
  5
3AB
100
AcDbEntity
  8
ASSI
100
AcDbPolyline
 62
250
  6
CONTINUOUS
 90
13
 70
0
 10
141.4578987085
 20
121.8653925097
 10
141.4558354622
 20
121.8870952419
 10
141.4515468885
 20
121.909618101
 10
141.4451015958
 20
121.9326009219
 10
141.4366026811
 20
121.9556761858
 10
141.4261860717
 20
121.9784749195
 10
141.414018345
 20
122.000632594
 10
141.4002940857
 20
122.0217949118
 10
141.3852327584
 20
122.0416235055
 10
141.3690751802
 20
122.0598013621
 10
141.3520797047
 20
122.0760378418
 10
141.3345180975
 20
122.0900733326
 10
141.3166711653
 20
122.1016834279
  0
LINE
  5
3AC
100
AcDbEntity
  8
ASSI
100
AcDbLine
 62
250
  6
CONTINUOUS
 10
143.8807809739
 20
118.5780757267
 11
143.9056058255
 21
118.3202549192
  0
LINE
  5
3AD
100
AcDbEntity
  8
ASSI
100
AcDbLine
 62
250
  6
CONTINUOUS
 10
143.853839848
 20
118.8716605286
 11
143.8807809739
 21
118.5780757267
  0
LINE
  5
3AE
100
AcDbEntity
  8
ASSI
100
AcDbLine
 62
250
  6
CONTINUOUS
 10
143.8249762477
 20
119.2025809053
 11
143.853839848
 21
118.8716605286
  0
LWPOLYLINE
  5
3AF
100
AcDbEntity
  8
RACCORDO
100
AcDbPolyline
 62
250
  6
CONTINUOUS
 90
16
 70
0
 10
141.7789600922
 20
121.8179652201
 10
141.7804310555
 20
121.800680243
 10
141.7833329514
 20
121.7828248458
 10
141.7876360683
 20
121.7645818455
 10
141.7932963477
 20
121.7461380276
 10
141.8002558353
 20
121.7276822337
 10
141.8084432746
 20
121.7094034281
 10
141.8177748366
 20
121.691488763
 10
141.8281549777
 20
121.6741216621
 10
141.8394774182
 20
121.6574799428
 10
141.8516262877
 20
121.6417339259
 10
141.864477146
 20
121.6270449103
 10
141.8778982284
 20
121.6135634702
 10
141.8917520375
 20
121.6014276361
 10
141.9058967807
 20
121.5907615348
 10
141.9201876363
 20
121.5816743023
  0
LWPOLYLINE
  5
3B0
100
AcDbEntity
  8
ASSI
100
AcDbPolyline
 62
250
  6
CONTINUOUS
 90
5
 70
0
 10
141.9943508192
 20
123.1778721342
 10
141.9961627836
 20
123.1533166576
 10
142.0015364212
 20
123.1291043564
 10
142.0104334375
 20
123.1052406286
 10
142.0227902626
 20
123.081896092
  0
LWPOLYLINE
  5
3B1
100
AcDbEntity
  8
SUPERFICI
100
AcDbPolyline
 62
250
  6
CONTINUOUS
 90
16
 70
0
 10
142.4767829286
 20
114.1651957163
 10
142.473892981
 20
114.2085726384
 10
142.46724428
 20
114.253778034
 10
142.4569100873
 20
114.3003140196
 10
142.4430024358
 20
114.3476735923
 10
142.4256755526
 20
114.3953297027
 10
142.4051280371
 20
114.4427409583
 10
142.3815949102
 20
114.4893757084
 10
142.3553337304
 20
114.5347328356
 10
142.3266262579
 20
114.5783291466
 10
142.2957433513
 20
114.6197422928
 10
142.2630642198
 20
114.6584535099
 10
142.2290844031
 20
114.6939044272
 10
142.1942362222
 20
114.7257072238
 10
142.1588632539
 20
114.7536093997
 10
142.1233506871
 20
114.7773583039
  0
LWPOLYLINE
  5
3B2
100
AcDbEntity
  8
ASSI
100
AcDbPolyline
 62
250
  6
CONTINUOUS
 90
10
 70
0
 10
144.4742437941
 20
119.6585047395
 10
144.4735872775
 20
119.6715236118
 10
144.4724967039
 20
119.6841755374
 10
144.4709720732
 20
119.6964605163
 10
144.469010131
 20
119.7083781449
 10
144.4666141318
 20
119.7199288269
 10
144.4637938385
 20
119.7311137727
 10
144.4605525056
 20
119.741933386
 10
144.4568868788
 20
119.7523872633
 10
144.4527969579
 20
119.7624754044
  0
LWPOLYLINE
  5
3B3
100
AcDbEntity
  8
ASSI
100
AcDbPolyline
 62
250
  6
CONTINUOUS
 90
16
 70
0
 10
144.8610445965
 20
116.5003665603
 10
144.8605061479
 20
116.5180746522
 10
144.8583884849
 20
116.5364715029
 10
144.8547149328
 20
116.5553544174
 10
144.849525228
 20
116.5745177175
 10
144.8428769167
 20
116.5937479025
 10
144.8348464837
 20
116.612826024
 10
144.8255263662
 20
116.6315375716
 10
144.8150185876
 20
116.6496821045
 10
144.8034351758
 20
116.6670675396
 10
144.7908845043
 20
116.6835258907
 10
144.777520994
 20
116.6988497286
 10
144.7635487871
 20
116.7128171152
 10
144.7491471649
 20
116.7252759213
 10
144.7344588733
 20
116.7361286869
 10
144.7196447794
 20
116.7452782275
  0
LINE
  5
3B4
100
AcDbEntity
  8
ASSI
100
AcDbLine
 62
250
  6
CONTINUOUS
 10
144.4840082538
 20
119.3191633455
 11
144.4742437941
 21
119.6585047395
  0
LINE
  5
3B5
100
AcDbEntity
  8
ASSI
100
AcDbLine
 62
250
  6
CONTINUOUS
 10
144.4912742912
 20
119.0045081954
 11
144.4840082538
 21
119.3191633455
  0
LINE
  5
3B6
100
AcDbEntity
  8
ASSI
100
AcDbLine
 62
250
  6
CONTINUOUS
 10
144.495211441
 20
118.7858895064
 11
144.4912742912
 21
119.0045081954
  0
LWPOLYLINE
  5
3B7
100
AcDbEntity
  8
ASSI
100
AcDbPolyline
 62
250
  6
CONTINUOUS
 90
3
 70
0
 10
144.4986493452
 20
118.5192590188
 10
144.4979786946
 20
118.5832137054
 10
144.495211441
 20
118.7858895064
  0
LINE
  5
3B8
100
AcDbEntity
  8
RACCORDO
100
AcDbLine
 62
7
  6
CONTINUOUS
 10
144.787345667
 20
117.8795752572
 11
144.7873430757
 21
117.8801631603
  0
LWPOLYLINE
  5
3B9
100
AcDbEntity
  8
ASSI
100
AcDbPolyline
 62
250
  6
CONTINUOUS
 90
16
 70
0
 10
144.3495828657
 20
119.8076159472
 10
144.3495451324
 20
119.823614391
 10
144.3485415724
 20
119.8395750073
 10
144.3465786815
 20
119.8553956379
 10
144.3436690982
 20
119.8709749813
 10
144.3398315179
 20
119.886213381
 10
144.3350905456
 20
119.9010134519
 10
144.3294765434
 20
119.9152805278
 10
144.3230255036
 20
119.9289232469
 10
144.3157788008
 20
119.9418542738
 10
144.3077828178
 20
119.9539909238
 10
144.2990888104
 20
119.9652554681
 10
144.2897526637
 20
119.9755756563
 10
144.2798342715
 20
119.9848854615
 10
144.2693971128
 20
119.9931254468
 10
144.2585080415
 20
120.0002429644
  0
LINE
  5
3BA
100
AcDbEntity
  8
ASSI
100
AcDbLine
 62
7
  6
CONTINUOUS
 10
144.4439197206
 20
119.4829870646
 11
144.4439197206
 21
118.4142163778
  0
LINE
  5
3BB
100
AcDbEntity
  8
RACCORDO
100
AcDbLine
 62
7
  6
CONTINUOUS
 10
144.7873430757
 20
118.2725103116
 11
144.7873430757
 21
117.8801631603
  0
LINE
  5
3BC
100
AcDbEntity
  8
RACCORDO
100
AcDbLine
 62
250
  6
CONTINUOUS
 10
144.8459217195
 20
118.1908553922
 11
144.8459217195
 21
117.7985132348
  0
LINE
  5
3BD
100
AcDbEntity
  8
ASSI
100
AcDbLine
 62
250
  6
CONTINUOUS
 10
144.8610445965
 20
116.1310555708
 11
144.8610445965
 21
116.5003665603
  0
LINE
  5
3BE
100
AcDbEntity
  8
RACCORDO
100
AcDbLine
 62
7
  6
CONTINUOUS
 10
144.8808362057
 20
108.8225119078
 11
144.8808362057
 21
79.9905661757
  0
LINE
  5
3BF
100
AcDbEntity
  8
SUPERFICI
100
AcDbLine
 62
7
  6
CONTINUOUS
 10
144.8808362057
 20
73.2598189809
 11
144.8808362057
 21
115.5532591027
  0
LINE
  5
3C0
100
AcDbEntity
  8
ASSI
100
AcDbLine
 62
7
  6
CONTINUOUS
 10
144.9171766364
 20
116.2112729782
 11
144.9171766364
 21
116.5805839677
  0
LINE
  5
3C1
100
AcDbEntity
  8
0
100
AcDbLine
 62
7
  6
CONTINUOUS
 10
145.09296824
 20
80.0151780955
 11
145.09296824
 21
79.9117869651
  0
LINE
  5
3C2
100
AcDbEntity
  8
RACCORDO
100
AcDbLine
 62
250
  6
CONTINUOUS
 10
145.6441207142
 20
118.3882669653
 11
145.6441207142
 21
117.5969307682
  0
LINE
  5
3C3
100
AcDbEntity
  8
RACCORDO
100
AcDbLine
 62
250
  6
CONTINUOUS
 10
145.7823973517
 20
112.501613829
 11
145.7823973517
 21
111.0374148286
  0
LINE
  5
3C4
100
AcDbEntity
  8
RACCORDO
100
AcDbLine
 62
250
  6
CONTINUOUS
 10
145.7823973517
 20
78.8575909274
 11
145.7823973517
 21
77.3933919269
  0
LINE
  5
3C5
100
AcDbEntity
  8
RACCORDO
100
AcDbLine
 62
7
  6
CONTINUOUS
 10
145.8409759954
 20
112.5832687477
 11
145.8409759954
 21
111.229351397
  0
LINE
  5
3C6
100
AcDbEntity
  8
RACCORDO
100
AcDbLine
 62
7
  6
CONTINUOUS
 10
145.8409759954
 20
78.8289641962
 11
145.8409759954
 21
77.4750468456
  0
LINE
  5
3C7
100
AcDbEntity
  8
ASSI
100
AcDbLine
 62
250
  6
CONTINUOUS
 10
144.9171766124
 20
116.5805273794
 11
144.9171766364
 21
116.5805839677
  0
LWPOLYLINE
  5
3C8
100
AcDbEntity
  8
ASSI
100
AcDbPolyline
 62
7
  6
CONTINUOUS
 90
22
 70
0
 10
144.4438653194
 20
118.414217493
 10
144.4438469659
 20
118.4117962844
 10
144.4419274378
 20
118.3895508445
 10
144.4368498066
 20
118.3676716692
 10
144.4285354352
 20
118.3460205507
 10
144.4170629608
 20
118.324735697
 10
144.4026682948
 20
118.3042317315
 10
144.385315868
 20
118.2845374156
 10
144.3650412496
 20
118.265623988
 10
144.342187059
 20
118.2478197883
 10
144.3166701862
 20
118.2311236815
 10
144.2885737412
 20
118.2155368026
 10
144.2584896731
 20
118.201390896
 10
144.2264090387
 20
118.1887309342
 10
144.1923407812
 20
118.1775119448
 10
144.1569036788
 20
118.1679307548
 10
144.1200717233
 20
118.1600116298
 10
144.0818709229
 20
118.1537303042
 10
144.0429980795
 20
118.1492108091
 10
144.0036854607
 20
118.1464944882
 10
143.963700799
 20
118.1455399977
 10
143.9230440944
 20
118.1463473376
  0
LWPOLYLINE
  5
3C9
100
AcDbEntity
  8
ASSI
100
AcDbPolyline
 62
250
  6
CONTINUOUS
 90
16
 70
0
 10
146.252568776
 20
120.6396749899
 10
146.2529330144
 20
120.6573404833
 10
146.2540217391
 20
120.6760056623
 10
146.2558230219
 20
120.695466027
 10
146.2583171274
 20
120.7155083657
 10
146.2614767296
 20
120.7359130904
 10
146.2652672113
 20
120.7564566428
 10
146.2696470433
 20
120.7769139437
 10
146.274568239
 20
120.7970608584
 10
146.2799768811
 20
120.8166766537
 10
146.2858137112
 20
120.8355464145
 10
146.2920147798
 20
120.8534634
 10
146.298512147
 20
120.8702313083
 10
146.3052346264
 20
120.8856664267
 10
146.312108565
 20
120.8995996446
 10
146.3190586504
 20
120.9118783062
  0
LINE
  5
3CA
100
AcDbEntity
  8
ASSI
100
AcDbLine
 62
250
  6
CONTINUOUS
 10
144.9169986814
 20
116.2064026765
 11
144.9171766364
 21
116.2112729782
  0
LWPOLYLINE
  5
3CB
100
AcDbEntity
  8
ASSI
100
AcDbPolyline
 62
250
  6
CONTINUOUS
 90
22
 70
0
 10
144.4439197206
 20
119.4829870646
 10
144.4426071449
 20
119.4620823465
 10
144.4375810514
 20
119.4371638461
 10
144.4288271867
 20
119.412591362
 10
144.4164116352
 20
119.388550423
 10
144.4004281547
 20
119.3652225959
 10
144.380997434
 20
119.3427840327
 10
144.3582661846
 20
119.3214041656
 10
144.3324060608
 20
119.3012444528
 10
144.3036123724
 20
119.2824571503
 10
144.272102579
 20
119.2651841354
 10
144.2381146063
 20
119.2495558245
 10
144.2019050773
 20
119.2356902157
 10
144.1637474079
 20
119.22369201
 10
144.1239297466
 20
119.2136518149
 10
144.0827527644
 20
119.2056454476
 10
144.0405273911
 20
119.1997333676
 10
143.997572491
 20
119.1959602223
 10
143.9542124536
 20
119.1943545062
 10
143.9107747121
 20
119.1949283425
 10
143.8675872698
 20
119.1976773957
 10
143.8249762477
 20
119.2025809053
  0
LWPOLYLINE
  5
3CC
100
AcDbEntity
  8
SUPERFICI
100
AcDbPolyline
 62
250
  6
CONTINUOUS
 90
9
 70
0
 10
142.4767829286
 20
72.0134234341
 10
142.4738933008
 20
71.9712656331
 10
142.4672453908
 20
71.931878122
 10
142.4569124051
 20
71.895694639
 10
142.4430062433
 20
71.8631099415
 10
142.4256811036
 20
71.8344875085
 10
142.4051358124
 20
71.8101506113
 10
142.3816059493
 20
71.7903665851
 10
142.3628559678
 20
71.7790048242
  0
LWPOLYLINE
  5
3CD
100
AcDbEntity
  8
ASSI
100
AcDbPolyline
 62
250
  6
CONTINUOUS
 90
3
 70
0
 10
146.870778786
 20
121.0761132966
 10
146.8710844797
 20
121.0798037739
 10
146.8739256484
 20
121.0920799418
  0
LWPOLYLINE
  5
3CE
100
AcDbEntity
  8
ASSI
100
AcDbPolyline
 62
7
  6
CONTINUOUS
 90
20
 70
0
 10
146.9187737566
 20
119.7812267249
 10
146.9165103321
 20
119.7541732763
 10
146.91019613
 20
119.7291187379
 10
146.8999018883
 20
119.704296421
 10
146.8858654436
 20
119.6803229012
 10
146.8679942977
 20
119.6572268753
 10
146.8463809488
 20
119.6349796465
 10
146.8215407279
 20
119.6141116994
 10
146.7933960586
 20
119.5946561768
 10
146.7620245174
 20
119.5765799359
 10
146.7281741636
 20
119.5603140337
 10
146.6917854212
 20
119.5459019887
 10
146.6529178663
 20
119.5333002822
 10
146.6124982875
 20
119.5228094151
 10
146.5704749106
 20
119.5144814278
 10
146.5268995098
 20
119.5082642798
 10
146.4828541967
 20
119.5043023497
 10
146.4386996749
 20
119.5026437637
 10
146.3940752408
 20
119.5032403956
 10
146.3489808942
 20
119.5060922453
  0
LWPOLYLINE
  5
3CF
100
AcDbEntity
  8
RACCORDO
100
AcDbPolyline
 62
250
  6
CONTINUOUS
 90
7
 70
0
 10
145.8409759954
 20
112.5832687477
 10
145.8392649677
 20
112.5681959102
 10
145.8341611607
 20
112.5533809731
 10
145.8257519019
 20
112.5390774241
 10
145.8141810762
 20
112.525530001
 10
145.7996466635
 20
112.5129705038
 10
145.7823973517
 20
112.501613829
  0
LINE
  5
3D0
100
AcDbEntity
  8
RACCORDO
100
AcDbLine
 62
250
  6
CONTINUOUS
 10
148.9983642616
 20
121.6465142705
 11
149.0017405786
 21
121.6624731757
  0
LWPOLYLINE
  5
3D1
100
AcDbEntity
  8
0
100
AcDbPolyline
 62
250
  6
CONTINUOUS
 90
4
 70
0
 10
149.3758276963
 20
83.5782652042
 10
149.3668701654
 20
83.6130857165
 10
149.361458694
 20
83.650794184
 10
149.3596486921
 20
83.6910045147
  0
LINE
  5
3D2
100
AcDbEntity
  8
RACCORDO
100
AcDbLine
 62
250
  6
CONTINUOUS
 10
149.0262515909
 20
82.4868411018
 11
149.0308609103
 21
82.4673750985
  0
LWPOLYLINE
  5
3D3
100
AcDbEntity
  8
ASSI
100
AcDbPolyline
 62
250
  6
CONTINUOUS
 90
7
 70
0
 10
139.0841017385
 20
121.7610500294
 10
139.0870376259
 20
121.7467343946
 10
139.0926678999
 20
121.7306710419
 10
139.1011655682
 20
121.7133279255
 10
139.1126542453
 20
121.6950376311
 10
139.1272287458
 20
121.6762179896
 10
139.1449699311
 20
121.6574115403
  0
LWPOLYLINE
  5
3D4
100
AcDbEntity
  8
ASSI
100
AcDbPolyline
 62
250
  6
CONTINUOUS
 90
13
 70
0
 10
142.0790402833
 20
119.5909851278
 10
142.0763940455
 20
119.6124445716
 10
142.0715938976
 20
119.6345784418
 10
142.0647141274
 20
119.6570476424
 10
142.0558616326
 20
119.6795062692
 10
142.0451720859
 20
119.7016126259
 10
142.0328063385
 20
119.7230340414
 10
142.0189417561
 20
119.7434577219
 10
142.0037992838
 20
119.7625532499
 10
141.9876450088
 20
119.7799930264
 10
141.9707429039
 20
119.7955108149
 10
141.9533428077
 20
119.8088950666
 10
141.9357103922
 20
119.8199560692
  0
LWPOLYLINE
  5
3D5
100
AcDbEntity
  8
ASSI
100
AcDbPolyline
 62
250
  6
CONTINUOUS
 90
13
 70
0
 10
141.5793710127
 20
118.4030087757
 10
141.5767309907
 20
118.4244318152
 10
141.5719433978
 20
118.4465303708
 10
141.5650813146
 20
118.4689671174
 10
141.5562494878
 20
118.4913995678
 10
141.5455827316
 20
118.5134853
 10
141.5332438695
 20
118.5348871849
 10
141.5194212488
 20
118.5552785317
 10
141.5043258661
 20
118.5743480753
 10
141.4881881458
 20
118.5918047272
 10
141.4712544235
 20
118.6073820191
 10
141.4537831851
 20
118.6208421702
 10
141.4360411216
 20
118.6319797171
  0
LWPOLYLINE
  5
3D6
100
AcDbEntity
  8
ASSI
100
AcDbPolyline
 62
250
  6
CONTINUOUS
 90
13
 70
0
 10
142.2154357093
 20
119.6725471355
 10
142.2127956872
 20
119.6939701749
 10
142.2080080943
 20
119.7160687305
 10
142.2011460111
 20
119.7385054772
 10
142.1923141844
 20
119.7609379275
 10
142.1816474282
 20
119.7830236597
 10
142.169308566
 20
119.8044255446
 10
142.1554859454
 20
119.8248168915
 10
142.1403905626
 20
119.8438864351
 10
142.1242528424
 20
119.861343087
 10
142.10731912
 20
119.8769203789
 10
142.0898478816
 20
119.89038053
 10
142.0721058182
 20
119.9015180769
  0
LINE
  5
3D7
100
AcDbEntity
  8
ASSI
100
AcDbLine
 62
250
  6
CONTINUOUS
 10
146.0395929246
 20
120.6255495657
 11
146.05264563
 21
120.5060450321
  0
LINE
  5
3D8
100
AcDbEntity
  8
ASSI
100
AcDbLine
 62
250
  6
CONTINUOUS
 10
143.9056058255
 20
118.3202549192
 11
143.9230438939
 21
118.1463473309
  0
LWPOLYLINE
  5
3D9
100
AcDbEntity
  8
RACCORDO
100
AcDbPolyline
 62
250
  6
CONTINUOUS
 90
3
 70
0
 10
144.8369482819
 20
118.3252248973
 10
144.8435390308
 20
118.2574971691
 10
144.8459217195
 20
118.1908553922
  0
LWPOLYLINE
  5
3DA
100
AcDbEntity
  8
ASSI
100
AcDbPolyline
 62
250
  6
CONTINUOUS
 90
13
 70
0
 10
144.3236756157
 20
123.5200561793
 10
144.3216124426
 20
123.5417584022
 10
144.3173240172
 20
123.5642808316
 10
144.3108789118
 20
123.5872633316
 10
144.3023801844
 20
123.6103384095
 10
144.2919637305
 20
123.6331370928
 10
144.2797961102
 20
123.655294828
 10
144.2660718849
 20
123.6764573108
 10
144.2510105065
 20
123.696286151
 10
144.2348528079
 20
123.7144642833
 10
144.2178571523
 20
123.7307010377
 10
144.2002953019
 20
123.7447367868
 10
144.1824480725
 20
123.7563470976
  0
LINE
  5
3DB
100
AcDbEntity
  8
ASSI
100
AcDbLine
 62
250
  6
CONTINUOUS
 10
146.3197977061
 20
119.8286882202
 11
146.3489809708
 21
119.5060922454
  0
LINE
  5
3DC
100
AcDbEntity
  8
ASSI
100
AcDbLine
 62
250
  6
CONTINUOUS
 10
146.2875999305
 20
120.2049511535
 11
146.3197977061
 21
119.8286882202
  0
LWPOLYLINE
  5
3DD
100
AcDbEntity
  8
RACCORDO
100
AcDbPolyline
 62
7
  6
CONTINUOUS
 90
10
 70
0
 10
145.7293141639
 20
123.5592249811
 10
145.7280876384
 20
123.5740085903
 10
145.7246997731
 20
123.5931277914
 10
145.7193199445
 20
123.6113857465
 10
145.7119525612
 20
123.6286597449
 10
145.7026458573
 20
123.6447353486
 10
145.6915775542
 20
123.6592903731
 10
145.678959398
 20
123.6721067213
 10
145.6649971153
 20
123.683051364
 10
145.6561584486
 20
123.6886216932
  0
LINE
  5
3DE
100
AcDbEntity
  8
ASSI
100
AcDbLine
 62
250
  6
CONTINUOUS
 10
146.2525687829
 20
120.639674986
 11
146.2875999305
 21
120.2049511535
  0
LWPOLYLINE
  5
3DF
100
AcDbEntity
  8
RACCORDO
100
AcDbPolyline
 62
250
  6
CONTINUOUS
 90
19
 70
0
 10
145.7000269921
 20
123.518276916
 10
145.6997042374
 20
123.5225638049
 10
145.6992549096
 20
123.5265849779
 10
145.6986790085
 20
123.530340435
 10
145.6979625392
 20
123.5338114836
 10
145.6971194968
 20
123.5370168164
 10
145.6961918661
 20
123.5400125106
 10
145.6951868441
 20
123.5428012834
 10
145.6940972339
 20
123.5453804176
 10
145.6929434299
 20
123.5477978399
 10
145.6917311292
 20
123.5500573602
 10
145.6904546347
 20
123.5521551687
 10
145.6891172496
 20
123.554127762
 10
145.6877235048
 20
123.5559797085
 10
145.6862688693
 20
123.5577064398
 10
145.6847430534
 20
123.5593307485
 10
145.6831497327
 20
123.5608579767
 10
145.6814852316
 20
123.5622827823
 10
145.6797282328
 20
123.563611931
  0
LWPOLYLINE
  5
3E0
100
AcDbEntity
  8
0
100
AcDbPolyline
 62
250
  6
CONTINUOUS
 90
9
 70
0
 10
149.294729088
 20
83.7284882805
 10
149.2965463594
 20
83.6881995951
 10
149.3019746236
 20
83.6504481414
 10
149.3109509161
 20
83.6156160244
 10
149.3233740547
 20
83.5840585265
 10
149.3391110847
 20
83.5560864363
 10
149.358003583
 20
83.5319684304
 10
149.3798561074
 20
83.5119483258
 10
149.3982703985
 20
83.49961985
  0
LINE
  5
3E1
100
AcDbEntity
  8
RACCORDO
100
AcDbLine
 62
250
  6
CONTINUOUS
 10
145.7028517925
 20
123.4542942582
 11
145.7000269921
 21
123.518276916
  0
LINE
  5
3E2
100
AcDbEntity
  8
RACCORDO
100
AcDbLine
 62
7
  6
CONTINUOUS
 10
145.7321453473
 20
123.4952132074
 11
145.729315553
 21
123.5591939404
  0
LWPOLYLINE
  5
3E3
100
AcDbEntity
  8
RACCORDO
100
AcDbPolyline
 62
7
  6
CONTINUOUS
 90
16
 70
0
 10
145.8409759954
 20
112.5832687476
 10
145.8391194715
 20
112.626198987
 10
145.8337378899
 20
112.6690347326
 10
145.8250866237
 20
112.7115652683
 10
145.813349729
 20
112.7537202455
 10
145.7987039546
 20
112.7952879855
 10
145.7814160076
 20
112.8358241642
 10
145.7617325248
 20
112.8750229102
 10
145.7397475043
 20
112.9128541316
 10
145.7155320363
 20
112.9492226723
 10
145.6891012839
 20
112.9840328145
 10
145.6606045289
 20
113.0169637372
 10
145.6302715053
 20
113.0476316269
 10
145.5981966178
 20
113.0758117976
 10
145.5643694465
 20
113.1013281805
 10
145.5288487931
 20
113.1238944996
  0
LINE
  5
3E4
100
AcDbEntity
  8
ASSI
100
AcDbLine
 62
250
  6
CONTINUOUS
 10
146.9433542661
 20
120.6904355861
 11
146.9258596049
 21
121.1555210749
  0
LINE
  5
3E5
100
AcDbEntity
  8
ASSI
100
AcDbLine
 62
250
  6
CONTINUOUS
 10
146.9530377936
 20
120.3866959006
 11
146.9433542661
 21
120.6904355861
  0
LINE
  5
3E6
100
AcDbEntity
  8
ASSI
100
AcDbLine
 62
250
  6
CONTINUOUS
 10
146.9607036313
 20
120.1041743371
 11
146.9530377936
 21
120.3866959006
  0
LWPOLYLINE
  5
3E7
100
AcDbEntity
  8
RACCORDO
100
AcDbPolyline
 62
250
  6
CONTINUOUS
 90
7
 70
0
 10
145.6642362535
 20
123.6036285621
 10
145.6638396867
 20
123.6205198139
 10
145.6612704029
 20
123.637027757
 10
145.6566019263
 20
123.6526799908
 10
145.6499678526
 20
123.6670286018
 10
145.6415580264
 20
123.6796629819
 10
145.6316131081
 20
123.6902215783
  0
LINE
  5
3E8
100
AcDbEntity
  8
ASSI
100
AcDbLine
 62
250
  6
CONTINUOUS
 10
146.9647468406
 20
119.9284946592
 11
146.9607036313
 21
120.1041743371
  0
LINE
  5
3E9
100
AcDbEntity
  8
ASSI
100
AcDbLine
 62
7
  6
CONTINUOUS
 10
146.9187934547
 20
120.9119481413
 11
146.9187934547
 21
119.7812265364
  0
LWPOLYLINE
  5
3EA
100
AcDbEntity
  8
0
100
AcDbPolyline
 62
250
  6
CONTINUOUS
 90
16
 70
0
 10
149.3596486921
 20
115.1378680467
 10
149.3614622311
 20
115.1802107529
 10
149.366883641
 20
115.2242095655
 10
149.3758564174
 20
115.2694128205
 10
149.3882880017
 20
115.3153577992
 10
149.4040498946
 20
115.3615721697
 10
149.4229782101
 20
115.4075788129
 10
149.4448772146
 20
115.4529058172
 10
149.4695214218
 20
115.4970897787
 10
149.496656236
 20
115.5396773699
 10
149.5260036512
 20
115.5802350695
 10
149.5572611125
 20
115.6183473427
 10
149.5901028329
 20
115.6536207209
 10
149.6241898533
 20
115.6856960706
 10
149.6591743925
 20
115.7142508745
 10
149.6946985117
 20
115.7389972787
  0
LWPOLYLINE
  5
3EB
100
AcDbEntity
  8
RACCORDO
100
AcDbPolyline
 62
250
  6
CONTINUOUS
 90
9
 70
0
 10
145.7823973517
 20
77.3933919269
 10
145.7804605492
 20
77.3518380206
 10
145.7746713618
 20
77.3129759584
 10
145.7650932169
 20
77.2772315214
 10
145.7518310548
 20
77.244996333
 10
145.7350301784
 20
77.2166235688
 10
145.7148746617
 20
77.1924240867
 10
145.6915853328
 20
77.1726630214
 10
145.6788560412
 20
77.1645234963
  0
LWPOLYLINE
  5
3EC
100
AcDbEntity
  8
RACCORDO
100
AcDbPolyline
 62
250
  6
CONTINUOUS
 90
8
 70
0
 10
149.0017405786
 20
121.6624731757
 10
149.0030777632
 20
121.6788907567
 10
149.0023394793
 20
121.6953208907
 10
148.9995457886
 20
121.7113171137
 10
148.9947726055
 20
121.7264447526
 10
148.988149634
 20
121.7402927367
 10
148.9798568433
 20
121.7524847681
 10
148.9701195774
 20
121.7626895469
  0
LWPOLYLINE
  5
3ED
100
AcDbEntity
  8
RACCORDO
100
AcDbPolyline
 62
250
  6
CONTINUOUS
 90
7
 70
0
 10
145.8409759954
 20
77.4750468456
 10
145.8392649678
 20
77.4599740087
 10
145.8341611608
 20
77.4451590718
 10
145.8257519021
 20
77.4308555222
 10
145.8141810763
 20
77.4173080972
 10
145.7996466636
 20
77.4047485974
 10
145.7823973517
 20
77.3933919191
  0
LWPOLYLINE
  5
3EE
100
AcDbEntity
  8
RACCORDO
100
AcDbPolyline
 62
7
  6
CONTINUOUS
 90
6
 70
0
 10
145.6592260367
 20
80.3462305252
 10
145.6589812384
 20
80.3442535302
 10
145.6561972855
 20
80.3403780814
 10
145.6507793003
 20
80.3348536288
 10
145.6428480048
 20
80.3277128845
 10
145.6325492194
 20
80.3190400212
  0
LINE
  5
3EF
100
AcDbEntity
  8
0
100
AcDbLine
 62
250
  6
CONTINUOUS
 10
160.1319612268
 20
97.9093338566
 11
156.5146281193
 21
95.5987794223
  0
LINE
  5
3F0
100
AcDbEntity
  8
0
100
AcDbLine
 62
7
  6
CONTINUOUS
 10
156.7181438748
 20
95.647379647
 11
160.085082247
 21
97.7986521903
  0
LWPOLYLINE
  5
3F1
100
AcDbEntity
  8
0
100
AcDbPolyline
 62
7
  6
CONTINUOUS
 90
25
 70
0
 10
160.0818341953
 20
97.797701314
 10
160.2524052378
 20
97.9053774709
 10
160.4242299967
 20
98.0258314351
 10
160.5940819393
 20
98.1569719439
 10
160.7614615473
 20
98.2983097136
 10
160.9258668394
 20
98.4493269076
 10
161.0867763161
 20
98.6094559534
 10
161.2436773965
 20
98.7780997923
 10
161.3961163284
 20
98.9546903098
 10
161.5436536558
 20
99.1386508345
 10
161.6858205811
 20
99.3293371833
 10
161.8221875887
 20
99.5261191852
 10
161.9523775567
 20
99.7284141728
 10
162.0759766645
 20
99.9355556482
 10
162.1925857192
 20
100.1468578605
 10
162.301861059
 20
100.3616964101
 10
162.403441686
 20
100.5793781917
 10
162.4969814145
 20
100.799189004
 10
162.5821800228
 20
101.0204711356
 10
162.6587321994
 20
101.2425044116
 10
162.726359528
 20
101.4645769011
 10
162.7848259321
 20
101.686056818
 10
162.8338951669
 20
101.9062647187
 10
162.8733383982
 20
102.1244602724
 10
162.9029578574
 20
102.3399308613
  0
LWPOLYLINE
  5
3F2
100
AcDbEntity
  8
0
100
AcDbPolyline
 62
7
  6
CONTINUOUS
 90
11
 70
0
 10
156.7181409957
 20
95.6473778074
 10
156.7142119959
 20
95.6449348292
 10
156.698989957
 20
95.6365917389
 10
156.6820119646
 20
95.6289812618
 10
156.6633642084
 20
95.6222109624
 10
156.6429452444
 20
95.6162524861
 10
156.6206892279
 20
95.6110946204
 10
156.5967639219
 20
95.6068235868
 10
156.5711890971
 20
95.6034195349
 10
156.5438268397
 20
95.6007668362
 10
156.5146281105
 20
95.5987794272
  0
LWPOLYLINE
  5
3F3
100
AcDbEntity
  8
ASSI
100
AcDbPolyline
 62
7
  6
CONTINUOUS
 90
5
 70
0
 10
144.4374804086
 20
119.5448868908
 10
144.4402980114
 20
119.5294943776
 10
144.4423123348
 20
119.5140106051
 10
144.4435186751
 20
119.4984953406
 10
144.4439197164
 20
119.4829870646
  0
LWPOLYLINE
  5
3F4
100
AcDbEntity
  8
RACCORDO
100
AcDbPolyline
 62
250
  6
CONTINUOUS
 90
4
 70
0
 10
149.0308609103
 20
82.4673750985
 10
149.0338127472
 20
82.4483574012
 10
149.0350723221
 20
82.4300120121
 10
149.0346247847
 20
82.4125550551
  0
LINE
  5
3F5
100
AcDbEntity
  8
ASSI
100
AcDbLine
 62
250
  6
CONTINUOUS
 10
143.7447186206
 20
118.2870153606
 11
143.7687063175
 21
118.115290513
  0
LINE
  5
3F6
100
AcDbEntity
  8
ASSI
100
AcDbLine
 62
250
  6
CONTINUOUS
 10
143.7193779767
 20
118.4747735344
 11
143.7447186206
 21
118.2870153606
  0
LINE
  5
3F7
100
AcDbEntity
  8
ASSI
100
AcDbLine
 62
250
  6
CONTINUOUS
 10
143.6924600711
 20
118.6814631117
 11
143.7193779767
 21
118.4747735344
  0
LINE
  5
3F8
100
AcDbEntity
  8
ASSI
100
AcDbLine
 62
250
  6
CONTINUOUS
 10
146.1436460831
 20
119.7262756008
 11
146.1755536636
 21
119.4741754426
  0
LINE
  5
3F9
100
AcDbEntity
  8
ASSI
100
AcDbLine
 62
250
  6
CONTINUOUS
 10
143.6639373308
 20
118.9087516383
 11
143.6924600711
 21
118.6814631117
  0
LWPOLYLINE
  5
3FA
100
AcDbEntity
  8
ASSI
100
AcDbPolyline
 62
250
  6
CONTINUOUS
 90
13
 70
0
 10
144.8509998188
 20
119.9147923003
 10
144.8483597107
 20
119.9362158439
 10
144.8435719618
 20
119.9583148204
 10
144.836709688
 20
119.9807518786
 10
144.8278776739
 20
120.0031845078
 10
144.8172107639
 20
120.0252702872
 10
144.804871798
 20
120.0466721113
 10
144.7910491459
 20
120.0670632968
 10
144.7759538165
 20
120.0861326008
 10
144.7598162191
 20
120.1035889841
 10
144.7428826802
 20
120.1191660077
 10
144.7254116892
 20
120.1326259063
 10
144.7076699283
 20
120.143763242
  0
LWPOLYLINE
  5
3FB
100
AcDbEntity
  8
ASSI
100
AcDbPolyline
 62
250
  6
CONTINUOUS
 90
13
 70
0
 10
146.0395929245
 20
120.6255495656
 10
146.0369529025
 20
120.6469726048
 10
146.0321653097
 20
120.6690711601
 10
146.0253032266
 20
120.6915079066
 10
146.0164713999
 20
120.713940357
 10
146.0058046437
 20
120.7360260893
 10
145.9934657815
 20
120.7574279743
 10
145.9796431608
 20
120.7778193213
 10
145.964547778
 20
120.796888865
 10
145.9484100577
 20
120.814345517
 10
145.9314763353
 20
120.8299228089
 10
145.9140050969
 20
120.8433829601
 10
145.8962630334
 20
120.854520507
  0
LWPOLYLINE
  5
3FC
100
AcDbEntity
  8
ASSI
100
AcDbPolyline
 62
250
  6
CONTINUOUS
 90
13
 70
0
 10
144.0231889116
 20
119.7441096326
 10
144.0257387551
 20
119.7233461599
 10
144.0303118996
 20
119.701937182
 10
144.0368426217
 20
119.6801903895
 10
144.0452370633
 20
119.6584183284
 10
144.0553745805
 20
119.6369339091
 10
144.0671094769
 20
119.6160459097
 10
144.0802730987
 20
119.596054535
 10
144.0946762579
 20
119.5772471044
 10
144.1101119498
 20
119.5598939234
 10
144.1263583306
 20
119.5442443952
 10
144.1431819062
 20
119.5305234373
 10
144.1603408861
 20
119.5189282502
  0
LINE
  5
3FD
100
AcDbEntity
  8
ASSI
100
AcDbLine
 62
250
  6
CONTINUOUS
 10
143.634068968
 20
119.1560953288
 11
143.6639373308
 21
118.9087516383
  0
LINE
  5
3FE
100
AcDbEntity
  8
ASSI
100
AcDbLine
 62
250
  6
CONTINUOUS
 10
146.1091716872
 20
120.0107878519
 11
146.1436460831
 21
119.7262756008
  0
LINE
  5
3FF
100
AcDbEntity
  8
ASSI
100
AcDbLine
 62
250
  6
CONTINUOUS
 10
146.0720391812
 20
120.3319530989
 11
146.1091716872
 21
120.0107878519
  0
LINE
  5
400
100
AcDbEntity
  8
ASSI
100
AcDbLine
 62
250
  6
CONTINUOUS
 10
146.05264563
 20
120.5060450321
 11
146.0720391812
 21
120.3319530989
  0
LWPOLYLINE
  5
401
100
AcDbEntity
  8
RACCORDO
100
AcDbPolyline
 62
250
  6
CONTINUOUS
 90
19
 70
0
 10
149.0413964453
 20
121.593278994
 10
149.0409471678
 20
121.597636966
 10
149.0403792775
 20
121.6017250358
 10
149.0396927745
 20
121.6055432034
 10
149.0388742452
 20
121.6090725139
 10
149.0379371031
 20
121.6123319222
 10
149.0369215892
 20
121.6153782926
 10
149.0358348004
 20
121.6182143659
 10
149.0346696399
 20
121.6208374013
 10
149.0334450579
 20
121.6232960411
 10
149.0321666305
 20
121.6255941447
 10
149.0308287816
 20
121.6277278527
 10
149.0294337337
 20
121.6297342294
 10
149.027985881
 20
121.6316179115
 10
149.0264808292
 20
121.6333742623
 10
149.0249076181
 20
121.635026436
 10
149.0232697684
 20
121.636579862
 10
149.0215637593
 20
121.6380291108
 10
149.0197680678
 20
121.6393810478
  0
LWPOLYLINE
  5
402
100
AcDbEntity
  8
RACCORDO
100
AcDbPolyline
 62
7
  6
CONTINUOUS
 90
10
 70
0
 10
149.0694660643
 20
121.6333983915
 10
149.068408832
 20
121.643984326
 10
149.0647926926
 20
121.6638227325
 10
149.0591163623
 20
121.6827208312
 10
149.0513852511
 20
121.7005567322
 10
149.0416463961
 20
121.7171129054
 10
149.0300809998
 20
121.7320557327
 10
149.0169087383
 20
121.7451542859
 10
149.0023420986
 20
121.7562671111
 10
148.9951018293
 20
121.7607576031
  0
LINE
  5
403
100
AcDbEntity
  8
RACCORDO
100
AcDbLine
 62
250
  6
CONTINUOUS
 10
149.0757114394
 20
121.1205813773
 11
149.0413964453
 21
121.593278994
  0
LINE
  5
404
100
AcDbEntity
  8
RACCORDO
100
AcDbLine
 62
7
  6
CONTINUOUS
 10
149.1071130035
 20
121.1148028139
 11
149.0694690392
 21
121.6333578259
  0
LWPOLYLINE
  5
405
100
AcDbEntity
  8
RACCORDO
100
AcDbPolyline
 62
7
  6
CONTINUOUS
 90
12
 70
0
 10
150.6114162578
 20
120.0846800841
 10
150.6103644698
 20
120.1077769358
 10
150.6062564045
 20
120.1357223086
 10
150.5990970038
 20
120.1634102149
 10
150.5888836001
 20
120.190719134
 10
150.5762554154
 20
120.2162226936
 10
150.5612037008
 20
120.2402772048
 10
150.5434575669
 20
120.2631434791
 10
150.5238983874
 20
120.2836005452
 10
150.502632255
 20
120.3016293659
 10
150.4793522734
 20
120.3173820311
 10
150.4759402247
 20
120.319385977
  0
LINE
  5
406
100
AcDbEntity
  8
RACCORDO
100
AcDbLine
 62
250
  6
CONTINUOUS
 10
150.9430476084
 20
118.4641650971
 11
150.9442692986
 21
118.4372937021
  0
LWPOLYLINE
  5
407
100
AcDbEntity
  8
RACCORDO
100
AcDbPolyline
 62
7
  6
CONTINUOUS
 90
6
 70
0
 10
149.0092232427
 20
111.2846413361
 10
149.0087940783
 20
111.2977878834
 10
149.0059922563
 20
111.3209705761
 10
149.0006514988
 20
111.3443048612
 10
148.9928062455
 20
111.3676655402
 10
148.9833901563
 20
111.3889882315
  0
LWPOLYLINE
  5
408
100
AcDbEntity
  8
0
100
AcDbPolyline
 62
250
  6
CONTINUOUS
 90
10
 70
0
 10
151.1200104391
 20
84.2755266441
 10
151.1204997605
 20
84.2417859855
 10
151.1186654684
 20
84.2099771265
 10
151.1145136825
 20
84.1803469358
 10
151.1080704684
 20
84.1531350998
 10
151.0993761645
 20
84.1285466246
 10
151.0884783957
 20
84.1067585212
 10
151.0754428635
 20
84.0879493276
 10
151.0603598572
 20
84.0722889417
 10
151.0433334216
 20
84.0599173527
  0
LWPOLYLINE
  5
409
100
AcDbEntity
  8
RACCORDO
100
AcDbPolyline
 62
7
  6
CONTINUOUS
 90
12
 70
0
 10
151.2478126061
 20
118.9461394362
 10
151.2477067546
 20
118.9534662902
 10
151.2457126287
 20
118.9786153594
 10
151.241171062
 20
119.0039158548
 10
151.2340658641
 20
119.0291514941
 10
151.224746022
 20
119.0532842259
 10
151.2131433599
 20
119.0766830545
 10
151.1991325523
 20
119.0994000221
 10
151.1834224067
 20
119.1202656416
 10
151.1662886488
 20
119.1391167918
 10
151.1472458961
 20
119.1564621071
 10
151.1416417409
 20
119.1609623662
  0
LINE
  5
40A
100
AcDbEntity
  8
RACCORDO
100
AcDbLine
 62
250
  6
CONTINUOUS
 10
148.9810737842
 20
111.2508192565
 11
148.9811574362
 21
111.2446519142
  0
LWPOLYLINE
  5
40B
100
AcDbEntity
  8
0
100
AcDbPolyline
 62
7
  6
CONTINUOUS
 90
14
 70
0
 10
149.1482914768
 20
113.3310514127
 10
149.1487312429
 20
113.2985637389
 10
149.1508261898
 20
113.2531207616
 10
149.1546965211
 20
113.206296926
 10
149.1603455321
 20
113.158341032
 10
149.1678843831
 20
113.1092637992
 10
149.1773599532
 20
113.0591991551
 10
149.1886499264
 20
113.0085869525
 10
149.2018245105
 20
112.9575331076
 10
149.2169263442
 20
112.9061016011
 10
149.2337559449
 20
112.8546674282
 10
149.2522665896
 20
112.8034135871
 10
149.27257927
 20
112.7523360696
 10
149.294729088
 20
112.7015280524
  0
LWPOLYLINE
  5
40C
100
AcDbEntity
  8
RACCORDO
100
AcDbPolyline
 62
250
  6
CONTINUOUS
 90
25
 70
0
 10
151.1916806212
 20
118.8660077218
 10
151.191576647
 20
118.8758085501
 10
151.1910552795
 20
118.8860782395
 10
151.1900852334
 20
118.8968080586
 10
151.1886324071
 20
118.9080061904
 10
151.1866683007
 20
118.9196353753
 10
151.1841790455
 20
118.9316100256
 10
151.1811454091
 20
118.9439010998
 10
151.177549315
 20
118.9564781629
 10
151.1733965868
 20
118.9692446143
 10
151.1686818526
 20
118.9821593403
 10
151.1634008591
 20
118.9951815953
 10
151.1575786058
 20
119.0082111441
 10
151.1512270741
 20
119.0211939002
 10
151.1443530039
 20
119.0340904496
 10
151.136987005
 20
119.046822642
 10
151.1291985804
 20
119.0592637944
 10
151.1209624525
 20
119.0714482693
 10
151.1121538174
 20
119.0835228364
 10
151.1027978423
 20
119.0953952935
 10
151.0928907879
 20
119.107014611
 10
151.0822306592
 20
119.1185306925
 10
151.0707487586
 20
119.1298895688
 10
151.0585354187
 20
119.1408714881
 10
151.0456231256
 20
119.1513254381
  0
LWPOLYLINE
  5
40D
100
AcDbEntity
  8
RACCORDO
100
AcDbPolyline
 62
250
  6
CONTINUOUS
 90
28
 70
0
 10
150.5552845182
 20
120.0046628008
 10
150.5551948116
 20
120.0146178099
 10
150.5546813596
 20
120.0249734589
 10
150.5537217184
 20
120.0357162427
 10
150.5522961348
 20
120.0468156033
 10
150.5503832399
 20
120.0582653632
 10
150.5479545836
 20
120.0700852787
 10
150.5449748141
 20
120.0822961616
 10
150.5414309948
 20
120.094821906
 10
150.5373374654
 20
120.1075308227
 10
150.532695267
 20
120.1203671054
 10
150.5274959568
 20
120.1333062506
 10
150.521760142
 20
120.1462589633
 10
150.5154924394
 20
120.1591847496
 10
150.5087042365
 20
120.1720318247
 10
150.5014415893
 20
120.1846950926
 10
150.4937420542
 20
120.197102169
 10
150.4856123452
 20
120.2092355421
 10
150.4770591537
 20
120.2210732889
 10
150.4681541634
 20
120.2325089088
 10
150.4588789107
 20
120.2435593513
 10
150.4490892297
 20
120.254360979
 10
150.4388115249
 20
120.2648283557
 10
150.4280586492
 20
120.2748930938
 10
150.4166445428
 20
120.2846474156
 10
150.404522508
 20
120.2940124067
 10
150.3918016699
 20
120.3027815505
 10
150.3785347468
 20
120.3108023847
  0
LINE
  5
40E
100
AcDbEntity
  8
0
100
AcDbLine
 62
250
  6
CONTINUOUS
 10
149.1482826058
 20
115.3792831548
 11
149.1482824786
 21
115.3794891091
  0
LINE
  5
40F
100
AcDbEntity
  8
RACCORDO
100
AcDbLine
 62
250
  6
CONTINUOUS
 10
148.9811574362
 20
111.2446519174
 11
148.9811574362
 21
82.4716085612
  0
LINE
  5
410
100
AcDbEntity
  8
RACCORDO
100
AcDbLine
 62
7
  6
CONTINUOUS
 10
149.0092234561
 20
111.2847606179
 11
149.0092234561
 21
82.5117172465
  0
LINE
  5
411
100
AcDbEntity
  8
0
100
AcDbLine
 62
7
  6
CONTINUOUS
 10
149.1482824786
 20
85.9810639278
 11
149.1482824786
 21
83.9326255772
  0
LINE
  5
412
100
AcDbEntity
  8
0
100
AcDbLine
 62
7
  6
CONTINUOUS
 10
149.1482824786
 20
113.3310507586
 11
149.1482824786
 21
115.3794891091
  0
LINE
  5
413
100
AcDbEntity
  8
0
100
AcDbLine
 62
250
  6
CONTINUOUS
 10
149.294729088
 20
115.1753518125
 11
149.294729088
 21
112.7015280524
  0
LINE
  5
414
100
AcDbEntity
  8
0
100
AcDbLine
 62
250
  6
CONTINUOUS
 10
149.294729088
 20
86.2023120406
 11
149.294729088
 21
83.7284882805
  0
LINE
  5
415
100
AcDbEntity
  8
0
100
AcDbLine
 62
250
  6
CONTINUOUS
 10
149.7972421782
 20
83.9436166784
 11
149.7972421782
 21
114.379933894
  0
LINE
  5
416
100
AcDbEntity
  8
RACCORDO
100
AcDbLine
 62
250
  6
CONTINUOUS
 10
150.5552845182
 20
119.7055218027
 11
150.5552845182
 21
120.0046628008
  0
LINE
  5
417
100
AcDbEntity
  8
RACCORDO
100
AcDbLine
 62
7
  6
CONTINUOUS
 10
150.6114165581
 20
119.7857392101
 11
150.6114165581
 21
120.0848802084
  0
LINE
  5
418
100
AcDbEntity
  8
RACCORDO
100
AcDbLine
 62
250
  6
CONTINUOUS
 10
150.9442692986
 20
118.4372937021
 11
150.9442692986
 21
118.3771306466
  0
LINE
  5
419
100
AcDbEntity
  8
0
100
AcDbLine
 62
250
  6
CONTINUOUS
 10
151.1200103911
 20
113.9545959519
 11
151.1200104394
 21
84.2755266443
  0
LINE
  5
41A
100
AcDbEntity
  8
RACCORDO
100
AcDbLine
 62
250
  6
CONTINUOUS
 10
151.1916806212
 20
118.3458965972
 11
151.1916806212
 21
118.8660077218
  0
LINE
  5
41B
100
AcDbEntity
  8
RACCORDO
100
AcDbLine
 62
7
  6
CONTINUOUS
 10
151.2478126612
 20
118.4261140046
 11
151.2478126612
 21
118.9462251292
  0
LINE
  5
41C
100
AcDbEntity
  8
RACCORDO
100
AcDbLine
 62
250
  6
CONTINUOUS
 10
148.9811574362
 20
82.4716085428
 11
148.9810123214
 21
82.4638657666
  0
LWPOLYLINE
  5
41D
100
AcDbEntity
  8
RACCORDO
100
AcDbPolyline
 62
250
  6
CONTINUOUS
 90
8
 70
0
 10
151.1916806212
 20
118.3458965972
 10
151.1911740744
 20
118.3297662127
 10
151.1891494129
 20
118.3145704143
 10
151.1856046322
 20
118.3004873965
 10
151.180550807
 20
118.2876797647
 10
151.1740219784
 20
118.2763179094
 10
151.1660845868
 20
118.2665675401
 10
151.157084934
 20
118.2587882708
  0
LWPOLYLINE
  5
41E
100
AcDbEntity
  8
RACCORDO
100
AcDbPolyline
 62
250
  6
CONTINUOUS
 90
10
 70
0
 10
148.9810123214
 20
82.4638657666
 10
148.9805603009
 20
82.4565839405
 10
148.9798352918
 20
82.4497600016
 10
148.9788726979
 20
82.4434034454
 10
148.9777034302
 20
82.437485164
 10
148.9763465567
 20
82.4319455351
 10
148.9748266572
 20
82.4267757196
 10
148.9731666994
 20
82.4219623577
 10
148.9713701501
 20
82.4174476791
 10
148.969453586
 20
82.41322462
  0
LWPOLYLINE
  5
41F
100
AcDbEntity
  8
RACCORDO
100
AcDbPolyline
 62
250
  6
CONTINUOUS
 90
6
 70
0
 10
149.0346247847
 20
82.4125550551
 10
149.0324754016
 20
82.3961921905
 10
149.0286494902
 20
82.3811161716
 10
149.0231921153
 20
82.3675045846
 10
149.0161675633
 20
82.3555177755
 10
149.0076585815
 20
82.3452969455
  0
LWPOLYLINE
  5
420
100
AcDbEntity
  8
0
100
AcDbPolyline
 62
250
  6
CONTINUOUS
 90
10
 70
0
 10
163.0630091899
 20
119.1609230177
 10
163.0747280735
 20
119.1840401931
 10
163.0843825614
 20
119.2079753533
 10
163.0918720808
 20
119.2324701628
 10
163.0971179557
 20
119.2572450264
 10
163.1000718238
 20
119.2820497769
 10
163.1007017376
 20
119.3066660204
 10
163.0989836486
 20
119.3308623994
 10
163.0949280576
 20
119.3543400079
 10
163.0885946285
 20
119.3767889934
  0
LWPOLYLINE
  5
421
100
AcDbEntity
  8
0
100
AcDbPolyline
 62
7
  6
CONTINUOUS
 90
3
 70
0
 10
160.0999277578
 20
97.8107337712
 10
160.0883050994
 20
97.8008192818
 10
160.085082247
 20
97.7986521903
  0
LINE
  5
422
100
AcDbEntity
  8
RACCORDO
100
AcDbLine
 62
7
  6
CONTINUOUS
 10
135.7675447151
 20
121.7914351073
 11
135.7676604667
 21
121.7912799009
  0
LWPOLYLINE
  5
423
100
AcDbEntity
  8
RACCORDO
100
AcDbPolyline
 62
7
  6
CONTINUOUS
 90
3
 70
0
 10
145.6325492194
 20
110.0756262765
 10
145.5443634005
 20
110.2481433251
 10
145.4366456071
 20
110.4564813763
  0
LWPOLYLINE
  5
424
100
AcDbEntity
  8
RACCORDO
100
AcDbPolyline
 62
7
  6
CONTINUOUS
 90
13
 70
0
 10
145.6325492194
 20
110.0756262765
 10
145.6428480048
 20
110.0524539787
 10
145.6507793003
 20
110.0283740102
 10
145.6561972855
 20
110.0037602021
 10
145.6589812384
 20
109.9789872527
 10
145.6590855814
 20
109.9544506473
 10
145.6565402901
 20
109.9305605671
 10
145.6513758214
 20
109.9076919707
 10
145.6436565649
 20
109.8862064152
 10
145.6335314273
 20
109.8664702145
 10
145.6211697751
 20
109.8488031859
 10
145.606755124
 20
109.8334758382
 10
145.5905177464
 20
109.8207313827
  0
LWPOLYLINE
  5
425
100
AcDbEntity
  8
ASSI
100
AcDbPolyline
 62
250
  6
CONTINUOUS
 90
3
 70
0
 10
142.0227902626
 20
123.0818960919
 10
142.0297457219
 20
123.0655931229
 10
142.0307254029
 20
123.0611838624
  0
LWPOLYLINE
  5
426
100
AcDbEntity
  8
RACCORDO
100
AcDbPolyline
 62
250
  6
CONTINUOUS
 90
6
 70
0
 10
144.7491811589
 20
118.6579095144
 10
144.768504686
 20
118.6069953226
 10
144.791617642
 20
118.5358239687
 10
144.8109875875
 20
118.4643882971
 10
144.826149473
 20
118.3940385768
 10
144.8369482819
 20
118.3252248973
  0
LWPOLYLINE
  5
427
100
AcDbEntity
  8
RACCORDO
100
AcDbPolyline
 62
7
  6
CONTINUOUS
 90
8
 70
0
 10
144.71518876
 20
118.639097281
 10
144.7348634669
 20
118.581673436
 10
144.7516473332
 20
118.5241456379
 10
144.765177737
 20
118.4678560343
 10
144.7754572547
 20
118.4131869125
 10
144.7825006331
 20
118.3606580806
 10
144.7863896458
 20
118.3106862601
 10
144.7873295582
 20
118.2726025113
  0
LWPOLYLINE
  5
428
100
AcDbEntity
  8
ASSI
100
AcDbPolyline
 62
250
  6
CONTINUOUS
 90
8
 70
0
 10
144.8610445965
 20
116.1310555708
 10
144.8652232769
 20
116.1184225891
 10
144.867778573
 20
116.1068125052
 10
144.8686848435
 20
116.0963508974
 10
144.8679350826
 20
116.0871534366
 10
144.8655404393
 20
116.0793148834
 10
144.8615243895
 20
116.0729128958
 10
144.8603912828
 20
116.0716679578
  0
LWPOLYLINE
  5
429
100
AcDbEntity
  8
RACCORDO
100
AcDbPolyline
 62
250
  6
CONTINUOUS
 90
10
 70
0
 10
144.3453319228
 20
123.7199104783
 10
144.3438739413
 20
123.7256099338
 10
144.3421659486
 20
123.7310344589
 10
144.3402161026
 20
123.7361581434
 10
144.3380337165
 20
123.7409565143
 10
144.3356292142
 20
123.7454066523
 10
144.3330140806
 20
123.7494873009
 10
144.3302008068
 20
123.753178969
 10
144.3272028301
 20
123.7564640236
 10
144.3240344701
 20
123.7593267735
  0
LWPOLYLINE
  5
42A
100
AcDbEntity
  8
RACCORDO
100
AcDbPolyline
 62
250
  6
CONTINUOUS
 90
7
 70
0
 10
148.9759241647
 20
111.2920490094
 10
148.9774054479
 20
111.2845759523
 10
148.9786116645
 20
111.2773847787
 10
148.9795611626
 20
111.2704786438
 10
148.9802821206
 20
111.2637561609
 10
148.9807849261
 20
111.2571891964
 10
148.9810737842
 20
111.2508192565
  0
LWPOLYLINE
  5
42B
100
AcDbEntity
  8
ASSI
100
AcDbPolyline
 62
250
  6
CONTINUOUS
 90
13
 70
0
 10
146.9258596038
 20
121.1555210743
 10
146.923219584
 20
121.1769441007
 10
146.9184319948
 20
121.1990426468
 10
146.9115699154
 20
121.2214793884
 10
146.9027380908
 20
121.2439118397
 10
146.8920713342
 20
121.2659975775
 10
146.8797324708
 20
121.287399468
 10
146.8659098488
 20
121.3077908191
 10
146.8508144642
 20
121.3268603667
 10
146.8346767421
 20
121.3443170219
 10
146.8177430181
 20
121.359894316
 10
146.8002717784
 20
121.3733544686
 10
146.7825297139
 20
121.3844920164
  0
LWPOLYLINE
  5
42C
100
AcDbEntity
  8
0
100
AcDbPolyline
 62
7
  6
CONTINUOUS
 90
19
 70
0
 10
153.9318022984
 20
113.9821507748
 10
153.9291741814
 20
114.0545692637
 10
153.9212555656
 20
114.1296829488
 10
153.9080660055
 20
114.2069298014
 10
153.88968668
 20
114.2856708679
 10
153.8662080852
 20
114.365361786
 10
153.8376919121
 20
114.4455602991
 10
153.8041232001
 20
114.5260175854
 10
153.7658239058
 20
114.6057101086
 10
153.7235542728
 20
114.6830721854
 10
153.6780226623
 20
114.7570936722
 10
153.6294268298
 20
114.8277592813
 10
153.5778787985
 20
114.895054573
 10
153.5237926969
 20
114.9584634992
 10
153.4675649213
 20
115.0175731418
 10
153.4091891044
 20
115.0724048762
 10
153.3489227908
 20
115.122586729
 10
153.2873425491
 20
115.1674782313
 10
153.224911603
 20
115.2066262648
  0
LINE
  5
42D
100
AcDbEntity
  8
0
100
AcDbLine
 62
7
  6
CONTINUOUS
 10
152.9634077725
 20
85.1993547303
 11
152.9634090547
 21
114.6938864894
  0
LINE
  5
42E
100
AcDbEntity
  8
0
100
AcDbLine
 62
7
  6
CONTINUOUS
 10
153.9317566462
 20
113.9822118732
 11
153.9317566462
 21
87.0791630509
  0
LWPOLYLINE
  5
42F
100
AcDbEntity
  8
0
100
AcDbPolyline
 62
7
  6
CONTINUOUS
 90
10
 70
0
 10
153.9317566934
 20
87.0791530741
 10
153.9291709026
 20
87.0105836408
 10
153.9213269463
 20
86.9449186956
 10
153.9081110737
 20
86.8827627067
 10
153.8893416224
 20
86.8244068595
 10
153.8650471316
 20
86.7708237333
 10
153.8357775928
 20
86.7233500373
 10
153.8021278921
 20
86.6825028702
 10
153.764278031
 20
86.6481157618
 10
153.7363646612
 20
86.628505834
  0
LWPOLYLINE
  5
430
100
AcDbEntity
  8
0
100
AcDbPolyline
 62
7
  6
CONTINUOUS
 90
10
 70
0
 10
152.9634088625
 20
85.1993552219
 10
152.9619793271
 20
85.164176947
 10
152.9579454888
 20
85.1312692924
 10
152.9513073476
 20
85.100632258
 10
152.9419781794
 20
85.0720651069
 10
152.9300447083
 20
85.0457685761
 10
152.9157671058
 20
85.0223448764
 10
152.8992320959
 20
85.0019947448
 10
152.8803529547
 20
84.9845174444
 10
152.8591296822
 20
84.9699129752
  0
LWPOLYLINE
  5
431
100
AcDbEntity
  8
RACCORDO
100
AcDbPolyline
 62
250
  6
CONTINUOUS
 90
8
 70
0
 10
148.969453586
 20
82.41322462
 10
148.9674324598
 20
82.4092833783
 10
148.9652965881
 20
82.4055724373
 10
148.9630558241
 20
82.4020879013
 10
148.9607194815
 20
82.398824697
 10
148.9582660085
 20
82.3957409018
 10
148.955689123
 20
82.3928256674
 10
148.9530035709
 20
82.390092527
  0
LWPOLYLINE
  5
432
100
AcDbEntity
  8
0
100
AcDbPolyline
 62
7
  6
CONTINUOUS
 90
14
 70
0
 10
149.294729088
 20
86.2023120406
 10
149.2725812762
 20
86.1787775819
 10
149.2522705438
 20
86.1561881762
 10
149.2337617269
 20
86.1345964007
 10
149.2169339555
 20
86.1140658573
 10
149.2018336885
 20
86.0946260061
 10
149.1886598951
 20
86.0762599982
 10
149.1773700017
 20
86.058965466
 10
149.1678938483
 20
86.0427844015
 10
149.160353557
 20
86.0277274239
 10
149.1547022625
 20
86.0137753176
 10
149.1508294183
 20
86.0009101155
 10
149.1487324092
 20
85.9891043405
 10
149.1482915316
 20
85.9810572772
  0
LWPOLYLINE
  5
433
100
AcDbEntity
  8
0
100
AcDbPolyline
 62
7
  6
CONTINUOUS
 90
22
 70
0
 10
155.3127113503
 20
87.6194583238
 10
155.3810305823
 20
87.6639879498
 10
155.5044826389
 20
87.7526983653
 10
155.6233256943
 20
87.848662734
 10
155.7377134829
 20
87.9515736371
 10
155.8475675944
 20
88.0610519888
 10
155.952510074
 20
88.1764609955
 10
156.052436602
 20
88.2973817629
 10
156.1473277093
 20
88.4234846859
 10
156.236826722
 20
88.5540930178
 10
156.3207160911
 20
88.6887738612
 10
156.3987736295
 20
88.8272029359
 10
156.4706405792
 20
88.9687775349
 10
156.536158079
 20
89.1131264974
 10
156.5950865711
 20
89.2598400538
 10
156.647052211
 20
89.4082801906
 10
156.691783783
 20
89.5582398945
 10
156.7289304648
 20
89.7093537264
 10
156.7581477262
 20
89.8609737675
 10
156.7791632944
 20
90.0128325657
 10
156.7916466483
 20
90.164884664
 10
156.7952062171
 20
90.2978024684
  0
LINE
  5
434
100
AcDbEntity
  8
0
100
AcDbLine
 62
250
  6
CONTINUOUS
 10
155.4996903566
 20
88.064880846
 11
152.9634090662
 21
86.4701456806
  0
LINE
  5
435
100
AcDbEntity
  8
0
100
AcDbLine
 62
7
  6
CONTINUOUS
 10
152.963407432
 20
86.1423901903
 11
155.3125845041
 21
87.6193986366
  0
LINE
  5
436
100
AcDbEntity
  8
DRAFT
100
AcDbLine
 62
7
  6
CONTINUOUS
 10
149.0092234561
 20
83.7249332019
 11
149.1621029118
 21
83.817616431
  0
LINE
  5
437
100
AcDbEntity
  8
0
100
AcDbLine
 62
250
  6
CONTINUOUS
 10
149.7972421782
 20
83.9436166784
 11
149.3596486921
 21
83.6910045147
  0
LINE
  5
438
100
AcDbEntity
  8
RACCORDO
100
AcDbLine
 62
250
  6
CONTINUOUS
 10
149.1482824786
 20
85.65049211
 11
149.0092234561
 21
85.5736120731
  0
LINE
  5
439
100
AcDbEntity
  8
RACCORDO
100
AcDbLine
 62
250
  6
CONTINUOUS
 10
149.1482824786
 20
85.598247727
 11
149.0092234561
 21
85.5213676901
  0
LINE
  5
43A
100
AcDbEntity
  8
RACCORDO
100
AcDbLine
 62
250
  6
CONTINUOUS
 10
149.0092234561
 20
84.9838410533
 11
149.1482824786
 21
85.0604345748
  0
LINE
  5
43B
100
AcDbEntity
  8
RACCORDO
100
AcDbLine
 62
250
  6
CONTINUOUS
 10
149.0092234561
 20
85.792320319
 11
149.0275551212
 21
85.8021784952
  0
LINE
  5
43C
100
AcDbEntity
  8
0
100
AcDbLine
 62
250
  6
CONTINUOUS
 10
152.9634077725
 20
85.1993547303
 11
151.1200104394
 21
84.2755266443
  0
LINE
  5
43D
100
AcDbEntity
  8
0
100
AcDbLine
 62
250
  6
CONTINUOUS
 10
151.0088823812
 20
84.0425731374
 11
152.8591296822
 21
84.9699129752
  0
LINE
  5
43E
100
AcDbEntity
  8
0
100
AcDbLine
 62
250
  6
CONTINUOUS
 10
151.9138941356
 20
84.4242513011
 11
151.9043374262
 21
84.4191413828
  0
LINE
  5
43F
100
AcDbEntity
  8
0
100
AcDbLine
 62
7
  6
CONTINUOUS
 10
151.9043374262
 20
84.4191413828
 11
149.9345192167
 21
83.4467906921
  0
LWPOLYLINE
  5
440
100
AcDbEntity
  8
0
100
AcDbPolyline
 62
250
  6
CONTINUOUS
 90
19
 70
0
 10
151.1200103911
 20
84.2755266225
 10
151.0584674876
 20
84.2471467656
 10
150.9930879639
 20
84.2188994636
 10
150.9241674704
 20
84.1910038424
 10
150.8517435828
 20
84.1635051034
 10
150.7764719742
 20
84.1367929747
 10
150.6997033993
 20
84.1114617931
 10
150.6226553416
 20
84.0877289896
 10
150.5450999071
 20
84.0653650247
 10
150.4662661606
 20
84.0443043149
 10
150.3859443782
 20
84.0244768026
 10
150.3053793746
 20
84.0062780038
 10
150.2259813054
 20
83.9903538872
 10
150.1489368993
 20
83.9767140961
 10
150.0740896528
 20
83.9651574172
 10
150.0009083341
 20
83.9560112962
 10
149.9297240264
 20
83.94945557
 10
149.8615960296
 20
83.9453446177
 10
149.7972421782
 20
83.9436166784
  0
LWPOLYLINE
  5
441
100
AcDbEntity
  8
0
100
AcDbPolyline
 62
250
  6
CONTINUOUS
 90
16
 70
0
 10
150.3819494021
 20
83.7046509818
 10
150.3439446186
 20
83.6886716043
 10
150.304242793
 20
83.6774070981
 10
150.2632751905
 20
83.6708800744
 10
150.2216628607
 20
83.6690614226
 10
150.1796452122
 20
83.6718379107
 10
150.1370540021
 20
83.6792235262
 10
150.0941363341
 20
83.6912975819
 10
150.0514885015
 20
83.70801588
 10
150.0094748635
 20
83.7293484601
 10
149.9684957498
 20
83.7552344452
 10
149.9290866014
 20
83.7854844404
 10
149.8918131443
 20
83.8197869448
 10
149.8571493008
 20
83.8578057981
 10
149.825490128
 20
83.8992163707
 10
149.7972421826
 20
83.9436166784
  0
LINE
  5
442
100
AcDbEntity
  8
0
100
AcDbLine
 62
250
  6
CONTINUOUS
 10
149.9062383747
 20
83.4360199814
 11
149.9443562629
 21
83.452038992
  0
LWPOLYLINE
  5
443
100
AcDbEntity
  8
0
100
AcDbPolyline
 62
250
  6
CONTINUOUS
 90
15
 70
0
 10
161.0608308809
 20
119.6506045471
 10
161.2589454282
 20
119.6830571551
 10
161.4412480794
 20
119.7046500124
 10
161.6074974922
 20
119.7172378039
 10
161.7521856681
 20
119.722365103
 10
161.8809063233
 20
119.7224710995
 10
162.0098205389
 20
119.718531555
 10
162.1443865937
 20
119.7091841207
 10
162.2783451746
 20
119.6942419427
 10
162.4097533699
 20
119.6742498983
 10
162.5420620168
 20
119.6478482765
 10
162.6705733864
 20
119.6145421344
 10
162.7820634399
 20
119.5785501309
 10
162.8729533948
 20
119.5434327433
 10
162.9481260262
 20
119.5093527222
  0
LWPOLYLINE
  5
444
100
AcDbEntity
  8
0
100
AcDbPolyline
 62
250
  6
CONTINUOUS
 90
7
 70
0
 10
149.4467817114
 20
115.8193669538
 10
149.4747503903
 20
115.8204606075
 10
149.5040351585
 20
115.8182098759
 10
149.5344136739
 20
115.8126318859
 10
149.5656554396
 20
115.8037690466
 10
149.5975235834
 20
115.791688639
 10
149.6297764138
 20
115.7764823526
  0
LWPOLYLINE
  5
445
100
AcDbEntity
  8
RACCORDO
100
AcDbPolyline
 62
250
  6
CONTINUOUS
 90
7
 70
0
 10
145.5288487931
 20
113.1238944996
 10
145.5149358281
 20
113.129950458
 10
145.499554639
 20
113.1329364685
 10
145.4829635713
 20
113.1328042288
 10
145.4654465031
 20
113.1295560013
 10
145.4473031561
 20
113.1232473642
 10
145.4288439679
 20
113.1139862601
  0
LINE
  5
446
100
AcDbEntity
  8
SUPERFICI
100
AcDbLine
 62
250
  6
CONTINUOUS
 10
141.7790522502
 20
114.170469455
 11
126.9108380818
 21
122.7551899734
  0
LINE
  5
447
100
AcDbEntity
  8
SUPERFICI
100
AcDbLine
 62
250
  6
CONTINUOUS
 10
142.1233506919
 20
114.7773583067
 11
127.2551365236
 21
123.362078825
  0
LINE
  5
448
100
AcDbEntity
  8
RACCORDO
100
AcDbLine
 62
250
  6
CONTINUOUS
 10
144.8808362057
 20
113.4303990739
 11
145.4288439611
 21
113.1139862641
  0
LINE
  5
449
100
AcDbEntity
  8
RACCORDO
100
AcDbLine
 62
7
  6
CONTINUOUS
 10
144.8808362057
 20
113.4980488461
 11
145.5288487931
 21
113.1238944996
  0
LWPOLYLINE
  5
44A
100
AcDbEntity
  8
RACCORDO
100
AcDbPolyline
 62
250
  6
CONTINUOUS
 90
4
 70
0
 10
145.4288439611
 20
113.1139862641
 10
145.4658003538
 20
113.0904117512
 10
145.5023518446
 20
113.0626228161
 10
145.5380979677
 20
113.0309239199
  0
LWPOLYLINE
  5
44B
100
AcDbEntity
  8
RACCORDO
100
AcDbPolyline
 62
250
  6
CONTINUOUS
 90
13
 70
0
 10
145.5380979677
 20
113.0309239199
 10
145.5726470811
 20
112.9956623624
 10
145.6056206574
 20
112.9572244767
 10
145.6366574311
 20
112.9160313963
 10
145.6654173569
 20
112.8725344413
 10
145.691585335
 20
112.8272101734
 10
145.7148746636
 20
112.7805551749
 10
145.7350301799
 20
112.7330806075
 10
145.7518310559
 20
112.6853066127
 10
145.7650932176
 20
112.6377566125
 10
145.7746713621
 20
112.5909515748
 10
145.7804605493
 20
112.5454043051
 10
145.7823973517
 20
112.501613829
  0
LWPOLYLINE
  5
44C
100
AcDbEntity
  8
ASSI
100
AcDbPolyline
 62
250
  6
CONTINUOUS
 90
7
 70
0
 10
139.1850407374
 20
121.6975990075
 10
139.1796892218
 20
121.7044255955
 10
139.1643312707
 20
121.7205346266
 10
139.1468083566
 20
121.7344477966
 10
139.1273914979
 20
121.7459499696
 10
139.1063809813
 20
121.7548633144
 10
139.0841017383
 20
121.761050031
  0
LWPOLYLINE
  5
44D
100
AcDbEntity
  8
RACCORDO
100
AcDbPolyline
 62
250
  6
CONTINUOUS
 90
13
 70
0
 10
141.9201876328
 20
121.5816743043
 10
141.9099955243
 20
121.5978370624
 10
141.9002315581
 20
121.6162448472
 10
141.8913078214
 20
121.6367154094
 10
141.8836485387
 20
121.6590084068
 10
141.8775502247
 20
121.6828652789
 10
141.8731898213
 20
121.7080397024
 10
141.8708280499
 20
121.7342254228
 10
141.8706904309
 20
121.7610754705
 10
141.8728544211
 20
121.788270198
 10
141.8774181243
 20
121.8154481789
 10
141.8844838385
 20
121.8422041124
 10
141.8940659853
 20
121.8681402534
  0
LWPOLYLINE
  5
44E
100
AcDbEntity
  8
RACCORDO
100
AcDbPolyline
 62
250
  6
CONTINUOUS
 90
9
 70
0
 10
146.6425695632
 20
115.5122436832
 10
146.90258166
 20
115.0890571753
 10
147.1635878212
 20
114.6543646715
 10
147.4252419879
 20
114.2081343139
 10
147.6887310318
 20
113.7476113684
 10
147.9520729447
 20
113.2754997782
 10
148.2104224436
 20
112.8001220823
 10
148.4622119944
 20
112.3244231648
 10
148.7088460723
 20
111.845811378
  0
LINE
  5
44F
100
AcDbEntity
  8
RACCORDO
100
AcDbLine
 62
7
  6
CONTINUOUS
 10
146.9548841228
 20
115.0815677981
 11
146.7422721125
 21
115.4288034586
  0
LWPOLYLINE
  5
450
100
AcDbEntity
  8
ASSI
100
AcDbPolyline
 62
250
  6
CONTINUOUS
 90
4
 70
0
 10
142.0227903716
 20
123.0816915139
 10
142.0284068124
 20
123.0724662376
 10
142.0322138942
 20
123.0629645588
 10
142.0323406978
 20
123.0623414857
  0
LWPOLYLINE
  5
451
100
AcDbEntity
  8
ASSI
100
AcDbPolyline
 62
250
  6
CONTINUOUS
 90
16
 70
0
 10
142.2114147063
 20
123.2835799416
 10
142.2205188407
 20
123.2666003675
 10
142.2273288954
 20
123.249443778
 10
142.2318448705
 20
123.2321101731
 10
142.2340775955
 20
123.2144941221
 10
142.2340162408
 20
123.1967010558
 10
142.2316283178
 20
123.1790472655
 10
142.2268519384
 20
123.1615190644
 10
142.2197489907
 20
123.1441301395
 10
142.2104726502
 20
123.1272378425
 10
142.1989778807
 20
123.1108710789
 10
142.1853097185
 20
123.0950009432
 10
142.1697564482
 20
123.0798980715
 10
142.1524141647
 20
123.0656526758
 10
142.133186773
 20
123.052174544
 10
142.1120742733
 20
123.0394636761
  0
LWPOLYLINE
  5
452
100
AcDbEntity
  8
ASSI
100
AcDbPolyline
 62
250
  6
CONTINUOUS
 90
4
 70
0
 10
144.4125076727
 20
119.617489344
 10
144.4102415988
 20
119.6218665972
 10
144.4056427009
 20
119.6294010131
 10
144.4006657776
 20
119.6361022608
  0
LINE
  5
453
100
AcDbEntity
  8
RACCORDO
100
AcDbLine
 62
250
  6
CONTINUOUS
 10
148.7088460723
 20
111.845811378
 11
148.950214417
 21
111.364450696
  0
LWPOLYLINE
  5
454
100
AcDbEntity
  8
RACCORDO
100
AcDbPolyline
 62
7
  6
CONTINUOUS
 90
9
 70
0
 10
148.98338998
 20
111.3889885883
 10
148.7478833922
 20
111.8588055828
 10
148.5070476228
 20
112.3265864642
 10
148.2609655771
 20
112.7921704289
 10
148.0097220908
 20
113.2553971657
 10
147.753403479
 20
113.7161076914
 10
147.4920974805
 20
114.174144387
 10
147.2258938037
 20
114.6293500165
 10
146.9548841228
 20
115.0815677981
  0
LINE
  5
455
100
AcDbEntity
  8
ASSI
100
AcDbLine
 62
7
  6
CONTINUOUS
 10
144.4125258773
 20
119.6174519309
 11
144.4125076727
 21
119.617489344
  0
LWPOLYLINE
  5
456
100
AcDbEntity
  8
RACCORDO
100
AcDbPolyline
 62
250
  6
CONTINUOUS
 90
3
 70
0
 10
148.950214412
 20
111.364450706
 10
148.9551380053
 20
111.3541162115
 10
148.9595059603
 20
111.3440957174
  0
LWPOLYLINE
  5
457
100
AcDbEntity
  8
ASSI
100
AcDbPolyline
 62
7
  6
CONTINUOUS
 90
6
 70
0
 10
144.4125445932
 20
119.6174135504
 10
144.4180769449
 20
119.6054313582
 10
144.4241600919
 20
119.5904819819
 10
144.4294234816
 20
119.5753758032
 10
144.4338603813
 20
119.5601718624
 10
144.4374804086
 20
119.5448868908
  0
LINE
  5
458
100
AcDbEntity
  8
ASSI
100
AcDbLine
 62
7
  6
CONTINUOUS
 10
144.4127129822
 20
119.6170505832
 11
144.4127450502
 21
119.6169768676
  0
LWPOLYLINE
  5
459
100
AcDbEntity
  8
RACCORDO
100
AcDbPolyline
 62
250
  6
CONTINUOUS
 90
7
 70
0
 10
148.9595059603
 20
111.3440957174
 10
148.9633467515
 20
111.3344343277
 10
148.966680432
 20
111.3251987718
 10
148.9695560863
 20
111.3163820089
 10
148.9720373593
 20
111.3079079738
 10
148.9741505085
 20
111.2997946067
 10
148.9759241647
 20
111.2920490094
  0
LWPOLYLINE
  5
45A
100
AcDbEntity
  8
RACCORDO
100
AcDbPolyline
 62
250
  6
CONTINUOUS
 90
10
 70
0
 10
147.6861727896
 20
121.7912606449
 10
147.6846771047
 20
121.7969665807
 10
147.6829297644
 20
121.8023978679
 10
147.6809391147
 20
121.8075285644
 10
147.6787146636
 20
121.8123341637
 10
147.6762670361
 20
121.8167917118
 10
147.6736079231
 20
121.8208799174
 10
147.6707500255
 20
121.8245792532
 10
147.6677069939
 20
121.8278720495
 10
147.6644933632
 20
121.8307425784
  0
LINE
  5
45B
100
AcDbEntity
  8
0
100
AcDbLine
 62
250
  6
CONTINUOUS
 10
156.5146010001
 20
89.8960119779
 11
156.5146281193
 21
95.5987794223
  0
LINE
  5
45C
100
AcDbEntity
  8
0
100
AcDbLine
 62
7
  6
CONTINUOUS
 10
156.7952160012
 20
95.6966241329
 11
156.7952160012
 21
90.2970719856
  0
LWPOLYLINE
  5
45D
100
AcDbEntity
  8
0
100
AcDbPolyline
 62
250
  6
CONTINUOUS
 90
22
 70
0
 10
156.5146010001
 20
89.8960119779
 10
156.5112284666
 20
89.8009636997
 10
156.5024679856
 20
89.7048490052
 10
156.4883195569
 20
89.6076678943
 10
156.4686498898
 20
89.5091100649
 10
156.4435922751
 20
89.4094858192
 10
156.4135465851
 20
89.3097260635
 10
156.3784351709
 20
89.2096331821
 10
156.3383356814
 20
89.1094047907
 10
156.293880935
 20
89.0105646419
 10
156.245001853
 20
88.9131145224
 10
156.1917675142
 20
88.8170526456
 10
156.1350179741
 20
88.7238974045
 10
156.0747136575
 20
88.6337046189
 10
156.0108941397
 20
88.546418469
 10
155.9445182014
 20
88.4633898874
 10
155.875713027
 20
88.3847894942
 10
155.8043514321
 20
88.3104466694
 10
155.7310106448
 20
88.2412004849
 10
155.6558830745
 20
88.1773306316
 10
155.5787763118
 20
88.1185574186
 10
155.4996903566
 20
88.064880846
  0
LWPOLYLINE
  5
45E
100
AcDbEntity
  8
0
100
AcDbPolyline
 62
250
  6
CONTINUOUS
 90
10
 70
0
 10
156.7952055853
 20
90.2970912972
 10
156.7932558431
 20
90.2609380744
 10
156.7840741483
 20
90.2111215728
 10
156.7673642706
 20
90.1617515999
 10
156.7432141575
 20
90.1133035177
 10
156.7116936587
 20
90.0660674183
 10
156.6728750396
 20
90.0203385316
 10
156.6269029242
 20
89.9764805594
 10
156.5740423618
 20
89.9349117117
 10
156.5146009986
 20
89.8960119787
  0
LWPOLYLINE
  5
45F
100
AcDbEntity
  8
0
100
AcDbPolyline
 62
7
  6
CONTINUOUS
 90
5
 70
0
 10
162.8947559269
 20
102.3185789914
 10
162.8849590266
 20
102.3043801781
 10
162.8712864946
 20
102.291260572
 10
162.8539633494
 20
102.2794430495
 10
162.8332751682
 20
102.2691271464
  0
LWPOLYLINE
  5
460
100
AcDbEntity
  8
RACCORDO
100
AcDbPolyline
 62
7
  6
CONTINUOUS
 90
9
 70
0
 10
148.9594895852
 20
82.3943280071
 10
148.9709607053
 20
82.4055871611
 10
148.9806573623
 20
82.4175902818
 10
148.9891158316
 20
82.4308404852
 10
148.9962201453
 20
82.4452499539
 10
149.0019005813
 20
82.4608369603
 10
149.0060437215
 20
82.4775775197
 10
149.0085144703
 20
82.4953373939
 10
149.0092234441
 20
82.5116888676
  0
LINE
  5
461
100
AcDbEntity
  8
RACCORDO
100
AcDbLine
 62
250
  6
CONTINUOUS
 10
148.9530035709
 20
82.390092527
 11
148.950214412
 21
82.3875419797
  0
LINE
  5
462
100
AcDbEntity
  8
RACCORDO
100
AcDbLine
 62
7
  6
CONTINUOUS
 10
148.959274589
 20
82.3941407124
 11
148.9594895852
 21
82.3943280071
  0
LINE
  5
463
100
AcDbEntity
  8
RACCORDO
100
AcDbLine
 62
250
  6
CONTINUOUS
 10
149.0076585815
 20
82.3452969455
 11
148.9977654007
 21
82.3369624904
  0
LWPOLYLINE
  5
464
100
AcDbEntity
  8
RACCORDO
100
AcDbPolyline
 62
250
  6
CONTINUOUS
 90
3
 70
0
 10
148.950214384
 20
82.3875419554
 10
148.7285379873
 20
82.2009466544
 10
148.6782208245
 20
82.1593820568
  0
LINE
  5
465
100
AcDbEntity
  8
RACCORDO
100
AcDbLine
 62
7
  6
CONTINUOUS
 10
145.5443634005
 20
80.2483577457
 11
145.6325492194
 21
80.3190400212
  0
LWPOLYLINE
  5
466
100
AcDbEntity
  8
RACCORDO
100
AcDbPolyline
 62
250
  6
CONTINUOUS
 90
4
 70
0
 10
148.5348889779
 20
82.0463281882
 10
148.4974327706
 20
82.0179930343
 10
148.2566771126
 20
81.8391972251
 10
148.2427078923
 20
81.8289403363
  0
LINE
  5
467
100
AcDbEntity
  8
RACCORDO
100
AcDbLine
 62
250
  6
CONTINUOUS
 10
148.950214412
 20
82.3875419797
 11
148.959274589
 21
82.3941407124
  0
LWPOLYLINE
  5
468
100
AcDbEntity
  8
0
100
AcDbPolyline
 62
250
  6
CONTINUOUS
 90
10
 70
0
 10
155.3127113503
 20
87.6194583238
 10
155.3451309762
 20
87.6427487542
 10
155.3817534874
 20
87.6774105154
 10
155.4137885133
 20
87.7179933238
 10
155.4410324367
 20
87.7642149255
 10
155.4632652684
 20
87.8156735403
 10
155.4803287777
 20
87.8719311421
 10
155.4921197281
 20
87.9325296892
 10
155.4985806999
 20
87.997004401
 10
155.4996909273
 20
88.0648555011
  0
LWPOLYLINE
  5
469
100
AcDbEntity
  8
RACCORDO
100
AcDbPolyline
 62
7
  6
CONTINUOUS
 90
6
 70
0
 10
145.09296824
 20
79.9117869651
 10
145.1846427476
 20
79.9768557083
 10
145.2756195175
 20
80.0430471579
 10
145.3658985496
 20
80.1103613141
 10
145.4554798439
 20
80.1787981767
 10
145.5443634005
 20
80.2483577457
  0
LWPOLYLINE
  5
46A
100
AcDbEntity
  8
RACCORDO
100
AcDbPolyline
 62
250
  6
CONTINUOUS
 90
3
 70
0
 10
148.0938903872
 20
81.7246285743
 10
148.004545879
 20
81.6640768513
 10
147.9432771099
 20
81.6232533605
  0
LWPOLYLINE
  5
46B
100
AcDbEntity
  8
RACCORDO
100
AcDbPolyline
 62
250
  6
CONTINUOUS
 90
7
 70
0
 10
148.9811574362
 20
82.4716085428
 10
148.9895225437
 20
82.4773054546
 10
148.9965440316
 20
82.4835781683
 10
149.0021044114
 20
82.4903217245
 10
149.0061106431
 20
82.4974232852
 10
149.0084956915
 20
82.5047640224
 10
149.0092234441
 20
82.5116888676
  0
LINE
  5
46C
100
AcDbEntity
  8
RACCORDO
100
AcDbLine
 62
250
  6
CONTINUOUS
 10
148.9977654007
 20
82.3369624904
 11
148.9941021677
 21
82.3345738825
  0
LINE
  5
46D
100
AcDbEntity
  8
RACCORDO
100
AcDbLine
 62
250
  6
CONTINUOUS
 10
147.7908881168
 20
81.5248277937
 11
147.7422750082
 21
81.4942897704
  0
LWPOLYLINE
  5
46E
100
AcDbEntity
  8
RACCORDO
100
AcDbPolyline
 62
7
  6
CONTINUOUS
 90
10
 70
0
 10
147.636742443
 20
81.429363711
 10
147.7908881168
 20
81.5248277937
 10
147.9432771099
 20
81.6232533605
 10
148.0938903872
 20
81.7246285743
 10
148.2427078923
 20
81.8289403363
 10
148.3897123205
 20
81.9361769121
 10
148.5348889779
 20
82.0463281882
 10
148.6782208245
 20
82.1593820568
 10
148.8196886185
 20
82.2753241636
 10
148.959274589
 20
82.3941407124
  0
LINE
  5
46F
100
AcDbEntity
  8
RACCORDO
100
AcDbLine
 62
7
  6
CONTINUOUS
 10
148.5840432821
 20
82.0850989456
 11
148.9941021677
 21
82.3345738825
  0
LINE
  5
470
100
AcDbEntity
  8
ASSI
100
AcDbLine
 62
7
  6
CONTINUOUS
 10
147.636742443
 20
81.429363711
 11
144.8808362057
 21
79.7585944888
  0
LINE
  5
471
100
AcDbEntity
  8
RACCORDO
100
AcDbLine
 62
250
  6
CONTINUOUS
 10
144.8808362057
 20
79.9905661757
 11
148.9811574362
 21
82.4716085612
  0
LINE
  5
472
100
AcDbEntity
  8
RACCORDO
100
AcDbLine
 62
250
  6
CONTINUOUS
 10
144.8808362057
 20
79.9252520628
 11
148.950214384
 21
82.3875419554
  0
LWPOLYLINE
  5
473
100
AcDbEntity
  8
RACCORDO
100
AcDbPolyline
 62
7
  6
CONTINUOUS
 90
9
 70
0
 10
145.5905177464
 20
80.3129460847
 10
145.606755124
 20
80.3224769271
 10
145.6211697751
 20
80.3306069506
 10
145.6335314273
 20
80.3372031933
 10
145.6436565649
 20
80.3421355261
 10
145.6513758214
 20
80.3453303097
 10
145.6565402901
 20
80.3467740382
 10
145.6590855814
 20
80.3464167099
 10
145.6592260367
 20
80.3462305252
  0
LINE
  5
474
100
AcDbEntity
  8
RACCORDO
100
AcDbLine
 62
250
  6
CONTINUOUS
 10
149.0633553713
 20
82.6054364216
 11
149.0092234561
 21
82.5741767406
  0
LINE
  5
475
100
AcDbEntity
  8
0
100
AcDbLine
 62
7
  6
CONTINUOUS
 10
151.9138941356
 20
84.4242513011
 11
152.8591296822
 21
84.9699129752
  0
LWPOLYLINE
  5
476
100
AcDbEntity
  8
0
100
AcDbPolyline
 62
250
  6
CONTINUOUS
 90
4
 70
0
 10
149.9443559116
 20
83.4520388182
 10
150.4239811144
 20
83.7286725349
 10
150.4673528151
 20
83.7531868996
 10
150.5120648525
 20
83.778194248
  0
LINE
  5
477
100
AcDbEntity
  8
SUPERFICI
100
AcDbLine
 62
7
  6
CONTINUOUS
 10
145.275345331
 20
79.0342861498
 11
144.8808362057
 21
78.8144527476
  0
LINE
  5
478
100
AcDbEntity
  8
SUPERFICI
100
AcDbLine
 62
7
  6
CONTINUOUS
 10
144.8808362057
 20
79.2535567999
 11
144.8883942692
 21
79.2577068433
  0
LINE
  5
479
100
AcDbEntity
  8
0
100
AcDbLine
 62
250
  6
CONTINUOUS
 10
150.5120648525
 20
83.778194248
 11
150.6064660075
 21
83.8301873787
  0
LINE
  5
47A
100
AcDbEntity
  8
0
100
AcDbLine
 62
250
  6
CONTINUOUS
 10
150.6064660075
 20
83.8301873787
 11
150.7016073119
 21
83.8817339794
  0
LINE
  5
47B
100
AcDbEntity
  8
0
100
AcDbLine
 62
250
  6
CONTINUOUS
 10
149.9443559116
 20
83.4520388182
 11
149.9345192167
 21
83.4467906921
  0
LINE
  5
47C
100
AcDbEntity
  8
0
100
AcDbLine
 62
250
  6
CONTINUOUS
 10
150.7016073119
 20
83.8817339794
 11
150.7955772056
 21
83.9318479772
  0
LINE
  5
47D
100
AcDbEntity
  8
0
100
AcDbLine
 62
7
  6
CONTINUOUS
 10
151.9138941356
 20
84.4242513011
 11
151.9043107869
 21
84.4191900436
  0
LINE
  5
47E
100
AcDbEntity
  8
0
100
AcDbLine
 62
250
  6
CONTINUOUS
 10
150.7955772056
 20
83.9318479772
 11
150.8883875536
 21
83.9805698546
  0
LWPOLYLINE
  5
47F
100
AcDbEntity
  8
0
100
AcDbPolyline
 62
250
  6
CONTINUOUS
 90
3
 70
0
 10
150.8883875536
 20
83.9805698546
 10
150.9716947486
 20
84.023628693
 10
151.0088823812
 20
84.0425731374
  0
LINE
  5
480
100
AcDbEntity
  8
ASSI
100
AcDbLine
 62
7
  6
CONTINUOUS
 10
147.1384539836
 20
122.1027986302
 11
147.1451585083
 21
122.1046761442
  0
LWPOLYLINE
  5
481
100
AcDbEntity
  8
RACCORDO
100
AcDbPolyline
 62
250
  6
CONTINUOUS
 90
7
 70
0
 10
147.1874941317
 20
122.0741429328
 10
147.1902321347
 20
122.0748916637
 10
147.1929390959
 20
122.0754965758
 10
147.1956106725
 20
122.0759566986
 10
147.1982425801
 20
122.0762712941
 10
147.2008306004
 20
122.0764398583
 10
147.2033705842
 20
122.0764621208
  0
LINE
  5
482
100
AcDbEntity
  8
RACCORDO
100
AcDbLine
 62
250
  6
CONTINUOUS
 10
147.7211375148
 20
121.6219934844
 11
147.9544584663
 21
121.6833616755
  0
LINE
  5
483
100
AcDbEntity
  8
RACCORDO
100
AcDbLine
 62
250
  6
CONTINUOUS
 10
147.1384539836
 20
122.1027986302
 11
147.1437608555
 21
122.1041326864
  0
LWPOLYLINE
  5
484
100
AcDbEntity
  8
0
100
AcDbPolyline
 62
250
  6
CONTINUOUS
 90
19
 70
0
 10
161.0608308809
 20
119.6506045471
 10
161.245977835
 20
119.6634554834
 10
161.4177288368
 20
119.666642536
 10
161.5756060309
 20
119.6622369473
 10
161.7169226917
 20
119.652292222
 10
161.8442263445
 20
119.6383061868
 10
161.9648568519
 20
119.620503765
 10
162.0797057449
 20
119.599450284
 10
162.1876586767
 20
119.5757198914
 10
162.2924698469
 20
119.5485617789
 10
162.3929650205
 20
119.5189395579
 10
162.4897490039
 20
119.4865471673
 10
162.5881476939
 20
119.448228207
 10
162.6926743691
 20
119.4014429936
 10
162.7953719348
 20
119.3496298724
 10
162.8840012621
 20
119.2986340202
 10
162.9558687363
 20
119.250708657
 10
163.015381814
 20
119.2046707818
 10
163.0632168578
 20
119.1608071572
  0
LWPOLYLINE
  5
485
100
AcDbEntity
  8
ASSI
100
AcDbPolyline
 62
7
  6
CONTINUOUS
 90
10
 70
0
 10
143.9230440944
 20
118.1463473376
 10
143.9035203603
 20
118.1466345122
 10
143.8844883651
 20
118.1459609949
 10
143.8659481088
 20
118.1443267856
 10
143.8477634501
 20
118.1416968865
 10
143.8300705302
 20
118.1381062954
 10
143.8132777732
 20
118.1336600062
 10
143.7975213206
 20
118.1283930169
 10
143.7826650309
 20
118.1222703295
 10
143.7687089041
 20
118.115291944
  0
LWPOLYLINE
  5
486
100
AcDbEntity
  8
RACCORDO
100
AcDbPolyline
 62
7
  6
CONTINUOUS
 90
9
 70
0
 10
147.1131430707
 20
118.4253996822
 10
147.1470077879
 20
118.4229505726
 10
147.1794829395
 20
118.4186648707
 10
147.2103982762
 20
118.4126111779
 10
147.2395968083
 20
118.4048642246
 10
147.26698405
 20
118.3955875085
 10
147.2924961364
 20
118.3849462968
 10
147.3160085419
 20
118.3730426741
 10
147.3205998369
 20
118.3704412384
  0
LWPOLYLINE
  5
487
100
AcDbEntity
  8
RACCORDO
100
AcDbPolyline
 62
250
  6
CONTINUOUS
 90
4
 70
0
 10
149.0598844443
 20
116.9713853452
 10
149.0582871953
 20
116.9715463184
 10
149.0547639631
 20
116.9706929609
 10
149.0495925903
 20
116.9685075043
  0
LWPOLYLINE
  5
488
100
AcDbEntity
  8
ASSI
100
AcDbPolyline
 62
250
  6
CONTINUOUS
 90
8
 70
0
 10
143.2855766555
 20
117.6379012499
 10
143.2742920737
 20
117.64215225
 10
143.2621040371
 20
117.6444770305
 10
143.2491431347
 20
117.6448506696
 10
143.2355482533
 20
117.6432691579
 10
143.2214650616
 20
117.6397494414
 10
143.2070444455
 20
117.6343292307
 10
143.1924409136
 20
117.6270665992
  0
LWPOLYLINE
  5
489
100
AcDbEntity
  8
ASSI
100
AcDbPolyline
 62
250
  6
CONTINUOUS
 90
9
 70
0
 10
144.8171814684
 20
116.7537862586
 10
144.8127803747
 20
116.7561129488
 10
144.8014957693
 20
116.7603639259
 10
144.7893077374
 20
116.7626886765
 10
144.7763468616
 20
116.7630622916
 10
144.7627520129
 20
116.7614807666
 10
144.7486688531
 20
116.7579610464
 10
144.7342482728
 20
116.7525408422
 10
144.7196447794
 20
116.7452782275
  0
LINE
  5
48A
100
AcDbEntity
  8
ASSI
100
AcDbLine
 62
250
  6
CONTINUOUS
 10
143.2899776027
 20
117.6355746304
 11
143.2855766555
 21
117.6379012499
  0
LINE
  5
48B
100
AcDbEntity
  8
ASSI
100
AcDbLine
 62
250
  6
CONTINUOUS
 10
134.1136348205
 20
122.9338799462
 11
134.1092338733
 21
122.9362065658
  0
LWPOLYLINE
  5
48C
100
AcDbEntity
  8
ASSI
100
AcDbPolyline
 62
250
  6
CONTINUOUS
 90
8
 70
0
 10
143.1924409136
 20
117.6270665992
 10
143.178109122
 20
117.6347455276
 10
143.163847009
 20
117.6406083629
 10
143.1498101406
 20
117.6445695848
 10
143.1361368872
 20
117.6465643406
 10
143.1230019026
 20
117.6465404014
 10
143.110605483
 20
117.6444861881
 10
143.0995170878
 20
117.6405786961
  0
LWPOLYLINE
  5
48D
100
AcDbEntity
  8
ASSI
100
AcDbPolyline
 62
250
  6
CONTINUOUS
 90
8
 70
0
 10
134.0160981314
 20
122.925371915
 10
134.0017663398
 20
122.9330508435
 10
133.9875042267
 20
122.9389136787
 10
133.9734673584
 20
122.9428749007
 10
133.9597941049
 20
122.9448696564
 10
133.9466591204
 20
122.9448457173
 10
133.9342627008
 20
122.9427915039
 10
133.9231743056
 20
122.938884012
  0
LWPOLYLINE
  5
48E
100
AcDbEntity
  8
RACCORDO
100
AcDbPolyline
 62
7
  6
CONTINUOUS
 90
10
 70
0
 10
146.6425695632
 20
115.5122436832
 10
146.6579816906
 20
115.5033618716
 10
146.6723977841
 20
115.4943861469
 10
146.6857675435
 20
115.4852936023
 10
146.6980648602
 20
115.4760298577
 10
146.7092582352
 20
115.4666294448
 10
146.7192919131
 20
115.4572034601
 10
146.7281387454
 20
115.4477609486
 10
146.7357999855
 20
115.438289396
 10
146.7422720236
 20
115.4288036025
  0
LINE
  5
48F
100
AcDbEntity
  8
SUPERFICI
100
AcDbLine
 62
7
  6
CONTINUOUS
 10
134.0481461112
 20
121.4034426744
 11
138.6443401889
 21
118.7496578177
  0
LINE
  5
490
100
AcDbEntity
  8
0
100
AcDbLine
 62
250
  6
CONTINUOUS
 10
149.294729088
 20
112.7015280524
 11
147.8555632275
 21
113.5324843833
  0
LINE
  5
491
100
AcDbEntity
  8
SUPERFICI
100
AcDbLine
 62
7
  6
CONTINUOUS
 10
134.5501190485
 20
121.2410810532
 11
138.7807331023
 21
118.7983775206
  0
LINE
  5
492
100
AcDbEntity
  8
SUPERFICI
100
AcDbLine
 62
7
  6
CONTINUOUS
 10
144.527403969
 20
116.165421693
 11
139.5137828204
 21
119.0602237088
  0
LINE
  5
493
100
AcDbEntity
  8
SUPERFICI
100
AcDbLine
 62
7
  6
CONTINUOUS
 10
134.5501190485
 20
121.9261809614
 11
129.5364979
 21
124.8209829771
  0
LINE
  5
494
100
AcDbEntity
  8
ASSI
100
AcDbLine
 62
250
  6
CONTINUOUS
 10
137.5557302557
 20
120.8724225794
 11
141.4360411216
 21
118.6319797171
  0
LINE
  5
495
100
AcDbEntity
  8
ASSI
100
AcDbLine
 62
250
  6
CONTINUOUS
 10
144.7196447794
 20
116.7452782275
 11
143.1924409136
 21
117.6270665992
  0
LINE
  5
496
100
AcDbEntity
  8
ASSI
100
AcDbLine
 62
250
  6
CONTINUOUS
 10
135.5433019972
 20
122.0435835433
 11
134.0160981314
 21
122.925371915
  0
LINE
  5
497
100
AcDbEntity
  8
ASSI
100
AcDbLine
 62
7
  6
CONTINUOUS
 10
144.8171814684
 20
116.7537862586
 11
143.2899776027
 21
117.6355746304
  0
LINE
  5
498
100
AcDbEntity
  8
ASSI
100
AcDbLine
 62
7
  6
CONTINUOUS
 10
135.6408386862
 20
122.0520915745
 11
134.1136348205
 21
122.9338799462
  0
LINE
  5
499
100
AcDbEntity
  8
0
100
AcDbLine
 62
250
  6
CONTINUOUS
 10
149.1482824786
 20
114.3135083902
 11
148.1557688677
 21
114.8865727672
  0
LINE
  5
49A
100
AcDbEntity
  8
ASSI
100
AcDbLine
 62
250
  6
CONTINUOUS
 10
137.6948694406
 20
121.0151628533
 11
141.541850911
 21
118.7939639664
  0
LINE
  5
49B
100
AcDbEntity
  8
0
100
AcDbLine
 62
7
  6
CONTINUOUS
 10
149.1482824786
 20
115.0669948937
 11
148.7923546646
 21
115.2725031527
  0
LWPOLYLINE
  5
49C
100
AcDbEntity
  8
ASSI
100
AcDbPolyline
 62
250
  6
CONTINUOUS
 90
16
 70
0
 10
135.5433019972
 20
122.0435835433
 10
135.5580039374
 20
122.0345099629
 10
135.5726008518
 20
122.0237441088
 10
135.5869339938
 20
122.0113753242
 10
135.6008522774
 20
121.9975036317
 10
135.6141865556
 20
121.9822660004
 10
135.626756241
 20
121.9658434152
 10
135.6384247836
 20
121.9483905078
 10
135.6490410726
 20
121.930107495
 10
135.6584348499
 20
121.9112811918
 10
135.6664912709
 20
121.8921650151
 10
135.6731489726
 20
121.8729315204
 10
135.6783491141
 20
121.8537585374
 10
135.6820348735
 20
121.8348464632
 10
135.6841607001
 20
121.8164161608
 10
135.6847018142
 20
121.7986718762
  0
LWPOLYLINE
  5
49D
100
AcDbEntity
  8
RACCORDO
100
AcDbPolyline
 62
250
  6
CONTINUOUS
 90
9
 70
0
 10
144.8459217195
 20
117.7985132407
 10
144.8322107406
 20
117.8072814341
 10
144.8201237918
 20
117.8168135866
 10
144.8097874666
 20
117.8270098957
 10
144.8013101989
 20
117.8377634981
 10
144.7947805527
 20
117.8489619036
 10
144.7902667213
 20
117.8604882573
 10
144.7878163959
 20
117.8722222118
 10
144.787345667
 20
117.8795752572
  0
LWPOLYLINE
  5
49E
100
AcDbEntity
  8
0
100
AcDbPolyline
 62
250
  6
CONTINUOUS
 90
3
 70
0
 10
143.0073826013
 20
117.6939551583
 10
143.0526577186
 20
117.6600905016
 10
143.0928788079
 20
117.6347921434
  0
LWPOLYLINE
  5
49F
100
AcDbEntity
  8
ASSI
100
AcDbPolyline
 62
250
  6
CONTINUOUS
 90
3
 70
0
 10
139.1449699311
 20
121.6574115403
 10
139.1659292699
 20
121.6389583375
 10
139.1901289931
 20
121.6209587155
  0
LWPOLYLINE
  5
4A0
100
AcDbEntity
  8
ASSI
100
AcDbPolyline
 62
250
  6
CONTINUOUS
 90
7
 70
0
 10
144.4006657776
 20
119.6361022608
 10
144.3953946244
 20
119.6420397864
 10
144.3899410752
 20
119.6472096766
 10
144.3844368591
 20
119.6515368494
 10
144.3789671837
 20
119.6550293645
 10
144.3735789415
 20
119.657773436
 10
144.3683277507
 20
119.6598169139
  0
LWPOLYLINE
  5
4A1
100
AcDbEntity
  8
RACCORDO
100
AcDbPolyline
 62
7
  6
CONTINUOUS
 90
12
 70
0
 10
148.9269385955
 20
117.1833770592
 10
148.8767315285
 20
117.2583758988
 10
148.8236010132
 20
117.3312049801
 10
148.7677190013
 20
117.4015177824
 10
148.7092997308
 20
117.4689403811
 10
148.6485953641
 20
117.5331014081
 10
148.5857841154
 20
117.593713642
 10
148.5210684801
 20
117.6504819132
 10
148.4547147743
 20
117.7030581193
 10
148.3869514302
 20
117.7511530952
 10
148.3180036787
 20
117.7944999298
 10
147.3206016364
 20
118.3704401995
  0
LWPOLYLINE
  5
4A2
100
AcDbEntity
  8
ASSI
100
AcDbPolyline
 62
7
  6
CONTINUOUS
 90
10
 70
0
 10
146.8634768948
 20
121.0876401574
 10
146.8751798471
 20
121.0691657242
 10
146.8854864654
 20
121.0502755055
 10
146.8943885856
 20
121.031049443
 10
146.9018694273
 20
121.0116159874
 10
146.9079590563
 20
120.9920108477
 10
146.9127005247
 20
120.9721736613
 10
146.9160920258
 20
120.9521382435
 10
146.9181203856
 20
120.9320351373
 10
146.9187934506
 20
120.9119481413
  0
LWPOLYLINE
  5
4A3
100
AcDbEntity
  8
ASSI
100
AcDbPolyline
 62
250
  6
CONTINUOUS
 90
13
 70
0
 10
148.0788124409
 20
116.6901294255
 10
148.0341815417
 20
116.7606775086
 10
147.9873194319
 20
116.8292041951
 10
147.9383912973
 20
116.8954624675
 10
147.887567044
 20
116.9592119971
 10
147.8350287998
 20
117.0202244123
 10
147.7809702599
 20
117.0782841042
 10
147.7255837042
 20
117.1331807903
 10
147.6690638538
 20
117.1847174487
 10
147.6116150831
 20
117.2327147712
 10
147.5534421177
 20
117.2770010531
 10
147.4947495056
 20
117.3174134772
 10
147.4357452725
 20
117.3538053997
  0
LINE
  5
4A4
100
AcDbEntity
  8
RACCORDO
100
AcDbLine
 62
7
  6
CONTINUOUS
 10
148.9501783848
 20
117.1465962317
 11
148.9269385955
 21
117.1833770592
  0
LINE
  5
4A5
100
AcDbEntity
  8
RACCORDO
100
AcDbLine
 62
250
  6
CONTINUOUS
 10
148.8627648244
 20
117.1324095391
 11
148.9866045583
 21
116.9347422889
  0
LINE
  5
4A6
100
AcDbEntity
  8
RACCORDO
100
AcDbLine
 62
7
  6
CONTINUOUS
 10
149.0598876598
 20
116.971380261
 11
148.9501783848
 21
117.1465962317
  0
LWPOLYLINE
  5
4A7
100
AcDbEntity
  8
ASSI
100
AcDbPolyline
 62
250
  6
CONTINUOUS
 90
16
 70
0
 10
146.698061872
 20
121.1385161742
 10
146.687933098
 20
121.155301172
 10
146.6800862551
 20
121.17230948
 10
146.6745213434
 20
121.1895410983
 10
146.671221143
 20
121.2071011735
 10
146.6702028737
 20
121.2248845589
 10
146.6715181951
 20
121.2425758144
 10
146.6752281268
 20
121.26018987
 10
146.6812716492
 20
121.2777117956
 10
146.6895173629
 20
121.2947813602
 10
146.7000120303
 20
121.3113705872
 10
146.7127088889
 20
121.3275074532
 10
146.727336252
 20
121.3429156573
 10
146.7438035574
 20
121.3575030991
 10
146.7622013672
 20
121.371361879
 10
146.7825296815
 20
121.384491997
  0
LWPOLYLINE
  5
4A8
100
AcDbEntity
  8
RACCORDO
100
AcDbPolyline
 62
250
  6
CONTINUOUS
 90
16
 70
0
 10
148.9866045583
 20
116.9347422889
 10
148.997765327
 20
116.9161253611
 10
149.0076584535
 20
116.8969132867
 10
149.0161674026
 20
116.8773323728
 10
149.0231919426
 20
116.857613274
 10
149.0286493299
 20
116.837988267
 10
149.0324752809
 20
116.8186885136
 10
149.034624725
 20
116.7999413632
 10
149.0350723426
 20
116.7819676383
 10
149.0338128545
 20
116.7649790303
 10
149.0308610791
 20
116.7491756417
 10
149.026251776
 20
116.7347436647
 10
149.0200392474
 20
116.7218531444
 10
149.012296683
 20
116.7106559343
 10
149.0031152835
 20
116.7012839202
 10
148.9938827232
 20
116.6946052706
  0
LINE
  5
4A9
100
AcDbEntity
  8
0
100
AcDbLine
 62
250
  6
CONTINUOUS
 10
149.3596486921
 20
115.1378680467
 11
149.7972421782
 21
114.379933894
  0
LINE
  5
4AA
100
AcDbEntity
  8
0
100
AcDbLine
 62
250
  6
CONTINUOUS
 10
149.9443559115
 20
115.4754428065
 11
150.381949399
 21
114.7175086538
  0
LWPOLYLINE
  5
4AB
100
AcDbEntity
  8
RACCORDO
100
AcDbPolyline
 62
250
  6
CONTINUOUS
 90
10
 70
0
 10
147.6861727896
 20
121.7912606449
 10
147.6952508623
 20
121.7741464899
 10
147.7031684263
 20
121.7561777347
 10
147.7098472284
 20
121.7375319334
 10
147.715221261
 20
121.7183933092
 10
147.7192373936
 20
121.6989510077
 10
147.7218559155
 20
121.6793972308
 10
147.7230509498
 20
121.6599252341
 10
147.7228106915
 20
121.6407274144
 10
147.7211375148
 20
121.6219934844
  0
LWPOLYLINE
  5
4AC
100
AcDbEntity
  8
0
100
AcDbPolyline
 62
250
  6
CONTINUOUS
 90
10
 70
0
 10
151.0433435225
 20
114.3155069919
 10
151.0601325146
 20
114.2756372231
 10
151.075087252
 20
114.2349985799
 10
151.088085749
 20
114.1938937784
 10
151.0990167534
 20
114.1526445685
 10
151.1077914406
 20
114.1115502891
 10
151.1143373474
 20
114.0708867049
 10
151.1185878008
 20
114.0309570045
 10
151.1204897017
 20
113.9920881321
 10
151.1200100699
 20
113.954589954
  0
LWPOLYLINE
  5
4AD
100
AcDbEntity
  8
0
100
AcDbPolyline
 62
7
  6
CONTINUOUS
 90
7
 70
0
 10
160.1319549669
 20
97.9098298645
 10
160.1313464783
 20
97.8893402994
 10
160.128784907
 20
97.8701876759
 10
160.1243008847
 20
97.8525751403
 10
160.1179564781
 20
97.8367136541
 10
160.1098189076
 20
97.8227366822
 10
160.0999277578
 20
97.8107337712
  0
LINE
  5
4AE
100
AcDbEntity
  8
0
100
AcDbLine
 62
7
  6
CONTINUOUS
 10
162.9029578574
 20
102.3399308613
 11
162.8947559269
 21
102.3185789914
  0
LWPOLYLINE
  5
4AF
100
AcDbEntity
  8
RACCORDO
100
AcDbPolyline
 62
7
  6
CONTINUOUS
 90
10
 70
0
 10
145.6788560412
 20
77.1645234963
 10
145.7087040877
 20
77.1842179292
 10
145.7366609138
 20
77.2079233766
 10
145.7622002955
 20
77.2355497276
 10
145.784773665
 20
77.2668484383
 10
145.8039950322
 20
77.3016333244
 10
145.819608742
 20
77.3399695485
 10
145.8312505612
 20
77.3818429533
 10
145.838489901
 20
77.4269519208
 10
145.8409759954
 20
77.4750468456
  0
LINE
  5
4B0
100
AcDbEntity
  8
RACCORDO
100
AcDbLine
 62
250
  6
CONTINUOUS
 10
145.7823973517
 20
77.3933919269
 11
144.8808362057
 21
76.8728418204
  0
LINE
  5
4B1
100
AcDbEntity
  8
RACCORDO
100
AcDbLine
 62
7
  6
CONTINUOUS
 10
145.6788560412
 20
77.1645234963
 11
144.8808362057
 21
76.7037568449
  0
LWPOLYLINE
  5
4B2
100
AcDbEntity
  8
RACCORDO
100
AcDbPolyline
 62
250
  6
CONTINUOUS
 90
7
 70
0
 10
143.8470924693
 20
124.0028490166
 10
143.8498304686
 20
124.0035977446
 10
143.8525374239
 20
124.0042026541
 10
143.8552089943
 20
124.0046627749
 10
143.8578408963
 20
124.0049773694
 10
143.8604289107
 20
124.0051459332
 10
143.8629688885
 20
124.0051681962
  0
LINE
  5
4B3
100
AcDbEntity
  8
ASSI
100
AcDbLine
 62
7
  6
CONTINUOUS
 10
143.8052459586
 20
124.0331970022
 11
143.7996315109
 21
124.0316640811
  0
LWPOLYLINE
  5
4B4
100
AcDbEntity
  8
ASSI
100
AcDbPolyline
 62
250
  6
CONTINUOUS
 90
13
 70
0
 10
144.3789582414
 20
123.5431920633
 10
144.3746480659
 20
123.5420318326
 10
144.3703173138
 20
123.540752492
 10
144.3659659852
 20
123.5393540414
 10
144.3616162844
 20
123.5378481042
 10
144.3572460071
 20
123.5362230571
 10
144.3527885402
 20
123.5344440297
 10
144.3482366393
 20
123.5325145972
 10
144.3435975488
 20
123.5304311845
 10
144.3388263891
 20
123.5281481959
 10
144.3339082004
 20
123.5256504329
 10
144.3288579426
 20
123.522953094
 10
144.3236756157
 20
123.5200561793
  0
LINE
  5
4B5
100
AcDbEntity
  8
RACCORDO
100
AcDbLine
 62
250
  6
CONTINUOUS
 10
138.4550975189
 20
123.2279472123
 11
138.4057244591
 21
123.2152174669
  0
LINE
  5
4B6
100
AcDbEntity
  8
RACCORDO
100
AcDbLine
 62
250
  6
CONTINUOUS
 10
144.6267552324
 20
123.6066997929
 11
144.3789582414
 21
123.5431920633
  0
LINE
  5
4B7
100
AcDbEntity
  8
RACCORDO
100
AcDbLine
 62
250
  6
CONTINUOUS
 10
143.8040321355
 20
124.0327600025
 11
143.7996319214
 21
124.0316641932
  0
LWPOLYLINE
  5
4B8
100
AcDbEntity
  8
RACCORDO
100
AcDbPolyline
 62
250
  6
CONTINUOUS
 90
8
 70
0
 10
147.1437608555
 20
122.1041326864
 10
147.1500129426
 20
122.1053804473
 10
147.1563512959
 20
122.1061591143
 10
147.1627456409
 20
122.1064649679
 10
147.1691654354
 20
122.1062965471
 10
147.1755800157
 20
122.1056546562
 10
147.181958743
 20
122.1045423612
 10
147.1882711495
 20
122.1029649746
  0
LWPOLYLINE
  5
4B9
100
AcDbEntity
  8
RACCORDO
100
AcDbPolyline
 62
250
  6
CONTINUOUS
 90
8
 70
0
 10
143.8040321355
 20
124.0327600025
 10
143.810267039
 20
124.034002396
 10
143.8165874591
 20
124.0347754612
 10
143.8229632067
 20
124.0350755056
 10
143.8293638285
 20
124.0349010959
 10
143.8357587526
 20
124.0342530653
 10
143.8421174338
 20
124.0331345089
 10
143.8484095005
 20
124.0315507693
  0
LWPOLYLINE
  5
4BA
100
AcDbEntity
  8
ASSI
100
AcDbPolyline
 62
250
  6
CONTINUOUS
 90
3
 70
0
 10
138.4669172485
 20
122.1020901111
 10
138.4748813814
 20
122.103095184
 10
138.4824630208
 20
122.1038119922
  0
LWPOLYLINE
  5
4BB
100
AcDbEntity
  8
RACCORDO
100
AcDbPolyline
 62
250
  6
CONTINUOUS
 90
18
 70
0
 10
147.2645510006
 20
122.1092219485
 10
147.2693608671
 20
122.1096586556
 10
147.2743577098
 20
122.1100818364
 10
147.2795427643
 20
122.1104913038
 10
147.2849368433
 20
122.1108843637
 10
147.2905390532
 20
122.1112613034
 10
147.2963502875
 20
122.1116218356
 10
147.3023940398
 20
122.111962404
 10
147.3086703967
 20
122.1122833887
 10
147.3151792715
 20
122.1125844095
 10
147.3219438985
 20
122.1128607705
 10
147.3289646405
 20
122.1131128748
 10
147.3362411346
 20
122.1133403193
 10
147.3437955258
 20
122.1135371987
 10
147.3516274988
 20
122.1137039562
 10
147.3597373688
 20
122.1138401487
 10
147.3681482269
 20
122.1139385414
 10
147.3768677699
 20
122.113996723
  0
LWPOLYLINE
  5
4BC
100
AcDbEntity
  8
ASSI
100
AcDbPolyline
 62
250
  6
CONTINUOUS
 90
7
 70
0
 10
140.4337464213
 20
122.2085855732
 10
140.476812317
 20
122.2123023591
 10
140.5216182392
 20
122.218816788
 10
140.5681031423
 20
122.228244524
 10
140.6160689082
 20
122.2406719662
 10
140.6655587835
 20
122.2562114323
 10
140.7168696387
 20
122.2750703223
  0
LWPOLYLINE
  5
4BD
100
AcDbEntity
  8
ASSI
100
AcDbPolyline
 62
250
  6
CONTINUOUS
 90
9
 70
0
 10
143.8297327495
 20
120.247785629
 10
143.8643320069
 20
120.250615979
 10
143.8989309322
 20
120.2551438382
 10
143.9334559566
 20
120.2612686698
 10
143.9674436693
 20
120.268794965
 10
144.0012167943
 20
120.2776820303
 10
144.0359228944
 20
120.288224322
 10
144.0716606922
 20
120.3005378271
 10
144.1082747924
 20
120.3146403059
  0
LWPOLYLINE
  5
4BE
100
AcDbEntity
  8
ASSI
100
AcDbPolyline
 62
7
  6
CONTINUOUS
 90
7
 70
0
 10
138.4189656008
 20
122.1214666306
 10
138.4024748627
 20
122.1201694774
 10
138.3656481192
 20
122.1144208655
 10
138.3274287862
 20
122.1043722261
 10
138.2895935451
 20
122.0903674461
 10
138.2527121676
 20
122.072803151
 10
138.2429403221
 20
122.0674923423
  0
LINE
  5
4BF
100
AcDbEntity
  8
ASSI
100
AcDbLine
 62
250
  6
CONTINUOUS
 10
138.4824630208
 20
122.1038119922
 11
138.4896667494
 21
122.1042693421
  0
LWPOLYLINE
  5
4C0
100
AcDbEntity
  8
ASSI
100
AcDbPolyline
 62
250
  6
CONTINUOUS
 90
16
 70
0
 10
142.3052545892
 20
119.7012643471
 10
142.298103946
 20
119.7008530168
 10
142.291100908
 20
119.7001596747
 10
142.2842454751
 20
119.6991843209
 10
142.2775293957
 20
119.6978993172
 10
142.2709609215
 20
119.6963323017
 10
142.2645648079
 20
119.6945661887
 10
142.2583432666
 20
119.6926040137
 10
142.2522940859
 20
119.6904427412
 10
142.2464353866
 20
119.6881561788
 10
142.2407689065
 20
119.6857469362
 10
142.2352929078
 20
119.6832124036
 10
142.2300202979
 20
119.6806185594
 10
142.2249553795
 20
119.6779873964
 10
142.2200938499
 20
119.6752969217
 10
142.2154357093
 20
119.6725471355
  0
LWPOLYLINE
  5
4C1
100
AcDbEntity
  8
ASSI
100
AcDbPolyline
 62
250
  6
CONTINUOUS
 90
16
 70
0
 10
142.2216919459
 20
119.9494447669
 10
142.2099141689
 20
119.9487840483
 10
142.1983147864
 20
119.9475647127
 10
142.1869218612
 20
119.9458365357
 10
142.1757665751
 20
119.9436480921
 10
142.164866299
 20
119.9410473447
 10
142.1542243412
 20
119.9380798359
 10
142.1438562212
 20
119.9347880903
 10
142.133780653
 20
119.9312144836
 10
142.1240022787
 20
119.9274001585
 10
142.1145314254
 20
119.9233826396
 10
142.105380827
 20
119.9191992492
 10
142.0965561864
 20
119.9148880451
 10
142.0880641139
 20
119.9104835856
 10
142.0799122339
 20
119.906016829
 10
142.0721058182
 20
119.9015180769
  0
LINE
  5
4C2
100
AcDbEntity
  8
ASSI
100
AcDbLine
 62
250
  6
CONTINUOUS
 10
142.3236300173
 20
120.1658554532
 11
143.8297327495
 21
120.247785629
  0
LINE
  5
4C3
100
AcDbEntity
  8
ASSI
100
AcDbLine
 62
7
  6
CONTINUOUS
 10
142.2525661263
 20
120.1830323259
 11
143.7591018044
 21
120.2649868275
  0
LINE
  5
4C4
100
AcDbEntity
  8
ASSI
100
AcDbLine
 62
250
  6
CONTINUOUS
 10
138.4896667494
 20
122.1042693421
 11
140.4337835728
 21
122.2085641224
  0
LINE
  5
4C5
100
AcDbEntity
  8
ASSI
100
AcDbLine
 62
7
  6
CONTINUOUS
 10
138.4189656007
 20
122.1214666306
 11
140.3632974772
 21
122.225773148
  0
LWPOLYLINE
  5
4C6
100
AcDbEntity
  8
ASSI
100
AcDbPolyline
 62
250
  6
CONTINUOUS
 90
16
 70
0
 10
139.2809548646
 20
121.9226579527
 10
139.243772505
 20
121.9207832005
 10
139.2100664647
 20
121.9175960772
 10
139.1798367438
 20
121.9130965828
 10
139.1531646004
 20
121.9072448143
 10
139.1299687764
 20
121.9000806747
 10
139.1100054971
 20
121.8917238731
 10
139.0931431473
 20
121.8822587469
 10
139.0795133422
 20
121.8716009588
 10
139.0692671528
 20
121.8596172051
 10
139.0622714676
 20
121.8462094503
 10
139.0586593981
 20
121.83147573
 10
139.0589813498
 20
121.8155768474
 10
139.0634207914
 20
121.7985664036
 10
139.0717942543
 20
121.7803907976
 10
139.0841017385
 20
121.7610500294
  0
LWPOLYLINE
  5
4C7
100
AcDbEntity
  8
ASSI
100
AcDbPolyline
 62
7
  6
CONTINUOUS
 90
17
 70
0
 10
142.2525661262
 20
120.1830323259
 10
142.2356237626
 20
120.1823552627
 10
142.2045897592
 20
120.1821546454
 10
142.1704059437
 20
120.1832077875
 10
142.133500657
 20
120.1855850922
 10
142.0944321198
 20
120.1892978123
 10
142.053475489
 20
120.1943420975
 10
142.0108398723
 20
120.2007188767
 10
141.9668689885
 20
120.2084011466
 10
141.9218471839
 20
120.217351991
 10
141.8760226538
 20
120.2275367109
 10
141.8296570422
 20
120.2389130832
 10
141.7830489727
 20
120.2514182631
 10
141.7364812981
 20
120.2649861542
 10
141.690230311
 20
120.2795496834
 10
141.6446572014
 20
120.2950021571
 10
141.6347317526
 20
120.2985179378
  0
LINE
  5
4C8
100
AcDbEntity
  8
ASSI
100
AcDbLine
 62
250
  6
CONTINUOUS
 10
142.2813536472
 20
120.1647886205
 11
142.3236300173
 21
120.1658554532
  0
LINE
  5
4C9
100
AcDbEntity
  8
ASSI
100
AcDbLine
 62
250
  6
CONTINUOUS
 10
144.0231889116
 20
119.7441096326
 11
142.3052545892
 21
119.7012643471
  0
LINE
  5
4CA
100
AcDbEntity
  8
ASSI
100
AcDbLine
 62
250
  6
CONTINUOUS
 10
144.2584635223
 20
120.0002418541
 11
142.2216919459
 21
119.9494447669
  0
LINE
  5
4CB
100
AcDbEntity
  8
ASSI
100
AcDbLine
 62
250
  6
CONTINUOUS
 10
140.9439746409
 20
121.7055199509
 11
139.3624151601
 21
121.6671575561
  0
LINE
  5
4CC
100
AcDbEntity
  8
ASSI
100
AcDbLine
 62
250
  6
CONTINUOUS
 10
140.8625143455
 20
121.9610203475
 11
139.2809548646
 21
121.9226579527
  0
LWPOLYLINE
  5
4CD
100
AcDbEntity
  8
ASSI
100
AcDbPolyline
 62
250
  6
CONTINUOUS
 90
6
 70
0
 10
140.3634378846
 20
122.2257805988
 10
140.3728996382
 20
122.2259082028
 10
140.3884818225
 20
122.2245131117
 10
140.4039242065
 20
122.2211324224
 10
140.4190709696
 20
122.2157985314
 10
140.4337702023
 20
122.2085634052
  0
LWPOLYLINE
  5
4CE
100
AcDbEntity
  8
RACCORDO
100
AcDbPolyline
 62
7
  6
CONTINUOUS
 90
11
 70
0
 10
147.3536789003
 20
122.1227446501
 10
147.3273609279
 20
122.1225732422
 10
147.3021678966
 20
122.12205783
 10
147.2780287444
 20
122.121198865
 10
147.2547468214
 20
122.1199762218
 10
147.2323983748
 20
122.1183646273
 10
147.2109772434
 20
122.1163170772
 10
147.1901070784
 20
122.1137067397
 10
147.1696407831
 20
122.1103258246
 10
147.1497725417
 20
122.1059092593
 10
147.1455605906
 20
122.1047798925
  0
LWPOLYLINE
  5
4CF
100
AcDbEntity
  8
ASSI
100
AcDbPolyline
 62
250
  6
CONTINUOUS
 90
5
 70
0
 10
142.2529990725
 20
120.1830566517
 10
142.2657399897
 20
120.1830821734
 10
142.28548878
 20
120.1804814735
 10
142.3048895314
 20
120.1747082629
 10
142.3236300173
 20
120.1658554532
  0
LWPOLYLINE
  5
4D0
100
AcDbEntity
  8
ASSI
100
AcDbPolyline
 62
250
  6
CONTINUOUS
 90
5
 70
0
 10
143.759242065
 20
120.2649943763
 10
143.7718439676
 20
120.2650122866
 10
143.7915923998
 20
120.2624114593
 10
143.8109927277
 20
120.2566382607
 10
143.8297327495
 20
120.247785629
  0
LINE
  5
4D1
100
AcDbEntity
  8
RACCORDO
100
AcDbLine
 62
250
  6
CONTINUOUS
 10
147.3768677699
 20
122.113996723
 11
147.39520982
 21
122.1139996872
  0
LWPOLYLINE
  5
4D2
100
AcDbEntity
  8
ASSI
100
AcDbPolyline
 62
250
  6
CONTINUOUS
 90
5
 70
0
 10
138.4191856352
 20
122.1214786349
 10
138.4333468771
 20
122.1214126132
 10
138.4525625925
 20
122.1186779183
 10
138.4714319968
 20
122.1129342385
 10
138.4896667494
 20
122.1042693421
  0
LINE
  5
4D3
100
AcDbEntity
  8
RACCORDO
100
AcDbLine
 62
250
  6
CONTINUOUS
 10
147.39520982
 20
122.1139996872
 11
148.3724865177
 21
122.109392189
  0
LINE
  5
4D4
100
AcDbEntity
  8
RACCORDO
100
AcDbLine
 62
7
  6
CONTINUOUS
 10
147.3536789003
 20
122.1227446501
 11
148.3404548717
 21
122.1181140176
  0
LWPOLYLINE
  5
4D5
100
AcDbEntity
  8
ASSI
100
AcDbPolyline
 62
250
  6
CONTINUOUS
 90
6
 70
0
 10
139.2689630527
 20
121.6804306308
 10
139.251905876
 20
121.6808878277
 10
139.2371202441
 20
121.6801798063
 10
139.2246708492
 20
121.6784430619
 10
139.2145611317
 20
121.675730636
 10
139.2070795949
 20
121.6719478297
  0
LINE
  5
4D6
100
AcDbEntity
  8
RACCORDO
100
AcDbLine
 62
250
  6
CONTINUOUS
 10
148.9983642616
 20
121.6465142705
 11
147.9544584663
 21
121.6833616755
  0
LWPOLYLINE
  5
4D7
100
AcDbEntity
  8
ASSI
100
AcDbPolyline
 62
250
  6
CONTINUOUS
 90
3
 70
0
 10
142.192699073
 20
120.1675777745
 10
142.237709999
 20
120.1653627276
 10
142.2813536472
 20
120.1647886205
  0
LWPOLYLINE
  5
4D8
100
AcDbEntity
  8
ASSI
100
AcDbPolyline
 62
7
  6
CONTINUOUS
 90
10
 70
0
 10
146.3489808942
 20
119.5060922453
 10
146.3274671612
 20
119.5073383172
 10
146.3063365597
 20
119.5073492161
 10
146.2855890898
 20
119.5061249421
 10
146.2649874837
 20
119.5036160035
 10
146.2447690092
 20
119.4998718919
 10
146.2256454694
 20
119.4950410822
 10
146.207854132
 20
119.4891730658
 10
146.1911577292
 20
119.4822183512
 10
146.1755562612
 20
119.4741769384
  0
LWPOLYLINE
  5
4D9
100
AcDbEntity
  8
RACCORDO
100
AcDbPolyline
 62
250
  6
CONTINUOUS
 90
10
 70
0
 10
150.8010395826
 20
118.6391663916
 10
150.8060396234
 20
118.6388733054
 10
150.8109641695
 20
118.6384467523
 10
150.8158132211
 20
118.6378867326
 10
150.8205886475
 20
118.6371925509
 10
150.8252885793
 20
118.6363649024
 10
150.8299074083
 20
118.6354058732
 10
150.8344432651
 20
118.6343161584
 10
150.838898019
 20
118.6330950629
 10
150.8432716701
 20
118.6317425866
  0
LWPOLYLINE
  5
4DA
100
AcDbEntity
  8
ASSI
100
AcDbPolyline
 62
250
  6
CONTINUOUS
 90
24
 70
0
 10
146.3467395674
 20
120.907128783
 10
146.3745849672
 20
120.9039286405
 10
146.4025856471
 20
120.9022789364
 10
146.4309979631
 20
120.9021916626
 10
146.4595655591
 20
120.9036548272
 10
146.4875193674
 20
120.9066324546
 10
146.5148378083
 20
120.9111638678
 10
146.5415424614
 20
120.9172097438
 10
146.5669289979
 20
120.9246161385
 10
146.5909703825
 20
120.9334221427
 10
146.6136936504
 20
120.9435886657
 10
146.6344755778
 20
120.9548444913
 10
146.6532620342
 20
120.9672226405
 10
146.6701071501
 20
120.9806900923
 10
146.6845500934
 20
120.9948765676
 10
146.6965196806
 20
121.0097984044
 10
146.7060870953
 20
121.0254392648
 10
146.7130050562
 20
121.0413798562
 10
146.7172029088
 20
121.057627192
 10
146.7187513077
 20
121.0741742588
 10
146.7176149352
 20
121.0905807237
 10
146.7137820188
 20
121.1066998091
 10
146.7072643311
 20
121.1226782926
 10
146.698061872
 20
121.1385161742
  0
LWPOLYLINE
  5
4DB
100
AcDbEntity
  8
ASSI
100
AcDbPolyline
 62
250
  6
CONTINUOUS
 90
16
 70
0
 10
142.0790402833
 20
119.5909851278
 10
142.0652772108
 20
119.5926479773
 10
142.0501433801
 20
119.5949880645
 10
142.0337988988
 20
119.5979806332
 10
142.0164163542
 20
119.601594096
 10
141.9981799415
 20
119.6057901741
 10
141.9792836571
 20
119.6105241987
 10
141.9599282211
 20
119.6157458021
 10
141.9403177171
 20
119.6213998475
 10
141.920658451
 20
119.627426825
 10
141.9011506471
 20
119.6337655664
 10
141.8820085927
 20
119.6403466591
 10
141.863455566
 20
119.6470927167
 10
141.8456917999
 20
119.6539294329
 10
141.8288942697
 20
119.6607871338
 10
141.8132359051
 20
119.6675938076
  0
LWPOLYLINE
  5
4DC
100
AcDbEntity
  8
ASSI
100
AcDbPolyline
 62
250
  6
CONTINUOUS
 90
13
 70
0
 10
141.8076552892
 20
118.7173552866
 10
141.7902456261
 20
118.7195384033
 10
141.770758694
 20
118.7227689563
 10
141.7495159606
 20
118.7269936531
 10
141.7268678588
 20
118.732142801
 10
141.7031880067
 20
118.7381314569
 10
141.678867044
 20
118.7448608281
 10
141.6543061859
 20
118.7522199027
 10
141.6299106061
 20
118.7600872804
 10
141.6060827539
 20
118.768333175
 10
141.5832157117
 20
118.7768215562
 10
141.5616867111
 20
118.7854123935
 10
141.541850911
 20
118.7939639664
  0
LWPOLYLINE
  5
4DD
100
AcDbEntity
  8
ASSI
100
AcDbPolyline
 62
250
  6
CONTINUOUS
 90
4
 70
0
 10
141.6347020987
 20
120.2985281649
 10
141.6340887869
 20
120.2986145455
 10
141.6311652463
 20
120.2970847103
 10
141.627256957
 20
120.2926640795
  0
LWPOLYLINE
  5
4DE
100
AcDbEntity
  8
ASSI
100
AcDbPolyline
 62
250
  6
CONTINUOUS
 90
24
 70
0
 10
146.2525687829
 20
120.639674986
 10
146.292999545
 20
120.6325403935
 10
146.3343296571
 20
120.6274033803
 10
146.3762636368
 20
120.6243006737
 10
146.4185016844
 20
120.6232544569
 10
146.4607418251
 20
120.6242722109
 10
146.5026820677
 20
120.6273466602
 10
146.5440225721
 20
120.6324558261
 10
146.5844677745
 20
120.639563182
 10
146.6237285009
 20
120.6486179112
 10
146.6615240528
 20
120.659555273
 10
146.6975842303
 20
120.6722970733
 10
146.7316512436
 20
120.6867522219
 10
146.7634815365
 20
120.7028173754
 10
146.7928475407
 20
120.7203776788
 10
146.8195393155
 20
120.739307594
 10
146.8433660387
 20
120.7594717961
 10
146.8641573472
 20
120.7807261168
 10
146.8817645742
 20
120.8029185773
 10
146.8960618401
 20
120.8258905037
 10
146.906946944
 20
120.84947767
 10
146.9143420728
 20
120.873511448
 10
146.9181943582
 20
120.8978199801
 10
146.9187934547
 20
120.9119481413
  0
LWPOLYLINE
  5
4DF
100
AcDbEntity
  8
ASSI
100
AcDbPolyline
 62
250
  6
CONTINUOUS
 90
27
 70
0
 10
144.3495828657
 20
119.8076159472
 10
144.3420782773
 20
119.8090485861
 10
144.3346126879
 20
119.8102719803
 10
144.3271894724
 20
119.8112858828
 10
144.3198611326
 20
119.8120828765
 10
144.3125804532
 20
119.812670098
 10
144.3052002536
 20
119.8130692286
 10
144.2976868625
 20
119.8132908912
 10
144.2900759967
 20
119.8133244055
 10
144.2823237701
 20
119.8131595307
 10
144.2744309054
 20
119.8127988866
 10
144.2663963824
 20
119.8122398596
 10
144.2581730085
 20
119.8114643762
 10
144.2497536605
 20
119.8104725107
 10
144.2411422164
 20
119.8092642957
 10
144.2323069566
 20
119.8078216502
 10
144.2232385032
 20
119.8061412502
 10
144.2139392436
 20
119.804226877
 10
144.2043938765
 20
119.8020712624
 10
144.1945959093
 20
119.7996699478
 10
144.1845408285
 20
119.7970287195
 10
144.1742154276
 20
119.7941559675
 10
144.1636167426
 20
119.7910487977
 10
144.1527335079
 20
119.7877129879
 10
144.1415401274
 20
119.7841703073
 10
144.1300385496
 20
119.7804222912
 10
144.106003465
 20
119.7723457214
  0
LWPOLYLINE
  5
4E0
100
AcDbEntity
  8
ASSI
100
AcDbPolyline
 62
250
  6
CONTINUOUS
 90
5
 70
0
 10
139.3624151601
 20
121.6671575561
 10
139.3352760756
 20
121.6724676982
 10
139.3106302885
 20
121.6763485137
 10
139.2884994426
 20
121.6789345218
 10
139.2689630527
 20
121.6804306308
  0
LWPOLYLINE
  5
4E1
100
AcDbEntity
  8
ASSI
100
AcDbPolyline
 62
250
  6
CONTINUOUS
 90
21
 70
0
 10
144.3648124347
 20
119.6608229183
 10
144.3613170366
 20
119.661550204
 10
144.357845849
 20
119.6620083433
 10
144.3544229039
 20
119.6622152462
 10
144.3510326448
 20
119.6621727329
 10
144.3476100975
 20
119.661863058
 10
144.3441233366
 20
119.6613021274
 10
144.3405884665
 20
119.660486346
 10
144.336997943
 20
119.6593668888
 10
144.3333328009
 20
119.6579605169
 10
144.3295836889
 20
119.6562669845
 10
144.3257442892
 20
119.654215621
 10
144.3217821797
 20
119.6518255344
 10
144.317681289
 20
119.6491014039
 10
144.3134417814
 20
119.6459577386
 10
144.3090173454
 20
119.6424166827
 10
144.3043784609
 20
119.6384924025
 10
144.2995272324
 20
119.6340973296
 10
144.2944008728
 20
119.6292594037
 10
144.2889507441
 20
119.6240043845
 10
144.2769748249
 20
119.6120402719
  0
LINE
  5
4E2
100
AcDbEntity
  8
ASSI
100
AcDbLine
 62
250
  6
CONTINUOUS
 10
141.5843857403
 20
120.3043419543
 11
141.6272569568
 21
120.2926640796
  0
LWPOLYLINE
  5
4E3
100
AcDbEntity
  8
ASSI
100
AcDbPolyline
 62
250
  6
CONTINUOUS
 90
3
 70
0
 10
141.4617056329
 20
120.3373616672
 10
141.5016246556
 20
120.326128126
 10
141.5843857403
 20
120.3043419543
  0
LINE
  5
4E4
100
AcDbEntity
  8
ASSI
100
AcDbLine
 62
250
  6
CONTINUOUS
 10
144.3683277507
 20
119.6598169139
 11
144.3648124347
 21
119.6608229183
  0
LWPOLYLINE
  5
4E5
100
AcDbEntity
  8
ASSI
100
AcDbPolyline
 62
250
  6
CONTINUOUS
 90
11
 70
0
 10
141.7167342924
 20
120.2626828298
 10
141.7625224171
 20
120.2488650324
 10
141.8091020662
 20
120.2357665006
 10
141.8563813532
 20
120.2234498537
 10
141.9040846187
 20
120.2121029498
 10
141.9523406197
 20
120.2016841146
 10
142.0010205992
 20
120.1922350223
 10
142.0494626273
 20
120.184068554
 10
142.0978225028
 20
120.1771695649
 10
142.1459444269
 20
120.1715531998
 10
142.192699073
 20
120.1675777745
  0
LINE
  5
4E6
100
AcDbEntity
  8
SUPERFICI
100
AcDbLine
 62
7
  6
CONTINUOUS
 10
134.5501190485
 20
121.2410810532
 11
134.0481461112
 21
121.4034426744
  0
LINE
  5
4E7
100
AcDbEntity
  8
ASSI
100
AcDbLine
 62
250
  6
CONTINUOUS
 10
141.6716458056
 20
120.2772825122
 11
141.7167342924
 21
120.2626828298
  0
LWPOLYLINE
  5
4E8
100
AcDbEntity
  8
ASSI
100
AcDbPolyline
 62
250
  6
CONTINUOUS
 90
3
 70
0
 10
141.3870822121
 20
120.3616629562
 10
141.4231431829
 20
120.3492484114
 10
141.4617056329
 20
120.3373616672
  0
LINE
  5
4E9
100
AcDbEntity
  8
ASSI
100
AcDbLine
 62
7
  6
CONTINUOUS
 10
141.6347317526
 20
120.2985179378
 11
141.6347020987
 21
120.2985281649
  0
LINE
  5
4EA
100
AcDbEntity
  8
ASSI
100
AcDbLine
 62
250
  6
CONTINUOUS
 10
141.6272569568
 20
120.2926640796
 11
141.6716458056
 21
120.2772825122
  0
LINE
  5
4EB
100
AcDbEntity
  8
ASSI
100
AcDbLine
 62
7
  6
CONTINUOUS
 10
141.6347020993
 20
120.2985281647
 11
141.5682852009
 21
120.3218224338
  0
LWPOLYLINE
  5
4EC
100
AcDbEntity
  8
ASSI
100
AcDbPolyline
 62
7
  6
CONTINUOUS
 90
8
 70
0
 10
141.5682852009
 20
120.3218224338
 10
141.5335559139
 20
120.3341254969
 10
141.5008505531
 20
120.346221069
 10
141.4702855126
 20
120.3582352074
 10
141.4417831897
 20
120.3703314344
 10
141.4157095548
 20
120.3824372083
 10
141.3921364265
 20
120.3944512583
 10
141.3753576481
 20
120.4037658119
  0
LWPOLYLINE
  5
4ED
100
AcDbEntity
  8
ASSI
100
AcDbPolyline
 62
250
  6
CONTINUOUS
 90
8
 70
0
 10
134.1092338733
 20
122.9362065658
 10
134.0979492915
 20
122.9404575659
 10
134.0857612549
 20
122.9427823463
 10
134.0728003525
 20
122.9431559855
 10
134.0592054711
 20
122.9415744737
 10
134.0451222794
 20
122.9380547573
 10
134.0307016633
 20
122.9326345466
 10
134.0160981314
 20
122.925371915
  0
LWPOLYLINE
  5
4EE
100
AcDbEntity
  8
RACCORDO
100
AcDbPolyline
 62
250
  6
CONTINUOUS
 90
7
 70
0
 10
148.308430089
 20
117.8000803571
 10
148.2957362472
 20
117.8057279069
 10
148.2806374298
 20
117.8089364549
 10
148.2643315774
 20
117.809097836
 10
148.2470915405
 20
117.8062093268
 10
148.2292057829
 20
117.8003192364
 10
148.2109735883
 20
117.7915261004
  0
LWPOLYLINE
  5
4EF
100
AcDbEntity
  8
RACCORDO
100
AcDbPolyline
 62
250
  6
CONTINUOUS
 90
8
 70
0
 10
144.7153073909
 20
117.7150118324
 10
144.7057973341
 20
117.7194421039
 10
144.6965138579
 20
117.7224430105
 10
144.6876152905
 20
117.7239630939
 10
144.6792533946
 20
117.7239761462
 10
144.6715709342
 20
117.7224817611
 10
144.6646992317
 20
117.719505357
 10
144.6626403426
 20
117.7182129415
  0
LWPOLYLINE
  5
4F0
100
AcDbEntity
  8
ASSI
100
AcDbPolyline
 62
250
  6
CONTINUOUS
 90
7
 70
0
 10
141.3752745848
 20
120.4038138514
 10
141.3680735931
 20
120.407411748
 10
141.3552551667
 20
120.4114614069
 10
141.3413862866
 20
120.4131359506
 10
141.3266490885
 20
120.41241338
 10
141.3112371184
 20
120.4093031768
 10
141.2953527825
 20
120.4038461804
  0
LWPOLYLINE
  5
4F1
100
AcDbEntity
  8
ASSI
100
AcDbPolyline
 62
250
  6
CONTINUOUS
 90
7
 70
0
 10
139.2974946114
 20
121.6034979659
 10
139.2903046614
 20
121.6070894722
 10
139.2774862028
 20
121.6111391218
 10
139.2636172937
 20
121.6128136609
 10
139.2488800752
 20
121.6120910977
 10
139.2334680919
 20
121.6089809218
 10
139.2175837502
 20
121.6035239791
  0
LWPOLYLINE
  5
4F2
100
AcDbEntity
  8
ASSI
100
AcDbPolyline
 62
250
  6
CONTINUOUS
 90
4
 70
0
 10
141.2953524085
 20
120.4038463964
 10
141.3233463849
 20
120.3887456375
 10
141.3539274754
 20
120.3747192833
 10
141.3870822121
 20
120.3616629562
  0
LWPOLYLINE
  5
4F3
100
AcDbEntity
  8
RACCORDO
100
AcDbPolyline
 62
7
  6
CONTINUOUS
 90
13
 70
0
 10
139.1075924768
 20
123.1125287548
 10
139.0450041048
 20
123.146405011
 10
138.9750578733
 20
123.1789559981
 10
138.9054827972
 20
123.20576556
 10
138.8363965285
 20
123.2268136011
 10
138.7680943838
 20
123.2420430411
 10
138.7010857611
 20
123.2513972302
 10
138.635525768
 20
123.2549405186
 10
138.5716838504
 20
123.2527379845
 10
138.5102678584
 20
123.2449505647
 10
138.4516764381
 20
123.2318801299
 10
138.3959865578
 20
123.2138092466
 10
138.3696140973
 20
123.20313104
  0
LWPOLYLINE
  5
4F4
100
AcDbEntity
  8
RACCORDO
100
AcDbPolyline
 62
250
  6
CONTINUOUS
 90
11
 70
0
 10
139.0100506956
 20
123.104023664
 10
138.9519500544
 20
123.135651477
 10
138.893946164
 20
123.1632614916
 10
138.8362403534
 20
123.1867365382
 10
138.7790937112
 20
123.2059546716
 10
138.7226478502
 20
123.2208543167
 10
138.6669330432
 20
123.231388336
 10
138.6121665662
 20
123.2374541191
 10
138.5585554367
 20
123.2389659731
 10
138.5061399948
 20
123.2358350503
 10
138.4550975189
 20
123.2279472123
  0
LINE
  5
4F5
100
AcDbEntity
  8
RACCORDO
100
AcDbLine
 62
250
  6
CONTINUOUS
 10
144.7153073235
 20
117.7150117864
 11
145.3016962263
 21
117.3764381831
  0
LINE
  5
4F6
100
AcDbEntity
  8
0
100
AcDbLine
 62
250
  6
CONTINUOUS
 10
149.3596486921
 20
115.1378680467
 11
149.294729088
 21
115.1753518125
  0
LINE
  5
4F7
100
AcDbEntity
  8
RACCORDO
100
AcDbLine
 62
250
  6
CONTINUOUS
 10
144.8459217195
 20
117.7985132348
 11
145.4318166887
 21
117.4602248226
  0
LINE
  5
4F8
100
AcDbEntity
  8
ASSI
100
AcDbLine
 62
250
  6
CONTINUOUS
 10
138.0766817113
 20
121.8250333691
 11
141.8132359051
 21
119.6675938076
  0
LINE
  5
4F9
100
AcDbEntity
  8
ASSI
100
AcDbLine
 62
250
  6
CONTINUOUS
 10
138.1991561984
 20
121.9773956307
 11
141.9357103922
 21
119.8199560692
  0
LINE
  5
4FA
100
AcDbEntity
  8
ASSI
100
AcDbLine
 62
250
  6
CONTINUOUS
 10
142.0721058182
 20
119.9015180769
 11
138.3404166384
 21
122.0561486402
  0
LINE
  5
4FB
100
AcDbEntity
  8
ASSI
100
AcDbLine
 62
250
  6
CONTINUOUS
 10
139.2175837502
 20
121.6035239791
 11
141.2953524085
 21
120.4038463964
  0
LINE
  5
4FC
100
AcDbEntity
  8
ASSI
100
AcDbLine
 62
7
  6
CONTINUOUS
 10
139.297505767
 20
121.6034915262
 11
141.3752745848
 21
120.4038138514
  0
LINE
  5
4FD
100
AcDbEntity
  8
ASSI
100
AcDbLine
 62
250
  6
CONTINUOUS
 10
142.2216919459
 20
119.9494447669
 11
141.6272569568
 21
120.2926640796
  0
LINE
  5
4FE
100
AcDbEntity
  8
ASSI
100
AcDbLine
 62
250
  6
CONTINUOUS
 10
139.0841017385
 20
121.7610500294
 11
138.4896667494
 21
122.1042693421
  0
LINE
  5
4FF
100
AcDbEntity
  8
0
100
AcDbLine
 62
250
  6
CONTINUOUS
 10
149.6297782857
 20
115.7764814035
 11
149.6946985279
 21
115.738997289
  0
LINE
  5
500
100
AcDbEntity
  8
ASSI
100
AcDbLine
 62
7
  6
CONTINUOUS
 10
138.224707808
 20
122.6721429903
 11
139.1138794541
 21
122.1587464257
  0
LINE
  5
501
100
AcDbEntity
  8
ASSI
100
AcDbLine
 62
7
  6
CONTINUOUS
 10
144.967682816
 20
118.77883373
 11
147.4357452725
 21
117.3538053997
  0
LINE
  5
502
100
AcDbEntity
  8
ASSI
100
AcDbLine
 62
250
  6
CONTINUOUS
 10
144.2584635223
 20
120.0002418541
 11
143.8297327495
 21
120.247785629
  0
LINE
  5
503
100
AcDbEntity
  8
ASSI
100
AcDbLine
 62
250
  6
CONTINUOUS
 10
140.8625143455
 20
121.9610203475
 11
140.4337835728
 21
122.2085641224
  0
LINE
  5
504
100
AcDbEntity
  8
RACCORDO
100
AcDbLine
 62
250
  6
CONTINUOUS
 10
140.1078812143
 20
122.4701500815
 11
139.0100506956
 21
123.104023664
  0
LINE
  5
505
100
AcDbEntity
  8
RACCORDO
100
AcDbLine
 62
250
  6
CONTINUOUS
 10
147.1131430707
 20
118.4253996822
 11
148.2109735894
 21
117.7915260997
  0
LINE
  5
506
100
AcDbEntity
  8
RACCORDO
100
AcDbLine
 62
7
  6
CONTINUOUS
 10
140.0954960267
 20
122.5421256267
 11
139.1075873863
 21
123.1125316942
  0
LINE
  5
507
100
AcDbEntity
  8
0
100
AcDbLine
 62
7
  6
CONTINUOUS
 10
153.224911603
 20
115.2066262648
 11
152.53517144
 21
115.6048735904
  0
LINE
  5
508
100
AcDbEntity
  8
ASSI
100
AcDbLine
 62
250
  6
CONTINUOUS
 10
144.7076699277
 20
120.1437632417
 11
144.2720846459
 21
120.3952647243
  0
LINE
  5
509
100
AcDbEntity
  8
ASSI
100
AcDbLine
 62
250
  6
CONTINUOUS
 10
141.3166711653
 20
122.1016834279
 11
140.8810858835
 21
122.3531849105
  0
LINE
  5
50A
100
AcDbEntity
  8
0
100
AcDbLine
 62
7
  6
CONTINUOUS
 10
151.4564406119
 20
117.0644908544
 11
151.6642367519
 21
116.9445119238
  0
LINE
  5
50B
100
AcDbEntity
  8
0
100
AcDbLine
 62
7
  6
CONTINUOUS
 10
140.0773346728
 20
123.6346439979
 11
140.2851418097
 21
123.51465881
  0
LWPOLYLINE
  5
50C
100
AcDbEntity
  8
ASSI
100
AcDbPolyline
 62
7
  6
CONTINUOUS
 90
11
 70
0
 10
139.2974946112
 20
121.603497966
 10
139.2759046419
 20
121.6166597436
 10
139.2579157904
 20
121.6288188556
 10
139.2424910515
 20
121.6403082375
 10
139.2291943762
 20
121.6512006444
 10
139.2179004488
 20
121.6613083368
 10
139.2084649816
 20
121.6704853619
 10
139.2005038213
 20
121.6788894713
 10
139.1938243497
 20
121.6865165564
 10
139.1884823382
 20
121.693083145
 10
139.1850553493
 20
121.6975792843
  0
LWPOLYLINE
  5
50D
100
AcDbEntity
  8
RACCORDO
100
AcDbPolyline
 62
250
  6
CONTINUOUS
 90
3
 70
0
 10
148.2109735894
 20
117.7915260997
 10
148.2691631016
 20
117.7560105468
 10
148.3271447777
 20
117.7166668273
  0
LWPOLYLINE
  5
50E
100
AcDbEntity
  8
0
100
AcDbPolyline
 62
250
  6
CONTINUOUS
 90
10
 70
0
 10
149.6946985279
 20
115.738997289
 10
149.7097275701
 20
115.7295518868
 10
149.7247777742
 20
115.7193656299
 10
149.7398206898
 20
115.7084556548
 10
149.7548301803
 20
115.696838614
 10
149.769775132
 20
115.6845362757
 10
149.7846196603
 20
115.6715765733
 10
149.7993329714
 20
115.6579854991
 10
149.8138892649
 20
115.6437859855
 10
149.8282605492
 20
115.6290042416
  0
LWPOLYLINE
  5
50F
100
AcDbEntity
  8
0
100
AcDbPolyline
 62
7
  6
CONTINUOUS
 90
10
 70
0
 10
151.6642367519
 20
116.9445119243
 10
151.695387064
 20
116.9248795592
 10
151.7258464697
 20
116.9026635876
 10
151.7556149689
 20
116.8778640094
 10
151.7849082207
 20
116.8502531712
 10
151.8135105661
 20
116.8200587264
 10
151.8407750281
 20
116.787963635
 10
151.8664859478
 20
116.7541955506
 10
151.8908589841
 20
116.7185268196
 10
151.913894137
 20
116.6809574421
  0
LINE
  5
510
100
AcDbEntity
  8
ASSI
100
AcDbLine
 62
250
  6
CONTINUOUS
 10
139.1901289931
 20
121.6209587155
 11
139.2175837502
 21
121.6035239791
  0
LWPOLYLINE
  5
511
100
AcDbEntity
  8
0
100
AcDbPolyline
 62
250
  6
CONTINUOUS
 90
9
 70
0
 10
149.294729088
 20
115.1753518125
 10
149.2607454868
 20
115.1970720574
 10
149.2307645853
 20
115.2206510775
 10
149.2050858277
 20
115.2458432679
 10
149.1839663214
 20
115.2723833353
 10
149.1676087547
 20
115.300000717
 10
149.1561666122
 20
115.3284238502
 10
149.1497533407
 20
115.3573615402
 10
149.1482826058
 20
115.3792831548
  0
LWPOLYLINE
  5
512
100
AcDbEntity
  8
0
100
AcDbPolyline
 62
7
  6
CONTINUOUS
 90
13
 70
0
 10
140.2851417437
 20
123.5146587733
 10
140.322534496
 20
123.4907009547
 10
140.3588021469
 20
123.4631583412
 10
140.3939446967
 20
123.4320309329
 10
140.4283343075
 20
123.3969084378
 10
140.4615988171
 20
123.3582011479
 10
140.4926217383
 20
123.3171399387
 10
140.521339268
 20
123.2735969112
 10
140.5478152093
 20
123.2276999644
 10
140.5711244853
 20
123.1810636711
 10
140.5911229892
 20
123.1337006491
 10
140.6079548276
 20
123.0855982805
 10
140.6098103466
 20
123.0789403452
  0
LWPOLYLINE
  5
513
100
AcDbEntity
  8
RACCORDO
100
AcDbPolyline
 62
250
  6
CONTINUOUS
 90
13
 70
0
 10
142.0211706241
 20
121.6554782791
 10
142.0051081404
 20
121.6659275727
 10
141.9893024997
 20
121.6785597565
 10
141.9740064356
 20
121.6931728411
 10
141.9594645336
 20
121.7095331623
 10
141.9459093199
 20
121.7273791174
 10
141.933557543
 20
121.746425348
 10
141.922606709
 20
121.7663673034
 10
141.9132319227
 20
121.7868861104
 10
141.9055830873
 20
121.8076536716
 10
141.8997825082
 20
121.8283379119
 10
141.8959229376
 20
121.8486080891
 10
141.8940660903
 20
121.8681400815
  0
LWPOLYLINE
  5
514
100
AcDbEntity
  8
RACCORDO
100
AcDbPolyline
 62
250
  6
CONTINUOUS
 90
8
 70
0
 10
144.8459217195
 20
118.1908553922
 10
144.8290272415
 20
118.201945869
 10
144.8147226993
 20
118.2141907305
 10
144.8032421052
 20
118.2273896593
 10
144.7947732736
 20
118.2413267301
 10
144.7894547483
 20
118.2557739423
 10
144.7873735368
 20
118.2704949499
 10
144.7873430757
 20
118.2725103116
  0
LINE
  5
515
100
AcDbEntity
  8
0
100
AcDbLine
 62
250
  6
CONTINUOUS
 10
144.7068430372
 20
118.6344785518
 11
144.719918667
 21
118.6252922749
  0
LWPOLYLINE
  5
516
100
AcDbEntity
  8
RACCORDO
100
AcDbPolyline
 62
7
  6
CONTINUOUS
 90
7
 70
0
 10
140.0955041734
 20
122.5421209227
 10
140.095928904
 20
122.5418203581
 10
140.0977572333
 20
122.5390646758
 10
140.0995147059
 20
122.533943549
 10
140.1012991977
 20
122.526378738
 10
140.1029334434
 20
122.5163356107
 10
140.1044289092
 20
122.5036881654
  0
LWPOLYLINE
  5
517
100
AcDbEntity
  8
ASSI
100
AcDbPolyline
 62
250
  6
CONTINUOUS
 90
10
 70
0
 10
144.452797724
 20
119.7624756446
 10
144.4425771175
 20
119.7701118904
 10
144.4318256973
 20
119.7771333563
 10
144.4206200547
 20
119.7834940314
 10
144.4089274134
 20
119.7891177024
 10
144.3969095696
 20
119.7940298453
 10
144.3849103011
 20
119.7983412806
 10
144.3730577465
 20
119.8020730524
 10
144.3612765373
 20
119.8051691813
 10
144.349583483
 20
119.8076197469
  0
LWPOLYLINE
  5
518
100
AcDbEntity
  8
RACCORDO
100
AcDbPolyline
 62
250
  6
CONTINUOUS
 90
11
 70
0
 10
148.3271447777
 20
117.7166668273
 10
148.3847175881
 20
117.6736301861
 10
148.4415621649
 20
117.6271498316
 10
148.4976052855
 20
117.5772991061
 10
148.5530004532
 20
117.5239049566
 10
148.6075262372
 20
117.4670990544
 10
148.66097176
 20
117.4070199106
 10
148.7134529808
 20
117.3434125877
 10
148.7648175572
 20
117.2762643239
 10
148.8146802648
 20
117.2058676101
 10
148.8627648244
 20
117.1324095391
  0
LWPOLYLINE
  5
519
100
AcDbEntity
  8
RACCORDO
100
AcDbPolyline
 62
250
  6
CONTINUOUS
 90
8
 70
0
 10
148.9364149072
 20
117.1684617519
 10
148.9361573313
 20
117.1686935845
 10
148.933326223
 20
117.1685621865
 10
148.9277151026
 20
117.1666456214
 10
148.9194178592
 20
117.1629759585
 10
148.908573328
 20
117.157614601
 10
148.8953629672
 20
117.1506512591
 10
148.8800078217
 20
117.142202448
  0
LWPOLYLINE
  5
51A
100
AcDbEntity
  8
0
100
AcDbPolyline
 62
250
  6
CONTINUOUS
 90
10
 70
0
 10
149.8282605492
 20
115.6290042416
 10
149.8423786438
 20
115.6137126253
 10
149.8562515536
 20
115.5979052925
 10
149.8698529472
 20
115.5816122465
 10
149.8831570082
 20
115.5648644124
 10
149.8961384848
 20
115.5476935785
 10
149.9087727374
 20
115.5301323363
 10
149.9210357852
 20
115.5122140179
 10
149.9329043525
 20
115.4939726334
 10
149.9443559119
 20
115.475442806
  0
LINE
  5
51B
100
AcDbEntity
  8
RACCORDO
100
AcDbLine
 62
250
  6
CONTINUOUS
 10
151.4684192109
 20
117.6779537358
 11
150.7838446366
 21
118.4418128789
  0
LINE
  5
51C
100
AcDbEntity
  8
RACCORDO
100
AcDbLine
 62
250
  6
CONTINUOUS
 10
145.8214998746
 20
123.2660104591
 11
145.7869661883
 21
123.3049016252
  0
LWPOLYLINE
  5
51D
100
AcDbEntity
  8
RACCORDO
100
AcDbPolyline
 62
250
  6
CONTINUOUS
 90
19
 70
0
 10
145.7869661883
 20
123.3049016252
 10
145.7769316229
 20
123.3165074352
 10
145.7677896981
 20
123.3275881973
 10
145.7593772499
 20
123.3381747646
 10
145.7517545666
 20
123.3482664525
 10
145.7449813374
 20
123.3579395357
 10
145.7388114152
 20
123.3672581968
 10
145.7332304046
 20
123.3762412418
 10
145.7283128733
 20
123.3848948705
 10
145.7238950103
 20
123.3932173538
 10
145.7199686723
 20
123.4012051043
 10
145.7165683169
 20
123.408875487
 10
145.7135651367
 20
123.4162355941
 10
145.7109464918
 20
123.4232830792
 10
145.7087318208
 20
123.4300321063
 10
145.7068253327
 20
123.4365014114
 10
145.7051923374
 20
123.44269828
 10
145.7038645761
 20
123.4486257038
 10
145.7028410502
 20
123.4542918883
  0
LINE
  5
51E
100
AcDbEntity
  8
RACCORDO
100
AcDbLine
 62
250
  6
CONTINUOUS
 10
151.4984055723
 20
117.6424408718
 11
151.4684192109
 21
117.6779537358
  0
LWPOLYLINE
  5
51F
100
AcDbEntity
  8
RACCORDO
100
AcDbPolyline
 62
7
  6
CONTINUOUS
 90
19
 70
0
 10
151.5551324572
 20
117.6965405237
 10
151.5840152697
 20
117.6620722281
 10
151.6106440838
 20
117.6257557327
 10
151.6349372601
 20
117.5878318225
 10
151.6568124355
 20
117.5484982367
 10
151.6761473072
 20
117.507976865
 10
151.6928007072
 20
117.4664941175
 10
151.7066952456
 20
117.4240068321
 10
151.7175642397
 20
117.3809091685
 10
151.7251188921
 20
117.3379973142
 10
151.7292847836
 20
117.2951591407
 10
151.7298778354
 20
117.2527894916
 10
151.7268828081
 20
117.2123283442
 10
151.7205266243
 20
117.1742167089
 10
151.7109416797
 20
117.1381849959
 10
151.698372695
 20
117.1045763558
 10
151.6831877381
 20
117.0737437212
 10
151.6655710057
 20
117.0455469396
 10
151.6455135413
 20
117.0197368141
  0
LINE
  5
520
100
AcDbEntity
  8
RACCORDO
100
AcDbLine
 62
7
  6
CONTINUOUS
 10
150.8915767765
 20
118.436948425
 11
150.8911926779
 21
118.4374074626
  0
LWPOLYLINE
  5
521
100
AcDbEntity
  8
RACCORDO
100
AcDbPolyline
 62
250
  6
CONTINUOUS
 90
13
 70
0
 10
150.7838446366
 20
118.4418128789
 10
150.7731236324
 20
118.454673126
 10
150.7630309705
 20
118.4681087088
 10
150.7536212302
 20
118.4819971236
 10
150.7449751463
 20
118.4961575036
 10
150.737087223
 20
118.5105319417
 10
150.7298968301
 20
118.5252020036
 10
150.7234139039
 20
118.540166897
 10
150.7177334443
 20
118.5552301884
 10
150.7129250549
 20
118.5701903052
 10
150.7090119224
 20
118.5849142864
 10
150.7059900382
 20
118.5993398177
 10
150.7038607124
 20
118.6133764728
  0
LWPOLYLINE
  5
522
100
AcDbEntity
  8
RACCORDO
100
AcDbPolyline
 62
250
  6
CONTINUOUS
 90
4
 70
0
 10
145.8538401425
 20
123.227035854
 10
145.8455651898
 20
123.2375560257
 10
145.8335397316
 20
123.2520900584
 10
145.8214998746
 20
123.2660104591
  0
LINE
  5
523
100
AcDbEntity
  8
RACCORDO
100
AcDbLine
 62
7
  6
CONTINUOUS
 10
145.853950377
 20
123.22689236
 11
145.8538401425
 21
123.227035854
  0
LINE
  5
524
100
AcDbEntity
  8
RACCORDO
100
AcDbLine
 62
250
  6
CONTINUOUS
 10
151.5267579395
 20
117.6046626263
 11
151.4984055723
 21
117.6424408718
  0
LINE
  5
525
100
AcDbEntity
  8
RACCORDO
100
AcDbLine
 62
7
  6
CONTINUOUS
 10
145.8538405984
 20
123.2270393356
 11
145.8334145852
 21
123.2544905624
  0
LWPOLYLINE
  5
526
100
AcDbEntity
  8
ASSI
100
AcDbPolyline
 62
250
  6
CONTINUOUS
 90
12
 70
0
 10
146.8634768948
 20
121.0876401574
 10
146.8592979256
 20
121.0933994811
 10
146.8486841525
 20
121.1053295355
 10
146.8364201323
 20
121.1158341032
 10
146.8226402343
 20
121.1247980915
 10
146.8074954337
 20
121.1321232889
 10
146.7911516609
 20
121.1377294391
 10
146.7737879808
 20
121.1415551202
 10
146.7555946302
 20
121.1435584175
 10
146.7367709378
 20
121.1437173813
 10
146.7175231404
 20
121.1420302692
 10
146.6980621207
 20
121.1385155644
  0
LWPOLYLINE
  5
527
100
AcDbEntity
  8
RACCORDO
100
AcDbPolyline
 62
7
  6
CONTINUOUS
 90
12
 70
0
 10
145.8334145852
 20
123.2544905624
 10
145.8150101624
 20
123.2811595106
 10
145.7981974856
 20
123.3077826979
 10
145.7831812592
 20
123.3341690176
 10
145.7700819838
 20
123.3600895232
 10
145.7589548766
 20
123.3853451616
 10
145.7498617418
 20
123.4095683271
 10
145.7427931173
 20
123.4323843574
 10
145.7376087168
 20
123.4537013914
 10
145.7341867576
 20
123.4733119891
 10
145.7323849807
 20
123.4908246628
 10
145.732141835
 20
123.4952757356
  0
LINE
  5
528
100
AcDbEntity
  8
ASSI
100
AcDbLine
 62
7
  6
CONTINUOUS
 10
146.8635149432
 20
121.0875841371
 11
146.8634768948
 21
121.0876401574
  0
LINE
  5
529
100
AcDbEntity
  8
RACCORDO
100
AcDbLine
 62
250
  6
CONTINUOUS
 10
150.8527919927
 20
118.4667248602
 11
150.8431966605
 21
118.4815942215
  0
LINE
  5
52A
100
AcDbEntity
  8
0
100
AcDbLine
 62
7
  6
CONTINUOUS
 10
152.8591543562
 20
115.0437187202
 11
151.913894137
 21
116.6809574421
  0
LWPOLYLINE
  5
52B
100
AcDbEntity
  8
RACCORDO
100
AcDbPolyline
 62
250
  6
CONTINUOUS
 90
13
 70
0
 10
150.7038631824
 20
118.6133648205
 10
150.7098781725
 20
118.6025530594
 10
150.7165103084
 20
118.5918255197
 10
150.7236982172
 20
118.5812323585
 10
150.731340697
 20
118.5708117327
 10
150.7394164415
 20
118.5606050588
 10
150.7479862841
 20
118.5506484171
 10
150.7570015624
 20
118.5409100464
 10
150.7664140659
 20
118.5314346515
 10
150.7762730575
 20
118.522335976
 10
150.7865509093
 20
118.5136146764
 10
150.7971624264
 20
118.5051783528
 10
150.8080585497
 20
118.4969686782
  0
LWPOLYLINE
  5
52C
100
AcDbEntity
  8
0
100
AcDbPolyline
 62
7
  6
CONTINUOUS
 90
10
 70
0
 10
152.8591543562
 20
115.0437187202
 10
152.8803736145
 20
115.0046081231
 10
152.8992489296
 20
114.9653325893
 10
152.9157803015
 20
114.9258921186
 10
152.9300543247
 20
114.8859866568
 10
152.9419844048
 20
114.8459162582
 10
152.9513107586
 20
114.8065810855
 10
152.9579467918
 20
114.7682811931
 10
152.9619790987
 20
114.7307165265
 10
152.9634076794
 20
114.6938870859
  0
LWPOLYLINE
  5
52D
100
AcDbEntity
  8
RACCORDO
100
AcDbPolyline
 62
250
  6
CONTINUOUS
 90
9
 70
0
 10
150.8431966605
 20
118.4815942215
 10
150.8355504283
 20
118.4980874319
 10
150.8299911778
 20
118.5159067127
 10
150.8266191404
 20
118.5347301961
 10
150.8254949704
 20
118.5542182847
 10
150.8266388696
 20
118.5740198341
 10
150.8300302912
 20
118.5937776839
 10
150.8356080938
 20
118.6131350585
 10
150.8432716691
 20
118.6317425871
  0
LWPOLYLINE
  5
52E
100
AcDbEntity
  8
RACCORDO
100
AcDbPolyline
 62
250
  6
CONTINUOUS
 90
10
 70
0
 10
150.8080585505
 20
118.4969686776
 10
150.8017466641
 20
118.5112694429
 10
150.7967351307
 20
118.5263918637
 10
150.793084737
 20
118.5421524863
 10
150.7908397517
 20
118.5583601211
 10
150.7900274019
 20
118.5748181491
 10
150.7906575409
 20
118.5913269062
 10
150.792722513
 20
118.6076861243
 10
150.7961972491
 20
118.6236973606
 10
150.8010395826
 20
118.6391663916
  0
LINE
  5
52F
100
AcDbEntity
  8
0
100
AcDbLine
 62
250
  6
CONTINUOUS
 10
163.6266857081
 20
117.9052607177
 11
163.6267804472
 21
115.6350677097
  0
LINE
  5
530
100
AcDbEntity
  8
0
100
AcDbLine
 62
7
  6
CONTINUOUS
 10
163.6969597819
 20
118.005698339
 11
163.6969597819
 21
115.7353479981
  0
LWPOLYLINE
  5
531
100
AcDbEntity
  8
0
100
AcDbPolyline
 62
250
  6
CONTINUOUS
 90
9
 70
0
 10
163.6267804472
 20
115.6350677097
 10
163.6170511015
 20
114.1912843011
 10
163.5877045229
 20
112.7368781647
 10
163.5387407114
 20
111.2718493006
 10
163.4701358998
 20
109.7958116683
 10
163.3819138553
 20
108.3091513083
 10
163.2741458795
 20
106.8130263419
 10
163.1468557395
 20
105.3078228095
 10
163.0000196681
 20
103.7931546706
  0
LWPOLYLINE
  5
532
100
AcDbEntity
  8
0
100
AcDbPolyline
 62
250
  6
CONTINUOUS
 90
9
 70
0
 10
163.6969596383
 20
118.0055435999
 10
163.6967242181
 20
117.9994335801
 10
163.6942709504
 20
117.9845846919
 10
163.6891755911
 20
117.9699634946
 10
163.6814913463
 20
117.9557218405
 10
163.6712933837
 20
117.941990663
 10
163.6586836611
 20
117.928910936
 10
163.6437941986
 20
117.9166312924
 10
163.6267804526
 20
117.9052847977
  0
LINE
  5
533
100
AcDbEntity
  8
0
100
AcDbLine
 62
250
  6
CONTINUOUS
 10
163.0000196681
 20
103.7931546706
 11
162.8336376654
 21
102.2690219254
  0
LWPOLYLINE
  5
534
100
AcDbEntity
  8
0
100
AcDbPolyline
 62
7
  6
CONTINUOUS
 90
10
 70
0
 10
162.9017935078
 20
102.3407791688
 10
163.0684867377
 20
103.8671593073
 10
163.2156773431
 20
105.3849224154
 10
163.3433244346
 20
106.8936652332
 10
163.4513937118
 20
108.3930010708
 10
163.5398557996
 20
109.8825451517
 10
163.6086862944
 20
111.3619149209
 10
163.6578658078
 20
112.8307309035
 10
163.6873799354
 20
114.2886165872
 10
163.6972192416
 20
115.7351980128
  0
LWPOLYLINE
  5
535
100
AcDbEntity
  8
0
100
AcDbPolyline
 62
250
  6
CONTINUOUS
 90
7
 70
0
 10
163.6972192416
 20
115.7351980128
 10
163.6955599784
 20
115.720094231
 10
163.6899935881
 20
115.7015100921
 10
163.680198809
 20
115.6833845495
 10
163.6662854754
 20
115.666070548
 10
163.6484065206
 20
115.6498649862
 10
163.626804765
 20
115.635082238
  0
LWPOLYLINE
  5
536
100
AcDbEntity
  8
0
100
AcDbPolyline
 62
7
  6
CONTINUOUS
 90
25
 70
0
 10
162.8336376654
 20
102.2690219254
 10
162.8051775941
 20
102.0628105681
 10
162.7675980688
 20
101.8548259087
 10
162.7208990894
 20
101.6450679473
 10
162.6648438697
 20
101.4327934133
 10
162.5996691959
 20
101.2187455772
 10
162.5260854272
 20
101.0051542503
 10
162.4440110016
 20
100.7920278549
 10
162.353527481
 20
100.5793579686
 10
162.2555899108
 20
100.3693491368
 10
162.1501242504
 20
100.162028529
 10
162.0372045404
 20
99.9573689755
 10
161.9180079481
 20
99.7574935127
 10
161.7924717259
 20
99.5624499945
 10
161.6606586213
 20
99.372190567
 10
161.5239340444
 20
99.188694705
 10
161.3822486071
 20
99.0120293462
 10
161.2356516975
 20
98.8421275528
 10
161.0856568896
 20
98.6807679863
 10
160.932227897
 20
98.5280331938
 10
160.7754010061
 20
98.3838406281
 10
160.6167986503
 20
98.2497213095
 10
160.4569616407
 20
98.1261855781
 10
160.2953491662
 20
98.0127230938
 10
160.1319612268
 20
97.9093338566
  0
LINE
  5
537
100
AcDbEntity
  8
SUPERFICI
100
AcDbLine
 62
250
  6
CONTINUOUS
 10
142.4767829286
 20
72.0134234341
 11
144.8808362057
 21
73.2598189809
  0
LINE
  5
538
100
AcDbEntity
  8
SUPERFICI
100
AcDbLine
 62
7
  6
CONTINUOUS
 10
142.3627423082
 20
71.7789458412
 11
144.7707203183
 21
73.0273761889
  0
LWPOLYLINE
  5
539
100
AcDbEntity
  8
SUPERFICI
100
AcDbPolyline
 62
250
  6
CONTINUOUS
 90
16
 70
0
 10
142.4767829286
 20
72.0134234341
 10
142.4375559557
 20
71.9940510659
 10
142.3950789872
 20
71.9771170978
 10
142.3498047638
 20
71.9628019861
 10
142.30221037
 20
71.9512571359
 10
142.2528081276
 20
71.9426073499
 10
142.2021419279
 20
71.9369462063
 10
142.1507636494
 20
71.9343311711
 10
142.0992096894
 20
71.93478541
 10
142.0480124644
 20
71.9383025218
 10
141.9976474267
 20
71.9448559639
 10
141.9487228144
 20
71.9543728246
 10
141.9019362726
 20
71.966698437
 10
141.8578125068
 20
71.9816490509
 10
141.8167209088
 20
71.9990516929
 10
141.7790522502
 20
72.0186971728
  0
LWPOLYLINE
  5
53A
100
AcDbEntity
  8
ASSI
100
AcDbPolyline
 62
250
  6
CONTINUOUS
 90
5
 70
0
 10
142.8671535216
 20
123.4961875459
 10
142.8299083748
 20
123.4907810595
 10
142.7918843088
 20
123.4875377052
 10
142.7531150155
 20
123.4863647726
 10
142.7148150402
 20
123.4872653451
  0
LWPOLYLINE
  5
53B
100
AcDbEntity
  8
RACCORDO
100
AcDbPolyline
 62
250
  6
CONTINUOUS
 90
16
 70
0
 10
143.9145002443
 20
124.0362997946
 10
143.9187716235
 20
124.0367233037
 10
143.9232009942
 20
124.0371355036
 10
143.9278037564
 20
124.0375345337
 10
143.9325793343
 20
124.037920584
 10
143.9375283035
 20
124.0382934644
 10
143.942667791
 20
124.0386507438
 10
143.9479972767
 20
124.0389926472
 10
143.9535172806
 20
124.0393189496
 10
143.9592464896
 20
124.039626545
 10
143.965184463
 20
124.0399156993
 10
143.9713316415
 20
124.0401861465
 10
143.9777080346
 20
124.0404339831
 10
143.9843137093
 20
124.040659528
 10
143.9911485987
 20
124.0408624622
 10
143.9982325117
 20
124.0410379251
  0
LWPOLYLINE
  5
53C
100
AcDbEntity
  8
RACCORDO
100
AcDbPolyline
 62
250
  6
CONTINUOUS
 90
19
 70
0
 10
145.4877195037
 20
123.3976937537
 10
145.499536243
 20
123.3982208817
 10
145.5111186432
 20
123.3990485129
 10
145.5224667042
 20
123.4001766474
 10
145.533588037
 20
123.4016322306
 10
145.5444750308
 20
123.403388317
 10
145.555104853
 20
123.40536407
 10
145.5654760253
 20
123.4075566683
 10
145.5755900262
 20
123.4099689332
 10
145.5854284587
 20
123.4125284921
 10
145.5949901607
 20
123.4152328826
 10
145.6042762943
 20
123.418084567
 10
145.6132719493
 20
123.4210185597
 10
145.6219761563
 20
123.4240326119
 10
145.6303898846
 20
123.4271289724
 10
145.6385011317
 20
123.4302494019
 10
145.6463058967
 20
123.4333744875
 10
145.6538081804
 20
123.4365236421
 10
145.6610079829
 20
123.4396968658
  0
LWPOLYLINE
  5
53D
100
AcDbEntity
  8
RACCORDO
100
AcDbPolyline
 62
250
  6
CONTINUOUS
 90
19
 70
0
 10
145.5610337696
 20
123.1677433968
 10
145.5755216081
 20
123.1683713309
 10
145.5897585035
 20
123.1694386504
 10
145.6037264597
 20
123.170909039
 10
145.617404371
 20
123.1727470436
 10
145.6307812877
 20
123.1749179094
 10
145.6438566127
 20
123.177388608
 10
145.6566192348
 20
123.1801276766
 10
145.6690558606
 20
123.1831040454
 10
145.681164568
 20
123.1862880433
 10
145.692937103
 20
123.1896515775
 10
145.704363433
 20
123.1931669075
 10
145.715440442
 20
123.1968069632
 10
145.7261621191
 20
123.2005467268
 10
145.7365211419
 20
123.2043615953
 10
145.7465135573
 20
123.2082267269
 10
145.7561349425
 20
123.2121192396
 10
145.7653803624
 20
123.2160182439
 10
145.7742459833
 20
123.2199033403
  0
LINE
  5
53E
100
AcDbEntity
  8
RACCORDO
100
AcDbLine
 62
250
  6
CONTINUOUS
 10
144.7395207601
 20
123.1478167315
 11
145.5610337696
 21
123.1677433968
  0
LINE
  5
53F
100
AcDbEntity
  8
RACCORDO
100
AcDbLine
 62
250
  6
CONTINUOUS
 10
144.6662064942
 20
123.3777670884
 11
145.4877195037
 21
123.3976937537
  0
LWPOLYLINE
  5
540
100
AcDbEntity
  8
RACCORDO
100
AcDbPolyline
 62
250
  6
CONTINUOUS
 90
3
 70
0
 10
143.9982325117
 20
124.0410379251
 10
144.0131468989
 20
124.0413071503
 10
144.0209982016
 20
124.0413946249
  0
LWPOLYLINE
  5
541
100
AcDbEntity
  8
RACCORDO
100
AcDbPolyline
 62
7
  6
CONTINUOUS
 90
11
 70
0
 10
144.0068817196
 20
124.0501914451
 10
143.981601079
 20
124.0500498005
 10
143.9573782602
 20
124.0495864919
 10
143.9341494835
 20
124.0488002262
 10
143.9117332784
 20
124.0476712385
 10
143.8902017652
 20
124.0461748711
 10
143.8695477032
 20
124.0442665518
 10
143.8494187172
 20
124.0418291505
 10
143.8296765811
 20
124.0386734714
 10
143.8104980641
 20
124.0345597245
 10
143.8056033284
 20
124.03328771
  0
LINE
  5
542
100
AcDbEntity
  8
RACCORDO
100
AcDbLine
 62
250
  6
CONTINUOUS
 10
144.0209982016
 20
124.0413946249
 11
144.0375233149
 21
124.0414654136
  0
LINE
  5
543
100
AcDbEntity
  8
RACCORDO
100
AcDbLine
 62
250
  6
CONTINUOUS
 10
144.0375233149
 20
124.0414654136
 11
145.0337017732
 21
124.0371646557
  0
LINE
  5
544
100
AcDbEntity
  8
RACCORDO
100
AcDbLine
 62
7
  6
CONTINUOUS
 10
144.0068817196
 20
124.0501914451
 11
145.0016326848
 21
124.0458866538
  0
LINE
  5
545
100
AcDbEntity
  8
RACCORDO
100
AcDbLine
 62
7
  6
CONTINUOUS
 10
148.3404548717
 20
122.1181140176
 11
148.3406231281
 21
122.1181129986
  0
LWPOLYLINE
  5
546
100
AcDbEntity
  8
RACCORDO
100
AcDbPolyline
 62
250
  6
CONTINUOUS
 90
6
 70
0
 10
141.4745352409
 20
123.5018186853
 10
141.4716348975
 20
123.5018959059
 10
141.4557459563
 20
123.5010517083
 10
141.4399749087
 20
123.4980744913
 10
141.4244907304
 20
123.4929961537
 10
141.4094593236
 20
123.4858711064
  0
LINE
  5
547
100
AcDbEntity
  8
RACCORDO
100
AcDbLine
 62
250
  6
CONTINUOUS
 10
145.6585283432
 20
123.5706267487
 11
144.6267552324
 21
123.6066997929
  0
LINE
  5
548
100
AcDbEntity
  8
RACCORDO
100
AcDbLine
 62
250
  6
CONTINUOUS
 10
145.6204176873
 20
123.6984022402
 11
144.5791350858
 21
123.7348308642
  0
LINE
  5
549
100
AcDbEntity
  8
RACCORDO
100
AcDbLine
 62
250
  6
CONTINUOUS
 10
148.9592024317
 20
121.7706297735
 11
147.904824998
 21
121.807874656
  0
LINE
  5
54A
100
AcDbEntity
  8
RACCORDO
100
AcDbLine
 62
250
  6
CONTINUOUS
 10
141.4094593236
 20
123.4858711064
 11
141.8188845024
 21
123.4699202659
  0
LINE
  5
54B
100
AcDbEntity
  8
RACCORDO
100
AcDbLine
 62
7
  6
CONTINUOUS
 10
141.4745352409
 20
123.5018186853
 11
141.8509323982
 21
123.4871545872
  0
LINE
  5
54C
100
AcDbEntity
  8
RACCORDO
100
AcDbLine
 62
250
  6
CONTINUOUS
 10
144.5791350858
 20
123.7348308642
 11
144.5606688106
 21
123.7356170191
  0
LINE
  5
54D
100
AcDbEntity
  8
RACCORDO
100
AcDbLine
 62
250
  6
CONTINUOUS
 10
147.904824998
 20
121.807874656
 11
147.8844680978
 21
121.8087657739
  0
LINE
  5
54E
100
AcDbEntity
  8
RACCORDO
100
AcDbLine
 62
250
  6
CONTINUOUS
 10
144.5606688106
 20
123.7356170191
 11
144.5429476487
 21
123.7365068373
  0
LINE
  5
54F
100
AcDbEntity
  8
RACCORDO
100
AcDbLine
 62
250
  6
CONTINUOUS
 10
147.8844680978
 20
121.8087657739
 11
147.8648981575
 21
121.8097894617
  0
LWPOLYLINE
  5
550
100
AcDbEntity
  8
RACCORDO
100
AcDbPolyline
 62
250
  6
CONTINUOUS
 90
4
 70
0
 10
147.3632127032
 20
122.1227213435
 10
147.369370498
 20
122.1223858965
 10
147.3825744322
 20
122.1195786356
 10
147.39520982
 20
122.1139996872
  0
LWPOLYLINE
  5
551
100
AcDbEntity
  8
RACCORDO
100
AcDbPolyline
 62
250
  6
CONTINUOUS
 90
4
 70
0
 10
148.3406231281
 20
122.1181129986
 10
148.3466469802
 20
122.1177784217
 10
148.3598510112
 20
122.1149711778
 10
148.3724865177
 20
122.109392189
  0
LINE
  5
552
100
AcDbEntity
  8
RACCORDO
100
AcDbLine
 62
250
  6
CONTINUOUS
 10
144.5429476487
 20
123.7365068373
 11
144.5259248272
 21
123.737479779
  0
LWPOLYLINE
  5
553
100
AcDbEntity
  8
RACCORDO
100
AcDbPolyline
 62
250
  6
CONTINUOUS
 90
4
 70
0
 10
144.0141531891
 20
124.0501725556
 10
144.0210236955
 20
124.0497621609
 10
144.0338813549
 20
124.0469209129
 10
144.0461902675
 20
124.0414507046
  0
LWPOLYLINE
  5
554
100
AcDbEntity
  8
RACCORDO
100
AcDbPolyline
 62
250
  6
CONTINUOUS
 90
4
 70
0
 10
145.0018270883
 20
124.0458855088
 10
145.008534954
 20
124.0454761409
 10
145.0213927241
 20
124.04263491
 10
145.0337017732
 20
124.0371646557
  0
LINE
  5
555
100
AcDbEntity
  8
RACCORDO
100
AcDbLine
 62
250
  6
CONTINUOUS
 10
147.8648981575
 20
121.8097894617
 11
147.846088545
 21
121.8109211245
  0
LINE
  5
556
100
AcDbEntity
  8
RACCORDO
100
AcDbLine
 62
250
  6
CONTINUOUS
 10
144.5259248272
 20
123.737479779
 11
144.5095813208
 21
123.7385259003
  0
LINE
  5
557
100
AcDbEntity
  8
RACCORDO
100
AcDbLine
 62
250
  6
CONTINUOUS
 10
147.846088545
 20
121.8109211245
 11
147.8280192335
 21
121.8121496688
  0
LINE
  5
558
100
AcDbEntity
  8
RACCORDO
100
AcDbLine
 62
250
  6
CONTINUOUS
 10
144.5095813208
 20
123.7385259003
 11
144.4938996242
 21
123.7396315508
  0
LINE
  5
559
100
AcDbEntity
  8
RACCORDO
100
AcDbLine
 62
250
  6
CONTINUOUS
 10
147.8280192335
 20
121.8121496688
 11
147.8106539172
 21
121.8134609387
  0
LINE
  5
55A
100
AcDbEntity
  8
RACCORDO
100
AcDbLine
 62
250
  6
CONTINUOUS
 10
144.4938996242
 20
123.7396315508
 11
144.4788545035
 21
123.7407869185
  0
LWPOLYLINE
  5
55B
100
AcDbEntity
  8
ASSI
100
AcDbPolyline
 62
250
  6
CONTINUOUS
 90
23
 70
0
 10
142.5489265466
 20
123.511480362
 10
142.5210431505
 20
123.5136954361
 10
142.4926535713
 20
123.5143573656
 10
142.4640147348
 20
123.5134729494
 10
142.4358974182
 20
123.5110625841
 10
142.4083207998
 20
123.5070865339
 10
142.3812657014
 20
123.5015845345
 10
142.3554453652
 20
123.4946961905
 10
142.3308844411
 20
123.4863818891
 10
142.3075582791
 20
123.4766812431
 10
142.2861061716
 20
123.4658526946
 10
142.2665802104
 20
123.4538621479
 10
142.2489283037
 20
123.4407436988
 10
142.2336334674
 20
123.4268580763
 10
142.2207658498
 20
123.4121875118
 10
142.2102553027
 20
123.3967497738
 10
142.2023743977
 20
123.3809588977
 10
142.1971933214
 20
123.3648064459
 10
142.1946418872
 20
123.3483008559
 10
142.1947821074
 20
123.3318814757
 10
142.1976346526
 20
123.3156947546
 10
142.2031788523
 20
123.2995942432
 10
142.2114147063
 20
123.2835799416
  0
LWPOLYLINE
  5
55C
100
AcDbEntity
  8
ASSI
100
AcDbPolyline
 62
250
  6
CONTINUOUS
 90
3
 70
0
 10
142.7148150402
 20
123.4872653451
 10
142.6773892311
 20
123.4902404506
 10
142.6404327399
 20
123.4952890612
  0
LINE
  5
55D
100
AcDbEntity
  8
RACCORDO
100
AcDbLine
 62
250
  6
CONTINUOUS
 10
145.0337018289
 20
124.0371646235
 11
145.0447011817
 21
124.0362811825
  0
LINE
  5
55E
100
AcDbEntity
  8
RACCORDO
100
AcDbLine
 62
250
  6
CONTINUOUS
 10
148.3724865728
 20
122.1093921572
 11
148.3835084245
 21
122.1084978328
  0
LINE
  5
55F
100
AcDbEntity
  8
RACCORDO
100
AcDbLine
 62
250
  6
CONTINUOUS
 10
144.4788545035
 20
123.7407869185
 11
144.4644283074
 21
123.7419860427
  0
LINE
  5
560
100
AcDbEntity
  8
RACCORDO
100
AcDbLine
 62
250
  6
CONTINUOUS
 10
147.8106539172
 20
121.8134609387
 11
147.7939442831
 21
121.8148468423
  0
LINE
  5
561
100
AcDbEntity
  8
RACCORDO
100
AcDbLine
 62
250
  6
CONTINUOUS
 10
144.4644283074
 20
123.7419860427
 11
144.4505924003
 21
123.7432211178
  0
LINE
  5
562
100
AcDbEntity
  8
RACCORDO
100
AcDbLine
 62
250
  6
CONTINUOUS
 10
147.7939442831
 20
121.8148468423
 11
147.7778553049
 21
121.8163032337
  0
LINE
  5
563
100
AcDbEntity
  8
RACCORDO
100
AcDbLine
 62
250
  6
CONTINUOUS
 10
144.4505924003
 20
123.7432211178
 11
144.4373174553
 21
123.7444867241
  0
LINE
  5
564
100
AcDbEntity
  8
RACCORDO
100
AcDbLine
 62
250
  6
CONTINUOUS
 10
147.7778553049
 20
121.8163032337
 11
147.7623022444
 21
121.8178290399
  0
LINE
  5
565
100
AcDbEntity
  8
RACCORDO
100
AcDbLine
 62
250
  6
CONTINUOUS
 10
144.4373174553
 20
123.7444867241
 11
144.4245866708
 21
123.7457793066
  0
LINE
  5
566
100
AcDbEntity
  8
RACCORDO
100
AcDbLine
 62
250
  6
CONTINUOUS
 10
147.7623022444
 20
121.8178290399
 11
147.7474026289
 21
121.8194044023
  0
LINE
  5
567
100
AcDbEntity
  8
RACCORDO
100
AcDbLine
 62
250
  6
CONTINUOUS
 10
144.4245866708
 20
123.7457793066
 11
144.4123823507
 21
123.7470933647
  0
LINE
  5
568
100
AcDbEntity
  8
RACCORDO
100
AcDbLine
 62
250
  6
CONTINUOUS
 10
144.4123823507
 20
123.7470933647
 11
144.4006588513
 21
123.7484281969
  0
LINE
  5
569
100
AcDbEntity
  8
RACCORDO
100
AcDbLine
 62
250
  6
CONTINUOUS
 10
147.7474026289
 20
121.8194044023
 11
147.7330929938
 21
121.8210330371
  0
LINE
  5
56A
100
AcDbEntity
  8
RACCORDO
100
AcDbLine
 62
250
  6
CONTINUOUS
 10
144.4006588513
 20
123.7484281969
 11
144.3894059102
 21
123.7497811669
  0
LINE
  5
56B
100
AcDbEntity
  8
RACCORDO
100
AcDbLine
 62
250
  6
CONTINUOUS
 10
147.7330929938
 20
121.8210330371
 11
147.7191808721
 21
121.8227273385
  0
LINE
  5
56C
100
AcDbEntity
  8
RACCORDO
100
AcDbLine
 62
250
  6
CONTINUOUS
 10
144.3894059102
 20
123.7497811669
 11
144.3786714154
 21
123.7511405444
  0
LWPOLYLINE
  5
56D
100
AcDbEntity
  8
RACCORDO
100
AcDbPolyline
 62
250
  6
CONTINUOUS
 90
7
 70
0
 10
147.7191808721
 20
121.8227273385
 10
147.7049222698
 20
121.8245966857
 10
147.6975812579
 20
121.8256086166
 10
147.689888949
 20
121.8267241533
 10
147.6817750508
 20
121.8279600225
 10
147.6733098555
 20
121.8292994975
 10
147.6644933632
 20
121.8307425784
  0
LINE
  5
56E
100
AcDbEntity
  8
RACCORDO
100
AcDbLine
 62
250
  6
CONTINUOUS
 10
144.3786714154
 20
123.7511405444
 11
144.3682922203
 21
123.752523276
  0
LINE
  5
56F
100
AcDbEntity
  8
ASSI
100
AcDbLine
 62
250
  6
CONTINUOUS
 10
142.5765606853
 20
123.5077189424
 11
142.5489265466
 21
123.511480362
  0
LINE
  5
570
100
AcDbEntity
  8
RACCORDO
100
AcDbLine
 62
250
  6
CONTINUOUS
 10
144.3682922203
 20
123.752523276
 11
144.3580706604
 21
123.7539577529
  0
LWPOLYLINE
  5
571
100
AcDbEntity
  8
RACCORDO
100
AcDbPolyline
 62
250
  6
CONTINUOUS
 90
4
 70
0
 10
144.3580706604
 20
123.7539577529
 10
144.3475347065
 20
123.7555125275
 10
144.3420144031
 20
123.7563667802
 10
144.3362348338
 20
123.7572922262
  0
LINE
  5
572
100
AcDbEntity
  8
RACCORDO
100
AcDbLine
 62
7
  6
CONTINUOUS
 10
149.0828638226
 20
121.1195078458
 11
149.0757114394
 21
121.1205813773
  0
LINE
  5
573
100
AcDbEntity
  8
RACCORDO
100
AcDbLine
 62
250
  6
CONTINUOUS
 10
144.3362348338
 20
123.7572922262
 11
144.3240344701
 21
123.7593267735
  0
LWPOLYLINE
  5
574
100
AcDbEntity
  8
RACCORDO
100
AcDbPolyline
 62
250
  6
CONTINUOUS
 90
34
 70
0
 10
147.6644933632
 20
121.8307425784
 10
147.6613331354
 20
121.8312947815
 10
147.6582373677
 20
121.8318582183
 10
147.65520606
 20
121.8324328887
 10
147.652239315
 20
121.8330196382
 10
147.64933703
 20
121.8336176214
 10
147.6464988979
 20
121.8342243018
 10
147.6437248701
 20
121.834839658
 10
147.6410149952
 20
121.8354637114
 10
147.6383691111
 20
121.8360939891
 10
147.6357883334
 20
121.8367301478
 10
147.6332715466
 20
121.8373725307
 10
147.6308152419
 20
121.8380196949
 10
147.6284197004
 20
121.8386714178
 10
147.6260846409
 20
121.8393279218
 10
147.6238057107
 20
121.8399884315
 10
147.6215832429
 20
121.8406526532
 10
147.6194169044
 20
121.8413208806
 10
147.6173013433
 20
121.8419932192
 10
147.6152396016
 20
121.8426682389
 10
147.6132286373
 20
121.8433473699
 10
147.6112539725
 20
121.8440350081
 10
147.6093212795
 20
121.8447278904
 10
147.6074248861
 20
121.84542928
 10
147.6055332971
 20
121.846153362
 10
147.6036387915
 20
121.8469013296
 10
147.6017490903
 20
121.8476719895
 10
147.5998558614
 20
121.8484759477
 10
147.5979524135
 20
121.8493142778
 10
147.5960454378
 20
121.8501859061
 10
147.5941466761
 20
121.8510982171
 10
147.5922600422
 20
121.8520536724
 10
147.5903816224
 20
121.8530498105
 10
147.5885114164
 20
121.8540866313
  0
LWPOLYLINE
  5
575
100
AcDbEntity
  8
RACCORDO
100
AcDbPolyline
 62
250
  6
CONTINUOUS
 90
28
 70
0
 10
144.3240344701
 20
123.7593267735
 10
144.3205212018
 20
123.7599513521
 10
144.3170517345
 20
123.7605979401
 10
144.3136260679
 20
123.7612665373
 10
144.3102546916
 20
123.7619545934
 10
144.3069271162
 20
123.7626646589
 10
144.3036118731
 20
123.7634043842
 10
144.3002822917
 20
123.7641799428
 10
144.2969650426
 20
123.7649851613
 10
144.2937086699
 20
123.7658091699
 10
144.2905092941
 20
123.7666551225
 10
144.2873707948
 20
123.7675198653
 10
144.284353354
 20
123.768383067
 10
144.2814803546
 20
123.769239031
 10
144.2787284139
 20
123.770093454
 10
144.276087566
 20
123.7709430953
 10
144.2735748786
 20
123.7717805854
 10
144.2711732841
 20
123.7726132939
 10
144.2688216141
 20
123.7734600882
 10
144.2665167607
 20
123.7743182946
 10
144.2642618318
 20
123.7751905869
 10
144.2620049819
 20
123.7761038547
 10
144.2597367118
 20
123.7770561357
 10
144.2574665208
 20
123.7780493921
 10
144.2551710609
 20
123.7791163997
 10
144.2528425496
 20
123.780268084
 10
144.2504887695
 20
123.7814935196
 10
144.2481097206
 20
123.7827927064
  0
LWPOLYLINE
  5
576
100
AcDbEntity
  8
ASSI
100
AcDbPolyline
 62
250
  6
CONTINUOUS
 90
8
 70
0
 10
142.6481293438
 20
123.5341747328
 10
142.6468783103
 20
123.5344114683
 10
142.6404649764
 20
123.5342839093
 10
142.633651428
 20
123.5320180758
 10
142.6265123157
 20
123.5276387927
 10
142.6191258568
 20
123.5211940397
 10
142.6115729792
 20
123.5127544269
 10
142.6039364336
 20
123.5024124202
  0
LINE
  5
577
100
AcDbEntity
  8
ASSI
100
AcDbLine
 62
250
  6
CONTINUOUS
 10
142.6404327399
 20
123.4952890612
 11
142.5765606853
 21
123.5077189424
  0
LWPOLYLINE
  5
578
100
AcDbEntity
  8
ASSI
100
AcDbPolyline
 62
250
  6
CONTINUOUS
 90
5
 70
0
 10
143.7630756352
 20
123.994221508
 10
143.7467251108
 20
123.9978621231
 10
143.7311431741
 20
123.9987200035
 10
143.7165676768
 20
123.9967820542
 10
143.7032211077
 20
123.992077857
  0
LWPOLYLINE
  5
579
100
AcDbEntity
  8
RACCORDO
100
AcDbPolyline
 62
250
  6
CONTINUOUS
 90
3
 70
0
 10
148.3835084245
 20
122.1084978328
 10
148.3937302616
 20
122.1061434784
 10
148.4030961668
 20
122.1024125448
  0
LINE
  5
57A
100
AcDbEntity
  8
RACCORDO
100
AcDbLine
 62
250
  6
CONTINUOUS
 10
147.1882711495
 20
122.1029649746
 11
147.1944870846
 21
122.1009300306
  0
LINE
  5
57B
100
AcDbEntity
  8
RACCORDO
100
AcDbLine
 62
250
  6
CONTINUOUS
 10
143.8484095005
 20
124.0315507693
 11
143.854604899
 21
124.0295094113
  0
LINE
  5
57C
100
AcDbEntity
  8
RACCORDO
100
AcDbLine
 62
250
  6
CONTINUOUS
 10
144.6267552324
 20
123.6066997929
 11
144.6087069067
 21
123.6131864954
  0
LINE
  5
57D
100
AcDbEntity
  8
RACCORDO
100
AcDbLine
 62
250
  6
CONTINUOUS
 10
147.9544584663
 20
121.6833616755
 11
147.934371718
 21
121.6906295501
  0
LINE
  5
57E
100
AcDbEntity
  8
RACCORDO
100
AcDbLine
 62
250
  6
CONTINUOUS
 10
144.6087069067
 20
123.6131864954
 11
144.5910934073
 21
123.6196418225
  0
LINE
  5
57F
100
AcDbEntity
  8
RACCORDO
100
AcDbLine
 62
250
  6
CONTINUOUS
 10
147.934371718
 20
121.6906295501
 11
147.9147064837
 21
121.6978962784
  0
LWPOLYLINE
  5
580
100
AcDbEntity
  8
RACCORDO
100
AcDbPolyline
 62
250
  6
CONTINUOUS
 90
11
 70
0
 10
147.6861727896
 20
121.7912606449
 10
147.6817902661
 20
121.7928948766
 10
147.6774549262
 20
121.7945417986
 10
147.6731681692
 20
121.7962042351
 10
147.6689315144
 20
121.7978906783
 10
147.6647461204
 20
121.7995976173
 10
147.6606132724
 20
121.8013097414
 10
147.65653504
 20
121.8030283812
 10
147.6525129427
 20
121.8047564651
 10
147.6485481598
 20
121.806481212
 10
147.644644658
 20
121.8082029853
  0
LWPOLYLINE
  5
581
100
AcDbEntity
  8
RACCORDO
100
AcDbPolyline
 62
250
  6
CONTINUOUS
 90
11
 70
0
 10
144.3453319228
 20
123.7199104783
 10
144.3404524708
 20
123.7217300749
 10
144.3355830081
 20
123.7235920758
 10
144.3307234971
 20
123.725497665
 10
144.3258888962
 20
123.7274422487
 10
144.3210647735
 20
123.7294322714
 10
144.3162055453
 20
123.7314828176
 10
144.3112708646
 20
123.733607299
 10
144.306297929
 20
123.7357858392
 10
144.3013587888
 20
123.7379845402
 10
144.2964499377
 20
123.7402145476
  0
LINE
  5
582
100
AcDbEntity
  8
RACCORDO
100
AcDbLine
 62
250
  6
CONTINUOUS
 10
144.5910934073
 20
123.6196418225
 11
144.5739588291
 21
123.6260151893
  0
LINE
  5
583
100
AcDbEntity
  8
RACCORDO
100
AcDbLine
 62
250
  6
CONTINUOUS
 10
147.9147064837
 20
121.6978962784
 11
147.8955195084
 21
121.7050996383
  0
LINE
  5
584
100
AcDbEntity
  8
RACCORDO
100
AcDbLine
 62
250
  6
CONTINUOUS
 10
144.5739588291
 20
123.6260151893
 11
144.5572794218
 21
123.6323125588
  0
LINE
  5
585
100
AcDbEntity
  8
RACCORDO
100
AcDbLine
 62
250
  6
CONTINUOUS
 10
147.8955195084
 20
121.7050996383
 11
147.8768105539
 21
121.7122377535
  0
LINE
  5
586
100
AcDbEntity
  8
RACCORDO
100
AcDbLine
 62
250
  6
CONTINUOUS
 10
144.5572794218
 20
123.6323125588
 11
144.5331365383
 21
123.6415821415
  0
LINE
  5
587
100
AcDbEntity
  8
RACCORDO
100
AcDbLine
 62
250
  6
CONTINUOUS
 10
147.8768105539
 20
121.7122377535
 11
147.8585670167
 21
121.7193036426
  0
LINE
  5
588
100
AcDbEntity
  8
RACCORDO
100
AcDbLine
 62
250
  6
CONTINUOUS
 10
144.5331365383
 20
123.6415821415
 11
144.5100479474
 21
123.6506126411
  0
LINE
  5
589
100
AcDbEntity
  8
RACCORDO
100
AcDbLine
 62
250
  6
CONTINUOUS
 10
147.8585670167
 20
121.7193036426
 11
147.8407904737
 21
121.7262841636
  0
LINE
  5
58A
100
AcDbEntity
  8
RACCORDO
100
AcDbLine
 62
250
  6
CONTINUOUS
 10
147.8407904737
 20
121.7262841636
 11
147.8234480186
 21
121.7331859699
  0
LINE
  5
58B
100
AcDbEntity
  8
RACCORDO
100
AcDbLine
 62
250
  6
CONTINUOUS
 10
144.5100479474
 20
123.6506126411
 11
144.4879894954
 21
123.6593892513
  0
LINE
  5
58C
100
AcDbEntity
  8
RACCORDO
100
AcDbLine
 62
250
  6
CONTINUOUS
 10
144.4879894954
 20
123.6593892513
 11
144.466920071
 21
123.6679084688
  0
LINE
  5
58D
100
AcDbEntity
  8
RACCORDO
100
AcDbLine
 62
250
  6
CONTINUOUS
 10
147.8234480186
 20
121.7331859699
 11
147.7981291943
 21
121.7434278579
  0
LINE
  5
58E
100
AcDbEntity
  8
RACCORDO
100
AcDbLine
 62
250
  6
CONTINUOUS
 10
147.1944870846
 20
122.1009300306
 11
147.2005768583
 21
122.0984472489
  0
LINE
  5
58F
100
AcDbEntity
  8
RACCORDO
100
AcDbLine
 62
250
  6
CONTINUOUS
 10
143.854604899
 20
124.0295094113
 11
143.8606740374
 21
124.0270201851
  0
LINE
  5
590
100
AcDbEntity
  8
RACCORDO
100
AcDbLine
 62
250
  6
CONTINUOUS
 10
144.466920071
 20
123.6679084688
 11
144.4468096495
 21
123.6761656047
  0
LINE
  5
591
100
AcDbEntity
  8
RACCORDO
100
AcDbLine
 62
250
  6
CONTINUOUS
 10
147.7981291943
 20
121.7434278579
 11
147.7738632499
 21
121.7534254949
  0
LINE
  5
592
100
AcDbEntity
  8
RACCORDO
100
AcDbLine
 62
250
  6
CONTINUOUS
 10
144.4468096495
 20
123.6761656047
 11
144.4275778749
 21
123.6841806521
  0
LINE
  5
593
100
AcDbEntity
  8
RACCORDO
100
AcDbLine
 62
250
  6
CONTINUOUS
 10
147.7738632499
 20
121.7534254949
 11
147.7502782014
 21
121.7633191275
  0
LINE
  5
594
100
AcDbEntity
  8
RACCORDO
100
AcDbLine
 62
250
  6
CONTINUOUS
 10
144.4275778749
 20
123.6841806521
 11
144.4092730535
 21
123.6919189647
  0
LWPOLYLINE
  5
595
100
AcDbEntity
  8
RACCORDO
100
AcDbPolyline
 62
250
  6
CONTINUOUS
 90
4
 70
0
 10
147.7502782014
 20
121.7633191275
 10
147.7254910595
 20
121.7739146987
 10
147.7165110673
 20
121.7778415865
 10
147.6861727896
 20
121.7912606449
  0
LWPOLYLINE
  5
596
100
AcDbEntity
  8
RACCORDO
100
AcDbPolyline
 62
250
  6
CONTINUOUS
 90
12
 70
0
 10
150.8432716701
 20
118.6317425866
 10
150.8588977576
 20
118.6250234746
 10
150.8731572391
 20
118.616655345
 10
150.8860501147
 20
118.6066381976
 10
150.8975092151
 20
118.5949855117
 10
150.9076017096
 20
118.581683808
 10
150.9165291064
 20
118.5666926491
 10
150.9244237654
 20
118.5501427243
 10
150.9311533266
 20
118.5319033441
 10
150.9365222178
 20
118.5115420024
 10
150.9404652481
 20
118.4889145305
 10
150.9430476084
 20
118.4641650971
  0
LINE
  5
597
100
AcDbEntity
  8
RACCORDO
100
AcDbLine
 62
250
  6
CONTINUOUS
 10
144.4092730535
 20
123.6919189647
 11
144.3916276872
 21
123.6994837604
  0
LINE
  5
598
100
AcDbEntity
  8
RACCORDO
100
AcDbLine
 62
250
  6
CONTINUOUS
 10
144.3916276872
 20
123.6994837604
 11
144.3733875858
 21
123.7074206666
  0
LINE
  5
599
100
AcDbEntity
  8
RACCORDO
100
AcDbLine
 62
250
  6
CONTINUOUS
 10
144.3733875858
 20
123.7074206666
 11
144.3453319228
 21
123.7199104783
  0
LWPOLYLINE
  5
59A
100
AcDbEntity
  8
RACCORDO
100
AcDbPolyline
 62
250
  6
CONTINUOUS
 90
3
 70
0
 10
147.644644658
 20
121.8082029853
 10
147.637017445
 20
121.8116397141
 10
147.6332920496
 20
121.8133468128
  0
LWPOLYLINE
  5
59B
100
AcDbEntity
  8
RACCORDO
100
AcDbPolyline
 62
250
  6
CONTINUOUS
 90
3
 70
0
 10
144.2964499377
 20
123.7402145476
 10
144.2868388465
 20
123.7446747251
 10
144.28227334
 20
123.7468373567
  0
LWPOLYLINE
  5
59C
100
AcDbEntity
  8
RACCORDO
100
AcDbPolyline
 62
250
  6
CONTINUOUS
 90
3
 70
0
 10
147.6332920496
 20
121.8133468128
 10
147.6260178391
 20
121.8167416841
 10
147.6224651661
 20
121.8184241911
  0
LWPOLYLINE
  5
59D
100
AcDbEntity
  8
RACCORDO
100
AcDbPolyline
 62
7
  6
CONTINUOUS
 90
4
 70
0
 10
149.0993083135
 20
121.1142366589
 10
149.0946945133
 20
121.1164093079
 10
149.0892089047
 20
121.118134648
 10
149.0828638226
 20
121.1195078458
  0
LWPOLYLINE
  5
59E
100
AcDbEntity
  8
RACCORDO
100
AcDbPolyline
 62
7
  6
CONTINUOUS
 90
5
 70
0
 10
145.0678960878
 20
124.0282777787
 10
145.0506719645
 20
124.0365868074
 10
145.0328335823
 20
124.04218968
 10
145.0142184112
 20
124.0452656624
 10
145.0018270942
 20
124.0458855088
  0
LINE
  5
59F
100
AcDbEntity
  8
RACCORDO
100
AcDbLine
 62
250
  6
CONTINUOUS
 10
147.6224651661
 20
121.8184241911
 11
147.6155259096
 21
121.8217645154
  0
LWPOLYLINE
  5
5A0
100
AcDbEntity
  8
RACCORDO
100
AcDbPolyline
 62
250
  6
CONTINUOUS
 90
4
 70
0
 10
144.28227334
 20
123.7468373567
 10
144.2735564625
 20
123.7510606229
 10
144.2694246255
 20
123.7530903969
 10
144.2654306357
 20
123.7550852877
  0
LINE
  5
5A1
100
AcDbEntity
  8
RACCORDO
100
AcDbLine
 62
250
  6
CONTINUOUS
 10
147.6155259096
 20
121.8217645154
 11
147.6088020405
 21
121.8250612805
  0
LWPOLYLINE
  5
5A2
100
AcDbEntity
  8
RACCORDO
100
AcDbPolyline
 62
250
  6
CONTINUOUS
 90
3
 70
0
 10
147.6088020405
 20
121.8250612805
 10
147.6022261755
 20
121.8283454245
 10
147.5989880358
 20
121.8299841364
  0
LINE
  5
5A3
100
AcDbEntity
  8
ASSI
100
AcDbLine
 62
250
  6
CONTINUOUS
 10
147.1200143239
 20
122.0589276162
 11
147.1378615531
 21
122.0499283939
  0
LWPOLYLINE
  5
5A4
100
AcDbEntity
  8
RACCORDO
100
AcDbPolyline
 62
250
  6
CONTINUOUS
 90
3
 70
0
 10
144.2654306357
 20
123.7550852877
 10
144.2575472569
 20
123.7590858131
 10
144.2536611086
 20
123.7610875146
  0
LWPOLYLINE
  5
5A5
100
AcDbEntity
  8
RACCORDO
100
AcDbPolyline
 62
7
  6
CONTINUOUS
 90
10
 70
0
 10
143.586758962
 20
124.2971130367
 10
143.5649724036
 20
124.3082667432
 10
143.5395766519
 20
124.3179801675
 10
143.5134672318
 20
124.3246213622
 10
143.4870704401
 20
124.328108655
 10
143.4607205688
 20
124.3284499812
 10
143.4347311008
 20
124.3256874176
 10
143.4095062328
 20
124.3199216045
 10
143.3854621583
 20
124.3113383542
 10
143.3673919355
 20
124.3026568704
  0
LWPOLYLINE
  5
5A6
100
AcDbEntity
  8
RACCORDO
100
AcDbPolyline
 62
250
  6
CONTINUOUS
 90
3
 70
0
 10
147.5989880358
 20
121.8299841364
 10
147.5924167377
 20
121.83336422
 10
147.589083679
 20
121.8350968906
  0
LWPOLYLINE
  5
5A7
100
AcDbEntity
  8
ASSI
100
AcDbPolyline
 62
250
  6
CONTINUOUS
 90
3
 70
0
 10
143.7970761898
 20
123.9788559928
 10
143.7799451636
 20
123.9878537308
 10
143.7630756352
 20
123.994221508
  0
LWPOLYLINE
  5
5A8
100
AcDbEntity
  8
RACCORDO
100
AcDbPolyline
 62
250
  6
CONTINUOUS
 90
4
 70
0
 10
144.2536611086
 20
123.7610875146
 10
144.2456956791
 20
123.7652822668
 10
144.241616146
 20
123.7674546691
 10
144.2374025891
 20
123.7697663544
  0
LWPOLYLINE
  5
5A9
100
AcDbEntity
  8
RACCORDO
100
AcDbPolyline
 62
250
  6
CONTINUOUS
 90
4
 70
0
 10
147.589083679
 20
121.8350968906
 10
147.582251766
 20
121.8387219197
 10
147.5787527886
 20
121.840598713
 10
147.5752052226
 20
121.8425406446
  0
LINE
  5
5AA
100
AcDbEntity
  8
RACCORDO
100
AcDbLine
 62
250
  6
CONTINUOUS
 10
145.0641917217
 20
124.0302534146
 11
145.0678888584
 21
124.0282813855
  0
LINE
  5
5AB
100
AcDbEntity
  8
RACCORDO
100
AcDbLine
 62
250
  6
CONTINUOUS
 10
148.4030961668
 20
122.1024125448
 11
148.4068153218
 21
122.1004270921
  0
LINE
  5
5AC
100
AcDbEntity
  8
RACCORDO
100
AcDbLine
 62
250
  6
CONTINUOUS
 10
145.8598542572
 20
123.2212178308
 11
145.8628866237
 21
123.2195528855
  0
LWPOLYLINE
  5
5AD
100
AcDbEntity
  8
RACCORDO
100
AcDbPolyline
 62
250
  6
CONTINUOUS
 90
5
 70
0
 10
150.8527853527
 20
118.4667282379
 10
150.8639603304
 20
118.4605594897
 10
150.8744164863
 20
118.4531726204
 10
150.8841791304
 20
118.4446335064
 10
150.8915546869
 20
118.4369710984
  0
LWPOLYLINE
  5
5AE
100
AcDbEntity
  8
RACCORDO
100
AcDbPolyline
 62
250
  6
CONTINUOUS
 90
9
 70
0
 10
145.6560869212
 20
123.6886631959
 10
145.6546091836
 20
123.6894927995
 10
145.6505855312
 20
123.6915233968
 10
145.6463155558
 20
123.6933412619
 10
145.6417941008
 20
123.6949226604
 10
145.6369572475
 20
123.6962569916
 10
145.6317763831
 20
123.6973104287
 10
145.6262646599
 20
123.698038635
 10
145.6204176873
 20
123.6984022402
  0
LWPOLYLINE
  5
5AF
100
AcDbEntity
  8
RACCORDO
100
AcDbPolyline
 62
250
  6
CONTINUOUS
 90
9
 70
0
 10
148.9950139284
 20
121.7608085885
 10
148.9935329276
 20
121.7616403616
 10
148.9894789793
 20
121.763689127
 10
148.9851815535
 20
121.7655233871
 10
148.980635697
 20
121.7671192487
 10
148.9757784448
 20
121.7684654821
 10
148.9705814805
 20
121.7695279938
 10
148.9650576123
 20
121.7702625723
 10
148.9592024317
 20
121.7706297735
  0
LINE
  5
5B0
100
AcDbEntity
  8
RACCORDO
100
AcDbLine
 62
250
  6
CONTINUOUS
 10
147.5752052226
 20
121.8425406446
 11
147.5642787773
 21
121.8486714716
  0
LINE
  5
5B1
100
AcDbEntity
  8
RACCORDO
100
AcDbLine
 62
250
  6
CONTINUOUS
 10
144.2374025891
 20
123.7697663544
 11
144.2238771361
 21
123.7773775704
  0
LWPOLYLINE
  5
5B2
100
AcDbEntity
  8
RACCORDO
100
AcDbPolyline
 62
7
  6
CONTINUOUS
 90
6
 70
0
 10
148.4068665372
 20
122.1003980383
 10
148.4046496957
 20
122.1016506007
 10
148.3879793495
 20
122.1093715758
 10
148.3702118996
 20
122.1147326679
 10
148.3517326662
 20
122.117604802
 10
148.3406231348
 20
122.1181129985
  0
LWPOLYLINE
  5
5B3
100
AcDbEntity
  8
RACCORDO
100
AcDbPolyline
 62
250
  6
CONTINUOUS
 90
14
 70
0
 10
143.4892932814
 20
124.2885640644
 10
143.4810187526
 20
124.2932410025
 10
143.4725698863
 20
124.297534569
 10
143.4639680212
 20
124.3014011232
 10
143.4552309222
 20
124.304798295
 10
143.4463917264
 20
124.307678176
 10
143.437498354
 20
124.3099916976
 10
143.4285687174
 20
124.311699597
 10
143.4196510889
 20
124.3127568038
 10
143.4108384703
 20
124.3131235171
 10
143.4021734375
 20
124.3127755868
 10
143.3936827185
 20
124.3116907888
 10
143.38543074
 20
124.3098561585
 10
143.3774479364
 20
124.3072598061
  0
LINE
  5
5B4
100
AcDbEntity
  8
RACCORDO
100
AcDbLine
 62
250
  6
CONTINUOUS
 10
146.609883816
 20
121.8127304378
 11
144.4517029323
 21
123.0588370317
  0
LINE
  5
5B5
100
AcDbEntity
  8
RACCORDO
100
AcDbLine
 62
250
  6
CONTINUOUS
 10
146.8308464459
 20
121.940311491
 11
144.7395207601
 21
123.1478167315
  0
LINE
  5
5B6
100
AcDbEntity
  8
ASSI
100
AcDbLine
 62
250
  6
CONTINUOUS
 10
147.5232334358
 20
121.8274194987
 11
147.1378615531
 21
122.0499283939
  0
LINE
  5
5B7
100
AcDbEntity
  8
ASSI
100
AcDbLine
 62
250
  6
CONTINUOUS
 10
144.1824480725
 20
123.7563470976
 11
143.7970761898
 21
123.9788559928
  0
LINE
  5
5B8
100
AcDbEntity
  8
RACCORDO
100
AcDbLine
 62
250
  6
CONTINUOUS
 10
147.5642788084
 20
121.8486714883
 11
147.1760406381
 21
122.072827344
  0
LINE
  5
5B9
100
AcDbEntity
  8
RACCORDO
100
AcDbLine
 62
250
  6
CONTINUOUS
 10
144.2238771463
 20
123.7773775793
 11
143.838736312
 21
123.9997530683
  0
LINE
  5
5BA
100
AcDbEntity
  8
RACCORDO
100
AcDbLine
 62
250
  6
CONTINUOUS
 10
147.5885114164
 20
121.8540866313
 11
147.2033705842
 21
122.0764621208
  0
LINE
  5
5BB
100
AcDbEntity
  8
RACCORDO
100
AcDbLine
 62
250
  6
CONTINUOUS
 10
144.2481097206
 20
123.7827927064
 11
143.8629688885
 21
124.0051681962
  0
LINE
  5
5BC
100
AcDbEntity
  8
RACCORDO
100
AcDbLine
 62
250
  6
CONTINUOUS
 10
150.3785347468
 20
120.3108023847
 11
149.0057333676
 21
121.1034406958
  0
LINE
  5
5BD
100
AcDbEntity
  8
RACCORDO
100
AcDbLine
 62
250
  6
CONTINUOUS
 10
143.907066702
 20
124.0473469272
 11
143.4892932814
 21
124.2885640644
  0
LINE
  5
5BE
100
AcDbEntity
  8
RACCORDO
100
AcDbLine
 62
7
  6
CONTINUOUS
 10
150.4760714359
 20
120.3193104159
 11
149.0993082325
 21
121.1142362346
  0
LINE
  5
5BF
100
AcDbEntity
  8
RACCORDO
100
AcDbLine
 62
7
  6
CONTINUOUS
 10
144.0142261407
 20
124.0502989034
 11
143.5868299704
 21
124.2970720956
  0
LINE
  5
5C0
100
AcDbEntity
  8
RACCORDO
100
AcDbLine
 62
250
  6
CONTINUOUS
 10
147.3710121199
 20
122.1226845817
 11
145.5610337696
 21
123.1677433968
  0
LINE
  5
5C1
100
AcDbEntity
  8
RACCORDO
100
AcDbLine
 62
250
  6
CONTINUOUS
 10
147.6770612151
 20
122.1212416734
 11
145.7742459833
 21
123.2199033403
  0
LINE
  5
5C2
100
AcDbEntity
  8
RACCORDO
100
AcDbLine
 62
7
  6
CONTINUOUS
 10
147.7658196418
 20
122.1208232102
 11
145.8628838776
 21
123.2195544711
  0
LINE
  5
5C3
100
AcDbEntity
  8
RACCORDO
100
AcDbLine
 62
250
  6
CONTINUOUS
 10
145.0337017732
 20
124.0371646557
 11
145.6204176873
 21
123.6984022402
  0
LINE
  5
5C4
100
AcDbEntity
  8
RACCORDO
100
AcDbLine
 62
250
  6
CONTINUOUS
 10
148.3724865177
 20
122.109392189
 11
148.9592024317
 21
121.7706297735
  0
LINE
  5
5C5
100
AcDbEntity
  8
RACCORDO
100
AcDbLine
 62
7
  6
CONTINUOUS
 10
145.0678872492
 20
124.0282823146
 11
145.6560871141
 21
123.6886630845
  0
LINE
  5
5C6
100
AcDbEntity
  8
RACCORDO
100
AcDbLine
 62
7
  6
CONTINUOUS
 10
148.4068143731
 20
122.1004276398
 11
148.9950142823
 21
121.7608083841
  0
LWPOLYLINE
  5
5C7
100
AcDbEntity
  8
RACCORDO
100
AcDbPolyline
 62
250
  6
CONTINUOUS
 90
21
 70
0
 10
147.2033705842
 20
122.0764621208
 10
147.2018376424
 20
122.0773657637
 10
147.2003779339
 20
122.0782845865
 10
147.1989914588
 20
122.0792185893
 10
147.1976686696
 20
122.0801701873
 10
147.1964191138
 20
122.0811369652
 10
147.1952714333
 20
122.0821116777
 10
147.194226091
 20
122.0830941736
 10
147.193282624
 20
122.0840846041
 10
147.1924682857
 20
122.0850761772
 10
147.1917826621
 20
122.0860684909
 10
147.1912261672
 20
122.0870619472
 10
147.1908272958
 20
122.0880509598
 10
147.1905857792
 20
122.0890378295
 10
147.1905018862
 20
122.0900202555
 10
147.1906049182
 20
122.0909857498
 10
147.190898421
 20
122.0919342922
 10
147.191378849
 20
122.0928659028
 10
147.1920648668
 20
122.0937681539
 10
147.1929611713
 20
122.0946403476
 10
147.1940630658
 20
122.0954831817
  0
LWPOLYLINE
  5
5C8
100
AcDbEntity
  8
RACCORDO
100
AcDbPolyline
 62
250
  6
CONTINUOUS
 90
23
 70
0
 10
147.1760406381
 20
122.072827344
 10
147.1730072207
 20
122.0746163872
 10
147.1700385011
 20
122.0764074286
 10
147.1671214587
 20
122.0781925558
 10
147.1642706642
 20
122.0799647269
 10
147.1615281695
 20
122.0817193406
 10
147.1588948534
 20
122.0834489794
 10
147.1563706796
 20
122.0851466833
 10
147.153995775
 20
122.0868104675
 10
147.1517689239
 20
122.0884318185
 10
147.1496904733
 20
122.0900046699
 10
147.1478018233
 20
122.0915317079
 10
147.1460960456
 20
122.0930081399
 10
147.1445763431
 20
122.0944214711
 10
147.143297728
 20
122.0957663064
 10
147.1422588208
 20
122.0970386646
 10
147.1414534591
 20
122.0982302698
 10
147.1409277707
 20
122.0993371475
 10
147.140680556
 20
122.1003585708
 10
147.1407017837
 20
122.1012899695
 10
147.1410232329
 20
122.1021311011
 10
147.1416510662
 20
122.1028850422
 10
147.1425659054
 20
122.1035521847
  0
LWPOLYLINE
  5
5C9
100
AcDbEntity
  8
RACCORDO
100
AcDbPolyline
 62
250
  6
CONTINUOUS
 90
27
 70
0
 10
143.8387363003
 20
123.9997530582
 10
143.8318187553
 20
124.0038535472
 10
143.8286800977
 20
124.0057498997
 10
143.8257714899
 20
124.0075508581
 10
143.8230797315
 20
124.0092647646
 10
143.8205626097
 20
124.0109008893
 10
143.8182188836
 20
124.0124568817
 10
143.8160504368
 20
124.0139428735
 10
143.8140193596
 20
124.0153803351
 10
143.8121124726
 20
124.0167700598
 10
143.8103421767
 20
124.0181090074
 10
143.8087084962
 20
124.0194068447
 10
143.8072039149
 20
124.0206610374
 10
143.8058337802
 20
124.0218677542
 10
143.8046167002
 20
124.0230321432
 10
143.8035464123
 20
124.0241511495
 10
143.8026251722
 20
124.0252190346
 10
143.8018833591
 20
124.0262369706
 10
143.801316992
 20
124.0272021286
 10
143.8009238136
 20
124.0281091203
 10
143.8007357247
 20
124.0289580266
 10
143.8007496158
 20
124.0297470207
 10
143.800960232
 20
124.0304726419
 10
143.8013954622
 20
124.0311368947
 10
143.8020612718
 20
124.0317410114
 10
143.8029418678
 20
124.0322825304
 10
143.8040321355
 20
124.0327600025
  0
LWPOLYLINE
  5
5CA
100
AcDbEntity
  8
RACCORDO
100
AcDbPolyline
 62
250
  6
CONTINUOUS
 90
24
 70
0
 10
143.8629688885
 20
124.0051681962
 10
143.8612086899
 20
124.0062250916
 10
143.859595457
 20
124.0072517761
 10
143.8581291899
 20
124.0082482499
 10
143.8568183952
 20
124.0092122347
 10
143.8556545663
 20
124.0101460087
 10
143.854612183
 20
124.0110564063
 10
143.8536882457
 20
124.0119416202
 10
143.852885754
 20
124.0128034579
 10
143.8521881862
 20
124.0136541761
 10
143.8515886201
 20
124.0144966969
 10
143.851093978
 20
124.0153280984
 10
143.8507085048
 20
124.016151872
 10
143.8504290035
 20
124.0169694627
 10
143.8502586712
 20
124.0177794256
 10
143.8502113436
 20
124.0185809178
 10
143.8502859128
 20
124.0193753183
 10
143.8504834867
 20
124.0201612482
 10
143.8508212258
 20
124.020933727
 10
143.8513001664
 20
124.0216934056
 10
143.8519192721
 20
124.0224396332
 10
143.852692594
 20
124.0231654771
 10
143.8536220428
 20
124.0238707906
 10
143.8547057077
 20
124.0245557203
  0
LWPOLYLINE
  5
5CB
100
AcDbEntity
  8
ASSI
100
AcDbPolyline
 62
250
  6
CONTINUOUS
 90
13
 70
0
 10
147.5232334358
 20
121.8274194987
 10
147.5409754991
 20
121.8162819518
 10
147.5584467375
 20
121.8028218008
 10
147.5753804598
 20
121.787244509
 10
147.59151818
 20
121.7697878572
 10
147.6066135627
 20
121.7507183136
 10
147.6204361834
 20
121.7303269668
 10
147.6327750456
 20
121.708925082
 10
147.6434418018
 20
121.6868393497
 10
147.6522736286
 20
121.6644068993
 10
147.6591357119
 20
121.6419701526
 10
147.6639233048
 20
121.6198715969
 10
147.6665633269
 20
121.5984485573
  0
LWPOLYLINE
  5
5CC
100
AcDbEntity
  8
RACCORDO
100
AcDbPolyline
 62
7
  6
CONTINUOUS
 90
5
 70
0
 10
145.8629825565
 20
123.2194967074
 10
145.8596581152
 20
123.2216344924
 10
145.8564177519
 20
123.2242647768
 10
145.8544783721
 20
123.2262512076
 10
145.853960505
 20
123.2268792166
  0
LWPOLYLINE
  5
5CD
100
AcDbEntity
  8
RACCORDO
100
AcDbPolyline
 62
250
  6
CONTINUOUS
 90
13
 70
0
 10
144.4517029323
 20
123.0588370317
 10
144.435640841
 20
123.0692860106
 10
144.4198355149
 20
123.0819178245
 10
144.4045396753
 20
123.0965305212
 10
144.3899979126
 20
123.1128904578
 10
144.3764427413
 20
123.1307360736
 10
144.3640908896
 20
123.1497820811
 10
144.3531398825
 20
123.1697239609
 10
144.3437648573
 20
123.1902428483
 10
144.3361157426
 20
123.2110106777
 10
144.3303148884
 20
123.2316953726
 10
144.3264551003
 20
123.2519661536
 10
144.3245981434
 20
123.2714988582
  0
LWPOLYLINE
  5
5CE
100
AcDbEntity
  8
RACCORDO
100
AcDbPolyline
 62
250
  6
CONTINUOUS
 90
13
 70
0
 10
145.7742463326
 20
123.2199072218
 10
145.7583833982
 20
123.2304563863
 10
145.7429958881
 20
123.2433016461
 10
145.7283299297
 20
123.2582375837
 10
145.7146201308
 20
123.2750253163
 10
145.7020857808
 20
123.2933963694
 10
145.6909273566
 20
123.3130569852
 10
145.6813233735
 20
123.333692733
 10
145.6734275085
 20
123.3549735336
 10
145.6673661083
 20
123.3765590039
 10
145.6632361863
 20
123.3981038636
 10
145.6611038647
 20
123.4192634572
 10
145.6610033117
 20
123.4396992801
  0
LWPOLYLINE
  5
5CF
100
AcDbEntity
  8
RACCORDO
100
AcDbPolyline
 62
250
  6
CONTINUOUS
 90
10
 70
0
 10
149.0197680678
 20
121.6393810478
 10
149.0178855444
 20
121.6406421916
 10
149.0159133386
 20
121.6418060236
 10
149.0138213757
 20
121.6428598528
 10
149.011611864
 20
121.6438117868
 10
149.0092825952
 20
121.644653718
 10
149.0067968704
 20
121.6453486333
 10
149.0041424568
 20
121.645884195
 10
149.0013315871
 20
121.6462727407
 10
148.9983642616
 20
121.6465142705
  0
LWPOLYLINE
  5
5D0
100
AcDbEntity
  8
RACCORDO
100
AcDbPolyline
 62
250
  6
CONTINUOUS
 90
10
 70
0
 10
145.6797282328
 20
123.563611931
 10
145.6778817687
 20
123.5648518296
 10
145.6759428069
 20
123.5659960714
 10
145.6738809328
 20
123.5670322017
 10
145.6716985769
 20
123.5679681795
 10
145.6693933087
 20
123.5687960459
 10
145.6669274218
 20
123.5694794691
 10
145.6642883476
 20
123.5700063388
 10
145.6614886547
 20
123.5703887653
 10
145.6585283432
 20
123.5706267487
  0
LWPOLYLINE
  5
5D1
100
AcDbEntity
  8
RACCORDO
100
AcDbPolyline
 62
250
  6
CONTINUOUS
 90
13
 70
0
 10
144.7395207601
 20
123.1478167315
 10
144.7241667738
 20
123.1584528715
 10
144.7099255668
 20
123.1715612521
 10
144.6970263304
 20
123.1869309132
 10
144.6856766589
 20
123.2043145026
 10
144.6760592085
 20
123.223432257
 10
144.668328758
 20
123.2439765042
 10
144.6626097177
 20
123.2656166148
 10
144.658994127
 20
123.288004323
 10
144.6575401736
 20
123.3107793315
 10
144.6582712567
 20
123.3335751099
 10
144.6611756107
 20
123.3560247938
 10
144.6662064942
 20
123.3777670884
  0
LWPOLYLINE
  5
5D2
100
AcDbEntity
  8
RACCORDO
100
AcDbPolyline
 62
250
  6
CONTINUOUS
 90
13
 70
0
 10
145.5610337696
 20
123.1677433968
 10
145.5456796506
 20
123.1783796439
 10
145.5314383502
 20
123.191488156
 10
145.5185390603
 20
123.2068579586
 10
145.5071893705
 20
123.2242416903
 10
145.4975719363
 20
123.2433595718
 10
145.4898415355
 20
123.263903905
 10
145.4841225667
 20
123.285544048
 10
145.4805070553
 20
123.3079317309
 10
145.4790531746
 20
123.3307066448
 10
145.4797843065
 20
123.3535022595
 10
145.4826886683
 20
123.3759517226
 10
145.4877195037
 20
123.3976937537
  0
LWPOLYLINE
  5
5D3
100
AcDbEntity
  8
RACCORDO
100
AcDbPolyline
 62
250
  6
CONTINUOUS
 90
6
 70
0
 10
150.8080585497
 20
118.4969686782
 10
150.8135499905
 20
118.4931027613
 10
150.818927454
 20
118.4893766991
 10
150.8241811813
 20
118.4857872781
 10
150.8292950491
 20
118.4823399761
 10
150.8527901895
 20
118.4667282317
  0
LINE
  5
5D4
100
AcDbEntity
  8
RACCORDO
100
AcDbLine
 62
250
  6
CONTINUOUS
 10
148.9701195774
 20
121.7626895469
 11
148.9592024317
 21
121.7706297735
  0
LINE
  5
5D5
100
AcDbEntity
  8
RACCORDO
100
AcDbLine
 62
250
  6
CONTINUOUS
 10
145.6316131081
 20
123.6902215783
 11
145.6204176873
 21
123.6984022402
  0
LINE
  5
5D6
100
AcDbEntity
  8
RACCORDO
100
AcDbLine
 62
250
  6
CONTINUOUS
 10
151.0456231256
 20
119.1513254381
 11
150.7013420138
 21
119.4202040863
  0
LINE
  5
5D7
100
AcDbEntity
  8
RACCORDO
100
AcDbLine
 62
7
  6
CONTINUOUS
 10
151.141704105
 20
119.1609137511
 11
150.7974229933
 21
119.4297923994
  0
LWPOLYLINE
  5
5D8
100
AcDbEntity
  8
RACCORDO
100
AcDbPolyline
 62
7
  6
CONTINUOUS
 90
18
 70
0
 10
150.7974038409
 20
119.4298073485
 10
150.7909148466
 20
119.4350035403
 10
150.7737838104
 20
119.4499424566
 10
150.7558043337
 20
119.4675665815
 10
150.737449166
 20
119.4877339606
 10
150.7193990821
 20
119.5099175848
 10
150.7019777023
 20
119.5338597787
 10
150.6854661898
 20
119.5592888771
 10
150.6703551044
 20
119.585472185
 10
150.6568567879
 20
119.6119540633
 10
150.6450563875
 20
119.6384261922
 10
150.6351032274
 20
119.664326895
 10
150.6270123876
 20
119.6892729658
 10
150.6207271366
 20
119.7129866148
 10
150.6161821668
 20
119.7350894979
 10
150.6132385457
 20
119.7553660692
 10
150.6117319512
 20
119.7735350151
 10
150.6114165533
 20
119.7857644015
  0
LWPOLYLINE
  5
5D9
100
AcDbEntity
  8
RACCORDO
100
AcDbPolyline
 62
250
  6
CONTINUOUS
 90
16
 70
0
 10
150.7013417913
 20
119.4202039571
 10
150.6852618747
 20
119.4339349691
 10
150.6696305986
 20
119.4490991761
 10
150.6545832519
 20
119.4655481958
 10
150.6402100056
 20
119.4831727063
 10
150.6266704333
 20
119.5017653006
 10
150.6141690013
 20
119.5209960263
 10
150.6028795636
 20
119.5404854433
 10
150.5927353178
 20
119.5602285051
 10
150.583604012
 20
119.5804694808
 10
150.5755665689
 20
119.6011198307
 10
150.5687493936
 20
119.6219456702
 10
150.5631899974
 20
119.6429845366
 10
150.5590034774
 20
119.6641097146
 10
150.5563318179
 20
119.685032909
 10
150.5552843024
 20
119.7055216774
  0
LINE
  5
5DA
100
AcDbEntity
  8
RACCORDO
100
AcDbLine
 62
7
  6
CONTINUOUS
 10
151.5551324572
 20
117.6965405237
 11
150.891603676
 21
118.4369164377
  0
LWPOLYLINE
  5
5DB
100
AcDbEntity
  8
0
100
AcDbPolyline
 62
7
  6
CONTINUOUS
 90
13
 70
0
 10
163.6971022177
 20
118.0055434755
 10
163.6919138554
 20
118.1757012729
 10
163.6764031564
 20
118.3392184138
 10
163.6506579678
 20
118.4955482187
 10
163.6146592819
 20
118.6445794985
 10
163.5685871696
 20
118.7853108238
 10
163.5131221947
 20
118.9160877158
 10
163.4488809686
 20
119.0363131575
 10
163.3761869791
 20
119.146082126
 10
163.2956567737
 20
119.2450103504
 10
163.2079484331
 20
119.3328318024
 10
163.1136918314
 20
119.4094207528
 10
163.0136679229
 20
119.4746227694
  0
LWPOLYLINE
  5
5DC
100
AcDbEntity
  8
RACCORDO
100
AcDbPolyline
 62
250
  6
CONTINUOUS
 90
3
 70
0
 10
145.0447011817
 20
124.0362811825
 10
145.054883208
 20
124.0339498894
 10
145.0641917217
 20
124.0302534146
  0
LINE
  5
5DD
100
AcDbEntity
  8
0
100
AcDbLine
 62
250
  6
CONTINUOUS
 10
149.4317762512
 20
127.3057752876
 11
149.4889406911
 21
127.2809227575
  0
LWPOLYLINE
  5
5DE
100
AcDbEntity
  8
0
100
AcDbPolyline
 62
7
  6
CONTINUOUS
 90
16
 70
0
 10
149.5427785226
 20
127.2524226215
 10
149.4775394766
 20
127.2867498221
 10
149.3979761839
 20
127.3205347359
 10
149.3275718281
 20
127.3425728872
 10
149.2661224768
 20
127.3554573593
 10
149.2116134077
 20
127.3618474999
 10
149.1610102264
 20
127.3635239474
 10
149.1129117867
 20
127.3612346223
 10
149.0684477074
 20
127.3556727085
 10
149.0285436366
 20
127.3478351704
 10
148.992987444
 20
127.338572581
 10
148.9609496727
 20
127.3284223938
 10
148.9322693342
 20
127.3178551939
 10
148.9066866262
 20
127.3071422378
 10
148.8836951509
 20
127.2965161446
 10
148.8712107049
 20
127.2900826319
  0
LINE
  5
5DF
100
AcDbEntity
  8
0
100
AcDbLine
 62
250
  6
CONTINUOUS
 10
162.9481260262
 20
119.5093527222
 11
163.0081574155
 21
119.4776896389
  0
LINE
  5
5E0
100
AcDbEntity
  8
0
100
AcDbLine
 62
7
  6
CONTINUOUS
 10
149.5428340391
 20
127.2524939765
 11
149.5483656625
 21
127.2492193483
  0
LINE
  5
5E1
100
AcDbEntity
  8
0
100
AcDbLine
 62
250
  6
CONTINUOUS
 10
161.0608308242
 20
119.650604516
 11
148.6108910277
 21
126.8390437201
  0
LINE
  5
5E2
100
AcDbEntity
  8
0
100
AcDbLine
 62
7
  6
CONTINUOUS
 10
163.0124552247
 20
119.4752227798
 11
149.5483656625
 21
127.2492193483
  0
LWPOLYLINE
  5
5E3
100
AcDbEntity
  8
0
100
AcDbPolyline
 62
250
  6
CONTINUOUS
 90
13
 70
0
 10
163.0632168579
 20
119.1608071559
 10
163.1497781986
 20
119.1043558336
 10
163.229515282
 20
119.0384336124
 10
163.3024281082
 20
118.9630404922
 10
163.3687713136
 20
118.8777681362
 10
163.4282902618
 20
118.7830248813
 10
163.4802210427
 20
118.680035738
 10
163.524466082
 20
118.5686952107
 10
163.561122954
 20
118.4491087951
 10
163.5897204714
 20
118.3228179883
 10
163.6101015716
 20
118.1903366227
 10
163.6224233172
 20
118.0511508658
 10
163.6266857081
 20
117.9052607177
  0
LINE
  5
5E4
100
AcDbEntity
  8
0
100
AcDbLine
 62
250
  6
CONTINUOUS
 10
163.026032113
 20
119.4658645032
 11
163.0082018824
 21
119.477766884
  0
LWPOLYLINE
  5
5E5
100
AcDbEntity
  8
0
100
AcDbPolyline
 62
250
  6
CONTINUOUS
 90
6
 70
0
 10
163.0885946285
 20
119.3767889934
 10
163.0800744739
 20
119.3979379114
 10
163.0694540354
 20
119.4175980689
 10
163.0568221886
 20
119.4356004719
 10
163.0422954361
 20
119.4517549941
 10
163.026032113
 20
119.4658645032
  0
ARC
  5
5E6
100
AcDbEntity
  8
SUPERFICI
100
AcDbCircle
 62
7
  6
CONTINUOUS
 10
142.1326056408
 20
72.2228344695
 40
0.5
100
AcDbArc
 50
239.9984015654
 51
297.4194204711
  0
ARC
  5
5E7
100
AcDbEntity
  8
SUPERFICI
100
AcDbCircle
 62
7
  6
CONTINUOUS
 10
127.2643914724
 20
80.8075549878
 40
0.5
100
AcDbArc
 50
179.9840060021
 51
239.998401565
  0
ARC
  5
5E8
100
AcDbEntity
  8
SUPERFICI
100
AcDbCircle
 62
7
  6
CONTINUOUS
 10
127.2643914724
 20
122.95932727
 40
0.5
100
AcDbArc
 50
122.5992954234
 51
180.0013071251
  0
ARC
  5
5E9
100
AcDbEntity
  8
0
100
AcDbCircle
 62
7
  6
CONTINUOUS
 10
149.6482824786
 20
83.9326255772
 40
0.5
100
AcDbArc
 50
180.0
 51
240.0297995251
  0
ARC
  5
5EA
100
AcDbEntity
  8
0
100
AcDbCircle
 62
7
  6
CONTINUOUS
 10
149.6482824786
 20
115.3794891091
 40
0.5
100
AcDbArc
 50
125.1881939577
 51
180.0243117018
  0
ARC
  5
5EB
100
AcDbEntity
  8
0
100
AcDbCircle
 62
7
  6
CONTINUOUS
 10
149.7132020827
 20
83.8951418114
 40
0.5
100
AcDbArc
 50
239.9984015655
 51
296.2720789702
  0
ARC
  5
5EC
100
AcDbEntity
  8
RACCORDO
100
AcDbCircle
 62
7
  6
CONTINUOUS
 10
151.0478126612
 20
118.4261140046
 40
0.2
100
AcDbArc
 50
301.7206976971
 51
360.0
  0
ARC
  5
5ED
100
AcDbEntity
  8
RACCORDO
100
AcDbCircle
 62
7
  6
CONTINUOUS
 10
138.3259377085
 20
122.9652450698
 40
0.2
100
AcDbArc
 50
114.2212587925
 51
118.7191233489
  0
ARC
  5
5EE
100
AcDbEntity
  8
RACCORDO
100
AcDbCircle
 62
7
  6
CONTINUOUS
 10
148.8901502906
 20
116.8656011256
 40
0.2
100
AcDbArc
 50
301.2425547428
 51
31.9325136209
  0
ARC
  5
5EF
100
AcDbEntity
  8
RACCORDO
100
AcDbCircle
 62
7
  6
CONTINUOUS
 10
148.8901502906
 20
82.5054364215
 40
0.2
100
AcDbArc
 50
301.3161129487
 51
30.0000004024
  0
ARC
  5
5F0
100
AcDbEntity
  8
ASSI
100
AcDbCircle
 62
7
  6
CONTINUOUS
 10
138.1991561984
 20
121.8141015753
 40
0.2
100
AcDbArc
 50
119.0851069684
 51
154.7491247989
  0
ARC
  5
5F1
100
AcDbEntity
  8
ASSI
100
AcDbCircle
 62
7
  6
CONTINUOUS
 10
134.0136299884
 20
122.7606776553
 40
0.2
100
AcDbArc
 50
59.9984015652
 51
118.2824903446
  0
ARC
  5
5F2
100
AcDbEntity
  8
ASSI
100
AcDbCircle
 62
7
  6
CONTINUOUS
 10
144.7171766364
 20
116.2112729782
 40
0.2
100
AcDbArc
 50
315.731226065
 51
0.0244884549
  0
ARC
  5
5F3
100
AcDbEntity
  8
ASSI
100
AcDbCircle
 62
7
  6
CONTINUOUS
 10
144.7171766364
 20
116.5805839677
 40
0.2
100
AcDbArc
 50
359.9837886302
 51
59.9984015652
  0
ARC
  5
5F4
100
AcDbEntity
  8
ASSI
100
AcDbCircle
 62
7
  6
CONTINUOUS
 10
135.5408338542
 20
121.8788892836
 40
0.2
100
AcDbArc
 50
359.9895357921
 51
59.9984015652
  0
ARC
  5
5F5
100
AcDbEntity
  8
ASSI
100
AcDbCircle
 62
7
  6
CONTINUOUS
 10
135.5408338542
 20
121.509578294
 40
0.2
100
AcDbArc
 50
315.7300112913
 51
0.0272094451
  0
ARC
  5
5F6
100
AcDbEntity
  8
ASSI
100
AcDbCircle
 62
7
  6
CONTINUOUS
 10
143.1899727706
 20
117.4623723395
 40
0.2
100
AcDbArc
 50
59.9984015652
 51
118.2824903446
  0
ELLIPSE
  5
5F7
100
AcDbEntity
  8
SUPERFICI
100
AcDbEllipse
 62
7
  6
CONTINUOUS
 10
144.5271616196
 20
73.4643060862
 30
0.0
 11
-0.2501834304
 21
0.4333025529
 31
0.0
 40
0.5769361983
 41
-3.1677535987
 42
-2.3565853618
  0
ELLIPSE
  5
5F8
100
AcDbEntity
  8
SUPERFICI
100
AcDbEllipse
 62
7
  6
CONTINUOUS
 10
144.5271616196
 20
115.7571865442
 30
0.0
 11
-0.2500121049
 21
0.4330057129
 31
0.0
 40
0.5777274115
 41
-2.3559002616
 42
-0.7857891675
  0
ELLIPSE
  5
5F9
100
AcDbEntity
  8
RACCORDO
100
AcDbEllipse
 62
7
  6
CONTINUOUS
 10
145.6409759954
 20
111.1190697472
 30
0.0
 11
0.143107575
 21
0.2366201515
 31
0.0
 40
0.5904602253
 41
-1.5588007257
 42
-0.7734027153
  0
ELLIPSE
  5
5FA
100
AcDbEntity
  8
SUPERFICI
100
AcDbEllipse
 62
7
  6
CONTINUOUS
 10
129.5367402494
 20
124.4124679693
 30
0.0
 11
-0.2501834304
 21
0.4333025529
 31
0.0
 40
0.5769361983
 41
-0.7851038024
 42
0.0261609458
  0
ELLIPSE
  5
5FB
100
AcDbEntity
  8
SUPERFICI
100
AcDbEllipse
 62
7
  6
CONTINUOUS
 10
144.6725009392
 20
79.1331819444
 30
0.0
 11
0.3037200246
 21
0.1710449014
 31
0.0
 40
0.0105151745
 41
0.6673087948
 42
0.7742146559
  0
ELLIPSE
  5
5FC
100
AcDbEntity
  8
SUPERFICI
100
AcDbEllipse
 62
7
  6
CONTINUOUS
 10
144.5959659011
 20
79.1773723162
 30
0.0
 11
0.4568380168
 21
0.0702030008
 31
0.0
 40
0.2209951355
 41
0.2918164413
 42
0.3503969549
  0
ELLIPSE
  5
5FD
100
AcDbEntity
  8
RACCORDO
100
AcDbEllipse
 62
7
  6
CONTINUOUS
 10
145.6409759954
 20
78.939245846
 30
0.0
 11
0.1999879242
 21
-0.1103320873
 31
0.0
 40
0.0199195284
 41
-0.7744091265
 42
0.7963872003
  0
ELLIPSE
  5
5FE
100
AcDbEntity
  8
RACCORDO
100
AcDbEllipse
 62
7
  6
CONTINUOUS
 10
33.7293538183
 20
48.4783642445
 30
0.0
 11
402.8595621856
 21
232.6078586167
 31
0.0
 40
0.0628494143
 41
-1.3277255145
 42
-1.3258935879
  0
ELLIPSE
  5
5FF
100
AcDbEntity
  8
ASSI
100
AcDbEllipse
 62
7
  6
CONTINUOUS
 10
144.937013933
 20
118.0085041423
 30
0.0
 11
0.999867518
 21
-0.0292282715
 31
0.0
 40
0.5568983954
 41
5.6013315027
 42
7.0848613669
  0
ELLIPSE
  5
600
100
AcDbEntity
  8
RACCORDO
100
AcDbEllipse
 62
7
  6
CONTINUOUS
 10
33.7293538183
 20
36.5537215625
 30
0.0
 11
403.1242860915
 21
268.5419470062
 31
0.0
 40
0.0022336512
 41
-1.2929406363
 42
-1.2911087097
  0
ELLIPSE
  5
601
100
AcDbEntity
  8
0
100
AcDbEllipse
 62
7
  6
CONTINUOUS
 10
-843.7079006934
 20
-436.8837787224
 30
0.0
 11
1091.3872670356
 21
588.1465940607
 31
0.0
 40
0.0261556157
 41
-0.4518153808
 42
-0.4513581923
  0
ELLIPSE
  5
602
100
AcDbEntity
  8
RACCORDO
100
AcDbEllipse
 62
7
  6
CONTINUOUS
 10
149.0156793518
 20
120.9315786747
 30
0.0
 11
0.0829370165
 21
0.1826426485
 31
0.0
 40
0.6140939192
 41
0.1918278223
 42
0.7080791103
  0
ENDSEC
  0
SECTION
  2
OBJECTS
  0
DICTIONARY
  5
C
100
AcDbDictionary
280
0
281
1
  3
ACAD_GROUP
350
D
  3
ACAD_MLINESTYLE
350
17
  3
ACAD_LAYOUT
350
1A
  3
ACAD_PLOTSETTINGS
350
19
  3
ACAD_PLOTSTYLENAME
350
E
  0
DICTIONARY
  5
D
102
{ACAD_REACTORS
330
C
102
}
100
AcDbDictionary
280
0
281
1
  0
ACDBDICTIONARYWDFLT
  5
E
102
{ACAD_REACTORS
330
C
102
}
100
AcDbDictionary
281
1
  3
Normal
350
F
100
AcDbDictionaryWithDefault
340
F
  0
DICTIONARY
  5
17
102
{ACAD_REACTORS
330
C
102
}
100
AcDbDictionary
280
0
281
1
  3
Standard
350
18
  0
DICTIONARY
  5
19
102
{ACAD_REACTORS
330
C
102
}
100
AcDbDictionary
281
1
  0
DICTIONARY
  5
1A
102
{ACAD_REACTORS
330
C
102
}
100
AcDbDictionary
281
1
  3
Model
350
603
  3
Layout1
350
604
  0
ACDBPLACEHOLDER
  5
F
102
{ACAD_REACTORS
330
E
102
}
  0
MLINESTYLE
  5
18
102
{ACAD_REACTORS
330
17
102
}
100
AcDbMlineStyle
  2
STANDARD
 70
0
  3

 62
256
 51
90.0
 52
90.0
 71
2
 49
0.5
 62
256
  6
BYLAYER
 49
-0.5
 62
256
  6
BYLAYER
  0
LAYOUT
  5
603
102
{ACAD_REACTORS
330
1A
102
}
100
AcDbPlotSettings
  1

  2
none_device
  4
ISO_A4_(297.00_x_210.00_MM)
  6

 40
0.0
 41
0.0
 42
0.0
 43
0.0
 44
297.0
 45
210.0
 46
0.0
 47
0.0
 48
0.0
 49
0.0
140
0.0
141
0.0
142
1.0
143
1.0
 70
1024
 72
1
 73
0
 74
0
  7

 75
0
147
1.0
148
0.0
149
0.0
100
AcDbLayout
  1
Model
 70
0
 71
0
 10
0.0
 20
0.0
 11
297.0
 21
210.0
 12
0.0
 22
0.0
 32
0.0
 14
0.0
 24
0.0
 34
0.0
 15
0.0
 25
0.0
 35
0.0
146
0.0
 13
0.0
 23
0.0
 33
0.0
 16
1.0
 26
0.0
 36
0.0
 17
0.0
 27
1.0
 37
0.0
 76
0
330
213
345
0
346
0
  0
LAYOUT
  5
604
102
{ACAD_REACTORS
330
1A
102
}
100
AcDbPlotSettings
  1

  2
none_device
  4
ISO_A4_(297.00_x_210.00_MM)
  6

 40
0.0
 41
0.0
 42
0.0
 43
0.0
 44
297.0
 45
210.0
 46
0.0
 47
0.0
 48
0.0
 49
0.0
140
0.0
141
0.0
142
1.0
143
1.0
 70
0
 72
1
 73
0
 74
0
  7

 75
0
147
1.0
148
0.0
149
0.0
100
AcDbLayout
  1
Layout1
 70
0
 71
1
 10
0.0
 20
0.0
 11
297.0
 21
210.0
 12
0.0
 22
0.0
 32
0.0
 14
0.0
 24
0.0
 34
0.0
 15
0.0
 25
0.0
 35
0.0
146
0.0
 13
0.0
 23
0.0
 33
0.0
 16
1.0
 26
0.0
 36
0.0
 17
0.0
 27
1.0
 37
0.0
 76
0
330
214
345
0
346
0
  0
ENDSEC
  0
EOF
