  0
SECTION
  2
HEADER
  9
$ACADVER
  1
AC1024
  9
$DWGCODEPAGE
  3
ANSI_1252
  9
$EXTMAX
 10
297.0
 20
210.0
 30
0.0
  9
$EXTMIN
 10
0.0
 20
0.0
 30
0.0
  9
$LIMMIN
 10
0.0
 20
0.0
  9
$LIMMAX
 10
297.0
 20
210.0
  9
$VIEWCTR
 10
148.5
 20
105.0
  9
$VIEWSIZE
 40
210.0
  9
$CLAYER
  8
0
  9
$LTSCALE
 40
16.335
  9
$CELTYPE
  6
BYLAYER
  9
$DIMSCALE
 40
1.0
  9
$DIMASZ
 40
3.0
  9
$DIMEXO
 40
0.5
  9
$DIMDLI
 40
11.286
  9
$DIMEXE
 40
1.5
  9
$DIMCEN
 40
2.673
  9
$DIMLFAC
 40
1.0
  9
$DIMBLK
  1
_FILLED
  9
$DIMALT
 70
0
  9
$DIMALTF
 40
0.0393700787
  9
$DIMTXT
 40
3.0
  9
$DIMTOL
 70
1
  9
$DIMLIM
 70
0
  9
$DIMTFAC
 40
1.0
  9
$DIMTP
 40
0.01
  9
$DIMTM
 40
0.01
  9
$DIMGAP
 40
0.625
  9
$DIMDSEP
 70
44
  9
$AUNITS
 70
0
  9
$PDMODE
 70
3
  9
$PDSIZE
 40
3.0
  9
$HANDSEED
  5
5A0
  9
$TILEMODE
 70
1
  9
$MEASUREMENT
 70
1
  9
$INSUNITS
 70
4
  0
ENDSEC
  0
SECTION
  2
CLASSES
  0
CLASS
  1
ACDBDICTIONARYWDFLT
  2
AcDbDictionaryWithDefault
  3
AutoCAD 2000
 90
0
 91
1
280
0
281
0
  0
CLASS
  1
ACDBPLACEHOLDER
  2
AcDbPlaceHolder
  3
AutoCAD 2000
 90
0
 91
1
280
0
281
0
  0
CLASS
  1
LAYOUT
  2
AcDbLayout
  3
AutoCAD 2000
 90
0
 91
0
280
0
281
0
  0
ENDSEC
  0
SECTION
  2
TABLES
  0
TABLE
  2
VPORT
  5
8
100
AcDbSymbolTable
 70
2
  0
VPORT
  5
1F4
100
AcDbSymbolTableRecord
100
AcDbViewportTableRecord
  2
*ACTIVE
 70
0
 10
0.0
 20
0.0
 11
1.0
 21
1.0
 12
148.5
 22
105.0
 13
0.0
 23
0.0
 14
1.0
 24
1.0
 15
0.0
 25
0.0
 16
0.0
 26
0.0
 36
1.0
 17
0.0
 27
0.0
 37
0.0
 40
210.0
 41
1.4142857143
 42
50.0
 43
0.0
 44
0.0
 50
0.0
 51
0.0
 71
0
 72
100
 73
1
 74
1
 75
0
 76
0
 77
0
 78
0
  0
ENDTAB
  0
TABLE
  2
LTYPE
  5
5
100
AcDbSymbolTable
 70
6
  0
LTYPE
  5
14
100
AcDbSymbolTableRecord
100
AcDbLinetypeTableRecord
  2
BYBLOCK
 70
0
  3

 72
65
 73
0
 40
0.0
  0
LTYPE
  5
15
100
AcDbSymbolTableRecord
100
AcDbLinetypeTableRecord
  2
BYLAYER
 70
0
  3

 72
65
 73
0
 40
0.0
  0
LTYPE
  5
16
100
AcDbSymbolTableRecord
100
AcDbLinetypeTableRecord
  2
CONTINUOUS
 70
64
  3
Solid line
 72
65
 73
0
 40
0.0
  0
LTYPE
  5
1F5
100
AcDbSymbolTableRecord
100
AcDbLinetypeTableRecord
  2
CENTER
 70
64
  3
____ _ ____ _ ____ _ ____ _ ____ _ ____ _ ____
 72
65
 73
4
 40
0.6
 49
0.375
 74
0
 49
-0.075
 74
0
 49
0.075
 74
0
 49
-0.075
 74
0
  0
LTYPE
  5
1F6
100
AcDbSymbolTableRecord
100
AcDbLinetypeTableRecord
  2
HIDDEN
 70
64
  3
- - - - - - - - - - - - - - - - - - - -
 72
65
 73
2
 40
0.2
 49
0.1
 74
0
 49
-0.1
 74
0
  0
LTYPE
  5
1F7
100
AcDbSymbolTableRecord
100
AcDbLinetypeTableRecord
  2
PHANTOM
 70
64
  3
_____ _ _ _____ _ _ _____ _ _ _____
 72
65
 73
6
 40
0.8
 49
0.45
 74
0
 49
-0.05
 74
0
 49
0.1
 74
0
 49
-0.05
 74
0
 49
0.1
 74
0
 49
-0.05
 74
0
  0
LTYPE
  5
1F8
100
AcDbSymbolTableRecord
100
AcDbLinetypeTableRecord
  2
DOT
 70
64
  3
. . . . . . . . . . . . . . . . . . . .
 72
65
 73
2
 40
0.2
 49
0.1
 74
0
 49
-0.1
 74
0
  0
LTYPE
  5
1F9
100
AcDbSymbolTableRecord
100
AcDbLinetypeTableRecord
  2
DASHED
 70
64
  3
- - - - - - - - - - - - - - - - - - - -
 72
65
 73
2
 40
0.2
 49
0.1
 74
0
 49
-0.1
 74
0
  0
ENDTAB
  0
TABLE
  2
LAYER
  5
2
100
AcDbSymbolTable
 70
36
  0
LAYER
  5
10
100
AcDbSymbolTableRecord
100
AcDbLayerTableRecord
  2
0
 70
0
 62
7
  6
CONTINUOUS
370
-3
390
F
  0
LAYER
  5
1FA
100
AcDbSymbolTableRecord
100
AcDbLayerTableRecord
  2
DEFAULT_1
 70
0
 62
7
  6
CENTER
370
-3
390
F
  0
LAYER
  5
1FB
100
AcDbSymbolTableRecord
100
AcDbLayerTableRecord
  2
DEFAULT_2
 70
0
 62
7
  6
HIDDEN
370
-3
390
F
  0
LAYER
  5
1FC
100
AcDbSymbolTableRecord
100
AcDbLayerTableRecord
  2
DEFAULT_3
 70
0
 62
7
  6
PHANTOM
370
-3
390
F
  0
LAYER
  5
1FD
100
AcDbSymbolTableRecord
100
AcDbLayerTableRecord
  2
ASSI
 70
0
 62
7
  6
CONTINUOUS
370
-3
390
F
  0
LAYER
  5
1FE
100
AcDbSymbolTableRecord
100
AcDbLayerTableRecord
  2
COORDINATE
 70
0
 62
7
  6
CONTINUOUS
370
-3
390
F
  0
LAYER
  5
1FF
100
AcDbSymbolTableRecord
100
AcDbLayerTableRecord
  2
COORD_ORIGINE
 70
0
 62
7
  6
CONTINUOUS
370
-3
390
F
  0
LAYER
  5
200
100
AcDbSymbolTableRecord
100
AcDbLayerTableRecord
  2
COPY_PUBLISH
 70
0
 62
7
  6
CONTINUOUS
370
-3
390
F
  0
LAYER
  5
201
100
AcDbSymbolTableRecord
100
AcDbLayerTableRecord
  2
COSMETICHE
 70
0
 62
7
  6
CONTINUOUS
370
-3
390
F
  0
LAYER
  5
202
100
AcDbSymbolTableRecord
100
AcDbLayerTableRecord
  2
COSMETICI
 70
0
 62
7
  6
CONTINUOUS
370
-3
390
F
  0
LAYER
  5
203
100
AcDbSymbolTableRecord
100
AcDbLayerTableRecord
  2
CURVE
 70
0
 62
7
  6
CONTINUOUS
370
-3
390
F
  0
LAYER
  5
204
100
AcDbSymbolTableRecord
100
AcDbLayerTableRecord
  2
DRAFT
 70
0
 62
7
  6
CONTINUOUS
370
-3
390
F
  0
LAYER
  5
205
100
AcDbSymbolTableRecord
100
AcDbLayerTableRecord
  2
IGES
 70
0
 62
7
  6
CONTINUOUS
370
-3
390
F
  0
LAYER
  5
206
100
AcDbSymbolTableRecord
100
AcDbLayerTableRecord
  2
IMPORT_IGES
 70
0
 62
7
  6
CONTINUOUS
370
-3
390
F
  0
LAYER
  5
207
100
AcDbSymbolTableRecord
100
AcDbLayerTableRecord
  2
INTF_1
 70
0
 62
7
  6
CONTINUOUS
370
-3
390
F
  0
LAYER
  5
208
100
AcDbSymbolTableRecord
100
AcDbLayerTableRecord
  2
INTF_11
 70
0
 62
7
  6
CONTINUOUS
370
-3
390
F
  0
LAYER
  5
209
100
AcDbSymbolTableRecord
100
AcDbLayerTableRecord
  2
INTF_8
 70
0
 62
7
  6
CONTINUOUS
370
-3
390
F
  0
LAYER
  5
20A
100
AcDbSymbolTableRecord
100
AcDbLayerTableRecord
  2
INTF_9
 70
0
 62
7
  6
CONTINUOUS
370
-3
390
F
  0
LAYER
  5
20B
100
AcDbSymbolTableRecord
100
AcDbLayerTableRecord
  2
NOTE
 70
0
 62
7
  6
CONTINUOUS
370
-3
390
F
  0
LAYER
  5
20C
100
AcDbSymbolTableRecord
100
AcDbLayerTableRecord
  2
PIANI
 70
0
 62
7
  6
CONTINUOUS
370
-3
390
F
  0
LAYER
  5
20D
100
AcDbSymbolTableRecord
100
AcDbLayerTableRecord
  2
PIANI_ORIGINE
 70
0
 62
7
  6
CONTINUOUS
370
-3
390
F
  0
LAYER
  5
20E
100
AcDbSymbolTableRecord
100
AcDbLayerTableRecord
  2
PUNTI
 70
0
 62
7
  6
CONTINUOUS
370
-3
390
F
  0
LAYER
  5
20F
100
AcDbSymbolTableRecord
100
AcDbLayerTableRecord
  2
RACCORDO
 70
0
 62
7
  6
CONTINUOUS
370
-3
390
F
  0
LAYER
  5
210
100
AcDbSymbolTableRecord
100
AcDbLayerTableRecord
  2
RGB____0____0____0__
 70
0
 62
7
  6
CONTINUOUS
370
-3
390
F
  0
LAYER
  5
211
100
AcDbSymbolTableRecord
100
AcDbLayerTableRecord
  2
SIMBOLI
 70
0
 62
7
  6
CONTINUOUS
370
-3
390
F
  0
LAYER
  5
212
100
AcDbSymbolTableRecord
100
AcDbLayerTableRecord
  2
SMUSSO
 70
0
 62
7
  6
CONTINUOUS
370
-3
390
F
  0
LAYER
  5
213
100
AcDbSymbolTableRecord
100
AcDbLayerTableRecord
  2
SNAPLINE
 70
0
 62
7
  6
CONTINUOUS
370
-3
390
F
  0
LAYER
  5
214
100
AcDbSymbolTableRecord
100
AcDbLayerTableRecord
  2
SUPERFICI
 70
0
 62
7
  6
CONTINUOUS
370
-3
390
F
  0
LAYER
  5
215
100
AcDbSymbolTableRecord
100
AcDbLayerTableRecord
  2
TRASH
 70
0
 62
7
  6
CONTINUOUS
370
-3
390
F
  0
LAYER
  5
216
100
AcDbSymbolTableRecord
100
AcDbLayerTableRecord
  2
VARIANTE_COLORE
 70
0
 62
7
  6
CONTINUOUS
370
-3
390
F
  0
ENDTAB
  0
TABLE
  2
STYLE
  5
3
100
AcDbSymbolTable
 70
1
  0
STYLE
  5
11
100
AcDbSymbolTableRecord
100
AcDbTextStyleTableRecord
  2
STANDARD
 70
0
 40
0.0
 41
0.8
 50
0.0
 71
0
 42
0.2
  3
txt
  4

  0
STYLE
  5
217
100
AcDbSymbolTableRecord
100
AcDbTextStyleTableRecord
  2
TEXTSTYLE_1
 70
0
 40
0.0
 41
0.8
 50
0.0
 71
0
 42
0.2
  3
gdt
  4

  0
ENDTAB
  0
TABLE
  2
VIEW
  5
6
100
AcDbSymbolTable
 70
0
  0
ENDTAB
  0
TABLE
  2
UCS
  5
7
100
AcDbSymbolTable
 70
0
  0
ENDTAB
  0
TABLE
  2
APPID
  5
9
100
AcDbSymbolTable
 70
1
  0
APPID
  5
218
100
AcDbSymbolTableRecord
100
AcDbRegAppTableRecord
  2
ACAD
 70
0
  0
ENDTAB
  0
TABLE
  2
BLOCK_RECORD
  5
1
100
AcDbSymbolTable
 70
0
  0
BLOCK_RECORD
  5
219
100
AcDbSymbolTableRecord
100
AcDbBlockTableRecord
  2
*Model_Space
  0
BLOCK_RECORD
  5
21A
100
AcDbSymbolTableRecord
100
AcDbBlockTableRecord
  2
*Paper_Space
  0
BLOCK_RECORD
  5
21B
100
AcDbSymbolTableRecord
100
AcDbBlockTableRecord
  2
_FILLED
  0
ENDTAB
  0
TABLE
  2
DIMSTYLE
  5
A
100
AcDbSymbolTable
 70
1
100
AcDbDimStyleTable
 71
0
  0
DIMSTYLE
105
21C
100
AcDbSymbolTableRecord
100
AcDbDimStyleTableRecord
  2
STANDARD
 70
0
  3

  4

 40
1.0
 41
3.0
 42
0.5
 43
0.38
 44
1.5
 45
0.0
 46
0.0
 47
0.01
 48
0.01
140
3.0
141
0.09
142
0.0
143
25.4
144
1.0
145
0.0
146
1.0
147
0.625
 71
1
 72
0
 73
0
 74
0
 75
0
 76
0
 77
1
 78
8
 79
2
170
0
171
1
172
0
173
0
174
0
175
0
176
0
177
0
178
0
270
2
179
2
271
2
272
2
273
2
274
2
275
0
280
0
281
0
282
0
283
1
284
8
285
0
286
0
287
3
288
0
340
11
278
44
341
21B
342
21B
343
21B
344
21B
  0
ENDTAB
  0
ENDSEC
  0
SECTION
  2
BLOCKS
  0
BLOCK
  5
20
100
AcDbEntity
  8
0
100
AcDbBlockBegin
  2
*Model_Space
 70
0
 10
0.0
 20
0.0
 30
0.0
  3
*Model_Space
  1

  0
ENDBLK
  5
21
100
AcDbEntity
  8
0
100
AcDbBlockEnd
  0
BLOCK
  5
1C
100
AcDbEntity
  8
0
100
AcDbBlockBegin
  2
*Paper_Space
 70
0
 10
0.0
 20
0.0
 30
0.0
  3
*Paper_Space
  1

  0
ENDBLK
  5
1D
100
AcDbEntity
  8
0
100
AcDbBlockEnd
  0
BLOCK
  5
21D
100
AcDbEntity
  8
0
100
AcDbBlockBegin
  2
_FILLED
 70
64
 10
0.0
 20
0.0
  3
_FILLED
  1

  0
SOLID
  5
21E
100
AcDbEntity
  8
0
  6
BYBLOCK
 62
0
100
AcDbTrace
 10
0.0
 20
0.0
 11
-1.0
 21
0.3166666667
 12
-1.0
 22
-0.3166666667
 13
-1.0
 23
-0.3166666667
  0
ENDBLK
  5
21F
100
AcDbEntity
  8
0
  6
BYBLOCK
 62
0
100
AcDbBlockEnd
  0
ENDSEC
  0
SECTION
  2
ENTITIES
  0
LINE
  5
220
100
AcDbEntity
  8
SUPERFICI
100
AcDbLine
 62
7
  6
CONTINUOUS
 10
-6.9128695403
 20
45.5266802138
 11
-4.6277837635
 21
46.9879660768
  0
LINE
  5
221
100
AcDbEntity
  8
SUPERFICI
100
AcDbLine
 62
250
  6
CONTINUOUS
 10
-6.6527505391
 20
45.5081982527
 11
-4.3713891627
 21
46.9671024049
  0
LWPOLYLINE
  5
222
100
AcDbEntity
  8
SUPERFICI
100
AcDbPolyline
 62
250
  6
CONTINUOUS
 90
9
 70
0
 10
-6.9128695403
 20
45.5266802138
 10
-6.892367593
 20
45.5378531968
 10
-6.8633701677
 20
45.5481316544
 10
-6.8319108875
 20
45.5535511593
 10
-6.798375652
 20
45.5540338976
 10
-6.7632738492
 20
45.5496013575
 10
-6.7270548418
 20
45.5403741915
 10
-6.690078693
 20
45.5265054798
 10
-6.6527505391
 20
45.5081982527
  0
LINE
  5
223
100
AcDbEntity
  8
ASSI
100
AcDbLine
 62
7
  6
CONTINUOUS
 10
0.0110177289
 20
45.082942299
 11
-0.5684413127
 21
44.7713279784
  0
LWPOLYLINE
  5
224
100
AcDbEntity
  8
ASSI
100
AcDbPolyline
 62
250
  6
CONTINUOUS
 90
3
 70
0
 10
0.0263756381
 20
45.0889109317
 10
0.0148704508
 20
45.0848565644
 10
0.0110177289
 20
45.082942299
  0
LINE
  5
225
100
AcDbEntity
  8
ASSI
100
AcDbLine
 62
250
  6
CONTINUOUS
 10
0.6422319859
 20
43.6162496151
 11
1.6354149345
 21
44.1897029711
  0
LINE
  5
226
100
AcDbEntity
  8
ASSI
100
AcDbLine
 62
250
  6
CONTINUOUS
 10
0.7266684638
 20
43.3384479169
 11
1.7768147516
 21
43.944791304
  0
LINE
  5
227
100
AcDbEntity
  8
VARIANTE_COLORE
100
AcDbLine
 62
250
  6
CONTINUOUS
 10
19.2389613528
 20
52.7504357034
 11
19.2392742108
 21
52.7506101558
  0
LINE
  5
228
100
AcDbEntity
  8
ASSI
100
AcDbLine
 62
7
  6
CONTINUOUS
 10
4.1938808015
 20
44.1349079012
 11
4.3351412812
 21
44.2136609328
  0
LINE
  5
229
100
AcDbEntity
  8
ASSI
100
AcDbLine
 62
250
  6
CONTINUOUS
 10
4.2912691358
 20
44.1235150585
 11
4.4325295758
 21
44.202268068
  0
LINE
  5
22A
100
AcDbEntity
  8
RACCORDO
100
AcDbLine
 62
7
  6
CONTINUOUS
 10
5.4938565673
 20
45.0888089936
 11
19.2392741964
 21
52.7506101478
  0
LINE
  5
22B
100
AcDbEntity
  8
VARIANTE_COLORE
100
AcDbLine
 62
7
  6
CONTINUOUS
 10
5.4938565673
 20
45.0888089936
 11
19.2392741964
 21
52.7506101478
  0
LINE
  5
22C
100
AcDbEntity
  8
ASSI
100
AcDbLine
 62
250
  6
CONTINUOUS
 10
4.1938808015
 20
44.1349079012
 11
4.1940475806
 21
44.135000557
  0
LINE
  5
22D
100
AcDbEntity
  8
RACCORDO
100
AcDbLine
 62
250
  6
CONTINUOUS
 10
3.6564778918
 20
44.9071590549
 11
1.8329467915
 21
43.8997029565
  0
LINE
  5
22E
100
AcDbEntity
  8
RACCORDO
100
AcDbLine
 62
250
  6
CONTINUOUS
 10
4.3168207453
 20
44.8182624181
 11
1.5623456452
 21
43.2967965075
  0
LINE
  5
22F
100
AcDbEntity
  8
RACCORDO
100
AcDbLine
 62
250
  6
CONTINUOUS
 10
4.450372398
 20
45.3436987115
 11
3.6564778918
 21
44.9071590549
  0
LINE
  5
230
100
AcDbEntity
  8
RACCORDO
100
AcDbLine
 62
250
  6
CONTINUOUS
 10
5.1021636329
 20
45.2501430918
 11
4.316761541
 21
44.8182966019
  0
LINE
  5
231
100
AcDbEntity
  8
DRAFT
100
AcDbLine
 62
7
  6
CONTINUOUS
 10
5.9158938813
 20
44.8451299378
 11
6.3427537259
 21
45.0795735018
  0
LINE
  5
232
100
AcDbEntity
  8
RACCORDO
100
AcDbLine
 62
250
  6
CONTINUOUS
 10
4.3265326641
 20
45.2890384819
 11
4.3219473995
 21
45.2867616642
  0
LINE
  5
233
100
AcDbEntity
  8
RACCORDO
100
AcDbLine
 62
7
  6
CONTINUOUS
 10
4.3219473995
 20
45.2867616642
 11
1.8597157313
 21
43.9375810031
  0
LWPOLYLINE
  5
234
100
AcDbEntity
  8
ASSI
100
AcDbPolyline
 62
250
  6
CONTINUOUS
 90
13
 70
0
 10
4.4325295758
 20
44.202268068
 10
4.4452669103
 20
44.2092261653
 10
4.457623126
 20
44.2154984621
 10
4.4695853147
 20
44.2211196374
 10
4.4811365196
 20
44.2261239584
 10
4.4922748832
 20
44.2305484138
 10
4.503013253
 20
44.234430636
 10
4.5133494359
 20
44.2378053223
 10
4.5232779368
 20
44.2407056275
 10
4.5328087965
 20
44.2431641906
 10
4.5419436861
 20
44.2452137441
 10
4.5506815931
 20
44.2468858186
 10
4.5590301859
 20
44.2482095389
  0
LINE
  5
235
100
AcDbEntity
  8
ASSI
100
AcDbLine
 62
250
  6
CONTINUOUS
 10
0.1082110688
 20
45.0714913428
 11
-0.5113027239
 21
44.7383368734
  0
LWPOLYLINE
  5
236
100
AcDbEntity
  8
ASSI
100
AcDbPolyline
 62
250
  6
CONTINUOUS
 90
8
 70
0
 10
4.3351412812
 20
44.2136609328
 10
4.3386729956
 20
44.2154892176
 10
4.3520194853
 20
44.2201937665
 10
4.3665950459
 20
44.2221320429
 10
4.3821771771
 20
44.2212744049
 10
4.3985280201
 20
44.2176339037
 10
4.4153979934
 20
44.2112660695
 10
4.4325295758
 20
44.202268068
  0
LWPOLYLINE
  5
237
100
AcDbEntity
  8
ASSI
100
AcDbPolyline
 62
250
  6
CONTINUOUS
 90
8
 70
0
 10
4.1940475806
 20
44.135000557
 10
4.1975153745
 20
44.1367853594
 10
4.2109022168
 20
44.1414746459
 10
4.225523119
 20
44.1433855497
 10
4.2411212027
 20
44.142492355
 10
4.2574416088
 20
44.1388283058
 10
4.2742430998
 20
44.1324653016
 10
4.2912691358
 20
44.1235150585
  0
LWPOLYLINE
  5
238
100
AcDbEntity
  8
RACCORDO
100
AcDbPolyline
 62
7
  6
CONTINUOUS
 90
10
 70
0
 10
6.3427537259
 20
45.0795735018
 10
6.3589427577
 20
45.0878394815
 10
6.3757139099
 20
45.0951619043
 10
6.3930188675
 20
45.1015002763
 10
6.4107752535
 20
45.1068103586
 10
6.4289588117
 20
45.1110730023
 10
6.4476126153
 20
45.1142763559
 10
6.4667202808
 20
45.1163854305
 10
6.4861970205
 20
45.1173604645
 10
6.5059880065
 20
45.1171732508
  0
LINE
  5
239
100
AcDbEntity
  8
RACCORDO
100
AcDbLine
 62
7
  6
CONTINUOUS
 10
3.7687659781
 20
43.401020056
 11
2.0795398806
 21
42.5573169163
  0
LWPOLYLINE
  5
23A
100
AcDbEntity
  8
ASSI
100
AcDbPolyline
 62
250
  6
CONTINUOUS
 90
9
 70
0
 10
1.6354149345
 20
44.1897029711
 10
1.650018317
 20
44.1969655373
 10
1.664438788
 20
44.202385721
 10
1.678521844
 20
44.2059054505
 10
1.6921165861
 20
44.2074870156
 10
1.7050773694
 20
44.2071134763
 10
1.7172653582
 20
44.2047888282
 10
1.7285499739
 20
44.2005379603
 10
1.7329516236
 20
44.1982110023
  0
LINE
  5
23B
100
AcDbEntity
  8
RACCORDO
100
AcDbLine
 62
250
  6
CONTINUOUS
 10
4.3357237385
 20
45.2936341728
 11
4.3219473995
 21
45.2867616642
  0
LWPOLYLINE
  5
23C
100
AcDbEntity
  8
RACCORDO
100
AcDbPolyline
 62
250
  6
CONTINUOUS
 90
13
 70
0
 10
19.2392742108
 20
52.7506101558
 10
19.3422014722
 20
52.8015275716
 10
19.4673266405
 20
52.8478405611
 10
19.5988665159
 20
52.880700206
 10
19.7362642189
 20
52.8999667478
 10
19.87892833
 20
52.9055560685
 10
20.0262346323
 20
52.8974425856
 10
20.1775450477
 20
52.8756668036
 10
20.332222203
 20
52.8403247657
 10
20.4896182076
 20
52.7915595065
 10
20.6490670087
 20
52.7295739574
 10
20.8098859872
 20
52.6546358902
 10
20.9713905342
 20
52.5670654385
  0
LWPOLYLINE
  5
23D
100
AcDbEntity
  8
VARIANTE_COLORE
100
AcDbPolyline
 62
250
  6
CONTINUOUS
 90
13
 70
0
 10
19.2392742108
 20
52.7506101558
 10
19.3422014722
 20
52.8015275716
 10
19.4673266405
 20
52.8478405611
 10
19.5988665159
 20
52.880700206
 10
19.7362642189
 20
52.8999667478
 10
19.87892833
 20
52.9055560685
 10
20.0262346323
 20
52.8974425856
 10
20.1775450477
 20
52.8756668036
 10
20.332222203
 20
52.8403247657
 10
20.4896182076
 20
52.7915595065
 10
20.6490670087
 20
52.7295739574
 10
20.8098859872
 20
52.6546358902
 10
20.9713905342
 20
52.5670654385
  0
LWPOLYLINE
  5
23E
100
AcDbEntity
  8
RACCORDO
100
AcDbPolyline
 62
250
  6
CONTINUOUS
 90
5
 70
0
 10
6.3427537259
 20
45.0795735018
 10
6.3561117478
 20
45.0861583631
 10
6.3825733574
 20
45.0953026629
 10
6.4109257257
 20
45.100340306
 10
6.4409120892
 20
45.1012256718
  0
LINE
  5
23F
100
AcDbEntity
  8
RACCORDO
100
AcDbLine
 62
250
  6
CONTINUOUS
 10
4.450372398
 20
45.3436987115
 11
4.4615543433
 21
45.3491758455
  0
LWPOLYLINE
  5
240
100
AcDbEntity
  8
RACCORDO
100
AcDbPolyline
 62
250
  6
CONTINUOUS
 90
7
 70
0
 10
5.1021636329
 20
45.2501430918
 10
5.1203958181
 20
45.2589362231
 10
5.1382815679
 20
45.2648263125
 10
5.155521599
 20
45.2677148242
 10
5.1718274474
 20
45.2675534481
 10
5.186926263
 20
45.2643449071
 10
5.1997003237
 20
45.258651122
  0
LWPOLYLINE
  5
241
100
AcDbEntity
  8
RACCORDO
100
AcDbPolyline
 62
250
  6
CONTINUOUS
 90
7
 70
0
 10
8.5022321548
 20
45.854338604
 10
8.5204639722
 20
45.8631315865
 10
8.5383494227
 20
45.8690216591
 10
8.5555892344
 20
45.8719102654
 10
8.571894939
 20
45.8717490717
 10
8.5869936983
 20
45.8685407756
 10
8.5996978354
 20
45.8628875764
  0
LINE
  5
242
100
AcDbEntity
  8
RACCORDO
100
AcDbLine
 62
250
  6
CONTINUOUS
 10
1.8329467915
 20
43.9246727704
 11
1.8597734041
 21
43.9373993287
  0
LINE
  5
243
100
AcDbEntity
  8
RACCORDO
100
AcDbLine
 62
7
  6
CONTINUOUS
 10
1.859715889
 20
43.9375810821
 11
1.8329467915
 21
43.9252708445
  0
LINE
  5
244
100
AcDbEntity
  8
ASSI
100
AcDbLine
 62
7
  6
CONTINUOUS
 10
3.7687659781
 20
43.401020056
 11
3.8166154755
 21
43.4224282929
  0
LINE
  5
245
100
AcDbEntity
  8
RACCORDO
100
AcDbLine
 62
250
  6
CONTINUOUS
 10
4.3677125531
 20
45.3074470874
 11
4.3265326641
 21
45.2890384819
  0
LINE
  5
246
100
AcDbEntity
  8
RACCORDO
100
AcDbLine
 62
7
  6
CONTINUOUS
 10
4.3777481857
 20
45.3124214779
 11
4.3359982673
 21
45.2937580479
  0
LINE
  5
247
100
AcDbEntity
  8
RACCORDO
100
AcDbLine
 62
7
  6
CONTINUOUS
 10
4.4196003032
 20
45.3308941234
 11
4.3777481857
 21
45.3124214779
  0
LINE
  5
248
100
AcDbEntity
  8
RACCORDO
100
AcDbLine
 62
250
  6
CONTINUOUS
 10
4.4089925681
 20
45.3256672097
 11
4.3677125531
 21
45.3074470874
  0
LWPOLYLINE
  5
249
100
AcDbEntity
  8
RACCORDO
100
AcDbPolyline
 62
250
  6
CONTINUOUS
 90
3
 70
0
 10
8.3903868098
 20
45.8730343457
 10
8.3827109124
 20
45.8696689349
 10
8.3804807171
 20
45.8685126072
  0
LINE
  5
24A
100
AcDbEntity
  8
RACCORDO
100
AcDbLine
 62
250
  6
CONTINUOUS
 10
4.450372398
 20
45.3436987115
 11
4.4089925681
 21
45.3256672097
  0
LINE
  5
24B
100
AcDbEntity
  8
RACCORDO
100
AcDbLine
 62
7
  6
CONTINUOUS
 10
4.4615543433
 20
45.3491758455
 11
4.4196003032
 21
45.3308941234
  0
LINE
  5
24C
100
AcDbEntity
  8
RACCORDO
100
AcDbLine
 62
7
  6
CONTINUOUS
 10
4.4615543433
 20
45.3491758455
 11
4.4617270351
 21
45.349250468
  0
LWPOLYLINE
  5
24D
100
AcDbEntity
  8
ASSI
100
AcDbPolyline
 62
250
  6
CONTINUOUS
 90
4
 70
0
 10
6.8089825761
 20
44.42118975
 10
6.862149187
 20
44.4435623751
 10
6.9169309558
 20
44.4695580304
 10
6.9731988208
 20
44.4993043383
  0
LWPOLYLINE
  5
24E
100
AcDbEntity
  8
RACCORDO
100
AcDbPolyline
 62
250
  6
CONTINUOUS
 90
10
 70
0
 10
10.4458374534
 20
45.6809454693
 10
10.4427353785
 20
45.679665064
 10
10.4395760232
 20
45.6782979852
 10
10.4363593875
 20
45.676844233
 10
10.4330879947
 20
45.675308473
 10
10.4297593214
 20
45.6736860395
 10
10.4263657976
 20
45.6719629359
 10
10.4229049
 20
45.6701344964
 10
10.4193791518
 20
45.6682053868
 10
10.415788553
 20
45.6661756071
  0
LWPOLYLINE
  5
24F
100
AcDbEntity
  8
ASSI
100
AcDbPolyline
 62
250
  6
CONTINUOUS
 90
13
 70
0
 10
3.6564778918
 20
44.907159055
 10
3.7033938563
 20
44.9248595398
 10
3.7524090129
 20
44.93802579
 10
3.8033504458
 20
44.9466123091
 10
3.8560410023
 20
44.9505914946
 10
3.9102918719
 20
44.9499492615
 10
3.9659032632
 20
44.9446850565
 10
4.0226794103
 20
44.9348190062
 10
4.080418587
 20
44.9203881819
 10
4.1389056086
 20
44.9014427832
 10
4.1979296358
 20
44.8780519616
 10
4.2572850759
 20
44.8503027442
 10
4.316761541
 20
44.8182966019
  0
LINE
  5
250
100
AcDbEntity
  8
RACCORDO
100
AcDbLine
 62
250
  6
CONTINUOUS
 10
4.4978373964
 20
45.3613368947
 11
4.450372398
 21
45.3436987115
  0
LWPOLYLINE
  5
251
100
AcDbEntity
  8
RACCORDO
100
AcDbPolyline
 62
250
  6
CONTINUOUS
 90
7
 70
0
 10
7.9861775771
 20
44.0142586717
 10
7.9684026345
 20
44.0087771078
 10
7.9500640324
 20
44.0021432345
 10
7.9311617709
 20
43.9943570519
 10
7.9116958499
 20
43.9854185599
 10
7.8916662695
 20
43.9753277585
 10
7.8710730296
 20
43.9640846478
  0
LINE
  5
252
100
AcDbEntity
  8
SUPERFICI
100
AcDbLine
 62
7
  6
CONTINUOUS
 10
0.6422319859
 20
44.0723003891
 11
0.1402590485
 21
43.5495621021
  0
LINE
  5
253
100
AcDbEntity
  8
ASSI
100
AcDbLine
 62
250
  6
CONTINUOUS
 10
1.7768147516
 20
43.5754803144
 11
1.473336157
 21
43.2642231536
  0
LINE
  5
254
100
AcDbEntity
  8
ASSI
100
AcDbLine
 62
7
  6
CONTINUOUS
 10
1.7761461611
 20
43.5160770194
 11
1.4726675664
 21
43.2048198584
  0
LWPOLYLINE
  5
255
100
AcDbEntity
  8
RACCORDO
100
AcDbPolyline
 62
250
  6
CONTINUOUS
 90
5
 70
0
 10
11.0821004564
 20
46.5368384559
 10
10.8704518235
 20
46.4089706731
 10
10.6742318748
 20
46.274753565
 10
10.4934406102
 20
46.1341871318
 10
10.3274223237
 20
45.9866186165
  0
LWPOLYLINE
  5
256
100
AcDbEntity
  8
VARIANTE_COLORE
100
AcDbPolyline
 62
250
  6
CONTINUOUS
 90
5
 70
0
 10
11.0821004564
 20
46.5368384559
 10
10.8704518235
 20
46.4089706731
 10
10.6742318748
 20
46.274753565
 10
10.4934406102
 20
46.1341871318
 10
10.3274223237
 20
45.9866186165
  0
LWPOLYLINE
  5
257
100
AcDbEntity
  8
RACCORDO
100
AcDbPolyline
 62
250
  6
CONTINUOUS
 90
6
 70
0
 10
11.4327212314
 20
45.9227866057
 10
11.2431741201
 20
45.8086130065
 10
11.0662329572
 20
45.6878073739
 10
10.9025998667
 20
45.5608200039
 10
10.7528671624
 20
45.4280755109
 10
10.6775243246
 20
45.3511705441
  0
LWPOLYLINE
  5
258
100
AcDbEntity
  8
VARIANTE_COLORE
100
AcDbPolyline
 62
250
  6
CONTINUOUS
 90
6
 70
0
 10
11.4327212314
 20
45.9227866057
 10
11.2431741201
 20
45.8086130065
 10
11.0662329572
 20
45.6878073739
 10
10.9025998667
 20
45.5608200039
 10
10.7528671624
 20
45.4280755109
 10
10.6775243246
 20
45.3511705441
  0
LWPOLYLINE
  5
259
100
AcDbEntity
  8
RACCORDO
100
AcDbPolyline
 62
250
  6
CONTINUOUS
 90
13
 70
0
 10
8.1132835614
 20
43.8015977069
 10
8.1056027771
 20
43.7970266554
 10
8.0977677924
 20
43.7921310747
 10
8.0897786075
 20
43.7869109649
 10
8.0816234136
 20
43.7813466661
 10
8.0733140194
 20
43.7754578381
 10
8.0648858507
 20
43.7693034603
 10
8.056335532
 20
43.7628707202
 10
8.0476664389
 20
43.7561724302
 10
8.0389241244
 20
43.749306008
 10
8.0301237729
 20
43.7423039261
 10
8.0212502001
 20
43.7351337118
 10
8.0123034059
 20
43.7277953654
  0
LINE
  5
25A
100
AcDbEntity
  8
RACCORDO
100
AcDbLine
 62
250
  6
CONTINUOUS
 10
10.2746296289
 20
45.9025061451
 11
7.4087841027
 21
44.2478028557
  0
LINE
  5
25B
100
AcDbEntity
  8
ASSI
100
AcDbLine
 62
250
  6
CONTINUOUS
 10
10.415788553
 20
45.6661756071
 11
7.5500116458
 21
44.0115119375
  0
LINE
  5
25C
100
AcDbEntity
  8
ASSI
100
AcDbLine
 62
250
  6
CONTINUOUS
 10
7.8710730296
 20
43.9640846478
 11
6.4446181658
 21
43.1404674871
  0
LINE
  5
25D
100
AcDbEntity
  8
RACCORDO
100
AcDbLine
 62
250
  6
CONTINUOUS
 10
9.356050909
 20
44.805206396
 11
7.9861775771
 21
44.0142586717
  0
LINE
  5
25E
100
AcDbEntity
  8
RACCORDO
100
AcDbLine
 62
250
  6
CONTINUOUS
 10
9.4831556978
 20
44.5925445695
 11
8.1132835614
 21
43.8015977069
  0
LINE
  5
25F
100
AcDbEntity
  8
RACCORDO
100
AcDbLine
 62
250
  6
CONTINUOUS
 10
8.0123034059
 20
43.7277953654
 11
6.7198526919
 21
42.9815505213
  0
LWPOLYLINE
  5
260
100
AcDbEntity
  8
ASSI
100
AcDbPolyline
 62
250
  6
CONTINUOUS
 90
13
 70
0
 10
3.6478428441
 20
43.0185422086
 10
3.6605125771
 20
43.0258440878
 10
3.67316277
 20
43.034140332
 10
3.6857091789
 20
43.0433443682
 10
3.697963266
 20
43.0532653524
 10
3.7099669343
 20
43.0638921676
 10
3.7219587665
 20
43.0754729516
 10
3.7339746279
 20
43.0881249161
 10
3.7457486945
 20
43.1016502879
 10
3.7570451747
 20
43.1158533749
 10
3.7677274007
 20
43.1305869147
 10
3.7777387862
 20
43.1457721345
 10
3.7869843927
 20
43.1612811178
  0
LINE
  5
261
100
AcDbEntity
  8
RACCORDO
100
AcDbLine
 62
250
  6
CONTINUOUS
 10
21.3382340798
 20
52.3552545729
 11
11.0821004564
 21
46.5368384559
  0
LINE
  5
262
100
AcDbEntity
  8
VARIANTE_COLORE
100
AcDbLine
 62
250
  6
CONTINUOUS
 10
21.3382340798
 20
52.3552545729
 11
11.0821004564
 21
46.5368384559
  0
LINE
  5
263
100
AcDbEntity
  8
RACCORDO
100
AcDbLine
 62
250
  6
CONTINUOUS
 10
21.6887021742
 20
51.7411162708
 11
11.4327212278
 21
45.9227867691
  0
LINE
  5
264
100
AcDbEntity
  8
VARIANTE_COLORE
100
AcDbLine
 62
250
  6
CONTINUOUS
 10
21.6887021742
 20
51.7411162708
 11
11.4327212278
 21
45.9227867691
  0
LWPOLYLINE
  5
265
100
AcDbEntity
  8
ASSI
100
AcDbPolyline
 62
250
  6
CONTINUOUS
 90
16
 70
0
 10
7.4087841027
 20
44.2478028557
 10
7.3764083873
 20
44.2297208021
 10
7.3448051621
 20
44.213222325
 10
7.3139991443
 20
44.1982388131
 10
7.2842541331
 20
44.184808406
 10
7.2553421672
 20
44.1727369464
 10
7.226552553
 20
44.1616802634
 10
7.1978768572
 20
44.1516274231
 10
7.1693644057
 20
44.1425962831
 10
7.1404094621
 20
44.1344232978
 10
7.1109811126
 20
44.1271580068
 10
7.0811808438
 20
44.1208911575
 10
7.0506273992
 20
44.1156347173
 10
7.0192376663
 20
44.1114952535
 10
6.987214945
 20
44.1086212597
 10
6.9546272829
 20
44.1071397753
  0
LINE
  5
266
100
AcDbEntity
  8
ASSI
100
AcDbLine
 62
7
  6
CONTINUOUS
 10
2.3856669354
 20
42.3805629915
 11
3.5504548579
 21
43.0299348494
  0
LINE
  5
267
100
AcDbEntity
  8
ASSI
100
AcDbLine
 62
250
  6
CONTINUOUS
 10
2.4435466184
 20
42.3471439879
 11
3.6478431931
 21
43.0185420072
  0
LINE
  5
268
100
AcDbEntity
  8
ASSI
100
AcDbLine
 62
7
  6
CONTINUOUS
 10
6.8757502144
 20
44.5106732114
 11
8.1067988437
 21
45.1969759284
  0
LINE
  5
269
100
AcDbEntity
  8
RACCORDO
100
AcDbLine
 62
250
  6
CONTINUOUS
 10
9.8892589485
 20
46.1250143461
 11
9.1220656202
 21
45.697302359
  0
LINE
  5
26A
100
AcDbEntity
  8
ASSI
100
AcDbLine
 62
250
  6
CONTINUOUS
 10
6.9731988208
 20
44.4993043383
 11
8.2041872106
 21
45.1855831039
  0
LINE
  5
26B
100
AcDbEntity
  8
RACCORDO
100
AcDbLine
 62
250
  6
CONTINUOUS
 10
8.7688019653
 20
45.7652490293
 11
20.9713905342
 21
52.5670654385
  0
LINE
  5
26C
100
AcDbEntity
  8
VARIANTE_COLORE
100
AcDbLine
 62
250
  6
CONTINUOUS
 10
8.7688019653
 20
45.7652490293
 11
20.9713905342
 21
52.5670654385
  0
LINE
  5
26D
100
AcDbEntity
  8
RACCORDO
100
AcDbLine
 62
7
  6
CONTINUOUS
 10
13.5538888943
 20
46.6719023421
 11
21.9063874128
 21
51.3261880067
  0
LINE
  5
26E
100
AcDbEntity
  8
VARIANTE_COLORE
100
AcDbLine
 62
7
  6
CONTINUOUS
 10
13.5538888943
 20
46.6719023421
 11
21.9063874128
 21
51.3261880067
  0
LINE
  5
26F
100
AcDbEntity
  8
ASSI
100
AcDbLine
 62
7
  6
CONTINUOUS
 10
8.1067988437
 20
45.1969759284
 11
8.1069240832
 21
45.1970455669
  0
LWPOLYLINE
  5
270
100
AcDbEntity
  8
ASSI
100
AcDbPolyline
 62
250
  6
CONTINUOUS
 90
16
 70
0
 10
7.5500116458
 20
44.0115119375
 10
7.5132847405
 20
43.9911472228
 10
7.477488233
 20
43.9724165951
 10
7.4426221233
 20
43.9553200542
 10
7.4089397792
 20
43.9400130428
 10
7.376187833
 20
43.9263401182
 10
7.3436061814
 20
43.9138349533
 10
7.3111484343
 20
43.9023773588
 10
7.2788609817
 20
43.8920875239
 10
7.2461228905
 20
43.8828596891
 10
7.212834645
 20
43.874582445
 10
7.1790957608
 20
43.8673672008
 10
7.1445838507
 20
43.8614424253
 10
7.1091914525
 20
43.8568842745
 10
7.0730260283
 20
43.8536165923
 10
7.0360875783
 20
43.8516393786
  0
LWPOLYLINE
  5
271
100
AcDbEntity
  8
ASSI
100
AcDbPolyline
 62
7
  6
CONTINUOUS
 90
16
 70
0
 10
9.7918007929
 20
46.1363682632
 10
9.023501129
 20
45.7080451501
 10
9.0112199833
 20
45.7018361902
 10
8.9966140509
 20
45.6955632227
 10
8.9798328713
 20
45.6895096583
 10
8.960928265
 20
45.6838815184
 10
8.9401686827
 20
45.6789210568
 10
8.9177370978
 20
45.6748112116
 10
8.8939207878
 20
45.6717231377
 10
8.8692131233
 20
45.6698036433
 10
8.8438842413
 20
45.6691342889
 10
8.8183436147
 20
45.669767761
 10
8.7933381629
 20
45.6716752139
 10
8.7692005016
 20
45.6747826443
 10
8.7462943888
 20
45.678970771
 10
8.7402422826
 20
45.6802941672
  0
LWPOLYLINE
  5
272
100
AcDbEntity
  8
ASSI
100
AcDbPolyline
 62
7
  6
CONTINUOUS
 90
10
 70
0
 10
6.8757502144
 20
44.5106732114
 10
6.863473457
 20
44.5039039037
 10
6.8006479304
 20
44.4715433682
 10
6.7392496095
 20
44.4437077957
 10
6.679761989
 20
44.4205040701
 10
6.62235822
 20
44.4018637969
 10
6.5669892824
 20
44.3876493847
 10
6.5138897058
 20
44.3778336653
 10
6.4634698852
 20
44.3723859897
 10
6.4555528832
 20
44.371905889
  0
LINE
  5
273
100
AcDbEntity
  8
RACCORDO
100
AcDbLine
 62
250
  6
CONTINUOUS
 10
5.9452184622
 20
44.8281982923
 11
6.4409120892
 21
45.1012256718
  0
LINE
  5
274
100
AcDbEntity
  8
ASSI
100
AcDbLine
 62
7
  6
CONTINUOUS
 10
9.8024664317
 20
46.1421482937
 11
9.791798683
 21
46.1363670869
  0
LINE
  5
275
100
AcDbEntity
  8
RACCORDO
100
AcDbLine
 62
7
  6
CONTINUOUS
 10
8.3804807171
 20
45.8685126072
 11
8.3803361236
 21
45.8684346656
  0
LINE
  5
276
100
AcDbEntity
  8
RACCORDO
100
AcDbLine
 62
250
  6
CONTINUOUS
 10
10.8616315719
 20
44.7870158781
 11
10.831295835
 21
44.770691448
  0
LINE
  5
277
100
AcDbEntity
  8
ASSI
100
AcDbLine
 62
7
  6
CONTINUOUS
 10
8.3804807125
 20
45.8685126047
 11
6.1857439997
 21
44.688254225
  0
LINE
  5
278
100
AcDbEntity
  8
RACCORDO
100
AcDbLine
 62
250
  6
CONTINUOUS
 10
8.5022321548
 20
45.854338604
 11
6.1999941517
 21
44.6162695093
  0
LWPOLYLINE
  5
279
100
AcDbEntity
  8
RACCORDO
100
AcDbPolyline
 62
250
  6
CONTINUOUS
 90
10
 70
0
 10
10.7338105567
 20
44.999285842
 10
10.7093734769
 20
44.9862285854
 10
10.6849431809
 20
44.9745245286
 10
10.6605196685
 20
44.9641736715
 10
10.6363097102
 20
44.9551516575
 10
10.6121065355
 20
44.9474828433
 10
10.5872898336
 20
44.9412402987
 10
10.561652834
 20
44.9364483803
 10
10.5354023073
 20
44.9330827315
 10
10.5085382532
 20
44.9311433522
  0
LWPOLYLINE
  5
27A
100
AcDbEntity
  8
RACCORDO
100
AcDbPolyline
 62
7
  6
CONTINUOUS
 90
7
 70
0
 10
21.9063874128
 20
51.3261880067
 10
21.929338822
 20
51.3383097957
 10
21.9519618579
 20
51.3491115306
 10
21.9742565205
 20
51.3585932113
 10
21.9962228098
 20
51.3667548379
 10
22.0178607258
 20
51.3735964103
 10
22.0391702686
 20
51.3791179286
  0
LWPOLYLINE
  5
27B
100
AcDbEntity
  8
VARIANTE_COLORE
100
AcDbPolyline
 62
7
  6
CONTINUOUS
 90
7
 70
0
 10
21.9063874128
 20
51.3261880067
 10
21.929338822
 20
51.3383097957
 10
21.9519618579
 20
51.3491115306
 10
21.9742565205
 20
51.3585932113
 10
21.9962228098
 20
51.3667548379
 10
22.0178607258
 20
51.3735964103
 10
22.0391702686
 20
51.3791179286
  0
LINE
  5
27C
100
AcDbEntity
  8
RACCORDO
100
AcDbLine
 62
7
  6
CONTINUOUS
 10
9.8025284052
 20
46.142180837
 11
9.8024699219
 21
46.142150131
  0
LINE
  5
27D
100
AcDbEntity
  8
RACCORDO
100
AcDbLine
 62
250
  6
CONTINUOUS
 10
9.7952004934
 20
46.1381331089
 11
9.7918007929
 21
46.1363682632
  0
LWPOLYLINE
  5
27E
100
AcDbEntity
  8
ASSI
100
AcDbPolyline
 62
250
  6
CONTINUOUS
 90
8
 70
0
 10
3.5504628413
 20
43.0299392994
 10
3.5539883773
 20
43.031763999
 10
3.5673349595
 20
43.0364681348
 10
3.5819104446
 20
43.0384060271
 10
3.5974923462
 20
43.0375481043
 10
3.6138428142
 20
43.033907469
 10
3.6307122643
 20
43.0275397009
 10
3.6478431931
 20
43.0185420072
  0
LWPOLYLINE
  5
27F
100
AcDbEntity
  8
ASSI
100
AcDbPolyline
 62
250
  6
CONTINUOUS
 90
8
 70
0
 10
9.0247059696
 20
45.7087111833
 10
9.0282105378
 20
45.7105242231
 10
9.041557107
 20
45.7152284203
 10
9.0561326043
 20
45.7171663697
 10
9.071714541
 20
45.7163084893
 10
9.0880650655
 20
45.7126678742
 10
9.104934594
 20
45.706300097
 10
9.1220656202
 20
45.697302359
  0
LWPOLYLINE
  5
280
100
AcDbEntity
  8
ASSI
100
AcDbPolyline
 62
250
  6
CONTINUOUS
 90
8
 70
0
 10
8.1069240832
 20
45.1970455669
 10
8.1103320863
 20
45.1988049454
 10
8.1236786567
 20
45.203509145
 10
8.1382541558
 20
45.205447096
 10
8.1538360943
 20
45.2045892163
 10
8.1701866202
 20
45.2009486013
 10
8.1870561499
 20
45.1945808237
 10
8.2041871771
 20
45.1855830852
  0
LWPOLYLINE
  5
281
100
AcDbEntity
  8
ASSI
100
AcDbPolyline
 62
250
  6
CONTINUOUS
 90
8
 70
0
 10
6.8758063748
 20
44.5107045668
 10
6.8793437391
 20
44.5125262028
 10
6.8926903086
 20
44.5172304002
 10
6.9072658063
 20
44.5191683499
 10
6.9228477432
 20
44.5183104695
 10
6.9391982674
 20
44.5146698544
 10
6.9560677953
 20
44.5083020768
 10
6.9731988208
 20
44.4993043383
  0
LWPOLYLINE
  5
282
100
AcDbEntity
  8
ASSI
100
AcDbPolyline
 62
250
  6
CONTINUOUS
 90
6
 70
0
 10
9.1220656202
 20
45.697302359
 10
9.0933716439
 20
45.6827623652
 10
9.0628189709
 20
45.6700115775
 10
9.0304076012
 20
45.6590499958
 10
8.9957663784
 20
45.6497838817
 10
8.9592664589
 20
45.6423069737
  0
LWPOLYLINE
  5
283
100
AcDbEntity
  8
ASSI
100
AcDbPolyline
 62
250
  6
CONTINUOUS
 90
4
 70
0
 10
5.3066740691
 20
43.8218500638
 10
5.2988174981
 20
43.8178776331
 10
5.29333225
 20
43.8127270906
 10
5.290446143
 20
43.8065121215
  0
LWPOLYLINE
  5
284
100
AcDbEntity
  8
RACCORDO
100
AcDbPolyline
 62
250
  6
CONTINUOUS
 90
7
 70
0
 10
9.8892589485
 20
46.1250143461
 10
9.8983762524
 20
46.1295971603
 10
9.9073395205
 20
46.1327398271
 10
9.9159993124
 20
46.1343908201
 10
9.9242108615
 20
46.1345235803
 10
9.9318381932
 20
46.1331370212
 10
9.9392610628
 20
46.1299686381
  0
LWPOLYLINE
  5
285
100
AcDbEntity
  8
RACCORDO
100
AcDbPolyline
 62
250
  6
CONTINUOUS
 90
9
 70
0
 10
10.831295835
 20
44.770691448
 10
10.8008658815
 20
44.7559705377
 10
10.7704050886
 20
44.7429015055
 10
10.7403296898
 20
44.7316485623
 10
10.7103465227
 20
44.7220957363
 10
10.67948693
 20
44.7140471043
 10
10.6475217344
 20
44.7076728824
 10
10.6149282379
 20
44.7033078084
 10
10.5818525191
 20
44.7011929953
  0
LWPOLYLINE
  5
286
100
AcDbEntity
  8
RACCORDO
100
AcDbPolyline
 62
250
  6
CONTINUOUS
 90
6
 70
0
 10
10.8616315716
 20
44.7870158782
 10
10.8738209962
 20
44.7926869459
 10
10.8856232619
 20
44.7957264894
 10
10.8966843538
 20
44.7960433816
 10
10.9066724862
 20
44.7936281718
 10
10.9109190167
 20
44.7915613548
  0
LWPOLYLINE
  5
287
100
AcDbEntity
  8
ASSI
100
AcDbPolyline
 62
250
  6
CONTINUOUS
 90
5
 70
0
 10
10.2003877297
 20
42.4607597337
 10
10.2386886538
 20
42.4770680676
 10
10.2789287024
 20
42.4958834442
 10
10.3207836851
 20
42.517266864
 10
10.3641975833
 20
42.541384152
  0
LWPOLYLINE
  5
288
100
AcDbEntity
  8
RACCORDO
100
AcDbPolyline
 62
250
  6
CONTINUOUS
 90
8
 70
0
 10
28.1719360169
 20
48.3037922702
 10
28.2008992242
 20
48.3141943184
 10
28.2321119186
 20
48.3196475756
 10
28.2652321313
 20
48.3200923033
 10
28.2998969833
 20
48.3155236354
 10
28.3357266756
 20
48.3059916351
 10
28.3723286511
 20
48.2916007442
 10
28.4093018908
 20
48.2725086391
  0
LWPOLYLINE
  5
289
100
AcDbEntity
  8
VARIANTE_COLORE
100
AcDbPolyline
 62
250
  6
CONTINUOUS
 90
8
 70
0
 10
28.1719360169
 20
48.3037922702
 10
28.2008992242
 20
48.3141943184
 10
28.2321119186
 20
48.3196475756
 10
28.2652321313
 20
48.3200923033
 10
28.2998969833
 20
48.3155236354
 10
28.3357266756
 20
48.3059916351
 10
28.3723286511
 20
48.2916007442
 10
28.4093018908
 20
48.2725086391
  0
LINE
  5
28A
100
AcDbEntity
  8
SUPERFICI
100
AcDbLine
 62
7
  6
CONTINUOUS
 10
5.6058957578
 20
41.2063431365
 11
4.7364531262
 21
40.8957772455
  0
LINE
  5
28B
100
AcDbEntity
  8
ASSI
100
AcDbLine
 62
250
  6
CONTINUOUS
 10
10.210323968
 20
41.9225918473
 11
10.1153018489
 21
41.8902290603
  0
LINE
  5
28C
100
AcDbEntity
  8
SUPERFICI
100
AcDbLine
 62
7
  6
CONTINUOUS
 10
-6.8935076703
 20
2.5206686883
 11
7.974706498
 21
-6.06405183
  0
LINE
  5
28D
100
AcDbEntity
  8
SUPERFICI
100
AcDbLine
 62
250
  6
CONTINUOUS
 10
-6.9970489808
 20
2.7495371189
 11
7.8711651875
 21
-5.8351833994
  0
LWPOLYLINE
  5
28E
100
AcDbEntity
  8
SUPERFICI
100
AcDbPolyline
 62
250
  6
CONTINUOUS
 90
9
 70
0
 10
-6.8935076703
 20
2.5206686883
 10
-6.9091075727
 20
2.5308775146
 10
-6.9316867868
 20
2.550793502
 10
-6.9512127981
 20
2.5749777573
 10
-6.9674787408
 20
2.6031740636
 10
-6.9803122874
 20
2.6350836986
 10
-6.9895774747
 20
2.6703686
 10
-6.9951761439
 20
2.7086549467
 10
-6.9970489808
 20
2.7495371189
  0
LWPOLYLINE
  5
28F
100
AcDbEntity
  8
ASSI
100
AcDbPolyline
 62
250
  6
CONTINUOUS
 90
6
 70
0
 10
1.4726692956
 20
43.2048216321
 10
1.477877961
 20
43.212585104
 10
1.4805830271
 20
43.2226044882
 10
1.480722056
 20
43.2346927418
 10
1.4782926831
 20
43.2486446004
 10
1.473336157
 20
43.2642231536
  0
LWPOLYLINE
  5
290
100
AcDbEntity
  8
ASSI
100
AcDbPolyline
 62
250
  6
CONTINUOUS
 90
3
 70
0
 10
1.4269330101
 20
43.2103464612
 10
1.4064045645
 20
43.1826877607
 10
1.3876510784
 20
43.154253958
  0
LWPOLYLINE
  5
291
100
AcDbEntity
  8
ASSI
100
AcDbPolyline
 62
250
  6
CONTINUOUS
 90
3
 70
0
 10
1.473336157
 20
43.2642231536
 10
1.4492435409
 20
43.2375249255
 10
1.4269330101
 20
43.2103464612
  0
LWPOLYLINE
  5
292
100
AcDbEntity
  8
ASSI
100
AcDbPolyline
 62
250
  6
CONTINUOUS
 90
8
 70
0
 10
1.7761584801
 20
43.516089663
 10
1.7773380395
 20
43.5173888948
 10
1.7813361772
 20
43.5237966281
 10
1.7837171208
 20
43.5316428377
 10
1.7844544427
 20
43.5408414226
 10
1.7835401666
 20
43.5512917362
 10
1.7809843147
 20
43.5628801416
 10
1.7768147516
 20
43.5754803144
  0
LWPOLYLINE
  5
293
100
AcDbEntity
  8
RACCORDO
100
AcDbPolyline
 62
250
  6
CONTINUOUS
 90
8
 70
0
 10
10.7285030055
 20
45.1192878581
 10
10.7371284878
 20
45.1249291582
 10
10.7443981659
 20
45.1310984323
 10
10.7501876532
 20
45.1376901228
 10
10.7543978899
 20
45.144591444
 10
10.7569568372
 20
45.1516843126
 10
10.7578207106
 20
45.1588473675
 10
10.7577915676
 20
45.160204855
  0
LWPOLYLINE
  5
294
100
AcDbEntity
  8
RACCORDO
100
AcDbPolyline
 62
250
  6
CONTINUOUS
 90
8
 70
0
 10
10.7338105565
 20
44.999285845
 10
10.7424360415
 20
45.004927147
 10
10.7497057208
 20
45.011096423
 10
10.7554952083
 20
45.017688115
 10
10.7597054441
 20
45.0245894373
 10
10.76226439
 20
45.0316823065
 10
10.7631282617
 20
45.0388453615
 10
10.7631003198
 20
45.0401753996
  0
LWPOLYLINE
  5
295
100
AcDbEntity
  8
ASSI
100
AcDbPolyline
 62
250
  6
CONTINUOUS
 90
10
 70
0
 10
8.0278233296
 20
41.966075497
 10
8.0114053162
 20
41.9554918064
 10
7.9952093272
 20
41.9428429702
 10
7.9794543853
 20
41.9283000418
 10
7.9643535492
 20
41.9120596886
 10
7.950111032
 20
41.8943415335
 10
7.9369194398
 20
41.8753851843
 10
7.9249571666
 20
41.8554469932
 10
7.9143859817
 20
41.8347965898
 10
7.9053488424
 20
41.8137132354
  0
LWPOLYLINE
  5
296
100
AcDbEntity
  8
RACCORDO
100
AcDbPolyline
 62
250
  6
CONTINUOUS
 90
9
 70
0
 10
22.0391702686
 20
51.5352525621
 10
22.0741898138
 20
51.5577089735
 10
22.1049520948
 20
51.5821559226
 10
22.1311200692
 20
51.6083255661
 10
22.1524070305
 20
51.635931186
 10
22.1685797488
 20
51.664670331
 10
22.1794610266
 20
51.69422813
 10
22.184931641
 20
51.7242807483
 10
22.185616878
 20
51.7393898587
  0
LWPOLYLINE
  5
297
100
AcDbEntity
  8
VARIANTE_COLORE
100
AcDbPolyline
 62
250
  6
CONTINUOUS
 90
9
 70
0
 10
22.0391702686
 20
51.5352525621
 10
22.0741898138
 20
51.5577089735
 10
22.1049520948
 20
51.5821559226
 10
22.1311200692
 20
51.6083255661
 10
22.1524070305
 20
51.635931186
 10
22.1685797488
 20
51.664670331
 10
22.1794610266
 20
51.69422813
 10
22.184931641
 20
51.7242807483
 10
22.185616878
 20
51.7393898588
  0
LWPOLYLINE
  5
298
100
AcDbEntity
  8
ASSI
100
AcDbPolyline
 62
250
  6
CONTINUOUS
 90
35
 70
0
 10
10.0663380709
 20
41.8604786282
 10
10.0564154981
 20
41.8542925284
 10
10.0464086679
 20
41.8479799857
 10
10.0363400217
 20
41.8415495892
 10
10.0262515967
 20
41.8349736757
 10
10.016190621
 20
41.8282902193
 10
10.0061098664
 20
41.8214612458
 10
9.9959096853
 20
41.8143451702
 10
9.9856297382
 20
41.8069923107
 10
9.9752303646
 20
41.7993523489
 10
9.9644929359
 20
41.7911327448
 10
9.9533747686
 20
41.7823407636
 10
9.9419185462
 20
41.7729691402
 10
9.9300336912
 20
41.762703539
 10
9.9176587374
 20
41.7515354367
 10
9.9048551509
 20
41.7394733566
 10
9.8917167528
 20
41.7262285335
 10
9.878213123
 20
41.711824401
 10
9.8643746815
 20
41.6962375256
 10
9.8503865094
 20
41.6791088408
 10
9.8361744496
 20
41.6604220288
 10
9.8218126591
 20
41.6401934076
 10
9.8077086907
 20
41.6181128646
 10
9.7936873329
 20
41.5938291365
 10
9.7799237972
 20
41.5676934866
 10
9.767351271
 20
41.5404495933
 10
9.7560637611
 20
41.5117931036
 10
9.7459672607
 20
41.4820283705
 10
9.7377129373
 20
41.4528121318
 10
9.7315916669
 20
41.4243311443
 10
9.7273125735
 20
41.3963986512
 10
9.7246541967
 20
41.3701111192
 10
9.7235427163
 20
41.3458340373
 10
9.7240519525
 20
41.3232019164
 10
9.7261819054
 20
41.3022147566
  0
LINE
  5
299
100
AcDbEntity
  8
ASSI
100
AcDbLine
 62
250
  6
CONTINUOUS
 10
13.0027911684
 20
43.2612504297
 11
13.019203411
 21
43.2713822933
  0
LINE
  5
29A
100
AcDbEntity
  8
ASSI
100
AcDbLine
 62
250
  6
CONTINUOUS
 10
10.0860230552
 20
41.8725506972
 11
10.0663380709
 21
41.8604786282
  0
LWPOLYLINE
  5
29B
100
AcDbEntity
  8
ASSI
100
AcDbPolyline
 62
250
  6
CONTINUOUS
 90
3
 70
0
 10
10.1153018489
 20
41.8902290603
 10
10.1055787803
 20
41.8844006955
 10
10.0860230552
 20
41.8725506972
  0
LWPOLYLINE
  5
29C
100
AcDbEntity
  8
ASSI
100
AcDbPolyline
 62
250
  6
CONTINUOUS
 90
10
 70
0
 10
9.726181907
 20
41.3022147546
 10
9.7431523047
 20
41.3123841446
 10
9.7618253945
 20
41.3215315082
 10
9.7819495571
 20
41.3295335845
 10
9.8032536202
 20
41.3362825457
 10
9.825450512
 20
41.3416874495
 10
9.8482411296
 20
41.3456754646
 10
9.8713183699
 20
41.3481928525
 10
9.8943712676
 20
41.3492056913
 10
9.9170891851
 20
41.3487003327
  0
LINE
  5
29D
100
AcDbEntity
  8
ASSI
100
AcDbLine
 62
250
  6
CONTINUOUS
 10
8.1642187555
 20
42.0476375046
 11
8.0278233296
 21
41.966075497
  0
LINE
  5
29E
100
AcDbEntity
  8
ASSI
100
AcDbLine
 62
250
  6
CONTINUOUS
 10
8.3075486466
 20
41.8186665632
 11
8.1711532206
 21
41.7371045556
  0
LINE
  5
29F
100
AcDbEntity
  8
ASSI
100
AcDbLine
 62
250
  6
CONTINUOUS
 10
7.528154059
 20
40.7780991449
 11
6.9482139743
 21
40.4313054215
  0
LINE
  5
2A0
100
AcDbEntity
  8
ASSI
100
AcDbLine
 62
250
  6
CONTINUOUS
 10
7.6714839501
 20
40.5491282035
 11
7.2159422477
 21
40.2767224719
  0
LINE
  5
2A1
100
AcDbEntity
  8
ASSI
100
AcDbLine
 62
250
  6
CONTINUOUS
 10
11.9883759707
 20
43.0006399348
 11
10.7997828651
 21
42.2898826695
  0
LINE
  5
2A2
100
AcDbEntity
  8
RACCORDO
100
AcDbLine
 62
250
  6
CONTINUOUS
 10
12.8746426189
 20
43.5306114248
 11
13.6154137899
 21
43.9735792404
  0
LINE
  5
2A3
100
AcDbEntity
  8
ASSI
100
AcDbLine
 62
250
  6
CONTINUOUS
 10
12.1317058619
 20
42.7716689935
 11
10.9431127562
 21
42.0609117281
  0
LINE
  5
2A4
100
AcDbEntity
  8
ASSI
100
AcDbLine
 62
250
  6
CONTINUOUS
 10
13.0179725422
 20
43.3016405026
 11
13.7586762642
 21
43.744567985
  0
LWPOLYLINE
  5
2A5
100
AcDbEntity
  8
ASSI
100
AcDbPolyline
 62
250
  6
CONTINUOUS
 90
7
 70
0
 10
10.56635673
 20
41.8046241664
 10
10.5511701202
 20
41.7955642203
 10
10.5381196125
 20
41.7857413808
 10
10.5273810428
 20
41.7752880194
 10
10.5190990926
 20
41.7643450044
 10
10.5133853322
 20
41.7530597949
 10
10.5118746502
 20
41.747410457
  0
LWPOLYLINE
  5
2A6
100
AcDbEntity
  8
RACCORDO
100
AcDbPolyline
 62
250
  6
CONTINUOUS
 90
10
 70
0
 10
13.7586762642
 20
43.744567985
 10
13.7616315539
 20
43.7463094356
 10
13.7646004914
 20
43.7480038734
 10
13.7675830768
 20
43.7496512985
 10
13.7705762758
 20
43.7512510905
 10
13.7735831228
 20
43.7528038697
 10
13.7766127203
 20
43.7543114974
 10
13.7796681025
 20
43.7557745938
 10
13.7827462354
 20
43.7571925387
 10
13.7858471187
 20
43.758565332
  0
LWPOLYLINE
  5
2A7
100
AcDbEntity
  8
ASSI
100
AcDbPolyline
 62
250
  6
CONTINUOUS
 90
10
 70
0
 10
12.1348623135
 20
42.74256227
 10
12.1534347144
 20
42.7533504714
 10
12.1739962257
 20
42.7629195212
 10
12.1962190177
 20
42.7711168516
 10
12.2197487738
 20
42.7778117655
 10
12.2442103389
 20
42.7828975199
 10
12.2692137012
 20
42.786293028
 10
12.2943602105
 20
42.7879441522
 10
12.3192489343
 20
42.7878245669
 10
12.3434830503
 20
42.7859361787
  0
LINE
  5
2A8
100
AcDbEntity
  8
RACCORDO
100
AcDbLine
 62
7
  6
CONTINUOUS
 10
12.3453268344
 20
43.9633522582
 11
15.2155898301
 21
45.6206061391
  0
LINE
  5
2A9
100
AcDbEntity
  8
VARIANTE_COLORE
100
AcDbLine
 62
7
  6
CONTINUOUS
 10
12.3453268344
 20
43.9633522582
 11
15.2155898301
 21
45.6206061391
  0
LINE
  5
2AA
100
AcDbEntity
  8
ASSI
100
AcDbLine
 62
7
  6
CONTINUOUS
 10
15.2155898301
 20
45.4164885699
 11
12.5220864464
 21
43.8612934736
  0
LINE
  5
2AB
100
AcDbEntity
  8
ASSI
100
AcDbLine
 62
7
  6
CONTINUOUS
 10
10.2641243063
 20
42.5512528142
 11
13.1299696584
 21
44.2059560572
  0
LINE
  5
2AC
100
AcDbEntity
  8
RACCORDO
100
AcDbLine
 62
250
  6
CONTINUOUS
 10
10.3641975833
 20
42.541384152
 11
13.2300431095
 21
44.1960874414
  0
LINE
  5
2AD
100
AcDbEntity
  8
ASSI
100
AcDbLine
 62
7
  6
CONTINUOUS
 10
15.2155898301
 20
44.1917831547
 11
13.9923621761
 21
43.4855068379
  0
LWPOLYLINE
  5
2AE
100
AcDbEntity
  8
ASSI
100
AcDbPolyline
 62
250
  6
CONTINUOUS
 90
13
 70
0
 10
10.9431127562
 20
42.0609117281
 10
10.9084040227
 20
42.0408791108
 10
10.8740186715
 20
42.0222334114
 10
10.8399567027
 20
42.00497463
 10
10.8062443347
 20
41.9891387918
 10
10.772855349
 20
41.9746898716
 10
10.7397110897
 20
41.9615197932
 10
10.7068193226
 20
41.9496126801
 10
10.674172282
 20
41.9389844089
 10
10.6416680142
 20
41.9295745331
 10
10.6092725349
 20
41.921362904
 10
10.5770198286
 20
41.9143696703
 10
10.5449098952
 20
41.9085948322
  0
LINE
  5
2AF
100
AcDbEntity
  8
RACCORDO
100
AcDbLine
 62
7
  6
CONTINUOUS
 10
14.0541509897
 20
42.6487302506
 11
13.0568606935
 21
42.0746146209
  0
LINE
  5
2B0
100
AcDbEntity
  8
ASSI
100
AcDbLine
 62
7
  6
CONTINUOUS
 10
12.2676691985
 20
41.6202963662
 11
11.0597957534
 21
40.9249531577
  0
LWPOLYLINE
  5
2B1
100
AcDbEntity
  8
ASSI
100
AcDbPolyline
 62
250
  6
CONTINUOUS
 90
10
 70
0
 10
10.2524538234
 20
41.665047678
 10
10.2427256582
 20
41.6594852236
 10
10.232867961
 20
41.654068631
 10
10.2228790394
 20
41.6487844298
 10
10.212728843
 20
41.6436076446
 10
10.2024366576
 20
41.6385369538
 10
10.1920807865
 20
41.6335887181
 10
10.1816522437
 20
41.6287351053
 10
10.1711576624
 20
41.6239651955
 10
10.1607188306
 20
41.61930856
  0
LWPOLYLINE
  5
2B2
100
AcDbEntity
  8
ASSI
100
AcDbPolyline
 62
7
  6
CONTINUOUS
 90
10
 70
0
 10
10.2641243065
 20
42.5512528143
 10
10.2525795715
 20
42.544656951
 10
10.1914093476
 20
42.5120309721
 10
10.1314373809
 20
42.4839268068
 10
10.0730864788
 20
42.460439336
 10
10.0165441715
 20
42.441520499
 10
9.9618696634
 20
42.427089591
 10
9.9093261882
 20
42.4171306949
 10
9.8593025678
 20
42.4116042625
 10
9.8513550024
 20
42.4111138041
  0
LWPOLYLINE
  5
2B3
100
AcDbEntity
  8
ASSI
100
AcDbPolyline
 62
250
  6
CONTINUOUS
 90
10
 70
0
 10
10.7997828651
 20
42.2898826695
 10
10.7477905712
 20
42.2603409316
 10
10.6962949325
 20
42.2343521887
 10
10.6454158845
 20
42.2118689069
 10
10.595586422
 20
42.192946857
 10
10.5465784346
 20
42.1773663033
 10
10.4975368869
 20
42.164828799
 10
10.4482757962
 20
42.1553758018
 10
10.3992439547
 20
42.1491921964
 10
10.3505741241
 20
42.1463626304
  0
LWPOLYLINE
  5
2B4
100
AcDbEntity
  8
ASSI
100
AcDbPolyline
 62
7
  6
CONTINUOUS
 90
3
 70
0
 10
13.141972651
 20
44.2126650711
 10
13.1324948381
 20
44.2074042217
 10
13.1299665169
 20
44.2059542432
  0
LINE
  5
2B5
100
AcDbEntity
  8
ASSI
100
AcDbLine
 62
7
  6
CONTINUOUS
 10
11.0597957534
 20
40.9249531577
 11
10.5907622826
 21
40.6653784465
  0
LINE
  5
2B6
100
AcDbEntity
  8
ASSI
100
AcDbLine
 62
7
  6
CONTINUOUS
 10
9.8608192548
 20
40.2614099408
 11
8.5238984654
 21
39.5215249443
  0
LWPOLYLINE
  5
2B7
100
AcDbEntity
  8
RACCORDO
100
AcDbPolyline
 62
250
  6
CONTINUOUS
 90
5
 70
0
 10
13.1299696584
 20
44.2059560572
 10
13.1326264531
 20
44.2074106261
 10
13.1463506784
 20
44.2127247175
 10
13.1614120568
 20
44.2151610553
 10
13.1775697554
 20
44.2146806822
  0
LWPOLYLINE
  5
2B8
100
AcDbEntity
  8
ASSI
100
AcDbPolyline
 62
250
  6
CONTINUOUS
 90
8
 70
0
 10
10.2641927512
 20
42.5512923876
 10
10.2668495456
 20
42.5527469563
 10
10.2805737708
 20
42.5580610478
 10
10.2956351492
 20
42.5604973857
 10
10.3117928479
 20
42.5600170127
 10
10.3287885035
 20
42.5566276099
 10
10.3463503539
 20
42.5503833744
 10
10.3641975833
 20
42.541384152
  0
LWPOLYLINE
  5
2B9
100
AcDbEntity
  8
ASSI
100
AcDbPolyline
 62
250
  6
CONTINUOUS
 90
13
 70
0
 10
11.9883759707
 20
43.0006399348
 10
12.0161701261
 20
43.0157514096
 10
12.0459303965
 20
43.0291123733
 10
12.0776567819
 20
43.0407228259
 10
12.1117145234
 20
43.050683956
 10
12.1477383799
 20
43.058894575
 10
12.1846326282
 20
43.0650511173
 10
12.2224365646
 20
43.0690616108
 10
12.2611108928
 20
43.0710180277
 10
12.2994420002
 20
43.0708927191
 10
12.3370253493
 20
43.0686764688
 10
12.3742654775
 20
43.0643784929
 10
12.4388525047
 20
43.0532482108
  0
LINE
  5
2BA
100
AcDbEntity
  8
RACCORDO
100
AcDbLine
 62
7
  6
CONTINUOUS
 10
13.1420164086
 20
44.2126886731
 11
13.1419698115
 21
44.212663536
  0
LINE
  5
2BB
100
AcDbEntity
  8
ASSI
100
AcDbLine
 62
7
  6
CONTINUOUS
 10
9.1873605112
 20
39.7846369831
 11
8.6079014695
 21
39.4730226626
  0
LINE
  5
2BC
100
AcDbEntity
  8
ASSI
100
AcDbLine
 62
250
  6
CONTINUOUS
 10
9.284553851
 20
39.7731860269
 11
8.6650400583
 21
39.4400315575
  0
LWPOLYLINE
  5
2BD
100
AcDbEntity
  8
RACCORDO
100
AcDbPolyline
 62
250
  6
CONTINUOUS
 90
3
 70
0
 10
10.955074506
 20
39.8618225049
 10
10.9593328031
 20
39.8639688659
 10
10.9675465823
 20
39.8681622289
  0
LWPOLYLINE
  5
2BE
100
AcDbEntity
  8
RACCORDO
100
AcDbPolyline
 62
250
  6
CONTINUOUS
 90
7
 70
0
 10
13.6154137899
 20
43.9735792404
 10
13.6245255288
 20
43.9781595422
 10
13.6334853362
 20
43.9813020666
 10
13.6421438139
 20
43.9829544144
 10
13.650356588
 20
43.9830890339
 10
13.6579867166
 20
43.9817036804
 10
13.6654162059
 20
43.9785333582
  0
LWPOLYLINE
  5
2BF
100
AcDbEntity
  8
RACCORDO
100
AcDbPolyline
 62
250
  6
CONTINUOUS
 90
7
 70
0
 10
13.2300431095
 20
44.1960874414
 10
13.2391605566
 20
44.2006701829
 10
13.2481239317
 20
44.2038127922
 10
13.2567837941
 20
44.2054637443
 10
13.2649953661
 20
44.2055964878
 10
13.2726226848
 20
44.2042099311
 10
13.2800455243
 20
44.2010415599
  0
LINE
  5
2C0
100
AcDbEntity
  8
RACCORDO
100
AcDbLine
 62
250
  6
CONTINUOUS
 10
10.9083039727
 20
39.8385805329
 11
10.922886116
 21
39.8458769426
  0
LWPOLYLINE
  5
2C1
100
AcDbEntity
  8
RACCORDO
100
AcDbPolyline
 62
250
  6
CONTINUOUS
 90
3
 70
0
 10
10.922886116
 20
39.8458769426
 10
10.9417370999
 20
39.8551914258
 10
10.955074506
 20
39.8618225049
  0
LWPOLYLINE
  5
2C2
100
AcDbEntity
  8
ASSI
100
AcDbPolyline
 62
250
  6
CONTINUOUS
 90
13
 70
0
 10
12.1317058619
 20
42.7716689926
 10
12.1453684277
 20
42.77838891
 10
12.1602877698
 20
42.7842651095
 10
12.1763351776
 20
42.7892218413
 10
12.1934027614
 20
42.7931931143
 10
12.2113212282
 20
42.7961242936
 10
12.2298527124
 20
42.7979692655
 10
12.2487888151
 20
42.7987140314
 10
12.2680054159
 20
42.7983515563
 10
12.287381209
 20
42.7968529502
 10
12.3067570651
 20
42.7942052493
 10
12.3259240649
 20
42.790440899
 10
12.3446817608
 20
42.7855919472
  0
LWPOLYLINE
  5
2C3
100
AcDbEntity
  8
RACCORDO
100
AcDbPolyline
 62
250
  6
CONTINUOUS
 90
7
 70
0
 10
15.4285014046
 20
41.8551975457
 10
15.4467332172
 20
41.8639905263
 10
15.4646186639
 20
41.8698805987
 10
15.4818584731
 20
41.8727692062
 10
15.4981641764
 20
41.8726080148
 10
15.5132629354
 20
41.8693997214
 10
15.5259068831
 20
41.8637811377
  0
LWPOLYLINE
  5
2C4
100
AcDbEntity
  8
ASSI
100
AcDbPolyline
 62
250
  6
CONTINUOUS
 90
27
 70
0
 10
10.1198146399
 20
41.6013310536
 10
10.1097006007
 20
41.5968229774
 10
10.0994910309
 20
41.5921477629
 10
10.0891043668
 20
41.5872792777
 10
10.0785830689
 20
41.5822019107
 10
10.0679524254
 20
41.576797088
 10
10.057146261
 20
41.5710218579
 10
10.0461847259
 20
41.5648618876
 10
10.0352200962
 20
41.5582208227
 10
10.0242587722
 20
41.5510672468
 10
10.0132856788
 20
41.5433583268
 10
10.0024331915
 20
41.5349590066
 10
9.9917146169
 20
41.5258308307
 10
9.9811575211
 20
41.5159412955
 10
9.9709348492
 20
41.5051510513
 10
9.9610480422
 20
41.4932999574
 10
9.9516147531
 20
41.4805196516
 10
9.9430224695
 20
41.4671203262
 10
9.9354514447
 20
41.4530098335
 10
9.9289317098
 20
41.4383602224
 10
9.923624387
 20
41.4238915115
 10
9.9197053327
 20
41.4097217423
 10
9.9171180745
 20
41.3958437946
 10
9.9156050191
 20
41.3827514652
 10
9.915060162
 20
41.3706038442
 10
9.9155629144
 20
41.359255304
 10
9.9170898148
 20
41.3487002465
  0
LINE
  5
2C5
100
AcDbEntity
  8
ASSI
100
AcDbLine
 62
250
  6
CONTINUOUS
 10
10.1607188306
 20
41.61930856
 11
10.1198146399
 21
41.6013310536
  0
LWPOLYLINE
  5
2C6
100
AcDbEntity
  8
ASSI
100
AcDbPolyline
 62
250
  6
CONTINUOUS
 90
3
 70
0
 10
9.2027184203
 20
39.7906056158
 10
9.191213233
 20
39.7865512485
 10
9.1873605112
 20
39.7846369831
  0
LWPOLYLINE
  5
2C7
100
AcDbEntity
  8
SUPERFICI
100
AcDbPolyline
 62
7
  6
CONTINUOUS
 90
5
 70
0
 10
11.0770897814
 20
1.4324584972
 10
11.058681673
 20
1.4326268505
 10
11.0398767229
 20
1.4299434963
 10
11.020919183
 20
1.4243046041
 10
11.0020698397
 20
1.415631916
  0
LWPOLYLINE
  5
2C8
100
AcDbEntity
  8
SUPERFICI
100
AcDbPolyline
 62
7
  6
CONTINUOUS
 90
3
 70
0
 10
11.1118321092
 20
1.4240852228
 10
11.0948752477
 20
1.429563714
 10
11.0770897814
 20
1.4324584972
  0
LWPOLYLINE
  5
2C9
100
AcDbEntity
  8
SUPERFICI
100
AcDbPolyline
 62
250
  6
CONTINUOUS
 90
9
 70
0
 10
-7.1434955903
 20
2.9536744156
 10
-7.1423809051
 20
2.9344079848
 10
-7.1362928434
 20
2.9048489142
 10
-7.1249459374
 20
2.8757686835
 10
-7.1084658916
 20
2.8475189091
 10
-7.0871197586
 20
2.8205022809
 10
-7.0612250368
 20
2.7950219244
 10
-7.0310808216
 20
2.7712915345
 10
-6.9970489808
 20
2.7495371189
  0
LWPOLYLINE
  5
2CA
100
AcDbEntity
  8
SUPERFICI
100
AcDbPolyline
 62
250
  6
CONTINUOUS
 90
16
 70
0
 10
-6.9970489808
 20
44.9013094011
 10
-6.9951761439
 20
44.9443542785
 10
-6.9895774747
 20
44.989105828
 10
-6.9803122874
 20
45.0350899354
 10
-6.9674787408
 20
45.0818194284
 10
-6.9512127981
 20
45.1287992376
 10
-6.9316867868
 20
45.1755316413
 10
-6.9091075727
 20
45.2215215393
 10
-6.883714368
 20
45.2662816979
 10
-6.8557761978
 20
45.3093379118
 10
-6.8255890489
 20
45.3502340279
 10
-6.7934727352
 20
45.3885367775
 10
-6.7597675088
 20
45.4238403672
 10
-6.7248304552
 20
45.4557707779
 10
-6.6890317103
 20
45.483989727
 10
-6.6527505391
 20
45.5081982527
  0
LWPOLYLINE
  5
2CB
100
AcDbEntity
  8
ASSI
100
AcDbPolyline
 62
250
  6
CONTINUOUS
 90
6
 70
0
 10
1.3876510784
 20
43.154253958
 10
1.3706796776
 20
43.1253399191
 10
1.3555117392
 20
43.096830242
 10
1.3422777719
 20
43.0691023839
 10
1.3308472672
 20
43.0417788876
 10
1.3208500768
 20
43.0146119793
  0
LINE
  5
2CC
100
AcDbEntity
  8
RACCORDO
100
AcDbLine
 62
250
  6
CONTINUOUS
 10
10.3274223237
 20
45.9866186165
 11
10.2769253004
 21
45.9350055393
  0
LINE
  5
2CD
100
AcDbEntity
  8
VARIANTE_COLORE
100
AcDbLine
 62
250
  6
CONTINUOUS
 10
10.3274223237
 20
45.9866186165
 11
10.2769253004
 21
45.9350055393
  0
LWPOLYLINE
  5
2CE
100
AcDbEntity
  8
ASSI
100
AcDbPolyline
 62
7
  6
CONTINUOUS
 90
5
 70
0
 10
10.7644583557
 20
45.0253702496
 10
10.9020604304
 20
45.1494626735
 10
11.0648493208
 20
45.2779764625
 10
11.2416853609
 20
45.4009343282
 10
11.4325685508
 20
45.5183362706
  0
LWPOLYLINE
  5
2CF
100
AcDbEntity
  8
VARIANTE_COLORE
100
AcDbPolyline
 62
7
  6
CONTINUOUS
 90
5
 70
0
 10
10.7644583557
 20
45.0253702496
 10
10.9020604304
 20
45.1494626735
 10
11.0648493208
 20
45.2779764625
 10
11.2416853609
 20
45.4009343282
 10
11.4325685508
 20
45.5183362706
  0
LWPOLYLINE
  5
2D0
100
AcDbEntity
  8
ASSI
100
AcDbPolyline
 62
250
  6
CONTINUOUS
 90
3
 70
0
 10
12.9946748008
 20
43.2832142053
 10
13.0056788199
 20
43.2928392436
 10
13.0179725362
 20
43.3016404697
  0
LINE
  5
2D1
100
AcDbEntity
  8
ASSI
100
AcDbLine
 62
250
  6
CONTINUOUS
 10
12.9889256038
 20
43.2502330663
 11
13.0027911684
 21
43.2612504297
  0
LWPOLYLINE
  5
2D2
100
AcDbEntity
  8
ASSI
100
AcDbPolyline
 62
7
  6
CONTINUOUS
 90
7
 70
0
 10
10.5782792758
 20
40.6577320267
 10
10.5673144572
 20
40.6495861908
 10
10.5578670877
 20
40.64094053
 10
10.5498752404
 20
40.6317225561
 10
10.5434008423
 20
40.6220047572
 10
10.5386296739
 20
40.6120045974
 10
10.5360326579
 20
40.603183734
  0
LWPOLYLINE
  5
2D3
100
AcDbEntity
  8
RACCORDO
100
AcDbPolyline
 62
250
  6
CONTINUOUS
 90
6
 70
0
 10
14.0864644831
 20
43.1847099092
 10
14.0973304634
 20
43.1923089355
 10
14.1057440639
 20
43.2006579438
 10
14.1114552765
 20
43.2095088461
 10
14.1142943936
 20
43.2185986406
 10
14.1145370803
 20
43.224788696
  0
LINE
  5
2D4
100
AcDbEntity
  8
RACCORDO
100
AcDbLine
 62
7
  6
CONTINUOUS
 10
10.8289855277
 20
39.827237175
 11
10.1294185089
 21
39.3501962551
  0
LINE
  5
2D5
100
AcDbEntity
  8
RACCORDO
100
AcDbLine
 62
250
  6
CONTINUOUS
 10
10.8770926357
 20
39.8209032581
 11
10.1604791168
 21
39.3322622494
  0
LWPOLYLINE
  5
2D6
100
AcDbEntity
  8
SUPERFICI
100
AcDbPolyline
 62
250
  6
CONTINUOUS
 90
16
 70
0
 10
8.2154636293
 20
36.9234777344
 10
8.1791824581
 20
36.8992692087
 10
8.1433837132
 20
36.8710502595
 10
8.1084466596
 20
36.8391198489
 10
8.0747414331
 20
36.8038162592
 10
8.0426251194
 20
36.7655135095
 10
8.0124379706
 20
36.7246173935
 10
7.9844998003
 20
36.6815611796
 10
7.9591065957
 20
36.636801021
 10
7.9365273815
 20
36.590811123
 10
7.9170013702
 20
36.5440787193
 10
7.9007354275
 20
36.4970989101
 10
7.8879018809
 20
36.4503694171
 10
7.8786366937
 20
36.4043853097
 10
7.8730380244
 20
36.3596337602
 10
7.8711651875
 20
36.3165888828
  0
LWPOLYLINE
  5
2D7
100
AcDbEntity
  8
ASSI
100
AcDbPolyline
 62
250
  6
CONTINUOUS
 90
9
 70
0
 10
10.9531575338
 20
38.6464859881
 10
10.9668124469
 20
38.6555498025
 10
10.9787597446
 20
38.6653809833
 10
10.9888715852
 20
38.675872631
 10
10.9970358484
 20
38.6869041133
 10
11.0031725759
 20
38.6983620714
 10
11.0072225363
 20
38.7101439236
 10
11.0091339849
 20
38.7221493
 10
11.0092895497
 20
38.7266468072
  0
LWPOLYLINE
  5
2D8
100
AcDbEntity
  8
RACCORDO
100
AcDbPolyline
 62
250
  6
CONTINUOUS
 90
8
 70
0
 10
10.8770926357
 20
39.8209032581
 10
10.8809865996
 20
39.8234489463
 10
10.8850934435
 20
39.8260126375
 10
10.8894034939
 20
39.8285766644
 10
10.8939477575
 20
39.8311063929
 10
10.8986787995
 20
39.8336023876
 10
10.9034713074
 20
39.8360985525
 10
10.9083039727
 20
39.8385805329
  0
LINE
  5
2D9
100
AcDbEntity
  8
ASSI
100
AcDbLine
 62
7
  6
CONTINUOUS
 10
10.9646431398
 20
39.2462107683
 11
11.7951713134
 21
39.7810010958
  0
LWPOLYLINE
  5
2DA
100
AcDbEntity
  8
ASSI
100
AcDbPolyline
 62
7
  6
CONTINUOUS
 90
6
 70
0
 10
13.0568606935
 20
42.0746146209
 10
13.0429832309
 20
42.0656912095
 10
13.0310289594
 20
42.0561654723
 10
13.020997879
 20
42.0460374096
 10
13.0128066791
 20
42.0351732108
 10
13.0109063921
 20
42.0316968775
  0
LWPOLYLINE
  5
2DB
100
AcDbEntity
  8
RACCORDO
100
AcDbPolyline
 62
250
  6
CONTINUOUS
 90
10
 70
0
 10
10.2537103275
 20
40.1422995361
 10
10.2413846441
 20
40.1345614579
 10
10.2291527667
 20
40.1256395047
 10
10.2171077871
 20
40.1156015781
 10
10.2053413749
 20
40.1045240726
 10
10.1939430797
 20
40.0924912949
 10
10.1829996494
 20
40.0795948217
 10
10.1725943699
 20
40.0659328028
 10
10.1628064319
 20
40.0516092145
 10
10.1537103275
 20
40.036733068
  0
LWPOLYLINE
  5
2DC
100
AcDbEntity
  8
VARIANTE_COLORE
100
AcDbPolyline
 62
250
  6
CONTINUOUS
 90
10
 70
0
 10
10.2537103275
 20
40.1422995361
 10
10.2413846441
 20
40.1345614579
 10
10.2291527667
 20
40.1256395047
 10
10.2171077871
 20
40.1156015781
 10
10.2053413749
 20
40.1045240726
 10
10.1939430797
 20
40.0924912949
 10
10.1829996494
 20
40.0795948217
 10
10.1725943699
 20
40.0659328028
 10
10.1628064319
 20
40.0516092145
 10
10.1537103275
 20
40.036733068
  0
LINE
  5
2DD
100
AcDbEntity
  8
ASSI
100
AcDbLine
 62
7
  6
CONTINUOUS
 10
10.5907615435
 20
40.6653780375
 11
10.5782792758
 21
40.6577320267
  0
LINE
  5
2DE
100
AcDbEntity
  8
RACCORDO
100
AcDbLine
 62
250
  6
CONTINUOUS
 10
15.7474392572
 20
40.1917051841
 11
14.7868196449
 21
39.6304837959
  0
LINE
  5
2DF
100
AcDbEntity
  8
RACCORDO
100
AcDbLine
 62
250
  6
CONTINUOUS
 10
15.6052511759
 20
41.2464773462
 11
13.8818250708
 21
40.2457011056
  0
LINE
  5
2E0
100
AcDbEntity
  8
RACCORDO
100
AcDbLine
 62
250
  6
CONTINUOUS
 10
15.7513086716
 20
40.9611596299
 11
14.2014339575
 21
40.06116294
  0
LINE
  5
2E1
100
AcDbEntity
  8
RACCORDO
100
AcDbLine
 62
250
  6
CONTINUOUS
 10
16.0955897833
 20
40.6922809816
 11
14.587792748
 21
39.8167183775
  0
LINE
  5
2E2
100
AcDbEntity
  8
RACCORDO
100
AcDbLine
 62
250
  6
CONTINUOUS
 10
15.914529983
 20
40.2170095349
 11
16.241647279
 21
40.4069632653
  0
LINE
  5
2E3
100
AcDbEntity
  8
RACCORDO
100
AcDbLine
 62
250
  6
CONTINUOUS
 10
10.2537103275
 20
40.1422995361
 11
10.9342091244
 21
40.5352110128
  0
LINE
  5
2E4
100
AcDbEntity
  8
VARIANTE_COLORE
100
AcDbLine
 62
250
  6
CONTINUOUS
 10
10.2537103275
 20
40.1422995361
 11
10.9342091244
 21
40.5352110128
  0
LINE
  5
2E5
100
AcDbEntity
  8
RACCORDO
100
AcDbLine
 62
250
  6
CONTINUOUS
 10
10.3951316837
 20
39.8973505621
 11
10.949128388
 21
40.217221316
  0
LINE
  5
2E6
100
AcDbEntity
  8
VARIANTE_COLORE
100
AcDbLine
 62
250
  6
CONTINUOUS
 10
10.3951316837
 20
39.8973505621
 11
10.949128388
 21
40.217221316
  0
LINE
  5
2E7
100
AcDbEntity
  8
RACCORDO
100
AcDbLine
 62
250
  6
CONTINUOUS
 10
13.205256008
 20
40.57151911
 11
15.4285014046
 21
41.8551975457
  0
LINE
  5
2E8
100
AcDbEntity
  8
RACCORDO
100
AcDbLine
 62
7
  6
CONTINUOUS
 10
10.6370802412
 20
39.0570787334
 11
10.9646431398
 21
39.2462107683
  0
LINE
  5
2E9
100
AcDbEntity
  8
ASSI
100
AcDbLine
 62
250
  6
CONTINUOUS
 10
10.8117577167
 20
38.8913976552
 11
10.2135002013
 21
38.5459700777
  0
LINE
  5
2EA
100
AcDbEntity
  8
RACCORDO
100
AcDbLine
 62
250
  6
CONTINUOUS
 10
13.6148741111
 20
40.399835244
 11
15.6052511759
 21
41.5490579618
  0
LINE
  5
2EB
100
AcDbEntity
  8
ASSI
100
AcDbLine
 62
250
  6
CONTINUOUS
 10
10.9531575338
 20
38.6464859881
 11
10.4962859281
 21
38.3826931432
  0
LINE
  5
2EC
100
AcDbEntity
  8
SUPERFICI
100
AcDbLine
 62
250
  6
CONTINUOUS
 10
10.6195169063
 20
38.3115411208
 11
8.2154636293
 21
36.9234777344
  0
LINE
  5
2ED
100
AcDbEntity
  8
SUPERFICI
100
AcDbLine
 62
250
  6
CONTINUOUS
 10
10.972949143
 20
37.6993785305
 11
8.5688958659
 21
36.3113151441
  0
LINE
  5
2EE
100
AcDbEntity
  8
RACCORDO
100
AcDbLine
 62
7
  6
CONTINUOUS
 10
17.903364652
 20
42.4789823892
 11
28.1594982753
 21
48.2973985062
  0
LINE
  5
2EF
100
AcDbEntity
  8
VARIANTE_COLORE
100
AcDbLine
 62
7
  6
CONTINUOUS
 10
17.903364652
 20
42.4789823892
 11
28.1594982753
 21
48.2973985062
  0
LINE
  5
2F0
100
AcDbEntity
  8
RACCORDO
100
AcDbLine
 62
250
  6
CONTINUOUS
 10
18.1531682683
 20
42.4540925226
 11
28.4093018917
 21
48.2725086396
  0
LINE
  5
2F1
100
AcDbEntity
  8
VARIANTE_COLORE
100
AcDbLine
 62
250
  6
CONTINUOUS
 10
18.1531682683
 20
42.4540925226
 11
28.4093018917
 21
48.2725086396
  0
LINE
  5
2F2
100
AcDbEntity
  8
RACCORDO
100
AcDbLine
 62
250
  6
CONTINUOUS
 10
13.5279174141
 20
39.4998906436
 11
14.3030865268
 21
39.9376455275
  0
LWPOLYLINE
  5
2F3
100
AcDbEntity
  8
RACCORDO
100
AcDbPolyline
 62
250
  6
CONTINUOUS
 90
7
 70
0
 10
15.821902017
 20
40.0497979105
 10
15.8319296265
 20
40.0552791813
 10
15.8415745217
 20
40.0601243105
 10
15.8507859521
 20
40.0643079769
 10
15.8595154869
 20
40.0678083656
 10
15.8677172688
 20
40.0706072799
 10
15.8753482535
 20
40.0726902343
  0
LWPOLYLINE
  5
2F4
100
AcDbEntity
  8
RACCORDO
100
AcDbPolyline
 62
7
  6
CONTINUOUS
 90
11
 70
0
 10
17.903355439
 20
42.4789820796
 10
17.7154282399
 20
42.3784154353
 10
17.50025627
 20
42.2764297303
 10
17.2723992747
 20
42.1814968397
 10
17.032763352
 20
42.0942306229
 10
16.7824022975
 20
42.0151730712
 10
16.5224793856
 20
41.9448372091
 10
16.2540739242
 20
41.8836378596
 10
15.9783427268
 20
41.8319212242
 10
15.6965554769
 20
41.7900144565
 10
15.613594416
 20
41.7807984193
  0
LWPOLYLINE
  5
2F5
100
AcDbEntity
  8
VARIANTE_COLORE
100
AcDbPolyline
 62
7
  6
CONTINUOUS
 90
11
 70
0
 10
17.903355439
 20
42.4789820796
 10
17.7154282399
 20
42.3784154353
 10
17.50025627
 20
42.2764297303
 10
17.2723992747
 20
42.1814968397
 10
17.032763352
 20
42.0942306229
 10
16.7824022975
 20
42.0151730712
 10
16.5224793856
 20
41.9448372091
 10
16.2540739242
 20
41.8836378596
 10
15.9783427268
 20
41.8319212242
 10
15.6965554769
 20
41.7900144565
 10
15.613594416
 20
41.7807984193
  0
LINE
  5
2F6
100
AcDbEntity
  8
RACCORDO
100
AcDbLine
 62
250
  6
CONTINUOUS
 10
17.9279024456
 20
42.3340931375
 11
18.1531682683
 21
42.4540925226
  0
LINE
  5
2F7
100
AcDbEntity
  8
VARIANTE_COLORE
100
AcDbLine
 62
250
  6
CONTINUOUS
 10
17.9279024456
 20
42.3340931375
 11
18.1531682683
 21
42.4540925226
  0
LWPOLYLINE
  5
2F8
100
AcDbEntity
  8
RACCORDO
100
AcDbPolyline
 62
250
  6
CONTINUOUS
 90
17
 70
0
 10
10.9675465823
 20
39.8681622289
 10
10.9714810391
 20
39.8702257584
 10
10.9752960903
 20
39.8722669109
 10
10.9789911461
 20
39.8742826375
 10
10.9825375737
 20
39.8763040506
 10
10.9859410809
 20
39.8783226801
 10
10.9891969761
 20
39.880337844
 10
10.9922587004
 20
39.8823925713
 10
10.9951359917
 20
39.8844775198
 10
10.9978182002
 20
39.8865934816
 10
11.0002257657
 20
39.8887983591
 10
11.0023659898
 20
39.8910844405
 10
11.0042288655
 20
39.8934504602
 10
11.0057069517
 20
39.895963335
 10
11.0067628346
 20
39.8986419241
 10
11.0074300799
 20
39.9014573986
 10
11.0077070318
 20
39.9044047065
  0
LWPOLYLINE
  5
2F9
100
AcDbEntity
  8
RACCORDO
100
AcDbPolyline
 62
250
  6
CONTINUOUS
 90
10
 70
0
 10
28.4093018917
 20
48.2725086396
 10
28.4618216345
 20
48.300046732
 10
28.5140216157
 20
48.322901226
 10
28.5656130794
 20
48.3409444654
 10
28.6163119652
 20
48.3540756584
 10
28.6658360326
 20
48.3622202311
 10
28.7139068006
 20
48.3653317142
 10
28.7602570721
 20
48.3633929673
 10
28.8046317198
 20
48.3564148223
 10
28.8467849618
 20
48.3444359325
  0
LWPOLYLINE
  5
2FA
100
AcDbEntity
  8
VARIANTE_COLORE
100
AcDbPolyline
 62
250
  6
CONTINUOUS
 90
10
 70
0
 10
28.4093018917
 20
48.2725086396
 10
28.4618216345
 20
48.300046732
 10
28.5140216157
 20
48.322901226
 10
28.5656130794
 20
48.3409444654
 10
28.6163119652
 20
48.3540756584
 10
28.6658360326
 20
48.3622202311
 10
28.7139068006
 20
48.3653317142
 10
28.7602570721
 20
48.3633929673
 10
28.8046317198
 20
48.3564148223
 10
28.8467849618
 20
48.3444359325
  0
LINE
  5
2FB
100
AcDbEntity
  8
RACCORDO
100
AcDbLine
 62
250
  6
CONTINUOUS
 10
10.839024905
 20
38.0958552869
 11
13.5278582098
 21
39.4999248274
  0
LINE
  5
2FC
100
AcDbEntity
  8
RACCORDO
100
AcDbLine
 62
250
  6
CONTINUOUS
 10
10.972949143
 20
37.1749735938
 11
14.1709253788
 21
38.8362488536
  0
LINE
  5
2FD
100
AcDbEntity
  8
RACCORDO
100
AcDbLine
 62
250
  6
CONTINUOUS
 10
28.1594982754
 20
48.2973985062
 11
28.1719360169
 21
48.3037922702
  0
LINE
  5
2FE
100
AcDbEntity
  8
VARIANTE_COLORE
100
AcDbLine
 62
250
  6
CONTINUOUS
 10
28.1594982754
 20
48.2973985062
 11
28.1719360169
 21
48.3037922702
  0
LWPOLYLINE
  5
2FF
100
AcDbEntity
  8
RACCORDO
100
AcDbPolyline
 62
250
  6
CONTINUOUS
 90
9
 70
0
 10
17.903364652
 20
42.4789823892
 10
17.9158023994
 20
42.485376156
 10
17.9447655603
 20
42.4957781908
 10
17.9759782217
 20
42.5012314518
 10
18.0090984112
 20
42.5016761921
 10
18.043763257
 20
42.497107539
 10
18.0795929639
 20
42.4875755475
 10
18.1161949741
 20
42.4731846521
 10
18.1531682683
 20
42.4540925226
  0
LWPOLYLINE
  5
300
100
AcDbEntity
  8
VARIANTE_COLORE
100
AcDbPolyline
 62
250
  6
CONTINUOUS
 90
9
 70
0
 10
17.903364652
 20
42.4789823892
 10
17.9158023994
 20
42.485376156
 10
17.9447655603
 20
42.4957781908
 10
17.9759782217
 20
42.5012314518
 10
18.0090984112
 20
42.5016761921
 10
18.043763257
 20
42.497107539
 10
18.0795929639
 20
42.4875755475
 10
18.1161949741
 20
42.4731846521
 10
18.1531682683
 20
42.4540925226
  0
LWPOLYLINE
  5
301
100
AcDbEntity
  8
RACCORDO
100
AcDbPolyline
 62
250
  6
CONTINUOUS
 90
8
 70
0
 10
15.7513086716
 20
40.9611596299
 10
15.7692797675
 20
40.9701295193
 10
15.7864980012
 20
40.9764722539
 10
15.8026752652
 20
40.9800817046
 10
15.8175408713
 20
40.9808974777
 10
15.8308460777
 20
40.9789059248
 10
15.8423682518
 20
40.9741403733
 10
15.8473704986
 20
40.9707628921
  0
LWPOLYLINE
  5
302
100
AcDbEntity
  8
RACCORDO
100
AcDbPolyline
 62
250
  6
CONTINUOUS
 90
8
 70
0
 10
16.0955897833
 20
40.6922809816
 10
16.1135608463
 20
40.7012508567
 10
16.1307790549
 20
40.7075935884
 10
16.1469563023
 20
40.7112030457
 10
16.1618218995
 20
40.7120188329
 10
16.1751271052
 20
40.7100272995
 10
16.1866492875
 20
40.7052617692
 10
16.1916083982
 20
40.7019179101
  0
LWPOLYLINE
  5
303
100
AcDbEntity
  8
SUPERFICI
100
AcDbPolyline
 62
250
  6
CONTINUOUS
 90
16
 70
0
 10
8.5688958659
 20
36.3113151441
 10
8.5296716196
 20
36.2919439874
 10
8.4871976426
 20
36.2750108441
 10
8.4419265578
 20
36.2606961624
 10
8.3943351351
 20
36.2491513085
 10
8.3449357712
 20
36.240501163
 10
8.2942728887
 20
36.234839378
 10
8.2428992988
 20
36.2322233579
 10
8.191350291
 20
36.2326760512
 10
8.1401557773
 20
36.2361912217
 10
8.0897905852
 20
36.242742783
 10
8.0408636928
 20
36.2522581549
 10
7.9940725348
 20
36.2645831446
 10
7.9499421062
 20
36.2795344324
 10
7.9088425131
 20
36.2969393245
 10
7.8711651875
 20
36.3165888828
  0
LWPOLYLINE
  5
304
100
AcDbEntity
  8
RACCORDO
100
AcDbPolyline
 62
250
  6
CONTINUOUS
 90
4
 70
0
 10
15.1417055277
 20
39.1146269321
 10
15.1261778274
 20
39.107041014
 10
15.1162389443
 20
39.1018347113
 10
15.0927371533
 20
39.0886115205
  0
LWPOLYLINE
  5
305
100
AcDbEntity
  8
SUPERFICI
100
AcDbPolyline
 62
7
  6
CONTINUOUS
 90
10
 70
0
 10
11.510272414
 20
1.1950915089
 10
11.4969173023
 20
1.2008834011
 10
11.4828510885
 20
1.204810861
 10
11.4680737727
 20
1.2068738888
 10
11.4524749276
 20
1.2070611288
 10
11.4361649805
 20
1.2053839367
 10
11.4194752128
 20
1.2018763788
 10
11.4025160518
 20
1.1965498108
 10
11.3851770703
 20
1.189392877
 10
11.3674582683
 20
1.1804055776
  0
LINE
  5
306
100
AcDbEntity
  8
SUPERFICI
100
AcDbLine
 62
7
  6
CONTINUOUS
 10
11.6033390409
 20
1.1676292677
 11
11.1211396503
 21
1.4197718897
  0
LINE
  5
307
100
AcDbEntity
  8
RACCORDO
100
AcDbLine
 62
7
  6
CONTINUOUS
 10
11.874510289
 20
1.0037103551
 11
11.510272414
 21
1.1950915089
  0
LINE
  5
308
100
AcDbEntity
  8
SUPERFICI
100
AcDbLine
 62
250
  6
CONTINUOUS
 10
11.3674582683
 20
1.1804055776
 11
10.9805072065
 21
1.403826271
  0
LINE
  5
309
100
AcDbEntity
  8
SUPERFICI
100
AcDbLine
 62
250
  6
CONTINUOUS
 10
11.510272414
 20
1.1950915089
 11
11.1211396503
 21
1.4197718897
  0
LINE
  5
30A
100
AcDbEntity
  8
RACCORDO
100
AcDbLine
 62
7
  6
CONTINUOUS
 10
11.6033390409
 20
1.1676292677
 11
11.874510289
 21
1.0110583876
  0
LWPOLYLINE
  5
30B
100
AcDbEntity
  8
SUPERFICI
100
AcDbPolyline
 62
250
  6
CONTINUOUS
 90
9
 70
0
 10
-7.1434955899
 20
45.105435291
 10
-7.142379054
 20
45.086164294
 10
-7.1362876301
 20
45.056603658
 10
-7.1249374668
 20
45.0275235164
 10
-7.1084548424
 20
44.9992750585
 10
-7.0871076309
 20
44.9722610956
 10
-7.0612140762
 20
44.9467845862
 10
-7.031073758
 20
44.9230588125
 10
-6.9970489808
 20
44.9013094011
  0
LINE
  5
30C
100
AcDbEntity
  8
SUPERFICI
100
AcDbLine
 62
7
  6
CONTINUOUS
 10
-7.1434955903
 20
2.9536744156
 11
-7.1434955903
 21
45.1054466978
  0
LINE
  5
30D
100
AcDbEntity
  8
SUPERFICI
100
AcDbLine
 62
250
  6
CONTINUOUS
 10
-6.9970489808
 20
2.7495371189
 11
-6.9970489808
 21
44.9013094011
  0
LINE
  5
30E
100
AcDbEntity
  8
ASSI
100
AcDbLine
 62
250
  6
CONTINUOUS
 10
1.3208500768
 20
43.0146119793
 11
1.3156018542
 21
42.9984051584
  0
LWPOLYLINE
  5
30F
100
AcDbEntity
  8
ASSI
100
AcDbPolyline
 62
250
  6
CONTINUOUS
 90
11
 70
0
 10
4.1103654004
 20
44.0455078047
 10
4.1097651547
 20
44.0440076246
 10
4.1090336436
 20
44.0384675813
 10
4.1102368091
 20
44.0320948817
 10
4.1133589233
 20
44.0249653914
 10
4.1183611185
 20
44.017157722
 10
4.1251859697
 20
44.0087551852
 10
4.1337494331
 20
43.9998550671
 10
4.1439501127
 20
43.9905558068
 10
4.1556751402
 20
43.9809544911
 10
4.1687946486
 20
43.9711527969
  0
LWPOLYLINE
  5
310
100
AcDbEntity
  8
ASSI
100
AcDbPolyline
 62
250
  6
CONTINUOUS
 90
10
 70
0
 10
4.1687946486
 20
43.9711527969
 10
4.1778317843
 20
43.9922361437
 10
4.1884029656
 20
44.0128865416
 10
4.2003652356
 20
44.0328247296
 10
4.2135568253
 20
44.0517810777
 10
4.2277993413
 20
44.0694992337
 10
4.2429001779
 20
44.0857395897
 10
4.2586551223
 20
44.1002825223
 10
4.274851116
 20
44.1129313633
 10
4.2912691358
 20
44.1235150585
  0
LINE
  5
311
100
AcDbEntity
  8
ASSI
100
AcDbLine
 62
7
  6
CONTINUOUS
 10
3.7285531297
 20
43.2356372889
 11
4.1103654004
 21
44.0455078047
  0
LINE
  5
312
100
AcDbEntity
  8
ASSI
100
AcDbLine
 62
250
  6
CONTINUOUS
 10
3.786982378
 20
43.1612822811
 11
4.1687946486
 21
43.9711527969
  0
LWPOLYLINE
  5
313
100
AcDbEntity
  8
ASSI
100
AcDbPolyline
 62
7
  6
CONTINUOUS
 90
13
 70
0
 10
3.7285540646
 20
43.2356392715
 10
3.7183873036
 20
43.2153069583
 10
3.7060602834
 20
43.1933035737
 10
3.6924693249
 20
43.1715472453
 10
3.6778002927
 20
43.1503448581
 10
3.6622638658
 20
43.1299947494
 10
3.6460323331
 20
43.1107014563
 10
3.6293362969
 20
43.0926997448
 10
3.612451019
 20
43.0762319543
 10
3.5956918366
 20
43.061521469
 10
3.5794207556
 20
43.0487646137
 10
3.5639849149
 20
43.0380842163
 10
3.5504628412
 20
43.0299392993
  0
LWPOLYLINE
  5
314
100
AcDbEntity
  8
ASSI
100
AcDbPolyline
 62
7
  6
CONTINUOUS
 90
7
 70
0
 10
8.1329286953
 20
45.2159674221
 10
8.1332840731
 20
45.2165222115
 10
8.1327461987
 20
45.2158984512
 10
8.1300020949
 20
45.213116135
 10
8.1248289537
 20
45.2087298895
 10
8.1173761837
 20
45.2033887618
 10
8.1069240869
 20
45.1970455604
  0
LWPOLYLINE
  5
315
100
AcDbEntity
  8
RACCORDO
100
AcDbPolyline
 62
250
  6
CONTINUOUS
 90
5
 70
0
 10
10.7212338665
 20
45.1491705253
 10
10.7310645871
 20
45.1618155396
 10
10.7385150609
 20
45.1751663451
 10
10.7433648384
 20
45.188827909
 10
10.7454704208
 20
45.2023960038
  0
LWPOLYLINE
  5
316
100
AcDbEntity
  8
ASSI
100
AcDbPolyline
 62
250
  6
CONTINUOUS
 90
10
 70
0
 10
10.5449107279
 20
41.9085950434
 10
10.531165909
 20
41.8925771768
 10
10.5195359694
 20
41.8758906373
 10
10.5101775175
 20
41.8587600966
 10
10.5032165774
 20
41.8414162035
 10
10.4987468958
 20
41.824092491
 10
10.4968286742
 20
41.8070222314
 10
10.4974877539
 20
41.7904352781
 10
10.5007152735
 20
41.774554971
 10
10.5048259195
 20
41.763170011
  0
LWPOLYLINE
  5
317
100
AcDbEntity
  8
ASSI
100
AcDbPolyline
 62
250
  6
CONTINUOUS
 90
11
 70
0
 10
10.3690877623
 20
41.7581596997
 10
10.3552185295
 20
41.74441213
 10
10.3474090588
 20
41.7368590778
 10
10.3388840158
 20
41.7289265508
 10
10.3296289645
 20
41.7205911138
 10
10.3194871052
 20
41.7119026023
 10
10.308345837
 20
41.7029371067
 10
10.2962209656
 20
41.6937055421
 10
10.2830020292
 20
41.6842524488
 10
10.268469385
 20
41.674671432
 10
10.2524538234
 20
41.665047678
  0
LWPOLYLINE
  5
318
100
AcDbEntity
  8
DRAFT
100
AcDbPolyline
 62
7
  6
CONTINUOUS
 90
3
 70
0
 10
-2.788547498
 20
25.8318675009
 10
-2.6166746171
 20
25.9876246945
 10
-2.4968973126
 20
26.0774013409
  0
LWPOLYLINE
  5
319
100
AcDbEntity
  8
RACCORDO
100
AcDbPolyline
 62
250
  6
CONTINUOUS
 90
7
 70
0
 10
15.6052511759
 20
41.5490579618
 10
15.6219813996
 20
41.5604517923
 10
15.6360243797
 20
41.5729972263
 10
15.6471451397
 20
41.5864843446
 10
15.6551576004
 20
41.600687471
 10
15.6599276923
 20
41.6153689486
 10
15.6613829155
 20
41.6290752494
  0
LWPOLYLINE
  5
31A
100
AcDbEntity
  8
RACCORDO
100
AcDbPolyline
 62
250
  6
CONTINUOUS
 90
7
 70
0
 10
15.6052511759
 20
41.2464773462
 10
15.621981391
 20
41.2578711699
 10
15.6360243668
 20
41.2704165973
 10
15.6471451264
 20
41.2839037096
 10
15.6551575897
 20
41.2981068311
 10
15.6599276865
 20
41.3127883054
 10
15.6613832158
 20
41.3266947536
  0
LWPOLYLINE
  5
31B
100
AcDbEntity
  8
RACCORDO
100
AcDbPolyline
 62
250
  6
CONTINUOUS
 90
7
 70
0
 10
16.241647279
 20
40.4069632653
 10
16.2583774941
 20
40.418357089
 10
16.2724204699
 20
40.4309025164
 10
16.2835412295
 20
40.4443896287
 10
16.2915536928
 20
40.4585927502
 10
16.2963237896
 20
40.4732742245
 10
16.2977792638
 20
40.4870949801
  0
LWPOLYLINE
  5
31C
100
AcDbEntity
  8
RACCORDO
100
AcDbPolyline
 62
250
  6
CONTINUOUS
 90
4
 70
0
 10
15.9942359563
 20
40.0319901737
 10
15.9816885191
 20
40.0234449802
 10
15.9711563936
 20
40.0140360771
 10
15.9645275813
 20
40.0059968492
  0
LINE
  5
31D
100
AcDbEntity
  8
RACCORDO
100
AcDbLine
 62
250
  6
CONTINUOUS
 10
16.2067709277
 20
39.7601862016
 11
16.2029724347
 21
39.7576533695
  0
LWPOLYLINE
  5
31E
100
AcDbEntity
  8
ASSI
100
AcDbPolyline
 62
250
  6
CONTINUOUS
 90
7
 70
0
 10
10.9531575338
 20
38.2771749986
 10
10.9667638983
 20
38.2862029966
 10
10.978678935
 20
38.2959956054
 10
10.988774667
 20
38.3064476499
 10
10.9969428633
 20
38.3174471948
 10
11.0030954674
 20
38.3288758031
 10
11.0071661293
 20
38.3406097001
  0
LWPOLYLINE
  5
31F
100
AcDbEntity
  8
RACCORDO
100
AcDbPolyline
 62
250
  6
CONTINUOUS
 90
9
 70
0
 10
16.241647279
 20
39.8475371332
 10
16.255238034
 20
39.8565536216
 10
16.2671417406
 20
39.866332969
 10
16.2772308614
 20
39.8767703972
 10
16.2853972953
 20
39.887754068
 10
16.2915535556
 20
39.8991663082
 10
16.2956336919
 20
39.9108848726
 10
16.2975939763
 20
39.9227842204
 10
16.2977793189
 20
39.9277545406
  0
LINE
  5
320
100
AcDbEntity
  8
RACCORDO
100
AcDbLine
 62
250
  6
CONTINUOUS
 10
16.1547183502
 20
39.7937789796
 11
16.241647279
 21
39.8475371332
  0
LINE
  5
321
100
AcDbEntity
  8
RACCORDO
100
AcDbLine
 62
7
  6
CONTINUOUS
 10
16.1927563431
 20
39.7513355852
 11
16.2029724347
 21
39.7576533695
  0
LINE
  5
322
100
AcDbEntity
  8
RACCORDO
100
AcDbLine
 62
250
  6
CONTINUOUS
 10
12.7346825006
 20
37.658363111
 11
15.0787174957
 21
39.0808617167
  0
LINE
  5
323
100
AcDbEntity
  8
RACCORDO
100
AcDbLine
 62
7
  6
CONTINUOUS
 10
12.8787691942
 20
37.5017585466
 11
15.0847161404
 21
38.8399669276
  0
LINE
  5
324
100
AcDbEntity
  8
DRAFT
100
AcDbLine
 62
7
  6
CONTINUOUS
 10
13.4018726425
 20
36.63205959
 11
16.6042433728
 21
38.5734980837
  0
LINE
  5
325
100
AcDbEntity
  8
RACCORDO
100
AcDbLine
 62
250
  6
CONTINUOUS
 10
15.821902017
 20
40.0497979105
 11
14.8937759205
 21
39.504927644
  0
LINE
  5
326
100
AcDbEntity
  8
RACCORDO
100
AcDbLine
 62
250
  6
CONTINUOUS
 10
11.5209568984
 20
35.2601056918
 11
10.972949143
 21
34.943692882
  0
LINE
  5
327
100
AcDbEntity
  8
RACCORDO
100
AcDbLine
 62
250
  6
CONTINUOUS
 10
13.5357437691
 20
36.4031413002
 11
31.2510191715
 21
46.6317366974
  0
LINE
  5
328
100
AcDbEntity
  8
VARIANTE_COLORE
100
AcDbLine
 62
250
  6
CONTINUOUS
 10
13.5357437691
 20
36.4031413002
 11
31.2510191715
 21
46.6317366974
  0
LINE
  5
329
100
AcDbEntity
  8
RACCORDO
100
AcDbLine
 62
250
  6
CONTINUOUS
 10
11.874510289
 20
34.6477332568
 11
10.972949143
 21
34.1271831503
  0
LINE
  5
32A
100
AcDbEntity
  8
RACCORDO
100
AcDbLine
 62
250
  6
CONTINUOUS
 10
12.9988852134
 20
37.3062629792
 11
16.4998719765
 21
39.2933083012
  0
LINE
  5
32B
100
AcDbEntity
  8
RACCORDO
100
AcDbLine
 62
250
  6
CONTINUOUS
 10
14.1709253788
 20
38.8362488536
 11
14.9721207591
 21
39.2883218758
  0
LINE
  5
32C
100
AcDbEntity
  8
RACCORDO
100
AcDbLine
 62
250
  6
CONTINUOUS
 10
15.0927371533
 20
39.0886115205
 11
15.0787174957
 21
39.0808617167
  0
LWPOLYLINE
  5
32D
100
AcDbEntity
  8
RACCORDO
100
AcDbPolyline
 62
250
  6
CONTINUOUS
 90
10
 70
0
 10
16.4998719765
 20
39.2933083012
 10
16.5140474668
 20
39.300927544
 10
16.5274043649
 20
39.3072341464
 10
16.5397995611
 20
39.3121605378
 10
16.5511002493
 20
39.3156539352
 10
16.5611853506
 20
39.3176769092
 10
16.56994681
 20
39.3182077852
 10
16.5772907545
 20
39.317240875
 10
16.583138499
 20
39.3147865386
 10
16.5865852228
 20
39.3118950891
  0
LWPOLYLINE
  5
32E
100
AcDbEntity
  8
RACCORDO
100
AcDbPolyline
 62
250
  6
CONTINUOUS
 90
7
 70
0
 10
-3.6154641651
 20
24.0360418452
 10
-3.5649263214
 20
24.2955234878
 10
-3.5019900163
 20
24.5445788536
 10
-3.4268117184
 20
24.7825887619
 10
-3.3395783268
 20
25.0089614984
 10
-3.2405067101
 20
25.2231342739
 10
-3.1757818233
 20
25.3409526961
  0
LWPOLYLINE
  5
32F
100
AcDbEntity
  8
ASSI
100
AcDbPolyline
 62
7
  6
CONTINUOUS
 90
12
 70
0
 10
1.3519258889
 20
42.977432116
 10
1.3555075888
 20
42.9939830447
 10
1.3613177672
 20
43.0150509196
 10
1.3687092755
 20
43.0371106729
 10
1.3776792
 20
43.0598287193
 10
1.3881867343
 20
43.0828637345
 10
1.4000184578
 20
43.1056372342
 10
1.4130307617
 20
43.1278396144
 10
1.4270223953
 20
43.1491312789
 10
1.4415721869
 20
43.1689579157
 10
1.4564267354
 20
43.1871121114
 10
1.4726692956
 20
43.2048216321
  0
LWPOLYLINE
  5
330
100
AcDbEntity
  8
ASSI
100
AcDbPolyline
 62
250
  6
CONTINUOUS
 90
9
 70
0
 10
3.7285531297
 20
43.2356372889
 10
3.7276016927
 20
43.2328894213
 10
3.7275651603
 20
43.2255972685
 10
3.730529242
 20
43.2170637916
 10
3.7364450403
 20
43.2074297649
 10
3.745214964
 20
43.196854118
 10
3.7566943383
 20
43.1855113144
 10
3.7706937913
 20
43.1735884729
 10
3.786982378
 20
43.1612822811
  0
LWPOLYLINE
  5
331
100
AcDbEntity
  8
RACCORDO
100
AcDbPolyline
 62
250
  6
CONTINUOUS
 90
8
 70
0
 10
13.7858471184
 20
43.7585653327
 10
13.7951431491
 20
43.7710716171
 10
13.8021347968
 20
43.7841566115
 10
13.8066230593
 20
43.7974478794
 10
13.808480188
 20
43.8105671131
 10
13.8076533239
 20
43.8231409012
 10
13.8041660024
 20
43.8348113574
 10
13.8022406448
 20
43.8387926512
  0
LWPOLYLINE
  5
332
100
AcDbEntity
  8
RACCORDO
100
AcDbPolyline
 62
250
  6
CONTINUOUS
 90
5
 70
0
 10
14.0783131162
 20
43.2151019637
 10
14.0876091485
 20
43.2276082392
 10
14.0946007983
 20
43.2406932268
 10
14.0990890631
 20
43.2539844899
 10
14.1009461939
 20
43.2671037211
  0
LINE
  5
333
100
AcDbEntity
  8
ASSI
100
AcDbLine
 62
250
  6
CONTINUOUS
 10
10.8126355585
 20
38.1330512552
 11
10.9531575338
 21
38.2771749986
  0
LINE
  5
334
100
AcDbEntity
  8
ASSI
100
AcDbLine
 62
7
  6
CONTINUOUS
 10
10.8368429527
 20
38.09916155
 11
10.9524889433
 21
38.2177717035
  0
LWPOLYLINE
  5
335
100
AcDbEntity
  8
RACCORDO
100
AcDbPolyline
 62
250
  6
CONTINUOUS
 90
19
 70
0
 10
16.6042433728
 20
38.5734980837
 10
16.6274925564
 20
38.5904563074
 10
16.6473610421
 20
38.6106662261
 10
16.6645314068
 20
38.6344712673
 10
16.6788481535
 20
38.6616558493
 10
16.6901816281
 20
38.691973785
 10
16.6984291927
 20
38.7251505115
 10
16.7035161558
 20
38.7608855746
 10
16.7053964488
 20
38.7988553508
 10
16.7040530439
 20
38.8387159789
 10
16.6994981072
 20
38.8801064756
 10
16.6917728889
 20
38.9226520039
 10
16.6809473492
 20
38.9659672657
 10
16.6671195259
 20
39.0096599906
 10
16.6504146457
 20
39.0533344903
 10
16.6309839898
 20
39.0965952433
 10
16.6090035255
 20
39.1390504717
 10
16.5846723143
 20
39.1803156896
 10
16.558210705
 20
39.2200171917
  0
LWPOLYLINE
  5
336
100
AcDbEntity
  8
SUPERFICI
100
AcDbPolyline
 62
7
  6
CONTINUOUS
 90
10
 70
0
 10
11.3674582683
 20
32.4213080701
 10
11.3851770703
 20
32.432781999
 10
11.4025160518
 20
32.4456476865
 10
11.4194752128
 20
32.4599051325
 10
11.4361649805
 20
32.4756705
 10
11.4524749276
 20
32.492827626
 10
11.4680737727
 20
32.5110280213
 10
11.4828510885
 20
32.530155523
 10
11.4969173023
 20
32.550326294
 10
11.510272414
 20
32.5715403344
  0
LWPOLYLINE
  5
337
100
AcDbEntity
  8
RACCORDO
100
AcDbPolyline
 62
250
  6
CONTINUOUS
 90
8
 70
0
 10
15.0508567569
 20
33.5156309431
 10
15.0582986755
 20
33.52027592
 10
15.064528582
 20
33.5244273414
 10
15.0694422332
 20
33.528015743
 10
15.0729574106
 20
33.5309810811
 10
15.0750152957
 20
33.5332737377
 10
15.0755814546
 20
33.5348553504
 10
15.0755030937
 20
33.5351076592
  0
LWPOLYLINE
  5
338
100
AcDbEntity
  8
0
100
AcDbPolyline
 62
7
  6
CONTINUOUS
 90
53
 70
0
 10
-1.6015684077
 20
24.5337329855
 10
-1.6913137982
 20
24.4783238227
 10
-1.805876593
 20
24.3961679745
 10
-1.9147168994
 20
24.3045370144
 10
-2.0171602834
 20
24.2039987377
 10
-2.1131670244
 20
24.0944978354
 10
-2.2027768431
 20
23.9760896164
 10
-2.2854344684
 20
23.8495078025
 10
-2.3610967316
 20
23.7147016407
 10
-2.4298068013
 20
23.5717218839
 10
-2.4911389127
 20
23.4214545125
 10
-2.5450472532
 20
23.263854275
 10
-2.5915776353
 20
23.0989664228
 10
-2.6304417316
 20
22.9278126907
 10
-2.6615919391
 20
22.7503541716
 10
-2.6850758607
 20
22.5666297727
 10
-2.7007479772
 20
22.3777779502
 10
-2.7085597823
 20
22.183766866
 10
-2.7085597823
 20
21.9846283583
 10
-2.7007479772
 20
21.7815963974
 10
-2.6850758607
 20
21.5746468076
 10
-2.6615919391
 20
21.3638037646
 10
-2.6304417316
 20
21.1503737667
 10
-2.5915776353
 20
20.9343407505
 10
-2.5450472532
 20
20.7157207793
 10
-2.4911389127
 20
20.4958685414
 10
-2.4298068013
 20
20.2747763851
 10
-2.3610967316
 20
20.0524519621
 10
-2.2854344684
 20
19.8302729154
 10
-2.2027768431
 20
19.6082401477
 10
-2.1131670244
 20
19.3863527562
 10
-2.0171602834
 20
19.1659856759
 10
-1.9147168994
 20
18.947148347
 10
-1.805876593
 20
18.7298313294
 10
-1.6913137982
 20
18.5153812373
 10
-1.5709929817
 20
18.3038158727
 10
-1.4449496768
 20
18.0951174337
 10
-1.3139649161
 20
17.8905791294
 10
-1.1780080165
 20
17.6902267914
 10
-1.0371096612
 20
17.4940345882
 10
-0.892142933
 20
17.3032182331
 10
-0.7430825699
 20
17.1178111068
 10
-0.589953834
 20
16.9377798288
 10
-0.4337055942
 20
16.7642399707
 10
-0.2743184803
 20
16.59723184
 10
-0.1118118624
 20
16.4367151293
 10
0.05280728
 20
16.2836844873
 10
0.2195520645
 20
16.1381863978
 10
0.3884093735
 20
16.0001743771
 10
0.5583328753
 20
15.8705036225
 10
0.7289737928
 20
15.7494592001
 10
0.9006809032
 20
15.6367560439
 10
1.0734542064
 20
15.532394154
  0
LWPOLYLINE
  5
339
100
AcDbEntity
  8
0
100
AcDbPolyline
 62
7
  6
CONTINUOUS
 90
51
 70
0
 10
-1.3516627711
 20
24.100665804
 10
-1.4086345822
 20
24.0661435432
 10
-1.5183646908
 20
23.9901643578
 10
-1.6221925788
 20
23.9048720056
 10
-1.7201580269
 20
23.8103292572
 10
-1.8115977707
 20
23.7071762039
 10
-1.8964675288
 20
23.5953544188
 10
-1.9748115826
 20
23.4749223289
 10
-2.0460995123
 20
23.3466953065
 10
-2.1102834369
 20
23.2106204575
 10
-2.1674112374
 20
23.066750676
 10
-2.2170961361
 20
22.9160600169
 10
-2.2592876277
 20
22.7585021955
 10
-2.2940362176
 20
22.5941234964
 10
-2.3211066441
 20
22.4240368278
 10
-2.3404468056
 20
22.248203457
 10
-2.3521088038
 20
22.0666621165
 10
-2.3560136824
 20
21.8806419125
 10
-2.3521088038
 20
21.6901124525
 10
-2.3404468056
 20
21.495104129
 10
-2.3211066441
 20
21.2969372244
 10
-2.2940362176
 20
21.0955903057
 10
-2.2592876277
 20
20.8910848061
 10
-2.2170961361
 20
20.6848053078
 10
-2.1674112374
 20
20.476739773
 10
-2.1102834369
 20
20.2669002395
 10
-2.0460995123
 20
20.0567074032
 10
-1.9748115826
 20
19.8461588665
 10
-1.8964675288
 20
19.635257027
 10
-1.8115977707
 20
19.4254297726
 10
-1.7201580269
 20
19.2166843951
 10
-1.6221925788
 20
19.0090136028
 10
-1.5183646908
 20
18.8038234081
 10
-1.4086345822
 20
18.6011306438
 10
-1.2930420337
 20
18.4009184771
 10
-1.1723696523
 20
18.2045424229
 10
-1.0465829675
 20
18.0120285118
 10
-0.9157164497
 20
17.8233507132
 10
-0.7806561164
 20
17.6397864495
 10
-0.6413735096
 20
17.4613704197
 10
-0.4978970874
 20
17.288067925
 10
-0.3511982412
 20
17.1210522909
 10
-0.2012551046
 20
16.9603661784
 10
-0.0480895441
 20
16.8059669265
 10
0.1072614495
 20
16.6588998788
 10
0.264812706
 20
16.5192147893
 10
0.4245493956
 20
16.3868619039
 10
0.5853900384
 20
16.2627373034
 10
0.7469741412
 20
16.1471396815
 10
0.9096621972
 20
16.0397703445
 10
1.0734542064
 20
15.9406292924
  0
LINE
  5
33A
100
AcDbEntity
  8
SUPERFICI
100
AcDbLine
 62
7
  6
CONTINUOUS
 10
10.972949143
 20
32.1855722231
 11
11.3674582683
 21
32.4213080701
  0
LINE
  5
33B
100
AcDbEntity
  8
RACCORDO
100
AcDbLine
 62
250
  6
CONTINUOUS
 10
15.0508567569
 20
33.5156309431
 11
10.972949143
 21
31.1064169651
  0
LINE
  5
33C
100
AcDbEntity
  8
RACCORDO
100
AcDbLine
 62
250
  6
CONTINUOUS
 10
15.0732703735
 20
33.3907713452
 11
10.972949143
 21
30.9686313356
  0
LINE
  5
33D
100
AcDbEntity
  8
0
100
AcDbLine
 62
7
  6
CONTINUOUS
 10
-1.6016750503
 20
24.5336714163
 11
0.3538651917
 21
25.6627758433
  0
LINE
  5
33E
100
AcDbEntity
  8
0
100
AcDbLine
 62
7
  6
CONTINUOUS
 10
0.0127940346
 20
25.3544879585
 11
0.4527145613
 21
25.6084925571
  0
LINE
  5
33F
100
AcDbEntity
  8
RACCORDO
100
AcDbLine
 62
250
  6
CONTINUOUS
 10
11.7246621567
 20
32.2217457042
 11
10.972949143
 21
31.787799919
  0
LINE
  5
340
100
AcDbEntity
  8
RACCORDO
100
AcDbLine
 62
250
  6
CONTINUOUS
 10
11.6826306838
 20
31.9668508105
 11
10.972949143
 21
31.5571687804
  0
LWPOLYLINE
  5
341
100
AcDbEntity
  8
RACCORDO
100
AcDbPolyline
 62
7
  6
CONTINUOUS
 90
16
 70
0
 10
-2.752447714
 20
25.9613790941
 10
-2.5703879927
 20
26.0500322393
 10
-2.3809643561
 20
26.1205766232
 10
-2.1848011955
 20
26.1734719401
 10
-1.9829661283
 20
26.2091269275
 10
-1.7758432137
 20
26.2281297507
 10
-1.5630199509
 20
26.2309571636
 10
-1.3453884593
 20
26.2179069746
 10
-1.1236363784
 20
26.1893356704
 10
-0.8968667872
 20
26.1452712387
 10
-0.6655186319
 20
26.0857663313
 10
-0.4306154381
 20
26.0110693176
 10
-0.1919403402
 20
25.9210542504
 10
0.0501354393
 20
25.8157063441
 10
0.2945624144
 20
25.6953420564
 10
0.5405994139
 20
25.5602304526
  0
LWPOLYLINE
  5
342
100
AcDbEntity
  8
RACCORDO
100
AcDbPolyline
 62
250
  6
CONTINUOUS
 90
6
 70
0
 10
3.6374556885
 20
13.4990851264
 10
3.4090124651
 20
13.5119655657
 10
3.1715900186
 20
13.5414571159
 10
2.9298179819
 20
13.5872587055
 10
2.684297426
 20
13.6492564704
 10
2.4356387644
 20
13.7272962755
  0
LWPOLYLINE
  5
343
100
AcDbEntity
  8
RACCORDO
100
AcDbPolyline
 62
250
  6
CONTINUOUS
 90
5
 70
0
 10
2.4356387644
 20
13.7272962755
 10
2.1844602253
 20
13.8211840945
 10
1.9313862869
 20
13.9306865019
 10
1.6770461228
 20
14.0555312585
 10
1.4220720628
 20
14.1954079788
  0
LWPOLYLINE
  5
344
100
AcDbEntity
  8
RACCORDO
100
AcDbPolyline
 62
250
  6
CONTINUOUS
 90
3
 70
0
 10
1.3415835985
 20
13.5995800695
 10
1.0634360089
 20
13.7335664026
 10
0.7844411365
 20
13.8857746903
  0
LWPOLYLINE
  5
345
100
AcDbEntity
  8
RACCORDO
100
AcDbPolyline
 62
250
  6
CONTINUOUS
 90
8
 70
0
 10
1.4220720628
 20
14.1954079788
 10
1.1670979924
 20
14.3499689185
 10
0.9127578208
 20
14.5188298139
 10
0.6596838777
 20
14.7015708516
 10
0.4085053381
 20
14.8977377153
 10
0.1598466787
 20
15.1068426993
 10
-0.0856738751
 20
15.3283659174
 10
-0.3274459109
 20
15.561756616
  0
LWPOLYLINE
  5
346
100
AcDbEntity
  8
RACCORDO
100
AcDbPolyline
 62
250
  6
CONTINUOUS
 90
61
 70
0
 10
0.4370581033
 20
13.2770271185
 10
0.1524624704
 20
13.4500748734
 10
-0.1299061517
 20
13.6387566666
 10
-0.4100477629
 20
13.8430724982
 10
-0.6887466847
 20
14.0636835938
 10
-0.9652185955
 20
14.2999287277
 10
-1.2371105314
 20
14.5498242229
 10
-1.5043573175
 20
14.8134676504
 10
-1.7670241287
 20
15.0907614392
 10
-2.0229535256
 20
15.3794291994
 10
-2.2720883325
 20
15.6795630186
 10
-2.5144857251
 20
15.991070809
 10
-2.7481597912
 20
16.3113999179
 10
-2.9730416739
 20
16.6406289976
 10
-3.1892002302
 20
16.9786793958
 10
-3.3948561181
 20
17.3227625015
 10
-3.5899201056
 20
17.672927318
 10
-3.7744814248
 20
18.0291248421
 10
-3.9470284304
 20
18.3884194539
 10
-4.1074585001
 20
18.7508305642
 10
-4.2558742563
 20
19.1163387622
 10
-4.3910719206
 20
19.4819501952
 10
-4.5129420944
 20
19.8476616473
 10
-4.6215941763
 20
20.2134763344
 10
-4.7161525844
 20
20.5764100515
 10
-4.7965025792
 20
20.9364364598
 10
-4.8627589001
 20
21.2935818982
 10
-4.9143901836
 20
21.6449411783
 10
-4.9512786649
 20
21.990466306
 10
-4.9735421088
 20
22.3302052755
 10
-4.9810024452
 20
22.6613968802
 10
-4.9735409189
 20
22.9839724892
 10
-4.9512762852
 20
23.2980007335
 10
-4.9143867401
 20
23.6009262996
 10
-4.8627545168
 20
23.892661261
 10
-4.7964973822
 20
24.1732935442
 10
-4.7161468325
 20
24.4405316153
 10
-4.621588166
 20
24.6942692405
 10
-4.5129360844
 20
24.9346126537
 10
-4.3910661904
 20
25.1595890216
 10
-4.255869135
 20
25.3690752526
 10
-4.1074542671
 20
25.5631944383
 10
-3.9470252361
 20
25.7403430208
 10
-3.7744795011
 20
25.9003831304
 10
-3.5899196029
 20
26.0434526367
 10
-3.3948568132
 20
26.1683615911
 10
-3.189201767
 20
26.2749580584
 10
-2.9730438293
 20
26.3633939737
 10
-2.7481623677
 20
26.4329351937
 10
-2.5144884631
 20
26.4834234962
 10
-2.2720910345
 20
26.5150171034
 10
-2.0229562065
 20
26.5274565394
 10
-1.7670269446
 20
26.5205836802
 10
-1.5043602833
 20
26.4945566498
 10
-1.2371134504
 20
26.4495903441
 10
-0.9652211294
 20
26.3855119003
 10
-0.6887486367
 20
26.3024941812
 10
-0.4100491493
 20
26.2012706715
 10
-0.1299070597
 20
26.082085866
 10
0.1524620245
 20
25.9446952699
 10
0.4370581033
 20
25.7890988832
  0
LWPOLYLINE
  5
347
100
AcDbEntity
  8
RACCORDO
100
AcDbPolyline
 62
250
  6
CONTINUOUS
 90
44
 70
0
 10
0.7844411365
 20
13.8857746903
 10
0.5054462603
 20
14.0557426905
 10
0.227298668
 20
14.2429542238
 10
-0.0491569178
 20
14.4468407391
 10
-0.3230809127
 20
14.6667830434
 10
-0.5936414209
 20
14.9021131833
 10
-0.860016761
 20
15.152116473
 10
-1.1213979514
 20
15.4160336541
 10
-1.376991198
 20
15.6930632323
 10
-1.6260203029
 20
15.9823639167
 10
-1.8677290896
 20
16.2830572706
 10
-2.1013833679
 20
16.5942299636
 10
-2.3262732315
 20
16.9149365334
 10
-2.5417155308
 20
17.2442026558
 10
-2.7470562349
 20
17.5810286413
 10
-2.9416720584
 20
17.9243920647
 10
-3.1249719768
 20
18.2732501997
 10
-3.296399285
 20
18.6265435481
 10
-3.4554335316
 20
18.9831995899
 10
-3.6015917801
 20
19.3421354399
 10
-3.7344299821
 20
19.7022607834
 10
-3.853544548
 20
20.0624815929
 10
-3.9585736406
 20
20.4217036346
 10
-4.0491983568
 20
20.7788362105
 10
-4.1251435296
 20
21.1327951214
 10
-4.1861784967
 20
21.4825057401
 10
-4.2321177342
 20
21.8269056014
 10
-4.262821604
 20
22.1649480769
 10
-4.2781968655
 20
22.4956062522
 10
-4.2781968707
 20
22.817876218
 10
-4.262821619
 20
23.1307794423
 10
-4.2321177564
 20
23.4333658867
 10
-4.1861785223
 20
23.7247163034
 10
-4.1251435564
 20
24.0039453018
 10
-4.0491983851
 20
24.2702046498
 10
-3.9585736699
 20
24.5226860896
 10
-3.8535445756
 20
24.7606231844
 10
-3.7344300034
 20
24.9832934995
 10
-3.6015917911
 20
25.1900206376
 10
-3.4554335295
 20
25.3801766239
 10
-3.2963992654
 20
25.553183921
 10
-3.1249719368
 20
25.7085173244
 10
-2.9416720035
 20
25.8457053125
 10
-2.752447714
 20
25.9613790941
  0
LWPOLYLINE
  5
348
100
AcDbEntity
  8
DRAFT
100
AcDbPolyline
 62
7
  6
CONTINUOUS
 90
7
 70
0
 10
1.2855862408
 20
14.1852300338
 10
1.0057849256
 20
14.3558425297
 10
0.7284377244
 20
14.5425115767
 10
0.4535446374
 20
14.7452371749
 10
0.1802215683
 20
14.964795136
 10
-0.0906473867
 20
15.2004096483
 10
-0.3564099395
 20
15.4497532761
  0
LWPOLYLINE
  5
349
100
AcDbEntity
  8
DRAFT
100
AcDbPolyline
 62
7
  6
CONTINUOUS
 90
35
 70
0
 10
-0.3564099395
 20
15.4497532761
 10
-0.6168546581
 20
15.7127735686
 10
-0.8721929744
 20
15.9895229766
 10
-1.1204068965
 20
16.277831416
 10
-1.3616505118
 20
16.5780825526
 10
-1.5957697328
 20
16.8898927207
 10
-1.8202843055
 20
17.209940838
 10
-2.0348598813
 20
17.5379224818
 10
-2.2398308088
 20
17.8741420749
 10
-2.4337198804
 20
18.2161918044
 10
-2.6166746171
 20
18.5645933562
 10
-2.788547498
 20
18.9188250445
 10
-2.9474187526
 20
19.2749139986
 10
-3.0929461939
 20
19.6323383606
 10
-3.2254720089
 20
19.9916199885
 10
-3.3441029892
 20
20.3503515852
 10
-3.4488903063
 20
20.7091108905
 10
-3.5397827886
 20
21.0673201648
 10
-3.6157337126
 20
21.4208388914
 10
-3.6764935286
 20
21.7690272103
 10
-3.7223117862
 20
22.1125249816
 10
-3.7528904107
 20
22.4491112698
 10
-3.7681300439
 20
22.7793042228
 10
-3.7681300439
 20
23.1025856925
 10
-3.7528904107
 20
23.4151802992
 10
-3.7223117862
 20
23.7164551582
 10
-3.6764935286
 20
24.0070431541
 10
-3.6157337126
 20
24.2850675605
 10
-3.5397827886
 20
24.5508800639
 10
-3.4488903063
 20
24.8041289779
 10
-3.3441029892
 20
25.041882516
 10
-3.2254720089
 20
25.2636220303
 10
-3.0929461939
 20
25.4698661688
 10
-2.9474187526
 20
25.6592390895
 10
-2.788547498
 20
25.8318675009
  0
LWPOLYLINE
  5
34A
100
AcDbEntity
  8
RACCORDO
100
AcDbPolyline
 62
250
  6
CONTINUOUS
 90
29
 70
0
 10
-0.3274459109
 20
15.561756616
 10
-0.5648683566
 20
15.806434556
 10
-0.7973509531
 20
16.0617914388
 10
-1.0243157114
 20
16.3271924054
 10
-1.245198363
 20
16.6019776281
 10
-1.4594497706
 20
16.8854639628
 10
-1.6665372751
 20
17.1769466252
 10
-1.8659460189
 20
17.4757009387
 10
-2.0571802383
 20
17.7809841516
 10
-2.2397644954
 20
18.0920372845
 10
-2.4132448548
 20
18.4080870088
 10
-2.5771900115
 20
18.7283475664
 10
-2.7311923691
 20
19.0520227326
 10
-2.8748690565
 20
19.3783078063
 10
-3.0078628751
 20
19.7063916022
 10
-3.1298431847
 20
20.0354584661
 10
-3.240506716
 20
20.3646902721
 10
-3.3395783323
 20
20.6932684678
 10
-3.4268117233
 20
21.0203761387
 10
-3.5019900206
 20
21.3452000613
 10
-3.5649263249
 20
21.6669326948
 10
-3.6154641679
 20
21.9847741724
 10
-3.6534779013
 20
22.2979342782
 10
-3.6788730156
 20
22.6056344345
 10
-3.6915863753
 20
22.9071096418
 10
-3.6915863749
 20
23.2016103949
 10
-3.6788730144
 20
23.4884045325
 10
-3.6534778992
 20
23.7667790466
 10
-3.6154641651
 20
24.0360418452
  0
LWPOLYLINE
  5
34B
100
AcDbEntity
  8
0
100
AcDbPolyline
 62
7
  6
CONTINUOUS
 90
41
 70
0
 10
0.654172955
 20
20.8366765197
 10
0.6629415004
 20
20.7513368596
 10
0.6758180802
 20
20.6649878229
 10
0.6928026942
 20
20.5776294095
 10
0.7139903844
 20
20.4889260263
 10
0.7392861089
 20
20.3992132665
 10
0.7684047419
 20
20.3094979095
 10
0.8013901273
 20
20.2197773344
 10
0.8381984212
 20
20.1300541622
 10
0.8784129664
 20
20.0413430352
 10
0.9220721186
 20
19.953656232
 10
0.969137522
 20
19.8669814741
 10
1.0190774522
 20
19.7822965676
 10
1.0719243883
 20
19.6996241343
 10
1.1276458511
 20
19.6189415525
 10
1.1856126787
 20
19.5411587634
 10
1.2458502236
 20
19.4663086666
 10
1.3083331333
 20
19.3943583625
 10
1.3723561883
 20
19.3261190936
 10
1.43793676
 20
19.2616329174
 10
1.505057477
 20
19.2008577764
 10
1.5729610053
 20
19.1444787409
 10
1.641656151
 20
19.092545598
 10
1.7111341081
 20
19.0450085607
 10
1.7806111243
 20
19.0024033383
 10
1.8500871564
 20
18.9647857574
 10
1.9195622477
 20
18.9320999913
 10
1.9882527765
 20
18.904714269
 10
2.0561497657
 20
18.8826885702
 10
2.1232621924
 20
18.8659629152
 10
2.1888333666
 20
18.8547255943
 10
2.2528456161
 20
18.8490385308
 10
2.3153166131
 20
18.8488398014
 10
2.3755426836
 20
18.8541319269
 10
2.4334985162
 20
18.8649765771
 10
2.4892094222
 20
18.8813120821
 10
2.5420476623
 20
18.9029559544
 10
2.5919813862
 20
18.9299682638
 10
2.6390424441
 20
18.9622889404
 10
2.6826986468
 20
18.9995552869
 10
2.7094739428
 20
19.0267040542
  0
LINE
  5
34C
100
AcDbEntity
  8
SUPERFICI
100
AcDbLine
 62
7
  6
CONTINUOUS
 10
0.6422319859
 20
44.0723003891
 11
0.6422319859
 21
43.387200481
  0
LINE
  5
34D
100
AcDbEntity
  8
ASSI
100
AcDbLine
 62
250
  6
CONTINUOUS
 10
1.7768147516
 20
43.944791304
 11
1.7768147516
 21
43.5754803144
  0
LINE
  5
34E
100
AcDbEntity
  8
ASSI
100
AcDbLine
 62
7
  6
CONTINUOUS
 10
1.8329467915
 20
44.0250087114
 11
1.8329467915
 21
43.6556977218
  0
LWPOLYLINE
  5
34F
100
AcDbEntity
  8
ASSI
100
AcDbPolyline
 62
250
  6
CONTINUOUS
 90
9
 70
0
 10
1.8329467915
 20
43.6556977218
 10
1.832779036
 20
43.6509689898
 10
1.8308505053
 20
43.6390221154
 10
1.826793302
 20
43.6272733035
 10
1.8206537408
 20
43.6158366491
 10
1.8124920008
 20
43.6048236346
 10
1.8023895011
 20
43.5943500163
 10
1.7904549711
 20
43.5845332856
 10
1.7768147516
 20
43.5754803144
  0
LWPOLYLINE
  5
350
100
AcDbEntity
  8
ASSI
100
AcDbPolyline
 62
250
  6
CONTINUOUS
 90
9
 70
0
 10
1.8329467815
 20
44.0249721844
 10
1.8327788795
 20
44.020277775
 10
1.8308549954
 20
44.0083508796
 10
1.8267985161
 20
43.9965961502
 10
1.8206510751
 20
43.9851434541
 10
1.8124800411
 20
43.9741205553
 10
1.8023748454
 20
43.9636475132
 10
1.7904435472
 20
43.9538358467
 10
1.7768147516
 20
43.944791304
  0
LWPOLYLINE
  5
351
100
AcDbEntity
  8
0
100
AcDbPolyline
 62
7
  6
CONTINUOUS
 90
10
 70
0
 10
1.0814544149
 20
20.8349106429
 10
1.0911726572
 20
20.8882043702
 10
1.1043751259
 20
20.9379313514
 10
1.1210618211
 20
20.9840915863
 10
1.1413575905
 20
21.0268914547
 10
1.1651375863
 20
21.0661245769
 10
1.1920272655
 20
21.101171814
 10
1.2220759789
 20
21.1319668092
 10
1.2552343756
 20
21.1585759193
 10
1.2804762175
 20
21.1747611787
  0
LWPOLYLINE
  5
352
100
AcDbEntity
  8
ASSI
100
AcDbPolyline
 62
250
  6
CONTINUOUS
 90
13
 70
0
 10
5.4545280974
 20
43.8132769838
 10
5.4601179339
 20
43.8374348873
 10
5.4633450006
 20
43.8623787917
 10
5.4641573568
 20
43.8877072691
 10
5.4625419238
 20
43.9130126906
 10
5.4585246935
 20
43.9378878167
 10
5.4521703018
 20
43.9619323485
 10
5.4435809974
 20
43.9847593227
 10
5.4328949996
 20
44.0060013622
 10
5.4202842601
 20
44.0253166119
 10
5.4059517116
 20
44.0423942048
 10
5.390128008
 20
44.0569592714
 10
5.373067802
 20
44.0687773805
  0
LWPOLYLINE
  5
353
100
AcDbEntity
  8
ASSI
100
AcDbPolyline
 62
250
  6
CONTINUOUS
 90
13
 70
0
 10
7.0360875783
 20
43.8516393786
 10
7.0416774488
 20
43.8757974838
 10
7.0449045088
 20
43.900741577
 10
7.0457168234
 20
43.9260702197
 10
7.0441013196
 20
43.9513757847
 10
7.0400839966
 20
43.976251016
 10
7.0337295073
 20
44.0002955833
 10
7.0251401179
 20
44.0231225247
 10
7.0144540619
 20
44.0443644741
 10
7.0018433158
 20
44.0636795734
 10
6.9875108309
 20
44.0807569746
 10
6.9716872676
 20
44.0953218419
 10
6.9546272829
 20
44.1071397753
  0
LWPOLYLINE
  5
354
100
AcDbEntity
  8
ASSI
100
AcDbPolyline
 62
250
  6
CONTINUOUS
 90
14
 70
0
 10
8.1190251219
 20
45.2628052288
 10
8.1241351681
 20
45.2803551763
 10
8.1312106699
 20
45.2977522777
 10
8.1401741038
 20
45.314805931
 10
8.1509272684
 20
45.3313293043
 10
8.163352353
 20
45.3471413678
 10
8.1773132236
 20
45.3620688777
 10
8.1926569221
 20
45.3759482854
 10
8.209215339
 20
45.3886275245
 10
8.2268070578
 20
45.3999676798
 10
8.2452393431
 20
45.4098445079
 10
8.2643102488
 20
45.4181497959
 10
8.2838108291
 20
45.424792548
 10
8.3035274321
 20
45.4296999838
  0
LINE
  5
355
100
AcDbEntity
  8
ASSI
100
AcDbLine
 62
250
  6
CONTINUOUS
 10
7.9053488424
 20
41.8137132354
 11
7.6339638483
 21
40.9400833941
  0
LINE
  5
356
100
AcDbEntity
  8
ASSI
100
AcDbLine
 62
250
  6
CONTINUOUS
 10
8.1711532206
 20
41.7371045556
 11
7.8997682265
 21
40.8634747143
  0
LWPOLYLINE
  5
357
100
AcDbEntity
  8
ASSI
100
AcDbPolyline
 62
250
  6
CONTINUOUS
 90
16
 70
0
 10
7.8997682265
 20
40.8634747143
 10
7.8897754399
 20
40.8344174021
 10
7.8789406438
 20
40.8065718313
 10
7.8672638381
 20
40.7799380018
 10
7.8546296909
 20
40.7544818802
 10
7.8411535341
 20
40.7302375
 10
7.8271813638
 20
40.7073069619
 10
7.8128834566
 20
40.6858490028
 10
7.7980895358
 20
40.6657048858
 10
7.782634767
 20
40.6465005006
 10
7.7666203064
 20
40.6281530748
 10
7.7499449978
 20
40.6107453809
 10
7.7321405381
 20
40.5941516261
 10
7.7130508265
 20
40.5783298795
 10
7.6928319638
 20
40.5633220719
 10
7.6714839501
 20
40.5491282035
  0
LWPOLYLINE
  5
358
100
AcDbEntity
  8
RACCORDO
100
AcDbPolyline
 62
250
  6
CONTINUOUS
 90
16
 70
0
 10
7.9861789222
 20
44.0142596802
 10
7.9785732097
 20
43.9942492271
 10
7.9724282428
 20
43.9735940831
 10
7.9677708028
 20
43.9524762065
 10
7.9645930543
 20
43.9310916093
 10
7.9628898944
 20
43.9096171468
 10
7.9626665017
 20
43.88821027
 10
7.9638675197
 20
43.8670496581
 10
7.9664145679
 20
43.8463293996
 10
7.97025065
 20
43.8262300439
 10
7.9752462599
 20
43.806922097
 10
7.9812554398
 20
43.7885734973
 10
7.9881617212
 20
43.771352417
 10
7.9957905993
 20
43.7554053783
 10
8.0039129563
 20
43.7408506815
 10
8.0123023456
 20
43.727792707
  0
LINE
  5
359
100
AcDbEntity
  8
RACCORDO
100
AcDbLine
 62
250
  6
CONTINUOUS
 10
10.1537103275
 20
40.036733068
 11
9.8503627071
 21
39.5113195777
  0
LINE
  5
35A
100
AcDbEntity
  8
VARIANTE_COLORE
100
AcDbLine
 62
250
  6
CONTINUOUS
 10
10.1537103275
 20
40.036733068
 11
9.8503627071
 21
39.5113195777
  0
LINE
  5
35B
100
AcDbEntity
  8
RACCORDO
100
AcDbLine
 62
250
  6
CONTINUOUS
 10
10.3951316837
 20
39.8973505621
 11
10.0917792312
 21
39.3719287023
  0
LINE
  5
35C
100
AcDbEntity
  8
VARIANTE_COLORE
100
AcDbLine
 62
250
  6
CONTINUOUS
 10
10.3951316837
 20
39.8973505621
 11
10.0917792312
 21
39.3719287023
  0
LWPOLYLINE
  5
35D
100
AcDbEntity
  8
RACCORDO
100
AcDbPolyline
 62
250
  6
CONTINUOUS
 90
7
 70
0
 10
15.0732703735
 20
33.390771342
 10
15.0816354811
 20
33.3964682538
 10
15.088656969
 20
33.4027409675
 10
15.0942173488
 20
33.4094845236
 10
15.0982235804
 20
33.4165860844
 10
15.1006086288
 20
33.4239268216
 10
15.1013361801
 20
33.4307607635
  0
LINE
  5
35E
100
AcDbEntity
  8
0
100
AcDbLine
 62
7
  6
CONTINUOUS
 10
1.8627788594
 20
21.918638541
 11
2.6968210104
 21
22.45012378
  0
LINE
  5
35F
100
AcDbEntity
  8
RACCORDO
100
AcDbLine
 62
250
  6
CONTINUOUS
 10
15.144879152
 20
31.6168845619
 11
33.72579867
 21
42.3452928728
  0
LINE
  5
360
100
AcDbEntity
  8
VARIANTE_COLORE
100
AcDbLine
 62
250
  6
CONTINUOUS
 10
15.144879152
 20
31.6168845619
 11
33.72579867
 21
42.3452928728
  0
LINE
  5
361
100
AcDbEntity
  8
0
100
AcDbLine
 62
7
  6
CONTINUOUS
 10
1.6738643537
 20
21.1769607169
 11
1.0814544149
 21
20.8349106429
  0
LWPOLYLINE
  5
362
100
AcDbEntity
  8
0
100
AcDbPolyline
 62
7
  6
CONTINUOUS
 90
32
 70
0
 10
1.2804762175
 20
21.1747611787
 10
1.2909798591
 20
21.180579076
 10
1.3293534954
 20
21.1979032363
 10
1.3703142184
 20
21.2106214432
 10
1.4132162342
 20
21.2185327577
 10
1.4580903618
 20
21.2215609326
 10
1.5049057822
 20
21.219782215
 10
1.5529242431
 20
21.2132244077
 10
1.6021648454
 20
21.2018116957
 10
1.6526084884
 20
21.185619894
 10
1.7034596166
 20
21.1649042507
 10
1.7547247022
 20
21.1395929974
 10
1.806397273
 20
21.1097579026
 10
1.8576623585
 20
21.0758695202
 10
1.9085134868
 20
21.0378635551
 10
1.9589571297
 20
20.9958043024
 10
2.0081977321
 20
20.9503552011
 10
2.056216193
 20
20.9014624933
 10
2.1030316133
 20
20.849179937
 10
2.147905741
 20
20.7943322443
 10
2.1908077567
 20
20.7368787574
 10
2.2317684798
 20
20.6768601342
 10
2.2701421161
 20
20.6152230606
 10
2.3058875996
 20
20.5519419155
 10
2.3390459963
 20
20.4870423201
 10
2.3690947097
 20
20.4215478238
 10
2.3959843888
 20
20.3554490593
 10
2.4197643847
 20
20.2887553939
 10
2.4400601541
 20
20.2225184798
 10
2.4567468493
 20
20.1570888675
 10
2.469949318
 20
20.0921160064
 10
2.4796675603
 20
20.0275998965
  0
LWPOLYLINE
  5
363
100
AcDbEntity
  8
DRAFT
100
AcDbPolyline
 62
7
  6
CONTINUOUS
 90
13
 70
0
 10
4.3914567871
 20
13.6233593826
 10
4.1669422143
 20
13.5625750662
 10
3.9328229933
 20
13.5211199062
 10
3.6915793781
 20
13.4994508494
 10
3.4433654559
 20
13.4977736256
 10
3.1880271396
 20
13.515882505
 10
2.927582421
 20
13.5536172451
 10
2.6618198682
 20
13.6111695518
 10
2.3909509132
 20
13.6883477192
 10
2.1176278442
 20
13.7844163871
 10
1.8427347571
 20
13.8991304355
 10
1.5653875559
 20
14.0327349844
 10
1.2855862408
 20
14.1852300338
  0
LWPOLYLINE
  5
364
100
AcDbEntity
  8
0
100
AcDbPolyline
 62
7
  6
CONTINUOUS
 90
18
 70
0
 10
1.0734542064
 20
15.9406292924
 10
1.2372462156
 20
15.8506274378
 10
1.3999342716
 20
15.7701286857
 10
1.5615183744
 20
15.699133036
 10
1.7223590172
 20
15.6375228937
 10
1.8820957068
 20
15.5854158539
 10
2.0396469633
 20
15.5431647016
 10
2.1949979569
 20
15.5108363159
 10
2.3481635174
 20
15.4883638177
 10
2.498106654
 20
15.4758993546
 10
2.6448055002
 20
15.4735108382
 10
2.7882819224
 20
15.4811303569
 10
2.9275645292
 20
15.4987063236
 10
3.0626248625
 20
15.5263062998
 10
3.1934913803
 20
15.563862724
 10
3.3192780651
 20
15.6111213245
 10
3.4399504465
 20
15.6681479373
 10
3.4985711839
 20
15.7003544657
  0
LWPOLYLINE
  5
365
100
AcDbEntity
  8
0
100
AcDbPolyline
 62
7
  6
CONTINUOUS
 90
14
 70
0
 10
2.1341143782
 20
16.5530411824
 10
2.2871455131
 20
16.4686695395
 10
2.4392612866
 20
16.3925780595
 10
2.5904616985
 20
16.3247667425
 10
2.7410376196
 20
16.2651370149
 10
2.8906981792
 20
16.2137874502
 10
3.0385707651
 20
16.1710137692
 10
3.1846495138
 20
16.1368644979
 10
3.3289402889
 20
16.1112911103
 10
3.4705880688
 20
16.0944437489
 10
3.6095977386
 20
16.0863815577
 10
3.7459644133
 20
16.0870453928
 10
3.8788184165
 20
16.0964079651
 10
3.9701484536
 20
16.109183563
  0
LWPOLYLINE
  5
366
100
AcDbEntity
  8
0
100
AcDbPolyline
 62
250
  6
CONTINUOUS
 90
16
 70
0
 10
1.7531273955
 20
18.1403517777
 10
1.9013753057
 20
17.9940506449
 10
2.0520060902
 20
17.8547760404
 10
2.2046627894
 20
17.7228580126
 10
2.3589836425
 20
17.5986091762
 10
2.514602945
 20
17.4823239722
 10
2.6711519156
 20
17.3742779693
 10
2.8282595697
 20
17.2747272112
 10
2.9855535989
 20
17.1839076102
 10
3.142661253
 20
17.1020343873
 10
3.2992102236
 20
17.029301563
 10
3.4548295261
 20
16.9658814972
 10
3.6091503792
 20
16.9119244806
 10
3.7618070784
 20
16.8675583787
 10
3.9124378629
 20
16.8328883289
 10
4.0606857731
 20
16.807996491
  0
LWPOLYLINE
  5
367
100
AcDbEntity
  8
0
100
AcDbPolyline
 62
7
  6
CONTINUOUS
 90
16
 70
0
 10
0.0127940346
 20
18.6263083765
 10
0.1348201316
 20
18.4499460106
 10
0.2603589
 20
18.2782260372
 10
0.3894103398
 20
18.1111484561
 10
0.5222643431
 20
17.9483694109
 10
0.6586310178
 20
17.790232758
 10
0.7976406875
 20
17.637770067
 10
0.9392884675
 20
17.4910461226
 10
1.0835792425
 20
17.3499961399
 10
1.2296579913
 20
17.2154573338
 10
1.3775305772
 20
17.0874714591
 10
1.5271911368
 20
16.965996761
 10
1.6777670579
 20
16.8517451892
 10
1.8289674698
 20
16.7449540605
 10
1.9810832432
 20
16.6453860583
 10
2.1341143782
 20
16.5530411824
  0
LWPOLYLINE
  5
368
100
AcDbEntity
  8
0
100
AcDbPolyline
 62
7
  6
CONTINUOUS
 90
35
 70
0
 10
2.9069490202
 20
19.7808929366
 10
2.8981809431
 20
19.8662326019
 10
2.885303891
 20
19.9525838182
 10
2.8683178641
 20
20.0399465855
 10
2.847127106
 20
20.128658591
 10
2.821827373
 20
20.2183821475
 10
2.7927059337
 20
20.3081041941
 10
2.759719594
 20
20.3978244833
 10
2.722911548
 20
20.4875432627
 10
2.6826986468
 20
20.5762482136
 10
2.6390424441
 20
20.6639276486
 10
2.5919813862
 20
20.7505932552
 10
2.5420476623
 20
20.8352677773
 10
2.4892094222
 20
20.9179279248
 10
2.4334985162
 20
20.9985969878
 10
2.3755426836
 20
21.0763675806
 10
2.3153166131
 20
21.1512072628
 10
2.2528456161
 20
21.2231484748
 10
2.1888333666
 20
21.2913811525
 10
2.1232621924
 20
21.35586378
 10
2.0561497657
 20
21.4166378731
 10
1.9882527765
 20
21.4730179155
 10
1.9195622477
 20
21.5249542941
 10
1.8500871564
 20
21.572496622
 10
1.7806111243
 20
21.6151082214
 10
1.7111341081
 20
21.6527333158
 10
1.641656151
 20
21.6854276818
 10
1.5729610053
 20
21.7128219713
 10
1.505057477
 20
21.7348562283
 10
1.43793676
 20
21.7515904088
 10
1.3723561883
 20
21.762835033
 10
1.3083331333
 20
21.7685279832
 10
1.2458502236
 20
21.768731377
 10
1.1856126787
 20
21.7634420872
 10
1.1344449382
 20
21.7542111866
  0
LINE
  5
369
100
AcDbEntity
  8
DRAFT
100
AcDbLine
 62
7
  6
CONTINUOUS
 10
3.7687659781
 20
43.3209336577
 11
3.7687659781
 21
43.401020056
  0
LINE
  5
36A
100
AcDbEntity
  8
ASSI
100
AcDbLine
 62
250
  6
CONTINUOUS
 10
5.290446143
 20
43.8065121215
 11
5.2901210974
 21
43.8006539983
  0
LINE
  5
36B
100
AcDbEntity
  8
ASSI
100
AcDbLine
 62
250
  6
CONTINUOUS
 10
8.1159365237
 20
45.24529472
 11
8.1190251219
 21
45.2628052288
  0
LWPOLYLINE
  5
36C
100
AcDbEntity
  8
0
100
AcDbPolyline
 62
7
  6
CONTINUOUS
 90
10
 70
0
 10
2.4796675603
 20
19.7826588134
 10
2.469949318
 20
19.7293650861
 10
2.4567468493
 20
19.679638105
 10
2.4400601541
 20
19.63347787
 10
2.4197643847
 20
19.5906780017
 10
2.3959843888
 20
19.5514448795
 10
2.3690947097
 20
19.5163976424
 10
2.3390459963
 20
19.4856026472
 10
2.3058875996
 20
19.4589935371
 10
2.2806457577
 20
19.4428082776
  0
LWPOLYLINE
  5
36D
100
AcDbEntity
  8
ASSI
100
AcDbPolyline
 62
250
  6
CONTINUOUS
 90
13
 70
0
 10
8.3973675266
 20
41.8473837749
 10
8.4021412384
 20
41.8711890268
 10
8.4046519034
 20
41.8956341884
 10
8.4048611294
 20
41.9203457349
 10
8.40276569
 20
41.9449460672
 10
8.3983975762
 20
41.9690592704
 10
8.3918235112
 20
41.9923168594
 10
8.3831439267
 20
42.0143634311
 10
8.372491433
 20
42.0348620734
 10
8.3600288029
 20
42.0534995098
 10
8.3459464699
 20
42.0699909174
 10
8.3304596132
 20
42.0840842743
 10
8.3138048815
 20
42.0955641946
  0
LWPOLYLINE
  5
36E
100
AcDbEntity
  8
RACCORDO
100
AcDbPolyline
 62
250
  6
CONTINUOUS
 90
13
 70
0
 10
9.6976592597
 20
44.9114746262
 10
9.6926281875
 20
44.8897312806
 10
9.6897238672
 20
44.8672807187
 10
9.6889929799
 20
44.844484292
 10
9.690447223
 20
44.8217089154
 10
9.6940631267
 20
44.799321117
 10
9.6997824477
 20
44.7776811432
 10
9.7075130902
 20
44.7571372429
 10
9.7171305986
 20
44.7380199961
 10
9.7284801931
 20
44.7206369689
 10
9.7413792167
 20
44.7052678619
 10
9.7556200573
 20
44.6921599937
 10
9.7709735256
 20
44.6815242692
  0
LWPOLYLINE
  5
36F
100
AcDbEntity
  8
RACCORDO
100
AcDbPolyline
 62
250
  6
CONTINUOUS
 90
13
 70
0
 10
10.5085382532
 20
44.9311433522
 10
10.5035073697
 20
44.9094010576
 10
10.5006030157
 20
44.8869513737
 10
10.4998719326
 20
44.8641555952
 10
10.501325886
 20
44.8413805868
 10
10.5049414767
 20
44.8189928786
 10
10.5106605171
 20
44.797352768
 10
10.5183909676
 20
44.7768085208
 10
10.5280084179
 20
44.7576907664
 10
10.5393580895
 20
44.740307177
 10
10.5522573259
 20
44.7249375159
 10
10.5664985328
 20
44.7118291353
 10
10.5818525191
 20
44.7011929953
  0
LWPOLYLINE
  5
370
100
AcDbEntity
  8
ASSI
100
AcDbPolyline
 62
250
  6
CONTINUOUS
 90
16
 70
0
 10
7.633963125
 20
40.9400838118
 10
7.6300044014
 20
40.9251170569
 10
7.6254137993
 20
40.910680512
 10
7.620272601
 20
40.8968367137
 10
7.6146685755
 20
40.8836540948
 10
7.6086681643
 20
40.8711549373
 10
7.6023096548
 20
40.8593207675
 10
7.5957105468
 20
40.8482621042
 10
7.5888770992
 20
40.837906252
 10
7.581644609
 20
40.8279891509
 10
7.5740750006
 20
40.8185764912
 10
7.5661698082
 20
40.8096915134
 10
7.55763081
 20
40.8011023994
 10
7.548368603
 20
40.7928394303
 10
7.5385272337
 20
40.7851271642
 10
7.5281541865
 20
40.7780990713
  0
LWPOLYLINE
  5
371
100
AcDbEntity
  8
ASSI
100
AcDbPolyline
 62
250
  6
CONTINUOUS
 90
5
 70
0
 10
12.9660385857
 20
43.2381993696
 10
12.9706782581
 20
43.2502092728
 10
12.9770629649
 20
43.261809992
 10
12.9850966896
 20
43.2728480078
 10
12.9946748008
 20
43.2832142053
  0
LWPOLYLINE
  5
372
100
AcDbEntity
  8
ASSI
100
AcDbPolyline
 62
250
  6
CONTINUOUS
 90
4
 70
0
 10
12.9660399296
 20
43.2172629249
 10
12.9696870632
 20
43.2262792366
 10
12.9778277545
 20
43.2385058482
 10
12.9889256038
 20
43.2502330663
  0
LINE
  5
373
100
AcDbEntity
  8
0
100
AcDbLine
 62
7
  6
CONTINUOUS
 10
1.7531273955
 20
18.1403517777
 11
1.6290541119
 21
17.8749295147
  0
LINE
  5
374
100
AcDbEntity
  8
0
100
AcDbLine
 62
7
  6
CONTINUOUS
 10
1.6290541119
 20
17.8749295147
 11
1.499877364
 21
17.600223082
  0
LINE
  5
375
100
AcDbEntity
  8
0
100
AcDbLine
 62
7
  6
CONTINUOUS
 10
1.499877364
 20
17.600223082
 11
1.3655645131
 21
17.3161481342
  0
LINE
  5
376
100
AcDbEntity
  8
0
100
AcDbLine
 62
7
  6
CONTINUOUS
 10
1.3655645131
 20
17.3161481342
 11
1.2921177388
 21
17.1613975135
  0
LINE
  5
377
100
AcDbEntity
  8
RACCORDO
100
AcDbLine
 62
7
  6
CONTINUOUS
 10
11.510272414
 20
32.5715403344
 11
11.874510289
 21
33.1835342563
  0
LWPOLYLINE
  5
378
100
AcDbEntity
  8
0
100
AcDbPolyline
 62
7
  6
CONTINUOUS
 90
9
 70
0
 10
3.2713830588
 20
19.6352441614
 10
3.2937157334
 20
19.6611549126
 10
3.3251691431
 20
19.7045630972
 10
3.3530999674
 20
19.7522292735
 10
3.3773908142
 20
19.8039528591
 10
3.3979395706
 20
19.8595160962
 10
3.4146599223
 20
19.918685147
 10
3.4274816876
 20
19.9812111087
 10
3.4363510668
 20
20.0468309335
  0
LWPOLYLINE
  5
379
100
AcDbEntity
  8
0
100
AcDbPolyline
 62
7
  6
CONTINUOUS
 90
10
 70
0
 10
2.7094739428
 20
19.0267040542
 10
2.722911548
 20
19.0418233874
 10
2.759719594
 20
19.0890371578
 10
2.7927059337
 20
19.1406656488
 10
2.821827373
 20
19.1967589872
 10
2.847127106
 20
19.2572670463
 10
2.8683178641
 20
19.3215084954
 10
2.885303891
 20
19.3892562247
 10
2.8981809431
 20
19.460737344
 10
2.9069490202
 20
19.5359518536
  0
LINE
  5
37A
100
AcDbEntity
  8
0
100
AcDbLine
 62
7
  6
CONTINUOUS
 10
2.7094087387
 20
19.0266334274
 11
3.2713830588
 21
19.6352441614
  0
LINE
  5
37B
100
AcDbEntity
  8
0
100
AcDbLine
 62
7
  6
CONTINUOUS
 10
3.4363510668
 20
20.2917720165
 11
2.9069490202
 21
19.7808929366
  0
LINE
  5
37C
100
AcDbEntity
  8
0
100
AcDbLine
 62
7
  6
CONTINUOUS
 10
2.9069490202
 20
19.5359518536
 11
3.4363510668
 21
20.0468309335
  0
LWPOLYLINE
  5
37D
100
AcDbEntity
  8
0
100
AcDbPolyline
 62
7
  6
CONTINUOUS
 90
25
 70
0
 10
2.2776925975
 20
18.7953288195
 10
2.2533174145
 20
18.7800298024
 10
2.2289616639
 20
18.7634291467
 10
2.2046253458
 20
18.7455268524
 10
2.1802610534
 20
18.7262739015
 10
2.1559161935
 20
18.7057193121
 10
2.1317329862
 20
18.6840101379
 10
2.1077200636
 20
18.6611426912
 10
2.0838687937
 20
18.6371206597
 10
2.0602955003
 20
18.6121021607
 10
2.0370086344
 20
18.5860889968
 10
2.013999745
 20
18.5590793653
 10
1.991359803
 20
18.5312259752
 10
1.9691023078
 20
18.5025445422
 10
1.94721376
 20
18.4730193505
 10
1.925744632
 20
18.4427559614
 10
1.9046974622
 20
18.4117621265
 10
1.8840697121
 20
18.3800300942
 10
1.8639042384
 20
18.3476421718
 10
1.8441996791
 20
18.3146018611
 10
1.8249573961
 20
18.2809056604
 10
1.806224332
 20
18.2466253715
 10
1.7880161343
 20
18.2117849284
 10
1.7703171555
 20
18.1763603971
 10
1.7531273955
 20
18.1403517777
  0
LINE
  5
37E
100
AcDbEntity
  8
0
100
AcDbLine
 62
7
  6
CONTINUOUS
 10
2.7744785161
 20
19.0933647679
 11
2.7667329547
 21
19.0887147929
  0
LINE
  5
37F
100
AcDbEntity
  8
0
100
AcDbLine
 62
7
  6
CONTINUOUS
 10
2.3758735775
 20
18.8541938436
 11
2.2776925975
 21
18.7953288195
  0
LINE
  5
380
100
AcDbEntity
  8
0
100
AcDbLine
 62
7
  6
CONTINUOUS
 10
1.8861403725
 20
21.0545851467
 11
1.0814544149
 21
20.5899695599
  0
LINE
  5
381
100
AcDbEntity
  8
0
100
AcDbLine
 62
7
  6
CONTINUOUS
 10
1.3205175506
 20
19.381371545
 11
0.0127940346
 21
18.6263083765
  0
LINE
  5
382
100
AcDbEntity
  8
0
100
AcDbLine
 62
7
  6
CONTINUOUS
 10
2.6917790946
 20
19.905129355
 11
2.4796675603
 21
19.7826588134
  0
LINE
  5
383
100
AcDbEntity
  8
0
100
AcDbLine
 62
7
  6
CONTINUOUS
 10
0.2679877368
 20
18.2683492965
 11
1.6662737844
 21
19.0757021357
  0
LWPOLYLINE
  5
384
100
AcDbEntity
  8
0
100
AcDbPolyline
 62
7
  6
CONTINUOUS
 90
32
 70
0
 10
2.2806457577
 20
19.4428082776
 10
2.2701421161
 20
19.4369903803
 10
2.2317684798
 20
19.4196662201
 10
2.1908077567
 20
19.4069480131
 10
2.147905741
 20
19.3990366986
 10
2.1030316133
 20
19.3960085238
 10
2.056216193
 20
19.3977872414
 10
2.0081977321
 20
19.4043450486
 10
1.9589571297
 20
19.4157577607
 10
1.9085134868
 20
19.4319495624
 10
1.8576623585
 20
19.4526652056
 10
1.806397273
 20
19.4779764589
 10
1.7547247022
 20
19.5078115537
 10
1.7034596166
 20
19.5416999362
 10
1.6526084884
 20
19.5797059013
 10
1.6021648454
 20
19.621765154
 10
1.5529242431
 20
19.6672142553
 10
1.5049057822
 20
19.716106963
 10
1.4580903618
 20
19.7683895194
 10
1.4132162342
 20
19.8232372121
 10
1.3703142184
 20
19.880690699
 10
1.3293534954
 20
19.9407093222
 10
1.2909798591
 20
20.0023463957
 10
1.2552343756
 20
20.0656275408
 10
1.2220759789
 20
20.1305271363
 10
1.1920272655
 20
20.1960216326
 10
1.1651375863
 20
20.2621203971
 10
1.1413575905
 20
20.3288140624
 10
1.1210618211
 20
20.3950509766
 10
1.1043751259
 20
20.4604805889
 10
1.0911726572
 20
20.52545345
 10
1.0814544149
 20
20.5899695599
  0
LINE
  5
385
100
AcDbEntity
  8
0
100
AcDbLine
 62
7
  6
CONTINUOUS
 10
3.4363510668
 20
20.2917720165
 11
3.8887408832
 21
20.5348558597
  0
LINE
  5
386
100
AcDbEntity
  8
0
100
AcDbLine
 62
7
  6
CONTINUOUS
 10
3.974517253
 20
20.3360056223
 11
3.4363510668
 21
20.0468309335
  0
LINE
  5
387
100
AcDbEntity
  8
0
100
AcDbLine
 62
7
  6
CONTINUOUS
 10
3.2158851583
 20
19.5751406714
 11
4.0931588603
 21
20.0317478502
  0
LINE
  5
388
100
AcDbEntity
  8
0
100
AcDbLine
 62
7
  6
CONTINUOUS
 10
4.175031477
 20
19.7974062142
 11
2.7744785161
 21
19.0933647679
  0
LINE
  5
389
100
AcDbEntity
  8
0
100
AcDbLine
 62
7
  6
CONTINUOUS
 10
0.9195588967
 20
20.9283870861
 11
0.654172955
 21
20.8366765197
  0
LINE
  5
38A
100
AcDbEntity
  8
0
100
AcDbLine
 62
7
  6
CONTINUOUS
 10
2.9069490202
 20
19.5359518536
 11
2.4796675603
 21
19.7826588134
  0
LINE
  5
38B
100
AcDbEntity
  8
0
100
AcDbLine
 62
7
  6
CONTINUOUS
 10
1.0814544149
 20
20.5899695599
 11
0.654172955
 21
20.8366765197
  0
LINE
  5
38C
100
AcDbEntity
  8
0
100
AcDbLine
 62
7
  6
CONTINUOUS
 10
0.654172955
 20
21.0816176028
 11
1.0814544149
 21
20.8349106429
  0
LINE
  5
38D
100
AcDbEntity
  8
0
100
AcDbLine
 62
7
  6
CONTINUOUS
 10
2.4796675603
 20
20.0275998965
 11
2.9069490202
 21
19.7808929366
  0
LWPOLYLINE
  5
38E
100
AcDbEntity
  8
0
100
AcDbPolyline
 62
250
  6
CONTINUOUS
 90
15
 70
0
 10
2.2776925975
 20
18.7953288195
 10
2.432195484
 20
18.633764892
 10
2.5899119385
 20
18.4802700018
 10
2.7503642163
 20
18.3353091059
 10
2.9130662855
 20
18.1993213109
 10
3.0775252992
 20
18.0727185423
 10
3.2432430887
 20
17.9558842971
 10
3.409717672
 20
17.8491724824
 10
3.5764447749
 20
17.7529063427
 10
3.7429193583
 20
17.6673774815
 10
3.9086371477
 20
17.5928449772
 10
4.0730961614
 20
17.5295345991
 10
4.2357982306
 20
17.4776381229
 10
4.3962505084
 20
17.4373127502
 10
4.4731159121
 20
17.4233584718
  0
LINE
  5
38F
100
AcDbEntity
  8
RACCORDO
100
AcDbLine
 62
250
  6
CONTINUOUS
 10
11.7167930404
 20
2.4787891583
 11
11.7246621567
 21
2.465159449
  0
LWPOLYLINE
  5
390
100
AcDbEntity
  8
0
100
AcDbPolyline
 62
7
  6
CONTINUOUS
 90
33
 70
0
 10
3.4363510668
 20
20.2917720165
 10
3.4274816876
 20
20.3676339781
 10
3.4146599223
 20
20.444966193
 10
3.3979395706
 20
20.5234434869
 10
3.3773908142
 20
20.6027359127
 10
3.3530999674
 20
20.6825099594
 10
3.3251691431
 20
20.7624299514
 10
3.2937157334
 20
20.8421597451
 10
3.2588719362
 20
20.9213640217
 10
3.220784282
 20
20.9997095203
 10
3.1796129037
 20
21.076866704
 10
3.1355309097
 20
21.1525110236
 10
3.0887237306
 20
21.2263241704
 10
3.0393882029
 20
21.2979956498
 10
2.9877318025
 20
21.3672239677
 10
2.9339718569
 20
21.4337177989
 10
2.8783344713
 20
21.4971974273
 10
2.8210536516
 20
21.5573958102
 10
2.7623704118
 20
21.6140596183
 10
2.7025315829
 20
21.6669504871
 10
2.641788859
 20
21.7158459202
 10
2.5803978333
 20
21.7605401598
 10
2.5186167355
 20
21.8008452035
 10
2.456705436
 20
21.8365915112
 10
2.3949244485
 20
21.8676286737
 10
2.3335336421
 20
21.8938261564
 10
2.2727912429
 20
21.9150737827
 10
2.2129528397
 20
21.9312821759
 10
2.1542701201
 20
21.942383201
 10
2.0969899074
 20
21.9483302067
 10
2.0413532065
 20
21.9490982239
 10
1.987594013
 20
21.944684089
 10
1.9425779537
 20
21.9366538401
  0
LINE
  5
391
100
AcDbEntity
  8
ASSI
100
AcDbLine
 62
7
  6
CONTINUOUS
 10
5.2901210974
 20
43.8006539983
 11
5.2901269132
 21
43.8005908349
  0
LINE
  5
392
100
AcDbEntity
  8
ASSI
100
AcDbLine
 62
250
  6
CONTINUOUS
 10
5.464217364
 20
43.7065386228
 11
5.4545280974
 21
43.8132769838
  0
LWPOLYLINE
  5
393
100
AcDbEntity
  8
SUPERFICI
100
AcDbPolyline
 62
250
  6
CONTINUOUS
 90
9
 70
0
 10
7.8711651875
 20
-5.8351833994
 10
7.8730380244
 20
-5.8760655717
 10
7.8786366937
 20
-5.9143519183
 10
7.8879018809
 20
-5.9496368197
 10
7.9007354275
 20
-5.9815464548
 10
7.9170013702
 20
-6.009742761
 10
7.9365273815
 20
-6.0339270163
 10
7.9591065957
 20
-6.0538430037
 10
7.974706498
 20
-6.06405183
  0
LINE
  5
394
100
AcDbEntity
  8
SUPERFICI
100
AcDbLine
 62
250
  6
CONTINUOUS
 10
7.8711651875
 20
36.3165888828
 11
7.8711651875
 21
-5.8351833994
  0
LINE
  5
395
100
AcDbEntity
  8
ASSI
100
AcDbLine
 62
7
  6
CONTINUOUS
 10
8.0864637565
 20
45.323991562
 11
8.0864637565
 21
45.1917233555
  0
LINE
  5
396
100
AcDbEntity
  8
ASSI
100
AcDbLine
 62
250
  6
CONTINUOUS
 10
8.1141398408
 20
45.2014246798
 11
8.1149032
 21
45.2280155198
  0
LWPOLYLINE
  5
397
100
AcDbEntity
  8
ASSI
100
AcDbPolyline
 62
7
  6
CONTINUOUS
 90
22
 70
0
 10
8.0864637607
 20
45.323991562
 10
8.0881010913
 20
45.3552966233
 10
8.093146176
 20
45.3870372371
 10
8.1017668351
 20
45.4188666438
 10
8.1140588945
 20
45.4503738035
 10
8.130088711
 20
45.4812284266
 10
8.1499790536
 20
45.5112302146
 10
8.1739606374
 20
45.5402519705
 10
8.2019070877
 20
45.5677401584
 10
8.2333608967
 20
45.5930690123
 10
8.2685062727
 20
45.6162606921
 10
8.3070647542
 20
45.6369803518
 10
8.3475447429
 20
45.6545103307
 10
8.3893272512
 20
45.6688571474
 10
8.4325332912
 20
45.6802597158
 10
8.47643163
 20
45.6886719872
 10
8.520532987
 20
45.6941717389
 10
8.5648261036
 20
45.6968822931
 10
8.6091628257
 20
45.6968495629
 10
8.653335564
 20
45.6940840023
 10
8.697106186
 20
45.6885756059
 10
8.740242885
 20
45.6802940238
  0
LINE
  5
398
100
AcDbEntity
  8
ASSI
100
AcDbLine
 62
250
  6
CONTINUOUS
 10
8.1149032167
 20
45.2280154995
 11
8.1159365237
 21
45.24529472
  0
LWPOLYLINE
  5
399
100
AcDbEntity
  8
RACCORDO
100
AcDbPolyline
 62
7
  6
CONTINUOUS
 90
31
 70
0
 10
10.949128388
 20
39.9876222469
 10
10.9489493684
 20
39.9865226117
 10
10.9483443151
 20
39.9837780715
 10
10.9473914533
 20
39.980239382
 10
10.9460655832
 20
39.9759163431
 10
10.94437865
 20
39.9710190829
 10
10.9423559095
 20
39.9657344766
 10
10.9400197306
 20
39.9601219516
 10
10.9373829462
 20
39.9542532873
 10
10.9344631067
 20
39.9481955344
 10
10.9312831986
 20
39.9419999497
 10
10.9278428235
 20
39.9356881881
 10
10.9241486975
 20
39.9292880612
 10
10.920221004
 20
39.9228422887
 10
10.9160696456
 20
39.9163802503
 10
10.9117116053
 20
39.9099364057
 10
10.9071534959
 20
39.9035266554
 10
10.9023849674
 20
39.8971466325
 10
10.8974045058
 20
39.8908058251
 10
10.8922294206
 20
39.8845363439
 10
10.886874146
 20
39.8783642325
 10
10.8813232356
 20
39.8722818789
 10
10.8756070915
 20
39.8663289685
 10
10.8698095327
 20
39.8605926936
 10
10.8639537029
 20
39.8550907351
 10
10.8580520476
 20
39.8498223378
 10
10.8521672946
 20
39.8448272417
 10
10.8463716923
 20
39.8401376317
 10
10.8406290629
 20
39.8356879147
 10
10.8348388204
 20
39.8313923556
 10
10.8289855277
 20
39.827237175
  0
LWPOLYLINE
  5
39A
100
AcDbEntity
  8
ASSI
100
AcDbPolyline
 62
250
  6
CONTINUOUS
 90
3
 70
0
 10
11.0071661293
 20
38.3406097001
 10
11.0091116187
 20
38.3525221043
 10
11.0092895737
 20
38.3573924059
  0
LWPOLYLINE
  5
39B
100
AcDbEntity
  8
RACCORDO
100
AcDbPolyline
 62
7
  6
CONTINUOUS
 90
9
 70
0
 10
10.4458374534
 20
45.6809454693
 10
10.449583765
 20
45.7015983731
 10
10.45165546
 20
45.7225688454
 10
10.4518995279
 20
45.7435931193
 10
10.4501843056
 20
45.7644644606
 10
10.4464672295
 20
45.7848494121
 10
10.4408205472
 20
45.8042979873
 10
10.4333319499
 20
45.8225060407
 10
10.4309124061
 20
45.8273642444
  0
LWPOLYLINE
  5
39C
100
AcDbEntity
  8
ASSI
100
AcDbPolyline
 62
250
  6
CONTINUOUS
 90
10
 70
0
 10
10.4416962536
 20
41.9537353258
 10
10.4382706155
 20
41.9355666547
 10
10.436222958
 20
41.9174698182
 10
10.4355715646
 20
41.8996063864
 10
10.4363222536
 20
41.8821358454
 10
10.4384683231
 20
41.8652141743
 10
10.4419906114
 20
41.8489924527
 10
10.4468576722
 20
41.8336155099
 10
10.4530260547
 20
41.8192206331
 10
10.4604406881
 20
41.8059363416
  0
LWPOLYLINE
  5
39D
100
AcDbEntity
  8
RACCORDO
100
AcDbPolyline
 62
250
  6
CONTINUOUS
 90
10
 70
0
 10
15.9145299831
 20
40.2170095349
 10
15.9054645586
 20
40.1984729799
 10
15.8986167408
 20
40.1791471406
 10
15.894116385
 20
40.1593984219
 10
15.8920488404
 20
40.1396012443
 10
15.8924533346
 20
40.1201309702
 10
15.8953222182
 20
40.1013567847
 10
15.9006011095
 20
40.0836346612
 10
15.9081899354
 20
40.0673006141
 10
15.9179448241
 20
40.0526643511
  0
LINE
  5
39E
100
AcDbEntity
  8
0
100
AcDbLine
 62
7
  6
CONTINUOUS
 10
3.9071659029
 20
16.558914186
 11
4.0606857731
 21
16.807996491
  0
LINE
  5
39F
100
AcDbEntity
  8
0
100
AcDbLine
 62
7
  6
CONTINUOUS
 10
3.7475094332
 20
16.3015099957
 11
3.9071659029
 21
16.558914186
  0
LINE
  5
3A0
100
AcDbEntity
  8
0
100
AcDbLine
 62
7
  6
CONTINUOUS
 10
3.6133480007
 20
16.086399814
 11
3.7475094332
 21
16.3015099957
  0
LWPOLYLINE
  5
3A1
100
AcDbEntity
  8
0
100
AcDbPolyline
 62
7
  6
CONTINUOUS
 90
17
 70
0
 10
4.0606857731
 20
16.807996491
 10
4.0820013582
 20
16.8418205699
 10
4.1039854083
 20
16.8750238861
 10
4.1266379235
 20
16.9076064395
 10
4.149989534
 20
16.9396073932
 10
4.1740096095
 20
16.9709875841
 10
4.1986062592
 20
17.0016295233
 10
4.2237815458
 20
17.031532903
 10
4.2495334066
 20
17.0606980309
 10
4.2757637632
 20
17.0890083412
 10
4.3024725726
 20
17.116461022
 10
4.3296598778
 20
17.1430588853
 10
4.3572277289
 20
17.1686938013
 10
4.3851750835
 20
17.1933629139
 10
4.4135029841
 20
17.2170690793
 10
4.4421166076
 20
17.2397127366
 10
4.4467138759
 20
17.2431456203
  0
LWPOLYLINE
  5
3A2
100
AcDbEntity
  8
0
100
AcDbPolyline
 62
7
  6
CONTINUOUS
 90
51
 70
0
 10
3.4985711839
 20
15.7003544657
 10
3.555542995
 20
15.7348767265
 10
3.6652731036
 20
15.8108559119
 10
3.7691009916
 20
15.8961482641
 10
3.8670664397
 20
15.9906910125
 10
3.9585061835
 20
16.0938440658
 10
4.0433759416
 20
16.2056658509
 10
4.1217199954
 20
16.3260979408
 10
4.1930079251
 20
16.4543249632
 10
4.2571918497
 20
16.5903998122
 10
4.3143196502
 20
16.7342695937
 10
4.3640045489
 20
16.8849602528
 10
4.4061960405
 20
17.0425180742
 10
4.4409446304
 20
17.2068967733
 10
4.4680150569
 20
17.3769834419
 10
4.4873552184
 20
17.5528168127
 10
4.4990172166
 20
17.7343581532
 10
4.5029220952
 20
17.9203783572
 10
4.4990172166
 20
18.1109078172
 10
4.4873552184
 20
18.3059161407
 10
4.4680150569
 20
18.5040830453
 10
4.4409446304
 20
18.705429964
 10
4.4061960405
 20
18.9099354636
 10
4.3640045489
 20
19.1162149619
 10
4.3143196502
 20
19.3242804967
 10
4.2571918497
 20
19.5341200302
 10
4.1930079251
 20
19.7443128665
 10
4.1217199954
 20
19.9548614032
 10
4.0433759416
 20
20.1657632427
 10
3.9585061835
 20
20.3755904971
 10
3.8670664397
 20
20.5843358746
 10
3.7691009916
 20
20.7920066669
 10
3.6652731036
 20
20.9971968616
 10
3.555542995
 20
21.1998896259
 10
3.4399504465
 20
21.4001017926
 10
3.3192780651
 20
21.5964778468
 10
3.1934913803
 20
21.7889917579
 10
3.0626248625
 20
21.9776695565
 10
2.9275645292
 20
22.1612338202
 10
2.7882819224
 20
22.33964985
 10
2.6448055002
 20
22.5129523447
 10
2.498106654
 20
22.6799679788
 10
2.3481635174
 20
22.8406540913
 10
2.1949979569
 20
22.9950533432
 10
2.0396469633
 20
23.1421203909
 10
1.8820957068
 20
23.2818054804
 10
1.7223590172
 20
23.4141583658
 10
1.5615183744
 20
23.5382829663
 10
1.3999342716
 20
23.6538805882
 10
1.2372462156
 20
23.7612499252
 10
1.0734542064
 20
23.8603909773
  0
LINE
  5
3A3
100
AcDbEntity
  8
0
100
AcDbLine
 62
7
  6
CONTINUOUS
 10
3.7485834631
 20
15.2673488534
 11
5.7036775802
 21
16.3961956935
  0
LWPOLYLINE
  5
3A4
100
AcDbEntity
  8
0
100
AcDbPolyline
 62
7
  6
CONTINUOUS
 90
19
 70
0
 10
3.7484768205
 20
15.2672872842
 10
3.7179013945
 20
15.2500745453
 10
3.5918580896
 20
15.1869277555
 10
3.4608733289
 20
15.1336473694
 10
3.3249164293
 20
15.0902946514
 10
3.184018074
 20
15.0568083371
 10
3.0390513458
 20
15.0333959259
 10
2.8899909827
 20
15.0201199706
 10
2.7368622468
 20
15.0169179185
 10
2.580614007
 20
15.0238096112
 10
2.4212268931
 20
15.0408577246
 10
2.2587202752
 20
15.0679995828
 10
2.0941011328
 20
15.1050670002
 10
1.9273563483
 20
15.1521216081
 10
1.7584990393
 20
15.2091017753
 10
1.5885755375
 20
15.2756544214
 10
1.41793462
 20
15.3516618532
 10
1.2462275096
 20
15.4372417641
 10
1.0734542064
 20
15.532394154
  0
LWPOLYLINE
  5
3A5
100
AcDbEntity
  8
0
100
AcDbPolyline
 62
7
  6
CONTINUOUS
 90
16
 70
0
 10
1.1344449382
 20
21.7542111866
 10
1.1276458511
 20
21.7525979376
 10
1.0719243883
 20
21.7362611043
 10
1.0190774522
 20
21.7146149881
 10
0.969137522
 20
21.6875994613
 10
0.9220721186
 20
21.6552746515
 10
0.8784129664
 20
21.6180043429
 10
0.8381984212
 20
21.5757319646
 10
0.8013901273
 20
21.5285140876
 10
0.7684047419
 20
21.4768842088
 10
0.7392861089
 20
21.4207943194
 10
0.7139903844
 20
21.3602924281
 10
0.6928026942
 20
21.2960560585
 10
0.6758180802
 20
21.2283110516
 10
0.6629415004
 20
21.1568315664
 10
0.654172955
 20
21.0816176028
  0
LINE
  5
3A6
100
AcDbEntity
  8
0
100
AcDbLine
 62
7
  6
CONTINUOUS
 10
1.1345286142
 20
21.7542300836
 11
1.9425779537
 21
21.9366538401
  0
LWPOLYLINE
  5
3A7
100
AcDbEntity
  8
0
100
AcDbPolyline
 62
7
  6
CONTINUOUS
 90
18
 70
0
 10
1.0734542064
 20
23.8603909773
 10
0.9096621972
 20
23.9503928319
 10
0.7469741412
 20
24.030891584
 10
0.5853900384
 20
24.1018872337
 10
0.4245493956
 20
24.163497376
 10
0.264812706
 20
24.2156044158
 10
0.1072614495
 20
24.2578555681
 10
-0.0480895441
 20
24.2901839538
 10
-0.2012551046
 20
24.312656452
 10
-0.3511982412
 20
24.3251209151
 10
-0.4978970874
 20
24.3275094315
 10
-0.6413735096
 20
24.3198899128
 10
-0.7806561164
 20
24.3023139461
 10
-0.9157164497
 20
24.2747139699
 10
-1.0465829675
 20
24.2371575457
 10
-1.1723696523
 20
24.1898989452
 10
-1.2930420337
 20
24.1328723324
 10
-1.3516627711
 20
24.100665804
  0
LWPOLYLINE
  5
3A8
100
AcDbEntity
  8
0
100
AcDbPolyline
 62
7
  6
CONTINUOUS
 90
19
 70
0
 10
1.0734542064
 20
24.2686261157
 10
0.9006809032
 20
24.3637785056
 10
0.7289737928
 20
24.4493584165
 10
0.5583328753
 20
24.5253658483
 10
0.3884093735
 20
24.5919184945
 10
0.2195520645
 20
24.6488986616
 10
0.05280728
 20
24.6959532695
 10
-0.1118118624
 20
24.7330206869
 10
-0.2743184803
 20
24.7601625451
 10
-0.4337055942
 20
24.7772106585
 10
-0.589953834
 20
24.7841023512
 10
-0.7430825699
 20
24.7809002991
 10
-0.892142933
 20
24.7676243438
 10
-1.0371096612
 20
24.7442119326
 10
-1.1780080165
 20
24.7107256183
 10
-1.3139649161
 20
24.6673729003
 10
-1.4449496768
 20
24.6140925142
 10
-1.5709929817
 20
24.5509457244
 10
-1.6015684077
 20
24.5337329855
  0
LWPOLYLINE
  5
3A9
100
AcDbEntity
  8
0
100
AcDbPolyline
 62
7
  6
CONTINUOUS
 90
53
 70
0
 10
1.0734542064
 20
24.2686261157
 10
1.2462275096
 20
24.1642642258
 10
1.41793462
 20
24.0515610696
 10
1.5885755375
 20
23.9305166472
 10
1.7584990393
 20
23.8008458926
 10
1.9273563483
 20
23.6628338719
 10
2.0941011328
 20
23.5173357824
 10
2.2587202752
 20
23.3643051404
 10
2.4212268931
 20
23.2037884297
 10
2.580614007
 20
23.036780299
 10
2.7368622468
 20
22.8632404409
 10
2.8899909827
 20
22.6832091629
 10
3.0390513458
 20
22.4978020366
 10
3.184018074
 20
22.3069856815
 10
3.3249164293
 20
22.1107934783
 10
3.4608733289
 20
21.9104411403
 10
3.5918580896
 20
21.705902836
 10
3.7179013945
 20
21.497204397
 10
3.838222211
 20
21.2856390324
 10
3.9527850058
 20
21.0711889403
 10
4.0616253122
 20
20.8538719227
 10
4.1640686962
 20
20.6350345938
 10
4.2600754372
 20
20.4146675135
 10
4.3496852559
 20
20.1927801221
 10
4.4323428812
 20
19.9707473543
 10
4.5080051444
 20
19.7485683076
 10
4.5767152141
 20
19.5262438846
 10
4.6380473255
 20
19.3051517283
 10
4.691955666
 20
19.0852994904
 10
4.7384860481
 20
18.8666795192
 10
4.7773501444
 20
18.650646503
 10
4.8085003519
 20
18.4372165051
 10
4.8319842735
 20
18.2263734621
 10
4.84765639
 20
18.0194238723
 10
4.8554681951
 20
17.8163919114
 10
4.8554681951
 20
17.6172534037
 10
4.84765639
 20
17.4232423195
 10
4.8319842735
 20
17.234390497
 10
4.8085003519
 20
17.0506660981
 10
4.7773501444
 20
16.873207579
 10
4.7384860481
 20
16.7020538469
 10
4.691955666
 20
16.5371659947
 10
4.6380473255
 20
16.3795657572
 10
4.5767152141
 20
16.2292983858
 10
4.5080051444
 20
16.086318629
 10
4.4323428812
 20
15.9515124672
 10
4.3496852559
 20
15.8249306533
 10
4.2600754372
 20
15.7065224343
 10
4.1640686962
 20
15.597021532
 10
4.0616253122
 20
15.4964832553
 10
3.9527850058
 20
15.4048522952
 10
3.838222211
 20
15.322696447
 10
3.7484768205
 20
15.2672872842
  0
LWPOLYLINE
  5
3AA
100
AcDbEntity
  8
RACCORDO
100
AcDbPolyline
 62
7
  6
CONTINUOUS
 90
46
 70
0
 10
0.5405994139
 20
25.5602304526
 10
0.7988536225
 20
25.4034915234
 10
1.0576758246
 20
25.2310976638
 10
1.3162739933
 20
25.0434364997
 10
1.5738369222
 20
24.8409676509
 10
1.8295813619
 20
24.6241881584
 10
2.0827757556
 20
24.3936033333
 10
2.3326749452
 20
24.1497781838
 10
2.578498491
 20
23.8933678805
 10
2.8195034795
 20
23.6250504298
 10
3.0549911392
 20
23.3455106338
 10
3.2842286225
 20
23.0555312684
 10
3.5064681735
 20
22.7559876643
 10
3.7210528329
 20
22.4477088116
 10
3.9273500298
 20
22.131553356
 10
4.1247037433
 20
21.8084911527
 10
4.3125501771
 20
21.4794241575
 10
4.4903424725
 20
21.1452976631
 10
4.6575142944
 20
20.8071867911
 10
4.8135905058
 20
20.4660919208
 10
4.9581613514
 20
20.1229622372
 10
5.090824619
 20
19.7788240303
 10
5.21124161
 20
19.4346511291
 10
5.3191007883
 20
19.0914549977
 10
5.4141113189
 20
18.7503365243
 10
5.496061656
 20
18.4123014238
 10
5.5647955287
 20
18.0783063092
 10
5.6201855364
 20
17.7493903437
 10
5.6621633308
 20
17.4265739067
 10
5.690730934
 20
17.1107124207
 10
5.7059288134
 20
16.8026177627
 10
5.7078355552
 20
16.5033450963
 10
5.6965914554
 20
16.2135890068
 10
5.6723241043
 20
15.9336973092
 10
5.6352416101
 20
15.6647636108
 10
5.5855546666
 20
15.4073533227
 10
5.5232619151
 20
15.1612397583
 10
5.4485821369
 20
14.9273884032
 10
5.3617517859
 20
14.7065561188
 10
5.2625720372
 20
14.4985377076
 10
5.1512803275
 20
14.3043098585
 10
5.0280814742
 20
14.1246186621
 10
4.8924023504
 20
13.9592562763
 10
4.7439824396
 20
13.8088265224
 10
4.5830948435
 20
13.6744729133
 10
4.4097236847
 20
13.55693354
  0
LWPOLYLINE
  5
3AB
100
AcDbEntity
  8
RACCORDO
100
AcDbPolyline
 62
250
  6
CONTINUOUS
 90
14
 70
0
 10
0.4370581033
 20
25.7890988832
 10
0.7216537363
 20
25.6160511283
 10
1.0040223584
 20
25.4273693351
 10
1.2841639696
 20
25.2230535035
 10
1.5628628913
 20
25.0024424079
 10
1.8393348022
 20
24.766197274
 10
2.1112267381
 20
24.5163017788
 10
2.3784735242
 20
24.2526583513
 10
2.6411403353
 20
23.9753645625
 10
2.8970697322
 20
23.6866968023
 10
3.1462045391
 20
23.3865629832
 10
3.3886019318
 20
23.0750551927
 10
3.6222759979
 20
22.7547260838
 10
3.8471578806
 20
22.4254970041
  0
LWPOLYLINE
  5
3AC
100
AcDbEntity
  8
RACCORDO
100
AcDbPolyline
 62
250
  6
CONTINUOUS
 90
27
 70
0
 10
3.8471578806
 20
22.4254970041
 10
4.0633164368
 20
22.0874466059
 10
4.2689723248
 20
21.7433635002
 10
4.4640363122
 20
21.3931986837
 10
4.6485976314
 20
21.0370011596
 10
4.8211446371
 20
20.6777065478
 10
4.9815747068
 20
20.3152954375
 10
5.129990463
 20
19.9497872395
 10
5.2651881273
 20
19.5841758065
 10
5.387058301
 20
19.2184643544
 10
5.4957103829
 20
18.8526496673
 10
5.590268791
 20
18.4897159502
 10
5.6706187858
 20
18.1296895419
 10
5.7368751068
 20
17.7725441035
 10
5.7885063902
 20
17.4211848234
 10
5.8253948716
 20
17.0756596957
 10
5.8476583154
 20
16.7359207262
 10
5.8551186518
 20
16.4047291215
 10
5.8476571255
 20
16.0821535125
 10
5.8253924918
 20
15.7681252682
 10
5.7885029468
 20
15.4651997021
 10
5.7368707235
 20
15.1734647407
 10
5.6706135888
 20
14.8928324575
 10
5.5902630392
 20
14.6255943865
 10
5.4957043726
 20
14.3718567612
 10
5.3870522911
 20
14.131513348
 10
5.2651823971
 20
13.9065369801
  0
LINE
  5
3AD
100
AcDbEntity
  8
RACCORDO
100
AcDbLine
 62
7
  6
CONTINUOUS
 10
15.1013363935
 20
4.8453150766
 11
15.1554683086
 21
4.7515558494
  0
LWPOLYLINE
  5
3AE
100
AcDbEntity
  8
RACCORDO
100
AcDbPolyline
 62
250
  6
CONTINUOUS
 90
4
 70
0
 10
15.1013363935
 20
4.6788204485
 10
15.1044094872
 20
4.6723178014
 10
15.1121520168
 20
4.6526455766
 10
15.1183645282
 20
4.6329605296
  0
LINE
  5
3AF
100
AcDbEntity
  8
RACCORDO
100
AcDbLine
 62
7
  6
CONTINUOUS
 10
6.1965418466
 20
44.6498075932
 11
6.1999941517
 21
44.6162695093
  0
LWPOLYLINE
  5
3B0
100
AcDbEntity
  8
ASSI
100
AcDbPolyline
 62
250
  6
CONTINUOUS
 90
13
 70
0
 10
7.5500116458
 20
44.0115119375
 10
7.5479483996
 20
44.0332146697
 10
7.5436598258
 20
44.0557375287
 10
7.5372145332
 20
44.0787203497
 10
7.5287156184
 20
44.1017956136
 10
7.518299009
 20
44.1245943473
 10
7.5061312824
 20
44.1467520218
 10
7.492407023
 20
44.1679143396
 10
7.4773456958
 20
44.1877429333
 10
7.4611881175
 20
44.2059207899
 10
7.444192642
 20
44.2221572696
 10
7.4266310349
 20
44.2361927604
 10
7.4087841027
 20
44.2478028557
  0
LWPOLYLINE
  5
3B1
100
AcDbEntity
  8
RACCORDO
100
AcDbPolyline
 62
250
  6
CONTINUOUS
 90
13
 70
0
 10
7.9861790277
 20
44.0142595093
 10
7.9880359559
 20
43.9947275188
 10
7.9918955933
 20
43.9744573407
 10
7.9976962212
 20
43.9537730991
 10
8.0053450783
 20
43.9330055372
 10
8.0147198615
 20
43.9124867306
 10
8.0256706838
 20
43.8925447779
 10
8.0380224451
 20
43.8734985531
 10
8.0515776334
 20
43.8556526041
 10
8.0661195031
 20
43.8392922861
 10
8.0814155296
 20
43.8246792004
 10
8.0972211267
 20
43.8120470111
 10
8.1132835614
 20
43.8015977069
  0
LWPOLYLINE
  5
3B2
100
AcDbEntity
  8
RACCORDO
100
AcDbPolyline
 62
250
  6
CONTINUOUS
 90
16
 70
0
 10
7.8710730296
 20
43.9640846478
 10
7.8725440389
 20
43.9467992999
 10
7.8754460408
 20
43.9289435117
 10
7.8797493211
 20
43.9107001119
 10
7.8854098177
 20
43.8922558978
 10
7.8923695718
 20
43.8737997233
 10
7.9005573212
 20
43.8555205643
 10
7.90988923
 20
43.8376055846
 10
7.9202697472
 20
43.8202382188
 10
7.9315925847
 20
43.8035962946
 10
7.9437420097
 20
43.7878499637
 10
7.956593441
 20
43.7731607378
 10
7.9700146196
 20
43.7596796541
 10
7.983867831
 20
43.7475447379
 10
7.9980114185
 20
43.7368797813
 10
8.0123005737
 20
43.7277937301
  0
LWPOLYLINE
  5
3B3
100
AcDbEntity
  8
ASSI
100
AcDbPolyline
 62
250
  6
CONTINUOUS
 90
5
 70
0
 10
8.0864637565
 20
45.323991562
 10
8.0882757209
 20
45.2994360854
 10
8.0936493585
 20
45.2752237842
 10
8.1025463749
 20
45.2513600563
 10
8.1149032
 20
45.2280155198
  0
LWPOLYLINE
  5
3B4
100
AcDbEntity
  8
SUPERFICI
100
AcDbPolyline
 62
250
  6
CONTINUOUS
 90
16
 70
0
 10
8.5688958659
 20
36.3113151441
 10
8.5660059183
 20
36.3546920662
 10
8.5593572174
 20
36.3998974617
 10
8.5490230246
 20
36.4464334473
 10
8.5351153732
 20
36.4937930201
 10
8.5177884899
 20
36.5414491305
 10
8.4972409744
 20
36.588860386
 10
8.4737078475
 20
36.6354951361
 10
8.4474466677
 20
36.6808522633
 10
8.4187391952
 20
36.7244485744
 10
8.3878562887
 20
36.7658617205
 10
8.3551771571
 20
36.8045729376
 10
8.3211973405
 20
36.8400238549
 10
8.2863491596
 20
36.8718266515
 10
8.2509761913
 20
36.8997288275
 10
8.2154636245
 20
36.9234777316
  0
LINE
  5
3B5
100
AcDbEntity
  8
ASSI
100
AcDbLine
 62
250
  6
CONTINUOUS
 10
10.5761211912
 20
41.4652827733
 11
10.5663567314
 21
41.8046241672
  0
LINE
  5
3B6
100
AcDbEntity
  8
ASSI
100
AcDbLine
 62
250
  6
CONTINUOUS
 10
10.5833872285
 20
41.1506276232
 11
10.5761211912
 21
41.4652827733
  0
LINE
  5
3B7
100
AcDbEntity
  8
ASSI
100
AcDbLine
 62
250
  6
CONTINUOUS
 10
10.5873243784
 20
40.9320089341
 11
10.5833872285
 21
41.1506276232
  0
LWPOLYLINE
  5
3B8
100
AcDbEntity
  8
ASSI
100
AcDbPolyline
 62
250
  6
CONTINUOUS
 90
3
 70
0
 10
10.5907622826
 20
40.6653784465
 10
10.5900916319
 20
40.7293331331
 10
10.5873243784
 20
40.9320089341
  0
LINE
  5
3B9
100
AcDbEntity
  8
RACCORDO
100
AcDbLine
 62
7
  6
CONTINUOUS
 10
10.9491310027
 20
39.9854640745
 11
10.949128388
 21
39.986054632
  0
LWPOLYLINE
  5
3BA
100
AcDbEntity
  8
ASSI
100
AcDbPolyline
 62
250
  6
CONTINUOUS
 90
16
 70
0
 10
10.441695803
 20
41.953735375
 10
10.4416580698
 20
41.9697338188
 10
10.4406545097
 20
41.985694435
 10
10.4386916188
 20
42.0015150656
 10
10.4357820355
 20
42.0170944091
 10
10.4319444553
 20
42.0323328088
 10
10.4272034829
 20
42.0471328797
 10
10.4215894807
 20
42.0613999556
 10
10.4151384409
 20
42.0750426746
 10
10.4078917381
 20
42.0879737016
 10
10.3998957551
 20
42.1001103516
 10
10.3912017477
 20
42.1113748958
 10
10.381865601
 20
42.1216950841
 10
10.3719472088
 20
42.1310048893
 10
10.3615100502
 20
42.1392448746
 10
10.3506209788
 20
42.1463623922
  0
LINE
  5
3BB
100
AcDbEntity
  8
SUPERFICI
100
AcDbLine
 62
250
  6
CONTINUOUS
 10
8.5688958659
 20
36.3113151441
 11
8.5688958659
 21
-5.8404571381
  0
LINE
  5
3BC
100
AcDbEntity
  8
ASSI
100
AcDbLine
 62
7
  6
CONTINUOUS
 10
10.5360326579
 20
41.6291064924
 11
10.5360326579
 21
40.5603358056
  0
LINE
  5
3BD
100
AcDbEntity
  8
RACCORDO
100
AcDbLine
 62
7
  6
CONTINUOUS
 10
10.949128388
 20
40.3784017833
 11
10.949128388
 21
39.986054632
  0
LINE
  5
3BE
100
AcDbEntity
  8
ASSI
100
AcDbLine
 62
250
  6
CONTINUOUS
 10
10.9531575338
 20
38.2771749986
 11
10.9531575338
 21
38.6464859881
  0
LINE
  5
3BF
100
AcDbEntity
  8
RACCORDO
100
AcDbLine
 62
7
  6
CONTINUOUS
 10
10.972949143
 20
30.9686313356
 11
10.972949143
 21
2.1366856035
  0
LINE
  5
3C0
100
AcDbEntity
  8
SUPERFICI
100
AcDbLine
 62
7
  6
CONTINUOUS
 10
10.972949143
 20
-4.5940615914
 11
10.972949143
 21
37.6993785305
  0
LINE
  5
3C1
100
AcDbEntity
  8
RACCORDO
100
AcDbLine
 62
250
  6
CONTINUOUS
 10
11.0077070318
 20
40.2967468638
 11
11.0077070318
 21
39.9044047065
  0
LINE
  5
3C2
100
AcDbEntity
  8
ASSI
100
AcDbLine
 62
7
  6
CONTINUOUS
 10
11.0092895737
 20
38.3573924059
 11
11.0092895737
 21
38.7267033955
  0
LINE
  5
3C3
100
AcDbEntity
  8
0
100
AcDbLine
 62
7
  6
CONTINUOUS
 10
11.1850811774
 20
2.1612975233
 11
11.1850811774
 21
2.0579063928
  0
LINE
  5
3C4
100
AcDbEntity
  8
ASSI
100
AcDbLine
 62
250
  6
CONTINUOUS
 10
11.0092895497
 20
38.7266468072
 11
11.0092895737
 21
38.7267033955
  0
LWPOLYLINE
  5
3C5
100
AcDbEntity
  8
ASSI
100
AcDbPolyline
 62
7
  6
CONTINUOUS
 90
22
 70
0
 10
10.5359782568
 20
40.5603369207
 10
10.5359599033
 20
40.5579157122
 10
10.5340403752
 20
40.5356702722
 10
10.528962744
 20
40.513791097
 10
10.5206483726
 20
40.4921399785
 10
10.5091758982
 20
40.4708551247
 10
10.4947812322
 20
40.4503511592
 10
10.4774288053
 20
40.4306568434
 10
10.457154187
 20
40.4117434158
 10
10.4342999963
 20
40.3939392161
 10
10.4087831236
 20
40.3772431093
 10
10.3806866786
 20
40.3616562303
 10
10.3506026104
 20
40.3475103237
 10
10.3185219761
 20
40.3348503619
 10
10.2844537186
 20
40.3236313725
 10
10.2490166161
 20
40.3140501826
 10
10.2121846607
 20
40.3061310576
 10
10.1739838602
 20
40.299849732
 10
10.1351110169
 20
40.2953302369
 10
10.0957983981
 20
40.2926139159
 10
10.0558137363
 20
40.2916594254
 10
10.0151570317
 20
40.2924667654
  0
LWPOLYLINE
  5
3C6
100
AcDbEntity
  8
ASSI
100
AcDbPolyline
 62
250
  6
CONTINUOUS
 90
22
 70
0
 10
10.5360326579
 20
41.6291064924
 10
10.5347200823
 20
41.6082017743
 10
10.5296939888
 20
41.5832832739
 10
10.520940124
 20
41.5587107898
 10
10.5085245726
 20
41.5346698508
 10
10.492541092
 20
41.5113420237
 10
10.4731103714
 20
41.4889034605
 10
10.450379122
 20
41.4675235933
 10
10.4245189981
 20
41.4473638806
 10
10.3957253098
 20
41.428576578
 10
10.3642155163
 20
41.4113035632
 10
10.3302275436
 20
41.3956752523
 10
10.2940180146
 20
41.3818096434
 10
10.2558603452
 20
41.3698114377
 10
10.216042684
 20
41.3597712426
 10
10.1748657018
 20
41.3517648754
 10
10.1326403284
 20
41.3458527953
 10
10.0896854283
 20
41.3420796501
 10
10.0463253909
 20
41.340473934
 10
10.0028876494
 20
41.3410477703
 10
9.9597002072
 20
41.3437968235
 10
9.9170891851
 20
41.3487003331
  0
LWPOLYLINE
  5
3C7
100
AcDbEntity
  8
SUPERFICI
100
AcDbPolyline
 62
250
  6
CONTINUOUS
 90
9
 70
0
 10
8.5688958659
 20
-5.8404571381
 10
8.5660062382
 20
-5.8826149391
 10
8.5593583281
 20
-5.9220024503
 10
8.5490253424
 20
-5.9581859332
 10
8.5351191807
 20
-5.9907706307
 10
8.517794041
 20
-6.0193930638
 10
8.4972487497
 20
-6.043729961
 10
8.4737188866
 20
-6.0635139872
 10
8.4549689052
 20
-6.074875748
  0
LWPOLYLINE
  5
3C8
100
AcDbEntity
  8
ASSI
100
AcDbPolyline
 62
250
  6
CONTINUOUS
 90
3
 70
0
 10
12.9628917234
 20
43.2222327243
 10
12.963197417
 20
43.2259232017
 10
12.9660385857
 20
43.2381993696
  0
LWPOLYLINE
  5
3C9
100
AcDbEntity
  8
ASSI
100
AcDbPolyline
 62
7
  6
CONTINUOUS
 90
20
 70
0
 10
13.010886694
 20
41.9273461526
 10
13.0086232694
 20
41.900292704
 10
13.0023090673
 20
41.8752381656
 10
12.9920148256
 20
41.8504158488
 10
12.9779783809
 20
41.826442329
 10
12.9601072351
 20
41.8033463031
 10
12.9384938862
 20
41.7810990742
 10
12.9136536652
 20
41.7602311271
 10
12.885508996
 20
41.7407756045
 10
12.8541374547
 20
41.7226993637
 10
12.820287101
 20
41.7064334615
 10
12.7838983585
 20
41.6920214165
 10
12.7450308036
 20
41.67941971
 10
12.7046112249
 20
41.6689288428
 10
12.6625878479
 20
41.6606008556
 10
12.6190124472
 20
41.6543837076
 10
12.574967134
 20
41.6504217775
 10
12.5308126123
 20
41.6487631915
 10
12.4861881781
 20
41.6493598234
 10
12.4410938315
 20
41.6522116731
  0
LWPOLYLINE
  5
3CA
100
AcDbEntity
  8
RACCORDO
100
AcDbPolyline
 62
250
  6
CONTINUOUS
 90
7
 70
0
 10
11.9330889328
 20
34.7293881754
 10
11.9313779051
 20
34.7143153379
 10
11.926274098
 20
34.6995004009
 10
11.9178648393
 20
34.6851968519
 10
11.9062940135
 20
34.6716494287
 10
11.8917596008
 20
34.6590899315
 10
11.874510289
 20
34.6477332568
  0
LWPOLYLINE
  5
3CB
100
AcDbEntity
  8
RACCORDO
100
AcDbPolyline
 62
250
  6
CONTINUOUS
 90
22
 70
0
 10
5.2651823971
 20
13.9065369801
 10
5.1299853417
 20
13.6970507491
 10
4.9815704738
 20
13.5029315634
 10
4.8211414427
 20
13.3257829809
 10
4.6485957077
 20
13.1657428713
 10
4.4640358095
 20
13.022673365
 10
4.2689730199
 20
12.8977644106
 10
4.0633179737
 20
12.7911679433
 10
3.847160036
 20
12.7027320281
 10
3.6222785744
 20
12.633190808
 10
3.3886046698
 20
12.5827025055
 10
3.1462072412
 20
12.5511088983
 10
2.8970724131
 20
12.5386694623
 10
2.6411431513
 20
12.5455423215
 10
2.37847649
 20
12.5715693519
 10
2.1112296571
 20
12.6165356576
 10
1.839337336
 20
12.6806141014
 10
1.5628648433
 20
12.7636318205
 10
1.284165356
 20
12.8648553302
 10
1.0040232664
 20
12.9840401357
 10
0.7216541822
 20
13.1214307318
 10
0.4370581033
 20
13.2770271185
  0
LWPOLYLINE
  5
3CC
100
AcDbEntity
  8
RACCORDO
100
AcDbPolyline
 62
250
  6
CONTINUOUS
 90
14
 70
0
 10
4.4097236847
 20
13.55693354
 10
4.315938449
 20
13.5029439649
 10
4.1105977499
 20
13.4032402864
 10
3.8951554614
 20
13.3227615403
 10
3.670265619
 20
13.2617521568
 10
3.4366113689
 20
13.2203975735
 10
3.1949026008
 20
13.1988234681
 10
2.9458734922
 20
13.19709535
 10
2.6902802293
 20
13.2152184465
 10
2.4288990257
 20
13.2531377143
 10
2.1625236826
 20
13.3107379917
 10
1.8919631755
 20
13.3878443452
 10
1.6180391824
 20
13.4842226041
 10
1.3415835985
 20
13.5995800695
  0
LWPOLYLINE
  5
3CD
100
AcDbEntity
  8
DRAFT
100
AcDbPolyline
 62
7
  6
CONTINUOUS
 90
3
 70
0
 10
4.6344338591
 20
13.7173449693
 10
4.6060323628
 20
13.70355453
 10
4.3914567871
 20
13.6233593826
  0
LWPOLYLINE
  5
3CE
100
AcDbEntity
  8
0
100
AcDbPolyline
 62
7
  6
CONTINUOUS
 90
8
 70
0
 10
0.0127940346
 20
25.3544879585
 10
0.1388722694
 20
25.3761073711
 10
0.2677364069
 20
25.390053295
 10
0.3993864471
 20
25.3963257304
 10
0.534056018
 20
25.3949145075
 10
0.6715114915
 20
25.3858297961
 10
0.8110519839
 20
25.3691021048
 10
0.8642510842
 20
25.3599321968
  0
LWPOLYLINE
  5
3CF
100
AcDbEntity
  8
ASSI
100
AcDbPolyline
 62
250
  6
CONTINUOUS
 90
7
 70
0
 10
5.1762146759
 20
43.9071694572
 10
5.1791505633
 20
43.8928538224
 10
5.1847808373
 20
43.8767904697
 10
5.1932785056
 20
43.8594473533
 10
5.2047671827
 20
43.8411570589
 10
5.2193416832
 20
43.8223374173
 10
5.2370828684
 20
43.8035309681
  0
LWPOLYLINE
  5
3D0
100
AcDbEntity
  8
ASSI
100
AcDbPolyline
 62
250
  6
CONTINUOUS
 90
13
 70
0
 10
8.1711532206
 20
41.7371045556
 10
8.1685069828
 20
41.7585639994
 10
8.163706835
 20
41.7806978696
 10
8.1568270648
 20
41.8031670701
 10
8.1479745699
 20
41.825625697
 10
8.1372850233
 20
41.8477320536
 10
8.1249192758
 20
41.8691534692
 10
8.1110546935
 20
41.8895771496
 10
8.0959122211
 20
41.9086726777
 10
8.0797579462
 20
41.9261124542
 10
8.0628558413
 20
41.9416302426
 10
8.0454557451
 20
41.9550144944
 10
8.0278233296
 20
41.966075497
  0
LWPOLYLINE
  5
3D1
100
AcDbEntity
  8
ASSI
100
AcDbPolyline
 62
250
  6
CONTINUOUS
 90
13
 70
0
 10
7.6714839501
 20
40.5491282035
 10
7.668843928
 20
40.570551243
 10
7.6640563351
 20
40.5926497985
 10
7.6571942519
 20
40.6150865452
 10
7.6483624252
 20
40.6375189955
 10
7.637695669
 20
40.6596047278
 10
7.6253568068
 20
40.6810066126
 10
7.6115341862
 20
40.7013979595
 10
7.5964388034
 20
40.7204675031
 10
7.5803010832
 20
40.737924155
 10
7.5633673608
 20
40.7535014469
 10
7.5458961224
 20
40.766961598
 10
7.528154059
 20
40.7780991449
  0
LWPOLYLINE
  5
3D2
100
AcDbEntity
  8
ASSI
100
AcDbPolyline
 62
250
  6
CONTINUOUS
 90
13
 70
0
 10
8.3075486466
 20
41.8186665632
 10
8.3049086246
 20
41.8400896027
 10
8.3001210317
 20
41.8621881583
 10
8.2932589485
 20
41.8846249049
 10
8.2844271217
 20
41.9070573553
 10
8.2737603655
 20
41.9291430875
 10
8.2614215034
 20
41.9505449724
 10
8.2475988827
 20
41.9709363192
 10
8.2325035
 20
41.9900058628
 10
8.2163657797
 20
42.0074625148
 10
8.1994320574
 20
42.0230398066
 10
8.181960819
 20
42.0364999577
 10
8.1642187555
 20
42.0476375046
  0
LINE
  5
3D3
100
AcDbEntity
  8
ASSI
100
AcDbLine
 62
250
  6
CONTINUOUS
 10
9.9916935529
 20
40.5278429582
 11
10.0151568312
 21
40.2924667586
  0
LWPOLYLINE
  5
3D4
100
AcDbEntity
  8
RACCORDO
100
AcDbPolyline
 62
250
  6
CONTINUOUS
 90
3
 70
0
 10
10.9987335942
 20
40.431116369
 10
11.005324343
 20
40.3633886408
 10
11.0077070318
 20
40.2967468638
  0
LWPOLYLINE
  5
3D5
100
AcDbEntity
  8
RACCORDO
100
AcDbPolyline
 62
250
  6
CONTINUOUS
 90
13
 70
0
 10
9.356050909
 20
44.805206396
 10
9.3579077648
 20
44.7856743953
 10
9.3617673476
 20
44.7654042089
 10
9.3675679425
 20
44.7447199589
 10
9.3752167971
 20
44.7239523887
 10
9.3845916056
 20
44.7034335738
 10
9.3955424639
 20
44.6834916121
 10
9.4078942666
 20
44.6644453776
 10
9.4214495072
 20
44.6465994215
 10
9.435991436
 20
44.6302391023
 10
9.451287526
 20
44.6156260234
 10
9.4670931914
 20
44.6029938492
 10
9.4831556978
 20
44.5925445695
  0
LWPOLYLINE
  5
3D6
100
AcDbEntity
  8
RACCORDO
100
AcDbPolyline
 62
250
  6
CONTINUOUS
 90
4
 70
0
 10
10.415788553
 20
45.6661756071
 10
10.4137268187
 20
45.6878678107
 10
10.4094418171
 20
45.7103796406
 10
10.4030020042
 20
45.7333514554
  0
LINE
  5
3D7
100
AcDbEntity
  8
ASSI
100
AcDbLine
 62
250
  6
CONTINUOUS
 10
9.9663648525
 20
40.7939953069
 11
9.9916935529
 21
40.5278429582
  0
LINE
  5
3D8
100
AcDbEntity
  8
ASSI
100
AcDbLine
 62
250
  6
CONTINUOUS
 10
9.9388987634
 20
41.0970739403
 11
9.9663648525
 21
40.7939953069
  0
LINE
  5
3D9
100
AcDbEntity
  8
ASSI
100
AcDbLine
 62
250
  6
CONTINUOUS
 10
9.9170891851
 20
41.3487003331
 11
9.9388987634
 21
41.0970739403
  0
LINE
  5
3DA
100
AcDbEntity
  8
ASSI
100
AcDbLine
 62
250
  6
CONTINUOUS
 10
12.3929690014
 20
42.1935142024
 11
12.4239159993
 21
41.8400235605
  0
LINE
  5
3DB
100
AcDbEntity
  8
ASSI
100
AcDbLine
 62
250
  6
CONTINUOUS
 10
12.358981013
 20
42.6050660371
 11
12.3929690014
 21
42.1935142024
  0
LINE
  5
3DC
100
AcDbEntity
  8
ASSI
100
AcDbLine
 62
250
  6
CONTINUOUS
 10
12.3446817202
 20
42.7857944137
 11
12.358981013
 21
42.6050660371
  0
LWPOLYLINE
  5
3DD
100
AcDbEntity
  8
RACCORDO
100
AcDbPolyline
 62
7
  6
CONTINUOUS
 90
7
 70
0
 10
10.7577903052
 20
45.1602330934
 10
10.7570271719
 20
45.1708518024
 10
10.7549086636
 20
45.185846052
 10
10.7516576524
 20
45.2001282549
 10
10.7473372673
 20
45.21366022
 10
10.7420158713
 20
45.2263969557
 10
10.7394080388
 20
45.231676571
  0
LWPOLYLINE
  5
3DE
100
AcDbEntity
  8
RACCORDO
100
AcDbPolyline
 62
250
  6
CONTINUOUS
 90
13
 70
0
 10
10.7285030055
 20
45.1192878581
 10
10.7283613987
 20
45.1218287564
 10
10.7281459683
 20
45.1243547322
 10
10.7278567144
 20
45.1268657854
 10
10.7274991887
 20
45.1293573425
 10
10.7270678394
 20
45.1318339771
 10
10.7265460114
 20
45.1343094098
 10
10.7259373311
 20
45.1367879803
 10
10.7252381721
 20
45.139265349
 10
10.7244209995
 20
45.1417422177
 10
10.7234766353
 20
45.1442188203
 10
10.7224142577
 20
45.1466949228
 10
10.7212338665
 20
45.1491705253
  0
LWPOLYLINE
  5
3DF
100
AcDbEntity
  8
RACCORDO
100
AcDbPolyline
 62
250
  6
CONTINUOUS
 90
3
 70
0
 10
10.7454704208
 20
45.2023960038
 10
10.7447695069
 20
45.2154691672
 10
10.7412828358
 20
45.2276605815
  0
LWPOLYLINE
  5
3E0
100
AcDbEntity
  8
ASSI
100
AcDbPolyline
 62
250
  6
CONTINUOUS
 90
10
 70
0
 10
10.5663567314
 20
41.8046241672
 10
10.5657002149
 20
41.8176430396
 10
10.5646096413
 20
41.8302949652
 10
10.5630850106
 20
41.8425799441
 10
10.5611230684
 20
41.8544975727
 10
10.5587270691
 20
41.8660482546
 10
10.5559067759
 20
41.8772332005
 10
10.552665443
 20
41.8880528138
 10
10.5489998161
 20
41.898506691
 10
10.5449098952
 20
41.9085948322
  0
LINE
  5
3E1
100
AcDbEntity
  8
RACCORDO
100
AcDbLine
 62
250
  6
CONTINUOUS
 10
10.7338105567
 20
44.999285842
 11
10.7285030055
 21
45.1192878581
  0
LINE
  5
3E2
100
AcDbEntity
  8
RACCORDO
100
AcDbLine
 62
7
  6
CONTINUOUS
 10
10.7630991187
 20
45.0402028419
 11
10.7577915676
 21
45.160204855
  0
LWPOLYLINE
  5
3E3
100
AcDbEntity
  8
RACCORDO
100
AcDbPolyline
 62
7
  6
CONTINUOUS
 90
16
 70
0
 10
11.9330889328
 20
34.7293881754
 10
11.9312324089
 20
34.7723184147
 10
11.9258508273
 20
34.8151541604
 10
11.9171995611
 20
34.8576846961
 10
11.9054626663
 20
34.8998396732
 10
11.8908168919
 20
34.9414074133
 10
11.8735289449
 20
34.981943592
 10
11.8538454622
 20
35.021142338
 10
11.8318604416
 20
35.0589735594
 10
11.8076449737
 20
35.0953421001
 10
11.7812142213
 20
35.1301522422
 10
11.7527174662
 20
35.163083165
 10
11.7223844426
 20
35.1937510547
 10
11.6903095551
 20
35.2219312254
 10
11.6564823838
 20
35.2474476083
 10
11.6209617305
 20
35.2700139274
  0
LWPOLYLINE
  5
3E4
100
AcDbEntity
  8
RACCORDO
100
AcDbPolyline
 62
250
  6
CONTINUOUS
 90
16
 70
0
 10
11.4325685508
 20
45.9227001538
 10
11.4309542681
 20
45.9666749831
 10
11.4254841032
 20
46.0124045886
 10
11.4162179827
 20
46.0593879539
 10
11.403257424
 20
46.107110319
 10
11.386744419
 20
46.1550488383
 10
11.3668598735
 20
46.202678309
 10
11.343821637
 20
46.2494768953
 10
11.3178821132
 20
46.2949318599
 10
11.2893254847
 20
46.3385451985
 10
11.2584646145
 20
46.3798390685
 10
11.2256376154
 20
46.4183610342
 10
11.1912041361
 20
46.4536890352
 10
11.1555414319
 20
46.4854359961
 10
11.1190402328
 20
46.5132540699
 10
11.0821004564
 20
46.5368384559
  0
LWPOLYLINE
  5
3E5
100
AcDbEntity
  8
VARIANTE_COLORE
100
AcDbPolyline
 62
250
  6
CONTINUOUS
 90
16
 70
0
 10
11.4325685508
 20
45.9227001538
 10
11.4309542681
 20
45.9666749831
 10
11.4254841032
 20
46.0124045886
 10
11.4162179827
 20
46.0593879539
 10
11.403257424
 20
46.107110319
 10
11.386744419
 20
46.1550488383
 10
11.3668598735
 20
46.202678309
 10
11.343821637
 20
46.2494768953
 10
11.3178821132
 20
46.2949318599
 10
11.2893254847
 20
46.3385451985
 10
11.2584646145
 20
46.3798390685
 10
11.2256376154
 20
46.4183610342
 10
11.1912041361
 20
46.4536890352
 10
11.1555414319
 20
46.4854359961
 10
11.1190402328
 20
46.5132540699
 10
11.0821004564
 20
46.5368384559
  0
LINE
  5
3E6
100
AcDbEntity
  8
ASSI
100
AcDbLine
 62
250
  6
CONTINUOUS
 10
13.0354672035
 20
42.8365550138
 11
13.0179725422
 21
43.3016405026
  0
LWPOLYLINE
  5
3E7
100
AcDbEntity
  8
ASSI
100
AcDbPolyline
 62
250
  6
CONTINUOUS
 90
16
 70
0
 10
10.9531575338
 20
38.6464859881
 10
10.9526190853
 20
38.6641940799
 10
10.9505014223
 20
38.6825909307
 10
10.9468278701
 20
38.7014738452
 10
10.9416381653
 20
38.7206371452
 10
10.9349898541
 20
38.7398673303
 10
10.926959421
 20
38.7589454518
 10
10.9176393036
 20
38.7776569994
 10
10.9071315249
 20
38.7958015322
 10
10.8955481132
 20
38.8131869673
 10
10.8829974416
 20
38.8296453184
 10
10.8696339314
 20
38.8449691564
 10
10.8556617245
 20
38.858936543
 10
10.8412601022
 20
38.8713953491
 10
10.8265718106
 20
38.8822481147
 10
10.8117577167
 20
38.8913976552
  0
LINE
  5
3E8
100
AcDbEntity
  8
ASSI
100
AcDbLine
 62
250
  6
CONTINUOUS
 10
13.0451507309
 20
42.5328153284
 11
13.0354672035
 21
42.8365550138
  0
LINE
  5
3E9
100
AcDbEntity
  8
ASSI
100
AcDbLine
 62
250
  6
CONTINUOUS
 10
13.0528165687
 20
42.2502937649
 11
13.0451507309
 21
42.5328153284
  0
LINE
  5
3EA
100
AcDbEntity
  8
ASSI
100
AcDbLine
 62
250
  6
CONTINUOUS
 10
13.056859778
 20
42.0746140869
 11
13.0528165687
 21
42.2502937649
  0
LINE
  5
3EB
100
AcDbEntity
  8
RACCORDO
100
AcDbLine
 62
250
  6
CONTINUOUS
 10
11.7362336515
 20
39.7430501959
 11
11.7362336515
 21
40.5343863931
  0
LINE
  5
3EC
100
AcDbEntity
  8
RACCORDO
100
AcDbLine
 62
250
  6
CONTINUOUS
 10
11.874510289
 20
34.6477332568
 11
11.874510289
 21
33.1835342563
  0
LINE
  5
3ED
100
AcDbEntity
  8
RACCORDO
100
AcDbLine
 62
250
  6
CONTINUOUS
 10
11.874510289
 20
1.0037103551
 11
11.874510289
 21
-0.4604886453
  0
LINE
  5
3EE
100
AcDbEntity
  8
RACCORDO
100
AcDbLine
 62
7
  6
CONTINUOUS
 10
11.9330889328
 20
34.7293881754
 11
11.9330889328
 21
33.3754708248
  0
LINE
  5
3EF
100
AcDbEntity
  8
RACCORDO
100
AcDbLine
 62
7
  6
CONTINUOUS
 10
11.9330889328
 20
0.975083624
 11
11.9330889328
 21
-0.3788337267
  0
LINE
  5
3F0
100
AcDbEntity
  8
ASSI
100
AcDbLine
 62
7
  6
CONTINUOUS
 10
13.0109063921
 20
43.058067569
 11
13.0109063921
 21
41.9273459641
  0
LINE
  5
3F1
100
AcDbEntity
  8
RACCORDO
100
AcDbLine
 62
250
  6
CONTINUOUS
 10
13.5538888943
 20
46.6719023421
 11
13.5538888943
 21
46.3349249122
  0
LINE
  5
3F2
100
AcDbEntity
  8
VARIANTE_COLORE
100
AcDbLine
 62
250
  6
CONTINUOUS
 10
13.5538888943
 20
46.6719023421
 11
13.5538888943
 21
46.3349249122
  0
LINE
  5
3F3
100
AcDbEntity
  8
RACCORDO
100
AcDbLine
 62
250
  6
CONTINUOUS
 10
11.4325685508
 20
45.5183362706
 11
11.4327212278
 21
45.9227867691
  0
LINE
  5
3F4
100
AcDbEntity
  8
VARIANTE_COLORE
100
AcDbLine
 62
250
  6
CONTINUOUS
 10
11.4325685508
 20
45.5183362706
 11
11.4327212278
 21
45.9227867691
  0
LWPOLYLINE
  5
3F5
100
AcDbEntity
  8
ASSI
100
AcDbPolyline
 62
250
  6
CONTINUOUS
 90
16
 70
0
 10
12.3446817133
 20
42.7857944177
 10
12.3450459517
 20
42.8034599111
 10
12.3461346765
 20
42.82212509
 10
12.3479359592
 20
42.8415854548
 10
12.3504300647
 20
42.8616277935
 10
12.3535896669
 20
42.8820325181
 10
12.3573801487
 20
42.9025760706
 10
12.3617599806
 20
42.9230333714
 10
12.3666811764
 20
42.9431802862
 10
12.3720898184
 20
42.9627960814
 10
12.3779266485
 20
42.9816658423
 10
12.3841277172
 20
42.9995828277
 10
12.3906250844
 20
43.0163507361
 10
12.3973475637
 20
43.0317858545
 10
12.4042215023
 20
43.0457190723
 10
12.4111715878
 20
43.057997734
  0
LWPOLYLINE
  5
3F6
100
AcDbEntity
  8
RACCORDO
100
AcDbPolyline
 62
250
  6
CONTINUOUS
 90
9
 70
0
 10
11.874510289
 20
-0.4604886453
 10
11.8725734865
 20
-0.5020425517
 10
11.8667842991
 20
-0.5409046138
 10
11.8572061542
 20
-0.5766490508
 10
11.8439439921
 20
-0.6088842392
 10
11.8271431157
 20
-0.6372570034
 10
11.806987599
 20
-0.6614564855
 10
11.7836982701
 20
-0.6812175508
 10
11.7709689785
 20
-0.6893570759
  0
LWPOLYLINE
  5
3F7
100
AcDbEntity
  8
RACCORDO
100
AcDbPolyline
 62
250
  6
CONTINUOUS
 90
7
 70
0
 10
11.9330889328
 20
-0.3788337267
 10
11.9313779051
 20
-0.3939065635
 10
11.9262740982
 20
-0.4087215004
 10
11.9178648394
 20
-0.42302505
 10
11.9062940137
 20
-0.436572475
 10
11.8917596009
 20
-0.4491319749
 10
11.874510289
 20
-0.4604886532
  0
LWPOLYLINE
  5
3F8
100
AcDbEntity
  8
RACCORDO
100
AcDbPolyline
 62
7
  6
CONTINUOUS
 90
6
 70
0
 10
11.7513389741
 20
2.492349953
 10
11.7510941757
 20
2.490372958
 10
11.7483102228
 20
2.4864975092
 10
11.7428922376
 20
2.4809730565
 10
11.7349609421
 20
2.4738323122
 10
11.7246621567
 20
2.465159449
  0
LWPOLYLINE
  5
3F9
100
AcDbEntity
  8
RACCORDO
100
AcDbPolyline
 62
250
  6
CONTINUOUS
 90
10
 70
0
 10
15.855273065
 20
40.2164756344
 10
15.8516621667
 20
40.1996600369
 10
15.8495144489
 20
40.1825314728
 10
15.8488583398
 20
40.1653168303
 10
15.8497025533
 20
40.148243661
 10
15.8520359258
 20
40.1315386016
 10
15.8558271529
 20
40.1154242442
 10
15.8610254816
 20
40.100114239
 10
15.8675618039
 20
40.0858106095
 10
15.875349246
 20
40.0727024269
  0
LINE
  5
3FA
100
AcDbEntity
  8
RACCORDO
100
AcDbLine
 62
250
  6
CONTINUOUS
 10
15.1183645282
 20
4.6329605296
 11
15.1229738477
 21
4.6134945262
  0
LWPOLYLINE
  5
3FB
100
AcDbEntity
  8
RACCORDO
100
AcDbPolyline
 62
250
  6
CONTINUOUS
 90
4
 70
0
 10
15.1229738477
 20
4.6134945262
 10
15.1259256846
 20
4.594476829
 10
15.1271852594
 20
4.5761314399
 10
15.1267377221
 20
4.5586744829
  0
LINE
  5
3FC
100
AcDbEntity
  8
ASSI
100
AcDbLine
 62
250
  6
CONTINUOUS
 10
9.836831558
 20
40.4331347884
 11
9.8608192548
 21
40.2614099408
  0
LINE
  5
3FD
100
AcDbEntity
  8
ASSI
100
AcDbLine
 62
250
  6
CONTINUOUS
 10
9.811490914
 20
40.6208929622
 11
9.836831558
 21
40.4331347884
  0
LINE
  5
3FE
100
AcDbEntity
  8
ASSI
100
AcDbLine
 62
250
  6
CONTINUOUS
 10
9.7845730084
 20
40.8275825395
 11
9.811490914
 21
40.6208929622
  0
LINE
  5
3FF
100
AcDbEntity
  8
ASSI
100
AcDbLine
 62
250
  6
CONTINUOUS
 10
9.7560502682
 20
41.0548710661
 11
9.7845730084
 21
40.8275825395
  0
LWPOLYLINE
  5
400
100
AcDbEntity
  8
ASSI
100
AcDbPolyline
 62
250
  6
CONTINUOUS
 90
13
 70
0
 10
10.9431127562
 20
42.0609117281
 10
10.940472648
 20
42.0823352717
 10
10.9356848992
 20
42.1044342481
 10
10.9288226254
 20
42.1268713063
 10
10.9199906112
 20
42.1493039356
 10
10.9093237013
 20
42.171389715
 10
10.8969847354
 20
42.1927915391
 10
10.8831620833
 20
42.2131827246
 10
10.8680667539
 20
42.2322520285
 10
10.8519291564
 20
42.2497084119
 10
10.8349956176
 20
42.2652854355
 10
10.8175246266
 20
42.278745334
 10
10.7997828656
 20
42.2898826698
  0
LWPOLYLINE
  5
401
100
AcDbEntity
  8
ASSI
100
AcDbPolyline
 62
250
  6
CONTINUOUS
 90
13
 70
0
 10
10.1153018489
 20
41.8902290603
 10
10.1178516924
 20
41.8694655877
 10
10.122424837
 20
41.8480566097
 10
10.128955559
 20
41.8263098173
 10
10.1373500006
 20
41.8045377561
 10
10.1474875178
 20
41.7830533369
 10
10.1592224142
 20
41.7621653375
 10
10.1723860361
 20
41.7421739628
 10
10.1867891952
 20
41.7233665322
 10
10.2022248871
 20
41.7060133511
 10
10.2184712679
 20
41.6903638229
 10
10.2352948435
 20
41.676642865
 10
10.2524538234
 20
41.665047678
  0
LINE
  5
402
100
AcDbEntity
  8
ASSI
100
AcDbLine
 62
250
  6
CONTINUOUS
 10
9.7261819054
 20
41.3022147566
 11
9.7560502682
 21
41.0548710661
  0
LINE
  5
403
100
AcDbEntity
  8
ASSI
100
AcDbLine
 62
250
  6
CONTINUOUS
 10
12.1317058619
 20
42.7716689935
 11
12.1447585674
 21
42.6521644598
  0
LINE
  5
404
100
AcDbEntity
  8
ASSI
100
AcDbLine
 62
250
  6
CONTINUOUS
 10
12.4239159993
 20
41.8400235605
 11
12.4410939081
 21
41.6522116731
  0
LWPOLYLINE
  5
405
100
AcDbEntity
  8
RACCORDO
100
AcDbPolyline
 62
7
  6
CONTINUOUS
 90
7
 70
0
 10
14.114534347
 20
43.2248259965
 10
14.1139942881
 20
43.2309428689
 10
14.1117501467
 20
43.2464018713
 10
14.108348544
 20
43.2611181379
 10
14.1038521457
 20
43.2750550675
 10
14.0983267103
 20
43.288169506
 10
14.094697281
 20
43.29534667
  0
LWPOLYLINE
  5
406
100
AcDbEntity
  8
RACCORDO
100
AcDbPolyline
 62
250
  6
CONTINUOUS
 90
13
 70
0
 10
14.0864644831
 20
43.1847099092
 10
14.0862471304
 20
43.1872981519
 10
14.0859565199
 20
43.1898701081
 10
14.0855926515
 20
43.1924257779
 10
14.085161191
 20
43.1949602695
 10
14.0846564727
 20
43.1974784746
 10
14.0840614992
 20
43.1999950681
 10
14.083379834
 20
43.2025145037
 10
14.0826079135
 20
43.2050323276
 10
14.0817180503
 20
43.2075498542
 10
14.0807010151
 20
43.2100675214
 10
14.079566037
 20
43.2125848913
 10
14.0783131162
 20
43.2151019637
  0
LINE
  5
407
100
AcDbEntity
  8
RACCORDO
100
AcDbLine
 62
250
  6
CONTINUOUS
 10
14.1241290615
 20
42.6658709321
 11
14.0864644831
 21
43.1847099092
  0
LINE
  5
408
100
AcDbEntity
  8
RACCORDO
100
AcDbLine
 62
7
  6
CONTINUOUS
 10
14.1555306256
 20
42.6600923687
 11
14.1145370803
 21
43.224788696
  0
LWPOLYLINE
  5
409
100
AcDbEntity
  8
RACCORDO
100
AcDbPolyline
 62
250
  6
CONTINUOUS
 90
3
 70
0
 10
14.1009461939
 20
43.2671037211
 10
14.1001193314
 20
43.2796775091
 10
14.0966320106
 20
43.2913479678
  0
LWPOLYLINE
  5
40A
100
AcDbEntity
  8
RACCORDO
100
AcDbPolyline
 62
7
  6
CONTINUOUS
 90
12
 70
0
 10
15.6613829155
 20
41.6290752494
 10
15.6603311336
 20
41.6521720305
 10
15.6562230784
 20
41.6801173897
 10
15.6490636804
 20
41.7078053161
 10
15.6388502691
 20
41.7351142691
 10
15.6262220732
 20
41.7606178546
 10
15.6111703479
 20
41.7846723812
 10
15.5934242017
 20
41.8075386667
 10
15.5738650126
 20
41.8279957369
 10
15.5525988795
 20
41.8460245523
 10
15.5293189045
 20
41.8617772081
 10
15.5259068831
 20
41.8637811377
  0
LWPOLYLINE
  5
40B
100
AcDbEntity
  8
RACCORDO
100
AcDbPolyline
 62
250
  6
CONTINUOUS
 90
3
 70
0
 10
15.9942359563
 20
40.0319901737
 10
15.9934794751
 20
40.0539634499
 10
15.9917379451
 20
40.0745752881
  0
LWPOLYLINE
  5
40C
100
AcDbEntity
  8
RACCORDO
100
AcDbPolyline
 62
7
  6
CONTINUOUS
 90
6
 70
0
 10
15.1013361801
 20
33.4307607635
 10
15.1009070157
 20
33.4439073098
 10
15.0981051937
 20
33.4670900039
 10
15.0927644368
 20
33.4904242865
 10
15.0849191853
 20
33.5137849616
 10
15.0755030937
 20
33.5351076592
  0
LWPOLYLINE
  5
40D
100
AcDbEntity
  8
RACCORDO
100
AcDbPolyline
 62
7
  6
CONTINUOUS
 90
12
 70
0
 10
16.2977792638
 20
40.4870949801
 10
16.2976734145
 20
40.4944217583
 10
16.2956792967
 20
40.5195708235
 10
16.2911377374
 20
40.5448713213
 10
16.2840325458
 20
40.5701069658
 10
16.2747127084
 20
40.5942397043
 10
16.2631100497
 20
40.6176385402
 10
16.2490992437
 20
40.6403555163
 10
16.2333890967
 20
40.6612211462
 10
16.2162553335
 20
40.6800723083
 10
16.1972125705
 20
40.6974176369
 10
16.1916083982
 20
40.7019179101
  0
LINE
  5
40E
100
AcDbEntity
  8
RACCORDO
100
AcDbLine
 62
250
  6
CONTINUOUS
 10
15.0731867215
 20
33.3969386842
 11
15.0732703735
 21
33.390771342
  0
LWPOLYLINE
  5
40F
100
AcDbEntity
  8
RACCORDO
100
AcDbPolyline
 62
250
  6
CONTINUOUS
 90
25
 70
0
 10
16.241647279
 20
40.4069632653
 10
16.2415432984
 20
40.4167643016
 10
16.2410219087
 20
40.4270341882
 10
16.2400518264
 20
40.4377641912
 10
16.2385989512
 20
40.4489624955
 10
16.2366347858
 20
40.4605918356
 10
16.2341454666
 20
40.4725666103
 10
16.2311117668
 20
40.4848577702
 10
16.2275156128
 20
40.4974348847
 10
16.2233628306
 20
40.5102013576
 10
16.2186480505
 20
40.5231160777
 10
16.2133670236
 20
40.5361382967
 10
16.2075447532
 20
40.5491677785
 10
16.2011932293
 20
40.5621504275
 10
16.1943191899
 20
40.5750468422
 10
16.186953231
 20
40.5877789027
 10
16.1791648516
 20
40.6002199322
 10
16.170928776
 20
40.6124042889
 10
16.1621201909
 20
40.6244787549
 10
16.1527642542
 20
40.6363511371
 10
16.142857232
 20
40.6479703952
 10
16.1321971425
 20
40.6594864165
 10
16.1207152931
 20
40.6708452287
 10
16.1085020115
 20
40.6818270871
 10
16.0955897833
 20
40.6922809816
  0
LWPOLYLINE
  5
410
100
AcDbEntity
  8
RACCORDO
100
AcDbPolyline
 62
250
  6
CONTINUOUS
 90
28
 70
0
 10
15.6052511759
 20
41.5490579618
 10
15.6051614694
 20
41.5590129709
 10
15.6046480173
 20
41.5693686199
 10
15.6036883762
 20
41.5801114037
 10
15.6022627925
 20
41.5912107643
 10
15.6003498977
 20
41.6026605242
 10
15.5979212414
 20
41.6144804397
 10
15.5949414718
 20
41.6266913226
 10
15.5913976526
 20
41.639217067
 10
15.5873041232
 20
41.6519259838
 10
15.5826619248
 20
41.6647622664
 10
15.5774626145
 20
41.6777014116
 10
15.5717267998
 20
41.6906541243
 10
15.5654590972
 20
41.7035799106
 10
15.5586708943
 20
41.7164269857
 10
15.551408247
 20
41.7290902537
 10
15.5437087119
 20
41.74149733
 10
15.5355790029
 20
41.7536307031
 10
15.5270258115
 20
41.7654684499
 10
15.5181208211
 20
41.7769040698
 10
15.5088455684
 20
41.7879545123
 10
15.4990558874
 20
41.79875614
 10
15.4887781827
 20
41.8092235167
 10
15.478025307
 20
41.8192882548
 10
15.4666112005
 20
41.8290425766
 10
15.4544891657
 20
41.8384075677
 10
15.4417683277
 20
41.8471767115
 10
15.4285014046
 20
41.8551975457
  0
LINE
  5
411
100
AcDbEntity
  8
RACCORDO
100
AcDbLine
 62
250
  6
CONTINUOUS
 10
15.0732703735
 20
33.3907713452
 11
15.0732703735
 21
4.6177279889
  0
LINE
  5
412
100
AcDbEntity
  8
RACCORDO
100
AcDbLine
 62
7
  6
CONTINUOUS
 10
15.1013363935
 20
33.4308800457
 11
15.1013363935
 21
4.6578366742
  0
LINE
  5
413
100
AcDbEntity
  8
RACCORDO
100
AcDbLine
 62
7
  6
CONTINUOUS
 10
15.144879152
 20
6.4693824159
 11
15.144879152
 21
31.6168845619
  0
LINE
  5
414
100
AcDbEntity
  8
VARIANTE_COLORE
100
AcDbLine
 62
7
  6
CONTINUOUS
 10
15.144879152
 20
6.4693824159
 11
15.144879152
 21
31.6168845619
  0
LINE
  5
415
100
AcDbEntity
  8
0
100
AcDbLine
 62
7
  6
CONTINUOUS
 10
15.2155898301
 20
46.6641320887
 11
15.2155898301
 21
43.7835282888
  0
LINE
  5
416
100
AcDbEntity
  8
RACCORDO
100
AcDbLine
 62
250
  6
CONTINUOUS
 10
15.6052511759
 20
41.2464773462
 11
15.6052511759
 21
41.5490579618
  0
LINE
  5
417
100
AcDbEntity
  8
RACCORDO
100
AcDbLine
 62
7
  6
CONTINUOUS
 10
15.6613832158
 20
41.3266947536
 11
15.6613832158
 21
41.6292753694
  0
LINE
  5
418
100
AcDbEntity
  8
RACCORDO
100
AcDbLine
 62
250
  6
CONTINUOUS
 10
15.9942359563
 20
39.9718309217
 11
15.9942359563
 21
40.0319901737
  0
LINE
  5
419
100
AcDbEntity
  8
RACCORDO
100
AcDbLine
 62
250
  6
CONTINUOUS
 10
16.241647279
 20
39.8475371332
 11
16.241647279
 21
40.4069632653
  0
LINE
  5
41A
100
AcDbEntity
  8
RACCORDO
100
AcDbLine
 62
7
  6
CONTINUOUS
 10
16.2977793189
 20
39.9277545406
 11
16.2977793189
 21
40.4871806727
  0
LINE
  5
41B
100
AcDbEntity
  8
RACCORDO
100
AcDbLine
 62
250
  6
CONTINUOUS
 10
16.3823160191
 20
46.6433992587
 11
16.3823160191
 21
46.3349249122
  0
LINE
  5
41C
100
AcDbEntity
  8
VARIANTE_COLORE
100
AcDbLine
 62
250
  6
CONTINUOUS
 10
16.3823160191
 20
46.6433992587
 11
16.3823160191
 21
46.3349249122
  0
LINE
  5
41D
100
AcDbEntity
  8
RACCORDO
100
AcDbLine
 62
250
  6
CONTINUOUS
 10
15.0732703735
 20
4.6177279705
 11
15.0731252587
 21
4.6099851944
  0
LWPOLYLINE
  5
41E
100
AcDbEntity
  8
RACCORDO
100
AcDbPolyline
 62
250
  6
CONTINUOUS
 90
8
 70
0
 10
16.241647279
 20
39.8475371332
 10
16.2411407321
 20
39.8314067487
 10
16.2391160706
 20
39.8162109502
 10
16.2355712899
 20
39.8021279324
 10
16.2305174647
 20
39.7893203007
 10
16.2239886361
 20
39.7779584454
 10
16.2160512445
 20
39.7682080761
 10
16.2070515918
 20
39.7604288067
  0
LWPOLYLINE
  5
41F
100
AcDbEntity
  8
RACCORDO
100
AcDbPolyline
 62
250
  6
CONTINUOUS
 90
10
 70
0
 10
15.0731252587
 20
4.6099851944
 10
15.0726732382
 20
4.6027033683
 10
15.0719482292
 20
4.5958794294
 10
15.0709856352
 20
4.5895228732
 10
15.0698163676
 20
4.5836045918
 10
15.0684594941
 20
4.5780649629
 10
15.0669395945
 20
4.5728951474
 10
15.0652796367
 20
4.5680817855
 10
15.0634830874
 20
4.5635671069
 10
15.0615665234
 20
4.5593440478
  0
LWPOLYLINE
  5
420
100
AcDbEntity
  8
RACCORDO
100
AcDbPolyline
 62
250
  6
CONTINUOUS
 90
6
 70
0
 10
15.1267377221
 20
4.5586744829
 10
15.1245883389
 20
4.5423116183
 10
15.1207624276
 20
4.5272355994
 10
15.1153050526
 20
4.5136240124
 10
15.1082805006
 20
4.5016372033
 10
15.0997715188
 20
4.4914163733
  0
LINE
  5
421
100
AcDbEntity
  8
RACCORDO
100
AcDbLine
 62
7
  6
CONTINUOUS
 10
1.8596576525
 20
43.9375545351
 11
1.8597734041
 21
43.9373993287
  0
LWPOLYLINE
  5
422
100
AcDbEntity
  8
RACCORDO
100
AcDbPolyline
 62
7
  6
CONTINUOUS
 90
3
 70
0
 10
11.7246621567
 20
32.2217457042
 10
11.6364763379
 20
32.3942627529
 10
11.5287585445
 20
32.6026008041
  0
LWPOLYLINE
  5
423
100
AcDbEntity
  8
RACCORDO
100
AcDbPolyline
 62
7
  6
CONTINUOUS
 90
13
 70
0
 10
11.7246621567
 20
32.2217457042
 10
11.7349609421
 20
32.1985734064
 10
11.7428922376
 20
32.1744934379
 10
11.7483102228
 20
32.1498796299
 10
11.7510941757
 20
32.1251066805
 10
11.7511985188
 20
32.1005700751
 10
11.7486532274
 20
32.0766799949
 10
11.7434887588
 20
32.0538113985
 10
11.7357695022
 20
32.032325843
 10
11.7256443647
 20
32.0125896423
 10
11.7132827125
 20
31.9949226137
 10
11.6988680613
 20
31.979595266
 10
11.6826306838
 20
31.9668508105
  0
LWPOLYLINE
  5
424
100
AcDbEntity
  8
ASSI
100
AcDbPolyline
 62
250
  6
CONTINUOUS
 90
8
 70
0
 10
10.9531575338
 20
38.2771749986
 10
10.9573362142
 20
38.2645420169
 10
10.9598915103
 20
38.252931933
 10
10.9607977808
 20
38.2424703252
 10
10.9600480199
 20
38.2332728644
 10
10.9576533766
 20
38.2254343111
 10
10.9536373269
 20
38.2190323236
 10
10.9525042202
 20
38.2177873856
  0
LWPOLYLINE
  5
425
100
AcDbEntity
  8
RACCORDO
100
AcDbPolyline
 62
250
  6
CONTINUOUS
 90
4
 70
0
 10
10.742143771
 20
44.9504508283
 10
10.7381438625
 20
44.9667144484
 10
10.7353217342
 20
44.9830621267
 10
10.7338104821
 20
44.9992858033
  0
LWPOLYLINE
  5
426
100
AcDbEntity
  8
ASSI
100
AcDbPolyline
 62
7
  6
CONTINUOUS
 90
5
 70
0
 10
10.5295933459
 20
41.6910063185
 10
10.5324109487
 20
41.6756138053
 10
10.5344252721
 20
41.6601300328
 10
10.5356316125
 20
41.6446147684
 10
10.5360326538
 20
41.6291064924
  0
LINE
  5
427
100
AcDbEntity
  8
ASSI
100
AcDbLine
 62
250
  6
CONTINUOUS
 10
12.2357590205
 20
41.8723950286
 11
12.2676666009
 21
41.6202948704
  0
LWPOLYLINE
  5
428
100
AcDbEntity
  8
ASSI
100
AcDbPolyline
 62
250
  6
CONTINUOUS
 90
13
 70
0
 10
12.1317058618
 20
42.7716689934
 10
12.1290658398
 20
42.7930920326
 10
12.124278247
 20
42.8151905879
 10
12.1174161639
 20
42.8376273344
 10
12.1085843372
 20
42.8600597847
 10
12.097917581
 20
42.8821455171
 10
12.0855787189
 20
42.9035474021
 10
12.0717560982
 20
42.923938749
 10
12.0566607154
 20
42.9430082927
 10
12.0405229951
 20
42.9604649447
 10
12.0235892727
 20
42.9760422367
 10
12.0061180342
 20
42.9895023879
 10
11.9883759707
 20
43.0006399348
  0
LWPOLYLINE
  5
429
100
AcDbEntity
  8
ASSI
100
AcDbPolyline
 62
250
  6
CONTINUOUS
 90
13
 70
0
 10
13.0179725412
 20
43.301640502
 10
13.0153325214
 20
43.3230635284
 10
13.0105449321
 20
43.3451620746
 10
13.0036828528
 20
43.3675988161
 10
12.9948510281
 20
43.3900312675
 10
12.9841842715
 20
43.4121170053
 10
12.9718454081
 20
43.4335188958
 10
12.9580227862
 20
43.4539102469
 10
12.9429274016
 20
43.4729797945
 10
12.9267896794
 20
43.4904364496
 10
12.9098559555
 20
43.5060137437
 10
12.8923847157
 20
43.5194738964
 10
12.8746426513
 20
43.5306114441
  0
LINE
  5
42A
100
AcDbEntity
  8
RACCORDO
100
AcDbLine
 62
250
  6
CONTINUOUS
 10
13.7560403493
 20
43.7659669519
 11
13.7586762642
 21
43.744567985
  0
LINE
  5
42B
100
AcDbEntity
  8
ASSI
100
AcDbLine
 62
250
  6
CONTINUOUS
 10
12.2012846245
 20
42.1569072797
 11
12.2357590205
 21
41.8723950286
  0
LINE
  5
42C
100
AcDbEntity
  8
ASSI
100
AcDbLine
 62
250
  6
CONTINUOUS
 10
12.1641521185
 20
42.4780725267
 11
12.2012846245
 21
42.1569072797
  0
LINE
  5
42D
100
AcDbEntity
  8
ASSI
100
AcDbLine
 62
250
  6
CONTINUOUS
 10
12.1447585674
 20
42.6521644598
 11
12.1641521185
 21
42.4780725267
  0
LINE
  5
42E
100
AcDbEntity
  8
RACCORDO
100
AcDbLine
 62
250
  6
CONTINUOUS
 10
19.917849925
 20
44.2935519456
 11
19.917849925
 21
44.6020262921
  0
LINE
  5
42F
100
AcDbEntity
  8
VARIANTE_COLORE
100
AcDbLine
 62
250
  6
CONTINUOUS
 10
19.917849925
 20
44.2935519456
 11
19.917849925
 21
44.6020262921
  0
LWPOLYLINE
  5
430
100
AcDbEntity
  8
RACCORDO
100
AcDbPolyline
 62
250
  6
CONTINUOUS
 90
13
 70
0
 10
11.6302109051
 20
35.1770433476
 10
11.6647600184
 20
35.1417817902
 10
11.6977335947
 20
35.1033439045
 10
11.7287703684
 20
35.0621508241
 10
11.7575302943
 20
35.0186538691
 10
11.7836982724
 20
34.9733296012
 10
11.806987601
 20
34.9266746026
 10
11.8271431173
 20
34.8792000353
 10
11.8439439933
 20
34.8314260405
 10
11.857206155
 20
34.7838760403
 10
11.8667842995
 20
34.7370710025
 10
11.8725734866
 20
34.6915237329
 10
11.874510289
 20
34.6477332568
  0
LWPOLYLINE
  5
431
100
AcDbEntity
  8
ASSI
100
AcDbPolyline
 62
250
  6
CONTINUOUS
 90
7
 70
0
 10
5.2771536642
 20
43.8437184494
 10
5.2718021592
 20
43.8505450232
 10
5.256444208
 20
43.8666540544
 10
5.238921294
 20
43.8805672243
 10
5.2195044353
 20
43.8920693973
 10
5.1984939187
 20
43.9009827422
 10
5.1762146757
 20
43.9071694588
  0
LWPOLYLINE
  5
432
100
AcDbEntity
  8
ASSI
100
AcDbPolyline
 62
250
  6
CONTINUOUS
 90
16
 70
0
 10
8.3035276436
 20
45.4296993694
 10
8.312631778
 20
45.4127197953
 10
8.3194418328
 20
45.3955632058
 10
8.3239578079
 20
45.3782296008
 10
8.3261905328
 20
45.3606135499
 10
8.3261291781
 20
45.3428204835
 10
8.3237412551
 20
45.3251666932
 10
8.3189648757
 20
45.3076384922
 10
8.311861928
 20
45.2902495673
 10
8.3025855876
 20
45.2733572703
 10
8.2910908181
 20
45.2569905067
 10
8.2774226559
 20
45.241120371
 10
8.2618693856
 20
45.2260174993
 10
8.244527102
 20
45.2117721035
 10
8.2252997104
 20
45.1982939717
 10
8.2041872106
 20
45.1855831039
  0
LWPOLYLINE
  5
433
100
AcDbEntity
  8
ASSI
100
AcDbPolyline
 62
250
  6
CONTINUOUS
 90
4
 70
0
 10
10.50462061
 20
41.7636087718
 10
10.5023545362
 20
41.767986025
 10
10.4977556382
 20
41.7755204409
 10
10.492778715
 20
41.7822216886
  0
LINE
  5
434
100
AcDbEntity
  8
RACCORDO
100
AcDbLine
 62
250
  6
CONTINUOUS
 10
14.8009590097
 20
33.9919308058
 11
15.0423273543
 21
33.5105701238
  0
LWPOLYLINE
  5
435
100
AcDbEntity
  8
RACCORDO
100
AcDbPolyline
 62
7
  6
CONTINUOUS
 90
9
 70
0
 10
15.0755029173
 20
33.535108016
 10
14.8399963296
 20
34.0049250105
 10
14.5991605601
 20
34.4727058919
 10
14.3530785144
 20
34.9382898567
 10
14.1018350281
 20
35.4015165935
 10
13.8455164163
 20
35.8622271192
 10
13.5842104178
 20
36.3202638148
 10
13.3180067411
 20
36.7754694442
 10
13.0469970601
 20
37.2276872259
  0
LINE
  5
436
100
AcDbEntity
  8
ASSI
100
AcDbLine
 62
7
  6
CONTINUOUS
 10
10.5046388149
 20
41.7635713582
 11
10.50462061
 21
41.7636087718
  0
LWPOLYLINE
  5
437
100
AcDbEntity
  8
RACCORDO
100
AcDbPolyline
 62
250
  6
CONTINUOUS
 90
3
 70
0
 10
15.0423273493
 20
33.5105701338
 10
15.0472509426
 20
33.5002356392
 10
15.0516188977
 20
33.4902151451
  0
LWPOLYLINE
  5
438
100
AcDbEntity
  8
ASSI
100
AcDbPolyline
 62
7
  6
CONTINUOUS
 90
6
 70
0
 10
10.5046575306
 20
41.7635329782
 10
10.5101898823
 20
41.751550786
 10
10.5162730292
 20
41.7366014096
 10
10.5215364189
 20
41.7214952309
 10
10.5259733187
 20
41.7062912901
 10
10.5295933459
 20
41.6910063185
  0
LWPOLYLINE
  5
439
100
AcDbEntity
  8
RACCORDO
100
AcDbPolyline
 62
7
  6
CONTINUOUS
 90
10
 70
0
 10
10.8513404759
 20
40.8095888569
 10
10.8535637189
 20
40.8045949028
 10
10.8766527502
 20
40.7459265836
 10
10.8966487791
 20
40.6875649077
 10
10.9134326454
 20
40.6300371096
 10
10.9269630492
 20
40.573747506
 10
10.937242567
 20
40.5190783842
 10
10.9442859454
 20
40.4665495523
 10
10.9481749581
 20
40.4165777318
 10
10.9491148705
 20
40.378493983
  0
LINE
  5
43A
100
AcDbEntity
  8
ASSI
100
AcDbLine
 62
7
  6
CONTINUOUS
 10
10.5048259195
 20
41.763170011
 11
10.5048579875
 21
41.7630962954
  0
LWPOLYLINE
  5
43B
100
AcDbEntity
  8
RACCORDO
100
AcDbPolyline
 62
250
  6
CONTINUOUS
 90
7
 70
0
 10
10.8842694557
 20
40.8278125678
 10
10.9034119315
 20
40.783705907
 10
10.9302899982
 20
40.7128867943
 10
10.9534029542
 20
40.6417154404
 10
10.9727728998
 20
40.5702797688
 10
10.9879347853
 20
40.4999300485
 10
10.9987335942
 20
40.431116369
  0
LWPOLYLINE
  5
43C
100
AcDbEntity
  8
ASSI
100
AcDbPolyline
 62
250
  6
CONTINUOUS
 90
3
 70
0
 10
8.1149032
 20
45.2280155197
 10
8.1218586593
 20
45.2117125506
 10
8.1228383403
 20
45.2073032897
  0
LWPOLYLINE
  5
43D
100
AcDbEntity
  8
RACCORDO
100
AcDbPolyline
 62
250
  6
CONTINUOUS
 90
7
 70
0
 10
15.0516188977
 20
33.4902151451
 10
15.0554596889
 20
33.4805537555
 10
15.0587933694
 20
33.4713181996
 10
15.0616690236
 20
33.4625014367
 10
15.0641502966
 20
33.4540274016
 10
15.0662634459
 20
33.4459140345
 10
15.0680371021
 20
33.4381684371
  0
LWPOLYLINE
  5
43E
100
AcDbEntity
  8
RACCORDO
100
AcDbPolyline
 62
250
  6
CONTINUOUS
 90
4
 70
0
 10
10.4030020042
 20
45.7333514554
 10
10.3945102601
 20
45.7564162647
 10
10.3841022463
 20
45.7792055929
 10
10.3719442377
 20
45.8013553651
  0
LWPOLYLINE
  5
43F
100
AcDbEntity
  8
RACCORDO
100
AcDbPolyline
 62
250
  6
CONTINUOUS
 90
12
 70
0
 10
13.7858471184
 20
43.7585653327
 10
13.7844214064
 20
43.7645281974
 10
13.7827680298
 20
43.7705904966
 10
13.7808856544
 20
43.7767458721
 10
13.778782709
 20
43.7829554929
 10
13.7764521686
 20
43.7892444094
 10
13.7738585895
 20
43.795702208
 10
13.7709852569
 20
43.8023253572
 10
13.767826861
 20
43.8091005648
 10
13.7643452175
 20
43.8161014758
 10
13.7605047026
 20
43.8233443161
 10
13.7563031549
 20
43.8307851004
  0
LWPOLYLINE
  5
440
100
AcDbEntity
  8
RACCORDO
100
AcDbPolyline
 62
250
  6
CONTINUOUS
 90
7
 70
0
 10
15.0680371021
 20
33.4381684371
 10
15.0695183853
 20
33.43069538
 10
15.0707246018
 20
33.4235042065
 10
15.0716741
 20
33.4165980716
 10
15.0723950579
 20
33.4098755887
 10
15.0728978634
 20
33.4033086242
 10
15.0731867215
 20
33.3969386842
  0
LWPOLYLINE
  5
441
100
AcDbEntity
  8
RACCORDO
100
AcDbPolyline
 62
250
  6
CONTINUOUS
 90
11
 70
0
 10
15.9917379451
 20
40.0745752881
 10
15.9890113661
 20
40.0938256883
 10
15.9853176459
 20
40.1115721604
 10
15.9806388769
 20
40.1279571944
 10
15.9749213355
 20
40.1434082609
 10
15.9683013527
 20
40.1580806926
 10
15.9606425977
 20
40.1718191567
 10
15.9514823547
 20
40.1845851258
 10
15.9406663854
 20
40.1963657572
 10
15.9283489281
 20
40.2071738936
 10
15.914529983
 20
40.2170095349
  0
LWPOLYLINE
  5
442
100
AcDbEntity
  8
RACCORDO
100
AcDbPolyline
 62
7
  6
CONTINUOUS
 90
13
 70
0
 10
22.185616878
 20
51.7393898588
 10
22.1825564561
 20
51.8155847855
 10
22.1736010005
 20
51.8884237735
 10
22.1591077551
 20
51.9576445602
 10
22.1395231526
 20
52.0228421614
 10
22.1151987627
 20
52.0840719536
 10
22.0862815353
 20
52.1416445457
 10
22.0531844545
 20
52.1951921728
 10
22.0162606322
 20
52.2445672113
 10
21.9753922219
 20
52.2901284808
 10
21.9307245082
 20
52.3317140572
 10
21.8828132402
 20
52.3688372277
 10
21.8320876475
 20
52.4012640166
  0
LWPOLYLINE
  5
443
100
AcDbEntity
  8
VARIANTE_COLORE
100
AcDbPolyline
 62
7
  6
CONTINUOUS
 90
13
 70
0
 10
22.185616878
 20
51.7393898588
 10
22.1825564561
 20
51.8155847855
 10
22.1736010005
 20
51.8884237735
 10
22.1591077551
 20
51.9576445602
 10
22.1395231526
 20
52.0228421614
 10
22.1151987627
 20
52.0840719536
 10
22.0862815353
 20
52.1416445457
 10
22.0531844545
 20
52.1951921728
 10
22.0162606322
 20
52.2445672113
 10
21.9753922219
 20
52.2901284808
 10
21.9307245082
 20
52.3317140572
 10
21.8828132402
 20
52.3688372277
 10
21.8320876475
 20
52.4012640166
  0
LWPOLYLINE
  5
444
100
AcDbEntity
  8
RACCORDO
100
AcDbPolyline
 62
250
  6
CONTINUOUS
 90
16
 70
0
 10
21.6887021742
 20
51.7411162708
 10
21.687087873
 20
51.7850913313
 10
21.6816176535
 20
51.8308211628
 10
21.6723514485
 20
51.8778047397
 10
21.6593907806
 20
51.9255273
 10
21.6428776496
 20
51.9734659854
 10
21.6229929766
 20
52.0210955697
 10
21.5999546225
 20
52.0678942132
 10
21.5740150001
 20
52.11334918
 10
21.5454583095
 20
52.1569624562
 10
21.5145974238
 20
52.1982562055
 10
21.4817704611
 20
52.2367780049
 10
21.4473370807
 20
52.2721058016
 10
21.4116745419
 20
52.3038525368
 10
21.3751735708
 20
52.3316703866
 10
21.3382340798
 20
52.3552545729
  0
LWPOLYLINE
  5
445
100
AcDbEntity
  8
VARIANTE_COLORE
100
AcDbPolyline
 62
250
  6
CONTINUOUS
 90
16
 70
0
 10
21.6887021742
 20
51.7411162708
 10
21.687087873
 20
51.7850913313
 10
21.6816176535
 20
51.8308211628
 10
21.6723514485
 20
51.8778047397
 10
21.6593907806
 20
51.9255273
 10
21.6428776496
 20
51.9734659854
 10
21.6229929766
 20
52.0210955697
 10
21.5999546225
 20
52.0678942132
 10
21.5740150001
 20
52.11334918
 10
21.5454583095
 20
52.1569624562
 10
21.5145974238
 20
52.1982562055
 10
21.4817704611
 20
52.2367780049
 10
21.4473370807
 20
52.2721058016
 10
21.4116745419
 20
52.3038525368
 10
21.3751735708
 20
52.3316703866
 10
21.3382340798
 20
52.3552545729
  0
LWPOLYLINE
  5
446
100
AcDbEntity
  8
RACCORDO
100
AcDbPolyline
 62
250
  6
CONTINUOUS
 90
22
 70
0
 10
22.0391702686
 20
51.5352525621
 10
22.0381611803
 20
51.5652027712
 10
22.0352501754
 20
51.5935810403
 10
22.0304372536
 20
51.6203873695
 10
22.0236760742
 20
51.6457587694
 10
22.0150129781
 20
51.6695582293
 10
22.0045869879
 20
51.6913747169
 10
21.9923668841
 20
51.7111715246
 10
21.9783838862
 20
51.72898536
 10
21.9628706766
 20
51.7445153128
 10
21.9458011002
 20
51.7577206714
 10
21.9272013121
 20
51.7686421473
 10
21.9073824599
 20
51.7771009657
 10
21.8863258234
 20
51.7830547573
 10
21.8640501229
 20
51.7865458913
 10
21.8409226669
 20
51.7875226999
 10
21.8169289845
 20
51.7859443719
 10
21.7920835466
 20
51.7818517184
 10
21.7667970745
 20
51.775315505
 10
21.7412064753
 20
51.7663593202
 10
21.7151748418
 20
51.7549595755
 10
21.6887021742
 20
51.7411162708
  0
LWPOLYLINE
  5
447
100
AcDbEntity
  8
VARIANTE_COLORE
100
AcDbPolyline
 62
250
  6
CONTINUOUS
 90
22
 70
0
 10
22.0391702686
 20
51.5352525621
 10
22.0381611803
 20
51.5652027712
 10
22.0352501754
 20
51.5935810403
 10
22.0304372536
 20
51.6203873695
 10
22.0236760742
 20
51.6457587694
 10
22.0150129781
 20
51.6695582293
 10
22.0045869879
 20
51.6913747169
 10
21.9923668841
 20
51.7111715246
 10
21.9783838862
 20
51.72898536
 10
21.9628706766
 20
51.7445153128
 10
21.9458011002
 20
51.7577206714
 10
21.9272013121
 20
51.7686421473
 10
21.9073824599
 20
51.7771009657
 10
21.8863258234
 20
51.7830547573
 10
21.8640501229
 20
51.7865458913
 10
21.8409226669
 20
51.7875226999
 10
21.8169289845
 20
51.7859443719
 10
21.7920835466
 20
51.7818517184
 10
21.7667970745
 20
51.775315505
 10
21.7412064753
 20
51.7663593202
 10
21.7151748418
 20
51.7549595755
 10
21.6887021742
 20
51.7411162708
  0
LINE
  5
448
100
AcDbEntity
  8
RACCORDO
100
AcDbLine
 62
250
  6
CONTINUOUS
 10
22.0391702686
 20
51.5352525621
 11
22.0391702686
 21
51.3791179286
  0
LINE
  5
449
100
AcDbEntity
  8
VARIANTE_COLORE
100
AcDbLine
 62
250
  6
CONTINUOUS
 10
22.0391702686
 20
51.5352525621
 11
22.0391702686
 21
51.3791179286
  0
LINE
  5
44A
100
AcDbEntity
  8
RACCORDO
100
AcDbLine
 62
7
  6
CONTINUOUS
 10
22.185616878
 20
51.3952818982
 11
22.185616878
 21
51.7393898587
  0
LINE
  5
44B
100
AcDbEntity
  8
VARIANTE_COLORE
100
AcDbLine
 62
7
  6
CONTINUOUS
 10
22.185616878
 20
51.3952818982
 11
22.185616878
 21
51.7393898587
  0
LWPOLYLINE
  5
44C
100
AcDbEntity
  8
RACCORDO
100
AcDbPolyline
 62
250
  6
CONTINUOUS
 90
8
 70
0
 10
15.0615665234
 20
4.5593440478
 10
15.0595453972
 20
4.5554028061
 10
15.0574095254
 20
4.5516918651
 10
15.0551687614
 20
4.548207329
 10
15.0528324188
 20
4.5449441248
 10
15.0503789458
 20
4.5418603296
 10
15.0478020603
 20
4.5389450951
 10
15.0451165082
 20
4.5362119548
  0
LWPOLYLINE
  5
44D
100
AcDbEntity
  8
RACCORDO
100
AcDbPolyline
 62
7
  6
CONTINUOUS
 90
9
 70
0
 10
15.0516025225
 20
4.5404474349
 10
15.0630736426
 20
4.5517065889
 10
15.0727702996
 20
4.5637097095
 10
15.0812287689
 20
4.5769599129
 10
15.0883330826
 20
4.5913693816
 10
15.0940135186
 20
4.606956388
 10
15.0981566588
 20
4.6236969474
 10
15.1006274077
 20
4.6414568216
 10
15.1013363814
 20
4.6578082954
  0
LINE
  5
44E
100
AcDbEntity
  8
RACCORDO
100
AcDbLine
 62
250
  6
CONTINUOUS
 10
15.0451165082
 20
4.5362119548
 11
15.0423273493
 21
4.5336614074
  0
LINE
  5
44F
100
AcDbEntity
  8
RACCORDO
100
AcDbLine
 62
7
  6
CONTINUOUS
 10
15.0513875264
 20
4.5402601402
 11
15.0516025225
 21
4.5404474349
  0
LINE
  5
450
100
AcDbEntity
  8
RACCORDO
100
AcDbLine
 62
250
  6
CONTINUOUS
 10
15.0997715188
 20
4.4914163733
 11
15.0898783381
 21
4.4830819181
  0
LWPOLYLINE
  5
451
100
AcDbEntity
  8
RACCORDO
100
AcDbPolyline
 62
250
  6
CONTINUOUS
 90
6
 70
0
 10
15.0423273214
 20
4.5336613832
 10
14.8206509246
 20
4.3470660822
 10
14.589545708
 20
4.1641124621
 10
14.34879005
 20
3.9853166529
 10
14.0966588164
 20
3.8101962791
 10
13.8343879455
 20
3.6404091982
  0
LINE
  5
452
100
AcDbEntity
  8
RACCORDO
100
AcDbLine
 62
7
  6
CONTINUOUS
 10
11.6364763379
 20
2.3944771735
 11
11.7246621567
 21
2.465159449
  0
LINE
  5
453
100
AcDbEntity
  8
RACCORDO
100
AcDbLine
 62
250
  6
CONTINUOUS
 10
15.0423273493
 20
4.5336614074
 11
15.0513875264
 21
4.5402601402
  0
LWPOLYLINE
  5
454
100
AcDbEntity
  8
RACCORDO
100
AcDbPolyline
 62
7
  6
CONTINUOUS
 90
6
 70
0
 10
11.1850811774
 20
2.0579063928
 10
11.276755685
 20
2.122975136
 10
11.3677324548
 20
2.1891665857
 10
11.4580114869
 20
2.2564807418
 10
11.5475927813
 20
2.3249176044
 10
11.6364763379
 20
2.3944771735
  0
LWPOLYLINE
  5
455
100
AcDbEntity
  8
RACCORDO
100
AcDbPolyline
 62
250
  6
CONTINUOUS
 90
7
 70
0
 10
15.0732703735
 20
4.6177279705
 10
15.0816354811
 20
4.6234248824
 10
15.088656969
 20
4.6296975961
 10
15.0942173488
 20
4.6364411522
 10
15.0982235804
 20
4.643542713
 10
15.1006086288
 20
4.6508834502
 10
15.1013363814
 20
4.6578082954
  0
LINE
  5
456
100
AcDbEntity
  8
RACCORDO
100
AcDbLine
 62
250
  6
CONTINUOUS
 10
15.0898783381
 20
4.4830819181
 11
15.0862151051
 21
4.4806933103
  0
LWPOLYLINE
  5
457
100
AcDbEntity
  8
RACCORDO
100
AcDbPolyline
 62
7
  6
CONTINUOUS
 90
16
 70
0
 10
33.0182913333
 20
15.983666713
 10
33.1173311392
 20
16.0472282618
 10
33.228421985
 20
16.1299749264
 10
33.3345859155
 20
16.2222328246
 10
33.4351482488
 20
16.3239048153
 10
33.5293898472
 20
16.4347783207
 10
33.6166380254
 20
16.5545316084
 10
33.6963602192
 20
16.6828798945
 10
33.7680611692
 20
16.8195309187
 10
33.8312851209
 20
16.9642104827
 10
33.8856370305
 20
17.1166527724
 10
33.9307819113
 20
17.2766401836
 10
33.9664076344
 20
17.4441449718
 10
33.9921477323
 20
17.619104711
 10
34.0076425183
 20
17.8012130991
 10
34.0125434598
 20
17.9802105858
  0
LWPOLYLINE
  5
458
100
AcDbEntity
  8
VARIANTE_COLORE
100
AcDbPolyline
 62
7
  6
CONTINUOUS
 90
16
 70
0
 10
33.0182913333
 20
15.983666713
 10
33.1173311392
 20
16.0472282618
 10
33.228421985
 20
16.1299749264
 10
33.3345859155
 20
16.2222328246
 10
33.4351482488
 20
16.3239048153
 10
33.5293898472
 20
16.4347783207
 10
33.6166380254
 20
16.5545316084
 10
33.6963602192
 20
16.6828798945
 10
33.7680611692
 20
16.8195309187
 10
33.8312851209
 20
16.9642104827
 10
33.8856370305
 20
17.1166527724
 10
33.9307819113
 20
17.2766401836
 10
33.9664076344
 20
17.4441449718
 10
33.9921477323
 20
17.619104711
 10
34.0076425183
 20
17.8012130991
 10
34.0125434598
 20
17.9802105858
  0
LWPOLYLINE
  5
459
100
AcDbEntity
  8
RACCORDO
100
AcDbPolyline
 62
7
  6
CONTINUOUS
 90
10
 70
0
 10
13.7288553804
 20
3.5754831388
 10
13.8830010542
 20
3.6709472215
 10
14.0353900473
 20
3.7693727883
 10
14.1860033245
 20
3.8707480021
 10
14.3348208297
 20
3.9750597641
 10
14.4818252578
 20
4.0822963399
 10
14.6270019152
 20
4.1924476159
 10
14.7703337618
 20
4.3055014845
 10
14.9118015559
 20
4.4214435913
 10
15.0513875264
 20
4.5402601402
  0
LINE
  5
45A
100
AcDbEntity
  8
RACCORDO
100
AcDbLine
 62
7
  6
CONTINUOUS
 10
14.6761562195
 20
4.2312183733
 11
15.0862151051
 21
4.4806933103
  0
LINE
  5
45B
100
AcDbEntity
  8
ASSI
100
AcDbLine
 62
7
  6
CONTINUOUS
 10
13.7288553804
 20
3.5754831388
 11
10.972949143
 21
1.9047139166
  0
LINE
  5
45C
100
AcDbEntity
  8
RACCORDO
100
AcDbLine
 62
250
  6
CONTINUOUS
 10
10.972949143
 20
2.1366856035
 11
15.0732703735
 21
4.6177279889
  0
LINE
  5
45D
100
AcDbEntity
  8
RACCORDO
100
AcDbLine
 62
250
  6
CONTINUOUS
 10
10.972949143
 20
2.0713714906
 11
15.0423273214
 21
4.5336613832
  0
LINE
  5
45E
100
AcDbEntity
  8
RACCORDO
100
AcDbLine
 62
250
  6
CONTINUOUS
 10
15.144879152
 20
6.4693824159
 11
33.72579867
 21
17.5755521764
  0
LINE
  5
45F
100
AcDbEntity
  8
VARIANTE_COLORE
100
AcDbLine
 62
250
  6
CONTINUOUS
 10
15.144879152
 20
6.4693824159
 11
33.72579867
 21
17.5755521764
  0
LINE
  5
460
100
AcDbEntity
  8
RACCORDO
100
AcDbLine
 62
7
  6
CONTINUOUS
 10
15.1013363935
 20
5.2743600203
 11
33.0187836717
 21
15.9839597769
  0
LINE
  5
461
100
AcDbEntity
  8
VARIANTE_COLORE
100
AcDbLine
 62
7
  6
CONTINUOUS
 10
15.1013363935
 20
5.2743600203
 11
33.0183534534
 21
15.9837027527
  0
LINE
  5
462
100
AcDbEntity
  8
VARIANTE_COLORE
100
AcDbLine
 62
250
  6
CONTINUOUS
 10
33.0187836774
 20
15.9839597803
 11
33.0183534534
 21
15.9837027527
  0
LWPOLYLINE
  5
463
100
AcDbEntity
  8
RACCORDO
100
AcDbPolyline
 62
7
  6
CONTINUOUS
 90
9
 70
0
 10
11.6826306838
 20
2.4590655125
 10
11.6988680613
 20
2.4685963549
 10
11.7132827125
 20
2.4767263784
 10
11.7256443647
 20
2.4833226211
 10
11.7357695022
 20
2.4882549539
 10
11.7434887588
 20
2.4914497375
 10
11.7486532274
 20
2.4928934659
 10
11.7511985188
 20
2.4925361376
 10
11.7513389741
 20
2.492349953
  0
LINE
  5
464
100
AcDbEntity
  8
RACCORDO
100
AcDbLine
 62
250
  6
CONTINUOUS
 10
15.1554683086
 20
4.7515558494
 11
15.1013363935
 21
4.7202961684
  0
LINE
  5
465
100
AcDbEntity
  8
SUPERFICI
100
AcDbLine
 62
7
  6
CONTINUOUS
 10
10.972949143
 20
1.3996762277
 11
10.9805072065
 21
1.403826271
  0
LWPOLYLINE
  5
466
100
AcDbEntity
  8
RACCORDO
100
AcDbPolyline
 62
250
  6
CONTINUOUS
 90
10
 70
0
 10
15.8552730654
 20
40.2164756344
 10
15.8421418061
 20
40.2143623209
 10
15.8292528899
 20
40.2120575488
 10
15.8166268643
 20
40.2095522085
 10
15.8042753563
 20
40.2067750536
 10
15.7922239596
 20
40.2037831424
 10
15.7805053676
 20
40.2007635127
 10
15.7691331648
 20
40.1977774809
 10
15.758108711
 20
40.1947587299
 10
15.7474392572
 20
40.1917051841
  0
LWPOLYLINE
  5
467
100
AcDbEntity
  8
RACCORDO
100
AcDbPolyline
 62
250
  6
CONTINUOUS
 90
7
 70
0
 10
11.6209617305
 20
35.2700139274
 10
11.6070487654
 20
35.2760698858
 10
11.5916675763
 20
35.2790558963
 10
11.5750765087
 20
35.2789236566
 10
11.5575594405
 20
35.2756754291
 10
11.5394160934
 20
35.269366792
 10
11.5209569052
 20
35.2601056879
  0
LINE
  5
468
100
AcDbEntity
  8
SUPERFICI
100
AcDbLine
 62
250
  6
CONTINUOUS
 10
7.8711651875
 20
36.3165888828
 11
-6.9970489808
 21
44.9013094011
  0
LINE
  5
469
100
AcDbEntity
  8
SUPERFICI
100
AcDbLine
 62
250
  6
CONTINUOUS
 10
8.2154636293
 20
36.9234777344
 11
-6.6527505391
 21
45.5081982527
  0
LINE
  5
46A
100
AcDbEntity
  8
RACCORDO
100
AcDbLine
 62
250
  6
CONTINUOUS
 10
10.972949143
 20
35.5765185017
 11
11.5209568984
 21
35.2601056918
  0
LINE
  5
46B
100
AcDbEntity
  8
RACCORDO
100
AcDbLine
 62
7
  6
CONTINUOUS
 10
10.972949143
 20
35.6441682739
 11
11.6209617305
 21
35.2700139274
  0
LINE
  5
46C
100
AcDbEntity
  8
SUPERFICI
100
AcDbLine
 62
7
  6
CONTINUOUS
 10
0.1402590485
 20
43.5495621021
 11
4.7364531262
 21
40.8957772455
  0
LINE
  5
46D
100
AcDbEntity
  8
SUPERFICI
100
AcDbLine
 62
7
  6
CONTINUOUS
 10
0.6422319859
 20
43.387200481
 11
4.8728460397
 21
40.9444969484
  0
LWPOLYLINE
  5
46E
100
AcDbEntity
  8
RACCORDO
100
AcDbPolyline
 62
250
  6
CONTINUOUS
 90
4
 70
0
 10
11.5209568984
 20
35.2601056918
 10
11.5579132912
 20
35.236531179
 10
11.594464782
 20
35.2087422438
 10
11.6302109051
 20
35.1770433476
  0
LWPOLYLINE
  5
46F
100
AcDbEntity
  8
ASSI
100
AcDbPolyline
 62
250
  6
CONTINUOUS
 90
3
 70
0
 10
5.2370828684
 20
43.8035309681
 10
5.2580422073
 20
43.7850777653
 10
5.2822419304
 20
43.7670781432
  0
LWPOLYLINE
  5
470
100
AcDbEntity
  8
ASSI
100
AcDbPolyline
 62
250
  6
CONTINUOUS
 90
7
 70
0
 10
10.492778715
 20
41.7822216886
 10
10.4875075617
 20
41.7881592141
 10
10.4820540126
 20
41.7933291044
 10
10.4765497964
 20
41.7976562771
 10
10.471080121
 20
41.8011487923
 10
10.4656918789
 20
41.8038928637
 10
10.4604406881
 20
41.8059363416
  0
LWPOLYLINE
  5
471
100
AcDbEntity
  8
RACCORDO
100
AcDbPolyline
 62
250
  6
CONTINUOUS
 90
3
 70
0
 10
10.3719442377
 20
45.8013553651
 10
10.3582333643
 20
45.8225075954
 10
10.3431863053
 20
45.8423290254
  0
LWPOLYLINE
  5
472
100
AcDbEntity
  8
ASSI
100
AcDbPolyline
 62
250
  6
CONTINUOUS
 90
13
 70
0
 10
14.1709253782
 20
38.8362488533
 10
14.1262944791
 20
38.9067969364
 10
14.0794323692
 20
38.9753236228
 10
14.0305042347
 20
39.0415818953
 10
13.9796799814
 20
39.1053314249
 10
13.9271417371
 20
39.1663438401
 10
13.8730831973
 20
39.2244035319
 10
13.8176966415
 20
39.2793002181
 10
13.7611767911
 20
39.3308368765
 10
13.7037280205
 20
39.378834199
 10
13.645555055
 20
39.4231204809
 10
13.586862443
 20
39.463532905
 10
13.5278582098
 20
39.4999248275
  0
LWPOLYLINE
  5
473
100
AcDbEntity
  8
RACCORDO
100
AcDbPolyline
 62
250
  6
CONTINUOUS
 90
9
 70
0
 10
12.7346825006
 20
37.658363111
 10
12.9946945973
 20
37.235176603
 10
13.2557007585
 20
36.8004840992
 10
13.5173549253
 20
36.3542537416
 10
13.7808439691
 20
35.8937307962
 10
14.044185882
 20
35.421619206
 10
14.302535381
 20
34.9462415101
 10
14.5543249317
 20
34.4705425925
 10
14.8009590097
 20
33.9919308058
  0
LINE
  5
474
100
AcDbEntity
  8
RACCORDO
100
AcDbLine
 62
7
  6
CONTINUOUS
 10
13.0469970601
 20
37.2276872259
 11
12.8343850498
 21
37.5749228864
  0
LWPOLYLINE
  5
475
100
AcDbEntity
  8
ASSI
100
AcDbPolyline
 62
250
  6
CONTINUOUS
 90
4
 70
0
 10
8.1149033089
 20
45.2278109416
 10
8.1205197497
 20
45.2185856653
 10
8.1243268316
 20
45.2090839865
 10
8.1244536353
 20
45.2084609126
  0
LWPOLYLINE
  5
476
100
AcDbEntity
  8
RACCORDO
100
AcDbPolyline
 62
250
  6
CONTINUOUS
 90
16
 70
0
 10
15.0787174957
 20
39.0808617167
 10
15.0898782643
 20
39.0622447889
 10
15.0997713909
 20
39.0430327145
 10
15.1082803399
 20
39.0234518005
 10
15.1153048799
 20
39.0037327018
 10
15.1207622672
 20
38.9841076948
 10
15.1245882182
 20
38.9648079414
 10
15.1267376624
 20
38.9460607909
 10
15.12718528
 20
38.9280870661
 10
15.1259257918
 20
38.9110984581
 10
15.1229740165
 20
38.8952950694
 10
15.1183647133
 20
38.8808630925
 10
15.1121521848
 20
38.8679725722
 10
15.1044096204
 20
38.856775362
 10
15.0952282208
 20
38.847403348
 10
15.0859956605
 20
38.8407246983
  0
LWPOLYLINE
  5
477
100
AcDbEntity
  8
RACCORDO
100
AcDbPolyline
 62
7
  6
CONTINUOUS
 90
3
 70
0
 10
10.4309124061
 20
45.8273642444
 10
10.4240773665
 20
45.8393161128
 10
10.4132001389
 20
45.8545347116
  0
LINE
  5
478
100
AcDbEntity
  8
RACCORDO
100
AcDbLine
 62
250
  6
CONTINUOUS
 10
10.7212338665
 20
45.1491705253
 11
10.4458374534
 21
45.6809454693
  0
LINE
  5
479
100
AcDbEntity
  8
RACCORDO
100
AcDbLine
 62
7
  6
CONTINUOUS
 10
10.7394186521
 20
45.231656088
 11
10.4309112925
 21
45.8273664024
  0
LINE
  5
47A
100
AcDbEntity
  8
RACCORDO
100
AcDbLine
 62
250
  6
CONTINUOUS
 10
14.0966320106
 20
43.2913479678
 11
14.0947066496
 21
43.2953292693
  0
LINE
  5
47B
100
AcDbEntity
  8
RACCORDO
100
AcDbLine
 62
250
  6
CONTINUOUS
 10
10.7412828358
 20
45.2276605815
 11
10.7394186521
 21
45.231656088
  0
LWPOLYLINE
  5
47C
100
AcDbEntity
  8
RACCORDO
100
AcDbPolyline
 62
7
  6
CONTINUOUS
 90
10
 70
0
 10
11.7709689785
 20
-0.6893570759
 10
11.8008170251
 20
-0.6696626431
 10
11.8287738511
 20
-0.6459571956
 10
11.8543132329
 20
-0.6183308446
 10
11.8768866023
 20
-0.5870321339
 10
11.8961079695
 20
-0.5522472478
 10
11.9117216794
 20
-0.5139110238
 10
11.9233634986
 20
-0.472037619
 10
11.9306028384
 20
-0.4269286514
 10
11.9330889328
 20
-0.3788337267
  0
LINE
  5
47D
100
AcDbEntity
  8
RACCORDO
100
AcDbLine
 62
250
  6
CONTINUOUS
 10
11.874510289
 20
-0.4604886453
 11
10.972949143
 21
-0.9810387518
  0
LINE
  5
47E
100
AcDbEntity
  8
RACCORDO
100
AcDbLine
 62
7
  6
CONTINUOUS
 10
11.7709689785
 20
-0.6893570759
 11
10.972949143
 21
-1.1501237274
  0
LINE
  5
47F
100
AcDbEntity
  8
SUPERFICI
100
AcDbLine
 62
7
  6
CONTINUOUS
 10
11.3674582683
 20
1.1804055776
 11
10.972949143
 21
0.9605721754
  0
LWPOLYLINE
  5
480
100
AcDbEntity
  8
RACCORDO
100
AcDbPolyline
 62
250
  6
CONTINUOUS
 90
10
 70
0
 10
15.6544053264
 20
41.691986334
 10
15.7622262044
 20
41.7039449546
 10
16.059256184
 20
41.74804567
 10
16.3519837468
 20
41.8027123062
 10
16.6371929745
 20
41.8673732001
 10
16.9149586795
 20
41.9422075057
 10
17.1852060493
 20
42.027036069
 10
17.4444947287
 20
42.1207497649
 10
17.6916779324
 20
42.2229788849
 10
17.9279024456
 20
42.3340931375
  0
LWPOLYLINE
  5
481
100
AcDbEntity
  8
VARIANTE_COLORE
100
AcDbPolyline
 62
250
  6
CONTINUOUS
 90
10
 70
0
 10
15.6544053264
 20
41.691986334
 10
15.7622262044
 20
41.7039449546
 10
16.059256184
 20
41.74804567
 10
16.3519837468
 20
41.8027123062
 10
16.6371929745
 20
41.8673732001
 10
16.9149586795
 20
41.9422075057
 10
17.1852060493
 20
42.027036069
 10
17.4444947287
 20
42.1207497649
 10
17.6916779324
 20
42.2229788849
 10
17.9279024456
 20
42.3340931375
  0
LWPOLYLINE
  5
482
100
AcDbEntity
  8
ASSI
100
AcDbPolyline
 62
250
  6
CONTINUOUS
 90
9
 70
0
 10
9.9218456869
 20
42.3939050568
 10
9.9564449442
 20
42.3967354068
 10
9.9910438695
 20
42.401263266
 10
10.0255688939
 20
42.4073880975
 10
10.0595566066
 20
42.4149143928
 10
10.0933297316
 20
42.4238014581
 10
10.1280358318
 20
42.4343437498
 10
10.1637736296
 20
42.4466572548
 10
10.2003877297
 20
42.4607597337
  0
LWPOLYLINE
  5
483
100
AcDbEntity
  8
ASSI
100
AcDbPolyline
 62
250
  6
CONTINUOUS
 90
16
 70
0
 10
8.3973675266
 20
41.8473837749
 10
8.3902168833
 20
41.8469724446
 10
8.3832138453
 20
41.8462791025
 10
8.3763584125
 20
41.8453037486
 10
8.3696423331
 20
41.8440187449
 10
8.3630738588
 20
41.8424517294
 10
8.3566777453
 20
41.8406856164
 10
8.350456204
 20
41.8387234415
 10
8.3444070233
 20
41.836562169
 10
8.338548324
 20
41.8342756066
 10
8.3328818439
 20
41.8318663639
 10
8.3274058451
 20
41.8293318314
 10
8.3221332353
 20
41.8267379872
 10
8.3170683168
 20
41.8241068242
 10
8.3122067873
 20
41.8214163495
 10
8.3075486466
 20
41.8186665632
  0
LWPOLYLINE
  5
484
100
AcDbEntity
  8
ASSI
100
AcDbPolyline
 62
250
  6
CONTINUOUS
 90
16
 70
0
 10
8.3138048833
 20
42.0955641947
 10
8.3020271063
 20
42.0949034761
 10
8.2904277237
 20
42.0936841405
 10
8.2790347985
 20
42.0919559635
 10
8.2678795124
 20
42.0897675198
 10
8.2569792363
 20
42.0871667725
 10
8.2463372786
 20
42.0841992637
 10
8.2359691585
 20
42.0809075181
 10
8.2258935904
 20
42.0773339114
 10
8.216115216
 20
42.0735195863
 10
8.2066443628
 20
42.0695020674
 10
8.1974937643
 20
42.065318677
 10
8.1886691238
 20
42.0610074729
 10
8.1801770513
 20
42.0566030134
 10
8.1720251712
 20
42.0521362568
 10
8.1642187555
 20
42.0476375046
  0
LINE
  5
485
100
AcDbEntity
  8
ASSI
100
AcDbLine
 62
250
  6
CONTINUOUS
 10
10.1153018489
 20
41.8902290603
 11
8.3973675266
 21
41.8473837749
  0
LWPOLYLINE
  5
486
100
AcDbEntity
  8
ASSI
100
AcDbPolyline
 62
7
  6
CONTINUOUS
 90
10
 70
0
 10
10.0151570317
 20
40.2924667654
 10
9.9956332977
 20
40.29275394
 10
9.9766013025
 20
40.2920804227
 10
9.9580610462
 20
40.2904462134
 10
9.9398763874
 20
40.2878163142
 10
9.9221834675
 20
40.2842257231
 10
9.9053907106
 20
40.2797794339
 10
9.8896342579
 20
40.2745124446
 10
9.8747779682
 20
40.2683897572
 10
9.8608218415
 20
40.2614113717
  0
LWPOLYLINE
  5
487
100
AcDbEntity
  8
RACCORDO
100
AcDbPolyline
 62
7
  6
CONTINUOUS
 90
9
 70
0
 10
13.205256008
 20
40.57151911
 10
13.2391207252
 20
40.5690700004
 10
13.2715958768
 20
40.5647842984
 10
13.3025112136
 20
40.5587306057
 10
13.3317097456
 20
40.5509836524
 10
13.3590969873
 20
40.5417069363
 10
13.3846090737
 20
40.5310657245
 10
13.4081214792
 20
40.5191621018
 10
13.4127127742
 20
40.5165606662
  0
LWPOLYLINE
  5
488
100
AcDbEntity
  8
RACCORDO
100
AcDbPolyline
 62
250
  6
CONTINUOUS
 90
4
 70
0
 10
15.1519973816
 20
39.117504773
 10
15.1504001326
 20
39.1176657462
 10
15.1468769004
 20
39.1168123887
 10
15.1417055277
 20
39.1146269321
  0
LWPOLYLINE
  5
489
100
AcDbEntity
  8
RACCORDO
100
AcDbPolyline
 62
250
  6
CONTINUOUS
 90
10
 70
0
 10
15.914529983
 20
40.2170095349
 10
15.9085076791
 20
40.2177091528
 10
15.9023261823
 20
40.2182302125
 10
15.8959939221
 20
40.2185667544
 10
15.8895186109
 20
40.2187120664
 10
15.8829084373
 20
40.2186624872
 10
15.8761719107
 20
40.2184174428
 10
15.8693163366
 20
40.2179742584
 10
15.8623479611
 20
40.2173280611
 10
15.8552730654
 20
40.2164756344
  0
LWPOLYLINE
  5
48A
100
AcDbEntity
  8
ASSI
100
AcDbPolyline
 62
250
  6
CONTINUOUS
 90
13
 70
0
 10
7.8997682265
 20
40.8634747143
 10
7.8823585635
 20
40.8656578311
 10
7.8628716313
 20
40.8688883841
 10
7.8416288979
 20
40.8731130808
 10
7.8189807962
 20
40.8782622288
 10
7.7953009441
 20
40.8842508847
 10
7.7709799814
 20
40.8909802559
 10
7.7464191232
 20
40.8983393304
 10
7.7220235434
 20
40.9062067082
 10
7.6981956912
 20
40.9144526028
 10
7.6753286491
 20
40.9229409839
 10
7.6537996485
 20
40.9315318213
 10
7.6339638483
 20
40.9400833941
  0
LINE
  5
48B
100
AcDbEntity
  8
SUPERFICI
100
AcDbLine
 62
7
  6
CONTINUOUS
 10
0.6422319859
 20
43.387200481
 11
0.1402590485
 21
43.5495621021
  0
LWPOLYLINE
  5
48C
100
AcDbEntity
  8
ASSI
100
AcDbPolyline
 62
250
  6
CONTINUOUS
 90
8
 70
0
 10
9.3776895928
 20
39.7840206777
 10
9.366405011
 20
39.7882716778
 10
9.3542169745
 20
39.7905964582
 10
9.3412560721
 20
39.7909700974
 10
9.3276611907
 20
39.7893885856
 10
9.313577999
 20
39.7858688692
 10
9.2991573829
 20
39.7804486585
 10
9.284553851
 20
39.7731860269
  0
LWPOLYLINE
  5
48D
100
AcDbEntity
  8
ASSI
100
AcDbPolyline
 62
250
  6
CONTINUOUS
 90
8
 70
0
 10
0.2013468106
 20
45.0823259935
 10
0.1900622288
 20
45.0865769936
 10
0.1778741923
 20
45.0889017741
 10
0.1649132899
 20
45.0892754133
 10
0.1513184085
 20
45.0876939015
 10
0.1372352167
 20
45.0841741851
 10
0.1228146007
 20
45.0787539744
 10
0.1082110688
 20
45.0714913428
  0
LWPOLYLINE
  5
48E
100
AcDbEntity
  8
RACCORDO
100
AcDbPolyline
 62
250
  6
CONTINUOUS
 90
8
 70
0
 10
10.8770927031
 20
39.8209033041
 10
10.8675826464
 20
39.8253335756
 10
10.8582991701
 20
39.8283344822
 10
10.8494006027
 20
39.8298545656
 10
10.8410387068
 20
39.8298676179
 10
10.8333562464
 20
39.8283732327
 10
10.8264845439
 20
39.8253968287
 10
10.8244256548
 20
39.8241044132
  0
LWPOLYLINE
  5
48F
100
AcDbEntity
  8
ASSI
100
AcDbPolyline
 62
250
  6
CONTINUOUS
 90
7
 70
0
 10
7.4673875221
 20
42.5499332791
 10
7.4601865304
 20
42.5535311758
 10
7.447368104
 20
42.5575808346
 10
7.4334992239
 20
42.5592553784
 10
7.4187620259
 20
42.5585328078
 10
7.4033500557
 20
42.5554226046
 10
7.3874657199
 20
42.5499656082
  0
LWPOLYLINE
  5
490
100
AcDbEntity
  8
ASSI
100
AcDbPolyline
 62
250
  6
CONTINUOUS
 90
7
 70
0
 10
5.3896075487
 20
43.7496173936
 10
5.3824175988
 20
43.7532089
 10
5.3695991401
 20
43.7572585496
 10
5.355730231
 20
43.7589330887
 10
5.3409930126
 20
43.7582105255
 10
5.3255810293
 20
43.7551003495
 10
5.3096966876
 20
43.7496434069
  0
LWPOLYLINE
  5
491
100
AcDbEntity
  8
ASSI
100
AcDbPolyline
 62
250
  6
CONTINUOUS
 90
9
 70
0
 10
10.9092944058
 20
38.8999056864
 10
10.9048933121
 20
38.9022323765
 10
10.8936087066
 20
38.9064833537
 10
10.8814206748
 20
38.9088081043
 10
10.8684597989
 20
38.9091817194
 10
10.8548649503
 20
38.9076001943
 10
10.8407817905
 20
38.9040804742
 10
10.8263612102
 20
38.89866027
 10
10.8117577167
 20
38.8913976552
  0
LINE
  5
492
100
AcDbEntity
  8
ASSI
100
AcDbLine
 62
250
  6
CONTINUOUS
 10
9.38209054
 20
39.7816940581
 11
9.3776895928
 21
39.7840206777
  0
LINE
  5
493
100
AcDbEntity
  8
ASSI
100
AcDbLine
 62
250
  6
CONTINUOUS
 10
0.2057477578
 20
45.079999374
 11
0.2013468106
 21
45.0823259935
  0
LWPOLYLINE
  5
494
100
AcDbEntity
  8
ASSI
100
AcDbPolyline
 62
250
  6
CONTINUOUS
 90
7
 70
0
 10
9.284553851
 20
39.7731860269
 10
9.2702220594
 20
39.7808649554
 10
9.2559599463
 20
39.7867277906
 10
9.2419230779
 20
39.7906890126
 10
9.2282498245
 20
39.7926837683
 10
9.2151148399
 20
39.7926598292
 10
9.2027184203
 20
39.7906056158
  0
LWPOLYLINE
  5
495
100
AcDbEntity
  8
ASSI
100
AcDbPolyline
 62
250
  6
CONTINUOUS
 90
7
 70
0
 10
0.1082110688
 20
45.0714913428
 10
0.0938792772
 20
45.0791702712
 10
0.0796171641
 20
45.0850331065
 10
0.0655802957
 20
45.0889943285
 10
0.0519070423
 20
45.0909890842
 10
0.0387720577
 20
45.090965145
 10
0.0263756381
 20
45.0889109317
  0
LWPOLYLINE
  5
496
100
AcDbEntity
  8
ASSI
100
AcDbPolyline
 62
250
  6
CONTINUOUS
 90
4
 70
0
 10
7.3874653459
 20
42.5499658241
 10
7.4154593222
 20
42.5348650653
 10
7.4460404128
 20
42.5208387111
 10
7.4791951494
 20
42.507782384
  0
LWPOLYLINE
  5
497
100
AcDbEntity
  8
RACCORDO
100
AcDbPolyline
 62
7
  6
CONTINUOUS
 90
10
 70
0
 10
12.7346825006
 20
37.658363111
 10
12.7500946279
 20
37.6494812993
 10
12.7645107214
 20
37.6405055747
 10
12.7778804808
 20
37.6314130301
 10
12.7901777975
 20
37.6221492855
 10
12.8013711726
 20
37.6127488726
 10
12.8114048505
 20
37.6033228878
 10
12.8202516828
 20
37.5938803763
 10
12.8279129229
 20
37.5844088238
 10
12.8343849609
 20
37.5749230303
  0
LINE
  5
498
100
AcDbEntity
  8
SUPERFICI
100
AcDbLine
 62
7
  6
CONTINUOUS
 10
10.6195169063
 20
38.3115411208
 11
5.6058957578
 21
41.2063431365
  0
LINE
  5
499
100
AcDbEntity
  8
SUPERFICI
100
AcDbLine
 62
7
  6
CONTINUOUS
 10
0.6422319859
 20
44.0723003891
 11
-4.3713891627
 21
46.9671024049
  0
LINE
  5
49A
100
AcDbEntity
  8
ASSI
100
AcDbLine
 62
250
  6
CONTINUOUS
 10
3.6478431931
 20
43.0185420072
 11
7.528154059
 21
40.7780991449
  0
LINE
  5
49B
100
AcDbEntity
  8
ASSI
100
AcDbLine
 62
250
  6
CONTINUOUS
 10
10.8117577167
 20
38.8913976552
 11
9.284553851
 21
39.7731860269
  0
LINE
  5
49C
100
AcDbEntity
  8
ASSI
100
AcDbLine
 62
250
  6
CONTINUOUS
 10
1.6354149345
 20
44.1897029711
 11
0.1082110688
 21
45.0714913428
  0
LINE
  5
49D
100
AcDbEntity
  8
ASSI
100
AcDbLine
 62
7
  6
CONTINUOUS
 10
10.9092944058
 20
38.8999056864
 11
9.38209054
 21
39.7816940581
  0
LINE
  5
49E
100
AcDbEntity
  8
ASSI
100
AcDbLine
 62
7
  6
CONTINUOUS
 10
1.7329516236
 20
44.1982110023
 11
0.2057477578
 21
45.079999374
  0
LINE
  5
49F
100
AcDbEntity
  8
ASSI
100
AcDbLine
 62
250
  6
CONTINUOUS
 10
3.786982378
 20
43.1612822811
 11
7.6339638483
 21
40.9400833941
  0
LINE
  5
4A0
100
AcDbEntity
  8
RACCORDO
100
AcDbLine
 62
250
  6
CONTINUOUS
 10
10.3951316837
 20
39.8973505621
 11
9.8116817946
 21
40.2342160562
  0
LINE
  5
4A1
100
AcDbEntity
  8
VARIANTE_COLORE
100
AcDbLine
 62
250
  6
CONTINUOUS
 10
10.3951316837
 20
39.8973505621
 11
9.8116817946
 21
40.2342160562
  0
LINE
  5
4A2
100
AcDbEntity
  8
RACCORDO
100
AcDbLine
 62
250
  6
CONTINUOUS
 10
9.9932768722
 20
40.2926705492
 11
10.2537103275
 21
40.1422995361
  0
LINE
  5
4A3
100
AcDbEntity
  8
VARIANTE_COLORE
100
AcDbLine
 62
250
  6
CONTINUOUS
 10
9.9932768722
 20
40.2926705492
 11
10.2537103275
 21
40.1422995361
  0
LINE
  5
4A4
100
AcDbEntity
  8
RACCORDO
100
AcDbLine
 62
250
  6
CONTINUOUS
 10
11.3938091636
 20
39.5225576109
 11
10.8770926357
 21
39.8209032581
  0
LINE
  5
4A5
100
AcDbEntity
  8
RACCORDO
100
AcDbLine
 62
250
  6
CONTINUOUS
 10
11.0077070318
 20
39.9044047065
 11
11.523929626
 21
39.6063442504
  0
LINE
  5
4A6
100
AcDbEntity
  8
ASSI
100
AcDbLine
 62
250
  6
CONTINUOUS
 10
4.1687946486
 20
43.9711527969
 11
7.9053488424
 21
41.8137132354
  0
LINE
  5
4A7
100
AcDbEntity
  8
ASSI
100
AcDbLine
 62
250
  6
CONTINUOUS
 10
4.2912691358
 20
44.1235150585
 11
8.0278233296
 21
41.966075497
  0
LINE
  5
4A8
100
AcDbEntity
  8
ASSI
100
AcDbLine
 62
250
  6
CONTINUOUS
 10
8.1642187555
 20
42.0476375046
 11
4.4325295758
 21
44.202268068
  0
LINE
  5
4A9
100
AcDbEntity
  8
ASSI
100
AcDbLine
 62
250
  6
CONTINUOUS
 10
5.3096966876
 20
43.7496434069
 11
7.3874653459
 21
42.5499658241
  0
LINE
  5
4AA
100
AcDbEntity
  8
ASSI
100
AcDbLine
 62
7
  6
CONTINUOUS
 10
5.3896187044
 20
43.7496109539
 11
7.4673875221
 21
42.5499332791
  0
LINE
  5
4AB
100
AcDbEntity
  8
ASSI
100
AcDbLine
 62
250
  6
CONTINUOUS
 10
8.3138048833
 20
42.0955641947
 11
7.7193698941
 21
42.4387835074
  0
LINE
  5
4AC
100
AcDbEntity
  8
ASSI
100
AcDbLine
 62
250
  6
CONTINUOUS
 10
5.1762146759
 20
43.9071694572
 11
4.5817796868
 21
44.2503887699
  0
LINE
  5
4AD
100
AcDbEntity
  8
ASSI
100
AcDbLine
 62
7
  6
CONTINUOUS
 10
4.3168207453
 20
44.8182624181
 11
5.2059923914
 21
44.3048658535
  0
LINE
  5
4AE
100
AcDbEntity
  8
ASSI
100
AcDbLine
 62
7
  6
CONTINUOUS
 10
11.0597957534
 20
40.9249531577
 11
13.5278582098
 21
39.4999248274
  0
LWPOLYLINE
  5
4AF
100
AcDbEntity
  8
ASSI
100
AcDbPolyline
 62
7
  6
CONTINUOUS
 90
11
 70
0
 10
5.3896075485
 20
43.7496173937
 10
5.3680175792
 20
43.7627791714
 10
5.3500287291
 20
43.7749382824
 10
5.3346039912
 20
43.7864276633
 10
5.3213073135
 20
43.7973200722
 10
5.3100133821
 20
43.8074277683
 10
5.3005779095
 20
43.8166047991
 10
5.29261674
 20
43.8250089196
 10
5.2859372506
 20
43.8326360274
 10
5.2805952262
 20
43.8392026356
 10
5.277168284
 20
43.8436987156
  0
LWPOLYLINE
  5
4B0
100
AcDbEntity
  8
ASSI
100
AcDbPolyline
 62
250
  6
CONTINUOUS
 90
16
 70
0
 10
1.6354149345
 20
44.1897029711
 10
1.6501168748
 20
44.1806293907
 10
1.6647137892
 20
44.1698635365
 10
1.6790469311
 20
44.157494752
 10
1.6929652147
 20
44.1436230595
 10
1.7062994929
 20
44.1283854281
 10
1.7188691784
 20
44.1119628429
 10
1.7305377209
 20
44.0945099355
 10
1.7411540099
 20
44.0762269228
 10
1.7505477872
 20
44.0574006196
 10
1.7586042082
 20
44.0382844429
 10
1.76526191
 20
44.0190509481
 10
1.7704620514
 20
43.9998779651
 10
1.7741478109
 20
43.9809658909
 10
1.7762736374
 20
43.9625355886
 10
1.7768147516
 20
43.944791304
  0
LINE
  5
4B1
100
AcDbEntity
  8
ASSI
100
AcDbLine
 62
250
  6
CONTINUOUS
 10
5.2822419304
 20
43.7670781432
 11
5.3096966876
 21
43.7496434069
  0
LWPOLYLINE
  5
4B2
100
AcDbEntity
  8
RACCORDO
100
AcDbPolyline
 62
250
  6
CONTINUOUS
 90
9
 70
0
 10
11.0077070318
 20
39.9044047124
 10
10.9939960529
 20
39.9131729058
 10
10.981909104
 20
39.9227050583
 10
10.9715727789
 20
39.9329013674
 10
10.9630955112
 20
39.9436549698
 10
10.956565865
 20
39.9548533753
 10
10.9520520336
 20
39.966379729
 10
10.9496017081
 20
39.9781136835
 10
10.9491310027
 20
39.9854640745
  0
LWPOLYLINE
  5
4B3
100
AcDbEntity
  8
RACCORDO
100
AcDbPolyline
 62
250
  6
CONTINUOUS
 90
13
 70
0
 10
10.2537103275
 20
40.1422995361
 10
10.2721071749
 20
40.1302898846
 10
10.2902107579
 20
40.1156920797
 10
10.3077112293
 20
40.0987467749
 10
10.3243137619
 20
40.0797281641
 10
10.3397235652
 20
40.0589620149
 10
10.3536562866
 20
40.0368266358
 10
10.3658683701
 20
40.0137127087
 10
10.3761578388
 20
39.9900067762
 10
10.3843502713
 20
39.9661111094
 10
10.3903052348
 20
39.9424337838
 10
10.3939198141
 20
39.91938188
 10
10.3951316837
 20
39.8973505621
  0
LWPOLYLINE
  5
4B4
100
AcDbEntity
  8
VARIANTE_COLORE
100
AcDbPolyline
 62
250
  6
CONTINUOUS
 90
13
 70
0
 10
10.2537103275
 20
40.1422995361
 10
10.2721071749
 20
40.1302898846
 10
10.2902107579
 20
40.1156920797
 10
10.3077112293
 20
40.0987467749
 10
10.3243137619
 20
40.0797281641
 10
10.3397235652
 20
40.0589620149
 10
10.3536562866
 20
40.0368266358
 10
10.3658683701
 20
40.0137127087
 10
10.3761578388
 20
39.9900067762
 10
10.3843502713
 20
39.9661111094
 10
10.3903052348
 20
39.9424337838
 10
10.3939198141
 20
39.91938188
 10
10.3951316837
 20
39.8973505621
  0
LWPOLYLINE
  5
4B5
100
AcDbEntity
  8
RACCORDO
100
AcDbPolyline
 62
250
  6
CONTINUOUS
 90
8
 70
0
 10
11.0077070318
 20
40.2967468638
 10
10.9908125538
 20
40.3078373407
 10
10.9765080116
 20
40.3200822022
 10
10.9650274175
 20
40.333281131
 10
10.9565585858
 20
40.3472182018
 10
10.9512400606
 20
40.361665414
 10
10.949158849
 20
40.3763864216
 10
10.949128388
 20
40.3784017833
  0
LWPOLYLINE
  5
4B6
100
AcDbEntity
  8
RACCORDO
100
AcDbPolyline
 62
7
  6
CONTINUOUS
 90
7
 70
0
 10
6.1876171108
 20
44.6882403505
 10
6.1880418413
 20
44.6879397859
 10
6.1898701706
 20
44.6851841035
 10
6.1916276432
 20
44.6800629768
 10
6.193412135
 20
44.6724981658
 10
6.1950463807
 20
44.6624550384
 10
6.1965418466
 20
44.6498075932
  0
LWPOLYLINE
  5
4B7
100
AcDbEntity
  8
ASSI
100
AcDbPolyline
 62
250
  6
CONTINUOUS
 90
10
 70
0
 10
10.5449106613
 20
41.9085950724
 10
10.5346900548
 20
41.9162313181
 10
10.5239386346
 20
41.9232527841
 10
10.5127329921
 20
41.9296134592
 10
10.5010403507
 20
41.9352371302
 10
10.4890225069
 20
41.9401492731
 10
10.4770232384
 20
41.9444607084
 10
10.4651706838
 20
41.9481924802
 10
10.4533894746
 20
41.951288609
 10
10.4416964203
 20
41.9537391747
  0
LWPOLYLINE
  5
4B8
100
AcDbEntity
  8
RACCORDO
100
AcDbPolyline
 62
250
  6
CONTINUOUS
 90
11
 70
0
 10
14.419257715
 20
39.8627862551
 10
14.4768305254
 20
39.8197496139
 10
14.5336751022
 20
39.7732692594
 10
14.5897182229
 20
39.7234185339
 10
14.6451133906
 20
39.6700243843
 10
14.6996391746
 20
39.6132184822
 10
14.7530846973
 20
39.5531393383
 10
14.8055659182
 20
39.4895320154
 10
14.8569304945
 20
39.4223837517
 10
14.9067932021
 20
39.3519870378
 10
14.9548777617
 20
39.2785289669
  0
LWPOLYLINE
  5
4B9
100
AcDbEntity
  8
RACCORDO
100
AcDbPolyline
 62
250
  6
CONTINUOUS
 90
8
 70
0
 10
15.0285278445
 20
39.3145811797
 10
15.0282702687
 20
39.3148130123
 10
15.0254391604
 20
39.3146816143
 10
15.0198280399
 20
39.3127650492
 10
15.0115307965
 20
39.3090953862
 10
15.0006862654
 20
39.3037340288
 10
14.9874759046
 20
39.2967706868
 10
14.9721207591
 20
39.2883218758
  0
LWPOLYLINE
  5
4BA
100
AcDbEntity
  8
RACCORDO
100
AcDbPolyline
 62
250
  6
CONTINUOUS
 90
10
 70
0
 10
10.8217386103
 20
44.8174025021
 10
10.8090924478
 20
44.8303577203
 10
10.7970668355
 20
44.8444434331
 10
10.7860659336
 20
44.8591029842
 10
10.776305004
 20
44.8738415699
 10
10.7676183837
 20
44.8886932424
 10
10.7598174502
 20
44.9038806256
 10
10.7529765469
 20
44.919227402
 10
10.7471220175
 20
44.934626251
 10
10.742143771
 20
44.9504508283
  0
LWPOLYLINE
  5
4BB
100
AcDbEntity
  8
RACCORDO
100
AcDbPolyline
 62
250
  6
CONTINUOUS
 90
4
 70
0
 10
15.9415506201
 20
40.0316348148
 10
15.9380052601
 20
40.0354491161
 10
15.9284904803
 20
40.0444635911
 10
15.9179445002
 20
40.0526648166
  0
LINE
  5
4BC
100
AcDbEntity
  8
RACCORDO
100
AcDbLine
 62
250
  6
CONTINUOUS
 10
16.4998719765
 20
39.2933083012
 11
15.821902017
 21
40.0497979105
  0
LINE
  5
4BD
100
AcDbEntity
  8
RACCORDO
100
AcDbLine
 62
7
  6
CONTINUOUS
 10
16.5865852228
 20
39.3118950891
 11
15.9415640661
 21
40.0316199028
  0
LWPOLYLINE
  5
4BE
100
AcDbEntity
  8
RACCORDO
100
AcDbPolyline
 62
250
  6
CONTINUOUS
 90
4
 70
0
 10
10.3431863053
 20
45.8423290254
 10
10.3270333385
 20
45.8605135226
 10
10.310027501
 20
45.8767701581
 10
10.2924430015
 20
45.890831032
  0
LINE
  5
4BF
100
AcDbEntity
  8
RACCORDO
100
AcDbLine
 62
250
  6
CONTINUOUS
 10
16.5298583378
 20
39.2577954372
 11
16.4998719765
 21
39.2933083012
  0
LWPOLYLINE
  5
4C0
100
AcDbEntity
  8
RACCORDO
100
AcDbPolyline
 62
250
  6
CONTINUOUS
 90
13
 70
0
 10
15.821902017
 20
40.0497979105
 10
15.8131039486
 20
40.0602667241
 10
15.8047119102
 20
40.0711425661
 10
15.7967580274
 20
40.0823591877
 10
15.7892881982
 20
40.0938229396
 10
15.7823064316
 20
40.1054963132
 10
15.7757862122
 20
40.1174057493
 10
15.769756425
 20
40.129493363
 10
15.7642403561
 20
40.1417043172
 10
15.7592220693
 20
40.1540790555
 10
15.7547236948
 20
40.1665941812
 10
15.7507909155
 20
40.1791590842
 10
15.7474530715
 20
40.1917132551
  0
LWPOLYLINE
  5
4C1
100
AcDbEntity
  8
RACCORDO
100
AcDbPolyline
 62
7
  6
CONTINUOUS
 90
22
 70
0
 10
16.5865852228
 20
39.3118950891
 10
16.6154680354
 20
39.2774267933
 10
16.6420968495
 20
39.241110298
 10
16.6663900258
 20
39.2031863877
 10
16.6882652012
 20
39.163852802
 10
16.7076000728
 20
39.1233314303
 10
16.7242534729
 20
39.0818486828
 10
16.7381480112
 20
39.0393613974
 10
16.7490170053
 20
38.9962637338
 10
16.7565716577
 20
38.9533518795
 10
16.7607375492
 20
38.910513706
 10
16.761330601
 20
38.8681440569
 10
16.7583355736
 20
38.8276829096
 10
16.7519793899
 20
38.7895712743
 10
16.7423944453
 20
38.7535395613
 10
16.7298254605
 20
38.7199309212
 10
16.7146405036
 20
38.6890982866
 10
16.6970237713
 20
38.660901505
 10
16.6769663069
 20
38.6350913795
 10
16.6545924286
 20
38.6117585545
 10
16.6302539365
 20
38.5911861286
 10
16.6042433728
 20
38.5734980837
  0
LINE
  5
4C2
100
AcDbEntity
  8
RACCORDO
100
AcDbLine
 62
250
  6
CONTINUOUS
 10
16.558210705
 20
39.2200171917
 11
16.5298583378
 21
39.2577954372
  0
LWPOLYLINE
  5
4C3
100
AcDbEntity
  8
ASSI
100
AcDbPolyline
 62
250
  6
CONTINUOUS
 90
12
 70
0
 10
12.9555898322
 20
43.2337595852
 10
12.9514108629
 20
43.2395189089
 10
12.9407970898
 20
43.2514489632
 10
12.9285330697
 20
43.261953531
 10
12.9147531716
 20
43.2709175192
 10
12.899608371
 20
43.2782427167
 10
12.8832645983
 20
43.2838488668
 10
12.8659009182
 20
43.287674548
 10
12.8477075676
 20
43.2896778452
 10
12.8288838751
 20
43.2898368091
 10
12.8096360777
 20
43.2881496969
 10
12.790175058
 20
43.2846349922
  0
LINE
  5
4C4
100
AcDbEntity
  8
ASSI
100
AcDbLine
 62
7
  6
CONTINUOUS
 10
12.9556278806
 20
43.2337035647
 11
12.9555898322
 21
43.2337595852
  0
LINE
  5
4C5
100
AcDbEntity
  8
RACCORDO
100
AcDbLine
 62
250
  6
CONTINUOUS
 10
13.6988455346
 20
43.8966752061
 11
13.7126359128
 21
43.8763076693
  0
LWPOLYLINE
  5
4C6
100
AcDbEntity
  8
RACCORDO
100
AcDbPolyline
 62
7
  6
CONTINUOUS
 90
12
 70
0
 10
15.0190515328
 20
39.329496487
 10
14.9688444658
 20
39.4044953265
 10
14.9157139505
 20
39.4773244079
 10
14.8598319387
 20
39.5476372101
 10
14.8014126682
 20
39.6150598089
 10
14.7407083014
 20
39.6792208359
 10
14.6778970528
 20
39.7398330698
 10
14.6131814175
 20
39.796601341
 10
14.5468277116
 20
39.8491775471
 10
14.4790643675
 20
39.897272523
 10
14.410116616
 20
39.9406193576
 10
13.4127145738
 20
40.5165596272
  0
LWPOLYLINE
  5
4C7
100
AcDbEntity
  8
ASSI
100
AcDbPolyline
 62
7
  6
CONTINUOUS
 90
10
 70
0
 10
12.9555898322
 20
43.2337595852
 10
12.9672927844
 20
43.2152851519
 10
12.9775994027
 20
43.1963949332
 10
12.9865015229
 20
43.1771688708
 10
12.9939823646
 20
43.1577354151
 10
13.0000719936
 20
43.1381302754
 10
13.0048134621
 20
43.1182930891
 10
13.0082049632
 20
43.0982576712
 10
13.010233323
 20
43.078154565
 10
13.0109063879
 20
43.058067569
  0
LINE
  5
4C8
100
AcDbEntity
  8
RACCORDO
100
AcDbLine
 62
7
  6
CONTINUOUS
 10
15.0422913221
 20
39.2927156595
 11
15.0190515328
 21
39.329496487
  0
LINE
  5
4C9
100
AcDbEntity
  8
RACCORDO
100
AcDbLine
 62
250
  6
CONTINUOUS
 10
14.9548777617
 20
39.2785289669
 11
15.0512753768
 21
39.1248445272
  0
LINE
  5
4CA
100
AcDbEntity
  8
RACCORDO
100
AcDbLine
 62
250
  6
CONTINUOUS
 10
15.0512753768
 20
39.1248445272
 11
15.0787174957
 21
39.0808617167
  0
LINE
  5
4CB
100
AcDbEntity
  8
RACCORDO
100
AcDbLine
 62
7
  6
CONTINUOUS
 10
15.1520005972
 20
39.1174996888
 11
15.0422913221
 21
39.2927156595
  0
LWPOLYLINE
  5
4CC
100
AcDbEntity
  8
ASSI
100
AcDbPolyline
 62
250
  6
CONTINUOUS
 90
16
 70
0
 10
12.7901748093
 20
43.2846356019
 10
12.7800460353
 20
43.3014205997
 10
12.7721991925
 20
43.3184289078
 10
12.7666342808
 20
43.335660526
 10
12.7633340803
 20
43.3532206013
 10
12.762315811
 20
43.3710039867
 10
12.7636311324
 20
43.3886952421
 10
12.7673410641
 20
43.4063092978
 10
12.7733845866
 20
43.4238312233
 10
12.7816303003
 20
43.4409007879
 10
12.7921249676
 20
43.4574900149
 10
12.8048218263
 20
43.4736268809
 10
12.8194491894
 20
43.489035085
 10
12.8359164947
 20
43.5036225269
 10
12.8543143046
 20
43.5174813068
 10
12.8746426189
 20
43.5306114248
  0
LWPOLYLINE
  5
4CD
100
AcDbEntity
  8
RACCORDO
100
AcDbPolyline
 62
250
  6
CONTINUOUS
 90
8
 70
0
 10
13.7563031549
 20
43.8307851004
 10
13.7517472423
 20
43.8384047694
 10
13.7467823586
 20
43.8462596765
 10
13.7414342514
 20
43.8542515201
 10
13.7358636963
 20
43.8621371652
 10
13.7301027407
 20
43.8699072939
 10
13.7241610559
 20
43.8775456537
 10
13.7182176718
 20
43.8848232178
  0
LWPOLYLINE
  5
4CE
100
AcDbEntity
  8
RACCORDO
100
AcDbPolyline
 62
7
  6
CONTINUOUS
 90
14
 70
0
 10
13.8021718856
 20
43.8389199877
 10
13.7944282324
 20
43.8523366833
 10
13.7857044133
 20
43.8657136977
 10
13.7761171403
 20
43.8789346496
 10
13.7657277439
 20
43.8919674412
 10
13.754655031
 20
43.9047014651
 10
13.7429594438
 20
43.9170921388
 10
13.7307347639
 20
43.9290483017
 10
13.7182250298
 20
43.9403442797
 10
13.7054609409
 20
43.9509617621
 10
13.692564312
 20
43.9607929295
 10
13.6798712516
 20
43.9695937856
 10
13.6674660316
 20
43.9773376366
 10
13.6654494823
 20
43.9785141137
  0
LWPOLYLINE
  5
4CF
100
AcDbEntity
  8
RACCORDO
100
AcDbPolyline
 62
250
  6
CONTINUOUS
 90
6
 70
0
 10
13.7126359128
 20
43.8763076693
 10
13.7249515832
 20
43.8549242272
 10
13.7355978625
 20
43.8328602763
 10
13.7444125976
 20
43.8104518712
 10
13.7512615318
 20
43.7880403133
 10
13.7560403493
 20
43.7659669519
  0
LINE
  5
4D0
100
AcDbEntity
  8
RACCORDO
100
AcDbLine
 62
250
  6
CONTINUOUS
 10
14.0783131162
 20
43.2151019637
 11
13.7858471187
 21
43.758565332
  0
LINE
  5
4D1
100
AcDbEntity
  8
RACCORDO
100
AcDbLine
 62
7
  6
CONTINUOUS
 10
14.0947066496
 20
43.2953292693
 11
13.8022406448
 21
43.8387926512
  0
LWPOLYLINE
  5
4D2
100
AcDbEntity
  8
0
100
AcDbPolyline
 62
250
  6
CONTINUOUS
 90
32
 70
0
 10
17.1617908976
 20
42.1412175088
 10
17.0928814874
 20
42.2733598169
 10
17.028986703
 20
42.4103324533
 10
16.9713761659
 20
42.5494632625
 10
16.921007485
 20
42.6884395963
 10
16.878001706
 20
42.8272588727
 10
16.8422377831
 20
42.9659236738
 10
16.8143101884
 20
43.1021290973
 10
16.794349904
 20
43.2358340355
 10
16.7822259478
 20
43.3670795963
 10
16.7781398455
 20
43.4936842009
 10
16.7822259478
 20
43.615570277
 10
16.794349904
 20
43.732815397
 10
16.8143101884
 20
43.8434706991
 10
16.8422377831
 20
43.9474260364
 10
16.878001706
 20
44.0447915557
 10
16.921007485
 20
44.1339488365
 10
16.9713761659
 20
44.2147606801
 10
17.028986703
 20
44.2873642851
 10
17.0928814874
 20
44.3505528261
 10
17.1631655586
 20
44.4041689329
 10
17.239733877
 20
44.4483699757
 10
17.3213137154
 20
44.4824212396
 10
17.4079888399
 20
44.5061530741
 10
17.4996754845
 20
44.5197351297
 10
17.5948496232
 20
44.5229416441
 10
17.6935695485
 20
44.5155991929
 10
17.795776968
 20
44.4978812005
 10
17.8997729782
 20
44.4700821772
 10
18.0049912781
 20
44.4323002934
 10
18.1119981687
 20
44.3844373788
 10
18.2207936502
 20
44.3264934335
  0
LINE
  5
4D3
100
AcDbEntity
  8
SUPERFICI
100
AcDbLine
 62
250
  6
CONTINUOUS
 10
8.5688958659
 20
-5.8404571381
 11
10.972949143
 21
-4.5940615914
  0
LINE
  5
4D4
100
AcDbEntity
  8
SUPERFICI
100
AcDbLine
 62
7
  6
CONTINUOUS
 10
8.4548552455
 20
-6.074934731
 11
10.8628332556
 21
-4.8265043833
  0
LWPOLYLINE
  5
4D5
100
AcDbEntity
  8
SUPERFICI
100
AcDbPolyline
 62
250
  6
CONTINUOUS
 90
16
 70
0
 10
8.5688958659
 20
-5.8404571381
 10
8.5296688931
 20
-5.8598295064
 10
8.4871919246
 20
-5.8767634744
 10
8.4419177011
 20
-5.8910785861
 10
8.3943233074
 20
-5.9026234363
 10
8.3449210649
 20
-5.9112732223
 10
8.2942548652
 20
-5.9169343659
 10
8.2428765868
 20
-5.9195494012
 10
8.1913226267
 20
-5.9190951623
 10
8.1401254018
 20
-5.9155780504
 10
8.089760364
 20
-5.9090246084
 10
8.0408357518
 20
-5.8995077477
 10
7.99404921
 20
-5.8871821353
 10
7.9499254441
 20
-5.8722315213
 10
7.9088338462
 20
-5.8548288793
 10
7.8711651875
 20
-5.8351833994
  0
LINE
  5
4D6
100
AcDbEntity
  8
RACCORDO
100
AcDbLine
 62
250
  6
CONTINUOUS
 10
4.5472104563
 20
45.37406664
 11
4.4978373964
 21
45.3613368947
  0
LWPOLYLINE
  5
4D7
100
AcDbEntity
  8
ASSI
100
AcDbPolyline
 62
250
  6
CONTINUOUS
 90
5
 70
0
 10
8.9592664589
 20
45.6423069737
 10
8.9220213121
 20
45.6369004872
 10
8.8839972462
 20
45.633657133
 10
8.8452279529
 20
45.6324842004
 10
8.8069279775
 20
45.6333847729
  0
LWPOLYLINE
  5
4D8
100
AcDbEntity
  8
ASSI
100
AcDbPolyline
 62
250
  6
CONTINUOUS
 90
3
 70
0
 10
4.5590301859
 20
44.2482095389
 10
4.5669943188
 20
44.2492146118
 10
4.5745759581
 20
44.24993142
  0
LWPOLYLINE
  5
4D9
100
AcDbEntity
  8
ASSI
100
AcDbPolyline
 62
250
  6
CONTINUOUS
 90
7
 70
0
 10
6.5258593586
 20
44.354705001
 10
6.5689252544
 20
44.3584217869
 10
6.6137311766
 20
44.3649362158
 10
6.6602160797
 20
44.3743639518
 10
6.7081818455
 20
44.386791394
 10
6.7576717209
 20
44.40233086
 10
6.8089825761
 20
44.42118975
  0
LWPOLYLINE
  5
4DA
100
AcDbEntity
  8
ASSI
100
AcDbPolyline
 62
7
  6
CONTINUOUS
 90
7
 70
0
 10
4.5110785381
 20
44.2675860584
 10
4.4945878015
 20
44.2662889054
 10
4.4577610577
 20
44.2605402935
 10
4.419541724
 20
44.2504916541
 10
4.3817064825
 20
44.2364868739
 10
4.3448251048
 20
44.2189225787
 10
4.3350532595
 20
44.2136117701
  0
LINE
  5
4DB
100
AcDbEntity
  8
ASSI
100
AcDbLine
 62
250
  6
CONTINUOUS
 10
4.5745759581
 20
44.24993142
 11
4.5817796868
 21
44.2503887699
  0
LINE
  5
4DC
100
AcDbEntity
  8
ASSI
100
AcDbLine
 62
250
  6
CONTINUOUS
 10
8.4157429547
 20
42.311974881
 11
9.9218456869
 21
42.3939050568
  0
LINE
  5
4DD
100
AcDbEntity
  8
ASSI
100
AcDbLine
 62
7
  6
CONTINUOUS
 10
8.3446790628
 20
42.3291517536
 11
9.8512147418
 21
42.4111062553
  0
LINE
  5
4DE
100
AcDbEntity
  8
ASSI
100
AcDbLine
 62
7
  6
CONTINUOUS
 10
9.8512147418
 20
42.4111062553
 11
9.8513550024
 21
42.4111138041
  0
LINE
  5
4DF
100
AcDbEntity
  8
ASSI
100
AcDbLine
 62
250
  6
CONTINUOUS
 10
4.5817796868
 20
44.2503887699
 11
6.5258965101
 21
44.3546835502
  0
LINE
  5
4E0
100
AcDbEntity
  8
ASSI
100
AcDbLine
 62
7
  6
CONTINUOUS
 10
4.511078538
 20
44.2675860584
 11
6.4554104146
 21
44.3718925757
  0
LINE
  5
4E1
100
AcDbEntity
  8
ASSI
100
AcDbLine
 62
7
  6
CONTINUOUS
 10
6.4554104146
 20
44.3718925757
 11
6.455550822
 21
44.3719000266
  0
LWPOLYLINE
  5
4E2
100
AcDbEntity
  8
RACCORDO
100
AcDbPolyline
 62
250
  6
CONTINUOUS
 90
10
 70
0
 10
9.7709735256
 20
44.6815242692
 10
9.742569363
 20
44.6800243832
 10
9.7133713268
 20
44.676674853
 10
9.6834198999
 20
44.6714172204
 10
9.6530359497
 20
44.6642768289
 10
9.6220016297
 20
44.6551570012
 10
9.5895296059
 20
44.6436693564
 10
9.5553803596
 20
44.6294847249
 10
9.5198948897
 20
44.6125057025
 10
9.4831556978
 20
44.5925445695
  0
LWPOLYLINE
  5
4E3
100
AcDbEntity
  8
RACCORDO
100
AcDbPolyline
 62
250
  6
CONTINUOUS
 90
10
 70
0
 10
9.6976592597
 20
44.9114746262
 10
9.6639272786
 20
44.9097151516
 10
9.6293428552
 20
44.9056328392
 10
9.5939059894
 20
44.8992276889
 10
9.5578882591
 20
44.8907519525
 10
9.5210180864
 20
44.8799533782
 10
9.4824807383
 20
44.8660752109
 10
9.4420046372
 20
44.8488651989
 10
9.3998613608
 20
44.8285755939
 10
9.356050909
 20
44.805206396
  0
LWPOLYLINE
  5
4E4
100
AcDbEntity
  8
ASSI
100
AcDbPolyline
 62
250
  6
CONTINUOUS
 90
16
 70
0
 10
5.373067802
 20
44.0687773805
 10
5.3358854423
 20
44.0669026283
 10
5.3021794021
 20
44.063715505
 10
5.2719496811
 20
44.0592160106
 10
5.2452775378
 20
44.0533642421
 10
5.2220817138
 20
44.0462001025
 10
5.2021184345
 20
44.0378433009
 10
5.1852560847
 20
44.0283781747
 10
5.1716262796
 20
44.0177203865
 10
5.1613800901
 20
44.0057366328
 10
5.1543844049
 20
43.992328878
 10
5.1507723354
 20
43.9775951577
 10
5.1510942872
 20
43.9616962751
 10
5.1555337288
 20
43.9446858314
 10
5.1639071917
 20
43.9265102254
 10
5.1762146759
 20
43.9071694572
  0
LWPOLYLINE
  5
4E5
100
AcDbEntity
  8
ASSI
100
AcDbPolyline
 62
7
  6
CONTINUOUS
 90
17
 70
0
 10
8.3446790627
 20
42.3291517536
 10
8.327736677
 20
42.3284746898
 10
8.2967026675
 20
42.3282740735
 10
8.2625188544
 20
42.3293272165
 10
8.2256135777
 20
42.3317045213
 10
8.1865450497
 20
42.3354172408
 10
8.145588423
 20
42.3404615257
 10
8.1029528084
 20
42.3468383047
 10
8.0589819259
 20
42.3545205744
 10
8.0139601219
 20
42.3634714186
 10
7.9681355914
 20
42.3736561386
 10
7.9217699795
 20
42.3850325109
 10
7.8751619101
 20
42.3975376909
 10
7.8285942356
 20
42.4111055819
 10
7.7823432486
 20
42.425669111
 10
7.736770139
 20
42.4411215847
 10
7.72684469
 20
42.4446373656
  0
LINE
  5
4E6
100
AcDbEntity
  8
ASSI
100
AcDbLine
 62
250
  6
CONTINUOUS
 10
8.3734665845
 20
42.3109080482
 11
8.4157429547
 21
42.311974881
  0
LINE
  5
4E7
100
AcDbEntity
  8
ASSI
100
AcDbLine
 62
250
  6
CONTINUOUS
 10
10.3505764596
 20
42.1463612819
 11
8.3138048833
 21
42.0955641947
  0
LINE
  5
4E8
100
AcDbEntity
  8
ASSI
100
AcDbLine
 62
250
  6
CONTINUOUS
 10
7.0360875783
 20
43.8516393786
 11
5.4545280974
 21
43.8132769838
  0
LINE
  5
4E9
100
AcDbEntity
  8
ASSI
100
AcDbLine
 62
250
  6
CONTINUOUS
 10
6.9546272829
 20
44.1071397753
 11
5.373067802
 21
44.0687773805
  0
LINE
  5
4EA
100
AcDbEntity
  8
RACCORDO
100
AcDbLine
 62
250
  6
CONTINUOUS
 10
10.5818525191
 20
44.7011929953
 11
9.7709735256
 21
44.6815242692
  0
LINE
  5
4EB
100
AcDbEntity
  8
RACCORDO
100
AcDbLine
 62
250
  6
CONTINUOUS
 10
10.5085382532
 20
44.9311433522
 11
9.6976592597
 21
44.9114746262
  0
LWPOLYLINE
  5
4EC
100
AcDbEntity
  8
ASSI
100
AcDbPolyline
 62
250
  6
CONTINUOUS
 90
6
 70
0
 10
6.455550822
 20
44.3719000266
 10
6.4650125755
 20
44.3720276306
 10
6.4805947598
 20
44.3706325395
 10
6.4960371438
 20
44.3672518502
 10
6.511183907
 20
44.3619179592
 10
6.5258831396
 20
44.3546828329
  0
LWPOLYLINE
  5
4ED
100
AcDbEntity
  8
ASSI
100
AcDbPolyline
 62
250
  6
CONTINUOUS
 90
5
 70
0
 10
8.3451120099
 20
42.3291760795
 10
8.357852927
 20
42.3292016012
 10
8.3776017173
 20
42.3266009012
 10
8.3970024687
 20
42.3208276907
 10
8.4157429547
 20
42.311974881
  0
LWPOLYLINE
  5
4EE
100
AcDbEntity
  8
ASSI
100
AcDbPolyline
 62
250
  6
CONTINUOUS
 90
5
 70
0
 10
9.8513550024
 20
42.4111138041
 10
9.863956905
 20
42.4111317143
 10
9.8837053372
 20
42.4085308871
 10
9.903105665
 20
42.4027576885
 10
9.9218456869
 20
42.3939050568
  0
LWPOLYLINE
  5
4EF
100
AcDbEntity
  8
ASSI
100
AcDbPolyline
 62
250
  6
CONTINUOUS
 90
5
 70
0
 10
4.5112985726
 20
44.2675980626
 10
4.5254598144
 20
44.267532041
 10
4.5446755298
 20
44.2647973461
 10
4.5635449341
 20
44.2590536662
 10
4.5817796868
 20
44.2503887699
  0
LWPOLYLINE
  5
4F0
100
AcDbEntity
  8
ASSI
100
AcDbPolyline
 62
250
  6
CONTINUOUS
 90
5
 70
0
 10
5.3610759901
 20
43.8265500585
 10
5.3440188133
 20
43.8270072555
 10
5.3292331814
 20
43.826299234
 10
5.3167837865
 20
43.8245624896
 10
5.3066740691
 20
43.8218500638
  0
LWPOLYLINE
  5
4F1
100
AcDbEntity
  8
ASSI
100
AcDbPolyline
 62
250
  6
CONTINUOUS
 90
3
 70
0
 10
8.2848120103
 20
42.3136972022
 10
8.3298229364
 20
42.3114821553
 10
8.3734665845
 20
42.3109080482
  0
LWPOLYLINE
  5
4F2
100
AcDbEntity
  8
ASSI
100
AcDbPolyline
 62
7
  6
CONTINUOUS
 90
10
 70
0
 10
12.4410938315
 20
41.6522116731
 10
12.4195800985
 20
41.653457745
 10
12.3984494971
 20
41.6534686439
 10
12.3777020271
 20
41.6522443698
 10
12.3571004211
 20
41.6497354312
 10
12.3368819466
 20
41.6459913197
 10
12.3177584067
 20
41.6411605099
 10
12.2999670693
 20
41.6352924936
 10
12.2832706666
 20
41.628337779
 10
12.2676691985
 20
41.6202963662
  0
LWPOLYLINE
  5
4F3
100
AcDbEntity
  8
ASSI
100
AcDbPolyline
 62
250
  6
CONTINUOUS
 90
24
 70
0
 10
12.4388525047
 20
43.0532482108
 10
12.4666979046
 20
43.0500480683
 10
12.4946985845
 20
43.0483983642
 10
12.5231109004
 20
43.0483110904
 10
12.5516784964
 20
43.0497742549
 10
12.5796323047
 20
43.0527518824
 10
12.6069507456
 20
43.0572832955
 10
12.6336553988
 20
43.0633291715
 10
12.6590419352
 20
43.0707355663
 10
12.6830833198
 20
43.0795415705
 10
12.7058065877
 20
43.0897080935
 10
12.7265885151
 20
43.1009639191
 10
12.7453749715
 20
43.1133420682
 10
12.7622200874
 20
43.12680952
 10
12.7766630308
 20
43.1409959954
 10
12.788632618
 20
43.1559178322
 10
12.7982000326
 20
43.1715586926
 10
12.8051179935
 20
43.187499284
 10
12.8093158462
 20
43.2037466198
 10
12.8108642451
 20
43.2202936866
 10
12.8097278726
 20
43.2367001515
 10
12.8058949562
 20
43.2528192369
 10
12.7993772684
 20
43.2687977203
 10
12.7901748093
 20
43.2846356019
  0
LWPOLYLINE
  5
4F4
100
AcDbEntity
  8
ASSI
100
AcDbPolyline
 62
250
  6
CONTINUOUS
 90
16
 70
0
 10
8.1711532206
 20
41.7371045556
 10
8.1573901481
 20
41.738767405
 10
8.1422563175
 20
41.7411074923
 10
8.1259118361
 20
41.744100061
 10
8.1085292916
 20
41.7477135237
 10
8.0902928788
 20
41.7519096019
 10
8.0713965945
 20
41.7566436265
 10
8.0520411584
 20
41.7618652299
 10
8.0324306544
 20
41.7675192753
 10
8.0127713883
 20
41.7735462528
 10
7.9932635844
 20
41.7798849941
 10
7.97412153
 20
41.7864660869
 10
7.9555685033
 20
41.7932121444
 10
7.9378047372
 20
41.8000488607
 10
7.921007207
 20
41.8069065616
 10
7.9053488424
 20
41.8137132354
  0
LWPOLYLINE
  5
4F5
100
AcDbEntity
  8
ASSI
100
AcDbPolyline
 62
250
  6
CONTINUOUS
 90
4
 70
0
 10
7.726815036
 20
42.4446475927
 10
7.7262017242
 20
42.4447339732
 10
7.7232781836
 20
42.4432041381
 10
7.7193698944
 20
42.4387835073
  0
LINE
  5
4F6
100
AcDbEntity
  8
RACCORDO
100
AcDbLine
 62
7
  6
CONTINUOUS
 10
14.1312814447
 20
42.6647974006
 11
14.1241290615
 21
42.6658709321
  0
LWPOLYLINE
  5
4F7
100
AcDbEntity
  8
ASSI
100
AcDbPolyline
 62
250
  6
CONTINUOUS
 90
24
 70
0
 10
12.3446817202
 20
42.7857944137
 10
12.3851124823
 20
42.7786598213
 10
12.4264425945
 20
42.7735228081
 10
12.4683765741
 20
42.7704201014
 10
12.5106146217
 20
42.7693738847
 10
12.5528547624
 20
42.7703916386
 10
12.5947950051
 20
42.7734660879
 10
12.6361355094
 20
42.7785752539
 10
12.6765807118
 20
42.7856826098
 10
12.7158414382
 20
42.7947373389
 10
12.7536369902
 20
42.8056747008
 10
12.7896971677
 20
42.8184165011
 10
12.8237641809
 20
42.8328716496
 10
12.8555944738
 20
42.8489368032
 10
12.8849604781
 20
42.8664971066
 10
12.9116522528
 20
42.8854270218
 10
12.9354789761
 20
42.9055912239
 10
12.9562702846
 20
42.9268455446
 10
12.9738775116
 20
42.9490380051
 10
12.9881747775
 20
42.9720099314
 10
12.9990598814
 20
42.9955970977
 10
13.0064550102
 20
43.0196308758
 10
13.0103072955
 20
43.0439394078
 10
13.0109063921
 20
43.058067569
  0
LWPOLYLINE
  5
4F8
100
AcDbEntity
  8
ASSI
100
AcDbPolyline
 62
250
  6
CONTINUOUS
 90
27
 70
0
 10
10.441695803
 20
41.953735375
 10
10.4341912147
 20
41.9551680139
 10
10.4267256252
 20
41.9563914081
 10
10.4193024097
 20
41.9574053106
 10
10.41197407
 20
41.9582023043
 10
10.4046933906
 20
41.9587895258
 10
10.3973131909
 20
41.9591886563
 10
10.3897997999
 20
41.959410319
 10
10.3821889341
 20
41.9594438333
 10
10.3744367074
 20
41.9592789585
 10
10.3665438427
 20
41.9589183144
 10
10.3585093197
 20
41.9583592874
 10
10.3502859459
 20
41.957583804
 10
10.3418665979
 20
41.9565919385
 10
10.3332551537
 20
41.9553837235
 10
10.3244198939
 20
41.9539410779
 10
10.3153514406
 20
41.952260678
 10
10.3060521809
 20
41.9503463048
 10
10.2965068139
 20
41.9481906901
 10
10.2867088466
 20
41.9457893756
 10
10.2766537659
 20
41.9431481472
 10
10.2663283649
 20
41.9402753953
 10
10.25572968
 20
41.9371682254
 10
10.2448464452
 20
41.9338324157
 10
10.2336530647
 20
41.9302897351
 10
10.2221514869
 20
41.926541719
 10
10.210323968
 20
41.9225918473
  0
LWPOLYLINE
  5
4F9
100
AcDbEntity
  8
ASSI
100
AcDbPolyline
 62
250
  6
CONTINUOUS
 90
5
 70
0
 10
5.4545280974
 20
43.8132769838
 10
5.427389013
 20
43.818587126
 10
5.4027432258
 20
43.8224679414
 10
5.3806123799
 20
43.8250539495
 10
5.3610759901
 20
43.8265500585
  0
LWPOLYLINE
  5
4FA
100
AcDbEntity
  8
ASSI
100
AcDbPolyline
 62
250
  6
CONTINUOUS
 90
21
 70
0
 10
10.456925372
 20
41.8069423461
 10
10.4534299739
 20
41.8076696318
 10
10.4499587864
 20
41.8081277711
 10
10.4465358413
 20
41.808334674
 10
10.4431455822
 20
41.8082921606
 10
10.4397230349
 20
41.8079824857
 10
10.4362362739
 20
41.8074215552
 10
10.4327014038
 20
41.8066057737
 10
10.4291108803
 20
41.8054863166
 10
10.4254457382
 20
41.8040799447
 10
10.4216966263
 20
41.8023864122
 10
10.4178572266
 20
41.8003350488
 10
10.4138951171
 20
41.7979449622
 10
10.4097942263
 20
41.7952208317
 10
10.4055547188
 20
41.7920771664
 10
10.4011302827
 20
41.7885361105
 10
10.3964913982
 20
41.7846118302
 10
10.3916401697
 20
41.7802167573
 10
10.3865138101
 20
41.7753788315
 10
10.3810636814
 20
41.7701238123
 10
10.3690877623
 20
41.7581596997
  0
LINE
  5
4FB
100
AcDbEntity
  8
ASSI
100
AcDbLine
 62
250
  6
CONTINUOUS
 10
7.6764986776
 20
42.450461382
 11
7.7193698941
 21
42.4387835074
  0
LWPOLYLINE
  5
4FC
100
AcDbEntity
  8
ASSI
100
AcDbPolyline
 62
250
  6
CONTINUOUS
 90
3
 70
0
 10
7.5538185703
 20
42.483481095
 10
7.5937375929
 20
42.4722475538
 10
7.6764986776
 20
42.450461382
  0
LINE
  5
4FD
100
AcDbEntity
  8
ASSI
100
AcDbLine
 62
250
  6
CONTINUOUS
 10
10.4604406881
 20
41.8059363416
 11
10.456925372
 21
41.8069423461
  0
LWPOLYLINE
  5
4FE
100
AcDbEntity
  8
ASSI
100
AcDbPolyline
 62
250
  6
CONTINUOUS
 90
11
 70
0
 10
7.8088472298
 20
42.4088022576
 10
7.8546353545
 20
42.3949844602
 10
7.9012150035
 20
42.3818859284
 10
7.9484942905
 20
42.3695692815
 10
7.9961975561
 20
42.3582223776
 10
8.044453557
 20
42.3478035424
 10
8.0931335365
 20
42.3383544501
 10
8.1415755646
 20
42.3301879818
 10
8.1899354401
 20
42.3232889927
 10
8.2380573642
 20
42.3176726275
 10
8.2848120103
 20
42.3136972022
  0
LINE
  5
4FF
100
AcDbEntity
  8
ASSI
100
AcDbLine
 62
250
  6
CONTINUOUS
 10
7.763758743
 20
42.42340194
 11
7.8088472298
 21
42.4088022576
  0
LWPOLYLINE
  5
500
100
AcDbEntity
  8
ASSI
100
AcDbPolyline
 62
250
  6
CONTINUOUS
 90
3
 70
0
 10
7.4791951494
 20
42.507782384
 10
7.5152561202
 20
42.4953678391
 10
7.5538185703
 20
42.483481095
  0
LINE
  5
501
100
AcDbEntity
  8
ASSI
100
AcDbLine
 62
7
  6
CONTINUOUS
 10
7.72684469
 20
42.4446373656
 11
7.726815036
 21
42.4446475927
  0
LINE
  5
502
100
AcDbEntity
  8
ASSI
100
AcDbLine
 62
250
  6
CONTINUOUS
 10
7.7193698941
 20
42.4387835074
 11
7.763758743
 21
42.42340194
  0
LINE
  5
503
100
AcDbEntity
  8
ASSI
100
AcDbLine
 62
7
  6
CONTINUOUS
 10
7.7268150367
 20
42.4446475925
 11
7.6603981378
 21
42.4679418617
  0
LWPOLYLINE
  5
504
100
AcDbEntity
  8
ASSI
100
AcDbPolyline
 62
7
  6
CONTINUOUS
 90
8
 70
0
 10
7.6603981378
 20
42.4679418617
 10
7.6256688504
 20
42.4802449249
 10
7.5929634904
 20
42.4923404968
 10
7.5623984532
 20
42.5043546338
 10
7.5338961342
 20
42.5164508589
 10
7.5078225007
 20
42.5285566319
 10
7.4842493709
 20
42.5405706823
 10
7.4674705856
 20
42.5498852395
  0
LWPOLYLINE
  5
505
100
AcDbEntity
  8
RACCORDO
100
AcDbPolyline
 62
250
  6
CONTINUOUS
 90
5
 70
0
 10
15.895016365
 20
40.065572031
 10
15.8901814194
 20
40.0676384393
 10
15.8852913334
 20
40.0695069852
 10
15.8803454659
 20
40.0711901302
 10
15.8753482535
 20
40.0726902343
  0
LWPOLYLINE
  5
506
100
AcDbEntity
  8
RACCORDO
100
AcDbPolyline
 62
250
  6
CONTINUOUS
 90
7
 70
0
 10
14.4005430263
 20
39.9461997849
 10
14.3878491845
 20
39.9518473346
 10
14.3727503671
 20
39.9550558827
 10
14.3564445147
 20
39.9552172638
 10
14.3392044778
 20
39.9523287545
 10
14.3213187203
 20
39.9464386642
 10
14.3030865257
 20
39.9376455282
  0
LWPOLYLINE
  5
507
100
AcDbEntity
  8
RACCORDO
100
AcDbPolyline
 62
7
  6
CONTINUOUS
 90
4
 70
0
 10
14.1477259356
 20
42.6595262136
 10
14.1431121354
 20
42.6616988626
 10
14.1376265268
 20
42.6634242028
 10
14.1312814447
 20
42.6647974006
  0
LWPOLYLINE
  5
508
100
AcDbEntity
  8
RACCORDO
100
AcDbPolyline
 62
7
  6
CONTINUOUS
 90
10
 70
0
 10
8.5996978354
 20
45.8628875764
 10
8.5779112764
 20
45.8740412831
 10
8.5525155244
 20
45.8837547074
 10
8.5264061041
 20
45.890395902
 10
8.5000093126
 20
45.8938831947
 10
8.4736594418
 20
45.8942245208
 10
8.4476699742
 20
45.8914619572
 10
8.4224451064
 20
45.8856961442
 10
8.3984010318
 20
45.8771128938
 10
8.3803308089
 20
45.86843141
  0
LWPOLYLINE
  5
509
100
AcDbEntity
  8
RACCORDO
100
AcDbPolyline
 62
7
  6
CONTINUOUS
 90
13
 70
0
 10
5.1997054141
 20
45.2586481825
 10
5.1371170421
 20
45.2925244388
 10
5.0671708106
 20
45.3250754259
 10
4.9975957345
 20
45.3518849878
 10
4.9285094658
 20
45.3729330289
 10
4.8602073212
 20
45.3881624689
 10
4.7931986985
 20
45.397516658
 10
4.7276387054
 20
45.4010599463
 10
4.6637967878
 20
45.3988574122
 10
4.6023807957
 20
45.3910699924
 10
4.5437893754
 20
45.3779995576
 10
4.4880994952
 20
45.3599286744
 10
4.4617270346
 20
45.3492504678
  0
LWPOLYLINE
  5
50A
100
AcDbEntity
  8
RACCORDO
100
AcDbPolyline
 62
250
  6
CONTINUOUS
 90
11
 70
0
 10
5.1021636329
 20
45.2501430918
 10
5.0440629917
 20
45.2817709048
 10
4.9860591014
 20
45.3093809194
 10
4.9283532908
 20
45.332855966
 10
4.8712066485
 20
45.3520740994
 10
4.8147607875
 20
45.3669737445
 10
4.7590459806
 20
45.3775077637
 10
4.7042795036
 20
45.3835735469
 10
4.650668374
 20
45.3850854008
 10
4.5982529322
 20
45.381954478
 10
4.5472104563
 20
45.37406664
  0
LWPOLYLINE
  5
50B
100
AcDbEntity
  8
RACCORDO
100
AcDbPolyline
 62
250
  6
CONTINUOUS
 90
14
 70
0
 10
8.5022321548
 20
45.854338604
 10
8.493957626
 20
45.8590155421
 10
8.4855087597
 20
45.8633091087
 10
8.4769068946
 20
45.8671756628
 10
8.4681697956
 20
45.8705728346
 10
8.4593305998
 20
45.8734527156
 10
8.4504372274
 20
45.8757662372
 10
8.4415075908
 20
45.8774741366
 10
8.4325899623
 20
45.8785313434
 10
8.4237773437
 20
45.8788980567
 10
8.415112311
 20
45.8785501264
 10
8.4066215919
 20
45.8774653285
 10
8.3983696134
 20
45.8756306981
 10
8.3903868098
 20
45.8730343457
  0
LINE
  5
50C
100
AcDbEntity
  8
ASSI
100
AcDbLine
 62
250
  6
CONTINUOUS
 10
10.3505764596
 20
42.1463612819
 11
9.9218456869
 21
42.3939050568
  0
LINE
  5
50D
100
AcDbEntity
  8
ASSI
100
AcDbLine
 62
250
  6
CONTINUOUS
 10
6.9546272829
 20
44.1071397753
 11
6.5258965101
 21
44.3546835502
  0
LINE
  5
50E
100
AcDbEntity
  8
RACCORDO
100
AcDbLine
 62
250
  6
CONTINUOUS
 10
13.205256008
 20
40.57151911
 11
14.3030865268
 21
39.9376455275
  0
LINE
  5
50F
100
AcDbEntity
  8
RACCORDO
100
AcDbLine
 62
250
  6
CONTINUOUS
 10
6.1999941517
 20
44.6162695093
 11
5.1021636329
 21
45.2501430918
  0
LINE
  5
510
100
AcDbEntity
  8
RACCORDO
100
AcDbLine
 62
7
  6
CONTINUOUS
 10
6.1876089641
 20
44.6882450544
 11
5.1997003237
 21
45.258651122
  0
LINE
  5
511
100
AcDbEntity
  8
ASSI
100
AcDbLine
 62
250
  6
CONTINUOUS
 10
10.7997828651
 20
42.2898826695
 11
10.3641975833
 21
42.541384152
  0
LINE
  5
512
100
AcDbEntity
  8
ASSI
100
AcDbLine
 62
250
  6
CONTINUOUS
 10
7.4087841027
 20
44.2478028557
 11
6.9731988208
 21
44.4993043383
  0
LINE
  5
513
100
AcDbEntity
  8
RACCORDO
100
AcDbLine
 62
250
  6
CONTINUOUS
 10
11.6413365816
 20
43.3464379756
 11
9.4831556978
 21
44.5925445695
  0
LINE
  5
514
100
AcDbEntity
  8
RACCORDO
100
AcDbLine
 62
250
  6
CONTINUOUS
 10
11.8622992114
 20
43.4740190287
 11
9.7709735256
 21
44.6815242692
  0
LINE
  5
515
100
AcDbEntity
  8
RACCORDO
100
AcDbLine
 62
250
  6
CONTINUOUS
 10
15.4285014046
 20
41.8551975457
 11
14.0541509897
 21
42.6487302506
  0
LINE
  5
516
100
AcDbEntity
  8
RACCORDO
100
AcDbLine
 62
250
  6
CONTINUOUS
 10
8.8220571576
 20
45.6696756557
 11
8.5022321548
 21
45.854338604
  0
LINE
  5
517
100
AcDbEntity
  8
RACCORDO
100
AcDbLine
 62
250
  6
CONTINUOUS
 10
12.2847712272
 20
43.7179490758
 11
10.5818525191
 21
44.7011929953
  0
LINE
  5
518
100
AcDbEntity
  8
RACCORDO
100
AcDbLine
 62
7
  6
CONTINUOUS
 10
15.5260380936
 20
41.8637055769
 11
14.1477258546
 21
42.6595257894
  0
LINE
  5
519
100
AcDbEntity
  8
RACCORDO
100
AcDbLine
 62
7
  6
CONTINUOUS
 10
8.9235805284
 20
45.6758818268
 11
8.5997688438
 21
45.8628466352
  0
LINE
  5
51A
100
AcDbEntity
  8
RACCORDO
100
AcDbLine
 62
250
  6
CONTINUOUS
 10
12.4989810031
 20
43.8416311158
 11
10.8616315719
 21
44.7870158781
  0
LINE
  5
51B
100
AcDbEntity
  8
RACCORDO
100
AcDbLine
 62
7
  6
CONTINUOUS
 10
12.5275607291
 20
43.8581326914
 11
10.9109190167
 21
44.7915613548
  0
LWPOLYLINE
  5
51C
100
AcDbEntity
  8
RACCORDO
100
AcDbPolyline
 62
7
  6
CONTINUOUS
 90
18
 70
0
 10
10.9109375623
 20
44.7915507318
 10
10.9076880975
 20
44.7934763991
 10
10.8960811074
 20
44.801135758
 10
10.8837752805
 20
44.8105482821
 10
10.8709339889
 20
44.8217842285
 10
10.8578386748
 20
44.8347850495
 10
10.8447114219
 20
44.8495003179
 10
10.8318165058
 20
44.8657955679
 10
10.8194618949
 20
44.8834155335
 10
10.8078375999
 20
44.9022060988
 10
10.7971995372
 20
44.9218584188
 10
10.7878711999
 20
44.9417907079
 10
10.7799586158
 20
44.9616985018
 10
10.773539192
 20
44.9812620533
 10
10.7687243694
 20
44.9998421952
 10
10.7654553669
 20
45.0170430952
 10
10.763577449
 20
45.0327276863
 10
10.7631003198
 20
45.0401753996
  0
LWPOLYLINE
  5
51D
100
AcDbEntity
  8
RACCORDO
100
AcDbPolyline
 62
250
  6
CONTINUOUS
 90
13
 70
0
 10
15.8753569354
 20
40.0726922719
 10
15.8640723221
 20
40.0795645704
 10
15.8525493205
 20
40.0869982116
 10
15.8408615005
 20
40.0950655193
 10
15.8290283873
 20
40.1039236237
 10
15.8172121262
 20
40.1135401495
 10
15.8056766474
 20
40.1236760978
 10
15.7944971851
 20
40.1343804349
 10
15.7837528715
 20
40.1456370295
 10
15.7736335016
 20
40.1570641847
 10
15.7642031086
 20
40.1685090934
 10
15.7554632896
 20
40.1800628971
 10
15.747460336
 20
40.1916854191
  0
LWPOLYLINE
  5
51E
100
AcDbEntity
  8
RACCORDO
100
AcDbPolyline
 62
250
  6
CONTINUOUS
 90
3
 70
0
 10
14.3030865268
 20
39.9376455275
 10
14.361276039
 20
39.9021299745
 10
14.419257715
 20
39.8627862551
  0
LINE
  5
51F
100
AcDbEntity
  8
RACCORDO
100
AcDbLine
 62
7
  6
CONTINUOUS
 10
10.4014918774
 20
45.8627415189
 11
10.3919198184
 21
45.8686091417
  0
LWPOLYLINE
  5
520
100
AcDbEntity
  8
RACCORDO
100
AcDbPolyline
 62
250
  6
CONTINUOUS
 90
4
 70
0
 10
10.8616325999
 20
44.7870165355
 10
10.8481024061
 20
44.7956544476
 10
10.8347549402
 20
44.8058253717
 10
10.8217386103
 20
44.8174025021
  0
LINE
  5
521
100
AcDbEntity
  8
RACCORDO
100
AcDbLine
 62
250
  6
CONTINUOUS
 10
10.2924430015
 20
45.890831032
 11
10.2745610099
 21
45.9024665253
  0
LWPOLYLINE
  5
522
100
AcDbEntity
  8
RACCORDO
100
AcDbPolyline
 62
250
  6
CONTINUOUS
 90
6
 70
0
 10
15.9179445002
 20
40.0526648166
 10
15.9135551926
 20
40.0555812595
 10
15.9090627094
 20
40.0583246589
 10
15.9044730845
 20
40.0608984538
 10
15.8997871079
 20
40.0633162244
 10
15.895016365
 20
40.065572031
  0
LINE
  5
523
100
AcDbEntity
  8
RACCORDO
100
AcDbLine
 62
7
  6
CONTINUOUS
 10
10.4132001389
 20
45.8545347116
 11
10.4014918774
 21
45.8627415189
  0
LINE
  5
524
100
AcDbEntity
  8
RACCORDO
100
AcDbLine
 62
250
  6
CONTINUOUS
 10
16.0955897833
 20
40.6922809816
 11
15.7513086716
 21
40.9611596299
  0
LINE
  5
525
100
AcDbEntity
  8
RACCORDO
100
AcDbLine
 62
7
  6
CONTINUOUS
 10
16.1916707628
 20
40.7018692946
 11
15.847389651
 21
40.9707479429
  0
LWPOLYLINE
  5
526
100
AcDbEntity
  8
RACCORDO
100
AcDbPolyline
 62
7
  6
CONTINUOUS
 90
18
 70
0
 10
15.8473704986
 20
40.9707628921
 10
15.8408815031
 20
40.9759590849
 10
15.8237504667
 20
40.9908980014
 10
15.8057709904
 20
41.0085221262
 10
15.7874158232
 20
41.0286895047
 10
15.7693657398
 20
41.0508731283
 10
15.7519443601
 20
41.0748153222
 10
15.7354328475
 20
41.1002444207
 10
15.7203217621
 20
41.1264277285
 10
15.7068234458
 20
41.1529096065
 10
15.6950230457
 20
41.1793817346
 10
15.6850698861
 20
41.205282436
 10
15.676979047
 20
41.2302285036
 10
15.6706937965
 20
41.2539421491
 10
15.6661488264
 20
41.2760450311
 10
15.6632052043
 20
41.2963216053
 10
15.6616986091
 20
41.3144905557
 10
15.6613832111
 20
41.326719945
  0
LWPOLYLINE
  5
527
100
AcDbEntity
  8
RACCORDO
100
AcDbPolyline
 62
250
  6
CONTINUOUS
 90
16
 70
0
 10
15.751308449
 20
40.9611595007
 10
15.7352285324
 20
40.9748905127
 10
15.7195972563
 20
40.9900547197
 10
15.7045499096
 20
41.0065037394
 10
15.6901766633
 20
41.0241282499
 10
15.676637091
 20
41.0427208442
 10
15.6641356591
 20
41.0619515698
 10
15.6528462214
 20
41.0814409868
 10
15.6427019755
 20
41.1011840486
 10
15.6335706698
 20
41.1214250243
 10
15.6255332266
 20
41.1420753742
 10
15.6187160513
 20
41.1629012138
 10
15.6131566551
 20
41.1839400801
 10
15.6089701351
 20
41.2050652581
 10
15.6062984756
 20
41.2259884526
 10
15.6052509602
 20
41.2464772209
  0
LWPOLYLINE
  5
528
100
AcDbEntity
  8
RACCORDO
100
AcDbPolyline
 62
250
  6
CONTINUOUS
 90
3
 70
0
 10
13.6676579938
 20
43.9331993947
 10
13.6837846319
 20
43.9157276177
 10
13.6988455346
 20
43.8966752061
  0
LWPOLYLINE
  5
529
100
AcDbEntity
  8
RACCORDO
100
AcDbPolyline
 62
250
  6
CONTINUOUS
 90
15
 70
0
 10
13.7066059083
 20
43.8981977862
 10
13.7009420751
 20
43.9043384378
 10
13.6954507909
 20
43.910071517
 10
13.6901226693
 20
43.9154570745
 10
13.6848481275
 20
43.9206048301
 10
13.6796474895
 20
43.9255058298
 10
13.6745308331
 20
43.9301786976
 10
13.6693561775
 20
43.9347523888
 10
13.6641253115
 20
43.9392146825
 10
13.6588492768
 20
43.9435626578
 10
13.6533877288
 20
43.9479111536
 10
13.6477356922
 20
43.9522351582
 10
13.6419047117
 20
43.9565095852
 10
13.6357726254
 20
43.9608150233
 10
13.6293016049
 20
43.965136849
  0
LWPOLYLINE
  5
52A
100
AcDbEntity
  8
RACCORDO
100
AcDbPolyline
 62
250
  6
CONTINUOUS
 90
3
 70
0
 10
13.7182176718
 20
43.8848232178
 10
13.712371849
 20
43.8916843209
 10
13.7066059083
 20
43.8981977862
  0
LWPOLYLINE
  5
52B
100
AcDbEntity
  8
0
100
AcDbPolyline
 62
250
  6
CONTINUOUS
 90
18
 70
0
 10
19.2145008579
 20
43.2228042145
 10
19.1843667606
 20
43.2749021207
 10
19.1346060277
 20
43.3557195829
 10
19.0826599812
 20
43.435088225
 10
19.0286616438
 20
43.5127827171
 10
18.9727267063
 20
43.5886185173
 10
18.9149331757
 20
43.6624673957
 10
18.8554477878
 20
43.734094467
 10
18.7945370099
 20
43.8031763443
 10
18.7323394537
 20
43.8695665242
 10
18.6690064493
 20
43.9331139534
 10
18.6048454284
 20
43.9935355603
 10
18.5400184501
 20
44.050718559
 10
18.4746743064
 20
44.1045708286
 10
18.4091116698
 20
44.1548964942
 10
18.3435333879
 20
44.2016055883
 10
18.2780413273
 20
44.2446904895
 10
18.2127811087
 20
44.2841157166
  0
LWPOLYLINE
  5
52C
100
AcDbEntity
  8
RACCORDO
100
AcDbPolyline
 62
250
  6
CONTINUOUS
 90
9
 70
0
 10
34.0125481657
 20
42.7497973213
 10
34.0114105214
 20
42.7224548901
 10
34.0010421077
 20
42.6626529953
 10
33.9799634403
 20
42.6037973803
 10
33.948402905
 20
42.5465257411
 10
33.9067024577
 20
42.4914586114
 10
33.8553139194
 20
42.4391926394
 10
33.794794081
 20
42.3902941227
 10
33.72579867
 20
42.3452928728
  0
LWPOLYLINE
  5
52D
100
AcDbEntity
  8
VARIANTE_COLORE
100
AcDbPolyline
 62
250
  6
CONTINUOUS
 90
9
 70
0
 10
34.0125481657
 20
42.7497973213
 10
34.0114105214
 20
42.7224548901
 10
34.0010421077
 20
42.6626529953
 10
33.9799634403
 20
42.6037973803
 10
33.948402905
 20
42.5465257411
 10
33.9067024577
 20
42.4914586114
 10
33.8553139194
 20
42.4391926394
 10
33.794794081
 20
42.3902941227
 10
33.72579867
 20
42.3452928728
  0
LWPOLYLINE
  5
52E
100
AcDbEntity
  8
RACCORDO
100
AcDbPolyline
 62
7
  6
CONTINUOUS
 90
9
 70
0
 10
22.0391702686
 20
51.3791179286
 10
22.0670357301
 20
51.3854302118
 10
22.0924019631
 20
51.3907540081
 10
22.1151091379
 20
51.3949235096
 10
22.1349987698
 20
51.3978078432
 10
22.1518684482
 20
51.3992120813
 10
22.1655063736
 20
51.3989588969
 10
22.1756507966
 20
51.397042394
 10
22.1796529705
 20
51.395293624
  0
LWPOLYLINE
  5
52F
100
AcDbEntity
  8
VARIANTE_COLORE
100
AcDbPolyline
 62
7
  6
CONTINUOUS
 90
9
 70
0
 10
22.0391702686
 20
51.3791179286
 10
22.0670357301
 20
51.3854302118
 10
22.0924019631
 20
51.3907540081
 10
22.1151091379
 20
51.3949235096
 10
22.1349987698
 20
51.3978078432
 10
22.1518684482
 20
51.3992120813
 10
22.1655063736
 20
51.3989588969
 10
22.1756507966
 20
51.397042394
 10
22.1796529705
 20
51.395293624
  0
LWPOLYLINE
  5
530
100
AcDbEntity
  8
ASSI
100
AcDbPolyline
 62
250
  6
CONTINUOUS
 90
7
 70
0
 10
8.7389912477
 20
45.6805308961
 10
8.7325779137
 20
45.680403337
 10
8.7257643654
 20
45.6781375036
 10
8.718625253
 20
45.6737582204
 10
8.7112387942
 20
45.6673134675
 10
8.7036859165
 20
45.6588738547
 10
8.6960493709
 20
45.6485318479
  0
LWPOLYLINE
  5
531
100
AcDbEntity
  8
RACCORDO
100
AcDbPolyline
 62
250
  6
CONTINUOUS
 90
6
 70
0
 10
6.5059880065
 20
45.1171732508
 10
6.503087663
 20
45.1172504714
 10
6.4871987219
 20
45.1164062737
 10
6.4714276743
 20
45.1134290567
 10
6.4559434959
 20
45.1083507191
 10
6.4409120892
 20
45.1012256718
  0
LINE
  5
532
100
AcDbEntity
  8
RACCORDO
100
AcDbLine
 62
250
  6
CONTINUOUS
 10
6.4409120892
 20
45.1012256718
 11
6.9190419949
 21
45.0825981564
  0
LINE
  5
533
100
AcDbEntity
  8
RACCORDO
100
AcDbLine
 62
7
  6
CONTINUOUS
 10
6.5059880065
 20
45.1171732508
 11
6.9510898907
 21
45.0998324777
  0
LWPOLYLINE
  5
534
100
AcDbEntity
  8
ASSI
100
AcDbPolyline
 62
250
  6
CONTINUOUS
 90
23
 70
0
 10
8.6410394839
 20
45.6575997898
 10
8.6131560879
 20
45.6598148638
 10
8.5847665087
 20
45.6604767933
 10
8.5561276721
 20
45.6595923772
 10
8.5280103555
 20
45.6571820119
 10
8.5004337372
 20
45.6532059616
 10
8.4733786388
 20
45.6477039623
 10
8.4475583025
 20
45.6408156183
 10
8.4229973784
 20
45.6325013169
 10
8.3996712165
 20
45.6228006709
 10
8.3782191089
 20
45.6119721224
 10
8.3586931478
 20
45.5999815757
 10
8.341041241
 20
45.5868631266
 10
8.3257464048
 20
45.5729775041
 10
8.3128787871
 20
45.5583069395
 10
8.30236824
 20
45.5428692016
 10
8.294487335
 20
45.5270783255
 10
8.2893062587
 20
45.5109258737
 10
8.2867548245
 20
45.4944202837
 10
8.2868950447
 20
45.4780009035
 10
8.28974759
 20
45.4618141823
 10
8.2952917896
 20
45.445713671
 10
8.3035276436
 20
45.4296993694
  0
LWPOLYLINE
  5
535
100
AcDbEntity
  8
ASSI
100
AcDbPolyline
 62
250
  6
CONTINUOUS
 90
3
 70
0
 10
8.8069279775
 20
45.6333847729
 10
8.7695021684
 20
45.6363598784
 10
8.7325456772
 20
45.641408489
  0
LINE
  5
536
100
AcDbEntity
  8
ASSI
100
AcDbLine
 62
250
  6
CONTINUOUS
 10
8.6686736226
 20
45.6538383701
 11
8.6410394839
 21
45.6575997898
  0
LINE
  5
537
100
AcDbEntity
  8
ASSI
100
AcDbLine
 62
250
  6
CONTINUOUS
 10
8.7325456772
 20
45.641408489
 11
8.6686736226
 21
45.6538383701
  0
LWPOLYLINE
  5
538
100
AcDbEntity
  8
RACCORDO
100
AcDbPolyline
 62
250
  6
CONTINUOUS
 90
3
 70
0
 10
13.1775697554
 20
44.2146806822
 10
13.1945654109
 20
44.2112912795
 10
13.2121272612
 20
44.205047044
  0
LWPOLYLINE
  5
539
100
AcDbEntity
  8
RACCORDO
100
AcDbPolyline
 62
7
  6
CONTINUOUS
 90
7
 70
0
 10
10.3750171387
 20
45.8774353861
 10
10.3602866743
 20
45.8837837353
 10
10.3446292363
 20
45.889368782
 10
10.3281556261
 20
45.8940871854
 10
10.3109491511
 20
45.8978684595
 10
10.293069419
 20
45.9006870203
 10
10.2746079343
 20
45.9025186713
  0
LINE
  5
53A
100
AcDbEntity
  8
RACCORDO
100
AcDbLine
 62
250
  6
CONTINUOUS
 10
13.2121272612
 20
44.205047044
 11
13.2299744905
 21
44.1960478216
  0
LWPOLYLINE
  5
53B
100
AcDbEntity
  8
RACCORDO
100
AcDbPolyline
 62
250
  6
CONTINUOUS
 90
7
 70
0
 10
9.8891891272
 20
46.1249754205
 10
9.8719282041
 20
46.1340317884
 10
9.8549738241
 20
46.1404054201
 10
9.8385847539
 20
46.1440168982
 10
9.8230198836
 20
46.1448306244
 10
9.8084974479
 20
46.1428576475
 10
9.7952004934
 20
46.1381331089
  0
LWPOLYLINE
  5
53C
100
AcDbEntity
  8
RACCORDO
100
AcDbPolyline
 62
250
  6
CONTINUOUS
 90
18
 70
0
 10
9.8838335964
 20
46.1280933297
 10
9.8786951809
 20
46.1308601572
 10
9.87364269
 20
46.1334077206
 10
9.8687146499
 20
46.1357176845
 10
9.8638843932
 20
46.1378108178
 10
9.8590621023
 20
46.1397298005
 10
9.8542339689
 20
46.1414639918
 10
9.849430151
 20
46.1429901704
 10
9.844630462
 20
46.1443089203
 10
9.8398424811
 20
46.145394296
 10
9.8350809038
 20
46.1462231564
 10
9.8303401488
 20
46.1467838447
 10
9.8256282337
 20
46.1470400684
 10
9.820968871
 20
46.1469579708
 10
9.8163843429
 20
46.1465132783
 10
9.8118823282
 20
46.1456587174
 10
9.8074976295
 20
46.1443522096
 10
9.8032938578
 20
46.1425707591
  0
LWPOLYLINE
  5
53D
100
AcDbEntity
  8
RACCORDO
100
AcDbPolyline
 62
7
  6
CONTINUOUS
 90
12
 70
0
 10
13.2800488795
 20
44.2010396169
 10
13.2707315911
 20
44.2061646445
 10
13.2582792821
 20
44.2121909951
 10
13.2453351322
 20
44.2173992323
 10
13.2318782203
 20
44.221604095
 10
13.2179858478
 20
44.2245823762
 10
13.203506922
 20
44.2261444725
 10
13.1884832744
 20
44.2260205535
 10
13.1733872641
 20
44.2239909467
 10
13.1584787711
 20
44.2199280794
 10
13.1439768511
 20
44.2137216763
 10
13.1420182461
 20
44.2126892936
  0
LWPOLYLINE
  5
53E
100
AcDbEntity
  8
0
100
AcDbPolyline
 62
250
  6
CONTINUOUS
 90
50
 70
0
 10
18.2127811088
 20
44.2841157166
 10
18.1474701991
 20
44.3200779125
 10
18.0819315934
 20
44.3526407278
 10
18.0163111844
 20
44.3816719357
 10
17.9507102539
 20
44.4070623086
 10
17.8853326558
 20
44.4286677366
 10
17.8204795701
 20
44.4463392441
 10
17.756300436
 20
44.4599981022
 10
17.6929564929
 20
44.469571304
 10
17.6307552492
 20
44.4749881077
 10
17.5698490326
 20
44.4762260987
 10
17.5103746618
 20
44.4732731537
 10
17.4525946222
 20
44.4661457026
 10
17.3966755946
 20
44.4548866502
 10
17.3426950996
 20
44.4395346027
 10
17.2907648522
 20
44.4201394345
 10
17.2410168992
 20
44.3967718855
 10
17.1935324886
 20
44.3694924137
 10
17.1483486339
 20
44.3383311495
 10
17.1055568628
 20
44.3033466903
 10
17.0652681731
 20
44.2646250008
 10
17.0275545228
 20
44.2222275903
 10
16.9924942182
 20
44.1762250362
 10
16.9601875145
 20
44.1267300725
 10
16.9307300555
 20
44.0738798795
 10
16.90419191
 20
44.0177982683
 10
16.8806320983
 20
43.9586078531
 10
16.8601118218
 20
43.8964641878
 10
16.8426779569
 20
43.8315200781
 10
16.828364972
 20
43.7639166819
 10
16.8172025294
 20
43.693803909
 10
16.8092147593
 20
43.6213440603
 10
16.8044180948
 20
43.546701205
 10
16.8028220138
 20
43.4700341493
 10
16.804430174
 20
43.3915170663
 10
16.8092389508
 20
43.3113284159
 10
16.8172388826
 20
43.2296380663
 10
16.8284135835
 20
43.1466288483
 10
16.8427389195
 20
43.0624911443
 10
16.860185064
 20
42.9774099229
 10
16.8807175013
 20
42.8915660742
 10
16.9042892603
 20
42.8051666622
 10
16.930838702
 20
42.7184390505
 10
16.9603063394
 20
42.6315748221
 10
16.9926221619
 20
42.544777885
 10
17.0276908973
 20
42.4582945448
 10
17.0654119082
 20
42.3723540239
 10
17.1057071617
 20
42.2871165125
 10
17.148506503
 20
42.2027230902
 10
17.1785511464
 20
42.1473209489
  0
LWPOLYLINE
  5
53F
100
AcDbEntity
  8
RACCORDO
100
AcDbPolyline
 62
7
  6
CONTINUOUS
 90
12
 70
0
 10
9.9392736545
 20
46.1299613587
 10
9.9312602219
 20
46.134400588
 10
9.9189838701
 20
46.140448107
 10
9.9062287875
 20
46.1457114593
 10
9.8929700737
 20
46.1500143593
 10
9.8792700452
 20
46.1531415546
 10
9.8649593846
 20
46.1549096449
 10
9.8500747951
 20
46.1550481889
 10
9.835082165
 20
46.1533279016
 10
9.8202207969
 20
46.1496130471
 10
9.8057012641
 20
46.1437840015
 10
9.8025265487
 20
46.1421798452
  0
LWPOLYLINE
  5
540
100
AcDbEntity
  8
RACCORDO
100
AcDbPolyline
 62
7
  6
CONTINUOUS
 90
3
 70
0
 10
10.3919198184
 20
45.8686091417
 10
10.3887567766
 20
45.870401413
 10
10.3750171387
 20
45.8774353861
  0
LWPOLYLINE
  5
541
100
AcDbEntity
  8
RACCORDO
100
AcDbPolyline
 62
250
  6
CONTINUOUS
 90
21
 70
0
 10
13.230017419
 20
44.196072605
 10
13.2251378796
 20
44.1988401034
 10
13.220315576
 20
44.2014248266
 10
13.215556071
 20
44.203824794
 10
13.2108820288
 20
44.2060277708
 10
13.2062810965
 20
44.2080444017
 10
13.2017068822
 20
44.2098993092
 10
13.1971591359
 20
44.2115845637
 10
13.1926502509
 20
44.2130886458
 10
13.1881549531
 20
44.2144165809
 10
13.1836781874
 20
44.2155513194
 10
13.1792310284
 20
44.2164777347
 10
13.1748003719
 20
44.2171907906
 10
13.1703933791
 20
44.2176657748
 10
13.1660251496
 20
44.2178801748
 10
13.1616982668
 20
44.2178185237
 10
13.1574207066
 20
44.2174474032
 10
13.1532151629
 20
44.2167363497
 10
13.1491096482
 20
44.2156624392
 10
13.1451118939
 20
44.2141838297
 10
13.1420164086
 20
44.2126886731
  0
LINE
  5
542
100
AcDbEntity
  8
RACCORDO
100
AcDbLine
 62
250
  6
CONTINUOUS
 10
13.6154137899
 20
43.9735792404
 11
13.2300431095
 21
44.1960874414
  0
LINE
  5
543
100
AcDbEntity
  8
RACCORDO
100
AcDbLine
 62
250
  6
CONTINUOUS
 10
10.2746296289
 20
45.9025061451
 11
9.8838335964
 21
46.1280933297
  0
LINE
  5
544
100
AcDbEntity
  8
RACCORDO
100
AcDbLine
 62
7
  6
CONTINUOUS
 10
13.6654162059
 20
43.9785333582
 11
13.2800455243
 21
44.2010415599
  0
LINE
  5
545
100
AcDbEntity
  8
RACCORDO
100
AcDbLine
 62
7
  6
CONTINUOUS
 10
10.3919235845
 20
45.8686069713
 11
9.9392610628
 21
46.1299686381
  0
LINE
  5
546
100
AcDbEntity
  8
0
100
AcDbLine
 62
7
  6
CONTINUOUS
 10
14.8620535229
 20
43.9876557218
 11
15.2155898301
 21
43.7835282888
  0
LINE
  5
547
100
AcDbEntity
  8
RACCORDO
100
AcDbLine
 62
250
  6
CONTINUOUS
 10
13.6225422667
 20
43.9693838066
 11
13.6155066146
 21
43.9734982604
  0
LWPOLYLINE
  5
548
100
AcDbEntity
  8
0
100
AcDbPolyline
 62
250
  6
CONTINUOUS
 90
12
 70
0
 10
18.2207936502
 20
44.3264934335
 10
18.3295891316
 20
44.2588030839
 10
18.4365960223
 20
44.1830971234
 10
18.5418143221
 20
44.0993755519
 10
18.6458103324
 20
44.0070825893
 10
18.7480177518
 20
43.9067740156
 10
18.8467376772
 20
43.8001171716
 10
18.9419118159
 20
43.6870059475
 10
19.0335984604
 20
43.5675464529
 10
19.120273585
 20
43.4437243572
 10
19.2018534234
 20
43.3154667407
 10
19.2452731056
 20
43.2402616452
  0
LWPOLYLINE
  5
549
100
AcDbEntity
  8
RACCORDO
100
AcDbPolyline
 62
250
  6
CONTINUOUS
 90
4
 70
0
 10
13.6153463732
 20
43.9735389264
 10
13.6331728364
 20
43.9623423946
 10
13.6506992142
 20
43.9488233745
 10
13.6676579938
 20
43.9331993947
  0
LWPOLYLINE
  5
54A
100
AcDbEntity
  8
RACCORDO
100
AcDbPolyline
 62
7
  6
CONTINUOUS
 90
10
 70
0
 10
20.3765144458
 20
43.8820271572
 10
20.3421499521
 20
43.9315545484
 10
20.3025103744
 20
43.9816664359
 10
20.2589186167
 20
44.0305075406
 10
20.2113683109
 20
44.0780451301
 10
20.159865825
 20
44.1243119369
 10
20.1047307812
 20
44.1690243799
 10
20.0460697203
 20
44.2120879322
 10
19.9837761016
 20
44.2535971207
 10
19.917849925
 20
44.2935519456
  0
LWPOLYLINE
  5
54B
100
AcDbEntity
  8
VARIANTE_COLORE
100
AcDbPolyline
 62
7
  6
CONTINUOUS
 90
10
 70
0
 10
20.3765144458
 20
43.8820271572
 10
20.3421499521
 20
43.9315545484
 10
20.3025103744
 20
43.9816664359
 10
20.2589186167
 20
44.0305075406
 10
20.2113683109
 20
44.0780451301
 10
20.159865825
 20
44.1243119369
 10
20.1047307812
 20
44.1690243799
 10
20.0460697203
 20
44.2120879322
 10
19.9837761016
 20
44.2535971207
 10
19.917849925
 20
44.2935519456
  0
LWPOLYLINE
  5
54C
100
AcDbEntity
  8
RACCORDO
100
AcDbPolyline
 62
7
  6
CONTINUOUS
 90
22
 70
0
 10
34.0125404202
 20
42.7497973255
 10
34.0093115255
 20
42.8982013973
 10
33.9927988931
 20
43.1214979299
 10
33.9627960891
 20
43.3459969977
 10
33.9198581686
 20
43.5709362297
 10
33.8645050627
 20
43.7957269362
 10
33.7971879367
 20
44.0196721742
 10
33.7183793371
 20
44.2420386447
 10
33.6285163731
 20
44.4620568861
 10
33.5281092862
 20
44.6787368639
 10
33.4176429571
 20
44.8912926275
 10
33.2975450646
 20
45.0989329508
 10
33.1684073635
 20
45.3006461367
 10
33.0306979092
 20
45.4956634795
 10
32.8848572057
 20
45.6831755412
 10
32.7314949988
 20
45.8622524086
 10
32.5710575587
 20
46.0321225491
 10
32.4039391135
 20
46.1920302604
 10
32.2305040141
 20
46.3412469328
 10
32.0510004328
 20
46.4790245606
 10
31.8658363166
 20
46.6045005072
 10
31.7446758397
 20
46.6778542441
  0
LWPOLYLINE
  5
54D
100
AcDbEntity
  8
VARIANTE_COLORE
100
AcDbPolyline
 62
7
  6
CONTINUOUS
 90
22
 70
0
 10
34.0125404202
 20
42.7497973255
 10
34.0093115255
 20
42.8982013973
 10
33.9927988931
 20
43.1214979299
 10
33.9627960891
 20
43.3459969977
 10
33.9198581686
 20
43.5709362297
 10
33.8645050627
 20
43.7957269362
 10
33.7971879367
 20
44.0196721742
 10
33.7183793371
 20
44.2420386447
 10
33.6285163731
 20
44.4620568861
 10
33.5281092862
 20
44.6787368639
 10
33.4176429571
 20
44.8912926275
 10
33.2975450646
 20
45.0989329508
 10
33.1684073635
 20
45.3006461367
 10
33.0306979092
 20
45.4956634795
 10
32.8848572057
 20
45.6831755412
 10
32.7314949988
 20
45.8622524086
 10
32.5710575587
 20
46.0321225491
 10
32.4039391135
 20
46.1920302604
 10
32.2305040141
 20
46.3412469328
 10
32.0510004328
 20
46.4790245606
 10
31.8658363166
 20
46.6045005072
 10
31.7446758397
 20
46.6778542441
  0
LINE
  5
54E
100
AcDbEntity
  8
RACCORDO
100
AcDbLine
 62
250
  6
CONTINUOUS
 10
33.72579867
 20
42.3452928728
 11
33.72579867
 21
17.5755521764
  0
LINE
  5
54F
100
AcDbEntity
  8
VARIANTE_COLORE
100
AcDbLine
 62
250
  6
CONTINUOUS
 10
33.72579867
 20
42.3452928728
 11
33.72579867
 21
17.5755521764
  0
LINE
  5
550
100
AcDbEntity
  8
RACCORDO
100
AcDbLine
 62
7
  6
CONTINUOUS
 10
34.0125482209
 20
42.7499890973
 11
34.0125482209
 21
17.9802483876
  0
LINE
  5
551
100
AcDbEntity
  8
VARIANTE_COLORE
100
AcDbLine
 62
7
  6
CONTINUOUS
 10
34.0125482209
 20
42.7499890973
 11
34.0125482209
 21
17.9802483876
  0
LINE
  5
552
100
AcDbEntity
  8
VARIANTE_COLORE
100
AcDbLine
 62
250
  6
CONTINUOUS
 10
34.0125482209
 20
17.9802483876
 11
34.0125482187
 21
17.9802105839
  0
LINE
  5
553
100
AcDbEntity
  8
VARIANTE_COLORE
100
AcDbLine
 62
250
  6
CONTINUOUS
 10
34.0125482209
 20
42.7499890973
 11
34.0125481657
 21
42.7497973213
  0
LWPOLYLINE
  5
554
100
AcDbEntity
  8
RACCORDO
100
AcDbPolyline
 62
250
  6
CONTINUOUS
 90
13
 70
0
 10
33.72579867
 20
17.5755521764
 10
33.7208790149
 20
17.3919055732
 10
33.7053615435
 20
17.2151706825
 10
33.679311521
 20
17.0461003305
 10
33.6428386423
 20
16.8854196977
 10
33.5961003537
 20
16.7338065635
 10
33.5392965831
 20
16.5918925695
 10
33.4726627574
 20
16.4602774641
 10
33.3964829479
 20
16.3395342641
 10
33.3110913711
 20
16.2301906217
 10
33.2168565201
 20
16.1327165656
 10
33.114177941
 20
16.0475245485
 10
33.0187836774
 20
15.9839597803
  0
LWPOLYLINE
  5
555
100
AcDbEntity
  8
VARIANTE_COLORE
100
AcDbPolyline
 62
250
  6
CONTINUOUS
 90
13
 70
0
 10
33.72579867
 20
17.5755521764
 10
33.7208790149
 20
17.3919055732
 10
33.7053615435
 20
17.2151706825
 10
33.679311521
 20
17.0461003305
 10
33.6428386423
 20
16.8854196977
 10
33.5961003537
 20
16.7338065635
 10
33.5392965831
 20
16.5918925695
 10
33.4726627574
 20
16.4602774641
 10
33.3964829479
 20
16.3395342641
 10
33.3110913711
 20
16.2301906217
 10
33.2168565201
 20
16.1327165656
 10
33.114177941
 20
16.0475245485
 10
33.0187836774
 20
15.9839597803
  0
LWPOLYLINE
  5
556
100
AcDbEntity
  8
RACCORDO
100
AcDbPolyline
 62
250
  6
CONTINUOUS
 90
9
 70
0
 10
34.0125482187
 20
17.9802105839
 10
34.0114105888
 20
17.9527149963
 10
34.0010423076
 20
17.892913041
 10
33.9799637397
 20
17.8340573332
 10
33.9484032563
 20
17.7767855739
 10
33.9067028087
 20
17.7217183124
 10
33.8553142155
 20
17.6694522056
 10
33.7947942608
 20
17.6205535543
 10
33.72579867
 20
17.5755521771
  0
LWPOLYLINE
  5
557
100
AcDbEntity
  8
VARIANTE_COLORE
100
AcDbPolyline
 62
250
  6
CONTINUOUS
 90
9
 70
0
 10
34.0125482187
 20
17.9802105839
 10
34.0114105888
 20
17.9527149963
 10
34.0010423076
 20
17.892913041
 10
33.9799637397
 20
17.8340573332
 10
33.9484032563
 20
17.7767855739
 10
33.9067028087
 20
17.7217183124
 10
33.8553142155
 20
17.6694522056
 10
33.7947942608
 20
17.6205535543
 10
33.72579867
 20
17.5755521771
  0
LWPOLYLINE
  5
558
100
AcDbEntity
  8
RACCORDO
100
AcDbPolyline
 62
7
  6
CONTINUOUS
 90
34
 70
0
 10
16.3823160191
 20
46.3349249122
 10
16.3131166909
 20
46.3729898603
 10
16.2412252992
 20
46.408957415
 10
16.166641844
 20
46.4428275764
 10
16.0892026102
 20
46.4746618597
 10
16.009071313
 20
46.5043987495
 10
15.9267390973
 20
46.5318537002
 10
15.8421492724
 20
46.5570230348
 10
15.755358529
 20
46.5799104301
 10
15.6670280853
 20
46.6003423705
 10
15.577206289
 20
46.6182910113
 10
15.4858447924
 20
46.6337841971
 10
15.3934597696
 20
46.6467319469
 10
15.2999700466
 20
46.6571254421
 10
15.2054567976
 20
46.6649735013
 10
15.1106797183
 20
46.6702125992
 10
15.015716154
 20
46.6728215605
 10
14.9204887595
 20
46.6728215605
 10
14.8255251952
 20
46.6702125992
 10
14.7307481159
 20
46.6649735013
 10
14.6362348668
 20
46.6571254421
 10
14.5427451439
 20
46.6467319469
 10
14.450360121
 20
46.6337841971
 10
14.3589986244
 20
46.6182910113
 10
14.2691768281
 20
46.6003423705
 10
14.1808463844
 20
46.5799104301
 10
14.0940556411
 20
46.5570230348
 10
14.0094658161
 20
46.5318537002
 10
13.9271336005
 20
46.5043987495
 10
13.8470023032
 20
46.4746618597
 10
13.7695630694
 20
46.4428275764
 10
13.6949796142
 20
46.408957415
 10
13.6230882225
 20
46.3729898603
 10
13.5538888943
 20
46.3349249122
  0
LWPOLYLINE
  5
559
100
AcDbEntity
  8
VARIANTE_COLORE
100
AcDbPolyline
 62
7
  6
CONTINUOUS
 90
34
 70
0
 10
16.3823160191
 20
46.3349249122
 10
16.3131166909
 20
46.3729898603
 10
16.2412252992
 20
46.408957415
 10
16.166641844
 20
46.4428275764
 10
16.0892026102
 20
46.4746618597
 10
16.009071313
 20
46.5043987495
 10
15.9267390973
 20
46.5318537002
 10
15.8421492724
 20
46.5570230348
 10
15.755358529
 20
46.5799104301
 10
15.6670280853
 20
46.6003423705
 10
15.577206289
 20
46.6182910113
 10
15.4858447924
 20
46.6337841971
 10
15.3934597696
 20
46.6467319469
 10
15.2999700466
 20
46.6571254421
 10
15.2054567976
 20
46.6649735013
 10
15.1106797183
 20
46.6702125992
 10
15.015716154
 20
46.6728215605
 10
14.9204887595
 20
46.6728215605
 10
14.8255251952
 20
46.6702125992
 10
14.7307481159
 20
46.6649735013
 10
14.6362348668
 20
46.6571254421
 10
14.5427451439
 20
46.6467319469
 10
14.450360121
 20
46.6337841971
 10
14.3589986244
 20
46.6182910113
 10
14.2691768281
 20
46.6003423705
 10
14.1808463844
 20
46.5799104301
 10
14.0940556411
 20
46.5570230348
 10
14.0094658161
 20
46.5318537002
 10
13.9271336005
 20
46.5043987495
 10
13.8470023032
 20
46.4746618597
 10
13.7695630694
 20
46.4428275764
 10
13.6949796142
 20
46.408957415
 10
13.6230882225
 20
46.3729898603
 10
13.5538888943
 20
46.3349249122
  0
LINE
  5
55A
100
AcDbEntity
  8
0
100
AcDbLine
 62
7
  6
CONTINUOUS
 10
15.6254314333
 20
46.6086544217
 11
20.3620228358
 21
43.8738059093
  0
LINE
  5
55B
100
AcDbEntity
  8
RACCORDO
100
AcDbLine
 62
7
  6
CONTINUOUS
 10
16.3823160191
 20
46.3349249122
 11
19.917849925
 21
44.2935519456
  0
LINE
  5
55C
100
AcDbEntity
  8
VARIANTE_COLORE
100
AcDbLine
 62
7
  6
CONTINUOUS
 10
16.3823160191
 20
46.3349249122
 11
19.917849925
 21
44.2935519456
  0
LINE
  5
55D
100
AcDbEntity
  8
RACCORDO
100
AcDbLine
 62
7
  6
CONTINUOUS
 10
16.3823160191
 20
46.6433992587
 11
19.917849925
 21
44.6020262921
  0
LINE
  5
55E
100
AcDbEntity
  8
VARIANTE_COLORE
100
AcDbLine
 62
7
  6
CONTINUOUS
 10
16.3823160191
 20
46.6433992587
 11
19.917849925
 21
44.6020262921
  0
LWPOLYLINE
  5
55F
100
AcDbEntity
  8
RACCORDO
100
AcDbPolyline
 62
250
  6
CONTINUOUS
 90
3
 70
0
 10
28.8467849618
 20
48.3444359325
 10
28.8864834531
 20
48.3275227016
 10
28.9031554594
 20
48.3185180833
  0
LWPOLYLINE
  5
560
100
AcDbEntity
  8
VARIANTE_COLORE
100
AcDbPolyline
 62
250
  6
CONTINUOUS
 90
3
 70
0
 10
28.8467849618
 20
48.3444359325
 10
28.8864834531
 20
48.3275227016
 10
28.9031554594
 20
48.3185180833
  0
LWPOLYLINE
  5
561
100
AcDbEntity
  8
RACCORDO
100
AcDbPolyline
 62
250
  6
CONTINUOUS
 90
9
 70
0
 10
31.7446782178
 20
46.6778583678
 10
31.7204366944
 20
46.6905388994
 10
31.6634658769
 20
46.7114549036
 10
31.6019593365
 20
46.7226224957
 10
31.5365834888
 20
46.723920662
 10
31.4680466865
 20
46.7153353263
 10
31.3970915254
 20
46.6969595041
 10
31.324486797
 20
46.668992289
 10
31.2510191709
 20
46.6317366977
  0
LWPOLYLINE
  5
562
100
AcDbEntity
  8
VARIANTE_COLORE
100
AcDbPolyline
 62
250
  6
CONTINUOUS
 90
9
 70
0
 10
31.7446782178
 20
46.6778583678
 10
31.7204366944
 20
46.6905388994
 10
31.6634658769
 20
46.7114549036
 10
31.6019593365
 20
46.7226224957
 10
31.5365834888
 20
46.723920662
 10
31.4680466865
 20
46.7153353263
 10
31.3970915254
 20
46.6969595041
 10
31.324486797
 20
46.668992289
 10
31.2510191709
 20
46.6317366977
  0
LWPOLYLINE
  5
563
100
AcDbEntity
  8
RACCORDO
100
AcDbPolyline
 62
250
  6
CONTINUOUS
 90
9
 70
0
 10
21.4652087924
 20
52.6130952666
 10
21.4408073057
 20
52.6258679965
 10
21.3838364754
 20
52.646783855
 10
21.3223299679
 20
52.6579513133
 10
21.2569542013
 20
52.6592493729
 10
21.1884175168
 20
52.6506639695
 10
21.117462504
 20
52.6322881251
 10
21.0448579549
 20
52.6043209407
 10
20.9713905342
 20
52.5670654385
  0
LWPOLYLINE
  5
564
100
AcDbEntity
  8
VARIANTE_COLORE
100
AcDbPolyline
 62
250
  6
CONTINUOUS
 90
9
 70
0
 10
21.4652087924
 20
52.6130952666
 10
21.4408073057
 20
52.6258679965
 10
21.3838364754
 20
52.646783855
 10
21.3223299679
 20
52.6579513133
 10
21.2569542013
 20
52.6592493729
 10
21.1884175168
 20
52.6506639695
 10
21.117462504
 20
52.6322881251
 10
21.0448579549
 20
52.6043209407
 10
20.9713905342
 20
52.5670654385
  0
LWPOLYLINE
  5
565
100
AcDbEntity
  8
RACCORDO
100
AcDbPolyline
 62
250
  6
CONTINUOUS
 90
12
 70
0
 10
21.8320876475
 20
52.4012640166
 10
21.8154156411
 20
52.4102686349
 10
21.7757171498
 20
52.4271818658
 10
21.7335639079
 20
52.4391607556
 10
21.6891892601
 20
52.4461389006
 10
21.6428389887
 20
52.4480776474
 10
21.5947682206
 20
52.4449661644
 10
21.5452441532
 20
52.4368215917
 10
21.4945452674
 20
52.4236903987
 10
21.4429538038
 20
52.4056471592
 10
21.3907538226
 20
52.3827926653
 10
21.3382340798
 20
52.3552545729
  0
LWPOLYLINE
  5
566
100
AcDbEntity
  8
VARIANTE_COLORE
100
AcDbPolyline
 62
250
  6
CONTINUOUS
 90
12
 70
0
 10
21.8320876475
 20
52.4012640166
 10
21.8154156411
 20
52.4102686349
 10
21.7757171498
 20
52.4271818658
 10
21.7335639079
 20
52.4391607556
 10
21.6891892601
 20
52.4461389006
 10
21.6428389887
 20
52.4480776474
 10
21.5947682206
 20
52.4449661644
 10
21.5452441532
 20
52.4368215917
 10
21.4945452674
 20
52.4236903987
 10
21.4429538038
 20
52.4056471592
 10
21.3907538226
 20
52.3827926653
 10
21.3382340798
 20
52.3552545729
  0
LWPOLYLINE
  5
567
100
AcDbEntity
  8
RACCORDO
100
AcDbPolyline
 62
7
  6
CONTINUOUS
 90
16
 70
0
 10
21.4652049239
 20
52.6130885594
 10
21.3067866873
 20
52.6988322953
 10
21.1411558156
 20
52.7764841683
 10
20.9766647117
 20
52.84163274
 10
20.8137573764
 20
52.8944600182
 10
20.6526603413
 20
52.935271807
 10
20.4935330124
 20
52.9643348799
 10
20.3367370991
 20
52.981836511
 10
20.182694632
 20
52.9880027623
 10
20.0318340844
 20
52.9830940038
 10
19.8846546746
 20
52.9673893943
 10
19.7416688676
 20
52.941206706
 10
19.6034547732
 20
52.9049659536
 10
19.470547272
 20
52.8591710135
 10
19.3433815915
 20
52.8043500613
 10
19.2389425111
 20
52.750425123
  0
LWPOLYLINE
  5
568
100
AcDbEntity
  8
VARIANTE_COLORE
100
AcDbPolyline
 62
7
  6
CONTINUOUS
 90
16
 70
0
 10
21.4652049239
 20
52.6130885594
 10
21.3067866873
 20
52.6988322953
 10
21.1411558156
 20
52.7764841683
 10
20.9766647117
 20
52.84163274
 10
20.8137573764
 20
52.8944600182
 10
20.6526603413
 20
52.935271807
 10
20.4935330124
 20
52.9643348799
 10
20.3367370991
 20
52.981836511
 10
20.182694632
 20
52.9880027623
 10
20.0318340844
 20
52.9830940038
 10
19.8846546746
 20
52.9673893943
 10
19.7416688676
 20
52.941206706
 10
19.6034547732
 20
52.9049659536
 10
19.470547272
 20
52.8591710135
 10
19.3433815915
 20
52.8043500613
 10
19.2389425111
 20
52.750425123
  0
LWPOLYLINE
  5
569
100
AcDbEntity
  8
RACCORDO
100
AcDbPolyline
 62
7
  6
CONTINUOUS
 90
12
 70
0
 10
28.9033166003
 20
48.3184249825
 10
28.892631329
 20
48.3244679518
 10
28.8308830586
 20
48.3545995785
 10
28.765232581
 20
48.3785945152
 10
28.6964525466
 20
48.39587602
 10
28.62466279
 20
48.4061102845
 10
28.5505527548
 20
48.4088566197
 10
28.4748038047
 20
48.4037908313
 10
28.3973144924
 20
48.3905206748
 10
28.3183719393
 20
48.3685531938
 10
28.2388716903
 20
48.3375898337
 10
28.1594982754
 20
48.2973985062
  0
LWPOLYLINE
  5
56A
100
AcDbEntity
  8
VARIANTE_COLORE
100
AcDbPolyline
 62
7
  6
CONTINUOUS
 90
12
 70
0
 10
28.9033166003
 20
48.3184249825
 10
28.892631329
 20
48.3244679518
 10
28.8308830586
 20
48.3545995785
 10
28.765232581
 20
48.3785945152
 10
28.6964525466
 20
48.39587602
 10
28.62466279
 20
48.4061102845
 10
28.5505527548
 20
48.4088566197
 10
28.4748038047
 20
48.4037908313
 10
28.3973144924
 20
48.3905206748
 10
28.3183719393
 20
48.3685531938
 10
28.2388716903
 20
48.3375898337
 10
28.1594982754
 20
48.2973985062
  0
LINE
  5
56B
100
AcDbEntity
  8
VARIANTE_COLORE
100
AcDbLine
 62
250
  6
CONTINUOUS
 10
31.7448727509
 20
46.6777461342
 11
31.7446782178
 21
46.6778583678
  0
LINE
  5
56C
100
AcDbEntity
  8
RACCORDO
100
AcDbLine
 62
250
  6
CONTINUOUS
 10
27.65134838
 20
48.0091195455
 11
21.9063874128
 21
51.3261880067
  0
LINE
  5
56D
100
AcDbEntity
  8
VARIANTE_COLORE
100
AcDbLine
 62
250
  6
CONTINUOUS
 10
27.65134838
 20
48.0091195455
 11
21.9063874128
 21
51.3261880067
  0
LINE
  5
56E
100
AcDbEntity
  8
RACCORDO
100
AcDbLine
 62
7
  6
CONTINUOUS
 10
27.8495540711
 20
48.1215637892
 11
22.1796732789
 21
51.3952818982
  0
LINE
  5
56F
100
AcDbEntity
  8
VARIANTE_COLORE
100
AcDbLine
 62
7
  6
CONTINUOUS
 10
27.8495540711
 20
48.1215637892
 11
22.1796732789
 21
51.3952818982
  0
LINE
  5
570
100
AcDbEntity
  8
RACCORDO
100
AcDbLine
 62
250
  6
CONTINUOUS
 10
20.9713905342
 20
52.5670654385
 11
21.3382340798
 21
52.3552545729
  0
LINE
  5
571
100
AcDbEntity
  8
VARIANTE_COLORE
100
AcDbLine
 62
250
  6
CONTINUOUS
 10
20.9713905342
 20
52.5670654385
 11
21.3382340798
 21
52.3552545729
  0
LINE
  5
572
100
AcDbEntity
  8
RACCORDO
100
AcDbLine
 62
250
  6
CONTINUOUS
 10
28.4093018917
 20
48.2725086396
 11
31.2510191715
 21
46.6317366974
  0
LINE
  5
573
100
AcDbEntity
  8
VARIANTE_COLORE
100
AcDbLine
 62
250
  6
CONTINUOUS
 10
28.4093018917
 20
48.2725086396
 11
31.2510191715
 21
46.6317366974
  0
LINE
  5
574
100
AcDbEntity
  8
RACCORDO
100
AcDbLine
 62
7
  6
CONTINUOUS
 10
21.4652441022
 20
52.613074882
 11
21.8320876475
 21
52.4012640166
  0
LINE
  5
575
100
AcDbEntity
  8
VARIANTE_COLORE
100
AcDbLine
 62
7
  6
CONTINUOUS
 10
21.4652441022
 20
52.613074882
 11
21.8320876475
 21
52.4012640166
  0
LINE
  5
576
100
AcDbEntity
  8
RACCORDO
100
AcDbLine
 62
7
  6
CONTINUOUS
 10
28.9031554594
 20
48.3185180833
 11
31.7448727509
 21
46.6777461342
  0
LINE
  5
577
100
AcDbEntity
  8
VARIANTE_COLORE
100
AcDbLine
 62
7
  6
CONTINUOUS
 10
28.9031554594
 20
48.3185180833
 11
31.7448727509
 21
46.6777461342
  0
LINE
  5
578
100
AcDbEntity
  8
VARIANTE_COLORE
100
AcDbLine
 62
250
  6
CONTINUOUS
 10
21.4652441022
 20
52.613074882
 11
21.4652087924
 21
52.6130952666
  0
LINE
  5
579
100
AcDbEntity
  8
VARIANTE_COLORE
100
AcDbLine
 62
250
  6
CONTINUOUS
 10
28.9031554594
 20
48.3185180833
 11
28.9033166003
 21
48.3184249825
  0
LWPOLYLINE
  5
57A
100
AcDbEntity
  8
RACCORDO
100
AcDbPolyline
 62
250
  6
CONTINUOUS
 90
25
 70
0
 10
31.2510191715
 20
46.6317366974
 10
31.413295947
 20
46.5323596184
 10
31.574844363
 20
46.421166173
 10
31.7349689852
 20
46.2986332547
 10
31.8929712687
 20
46.1652908543
 10
32.04818226
 20
46.0217070146
 10
32.1999640743
 20
45.8684808923
 10
32.3476746207
 20
45.706255061
 10
32.4906673437
 20
45.53573084
 10
32.6283238324
 20
45.3576512
 10
32.7600512633
 20
45.1727839151
 10
32.8852874894
 20
44.981914903
 10
33.0034994256
 20
44.7858594318
 10
33.1141818703
 20
44.5854575808
 10
33.216860024
 20
44.3815667314
 10
33.3110945312
 20
44.175055892
 10
33.3964858871
 20
43.9668046872
 10
33.4726655023
 20
43.7577105416
 10
33.5392990827
 20
43.5486806565
 10
33.5961026371
 20
43.3406252849
 10
33.6428406265
 20
43.1344220957
 10
33.6793129502
 20
42.9309241898
 10
33.7053622989
 20
42.7309951973
 10
33.7208792338
 20
42.5355045723
 10
33.72579867
 20
42.3452928728
  0
LWPOLYLINE
  5
57B
100
AcDbEntity
  8
VARIANTE_COLORE
100
AcDbPolyline
 62
250
  6
CONTINUOUS
 90
25
 70
0
 10
31.2510191715
 20
46.6317366974
 10
31.413295947
 20
46.5323596184
 10
31.574844363
 20
46.421166173
 10
31.7349689852
 20
46.2986332547
 10
31.8929712687
 20
46.1652908543
 10
32.04818226
 20
46.0217070146
 10
32.1999640743
 20
45.8684808923
 10
32.3476746207
 20
45.706255061
 10
32.4906673437
 20
45.53573084
 10
32.6283238324
 20
45.3576512
 10
32.7600512633
 20
45.1727839151
 10
32.8852874894
 20
44.981914903
 10
33.0034994256
 20
44.7858594318
 10
33.1141818703
 20
44.5854575808
 10
33.216860024
 20
44.3815667314
 10
33.3110945312
 20
44.175055892
 10
33.3964858871
 20
43.9668046872
 10
33.4726655023
 20
43.7577105416
 10
33.5392990827
 20
43.5486806565
 10
33.5961026371
 20
43.3406252849
 10
33.6428406265
 20
43.1344220957
 10
33.6793129502
 20
42.9309241898
 10
33.7053622989
 20
42.7309951973
 10
33.7208792338
 20
42.5355045723
 10
33.72579867
 20
42.3452928728
  0
ARC
  5
57C
100
AcDbEntity
  8
SUPERFICI
100
AcDbCircle
 62
7
  6
CONTINUOUS
 10
8.2247185781
 20
-5.6310461027
 40
0.5
100
AcDbArc
 50
239.9984015654
 51
297.4194204711
  0
ARC
  5
57D
100
AcDbEntity
  8
SUPERFICI
100
AcDbCircle
 62
7
  6
CONTINUOUS
 10
-6.6434955903
 20
2.9536744156
 40
0.5
100
AcDbArc
 50
179.9840060021
 51
239.998401565
  0
ARC
  5
57E
100
AcDbEntity
  8
SUPERFICI
100
AcDbCircle
 62
7
  6
CONTINUOUS
 10
-6.6434955903
 20
45.1054466978
 40
0.5
100
AcDbArc
 50
122.5992954234
 51
180.0013071251
  0
ARC
  5
57F
100
AcDbEntity
  8
RACCORDO
100
AcDbCircle
 62
7
  6
CONTINUOUS
 10
16.0977793189
 20
39.9277545406
 40
0.2
100
AcDbArc
 50
301.7206976971
 51
360.0
  0
ARC
  5
580
100
AcDbEntity
  8
RACCORDO
100
AcDbCircle
 62
7
  6
CONTINUOUS
 10
4.4180506458
 20
45.1113644976
 40
0.2
100
AcDbArc
 50
114.2212587925
 51
118.7191233489
  0
ARC
  5
581
100
AcDbEntity
  8
RACCORDO
100
AcDbCircle
 62
7
  6
CONTINUOUS
 10
14.9822632279
 20
39.0117205534
 40
0.2
100
AcDbArc
 50
301.2425547428
 51
31.9325136209
  0
ARC
  5
582
100
AcDbEntity
  8
RACCORDO
100
AcDbCircle
 62
7
  6
CONTINUOUS
 10
14.9822632279
 20
4.6515558493
 40
0.2
100
AcDbArc
 50
301.3161129487
 51
30.0000004024
  0
ARC
  5
583
100
AcDbEntity
  8
ASSI
100
AcDbCircle
 62
7
  6
CONTINUOUS
 10
4.2912691358
 20
43.9602210031
 40
0.2
100
AcDbArc
 50
119.0851069684
 51
154.7491247989
  0
ARC
  5
584
100
AcDbEntity
  8
ASSI
100
AcDbCircle
 62
7
  6
CONTINUOUS
 10
0.1057429258
 20
44.9067970831
 40
0.2
100
AcDbArc
 50
59.9984015652
 51
118.2824903446
  0
ARC
  5
585
100
AcDbEntity
  8
ASSI
100
AcDbCircle
 62
7
  6
CONTINUOUS
 10
10.8092895737
 20
38.3573924059
 40
0.2
100
AcDbArc
 50
315.731226065
 51
0.0244884549
  0
ARC
  5
586
100
AcDbEntity
  8
ASSI
100
AcDbCircle
 62
7
  6
CONTINUOUS
 10
10.8092895737
 20
38.7267033955
 40
0.2
100
AcDbArc
 50
359.9837886302
 51
59.9984015652
  0
ARC
  5
587
100
AcDbEntity
  8
ASSI
100
AcDbCircle
 62
7
  6
CONTINUOUS
 10
1.6329467915
 20
44.0250087114
 40
0.2
100
AcDbArc
 50
359.9895357921
 51
59.9984015652
  0
ARC
  5
588
100
AcDbEntity
  8
ASSI
100
AcDbCircle
 62
7
  6
CONTINUOUS
 10
1.6329467915
 20
43.6556977218
 40
0.2
100
AcDbArc
 50
315.7300112913
 51
0.0272094451
  0
ARC
  5
589
100
AcDbEntity
  8
ASSI
100
AcDbCircle
 62
7
  6
CONTINUOUS
 10
9.282085708
 20
39.6084917672
 40
0.2
100
AcDbArc
 50
59.9984015652
 51
118.2824903446
  0
ELLIPSE
  5
58A
100
AcDbEntity
  8
RACCORDO
100
AcDbEllipse
 62
7
  6
CONTINUOUS
 10
-100.1785332443
 20
-29.3755163277
 30
0.0
 11
402.8595621856
 21
232.6078586167
 31
0.0
 40
0.0628494143
 41
-1.3277255145
 42
-1.3258935879
  0
ELLIPSE
  5
58B
100
AcDbEntity
  8
ASSI
100
AcDbEllipse
 62
7
  6
CONTINUOUS
 10
11.0291268703
 20
40.1546235701
 30
0.0
 11
0.999867518
 21
-0.0292282715
 31
0.0
 40
0.5568983954
 41
5.6013315027
 42
7.0848613669
  0
ELLIPSE
  5
58C
100
AcDbEntity
  8
RACCORDO
100
AcDbEllipse
 62
7
  6
CONTINUOUS
 10
-100.1785332443
 20
-41.3001590098
 30
0.0
 11
403.1242860915
 21
268.5419470062
 31
0.0
 40
0.0022336512
 41
-1.2929406363
 42
-1.2911087097
  0
ELLIPSE
  5
58D
100
AcDbEntity
  8
0
100
AcDbEllipse
 62
7
  6
CONTINUOUS
 10
-977.615787756
 20
-514.7376592946
 30
0.0
 11
1091.3872670356
 21
588.1465940607
 31
0.0
 40
0.0261556157
 41
-0.4518169214
 42
-0.4513581923
  0
ELLIPSE
  5
58E
100
AcDbEntity
  8
RACCORDO
100
AcDbEllipse
 62
7
  6
CONTINUOUS
 10
14.0640969739
 20
42.4768682294
 30
0.0
 11
0.0829370165
 21
0.1826426485
 31
0.0
 40
0.6140939192
 41
0.1918278223
 42
0.7080791103
  0
ELLIPSE
  5
58F
100
AcDbEntity
  8
SUPERFICI
100
AcDbEllipse
 62
7
  6
CONTINUOUS
 10
10.619274557
 20
-4.389574486
 30
0.0
 11
-0.2501834304
 21
0.4333025529
 31
0.0
 40
0.5769361983
 41
-3.1677535987
 42
-2.3565853618
  0
ELLIPSE
  5
590
100
AcDbEntity
  8
SUPERFICI
100
AcDbEllipse
 62
7
  6
CONTINUOUS
 10
10.619274557
 20
37.903305972
 30
0.0
 11
-0.2500121049
 21
0.4330057129
 31
0.0
 40
0.5777274115
 41
-2.3559002616
 42
-0.7857891675
  0
ELLIPSE
  5
591
100
AcDbEntity
  8
RACCORDO
100
AcDbEllipse
 62
7
  6
CONTINUOUS
 10
11.7330889328
 20
33.265189175
 30
0.0
 11
0.143107575
 21
0.2366201515
 31
0.0
 40
0.5904602253
 41
-1.5588007257
 42
-0.7734027153
  0
ELLIPSE
  5
592
100
AcDbEntity
  8
SUPERFICI
100
AcDbEllipse
 62
7
  6
CONTINUOUS
 10
-4.3711468133
 20
46.558587397
 30
0.0
 11
-0.2501834304
 21
0.4333025529
 31
0.0
 40
0.5769361983
 41
-0.7851038024
 42
0.0261609458
  0
ELLIPSE
  5
593
100
AcDbEntity
  8
SUPERFICI
100
AcDbEllipse
 62
7
  6
CONTINUOUS
 10
10.7646138766
 20
1.2793013722
 30
0.0
 11
0.3037200246
 21
0.1710449014
 31
0.0
 40
0.0105151745
 41
0.6673087948
 42
0.7742146559
  0
ELLIPSE
  5
594
100
AcDbEntity
  8
SUPERFICI
100
AcDbEllipse
 62
7
  6
CONTINUOUS
 10
10.6880788385
 20
1.323491744
 30
0.0
 11
0.4568380168
 21
0.0702030008
 31
0.0
 40
0.2209951355
 41
0.2918164413
 42
0.3503969549
  0
ELLIPSE
  5
595
100
AcDbEntity
  8
RACCORDO
100
AcDbEllipse
 62
7
  6
CONTINUOUS
 10
11.7330889328
 20
1.0853652738
 30
0.0
 11
0.1999879242
 21
-0.1103320873
 31
0.0
 40
0.0199195284
 41
-0.7744091265
 42
0.7963872003
  0
ELLIPSE
  5
596
100
AcDbEntity
  8
RACCORDO
100
AcDbEllipse
 62
7
  6
CONTINUOUS
 10
12.6699111787
 20
7.89861553
 30
0.0
 11
-1.7502178194
 21
3.0312709316
 31
0.0
 40
0.5772877058
 41
-2.5426741412
 42
-2.3562808805
  0
ELLIPSE
  5
597
100
AcDbEntity
  8
RACCORDO
100
AcDbEllipse
 62
7
  6
CONTINUOUS
 10
12.6699111787
 20
33.0456824261
 30
0.0
 11
-1.7500845798
 21
3.0310400795
 31
0.0
 40
0.5773756362
 41
-2.3562047428
 42
-2.1698114821
  0
ELLIPSE
  5
598
100
AcDbEntity
  8
RACCORDO
100
AcDbEllipse
 62
7
  6
CONTINUOUS
 10
18.5036363626
 20
43.8139801888
 30
0.0
 11
1.9999289676
 21
-0.0297165836
 31
0.0
 40
0.5672251703
 41
0.1409707798
 42
0.7938262603
  0
ELLIPSE
  5
599
100
AcDbEntity
  8
RACCORDO
100
AcDbEllipse
 62
7
  6
CONTINUOUS
 10
14.9681024567
 20
45.8553531555
 30
0.0
 11
1.9999289676
 21
-0.0297165836
 31
0.0
 40
0.5672251703
 41
0.7938262603
 42
2.3646225871
  0
ELLIPSE
  5
59A
100
AcDbEntity
  8
VARIANTE_COLORE
100
AcDbEllipse
 62
7
  6
CONTINUOUS
 10
14.9681024567
 20
45.8553531555
 30
0.0
 11
1.9999289676
 21
-0.0297165836
 31
0.0
 40
0.5672251703
 41
0.7938262603
 42
2.3646225871
  0
ELLIPSE
  5
59B
100
AcDbEntity
  8
VARIANTE_COLORE
100
AcDbEllipse
 62
7
  6
CONTINUOUS
 10
18.5036363626
 20
43.8139801888
 30
0.0
 11
1.9999289676
 21
-0.0297165836
 31
0.0
 40
0.5672251703
 41
0.1409707798
 42
0.7938262603
  0
ELLIPSE
  5
59C
100
AcDbEntity
  8
VARIANTE_COLORE
100
AcDbEllipse
 62
7
  6
CONTINUOUS
 10
12.6699111787
 20
33.0456824261
 30
0.0
 11
-1.7500845798
 21
3.0310400795
 31
0.0
 40
0.5773756362
 41
-2.3562047428
 42
-2.1698114821
  0
ELLIPSE
  5
59D
100
AcDbEntity
  8
VARIANTE_COLORE
100
AcDbEllipse
 62
7
  6
CONTINUOUS
 10
12.6699111787
 20
7.89861553
 30
0.0
 11
-1.7502178194
 21
3.0312709316
 31
0.0
 40
0.5772877058
 41
-2.5426741412
 42
-2.3562808805
  0
ENDSEC
  0
SECTION
  2
OBJECTS
  0
DICTIONARY
  5
C
100
AcDbDictionary
280
0
281
1
  3
ACAD_GROUP
350
D
  3
ACAD_MLINESTYLE
350
17
  3
ACAD_LAYOUT
350
1A
  3
ACAD_PLOTSETTINGS
350
19
  3
ACAD_PLOTSTYLENAME
350
E
  0
DICTIONARY
  5
D
102
{ACAD_REACTORS
330
C
102
}
100
AcDbDictionary
280
0
281
1
  0
ACDBDICTIONARYWDFLT
  5
E
102
{ACAD_REACTORS
330
C
102
}
100
AcDbDictionary
281
1
  3
Normal
350
F
100
AcDbDictionaryWithDefault
340
F
  0
DICTIONARY
  5
17
102
{ACAD_REACTORS
330
C
102
}
100
AcDbDictionary
280
0
281
1
  3
Standard
350
18
  0
DICTIONARY
  5
19
102
{ACAD_REACTORS
330
C
102
}
100
AcDbDictionary
281
1
  0
DICTIONARY
  5
1A
102
{ACAD_REACTORS
330
C
102
}
100
AcDbDictionary
281
1
  3
Model
350
59E
  3
Layout1
350
59F
  0
ACDBPLACEHOLDER
  5
F
102
{ACAD_REACTORS
330
E
102
}
  0
MLINESTYLE
  5
18
102
{ACAD_REACTORS
330
17
102
}
100
AcDbMlineStyle
  2
STANDARD
 70
0
  3

 62
256
 51
90.0
 52
90.0
 71
2
 49
0.5
 62
256
  6
BYLAYER
 49
-0.5
 62
256
  6
BYLAYER
  0
LAYOUT
  5
59E
102
{ACAD_REACTORS
330
1A
102
}
100
AcDbPlotSettings
  1

  2
none_device
  4
ISO_A4_(297.00_x_210.00_MM)
  6

 40
0.0
 41
0.0
 42
0.0
 43
0.0
 44
297.0
 45
210.0
 46
0.0
 47
0.0
 48
0.0
 49
0.0
140
0.0
141
0.0
142
1.0
143
1.0
 70
1024
 72
1
 73
0
 74
0
  7

 75
0
147
1.0
148
0.0
149
0.0
100
AcDbLayout
  1
Model
 70
0
 71
0
 10
0.0
 20
0.0
 11
297.0
 21
210.0
 12
0.0
 22
0.0
 32
0.0
 14
0.0
 24
0.0
 34
0.0
 15
0.0
 25
0.0
 35
0.0
146
0.0
 13
0.0
 23
0.0
 33
0.0
 16
1.0
 26
0.0
 36
0.0
 17
0.0
 27
1.0
 37
0.0
 76
0
330
219
345
0
346
0
  0
LAYOUT
  5
59F
102
{ACAD_REACTORS
330
1A
102
}
100
AcDbPlotSettings
  1

  2
none_device
  4
ISO_A4_(297.00_x_210.00_MM)
  6

 40
0.0
 41
0.0
 42
0.0
 43
0.0
 44
297.0
 45
210.0
 46
0.0
 47
0.0
 48
0.0
 49
0.0
140
0.0
141
0.0
142
1.0
143
1.0
 70
0
 72
1
 73
0
 74
0
  7

 75
0
147
1.0
148
0.0
149
0.0
100
AcDbLayout
  1
Layout1
 70
0
 71
1
 10
0.0
 20
0.0
 11
297.0
 21
210.0
 12
0.0
 22
0.0
 32
0.0
 14
0.0
 24
0.0
 34
0.0
 15
0.0
 25
0.0
 35
0.0
146
0.0
 13
0.0
 23
0.0
 33
0.0
 16
1.0
 26
0.0
 36
0.0
 17
0.0
 27
1.0
 37
0.0
 76
0
330
21A
345
0
346
0
  0
ENDSEC
  0
EOF
