  0
SECTION
  2
HEADER
  9
$ACADVER
  1
AC1024
  9
$DWGCODEPAGE
  3
ANSI_1252
  9
$EXTMAX
 10
297.0
 20
210.0
 30
0.0
  9
$EXTMIN
 10
0.0
 20
0.0
 30
0.0
  9
$LIMMIN
 10
0.0
 20
0.0
  9
$LIMMAX
 10
297.0
 20
210.0
  9
$VIEWCTR
 10
148.5
 20
105.0
  9
$VIEWSIZE
 40
210.0
  9
$CLAYER
  8
0
  9
$LTSCALE
 40
16.335
  9
$CELTYPE
  6
BYLAYER
  9
$DIMSCALE
 40
1.0
  9
$DIMASZ
 40
3.0
  9
$DIMEXO
 40
0.5
  9
$DIMDLI
 40
11.286
  9
$DIMEXE
 40
1.5
  9
$DIMCEN
 40
2.673
  9
$DIMLFAC
 40
1.0
  9
$DIMBLK
  1
_FILLED
  9
$DIMALT
 70
0
  9
$DIMALTF
 40
0.0393700787
  9
$DIMTXT
 40
3.0
  9
$DIMTOL
 70
1
  9
$DIMLIM
 70
0
  9
$DIMTFAC
 40
1.0
  9
$DIMTP
 40
0.01
  9
$DIMTM
 40
0.01
  9
$DIMGAP
 40
0.625
  9
$DIMDSEP
 70
44
  9
$AUNITS
 70
0
  9
$PDMODE
 70
3
  9
$PDSIZE
 40
3.0
  9
$HANDSEED
  5
4CC
  9
$TILEMODE
 70
1
  9
$MEASUREMENT
 70
1
  9
$INSUNITS
 70
4
  0
ENDSEC
  0
SECTION
  2
CLASSES
  0
CLASS
  1
ACDBDICTIONARYWDFLT
  2
AcDbDictionaryWithDefault
  3
AutoCAD 2000
 90
0
 91
1
280
0
281
0
  0
CLASS
  1
ACDBPLACEHOLDER
  2
AcDbPlaceHolder
  3
AutoCAD 2000
 90
0
 91
1
280
0
281
0
  0
CLASS
  1
LAYOUT
  2
AcDbLayout
  3
AutoCAD 2000
 90
0
 91
0
280
0
281
0
  0
ENDSEC
  0
SECTION
  2
TABLES
  0
TABLE
  2
VPORT
  5
8
100
AcDbSymbolTable
 70
2
  0
VPORT
  5
1F4
100
AcDbSymbolTableRecord
100
AcDbViewportTableRecord
  2
*ACTIVE
 70
0
 10
0.0
 20
0.0
 11
1.0
 21
1.0
 12
148.5
 22
105.0
 13
0.0
 23
0.0
 14
1.0
 24
1.0
 15
0.0
 25
0.0
 16
0.0
 26
0.0
 36
1.0
 17
0.0
 27
0.0
 37
0.0
 40
210.0
 41
1.4142857143
 42
50.0
 43
0.0
 44
0.0
 50
0.0
 51
0.0
 71
0
 72
100
 73
1
 74
1
 75
0
 76
0
 77
0
 78
0
  0
ENDTAB
  0
TABLE
  2
LTYPE
  5
5
100
AcDbSymbolTable
 70
6
  0
LTYPE
  5
14
100
AcDbSymbolTableRecord
100
AcDbLinetypeTableRecord
  2
BYBLOCK
 70
0
  3

 72
65
 73
0
 40
0.0
  0
LTYPE
  5
15
100
AcDbSymbolTableRecord
100
AcDbLinetypeTableRecord
  2
BYLAYER
 70
0
  3

 72
65
 73
0
 40
0.0
  0
LTYPE
  5
16
100
AcDbSymbolTableRecord
100
AcDbLinetypeTableRecord
  2
CONTINUOUS
 70
64
  3
Solid line
 72
65
 73
0
 40
0.0
  0
LTYPE
  5
1F5
100
AcDbSymbolTableRecord
100
AcDbLinetypeTableRecord
  2
CENTER
 70
64
  3
____ _ ____ _ ____ _ ____ _ ____ _ ____ _ ____
 72
65
 73
4
 40
0.6
 49
0.375
 74
0
 49
-0.075
 74
0
 49
0.075
 74
0
 49
-0.075
 74
0
  0
LTYPE
  5
1F6
100
AcDbSymbolTableRecord
100
AcDbLinetypeTableRecord
  2
HIDDEN
 70
64
  3
- - - - - - - - - - - - - - - - - - - -
 72
65
 73
2
 40
0.2
 49
0.1
 74
0
 49
-0.1
 74
0
  0
LTYPE
  5
1F7
100
AcDbSymbolTableRecord
100
AcDbLinetypeTableRecord
  2
PHANTOM
 70
64
  3
_____ _ _ _____ _ _ _____ _ _ _____
 72
65
 73
6
 40
0.8
 49
0.45
 74
0
 49
-0.05
 74
0
 49
0.1
 74
0
 49
-0.05
 74
0
 49
0.1
 74
0
 49
-0.05
 74
0
  0
LTYPE
  5
1F8
100
AcDbSymbolTableRecord
100
AcDbLinetypeTableRecord
  2
DOT
 70
64
  3
. . . . . . . . . . . . . . . . . . . .
 72
65
 73
2
 40
0.2
 49
0.1
 74
0
 49
-0.1
 74
0
  0
LTYPE
  5
1F9
100
AcDbSymbolTableRecord
100
AcDbLinetypeTableRecord
  2
DASHED
 70
64
  3
- - - - - - - - - - - - - - - - - - - -
 72
65
 73
2
 40
0.2
 49
0.1
 74
0
 49
-0.1
 74
0
  0
ENDTAB
  0
TABLE
  2
LAYER
  5
2
100
AcDbSymbolTable
 70
36
  0
LAYER
  5
10
100
AcDbSymbolTableRecord
100
AcDbLayerTableRecord
  2
0
 70
0
 62
7
  6
CONTINUOUS
370
-3
390
F
  0
LAYER
  5
1FA
100
AcDbSymbolTableRecord
100
AcDbLayerTableRecord
  2
DEFAULT_1
 70
0
 62
7
  6
CENTER
370
-3
390
F
  0
LAYER
  5
1FB
100
AcDbSymbolTableRecord
100
AcDbLayerTableRecord
  2
DEFAULT_2
 70
0
 62
7
  6
HIDDEN
370
-3
390
F
  0
LAYER
  5
1FC
100
AcDbSymbolTableRecord
100
AcDbLayerTableRecord
  2
DEFAULT_3
 70
0
 62
7
  6
PHANTOM
370
-3
390
F
  0
LAYER
  5
1FD
100
AcDbSymbolTableRecord
100
AcDbLayerTableRecord
  2
ASSI
 70
0
 62
7
  6
CONTINUOUS
370
-3
390
F
  0
LAYER
  5
1FE
100
AcDbSymbolTableRecord
100
AcDbLayerTableRecord
  2
COORDINATE
 70
0
 62
7
  6
CONTINUOUS
370
-3
390
F
  0
LAYER
  5
1FF
100
AcDbSymbolTableRecord
100
AcDbLayerTableRecord
  2
COORD_ORIGINE
 70
0
 62
7
  6
CONTINUOUS
370
-3
390
F
  0
LAYER
  5
200
100
AcDbSymbolTableRecord
100
AcDbLayerTableRecord
  2
COPY_PUBLISH
 70
0
 62
7
  6
CONTINUOUS
370
-3
390
F
  0
LAYER
  5
201
100
AcDbSymbolTableRecord
100
AcDbLayerTableRecord
  2
COSMETICHE
 70
0
 62
7
  6
CONTINUOUS
370
-3
390
F
  0
LAYER
  5
202
100
AcDbSymbolTableRecord
100
AcDbLayerTableRecord
  2
COSMETICI
 70
0
 62
7
  6
CONTINUOUS
370
-3
390
F
  0
LAYER
  5
203
100
AcDbSymbolTableRecord
100
AcDbLayerTableRecord
  2
CURVE
 70
0
 62
7
  6
CONTINUOUS
370
-3
390
F
  0
LAYER
  5
204
100
AcDbSymbolTableRecord
100
AcDbLayerTableRecord
  2
DRAFT
 70
0
 62
7
  6
CONTINUOUS
370
-3
390
F
  0
LAYER
  5
205
100
AcDbSymbolTableRecord
100
AcDbLayerTableRecord
  2
IMPORT_IGES
 70
0
 62
7
  6
CONTINUOUS
370
-3
390
F
  0
LAYER
  5
206
100
AcDbSymbolTableRecord
100
AcDbLayerTableRecord
  2
INTF_9
 70
0
 62
7
  6
CONTINUOUS
370
-3
390
F
  0
LAYER
  5
207
100
AcDbSymbolTableRecord
100
AcDbLayerTableRecord
  2
NOTE
 70
0
 62
7
  6
CONTINUOUS
370
-3
390
F
  0
LAYER
  5
208
100
AcDbSymbolTableRecord
100
AcDbLayerTableRecord
  2
PIANI
 70
0
 62
7
  6
CONTINUOUS
370
-3
390
F
  0
LAYER
  5
209
100
AcDbSymbolTableRecord
100
AcDbLayerTableRecord
  2
PIANI_ORIGINE
 70
0
 62
7
  6
CONTINUOUS
370
-3
390
F
  0
LAYER
  5
20A
100
AcDbSymbolTableRecord
100
AcDbLayerTableRecord
  2
PUNTI
 70
0
 62
7
  6
CONTINUOUS
370
-3
390
F
  0
LAYER
  5
20B
100
AcDbSymbolTableRecord
100
AcDbLayerTableRecord
  2
RACCORDO
 70
0
 62
7
  6
CONTINUOUS
370
-3
390
F
  0
LAYER
  5
20C
100
AcDbSymbolTableRecord
100
AcDbLayerTableRecord
  2
SIMBOLI
 70
0
 62
7
  6
CONTINUOUS
370
-3
390
F
  0
LAYER
  5
20D
100
AcDbSymbolTableRecord
100
AcDbLayerTableRecord
  2
SMUSSO
 70
0
 62
7
  6
CONTINUOUS
370
-3
390
F
  0
LAYER
  5
20E
100
AcDbSymbolTableRecord
100
AcDbLayerTableRecord
  2
SNAPLINE
 70
0
 62
7
  6
CONTINUOUS
370
-3
390
F
  0
LAYER
  5
20F
100
AcDbSymbolTableRecord
100
AcDbLayerTableRecord
  2
SUPERFICI
 70
0
 62
7
  6
CONTINUOUS
370
-3
390
F
  0
LAYER
  5
210
100
AcDbSymbolTableRecord
100
AcDbLayerTableRecord
  2
TRASH
 70
0
 62
7
  6
CONTINUOUS
370
-3
390
F
  0
ENDTAB
  0
TABLE
  2
STYLE
  5
3
100
AcDbSymbolTable
 70
1
  0
STYLE
  5
11
100
AcDbSymbolTableRecord
100
AcDbTextStyleTableRecord
  2
STANDARD
 70
0
 40
0.0
 41
0.8
 50
0.0
 71
0
 42
0.2
  3
txt
  4

  0
STYLE
  5
211
100
AcDbSymbolTableRecord
100
AcDbTextStyleTableRecord
  2
TEXTSTYLE_1
 70
0
 40
0.0
 41
0.8
 50
0.0
 71
0
 42
0.2
  3
gdt
  4

  0
ENDTAB
  0
TABLE
  2
VIEW
  5
6
100
AcDbSymbolTable
 70
0
  0
ENDTAB
  0
TABLE
  2
UCS
  5
7
100
AcDbSymbolTable
 70
0
  0
ENDTAB
  0
TABLE
  2
APPID
  5
9
100
AcDbSymbolTable
 70
1
  0
APPID
  5
212
100
AcDbSymbolTableRecord
100
AcDbRegAppTableRecord
  2
ACAD
 70
0
  0
ENDTAB
  0
TABLE
  2
BLOCK_RECORD
  5
1
100
AcDbSymbolTable
 70
0
  0
BLOCK_RECORD
  5
213
100
AcDbSymbolTableRecord
100
AcDbBlockTableRecord
  2
*Model_Space
  0
BLOCK_RECORD
  5
214
100
AcDbSymbolTableRecord
100
AcDbBlockTableRecord
  2
*Paper_Space
  0
BLOCK_RECORD
  5
215
100
AcDbSymbolTableRecord
100
AcDbBlockTableRecord
  2
_FILLED
  0
ENDTAB
  0
TABLE
  2
DIMSTYLE
  5
A
100
AcDbSymbolTable
 70
1
100
AcDbDimStyleTable
 71
0
  0
DIMSTYLE
105
216
100
AcDbSymbolTableRecord
100
AcDbDimStyleTableRecord
  2
STANDARD
 70
0
  3

  4

 40
1.0
 41
3.0
 42
0.5
 43
0.38
 44
1.5
 45
0.0
 46
0.0
 47
0.01
 48
0.01
140
3.0
141
0.09
142
0.0
143
25.4
144
1.0
145
0.0
146
1.0
147
0.625
 71
1
 72
0
 73
0
 74
0
 75
0
 76
0
 77
1
 78
8
 79
2
170
0
171
1
172
0
173
0
174
0
175
0
176
0
177
0
178
0
270
2
179
2
271
2
272
2
273
2
274
2
275
0
280
0
281
0
282
0
283
1
284
8
285
0
286
0
287
3
288
0
340
11
278
44
341
215
342
215
343
215
344
215
  0
ENDTAB
  0
ENDSEC
  0
SECTION
  2
BLOCKS
  0
BLOCK
  5
20
100
AcDbEntity
  8
0
100
AcDbBlockBegin
  2
*Model_Space
 70
0
 10
0.0
 20
0.0
 30
0.0
  3
*Model_Space
  1

  0
ENDBLK
  5
21
100
AcDbEntity
  8
0
100
AcDbBlockEnd
  0
BLOCK
  5
1C
100
AcDbEntity
  8
0
100
AcDbBlockBegin
  2
*Paper_Space
 70
0
 10
0.0
 20
0.0
 30
0.0
  3
*Paper_Space
  1

  0
ENDBLK
  5
1D
100
AcDbEntity
  8
0
100
AcDbBlockEnd
  0
BLOCK
  5
217
100
AcDbEntity
  8
0
100
AcDbBlockBegin
  2
_FILLED
 70
64
 10
0.0
 20
0.0
  3
_FILLED
  1

  0
SOLID
  5
218
100
AcDbEntity
  8
0
  6
BYBLOCK
 62
0
100
AcDbTrace
 10
0.0
 20
0.0
 11
-1.0
 21
0.3166666667
 12
-1.0
 22
-0.3166666667
 13
-1.0
 23
-0.3166666667
  0
ENDBLK
  5
219
100
AcDbEntity
  8
0
  6
BYBLOCK
 62
0
100
AcDbBlockEnd
  0
ENDSEC
  0
SECTION
  2
ENTITIES
  0
LWPOLYLINE
  5
21A
100
AcDbEntity
  8
RACCORDO
100
AcDbPolyline
 62
7
  6
CONTINUOUS
 90
16
 70
0
 10
-38.341560088
 20
58.4637241078
 10
-38.3655175209
 20
58.4473069056
 10
-38.4155289977
 20
58.4088293756
 10
-38.4633329841
 20
58.3659403777
 10
-38.5086249172
 20
58.3186269005
 10
-38.5509898065
 20
58.2670252242
 10
-38.5899821376
 20
58.2114475904
 10
-38.6253604355
 20
58.1520397748
 10
-38.656887376
 20
58.0889746296
 10
-38.6842791064
 20
58.0226249229
 10
-38.7074092479
 20
57.9531776331
 10
-38.7261810931
 20
57.8807535482
 10
-38.7404709501
 20
57.8055861433
 10
-38.7502064151
 20
57.7278362455
 10
-38.7553279557
 20
57.6476191162
 10
-38.7561506659
 20
57.599300962
  0
LINE
  5
21B
100
AcDbEntity
  8
RACCORDO
100
AcDbLine
 62
7
  6
CONTINUOUS
 10
-38.3420669876
 20
58.4633919127
 11
-36.8921774935
 21
59.4217007255
  0
LINE
  5
21C
100
AcDbEntity
  8
RACCORDO
100
AcDbLine
 62
250
  6
CONTINUOUS
 10
-37.5618134707
 20
58.4081197564
 11
-36.1168359735
 21
59.3631819701
  0
LWPOLYLINE
  5
21D
100
AcDbEntity
  8
RACCORDO
100
AcDbPolyline
 62
7
  6
CONTINUOUS
 90
16
 70
0
 10
-31.9775994692
 20
57.8918395759
 10
-32.0015567959
 20
57.8754224269
 10
-32.0515681962
 20
57.8369448983
 10
-32.0993721101
 20
57.7940559136
 10
-32.1446640001
 20
57.7467424859
 10
-32.1870288566
 20
57.6951408857
 10
-32.2260211273
 20
57.639563331
 10
-32.2613993499
 20
57.5801556151
 10
-32.2929262359
 20
57.5170905787
 10
-32.3203179529
 20
57.450740965
 10
-32.343448109
 20
57.3812937281
 10
-32.3622199791
 20
57.3088696442
 10
-32.3765098601
 20
57.2337021709
 10
-32.386245354
 20
57.1559521666
 10
-32.3913669186
 20
57.0757349234
 10
-32.3921896352
 20
57.0274166426
  0
LINE
  5
21E
100
AcDbEntity
  8
RACCORDO
100
AcDbLine
 62
7
  6
CONTINUOUS
 10
-30.5282164628
 20
58.8498164374
 11
-31.9781059559
 21
57.8915076252
  0
LINE
  5
21F
100
AcDbEntity
  8
RACCORDO
100
AcDbLine
 62
250
  6
CONTINUOUS
 10
-29.7528749429
 20
58.791297682
 11
-31.19785244
 21
57.8362354683
  0
LINE
  5
220
100
AcDbEntity
  8
RACCORDO
100
AcDbLine
 62
250
  6
CONTINUOUS
 10
-32.6112045017
 20
55.5497001834
 11
-32.3921896354
 21
55.6944587166
  0
LINE
  5
221
100
AcDbEntity
  8
DRAFT
100
AcDbLine
 62
7
  6
CONTINUOUS
 10
-36.6478581825
 20
49.1410981406
 11
-36.8599902169
 21
48.9971861946
  0
LINE
  5
222
100
AcDbEntity
  8
RACCORDO
100
AcDbLine
 62
7
  6
CONTINUOUS
 10
-36.7639001503
 20
49.4113978623
 11
-37.269845941
 21
49.0790605452
  0
LINE
  5
223
100
AcDbEntity
  8
DRAFT
100
AcDbLine
 62
7
  6
CONTINUOUS
 10
-36.7639001503
 20
49.4113978623
 11
-36.5106572593
 21
49.5777438712
  0
LINE
  5
224
100
AcDbEntity
  8
RACCORDO
100
AcDbLine
 62
250
  6
CONTINUOUS
 10
-37.1781136204
 20
52.1952070801
 11
-37.1635943585
 21
52.2040117175
  0
LINE
  5
225
100
AcDbEntity
  8
RACCORDO
100
AcDbLine
 62
7
  6
CONTINUOUS
 10
-37.1635943585
 20
52.2040117175
 11
-37.1634859332
 21
52.2040700767
  0
LINE
  5
226
100
AcDbEntity
  8
RACCORDO
100
AcDbLine
 62
250
  6
CONTINUOUS
 10
-37.269845941
 20
51.9736109915
 11
-36.9910181608
 21
52.1235555485
  0
LWPOLYLINE
  5
227
100
AcDbEntity
  8
RACCORDO
100
AcDbPolyline
 62
7
  6
CONTINUOUS
 90
13
 70
0
 10
-38.5642227691
 20
43.5028280762
 10
-38.5805416621
 20
43.491894703
 10
-38.6108937551
 20
43.4686995624
 10
-38.6387256205
 20
43.4434407471
 10
-38.6638962614
 20
43.4162550196
 10
-38.6862528829
 20
43.3873159003
 10
-38.7056242563
 20
43.3569145942
 10
-38.7218930905
 20
43.3253586312
 10
-38.7350149635
 20
43.2928939205
 10
-38.7449526739
 20
43.2598371739
 10
-38.751721423
 20
43.2265208729
 10
-38.7553833537
 20
43.1932512719
 10
-38.7561492389
 20
43.1692743797
  0
LINE
  5
228
100
AcDbEntity
  8
RACCORDO
100
AcDbLine
 62
7
  6
CONTINUOUS
 10
-38.5642227691
 20
43.5028280761
 11
-38.1462598021
 21
43.7703479364
  0
LINE
  5
229
100
AcDbEntity
  8
0
100
AcDbLine
 62
7
  6
CONTINUOUS
 10
-32.3440013157
 20
47.8437164514
 11
-29.8523383773
 21
49.4371060144
  0
LINE
  5
22A
100
AcDbEntity
  8
0
100
AcDbLine
 62
250
  6
CONTINUOUS
 10
-29.5959437765
 20
49.4162423424
 11
-32.0838823145
 21
47.8252344904
  0
LWPOLYLINE
  5
22B
100
AcDbEntity
  8
0
100
AcDbPolyline
 62
250
  6
CONTINUOUS
 90
11
 70
0
 10
-32.3439979157
 20
47.8437186256
 10
-32.337233068
 20
47.8478213034
 10
-32.3144019118
 20
47.8587412777
 10
-32.2897491954
 20
47.8663356375
 10
-32.2634576878
 20
47.8705492906
 10
-32.2357017345
 20
47.8713492153
 10
-32.2067163519
 20
47.8687238204
 10
-32.1767989241
 20
47.8627123783
 10
-32.1462092459
 20
47.8533949756
 10
-32.1151583087
 20
47.8408629845
 10
-32.0838823145
 20
47.8252344904
  0
LWPOLYLINE
  5
22C
100
AcDbEntity
  8
RACCORDO
100
AcDbPolyline
 62
250
  6
CONTINUOUS
 90
16
 70
0
 10
-37.9030280259
 20
57.8031202961
 10
-37.9011763276
 20
57.8459161014
 10
-37.8956406113
 20
57.8904020324
 10
-37.8864788366
 20
57.9361121168
 10
-37.8737869453
 20
57.9825675568
 10
-37.85769786
 20
58.0292817351
 10
-37.8383800946
 20
58.0757653111
 10
-37.8160359812
 20
58.1215313677
 10
-37.7908995587
 20
58.1661004925
 10
-37.7632341289
 20
58.2090057912
 10
-37.7333294776
 20
58.2497978161
 10
-37.7014988526
 20
58.2880492479
 10
-37.668075698
 20
58.3233593596
 10
-37.6334101319
 20
58.3553582519
 10
-37.5978652758
 20
58.3837107222
 10
-37.5618134707
 20
58.4081197564
  0
LWPOLYLINE
  5
22D
100
AcDbEntity
  8
RACCORDO
100
AcDbPolyline
 62
250
  6
CONTINUOUS
 90
16
 70
0
 10
-38.6097040567
 20
42.9645576768
 10
-38.6085675782
 20
42.9905341459
 10
-38.605170363
 20
43.0175445909
 10
-38.5995488249
 20
43.0452995992
 10
-38.5917632092
 20
43.0735017902
 10
-38.5818969481
 20
43.1018489817
 10
-38.5700557705
 20
43.1300374271
 10
-38.5563665637
 20
43.1577651023
 10
-38.5409760139
 20
43.1847349302
 10
-38.5240490403
 20
43.2106579445
 10
-38.5057670184
 20
43.2352564078
 10
-38.4863258355
 20
43.2582667834
 10
-38.4659337984
 20
43.279442549
 10
-38.4448093975
 20
43.298556844
 10
-38.4231789648
 20
43.3154048992
 10
-38.4012742511
 20
43.3298062281
  0
LWPOLYLINE
  5
22E
100
AcDbEntity
  8
RACCORDO
100
AcDbPolyline
 62
7
  6
CONTINUOUS
 90
4
 70
0
 10
-32.3986883943
 20
55.4909205606
 10
-32.4003918811
 20
55.4848120629
 10
-32.4013976248
 20
55.4819011251
 10
-32.4015329097
 20
55.4815570461
  0
LINE
  5
22F
100
AcDbEntity
  8
RACCORDO
100
AcDbLine
 62
250
  6
CONTINUOUS
 10
-38.4061236209
 20
43.4929674337
 11
-38.1462598021
 21
43.6592948983
  0
LINE
  5
230
100
AcDbEntity
  8
RACCORDO
100
AcDbLine
 62
250
  6
CONTINUOUS
 10
-36.8285962721
 20
42.2992911318
 11
-36.0954562843
 21
42.7526758976
  0
LINE
  5
231
100
AcDbEntity
  8
RACCORDO
100
AcDbLine
 62
7
  6
CONTINUOUS
 10
-35.9146072563
 20
42.2184621236
 11
-35.9149695144
 21
42.2182382753
  0
LINE
  5
232
100
AcDbEntity
  8
RACCORDO
100
AcDbLine
 62
250
  6
CONTINUOUS
 10
-36.5106572593
 20
43.4219601144
 11
-35.7301923371
 21
43.8725923263
  0
LINE
  5
233
100
AcDbEntity
  8
RACCORDO
100
AcDbLine
 62
250
  6
CONTINUOUS
 10
-37.269845941
 20
42.9622361227
 11
-36.5106572593
 21
43.4005806991
  0
LINE
  5
234
100
AcDbEntity
  8
RACCORDO
100
AcDbLine
 62
250
  6
CONTINUOUS
 10
-36.1756799184
 20
42.7989864228
 11
-35.6401959783
 21
43.1081692002
  0
LINE
  5
235
100
AcDbEntity
  8
RACCORDO
100
AcDbLine
 62
250
  6
CONTINUOUS
 10
-36.9163463983
 20
42.3499569549
 11
-36.1571577166
 21
42.7883015313
  0
LWPOLYLINE
  5
236
100
AcDbEntity
  8
RACCORDO
100
AcDbPolyline
 62
250
  6
CONTINUOUS
 90
15
 70
0
 10
-35.9149695144
 20
42.2182382753
 10
-35.9495856772
 20
42.1984232887
 10
-36.0039477498
 20
42.1730401175
 10
-36.0610234186
 20
42.1529650997
 10
-36.1207001519
 20
42.1382462748
 10
-36.1831027441
 20
42.1289176658
 10
-36.2482072457
 20
42.1251082504
 10
-36.3156943265
 20
42.1269583337
 10
-36.3852512797
 20
42.1345456382
 10
-36.4567551247
 20
42.1479436125
 10
-36.5298747263
 20
42.1671715008
 10
-36.6039344858
 20
42.19206798
 10
-36.6785182997
 20
42.222454067
 10
-36.7534957746
 20
42.2582445071
 10
-36.8285962721
 20
42.2992911318
  0
LWPOLYLINE
  5
237
100
AcDbEntity
  8
RACCORDO
100
AcDbPolyline
 62
250
  6
CONTINUOUS
 90
9
 70
0
 10
-38.5641475812
 20
43.5028762464
 10
-38.5519368867
 20
43.5095805469
 10
-38.5343362033
 20
43.5159647806
 10
-38.5152913539
 20
43.5194395087
 10
-38.4950108359
 20
43.5199666914
 10
-38.4737166733
 20
43.517540558
 10
-38.4516419881
 20
43.5121876695
 10
-38.4290284484
 20
43.5039666275
 10
-38.4061236209
 20
43.4929674337
  0
LINE
  5
238
100
AcDbEntity
  8
RACCORDO
100
AcDbLine
 62
250
  6
CONTINUOUS
 10
-36.0954562843
 20
42.7526758976
 11
-35.6401959783
 21
42.9975001574
  0
LINE
  5
239
100
AcDbEntity
  8
DRAFT
100
AcDbLine
 62
7
  6
CONTINUOUS
 10
-36.5291711515
 20
46.2154046134
 11
-36.6478581825
 21
46.1566441316
  0
LINE
  5
23A
100
AcDbEntity
  8
DRAFT
100
AcDbLine
 62
7
  6
CONTINUOUS
 10
-36.6478581825
 20
45.851064497
 11
-36.8599902169
 21
45.750011687
  0
LINE
  5
23B
100
AcDbEntity
  8
DRAFT
100
AcDbLine
 62
7
  6
CONTINUOUS
 10
-36.5106572593
 20
46.2047149241
 11
-36.6478581825
 21
46.1418371538
  0
LWPOLYLINE
  5
23C
100
AcDbEntity
  8
RACCORDO
100
AcDbPolyline
 62
7
  6
CONTINUOUS
 90
3
 70
0
 10
4.7150761503
 20
-17.2821062361
 10
4.7091577094
 20
-17.282294125
 10
4.706389788
 20
-17.2821814901
  0
LWPOLYLINE
  5
23D
100
AcDbEntity
  8
RACCORDO
100
AcDbPolyline
 62
250
  6
CONTINUOUS
 90
3
 70
0
 10
-38.7527013824
 20
13.252643759
 10
-38.7558585055
 20
13.2767822905
 10
-38.7561505247
 20
13.286498651
  0
LWPOLYLINE
  5
23E
100
AcDbEntity
  8
RACCORDO
100
AcDbPolyline
 62
250
  6
CONTINUOUS
 90
10
 70
0
 10
-38.7561506099
 20
23.3574993663
 10
-38.7543405535
 20
23.3332561248
 10
-38.7490275529
 20
23.3093895247
 10
-38.7401129389
 20
23.2855453435
 10
-38.7274692946
 20
23.2618203286
 10
-38.711086004
 20
23.238513186
 10
-38.691027512
 20
23.2159009157
 10
-38.6673833605
 20
23.1942089835
 10
-38.6402310442
 20
23.1736184494
 10
-38.6097040567
 20
23.1543328111
  0
LWPOLYLINE
  5
23F
100
AcDbEntity
  8
RACCORDO
100
AcDbPolyline
 62
250
  6
CONTINUOUS
 90
10
 70
0
 10
-38.7561506099
 20
53.2403114969
 10
-38.7543405535
 20
53.2160682554
 10
-38.7490275529
 20
53.1922016553
 10
-38.7401129389
 20
53.1683574741
 10
-38.7274692946
 20
53.1446324593
 10
-38.711086004
 20
53.1213253167
 10
-38.691027512
 20
53.0987130463
 10
-38.6673833605
 20
53.0770211141
 10
-38.6402310442
 20
53.05643058
 10
-38.6097040567
 20
53.0371449417
  0
LWPOLYLINE
  5
240
100
AcDbEntity
  8
RACCORDO
100
AcDbPolyline
 62
250
  6
CONTINUOUS
 90
9
 70
0
 10
-38.6097040567
 20
23.1543328111
 10
-38.6085676178
 20
23.1296691021
 10
-38.6051705116
 20
23.106581964
 10
-38.5995491354
 20
23.0853187592
 10
-38.5917637197
 20
23.0661073091
 10
-38.5818976786
 20
23.0491534501
 10
-38.5700567159
 20
23.034638829
 10
-38.5563676981
 20
23.0227189591
 10
-38.5476282092
 20
23.0170400279
  0
LWPOLYLINE
  5
241
100
AcDbEntity
  8
RACCORDO
100
AcDbPolyline
 62
250
  6
CONTINUOUS
 90
9
 70
0
 10
-38.6097040567
 20
53.0371449417
 10
-38.6085676178
 20
53.0124812328
 10
-38.6051705116
 20
52.9893940946
 10
-38.5995491354
 20
52.9681308898
 10
-38.5917637197
 20
52.9489194397
 10
-38.5818976786
 20
52.9319655807
 10
-38.5700567159
 20
52.9174509596
 10
-38.5563676981
 20
52.9055310898
 10
-38.5476282092
 20
52.8998521585
  0
LWPOLYLINE
  5
242
100
AcDbEntity
  8
RACCORDO
100
AcDbPolyline
 62
250
  6
CONTINUOUS
 90
9
 70
0
 10
-37.1247762181
 20
22.4194246291
 10
-37.1236397943
 20
22.3947609289
 10
-37.1202426987
 20
22.371673797
 10
-37.1146213288
 20
22.3504105959
 10
-37.1068359139
 20
22.3311991461
 10
-37.0969698691
 20
22.3142452851
 10
-37.0851289024
 20
22.2997306616
 10
-37.0714398814
 20
22.2878107898
 10
-37.0626867518
 20
22.2821239737
  0
LWPOLYLINE
  5
243
100
AcDbEntity
  8
RACCORDO
100
AcDbPolyline
 62
250
  6
CONTINUOUS
 90
5
 70
0
 10
-37.037026092
 20
22.3687588061
 10
-37.0358896363
 20
22.3440947704
 10
-37.0324924564
 20
22.321007403
 10
-37.0268709675
 20
22.2997440627
 10
-37.0190854173
 20
22.2805325641
  0
LWPOLYLINE
  5
244
100
AcDbEntity
  8
RACCORDO
100
AcDbPolyline
 62
250
  6
CONTINUOUS
 90
9
 70
0
 10
-37.9030280259
 20
11.7453638642
 10
-37.9011762727
 20
11.7047057684
 10
-37.8956404104
 20
11.6666119283
 10
-37.8864784278
 20
11.6314813805
 10
-37.8737862974
 20
11.5996821212
 10
-37.8576969706
 20
11.5715472505
 10
-37.8383789847
 20
11.547371484
 10
-37.8160346974
 20
11.5274080652
 10
-37.7994867154
 20
11.5164954336
  0
LWPOLYLINE
  5
245
100
AcDbEntity
  8
RACCORDO
100
AcDbPolyline
 62
250
  6
CONTINUOUS
 90
9
 70
0
 10
-36.6293743191
 20
11.0099721765
 10
-36.6275225146
 20
10.9693135344
 10
-36.6219865162
 20
10.9312193067
 10
-36.6128243397
 20
10.8960885251
 10
-36.6001319866
 20
10.8642891759
 10
-36.5840424353
 20
10.8361543388
 10
-36.5647242447
 20
10.8119787017
 10
-36.5423797964
 20
10.7920154845
 10
-36.5258330085
 20
10.7811037459
  0
LWPOLYLINE
  5
246
100
AcDbEntity
  8
RACCORDO
100
AcDbPolyline
 62
250
  6
CONTINUOUS
 90
9
 70
0
 10
-35.2160222574
 20
2.8456879184
 10
-35.2141705042
 20
2.8050298226
 10
-35.2086346419
 20
2.7669359825
 10
-35.1994726593
 20
2.7318054348
 10
-35.1867805289
 20
2.7000061754
 10
-35.1706912021
 20
2.6718713047
 10
-35.1513732162
 20
2.6476955382
 10
-35.1290289289
 20
2.6277321194
 10
-35.1124809468
 20
2.6168194878
  0
LWPOLYLINE
  5
247
100
AcDbEntity
  8
RACCORDO
100
AcDbPolyline
 62
7
  6
CONTINUOUS
 90
12
 70
0
 10
-38.756150608
 20
23.3574974217
 10
-38.7551383153
 20
23.3305124986
 10
-38.7500510128
 20
23.2912300283
 10
-38.7406170065
 20
23.252228562
 10
-38.7268106741
 20
23.2139559572
 10
-38.7087196679
 20
23.1769735559
 10
-38.6865837294
 20
23.1418491335
 10
-38.6606386985
 20
23.10893362
 10
-38.6311239677
 20
23.0785086771
 10
-38.5983084963
 20
23.0508000495
 10
-38.562416209
 20
23.025935848
 10
-38.5476282091
 20
23.0170400278
  0
LWPOLYLINE
  5
248
100
AcDbEntity
  8
RACCORDO
100
AcDbPolyline
 62
7
  6
CONTINUOUS
 90
12
 70
0
 10
-38.756150608
 20
53.2403095523
 10
-38.7551383153
 20
53.2133246292
 10
-38.7500510128
 20
53.1740421589
 10
-38.7406170065
 20
53.1350406926
 10
-38.7268106741
 20
53.0967680878
 10
-38.7087196679
 20
53.0597856865
 10
-38.6865837294
 20
53.0246612641
 10
-38.6606386985
 20
52.9917457507
 10
-38.6311239677
 20
52.9613208077
 10
-38.5983084963
 20
52.9336121801
 10
-38.562416209
 20
52.9087479786
 10
-38.5476282091
 20
52.8998521584
  0
LWPOLYLINE
  5
249
100
AcDbEntity
  8
RACCORDO
100
AcDbPolyline
 62
7
  6
CONTINUOUS
 90
19
 70
0
 10
-36.5106572593
 20
13.5177685685
 10
-36.5093226263
 20
13.4821661553
 10
-36.5055619128
 20
13.4458914573
 10
-36.4993751189
 20
13.4089444744
 10
-36.4906838355
 20
13.3710543661
 10
-36.4795664717
 20
13.332491973
 10
-36.4662582546
 20
13.2940698168
 10
-36.45071268
 20
13.2557904707
 10
-36.4329762521
 20
13.2176513616
 10
-36.4134237111
 20
13.1804572914
 10
-36.392016644
 20
13.1442285271
 10
-36.3687934638
 20
13.1089448018
 10
-36.3442441499
 20
13.0753501172
 10
-36.3183253899
 20
13.0434809559
 10
-36.2910804963
 20
13.0133008352
 10
-36.263129386
 20
12.9854443088
 10
-36.234678698
 20
12.9601228945
 10
-36.2055217934
 20
12.9371250744
 10
-36.1756586721
 20
12.9164508486
  0
LWPOLYLINE
  5
24A
100
AcDbEntity
  8
RACCORDO
100
AcDbPolyline
 62
250
  6
CONTINUOUS
 90
25
 70
0
 10
-38.6097040567
 20
12.9693626528
 10
-38.6080907586
 20
12.9144664625
 10
-38.6035522298
 20
12.8586853344
 10
-38.5960884703
 20
12.8020192687
 10
-38.5856449243
 20
12.7442680269
 10
-38.5722761477
 20
12.6856318473
 10
-38.5561458081
 20
12.6267114452
 10
-38.5372166408
 20
12.5674531576
 10
-38.5155259106
 20
12.5079106474
 10
-38.4913490793
 20
12.448845618
 10
-38.4646538318
 20
12.3902659023
 10
-38.4354724831
 20
12.3321636674
 10
-38.4041774403
 20
12.2752771186
 10
-38.3707747378
 20
12.2196581383
 10
-38.3352583412
 20
12.165254844
 10
-38.2979825547
 20
12.1126497936
 10
-38.2589025242
 20
12.0618160423
 10
-38.2180631039
 20
12.0127805349
 10
-38.1759531608
 20
11.9662066627
 10
-38.1325342517
 20
11.9221089152
 10
-38.0878448197
 20
11.8804728029
 10
-38.0424890615
 20
11.8419182493
 10
-37.9966683759
 20
11.8066518956
 10
-37.950181364
 20
11.7744671005
 10
-37.9030280259
 20
11.7453638642
  0
LWPOLYLINE
  5
24B
100
AcDbEntity
  8
RACCORDO
100
AcDbPolyline
 62
250
  6
CONTINUOUS
 90
25
 70
0
 10
-35.9226982882
 20
4.0696867071
 10
-35.9210905113
 20
4.0148444306
 10
-35.9165590275
 20
3.9591082405
 10
-35.9091038368
 20
3.9024781366
 10
-35.8986714161
 20
3.8447533168
 10
-35.8853152885
 20
3.7861345832
 10
-35.8691960234
 20
3.7272243425
 10
-35.8502741031
 20
3.6679657294
 10
-35.8285890454
 20
3.6084156092
 10
-35.8044199725
 20
3.5493469835
 10
-35.7777383043
 20
3.490775834
 10
-35.748572621
 20
3.432686179
 10
-35.7172877855
 20
3.3758030749
 10
-35.6838884526
 20
3.3201735178
 10
-35.6483699675
 20
3.2657505117
 10
-35.611083229
 20
3.2131181246
 10
-35.5719775362
 20
3.1622441155
 10
-35.5311035899
 20
3.1131607254
 10
-35.4889643911
 20
3.0665487451
 10
-35.4455254826
 20
3.0224295543
 10
-35.4008213215
 20
2.9807817733
 10
-35.3554582812
 20
2.942222054
 10
-35.3096384859
 20
2.9069559471
 10
-35.2631598113
 20
2.8747779019
 10
-35.2160222574
 20
2.8456879184
  0
LWPOLYLINE
  5
24C
100
AcDbEntity
  8
RACCORDO
100
AcDbPolyline
 62
7
  6
CONTINUOUS
 90
22
 70
0
 10
-38.7561504476
 20
13.1737698685
 10
-38.7559658965
 20
13.1504282377
 10
-38.7511591907
 20
13.0517795733
 10
-38.7400849613
 20
12.952681672
 10
-38.7230017309
 20
12.8533970497
 10
-38.7001669121
 20
12.7542494981
 10
-38.6718857126
 20
12.6557753257
 10
-38.638433999
 20
12.5583537409
 10
-38.6000208652
 20
12.4621917911
 10
-38.5568897747
 20
12.3676930229
 10
-38.5092994684
 20
12.275234227
 10
-38.457422098
 20
12.1850710214
 10
-38.4014071788
 20
12.0974599823
 10
-38.3413944407
 20
12.0126802493
 10
-38.2775792887
 20
11.9311378008
 10
-38.2101821008
 20
11.8532340422
 10
-38.139282868
 20
11.7792577433
 10
-38.0650688852
 20
11.7096323193
 10
-37.9878297721
 20
11.6448713399
 10
-37.9077060741
 20
11.5853585075
 10
-37.824801384
 20
11.5314573455
 10
-37.7992655231
 20
11.5163679458
  0
LWPOLYLINE
  5
24D
100
AcDbEntity
  8
RACCORDO
100
AcDbPolyline
 62
7
  6
CONTINUOUS
 90
22
 70
0
 10
-36.0691446792
 20
4.2740938426
 10
-36.0689601328
 20
4.2507524017
 10
-36.0641534871
 20
4.1521040964
 10
-36.0530793396
 20
4.0530066093
 10
-36.0359962015
 20
3.9537223332
 10
-36.0131615119
 20
3.8545749629
 10
-35.9848803882
 20
3.7561008335
 10
-35.9514287758
 20
3.6586792662
 10
-35.9130157489
 20
3.5625173595
 10
-35.8698847642
 20
3.4680186357
 10
-35.8222945466
 20
3.3755598073
 10
-35.770417171
 20
3.2853964847
 10
-35.7144022227
 20
3.197785235
 10
-35.6543893862
 20
3.1130052724
 10
-35.5905740604
 20
3.0314625421
 10
-35.5231766642
 20
2.9535584654
 10
-35.4522771749
 20
2.879581872
 10
-35.3780629507
 20
2.8099562312
 10
-35.3008237311
 20
2.7451951721
 10
-35.2207000774
 20
2.6856823914
 10
-35.1377954954
 20
2.6317813253
 10
-35.1122597883
 20
2.6166920194
  0
LINE
  5
24E
100
AcDbEntity
  8
RACCORDO
100
AcDbLine
 62
7
  6
CONTINUOUS
 10
-38.7561506661
 20
23.3576353088
 11
-38.7561506099
 21
23.3574993663
  0
LINE
  5
24F
100
AcDbEntity
  8
RACCORDO
100
AcDbLine
 62
7
  6
CONTINUOUS
 10
-38.7561506661
 20
57.5993105856
 11
-38.7561506661
 21
53.2404474306
  0
LINE
  5
250
100
AcDbEntity
  8
RACCORDO
100
AcDbLine
 62
7
  6
CONTINUOUS
 10
-38.7561506661
 20
43.1695294666
 11
-38.7561506661
 21
23.3576353
  0
LINE
  5
251
100
AcDbEntity
  8
RACCORDO
100
AcDbLine
 62
7
  6
CONTINUOUS
 10
-38.7561506661
 20
13.286717336
 11
-38.7561506661
 21
13.1734999349
  0
LINE
  5
252
100
AcDbEntity
  8
RACCORDO
100
AcDbLine
 62
250
  6
CONTINUOUS
 10
-38.6097040567
 20
57.3951732744
 11
-38.6097040567
 21
53.0371449417
  0
LINE
  5
253
100
AcDbEntity
  8
RACCORDO
100
AcDbLine
 62
250
  6
CONTINUOUS
 10
-38.6097040567
 20
42.9645576768
 11
-38.6097040567
 21
23.1543328111
  0
LINE
  5
254
100
AcDbEntity
  8
RACCORDO
100
AcDbLine
 62
250
  6
CONTINUOUS
 10
-38.6097040567
 20
13.0817455462
 11
-38.6097040567
 21
12.9693626528
  0
LINE
  5
255
100
AcDbEntity
  8
RACCORDO
100
AcDbLine
 62
7
  6
CONTINUOUS
 10
-38.1462598021
 20
52.7695580374
 11
-38.1462598021
 21
42.6969707725
  0
LINE
  5
256
100
AcDbEntity
  8
RACCORDO
100
AcDbLine
 62
7
  6
CONTINUOUS
 10
-38.1462598021
 20
22.8867459068
 11
-38.1462598021
 21
12.8141586419
  0
LINE
  5
257
100
AcDbEntity
  8
RACCORDO
100
AcDbLine
 62
250
  6
CONTINUOUS
 10
-37.6903754865
 20
13.0815429496
 11
-37.6903754865
 21
15.9971489665
  0
LINE
  5
258
100
AcDbEntity
  8
RACCORDO
100
AcDbLine
 62
250
  6
CONTINUOUS
 10
-37.6903754865
 20
19.1773118017
 11
-37.6903754865
 21
22.0929178185
  0
LINE
  5
259
100
AcDbEntity
  8
RACCORDO
100
AcDbLine
 62
250
  6
CONTINUOUS
 10
-37.6903754865
 20
42.9643550803
 11
-37.6903754865
 21
45.8799610971
  0
LINE
  5
25A
100
AcDbEntity
  8
RACCORDO
100
AcDbLine
 62
250
  6
CONTINUOUS
 10
-37.6903754865
 20
49.0601239323
 11
-37.6903754865
 21
51.9757299491
  0
LINE
  5
25B
100
AcDbEntity
  8
RACCORDO
100
AcDbLine
 62
250
  6
CONTINUOUS
 10
-37.6376613381
 20
15.9667124779
 11
-37.6376613381
 21
19.1468753131
  0
LINE
  5
25C
100
AcDbEntity
  8
RACCORDO
100
AcDbLine
 62
250
  6
CONTINUOUS
 10
-37.6376613381
 20
45.8495246085
 11
-37.6376613381
 21
49.0296874437
  0
LINE
  5
25D
100
AcDbEntity
  8
RACCORDO
100
AcDbLine
 62
250
  6
CONTINUOUS
 10
-37.269845941
 20
13.0794239921
 11
-37.269845941
 21
15.870522349
  0
LINE
  5
25E
100
AcDbEntity
  8
RACCORDO
100
AcDbLine
 62
250
  6
CONTINUOUS
 10
-37.269845941
 20
19.1962484145
 11
-37.269845941
 21
22.0907988609
  0
LINE
  5
25F
100
AcDbEntity
  8
RACCORDO
100
AcDbLine
 62
250
  6
CONTINUOUS
 10
-37.269845941
 20
42.9622361227
 11
-37.269845941
 21
45.7533344796
  0
LINE
  5
260
100
AcDbEntity
  8
RACCORDO
100
AcDbLine
 62
250
  6
CONTINUOUS
 10
-37.269845941
 20
49.0790605452
 11
-37.269845941
 21
51.9736109915
  0
LINE
  5
261
100
AcDbEntity
  8
RACCORDO
100
AcDbLine
 62
250
  6
CONTINUOUS
 10
-37.2445002783
 20
15.870522349
 11
-37.2445002783
 21
19.0757669924
  0
LINE
  5
262
100
AcDbEntity
  8
RACCORDO
100
AcDbLine
 62
250
  6
CONTINUOUS
 10
-37.2445002783
 20
45.7533344796
 11
-37.2445002783
 21
48.958579123
  0
LINE
  5
263
100
AcDbEntity
  8
DRAFT
100
AcDbLine
 62
7
  6
CONTINUOUS
 10
-36.8599902169
 20
19.1143740639
 11
-36.8599902169
 21
15.8671995564
  0
LINE
  5
264
100
AcDbEntity
  8
DRAFT
100
AcDbLine
 62
7
  6
CONTINUOUS
 10
-36.8599902169
 20
45.750011687
 11
-36.8599902169
 21
48.9971861946
  0
LINE
  5
265
100
AcDbEntity
  8
DRAFT
100
AcDbLine
 62
7
  6
CONTINUOUS
 10
-36.6478581825
 20
19.2582860099
 11
-36.6478581825
 21
15.9682523664
  0
LINE
  5
266
100
AcDbEntity
  8
DRAFT
100
AcDbLine
 62
7
  6
CONTINUOUS
 10
-36.6478581825
 20
45.851064497
 11
-36.6478581825
 21
49.1410981406
  0
LINE
  5
267
100
AcDbEntity
  8
RACCORDO
100
AcDbLine
 62
7
  6
CONTINUOUS
 10
-36.5106572593
 20
51.7459827027
 11
-36.5106572593
 21
49.5777438712
  0
LINE
  5
268
100
AcDbEntity
  8
RACCORDO
100
AcDbLine
 62
7
  6
CONTINUOUS
 10
-36.5106572593
 20
21.8631705721
 11
-36.5106572593
 21
19.6949317406
  0
LINE
  5
269
100
AcDbEntity
  8
RACCORDO
100
AcDbLine
 62
7
  6
CONTINUOUS
 10
-36.5106572593
 20
13.5177685685
 11
-36.5106572593
 21
16.3219027935
  0
LINE
  5
26A
100
AcDbEntity
  8
RACCORDO
100
AcDbLine
 62
7
  6
CONTINUOUS
 10
-36.5106572593
 20
43.4005806991
 11
-36.5106572593
 21
46.2047149241
  0
LINE
  5
26B
100
AcDbEntity
  8
RACCORDO
100
AcDbLine
 62
7
  6
CONTINUOUS
 10
-36.0691574324
 20
9.9934435298
 11
-36.0691448976
 21
4.2738240037
  0
LINE
  5
26C
100
AcDbEntity
  8
RACCORDO
100
AcDbLine
 62
250
  6
CONTINUOUS
 10
-35.9226982882
 20
9.7859733879
 11
-35.9226982882
 21
4.0696867071
  0
LINE
  5
26D
100
AcDbEntity
  8
RACCORDO
100
AcDbLine
 62
7
  6
CONTINUOUS
 10
-36.0691448976
 20
4.2738240037
 11
-36.0691446792
 21
4.2740938426
  0
LWPOLYLINE
  5
26E
100
AcDbEntity
  8
RACCORDO
100
AcDbPolyline
 62
7
  6
CONTINUOUS
 90
13
 70
0
 10
-35.6401959582
 20
42.9135419467
 10
-35.6415102442
 20
42.8481590019
 10
-35.6468519852
 20
42.7689030605
 10
-35.6564312775
 20
42.6920749165
 10
-35.6703706532
 20
42.6182360471
 10
-35.6886866751
 20
42.5481547609
 10
-35.7111935863
 20
42.482856747
 10
-35.7376421263
 20
42.4230221563
 10
-35.7678215893
 20
42.3689508577
 10
-35.8014588456
 20
42.3209883697
 10
-35.8383034504
 20
42.2792942991
 10
-35.8781852967
 20
42.243859074
 10
-35.9149614763
 20
42.2182486199
  0
LWPOLYLINE
  5
26F
100
AcDbEntity
  8
RACCORDO
100
AcDbPolyline
 62
250
  6
CONTINUOUS
 90
11
 70
0
 10
-37.2698457803
 20
51.973611078
 10
-37.2691323284
 20
52.0034128429
 10
-37.2664252119
 20
52.0318582838
 10
-37.2617557997
 20
52.0587961799
 10
-37.2551746919
 20
52.0840627658
 10
-37.2467275315
 20
52.107554039
 10
-37.2364387328
 20
52.1292102145
 10
-37.2243472856
 20
52.1489328296
 10
-37.2105323419
 20
52.1665801615
 10
-37.1950842366
 20
52.1820367102
 10
-37.1781136204
 20
52.1952070801
  0
LWPOLYLINE
  5
270
100
AcDbEntity
  8
RACCORDO
100
AcDbPolyline
 62
250
  6
CONTINUOUS
 90
11
 70
0
 10
-37.2698457803
 20
22.0907989473
 10
-37.2691323284
 20
22.1206007123
 10
-37.2664252119
 20
22.1490461532
 10
-37.2617557997
 20
22.1759840493
 10
-37.2551746919
 20
22.2012506352
 10
-37.2467275315
 20
22.2247419083
 10
-37.2364387328
 20
22.2463980839
 10
-37.2243472856
 20
22.266120699
 10
-37.2105323419
 20
22.2837680309
 10
-37.1950842366
 20
22.2992245796
 10
-37.1781136204
 20
22.3123949495
  0
LWPOLYLINE
  5
271
100
AcDbEntity
  8
RACCORDO
100
AcDbPolyline
 62
250
  6
CONTINUOUS
 90
28
 70
0
 10
-35.5523280126
 20
42.7911229666
 10
-35.5549402831
 20
42.6929569376
 10
-35.5623400323
 20
42.5987687496
 10
-35.5745272602
 20
42.5085584026
 10
-35.5915200442
 20
42.4222153931
 10
-35.6133003069
 20
42.3398502246
 10
-35.6398138158
 20
42.2617944081
 10
-35.6712186411
 20
42.1877844724
 10
-35.7073567126
 20
42.1180838886
 10
-35.7476995871
 20
42.0538145806
 10
-35.7922119663
 20
41.9952273623
 10
-35.8409291484
 20
41.9420714197
 10
-35.8934285851
 20
41.8947162354
 10
-35.9497406965
 20
41.8531700564
 10
-36.0098350625
 20
41.8174246356
 10
-36.0731978739
 20
41.7878247142
 10
-36.1397470576
 20
41.7643881624
 10
-36.2095646869
 20
41.74709711
 10
-36.2823831723
 20
41.736242687
 10
-36.3583925763
 20
41.7318291905
 10
-36.4374028365
 20
41.7338523234
 10
-36.5185761761
 20
41.742590324
 10
-36.6020903446
 20
41.758230177
 10
-36.6877675924
 20
41.7805848978
 10
-36.7742368936
 20
41.8093717709
 10
-36.8610412396
 20
41.8444965578
 10
-36.9486376391
 20
41.8860534971
 10
-37.037026092
 20
41.9340425887
  0
LWPOLYLINE
  5
272
100
AcDbEntity
  8
RACCORDO
100
AcDbPolyline
 62
250
  6
CONTINUOUS
 90
22
 70
0
 10
-37.6903754865
 20
51.9757299491
 10
-37.6886867153
 20
52.0240228164
 10
-37.6839759695
 20
52.0696678735
 10
-37.6762432493
 20
52.1126651204
 10
-37.6654169482
 20
52.1531820554
 10
-37.6515686725
 20
52.19105118
 10
-37.6349132413
 20
52.2257699999
 10
-37.6153910953
 20
52.257335155
 10
-37.5930617938
 20
52.2857500052
 10
-37.5683188339
 20
52.3105221355
 10
-37.541160875
 20
52.3315744172
 10
-37.5115892578
 20
52.3489839789
 10
-37.4800015013
 20
52.3624897919
 10
-37.4464030523
 20
52.3720770482
 10
-37.4107884641
 20
52.3777605558
 10
-37.3735389151
 20
52.3793237098
 10
-37.3344738197
 20
52.3766759842
 10
-37.2937737635
 20
52.369907905
 10
-37.2523616817
 20
52.3590744456
 10
-37.2105452194
 20
52.3441939305
 10
-37.1680167316
 20
52.3252480352
 10
-37.1247762181
 20
52.3022367598
  0
LWPOLYLINE
  5
273
100
AcDbEntity
  8
RACCORDO
100
AcDbPolyline
 62
250
  6
CONTINUOUS
 90
22
 70
0
 10
-37.6903754865
 20
22.0929178185
 10
-37.6886867153
 20
22.1412106858
 10
-37.6839759695
 20
22.1868557429
 10
-37.6762432493
 20
22.2298529898
 10
-37.6654169482
 20
22.2703699247
 10
-37.6515686725
 20
22.3082390494
 10
-37.6349132413
 20
22.3429578693
 10
-37.6153910953
 20
22.3745230244
 10
-37.5930617938
 20
22.4029378746
 10
-37.5683188339
 20
22.4277100049
 10
-37.541160875
 20
22.4487622865
 10
-37.5115892578
 20
22.4661718483
 10
-37.4800015013
 20
22.4796776613
 10
-37.4464030523
 20
22.4892649176
 10
-37.4107884641
 20
22.4949484252
 10
-37.3735389151
 20
22.4965115792
 10
-37.3344738197
 20
22.4938638536
 10
-37.2937737635
 20
22.4870957744
 10
-37.2523616817
 20
22.476262315
 10
-37.2105452194
 20
22.4613817999
 10
-37.1680167316
 20
22.4424359046
 10
-37.1247762181
 20
22.4194246291
  0
LWPOLYLINE
  5
274
100
AcDbEntity
  8
RACCORDO
100
AcDbPolyline
 62
250
  6
CONTINUOUS
 90
16
 70
0
 10
-38.6097040567
 20
13.0817455462
 10
-38.6085675782
 20
13.1077220153
 10
-38.605170363
 20
13.1347324603
 10
-38.5995488249
 20
13.1624874685
 10
-38.5917632092
 20
13.1906896596
 10
-38.5818969481
 20
13.219036851
 10
-38.5700557705
 20
13.2472252965
 10
-38.5563665637
 20
13.2749529717
 10
-38.5409760139
 20
13.3019227995
 10
-38.5240490403
 20
13.3278458139
 10
-38.5057670184
 20
13.3524442772
 10
-38.4863258355
 20
13.3754546528
 10
-38.4659337984
 20
13.3966304184
 10
-38.4448093975
 20
13.4157447134
 10
-38.4231789648
 20
13.4325927686
 10
-38.4012742511
 20
13.4469940975
  0
LWPOLYLINE
  5
275
100
AcDbEntity
  8
RACCORDO
100
AcDbPolyline
 62
250
  6
CONTINUOUS
 90
16
 70
0
 10
-37.1247762181
 20
41.9847084118
 10
-37.1236397124
 20
42.0106853831
 10
-37.1202423994
 20
42.0376962558
 10
-37.114620721
 20
42.0654515939
 10
-37.1068349528
 20
42.0936539873
 10
-37.0969685537
 20
42.1220012566
 10
-37.0851272657
 20
42.1501896905
 10
-37.0714379943
 20
42.1779172655
 10
-37.0560474372
 20
42.2048869134
 10
-37.039120498
 20
42.2308097179
 10
-37.0208385547
 20
42.2554079501
 10
-37.0013974944
 20
42.278418085
 10
-36.9810055892
 20
42.2995936448
 10
-36.9598813117
 20
42.3187077811
 10
-36.9382509994
 20
42.3355557134
 10
-36.9163463983
 20
42.3499569549
  0
LWPOLYLINE
  5
276
100
AcDbEntity
  8
RACCORDO
100
AcDbPolyline
 62
250
  6
CONTINUOUS
 90
16
 70
0
 10
-37.037026092
 20
41.9340425887
 10
-37.0358896681
 20
41.9600186027
 10
-37.0324925725
 20
41.9870286156
 10
-37.0268712027
 20
42.0147832336
 10
-37.0190857877
 20
42.0429850854
 10
-37.0092197429
 20
42.0713320077
 10
-36.9973787762
 20
42.0995202827
 10
-36.9836897552
 20
42.1272478928
 10
-36.9682993484
 20
42.1542177557
 10
-36.9513724533
 20
42.1801409081
 10
-36.9330904298
 20
42.2047396013
 10
-36.9136491572
 20
42.2277502775
 10
-36.8932569352
 20
42.2489263931
 10
-36.8721322523
 20
42.2680410607
 10
-36.8505014449
 20
42.28488948
 10
-36.8285962721
 20
42.2992911318
  0
LWPOLYLINE
  5
277
100
AcDbEntity
  8
RACCORDO
100
AcDbPolyline
 62
250
  6
CONTINUOUS
 90
16
 70
0
 10
-37.1247762181
 20
12.1018962812
 10
-37.1236397124
 20
12.1278732525
 10
-37.1202423994
 20
12.1548841252
 10
-37.114620721
 20
12.1826394632
 10
-37.1068349528
 20
12.2108418567
 10
-37.0969685537
 20
12.239189126
 10
-37.0851272657
 20
12.2673775598
 10
-37.0714379943
 20
12.2951051349
 10
-37.0560474372
 20
12.3220747827
 10
-37.039120498
 20
12.3479975873
 10
-37.0208385547
 20
12.3725958195
 10
-37.0013974944
 20
12.3956059544
 10
-36.9810055892
 20
12.4167815142
 10
-36.9598813117
 20
12.4358956504
 10
-36.9382509994
 20
12.4527435828
 10
-36.9163463983
 20
12.4671448243
  0
LWPOLYLINE
  5
278
100
AcDbEntity
  8
RACCORDO
100
AcDbPolyline
 62
250
  6
CONTINUOUS
 90
16
 70
0
 10
-37.037026092
 20
12.0512304581
 10
-37.0358896681
 20
12.0772064721
 10
-37.0324925725
 20
12.1042164849
 10
-37.0268712027
 20
12.131971103
 10
-37.0190857877
 20
12.1601729548
 10
-37.0092197429
 20
12.1885198771
 10
-36.9973787762
 20
12.2167081521
 10
-36.9836897552
 20
12.2444357622
 10
-36.9682993484
 20
12.2714056251
 10
-36.9513724533
 20
12.2973287775
 10
-36.9330904298
 20
12.3219274707
 10
-36.9136491572
 20
12.3449381468
 10
-36.8932569352
 20
12.3661142624
 10
-36.8721322523
 20
12.3852289301
 10
-36.8505014449
 20
12.4020773494
 10
-36.8285962721
 20
12.4164790012
  0
LINE
  5
279
100
AcDbEntity
  8
DRAFT
100
AcDbLine
 62
7
  6
CONTINUOUS
 10
11.5595783564
 20
-12.3186277346
 11
10.1922079326
 21
-12.3048482481
  0
LWPOLYLINE
  5
27A
100
AcDbEntity
  8
RACCORDO
100
AcDbPolyline
 62
7
  6
CONTINUOUS
 90
8
 70
0
 10
4.7067326254
 20
-17.2822520436
 10
4.7102225014
 20
-17.2829564204
 10
4.7169160257
 20
-17.2847437345
 10
4.7265490406
 20
-17.2879541514
 10
4.7385236618
 20
-17.2927149316
 10
4.7524582233
 20
-17.2991181798
 10
4.7682224035
 20
-17.3073182162
 10
4.7758892082
 20
-17.3116384211
  0
LWPOLYLINE
  5
27B
100
AcDbEntity
  8
RACCORDO
100
AcDbPolyline
 62
250
  6
CONTINUOUS
 90
3
 70
0
 10
-38.7362031295
 20
13.2055040874
 10
-38.7461369729
 20
13.2288681309
 10
-38.7527013824
 20
13.252643759
  0
LWPOLYLINE
  5
27C
100
AcDbEntity
  8
0
100
AcDbPolyline
 62
250
  6
CONTINUOUS
 90
9
 70
0
 10
-32.5746273657
 20
5.2707106532
 10
-32.5735126805
 20
5.2514442221
 10
-32.5674246187
 20
5.2218851515
 10
-32.5560777125
 20
5.1928049207
 10
-32.5395976667
 20
5.1645551462
 10
-32.5182515336
 20
5.137538518
 10
-32.4923568118
 20
5.1120581617
 10
-32.4622125967
 20
5.0883277719
 10
-32.4281807563
 20
5.0665733565
  0
LWPOLYLINE
  5
27D
100
AcDbEntity
  8
RACCORDO
100
AcDbPolyline
 62
250
  6
CONTINUOUS
 90
9
 70
0
 10
-37.1247762181
 20
52.3022367598
 10
-37.1236397943
 20
52.2775730595
 10
-37.1202426987
 20
52.2544859276
 10
-37.1146213288
 20
52.2332227265
 10
-37.1068359139
 20
52.2140112767
 10
-37.0969698691
 20
52.1970574157
 10
-37.0851289024
 20
52.1825427922
 10
-37.0714398814
 20
52.1706229205
 10
-37.0626867518
 20
52.1649361043
  0
LWPOLYLINE
  5
27E
100
AcDbEntity
  8
RACCORDO
100
AcDbPolyline
 62
250
  6
CONTINUOUS
 90
5
 70
0
 10
-37.037026092
 20
52.2515709367
 10
-37.0358896363
 20
52.226906901
 10
-37.0324924564
 20
52.2038195336
 10
-37.0268709675
 20
52.1825561933
 10
-37.0190854173
 20
52.1633446947
  0
LWPOLYLINE
  5
27F
100
AcDbEntity
  8
RACCORDO
100
AcDbPolyline
 62
7
  6
CONTINUOUS
 90
19
 70
0
 10
-36.5106572593
 20
43.4005806991
 10
-36.5093226263
 20
43.3649782859
 10
-36.5055619128
 20
43.3287035879
 10
-36.4993751189
 20
43.291756605
 10
-36.4906838355
 20
43.2538664968
 10
-36.4795664717
 20
43.2153041036
 10
-36.4662582546
 20
43.1768819474
 10
-36.45071268
 20
43.1386026013
 10
-36.4329762521
 20
43.1004634922
 10
-36.4134237111
 20
43.0632694221
 10
-36.392016644
 20
43.0270406577
 10
-36.3687934638
 20
42.9917569325
 10
-36.3442441499
 20
42.9581622478
 10
-36.3183253899
 20
42.9262930865
 10
-36.2910804963
 20
42.8961129658
 10
-36.263129386
 20
42.8682564394
 10
-36.234678698
 20
42.8429350251
 10
-36.2055217934
 20
42.819937205
 10
-36.1756586721
 20
42.7992629792
  0
LINE
  5
280
100
AcDbEntity
  8
RACCORDO
100
AcDbLine
 62
7
  6
CONTINUOUS
 10
-35.7301923371
 20
20.5174502589
 11
-35.7301923371
 21
13.9897801957
  0
LINE
  5
281
100
AcDbEntity
  8
RACCORDO
100
AcDbLine
 62
7
  6
CONTINUOUS
 10
-35.7301923371
 20
43.8725923263
 11
-35.7301923371
 21
50.4002623895
  0
LINE
  5
282
100
AcDbEntity
  8
RACCORDO
100
AcDbLine
 62
7
  6
CONTINUOUS
 10
-35.6401959783
 20
49.80248081
 11
-35.6401959783
 21
42.9136053446
  0
LINE
  5
283
100
AcDbEntity
  8
RACCORDO
100
AcDbLine
 62
7
  6
CONTINUOUS
 10
-35.6401959783
 20
19.9196686794
 11
-35.6401959783
 21
13.030793214
  0
LINE
  5
284
100
AcDbEntity
  8
RACCORDO
100
AcDbLine
 62
250
  6
CONTINUOUS
 10
-35.5523280126
 20
49.679998432
 11
-35.5523280126
 21
42.7911229666
  0
LINE
  5
285
100
AcDbEntity
  8
RACCORDO
100
AcDbLine
 62
250
  6
CONTINUOUS
 10
-35.5523280126
 20
19.7971863014
 11
-35.5523280126
 21
12.908310836
  0
LINE
  5
286
100
AcDbEntity
  8
0
100
AcDbLine
 62
7
  6
CONTINUOUS
 10
-32.5746273657
 20
5.2707106532
 11
-32.5746273657
 21
47.4224829354
  0
LINE
  5
287
100
AcDbEntity
  8
0
100
AcDbLine
 62
250
  6
CONTINUOUS
 10
-32.4281807563
 20
5.0665733565
 11
-32.4281807563
 21
47.2183456388
  0
LINE
  5
288
100
AcDbEntity
  8
RACCORDO
100
AcDbLine
 62
7
  6
CONTINUOUS
 10
-32.3921896354
 20
57.0274262829
 11
-32.3921896354
 21
55.5567850414
  0
LWPOLYLINE
  5
289
100
AcDbEntity
  8
RACCORDO
100
AcDbPolyline
 62
7
  6
CONTINUOUS
 90
6
 70
0
 10
-32.3921896202
 20
55.5567138049
 10
-32.3923944891
 20
55.5435756365
 10
-32.3933192891
 20
55.526648469
 10
-32.3948198008
 20
55.5121722922
 10
-32.3966984954
 20
55.5001769591
 10
-32.3986883943
 20
55.4909205606
  0
LWPOLYLINE
  5
28A
100
AcDbEntity
  8
RACCORDO
100
AcDbPolyline
 62
7
  6
CONTINUOUS
 90
13
 70
0
 10
-35.6401959582
 20
13.0307298161
 10
-35.6415102442
 20
12.9653468713
 10
-35.6468519852
 20
12.8860909299
 10
-35.6564312775
 20
12.8092627859
 10
-35.6703706532
 20
12.7354239165
 10
-35.6886866751
 20
12.6653426303
 10
-35.7111935863
 20
12.6000446163
 10
-35.7376421263
 20
12.5402100257
 10
-35.7678215893
 20
12.4861387271
 10
-35.8014588456
 20
12.4381762391
 10
-35.8383034504
 20
12.3964821685
 10
-35.8781852967
 20
12.3610469434
 10
-35.9149614763
 20
12.3354364893
  0
LWPOLYLINE
  5
28B
100
AcDbEntity
  8
RACCORDO
100
AcDbPolyline
 62
250
  6
CONTINUOUS
 90
67
 70
0
 10
-32.3801072565
 20
26.1147024614
 10
-32.3747066597
 20
26.372084221
 10
-32.358693284
 20
26.6217659232
 10
-32.3320671293
 20
26.8637475679
 10
-32.2947136657
 20
27.0986165769
 10
-32.2467474232
 20
27.3257855284
 10
-32.1885119913
 20
27.5434921576
 10
-32.1199482522
 20
27.7515789442
 10
-32.0411153238
 20
27.9502034085
 10
-31.9525341486
 20
28.1380758466
 10
-31.8541317136
 20
28.3151466479
 10
-31.7459810319
 20
28.481465423
 10
-31.6288220846
 20
28.6358912996
 10
-31.5025978023
 20
28.7783366883
 10
-31.3673652544
 20
28.9088891785
 10
-31.2240356308
 20
29.0266706654
 10
-31.0725517321
 20
29.1315970705
 10
-30.9129707578
 20
29.2237524724
 10
-30.7463754957
 20
29.3025110026
 10
-30.5727192248
 20
29.3677809851
 10
-30.392048666
 20
29.419654096
 10
-30.2055867702
 20
29.4577794954
 10
-30.0132940999
 20
29.4820640212
 10
-29.8152100926
 20
29.4926008356
 10
-29.6126760117
 20
29.4893185848
 10
-29.4056616083
 20
29.4721234893
 10
-29.1941971314
 20
29.4411093286
 10
-28.9797145912
 20
29.396486088
 10
-28.7621934725
 20
29.3381613789
 10
-28.5416542905
 20
29.2662275898
 10
-28.3195906007
 20
29.1811718714
 10
-28.0959921008
 20
29.082905174
 10
-27.8708690931
 20
28.9715165473
 10
-27.6457460391
 20
28.8477602904
 10
-27.42062294
 20
28.7115524714
 10
-27.1954997945
 20
28.5629770221
 10
-26.9719010609
 20
28.4030400372
 10
-26.7498370385
 20
28.2316643618
 10
-26.5292974281
 20
28.0489271506
 10
-26.3117757897
 20
27.8560659627
 10
-26.0972926439
 20
27.6530121065
 10
-25.8858274703
 20
27.4398342735
 10
-25.6788122676
 20
27.2179760973
 10
-25.4762772701
 20
26.987378711
 10
-25.2781922437
 20
26.7481009814
 10
-25.0858984847
 20
26.5017631424
 10
-24.8994354481
 20
26.2483175967
 10
-24.7187636789
 20
25.9878119416
 10
-24.5451061088
 20
25.7220092028
 10
-24.3785094484
 20
25.4508716456
 10
-24.2189269872
 20
25.1744370048
 10
-24.0674415247
 20
24.8945815096
 10
-23.9241102455
 20
24.6112870915
 10
-23.788875965
 20
24.324571819
 10
-23.6626499292
 20
24.0363661272
 10
-23.5454893005
 20
23.7466486807
 10
-23.4373369164
 20
23.455440815
 10
-23.3389325356
 20
23.164736972
 10
-23.2503489245
 20
22.8745708654
 10
-23.1715133168
 20
22.5849087816
 10
-23.102947172
 20
22.2976440212
 10
-23.0447099026
 20
22.012690291
 10
-22.9967420962
 20
21.7301338842
 10
-22.9593869751
 20
21.4521269802
 10
-22.9327589469
 20
21.1793869724
 10
-22.9167436041
 20
20.9111964675
 10
-22.9113409466
 20
20.6475554656
  0
LWPOLYLINE
  5
28C
100
AcDbEntity
  8
RACCORDO
100
AcDbPolyline
 62
250
  6
CONTINUOUS
 90
28
 70
0
 10
-35.5523280126
 20
12.908310836
 10
-35.5549402831
 20
12.810144807
 10
-35.5623400323
 20
12.715956619
 10
-35.5745272602
 20
12.625746272
 10
-35.5915200442
 20
12.5394032625
 10
-35.6133003069
 20
12.457038094
 10
-35.6398138158
 20
12.3789822775
 10
-35.6712186411
 20
12.3049723418
 10
-35.7073567126
 20
12.235271758
 10
-35.7476995871
 20
12.17100245
 10
-35.7922119663
 20
12.1124152316
 10
-35.8409291484
 20
12.0592592891
 10
-35.8934285851
 20
12.0119041047
 10
-35.9497406965
 20
11.9703579257
 10
-36.0098350625
 20
11.934612505
 10
-36.0731978739
 20
11.9050125835
 10
-36.1397470576
 20
11.8815760318
 10
-36.2095646869
 20
11.8642849794
 10
-36.2823831723
 20
11.8534305564
 10
-36.3583925763
 20
11.8490170599
 10
-36.4374028365
 20
11.8510401928
 10
-36.5185761761
 20
11.8597781934
 10
-36.6020903446
 20
11.8754180464
 10
-36.6877675924
 20
11.8977727672
 10
-36.7742368936
 20
11.9265596403
 10
-36.8610412396
 20
11.9616844272
 10
-36.9486376391
 20
12.0032413665
 10
-37.037026092
 20
12.0512304581
  0
LWPOLYLINE
  5
28D
100
AcDbEntity
  8
RACCORDO
100
AcDbPolyline
 62
250
  6
CONTINUOUS
 90
25
 70
0
 10
-32.245743026
 20
55.3526477448
 10
-32.2473462197
 20
55.3000662983
 10
-32.2517993445
 20
55.2499745445
 10
-32.2591024005
 20
55.2023724833
 10
-32.2693040332
 20
55.1571544375
 10
-32.2823555972
 20
55.1144260843
 10
-32.2981111554
 20
55.0745044555
 10
-32.3166069058
 20
55.0373478987
 10
-32.3378066506
 20
55.0029980663
 10
-32.3614558587
 20
54.9718969472
 10
-32.3876062705
 20
54.9440825419
 10
-32.4162061458
 20
54.9195168498
 10
-32.4468457328
 20
54.898527859
 10
-32.4795198748
 20
54.8811821951
 10
-32.5142337285
 20
54.8674132323
 10
-32.5505930137
 20
54.857349082
 10
-32.5883834234
 20
54.8509430488
 10
-32.6278192644
 20
54.848241828
 10
-32.6691491772
 20
54.8495136163
 10
-32.7126405743
 20
54.8547149684
 10
-32.7580260432
 20
54.8638893296
 10
-32.8047519857
 20
54.8774352324
 10
-32.8526338691
 20
54.895485521
 10
-32.9018562262
 20
54.9179073513
 10
-32.9524190569
 20
54.9447007231
  0
LWPOLYLINE
  5
28E
100
AcDbEntity
  8
RACCORDO
100
AcDbPolyline
 62
250
  6
CONTINUOUS
 90
16
 70
0
 10
-32.9524190569
 20
54.9447007231
 10
-32.9505673037
 20
54.9874971771
 10
-32.9450314414
 20
55.0319836922
 10
-32.9358694588
 20
55.0776942678
 10
-32.9231773284
 20
55.1241500812
 10
-32.9070880016
 20
55.1708645032
 10
-32.8877700157
 20
55.2173481956
 10
-32.8654257284
 20
55.2631142372
 10
-32.8402891984
 20
55.3076832242
 10
-32.8126237333
 20
55.3505882922
 10
-32.7827191315
 20
55.3913800063
 10
-32.7508886466
 20
55.4296310694
 10
-32.7174657062
 20
55.4649407977
 10
-32.6828004187
 20
55.4969393186
 10
-32.6472559064
 20
55.5252914442
 10
-32.6112045017
 20
55.5497001834
  0
LWPOLYLINE
  5
28F
100
AcDbEntity
  8
RACCORDO
100
AcDbPolyline
 62
250
  6
CONTINUOUS
 90
16
 70
0
 10
-31.5390669952
 20
57.2312360079
 10
-31.5372152795
 20
57.2740320186
 10
-31.531679517
 20
57.3185181348
 10
-31.5225176762
 20
57.3642283754
 10
-31.5098257089
 20
57.4106839348
 10
-31.4937365464
 20
57.4573981917
 10
-31.4744187103
 20
57.5038818059
 10
-31.4520745409
 20
57.549647859
 10
-31.4269380832
 20
57.5942169412
 10
-31.3992726413
 20
57.6371221673
 10
-31.3693680051
 20
57.6779140937
 10
-31.3375374242
 20
57.7161654082
 10
-31.3041143377
 20
57.7514753973
 10
-31.269448861
 20
57.7834741702
 10
-31.2339041157
 20
57.8118265294
 10
-31.19785244
 20
57.8362354683
  0
LWPOLYLINE
  5
290
100
AcDbEntity
  8
0
100
AcDbPolyline
 62
250
  6
CONTINUOUS
 90
16
 70
0
 10
-32.4281807563
 20
47.2183456388
 10
-32.4263079193
 20
47.2613905169
 10
-32.4207092499
 20
47.3061420671
 10
-32.4114440624
 20
47.3521261749
 10
-32.3986105156
 20
47.3988556681
 10
-32.3823445728
 20
47.4458354771
 10
-32.3628185614
 20
47.4925678807
 10
-32.3402393471
 20
47.5385577788
 10
-32.3148461423
 20
47.5833179374
 10
-32.286907972
 20
47.6263741512
 10
-32.2567208232
 20
47.6672702669
 10
-32.2246045097
 20
47.7055730162
 10
-32.1908992835
 20
47.7408766055
 10
-32.1559622301
 20
47.7728070159
 10
-32.1201634855
 20
47.8010259648
 10
-32.0838823145
 20
47.8252344904
  0
LWPOLYLINE
  5
291
100
AcDbEntity
  8
RACCORDO
100
AcDbPolyline
 62
250
  6
CONTINUOUS
 90
16
 70
0
 10
3.9657738643
 20
-18.9614171938
 10
4.0037636618
 20
-18.9812136686
 10
4.0450590189
 20
-18.9986644152
 10
4.0892273625
 20
-19.0135866354
 10
4.1358060251
 20
-19.0258240174
 10
4.1843070905
 20
-19.0352483734
 10
4.2342225053
 20
-19.0417609824
 10
4.2850294008
 20
-19.0452936243
 10
4.3361955696
 20
-19.0458092941
 10
4.3871850411
 20
-19.0433025902
 10
4.4374636957
 20
-19.0377997707
 10
4.4865048596
 20
-19.029358478
 10
4.5337948216
 20
-19.0180671355
 10
4.5788382149
 20
-19.0040440212
 10
4.6211632055
 20
-18.9874360285
 10
4.6603264349
 20
-18.9684171278
  0
LWPOLYLINE
  5
292
100
AcDbEntity
  8
RACCORDO
100
AcDbPolyline
 62
250
  6
CONTINUOUS
 90
16
 70
0
 10
3.9657738643
 20
-17.4907759524
 10
4.0037642118
 20
-17.5105726855
 10
4.0450601088
 20
-17.5280235866
 10
4.0892289458
 20
-17.5429458678
 10
4.1358080201
 20
-17.5551832304
 10
4.1843093932
 20
-17.5646075048
 10
4.234225003
 20
-17.57111999
 10
4.2850319655
 20
-17.5746524846
 10
4.3361980713
 20
-17.5751680038
 10
4.3871873718
 20
-17.5726611644
 10
4.4374657519
 20
-17.5671582405
 10
4.4865065527
 20
-17.5587168896
 10
4.5337961065
 20
-17.5474255417
 10
4.5788390722
 20
-17.5334024791
 10
4.6211636271
 20
-17.5167946027
 10
4.6603264349
 20
-17.4977758863
  0
LWPOLYLINE
  5
293
100
AcDbEntity
  8
RACCORDO
100
AcDbPolyline
 62
250
  6
CONTINUOUS
 90
16
 70
0
 10
10.329734895
 20
-19.533301482
 10
10.3677246925
 20
-19.553097953
 10
10.4090200495
 20
-19.5705486978
 10
10.4531883932
 20
-19.5854709183
 10
10.4997670557
 20
-19.5977083035
 10
10.5482681211
 20
-19.6071326648
 10
10.5981835359
 20
-19.6136452788
 10
10.6489904314
 20
-19.6171779245
 10
10.7001566002
 20
-19.617693598
 10
10.7511460717
 20
-19.6151868973
 10
10.8014247263
 20
-19.6096840817
 10
10.8504658902
 20
-19.6012427924
 10
10.8977558522
 20
-19.5899514497
 10
10.9427992455
 20
-19.5759283304
 10
10.9851242361
 20
-19.559320329
 10
11.0242874656
 20
-19.540301416
  0
LWPOLYLINE
  5
294
100
AcDbEntity
  8
RACCORDO
100
AcDbPolyline
 62
250
  6
CONTINUOUS
 90
25
 70
0
 10
3.2590978335
 20
-19.3693642155
 10
3.3058341335
 20
-19.3944863532
 10
3.3518740801
 20
-19.4158287685
 10
3.3972176732
 20
-19.4333914615
 10
3.4420110493
 20
-19.4471958158
 10
3.486108072
 20
-19.4572204477
 10
3.5290703317
 20
-19.4634012062
 10
3.5709256691
 20
-19.465711138
 10
3.6116462436
 20
-19.4641771965
 10
3.6507101234
 20
-19.4588160903
 10
3.688094366
 20
-19.4495772598
 10
3.723821914
 20
-19.4365112648
 10
3.7574396639
 20
-19.4197864937
 10
3.7889057002
 20
-19.3993857126
 10
3.8182619384
 20
-19.3753261555
 10
3.8451810216
 20
-19.3478279128
 10
3.8696638561
 20
-19.3168397161
 10
3.8917095357
 20
-19.2824128338
 10
3.9109879851
 20
-19.2449211613
 10
3.9274674324
 20
-19.204301965
 10
3.9411796494
 20
-19.1606179786
 10
3.9518898771
 20
-19.1144312986
 10
3.9595198623
 20
-19.0659292906
 10
3.964147858
 20
-19.014924589
 10
3.9657738643
 20
-18.9614171938
  0
LWPOLYLINE
  5
295
100
AcDbEntity
  8
RACCORDO
100
AcDbPolyline
 62
250
  6
CONTINUOUS
 90
25
 70
0
 10
9.6230588642
 20
-19.9412485037
 10
9.6697512327
 20
-19.9663516511
 10
9.7157557835
 20
-19.9876817639
 10
9.7610725165
 20
-20.0052388422
 10
9.805848573
 20
-20.0190460423
 10
9.8499368116
 20
-20.0290802078
 10
9.8928958088
 20
-20.0352718699
 10
9.9347550519
 20
-20.0375924247
 10
9.9754850536
 20
-20.036070476
 10
10.0145559277
 20
-20.0307223666
 10
10.0519395418
 20
-20.0214988528
 10
10.0876640284
 20
-20.0084491783
 10
10.1212838991
 20
-19.9917374177
 10
10.1527607804
 20
-19.9713467893
 10
10.1821330458
 20
-19.9472940746
 10
10.2090703275
 20
-19.9197936935
 10
10.233575195
 20
-19.888788587
 10
10.2556450789
 20
-19.8543358141
 10
10.2749419027
 20
-19.8168209704
 10
10.2914299203
 20
-19.7761836299
 10
10.3051448778
 20
-19.7324842187
 10
10.3158559379
 20
-19.6862896109
 10
10.3234861545
 20
-19.6377887645
 10
10.3281124735
 20
-19.5867927215
 10
10.329734895
 20
-19.533301482
  0
LWPOLYLINE
  5
296
100
AcDbEntity
  8
RACCORDO
100
AcDbPolyline
 62
7
  6
CONTINUOUS
 90
16
 70
0
 10
3.3626291495
 20
-19.5982268749
 10
3.4024138488
 20
-19.6203557166
 10
3.4746135178
 20
-19.6562937679
 10
3.5469900786
 20
-19.6869770961
 10
3.6194126493
 20
-19.7123997545
 10
3.6917049849
 20
-19.7325438942
 10
3.7636024691
 20
-19.7473992455
 10
3.8349513676
 20
-19.756988553
 10
3.9055261784
 20
-19.761328086
 10
3.9748611224
 20
-19.7604768698
 10
4.0426864684
 20
-19.7545526644
 10
4.1087523846
 20
-19.7436907165
 10
4.1725621682
 20
-19.7281224391
 10
4.2337874766
 20
-19.7081410174
 10
4.2922853611
 20
-19.6840174067
 10
4.318641829
 20
-19.6714035914
  0
LWPOLYLINE
  5
297
100
AcDbEntity
  8
RACCORDO
100
AcDbPolyline
 62
7
  6
CONTINUOUS
 90
16
 70
0
 10
9.7265902261
 20
-20.1701111896
 10
9.7663757482
 20
-20.1922404787
 10
9.8385760829
 20
-20.2281787971
 10
9.9109531605
 20
-20.2588622134
 10
9.983376135
 20
-20.2842848093
 10
10.0556688309
 20
-20.3044288568
 10
10.1275665907
 20
-20.3192840655
 10
10.1989156478
 20
-20.328873149
 10
10.2694904897
 20
-20.3332124322
 10
10.3388253095
 20
-20.3323609982
 10
10.4066503434
 20
-20.3264366102
 10
10.4727157669
 20
-20.3155745229
 10
10.5365249458
 20
-20.3000062239
 10
10.5977495766
 20
-20.2800249271
 10
10.6562467118
 20
-20.2559015798
 10
10.6826020284
 20
-20.2432883234
  0
LINE
  5
298
100
AcDbEntity
  8
RACCORDO
100
AcDbLine
 62
7
  6
CONTINUOUS
 10
-35.1124809468
 20
2.6168194878
 11
3.362639144
 21
-19.5982326461
  0
LINE
  5
299
100
AcDbEntity
  8
RACCORDO
100
AcDbLine
 62
250
  6
CONTINUOUS
 10
-35.2160222574
 20
2.8456879184
 11
3.2590978335
 21
-19.3693642155
  0
LWPOLYLINE
  5
29A
100
AcDbEntity
  8
RACCORDO
100
AcDbPolyline
 62
250
  6
CONTINUOUS
 90
9
 70
0
 10
-35.9226982882
 20
4.0696867071
 10
-35.9569840999
 20
4.0916211998
 10
-35.9872074455
 20
4.1154642872
 10
-36.0130517103
 20
4.1409662296
 10
-36.0342461475
 20
4.1678599099
 10
-36.0505687105
 20
4.1958636256
 10
-36.0618483834
 20
4.2246840387
 10
-36.0679669782
 20
4.2540192606
 10
-36.0691448976
 20
4.2738240037
  0
LWPOLYLINE
  5
29B
100
AcDbEntity
  8
0
100
AcDbPolyline
 62
250
  6
CONTINUOUS
 90
9
 70
0
 10
-32.3246394457
 20
4.837704926
 10
-32.3402393471
 20
4.8479137515
 10
-32.3628185614
 20
4.8678297388
 10
-32.3823445728
 20
4.8920139939
 10
-32.3986105156
 20
4.9202102999
 10
-32.4114440624
 20
4.9521199349
 10
-32.4207092499
 20
4.9874048365
 10
-32.4263079193
 20
5.0256911836
 10
-32.4281807563
 20
5.0665733565
  0
LWPOLYLINE
  5
29C
100
AcDbEntity
  8
RACCORDO
100
AcDbPolyline
 62
250
  6
CONTINUOUS
 90
5
 70
0
 10
-38.6640941878
 20
13.1189983525
 10
-38.6868754017
 20
13.1393622938
 10
-38.7065186613
 20
13.1606430793
 10
-38.7229665791
 20
13.1827097469
 10
-38.7362031295
 20
13.2055040874
  0
LINE
  5
29D
100
AcDbEntity
  8
DRAFT
100
AcDbLine
 62
7
  6
CONTINUOUS
 10
-36.7653357598
 20
19.5276427323
 11
-36.6478581825
 21
19.2582860099
  0
LWPOLYLINE
  5
29E
100
AcDbEntity
  8
0
100
AcDbPolyline
 62
250
  6
CONTINUOUS
 90
9
 70
0
 10
-32.5746273657
 20
47.4224829354
 10
-32.5735108317
 20
47.4032005509
 10
-32.5674194117
 20
47.3736399166
 10
-32.5560692523
 20
47.344559775
 10
-32.5395866313
 20
47.3163113157
 10
-32.5182394212
 20
47.2892973498
 10
-32.4923458651
 20
47.2638208357
 10
-32.4622055422
 20
47.2400950564
 10
-32.4281807563
 20
47.2183456388
  0
LWPOLYLINE
  5
29F
100
AcDbEntity
  8
DRAFT
100
AcDbPolyline
 62
7
  6
CONTINUOUS
 90
43
 70
0
 10
-30.0852424966
 20
27.1576689518
 10
-30.0795592345
 20
26.8949687885
 10
-30.0628456964
 20
26.6277710137
 10
-30.0351018822
 20
26.3560756273
 10
-29.9961920146
 20
26.0791333494
 10
-29.946251871
 20
25.7976934599
 10
-29.8856887839
 20
25.5140037987
 10
-29.8144621843
 20
25.2281851198
 10
-29.7326126412
 20
24.9401166691
 10
-29.6406691946
 20
24.6516840251
 10
-29.5384844631
 20
24.362686936
 10
-29.426205828
 20
24.0733256535
 10
-29.3048044735
 20
23.7860865117
 10
-29.1743261905
 20
23.501231912
 10
-29.034725188
 20
23.2184994529
 10
-28.8868352773
 20
22.9395882637
 10
-28.7304359524
 20
22.6642456368
 10
-28.5657477193
 20
22.3927242797
 10
-28.3942659072
 20
22.1274814444
 10
-28.2161436228
 20
21.8688632102
 10
-28.0312277593
 20
21.6165234978
 10
-27.8405543261
 20
21.3718813205
 10
-27.6438359187
 20
21.1346938428
 10
-27.4413599416
 20
20.9052039003
 10
-27.2350246165
 20
20.6855590127
 10
-27.0250794996
 20
20.4761165388
 10
-26.8112750347
 20
20.2765191198
 10
-26.5947607757
 20
20.0878422001
 10
-26.3752142984
 20
19.9099144555
 10
-26.1529580269
 20
19.7429072101
 10
-25.9301087872
 20
19.5884098803
 10
-25.7069768758
 20
19.4467240232
 10
-25.4832519963
 20
19.3175480817
 10
-25.260120085
 20
19.2015668006
 10
-25.0372708453
 20
19.0987234143
 10
-24.8150145738
 20
19.0090746884
 10
-24.5954680965
 20
18.9334756641
 10
-24.3789538374
 20
18.8721273446
 10
-24.1651493726
 20
18.8248287268
 10
-23.9552042557
 20
18.7918318422
 10
-23.7488689306
 20
18.7732058683
 10
-23.5463929534
 20
18.7688816276
 10
-23.4532978545
 20
18.7736244391
  0
LINE
  5
2A0
100
AcDbEntity
  8
RACCORDO
100
AcDbLine
 62
250
  6
CONTINUOUS
 10
-32.245743026
 20
56.8232889863
 11
-32.245743026
 21
55.3526477448
  0
LWPOLYLINE
  5
2A1
100
AcDbEntity
  8
RACCORDO
100
AcDbPolyline
 62
250
  6
CONTINUOUS
 90
17
 70
0
 10
-31.959577711
 20
26.1125835038
 10
-31.953956133
 20
26.3696192195
 10
-31.9371053703
 20
26.6195242983
 10
-31.9090673093
 20
26.8616774291
 10
-31.8699116497
 20
27.0954765744
 10
-31.8197357319
 20
27.3203404618
 10
-31.7586642961
 20
27.5357100302
 10
-31.6868491504
 20
27.7410498789
 10
-31.6044688477
 20
27.9358494345
 10
-31.5117282712
 20
28.1196242433
 10
-31.40885801
 20
28.291917427
 10
-31.2961138334
 20
28.4523006588
 10
-31.1737761553
 20
28.6003751142
 10
-31.0421492644
 20
28.7357726122
 10
-30.9015603558
 20
28.8581566991
 10
-30.7523587669
 20
28.9672233115
 10
-30.5954779469
 20
29.0623924508
  0
LWPOLYLINE
  5
2A2
100
AcDbEntity
  8
DRAFT
100
AcDbPolyline
 62
7
  6
CONTINUOUS
 90
11
 70
0
 10
-29.5420199694
 20
29.3153521517
 10
-29.6406691946
 20
29.1502717729
 10
-29.7326126412
 20
28.9680131164
 10
-29.8144621843
 20
28.7744624664
 10
-29.8856887839
 20
28.5708944794
 10
-29.946251871
 20
28.3571415531
 10
-29.9961920146
 20
28.1333712896
 10
-30.0351018822
 20
27.9013611515
 10
-30.0628456964
 20
27.6617036263
 10
-30.0795592345
 20
27.4138062263
 10
-30.0852424966
 20
27.1576689518
  0
LINE
  5
2A3
100
AcDbEntity
  8
DRAFT
100
AcDbLine
 62
7
  6
CONTINUOUS
 10
11.5595783564
 20
-7.4241574906
 11
10.1922079326
 21
-7.437936977
  0
LINE
  5
2A4
100
AcDbEntity
  8
RACCORDO
100
AcDbLine
 62
7
  6
CONTINUOUS
 10
4.7759912057
 20
-17.3116973612
 11
9.7266001747
 21
-20.1701169342
  0
LINE
  5
2A5
100
AcDbEntity
  8
RACCORDO
100
AcDbLine
 62
250
  6
CONTINUOUS
 10
4.6724498952
 20
-17.0828289307
 11
9.6230588642
 21
-19.9412485037
  0
LINE
  5
2A6
100
AcDbEntity
  8
0
100
AcDbLine
 62
7
  6
CONTINUOUS
 10
-32.3246394457
 20
4.837704926
 11
-1.5465227007
 21
-12.9331939422
  0
LINE
  5
2A7
100
AcDbEntity
  8
0
100
AcDbLine
 62
250
  6
CONTINUOUS
 10
-32.4281807563
 20
5.0665733565
 11
-1.6500640112
 21
-12.7043255116
  0
LWPOLYLINE
  5
2A8
100
AcDbEntity
  8
RACCORDO
100
AcDbPolyline
 62
7
  6
CONTINUOUS
 90
24
 70
0
 10
-36.5257985775
 20
10.7810838714
 10
-36.5048102547
 20
10.768221798
 10
-36.4806728811
 20
10.7516926634
 10
-36.4544591046
 20
10.7317487622
 10
-36.426753563
 20
10.7084796499
 10
-36.3979098004
 20
10.6818688957
 10
-36.3682750053
 20
10.6519367286
 10
-36.3384100725
 20
10.6189903863
 10
-36.3086701283
 20
10.5832003354
 10
-36.2794098269
 20
10.5447943021
 10
-36.2511401688
 20
10.5042946873
 10
-36.2241632833
 20
10.4620339787
 10
-36.1987536845
 20
10.4183756645
 10
-36.1752951202
 20
10.3739730202
 10
-36.1539724839
 20
10.3292430019
 10
-36.1349316677
 20
10.2846133819
 10
-36.1183820597
 20
10.2407890555
 10
-36.1043519763
 20
10.1981930945
 10
-36.0928212185
 20
10.1572207864
 10
-36.0837886589
 20
10.1185202918
 10
-36.0771073727
 20
10.0824123987
 10
-36.072595101
 20
10.0492028161
 10
-36.070048231
 20
10.0194529123
 10
-36.0691574324
 20
9.9934435298
  0
LWPOLYLINE
  5
2A9
100
AcDbEntity
  8
RACCORDO
100
AcDbPolyline
 62
250
  6
CONTINUOUS
 90
25
 70
0
 10
-36.6293743191
 20
11.0099721765
 10
-36.5830343093
 20
10.9813648867
 10
-36.5374254028
 20
10.9498890157
 10
-36.4925475995
 20
10.9155445636
 10
-36.4482850521
 20
10.8782084721
 10
-36.404753608
 20
10.8380037995
 10
-36.362300809
 20
10.79529972
 10
-36.3208724812
 20
10.7500231577
 10
-36.2805227985
 20
10.7022471886
 10
-36.2417618247
 20
10.6525602145
 10
-36.2045965974
 20
10.6009065562
 10
-36.169020079
 20
10.5473418929
 10
-36.13552122
 20
10.4926216637
 10
-36.1041603005
 20
10.436786628
 10
-36.0748770404
 20
10.3797960264
 10
-36.0479795501
 20
10.322283019
 10
-36.0235345529
 20
10.2645335834
 10
-36.0014753255
 20
10.206261742
 10
-35.9819098084
 20
10.1472427226
 10
-35.9646666563
 20
10.0870688208
 10
-35.9499172145
 20
10.026147741
 10
-35.9382834592
 20
9.9654778237
 10
-35.9299727157
 20
9.9053918492
 10
-35.9247776587
 20
9.8455570373
 10
-35.9226982882
 20
9.7859733879
  0
LWPOLYLINE
  5
2AA
100
AcDbEntity
  8
RACCORDO
100
AcDbPolyline
 62
250
  6
CONTINUOUS
 90
9
 70
0
 10
-35.9226982882
 20
9.7859733879
 10
-35.9569845793
 20
9.8079082208
 10
-35.9872082118
 20
9.8317516424
 10
-36.0130525902
 20
9.8572538905
 10
-36.034246992
 20
9.8841478265
 10
-36.0505694038
 20
9.9121517338
 10
-36.0618488469
 20
9.9409722687
 10
-36.0679671678
 20
9.9703075334
 10
-36.0691448976
 20
9.9901106845
  0
LWPOLYLINE
  5
2AB
100
AcDbEntity
  8
RACCORDO
100
AcDbPolyline
 62
250
  6
CONTINUOUS
 90
5
 70
0
 10
-37.0190854173
 20
22.2805325641
 10
-37.0092192383
 20
22.2635787304
 10
-36.9973781509
 20
22.2490641911
 10
-36.9836890375
 20
22.2371444455
 10
-36.9749013057
 20
22.2314377477
  0
LINE
  5
2AC
100
AcDbEntity
  8
RACCORDO
100
AcDbLine
 62
7
  6
CONTINUOUS
 10
-27.7178128427
 20
27.6542241501
 11
-27.7391445052
 21
27.9796870736
  0
LINE
  5
2AD
100
AcDbEntity
  8
RACCORDO
100
AcDbLine
 62
7
  6
CONTINUOUS
 10
-27.7391445052
 20
27.9796870736
 11
-27.7441180925
 21
28.0617437771
  0
LINE
  5
2AE
100
AcDbEntity
  8
RACCORDO
100
AcDbLine
 62
7
  6
CONTINUOUS
 10
-27.7140197395
 20
27.5907004718
 11
-27.7178128427
 21
27.6542241501
  0
LINE
  5
2AF
100
AcDbEntity
  8
RACCORDO
100
AcDbLine
 62
7
  6
CONTINUOUS
 10
-27.7441180925
 20
28.0617437771
 11
-27.7488500254
 21
28.1476946676
  0
LWPOLYLINE
  5
2B0
100
AcDbEntity
  8
RACCORDO
100
AcDbPolyline
 62
7
  6
CONTINUOUS
 90
9
 70
0
 10
-27.7488500254
 20
28.1476946676
 10
-27.7531374744
 20
28.2377490437
 10
-27.7550301306
 20
28.2843925123
 10
-27.7567274987
 20
28.3321231214
 10
-27.7582137622
 20
28.3809630258
 10
-27.7594081412
 20
28.4310390282
 10
-27.7602773317
 20
28.4823959701
 10
-27.7608384038
 20
28.5349955082
 10
-27.7610871375
 20
28.5888393776
  0
LWPOLYLINE
  5
2B1
100
AcDbEntity
  8
RACCORDO
100
AcDbPolyline
 62
7
  6
CONTINUOUS
 90
10
 70
0
 10
-27.7044411149
 20
27.3144324967
 10
-27.7045694987
 20
27.3391706337
 10
-27.7049015742
 20
27.3645203511
 10
-27.7054298769
 20
27.3904803926
 10
-27.7061473941
 20
27.4170885083
 10
-27.7070472932
 20
27.4443409276
 10
-27.7081221886
 20
27.4722366316
 10
-27.7093643298
 20
27.5008178005
 10
-27.7107668487
 20
27.5300815009
 10
-27.7140197395
 20
27.5907004718
  0
LINE
  5
2B2
100
AcDbEntity
  8
RACCORDO
100
AcDbLine
 62
250
  6
CONTINUOUS
 10
-27.7868274239
 20
26.9248727659
 11
-27.7868274239
 21
25.8686249151
  0
LINE
  5
2B3
100
AcDbEntity
  8
RACCORDO
100
AcDbLine
 62
7
  6
CONTINUOUS
 10
-27.7044397352
 20
25.6278103462
 11
-27.7044411149
 21
27.3144324967
  0
LWPOLYLINE
  5
2B4
100
AcDbEntity
  8
RACCORDO
100
AcDbPolyline
 62
7
  6
CONTINUOUS
 90
6
 70
0
 10
-27.7610871375
 20
28.5888393776
 10
-27.7608414782
 20
28.6417028138
 10
-27.7602939902
 20
28.6927724159
 10
-27.7594486519
 20
28.7420465481
 10
-27.7582869686
 20
28.7894466336
 10
-27.7577699497
 20
28.8057700984
  0
LWPOLYLINE
  5
2B5
100
AcDbEntity
  8
RACCORDO
100
AcDbPolyline
 62
7
  6
CONTINUOUS
 90
34
 70
0
 10
-20.2657005687
 20
36.2933963082
 10
-20.4990442378
 20
36.1329577671
 10
-20.7158113683
 20
35.9442997502
 10
-20.9144992701
 20
35.728014946
 10
-21.0938697054
 20
35.4846232037
 10
-21.2525002615
 20
35.2151467248
 10
-21.3889914844
 20
34.9212200113
 10
-21.5026148397
 20
34.6036636044
 10
-21.5925023312
 20
34.2639229333
 10
-21.6577345145
 20
33.9051049192
 10
-21.6980794159
 20
33.5291461979
 10
-21.7134691563
 20
33.1374525994
 10
-21.7039143117
 20
32.7329340866
 10
-21.6696959236
 20
32.3178916999
 10
-21.6111470765
 20
31.8939861154
 10
-21.5287401608
 20
31.4634841607
 10
-21.4230646286
 20
31.028600711
 10
-21.2947463433
 20
30.5913089308
 10
-21.1444933056
 20
30.1536348317
 10
-20.9731369869
 20
29.7177234945
 10
-20.7815741671
 20
29.2856473106
 10
-20.5707256319
 20
28.8593542479
 10
-20.341648756
 20
28.4409110754
 10
-20.0954765777
 20
28.0323441449
 10
-19.833329731
 20
27.6355120111
 10
-19.5564610087
 20
27.2523476566
 10
-19.2661996705
 20
26.8847438666
 10
-18.963836894
 20
26.5344176275
 10
-18.6507519987
 20
26.2030833829
 10
-18.3284421573
 20
25.8924574497
 10
-17.9983918667
 20
25.6041152005
 10
-17.6620991062
 20
25.3395330155
 10
-17.3211100855
 20
25.1001174271
 10
-16.9769976008
 20
24.8871819414
  0
LINE
  5
2B6
100
AcDbEntity
  8
DRAFT
100
AcDbLine
 62
7
  6
CONTINUOUS
 10
-19.3662902125
 20
36.8386641845
 11
-20.2657005687
 21
36.2933963082
  0
LWPOLYLINE
  5
2B7
100
AcDbEntity
  8
RACCORDO
100
AcDbPolyline
 62
250
  6
CONTINUOUS
 90
16
 70
0
 10
7.2723588509
 20
-11.8181266396
 10
7.2954236207
 20
-11.8301316348
 10
7.3205141152
 20
-11.840695691
 10
7.3473615072
 20
-11.8497056217
 10
7.3756781454
 20
-11.8570648917
 10
7.4051606367
 20
-11.8626946514
 10
7.4354930966
 20
-11.8665345821
 10
7.4663505339
 20
-11.8685435413
 10
7.4974023325
 20
-11.8687000046
 10
7.5283157938
 20
-11.8670022956
 10
7.5587597017
 20
-11.863468604
 10
7.5884078706
 20
-11.8581367908
 10
7.6169426411
 20
-11.8510639828
 10
7.6440582828
 20
-11.8423259602
 10
7.6694642704
 20
-11.8320163449
 10
7.6928883964
 20
-11.8202455972
  0
LWPOLYLINE
  5
2B8
100
AcDbEntity
  8
RACCORDO
100
AcDbPolyline
 62
250
  6
CONTINUOUS
 90
16
 70
0
 10
-37.6903754865
 20
13.0815429496
 10
-37.6673107167
 20
13.0695379543
 10
-37.6422202222
 20
13.058973898
 10
-37.6153728302
 20
13.0499639673
 10
-37.587056192
 20
13.0426046974
 10
-37.5575737007
 20
13.0369749376
 10
-37.5272412408
 20
13.033135007
 10
-37.4963838035
 20
13.0311260478
 10
-37.4653320049
 20
13.0309695844
 10
-37.4344185436
 20
13.0326672935
 10
-37.4039746357
 20
13.0362009851
 10
-37.3743264668
 20
13.0415327982
 10
-37.3457916963
 20
13.0486056061
 10
-37.3186760546
 20
13.0573436288
 10
-37.293270067
 20
13.0676532442
 10
-37.269845941
 20
13.0794239921
  0
LINE
  5
2B9
100
AcDbEntity
  8
RACCORDO
100
AcDbLine
 62
7
  6
CONTINUOUS
 10
-37.7994867154
 20
11.5164954336
 11
-36.5258330085
 21
10.7811037459
  0
LINE
  5
2BA
100
AcDbEntity
  8
RACCORDO
100
AcDbLine
 62
7
  6
CONTINUOUS
 10
-36.5258330085
 20
10.7811037459
 11
-36.5257985775
 21
10.7810838714
  0
LINE
  5
2BB
100
AcDbEntity
  8
RACCORDO
100
AcDbLine
 62
250
  6
CONTINUOUS
 10
-37.9030280259
 20
11.7453638642
 11
-36.6293743191
 21
11.0099721765
  0
LINE
  5
2BC
100
AcDbEntity
  8
RACCORDO
100
AcDbLine
 62
250
  6
CONTINUOUS
 10
8.8448070564
 20
-14.4403649673
 11
8.7570569303
 21
-14.3896991443
  0
LINE
  5
2BD
100
AcDbEntity
  8
RACCORDO
100
AcDbLine
 62
250
  6
CONTINUOUS
 10
-37.037026092
 20
12.0512304581
 11
-37.1247762181
 21
12.1018962812
  0
LINE
  5
2BE
100
AcDbEntity
  8
RACCORDO
100
AcDbLine
 62
250
  6
CONTINUOUS
 10
10.329734895
 20
-15.1752731493
 11
9.8662906404
 21
-14.907686245
  0
LINE
  5
2BF
100
AcDbEntity
  8
RACCORDO
100
AcDbLine
 62
250
  6
CONTINUOUS
 10
-38.1462598021
 20
12.8141586419
 11
-38.6097040567
 21
13.0817455462
  0
LINE
  5
2C0
100
AcDbEntity
  8
RACCORDO
100
AcDbLine
 62
250
  6
CONTINUOUS
 10
9.0532368763
 20
-14.0751164243
 11
8.9654867501
 21
-14.0244506012
  0
LINE
  5
2C1
100
AcDbEntity
  8
RACCORDO
100
AcDbLine
 62
250
  6
CONTINUOUS
 10
-36.8285962721
 20
12.4164790012
 11
-36.9163463983
 21
12.4671448243
  0
LINE
  5
2C2
100
AcDbEntity
  8
RACCORDO
100
AcDbLine
 62
250
  6
CONTINUOUS
 10
10.5381647149
 20
-14.8100246062
 11
10.2384728087
 21
-14.6369862556
  0
LINE
  5
2C3
100
AcDbEntity
  8
RACCORDO
100
AcDbLine
 62
250
  6
CONTINUOUS
 10
-38.1462598021
 20
13.2997519508
 11
-38.4012742368
 21
13.4469940893
  0
LINE
  5
2C4
100
AcDbEntity
  8
RACCORDO
100
AcDbLine
 62
7
  6
CONTINUOUS
 10
-36.1756799184
 20
12.9161742921
 11
-36.0954562843
 21
12.869863767
  0
LINE
  5
2C5
100
AcDbEntity
  8
RACCORDO
100
AcDbLine
 62
7
  6
CONTINUOUS
 10
10.9976614903
 20
-14.1986416792
 11
11.4466961302
 21
-14.4579086525
  0
LINE
  5
2C6
100
AcDbEntity
  8
RACCORDO
100
AcDbLine
 62
7
  6
CONTINUOUS
 10
12.3614454978
 20
-13.9832014167
 11
11.7966403047
 21
-13.6570899768
  0
LINE
  5
2C7
100
AcDbEntity
  8
RACCORDO
100
AcDbLine
 62
7
  6
CONTINUOUS
 10
-35.6401959783
 20
13.7323447698
 11
-35.6819764749
 21
13.7564683049
  0
LWPOLYLINE
  5
2C8
100
AcDbEntity
  8
RACCORDO
100
AcDbPolyline
 62
250
  6
CONTINUOUS
 90
28
 70
0
 10
8.9654867501
 20
-14.0244506012
 10
8.891670345
 20
-13.9796220797
 10
8.8183032372
 20
-13.9301437304
 10
8.7456229399
 20
-13.8762172072
 10
8.6740071222
 20
-13.8181845992
 10
8.6035336775
 20
-13.7561598524
 10
8.5340005422
 20
-13.689944367
 10
8.4653759579
 20
-13.6194249138
 10
8.3981846329
 20
-13.5450584737
 10
8.3330493966
 20
-13.4675113943
 10
8.2703386741
 20
-13.3872768278
 10
8.2100719772
 20
-13.3044427487
 10
8.1523197466
 20
-13.2191208153
 10
8.0972554954
 20
-13.1315654014
 10
8.0450793901
 20
-13.0420938318
 10
7.9959125461
 20
-12.9509014367
 10
7.949985915
 20
-12.8584072265
 10
7.9073973729
 20
-12.7647960278
 10
7.868113982
 20
-12.6699036543
 10
7.83225942
 20
-12.5738292026
 10
7.8001148791
 20
-12.4771061982
 10
7.7719040399
 20
-12.38022846
 10
7.7477520086
 20
-12.2834002138
 10
7.7278410355
 20
-12.1871131325
 10
7.7123692387
 20
-12.0922799219
 10
7.7013896815
 20
-11.9994095364
 10
7.6948937306
 20
-11.9086294559
 10
7.6928883964
 20
-11.8202455972
  0
LWPOLYLINE
  5
2C9
100
AcDbEntity
  8
RACCORDO
100
AcDbPolyline
 62
250
  6
CONTINUOUS
 90
22
 70
0
 10
-36.9163462376
 20
12.4671449171
 10
-36.9430553396
 20
12.4833901842
 10
-36.9695295932
 20
12.5018018676
 10
-36.9956263717
 20
12.5222613954
 10
-37.021186359
 20
12.544618354
 10
-37.04609526
 20
12.5687540487
 10
-37.0702792284
 20
12.5945976519
 10
-37.0936347442
 20
12.622044372
 10
-37.1160034372
 20
12.6509113741
 10
-37.1372339165
 20
12.681006941
 10
-37.1571868016
 20
12.7121228318
 10
-37.1757843033
 20
12.7441228484
 10
-37.1929706477
 20
12.7769175728
 10
-37.20863381
 20
12.8103109689
 10
-37.2226884905
 20
12.8441404747
 10
-37.2350980491
 20
12.878368794
 10
-37.2457937454
 20
12.9129330935
 10
-37.2546315851
 20
12.9475066977
 10
-37.2614892906
 20
12.9816562454
 10
-37.2663200893
 20
13.0151123461
 10
-37.2691112159
 20
13.0477629706
 10
-37.2698457615
 20
13.0794240957
  0
LWPOLYLINE
  5
2CA
100
AcDbEntity
  8
RACCORDO
100
AcDbPolyline
 62
250
  6
CONTINUOUS
 90
28
 70
0
 10
8.7570569303
 20
-14.3896991443
 10
8.6707336549
 20
-14.336840874
 10
8.5854614313
 20
-14.2790615417
 10
8.5012402594
 20
-14.2163611474
 10
8.4179653975
 20
-14.1486583411
 10
8.3357415873
 20
-14.0760344727
 10
8.2548830538
 20
-13.9987335922
 10
8.1750825742
 20
-13.9163957949
 10
8.0966473712
 20
-13.8293809854
 10
8.0208133379
 20
-13.7390129269
 10
7.9478153432
 20
-13.6454679873
 10
7.8774185182
 20
-13.5485697986
 10
7.810154149
 20
-13.44911302
 10
7.7460141665
 20
-13.3470578674
 10
7.6850066398
 20
-13.2424441248
 10
7.6276870623
 20
-13.1361858038
 10
7.5741119515
 20
-13.0284103036
 10
7.5242247899
 20
-12.9189902249
 10
7.4784115194
 20
-12.8084573812
 10
7.4365808212
 20
-12.696539588
 10
7.3988240139
 20
-12.5835090298
 10
7.3658009959
 20
-12.4707140739
 10
7.3375848223
 20
-12.3579916602
 10
7.3141024379
 20
-12.2455048488
 10
7.2957945753
 20
-12.1350911864
 10
7.2828081454
 20
-12.0273631885
 10
7.2749962373
 20
-11.9217083396
 10
7.2723588509
 20
-11.8181266396
  0
LWPOLYLINE
  5
2CB
100
AcDbEntity
  8
RACCORDO
100
AcDbPolyline
 62
250
  6
CONTINUOUS
 90
22
 70
0
 10
-37.1247762181
 20
12.1018962812
 10
-37.1674448827
 20
12.1284825955
 10
-37.2093315357
 20
12.1581067494
 10
-37.2504361773
 20
12.1907687429
 10
-37.2909396764
 20
12.2266556886
 10
-37.330661164
 20
12.265580474
 10
-37.369058033
 20
12.3069817607
 10
-37.4061571563
 20
12.3509438358
 10
-37.4419316611
 20
12.3973824123
 10
-37.475758322
 20
12.4454832911
 10
-37.5075710119
 20
12.495209839
 10
-37.537435858
 20
12.5465986891
 10
-37.5649280166
 20
12.5989455414
 10
-37.5900319397
 20
12.6522351292
 10
-37.6127631754
 20
12.7064827191
 10
-37.6327435247
 20
12.761029811
 10
-37.6499848886
 20
12.816091792
 10
-37.6644753662
 20
12.8714532749
 10
-37.675801055
 20
12.9258095983
 10
-37.6838239876
 20
12.9787258749
 10
-37.6886821314
 20
13.0306369921
 10
-37.6903754865
 20
13.0815429496
  0
LWPOLYLINE
  5
2CC
100
AcDbEntity
  8
RACCORDO
100
AcDbPolyline
 62
250
  6
CONTINUOUS
 90
3
 70
0
 10
-38.6097040567
 20
13.0817455462
 10
-38.6383222446
 20
13.0997416115
 10
-38.6640941878
 20
13.1189983525
  0
LWPOLYLINE
  5
2CD
100
AcDbEntity
  8
RACCORDO
100
AcDbPolyline
 62
250
  6
CONTINUOUS
 90
19
 70
0
 10
-38.4012742368
 20
13.4469940893
 10
-38.4128012436
 20
13.4543041444
 10
-38.4230907563
 20
13.4620044727
 10
-38.4321427749
 20
13.4700950743
 10
-38.4399843917
 20
13.4786265179
 10
-38.4465885144
 20
13.4875482347
 10
-38.4518738659
 20
13.4967085183
 10
-38.4558369532
 20
13.5061072336
 10
-38.4584812694
 20
13.5157445156
 10
-38.4597360164
 20
13.5254690627
 10
-38.4596070173
 20
13.5352771182
 10
-38.4580884491
 20
13.5451724388
 10
-38.4550920445
 20
13.5550149917
 10
-38.4505801924
 20
13.5648516855
 10
-38.4445905038
 20
13.5746356116
 10
-38.4371475457
 20
13.5840860122
 10
-38.428259507
 20
13.5931093014
 10
-38.4179181988
 20
13.601799065
 10
-38.4061236209
 20
13.6101553031
  0
LWPOLYLINE
  5
2CE
100
AcDbEntity
  8
RACCORDO
100
AcDbPolyline
 62
250
  6
CONTINUOUS
 90
9
 70
0
 10
-38.6097040567
 20
12.9693626528
 10
-38.6439900202
 20
12.9912972571
 10
-38.6742134568
 20
13.0151404522
 10
-38.7000577578
 20
13.0406424914
 10
-38.7212521842
 20
13.0675362501
 10
-38.7375746996
 20
13.0955400222
 10
-38.7488542996
 20
13.1243604698
 10
-38.7549728072
 20
13.1536957023
 10
-38.7561506661
 20
13.1734999349
  0
LWPOLYLINE
  5
2CF
100
AcDbEntity
  8
RACCORDO
100
AcDbPolyline
 62
250
  6
CONTINUOUS
 90
9
 70
0
 10
-35.5523280126
 20
12.908310836
 10
-35.5731202093
 20
12.9216283404
 10
-35.5914166744
 20
12.9361154681
 10
-35.6070213876
 20
12.9516169885
 10
-35.6197671706
 20
12.9679668021
 10
-35.6295174816
 20
12.9849897257
 10
-35.6361678749
 20
13.0025033703
 10
-35.6396471147
 20
13.0203200848
 10
-35.6401959582
 20
13.0307298159
  0
LWPOLYLINE
  5
2D0
100
AcDbEntity
  8
RACCORDO
100
AcDbPolyline
 62
250
  6
CONTINUOUS
 90
9
 70
0
 10
9.4104063247
 20
-14.1138581567
 10
9.3896136965
 20
-14.100540346
 10
9.3713169746
 20
-14.0860529166
 10
9.3557121617
 20
-14.07055112
 10
9.342966414
 20
-14.0542010751
 10
9.3332162432
 20
-14.0371779781
 10
9.3265660612
 20
-14.0196642235
 10
9.3230870719
 20
-14.001847471
 10
9.3225383692
 20
-13.9914207754
  0
LWPOLYLINE
  5
2D1
100
AcDbEntity
  8
RACCORDO
100
AcDbPolyline
 62
250
  6
CONTINUOUS
 90
32
 70
0
 10
-28.0710661458
 20
26.4384941157
 10
-28.0001379165
 20
26.1720769026
 10
-27.9202423825
 20
25.904076192
 10
-27.8315097795
 20
25.6350701901
 10
-27.7340752606
 20
25.3655963165
 10
-27.628071346
 20
25.0961502995
 10
-27.5135809802
 20
24.8270964416
 10
-27.3908787974
 20
24.5592229331
 10
-27.2604565649
 20
24.2936556351
 10
-27.1226597583
 20
24.0310790124
 10
-26.9777250681
 20
23.771926122
 10
-26.8260672459
 20
23.5169163775
 10
-26.668093513
 20
23.2666877204
 10
-26.5040887992
 20
23.0216466513
 10
-26.3343056179
 20
22.7821498794
 10
-26.1590983206
 20
22.5486910306
 10
-25.9788456745
 20
22.3217687723
 10
-25.7938347672
 20
22.1017477886
 10
-25.6044069507
 20
21.8890512164
 10
-25.4110008138
 20
21.6841883248
 10
-25.2140587362
 20
21.4876365795
 10
-25.0139900467
 20
21.2998103959
 10
-24.8112222654
 20
21.1211169416
 10
-24.6062395151
 20
20.9519834019
 10
-24.3994959398
 20
20.7927787624
 10
-24.1914100316
 20
20.643819604
 10
-23.9824196479
 20
20.5054155234
 10
-23.7729750389
 20
20.3778604205
 10
-23.5635107636
 20
20.2614146807
 10
-23.3544422764
 20
20.156307813
 10
-23.1462096171
 20
20.0627618982
 10
-23.0505296909
 20
20.02495058
  0
LINE
  5
2D2
100
AcDbEntity
  8
RACCORDO
100
AcDbLine
 62
250
  6
CONTINUOUS
 10
-28.1329249845
 20
26.7027814383
 11
-28.0710661458
 21
26.4384941157
  0
LWPOLYLINE
  5
2D3
100
AcDbEntity
  8
RACCORDO
100
AcDbPolyline
 62
7
  6
CONTINUOUS
 90
49
 70
0
 10
-22.9992089122
 20
20.7700378435
 10
-23.0044565564
 20
21.0243361682
 10
-23.0202286442
 20
21.2848965951
 10
-23.0465454738
 20
21.5510785586
 10
-23.083394654
 20
21.8222147714
 10
-23.1307331358
 20
22.0976326015
 10
-23.1884925205
 20
22.3766712281
 10
-23.2565757916
 20
22.6586535847
 10
-23.3348499305
 20
22.9428653364
 10
-23.4231540836
 20
23.2285952871
 10
-23.5213011567
 20
23.5151355735
 10
-23.6290762265
 20
23.8017745876
 10
-23.7462383709
 20
24.0878020252
 10
-23.8725337049
 20
24.3725367287
 10
-24.0076585745
 20
24.6552428626
 10
-24.1512546811
 20
24.9351398756
 10
-24.3029672001
 20
25.2115215156
 10
-24.4624340474
 20
25.4837188667
 10
-24.6292434538
 20
25.7510265234
 10
-24.8029821768
 20
26.0127871282
 10
-24.9832180896
 20
26.2683582867
 10
-25.1694760457
 20
26.5170815498
 10
-25.3612951743
 20
26.7583621257
 10
-25.5581825614
 20
26.9916038909
 10
-25.7595811683
 20
27.2161809524
 10
-25.9649491689
 20
27.431534592
 10
-26.1737837616
 20
27.637186088
 10
-26.3855581302
 20
27.8326650009
 10
-26.5997208588
 20
28.0175136991
 10
-26.8157219526
 20
28.1913126696
 10
-27.0330126512
 20
28.3536782033
 10
-27.251015054
 20
28.5042406702
 10
-27.4691674022
 20
28.6426792986
 10
-27.6869192306
 20
28.7687145122
 10
-27.9035704565
 20
28.8820251218
 10
-28.1186678067
 20
28.9824647269
 10
-28.33199651
 20
29.0699900042
 10
-28.5428583306
 20
29.1443585408
 10
-28.75079109
 20
29.205460017
 10
-28.9558698844
 20
29.2533090004
 10
-29.1575659474
 20
29.2877166507
 10
-29.3552136442
 20
29.3085122151
 10
-29.5486208601
 20
29.3155938441
 10
-29.7371447426
 20
29.3088294403
 10
-29.9203133571
 20
29.2881312246
 10
-30.0981706437
 20
29.253314406
 10
-30.2703879987
 20
29.2041615565
 10
-30.4363045053
 20
29.1405623605
 10
-30.5954779469
 20
29.0623924508
  0
LWPOLYLINE
  5
2D4
100
AcDbEntity
  8
RACCORDO
100
AcDbPolyline
 62
250
  6
CONTINUOUS
 90
67
 70
0
 10
-22.9113409466
 20
20.6475554656
 10
-22.9167415433
 20
20.3901737059
 10
-22.9327549191
 20
20.1404920038
 10
-22.9593810738
 20
19.898510359
 10
-22.9967345373
 20
19.6636413501
 10
-23.0447007798
 20
19.4364723986
 10
-23.1029362118
 20
19.2187657694
 10
-23.1714999508
 20
19.0106789828
 10
-23.2503328792
 20
18.8120545184
 10
-23.3389140545
 20
18.6241820804
 10
-23.4373164894
 20
18.447111279
 10
-23.5454671711
 20
18.2807925039
 10
-23.6626261184
 20
18.1263666274
 10
-23.7888504008
 20
17.9839212387
 10
-23.9240829487
 20
17.8533687485
 10
-24.0674125723
 20
17.7355872615
 10
-24.2188964709
 20
17.6306608565
 10
-24.3784774452
 20
17.5385054546
 10
-24.5450727074
 20
17.4597469243
 10
-24.7187289783
 20
17.3944769418
 10
-24.8993995371
 20
17.3426038309
 10
-25.0858614328
 20
17.3044784315
 10
-25.2781541032
 20
17.2801939057
 10
-25.4762381105
 20
17.2696570914
 10
-25.6787721914
 20
17.2729393422
 10
-25.8857865947
 20
17.2901344377
 10
-26.0972510716
 20
17.3211485984
 10
-26.3117336119
 20
17.365771839
 10
-26.5292547305
 20
17.4240965481
 10
-26.7497939125
 20
17.4960303371
 10
-26.9718576024
 20
17.5810860556
 10
-27.1954561022
 20
17.6793527529
 10
-27.4205791099
 20
17.7907413796
 10
-27.6457021639
 20
17.9144976366
 10
-27.8708252631
 20
18.0507054556
 10
-28.0959484086
 20
18.1992809048
 10
-28.3195471422
 20
18.3592178898
 10
-28.5416111645
 20
18.5305935652
 10
-28.762150775
 20
18.7133307763
 10
-28.9796724133
 20
18.9061919642
 10
-29.1941555591
 20
19.1092458204
 10
-29.4056207328
 20
19.3224236534
 10
-29.6126359355
 20
19.5442818297
 10
-29.8151709329
 20
19.774879216
 10
-30.0132559593
 20
20.0141569455
 10
-30.2055497183
 20
20.2604947845
 10
-30.392012755
 20
20.5139403302
 10
-30.5726845242
 20
20.7744459853
 10
-30.7463420943
 20
21.0402487242
 10
-30.9129387546
 20
21.3113862813
 10
-31.0725212159
 20
21.5878209221
 10
-31.2240066784
 20
21.8676764173
 10
-31.3673379576
 20
22.1509708355
 10
-31.502572238
 20
22.437686108
 10
-31.6287982738
 20
22.7258917997
 10
-31.7459589026
 20
23.0156092462
 10
-31.8541112867
 20
23.306817112
 10
-31.9525156675
 20
23.597520955
 10
-32.0410992785
 20
23.8876870615
 10
-32.1199348862
 20
24.1773491453
 10
-32.188501031
 20
24.4646139058
 10
-32.2467383004
 20
24.7495676359
 10
-32.2947061068
 20
25.0321240428
 10
-32.3320612279
 20
25.3101309467
 10
-32.3586892561
 20
25.5828709545
 10
-32.374704599
 20
25.8510614594
 10
-32.3801072565
 20
26.1147024614
  0
LWPOLYLINE
  5
2D5
100
AcDbEntity
  8
RACCORDO
100
AcDbPolyline
 62
250
  6
CONTINUOUS
 90
18
 70
0
 10
-21.812595401
 20
33.3173675182
 10
-21.8069526088
 20
33.5878202941
 10
-21.790037014
 20
33.8511442633
 10
-21.7618869348
 20
34.106742913
 10
-21.7225661383
 20
34.3540372319
 10
-21.6721636976
 20
34.5924670176
 10
-21.6107937902
 20
34.8214921461
 10
-21.5385954461
 20
35.0405937795
 10
-21.455732211
 20
35.2492756077
 10
-21.3623917657
 20
35.4470649581
 10
-21.2587854819
 20
35.633513871
 10
-21.1451481036
 20
35.8081998482
 10
-21.0217372348
 20
35.9707269286
 10
-20.8888325918
 20
36.1207268556
 10
-20.7467351749
 20
36.2578600216
 10
-20.5957667368
 20
36.3818159533
 10
-20.4362692897
 20
36.4923138404
 10
-20.3098562226
 20
36.5669784265
  0
LWPOLYLINE
  5
2D6
100
AcDbEntity
  8
RACCORDO
100
AcDbPolyline
 62
250
  6
CONTINUOUS
 90
36
 70
0
 10
-22.2331249465
 20
33.3194864758
 10
-22.2271552581
 20
33.6022773513
 10
-22.2095475536
 20
33.8764949004
 10
-22.1803018331
 20
34.1421391229
 10
-22.1392996602
 20
34.3997975147
 10
-22.0866594712
 20
34.6488825801
 10
-22.0227365749
 20
34.8876318313
 10
-21.9474536301
 20
35.1159514155
 10
-21.860887978
 20
35.3339351855
 10
-21.763626952
 20
35.5401022122
 10
-21.6555980267
 20
35.7343709407
 10
-21.5368737275
 20
35.9168229258
 10
-21.4082589636
 20
36.0862219025
 10
-21.2696837627
 20
36.2424803001
 10
-21.121218097
 20
36.3856856892
 10
-20.9638767926
 20
36.5148645167
 10
-20.7975989851
 20
36.6299186791
 10
-20.6224455388
 20
36.7309462799
 10
-20.4396138726
 20
36.8172680766
 10
-20.2490542005
 20
36.8887821356
 10
-20.0508163086
 20
36.9455903905
 10
-19.8462469736
 20
36.9873193985
 10
-19.6353053338
 20
37.0138672985
 10
-19.4180322509
 20
37.0253359516
 10
-19.1958970872
 20
37.0216574988
 10
-18.968868935
 20
37.0027310213
 10
-18.736978702
 20
36.9686574378
 10
-18.5017884732
 20
36.9196716457
 10
-18.2632759743
 20
36.8556743958
 10
-18.0214634795
 20
36.7767649373
 10
-17.7779798977
 20
36.6834759157
 10
-17.5328112039
 20
36.5757093818
 10
-17.2859714229
 20
36.4535632849
 10
-17.0391315381
 20
36.3178641183
 10
-16.7922915062
 20
36.1685196653
 10
-16.5454513704
 20
36.0056221425
  0
LWPOLYLINE
  5
2D7
100
AcDbEntity
  8
RACCORDO
100
AcDbPolyline
 62
7
  6
CONTINUOUS
 90
23
 70
0
 10
-27.7868274239
 20
26.9248727659
 10
-27.7785899199
 20
26.9311454861
 10
-27.7707975563
 20
26.9388954392
 10
-27.7634527488
 20
26.948108878
 10
-27.7565151704
 20
26.9589133806
 10
-27.7500313273
 20
26.9711564727
 10
-27.7441102625
 20
26.9843964726
 10
-27.7387670914
 20
26.9985448856
 10
-27.7339320211
 20
27.0136505887
 10
-27.7295664323
 20
27.0294729253
 10
-27.7256524425
 20
27.0459454242
 10
-27.722160082
 20
27.0631070239
 10
-27.719042053
 20
27.0808794688
 10
-27.7162793596
 20
27.0992341043
 10
-27.7138566392
 20
27.1181814578
 10
-27.7117437515
 20
27.1377055508
 10
-27.709926729
 20
27.157791232
 10
-27.7083941687
 20
27.1784409219
 10
-27.70712789
 20
27.1996669033
 10
-27.7061174663
 20
27.2214605568
 10
-27.7053536641
 20
27.243820986
 10
-27.704825176
 20
27.2667730344
 10
-27.704523674
 20
27.2903106913
  0
LINE
  5
2D8
100
AcDbEntity
  8
DRAFT
100
AcDbLine
 62
7
  6
CONTINUOUS
 10
-36.6478581825
 20
19.2582860099
 11
-36.8599902169
 21
19.1143740639
  0
LINE
  5
2D9
100
AcDbEntity
  8
DRAFT
100
AcDbLine
 62
7
  6
CONTINUOUS
 10
-36.7639001503
 20
19.5285857317
 11
-36.5106572593
 21
19.6949317406
  0
LINE
  5
2DA
100
AcDbEntity
  8
RACCORDO
100
AcDbLine
 62
7
  6
CONTINUOUS
 10
-36.7639001503
 20
19.5285857317
 11
-37.269845941
 21
19.1962484145
  0
LINE
  5
2DB
100
AcDbEntity
  8
RACCORDO
100
AcDbLine
 62
250
  6
CONTINUOUS
 10
-37.1781136204
 20
22.3123949495
 11
-37.1635943585
 21
22.3211995869
  0
LINE
  5
2DC
100
AcDbEntity
  8
RACCORDO
100
AcDbLine
 62
7
  6
CONTINUOUS
 10
-37.1635943585
 20
22.3211995869
 11
-37.1634859332
 21
22.321257946
  0
LINE
  5
2DD
100
AcDbEntity
  8
RACCORDO
100
AcDbLine
 62
250
  6
CONTINUOUS
 10
-37.269845941
 20
22.0907988609
 11
-36.9910181608
 21
22.2407434179
  0
LWPOLYLINE
  5
2DE
100
AcDbEntity
  8
RACCORDO
100
AcDbPolyline
 62
7
  6
CONTINUOUS
 90
28
 70
0
 10
-28.1329249843
 20
26.7027814382
 10
-28.1245854279
 20
26.7072468622
 10
-28.116460025
 20
26.7103937284
 10
-28.1085487754
 20
26.712222037
 10
-28.1008225179
 20
26.7126190941
 10
-28.0933104137
 20
26.7116975935
 10
-28.0860999468
 20
26.7097956165
 10
-28.079260109
 20
26.7069572597
 10
-28.0727219084
 20
26.7031384265
 10
-28.0663658525
 20
26.6985449072
 10
-28.0601745779
 20
26.6932251055
 10
-28.054165448
 20
26.6871306178
 10
-28.048271061
 20
26.6803220237
 10
-28.0424739745
 20
26.6728080064
 10
-28.0367916309
 20
26.6645798827
 10
-28.0312089546
 20
26.6556721834
 10
-28.0257105625
 20
26.6460612064
 10
-28.0203118377
 20
26.6357706538
 10
-28.0150438539
 20
26.6249061629
 10
-28.009913085
 20
26.6134751774
 10
-28.004913057
 20
26.6014702537
 10
-28.0000554219
 20
26.5889746979
 10
-27.9953410183
 20
26.5759905033
 10
-27.9907690074
 20
26.5625156766
 10
-27.9863485253
 20
26.5486275442
 10
-27.9820889629
 20
26.534370465
 10
-27.9779809293
 20
26.51970008
 10
-27.9741544798
 20
26.5051460238
  0
LWPOLYLINE
  5
2DF
100
AcDbEntity
  8
RACCORDO
100
AcDbPolyline
 62
250
  6
CONTINUOUS
 90
10
 70
0
 10
1.669406898
 20
1.616658267
 10
1.7070099316
 20
1.6209914566
 10
1.7456787846
 20
1.6218206277
 10
1.785413457
 20
1.6191457805
 10
1.8261702693
 20
1.6130627915
 10
1.867992901
 20
1.6034757842
 10
1.91101239
 20
1.5900971285
 10
1.9552724156
 20
1.572830948
 10
2.0007292986
 20
1.5517731192
 10
2.0473830389
 20
1.5269236421
  0
LWPOLYLINE
  5
2E0
100
AcDbEntity
  8
RACCORDO
100
AcDbPolyline
 62
7
  6
CONTINUOUS
 90
9
 70
0
 10
2.0886472891
 20
1.3260803996
 10
2.0850076284
 20
1.326214746
 10
2.0850668945
 20
1.3261811281
 10
2.0886794596
 20
1.3254331014
 10
2.0956385583
 20
1.3235098902
 10
2.1058985895
 20
1.3199577968
 10
2.1191204677
 20
1.3144652713
 10
2.1345214713
 20
1.3070274696
 10
2.1507874109
 20
1.2981339215
  0
LINE
  5
2E1
100
AcDbEntity
  8
RACCORDO
100
AcDbLine
 62
7
  6
CONTINUOUS
 10
-37.6903754865
 20
15.9971489665
 11
-37.6376613381
 21
15.9667124779
  0
LINE
  5
2E2
100
AcDbEntity
  8
RACCORDO
100
AcDbLine
 62
7
  6
CONTINUOUS
 10
9.3576921764
 20
-11.1678156513
 11
9.4104063247
 21
-11.1982521399
  0
LINE
  5
2E3
100
AcDbEntity
  8
DRAFT
100
AcDbLine
 62
7
  6
CONTINUOUS
 10
-36.5106572593
 20
16.3219027935
 11
-36.5291711515
 21
16.3325924828
  0
LINE
  5
2E4
100
AcDbEntity
  8
DRAFT
100
AcDbLine
 62
7
  6
CONTINUOUS
 10
-36.7653357598
 20
49.4104548629
 11
-36.6478581825
 21
49.1410981406
  0
LWPOLYLINE
  5
2E5
100
AcDbEntity
  8
RACCORDO
100
AcDbPolyline
 62
7
  6
CONTINUOUS
 90
13
 70
0
 10
-38.5642227691
 20
13.6200159455
 10
-38.5805416621
 20
13.6090825724
 10
-38.6108937551
 20
13.5858874318
 10
-38.6387256205
 20
13.5606286165
 10
-38.6638962614
 20
13.533442889
 10
-38.6862528829
 20
13.5045037697
 10
-38.7056242563
 20
13.4741024636
 10
-38.7218930905
 20
13.4425465006
 10
-38.7350149635
 20
13.4100817899
 10
-38.7449526739
 20
13.3770250433
 10
-38.751721423
 20
13.3437087423
 10
-38.7553833537
 20
13.3104391413
 10
-38.7561492389
 20
13.2864622491
  0
LWPOLYLINE
  5
2E6
100
AcDbEntity
  8
RACCORDO
100
AcDbPolyline
 62
250
  6
CONTINUOUS
 90
16
 70
0
 10
7.2723588509
 20
-4.9292511742
 10
7.295423959
 20
-4.941256328
 10
7.3205147838
 20
-4.9518204776
 10
7.3473624749
 20
-4.9608304435
 10
7.3756793583
 20
-4.9681896988
 10
7.4051620273
 20
-4.9738194062
 10
7.4354945953
 20
-4.9776592599
 10
7.466352062
 20
-4.9796681294
 10
7.4974038104
 20
-4.9798245025
 10
7.5283171592
 20
-4.9781267138
 10
7.5587608952
 20
-4.9745929625
 10
7.5884088425
 20
-4.9692611182
 10
7.6169433705
 20
-4.9621883102
 10
7.6440587648
 20
-4.95345032
 10
7.6694645052
 20
-4.9431407733
 10
7.6928883964
 20
-4.9313701318
  0
LWPOLYLINE
  5
2E7
100
AcDbEntity
  8
RACCORDO
100
AcDbPolyline
 62
250
  6
CONTINUOUS
 90
19
 70
0
 10
10.329734895
 20
-5.1026858844
 10
10.3608834397
 20
-5.1192209533
 10
10.3941826247
 20
-5.1341315593
 10
10.4293666398
 20
-5.1473342786
 10
10.4661047943
 20
-5.1587446861
 10
10.5041712753
 20
-5.1683290663
 10
10.5434682854
 20
-5.1760764239
 10
10.5837221306
 20
-5.1819340783
 10
10.6246590594
 20
-5.1858634447
 10
10.6661980754
 20
-5.1878407521
 10
10.7080085429
 20
-5.1878259768
 10
10.7498434668
 20
-5.1857948602
 10
10.7917338029
 20
-5.1816902757
 10
10.8335097177
 20
-5.1754379506
 10
10.8746587534
 20
-5.1670201961
 10
10.9146781343
 20
-5.1564638328
 10
10.9531689074
 20
-5.1438150141
 10
10.9898234915
 20
-5.1291152277
 10
11.0242874656
 20
-5.1124366524
  0
LWPOLYLINE
  5
2E8
100
AcDbEntity
  8
RACCORDO
100
AcDbPolyline
 62
7
  6
CONTINUOUS
 90
16
 70
0
 10
10.3917966158
 20
-5.2399704989
 10
10.4188004049
 20
-5.2544756258
 10
10.4559602951
 20
-5.2712427412
 10
10.4942906266
 20
-5.2851922747
 10
10.5338852766
 20
-5.2964705624
 10
10.574556757
 20
-5.3050880978
 10
10.6156961888
 20
-5.3109792344
 10
10.6572841292
 20
-5.3142086818
 10
10.6992628459
 20
-5.3147583829
 10
10.740872615
 20
-5.3126283312
 10
10.7820480798
 20
-5.3078332812
 10
10.8227913149
 20
-5.3003200901
 10
10.8625067124
 20
-5.2901376713
 10
10.9010022821
 20
-5.2772799146
 10
10.9383659915
 20
-5.2616237088
 10
10.9579837181
 20
-5.2519764954
  0
LINE
  5
2E9
100
AcDbEntity
  8
RACCORDO
100
AcDbLine
 62
7
  6
CONTINUOUS
 10
9.4104063247
 20
-8.0180893047
 11
9.3576921764
 21
-7.9876528161
  0
LINE
  5
2EA
100
AcDbEntity
  8
RACCORDO
100
AcDbLine
 62
7
  6
CONTINUOUS
 10
-37.6376613381
 20
19.1468753131
 11
-37.6903754865
 21
19.1773118017
  0
LINE
  5
2EB
100
AcDbEntity
  8
RACCORDO
100
AcDbLine
 62
250
  6
CONTINUOUS
 10
3.2168949545
 20
-4.2613069456
 11
2.0473830389
 21
-3.586045423
  0
LINE
  5
2EC
100
AcDbEntity
  8
RACCORDO
100
AcDbLine
 62
250
  6
CONTINUOUS
 10
3.5090544431
 20
-3.6905845891
 11
2.3395425276
 21
-3.0153230665
  0
LINE
  5
2ED
100
AcDbEntity
  8
RACCORDO
100
AcDbLine
 62
7
  6
CONTINUOUS
 10
2.900766532
 20
-2.5836104919
 11
3.7668125854
 21
-3.083654629
  0
LINE
  5
2EE
100
AcDbEntity
  8
DRAFT
100
AcDbLine
 62
7
  6
CONTINUOUS
 10
10.9976614903
 20
-6.9728797295
 11
11.6694129324
 21
-7.3607405932
  0
LINE
  5
2EF
100
AcDbEntity
  8
RACCORDO
100
AcDbLine
 62
250
  6
CONTINUOUS
 10
3.7668125854
 20
-2.7748152197
 11
2.7726511714
 21
-2.200798879
  0
LINE
  5
2F0
100
AcDbEntity
  8
RACCORDO
100
AcDbLine
 62
7
  6
CONTINUOUS
 10
3.7668125854
 20
-2.6858253429
 11
2.8497077234
 21
-2.1563004896
  0
LINE
  5
2F1
100
AcDbEntity
  8
RACCORDO
100
AcDbLine
 62
7
  6
CONTINUOUS
 10
-38.5475792507
 20
23.0170117414
 11
-38.1462598021
 21
22.7852949215
  0
LINE
  5
2F2
100
AcDbEntity
  8
RACCORDO
100
AcDbLine
 62
7
  6
CONTINUOUS
 10
9.990540213
 20
-5.0082901115
 11
10.3918596616
 21
-5.2400069314
  0
LINE
  5
2F3
100
AcDbEntity
  8
RACCORDO
100
AcDbLine
 62
250
  6
CONTINUOUS
 10
-38.6097040567
 20
23.1543328111
 11
-38.1462598021
 21
22.8867459068
  0
LINE
  5
2F4
100
AcDbEntity
  8
RACCORDO
100
AcDbLine
 62
250
  6
CONTINUOUS
 10
9.8662906404
 20
-4.8350989801
 11
10.329734895
 21
-5.1026858844
  0
LINE
  5
2F5
100
AcDbEntity
  8
RACCORDO
100
AcDbLine
 62
7
  6
CONTINUOUS
 10
-37.0626514318
 20
22.2821035708
 11
-36.9749013057
 21
22.2314377477
  0
LINE
  5
2F6
100
AcDbEntity
  8
RACCORDO
100
AcDbLine
 62
7
  6
CONTINUOUS
 10
8.8191817166
 20
-4.2094918547
 11
8.9069318427
 21
-4.2601576777
  0
LINE
  5
2F7
100
AcDbEntity
  8
RACCORDO
100
AcDbLine
 62
250
  6
CONTINUOUS
 10
-37.1247762181
 20
22.4194246291
 11
-37.037026092
 21
22.3687588061
  0
LINE
  5
2F8
100
AcDbEntity
  8
RACCORDO
100
AcDbLine
 62
250
  6
CONTINUOUS
 10
8.7570569303
 20
-4.0721707963
 11
8.8448070564
 21
-4.1228366194
  0
LWPOLYLINE
  5
2F9
100
AcDbEntity
  8
RACCORDO
100
AcDbPolyline
 62
7
  6
CONTINUOUS
 90
28
 70
0
 10
-36.974838612
 20
22.2314015794
 10
-36.9528272331
 20
22.2184682643
 10
-36.8760510749
 20
22.1699022998
 10
-36.7982725328
 20
22.1152496712
 10
-36.7198570003
 20
22.0545427059
 10
-36.6413265698
 20
21.9879782916
 10
-36.563321933
 20
21.9159503326
 10
-36.4862473253
 20
21.8387072957
 10
-36.4104838186
 20
21.7565211664
 10
-36.3365838909
 20
21.6699092286
 10
-36.2649518549
 20
21.5792868556
 10
-36.1958880904
 20
21.4849989377
 10
-36.1297429678
 20
21.3874929552
 10
-36.0668338974
 20
21.2872111807
 10
-36.0074320044
 20
21.1845862943
 10
-35.9517949155
 20
21.0800604237
 10
-35.9001622911
 20
20.9740831732
 10
-35.8527608247
 20
20.8671505485
 10
-35.8098075956
 20
20.7597904225
 10
-35.7714512954
 20
20.6524352107
 10
-35.7378527616
 20
20.5456428094
 10
-35.7091888729
 20
20.4401515094
 10
-35.6855053395
 20
20.3364267179
 10
-35.6668187475
 20
20.2349465218
 10
-35.6531547889
 20
20.136468184
 10
-35.6444253779
 20
20.0415448065
 10
-35.6404771286
 20
19.9505086257
 10
-35.6401959554
 20
19.9197362802
  0
LINE
  5
2FA
100
AcDbEntity
  8
RACCORDO
100
AcDbLine
 62
250
  6
CONTINUOUS
 10
-37.037026092
 20
22.3687588061
 11
-36.9507028166
 21
22.3159005358
  0
LWPOLYLINE
  5
2FB
100
AcDbEntity
  8
RACCORDO
100
AcDbPolyline
 62
250
  6
CONTINUOUS
 90
25
 70
0
 10
2.3395425276
 20
-3.0153230665
 10
2.3163698489
 20
-3.0011268385
 10
2.2936057179
 20
-2.9850677403
 10
2.2713496506
 20
-2.9672238745
 10
2.2497357948
 20
-2.9476967453
 10
2.2288245667
 20
-2.9265586655
 10
2.2086044916
 20
-2.9038370011
 10
2.189149863
 20
-2.8795836059
 10
2.1705790736
 20
-2.853916039
 10
2.1529479568
 20
-2.8269540775
 10
2.1363549045
 20
-2.7987883695
 10
2.1208866792
 20
-2.7695287299
 10
2.1065786533
 20
-2.7393301288
 10
2.0935237034
 20
-2.7083009647
 10
2.081798054
 20
-2.6765557486
 10
2.0714072547
 20
-2.6442631773
 10
2.0624277641
 20
-2.6115181301
 10
2.0549320153
 20
-2.5784615771
 10
2.0489077012
 20
-2.5453333436
 10
2.0444173103
 20
-2.5122748826
 10
2.0415024597
 20
-2.4793810352
 10
2.0401081925
 20
-2.4468206327
 10
2.0402430358
 20
-2.414726529
 10
2.0419755583
 20
-2.3831941765
 10
2.0453346638
 20
-2.3523338705
  0
LWPOLYLINE
  5
2FC
100
AcDbEntity
  8
RACCORDO
100
AcDbPolyline
 62
250
  6
CONTINUOUS
 90
10
 70
0
 10
2.0473830389
 20
-3.586045423
 10
2.0025483591
 20
-3.5584253175
 10
1.9583341651
 20
-3.5279912133
 10
1.9147404571
 20
-3.4947431104
 10
1.8716487732
 20
-3.458564554
 10
1.8291775751
 20
-3.4195719989
 10
1.7876822482
 20
-3.3781148094
 10
1.7472812539
 20
-3.3343094405
 10
1.7078561307
 20
-3.2880394372
 10
1.6694068786
 20
-3.2393047997
  0
LWPOLYLINE
  5
2FD
100
AcDbEntity
  8
RACCORDO
100
AcDbPolyline
 62
250
  6
CONTINUOUS
 90
10
 70
0
 10
3.9132591948
 20
-3.8593126718
 10
3.8819267293
 20
-3.839454153
 10
3.853926889
 20
-3.8180000758
 10
3.8295020941
 20
-3.7951362101
 10
3.8088638091
 20
-3.7710605326
 10
3.7921907084
 20
-3.7459815076
 10
3.7796271319
 20
-3.7201162815
 10
3.7712818408
 20
-3.6936888119
 10
3.7672270708
 20
-3.6669279202
 10
3.7668126241
 20
-3.6552888586
  0
LWPOLYLINE
  5
2FE
100
AcDbEntity
  8
RACCORDO
100
AcDbPolyline
 62
250
  6
CONTINUOUS
 90
9
 70
0
 10
-35.5523280126
 20
19.7971863014
 10
-35.5731199347
 20
19.8105036104
 10
-35.591416238
 20
19.8249905475
 10
-35.6070208903
 20
19.8404918951
 10
-35.6197666986
 20
19.8568415671
 10
-35.6295171003
 20
19.8738643881
 10
-35.6361676268
 20
19.8913779703
 10
-35.6396470221
 20
19.9091946679
 10
-35.6401959783
 20
19.9196686794
  0
LWPOLYLINE
  5
2FF
100
AcDbEntity
  8
RACCORDO
100
AcDbPolyline
 62
250
  6
CONTINUOUS
 90
27
 70
0
 10
-36.9507028166
 20
22.3159005358
 10
-36.865430593
 20
22.2581212035
 10
-36.7812094211
 20
22.1954208091
 10
-36.6979345592
 20
22.1277180028
 10
-36.615710749
 20
22.0550941345
 10
-36.5348522155
 20
21.9777932539
 10
-36.4550517359
 20
21.8954554567
 10
-36.3766165329
 20
21.8084406472
 10
-36.3007824996
 20
21.7180725887
 10
-36.2277845049
 20
21.6245276491
 10
-36.1573876799
 20
21.5276294604
 10
-36.0901233107
 20
21.4281726818
 10
-36.0259833282
 20
21.3261175292
 10
-35.9649758015
 20
21.2215037866
 10
-35.9076562241
 20
21.1152454656
 10
-35.8540811132
 20
21.0074699654
 10
-35.8041939517
 20
20.8980498866
 10
-35.7583806812
 20
20.787517043
 10
-35.7165499829
 20
20.6755992498
 10
-35.6787931756
 20
20.5625686916
 10
-35.6457701576
 20
20.4497737357
 10
-35.617553984
 20
20.337051322
 10
-35.5940715996
 20
20.2245645106
 10
-35.575763737
 20
20.1141508481
 10
-35.5627773071
 20
20.0064228503
 10
-35.554965399
 20
19.9007680013
 10
-35.5523280126
 20
19.7971863014
  0
LWPOLYLINE
  5
300
100
AcDbEntity
  8
RACCORDO
100
AcDbPolyline
 62
7
  6
CONTINUOUS
 90
21
 70
0
 10
9.3225383591
 20
-13.2783801097
 10
9.3156962344
 20
-13.2720348826
 10
9.2376630488
 20
-13.1930759789
 10
9.1617894801
 20
-13.1095738891
 10
9.0883521399
 20
-13.0218541805
 10
9.0176405939
 20
-12.9302577377
 10
8.949948346
 20
-12.8351638469
 10
8.885571778
 20
-12.7369931989
 10
8.8247889965
 20
-12.6361660871
 10
8.7678616711
 20
-12.5331133134
 10
8.7150320518
 20
-12.4282768903
 10
8.6665250687
 20
-12.3221078094
 10
8.6225568568
 20
-12.2150730851
 10
8.583309132
 20
-12.1076165361
 10
8.5489323223
 20
-12.000159369
 10
8.5195700664
 20
-11.8931039119
 10
8.4953749769
 20
-11.7869653061
 10
8.4764673841
 20
-11.6823272961
 10
8.4629207407
 20
-11.5796738333
 10
8.4547814015
 20
-11.479392146
 10
8.452077078
 20
-11.3819010207
  0
LWPOLYLINE
  5
301
100
AcDbEntity
  8
0
100
AcDbPolyline
 62
7
  6
CONTINUOUS
 90
44
 70
0
 10
-17.7416931784
 20
20.1280756593
 10
-17.7863886923
 20
20.0426962213
 10
-17.8318049705
 20
19.9362013883
 10
-17.8704505917
 20
19.8229686162
 10
-17.9021943843
 20
19.7033822412
 10
-17.9269286028
 20
19.5778481651
 10
-17.9445692939
 20
19.4467924774
 10
-17.9550565812
 20
19.3106600092
 10
-17.9583548684
 20
19.1699128231
 10
-17.9544529605
 20
19.025028647
 10
-17.9433641013
 20
18.8764992472
 10
-17.9251259277
 20
18.724828758
 10
-17.8998003424
 20
18.5705319774
 10
-17.8674733052
 20
18.4141326253
 10
-17.8282545417
 20
18.2561615612
 10
-17.7822771696
 20
18.0971549749
 10
-17.7296972452
 20
17.9376525671
 10
-17.6706932362
 20
17.7781957233
 10
-17.6054654147
 20
17.6193256745
 10
-17.534235178
 20
17.4615816599
 10
-17.4572442967
 20
17.3054990969
 10
-17.3747540944
 20
17.1516077634
 10
-17.2870445606
 20
17.0004299999
 10
-17.1944134003
 20
16.8524789364
 10
-17.0971750237
 20
16.7082567509
 10
-16.9956594786
 20
16.5682529648
 10
-16.8902113308
 20
16.4329427812
 10
-16.781188494
 20
16.3027854723
 10
-16.6689610152
 20
16.1782228201
 10
-16.5539098187
 20
16.0596776175
 10
-16.4364254133
 20
15.9475522328
 10
-16.3169065663
 20
15.8422272436
 10
-16.1957589499
 20
15.7440601455
 10
-16.0733940143
 20
15.6533843151
 10
-15.9502268468
 20
15.5705073185
 10
-15.8266747493
 20
15.495710027
 10
-15.703156585
 20
15.429246219
 10
-15.5800921176
 20
15.3713419674
 10
-15.4578998217
 20
15.3221942494
 10
-15.3369947043
 20
15.2819699629
 10
-15.2177869108
 20
15.2508055352
 10
-15.1006810731
 20
15.2288067498
 10
-14.9860746886
 20
15.2160482791
 10
-14.9042253594
 20
15.2135024562
  0
LINE
  5
302
100
AcDbEntity
  8
RACCORDO
100
AcDbLine
 62
7
  6
CONTINUOUS
 10
-38.5642227691
 20
13.6200159455
 11
-38.1462598021
 21
13.8875358058
  0
LINE
  5
303
100
AcDbEntity
  8
RACCORDO
100
AcDbLine
 62
250
  6
CONTINUOUS
 10
-38.4061236209
 20
13.6101553031
 11
-38.1462598021
 21
13.7764827677
  0
LINE
  5
304
100
AcDbEntity
  8
RACCORDO
100
AcDbLine
 62
250
  6
CONTINUOUS
 10
-36.8285962721
 20
12.4164790012
 11
-36.0954562843
 21
12.869863767
  0
LINE
  5
305
100
AcDbEntity
  8
RACCORDO
100
AcDbLine
 62
7
  6
CONTINUOUS
 10
-35.9146072563
 20
12.335649993
 11
-35.9149695144
 21
12.3354261447
  0
LINE
  5
306
100
AcDbEntity
  8
RACCORDO
100
AcDbLine
 62
250
  6
CONTINUOUS
 10
-36.5106572593
 20
13.5391479838
 11
-35.7301923371
 21
13.9897801957
  0
LINE
  5
307
100
AcDbEntity
  8
RACCORDO
100
AcDbLine
 62
250
  6
CONTINUOUS
 10
-37.269845941
 20
13.0794239921
 11
-36.5106572593
 21
13.5177685685
  0
LWPOLYLINE
  5
308
100
AcDbEntity
  8
RACCORDO
100
AcDbPolyline
 62
250
  6
CONTINUOUS
 90
9
 70
0
 10
-38.5641475812
 20
13.6200641158
 10
-38.5519368867
 20
13.6267684163
 10
-38.5343362033
 20
13.6331526499
 10
-38.5152913539
 20
13.6366273781
 10
-38.4950108359
 20
13.6371545607
 10
-38.4737166733
 20
13.6347284273
 10
-38.4516419881
 20
13.6293755389
 10
-38.4290284484
 20
13.6211544969
 10
-38.4061236209
 20
13.6101553031
  0
LINE
  5
309
100
AcDbEntity
  8
DRAFT
100
AcDbLine
 62
7
  6
CONTINUOUS
 10
-36.5291711515
 20
16.3325924828
 11
-36.6478581825
 21
16.273832001
  0
LINE
  5
30A
100
AcDbEntity
  8
DRAFT
100
AcDbLine
 62
7
  6
CONTINUOUS
 10
-36.6478581825
 20
15.9682523664
 11
-36.8599902169
 21
15.8671995564
  0
LINE
  5
30B
100
AcDbEntity
  8
DRAFT
100
AcDbLine
 62
7
  6
CONTINUOUS
 10
-36.5106572593
 20
16.3219027935
 11
-36.6478581825
 21
16.2590250232
  0
LWPOLYLINE
  5
30C
100
AcDbEntity
  8
RACCORDO
100
AcDbPolyline
 62
7
  6
CONTINUOUS
 90
7
 70
0
 10
-35.6769387091
 20
12.7102930335
 10
-35.6864776032
 20
12.7116562815
 10
-35.7662950012
 20
12.7298046643
 10
-35.8474674475
 20
12.7548407129
 10
-35.9296108658
 20
12.7866274799
 10
-36.0123939618
 20
12.8250272052
 10
-36.0954562843
 20
12.869863767
  0
LWPOLYLINE
  5
30D
100
AcDbEntity
  8
RACCORDO
100
AcDbPolyline
 62
250
  6
CONTINUOUS
 90
16
 70
0
 10
-37.6903754865
 20
22.0929178185
 10
-37.6673098467
 20
22.0809124161
 10
-37.6422184988
 20
22.0703481186
 10
-37.615370329
 20
22.0613380954
 10
-37.5870530451
 20
22.0539788604
 10
-37.5575700761
 20
22.0483492337
 10
-37.527237318
 20
22.0445095018
 10
-37.4963797859
 20
22.0425007768
 10
-37.4653280984
 20
22.0423445511
 10
-37.4344149162
 20
22.0440424721
 10
-37.4039714477
 20
22.0475763247
 10
-37.3743238537
 20
22.0529082246
 10
-37.345789723
 20
22.0599810361
 10
-37.3186747442
 20
22.0687189733
 10
-37.2932694258
 20
22.0790284034
 10
-37.269845941
 20
22.0907988613
  0
LINE
  5
30E
100
AcDbEntity
  8
RACCORDO
100
AcDbLine
 62
250
  6
CONTINUOUS
 10
2.0473830389
 20
1.5269236421
 11
3.2168949545
 21
0.8516621195
  0
LWPOLYLINE
  5
30F
100
AcDbEntity
  8
RACCORDO
100
AcDbPolyline
 62
7
  6
CONTINUOUS
 90
26
 70
0
 10
2.1509243495
 20
1.2980552116
 10
3.3231806793
 20
0.6211963703
 10
3.3455200183
 20
0.6072812358
 10
3.3699845152
 20
0.5902600884
 10
3.396182113
 20
0.5700499609
 10
3.4235330014
 20
0.5467957681
 10
3.4517092992
 20
0.5205181728
 10
3.4803984413
 20
0.4912647062
 10
3.5090771078
 20
0.4593636138
 10
3.537395813
 20
0.4250431982
 10
3.5650798227
 20
0.3885011912
 10
3.5917638454
 20
0.3501114849
 10
3.6171800347
 20
0.310184022
 10
3.6410916123
 20
0.2690506604
 10
3.6632339974
 20
0.2271619173
 10
3.683434271
 20
0.1848881455
 10
3.7015532442
 20
0.1426159587
 10
3.7174427796
 20
0.1008458375
 10
3.7310633622
 20
0.0599201755
 10
3.7423878966
 20
0.0202516703
 10
3.7513873556
 20
-0.0175527375
 10
3.7581686705
 20
-0.0531906611
 10
3.7628703058
 20
-0.0863617078
 10
3.7656474186
 20
-0.1164947541
 10
3.7667587729
 20
-0.1432852811
 10
3.7668126139
 20
-0.1502413456
  0
LWPOLYLINE
  5
310
100
AcDbEntity
  8
RACCORDO
100
AcDbPolyline
 62
7
  6
CONTINUOUS
 90
24
 70
0
 10
8.9069679292
 20
-4.2601785036
 10
8.9247960027
 20
-4.2710060285
 10
8.9486613572
 20
-4.2871113019
 10
8.9739628848
 20
-4.3061429911
 10
9.0001831661
 20
-4.3279739371
 10
9.0270345342
 20
-4.3525829979
 10
9.0542555745
 20
-4.3799380601
 10
9.0813954419
 20
-4.4097636661
 10
9.1081827434
 20
-4.4419041681
 10
9.1343564754
 20
-4.4761790479
 10
9.1595353279
 20
-4.5121878057
 10
9.1834930675
 20
-4.5496673574
 10
9.2060220355
 20
-4.5883392484
 10
9.2268396689
 20
-4.6277218777
 10
9.2458024445
 20
-4.6674973903
 10
9.2627898466
 20
-4.7073404448
 10
9.2776383079
 20
-4.7467244592
 10
9.2903141762
 20
-4.7853313475
 10
9.3008101675
 20
-4.8228450223
 10
9.3091037099
 20
-4.8587372316
 10
9.3152890288
 20
-4.8927584103
 10
9.3194828746
 20
-4.9246434636
 10
9.3218229983
 20
-4.9538797352
 10
9.3225383711
 20
-4.9799518271
  0
LWPOLYLINE
  5
311
100
AcDbEntity
  8
RACCORDO
100
AcDbPolyline
 62
250
  6
CONTINUOUS
 90
55
 70
0
 10
-17.0391223837
 20
14.5225923692
 10
-17.1765870227
 20
14.6065630651
 10
-17.312932397
 20
14.698986336
 10
-17.4481585065
 20
14.7998621819
 10
-17.5828138204
 20
14.9096534839
 10
-17.7163498697
 20
15.0278973609
 10
-17.8471212466
 20
15.1532051694
 10
-17.9749802776
 20
15.2855623714
 10
-18.1000746364
 20
15.424983505
 10
-18.2212019367
 20
15.570123541
 10
-18.3383518781
 20
15.7210725827
 10
-18.4515347612
 20
15.877740527
 10
-18.5595791011
 20
16.0385120352
 10
-18.6624202572
 20
16.2034131085
 10
-18.7601228702
 20
16.3724177459
 10
-18.8517093767
 20
16.5438326051
 10
-18.9371214081
 20
16.7176875188
 10
-19.016417333
 20
16.8939526545
 10
-19.0887946943
 20
17.0708451725
 10
-19.1541825643
 20
17.2483700328
 10
-19.2126518705
 20
17.4265222754
 10
-19.2636129392
 20
17.6035041808
 10
-19.3069897519
 20
17.7793040322
 10
-19.3428583271
 20
17.9539335463
 10
-19.370857046
 20
18.1256301545
 10
-19.3909064142
 20
18.2943623748
 10
-19.4030859263
 20
18.4601616891
 10
-19.4072724476
 20
18.6213599746
 10
-19.4033863973
 20
18.7779105921
 10
-19.3915073562
 20
18.9298601809
 10
-19.3717509322
 20
19.075680536
 10
-19.3440384801
 20
19.2153120254
 10
-19.3084486451
 20
19.3488142812
 10
-19.2653329704
 20
19.474837995
 10
-19.2146151772
 20
19.5933097371
 10
-19.1563715442
 20
19.7043029372
 10
-19.0911824513
 20
19.8066885758
 10
-19.0189752452
 20
19.900381056
 10
-18.9398225792
 20
19.9854659747
 10
-18.8545227925
 20
20.0610711024
 10
-18.7630111997
 20
20.1270987519
 10
-18.6653524862
 20
20.1836466105
 10
-18.5625390475
 20
20.2301355105
 10
-18.454519841
 20
20.2664610584
 10
-18.3413459092
 20
20.2927276477
 10
-18.2241627752
 20
20.3086692917
 10
-18.1029299923
 20
20.3141810515
 10
-17.9776880071
 20
20.309367866
 10
-17.849703683
 20
20.2942785645
 10
-17.7189407878
 20
20.2688040243
 10
-17.5854355538
 20
20.2330533681
 10
-17.4505635404
 20
20.1874027936
 10
-17.3147832675
 20
20.1319777
 10
-17.1776362153
 20
20.0666526881
 10
-17.0391223837
 20
19.9914277579
  0
LWPOLYLINE
  5
312
100
AcDbEntity
  8
RACCORDO
100
AcDbPolyline
 62
250
  6
CONTINUOUS
 90
42
 70
0
 10
-16.8343936506
 20
14.8855920454
 10
-16.9597633287
 20
14.9621910318
 10
-17.084708775
 20
15.0469550284
 10
-17.2088072088
 20
15.1395972142
 10
-17.3316388303
 20
15.2398042084
 10
-17.4527878939
 20
15.3472368517
 10
-17.5718441326
 20
15.461531287
 10
-17.6884045041
 20
15.5823004898
 10
-17.8020748496
 20
15.7091359639
 10
-17.9124708652
 20
15.8416088515
 10
-18.0192190532
 20
15.9792709612
 10
-18.1219581731
 20
16.1216564364
 10
-18.2203407374
 20
16.2682837111
 10
-18.3140339196
 20
16.418656802
 10
-18.4027205824
 20
16.5722667756
 10
-18.4861005177
 20
16.7285936764
 10
-18.5638915908
 20
16.887108535
 10
-18.6358305865
 20
17.047274995
 10
-18.7016740171
 20
17.2085509247
 10
-18.761199063
 20
17.3703904769
 10
-18.8142043927
 20
17.532246178
 10
-18.8605107398
 20
17.6935706001
 10
-18.8999614001
 20
17.8538178184
 10
-18.9324228976
 20
18.0124456686
 10
-18.9577854425
 20
18.1689178013
 10
-18.9759631774
 20
18.3227049818
 10
-18.9868944873
 20
18.4732865683
 10
-18.9905423212
 20
18.6201526954
 10
-18.9868943182
 20
18.7628064333
 10
-18.9759628044
 20
18.9007650327
 10
-18.9577848158
 20
19.0335612937
 10
-18.9324219548
 20
19.1607457025
 10
-18.899960064
 20
19.2818881617
 10
-18.8605089434
 20
19.3965790263
 10
-18.8142020171
 20
19.504430365
 10
-18.7611960264
 20
19.6050770809
 10
-18.7016704651
 20
19.6981784268
 10
-18.6358268985
 20
19.7834193054
 10
-18.5638880746
 20
19.8605114947
 10
-18.4860972518
 20
19.9291943571
 10
-18.4027176097
 20
19.9892355121
 10
-18.3209862663
 20
20.0368371729
  0
LWPOLYLINE
  5
313
100
AcDbEntity
  8
RACCORDO
100
AcDbPolyline
 62
250
  6
CONTINUOUS
 90
25
 70
0
 10
3.2168949545
 20
0.8516621195
 10
3.2629730882
 20
0.8232318562
 10
3.3082188413
 20
0.7920906215
 10
3.3526322138
 20
0.7582384153
 10
3.3963124109
 20
0.7215583632
 10
3.4391602274
 20
0.6821673396
 10
3.4808780479
 20
0.6404159683
 10
3.5215125597
 20
0.5962500385
 10
3.5610170754
 20
0.549723761
 10
3.598953918
 20
0.5013503919
 10
3.6353182753
 20
0.4510926152
 10
3.6701149595
 20
0.3989877467
 10
3.702920729
 20
0.3456609902
 10
3.7336932195
 20
0.2911484835
 10
3.7624747953
 20
0.2354140888
 10
3.7889693084
 20
0.1789745959
 10
3.8131345054
 20
0.1220602769
 10
3.8350126397
 20
0.0644408598
 10
3.8544343224
 20
0.0059423182
 10
3.8715572004
 20
-0.0538408557
 10
3.8862236268
 20
-0.1145031541
 10
3.8977912724
 20
-0.1750020799
 10
3.9060460274
 20
-0.2349901339
 10
3.9112020016
 20
-0.2948148153
 10
3.9132591948
 20
-0.3544761241
  0
LWPOLYLINE
  5
314
100
AcDbEntity
  8
RACCORDO
100
AcDbPolyline
 62
250
  6
CONTINUOUS
 90
4
 70
0
 10
8.8448070564
 20
-4.1228366194
 10
8.8874757209
 20
-4.1494229337
 10
8.929362374
 20
-4.1790470876
 10
8.9704670155
 20
-4.2117090811
  0
LWPOLYLINE
  5
315
100
AcDbEntity
  8
RACCORDO
100
AcDbPolyline
 62
250
  6
CONTINUOUS
 90
10
 70
0
 10
3.9132591948
 20
-0.3544761241
 10
3.881927063
 20
-0.3346178376
 10
3.8539274312
 20
-0.3131639864
 10
3.8295027319
 20
-0.2903003267
 10
3.8088644444
 20
-0.2662248218
 10
3.7921912637
 20
-0.2411459274
 10
3.779627553
 20
-0.2152807871
 10
3.7712820944
 20
-0.1888533522
 10
3.7672271463
 20
-0.1620924423
 10
3.7668125854
 20
-0.1503388274
  0
LWPOLYLINE
  5
316
100
AcDbEntity
  8
RACCORDO
100
AcDbPolyline
 62
250
  6
CONTINUOUS
 90
9
 70
0
 10
9.4104063247
 20
-5.1024832878
 10
9.3896144027
 20
-5.0891659787
 10
9.3713180994
 20
-5.0746790416
 10
9.3557134471
 20
-5.0591776939
 10
9.3429676388
 20
-5.0428280219
 10
9.3332172371
 20
-5.0258052009
 10
9.3265667106
 20
-5.0082916188
 10
9.3230873153
 20
-4.9904749212
 10
9.3225383591
 20
-4.9800009097
  0
LWPOLYLINE
  5
317
100
AcDbEntity
  8
RACCORDO
100
AcDbPolyline
 62
250
  6
CONTINUOUS
 90
5
 70
0
 10
-37.0190854173
 20
52.1633446947
 10
-37.0092192383
 20
52.146390861
 10
-36.9973781509
 20
52.1318763217
 10
-36.9836890375
 20
52.1199565761
 10
-36.9749013057
 20
52.1142498783
  0
LWPOLYLINE
  5
318
100
AcDbEntity
  8
RACCORDO
100
AcDbPolyline
 62
7
  6
CONTINUOUS
 90
52
 70
0
 10
-11.9329877866
 20
27.4440648867
 10
-11.9381199112
 20
27.7078584731
 10
-11.9535412042
 20
27.9777509191
 10
-11.9792690546
 20
28.2531564206
 10
-12.0152945179
 20
28.5334765033
 10
-12.0615802796
 20
28.8180880895
 10
-12.1180611831
 20
29.1063560959
 10
-12.1846457505
 20
29.3976405564
 10
-12.2612207523
 20
29.6913108311
 10
-12.3476548984
 20
29.9867491729
 10
-12.4437900826
 20
30.2833165837
 10
-12.5494399075
 20
30.5803562781
 10
-12.6644014261
 20
30.8772288268
 10
-12.7884605692
 20
31.1733179644
 10
-12.9213536471
 20
31.4679403274
 10
-13.0627656838
 20
31.7603644536
 10
-13.2123840498
 20
32.0499278598
 10
-13.3699000529
 20
32.3360217999
 10
-13.5349675912
 20
32.6180095057
 10
-13.7072379693
 20
32.8952907384
 10
-13.8863278404
 20
33.1672473755
 10
-14.0718078425
 20
33.4332354358
 10
-14.2632571535
 20
33.6926679981
 10
-14.460260092
 20
33.9450008606
 10
-14.6623664495
 20
34.1896790517
 10
-14.8691269611
 20
34.4261837421
 10
-15.080075316
 20
34.6540091079
 10
-15.2947115174
 20
34.8726478905
 10
-15.5125558443
 20
35.0816485894
 10
-15.7331089451
 20
35.2805720272
 10
-15.9558176386
 20
35.4689668853
 10
-16.1801108435
 20
35.646410058
 10
-16.4055352268
 20
35.8126060882
 10
-16.6316947246
 20
35.9673150017
 10
-16.8580974831
 20
36.1102444275
 10
-17.0841902564
 20
36.2410936452
 10
-17.3094642804
 20
36.3596224787
 10
-17.5332747723
 20
36.4655591248
 10
-17.7552141348
 20
36.5587838518
 10
-17.9750995184
 20
36.6392622331
 10
-18.1922780387
 20
36.7067865731
 10
-18.4063485543
 20
36.7612704509
 10
-18.617448343
 20
36.8027265957
 10
-18.8251706822
 20
36.8309885044
 10
-19.0288342087
 20
36.8458824541
 10
-19.2281223373
 20
36.8473023926
 10
-19.4224277385
 20
36.8351544856
 10
-19.6113728302
 20
36.8093749639
 10
-19.7949833409
 20
36.7698053819
 10
-19.9729620632
 20
36.7162699514
 10
-20.1447205394
 20
36.6486914744
 10
-20.3098562226
 20
36.5669784265
  0
LWPOLYLINE
  5
319
100
AcDbEntity
  8
RACCORDO
100
AcDbPolyline
 62
250
  6
CONTINUOUS
 90
67
 70
0
 10
-11.845119821
 20
27.3215825087
 10
-11.8510895094
 20
27.0387916331
 10
-11.8686972138
 20
26.7645740841
 10
-11.8979429344
 20
26.4989298616
 10
-11.9389451073
 20
26.2412714698
 10
-11.9915852963
 20
25.9921864044
 10
-12.0555081925
 20
25.7534371532
 10
-12.1307911374
 20
25.525117569
 10
-12.2173567894
 20
25.307133799
 10
-12.3146178154
 20
25.1009667723
 10
-12.4226467407
 20
24.9066980438
 10
-12.5413710399
 20
24.7242460587
 10
-12.6699858038
 20
24.554847082
 10
-12.8085610048
 20
24.3985886844
 10
-12.9570266704
 20
24.2553832953
 10
-13.1143679748
 20
24.1262044678
 10
-13.2806457824
 20
24.0111503054
 10
-13.4557992287
 20
23.9101227045
 10
-13.6386308949
 20
23.8238009079
 10
-13.8291905669
 20
23.7522868489
 10
-14.0274284589
 20
23.695478594
 10
-14.2319977938
 20
23.653749586
 10
-14.4429394337
 20
23.627201686
 10
-14.6602125166
 20
23.6157330329
 10
-14.8823476803
 20
23.6194114857
 10
-15.1093758325
 20
23.6383379632
 10
-15.3412660655
 20
23.6724115467
 10
-15.5764562942
 20
23.7213973388
 10
-15.8149687932
 20
23.7853945887
 10
-16.0567812879
 20
23.8643040472
 10
-16.3002648697
 20
23.9575930688
 10
-16.5454335636
 20
24.0653596027
 10
-16.7922733445
 20
24.1875056996
 10
-17.0391132293
 20
24.3232048662
 10
-17.2859532613
 20
24.4725493192
 10
-17.5327933971
 20
24.6354468419
 10
-17.7779625237
 20
24.8107942913
 10
-18.0214465708
 20
24.9986733989
 10
-18.2632596087
 20
25.1990024331
 10
-18.5017727353
 20
25.4104330558
 10
-18.7369636137
 20
25.6330387064
 10
-18.9688545808
 20
25.8667459455
 10
-19.1958837455
 20
26.1099861167
 10
-19.4180203463
 20
26.3628246035
 10
-19.6352951446
 20
26.6251960224
 10
-19.8462385334
 20
26.8953355661
 10
-20.0508096252
 20
27.1732979241
 10
-20.2490493076
 20
27.459028407
 10
-20.4396106368
 20
27.7505981386
 10
-20.6224438424
 20
28.0480516637
 10
-20.7975986948
 20
28.3513444376
 10
-20.9638775614
 20
28.6584139498
 10
-21.1212194407
 20
28.9692877925
 10
-21.2696853342
 20
29.2839383734
 10
-21.4082606139
 20
29.6002204052
 10
-21.5368753199
 20
29.918140601
 10
-21.6555994121
 20
30.2376922476
 10
-21.7636281417
 20
30.5567099183
 10
-21.8608890492
 20
30.8751916014
 10
-21.947454594
 20
31.1931393086
 10
-22.0227374057
 20
31.5083936489
 10
-22.0866601087
 20
31.8209590376
 10
-22.1393000787
 20
32.1308310594
 10
-22.1803020719
 20
32.4358370778
 10
-22.2095476736
 20
32.7352528806
 10
-22.2271552984
 20
33.0298026799
 10
-22.2331249465
 20
33.3194864758
  0
LWPOLYLINE
  5
31A
100
AcDbEntity
  8
0
100
AcDbPolyline
 62
250
  6
CONTINUOUS
 90
16
 70
0
 10
-1.3057655694
 20
30.0543356222
 10
-1.3420467404
 20
30.0301270966
 10
-1.3778454851
 20
30.0019081477
 10
-1.4127825385
 20
29.9699777373
 10
-1.4464877647
 20
29.934674148
 10
-1.4786040781
 20
29.8963713988
 10
-1.5087912269
 20
29.855475283
 10
-1.5367293973
 20
29.8124190692
 10
-1.5621226021
 20
29.7676589106
 10
-1.5847018164
 20
29.7216690125
 10
-1.6042278278
 20
29.6749366089
 10
-1.6204937706
 20
29.6279567999
 10
-1.6333273173
 20
29.5812273068
 10
-1.6425925048
 20
29.5352431989
 10
-1.6481911742
 20
29.4904916487
 10
-1.6500640112
 20
29.4474467706
  0
LWPOLYLINE
  5
31B
100
AcDbEntity
  8
RACCORDO
100
AcDbPolyline
 62
7
  6
CONTINUOUS
 90
19
 70
0
 10
-24.2001814942
 20
17.9861276936
 10
-24.0723283393
 20
18.0707317024
 10
-23.9514711615
 20
18.1651050868
 10
-23.8376657339
 20
18.2689408723
 10
-23.7309990226
 20
18.3818815209
 10
-23.6314927057
 20
18.5036153115
 10
-23.5391297593
 20
18.6338886958
 10
-23.4540589408
 20
18.7721956791
 10
-23.3762576696
 20
18.9182492195
 10
-23.3055363623
 20
19.0721888782
 10
-23.2419893063
 20
19.2336944439
 10
-23.1857257258
 20
19.4023475851
 10
-23.1366856919
 20
19.5782690555
 10
-23.0949669846
 20
19.7611896394
 10
-23.0606893157
 20
19.9506597656
 10
-23.0338912144
 20
20.1466170777
 10
-23.0146569128
 20
20.3488098863
 10
-23.0030776837
 20
20.5567498324
 10
-22.9992089122
 20
20.7700378436
  0
LWPOLYLINE
  5
31C
100
AcDbEntity
  8
RACCORDO
100
AcDbPolyline
 62
7
  6
CONTINUOUS
 90
19
 70
0
 10
-13.2645778717
 20
24.3649845265
 10
-13.1232613795
 20
24.4584472323
 10
-12.9895591921
 20
24.5626998757
 10
-12.8635537489
 20
24.6774206634
 10
-12.7453523246
 20
24.8022408633
 10
-12.6350046658
 20
24.9368266242
 10
-12.5325269777
 20
25.0808870384
 10
-12.4380875349
 20
25.2338886181
 10
-12.351677489
 20
25.3955213106
 10
-12.2731263593
 20
25.5658854553
 10
-12.202542846
 20
25.7446243858
 10
-12.1400450493
 20
25.9312918799
 10
-12.0855816302
 20
26.1259774272
 10
-12.0392595159
 20
26.3283753144
 10
-12.0012056782
 20
26.5380001371
 10
-11.9714637316
 20
26.7547576152
 10
-11.9501229152
 20
26.9783593657
 10
-11.9372784722
 20
27.2082751414
 10
-11.9329877866
 20
27.4440648867
  0
LWPOLYLINE
  5
31D
100
AcDbEntity
  8
RACCORDO
100
AcDbPolyline
 62
250
  6
CONTINUOUS
 90
35
 70
0
 10
-13.4794388748
 20
24.5400035156
 10
-13.2645297093
 20
24.6742122893
 10
-13.0492295473
 20
24.8461696909
 10
-12.8523522479
 20
25.0453840107
 10
-12.6748570557
 20
25.2708846257
 10
-12.5176087298
 20
25.5215728595
 10
-12.3813733247
 20
25.7962274151
 10
-12.2668145375
 20
26.0935102525
 10
-12.1744904833
 20
26.4119730737
 10
-12.1048509708
 20
26.7500643378
 10
-12.0582352835
 20
27.10613687
 10
-12.0348705271
 20
27.4784559016
 10
-12.0348705273
 20
27.8652075472
 10
-12.0582352844
 20
28.2645076143
 10
-12.1048509722
 20
28.6744107744
 10
-12.1744904854
 20
29.0929200026
 10
-12.2668145403
 20
29.5179963277
 10
-12.3813733278
 20
29.9475687803
 10
-12.5176087331
 20
30.3795445658
 10
-12.6748570592
 20
30.8118192242
 10
-12.8523522522
 20
31.2422868388
 10
-13.0492295528
 20
31.6688501305
 10
-13.2645297159
 20
32.0894307635
 10
-13.4972037347
 20
32.5019795936
 10
-13.7461180953
 20
32.9044868607
 10
-14.010060243
 20
33.2949918006
 10
-14.2877443642
 20
33.6715919988
 10
-14.577817554
 20
34.032452583
 10
-14.8788665364
 20
34.3758153776
 10
-15.1894246073
 20
34.7000075285
 10
-15.5079787804
 20
35.0034496283
 10
-15.8329770813
 20
35.2846633274
 10
-16.1628361467
 20
35.5422785787
 10
-16.4959489385
 20
35.7750403099
 10
-16.8306925639
 20
35.9818145298
  0
LINE
  5
31E
100
AcDbEntity
  8
RACCORDO
100
AcDbLine
 62
250
  6
CONTINUOUS
 10
-36.1756799184
 20
12.9161742921
 11
-35.6401959783
 21
13.2253570696
  0
LINE
  5
31F
100
AcDbEntity
  8
RACCORDO
100
AcDbLine
 62
250
  6
CONTINUOUS
 10
-36.9163463983
 20
12.4671448243
 11
-36.1571577166
 21
12.9054894007
  0
LINE
  5
320
100
AcDbEntity
  8
RACCORDO
100
AcDbLine
 62
250
  6
CONTINUOUS
 10
7.2772676508
 20
35.6211833343
 11
8.8268163055
 21
36.5158674723
  0
LINE
  5
321
100
AcDbEntity
  8
0
100
AcDbLine
 62
250
  6
CONTINUOUS
 10
-1.3057655694
 20
30.0543356222
 11
1.3159746148
 21
31.5680880806
  0
LWPOLYLINE
  5
322
100
AcDbEntity
  8
RACCORDO
100
AcDbPolyline
 62
250
  6
CONTINUOUS
 90
49
 70
0
 10
-24.2001814942
 20
17.9861276936
 10
-24.2796732003
 20
17.9402461308
 10
-24.4449669324
 20
17.8585941368
 10
-24.6177000801
 20
17.7909711582
 10
-24.7974432425
 20
17.7375453189
 10
-24.9837495255
 20
17.6984494687
 10
-25.1761556746
 20
17.6737808244
 10
-25.3741833086
 20
17.6636007118
 10
-25.577340126
 20
17.667934431
 10
-25.7851210561
 20
17.6867712043
 10
-25.9970095209
 20
17.7200641975
 10
-26.2124787358
 20
17.7677306367
 10
-26.4309930299
 20
17.8296520192
 10
-26.6520091482
 20
17.9056744015
 10
-26.8749776077
 20
17.9956087805
 10
-27.0993440819
 20
18.09923157
 10
-27.3245507722
 20
18.2162851555
 10
-27.550037771
 20
18.3464785221
 10
-27.7752444611
 20
18.4894879762
 10
-27.9996109349
 20
18.6449579657
 10
-28.2225793937
 20
18.812501973
 10
-28.4435955117
 20
18.9917034626
 10
-28.6621098061
 20
19.1821169087
 10
-28.8775790217
 20
19.3832689172
 10
-29.0894674875
 20
19.5946594117
 10
-29.2972484195
 20
19.8157628489
 10
-29.500405239
 20
20.0460295314
 10
-29.6984328742
 20
20.2848869924
 10
-29.890839023
 20
20.5317414333
 10
-30.077145305
 20
20.7859791065
 10
-30.2568884665
 20
21.0469678415
 10
-30.4296216128
 20
21.3140587254
 10
-30.5949153435
 20
21.5865877737
 10
-30.7523587485
 20
21.8638774861
 10
-30.901560341
 20
22.145238358
 10
-31.0421492549
 20
22.4299710014
 10
-31.1737761536
 20
22.7173679499
 10
-31.2961138436
 20
23.0067149185
 10
-31.4088580327
 20
23.2972923355
 10
-31.5117283021
 20
23.588377549
 10
-31.6044688823
 20
23.8792468736
 10
-31.6868491854
 20
24.1691771545
 10
-31.7586643274
 20
24.457447337
 10
-31.8197357552
 20
24.7433406529
 10
-31.8699116642
 20
25.0261464046
 10
-31.9090673171
 20
25.3051614969
 10
-31.9371053738
 20
25.5796922554
 10
-31.9539561339
 20
25.8490561512
 10
-31.959577711
 20
26.1125835038
  0
LWPOLYLINE
  5
323
100
AcDbEntity
  8
RACCORDO
100
AcDbPolyline
 62
250
  6
CONTINUOUS
 90
15
 70
0
 10
-35.9149695144
 20
12.3354261447
 10
-35.9495856772
 20
12.3156111581
 10
-36.0039477498
 20
12.2902279869
 10
-36.0610234186
 20
12.2701529691
 10
-36.1207001519
 20
12.2554341442
 10
-36.1831027441
 20
12.2461055352
 10
-36.2482072457
 20
12.2422961197
 10
-36.3156943265
 20
12.2441462031
 10
-36.3852512797
 20
12.2517335075
 10
-36.4567551247
 20
12.2651314819
 10
-36.5298747263
 20
12.2843593702
 10
-36.6039344858
 20
12.3092558493
 10
-36.6785182997
 20
12.3396419364
 10
-36.7534957746
 20
12.3754323764
 10
-36.8285962721
 20
12.4164790012
  0
LWPOLYLINE
  5
324
100
AcDbEntity
  8
RACCORDO
100
AcDbPolyline
 62
250
  6
CONTINUOUS
 90
12
 70
0
 10
-13.2645778717
 20
24.3649845265
 10
-13.3927810026
 20
24.2926551253
 10
-13.568234342
 20
24.2097930533
 10
-13.7510786139
 20
24.1410461703
 10
-13.9408994829
 20
24.0865703595
 10
-14.1372666954
 20
24.0464891353
 10
-14.3397352123
 20
24.0208933166
 10
-14.5478465707
 20
24.0098408427
 10
-14.7611296761
 20
24.0133567719
 10
-14.9791016376
 20
24.0314332403
 10
-15.2012684652
 20
24.0640293757
 10
-15.4271265076
 20
24.1110713175
  0
LINE
  5
325
100
AcDbEntity
  8
DRAFT
100
AcDbLine
 62
7
  6
CONTINUOUS
 10
-12.5568252737
 20
25.0467291387
 11
-13.4794388748
 21
24.5400035156
  0
LINE
  5
326
100
AcDbEntity
  8
RACCORDO
100
AcDbLine
 62
250
  6
CONTINUOUS
 10
-36.0954562843
 20
12.869863767
 11
-35.6401959783
 21
13.1146880268
  0
LWPOLYLINE
  5
327
100
AcDbEntity
  8
0
100
AcDbPolyline
 62
250
  6
CONTINUOUS
 90
16
 70
0
 10
-0.9523333328
 20
29.4421730319
 10
-0.9915575792
 20
29.4228018752
 10
-1.0340315562
 20
29.4058687318
 10
-1.0793026411
 20
29.3915540501
 10
-1.1268940639
 20
29.3800091962
 10
-1.1762934279
 20
29.3713590508
 10
-1.2269563105
 20
29.3656972657
 10
-1.2783299005
 20
29.3630812457
 10
-1.3298789083
 20
29.3635339389
 10
-1.3810734221
 20
29.3670491095
 10
-1.4314386143
 20
29.3736006709
 10
-1.4803655067
 20
29.3831160429
 10
-1.5271566647
 20
29.3954410326
 10
-1.5712870931
 20
29.4103923204
 10
-1.6123866859
 20
29.4277972124
 10
-1.6500640112
 20
29.4474467706
  0
LWPOLYLINE
  5
328
100
AcDbEntity
  8
RACCORDO
100
AcDbPolyline
 62
7
  6
CONTINUOUS
 90
40
 70
0
 10
-1.8278395669
 20
7.8460828427
 10
-1.8687886113
 20
7.8630354525
 10
-2.0867313622
 20
7.9656644994
 10
-2.3061817669
 20
8.081356365
 10
-2.526698303
 20
8.2099675385
 10
-2.7475449359
 20
8.3511512751
 10
-2.9682354736
 20
8.5046692933
 10
-3.1882031875
 20
8.6702043979
 10
-3.4068499652
 20
8.847378557
 10
-3.6236660852
 20
9.0358505481
 10
-3.8381380428
 20
9.2352528562
 10
-4.0496429443
 20
9.4450817152
 10
-4.2575330651
 20
9.6647523453
 10
-4.4612356753
 20
9.8937017163
 10
-4.6602565179
 20
10.1314131769
 10
-4.8540946698
 20
10.377329152
 10
-5.0422725926
 20
10.6308861172
 10
-5.224277994
 20
10.8914333678
 10
-5.3995893147
 20
11.1582508976
 10
-5.5677479202
 20
11.4306548108
 10
-5.7283416224
 20
11.7079878034
 10
-5.8809560679
 20
11.9895412354
 10
-6.0252188742
 20
12.27463102
 10
-6.1607589457
 20
12.5625218309
 10
-6.2872059076
 20
12.8524081315
 10
-6.4042429353
 20
13.1435237136
 10
-6.5116084348
 20
13.4351682724
 10
-6.6090573154
 20
13.7266217109
 10
-6.6963767135
 20
14.0171878706
 10
-6.7733558726
 20
14.306089151
 10
-6.8398029563
 20
14.5924770019
 10
-6.8955819298
 20
14.8755610872
 10
-6.9406164306
 20
15.1546934611
 10
-6.9748517866
 20
15.4292344189
 10
-6.9982491834
 20
15.6984631173
 10
-7.0108078233
 20
15.9617205704
 10
-7.0125553954
 20
16.2184448975
 10
-7.0035508903
 20
16.4678207388
 10
-6.9838837268
 20
16.7093710895
 10
-6.9768632762
 20
16.7635207299
  0
LWPOLYLINE
  5
329
100
AcDbEntity
  8
RACCORDO
100
AcDbPolyline
 62
7
  6
CONTINUOUS
 90
30
 70
0
 10
-23.0409702837
 20
20.094852388
 10
-23.1564009516
 20
20.1449261002
 10
-23.3724988299
 20
20.2507937545
 10
-23.589505822
 20
20.3691507118
 10
-23.806904139
 20
20.4997288544
 10
-24.0240774139
 20
20.6421658664
 10
-24.2408488691
 20
20.7963749933
 10
-24.4567668942
 20
20.962099077
 10
-24.6711811868
 20
21.1388985013
 10
-24.8836392007
 20
21.3264545128
 10
-25.0935670739
 20
21.5243156196
 10
-25.3004730857
 20
21.7320699648
 10
-25.5040377523
 20
21.9494679562
 10
-25.703840207
 20
22.1761590852
 10
-25.8992556928
 20
22.4115319556
 10
-26.0896750939
 20
22.6549267663
 10
-26.2746121582
 20
22.9057826534
 10
-26.4535908428
 20
23.1635126669
 10
-26.6260587765
 20
23.4273655104
 10
-26.7915808221
 20
23.6967038456
 10
-26.9497444564
 20
23.9708818775
 10
-27.1000808036
 20
24.2490963974
 10
-27.2422260475
 20
24.5306657945
 10
-27.3758390316
 20
24.8149006696
 10
-27.5005412846
 20
25.1009607926
 10
-27.6160526201
 20
25.3881438954
 10
-27.7221161828
 20
25.6757409913
 10
-27.8184525966
 20
25.962889641
 10
-27.9048593661
 20
26.2488319904
 10
-27.9741545859
 20
26.5051459262
  0
LINE
  5
32A
100
AcDbEntity
  8
RACCORDO
100
AcDbLine
 62
250
  6
CONTINUOUS
 10
-14.9106617214
 20
17.0216251623
 11
-14.9478932572
 21
17.0417148562
  0
LWPOLYLINE
  5
32B
100
AcDbEntity
  8
RACCORDO
100
AcDbPolyline
 62
250
  6
CONTINUOUS
 90
26
 70
0
 10
-14.9478932572
 20
17.0417148562
 10
-15.0284613255
 20
17.09127855
 10
-15.1086907676
 20
17.146724039
 10
-15.1882380246
 20
17.2078153185
 10
-15.2667645358
 20
17.2742940768
 10
-15.3439314818
 20
17.3458751985
 10
-15.4194016637
 20
17.4222465626
 10
-15.4928501928
 20
17.5030790259
 10
-15.5639643621
 20
17.5880280591
 10
-15.632438701
 20
17.676728459
 10
-15.697979043
 20
17.7687985058
 10
-15.7603061671
 20
17.8638452636
 10
-15.8191555817
 20
17.961465319
 10
-15.8742762378
 20
18.061242888
 10
-15.9254306398
 20
18.162748768
 10
-15.9723984118
 20
18.2655457642
 10
-16.0149780226
 20
18.3691923072
 10
-16.0529878891
 20
18.4732458562
 10
-16.0862657905
 20
18.5772622348
 10
-16.1146693417
 20
18.680796735
 10
-16.1380766041
 20
18.7834052792
 10
-16.1563871643
 20
18.8846477446
 10
-16.1695226153
 20
18.9840902346
 10
-16.1774268293
 20
19.0813073164
 10
-16.1800660022
 20
19.1758830927
 10
-16.178859902
 20
19.2177433404
  0
LWPOLYLINE
  5
32C
100
AcDbEntity
  8
RACCORDO
100
AcDbPolyline
 62
250
  6
CONTINUOUS
 90
54
 70
0
 10
-16.9007040607
 20
19.9067621299
 10
-16.763649876
 20
19.8137856955
 10
-16.6279598297
 20
19.7124984547
 10
-16.493176382
 20
19.6024972684
 10
-16.3597570726
 20
19.4841852759
 10
-16.229074521
 20
19.3587718939
 10
-16.1011647914
 20
19.2261899798
 10
-15.9759918197
 20
19.0865066764
 10
-15.8548200331
 20
18.9411328287
 10
-15.7376896213
 20
18.790010103
 10
-15.6245603946
 20
18.633196833
 10
-15.5165762119
 20
18.472278865
 10
-15.4137882278
 20
18.3072112721
 10
-15.3161452876
 20
18.1380389812
 10
-15.2246377862
 20
17.9664826195
 10
-15.1393300454
 20
17.7925190401
 10
-15.0601577435
 20
17.6161713899
 10
-14.9879183099
 20
17.4392297367
 10
-14.9226840434
 20
17.2616916023
 10
-14.8643826453
 20
17.0835594649
 10
-14.8135946475
 20
16.9066308269
 10
-14.7703964585
 20
16.7309211007
 10
-14.73471167
 20
16.5564148738
 10
-14.7068915895
 20
16.3848634109
 10
-14.68701432
 20
16.2162992162
 10
-14.6750017586
 20
16.0506897855
 10
-14.6709709039
 20
15.8896888708
 10
-14.6749996835
 20
15.7333417182
 10
-14.6870101698
 20
15.5816030816
 10
-14.7068855793
 20
15.4359909749
 10
-14.7347040194
 20
15.2965627115
 10
-14.7703873826
 20
15.163260978
 10
-14.8135845634
 20
15.0374318484
 10
-14.8643720737
 20
14.9191481383
 10
-14.9226734015
 20
14.808337032
 10
-14.9879079049
 20
14.7061261562
 10
-15.0601479969
 20
14.6126015798
 10
-15.1393212646
 20
14.5276772338
 10
-15.2246298271
 20
14.4522225384
 10
-15.316137905
 20
14.3863350962
 10
-15.4137812777
 20
14.3299173045
 10
-15.5165694031
 20
14.2835457749
 10
-15.624553262
 20
14.2473244694
 10
-15.7376818736
 20
14.2211494259
 10
-15.8548117536
 20
14.2052853699
 10
-15.9759831833
 20
14.1998369425
 10
-16.1011558814
 20
14.2046995026
 10
-16.2290655196
 20
14.2198238521
 10
-16.3597479905
 20
14.2453186572
 10
-16.4931674015
 20
14.2810752517
 10
-16.6279517468
 20
14.3267184397
 10
-16.7636436914
 20
14.382123156
 10
-16.9007005704
 20
14.4474144659
 10
-17.0391223837
 20
14.5225923692
  0
LWPOLYLINE
  5
32D
100
AcDbEntity
  8
RACCORDO
100
AcDbPolyline
 62
250
  6
CONTINUOUS
 90
19
 70
0
 10
-15.0150671229
 20
17.3446016942
 10
-15.0448669979
 20
17.3678749636
 10
-15.1241108896
 20
17.4364428778
 10
-15.2017835315
 20
17.5104307151
 10
-15.2775065022
 20
17.5894780077
 10
-15.350910898
 20
17.6731996586
 10
-15.4216390896
 20
17.7611877742
 10
-15.489346461
 20
17.8530136353
 10
-15.5537031095
 20
17.9482298015
 10
-15.6143955532
 20
18.0463724514
 10
-15.6711282008
 20
18.1469636072
 10
-15.7236247107
 20
18.2495133441
 10
-15.7716292332
 20
18.3535219245
 10
-15.8149077841
 20
18.458482386
 10
-15.8532494785
 20
18.5638832099
 10
-15.886467608
 20
18.6692110536
 10
-15.9144004132
 20
18.7739530041
 10
-15.9369118184
 20
18.8775988983
 10
-15.9517421471
 20
18.9667233041
  0
LWPOLYLINE
  5
32E
100
AcDbEntity
  8
RACCORDO
100
AcDbPolyline
 62
250
  6
CONTINUOUS
 90
15
 70
0
 10
8.9704670155
 20
-4.2117090811
 10
9.0109705146
 20
-4.2475960268
 10
9.0506920022
 20
-4.2865208122
 10
9.0890888713
 20
-4.3279220989
 10
9.1261879946
 20
-4.371884174
 10
9.1619624993
 20
-4.4183227505
 10
9.1957891603
 20
-4.4664236293
 10
9.2276018502
 20
-4.5161501772
 10
9.2574666962
 20
-4.5675390273
 10
9.2849588549
 20
-4.6198858796
 10
9.310062778
 20
-4.6731754674
 10
9.3327940137
 20
-4.7274230573
 10
9.352774363
 20
-4.7819701492
 10
9.3700157269
 20
-4.8370321302
 10
9.3845062045
 20
-4.8923936131
  0
LWPOLYLINE
  5
32F
100
AcDbEntity
  8
DRAFT
100
AcDbPolyline
 62
7
  6
CONTINUOUS
 90
43
 70
0
 10
-8.872039061
 20
14.9094311519
 10
-8.8663557989
 20
14.6467309887
 10
-8.8496422608
 20
14.3795332139
 10
-8.8218984466
 20
14.1078378275
 10
-8.782988579
 20
13.8308955496
 10
-8.7330484354
 20
13.5494556601
 10
-8.6724853483
 20
13.2657659989
 10
-8.6012587487
 20
12.9799473199
 10
-8.5194092056
 20
12.6918788693
 10
-8.427465759
 20
12.4034462253
 10
-8.3252810275
 20
12.1144491362
 10
-8.2130023925
 20
11.8250878537
 10
-8.0916010379
 20
11.5378487119
 10
-7.9611227549
 20
11.2529941122
 10
-7.8215217524
 20
10.9702616531
 10
-7.6736318417
 20
10.6913504639
 10
-7.5172325168
 20
10.4160078369
 10
-7.3525442837
 20
10.1444864799
 10
-7.1810624716
 20
9.8792436445
 10
-7.0029401872
 20
9.6206254104
 10
-6.8180243237
 20
9.3682856979
 10
-6.6273508905
 20
9.1236435206
 10
-6.4306324831
 20
8.886456043
 10
-6.228156506
 20
8.6569661004
 10
-6.0218211809
 20
8.4373212129
 10
-5.811876064
 20
8.2278787389
 10
-5.5980715991
 20
8.02828132
 10
-5.3815573401
 20
7.8396044002
 10
-5.1620108628
 20
7.6616766557
 10
-4.9397545913
 20
7.4946694103
 10
-4.7169053516
 20
7.3401720805
 10
-4.4937734402
 20
7.1984862234
 10
-4.2700485607
 20
7.0693102819
 10
-4.0469166494
 20
6.9533290008
 10
-3.8240674097
 20
6.8504856145
 10
-3.6018111382
 20
6.7608368886
 10
-3.3822646609
 20
6.6852378643
 10
-3.1657504018
 20
6.6238895448
 10
-2.951945937
 20
6.576590927
 10
-2.7420008201
 20
6.5435940423
 10
-2.535665495
 20
6.5249680685
 10
-2.3331895178
 20
6.5206438278
 10
-2.2400944189
 20
6.5253866393
  0
LWPOLYLINE
  5
330
100
AcDbEntity
  8
RACCORDO
100
AcDbPolyline
 62
250
  6
CONTINUOUS
 90
67
 70
0
 10
-11.1669038209
 20
13.8664646616
 10
-11.1615032241
 20
14.1238464212
 10
-11.1454898484
 20
14.3735281234
 10
-11.1188636937
 20
14.6155097681
 10
-11.0815102301
 20
14.850378777
 10
-11.0335439876
 20
15.0775477286
 10
-10.9753085557
 20
15.2952543578
 10
-10.9067448167
 20
15.5033411444
 10
-10.8279118882
 20
15.7019656087
 10
-10.739330713
 20
15.8898380468
 10
-10.640928278
 20
16.0669088481
 10
-10.5327775963
 20
16.2332276232
 10
-10.415618649
 20
16.3876534997
 10
-10.2893943667
 20
16.5300988885
 10
-10.1541618188
 20
16.6606513786
 10
-10.0108321952
 20
16.7784328656
 10
-9.8593482965
 20
16.8833592707
 10
-9.6997673222
 20
16.9755146725
 10
-9.5331720601
 20
17.0542732028
 10
-9.3595157892
 20
17.1195431853
 10
-9.1788452304
 20
17.1714162962
 10
-8.9923833346
 20
17.2095416956
 10
-8.8000906643
 20
17.2338262214
 10
-8.602006657
 20
17.2443630357
 10
-8.3994725761
 20
17.241080785
 10
-8.1924581727
 20
17.2238856894
 10
-7.9809936958
 20
17.1928715288
 10
-7.7665111556
 20
17.1482482881
 10
-7.5489900369
 20
17.089923579
 10
-7.3284508549
 20
17.01798979
 10
-7.1063871651
 20
16.9329340715
 10
-6.8827886652
 20
16.8346673742
 10
-6.6576656575
 20
16.7232787475
 10
-6.4325426035
 20
16.5995224906
 10
-6.2074195044
 20
16.4633146716
 10
-5.9822963589
 20
16.3147392223
 10
-5.7586976253
 20
16.1548022374
 10
-5.5366336029
 20
15.9834265619
 10
-5.3160939925
 20
15.8006893508
 10
-5.0985723541
 20
15.6078281629
 10
-4.8840892083
 20
15.4047743067
 10
-4.6726240347
 20
15.1915964737
 10
-4.465608832
 20
14.9697382975
 10
-4.2630738345
 20
14.7391409112
 10
-4.0649888081
 20
14.4998631816
 10
-3.8726950491
 20
14.2535253426
 10
-3.6862320125
 20
14.0000797969
 10
-3.5055602433
 20
13.7395741418
 10
-3.3319026732
 20
13.4737714029
 10
-3.1653060128
 20
13.2026338458
 10
-3.0057235516
 20
12.926199205
 10
-2.8542380891
 20
12.6463437098
 10
-2.7109068099
 20
12.3630492916
 10
-2.5756725294
 20
12.0763340191
 10
-2.4494464936
 20
11.7881283274
 10
-2.3322858649
 20
11.4984108809
 10
-2.2241334808
 20
11.2072030151
 10
-2.1257291
 20
10.9164991721
 10
-2.0371454889
 20
10.6263330656
 10
-1.9583098812
 20
10.3366709818
 10
-1.8897437364
 20
10.0494062213
 10
-1.831506467
 20
9.7644524912
 10
-1.7835386606
 20
9.4818960843
 10
-1.7461835395
 20
9.2038891804
 10
-1.7195555113
 20
8.9311491726
 10
-1.7035401685
 20
8.6629586677
 10
-1.698137511
 20
8.3993176657
  0
LWPOLYLINE
  5
331
100
AcDbEntity
  8
RACCORDO
100
AcDbPolyline
 62
250
  6
CONTINUOUS
 90
17
 70
0
 10
-10.7463742754
 20
13.864345704
 10
-10.7407526974
 20
14.1213814197
 10
-10.7239019347
 20
14.3712864985
 10
-10.6958638737
 20
14.6134396293
 10
-10.6567082141
 20
14.8472387745
 10
-10.6065322963
 20
15.072102662
 10
-10.5454608605
 20
15.2874722304
 10
-10.4736457148
 20
15.4928120791
 10
-10.3912654121
 20
15.6876116346
 10
-10.2985248356
 20
15.8713864434
 10
-10.1956545744
 20
16.0436796271
 10
-10.0829103979
 20
16.2040628589
 10
-9.9605727197
 20
16.3521373144
 10
-9.8289458288
 20
16.4875348124
 10
-9.6883569202
 20
16.6099188992
 10
-9.5391553313
 20
16.7189855116
 10
-9.3822745113
 20
16.814154651
  0
LINE
  5
332
100
AcDbEntity
  8
0
100
AcDbLine
 62
250
  6
CONTINUOUS
 10
-0.9523333328
 20
29.4421730319
 11
1.6694068515
 21
30.9559254903
  0
LINE
  5
333
100
AcDbEntity
  8
RACCORDO
100
AcDbLine
 62
250
  6
CONTINUOUS
 10
8.3372816971
 20
33.7851851514
 11
9.8868303517
 21
34.6798692893
  0
LINE
  5
334
100
AcDbEntity
  8
RACCORDO
100
AcDbLine
 62
7
  6
CONTINUOUS
 10
-36.8599902169
 20
15.8671995564
 11
-37.2445002783
 21
15.870522349
  0
LWPOLYLINE
  5
335
100
AcDbEntity
  8
RACCORDO
100
AcDbPolyline
 62
7
  6
CONTINUOUS
 90
16
 70
0
 10
-16.9769975974
 20
19.8541066995
 10
-17.0779975209
 20
19.909666261
 10
-17.1781713896
 20
19.9592774972
 10
-17.2772098661
 20
20.0028438159
 10
-17.374657532
 20
20.040243088
 10
-17.4703827741
 20
20.071510754
 10
-17.5645281881
 20
20.0967358808
 10
-17.6565984866
 20
20.1158153828
 10
-17.7464760105
 20
20.1287647604
 10
-17.8347492876
 20
20.1356131997
 10
-17.9210169916
 20
20.1361956068
 10
-18.0049815376
 20
20.1303820676
 10
-18.0872317377
 20
20.1178904473
 10
-18.1676833553
 20
20.0983269816
 10
-18.2456970691
 20
20.0714159861
 10
-18.3209862663
 20
20.0368371729
  0
LINE
  5
336
100
AcDbEntity
  8
RACCORDO
100
AcDbLine
 62
250
  6
CONTINUOUS
 10
-17.0391223837
 20
19.9914277579
 11
-16.9007040607
 21
19.9067621299
  0
LWPOLYLINE
  5
337
100
AcDbEntity
  8
RACCORDO
100
AcDbPolyline
 62
250
  6
CONTINUOUS
 90
40
 70
0
 10
-7.0973699233
 20
16.0120625434
 10
-7.0934904987
 20
15.7927367463
 10
-7.0818056287
 20
15.5685317208
 10
-7.0622554511
 20
15.3397913732
 10
-7.0350100217
 20
15.1084910203
 10
-6.9999284479
 20
14.8734242678
 10
-6.9560225799
 20
14.6300096814
 10
-6.9021199463
 20
14.3755065963
 10
-6.8382282881
 20
14.1132106594
 10
-6.7650741264
 20
13.8476001956
 10
-6.6828986233
 20
13.5800361529
 10
-6.5914780266
 20
13.3102261673
 10
-6.4914296335
 20
13.040287919
 10
-6.3831055751
 20
12.7711909917
 10
-6.2665662696
 20
12.5031034931
 10
-6.1421995962
 20
12.2369400667
 10
-6.0103609585
 20
11.9734280268
 10
-5.8712569077
 20
11.7129488465
 10
-5.7250930835
 20
11.4558893518
 10
-5.5721295464
 20
11.2027295045
 10
-5.4127189148
 20
10.9540745095
 10
-5.2472174104
 20
10.7104916699
 10
-5.0759638863
 20
10.4724884739
 10
-4.8993232427
 20
10.2405805268
 10
-4.7177166725
 20
10.0153227448
 10
-4.531544374
 20
9.7972064887
 10
-4.3411856977
 20
9.5866712936
 10
-4.1470494669
 20
9.3841654586
 10
-3.949555969
 20
9.190122203
 10
-3.749113727
 20
9.0049378151
 10
-3.5461236314
 20
8.8289804038
 10
-3.3410147401
 20
8.6626214739
 10
-3.134218528
 20
8.5062105748
 10
-2.9261446965
 20
8.3600593861
 10
-2.7172222212
 20
8.2244738761
 10
-2.5079009491
 20
8.0997506225
 10
-2.2986243701
 20
7.9861576058
 10
-2.089814928
 20
7.8839292448
 10
-1.8819330783
 20
7.7932961027
 10
-1.8373843401
 20
7.7762880431
  0
LWPOLYLINE
  5
338
100
AcDbEntity
  8
RACCORDO
100
AcDbPolyline
 62
250
  6
CONTINUOUS
 90
5
 70
0
 10
-7.0420298634
 20
16.7902575146
 10
-7.0559057147
 20
16.6963722886
 10
-7.0783977731
 20
16.4807822521
 10
-7.0924904006
 20
16.2526968208
 10
-7.0973699233
 20
16.0120625434
  0
LWPOLYLINE
  5
339
100
AcDbEntity
  8
DRAFT
100
AcDbPolyline
 62
7
  6
CONTINUOUS
 90
11
 70
0
 10
-8.3288165338
 20
17.0671143519
 10
-8.427465759
 20
16.902033973
 10
-8.5194092056
 20
16.7197753166
 10
-8.6012587487
 20
16.5262246666
 10
-8.6724853483
 20
16.3226566795
 10
-8.7330484354
 20
16.1089037532
 10
-8.782988579
 20
15.8851334898
 10
-8.8218984466
 20
15.6531233517
 10
-8.8496422608
 20
15.4134658264
 10
-8.8663557989
 20
15.1655684265
 10
-8.872039061
 20
14.9094311519
  0
LWPOLYLINE
  5
33A
100
AcDbEntity
  8
RACCORDO
100
AcDbPolyline
 62
7
  6
CONTINUOUS
 90
43
 70
0
 10
-15.2725139409
 20
14.757068388
 10
-15.1966092907
 20
14.811613734
 10
-15.1271446968
 20
14.8742470941
 10
-15.064001558
 20
14.944470407
 10
-15.0073225005
 20
15.0214008035
 10
-14.9568003702
 20
15.104669517
 10
-14.9118668585
 20
15.1947278167
 10
-14.8726050536
 20
15.291191379
 10
-14.839157304
 20
15.3934148175
 10
-14.8113356737
 20
15.501857791
 10
-14.7892726969
 20
15.616257343
 10
-14.7731350554
 20
15.7359956693
 10
-14.7629664911
 20
15.8612861919
 10
-14.7589106874
 20
15.9919384747
 10
-14.7611025913
 20
16.1272999143
 10
-14.7696298046
 20
16.2670098266
 10
-14.7845565426
 20
16.4106266403
 10
-14.8059129916
 20
16.5576491484
 10
-14.8337156614
 20
16.7076588206
 10
-14.8679588996
 20
16.8602070629
 10
-14.9085893756
 20
17.0147385967
 10
-14.9555190465
 20
17.1706895314
 10
-15.0086499446
 20
17.327556381
 10
-15.0678463705
 20
17.4847939659
 10
-15.1329143892
 20
17.6417847363
 10
-15.2036643178
 20
17.7980001954
 10
-15.2798845004
 20
17.9529168051
 10
-15.3612990547
 20
18.1059389656
 10
-15.447639516
 20
18.256546852
 10
-15.538628538
 20
18.4042494644
 10
-15.6339360769
 20
18.5485146199
 10
-15.7332467124
 20
18.6888781885
 10
-15.8362147758
 20
18.8248707547
 10
-15.9424272821
 20
18.9559800526
 10
-16.0515032047
 20
19.0817822049
 10
-16.1630637513
 20
19.2018917602
 10
-16.2766632436
 20
19.3158898785
 10
-16.3918865203
 20
19.4234319525
 10
-16.5083210784
 20
19.5242105027
 10
-16.6254913692
 20
19.6179018448
 10
-16.7429410026
 20
19.7042427093
 10
-16.8602528907
 20
19.7830356757
 10
-16.9769975974
 20
19.8541066995
  0
LINE
  5
33B
100
AcDbEntity
  8
RACCORDO
100
AcDbLine
 62
250
  6
CONTINUOUS
 10
8.3372816971
 20
28.0688984706
 11
9.8868303517
 21
28.9635826085
  0
LINE
  5
33C
100
AcDbEntity
  8
RACCORDO
100
AcDbLine
 62
250
  6
CONTINUOUS
 10
8.6906197125
 20
27.4568990762
 11
10.2401683672
 21
28.3515832142
  0
LWPOLYLINE
  5
33D
100
AcDbEntity
  8
RACCORDO
100
AcDbPolyline
 62
250
  6
CONTINUOUS
 90
15
 70
0
 10
-15.2725139409
 20
14.757068388
 10
-15.3547561491
 20
14.710003891
 10
-15.448449159
 20
14.6678257393
 10
-15.5468319494
 20
14.6348084034
 10
-15.6495715683
 20
14.6110636804
 10
-15.7563202514
 20
14.5966719665
 10
-15.8667167491
 20
14.5916819603
 10
-15.98038756
 20
14.5961105404
 10
-16.0969480518
 20
14.6099427225
 10
-16.216003819
 20
14.6331317023
 10
-16.3371520177
 20
14.6655990161
 10
-16.459982721
 20
14.7072348047
 10
-16.5840803093
 20
14.7578981859
 10
-16.7090248765
 20
14.8174177312
 10
-16.8343936506
 20
14.8855920454
  0
LWPOLYLINE
  5
33E
100
AcDbEntity
  8
RACCORDO
100
AcDbPolyline
 62
7
  6
CONTINUOUS
 90
13
 70
0
 10
8.079461853
 20
25.78306758
 10
8.1200082682
 20
25.8021071656
 10
8.170576511
 20
25.8189188027
 10
8.2250353258
 20
25.8299854541
 10
8.2833107041
 20
25.8351509284
 10
8.3451371703
 20
25.8342859455
 10
8.4100854601
 20
25.8273216483
 10
8.4777945645
 20
25.8142246385
 10
8.5475506016
 20
25.7951211175
 10
8.6183740513
 20
25.7703590766
 10
8.6896063396
 20
25.7403375534
 10
8.7608234914
 20
25.7054431178
 10
8.8191314776
 20
25.6733493028
  0
LINE
  5
33F
100
AcDbEntity
  8
RACCORDO
100
AcDbLine
 62
250
  6
CONTINUOUS
 10
2.0453289079
 20
22.3332393141
 11
2.3147103285
 21
22.4317144366
  0
LWPOLYLINE
  5
340
100
AcDbEntity
  8
RACCORDO
100
AcDbPolyline
 62
250
  6
CONTINUOUS
 90
7
 70
0
 10
1.9142208613
 20
22.2796981461
 10
1.938040862
 20
22.2868740943
 10
1.9611603883
 20
22.2947791098
 10
1.9835124982
 20
22.3033905196
 10
2.0050324415
 20
22.3126836008
 10
2.0256578477
 20
22.3226316518
 10
2.0453289079
 20
22.3332060678
  0
LINE
  5
341
100
AcDbEntity
  8
DRAFT
100
AcDbLine
 62
7
  6
CONTINUOUS
 10
11.5595783564
 20
17.564184396
 11
10.1922079326
 21
17.5779638825
  0
LWPOLYLINE
  5
342
100
AcDbEntity
  8
RACCORDO
100
AcDbPolyline
 62
250
  6
CONTINUOUS
 90
46
 70
0
 10
-17.0391223837
 20
25.0245029978
 10
-16.7199316761
 20
24.8529653599
 10
-16.404377149
 20
24.7087784146
 10
-16.0924588026
 20
24.591942162
 10
-15.7823326024
 20
24.501974207
 10
-15.4758425827
 20
24.4393569446
 10
-15.1785208468
 20
24.4055375601
 10
-14.8909204246
 20
24.4011191214
 10
-14.6124882861
 20
24.4254985605
 10
-14.3470974449
 20
24.4783138588
 10
-14.0948562911
 20
24.5599802772
 10
-13.8556564346
 20
24.6700825547
 10
-13.6330457184
 20
24.8070128898
 10
-13.4272955105
 20
24.9711579283
 10
-13.238134443
 20
25.1621310243
 10
-13.0682962559
 20
25.3771644392
 10
-12.9180572857
 20
25.6166126822
 10
-12.787141196
 20
25.8801212441
 10
-12.6774527179
 20
26.1638588576
 10
-12.5893027626
 20
26.4681197766
 10
-12.5223804189
 20
26.7926097473
 10
-12.4776576839
 20
27.1326147407
 10
-12.4554585546
 20
27.4883615872
 10
-12.4554590339
 20
27.8596234564
 10
-12.4776591282
 20
28.2410058281
 10
-12.5223828653
 20
28.6326560972
 10
-12.5893062173
 20
29.0344268688
 10
-12.6774571066
 20
29.4404814379
 10
-12.7871463363
 20
29.8508842953
 10
-12.9180631032
 20
30.2655709502
 10
-13.0683029209
 20
30.6785112253
 10
-13.2381424482
 20
31.0896703643
 10
-13.4273050261
 20
31.4990831234
 10
-13.6330561919
 20
31.9008235945
 10
-13.8556666346
 20
32.2948173936
 10
-14.0948656651
 20
32.6811389046
 10
-14.3471067534
 20
33.0540853706
 10
-14.6124988554
 20
33.4133677064
 10
-14.8909330152
 20
33.7592749974
 10
-15.1785358348
 20
34.0869717417
 10
-15.4758615682
 20
34.3964940221
 10
-15.7823559615
 20
34.6878057559
 10
-16.0924828556
 20
34.9559631941
 10
-16.4043968641
 20
35.1993184205
 10
-16.7199433735
 20
35.4195193514
 10
-17.0391223837
 20
35.6165659867
  0
LWPOLYLINE
  5
343
100
AcDbEntity
  8
RACCORDO
100
AcDbPolyline
 62
7
  6
CONTINUOUS
 90
13
 70
0
 10
-16.9769975977
 20
24.8871819396
 10
-16.6550807676
 20
24.7137391968
 10
-16.3341705884
 20
24.565656675
 10
-16.0154651181
 20
24.4434649954
 10
-15.6996655813
 20
24.3474976972
 10
-15.3884738153
 20
24.2783614643
 10
-15.0845055614
 20
24.2365071712
 10
-14.7891714488
 20
24.2217883851
 10
-14.5032151332
 20
24.2339112259
 10
-14.2281704007
 20
24.2724604796
 10
-13.9652556765
 20
24.3368127962
 10
-13.7153493702
 20
24.4262737162
 10
-13.4794388748
 20
24.5400035156
  0
LINE
  5
344
100
AcDbEntity
  8
RACCORDO
100
AcDbLine
 62
250
  6
CONTINUOUS
 10
-16.8306925561
 20
24.6884586905
 11
-17.067740014
 21
24.8318424064
  0
LWPOLYLINE
  5
345
100
AcDbEntity
  8
RACCORDO
100
AcDbPolyline
 62
250
  6
CONTINUOUS
 90
33
 70
0
 10
-17.067740014
 20
24.8318424064
 10
-17.3042504937
 20
24.9879322891
 10
-17.5396889571
 20
25.1563752912
 10
-17.7735225364
 20
25.3367903402
 10
-18.0052210073
 20
25.5287685054
 10
-18.2342587464
 20
25.7318743334
 10
-18.4601167898
 20
25.9456476063
 10
-18.6822836059
 20
26.1696041506
 10
-18.9002555506
 20
26.4032362286
 10
-19.1135386336
 20
26.6460142639
 10
-19.3216499652
 20
26.89738849
 10
-19.5241184592
 20
27.1567898505
 10
-19.7204856559
 20
27.4236309897
 10
-19.9103065127
 20
27.6973071648
 10
-20.0931507728
 20
27.9771980111
 10
-20.2686040976
 20
28.2626691757
 10
-20.4362692486
 20
28.5530742282
 10
-20.5957666904
 20
28.8477557541
 10
-20.7467351345
 20
29.1460462598
 10
-20.8888325629
 20
29.4472699804
 10
-21.0217372171
 20
29.7507448793
 10
-21.1451480966
 20
30.0557837614
 10
-21.2587854847
 20
30.3616953606
 10
-21.3623917731
 20
30.6677862281
 10
-21.4557322163
 20
30.9733627807
 10
-21.5385954471
 20
31.277732981
 10
-21.6107937885
 20
31.5802074409
 10
-21.6721636957
 20
31.8801009977
 10
-21.7225661368
 20
32.1767342594
 10
-21.7618869339
 20
32.4694352502
 10
-21.7900370136
 20
32.7575409075
 10
-21.8069526086
 20
33.0403985841
 10
-21.812595401
 20
33.3173675182
  0
LWPOLYLINE
  5
346
100
AcDbEntity
  8
RACCORDO
100
AcDbPolyline
 62
250
  6
CONTINUOUS
 90
5
 70
0
 10
8.8627483217
 20
-4.2110640714
 10
8.8726147208
 20
-4.2280178703
 10
8.8844560089
 20
-4.2425322816
 10
8.8981452803
 20
-4.2544518291
 10
8.9069318427
 20
-4.2601576777
  0
LWPOLYLINE
  5
347
100
AcDbEntity
  8
0
100
AcDbPolyline
 62
250
  6
CONTINUOUS
 90
9
 70
0
 10
-1.6500640112
 20
-12.7043255116
 10
-1.6481911742
 20
-12.7452076846
 10
-1.6425925048
 20
-12.7834940317
 10
-1.6333273173
 20
-12.8187789333
 10
-1.6204937706
 20
-12.8506885683
 10
-1.6042278278
 20
-12.8788848743
 10
-1.5847018164
 20
-12.9030691294
 10
-1.5621226021
 20
-12.9229851167
 10
-1.5465227007
 20
-12.9331939422
  0
LWPOLYLINE
  5
348
100
AcDbEntity
  8
RACCORDO
100
AcDbPolyline
 62
7
  6
CONTINUOUS
 90
49
 70
0
 10
-1.7860054766
 20
8.5218000437
 10
-1.7912531208
 20
8.7760983683
 10
-1.8070252086
 20
9.0366587953
 10
-1.8333420382
 20
9.3028407587
 10
-1.8701912184
 20
9.5739769716
 10
-1.9175297002
 20
9.8493948016
 10
-1.9752890849
 20
10.1284334282
 10
-2.043372356
 20
10.4104157849
 10
-2.1216464949
 20
10.6946275366
 10
-2.209950648
 20
10.9803574873
 10
-2.3080977211
 20
11.2668977736
 10
-2.4158727909
 20
11.5535367878
 10
-2.5330349353
 20
11.8395642254
 10
-2.6593302693
 20
12.1242989289
 10
-2.7944551389
 20
12.4070050628
 10
-2.9380512455
 20
12.6869020758
 10
-3.0897637645
 20
12.9632837157
 10
-3.2492306118
 20
13.2354810669
 10
-3.4160400182
 20
13.5027887235
 10
-3.5897787412
 20
13.7645493283
 10
-3.770014654
 20
14.0201204869
 10
-3.9562726101
 20
14.26884375
 10
-4.1480917387
 20
14.5101243259
 10
-4.3449791258
 20
14.7433660911
 10
-4.5463777327
 20
14.9679431526
 10
-4.7517457333
 20
15.1832967921
 10
-4.960580326
 20
15.3889482881
 10
-5.1723546946
 20
15.5844272011
 10
-5.3865174232
 20
15.7692758992
 10
-5.602518517
 20
15.9430748698
 10
-5.8198092156
 20
16.1054404035
 10
-6.0378116184
 20
16.2560028703
 10
-6.2559639666
 20
16.3944414987
 10
-6.473715795
 20
16.5204767124
 10
-6.6903670209
 20
16.633787322
 10
-6.9054643711
 20
16.7342269271
 10
-7.1187930744
 20
16.8217522044
 10
-7.329654895
 20
16.896120741
 10
-7.5375876544
 20
16.9572222171
 10
-7.7426664489
 20
17.0050712006
 10
-7.9443625118
 20
17.0394788509
 10
-8.1420102086
 20
17.0602744153
 10
-8.3354174245
 20
17.0673560443
 10
-8.523941307
 20
17.0605916405
 10
-8.7071099215
 20
17.0398934248
 10
-8.8849672081
 20
17.0050766061
 10
-9.0571845631
 20
16.9559237567
 10
-9.2231010697
 20
16.8923245607
 10
-9.3822745113
 20
16.814154651
  0
LINE
  5
349
100
AcDbEntity
  8
0
100
AcDbLine
 62
250
  6
CONTINUOUS
 10
-1.6500640112
 20
29.4474467706
 11
-1.6500640112
 21
-12.7043255116
  0
LINE
  5
34A
100
AcDbEntity
  8
0
100
AcDbLine
 62
250
  6
CONTINUOUS
 10
-0.9523333328
 20
29.4421730319
 11
-0.9523333328
 21
-12.7095992504
  0
LWPOLYLINE
  5
34B
100
AcDbEntity
  8
RACCORDO
100
AcDbPolyline
 62
250
  6
CONTINUOUS
 90
67
 70
0
 10
-1.698137511
 20
8.3993176657
 10
-1.7035381077
 20
8.1419359061
 10
-1.7195514835
 20
7.8922542039
 10
-1.7461776382
 20
7.6502725592
 10
-1.7835311017
 20
7.4154035503
 10
-1.8314973443
 20
7.1882345987
 10
-1.8897327762
 20
6.9705279695
 10
-1.9582965152
 20
6.7624411829
 10
-2.0371294437
 20
6.5638167186
 10
-2.1257106189
 20
6.3759442805
 10
-2.2241130538
 20
6.1988734792
 10
-2.3322637355
 20
6.0325547041
 10
-2.4494226828
 20
5.8781288276
 10
-2.5756469652
 20
5.7356834388
 10
-2.7108795131
 20
5.6051309487
 10
-2.8542091367
 20
5.4873494617
 10
-3.0056930353
 20
5.3824230566
 10
-3.1652740096
 20
5.2902676548
 10
-3.3318692718
 20
5.2115091245
 10
-3.5055255427
 20
5.146239142
 10
-3.6861961015
 20
5.0943660311
 10
-3.8726579972
 20
5.0562406317
 10
-4.0649506676
 20
5.0319561059
 10
-4.2630346749
 20
5.0214192915
 10
-4.4655687558
 20
5.0247015423
 10
-4.6725831591
 20
5.0418966379
 10
-4.8840476361
 20
5.0729107985
 10
-5.0985301763
 20
5.1175340392
 10
-5.316051295
 20
5.1758587482
 10
-5.5365904769
 20
5.2477925373
 10
-5.7586541668
 20
5.3328482557
 10
-5.9822526666
 20
5.4311149531
 10
-6.2073756743
 20
5.5425035798
 10
-6.4324987283
 20
5.6662598367
 10
-6.6576218275
 20
5.8024676557
 10
-6.882744973
 20
5.951043105
 10
-7.1063437066
 20
6.1109800899
 10
-7.3284077289
 20
6.2823557654
 10
-7.5489473394
 20
6.4650929765
 10
-7.7664689777
 20
6.6579541644
 10
-7.9809521235
 20
6.8610080206
 10
-8.1924172972
 20
7.0741858536
 10
-8.3994324999
 20
7.2960440298
 10
-8.6019674973
 20
7.5266414161
 10
-8.8000525238
 20
7.7659191457
 10
-8.9923462827
 20
8.0122569847
 10
-9.1788093194
 20
8.2657025304
 10
-9.3594810886
 20
8.5262081855
 10
-9.5331386587
 20
8.7920109244
 10
-9.699735319
 20
9.0631484815
 10
-9.8593177803
 20
9.3395831223
 10
-10.0108032428
 20
9.6194386175
 10
-10.154134522
 20
9.9027330357
 10
-10.2893688024
 20
10.1894483082
 10
-10.4155948382
 20
10.4776539999
 10
-10.532755467
 20
10.7673714464
 10
-10.6409078511
 20
11.0585793121
 10
-10.7393122319
 20
11.3492831552
 10
-10.8278958429
 20
11.6394492617
 10
-10.9067314507
 20
11.9291113455
 10
-10.9752975954
 20
12.216376106
 10
-11.0335348648
 20
12.5013298361
 10
-11.0815026712
 20
12.783886243
 10
-11.1188577923
 20
13.0618931469
 10
-11.1454858205
 20
13.3346331547
 10
-11.1615011634
 20
13.6028236596
 10
-11.1669038209
 20
13.8664646616
  0
LINE
  5
34C
100
AcDbEntity
  8
RACCORDO
100
AcDbLine
 62
250
  6
CONTINUOUS
 10
8.452077078
 20
25.3597091035
 11
8.8915918007
 21
25.6315116009
  0
LINE
  5
34D
100
AcDbEntity
  8
RACCORDO
100
AcDbLine
 62
250
  6
CONTINUOUS
 10
11.513822074
 20
27.6161915265
 11
9.9642734194
 21
26.7215073885
  0
LINE
  5
34E
100
AcDbEntity
  8
RACCORDO
100
AcDbLine
 62
250
  6
CONTINUOUS
 10
12.5738361202
 20
25.7801933435
 11
11.0242874656
 21
24.8855092056
  0
LINE
  5
34F
100
AcDbEntity
  8
RACCORDO
100
AcDbLine
 62
250
  6
CONTINUOUS
 10
11.6514249224
 20
25.0958271256
 11
12.5738361202
 21
25.6104377291
  0
LINE
  5
350
100
AcDbEntity
  8
RACCORDO
100
AcDbLine
 62
7
  6
CONTINUOUS
 10
11.5902578483
 20
24.9590006361
 11
12.5103784652
 21
25.472333331
  0
LINE
  5
351
100
AcDbEntity
  8
RACCORDO
100
AcDbLine
 62
7
  6
CONTINUOUS
 10
8.0794335725
 20
25.7830569011
 11
8.079836416
 21
25.7832737352
  0
LINE
  5
352
100
AcDbEntity
  8
RACCORDO
100
AcDbLine
 62
7
  6
CONTINUOUS
 10
11.5902582655
 20
24.9590008689
 11
11.5877844213
 21
24.9576692796
  0
LINE
  5
353
100
AcDbEntity
  8
RACCORDO
100
AcDbLine
 62
250
  6
CONTINUOUS
 10
7.6928883964
 20
24.9514419988
 11
8.452077078
 21
25.3597091035
  0
LINE
  5
354
100
AcDbEntity
  8
RACCORDO
100
AcDbLine
 62
250
  6
CONTINUOUS
 10
11.0242874656
 20
24.7703754782
 11
11.6514249224
 21
25.0958271256
  0
LINE
  5
355
100
AcDbEntity
  8
RACCORDO
100
AcDbLine
 62
7
  6
CONTINUOUS
 10
10.9578732204
 20
24.630778202
 11
11.5877843782
 21
24.9576692556
  0
LWPOLYLINE
  5
356
100
AcDbEntity
  8
RACCORDO
100
AcDbPolyline
 62
250
  6
CONTINUOUS
 90
7
 70
0
 10
1.9142232041
 20
18.8223632061
 10
1.9380486411
 20
18.8295423725
 10
1.9611709736
 20
18.8374501184
 10
1.9835234547
 20
18.8460635451
 10
2.0050415694
 20
18.8553577182
 10
2.0256632206
 20
18.8653057399
 10
2.0453289079
 20
18.8758788268
  0
LWPOLYLINE
  5
357
100
AcDbEntity
  8
RACCORDO
100
AcDbPolyline
 62
250
  6
CONTINUOUS
 90
10
 70
0
 10
1.669406898
 20
22.8448854636
 10
1.7070099316
 20
22.8492186532
 10
1.7456787846
 20
22.8500478243
 10
1.785413457
 20
22.8473729771
 10
1.8261702693
 20
22.8412899881
 10
1.867992901
 20
22.8317029808
 10
1.91101239
 20
22.8183243252
 10
1.9552724156
 20
22.8010581446
 10
2.0007292986
 20
22.7800003158
 10
2.0473830389
 20
22.7551508387
  0
LINE
  5
358
100
AcDbEntity
  8
RACCORDO
100
AcDbLine
 62
7
  6
CONTINUOUS
 10
-36.8599902169
 20
19.1143740639
 11
-37.2445002783
 21
19.0757669924
  0
LINE
  5
359
100
AcDbEntity
  8
DRAFT
100
AcDbLine
 62
7
  6
CONTINUOUS
 10
11.5595783564
 20
22.45865464
 11
10.1922079326
 21
22.4448751536
  0
LWPOLYLINE
  5
35A
100
AcDbEntity
  8
RACCORDO
100
AcDbPolyline
 62
7
  6
CONTINUOUS
 90
9
 70
0
 10
2.0886472891
 20
22.5543075963
 10
2.0850076284
 20
22.5544419426
 10
2.0850668945
 20
22.5544083247
 10
2.0886794596
 20
22.5536602981
 10
2.0956385583
 20
22.5517370868
 10
2.1058985895
 20
22.5481849934
 10
2.1191204677
 20
22.542692468
 10
2.1345214713
 20
22.5352546662
 10
2.1507874109
 20
22.5263611181
  0
LWPOLYLINE
  5
35B
100
AcDbEntity
  8
RACCORDO
100
AcDbPolyline
 62
250
  6
CONTINUOUS
 90
7
 70
0
 10
-15.4271265076
 20
24.1110713175
 10
-15.656164225
 20
24.1724525306
 10
-15.8878626605
 20
24.2480339454
 10
-16.1216962081
 20
24.3376440434
 10
-16.3571346471
 20
24.441079468
 10
-16.5936451066
 20
24.5581059491
 10
-16.8306925561
 20
24.6884586905
  0
LWPOLYLINE
  5
35C
100
AcDbEntity
  8
RACCORDO
100
AcDbPolyline
 62
250
  6
CONTINUOUS
 90
16
 70
0
 10
7.2723588509
 20
18.064685491
 10
7.2954236207
 20
18.0526804958
 10
7.3205141152
 20
18.0421164396
 10
7.3473615072
 20
18.0331065089
 10
7.3756781454
 20
18.025747239
 10
7.4051606367
 20
18.0201174792
 10
7.4354930966
 20
18.0162775486
 10
7.4663505339
 20
18.0142685893
 10
7.4974023325
 20
18.014112126
 10
7.5283157938
 20
18.015809835
 10
7.5587597017
 20
18.0193435267
 10
7.5884078706
 20
18.0246753398
 10
7.6169426411
 20
18.0317481478
 10
7.6440582828
 20
18.0404861704
 10
7.6694642704
 20
18.0507957857
 10
7.6928883964
 20
18.0625665334
  0
LINE
  5
35D
100
AcDbEntity
  8
RACCORDO
100
AcDbLine
 62
250
  6
CONTINUOUS
 10
3.2168949545
 20
16.966920251
 11
2.0473830389
 21
17.6421817737
  0
LINE
  5
35E
100
AcDbEntity
  8
RACCORDO
100
AcDbLine
 62
250
  6
CONTINUOUS
 10
3.5090544431
 20
17.5376426075
 11
2.3395425276
 21
18.2129041301
  0
LINE
  5
35F
100
AcDbEntity
  8
RACCORDO
100
AcDbLine
 62
7
  6
CONTINUOUS
 10
2.900766532
 20
18.6446167047
 11
3.7668125854
 21
18.1445725676
  0
LINE
  5
360
100
AcDbEntity
  8
RACCORDO
100
AcDbLine
 62
250
  6
CONTINUOUS
 10
8.8448070564
 20
15.4424471633
 11
8.7570569303
 21
15.4931129864
  0
LINE
  5
361
100
AcDbEntity
  8
RACCORDO
100
AcDbLine
 62
250
  6
CONTINUOUS
 10
-37.037026092
 20
41.9340425887
 11
-37.1247762181
 21
41.9847084118
  0
LINE
  5
362
100
AcDbEntity
  8
RACCORDO
100
AcDbLine
 62
250
  6
CONTINUOUS
 10
3.7668125854
 20
18.4534119769
 11
2.7726511714
 21
19.0274283176
  0
LINE
  5
363
100
AcDbEntity
  8
RACCORDO
100
AcDbLine
 62
250
  6
CONTINUOUS
 10
10.329734895
 20
14.7075389813
 11
9.8662906404
 21
14.9751258856
  0
LINE
  5
364
100
AcDbEntity
  8
RACCORDO
100
AcDbLine
 62
250
  6
CONTINUOUS
 10
-38.1462598021
 20
42.6969707725
 11
-38.6097040567
 21
42.9645576768
  0
LINE
  5
365
100
AcDbEntity
  8
RACCORDO
100
AcDbLine
 62
7
  6
CONTINUOUS
 10
3.7668125854
 20
18.5424018537
 11
2.8497077234
 21
19.071926707
  0
LINE
  5
366
100
AcDbEntity
  8
RACCORDO
100
AcDbLine
 62
250
  6
CONTINUOUS
 10
9.0532368763
 20
15.8076957064
 11
8.9654867501
 21
15.8583615294
  0
LINE
  5
367
100
AcDbEntity
  8
RACCORDO
100
AcDbLine
 62
250
  6
CONTINUOUS
 10
-36.8285962721
 20
42.2992911318
 11
-36.9163463983
 21
42.3499569549
  0
LINE
  5
368
100
AcDbEntity
  8
RACCORDO
100
AcDbLine
 62
250
  6
CONTINUOUS
 10
10.5381647149
 20
15.0727875244
 11
10.2384728087
 21
15.245825875
  0
LINE
  5
369
100
AcDbEntity
  8
RACCORDO
100
AcDbLine
 62
250
  6
CONTINUOUS
 10
-38.1462598021
 20
43.1825640814
 11
-38.4012742368
 21
43.3298062199
  0
LWPOLYLINE
  5
36A
100
AcDbEntity
  8
RACCORDO
100
AcDbPolyline
 62
250
  6
CONTINUOUS
 90
28
 70
0
 10
8.9654867501
 20
15.8583615294
 10
8.891670345
 20
15.9031900509
 10
8.8183032372
 20
15.9526684002
 10
8.7456229399
 20
16.0065949234
 10
8.6740071222
 20
16.0646275314
 10
8.6035336775
 20
16.1266522782
 10
8.5340005422
 20
16.1928677636
 10
8.4653759579
 20
16.2633872168
 10
8.3981846329
 20
16.3377536569
 10
8.3330493966
 20
16.4153007363
 10
8.2703386741
 20
16.4955353029
 10
8.2100719772
 20
16.578369382
 10
8.1523197466
 20
16.6636913154
 10
8.0972554954
 20
16.7512467292
 10
8.0450793901
 20
16.8407182989
 10
7.9959125461
 20
16.9319106939
 10
7.949985915
 20
17.0244049041
 10
7.9073973729
 20
17.1180161028
 10
7.868113982
 20
17.2129084763
 10
7.83225942
 20
17.308982928
 10
7.8001148791
 20
17.4057059325
 10
7.7719040399
 20
17.5025836706
 10
7.7477520086
 20
17.5994119168
 10
7.7278410355
 20
17.6956989981
 10
7.7123692387
 20
17.7905322087
 10
7.7013896815
 20
17.8834025942
 10
7.6948937306
 20
17.9741826747
 10
7.6928883964
 20
18.0625665334
  0
LWPOLYLINE
  5
36B
100
AcDbEntity
  8
RACCORDO
100
AcDbPolyline
 62
250
  6
CONTINUOUS
 90
22
 70
0
 10
-36.9163462376
 20
42.3499570477
 10
-36.9430553396
 20
42.3662023148
 10
-36.9695295932
 20
42.3846139982
 10
-36.9956263717
 20
42.405073526
 10
-37.021186359
 20
42.4274304846
 10
-37.04609526
 20
42.4515661793
 10
-37.0702792284
 20
42.4774097825
 10
-37.0936347442
 20
42.5048565026
 10
-37.1160034372
 20
42.5337235047
 10
-37.1372339165
 20
42.5638190716
 10
-37.1571868016
 20
42.5949349624
 10
-37.1757843033
 20
42.626934979
 10
-37.1929706477
 20
42.6597297035
 10
-37.20863381
 20
42.6931230996
 10
-37.2226884905
 20
42.7269526053
 10
-37.2350980491
 20
42.7611809246
 10
-37.2457937454
 20
42.7957452241
 10
-37.2546315851
 20
42.8303188284
 10
-37.2614892906
 20
42.864468376
 10
-37.2663200893
 20
42.8979244767
 10
-37.2691112159
 20
42.9305751012
 10
-37.2698457615
 20
42.9622362263
  0
LWPOLYLINE
  5
36C
100
AcDbEntity
  8
RACCORDO
100
AcDbPolyline
 62
250
  6
CONTINUOUS
 90
28
 70
0
 10
8.7570569303
 20
15.4931129864
 10
8.6707336549
 20
15.5459712566
 10
8.5854614313
 20
15.6037505889
 10
8.5012402594
 20
15.6664509833
 10
8.4179653975
 20
15.7341537896
 10
8.3357415873
 20
15.8067776579
 10
8.2548830538
 20
15.8840785385
 10
8.1750825742
 20
15.9664163357
 10
8.0966473712
 20
16.0534311452
 10
8.0208133379
 20
16.1437992038
 10
7.9478153432
 20
16.2373441433
 10
7.8774185182
 20
16.334242332
 10
7.810154149
 20
16.4336991106
 10
7.7460141665
 20
16.5357542632
 10
7.6850066398
 20
16.6403680058
 10
7.6276870623
 20
16.7466263268
 10
7.5741119515
 20
16.854401827
 10
7.5242247899
 20
16.9638219058
 10
7.4784115194
 20
17.0743547494
 10
7.4365808212
 20
17.1862725426
 10
7.3988240139
 20
17.2993031008
 10
7.3658009959
 20
17.4120980567
 10
7.3375848223
 20
17.5248204704
 10
7.3141024379
 20
17.6373072818
 10
7.2957945753
 20
17.7477209443
 10
7.2828081454
 20
17.8554489422
 10
7.2749962373
 20
17.9611037911
 10
7.2723588509
 20
18.064685491
  0
LWPOLYLINE
  5
36D
100
AcDbEntity
  8
RACCORDO
100
AcDbPolyline
 62
250
  6
CONTINUOUS
 90
25
 70
0
 10
2.3395425276
 20
18.2129041301
 10
2.3163698489
 20
18.2271003581
 10
2.2936057179
 20
18.2431594563
 10
2.2713496506
 20
18.2610033221
 10
2.2497357948
 20
18.2805304513
 10
2.2288245667
 20
18.3016685311
 10
2.2086044916
 20
18.3243901955
 10
2.189149863
 20
18.3486435907
 10
2.1705790736
 20
18.3743111576
 10
2.1529479568
 20
18.4012731191
 10
2.1363549045
 20
18.4294388272
 10
2.1208866792
 20
18.4586984667
 10
2.1065786533
 20
18.4888970678
 10
2.0935237034
 20
18.5199262319
 10
2.081798054
 20
18.551671448
 10
2.0714072547
 20
18.5839640193
 10
2.0624277641
 20
18.6167090665
 10
2.0549320153
 20
18.6497656195
 10
2.0489077012
 20
18.682893853
 10
2.0444173103
 20
18.715952314
 10
2.0415024597
 20
18.7488461615
 10
2.0401081925
 20
18.781406564
 10
2.0402430358
 20
18.8135006676
 10
2.0419755583
 20
18.8450330201
 10
2.0453346638
 20
18.8758933261
  0
LWPOLYLINE
  5
36E
100
AcDbEntity
  8
RACCORDO
100
AcDbPolyline
 62
250
  6
CONTINUOUS
 90
10
 70
0
 10
2.0473830389
 20
17.6421817737
 10
2.0025483591
 20
17.6698018791
 10
1.9583341651
 20
17.7002359833
 10
1.9147404571
 20
17.7334840862
 10
1.8716487732
 20
17.7696626426
 10
1.8291775751
 20
17.8086551977
 10
1.7876822482
 20
17.8501123872
 10
1.7472812539
 20
17.8939177561
 10
1.7078561307
 20
17.9401877594
 10
1.6694068786
 20
17.9889223969
  0
LWPOLYLINE
  5
36F
100
AcDbEntity
  8
RACCORDO
100
AcDbPolyline
 62
250
  6
CONTINUOUS
 90
22
 70
0
 10
-37.1247762181
 20
41.9847084118
 10
-37.1674448827
 20
42.0112947261
 10
-37.2093315357
 20
42.04091888
 10
-37.2504361773
 20
42.0735808735
 10
-37.2909396764
 20
42.1094678192
 10
-37.330661164
 20
42.1483926046
 10
-37.369058033
 20
42.1897938913
 10
-37.4061571563
 20
42.2337559664
 10
-37.4419316611
 20
42.2801945429
 10
-37.475758322
 20
42.3282954217
 10
-37.5075710119
 20
42.3780219696
 10
-37.537435858
 20
42.4294108197
 10
-37.5649280166
 20
42.481757672
 10
-37.5900319397
 20
42.5350472598
 10
-37.6127631754
 20
42.5892948497
 10
-37.6327435247
 20
42.6438419416
 10
-37.6499848886
 20
42.6989039226
 10
-37.6644753662
 20
42.7542654055
 10
-37.675801055
 20
42.8086217289
 10
-37.6838239876
 20
42.8615380056
 10
-37.6886821314
 20
42.9134491227
 10
-37.6903754865
 20
42.9643550803
  0
LWPOLYLINE
  5
370
100
AcDbEntity
  8
RACCORDO
100
AcDbPolyline
 62
250
  6
CONTINUOUS
 90
11
 70
0
 10
-38.6097040567
 20
42.9645576768
 10
-38.6383222446
 20
42.9825537421
 10
-38.6640941878
 20
43.0018104831
 10
-38.6868754017
 20
43.0221744244
 10
-38.7065186613
 20
43.0434552099
 10
-38.7229665791
 20
43.0655218775
 10
-38.7362031295
 20
43.088316218
 10
-38.7461369729
 20
43.1116802615
 10
-38.7527013824
 20
43.1354558896
 10
-38.7558585055
 20
43.1595944211
 10
-38.7561505247
 20
43.1693107816
  0
LWPOLYLINE
  5
371
100
AcDbEntity
  8
RACCORDO
100
AcDbPolyline
 62
250
  6
CONTINUOUS
 90
10
 70
0
 10
3.9132591948
 20
17.3689145249
 10
3.8819267293
 20
17.3887730436
 10
3.853926889
 20
17.4102271208
 10
3.8295020941
 20
17.4330909865
 10
3.8088638091
 20
17.457166664
 10
3.7921907084
 20
17.4822456891
 10
3.7796271319
 20
17.5081109151
 10
3.7712818408
 20
17.5345383847
 10
3.7672270708
 20
17.5612992764
 10
3.7668126241
 20
17.572938338
  0
LWPOLYLINE
  5
372
100
AcDbEntity
  8
RACCORDO
100
AcDbPolyline
 62
250
  6
CONTINUOUS
 90
19
 70
0
 10
-38.4012742368
 20
43.3298062199
 10
-38.4128012436
 20
43.337116275
 10
-38.4230907563
 20
43.3448166033
 10
-38.4321427749
 20
43.3529072049
 10
-38.4399843917
 20
43.3614386485
 10
-38.4465885144
 20
43.3703603653
 10
-38.4518738659
 20
43.3795206489
 10
-38.4558369532
 20
43.3889193642
 10
-38.4584812694
 20
43.3985566463
 10
-38.4597360164
 20
43.4082811933
 10
-38.4596070173
 20
43.4180892488
 10
-38.4580884491
 20
43.4279845694
 10
-38.4550920445
 20
43.4378271223
 10
-38.4505801924
 20
43.4476638161
 10
-38.4445905038
 20
43.4574477422
 10
-38.4371475457
 20
43.4668981429
 10
-38.428259507
 20
43.475921432
 10
-38.4179181988
 20
43.4846111956
 10
-38.4061236209
 20
43.4929674337
  0
LWPOLYLINE
  5
373
100
AcDbEntity
  8
RACCORDO
100
AcDbPolyline
 62
250
  6
CONTINUOUS
 90
9
 70
0
 10
-35.5523280126
 20
42.7911229666
 10
-35.5731202093
 20
42.804440471
 10
-35.5914166744
 20
42.8189275987
 10
-35.6070213876
 20
42.8344291191
 10
-35.6197671706
 20
42.8507789327
 10
-35.6295174816
 20
42.8678018563
 10
-35.6361678749
 20
42.8853155009
 10
-35.6396471147
 20
42.9031322154
 10
-35.6401959582
 20
42.9135419465
  0
LWPOLYLINE
  5
374
100
AcDbEntity
  8
0
100
AcDbPolyline
 62
250
  6
CONTINUOUS
 90
19
 70
0
 10
-0.9523333328
 20
29.4421730319
 10
-0.9544783086
 20
29.4781706122
 10
-0.9592395142
 20
29.5154998906
 10
-0.966581705
 20
29.5538758804
 10
-0.9764522263
 20
29.5930137732
 10
-0.9887753337
 20
29.6326060923
 10
-1.0034476118
 20
29.6723243441
 10
-1.0203439299
 20
29.7118438503
 10
-1.0393392146
 20
29.7508842549
 10
-1.0603062641
 20
29.7891843727
 10
-1.0831093875
 20
29.8264843946
 10
-1.1075578419
 20
29.8624613079
 10
-1.1334179068
 20
29.8967763245
 10
-1.1604871391
 20
29.929175183
 10
-1.1885538707
 20
29.9594182319
 10
-1.2173450996
 20
29.9872338112
 10
-1.2466175124
 20
30.0124205783
 10
-1.2761651713
 20
30.0348342644
 10
-1.3057655709
 20
30.0543356213
  0
LWPOLYLINE
  5
375
100
AcDbEntity
  8
RACCORDO
100
AcDbPolyline
 62
7
  6
CONTINUOUS
 90
28
 70
0
 10
1.6694068527
 20
1.6166635295
 10
1.67139069
 20
1.5748902429
 10
1.6751374989
 20
1.5358232051
 10
1.6806472795
 20
1.4994624162
 10
1.6882148015
 20
1.4659736498
 10
1.6975452951
 20
1.4351911322
 10
1.7077544514
 20
1.4066175425
 10
1.7187392045
 20
1.380281961
 10
1.7306026202
 20
1.3561553075
 10
1.7427695874
 20
1.3336530195
 10
1.7551587619
 20
1.3127613004
 10
1.7678514878
 20
1.2934939469
 10
1.7805166866
 20
1.2753077867
 10
1.7931214585
 20
1.2581694682
 10
1.8056987031
 20
1.242112343
 10
1.8180160405
 20
1.2266932934
 10
1.8300894966
 20
1.2118869018
 10
1.8419030455
 20
1.1977185858
 10
1.8531762288
 20
1.1838214805
 10
1.8639370065
 20
1.1702378507
 10
1.8741574186
 20
1.1569254316
 10
1.8834731278
 20
1.143390564
 10
1.8919633819
 20
1.1296558101
 10
1.8995489331
 20
1.1156986078
 10
1.9056277008
 20
1.1009576109
 10
1.9099989915
 20
1.0852457042
 10
1.9128634987
 20
1.0687500029
 10
1.9142212224
 20
1.0514705071
  0
LWPOLYLINE
  5
376
100
AcDbEntity
  8
RACCORDO
100
AcDbPolyline
 62
7
  6
CONTINUOUS
 90
28
 70
0
 10
1.6694068527
 20
22.8448907261
 10
1.67139069
 20
22.8031174395
 10
1.6751374989
 20
22.7640504017
 10
1.6806472795
 20
22.7276896128
 10
1.6882148015
 20
22.6942008464
 10
1.6975452951
 20
22.6634183288
 10
1.7077544514
 20
22.6348447391
 10
1.7187392045
 20
22.6085091576
 10
1.7306026202
 20
22.5843825041
 10
1.7427695874
 20
22.5618802161
 10
1.7551587619
 20
22.540988497
 10
1.7678514878
 20
22.5217211436
 10
1.7805166866
 20
22.5035349833
 10
1.7931214585
 20
22.4863966649
 10
1.8056987031
 20
22.4703395396
 10
1.8180160405
 20
22.45492049
 10
1.8300894966
 20
22.4401140984
 10
1.8419030455
 20
22.4259457824
 10
1.8531762288
 20
22.4120486771
 10
1.8639370065
 20
22.3984650473
 10
1.8741574186
 20
22.3851526282
 10
1.8834731278
 20
22.3716177606
 10
1.8919633819
 20
22.3578830067
 10
1.8995489331
 20
22.3439258044
 10
1.9056277008
 20
22.3291848075
 10
1.9099989915
 20
22.3134729008
 10
1.9128634987
 20
22.2969771995
 10
1.9142212224
 20
22.2796977038
  0
LWPOLYLINE
  5
377
100
AcDbEntity
  8
RACCORDO
100
AcDbPolyline
 62
250
  6
CONTINUOUS
 90
9
 70
0
 10
3.2590978335
 20
-19.3693642155
 10
3.2609495491
 20
-19.4100219113
 10
3.2664853117
 20
-19.4481154677
 10
3.2756471524
 20
-19.4832458442
 10
3.2883391198
 20
-19.5150450379
 10
3.3044282823
 20
-19.5431799332
 10
3.3237461184
 20
-19.5673557945
 10
3.3460902878
 20
-19.5873193609
 10
3.3626291495
 20
-19.5982268749
  0
LWPOLYLINE
  5
378
100
AcDbEntity
  8
RACCORDO
100
AcDbPolyline
 62
250
  6
CONTINUOUS
 90
10
 70
0
 10
2.0473830389
 20
1.5269236421
 10
2.0489136456
 20
1.4898619959
 10
2.0534922129
 20
1.4548887511
 10
2.0610790977
 20
1.4223067207
 10
2.0716086096
 20
1.3923980136
 10
2.0849895796
 20
1.3654215919
 10
2.1011061498
 20
1.3416110288
 10
2.119818776
 20
1.3211724861
 10
2.1409654366
 20
1.3042829292
 10
2.1507876017
 20
1.2981342544
  0
LWPOLYLINE
  5
379
100
AcDbEntity
  8
RACCORDO
100
AcDbPolyline
 62
250
  6
CONTINUOUS
 90
10
 70
0
 10
2.0473830389
 20
22.7551508387
 10
2.0489136456
 20
22.7180891925
 10
2.0534922129
 20
22.6831159477
 10
2.0610790977
 20
22.6505339173
 10
2.0716086096
 20
22.6206252102
 10
2.0849895796
 20
22.5936487886
 10
2.1011061498
 20
22.5698382254
 10
2.119818776
 20
22.5493996827
 10
2.1409654366
 20
22.5325101258
 10
2.1507876017
 20
22.5263614511
  0
LWPOLYLINE
  5
37A
100
AcDbEntity
  8
RACCORDO
100
AcDbPolyline
 62
250
  6
CONTINUOUS
 90
10
 70
0
 10
3.2168949545
 20
0.8516621195
 10
3.2184255955
 20
0.8146000681
 10
3.2230042543
 20
0.7796265298
 10
3.2305912697
 20
0.7470443137
 10
3.2411209322
 20
0.7171355225
 10
3.2545020554
 20
0.6901591047
 10
3.2706187669
 20
0.6663486149
 10
3.2893315069
 20
0.6459101999
 10
3.3104782409
 20
0.6290208064
 10
3.3204362651
 20
0.6227936889
  0
LINE
  5
37B
100
AcDbEntity
  8
RACCORDO
100
AcDbLine
 62
7
  6
CONTINUOUS
 10
1.6694068515
 20
-11.3503426475
 11
1.6694068522
 21
-3.239307888
  0
LINE
  5
37C
100
AcDbEntity
  8
RACCORDO
100
AcDbLine
 62
7
  6
CONTINUOUS
 10
1.6694068527
 20
1.6166635295
 11
1.6694068522
 21
17.9889193086
  0
LINE
  5
37D
100
AcDbEntity
  8
RACCORDO
100
AcDbLine
 62
7
  6
CONTINUOUS
 10
1.6694068527
 20
22.8448907261
 11
1.6694068515
 21
30.9559254903
  0
LINE
  5
37E
100
AcDbEntity
  8
RACCORDO
100
AcDbLine
 62
7
  6
CONTINUOUS
 10
1.9142212224
 20
1.0514705071
 11
1.9142232041
 21
-2.4058639854
  0
LINE
  5
37F
100
AcDbEntity
  8
RACCORDO
100
AcDbLine
 62
7
  6
CONTINUOUS
 10
1.9142212224
 20
22.2796977038
 11
1.9142232041
 21
18.8223632112
  0
LINE
  5
380
100
AcDbEntity
  8
RACCORDO
100
AcDbLine
 62
250
  6
CONTINUOUS
 10
2.0453289079
 20
-2.3523382981
 11
2.0453289079
 21
1.1050121175
  0
LINE
  5
381
100
AcDbEntity
  8
RACCORDO
100
AcDbLine
 62
250
  6
CONTINUOUS
 10
2.0453289079
 20
18.8758888985
 11
2.0453289079
 21
22.3332393141
  0
LINE
  5
382
100
AcDbEntity
  8
RACCORDO
100
AcDbLine
 62
7
  6
CONTINUOUS
 10
2.5477354551
 20
22.297168649
 11
2.5477354551
 21
19.2623570864
  0
LINE
  5
383
100
AcDbEntity
  8
RACCORDO
100
AcDbLine
 62
7
  6
CONTINUOUS
 10
2.5477354551
 20
1.0689414523
 11
2.5477354551
 21
-1.9658701103
  0
LINE
  5
384
100
AcDbEntity
  8
RACCORDO
100
AcDbLine
 62
250
  6
CONTINUOUS
 10
2.7655096639
 20
-2.2047729085
 11
2.7655096639
 21
0.9432013536
  0
LINE
  5
385
100
AcDbEntity
  8
RACCORDO
100
AcDbLine
 62
250
  6
CONTINUOUS
 10
2.7655096639
 20
19.0234542881
 11
2.7655096639
 21
22.1714285502
  0
LINE
  5
386
100
AcDbEntity
  8
RACCORDO
100
AcDbLine
 62
7
  6
CONTINUOUS
 10
2.8497077238
 20
-2.1563004902
 11
2.8497077238
 21
0.894586449
  0
LINE
  5
387
100
AcDbEntity
  8
RACCORDO
100
AcDbLine
 62
7
  6
CONTINUOUS
 10
2.8497077238
 20
19.0719267064
 11
2.8497077238
 21
22.1228136456
  0
LWPOLYLINE
  5
388
100
AcDbEntity
  8
RACCORDO
100
AcDbPolyline
 62
250
  6
CONTINUOUS
 90
16
 70
0
 10
2.0473830389
 20
17.6421817737
 10
2.0489136924
 20
17.6810115324
 10
2.0534923845
 20
17.7212725366
 10
2.0610794476
 20
17.7626161713
 10
2.0716091656
 20
17.8046844488
 10
2.0849903456
 20
17.8471131176
 10
2.1011071098
 20
17.8895348171
 10
2.1198198929
 20
17.9315822388
 10
2.1409666554
 20
17.9728913242
 10
2.1643642945
 20
18.0131044247
 10
2.1898102119
 20
18.0518733658
 10
2.2170840788
 20
18.0888624838
 10
2.2459497567
 20
18.1237515449
 10
2.2761573184
 20
18.1562384841
 10
2.3074452092
 20
18.1860420242
 10
2.3395425276
 20
18.2129041301
  0
LWPOLYLINE
  5
389
100
AcDbEntity
  8
0
100
AcDbPolyline
 62
250
  6
CONTINUOUS
 90
11
 70
0
 10
-0.9523333328
 20
-12.7095992504
 10
-0.954473996
 20
-12.7448612178
 10
-0.9592235448
 20
-12.7782572769
 10
-0.9665458228
 20
-12.8095326453
 10
-0.9763850848
 20
-12.8384487955
 10
-0.9886663268
 20
-12.8647849869
 10
-1.0032957784
 20
-12.8883400371
 10
-1.0201630786
 20
-12.9089355887
 10
-1.0391386144
 20
-12.9264128044
 10
-1.0600728829
 20
-12.9406356377
 10
-1.0663739532
 20
-12.9440768432
  0
LWPOLYLINE
  5
38A
100
AcDbEntity
  8
RACCORDO
100
AcDbPolyline
 62
7
  6
CONTINUOUS
 90
12
 70
0
 10
1.9142232041
 20
18.8223632112
 10
1.9128742899
 20
18.8036665631
 10
1.9100252023
 20
18.7841027728
 10
1.9056759414
 20
18.7636718402
 10
1.8996286309
 20
18.7423428717
 10
1.892081147
 20
18.720146761
 10
1.8836271185
 20
18.6971761885
 10
1.8743435104
 20
18.6734928262
 10
1.8641533576
 20
18.6490350021
 10
1.8534193936
 20
18.6237103808
 10
1.8421691069
 20
18.5975078272
 10
1.8183173673
 20
18.5424433985
  0
LWPOLYLINE
  5
38B
100
AcDbEntity
  8
RACCORDO
100
AcDbPolyline
 62
7
  6
CONTINUOUS
 90
14
 70
0
 10
1.7934448555
 20
18.4837657147
 10
1.7808434488
 20
18.4528448708
 10
1.7681752981
 20
18.4208021493
 10
1.7554737685
 20
18.3876402893
 10
1.7430691194
 20
18.353174098
 10
1.7308790321
 20
18.3173296858
 10
1.7189858252
 20
18.2801809423
 10
1.7079667141
 20
18.2417643423
 10
1.6977161643
 20
18.2019362444
 10
1.6883397102
 20
18.16084029
 10
1.6807311701
 20
18.1189438792
 10
1.6751884835
 20
18.0764028121
 10
1.6714137108
 20
18.0330612885
 10
1.6694068522
 20
17.9889193086
  0
LINE
  5
38C
100
AcDbEntity
  8
RACCORDO
100
AcDbLine
 62
7
  6
CONTINUOUS
 10
1.8183173673
 20
18.5424433985
 11
1.7934448555
 21
18.4837657147
  0
LWPOLYLINE
  5
38D
100
AcDbEntity
  8
RACCORDO
100
AcDbPolyline
 62
250
  6
CONTINUOUS
 90
6
 70
0
 10
2.0547455721
 20
22.4856033708
 10
2.0621279351
 20
22.5018704377
 10
2.0709684935
 20
22.5165471128
 10
2.0812019098
 20
22.5295693716
 10
2.0927497037
 20
22.540877362
 10
2.1036243993
 20
22.5489723337
  0
LWPOLYLINE
  5
38E
100
AcDbEntity
  8
RACCORDO
100
AcDbPolyline
 62
250
  6
CONTINUOUS
 90
4
 70
0
 10
3.7608108095
 20
17.5088572905
 10
3.7548829625
 20
17.5036499607
 10
3.7397591331
 20
17.4930802493
 10
3.7239006781
 20
17.4845652178
  0
LINE
  5
38F
100
AcDbEntity
  8
RACCORDO
100
AcDbLine
 62
250
  6
CONTINUOUS
 10
2.0453289079
 20
18.8758888985
 11
2.5477354551
 21
19.2623570864
  0
LINE
  5
390
100
AcDbEntity
  8
RACCORDO
100
AcDbLine
 62
250
  6
CONTINUOUS
 10
2.3395425276
 20
18.2129041301
 11
2.900766532
 21
18.6446167047
  0
LINE
  5
391
100
AcDbEntity
  8
DRAFT
100
AcDbLine
 62
7
  6
CONTINUOUS
 10
9.2433719165
 20
22.3776827096
 11
9.3225383591
 21
22.4313898116
  0
LINE
  5
392
100
AcDbEntity
  8
DRAFT
100
AcDbLine
 62
7
  6
CONTINUOUS
 10
11.7754789496
 20
23.3590359958
 11
10.1922079326
 21
22.4448751536
  0
LINE
  5
393
100
AcDbEntity
  8
DRAFT
100
AcDbLine
 62
7
  6
CONTINUOUS
 10
11.7754789496
 20
22.5833129367
 11
11.5595783564
 21
22.45865464
  0
LWPOLYLINE
  5
394
100
AcDbEntity
  8
RACCORDO
100
AcDbPolyline
 62
7
  6
CONTINUOUS
 90
7
 70
0
 10
2.8230068764
 20
19.0565621587
 10
2.8321250157
 20
19.0618222756
 10
2.8394769141
 20
19.0660158017
 10
2.8448642216
 20
19.069141147
 10
2.8482531884
 20
19.0711401341
 10
2.8496788008
 20
19.0719097758
 10
2.8497247731
 20
19.0719168627
  0
LWPOLYLINE
  5
395
100
AcDbEntity
  8
RACCORDO
100
AcDbPolyline
 62
7
  6
CONTINUOUS
 90
3
 70
0
 10
2.7726511714
 20
19.0274283176
 10
2.7870991881
 20
19.0356784787
 10
2.8230068764
 20
19.0565621587
  0
LINE
  5
396
100
AcDbEntity
  8
RACCORDO
100
AcDbLine
 62
7
  6
CONTINUOUS
 10
2.7655096639
 20
19.0234542881
 11
2.6294823769
 21
18.9505009695
  0
LWPOLYLINE
  5
397
100
AcDbEntity
  8
RACCORDO
100
AcDbPolyline
 62
250
  6
CONTINUOUS
 90
12
 70
0
 10
3.7239006781
 20
17.4845652178
 10
3.7073531455
 20
17.4781246593
 10
3.6901384267
 20
17.4737749763
 10
3.6723893541
 20
17.4715446574
 10
3.6541162394
 20
17.4714531823
 10
3.6351111614
 20
17.4735774957
 10
3.6152895955
 20
17.4780316656
 10
3.5948212379
 20
17.4848951209
 10
3.5738603417
 20
17.4942410777
 10
3.5525241951
 20
17.5061202356
 10
3.5308854208
 20
17.5205769402
 10
3.5090571166
 20
17.5376454728
  0
LWPOLYLINE
  5
398
100
AcDbEntity
  8
RACCORDO
100
AcDbPolyline
 62
250
  6
CONTINUOUS
 90
16
 70
0
 10
-37.6903754865
 20
42.9643550803
 10
-37.6673107167
 20
42.9523500849
 10
-37.6422202222
 20
42.9417860286
 10
-37.6153728302
 20
42.9327760979
 10
-37.587056192
 20
42.925416828
 10
-37.5575737007
 20
42.9197870682
 10
-37.5272412408
 20
42.9159471376
 10
-37.4963838035
 20
42.9139381784
 10
-37.4653320049
 20
42.9137817151
 10
-37.4344185436
 20
42.9154794241
 10
-37.4039746357
 20
42.9190131157
 10
-37.3743264668
 20
42.9243449288
 10
-37.3457916963
 20
42.9314177368
 10
-37.3186760546
 20
42.9401557594
 10
-37.293270067
 20
42.9504653748
 10
-37.269845941
 20
42.9622361227
  0
LWPOLYLINE
  5
399
100
AcDbEntity
  8
RACCORDO
100
AcDbPolyline
 62
7
  6
CONTINUOUS
 90
7
 70
0
 10
-36.0954562843
 20
42.7526758976
 10
-36.0123760664
 20
42.7078496684
 10
-35.9295968424
 20
42.6694477074
 10
-35.8474674475
 20
42.6376528435
 10
-35.7663000629
 20
42.6126138723
 10
-35.6864770869
 20
42.5944687102
 10
-35.6769386269
 20
42.5931054788
  0
LINE
  5
39A
100
AcDbEntity
  8
RACCORDO
100
AcDbLine
 62
7
  6
CONTINUOUS
 10
-36.1756799184
 20
42.7989864228
 11
-36.0954562843
 21
42.7526758976
  0
LINE
  5
39B
100
AcDbEntity
  8
RACCORDO
100
AcDbLine
 62
7
  6
CONTINUOUS
 10
10.9976614903
 20
15.6841704515
 11
11.4466961302
 21
15.4249034781
  0
LINE
  5
39C
100
AcDbEntity
  8
RACCORDO
100
AcDbLine
 62
7
  6
CONTINUOUS
 10
11.7966403047
 20
16.1454923893
 11
12.2882655484
 21
15.8616341351
  0
LINE
  5
39D
100
AcDbEntity
  8
RACCORDO
100
AcDbLine
 62
250
  6
CONTINUOUS
 10
2.0473830389
 20
22.7551508387
 11
3.2168949545
 21
22.0798893161
  0
LINE
  5
39E
100
AcDbEntity
  8
RACCORDO
100
AcDbLine
 62
7
  6
CONTINUOUS
 10
-37.6903754865
 20
45.8799610971
 11
-37.6376613381
 21
45.8495246085
  0
LINE
  5
39F
100
AcDbEntity
  8
RACCORDO
100
AcDbLine
 62
7
  6
CONTINUOUS
 10
9.3576921764
 20
18.7149964794
 11
9.4104063247
 21
18.6845599907
  0
LINE
  5
3A0
100
AcDbEntity
  8
DRAFT
100
AcDbLine
 62
7
  6
CONTINUOUS
 10
-36.5106572593
 20
46.2047149241
 11
-36.5291711515
 21
46.2154046134
  0
LWPOLYLINE
  5
3A1
100
AcDbEntity
  8
RACCORDO
100
AcDbPolyline
 62
7
  6
CONTINUOUS
 90
26
 70
0
 10
2.1509243495
 20
22.5262824082
 10
3.3231806793
 20
21.849423567
 10
3.3455200183
 20
21.8355084324
 10
3.3699845152
 20
21.818487285
 10
3.396182113
 20
21.7982771575
 10
3.4235330014
 20
21.7750229648
 10
3.4517092992
 20
21.7487453694
 10
3.4803984413
 20
21.7194919028
 10
3.5090771078
 20
21.6875908104
 10
3.537395813
 20
21.6532703948
 10
3.5650798227
 20
21.6167283878
 10
3.5917638454
 20
21.5783386816
 10
3.6171800347
 20
21.5384112186
 10
3.6410916123
 20
21.497277857
 10
3.6632339974
 20
21.4553891139
 10
3.683434271
 20
21.4131153421
 10
3.7015532442
 20
21.3708431553
 10
3.7174427796
 20
21.3290730341
 10
3.7310633622
 20
21.2881473721
 10
3.7423878966
 20
21.2484788669
 10
3.7513873556
 20
21.2106744591
 10
3.7581686705
 20
21.1750365355
 10
3.7628703058
 20
21.1418654888
 10
3.7656474186
 20
21.1117324425
 10
3.7667587729
 20
21.0849419155
 10
3.7668126139
 20
21.077985851
  0
LWPOLYLINE
  5
3A2
100
AcDbEntity
  8
RACCORDO
100
AcDbPolyline
 62
250
  6
CONTINUOUS
 90
25
 70
0
 10
3.2168949545
 20
22.0798893161
 10
3.2629730882
 20
22.0514590528
 10
3.3082188413
 20
22.0203178181
 10
3.3526322138
 20
21.9864656119
 10
3.3963124109
 20
21.9497855598
 10
3.4391602274
 20
21.9103945362
 10
3.4808780479
 20
21.8686431649
 10
3.5215125597
 20
21.8244772351
 10
3.5610170754
 20
21.7779509577
 10
3.598953918
 20
21.7295775885
 10
3.6353182753
 20
21.6793198118
 10
3.6701149595
 20
21.6272149433
 10
3.702920729
 20
21.5738881868
 10
3.7336932195
 20
21.5193756801
 10
3.7624747953
 20
21.4636412854
 10
3.7889693084
 20
21.4072017925
 10
3.8131345054
 20
21.3502874735
 10
3.8350126397
 20
21.2926680564
 10
3.8544343224
 20
21.2341695149
 10
3.8715572004
 20
21.1743863409
 10
3.8862236268
 20
21.1137240425
 10
3.8977912724
 20
21.0532251168
 10
3.9060460274
 20
20.9932370627
 10
3.9112020016
 20
20.9334123813
 10
3.9132591948
 20
20.8737510725
  0
LWPOLYLINE
  5
3A3
100
AcDbEntity
  8
RACCORDO
100
AcDbPolyline
 62
250
  6
CONTINUOUS
 90
10
 70
0
 10
3.9132591948
 20
20.8737510725
 10
3.881927063
 20
20.893609359
 10
3.8539274312
 20
20.9150632102
 10
3.8295027319
 20
20.9379268699
 10
3.8088644444
 20
20.9620023748
 10
3.7921912637
 20
20.9870812692
 10
3.779627553
 20
21.0129464095
 10
3.7712820944
 20
21.0393738444
 10
3.7672271463
 20
21.0661347543
 10
3.7668125854
 20
21.0778883692
  0
LWPOLYLINE
  5
3A4
100
AcDbEntity
  8
RACCORDO
100
AcDbPolyline
 62
250
  6
CONTINUOUS
 90
9
 70
0
 10
9.4104063247
 20
15.7689539739
 10
9.3896136965
 20
15.7822717847
 10
9.3713169746
 20
15.796759214
 10
9.3557121617
 20
15.8122610106
 10
9.342966414
 20
15.8286110555
 10
9.3332162432
 20
15.8456341525
 10
9.3265660612
 20
15.8631479071
 10
9.3230870719
 20
15.8809646596
 10
9.3225383692
 20
15.8913913552
  0
LWPOLYLINE
  5
3A5
100
AcDbEntity
  8
RACCORDO
100
AcDbPolyline
 62
250
  6
CONTINUOUS
 90
32
 70
0
 10
-16.5454513704
 20
36.0056221425
 10
-16.3002822437
 20
35.8302746932
 10
-16.0567981967
 20
35.6423955856
 10
-15.8149851588
 20
35.4420665514
 10
-15.5764720322
 20
35.2306359287
 10
-15.3412811538
 20
35.0080302781
 10
-15.1093901866
 20
34.774323039
 10
-14.8823610219
 20
34.5310828678
 10
-14.6602244212
 20
34.278244381
 10
-14.4429496229
 20
34.0158729621
 10
-14.232006234
 20
33.7457334184
 10
-14.0274351422
 20
33.4677710604
 10
-13.8291954599
 20
33.1820405775
 10
-13.6386341307
 20
32.8904708459
 10
-13.4558009251
 20
32.5930173208
 10
-13.2806460726
 20
32.2897245469
 10
-13.114367206
 20
31.9826550347
 10
-12.9570253267
 20
31.671781192
 10
-12.8085594332
 20
31.3571306111
 10
-12.6699841536
 20
31.0408485793
 10
-12.5413694475
 20
30.7229283835
 10
-12.4226453553
 20
30.4033767369
 10
-12.3146166258
 20
30.0843590662
 10
-12.2173557183
 20
29.7658773831
 10
-12.1307901735
 20
29.4479296759
 10
-12.0555073618
 20
29.1326753356
 10
-11.9915846587
 20
28.8201099469
 10
-11.9389446887
 20
28.5102379251
 10
-11.8979426956
 20
28.2052319067
 10
-11.8686970939
 20
27.9058161039
 10
-11.851089469
 20
27.6112663046
 10
-11.845119821
 20
27.3215825087
  0
LWPOLYLINE
  5
3A6
100
AcDbEntity
  8
RACCORDO
100
AcDbPolyline
 62
250
  6
CONTINUOUS
 90
8
 70
0
 10
2.0453095326
 20
1.1050050346
 10
2.0419734329
 20
1.1301816107
 10
2.0402450441
 20
1.1544090631
 10
2.040098636
 20
1.1775701902
 10
2.0414708979
 20
1.1995536204
 10
2.0443566406
 20
1.2202489408
 10
2.048800562
 20
1.2395557302
 10
2.0547455721
 20
1.2573761742
  0
LWPOLYLINE
  5
3A7
100
AcDbEntity
  8
RACCORDO
100
AcDbPolyline
 62
250
  6
CONTINUOUS
 90
8
 70
0
 10
2.0453095326
 20
22.3332322312
 10
2.0419734329
 20
22.3584088074
 10
2.0402450441
 20
22.3826362597
 10
2.040098636
 20
22.4057973868
 10
2.0414708979
 20
22.427780817
 10
2.0443566406
 20
22.4484761374
 10
2.048800562
 20
22.4677829268
 10
2.0547455721
 20
22.4856033708
  0
LWPOLYLINE
  5
3A8
100
AcDbEntity
  8
RACCORDO
100
AcDbPolyline
 62
250
  6
CONTINUOUS
 90
9
 70
0
 10
4.6724498952
 20
-17.0828289307
 10
4.6743016483
 20
-17.1234870265
 10
4.6798375106
 20
-17.1615808666
 10
4.6889994933
 20
-17.1967114143
 10
4.7016916236
 20
-17.2285106737
 10
4.7177809504
 20
-17.2566455444
 10
4.7370989363
 20
-17.2808213109
 10
4.7594432236
 20
-17.3007847297
 10
4.7758892083
 20
-17.3116384211
  0
LWPOLYLINE
  5
3A9
100
AcDbEntity
  8
RACCORDO
100
AcDbPolyline
 62
250
  6
CONTINUOUS
 90
10
 70
0
 10
3.2168949545
 20
22.0798893161
 10
3.2184255955
 20
22.0428272647
 10
3.2230042543
 20
22.0078537264
 10
3.2305912697
 20
21.9752715103
 10
3.2411209322
 20
21.9453627191
 10
3.2545020554
 20
21.9183863014
 10
3.2706187669
 20
21.8945758115
 10
3.2893315069
 20
21.8741373965
 10
3.3104782409
 20
21.857248003
 10
3.3204362651
 20
21.8510208855
  0
LINE
  5
3AA
100
AcDbEntity
  8
RACCORDO
100
AcDbLine
 62
7
  6
CONTINUOUS
 10
3.7668125854
 20
21.0778883692
 11
3.7668125854
 21
17.5730518215
  0
LINE
  5
3AB
100
AcDbEntity
  8
RACCORDO
100
AcDbLine
 62
7
  6
CONTINUOUS
 10
3.7668125854
 20
-0.1503388274
 11
3.7668125854
 21
-3.6551753751
  0
LINE
  5
3AC
100
AcDbEntity
  8
RACCORDO
100
AcDbLine
 62
250
  6
CONTINUOUS
 10
3.9132591948
 20
20.8737510725
 11
3.9132591948
 21
17.3689145249
  0
LINE
  5
3AD
100
AcDbEntity
  8
RACCORDO
100
AcDbLine
 62
250
  6
CONTINUOUS
 10
3.9132591948
 20
-0.3544761241
 11
3.9132591948
 21
-3.8593126718
  0
LINE
  5
3AE
100
AcDbEntity
  8
RACCORDO
100
AcDbLine
 62
250
  6
CONTINUOUS
 10
3.9657738643
 20
-18.9614171938
 11
3.9657738643
 21
-17.4907759524
  0
LINE
  5
3AF
100
AcDbEntity
  8
RACCORDO
100
AcDbLine
 62
250
  6
CONTINUOUS
 10
4.6603264349
 20
-18.9684171278
 11
4.6602659228
 21
-17.4720359234
  0
LINE
  5
3B0
100
AcDbEntity
  8
RACCORDO
100
AcDbLine
 62
7
  6
CONTINUOUS
 10
6.2098750896
 20
-18.139603945
 11
6.2098750896
 21
-18.1944774717
  0
LWPOLYLINE
  5
3B1
100
AcDbEntity
  8
RACCORDO
100
AcDbPolyline
 62
7
  6
CONTINUOUS
 90
7
 70
0
 10
3.7668126241
 20
17.572938338
 10
3.7665218331
 20
17.5571636308
 10
3.7654202296
 20
17.5393625598
 10
3.7636767302
 20
17.5241775248
 10
3.7616342455
 20
17.5123532239
 10
3.7596850249
 20
17.5040777232
 10
3.7588622621
 20
17.5012266377
  0
LWPOLYLINE
  5
3B2
100
AcDbEntity
  8
RACCORDO
100
AcDbPolyline
 62
7
  6
CONTINUOUS
 90
7
 70
0
 10
3.7668126241
 20
-3.6552888586
 10
3.7665218331
 20
-3.6710635658
 10
3.7654202296
 20
-3.6888646368
 10
3.7636767302
 20
-3.7040496718
 10
3.7616342455
 20
-3.7158739727
 10
3.7596850249
 20
-3.7241494734
 10
3.7588622621
 20
-3.7270005589
  0
LWPOLYLINE
  5
3B3
100
AcDbEntity
  8
RACCORDO
100
AcDbPolyline
 62
250
  6
CONTINUOUS
 90
25
 70
0
 10
3.9132591948
 20
17.3689145249
 10
3.9116783649
 20
17.3166225446
 10
3.9073334586
 20
17.2668876267
 10
3.9002244761
 20
17.2197097711
 10
3.8902998051
 20
17.1750042296
 10
3.8776110577
 20
17.1328557504
 10
3.8623130709
 20
17.0935185784
 10
3.844382241
 20
17.0569524338
 10
3.8238421715
 20
17.0231975964
 10
3.8009185098
 20
16.9926291501
 10
3.7755765322
 20
16.9652727001
 10
3.7478509623
 20
16.9411026412
 10
3.7180716186
 20
16.9204172416
 10
3.6862486144
 20
16.9032595788
 10
3.6523718364
 20
16.8895865754
 10
3.6167407639
 20
16.8795672672
 10
3.5795336962
 20
16.8731474947
 10
3.540572334
 20
16.8703814174
 10
3.4996212586
 20
16.8716005501
 10
3.4564081097
 20
16.8767801212
 10
3.4112052477
 20
16.8859449023
 10
3.3645943349
 20
16.8995007228
 10
3.3167692589
 20
16.9175828594
 10
3.2675361321
 20
16.9400560355
 10
3.2168949545
 20
16.966920251
  0
LWPOLYLINE
  5
3B4
100
AcDbEntity
  8
RACCORDO
100
AcDbPolyline
 62
250
  6
CONTINUOUS
 90
25
 70
0
 10
3.9132591948
 20
-3.8593126718
 10
3.9116783649
 20
-3.911604652
 10
3.9073334586
 20
-3.9613395699
 10
3.9002244761
 20
-4.0085174255
 10
3.8902998051
 20
-4.053222967
 10
3.8776110577
 20
-4.0953714462
 10
3.8623130709
 20
-4.1347086183
 10
3.844382241
 20
-4.1712747628
 10
3.8238421715
 20
-4.2050296002
 10
3.8009185098
 20
-4.2355980465
 10
3.7755765322
 20
-4.2629544965
 10
3.7478509623
 20
-4.2871245554
 10
3.7180716186
 20
-4.307809955
 10
3.6862486144
 20
-4.3249676178
 10
3.6523718364
 20
-4.3386406212
 10
3.6167407639
 20
-4.3486599294
 10
3.5795336962
 20
-4.3550797019
 10
3.540572334
 20
-4.3578457792
 10
3.4996212586
 20
-4.3566266465
 10
3.4564081097
 20
-4.3514470754
 10
3.4112052477
 20
-4.3422822944
 10
3.3645943349
 20
-4.3287264738
 10
3.3167692589
 20
-4.3106443372
 10
3.2675361321
 20
-4.2881711611
 10
3.2168949545
 20
-4.2613069456
  0
LWPOLYLINE
  5
3B5
100
AcDbEntity
  8
RACCORDO
100
AcDbPolyline
 62
250
  6
CONTINUOUS
 90
25
 70
0
 10
3.9657738643
 20
-17.4907759524
 10
3.967377058
 20
-17.4381945059
 10
3.9718301828
 20
-17.3881027521
 10
3.9791332388
 20
-17.3405006909
 10
3.9893348715
 20
-17.2952826451
 10
4.0023864354
 20
-17.2525542919
 10
4.0181419936
 20
-17.2126326631
 10
4.0366377441
 20
-17.1754761063
 10
4.0578374888
 20
-17.1411262739
 10
4.081486697
 20
-17.1100251548
 10
4.1076371088
 20
-17.0822107495
 10
4.136236984
 20
-17.0576450574
 10
4.1668765711
 20
-17.0366560666
 10
4.199550713
 20
-17.0193104027
 10
4.2342645668
 20
-17.0055414399
 10
4.270623852
 20
-16.9954772896
 10
4.3084142616
 20
-16.9890712564
 10
4.3478501027
 20
-16.9863700356
 10
4.3891800154
 20
-16.9876418239
 10
4.4326714126
 20
-16.992843176
 10
4.4780568815
 20
-17.0020175372
 10
4.5247828239
 20
-17.01556344
 10
4.5726647074
 20
-17.0336137286
 10
4.6218870644
 20
-17.0560355588
 10
4.6724498952
 20
-17.0828289307
  0
LWPOLYLINE
  5
3B6
100
AcDbEntity
  8
RACCORDO
100
AcDbPolyline
 62
250
  6
CONTINUOUS
 90
16
 70
0
 10
2.0473830389
 20
-3.586045423
 10
2.0489136924
 20
-3.5472156642
 10
2.0534923845
 20
-3.50695466
 10
2.0610794476
 20
-3.4656110253
 10
2.0716091656
 20
-3.4235427478
 10
2.0849903456
 20
-3.381114079
 10
2.1011071098
 20
-3.3386923795
 10
2.1198198929
 20
-3.2966449578
 10
2.1409666554
 20
-3.2553358724
 10
2.1643642945
 20
-3.2151227719
 10
2.1898102119
 20
-3.1763538309
 10
2.2170840788
 20
-3.1393647128
 10
2.2459497567
 20
-3.1044756517
 10
2.2761573184
 20
-3.0719887126
 10
2.3074452092
 20
-3.0421851724
 10
2.3395425276
 20
-3.0153230665
  0
LWPOLYLINE
  5
3B7
100
AcDbEntity
  8
RACCORDO
100
AcDbPolyline
 62
250
  6
CONTINUOUS
 90
16
 70
0
 10
3.2168949545
 20
16.966920251
 10
3.2184255612
 20
17.0057494035
 10
3.2230041285
 20
17.046009863
 10
3.2305910133
 20
17.0873530378
 10
3.2411205252
 20
17.1294209613
 10
3.2545014952
 20
17.1718493917
 10
3.2706180653
 20
17.2142709661
 10
3.2893306916
 20
17.2563183806
 10
3.3104773522
 20
17.297627571
 10
3.3338749505
 20
17.3378408653
 10
3.3593209003
 20
17.3766100797
 10
3.3865948799
 20
17.4135995343
 10
3.4154607398
 20
17.4484889587
 10
3.4456685473
 20
17.4809762659
 10
3.4769567505
 20
17.510780167
 10
3.5090544431
 20
17.5376426075
  0
LWPOLYLINE
  5
3B8
100
AcDbEntity
  8
RACCORDO
100
AcDbPolyline
 62
250
  6
CONTINUOUS
 90
16
 70
0
 10
3.2168949545
 20
-4.2613069456
 10
3.2184255612
 20
-4.2224777931
 10
3.2230041285
 20
-4.1822173336
 10
3.2305910133
 20
-4.1408741588
 10
3.2411205252
 20
-4.0988062353
 10
3.2545014952
 20
-4.0563778049
 10
3.2706180653
 20
-4.0139562305
 10
3.2893306916
 20
-3.9719088161
 10
3.3104773522
 20
-3.9305996256
 10
3.3338749505
 20
-3.8903863313
 10
3.3593209003
 20
-3.8516171169
 10
3.3865948799
 20
-3.8146276624
 10
3.4154607398
 20
-3.7797382379
 10
3.4456685473
 20
-3.7472509307
 10
3.4769567505
 20
-3.7174470296
 10
3.5090544431
 20
-3.6905845891
  0
LWPOLYLINE
  5
3B9
100
AcDbEntity
  8
RACCORDO
100
AcDbPolyline
 62
250
  6
CONTINUOUS
 90
16
 70
0
 10
6.9360530956
 20
35.016183874
 10
6.9379048488
 20
35.058980328
 10
6.9434407111
 20
35.1034668431
 10
6.9526026938
 20
35.1491774187
 10
6.9652948241
 20
35.1956332321
 10
6.9813841509
 20
35.2423476541
 10
7.0007021368
 20
35.2888313465
 10
7.0230464241
 20
35.3345973881
 10
7.0481829541
 20
35.3791663751
 10
7.0758484192
 20
35.4220714431
 10
7.105753021
 20
35.4628631572
 10
7.1375835059
 20
35.5011142203
 10
7.1710064464
 20
35.5364239487
 10
7.2056717339
 20
35.5684224695
 10
7.2412162461
 20
35.5967745951
 10
7.2772676508
 20
35.6211833343
  0
LWPOLYLINE
  5
3BA
100
AcDbEntity
  8
RACCORDO
100
AcDbPolyline
 62
7
  6
CONTINUOUS
 90
12
 70
0
 10
1.9142232041
 20
-2.4058639854
 10
1.9128742899
 20
-2.4245606335
 10
1.9100252023
 20
-2.4441244238
 10
1.9056759414
 20
-2.4645553565
 10
1.8996286309
 20
-2.4858843249
 10
1.892081147
 20
-2.5080804356
 10
1.8836271185
 20
-2.5310510081
 10
1.8743435104
 20
-2.5547343704
 10
1.8641533576
 20
-2.5791921945
 10
1.8534193936
 20
-2.6045168158
 10
1.8421691069
 20
-2.6307193694
 10
1.8183173673
 20
-2.6857837981
  0
LINE
  5
3BB
100
AcDbEntity
  8
RACCORDO
100
AcDbLine
 62
250
  6
CONTINUOUS
 10
3.5090544431
 20
17.5376426075
 11
3.7668125854
 21
17.8139021559
  0
LINE
  5
3BC
100
AcDbEntity
  8
DRAFT
100
AcDbLine
 62
7
  6
CONTINUOUS
 10
11.7754789496
 20
17.6888426927
 11
11.6694129324
 21
17.6232498767
  0
LINE
  5
3BD
100
AcDbEntity
  8
RACCORDO
100
AcDbLine
 62
250
  6
CONTINUOUS
 10
9.0532368763
 20
15.8076957064
 11
9.3225383591
 21
15.9742357829
  0
LINE
  5
3BE
100
AcDbEntity
  8
RACCORDO
100
AcDbLine
 62
7
  6
CONTINUOUS
 10
9.3060358093
 20
15.7845710459
 11
9.3059296049
 21
15.7845054224
  0
LINE
  5
3BF
100
AcDbEntity
  8
RACCORDO
100
AcDbLine
 62
250
  6
CONTINUOUS
 10
7.6928883964
 20
18.0625665334
 11
9.211245567
 21
18.9392469858
  0
LINE
  5
3C0
100
AcDbEntity
  8
RACCORDO
100
AcDbLine
 62
250
  6
CONTINUOUS
 10
8.9654867501
 20
15.8583615294
 11
9.3225383591
 21
16.06451797
  0
LWPOLYLINE
  5
3C1
100
AcDbEntity
  8
RACCORDO
100
AcDbPolyline
 62
250
  6
CONTINUOUS
 90
12
 70
0
 10
9.3059296049
 20
15.7845054224
 10
9.2935304203
 20
15.7775625795
 10
9.2737757787
 20
15.7691242231
 10
9.2527987488
 20
15.7631504242
 10
9.230697538
 20
15.7596829715
 10
9.2074851188
 20
15.7587566816
 10
9.1831857825
 20
15.7604369014
 10
9.1580068548
 20
15.7647701886
 10
9.1322512334
 20
15.7717228421
 10
9.1061286669
 20
15.7812277629
 10
9.0797386836
 20
15.7932422243
 10
9.0532370496
 20
15.8076958135
  0
LINE
  5
3C2
100
AcDbEntity
  8
DRAFT
100
AcDbLine
 62
7
  6
CONTINUOUS
 10
11.6694129324
 20
17.6232498767
 11
11.5595783564
 21
17.564184396
  0
LWPOLYLINE
  5
3C3
100
AcDbEntity
  8
RACCORDO
100
AcDbPolyline
 62
7
  6
CONTINUOUS
 90
11
 70
0
 10
-37.1697392327
 20
22.3187784593
 10
-37.1697044053
 20
22.318787153
 10
-37.1677236188
 20
22.3189695887
 10
-37.1630544551
 20
22.3189602995
 10
-37.1554230037
 20
22.3182607141
 10
-37.1446810466
 20
22.3163543127
 10
-37.1311968508
 20
22.3128488219
 10
-37.1156472294
 20
22.3075892917
 10
-37.0984577128
 20
22.300506672
 10
-37.0797945957
 20
22.2914930743
 10
-37.062686752
 20
22.2821239738
  0
LWPOLYLINE
  5
3C4
100
AcDbEntity
  8
RACCORDO
100
AcDbPolyline
 62
250
  6
CONTINUOUS
 90
16
 70
0
 10
7.2723588509
 20
24.9535609564
 10
7.295423959
 20
24.9415558026
 10
7.3205147838
 20
24.930991653
 10
7.3473624749
 20
24.9219816871
 10
7.3756793583
 20
24.9146224318
 10
7.4051620273
 20
24.9089927244
 10
7.4354945953
 20
24.9051528707
 10
7.466352062
 20
24.9031440012
 10
7.4974038104
 20
24.9029876281
 10
7.5283171592
 20
24.9046854168
 10
7.5587608952
 20
24.9082191681
 10
7.5884088425
 20
24.9135510124
 10
7.6169433705
 20
24.9206238204
 10
7.6440587648
 20
24.9293618106
 10
7.6694645052
 20
24.9396713573
 10
7.6928883964
 20
24.9514419988
  0
LWPOLYLINE
  5
3C5
100
AcDbEntity
  8
RACCORDO
100
AcDbPolyline
 62
250
  6
CONTINUOUS
 90
13
 70
0
 10
-16.8306925639
 20
35.9818145298
 10
-17.1654361926
 20
36.1615938595
 10
-17.4985489863
 20
36.313502431
 10
-17.8284080522
 20
36.4368001599
 10
-18.1534063513
 20
36.5308863514
 10
-18.4719605212
 20
36.5953026251
 10
-18.7825185909
 20
36.6297351498
 10
-19.0835675759
 20
36.6340161739
 10
-19.3736407698
 20
36.6081248377
 10
-19.6513248936
 20
36.5521873007
 10
-19.9152670413
 20
36.4664761358
 10
-20.1641814008
 20
36.3514089325
 10
-20.2657005687
 20
36.2933963082
  0
LWPOLYLINE
  5
3C6
100
AcDbEntity
  8
RACCORDO
100
AcDbPolyline
 62
250
  6
CONTINUOUS
 90
4
 70
0
 10
-17.0391223837
 20
35.6165659867
 10
-17.3583130914
 20
35.7881036246
 10
-17.6738676184
 20
35.9322905698
 10
-17.9857859649
 20
36.0491268225
  0
LINE
  5
3C7
100
AcDbEntity
  8
RACCORDO
100
AcDbLine
 62
7
  6
CONTINUOUS
 10
9.4104063247
 20
21.8647228259
 11
9.3576921764
 21
21.8951593145
  0
LINE
  5
3C8
100
AcDbEntity
  8
RACCORDO
100
AcDbLine
 62
7
  6
CONTINUOUS
 10
-37.6376613381
 20
49.0296874437
 11
-37.6903754865
 21
49.0601239323
  0
LINE
  5
3C9
100
AcDbEntity
  8
0
100
AcDbLine
 62
250
  6
CONTINUOUS
 10
-1.6500640112
 20
29.4474467706
 11
-32.4281807563
 21
47.2183456388
  0
LINE
  5
3CA
100
AcDbEntity
  8
DRAFT
100
AcDbLine
 62
7
  6
CONTINUOUS
 10
10.9976614903
 20
22.9099324011
 11
11.6694129324
 21
22.5220715374
  0
LINE
  5
3CB
100
AcDbEntity
  8
0
100
AcDbLine
 62
250
  6
CONTINUOUS
 10
-1.3057655694
 20
30.0543356222
 11
-32.0838823145
 21
47.8252344904
  0
LINE
  5
3CC
100
AcDbEntity
  8
RACCORDO
100
AcDbLine
 62
250
  6
CONTINUOUS
 10
-37.037026092
 20
52.2515709367
 11
-36.9507028166
 21
52.1987126664
  0
LWPOLYLINE
  5
3CD
100
AcDbEntity
  8
RACCORDO
100
AcDbPolyline
 62
250
  6
CONTINUOUS
 90
9
 70
0
 10
-35.5523280126
 20
49.679998432
 10
-35.5731199347
 20
49.693315741
 10
-35.591416238
 20
49.7078026781
 10
-35.6070208903
 20
49.7233040257
 10
-35.6197666986
 20
49.7396536977
 10
-35.6295171003
 20
49.7566765187
 10
-35.6361676268
 20
49.7741901009
 10
-35.6396470221
 20
49.7920067985
 10
-35.6401959783
 20
49.80248081
  0
LWPOLYLINE
  5
3CE
100
AcDbEntity
  8
RACCORDO
100
AcDbPolyline
 62
250
  6
CONTINUOUS
 90
27
 70
0
 10
-36.9507028166
 20
52.1987126664
 10
-36.865430593
 20
52.1409333341
 10
-36.7812094211
 20
52.0782329398
 10
-36.6979345592
 20
52.0105301335
 10
-36.615710749
 20
51.9379062651
 10
-36.5348522155
 20
51.8606053846
 10
-36.4550517359
 20
51.7782675873
 10
-36.3766165329
 20
51.6912527778
 10
-36.3007824996
 20
51.6008847193
 10
-36.2277845049
 20
51.5073397797
 10
-36.1573876799
 20
51.410441591
 10
-36.0901233107
 20
51.3109848124
 10
-36.0259833282
 20
51.2089296598
 10
-35.9649758015
 20
51.1043159173
 10
-35.9076562241
 20
50.9980575962
 10
-35.8540811132
 20
50.890282096
 10
-35.8041939517
 20
50.7808620173
 10
-35.7583806812
 20
50.6703291736
 10
-35.7165499829
 20
50.5584113804
 10
-35.6787931756
 20
50.4453808222
 10
-35.6457701576
 20
50.3325858663
 10
-35.617553984
 20
50.2198634527
 10
-35.5940715996
 20
50.1073766412
 10
-35.575763737
 20
49.9969629788
 10
-35.5627773071
 20
49.8892349809
 10
-35.554965399
 20
49.783580132
 10
-35.5523280126
 20
49.679998432
  0
LWPOLYLINE
  5
3CF
100
AcDbEntity
  8
RACCORDO
100
AcDbPolyline
 62
250
  6
CONTINUOUS
 90
5
 70
0
 10
9.3845062045
 20
-4.8923936131
 10
9.3958318932
 20
-4.9467499365
 10
9.4038548258
 20
-4.9996662131
 10
9.4087129697
 20
-5.0515773303
 10
9.4104063247
 20
-5.1024832878
  0
LWPOLYLINE
  5
3D0
100
AcDbEntity
  8
RACCORDO
100
AcDbPolyline
 62
250
  6
CONTINUOUS
 90
16
 70
0
 10
11.0242874656
 20
-15.1795222493
 10
11.0227676249
 20
-15.1534540793
 10
11.01902445
 20
-15.1262844336
 10
11.0130989356
 20
-15.0983107736
 10
11.0050559644
 20
-15.0698393534
 10
10.9949836062
 20
-15.0411818858
 10
10.982992158
 20
-15.0126521293
 10
10.9692129187
 20
-14.9845624237
 10
10.9537967532
 20
-14.9572202829
 10
10.9369124545
 20
-14.9309250458
 10
10.918744882
 20
-14.905964575
 10
10.8994929368
 20
-14.8826121111
 10
10.8793673925
 20
-14.8611232915
 10
10.8585885813
 20
-14.8417333451
 10
10.8373839814
 20
-14.824654518
 10
10.8159857295
 20
-14.8100737534
  0
LWPOLYLINE
  5
3D1
100
AcDbEntity
  8
RACCORDO
100
AcDbPolyline
 62
250
  6
CONTINUOUS
 90
9
 70
0
 10
8.7570569303
 20
-4.0721707963
 10
8.7581933541
 20
-4.0968344965
 10
8.7615904497
 20
-4.1199216285
 10
8.7672118196
 20
-4.1411848296
 10
8.7749972345
 20
-4.1603962793
 10
8.7848632793
 20
-4.1773501404
 10
8.796704246
 20
-4.1918647639
 10
8.810393267
 20
-4.2037846356
 10
8.8191314774
 20
-4.2094628278
  0
LWPOLYLINE
  5
3D2
100
AcDbEntity
  8
RACCORDO
100
AcDbPolyline
 62
250
  6
CONTINUOUS
 90
5
 70
0
 10
8.8448070564
 20
-4.1228366194
 10
8.8459435622
 20
-4.1475011823
 10
8.8493408751
 20
-4.1705889231
 10
8.8549625536
 20
-4.1918524878
 10
8.8627483217
 20
-4.2110640714
  0
LWPOLYLINE
  5
3D3
100
AcDbEntity
  8
RACCORDO
100
AcDbPolyline
 62
250
  6
CONTINUOUS
 90
9
 70
0
 10
8.7570569303
 20
25.8106413343
 10
8.7581933541
 20
25.7859776341
 10
8.7615904497
 20
25.7628905021
 10
8.7672118196
 20
25.741627301
 10
8.7749972345
 20
25.7224158513
 10
8.7848632793
 20
25.7054619902
 10
8.796704246
 20
25.6909473668
 10
8.810393267
 20
25.679027495
 10
8.8191314774
 20
25.6733493029
  0
LWPOLYLINE
  5
3D4
100
AcDbEntity
  8
RACCORDO
100
AcDbPolyline
 62
250
  6
CONTINUOUS
 90
5
 70
0
 10
8.8448070564
 20
25.7599755112
 10
8.8459435622
 20
25.7353109483
 10
8.8493408751
 20
25.7122232075
 10
8.8549625536
 20
25.6909596428
 10
8.8627483217
 20
25.6717480592
  0
LWPOLYLINE
  5
3D5
100
AcDbEntity
  8
RACCORDO
100
AcDbPolyline
 62
250
  6
CONTINUOUS
 90
9
 70
0
 10
10.329734895
 20
-5.1026858844
 10
10.3308713435
 20
-5.1273499939
 10
10.3342685374
 20
-5.1504374323
 10
10.3398900628
 20
-5.1717008366
 10
10.3476756771
 20
-5.1909123946
 10
10.3575419455
 20
-5.2078662708
 10
10.3693831313
 20
-5.2223808165
 10
10.3830723445
 20
-5.234300535
 10
10.3917966158
 20
-5.2399704989
  0
LWPOLYLINE
  5
3D6
100
AcDbEntity
  8
RACCORDO
100
AcDbPolyline
 62
250
  6
CONTINUOUS
 90
9
 70
0
 10
9.6230588642
 20
-19.9412485037
 10
9.6249105624
 20
-19.9819060142
 10
9.6304462787
 20
-20.0199994388
 10
9.6396080535
 20
-20.0551297353
 10
9.6522999447
 20
-20.0869288975
 10
9.66838903
 20
-20.1150638034
 10
9.6877067955
 20
-20.139239708
 10
9.7100509088
 20
-20.1592033427
 10
9.7265902261
 20
-20.1701111896
  0
LWPOLYLINE
  5
3D7
100
AcDbEntity
  8
RACCORDO
100
AcDbPolyline
 62
250
  6
CONTINUOUS
 90
25
 70
0
 10
8.3372816971
 20
33.7851851514
 10
8.3341993455
 20
33.8663615714
 10
8.3266320429
 20
33.949656763
 10
8.314647455
 20
34.034703181
 10
8.2983508176
 20
34.1210587478
 10
8.2778316374
 20
34.2084188261
 10
8.2531285369
 20
34.2966270402
 10
8.224315356
 20
34.3853998548
 10
8.1915374182
 20
34.4742792588
 10
8.1549391552
 20
34.5628510824
 10
8.1146839281
 20
34.6507257747
 10
8.0709407035
 20
34.7375489849
 10
8.0238876242
 20
34.8229629844
 10
7.9737596834
 20
34.906546346
 10
7.9207365219
 20
34.9880082958
 10
7.8649128125
 20
35.0671821147
 10
7.8064565362
 20
35.1437747374
 10
7.7456469281
 20
35.217371656
 10
7.682748385
 20
35.2876215508
 10
7.6179994569
 20
35.3542122884
 10
7.5516850288
 20
35.4168126665
 10
7.4841586063
 20
35.4750754709
 10
7.4157319416
 20
35.5287150976
 10
7.346670156
 20
35.5774955035
 10
7.2772676508
 20
35.6211833343
  0
LWPOLYLINE
  5
3D8
100
AcDbEntity
  8
RACCORDO
100
AcDbPolyline
 62
250
  6
CONTINUOUS
 90
25
 70
0
 10
7.6427291265
 20
33.7921850854
 10
7.6411213496
 20
33.8470273618
 10
7.6365898658
 20
33.9027635519
 10
7.6291346751
 20
33.9593936558
 10
7.6187022544
 20
34.0171184756
 10
7.6053461268
 20
34.0757372092
 10
7.5892268616
 20
34.1346474499
 10
7.5703049414
 20
34.193906063
 10
7.5486198837
 20
34.2534561832
 10
7.5244508108
 20
34.3125248089
 10
7.4977691426
 20
34.3710959584
 10
7.4686034592
 20
34.4291856134
 10
7.4373186238
 20
34.4860687175
 10
7.4039192909
 20
34.5416982746
 10
7.3684008058
 20
34.5961212807
 10
7.3311140673
 20
34.6487536679
 10
7.2920083745
 20
34.6996276769
 10
7.2511344282
 20
34.748711067
 10
7.2089952294
 20
34.7953230473
 10
7.1655563208
 20
34.8394422381
 10
7.1208521598
 20
34.8810900191
 10
7.0754891195
 20
34.9196497384
 10
7.0296693242
 20
34.9549158453
 10
6.9831906496
 20
34.9870938905
 10
6.9360530956
 20
35.016183874
  0
LWPOLYLINE
  5
3D9
100
AcDbEntity
  8
RACCORDO
100
AcDbPolyline
 62
7
  6
CONTINUOUS
 90
21
 70
0
 10
8.452077078
 20
18.5009111099
 10
8.454799297
 20
18.4034303172
 10
8.4629347641
 20
18.3031463942
 10
8.4764673841
 20
18.2004848345
 10
8.4953699152
 20
18.0958439019
 10
8.5195705827
 20
17.9897085169
 10
8.5489323223
 20
17.8826527616
 10
8.5833058559
 20
17.775193703
 10
8.6225568777
 20
17.6677390576
 10
8.6665250687
 20
17.5607043212
 10
8.7150295684
 20
17.4545338063
 10
8.7678603327
 20
17.3496980445
 10
8.8247889965
 20
17.2466460435
 10
8.8855704396
 20
17.145818159
 10
8.9499458625
 20
17.0476468498
 10
9.0176405939
 20
16.9525543929
 10
9.0883521608
 20
16.8609579622
 10
9.161786204
 20
16.77323635
 10
9.2376630488
 20
16.6897361518
 10
9.3156967507
 20
16.6107775461
 10
9.3225383591
 20
16.6044320783
  0
LINE
  5
3DA
100
AcDbEntity
  8
RACCORDO
100
AcDbLine
 62
250
  6
CONTINUOUS
 10
7.2723588509
 20
-11.8181266396
 11
7.2723588509
 21
-4.9292511742
  0
LINE
  5
3DB
100
AcDbEntity
  8
RACCORDO
100
AcDbLine
 62
250
  6
CONTINUOUS
 10
7.2723588509
 20
18.064685491
 11
7.2723588509
 21
24.9535609564
  0
LINE
  5
3DC
100
AcDbEntity
  8
RACCORDO
100
AcDbLine
 62
250
  6
CONTINUOUS
 10
7.6427291265
 20
28.0758984045
 11
7.6427291265
 21
33.7921850854
  0
LINE
  5
3DD
100
AcDbEntity
  8
RACCORDO
100
AcDbLine
 62
250
  6
CONTINUOUS
 10
7.6928883964
 20
-11.8202455972
 11
7.6928883964
 21
-4.9313701318
  0
LINE
  5
3DE
100
AcDbEntity
  8
RACCORDO
100
AcDbLine
 62
250
  6
CONTINUOUS
 10
7.6928883964
 20
18.0625665334
 11
7.6928883964
 21
24.9514419988
  0
LINE
  5
3DF
100
AcDbEntity
  8
RACCORDO
100
AcDbLine
 62
250
  6
CONTINUOUS
 10
8.3372990628
 20
28.0388844863
 11
8.3372816971
 21
33.7851851514
  0
LINE
  5
3E0
100
AcDbEntity
  8
RACCORDO
100
AcDbLine
 62
7
  6
CONTINUOUS
 10
8.452077078
 20
25.3597091035
 11
8.452077078
 21
18.5009111099
  0
LINE
  5
3E1
100
AcDbEntity
  8
RACCORDO
100
AcDbLine
 62
7
  6
CONTINUOUS
 10
8.452077078
 20
-4.5231030271
 11
8.452077078
 21
-11.3819010207
  0
LINE
  5
3E2
100
AcDbEntity
  8
RACCORDO
100
AcDbLine
 62
7
  6
CONTINUOUS
 10
9.211245567
 20
22.1097575698
 11
9.211245567
 21
18.9086728174
  0
LINE
  5
3E3
100
AcDbEntity
  8
RACCORDO
100
AcDbLine
 62
7
  6
CONTINUOUS
 10
9.211245567
 20
-7.7730545608
 11
9.211245567
 21
-10.9741393132
  0
LINE
  5
3E4
100
AcDbEntity
  8
RACCORDO
100
AcDbLine
 62
7
  6
CONTINUOUS
 10
9.3205323111
 20
24.9450575612
 11
9.3205323111
 21
24.9028603035
  0
LINE
  5
3E5
100
AcDbEntity
  8
RACCORDO
100
AcDbLine
 62
7
  6
CONTINUOUS
 10
9.3205323111
 20
-4.9377545694
 11
9.3205323111
 21
-4.9799518271
  0
LINE
  5
3E6
100
AcDbEntity
  8
RACCORDO
100
AcDbLine
 62
7
  6
CONTINUOUS
 10
9.3225383591
 20
24.902811221
 11
9.3225383591
 21
21.9934817791
  0
LINE
  5
3E7
100
AcDbEntity
  8
RACCORDO
100
AcDbLine
 62
7
  6
CONTINUOUS
 10
9.3225383591
 20
18.7376394095
 11
9.3225383591
 21
15.8914363515
  0
LINE
  5
3E8
100
AcDbEntity
  8
RACCORDO
100
AcDbLine
 62
7
  6
CONTINUOUS
 10
9.3225383591
 20
-4.9800009097
 11
9.3225383591
 21
-7.8893303515
  0
LINE
  5
3E9
100
AcDbEntity
  8
RACCORDO
100
AcDbLine
 62
7
  6
CONTINUOUS
 10
9.3225383591
 20
-11.1451727212
 11
9.3225383591
 21
-13.9913757791
  0
LINE
  5
3EA
100
AcDbEntity
  8
RACCORDO
100
AcDbLine
 62
250
  6
CONTINUOUS
 10
9.3576921764
 20
21.8951593145
 11
9.3576921764
 21
18.7149964794
  0
LINE
  5
3EB
100
AcDbEntity
  8
RACCORDO
100
AcDbLine
 62
250
  6
CONTINUOUS
 10
9.3576921764
 20
-7.9876528161
 11
9.3576921764
 21
-11.1678156513
  0
LINE
  5
3EC
100
AcDbEntity
  8
RACCORDO
100
AcDbLine
 62
250
  6
CONTINUOUS
 10
9.4104063247
 20
24.7803288428
 11
9.4104063247
 21
21.8647228259
  0
LINE
  5
3ED
100
AcDbEntity
  8
RACCORDO
100
AcDbLine
 62
250
  6
CONTINUOUS
 10
9.4104063247
 20
18.6845599907
 11
9.4104063247
 21
15.7689539739
  0
LINE
  5
3EE
100
AcDbEntity
  8
RACCORDO
100
AcDbLine
 62
250
  6
CONTINUOUS
 10
9.4104063247
 20
-5.1024832878
 11
9.4104063247
 21
-8.0180893047
  0
LINE
  5
3EF
100
AcDbEntity
  8
RACCORDO
100
AcDbLine
 62
250
  6
CONTINUOUS
 10
9.4104063247
 20
-11.1982521399
 11
9.4104063247
 21
-14.1138581567
  0
LINE
  5
3F0
100
AcDbEntity
  8
RACCORDO
100
AcDbLine
 62
7
  6
CONTINUOUS
 10
9.8662906404
 20
-14.907686245
 11
9.8662906404
 21
-4.8350989801
  0
LINE
  5
3F1
100
AcDbEntity
  8
RACCORDO
100
AcDbLine
 62
7
  6
CONTINUOUS
 10
9.8662906404
 20
14.9751258856
 11
9.8662906404
 21
25.0477131505
  0
LINE
  5
3F2
100
AcDbEntity
  8
RACCORDO
100
AcDbLine
 62
7
  6
CONTINUOUS
 10
9.8868303517
 20
34.6798692893
 11
9.8868303517
 21
28.9635826085
  0
LWPOLYLINE
  5
3F3
100
AcDbEntity
  8
RACCORDO
100
AcDbPolyline
 62
7
  6
CONTINUOUS
 90
9
 70
0
 10
9.3225383692
 20
15.8913913552
 10
9.3221087998
 20
15.8721362785
 10
9.3205922488
 20
15.8514292229
 10
9.3181367734
 20
15.8329655524
 10
9.3149190093
 20
15.816836063
 10
9.3112118261
 20
15.8033751027
 10
9.3074882784
 20
15.7930932676
 10
9.3042723777
 20
15.7861140651
 10
9.3037238389
 20
15.7850815107
  0
LWPOLYLINE
  5
3F4
100
AcDbEntity
  8
RACCORDO
100
AcDbPolyline
 62
250
  6
CONTINUOUS
 90
15
 70
0
 10
7.6928883964
 20
24.9514419988
 10
7.6948005366
 20
25.0350778492
 10
7.7009643438
 20
25.1157875857
 10
7.7113239436
 20
25.1933216349
 10
7.7257719218
 20
25.2672910374
 10
7.7442485456
 20
25.3376431928
 10
7.7668247707
 20
25.4045867535
 10
7.7935827793
 20
25.4681025862
 10
7.8243891814
 20
25.5276517482
 10
7.8589783287
 20
25.5826831118
 10
7.8971073553
 20
25.632914597
 10
7.9387098277
 20
25.6783556479
 10
7.9837242675
 20
25.7189645886
 10
8.0320171384
 20
25.7546174341
 10
8.0794335725
 20
25.7830569011
  0
LWPOLYLINE
  5
3F5
100
AcDbEntity
  8
RACCORDO
100
AcDbPolyline
 62
250
  6
CONTINUOUS
 90
15
 70
0
 10
7.6928883964
 20
-4.9313701318
 10
7.6948005366
 20
-4.8477342814
 10
7.7009643438
 20
-4.7670245449
 10
7.7113239436
 20
-4.6894904957
 10
7.7257719218
 20
-4.6155210932
 10
7.7442485456
 20
-4.5451689378
 10
7.7668247707
 20
-4.4782253772
 10
7.7935827793
 20
-4.4147095444
 10
7.8243891814
 20
-4.3551603824
 10
7.8589783287
 20
-4.3001290188
 10
7.8971073553
 20
-4.2498975337
 10
7.9387098277
 20
-4.2044564827
 10
7.9837242675
 20
-4.163847542
 10
8.0320171384
 20
-4.1281946965
 10
8.0794335725
 20
-4.0997552295
  0
LWPOLYLINE
  5
3F6
100
AcDbEntity
  8
RACCORDO
100
AcDbPolyline
 62
250
  6
CONTINUOUS
 90
28
 70
0
 10
7.2723588509
 20
24.9535609564
 10
7.2749711214
 20
25.0517269855
 10
7.2823708706
 20
25.1459151735
 10
7.2945580984
 20
25.2361255204
 10
7.3115508825
 20
25.3224685299
 10
7.3333311452
 20
25.4048336984
 10
7.3598446541
 20
25.4828895149
 10
7.3912494794
 20
25.5568994506
 10
7.4273875509
 20
25.6266000344
 10
7.4677304254
 20
25.6908693424
 10
7.5122428045
 20
25.7494565608
 10
7.5609599867
 20
25.8026125033
 10
7.6134594234
 20
25.8499676877
 10
7.6697715348
 20
25.8915138667
 10
7.7298659007
 20
25.9272592874
 10
7.7932287122
 20
25.9568592089
 10
7.8597778959
 20
25.9802957606
 10
7.9295955252
 20
25.997586813
 10
8.0024140106
 20
26.008441236
 10
8.0784234146
 20
26.0128547325
 10
8.1574336748
 20
26.0108315996
 10
8.2386070143
 20
26.002093599
 10
8.3221211828
 20
25.986453746
 10
8.4077984306
 20
25.9640990252
 10
8.4942677319
 20
25.9353121521
 10
8.5810720779
 20
25.9001873652
 10
8.6686684774
 20
25.8586304259
 10
8.7570569303
 20
25.8106413343
  0
LWPOLYLINE
  5
3F7
100
AcDbEntity
  8
RACCORDO
100
AcDbPolyline
 62
250
  6
CONTINUOUS
 90
28
 70
0
 10
7.2723588509
 20
-4.9292511742
 10
7.2749711214
 20
-4.8310851452
 10
7.2823708706
 20
-4.7368969572
 10
7.2945580984
 20
-4.6466866102
 10
7.3115508825
 20
-4.5603436007
 10
7.3333311452
 20
-4.4779784322
 10
7.3598446541
 20
-4.3999226157
 10
7.3912494794
 20
-4.32591268
 10
7.4273875509
 20
-4.2562120962
 10
7.4677304254
 20
-4.1919427882
 10
7.5122428045
 20
-4.1333555699
 10
7.5609599867
 20
-4.0801996273
 10
7.6134594234
 20
-4.0328444429
 10
7.6697715348
 20
-3.9912982639
 10
7.7298659007
 20
-3.9555528432
 10
7.7932287122
 20
-3.9259529218
 10
7.8597778959
 20
-3.90251637
 10
7.9295955252
 20
-3.8852253176
 10
8.0024140106
 20
-3.8743708946
 10
8.0784234146
 20
-3.8699573981
 10
8.1574336748
 20
-3.871980531
 10
8.2386070143
 20
-3.8807185316
 10
8.3221211828
 20
-3.8963583846
 10
8.4077984306
 20
-3.9187131054
 10
8.4942677319
 20
-3.9474999785
 10
8.5810720779
 20
-3.9826247654
 10
8.6686684774
 20
-4.0241817047
 10
8.7570569303
 20
-4.0721707963
  0
LWPOLYLINE
  5
3F8
100
AcDbEntity
  8
RACCORDO
100
AcDbPolyline
 62
7
  6
CONTINUOUS
 90
7
 70
0
 10
8.452077078
 20
25.3597091035
 10
8.4547814015
 20
25.4540566786
 10
8.4629207407
 20
25.5449437324
 10
8.4764673841
 20
25.6319700648
 10
8.4953749769
 20
25.7147799057
 10
8.5195700664
 20
25.7929721872
 10
8.5231184465
 20
25.8018121539
  0
LWPOLYLINE
  5
3F9
100
AcDbEntity
  8
RACCORDO
100
AcDbPolyline
 62
250
  6
CONTINUOUS
 90
22
 70
0
 10
9.4104063247
 20
15.7689539739
 10
9.4087175535
 20
15.7206611066
 10
9.4040068078
 20
15.6750160495
 10
9.3962740876
 20
15.6320188026
 10
9.3854477864
 20
15.5915018677
 10
9.3715995108
 20
15.553632743
 10
9.3549440796
 20
15.5189139232
 10
9.3354219336
 20
15.4873487681
 10
9.3130926321
 20
15.4589339178
 10
9.2883496722
 20
15.4341617875
 10
9.2611917133
 20
15.4131095059
 10
9.2316200961
 20
15.3956999442
 10
9.2000323395
 20
15.3821941312
 10
9.1664338906
 20
15.3726068748
 10
9.1308193024
 20
15.3669233672
 10
9.0935697534
 20
15.3653602132
 10
9.0545046579
 20
15.3680079388
 10
9.0138046017
 20
15.374776018
 10
8.9723925199
 20
15.3856094774
 10
8.9305760577
 20
15.4004899925
 10
8.8880475698
 20
15.4194358878
 10
8.8448070564
 20
15.4424471633
  0
LWPOLYLINE
  5
3FA
100
AcDbEntity
  8
RACCORDO
100
AcDbPolyline
 62
250
  6
CONTINUOUS
 90
16
 70
0
 10
8.3494051573
 20
26.8518996159
 10
8.3512569618
 20
26.8946966754
 10
8.3567929602
 20
26.9391837353
 10
8.3659551367
 20
26.9848947686
 10
8.3786474897
 20
27.031350929
 10
8.394737041
 20
27.0780655766
 10
8.4140552316
 20
27.124549376
 10
8.43639968
 20
27.170315402
 10
8.4615363089
 20
27.2148842592
 10
8.4892018059
 20
27.2577891113
 10
8.5191063608
 20
27.2985805355
 10
8.5509367145
 20
27.3368312551
 10
8.5843594555
 20
27.3721406272
 10
8.6190244845
 20
27.4041388036
 10
8.6545686782
 20
27.43249061
 10
8.6906197125
 20
27.4568990762
  0
LWPOLYLINE
  5
3FB
100
AcDbEntity
  8
RACCORDO
100
AcDbPolyline
 62
250
  6
CONTINUOUS
 90
16
 70
0
 10
9.6230588642
 20
26.1165079282
 10
9.6249106173
 20
26.1593043822
 10
9.6304464796
 20
26.2037908973
 10
9.6396084623
 20
26.2495014729
 10
9.6523005926
 20
26.2959572863
 10
9.6683899194
 20
26.3426717083
 10
9.6877079053
 20
26.3891554007
 10
9.7100521926
 20
26.4349214423
 10
9.7351887226
 20
26.4794904294
 10
9.7628541877
 20
26.5223954973
 10
9.7927587896
 20
26.5631872114
 10
9.8245892744
 20
26.6014382745
 10
9.8580122149
 20
26.6367480029
 10
9.8926775024
 20
26.6687465237
 10
9.9282220146
 20
26.6970986494
 10
9.9642734194
 20
26.7215073885
  0
LWPOLYLINE
  5
3FC
100
AcDbEntity
  8
RACCORDO
100
AcDbPolyline
 62
250
  6
CONTINUOUS
 90
16
 70
0
 10
8.7570569303
 20
15.4931129864
 10
8.758193386
 20
15.5190893726
 10
8.7615905658
 20
15.5460997182
 10
8.7672120548
 20
15.5738546129
 10
8.7749976049
 20
15.6020566697
 10
8.784863784
 20
15.6304037197
 10
8.7967048713
 20
15.6585920499
 10
8.8103939848
 20
15.6863196405
 10
8.8257844446
 20
15.7132894149
 10
8.8427113524
 20
15.7392124299
 10
8.8609933417
 20
15.7638109445
 10
8.8804345304
 20
15.7868214132
 10
8.9008266312
 20
15.8079973187
 10
8.9219511623
 20
15.8271117884
 10
8.9435817867
 20
15.8439600279
 10
8.9654867501
 20
15.8583615294
  0
LWPOLYLINE
  5
3FD
100
AcDbEntity
  8
RACCORDO
100
AcDbPolyline
 62
250
  6
CONTINUOUS
 90
16
 70
0
 10
8.8448070564
 20
15.4424471633
 10
8.8459434803
 20
15.4684231773
 10
8.8493405759
 20
15.4954331901
 10
8.8549619457
 20
15.5231878082
 10
8.8627473607
 20
15.55138966
 10
8.8726134055
 20
15.5797365822
 10
8.8844543722
 20
15.6079248573
 10
8.8981433932
 20
15.6356524673
 10
8.9135338
 20
15.6626223302
 10
8.9304606951
 20
15.6885454826
 10
8.9487427186
 20
15.7131441759
 10
8.9681839912
 20
15.736154852
 10
8.9885762132
 20
15.7573309676
 10
9.0097008961
 20
15.7764456353
 10
9.0313317035
 20
15.7932940546
 10
9.0532368763
 20
15.8076957064
  0
LWPOLYLINE
  5
3FE
100
AcDbEntity
  8
RACCORDO
100
AcDbPolyline
 62
250
  6
CONTINUOUS
 90
6
 70
0
 10
4.6602659228
 20
-17.4720359234
 10
4.6617594602
 20
-17.4473289314
 10
4.6647797208
 20
-17.4237502846
 10
4.6692819803
 20
-17.40142124
 10
4.6752350883
 20
-17.380387416
 10
4.6826404424
 20
-17.360637179
  0
LINE
  5
3FF
100
AcDbEntity
  8
RACCORDO
100
AcDbLine
 62
7
  6
CONTINUOUS
 10
9.2128168032
 20
22.1347064871
 11
9.211282471
 21
22.109759339
  0
LINE
  5
400
100
AcDbEntity
  8
RACCORDO
100
AcDbLine
 62
7
  6
CONTINUOUS
 10
9.2128168032
 20
22.1347064871
 11
9.2433719165
 21
22.3776827096
  0
LWPOLYLINE
  5
401
100
AcDbEntity
  8
RACCORDO
100
AcDbPolyline
 62
7
  6
CONTINUOUS
 90
14
 70
0
 10
1.7934448555
 20
-2.7444614819
 10
1.7808434488
 20
-2.7753823258
 10
1.7681752981
 20
-2.8074250474
 10
1.7554737685
 20
-2.8405869073
 10
1.7430691194
 20
-2.8750530987
 10
1.7308790321
 20
-2.9108975108
 10
1.7189858252
 20
-2.9480462543
 10
1.7079667141
 20
-2.9864628543
 10
1.6977161643
 20
-3.0262909523
 10
1.6883397102
 20
-3.0673869066
 10
1.6807311701
 20
-3.1092833174
 10
1.6751884835
 20
-3.1518243846
 10
1.6714137108
 20
-3.1951659081
 10
1.6694068522
 20
-3.239307888
  0
LWPOLYLINE
  5
402
100
AcDbEntity
  8
RACCORDO
100
AcDbPolyline
 62
250
  6
CONTINUOUS
 90
6
 70
0
 10
2.0547455721
 20
1.2573761742
 10
2.0621279351
 20
1.2736432411
 10
2.0709684935
 20
1.2883199161
 10
2.0812019098
 20
1.3013421749
 10
2.0927497037
 20
1.3126501654
 10
2.1036243993
 20
1.3207451371
  0
LWPOLYLINE
  5
403
100
AcDbEntity
  8
RACCORDO
100
AcDbPolyline
 62
7
  6
CONTINUOUS
 90
19
 70
0
 10
-2.9869780586
 20
5.7378898938
 10
-2.8591249037
 20
5.8224939025
 10
-2.7382677259
 20
5.916867287
 10
-2.6244622983
 20
6.0207030724
 10
-2.517795587
 20
6.1336437211
 10
-2.4182892701
 20
6.2553775116
 10
-2.3259263237
 20
6.3856508959
 10
-2.2408555052
 20
6.5239578793
 10
-2.163054234
 20
6.6700114197
 10
-2.0923329267
 20
6.8239510784
 10
-2.0287858707
 20
6.9854566441
 10
-1.9725222902
 20
7.1541097852
 10
-1.9234822563
 20
7.3300312557
 10
-1.881763549
 20
7.5129518395
 10
-1.8474858801
 20
7.7024219657
 10
-1.8206877788
 20
7.8983792779
 10
-1.8014534772
 20
8.1005720865
 10
-1.7898742481
 20
8.3085120326
 10
-1.7860054766
 20
8.5218000437
  0
LINE
  5
404
100
AcDbEntity
  8
RACCORDO
100
AcDbLine
 62
7
  6
CONTINUOUS
 10
10.9976614903
 20
15.6841704515
 11
10.2384728087
 21
15.245825875
  0
LINE
  5
405
100
AcDbEntity
  8
DRAFT
100
AcDbLine
 62
7
  6
CONTINUOUS
 10
11.7966403047
 20
16.1454923893
 11
10.9976614903
 21
15.6841704515
  0
LWPOLYLINE
  5
406
100
AcDbEntity
  8
RACCORDO
100
AcDbPolyline
 62
250
  6
CONTINUOUS
 90
49
 70
0
 10
-2.9869780586
 20
5.7378898938
 10
-3.0664697647
 20
5.692008331
 10
-3.2317634968
 20
5.610356337
 10
-3.4044966445
 20
5.5427333584
 10
-3.5842398069
 20
5.4893075191
 10
-3.7705460899
 20
5.4502116689
 10
-3.962952239
 20
5.4255430246
 10
-4.160979873
 20
5.415362912
 10
-4.3641366904
 20
5.4196966312
 10
-4.5719176206
 20
5.4385334045
 10
-4.7838060853
 20
5.4718263977
 10
-4.9992753002
 20
5.5194928369
 10
-5.2177895943
 20
5.5814142193
 10
-5.4388057126
 20
5.6574366016
 10
-5.6617741721
 20
5.7473709807
 10
-5.8861406463
 20
5.8509937702
 10
-6.1113473366
 20
5.9680473557
 10
-6.3368343355
 20
6.0982407223
 10
-6.5620410255
 20
6.2412501763
 10
-6.7864074993
 20
6.3967201658
 10
-7.0093759581
 20
6.5642641732
 10
-7.2303920762
 20
6.7434656628
 10
-7.4489063705
 20
6.9338791088
 10
-7.6643755861
 20
7.1350311174
 10
-7.8762640519
 20
7.3464216118
 10
-8.0840449839
 20
7.5675250491
 10
-8.2872018034
 20
7.7977917316
 10
-8.4852294386
 20
8.0366491926
 10
-8.6776355874
 20
8.2835036335
 10
-8.8639418694
 20
8.5377413067
 10
-9.0436850309
 20
8.7987300417
 10
-9.2164181772
 20
9.0658209256
 10
-9.3817119079
 20
9.3383499739
 10
-9.5391553129
 20
9.6156396863
 10
-9.6883569054
 20
9.8970005581
 10
-9.8289458193
 20
10.1817332016
 10
-9.960572718
 20
10.4691301501
 10
-10.082910408
 20
10.7584771187
 10
-10.1956545971
 20
11.0490545357
 10
-10.2985248665
 20
11.3401397492
 10
-10.3912654467
 20
11.6310090738
 10
-10.4736457498
 20
11.9209393546
 10
-10.5454608918
 20
12.2092095372
 10
-10.6065323196
 20
12.495102853
 10
-10.6567082286
 20
12.7779086048
 10
-10.6958638815
 20
13.0569236971
 10
-10.7239019382
 20
13.3314544556
 10
-10.7407526983
 20
13.6008183514
 10
-10.7463742754
 20
13.864345704
  0
LINE
  5
407
100
AcDbEntity
  8
RACCORDO
100
AcDbLine
 62
250
  6
CONTINUOUS
 10
11.4469546986
 20
15.424754184
 11
10.8159857431
 21
15.0727383848
  0
LINE
  5
408
100
AcDbEntity
  8
RACCORDO
100
AcDbLine
 62
250
  6
CONTINUOUS
 10
11.6514249224
 20
15.0531680982
 11
11.0242874656
 21
14.7032898813
  0
LINE
  5
409
100
AcDbEntity
  8
RACCORDO
100
AcDbLine
 62
250
  6
CONTINUOUS
 10
12.2882655484
 20
15.8616341351
 11
11.4466961302
 21
15.4249034781
  0
LINE
  5
40A
100
AcDbEntity
  8
RACCORDO
100
AcDbLine
 62
250
  6
CONTINUOUS
 10
12.5006561708
 20
15.4938748457
 11
11.6514249224
 21
15.0531680982
  0
LINE
  5
40B
100
AcDbEntity
  8
RACCORDO
100
AcDbLine
 62
250
  6
CONTINUOUS
 10
12.5738361202
 20
15.409380883
 11
12.5006561708
 21
15.3714043041
  0
LWPOLYLINE
  5
40C
100
AcDbEntity
  8
RACCORDO
100
AcDbPolyline
 62
250
  6
CONTINUOUS
 90
19
 70
0
 10
10.8159857431
 20
15.0727383848
 10
10.8028846381
 20
15.066074345
 10
10.7892004777
 20
15.0601521546
 10
10.7749332616
 20
15.0549718137
 10
10.7600020464
 20
15.0505211686
 10
10.7444877757
 20
15.0468123729
 10
10.7286332805
 20
15.043881888
 10
10.7124272601
 20
15.0417290664
 10
10.6958810151
 20
15.0403545556
 10
10.6792712791
 20
15.0397967589
 10
10.6626141542
 20
15.0400525358
 10
10.6458935381
 20
15.0411250268
 10
10.6293378575
 20
15.0430620565
 10
10.6128662008
 20
15.045885036
 10
10.5965594796
 20
15.0495725543
 10
10.5808888543
 20
15.0541082031
 10
10.5660113785
 20
15.059486513
 10
10.5517699987
 20
15.0657129534
 10
10.5381647149
 20
15.0727875244
  0
LWPOLYLINE
  5
40D
100
AcDbEntity
  8
RACCORDO
100
AcDbPolyline
 62
250
  6
CONTINUOUS
 90
19
 70
0
 10
11.0242874656
 20
14.7032898813
 10
10.9920094604
 20
14.6870916748
 10
10.9577054544
 20
14.6726174999
 10
10.9216562645
 20
14.6599401562
 10
10.8842247178
 20
14.6491357343
 10
10.8456272651
 20
14.6402205773
 10
10.8059063081
 20
14.6331890618
 10
10.7653038874
 20
14.6280862045
 10
10.7241279603
 20
14.6249529802
 10
10.6825013055
 20
14.6238145678
 10
10.6407813901
 20
14.6246987151
 10
10.5991908749
 20
14.6276191329
 10
10.5576677518
 20
14.6326355696
 10
10.5163788776
 20
14.6398211877
 10
10.4758422967
 20
14.6491825232
 10
10.4365452434
 20
14.6606866893
 10
10.3988807065
 20
14.6742834267
 10
10.3631597752
 20
14.6899265499
 10
10.329734895
 20
14.7075389813
  0
LWPOLYLINE
  5
40E
100
AcDbEntity
  8
RACCORDO
100
AcDbPolyline
 62
250
  6
CONTINUOUS
 90
43
 70
0
 10
-17.9857859649
 20
36.0491268225
 10
-18.2959121651
 20
36.1390947775
 10
-18.6024021847
 20
36.2017120399
 10
-18.8997239206
 20
36.2355314244
 10
-19.1873243429
 20
36.2399498631
 10
-19.4657564813
 20
36.215570424
 10
-19.7311473225
 20
36.1627551257
 10
-19.9833884763
 20
36.0810887073
 10
-20.2225883329
 20
35.9709864298
 10
-20.445199049
 20
35.8340560947
 10
-20.650949257
 20
35.6699110562
 10
-20.8401103245
 20
35.4789379602
 10
-21.0099485115
 20
35.2639045453
 10
-21.1601874817
 20
35.0244563023
 10
-21.2911035715
 20
34.7609477404
 10
-21.4007920496
 20
34.4772101269
 10
-21.4889420049
 20
34.1729492079
 10
-21.5558643485
 20
33.8484592371
 10
-21.6005870835
 20
33.5084542438
 10
-21.6227862129
 20
33.1527073972
 10
-21.6227857335
 20
32.781445528
 10
-21.6005856393
 20
32.4000631564
 10
-21.5558619022
 20
32.0084128873
 10
-21.4889385502
 20
31.6066421157
 10
-21.4007876608
 20
31.2005875466
 10
-21.2910984312
 20
30.7901846892
 10
-21.1601816642
 20
30.3754980343
 10
-21.0099418465
 20
29.9625577592
 10
-20.8401023193
 20
29.5513986202
 10
-20.6509397413
 20
29.1419858611
 10
-20.4451885755
 20
28.74024539
 10
-20.2225781329
 20
28.3462515909
 10
-19.9833791023
 20
27.9599300799
 10
-19.731138014
 20
27.5869836139
 10
-19.4657459121
 20
27.227701278
 10
-19.1873117523
 20
26.8817939871
 10
-18.8997089326
 20
26.5540972428
 10
-18.6023831993
 20
26.2445749624
 10
-18.295888806
 20
25.9532632286
 10
-17.9857619119
 20
25.6851057904
 10
-17.6738479033
 20
25.441750564
 10
-17.3583013939
 20
25.2215496331
 10
-17.0391223837
 20
25.0245029978
  0
LWPOLYLINE
  5
40F
100
AcDbEntity
  8
RACCORDO
100
AcDbPolyline
 62
250
  6
CONTINUOUS
 90
16
 70
0
 10
-37.6903754865
 20
51.9757299491
 10
-37.6673098467
 20
51.9637245468
 10
-37.6422184988
 20
51.9531602492
 10
-37.615370329
 20
51.944150226
 10
-37.5870530451
 20
51.936790991
 10
-37.5575700761
 20
51.9311613644
 10
-37.527237318
 20
51.9273216324
 10
-37.4963797859
 20
51.9253129074
 10
-37.4653280984
 20
51.9251566817
 10
-37.4344149162
 20
51.9268546027
 10
-37.4039714477
 20
51.9303884553
 10
-37.3743238537
 20
51.9357203552
 10
-37.345789723
 20
51.9427931667
 10
-37.3186747442
 20
51.9515311039
 10
-37.2932694258
 20
51.961840534
 10
-37.269845941
 20
51.9736109919
  0
LWPOLYLINE
  5
410
100
AcDbEntity
  8
RACCORDO
100
AcDbPolyline
 62
250
  6
CONTINUOUS
 90
16
 70
0
 10
10.329734895
 20
24.8925091396
 10
10.3677242898
 20
24.8727128502
 10
10.4090192515
 20
24.8552622149
 10
10.453187234
 20
24.8403400397
 10
10.4997655951
 20
24.8281026468
 10
10.5482664354
 20
24.8186782362
 10
10.5981817076
 20
24.8121655415
 10
10.6489885541
 20
24.8086327958
 10
10.7001547692
 20
24.8081170194
 10
10.7511443661
 20
24.8106236272
 10
10.8014232217
 20
24.8161263733
 10
10.8504646513
 20
24.8245676258
 10
10.8977549122
 20
24.8358589663
 10
10.9427986184
 20
24.8498821198
 10
10.9851239277
 20
24.8664901985
 10
11.0242874656
 20
24.8855092345
  0
LWPOLYLINE
  5
411
100
AcDbEntity
  8
RACCORDO
100
AcDbPolyline
 62
250
  6
CONTINUOUS
 90
16
 70
0
 10
7.6427291265
 20
28.0758984045
 10
7.680718924
 20
28.0561019298
 10
7.722014281
 20
28.0386511831
 10
7.7661826247
 20
28.023728963
 10
7.8127612872
 20
28.011491581
 10
7.8612623526
 20
28.002067225
 10
7.9111777675
 20
27.9955546159
 10
7.9619846629
 20
27.9920219741
 10
8.0131508317
 20
27.9915063043
 10
8.0641403033
 20
27.9940130082
 10
8.1144189579
 20
27.9995158277
 10
8.1634601217
 20
28.0079571204
 10
8.2107500838
 20
28.0192484629
 10
8.2557934771
 20
28.0332715772
 10
8.2981184677
 20
28.0498795699
 10
8.3372816971
 20
28.0688984706
  0
LWPOLYLINE
  5
412
100
AcDbEntity
  8
RACCORDO
100
AcDbPolyline
 62
250
  6
CONTINUOUS
 90
19
 70
0
 10
10.329734895
 20
24.7801262462
 10
10.3608834397
 20
24.7635911773
 10
10.3941826247
 20
24.7486805713
 10
10.4293666398
 20
24.735477852
 10
10.4661047943
 20
24.7240674445
 10
10.5041712753
 20
24.7144830643
 10
10.5434682854
 20
24.7067357067
 10
10.5837221306
 20
24.7008780523
 10
10.6246590594
 20
24.696948686
 10
10.6661980754
 20
24.6949713785
 10
10.7080085429
 20
24.6949861538
 10
10.7498434668
 20
24.6970172704
 10
10.7917338029
 20
24.7011218549
 10
10.8335097177
 20
24.70737418
 10
10.8746587534
 20
24.7157919345
 10
10.9146781343
 20
24.7263482978
 10
10.9531689074
 20
24.7389971165
 10
10.9898234915
 20
24.7536969029
 10
11.0242874656
 20
24.7703754782
  0
LWPOLYLINE
  5
413
100
AcDbEntity
  8
RACCORDO
100
AcDbPolyline
 62
7
  6
CONTINUOUS
 90
16
 70
0
 10
10.3917966158
 20
24.6428416317
 10
10.4188004049
 20
24.6283365048
 10
10.4559602951
 20
24.6115693894
 10
10.4942906266
 20
24.597619856
 10
10.5338852766
 20
24.5863415682
 10
10.574556757
 20
24.5777240328
 10
10.6156961888
 20
24.5718328962
 10
10.6572841292
 20
24.5686034488
 10
10.6992628459
 20
24.5680537477
 10
10.740872615
 20
24.5701837994
 10
10.7820480798
 20
24.5749788494
 10
10.8227913149
 20
24.5824920405
 10
10.8625067124
 20
24.5926744593
 10
10.9010022821
 20
24.605532216
 10
10.9383659915
 20
24.6211884218
 10
10.9579837181
 20
24.6308356352
  0
LINE
  5
414
100
AcDbEntity
  8
RACCORDO
100
AcDbLine
 62
7
  6
CONTINUOUS
 10
-38.5475792507
 20
52.899823872
 11
-38.1462598021
 21
52.6681070521
  0
LINE
  5
415
100
AcDbEntity
  8
RACCORDO
100
AcDbLine
 62
7
  6
CONTINUOUS
 10
9.990540213
 20
24.8745220191
 11
10.3918596616
 21
24.6428051992
  0
LINE
  5
416
100
AcDbEntity
  8
RACCORDO
100
AcDbLine
 62
250
  6
CONTINUOUS
 10
-38.6097040567
 20
53.0371449417
 11
-38.1462598021
 21
52.7695580374
  0
LINE
  5
417
100
AcDbEntity
  8
RACCORDO
100
AcDbLine
 62
250
  6
CONTINUOUS
 10
9.8662906404
 20
25.0477131505
 11
10.329734895
 21
24.7801262462
  0
LINE
  5
418
100
AcDbEntity
  8
RACCORDO
100
AcDbLine
 62
7
  6
CONTINUOUS
 10
-37.0626514318
 20
52.1649157014
 11
-36.9749013057
 21
52.1142498783
  0
LINE
  5
419
100
AcDbEntity
  8
RACCORDO
100
AcDbLine
 62
7
  6
CONTINUOUS
 10
8.8191817166
 20
25.6733202759
 11
8.9069318427
 21
25.6226544529
  0
LINE
  5
41A
100
AcDbEntity
  8
RACCORDO
100
AcDbLine
 62
250
  6
CONTINUOUS
 10
-37.1247762181
 20
52.3022367598
 11
-37.037026092
 21
52.2515709367
  0
LINE
  5
41B
100
AcDbEntity
  8
RACCORDO
100
AcDbLine
 62
250
  6
CONTINUOUS
 10
8.7570569303
 20
25.8106413343
 11
8.8448070564
 21
25.7599755112
  0
LINE
  5
41C
100
AcDbEntity
  8
RACCORDO
100
AcDbLine
 62
250
  6
CONTINUOUS
 10
9.6230588642
 20
26.1165079282
 11
8.3494051573
 21
26.8518996159
  0
LINE
  5
41D
100
AcDbEntity
  8
0
100
AcDbLine
 62
7
  6
CONTINUOUS
 10
1.3159746148
 20
31.5680880806
 11
-29.5959437765
 21
49.4162423424
  0
LINE
  5
41E
100
AcDbEntity
  8
RACCORDO
100
AcDbLine
 62
250
  6
CONTINUOUS
 10
9.9642734194
 20
26.7215073885
 11
8.6667920546
 21
27.4705869088
  0
LWPOLYLINE
  5
41F
100
AcDbEntity
  8
RACCORDO
100
AcDbPolyline
 62
7
  6
CONTINUOUS
 90
28
 70
0
 10
-36.974838612
 20
52.11421371
 10
-36.9528272331
 20
52.1012803949
 10
-36.8760510749
 20
52.0527144305
 10
-36.7982725328
 20
51.9980618018
 10
-36.7198570003
 20
51.9373548365
 10
-36.6413265698
 20
51.8707904222
 10
-36.563321933
 20
51.7987624632
 10
-36.4862473253
 20
51.7215194263
 10
-36.4104838186
 20
51.639333297
 10
-36.3365838909
 20
51.5527213592
 10
-36.2649518549
 20
51.4620989862
 10
-36.1958880904
 20
51.3678110683
 10
-36.1297429678
 20
51.2703050858
 10
-36.0668338974
 20
51.1700233113
 10
-36.0074320044
 20
51.0673984249
 10
-35.9517949155
 20
50.9628725543
 10
-35.9001622911
 20
50.8568953038
 10
-35.8527608247
 20
50.7499626791
 10
-35.8098075956
 20
50.6426025532
 10
-35.7714512954
 20
50.5352473413
 10
-35.7378527616
 20
50.42845494
 10
-35.7091888729
 20
50.32296364
 10
-35.6855053395
 20
50.2192388485
 10
-35.6668187475
 20
50.1177586524
 10
-35.6531547889
 20
50.0192803146
 10
-35.6444253779
 20
49.9243569371
 10
-35.6404771286
 20
49.8333207563
 10
-35.6401959554
 20
49.8025484108
  0
LWPOLYLINE
  5
420
100
AcDbEntity
  8
RACCORDO
100
AcDbPolyline
 62
7
  6
CONTINUOUS
 90
24
 70
0
 10
8.9069679292
 20
25.622633627
 10
8.9247960027
 20
25.6118061021
 10
8.9486613572
 20
25.5957008288
 10
8.9739628848
 20
25.5766691395
 10
9.0001831661
 20
25.5548381935
 10
9.0270345342
 20
25.5302291327
 10
9.0542555745
 20
25.5028740705
 10
9.0813954419
 20
25.4730484645
 10
9.1081827434
 20
25.4409079625
 10
9.1343564754
 20
25.4066330828
 10
9.1595353279
 20
25.3706243249
 10
9.1834930675
 20
25.3331447732
 10
9.2060220355
 20
25.2944728822
 10
9.2268396689
 20
25.2550902529
 10
9.2458024445
 20
25.2153147404
 10
9.2627898466
 20
25.1754716858
 10
9.2776383079
 20
25.1360876714
 10
9.2903141762
 20
25.0974807832
 10
9.3008101675
 20
25.0599671083
 10
9.3091037099
 20
25.024074899
 10
9.3152890288
 20
24.9900537203
 10
9.3194828746
 20
24.958168667
 10
9.3218229983
 20
24.9289323954
 10
9.3225383711
 20
24.9028603035
  0
LWPOLYLINE
  5
421
100
AcDbEntity
  8
RACCORDO
100
AcDbPolyline
 62
250
  6
CONTINUOUS
 90
25
 70
0
 10
8.3494051573
 20
26.8518996159
 10
8.3030651476
 20
26.8805069057
 10
8.2574562411
 20
26.9119827767
 10
8.2125784378
 20
26.9463272288
 10
8.1683158904
 20
26.9836633203
 10
8.1247844463
 20
27.0238679929
 10
8.0823316473
 20
27.0665720724
 10
8.0409033194
 20
27.1118486347
 10
8.0005536368
 20
27.1596246038
 10
7.961792663
 20
27.2093115779
 10
7.9246274357
 20
27.2609652362
 10
7.8890509172
 20
27.3145298995
 10
7.8555520582
 20
27.3692501287
 10
7.8241911387
 20
27.4250851644
 10
7.7949078787
 20
27.482075766
 10
7.7680103884
 20
27.5395887734
 10
7.7435653912
 20
27.597338209
 10
7.7215061638
 20
27.6556100504
 10
7.7019406467
 20
27.7146290698
 10
7.6846974946
 20
27.7748029716
 10
7.6699480528
 20
27.8357240514
 10
7.6583142975
 20
27.8963939687
 10
7.650003554
 20
27.9564799432
 10
7.644808497
 20
28.0163147551
 10
7.6427291265
 20
28.0758984045
  0
LWPOLYLINE
  5
422
100
AcDbEntity
  8
RACCORDO
100
AcDbPolyline
 62
250
  6
CONTINUOUS
 90
4
 70
0
 10
8.8448070564
 20
25.7599755112
 10
8.8874757209
 20
25.7333891969
 10
8.929362374
 20
25.703765043
 10
8.9704670155
 20
25.6711030495
  0
LWPOLYLINE
  5
423
100
AcDbEntity
  8
RACCORDO
100
AcDbPolyline
 62
250
  6
CONTINUOUS
 90
9
 70
0
 10
-38.6097040567
 20
57.3951732744
 10
-38.6439903478
 20
57.4171081035
 10
-38.6742139803
 20
57.4409515234
 10
-38.7000583587
 20
57.4664537718
 10
-38.7212527605
 20
57.493347711
 10
-38.7375751723
 20
57.5213516235
 10
-38.7488546154
 20
57.5501721634
 10
-38.7549729363
 20
57.579507432
 10
-38.7561506659
 20
57.599300962
  0
LWPOLYLINE
  5
424
100
AcDbEntity
  8
RACCORDO
100
AcDbPolyline
 62
250
  6
CONTINUOUS
 90
9
 70
0
 10
9.4104063247
 20
24.7803288428
 10
9.3896144027
 20
24.7936461519
 10
9.3713180994
 20
24.808133089
 10
9.3557134471
 20
24.8236344367
 10
9.3429676388
 20
24.8399841087
 10
9.3332172371
 20
24.8570069297
 10
9.3265667106
 20
24.8745205119
 10
9.3230873153
 20
24.8923372094
 10
9.3225383591
 20
24.902811221
  0
LWPOLYLINE
  5
425
100
AcDbEntity
  8
RACCORDO
100
AcDbPolyline
 62
250
  6
CONTINUOUS
 90
23
 70
0
 10
8.6667920546
 20
27.4705869088
 10
8.6432146154
 20
27.4859246796
 10
8.6199800033
 20
27.5028273649
 10
8.5972053917
 20
27.5211756681
 10
8.5749486265
 20
27.5409002216
 10
8.5532128884
 20
27.5620008034
 10
8.5320539348
 20
27.5844245608
 10
8.5115883547
 20
27.6080484137
 10
8.4919121186
 20
27.6327750982
 10
8.4730981472
 20
27.6585167198
 10
8.4552311999
 20
27.6851529414
 10
8.4384160004
 20
27.712527385
 10
8.4227351382
 20
27.7404969088
 10
8.4082301691
 20
27.7689704647
 10
8.3949372615
 20
27.7978653596
 10
8.3829677658
 20
27.8269127599
 10
8.3723048163
 20
27.8561446241
 10
8.3628487714
 20
27.8859319135
 10
8.3546580134
 20
27.9163252378
 10
8.3479005243
 20
27.9470045314
 10
8.3426923605
 20
27.9777710669
 10
8.3391303756
 20
28.0084490917
 10
8.3372990628
 20
28.0388844863
  0
LWPOLYLINE
  5
426
100
AcDbEntity
  8
RACCORDO
100
AcDbPolyline
 62
250
  6
CONTINUOUS
 90
15
 70
0
 10
8.9704670155
 20
25.6711030495
 10
9.0109705146
 20
25.6352161038
 10
9.0506920022
 20
25.5962913185
 10
9.0890888713
 20
25.5548900317
 10
9.1261879946
 20
25.5109279566
 10
9.1619624993
 20
25.4644893801
 10
9.1957891603
 20
25.4163885014
 10
9.2276018502
 20
25.3666619534
 10
9.2574666962
 20
25.3152731033
 10
9.2849588549
 20
25.262926251
 10
9.310062778
 20
25.2096366632
 10
9.3327940137
 20
25.1553890733
 10
9.352774363
 20
25.1008419814
 10
9.3700157269
 20
25.0457800004
 10
9.3845062045
 20
24.9904185175
  0
LWPOLYLINE
  5
427
100
AcDbEntity
  8
RACCORDO
100
AcDbPolyline
 62
250
  6
CONTINUOUS
 90
16
 70
0
 10
11.0242874656
 20
14.7032898813
 10
11.0227676249
 20
14.7293580514
 10
11.01902445
 20
14.756527697
 10
11.0130989356
 20
14.7845013571
 10
11.0050559644
 20
14.8129727773
 10
10.9949836062
 20
14.8416302449
 10
10.982992158
 20
14.8701600014
 10
10.9692129187
 20
14.898249707
 10
10.9537967532
 20
14.9255918477
 10
10.9369124545
 20
14.9518870849
 10
10.918744882
 20
14.9768475556
 10
10.8994929368
 20
15.0002000195
 10
10.8793673925
 20
15.0216888391
 10
10.8585885813
 20
15.0410787855
 10
10.8373839814
 20
15.0581576126
 10
10.8159857295
 20
15.0727383772
  0
LWPOLYLINE
  5
428
100
AcDbEntity
  8
RACCORDO
100
AcDbPolyline
 62
250
  6
CONTINUOUS
 90
9
 70
0
 10
10.329734895
 20
24.7801262462
 10
10.3308713435
 20
24.7554621368
 10
10.3342685374
 20
24.7323746983
 10
10.3398900628
 20
24.7111112941
 10
10.3476756771
 20
24.6918997361
 10
10.3575419455
 20
24.6749458599
 10
10.3693831313
 20
24.6604313142
 10
10.3830723445
 20
24.6485115956
 10
10.3917966158
 20
24.6428416317
  0
LWPOLYLINE
  5
429
100
AcDbEntity
  8
RACCORDO
100
AcDbPolyline
 62
7
  6
CONTINUOUS
 90
16
 70
0
 10
11.6514249224
 20
-14.8296440324
 10
11.6503253109
 20
-14.8035097989
 10
11.6470103767
 20
-14.7762575289
 10
11.6415120602
 20
-14.7481768164
 10
11.6338898536
 20
-14.7195651407
 10
11.6242193062
 20
-14.6907338508
 10
11.6125919603
 20
-14.6620048564
 10
11.5991279412
 20
-14.6336850859
 10
11.5839760605
 20
-14.6060926821
 10
11.5673061552
 20
-14.5795601764
 10
11.5492971746
 20
-14.5543739845
 10
11.5301545696
 20
-14.5308180866
 10
11.5101184782
 20
-14.5091893505
 10
11.4894236013
 20
-14.4897280902
 10
11.4682913187
 20
-14.4726252123
 10
11.4469546986
 20
-14.4580579466
  0
LWPOLYLINE
  5
42A
100
AcDbEntity
  8
RACCORDO
100
AcDbPolyline
 62
7
  6
CONTINUOUS
 90
16
 70
0
 10
11.6514249224
 20
15.0531680982
 10
11.6503253109
 20
15.0793023317
 10
11.6470103767
 20
15.1065546017
 10
11.6415120602
 20
15.1346353142
 10
11.6338898536
 20
15.1632469899
 10
11.6242193062
 20
15.1920782798
 10
11.6125919603
 20
15.2208072742
 10
11.5991279412
 20
15.2491270448
 10
11.5839760605
 20
15.2767194485
 10
11.5673061552
 20
15.3032519542
 10
11.5492971746
 20
15.3284381462
 10
11.5301545696
 20
15.351994044
 10
11.5101184782
 20
15.3736227801
 10
11.4894236013
 20
15.3930840404
 10
11.4682913187
 20
15.4101869183
 10
11.4469546986
 20
15.424754184
  0
LWPOLYLINE
  5
42B
100
AcDbEntity
  8
RACCORDO
100
AcDbPolyline
 62
250
  6
CONTINUOUS
 90
25
 70
0
 10
11.0242874656
 20
24.8855092056
 10
11.0211999736
 20
24.9667634384
 10
11.013620819
 20
25.0501263917
 10
11.0016199886
 20
25.1352285709
 10
10.9853053333
 20
25.2216246423
 10
10.9647684841
 20
25.3090103475
 10
10.9400488955
 20
25.3972335309
 10
10.9112233396
 20
25.4860061244
 10
10.8784373799
 20
25.5748740725
 10
10.8418292359
 20
25.663440702
 10
10.8015553676
 20
25.7513289723
 10
10.7577890438
 20
25.8381714169
 10
10.7107192099
 20
25.9235898846
 10
10.6605858681
 20
26.0071577421
 10
10.6075668312
 20
26.0885912171
 10
10.5517595425
 20
26.1677229453
 10
10.4933402676
 20
26.2442526794
 10
10.4325821917
 20
26.3177778846
 10
10.3697288338
 20
26.3879727503
 10
10.3050103783
 20
26.4545312214
 10
10.2387173009
 20
26.517112815
 10
10.1712015326
 20
26.575368943
 10
10.1027740082
 20
26.6290119996
 10
10.0336998298
 20
26.6778034598
 10
9.9642734194
 20
26.7215073885
  0
LWPOLYLINE
  5
42C
100
AcDbEntity
  8
RACCORDO
100
AcDbPolyline
 62
250
  6
CONTINUOUS
 90
25
 70
0
 10
10.329734895
 20
24.8925091396
 10
10.3281215969
 20
24.9474053299
 10
10.3235830681
 20
25.003186458
 10
10.3161193086
 20
25.0598525237
 10
10.3056757626
 20
25.1176037656
 10
10.2923069859
 20
25.1762399451
 10
10.2761766463
 20
25.2351603472
 10
10.2572474791
 20
25.2944186348
 10
10.2355567489
 20
25.353961145
 10
10.2113799176
 20
25.4130261744
 10
10.18468467
 20
25.4716058901
 10
10.1555033214
 20
25.529708125
 10
10.1242082786
 20
25.5865946738
 10
10.090805576
 20
25.6422136541
 10
10.0552891794
 20
25.6966169484
 10
10.018013393
 20
25.7492219988
 10
9.9789333625
 20
25.8000557501
 10
9.9380939422
 20
25.8490912575
 10
9.8959839991
 20
25.8956651297
 10
9.8525650899
 20
25.9397628772
 10
9.807875658
 20
25.9813989895
 10
9.7625198998
 20
26.0199535431
 10
9.7166992142
 20
26.0552198968
 10
9.6702122023
 20
26.0874046919
 10
9.6230588642
 20
26.1165079282
  0
LINE
  5
42D
100
AcDbEntity
  8
RACCORDO
100
AcDbLine
 62
7
  6
CONTINUOUS
 10
10.1922079326
 20
24.7580816053
 11
10.1922079326
 21
22.4448751536
  0
LINE
  5
42E
100
AcDbEntity
  8
RACCORDO
100
AcDbLine
 62
7
  6
CONTINUOUS
 10
10.1922079326
 20
17.5779638825
 11
10.1922079326
 21
15.213395297
  0
LINE
  5
42F
100
AcDbEntity
  8
RACCORDO
100
AcDbLine
 62
7
  6
CONTINUOUS
 10
10.1922079326
 20
-5.1247305253
 11
10.1922079326
 21
-7.437936977
  0
LINE
  5
430
100
AcDbEntity
  8
RACCORDO
100
AcDbLine
 62
7
  6
CONTINUOUS
 10
10.1922079326
 20
-12.3048482481
 11
10.1922079326
 21
-14.6694168336
  0
LINE
  5
431
100
AcDbEntity
  8
RACCORDO
100
AcDbLine
 62
250
  6
CONTINUOUS
 10
10.329734895
 20
-19.533301482
 11
10.329734895
 21
-15.1752731493
  0
LINE
  5
432
100
AcDbEntity
  8
RACCORDO
100
AcDbLine
 62
250
  6
CONTINUOUS
 10
10.329734895
 20
-5.1026858844
 11
10.329734895
 21
14.7075389813
  0
LINE
  5
433
100
AcDbEntity
  8
RACCORDO
100
AcDbLine
 62
250
  6
CONTINUOUS
 10
10.329734895
 20
24.7801262462
 11
10.329734895
 21
24.8925091396
  0
LINE
  5
434
100
AcDbEntity
  8
DRAFT
100
AcDbLine
 62
7
  6
CONTINUOUS
 10
10.9976614903
 20
24.6514262399
 11
10.9976614903
 21
22.9099324011
  0
LINE
  5
435
100
AcDbEntity
  8
DRAFT
100
AcDbLine
 62
7
  6
CONTINUOUS
 10
10.9976614903
 20
17.5698470356
 11
10.9976614903
 21
15.6841704515
  0
LINE
  5
436
100
AcDbEntity
  8
DRAFT
100
AcDbLine
 62
7
  6
CONTINUOUS
 10
10.9976614903
 20
-5.2313858907
 11
10.9976614903
 21
-6.9728797295
  0
LINE
  5
437
100
AcDbEntity
  8
DRAFT
100
AcDbLine
 62
7
  6
CONTINUOUS
 10
10.9976614903
 20
-12.312965095
 11
10.9976614903
 21
-14.1986416792
  0
LINE
  5
438
100
AcDbEntity
  8
RACCORDO
100
AcDbLine
 62
250
  6
CONTINUOUS
 10
11.0242874656
 20
-19.540301416
 11
11.0242874656
 21
-15.1795222493
  0
LINE
  5
439
100
AcDbEntity
  8
RACCORDO
100
AcDbLine
 62
250
  6
CONTINUOUS
 10
11.0242874656
 20
-5.1124366524
 11
11.0242874656
 21
14.7032898813
  0
LINE
  5
43A
100
AcDbEntity
  8
RACCORDO
100
AcDbLine
 62
250
  6
CONTINUOUS
 10
11.0242874656
 20
24.7703754782
 11
11.0242874656
 21
24.8855092056
  0
LINE
  5
43B
100
AcDbEntity
  8
DRAFT
100
AcDbLine
 62
7
  6
CONTINUOUS
 10
11.5595783564
 20
-7.4241574906
 11
11.5595783564
 21
-12.3186277346
  0
LINE
  5
43C
100
AcDbEntity
  8
DRAFT
100
AcDbLine
 62
7
  6
CONTINUOUS
 10
11.5595783564
 20
17.564184396
 11
11.5595783564
 21
22.45865464
  0
LINE
  5
43D
100
AcDbEntity
  8
DRAFT
100
AcDbLine
 62
7
  6
CONTINUOUS
 10
11.6694129324
 20
-7.3607405932
 11
11.6694129324
 21
-12.259562254
  0
LINE
  5
43E
100
AcDbEntity
  8
DRAFT
100
AcDbLine
 62
7
  6
CONTINUOUS
 10
11.6694129324
 20
17.6232498767
 11
11.6694129324
 21
22.5220715374
  0
LINE
  5
43F
100
AcDbEntity
  8
DRAFT
100
AcDbLine
 62
7
  6
CONTINUOUS
 10
11.7754789496
 20
-6.5237761348
 11
11.7754789496
 21
-12.1939694379
  0
LINE
  5
440
100
AcDbEntity
  8
DRAFT
100
AcDbLine
 62
7
  6
CONTINUOUS
 10
11.7754789496
 20
17.6888426927
 11
11.7754789496
 21
23.3590359958
  0
LINE
  5
441
100
AcDbEntity
  8
DRAFT
100
AcDbLine
 62
7
  6
CONTINUOUS
 10
11.7966403047
 20
25.074140826
 11
11.7966403047
 21
16.1454923893
  0
LINE
  5
442
100
AcDbEntity
  8
DRAFT
100
AcDbLine
 62
7
  6
CONTINUOUS
 10
11.7966403047
 20
-4.8086713046
 11
11.7966403047
 21
-13.7373197413
  0
LINE
  5
443
100
AcDbEntity
  8
RACCORDO
100
AcDbLine
 62
7
  6
CONTINUOUS
 10
12.5006561708
 20
-4.3132012887
 11
12.5006561708
 21
-4.1907307472
  0
LINE
  5
444
100
AcDbEntity
  8
RACCORDO
100
AcDbLine
 62
7
  6
CONTINUOUS
 10
12.5006561708
 20
15.3714043041
 11
12.5006561708
 21
15.4938748457
  0
LINE
  5
445
100
AcDbEntity
  8
RACCORDO
100
AcDbLine
 62
7
  6
CONTINUOUS
 10
12.5738361202
 20
-18.7663617599
 11
12.5738361202
 21
-14.3509607061
  0
LINE
  5
446
100
AcDbEntity
  8
RACCORDO
100
AcDbLine
 62
7
  6
CONTINUOUS
 10
12.5738361202
 20
-4.14990386
 11
12.5738361202
 21
15.409380883
  0
LINE
  5
447
100
AcDbEntity
  8
RACCORDO
100
AcDbLine
 62
7
  6
CONTINUOUS
 10
12.5738361202
 20
25.6104377291
 11
12.5738361202
 21
25.7801933435
  0
LWPOLYLINE
  5
448
100
AcDbEntity
  8
RACCORDO
100
AcDbPolyline
 62
7
  6
CONTINUOUS
 90
9
 70
0
 10
9.3225383692
 20
-13.9914207754
 10
9.3221087998
 20
-14.0106758522
 10
9.3205922488
 20
-14.0313829077
 10
9.3181367734
 20
-14.0498465782
 10
9.3149190093
 20
-14.0659760676
 10
9.3112118261
 20
-14.0794370279
 10
9.3074882784
 20
-14.089718863
 10
9.3042723777
 20
-14.0966980655
 10
9.3037238389
 20
-14.0977306199
  0
LWPOLYLINE
  5
449
100
AcDbEntity
  8
RACCORDO
100
AcDbPolyline
 62
250
  6
CONTINUOUS
 90
22
 70
0
 10
9.4104063247
 20
-14.1138581567
 10
9.4087175535
 20
-14.162151024
 10
9.4040068078
 20
-14.2077960811
 10
9.3962740876
 20
-14.250793328
 10
9.3854477864
 20
-14.2913102629
 10
9.3715995108
 20
-14.3291793876
 10
9.3549440796
 20
-14.3638982075
 10
9.3354219336
 20
-14.3954633626
 10
9.3130926321
 20
-14.4238782128
 10
9.2883496722
 20
-14.4486503431
 10
9.2611917133
 20
-14.4697026248
 10
9.2316200961
 20
-14.4871121865
 10
9.2000323395
 20
-14.5006179995
 10
9.1664338906
 20
-14.5102052558
 10
9.1308193024
 20
-14.5158887634
 10
9.0935697534
 20
-14.5174519174
 10
9.0545046579
 20
-14.5148041918
 10
9.0138046017
 20
-14.5080361126
 10
8.9723925199
 20
-14.4972026532
 10
8.9305760577
 20
-14.4823221381
 10
8.8880475698
 20
-14.4633762428
 10
8.8448070564
 20
-14.4403649673
  0
LWPOLYLINE
  5
44A
100
AcDbEntity
  8
RACCORDO
100
AcDbPolyline
 62
250
  6
CONTINUOUS
 90
16
 70
0
 10
8.7570569303
 20
-14.3896991443
 10
8.758193386
 20
-14.363722758
 10
8.7615905658
 20
-14.3367124124
 10
8.7672120548
 20
-14.3089575177
 10
8.7749976049
 20
-14.2807554609
 10
8.784863784
 20
-14.2524084109
 10
8.7967048713
 20
-14.2242200807
 10
8.8103939848
 20
-14.1964924901
 10
8.8257844446
 20
-14.1695227158
 10
8.8427113524
 20
-14.1435997007
 10
8.8609933417
 20
-14.1190011861
 10
8.8804345304
 20
-14.0959907174
 10
8.9008266312
 20
-14.0748148119
 10
8.9219511623
 20
-14.0557003422
 10
8.9435817867
 20
-14.0388521027
 10
8.9654867501
 20
-14.0244506012
  0
LWPOLYLINE
  5
44B
100
AcDbEntity
  8
RACCORDO
100
AcDbPolyline
 62
250
  6
CONTINUOUS
 90
16
 70
0
 10
8.8448070564
 20
-14.4403649673
 10
8.8459434803
 20
-14.4143889533
 10
8.8493405759
 20
-14.3873789405
 10
8.8549619457
 20
-14.3596243225
 10
8.8627473607
 20
-14.3314224707
 10
8.8726134055
 20
-14.3030755484
 10
8.8844543722
 20
-14.2748872733
 10
8.8981433932
 20
-14.2471596633
 10
8.9135338
 20
-14.2201898004
 10
8.9304606951
 20
-14.194266648
 10
8.9487427186
 20
-14.1696679548
 10
8.9681839912
 20
-14.1466572786
 10
8.9885762132
 20
-14.125481163
 10
9.0097008961
 20
-14.1063664954
 10
9.0313317035
 20
-14.0895180761
 10
9.0532368763
 20
-14.0751164243
  0
LWPOLYLINE
  5
44C
100
AcDbEntity
  8
RACCORDO
100
AcDbPolyline
 62
250
  6
CONTINUOUS
 90
16
 70
0
 10
10.329734895
 20
14.7075389813
 10
10.3308713039
 20
14.7335150041
 10
10.3342683888
 20
14.7605250231
 10
10.3398897523
 20
14.7882796449
 10
10.3476751666
 20
14.8164814971
 10
10.3575412151
 20
14.8448284173
 10
10.3693821859
 20
14.87301669
 10
10.3830712101
 20
14.9007442982
 10
10.3984616206
 20
14.9277141589
 10
10.4153885196
 20
14.953637309
 10
10.4336705478
 20
14.9782359995
 10
10.4531118255
 20
15.0012466726
 10
10.4735040512
 20
15.0224227861
 10
10.4946287357
 20
15.0415374528
 10
10.5162595433
 20
15.0583858719
 10
10.5381647149
 20
15.0727875244
  0
LWPOLYLINE
  5
44D
100
AcDbEntity
  8
RACCORDO
100
AcDbPolyline
 62
250
  6
CONTINUOUS
 90
16
 70
0
 10
10.329734895
 20
-15.1752731493
 10
10.3308713039
 20
-15.1492971266
 10
10.3342683888
 20
-15.1222871075
 10
10.3398897523
 20
-15.0945324857
 10
10.3476751666
 20
-15.0663306335
 10
10.3575412151
 20
-15.0379837133
 10
10.3693821859
 20
-15.0097954406
 10
10.3830712101
 20
-14.9820678325
 10
10.3984616206
 20
-14.9550979717
 10
10.4153885196
 20
-14.9291748216
 10
10.4336705478
 20
-14.9045761312
 10
10.4531118255
 20
-14.881565458
 10
10.4735040512
 20
-14.8603893445
 10
10.4946287357
 20
-14.8412746778
 10
10.5162595433
 20
-14.8244262587
 10
10.5381647149
 20
-14.8100246062
  0
LWPOLYLINE
  5
44E
100
AcDbEntity
  8
RACCORDO
100
AcDbPolyline
 62
7
  6
CONTINUOUS
 90
9
 70
0
 10
11.6514249224
 20
25.0958271256
 10
11.6503112648
 20
25.0710632868
 10
11.6469991931
 20
25.0479142751
 10
11.6415120602
 20
25.026635448
 10
11.633893051
 20
25.0074607102
 10
11.6242173059
 20
24.9906081079
 10
11.6125919603
 20
24.9762765349
 10
11.599131169
 20
24.9646278599
 10
11.5902582655
 20
24.9590008689
  0
LWPOLYLINE
  5
44F
100
AcDbEntity
  8
RACCORDO
100
AcDbPolyline
 62
7
  6
CONTINUOUS
 90
9
 70
0
 10
11.6514249224
 20
-4.7869850051
 10
11.6503112648
 20
-4.8117488438
 10
11.6469991931
 20
-4.8348978555
 10
11.6415120602
 20
-4.8561766826
 10
11.633893051
 20
-4.8753514204
 10
11.6242173059
 20
-4.8922040228
 10
11.6125919603
 20
-4.9065355957
 10
11.599131169
 20
-4.9181842708
 10
11.5902582655
 20
-4.9238112617
  0
LWPOLYLINE
  5
450
100
AcDbEntity
  8
RACCORDO
100
AcDbPolyline
 62
250
  6
CONTINUOUS
 90
9
 70
0
 10
11.0242874656
 20
24.7703754782
 10
11.0227676726
 20
24.7452641042
 10
11.0190246152
 20
24.7218145235
 10
11.0130992715
 20
24.7002834556
 10
11.0050565094
 20
24.6809066161
 10
10.99498438
 20
24.6638961378
 10
10.982993154
 20
24.6494382488
 10
10.9692141092
 20
24.6376912306
 10
10.957983718
 20
24.6308356352
  0
LWPOLYLINE
  5
451
100
AcDbEntity
  8
RACCORDO
100
AcDbPolyline
 62
250
  6
CONTINUOUS
 90
9
 70
0
 10
11.0242874656
 20
-5.1124366524
 10
11.0227676726
 20
-5.1375480264
 10
11.0190246152
 20
-5.1609976071
 10
11.0130992715
 20
-5.182528675
 10
11.0050565094
 20
-5.2019055145
 10
10.99498438
 20
-5.2189159928
 10
10.982993154
 20
-5.2333738818
 10
10.9692141092
 20
-5.2451209001
 10
10.957983718
 20
-5.2519764955
  0
LINE
  5
452
100
AcDbEntity
  8
RACCORDO
100
AcDbLine
 62
7
  6
CONTINUOUS
 10
9.2128168032
 20
-7.7481056435
 11
9.211282471
 21
-7.7730527916
  0
LINE
  5
453
100
AcDbEntity
  8
RACCORDO
100
AcDbLine
 62
7
  6
CONTINUOUS
 10
9.2128168032
 20
-7.7481056435
 11
9.2433719165
 21
-7.505129421
  0
LINE
  5
454
100
AcDbEntity
  8
RACCORDO
100
AcDbLine
 62
7
  6
CONTINUOUS
 10
1.8183173673
 20
-2.6857837981
 11
1.7934448555
 21
-2.7444614819
  0
LWPOLYLINE
  5
455
100
AcDbEntity
  8
RACCORDO
100
AcDbPolyline
 62
250
  6
CONTINUOUS
 90
25
 70
0
 10
-37.9030280259
 20
57.8031202961
 10
-37.9497203945
 20
57.8282234435
 10
-37.9957249452
 20
57.8495535563
 10
-38.0410416782
 20
57.8671106346
 10
-38.0858177347
 20
57.8809178347
 10
-38.1299059734
 20
57.8909520002
 10
-38.1728649705
 20
57.8971436623
 10
-38.2147242136
 20
57.8994642171
 10
-38.2554542153
 20
57.8979422684
 10
-38.2945250894
 20
57.892594159
 10
-38.3319087035
 20
57.8833706452
 10
-38.3676331901
 20
57.8703209707
 10
-38.4012530608
 20
57.8536092101
 10
-38.4327299421
 20
57.8332185817
 10
-38.4621022075
 20
57.809165867
 10
-38.4890394892
 20
57.7816654859
 10
-38.5135443567
 20
57.7506603795
 10
-38.5356142406
 20
57.7162076065
 10
-38.5549110644
 20
57.6786927628
 10
-38.571399082
 20
57.6380554223
 10
-38.5851140396
 20
57.5943560111
 10
-38.5958250996
 20
57.5481614033
 10
-38.6034553162
 20
57.4996605569
 10
-38.6080816352
 20
57.4486645139
 10
-38.6097040567
 20
57.3951732744
  0
LINE
  5
456
100
AcDbEntity
  8
RACCORDO
100
AcDbLine
 62
7
  6
CONTINUOUS
 10
10.2401683672
 20
28.3515832142
 11
11.513822074
 21
27.6161915265
  0
LINE
  5
457
100
AcDbEntity
  8
RACCORDO
100
AcDbLine
 62
250
  6
CONTINUOUS
 10
-32.9524190569
 20
54.9447007231
 11
-37.9030280259
 21
57.8031202961
  0
LINE
  5
458
100
AcDbEntity
  8
RACCORDO
100
AcDbLine
 62
250
  6
CONTINUOUS
 10
-32.5869104531
 20
55.5356930614
 11
-37.5618134707
 21
58.4081197564
  0
LWPOLYLINE
  5
459
100
AcDbEntity
  8
RACCORDO
100
AcDbPolyline
 62
250
  6
CONTINUOUS
 90
9
 70
0
 10
-32.245743026
 20
55.3526477448
 10
-32.2800297647
 20
55.3745828953
 10
-32.3102536647
 20
55.3984266286
 10
-32.3360981487
 20
55.4239291615
 10
-32.357292517
 20
55.4508233353
 10
-32.3736147875
 20
55.4788274202
 10
-32.3848940161
 20
55.5076480678
 10
-32.3910120819
 20
55.5369833711
 10
-32.3921896202
 20
55.5567138049
  0
LWPOLYLINE
  5
45A
100
AcDbEntity
  8
RACCORDO
100
AcDbPolyline
 62
250
  6
CONTINUOUS
 90
9
 70
0
 10
-32.245743026
 20
56.8232889863
 10
-32.2800293172
 20
56.8452238192
 10
-32.3102529497
 20
56.8690672408
 10
-32.336097328
 20
56.8945694889
 10
-32.3572917298
 20
56.9214634249
 10
-32.3736141417
 20
56.9494673322
 10
-32.3848935847
 20
56.9782878671
 10
-32.3910119056
 20
57.0076231318
 10
-32.3921896352
 20
57.0274166426
  0
LWPOLYLINE
  5
45B
100
AcDbEntity
  8
RACCORDO
100
AcDbPolyline
 62
250
  6
CONTINUOUS
 90
5
 70
0
 10
8.8627483217
 20
25.6717480592
 10
8.8726147208
 20
25.6547942603
 10
8.8844560089
 20
25.640279849
 10
8.8981452803
 20
25.6283603015
 10
8.9069318427
 20
25.6226544529
  0
LWPOLYLINE
  5
45C
100
AcDbEntity
  8
RACCORDO
100
AcDbPolyline
 62
250
  6
CONTINUOUS
 90
5
 70
0
 10
9.3845062045
 20
24.9904185175
 10
9.3958318932
 20
24.9360621941
 10
9.4038548258
 20
24.8831459175
 10
9.4087129697
 20
24.8312348004
 10
9.4104063247
 20
24.7803288428
  0
LWPOLYLINE
  5
45D
100
AcDbEntity
  8
RACCORDO
100
AcDbPolyline
 62
7
  6
CONTINUOUS
 90
7
 70
0
 10
8.5231187606
 20
-4.0810000627
 10
8.5195705827
 20
-4.0898396453
 10
8.4953699152
 20
-4.1680351475
 10
8.4764673841
 20
-4.2508420659
 10
8.4629347641
 20
-4.3378603013
 10
8.454799297
 20
-4.4287451194
 10
8.452077078
 20
-4.5231030271
  0
LINE
  5
45E
100
AcDbEntity
  8
RACCORDO
100
AcDbLine
 62
250
  6
CONTINUOUS
 10
2.0453289079
 20
1.1050121175
 11
2.3147103285
 21
1.20348724
  0
LWPOLYLINE
  5
45F
100
AcDbEntity
  8
RACCORDO
100
AcDbPolyline
 62
250
  6
CONTINUOUS
 90
7
 70
0
 10
1.9142208613
 20
1.0514709495
 10
1.938040862
 20
1.0586468976
 10
1.9611603883
 20
1.0665519132
 10
1.9835124982
 20
1.075163323
 10
2.0050324415
 20
1.0844564042
 10
2.0256578477
 20
1.0944044552
 10
2.0453289079
 20
1.1049788712
  0
LWPOLYLINE
  5
460
100
AcDbEntity
  8
RACCORDO
100
AcDbPolyline
 62
250
  6
CONTINUOUS
 90
16
 70
0
 10
7.6427291265
 20
33.7921850854
 10
7.6807183347
 20
33.7723888874
 10
7.722013113
 20
33.7549383064
 10
7.7661809272
 20
33.7400161518
 10
7.8127591469
 20
33.7277787495
 10
7.8612598805
 20
33.7183543061
 10
7.9111750843
 20
33.7118415644
 10
7.9619819058
 20
33.7083087644
 10
8.0131481402
 20
33.7077929327
 10
8.0641377939
 20
33.7102994905
 10
8.1144167423
 20
33.7158021975
 10
8.1634582956
 20
33.7242434272
 10
8.2107486967
 20
33.7355347634
 10
8.255792551
 20
33.7495579333
 10
8.298118012
 20
33.7661660515
 10
8.3372816971
 20
33.7851851514
  0
LWPOLYLINE
  5
461
100
AcDbEntity
  8
RACCORDO
100
AcDbPolyline
 62
250
  6
CONTINUOUS
 90
14
 70
0
 10
-37.5618134707
 20
58.4081197564
 10
-37.6321214209
 20
58.4451555211
 10
-37.7019255739
 20
58.4767217963
 10
-37.7709251716
 20
58.5027230604
 10
-37.838766123
 20
58.5230763786
 10
-37.9052265805
 20
58.5377570095
 10
-37.970205476
 20
58.5467511925
 10
-38.0334846943
 20
58.5500182515
 10
-38.0947261865
 20
58.5475308017
 10
-38.1536517665
 20
58.5392949917
 10
-38.2100031272
 20
58.5253503051
 10
-38.2635495527
 20
58.5057586297
 10
-38.314073135
 20
58.4805998429
 10
-38.3416011419
 20
58.4636994416
  0
LWPOLYLINE
  5
462
100
AcDbEntity
  8
RACCORDO
100
AcDbPolyline
 62
250
  6
CONTINUOUS
 90
14
 70
0
 10
-31.19785244
 20
57.8362354683
 10
-31.2682268061
 20
57.873303645
 10
-31.3380846599
 20
57.9048872414
 10
-31.4071248509
 20
57.9308931889
 10
-31.4749920113
 20
57.9512408352
 10
-31.5414657947
 20
57.9659087585
 10
-31.606449113
 20
57.9748864571
 10
-31.6697213813
 20
57.9781352142
 10
-31.7309484262
 20
57.9756301602
 10
-31.7898642238
 20
57.9673772927
 10
-31.8462177781
 20
57.9534123485
 10
-31.8997689062
 20
57.9337967164
 10
-31.9502873091
 20
57.9086155933
 10
-31.9776404246
 20
57.8918149469
  0
LWPOLYLINE
  5
463
100
AcDbEntity
  8
RACCORDO
100
AcDbPolyline
 62
250
  6
CONTINUOUS
 90
25
 70
0
 10
-31.5390669952
 20
57.2312360079
 10
-31.5858032952
 20
57.2563581456
 10
-31.6318432418
 20
57.2777005609
 10
-31.6771868349
 20
57.2952632539
 10
-31.721980211
 20
57.3090676082
 10
-31.7660772337
 20
57.3190922401
 10
-31.8090394934
 20
57.3252729986
 10
-31.8508948308
 20
57.3275829304
 10
-31.8916154053
 20
57.3260489889
 10
-31.9306792852
 20
57.3206878828
 10
-31.9680635278
 20
57.3114490522
 10
-32.0037910758
 20
57.2983830572
 10
-32.0374088257
 20
57.2816582861
 10
-32.0688748619
 20
57.261257505
 10
-32.0982311001
 20
57.2371979479
 10
-32.1251501834
 20
57.2096997052
 10
-32.1496330178
 20
57.1787115085
 10
-32.1716786974
 20
57.1442846262
 10
-32.1909571468
 20
57.1067929537
 10
-32.2074365941
 20
57.0661737574
 10
-32.2211488112
 20
57.022489771
 10
-32.2318590388
 20
56.976303091
 10
-32.239489024
 20
56.927801083
 10
-32.2441170197
 20
56.8767963814
 10
-32.245743026
 20
56.8232889863
  0
LINE
  5
464
100
AcDbEntity
  8
RACCORDO
100
AcDbLine
 62
7
  6
CONTINUOUS
 10
-36.1168359735
 20
59.3631819701
 11
-32.3800291183
 21
57.2055965251
  0
LINE
  5
465
100
AcDbEntity
  8
RACCORDO
100
AcDbLine
 62
250
  6
CONTINUOUS
 10
6.9360530956
 20
35.016183874
 11
-31.5390669952
 21
57.2312360079
  0
LINE
  5
466
100
AcDbEntity
  8
RACCORDO
100
AcDbLine
 62
250
  6
CONTINUOUS
 10
7.2772676508
 20
35.6211833343
 11
-31.19785244
 21
57.8362354683
  0
LINE
  5
467
100
AcDbEntity
  8
RACCORDO
100
AcDbLine
 62
7
  6
CONTINUOUS
 10
8.8268163055
 20
36.5158674723
 11
-29.7528749429
 21
58.791297682
  0
LWPOLYLINE
  5
468
100
AcDbEntity
  8
RACCORDO
100
AcDbPolyline
 62
250
  6
CONTINUOUS
 90
6
 70
0
 10
4.6826404424
 20
-17.360637179
 10
4.6914801508
 20
-17.3422298896
 10
4.70170592
 20
-17.3252761795
 10
4.7132815034
 20
-17.3098485218
 10
4.7261672434
 20
-17.2960058237
 10
4.7326784038
 20
-17.2903910177
  0
LINE
  5
469
100
AcDbEntity
  8
RACCORDO
100
AcDbLine
 62
250
  6
CONTINUOUS
 10
3.5090544431
 20
-3.6905845891
 11
3.7668125854
 21
-3.4143250407
  0
LWPOLYLINE
  5
46A
100
AcDbEntity
  8
RACCORDO
100
AcDbPolyline
 62
250
  6
CONTINUOUS
 90
4
 70
0
 10
3.7608108095
 20
-3.7193699061
 10
3.7548829625
 20
-3.724577236
 10
3.7397591331
 20
-3.7351469473
 10
3.7239006781
 20
-3.7436619788
  0
LINE
  5
46B
100
AcDbEntity
  8
RACCORDO
100
AcDbLine
 62
250
  6
CONTINUOUS
 10
2.0453289079
 20
-2.3523382981
 11
2.5477354551
 21
-1.9658701103
  0
LINE
  5
46C
100
AcDbEntity
  8
RACCORDO
100
AcDbLine
 62
250
  6
CONTINUOUS
 10
2.3395425276
 20
-3.0153230665
 11
2.900766532
 21
-2.5836104919
  0
LWPOLYLINE
  5
46D
100
AcDbEntity
  8
RACCORDO
100
AcDbPolyline
 62
7
  6
CONTINUOUS
 90
7
 70
0
 10
2.8230068764
 20
-2.1716650379
 10
2.8321250157
 20
-2.166404921
 10
2.8394769141
 20
-2.1622113949
 10
2.8448642216
 20
-2.1590860496
 10
2.8482531884
 20
-2.1570870626
 10
2.8496788008
 20
-2.1563174208
 10
2.8497247731
 20
-2.1563103339
  0
LWPOLYLINE
  5
46E
100
AcDbEntity
  8
RACCORDO
100
AcDbPolyline
 62
7
  6
CONTINUOUS
 90
3
 70
0
 10
2.7726511714
 20
-2.200798879
 10
2.7870991881
 20
-2.1925487179
 10
2.8230068764
 20
-2.1716650379
  0
LINE
  5
46F
100
AcDbEntity
  8
RACCORDO
100
AcDbLine
 62
7
  6
CONTINUOUS
 10
2.7655096639
 20
-2.2047729085
 11
2.6294823769
 21
-2.2777262271
  0
LWPOLYLINE
  5
470
100
AcDbEntity
  8
RACCORDO
100
AcDbPolyline
 62
250
  6
CONTINUOUS
 90
12
 70
0
 10
3.7239006781
 20
-3.7436619788
 10
3.7073531455
 20
-3.7501025373
 10
3.6901384267
 20
-3.7544522203
 10
3.6723893541
 20
-3.7566825392
 10
3.6541162394
 20
-3.7567740143
 10
3.6351111614
 20
-3.7546497009
 10
3.6152895955
 20
-3.750195531
 10
3.5948212379
 20
-3.7433320758
 10
3.5738603417
 20
-3.733986119
 10
3.5525241951
 20
-3.7221069611
 10
3.5308854208
 20
-3.7076502564
 10
3.5090571166
 20
-3.6905817238
  0
LWPOLYLINE
  5
471
100
AcDbEntity
  8
RACCORDO
100
AcDbPolyline
 62
250
  6
CONTINUOUS
 90
7
 70
0
 10
1.9142232041
 20
-2.4058639905
 10
1.9380486411
 20
-2.3986848241
 10
1.9611709736
 20
-2.3907770782
 10
1.9835234547
 20
-2.3821636515
 10
2.0050415694
 20
-2.3728694784
 10
2.0256632206
 20
-2.3629214568
 10
2.0453289079
 20
-2.3523483698
  0
LINE
  5
472
100
AcDbEntity
  8
RACCORDO
100
AcDbLine
 62
250
  6
CONTINUOUS
 10
8.452077078
 20
-4.5231030271
 11
8.8915918007
 21
-4.2513005298
  0
LINE
  5
473
100
AcDbEntity
  8
RACCORDO
100
AcDbLine
 62
7
  6
CONTINUOUS
 10
8.0794335725
 20
-4.0997552295
 11
8.079836416
 21
-4.0995383954
  0
LINE
  5
474
100
AcDbEntity
  8
RACCORDO
100
AcDbLine
 62
250
  6
CONTINUOUS
 10
7.6928883964
 20
-4.9313701318
 11
8.452077078
 21
-4.5231030271
  0
LWPOLYLINE
  5
475
100
AcDbEntity
  8
RACCORDO
100
AcDbPolyline
 62
7
  6
CONTINUOUS
 90
13
 70
0
 10
8.079461853
 20
-4.0997445506
 10
8.1200082682
 20
-4.080704965
 10
8.170576511
 20
-4.0638933279
 10
8.2250353258
 20
-4.0528266765
 10
8.2833107041
 20
-4.0476612022
 10
8.3451371703
 20
-4.0485261851
 10
8.4100854601
 20
-4.0554904823
 10
8.4777945645
 20
-4.0685874921
 10
8.5475506016
 20
-4.0876910131
 10
8.6183740513
 20
-4.112453054
 10
8.6896063396
 20
-4.1424745772
 10
8.7608234914
 20
-4.1773690129
 10
8.8191314776
 20
-4.2094628279
  0
LINE
  5
476
100
AcDbEntity
  8
RACCORDO
100
AcDbLine
 62
7
  6
CONTINUOUS
 10
-36.8599902169
 20
45.750011687
 11
-37.2445002783
 21
45.7533344796
  0
LINE
  5
477
100
AcDbEntity
  8
DRAFT
100
AcDbLine
 62
7
  6
CONTINUOUS
 10
9.2433719165
 20
-7.505129421
 11
9.3225383591
 21
-7.451422319
  0
LINE
  5
478
100
AcDbEntity
  8
DRAFT
100
AcDbLine
 62
7
  6
CONTINUOUS
 10
11.7754789496
 20
-6.5237761348
 11
10.1922079326
 21
-7.437936977
  0
LINE
  5
479
100
AcDbEntity
  8
DRAFT
100
AcDbLine
 62
7
  6
CONTINUOUS
 10
11.7754789496
 20
-7.2994991939
 11
11.5595783564
 21
-7.4241574906
  0
LINE
  5
47A
100
AcDbEntity
  8
RACCORDO
100
AcDbLine
 62
250
  6
CONTINUOUS
 10
12.5006561708
 20
-4.1907307472
 11
12.5738361202
 21
-4.14990386
  0
LINE
  5
47B
100
AcDbEntity
  8
RACCORDO
100
AcDbLine
 62
7
  6
CONTINUOUS
 10
12.5006561708
 20
-4.2934322987
 11
12.5103784652
 21
-4.2880082581
  0
LINE
  5
47C
100
AcDbEntity
  8
RACCORDO
100
AcDbLine
 62
250
  6
CONTINUOUS
 10
11.6514249224
 20
-4.7869850051
 11
12.5006561708
 21
-4.3132012887
  0
LINE
  5
47D
100
AcDbEntity
  8
RACCORDO
100
AcDbLine
 62
7
  6
CONTINUOUS
 10
11.5902578483
 20
-4.9238114945
 11
12.4371985158
 21
-4.4513056868
  0
LINE
  5
47E
100
AcDbEntity
  8
RACCORDO
100
AcDbLine
 62
7
  6
CONTINUOUS
 10
11.5902582655
 20
-4.9238112617
 11
11.5877844213
 21
-4.925142851
  0
LINE
  5
47F
100
AcDbEntity
  8
RACCORDO
100
AcDbLine
 62
250
  6
CONTINUOUS
 10
11.0242874656
 20
-5.1124366524
 11
11.6514249224
 21
-4.7869850051
  0
LINE
  5
480
100
AcDbEntity
  8
RACCORDO
100
AcDbLine
 62
7
  6
CONTINUOUS
 10
10.9578732204
 20
-5.2520339286
 11
11.5877843782
 21
-4.925142875
  0
LINE
  5
481
100
AcDbEntity
  8
0
100
AcDbLine
 62
250
  6
CONTINUOUS
 10
1.6694068515
 20
-11.3503426475
 11
-0.9523333328
 21
-12.7095992504
  0
LINE
  5
482
100
AcDbEntity
  8
0
100
AcDbLine
 62
7
  6
CONTINUOUS
 10
-1.0663739532
 20
-12.9440768432
 11
1.5592909641
 21
-11.5827854395
  0
LWPOLYLINE
  5
483
100
AcDbEntity
  8
0
100
AcDbPolyline
 62
250
  6
CONTINUOUS
 90
16
 70
0
 10
-0.9523333328
 20
-12.7095992504
 10
-0.9915603018
 20
-12.7289716169
 10
-1.0340372662
 20
-12.7459055838
 10
-1.0793114856
 20
-12.760220695
 10
-1.1269058756
 20
-12.7717655453
 10
-1.1763081148
 20
-12.7804153318
 10
-1.2269743108
 20
-12.7860764763
 10
-1.278352584
 20
-12.7886915128
 10
-1.3299065386
 20
-12.7882372758
 10
-1.3811037607
 20
-12.7847201662
 10
-1.4314687984
 20
-12.7781667265
 10
-1.4803934129
 20
-12.7686498676
 10
-1.5271799601
 20
-12.7563242561
 10
-1.5713037341
 20
-12.7413736413
 10
-1.6123953418
 20
-12.7239709966
 10
-1.6500640112
 20
-12.7043255116
  0
LINE
  5
484
100
AcDbEntity
  8
RACCORDO
100
AcDbLine
 62
250
  6
CONTINUOUS
 10
7.6928883964
 20
-11.8202455972
 11
9.211245567
 21
-10.9435651448
  0
LINE
  5
485
100
AcDbEntity
  8
RACCORDO
100
AcDbLine
 62
7
  6
CONTINUOUS
 10
-36.8599902169
 20
48.9971861946
 11
-37.2445002783
 21
48.958579123
  0
LINE
  5
486
100
AcDbEntity
  8
DRAFT
100
AcDbLine
 62
7
  6
CONTINUOUS
 10
11.7754789496
 20
-12.1939694379
 11
11.6694129324
 21
-12.259562254
  0
LINE
  5
487
100
AcDbEntity
  8
RACCORDO
100
AcDbLine
 62
250
  6
CONTINUOUS
 10
9.0532368763
 20
-14.0751164243
 11
9.3225383591
 21
-13.9085763477
  0
LINE
  5
488
100
AcDbEntity
  8
RACCORDO
100
AcDbLine
 62
7
  6
CONTINUOUS
 10
9.3060358093
 20
-14.0982410847
 11
9.3059296049
 21
-14.0983067082
  0
LINE
  5
489
100
AcDbEntity
  8
RACCORDO
100
AcDbLine
 62
250
  6
CONTINUOUS
 10
8.9654867501
 20
-14.0244506012
 11
9.3225383591
 21
-13.8182941606
  0
LINE
  5
48A
100
AcDbEntity
  8
DRAFT
100
AcDbLine
 62
7
  6
CONTINUOUS
 10
11.7966403047
 20
-13.7373197413
 11
10.9976614903
 21
-14.1986416792
  0
LINE
  5
48B
100
AcDbEntity
  8
RACCORDO
100
AcDbLine
 62
7
  6
CONTINUOUS
 10
10.9976614903
 20
-14.1986416792
 11
10.2384728087
 21
-14.6369862556
  0
LWPOLYLINE
  5
48C
100
AcDbEntity
  8
RACCORDO
100
AcDbPolyline
 62
250
  6
CONTINUOUS
 90
12
 70
0
 10
9.3059296049
 20
-14.0983067082
 10
9.2935304203
 20
-14.1052495511
 10
9.2737757787
 20
-14.1136879075
 10
9.2527987488
 20
-14.1196617064
 10
9.230697538
 20
-14.1231291591
 10
9.2074851188
 20
-14.124055449
 10
9.1831857825
 20
-14.1223752292
 10
9.1580068548
 20
-14.1180419421
 10
9.1322512334
 20
-14.1110892885
 10
9.1061286669
 20
-14.1015843677
 10
9.0797386836
 20
-14.0895699063
 10
9.0532370496
 20
-14.0751163171
  0
LINE
  5
48D
100
AcDbEntity
  8
RACCORDO
100
AcDbLine
 62
250
  6
CONTINUOUS
 10
11.4469546986
 20
-14.4580579466
 11
10.8159857431
 21
-14.8100737458
  0
LINE
  5
48E
100
AcDbEntity
  8
RACCORDO
100
AcDbLine
 62
250
  6
CONTINUOUS
 10
11.6514249224
 20
-14.8296440324
 11
11.0242874656
 21
-15.1795222493
  0
LINE
  5
48F
100
AcDbEntity
  8
DRAFT
100
AcDbLine
 62
7
  6
CONTINUOUS
 10
11.6694129324
 20
-12.259562254
 11
11.5595783564
 21
-12.3186277346
  0
LWPOLYLINE
  5
490
100
AcDbEntity
  8
RACCORDO
100
AcDbPolyline
 62
250
  6
CONTINUOUS
 90
14
 70
0
 10
4.318600251
 20
-19.6714261845
 10
4.3425468033
 20
-19.6586073999
 10
4.3898519256
 20
-19.6279563361
 10
4.4338655649
 20
-19.5919034072
 10
4.4744915009
 20
-19.5505033772
 10
4.511557845
 20
-19.5038647746
 10
4.5448525865
 20
-19.4521820601
 10
4.574215327
 20
-19.3956371061
 10
4.5994961102
 20
-19.3344220286
 10
4.6205453122
 20
-19.2687920932
 10
4.6372370188
 20
-19.1990687797
 10
4.649477631
 20
-19.1255653215
 10
4.6571931386
 20
-19.0485722504
 10
4.6603264349
 20
-18.9684171278
  0
LINE
  5
491
100
AcDbEntity
  8
RACCORDO
100
AcDbLine
 62
250
  6
CONTINUOUS
 10
12.3614454978
 20
-13.9832014167
 11
11.4466961302
 21
-14.4579086525
  0
LINE
  5
492
100
AcDbEntity
  8
RACCORDO
100
AcDbLine
 62
250
  6
CONTINUOUS
 10
12.5738361202
 20
-14.3509607061
 11
11.6514249224
 21
-14.8296440324
  0
LWPOLYLINE
  5
493
100
AcDbEntity
  8
RACCORDO
100
AcDbPolyline
 62
250
  6
CONTINUOUS
 90
19
 70
0
 10
10.8159857431
 20
-14.8100737458
 10
10.8028846381
 20
-14.8167377857
 10
10.7892004777
 20
-14.822659976
 10
10.7749332616
 20
-14.8278403169
 10
10.7600020464
 20
-14.8322909621
 10
10.7444877757
 20
-14.8359997577
 10
10.7286332805
 20
-14.8389302426
 10
10.7124272601
 20
-14.8410830642
 10
10.6958810151
 20
-14.842457575
 10
10.6792712791
 20
-14.8430153717
 10
10.6626141542
 20
-14.8427595948
 10
10.6458935381
 20
-14.8416871039
 10
10.6293378575
 20
-14.8397500741
 10
10.6128662008
 20
-14.8369270946
 10
10.5965594796
 20
-14.8332395763
 10
10.5808888543
 20
-14.8287039275
 10
10.5660113785
 20
-14.8233256176
 10
10.5517699987
 20
-14.8170991772
 10
10.5381647149
 20
-14.8100246062
  0
LWPOLYLINE
  5
494
100
AcDbEntity
  8
RACCORDO
100
AcDbPolyline
 62
250
  6
CONTINUOUS
 90
19
 70
0
 10
11.0242874656
 20
-15.1795222493
 10
10.9920094604
 20
-15.1957204558
 10
10.9577054544
 20
-15.2101946307
 10
10.9216562645
 20
-15.2228719744
 10
10.8842247178
 20
-15.2336763963
 10
10.8456272651
 20
-15.2425915533
 10
10.8059063081
 20
-15.2496230689
 10
10.7653038874
 20
-15.2547259261
 10
10.7241279603
 20
-15.2578591505
 10
10.6825013055
 20
-15.2589975629
 10
10.6407813901
 20
-15.2581134155
 10
10.5991908749
 20
-15.2551929977
 10
10.5576677518
 20
-15.250176561
 10
10.5163788776
 20
-15.2429909429
 10
10.4758422967
 20
-15.2336296074
 10
10.4365452434
 20
-15.2221254413
 10
10.3988807065
 20
-15.2085287039
 10
10.3631597752
 20
-15.1928855807
 10
10.329734895
 20
-15.1752731493
  0
LINE
  5
495
100
AcDbEntity
  8
RACCORDO
100
AcDbLine
 62
250
  6
CONTINUOUS
 10
4.6603264349
 20
-17.4977758863
 11
4.8951429766
 21
-17.3804941005
  0
LINE
  5
496
100
AcDbEntity
  8
RACCORDO
100
AcDbLine
 62
250
  6
CONTINUOUS
 10
6.2098750896
 20
-18.1944774717
 11
4.6603264349
 21
-18.9684171278
  0
LWPOLYLINE
  5
497
100
AcDbEntity
  8
RACCORDO
100
AcDbPolyline
 62
250
  6
CONTINUOUS
 90
8
 70
0
 10
-32.4336498453
 20
55.4999338669
 10
-32.4530290523
 20
55.498811095
 10
-32.4733357085
 20
55.499617398
 10
-32.49464595
 20
55.5024641476
 10
-32.5167714449
 20
55.5074365654
 10
-32.5395921455
 20
55.5145993443
 10
-32.5630017115
 20
55.5240029178
 10
-32.5869104531
 20
55.5356930614
  0
LWPOLYLINE
  5
498
100
AcDbEntity
  8
RACCORDO
100
AcDbPolyline
 62
250
  6
CONTINUOUS
 90
14
 70
0
 10
10.6825606868
 20
-20.2433107706
 10
10.706332653
 20
-20.2305916358
 10
10.7536539035
 20
-20.1999567546
 10
10.797690141
 20
-20.1639125042
 10
10.8383443187
 20
-20.1225102167
 10
10.8754466252
 20
-20.0758498791
 10
10.9087777057
 20
-20.0241282221
 10
10.9381655095
 20
-19.9675447648
 10
10.9634589994
 20
-19.9063012891
 10
10.9845137933
 20
-19.8406496025
 10
11.0012059545
 20
-19.7709139242
 10
11.0134440262
 20
-19.6974097488
 10
11.0211561571
 20
-19.6204292415
 10
11.0242874656
 20
-19.540301416
  0
LINE
  5
499
100
AcDbEntity
  8
RACCORDO
100
AcDbLine
 62
7
  6
CONTINUOUS
 10
5.872922009
 20
-18.8951028894
 11
4.318105842
 21
-19.6716734643
  0
LINE
  5
49A
100
AcDbEntity
  8
RACCORDO
100
AcDbLine
 62
250
  6
CONTINUOUS
 10
11.0242874656
 20
-19.540301416
 11
12.5738361202
 21
-18.7663617599
  0
LWPOLYLINE
  5
49B
100
AcDbEntity
  8
RACCORDO
100
AcDbPolyline
 62
250
  6
CONTINUOUS
 90
3
 70
0
 10
-32.3968914108
 20
55.5078795344
 10
-32.41494013
 20
55.5029518239
 10
-32.4336498453
 20
55.4999338669
  0
LWPOLYLINE
  5
49C
100
AcDbEntity
  8
RACCORDO
100
AcDbPolyline
 62
7
  6
CONTINUOUS
 90
11
 70
0
 10
-37.1697392327
 20
52.2015905899
 10
-37.1697044053
 20
52.2015992836
 10
-37.1677236188
 20
52.2017817193
 10
-37.1630544551
 20
52.2017724301
 10
-37.1554230037
 20
52.2010728447
 10
-37.1446810466
 20
52.1991664433
 10
-37.1311968508
 20
52.1956609525
 10
-37.1156472294
 20
52.1904014223
 10
-37.0984577128
 20
52.1833188026
 10
-37.0797945957
 20
52.1743052049
 10
-37.062686752
 20
52.1649361044
  0
LINE
  5
49D
100
AcDbEntity
  8
RACCORDO
100
AcDbLine
 62
7
  6
CONTINUOUS
 10
10.6820667163
 20
-20.2435578306
 11
12.2368830397
 21
-19.4669871775
  0
ARC
  5
49E
100
AcDbEntity
  8
0
100
AcDbCircle
 62
7
  6
CONTINUOUS
 10
-1.2965106206
 20
-12.500188215
 40
0.5
100
AcDbArc
 50
239.9984015652
 51
297.4005343846
  0
ARC
  5
49F
100
AcDbEntity
  8
0
100
AcDbCircle
 62
7
  6
CONTINUOUS
 10
-32.0746273657
 20
5.2707106532
 40
0.5
100
AcDbArc
 50
179.9990241278
 51
239.9984015651
  0
ARC
  5
4A0
100
AcDbEntity
  8
0
100
AcDbCircle
 62
7
  6
CONTINUOUS
 10
-32.0746273657
 20
47.4224829354
 40
0.5
100
AcDbArc
 50
122.5979811391
 51
179.9999237102
  0
ELLIPSE
  5
4A1
100
AcDbEntity
  8
RACCORDO
100
AcDbEllipse
 62
7
  6
CONTINUOUS
 10
12.2883948326
 20
-4.1907934638
 30
0.0
 11
-0.1501216596
 21
0.2597637927
 31
0.0
 40
0.5776832714
 41
3.1328477938
 42
3.9267893995
  0
ELLIPSE
  5
4A2
100
AcDbEntity
  8
RACCORDO
100
AcDbEllipse
 62
7
  6
CONTINUOUS
 10
12.2883948326
 20
15.6165810936
 30
0.0
 11
-0.1502128465
 21
0.259922218
 31
0.0
 40
0.5769799893
 41
3.9261815504
 42
5.4975869574
  0
ELLIPSE
  5
4A3
100
AcDbEntity
  8
RACCORDO
100
AcDbEllipse
 62
7
  6
CONTINUOUS
 10
-36.1155433287
 20
58.1369836858
 30
0.0
 11
-0.7509501903
 21
1.300600393
 31
0.0
 40
0.5766289216
 41
-0.7848373798
 42
0.0348624404
  0
ELLIPSE
  5
4A4
100
AcDbEntity
  8
RACCORDO
100
AcDbEllipse
 62
7
  6
CONTINUOUS
 10
-29.751582298
 20
57.5650993976
 30
0.0
 11
-0.7509501903
 21
1.300600393
 31
0.0
 40
0.5766289216
 41
-0.7848373798
 42
0.0348624404
  0
ELLIPSE
  5
4A5
100
AcDbEntity
  8
RACCORDO
100
AcDbEllipse
 62
7
  6
CONTINUOUS
 10
5.1485683984
 20
-17.5801997199
 30
0.0
 11
-0.7509501903
 21
1.300600393
 31
0.0
 40
0.5766289216
 41
-3.176455094
 42
-2.3568516818
  0
ELLIPSE
  5
4A6
100
AcDbEntity
  8
RACCORDO
100
AcDbEllipse
 62
7
  6
CONTINUOUS
 10
11.5125294291
 20
-18.152084008
 30
0.0
 11
-0.7509501903
 21
1.300600393
 31
0.0
 40
0.5766289216
 41
-3.176455094
 42
-2.3568516818
  0
ELLIPSE
  5
4A7
100
AcDbEntity
  8
RACCORDO
100
AcDbEllipse
 62
7
  6
CONTINUOUS
 10
12.361574782
 20
-14.2282544582
 30
0.0
 11
-0.1502128465
 21
0.259922218
 31
0.0
 40
0.5769799893
 41
-2.3570037568
 42
-0.7855983497
  0
ELLIPSE
  5
4A8
100
AcDbEntity
  8
RACCORDO
100
AcDbEllipse
 62
7
  6
CONTINUOUS
 10
12.361574782
 20
-4.0274960351
 30
0.0
 11
-0.1501216596
 21
0.2597637927
 31
0.0
 40
0.5776832714
 41
-3.1503375121
 42
-2.3563959077
  0
ELLIPSE
  5
4A9
100
AcDbEntity
  8
RACCORDO
100
AcDbEllipse
 62
7
  6
CONTINUOUS
 10
12.361574782
 20
15.5320871309
 30
0.0
 11
-0.1502128465
 21
0.259922218
 31
0.0
 40
0.5769799893
 41
-2.3570037568
 42
-1.0558016139
  0
ELLIPSE
  5
4AA
100
AcDbEntity
  8
RACCORDO
100
AcDbEllipse
 62
7
  6
CONTINUOUS
 10
12.361574782
 20
25.732845554
 30
0.0
 11
-0.1501216596
 21
0.2597637927
 31
0.0
 40
0.5776832714
 41
-3.1503375121
 42
-2.3563959077
  0
ELLIPSE
  5
4AB
100
AcDbEntity
  8
RACCORDO
100
AcDbEllipse
 62
7
  6
CONTINUOUS
 10
11.5125294291
 20
26.391485956
 30
0.0
 11
-0.7500363729
 21
1.2990171051
 31
0.0
 40
0.5780352736
 41
-2.355633942
 42
-0.7860555904
  0
ELLIPSE
  5
4AC
100
AcDbEntity
  8
RACCORDO
100
AcDbEllipse
 62
7
  6
CONTINUOUS
 10
8.8255236606
 20
35.2911619018
 30
0.0
 11
-0.7500363729
 21
1.2990171051
 31
0.0
 40
0.5780352736
 41
-2.355633942
 42
-0.7860555904
  0
ELLIPSE
  5
4AD
100
AcDbEntity
  8
RACCORDO
100
AcDbEllipse
 62
7
  6
CONTINUOUS
 10
2.9013023085
 20
-2.1693870191
 30
0.0
 11
-0.2459720838
 21
0.4393612006
 31
0.0
 40
0.5780728524
 41
0.8014196361
 42
2.3707006153
  0
ELLIPSE
  5
4AE
100
AcDbEntity
  8
RACCORDO
100
AcDbEllipse
 62
7
  6
CONTINUOUS
 10
2.9013023085
 20
19.0588401775
 30
0.0
 11
-0.2459720838
 21
0.4393612006
 31
0.0
 40
0.5780728524
 41
0.8014196361
 42
2.3707006153
  0
ELLIPSE
  5
4AF
100
AcDbEntity
  8
RACCORDO
100
AcDbEllipse
 62
7
  6
CONTINUOUS
 10
-37.2841079475
 20
16.1351338279
 30
0.0
 11
0.4996643472
 21
-0.0348892467
 31
0.0
 40
0.5250257892
 41
-2.3195507816
 42
-1.4548541979
  0
ELLIPSE
  5
4B0
100
AcDbEntity
  8
RACCORDO
100
AcDbEllipse
 62
7
  6
CONTINUOUS
 10
9.711245567
 20
-10.9993943013
 30
0.0
 11
0.4996643472
 21
-0.0348892467
 31
0.0
 40
0.5250257892
 41
-3.1049489243
 42
-2.3195507816
  0
ELLIPSE
  5
4B1
100
AcDbEntity
  8
RACCORDO
100
AcDbEllipse
 62
7
  6
CONTINUOUS
 10
-37.2841079475
 20
46.0179459585
 30
0.0
 11
0.4996643472
 21
-0.0348892467
 31
0.0
 40
0.5250257892
 41
-2.3195507816
 42
-1.4548541979
  0
ELLIPSE
  5
4B2
100
AcDbEntity
  8
RACCORDO
100
AcDbEllipse
 62
7
  6
CONTINUOUS
 10
9.711245567
 20
18.8834178294
 30
0.0
 11
0.4996643472
 21
-0.0348892467
 31
0.0
 40
0.5250257892
 41
-3.1049489243
 42
-2.3195507816
  0
ELLIPSE
  5
4B3
100
AcDbEntity
  8
RACCORDO
100
AcDbEllipse
 62
7
  6
CONTINUOUS
 10
10.2405992488
 20
28.7598184043
 30
0.0
 11
-0.2500121243
 21
0.4330057017
 31
0.0
 40
0.5780352736
 41
0.7859587116
 42
2.3555370632
  0
ELLIPSE
  5
4B4
100
AcDbEntity
  8
RACCORDO
100
AcDbEllipse
 62
7
  6
CONTINUOUS
 10
-35.3765850904
 20
13.785736165
 30
0.0
 11
-0.2500120911
 21
0.4330057209
 31
0.0
 40
0.5775075436
 41
0.7855021057
 42
1.5138880804
  0
ELLIPSE
  5
4B5
100
AcDbEntity
  8
RACCORDO
100
AcDbEllipse
 62
7
  6
CONTINUOUS
 10
-35.3765850904
 20
43.6685482956
 30
0.0
 11
-0.2500120911
 21
0.4330057209
 31
0.0
 40
0.5775075436
 41
0.7855021057
 42
1.5140027291
  0
ELLIPSE
  5
4B6
100
AcDbEntity
  8
RACCORDO
100
AcDbEllipse
 62
7
  6
CONTINUOUS
 10
10.2905547091
 20
-4.8350989801
 30
0.0
 11
0.4242640687
 21
-0.0
 31
0.0
 40
0.5773316694
 41
-3.1415926536
 42
-2.3562428668
  0
ELLIPSE
  5
4B7
100
AcDbEntity
  8
RACCORDO
100
AcDbEllipse
 62
7
  6
CONTINUOUS
 10
9.711245567
 20
-7.7477995728
 30
0.0
 11
0.4993254554
 21
0.041523166
 31
0.0
 40
0.6252710952
 41
3.0896428395
 42
3.8750409822
  0
ELLIPSE
  5
4B8
100
AcDbEntity
  8
RACCORDO
100
AcDbEllipse
 62
7
  6
CONTINUOUS
 10
9.711245567
 20
22.1350125579
 30
0.0
 11
0.4993254554
 21
0.041523166
 31
0.0
 40
0.6252710952
 41
3.0896428395
 42
3.8750409822
  0
ELLIPSE
  5
4B9
100
AcDbEntity
  8
RACCORDO
100
AcDbEllipse
 62
7
  6
CONTINUOUS
 10
10.2905547091
 20
25.0477131505
 30
0.0
 11
0.4242640687
 21
0.0
 31
0.0
 40
0.5773316694
 41
-3.1415926536
 42
-2.3562428668
  0
ELLIPSE
  5
4BA
100
AcDbEntity
  8
0
100
AcDbEllipse
 62
7
  6
CONTINUOUS
 10
1.3157322654
 20
-11.1458555422
 30
0.0
 11
-0.2501834304
 21
0.4333025529
 31
0.0
 40
0.5769361983
 41
-3.16775339
 42
-2.3565853618
  0
ELLIPSE
  5
4BB
100
AcDbEntity
  8
0
100
AcDbEllipse
 62
7
  6
CONTINUOUS
 10
1.3157322654
 20
31.1598529318
 30
0.0
 11
-0.2500121049
 21
0.4330057129
 31
0.0
 40
0.5777274115
 41
-2.3559002616
 42
-0.7857891675
  0
ELLIPSE
  5
4BC
100
AcDbEntity
  8
RACCORDO
100
AcDbEllipse
 62
7
  6
CONTINUOUS
 10
-117.943797282
 20
-26.4867482124
 30
0.0
 11
109.6194570933
 21
66.7228836756
 31
0.0
 40
0.0168898444
 41
-0.6209683925
 42
-0.6154409168
  0
ELLIPSE
  5
4BD
100
AcDbEntity
  8
RACCORDO
100
AcDbEllipse
 62
7
  6
CONTINUOUS
 10
10.2422396456
 20
-14.8797897329
 30
0.0
 11
0.1539984711
 21
0.25748481
 31
0.0
 40
0.5873179545
 41
0.8119364019
 42
1.0284165154
  0
ELLIPSE
  5
4BE
100
AcDbEntity
  8
RACCORDO
100
AcDbEllipse
 62
7
  6
CONTINUOUS
 10
10.2905547091
 20
-14.907686245
 30
0.0
 11
0.4242640687
 21
0.0
 31
0.0
 40
0.5773316694
 41
1.8047297328
 42
3.1415926536
  0
ELLIPSE
  5
4BF
100
AcDbEntity
  8
RACCORDO
100
AcDbEllipse
 62
7
  6
CONTINUOUS
 10
10.2422396456
 20
15.0030223978
 30
0.0
 11
0.1539984711
 21
0.25748481
 31
0.0
 40
0.5873179545
 41
0.8119364019
 42
1.0284165154
  0
ELLIPSE
  5
4C0
100
AcDbEntity
  8
RACCORDO
100
AcDbEllipse
 62
7
  6
CONTINUOUS
 10
10.2905547091
 20
14.9751258856
 30
0.0
 11
0.4242640687
 21
-0.0
 31
0.0
 40
0.5773316694
 41
1.8047297328
 42
3.1415926536
  0
ELLIPSE
  5
4C1
100
AcDbEntity
  8
RACCORDO
100
AcDbEllipse
 62
7
  6
CONTINUOUS
 10
9.6225383591
 20
-7.8741773587
 30
0.0
 11
0.2995952732
 21
0.0249138996
 31
0.0
 40
0.6252710952
 41
3.0896427239
 42
3.8750409822
  0
ELLIPSE
  5
4C2
100
AcDbEntity
  8
RACCORDO
100
AcDbEllipse
 62
7
  6
CONTINUOUS
 10
9.6225383591
 20
22.0086347719
 30
0.0
 11
0.2995952732
 21
0.0249138996
 31
0.0
 40
0.6252710952
 41
3.0896427239
 42
3.8750409822
  0
ELLIPSE
  5
4C3
100
AcDbEntity
  8
RACCORDO
100
AcDbEllipse
 62
7
  6
CONTINUOUS
 10
-37.4782434521
 20
49.2040358783
 30
0.0
 11
0.2995952732
 21
0.0249138996
 31
0.0
 40
0.6252710952
 41
-2.408144325
 42
-0.8548012907
  0
ELLIPSE
  5
4C4
100
AcDbEntity
  8
RACCORDO
100
AcDbEllipse
 62
7
  6
CONTINUOUS
 10
-37.4782434521
 20
19.3212237477
 30
0.0
 11
0.2995952732
 21
0.0249138996
 31
0.0
 40
0.6252710952
 41
-2.408144325
 42
-0.8548012907
  0
ELLIPSE
  5
4C5
100
AcDbEntity
  8
0
100
AcDbEllipse
 62
7
  6
CONTINUOUS
 10
-29.5957014272
 20
49.0077273346
 30
0.0
 11
-0.2501834304
 21
0.4333025529
 31
0.0
 40
0.5769361983
 41
-0.7851038024
 42
0.0261607363
  0
ELLIPSE
  5
4C6
100
AcDbEntity
  8
RACCORDO
100
AcDbEllipse
 62
7
  6
CONTINUOUS
 10
2.5497077238
 20
-2.084222764
 30
0.0
 11
0.2999166093
 21
-0.01294434
 31
0.0
 40
0.5464172455
 41
-0.744365984
 42
-0.709459399
  0
ELLIPSE
  5
4C7
100
AcDbEntity
  8
RACCORDO
100
AcDbEllipse
 62
7
  6
CONTINUOUS
 10
2.5497077238
 20
19.1440044326
 30
0.0
 11
0.2999166093
 21
-0.01294434
 31
0.0
 40
0.5464172455
 41
-0.744365984
 42
-0.709459399
  0
ELLIPSE
  5
4C8
100
AcDbEntity
  8
RACCORDO
100
AcDbEllipse
 62
7
  6
CONTINUOUS
 10
-37.2841079475
 20
19.3867285564
 30
0.0
 11
0.4993254554
 21
0.041523166
 31
0.0
 40
0.6252710952
 41
-2.408144325
 42
-1.5434477413
  0
ELLIPSE
  5
4C9
100
AcDbEntity
  8
RACCORDO
100
AcDbEllipse
 62
7
  6
CONTINUOUS
 10
-37.2841079475
 20
49.269540687
 30
0.0
 11
0.4993254554
 21
0.041523166
 31
0.0
 40
0.6252710952
 41
-2.408144325
 42
-1.5434477413
  0
ENDSEC
  0
SECTION
  2
OBJECTS
  0
DICTIONARY
  5
C
100
AcDbDictionary
280
0
281
1
  3
ACAD_GROUP
350
D
  3
ACAD_MLINESTYLE
350
17
  3
ACAD_LAYOUT
350
1A
  3
ACAD_PLOTSETTINGS
350
19
  3
ACAD_PLOTSTYLENAME
350
E
  0
DICTIONARY
  5
D
102
{ACAD_REACTORS
330
C
102
}
100
AcDbDictionary
280
0
281
1
  0
ACDBDICTIONARYWDFLT
  5
E
102
{ACAD_REACTORS
330
C
102
}
100
AcDbDictionary
281
1
  3
Normal
350
F
100
AcDbDictionaryWithDefault
340
F
  0
DICTIONARY
  5
17
102
{ACAD_REACTORS
330
C
102
}
100
AcDbDictionary
280
0
281
1
  3
Standard
350
18
  0
DICTIONARY
  5
19
102
{ACAD_REACTORS
330
C
102
}
100
AcDbDictionary
281
1
  0
DICTIONARY
  5
1A
102
{ACAD_REACTORS
330
C
102
}
100
AcDbDictionary
281
1
  3
Model
350
4CA
  3
Layout1
350
4CB
  0
ACDBPLACEHOLDER
  5
F
102
{ACAD_REACTORS
330
E
102
}
  0
MLINESTYLE
  5
18
102
{ACAD_REACTORS
330
17
102
}
100
AcDbMlineStyle
  2
STANDARD
 70
0
  3

 62
256
 51
90.0
 52
90.0
 71
2
 49
0.5
 62
256
  6
BYLAYER
 49
-0.5
 62
256
  6
BYLAYER
  0
LAYOUT
  5
4CA
102
{ACAD_REACTORS
330
1A
102
}
100
AcDbPlotSettings
  1

  2
none_device
  4
ISO_A4_(297.00_x_210.00_MM)
  6

 40
0.0
 41
0.0
 42
0.0
 43
0.0
 44
297.0
 45
210.0
 46
0.0
 47
0.0
 48
0.0
 49
0.0
140
0.0
141
0.0
142
1.0
143
1.0
 70
1024
 72
1
 73
0
 74
0
  7

 75
0
147
1.0
148
0.0
149
0.0
100
AcDbLayout
  1
Model
 70
0
 71
0
 10
0.0
 20
0.0
 11
297.0
 21
210.0
 12
0.0
 22
0.0
 32
0.0
 14
0.0
 24
0.0
 34
0.0
 15
0.0
 25
0.0
 35
0.0
146
0.0
 13
0.0
 23
0.0
 33
0.0
 16
1.0
 26
0.0
 36
0.0
 17
0.0
 27
1.0
 37
0.0
 76
0
330
213
345
0
346
0
  0
LAYOUT
  5
4CB
102
{ACAD_REACTORS
330
1A
102
}
100
AcDbPlotSettings
  1

  2
none_device
  4
ISO_A4_(297.00_x_210.00_MM)
  6

 40
0.0
 41
0.0
 42
0.0
 43
0.0
 44
297.0
 45
210.0
 46
0.0
 47
0.0
 48
0.0
 49
0.0
140
0.0
141
0.0
142
1.0
143
1.0
 70
0
 72
1
 73
0
 74
0
  7

 75
0
147
1.0
148
0.0
149
0.0
100
AcDbLayout
  1
Layout1
 70
0
 71
1
 10
0.0
 20
0.0
 11
297.0
 21
210.0
 12
0.0
 22
0.0
 32
0.0
 14
0.0
 24
0.0
 34
0.0
 15
0.0
 25
0.0
 35
0.0
146
0.0
 13
0.0
 23
0.0
 33
0.0
 16
1.0
 26
0.0
 36
0.0
 17
0.0
 27
1.0
 37
0.0
 76
0
330
214
345
0
346
0
  0
ENDSEC
  0
EOF
