  0
SECTION
  2
HEADER
  9
$ACADVER
  1
AC1024
  9
$DWGCODEPAGE
  3
ANSI_1252
  9
$EXTMAX
 10
297.0
 20
210.0
 30
0.0
  9
$EXTMIN
 10
0.0
 20
0.0
 30
0.0
  9
$LIMMIN
 10
0.0
 20
0.0
  9
$LIMMAX
 10
297.0
 20
210.0
  9
$VIEWCTR
 10
148.5
 20
105.0
  9
$VIEWSIZE
 40
210.0
  9
$CLAYER
  8
0
  9
$LTSCALE
 40
16.335
  9
$CELTYPE
  6
BYLAYER
  9
$DIMSCALE
 40
1.0
  9
$DIMASZ
 40
3.0
  9
$DIMEXO
 40
0.5
  9
$DIMDLI
 40
11.286
  9
$DIMEXE
 40
1.5
  9
$DIMCEN
 40
2.673
  9
$DIMLFAC
 40
1.0
  9
$DIMBLK
  1
_FILLED
  9
$DIMALT
 70
0
  9
$DIMALTF
 40
0.0393700787
  9
$DIMTXT
 40
3.0
  9
$DIMTOL
 70
1
  9
$DIMLIM
 70
0
  9
$DIMTFAC
 40
1.0
  9
$DIMTP
 40
0.01
  9
$DIMTM
 40
0.01
  9
$DIMGAP
 40
0.625
  9
$DIMDSEP
 70
44
  9
$AUNITS
 70
0
  9
$PDMODE
 70
3
  9
$PDSIZE
 40
3.0
  9
$HANDSEED
  5
5A1
  9
$TILEMODE
 70
1
  9
$MEASUREMENT
 70
1
  9
$INSUNITS
 70
4
  0
ENDSEC
  0
SECTION
  2
CLASSES
  0
CLASS
  1
ACDBDICTIONARYWDFLT
  2
AcDbDictionaryWithDefault
  3
AutoCAD 2000
 90
0
 91
1
280
0
281
0
  0
CLASS
  1
ACDBPLACEHOLDER
  2
AcDbPlaceHolder
  3
AutoCAD 2000
 90
0
 91
1
280
0
281
0
  0
CLASS
  1
LAYOUT
  2
AcDbLayout
  3
AutoCAD 2000
 90
0
 91
0
280
0
281
0
  0
ENDSEC
  0
SECTION
  2
TABLES
  0
TABLE
  2
VPORT
  5
8
100
AcDbSymbolTable
 70
2
  0
VPORT
  5
1F4
100
AcDbSymbolTableRecord
100
AcDbViewportTableRecord
  2
*ACTIVE
 70
0
 10
0.0
 20
0.0
 11
1.0
 21
1.0
 12
148.5
 22
105.0
 13
0.0
 23
0.0
 14
1.0
 24
1.0
 15
0.0
 25
0.0
 16
0.0
 26
0.0
 36
1.0
 17
0.0
 27
0.0
 37
0.0
 40
210.0
 41
1.4142857143
 42
50.0
 43
0.0
 44
0.0
 50
0.0
 51
0.0
 71
0
 72
100
 73
1
 74
1
 75
0
 76
0
 77
0
 78
0
  0
ENDTAB
  0
TABLE
  2
LTYPE
  5
5
100
AcDbSymbolTable
 70
6
  0
LTYPE
  5
14
100
AcDbSymbolTableRecord
100
AcDbLinetypeTableRecord
  2
BYBLOCK
 70
0
  3

 72
65
 73
0
 40
0.0
  0
LTYPE
  5
15
100
AcDbSymbolTableRecord
100
AcDbLinetypeTableRecord
  2
BYLAYER
 70
0
  3

 72
65
 73
0
 40
0.0
  0
LTYPE
  5
16
100
AcDbSymbolTableRecord
100
AcDbLinetypeTableRecord
  2
CONTINUOUS
 70
64
  3
Solid line
 72
65
 73
0
 40
0.0
  0
LTYPE
  5
1F5
100
AcDbSymbolTableRecord
100
AcDbLinetypeTableRecord
  2
CENTER
 70
64
  3
____ _ ____ _ ____ _ ____ _ ____ _ ____ _ ____
 72
65
 73
4
 40
0.6
 49
0.375
 74
0
 49
-0.075
 74
0
 49
0.075
 74
0
 49
-0.075
 74
0
  0
LTYPE
  5
1F6
100
AcDbSymbolTableRecord
100
AcDbLinetypeTableRecord
  2
HIDDEN
 70
64
  3
- - - - - - - - - - - - - - - - - - - -
 72
65
 73
2
 40
0.2
 49
0.1
 74
0
 49
-0.1
 74
0
  0
LTYPE
  5
1F7
100
AcDbSymbolTableRecord
100
AcDbLinetypeTableRecord
  2
PHANTOM
 70
64
  3
_____ _ _ _____ _ _ _____ _ _ _____
 72
65
 73
6
 40
0.8
 49
0.45
 74
0
 49
-0.05
 74
0
 49
0.1
 74
0
 49
-0.05
 74
0
 49
0.1
 74
0
 49
-0.05
 74
0
  0
LTYPE
  5
1F8
100
AcDbSymbolTableRecord
100
AcDbLinetypeTableRecord
  2
DOT
 70
64
  3
. . . . . . . . . . . . . . . . . . . .
 72
65
 73
2
 40
0.2
 49
0.1
 74
0
 49
-0.1
 74
0
  0
LTYPE
  5
1F9
100
AcDbSymbolTableRecord
100
AcDbLinetypeTableRecord
  2
DASHED
 70
64
  3
- - - - - - - - - - - - - - - - - - - -
 72
65
 73
2
 40
0.2
 49
0.1
 74
0
 49
-0.1
 74
0
  0
ENDTAB
  0
TABLE
  2
LAYER
  5
2
100
AcDbSymbolTable
 70
36
  0
LAYER
  5
10
100
AcDbSymbolTableRecord
100
AcDbLayerTableRecord
  2
0
 70
0
 62
7
  6
CONTINUOUS
370
-3
390
F
  0
LAYER
  5
1FA
100
AcDbSymbolTableRecord
100
AcDbLayerTableRecord
  2
DEFAULT_1
 70
0
 62
7
  6
CENTER
370
-3
390
F
  0
LAYER
  5
1FB
100
AcDbSymbolTableRecord
100
AcDbLayerTableRecord
  2
DEFAULT_2
 70
0
 62
7
  6
HIDDEN
370
-3
390
F
  0
LAYER
  5
1FC
100
AcDbSymbolTableRecord
100
AcDbLayerTableRecord
  2
DEFAULT_3
 70
0
 62
7
  6
PHANTOM
370
-3
390
F
  0
LAYER
  5
1FD
100
AcDbSymbolTableRecord
100
AcDbLayerTableRecord
  2
ASSI
 70
0
 62
7
  6
CONTINUOUS
370
-3
390
F
  0
LAYER
  5
1FE
100
AcDbSymbolTableRecord
100
AcDbLayerTableRecord
  2
COORDINATE
 70
0
 62
7
  6
CONTINUOUS
370
-3
390
F
  0
LAYER
  5
1FF
100
AcDbSymbolTableRecord
100
AcDbLayerTableRecord
  2
COPY_PUBLISH
 70
0
 62
7
  6
CONTINUOUS
370
-3
390
F
  0
LAYER
  5
200
100
AcDbSymbolTableRecord
100
AcDbLayerTableRecord
  2
COSMETICI
 70
0
 62
7
  6
CONTINUOUS
370
-3
390
F
  0
LAYER
  5
201
100
AcDbSymbolTableRecord
100
AcDbLayerTableRecord
  2
CURVE
 70
0
 62
7
  6
CONTINUOUS
370
-3
390
F
  0
LAYER
  5
202
100
AcDbSymbolTableRecord
100
AcDbLayerTableRecord
  2
DRAFT
 70
0
 62
7
  6
CONTINUOUS
370
-3
390
F
  0
LAYER
  5
203
100
AcDbSymbolTableRecord
100
AcDbLayerTableRecord
  2
IMPORT_IGES
 70
0
 62
7
  6
CONTINUOUS
370
-3
390
F
  0
LAYER
  5
204
100
AcDbSymbolTableRecord
100
AcDbLayerTableRecord
  2
INTF_11
 70
0
 62
7
  6
CONTINUOUS
370
-3
390
F
  0
LAYER
  5
205
100
AcDbSymbolTableRecord
100
AcDbLayerTableRecord
  2
INTF_2
 70
0
 62
7
  6
CONTINUOUS
370
-3
390
F
  0
LAYER
  5
206
100
AcDbSymbolTableRecord
100
AcDbLayerTableRecord
  2
INTF_8
 70
0
 62
7
  6
CONTINUOUS
370
-3
390
F
  0
LAYER
  5
207
100
AcDbSymbolTableRecord
100
AcDbLayerTableRecord
  2
INTF_9
 70
0
 62
7
  6
CONTINUOUS
370
-3
390
F
  0
LAYER
  5
208
100
AcDbSymbolTableRecord
100
AcDbLayerTableRecord
  2
LAY0001
 70
0
 62
7
  6
CONTINUOUS
370
-3
390
F
  0
LAYER
  5
209
100
AcDbSymbolTableRecord
100
AcDbLayerTableRecord
  2
NOTE
 70
0
 62
7
  6
CONTINUOUS
370
-3
390
F
  0
LAYER
  5
20A
100
AcDbSymbolTableRecord
100
AcDbLayerTableRecord
  2
PIANI
 70
0
 62
7
  6
CONTINUOUS
370
-3
390
F
  0
LAYER
  5
20B
100
AcDbSymbolTableRecord
100
AcDbLayerTableRecord
  2
PUNTI
 70
0
 62
7
  6
CONTINUOUS
370
-3
390
F
  0
LAYER
  5
20C
100
AcDbSymbolTableRecord
100
AcDbLayerTableRecord
  2
RACCORDO
 70
0
 62
7
  6
CONTINUOUS
370
-3
390
F
  0
LAYER
  5
20D
100
AcDbSymbolTableRecord
100
AcDbLayerTableRecord
  2
SIMBOLI
 70
0
 62
7
  6
CONTINUOUS
370
-3
390
F
  0
LAYER
  5
20E
100
AcDbSymbolTableRecord
100
AcDbLayerTableRecord
  2
SMUSSO
 70
0
 62
7
  6
CONTINUOUS
370
-3
390
F
  0
LAYER
  5
20F
100
AcDbSymbolTableRecord
100
AcDbLayerTableRecord
  2
SUPERFICI
 70
0
 62
7
  6
CONTINUOUS
370
-3
390
F
  0
LAYER
  5
210
100
AcDbSymbolTableRecord
100
AcDbLayerTableRecord
  2
TRASH
 70
0
 62
7
  6
CONTINUOUS
370
-3
390
F
  0
ENDTAB
  0
TABLE
  2
STYLE
  5
3
100
AcDbSymbolTable
 70
1
  0
STYLE
  5
11
100
AcDbSymbolTableRecord
100
AcDbTextStyleTableRecord
  2
STANDARD
 70
0
 40
0.0
 41
0.8
 50
0.0
 71
0
 42
0.2
  3
txt
  4

  0
STYLE
  5
211
100
AcDbSymbolTableRecord
100
AcDbTextStyleTableRecord
  2
TEXTSTYLE_1
 70
0
 40
0.0
 41
0.8
 50
0.0
 71
0
 42
0.2
  3
gdt
  4

  0
ENDTAB
  0
TABLE
  2
VIEW
  5
6
100
AcDbSymbolTable
 70
0
  0
ENDTAB
  0
TABLE
  2
UCS
  5
7
100
AcDbSymbolTable
 70
0
  0
ENDTAB
  0
TABLE
  2
APPID
  5
9
100
AcDbSymbolTable
 70
1
  0
APPID
  5
212
100
AcDbSymbolTableRecord
100
AcDbRegAppTableRecord
  2
ACAD
 70
0
  0
ENDTAB
  0
TABLE
  2
BLOCK_RECORD
  5
1
100
AcDbSymbolTable
 70
0
  0
BLOCK_RECORD
  5
213
100
AcDbSymbolTableRecord
100
AcDbBlockTableRecord
  2
*Model_Space
  0
BLOCK_RECORD
  5
214
100
AcDbSymbolTableRecord
100
AcDbBlockTableRecord
  2
*Paper_Space
  0
BLOCK_RECORD
  5
215
100
AcDbSymbolTableRecord
100
AcDbBlockTableRecord
  2
_FILLED
  0
ENDTAB
  0
TABLE
  2
DIMSTYLE
  5
A
100
AcDbSymbolTable
 70
1
100
AcDbDimStyleTable
 71
0
  0
DIMSTYLE
105
216
100
AcDbSymbolTableRecord
100
AcDbDimStyleTableRecord
  2
STANDARD
 70
0
  3

  4

 40
1.0
 41
3.0
 42
0.5
 43
0.38
 44
1.5
 45
0.0
 46
0.0
 47
0.01
 48
0.01
140
3.0
141
0.09
142
0.0
143
25.4
144
1.0
145
0.0
146
1.0
147
0.625
 71
1
 72
0
 73
0
 74
0
 75
0
 76
0
 77
1
 78
8
 79
2
170
0
171
1
172
0
173
0
174
0
175
0
176
0
177
0
178
0
270
2
179
2
271
2
272
2
273
2
274
2
275
0
280
0
281
0
282
0
283
1
284
8
285
0
286
0
287
3
288
0
340
11
278
44
341
215
342
215
343
215
344
215
  0
ENDTAB
  0
ENDSEC
  0
SECTION
  2
BLOCKS
  0
BLOCK
  5
20
100
AcDbEntity
  8
0
100
AcDbBlockBegin
  2
*Model_Space
 70
0
 10
0.0
 20
0.0
 30
0.0
  3
*Model_Space
  1

  0
ENDBLK
  5
21
100
AcDbEntity
  8
0
100
AcDbBlockEnd
  0
BLOCK
  5
1C
100
AcDbEntity
  8
0
100
AcDbBlockBegin
  2
*Paper_Space
 70
0
 10
0.0
 20
0.0
 30
0.0
  3
*Paper_Space
  1

  0
ENDBLK
  5
1D
100
AcDbEntity
  8
0
100
AcDbBlockEnd
  0
BLOCK
  5
217
100
AcDbEntity
  8
0
100
AcDbBlockBegin
  2
_FILLED
 70
64
 10
0.0
 20
0.0
  3
_FILLED
  1

  0
SOLID
  5
218
100
AcDbEntity
  8
0
  6
BYBLOCK
 62
0
100
AcDbTrace
 10
0.0
 20
0.0
 11
-1.0
 21
0.3166666667
 12
-1.0
 22
-0.3166666667
 13
-1.0
 23
-0.3166666667
  0
ENDBLK
  5
219
100
AcDbEntity
  8
0
  6
BYBLOCK
 62
0
100
AcDbBlockEnd
  0
ENDSEC
  0
SECTION
  2
ENTITIES
  0
LWPOLYLINE
  5
21A
100
AcDbEntity
  8
LAY0001
100
AcDbPolyline
 62
250
  6
CONTINUOUS
 90
9
 70
0
 10
127.3583509484
 20
123.3368893412
 10
127.3788528958
 20
123.3480623242
 10
127.4078503211
 20
123.3583407818
 10
127.4393096013
 20
123.3637602867
 10
127.4728448368
 20
123.364243025
 10
127.5079466395
 20
123.3598104849
 10
127.544165647
 20
123.3505833189
 10
127.5811417958
 20
123.3367146071
 10
127.6184699497
 20
123.3184073801
  0
LINE
  5
21B
100
AcDbEntity
  8
LAY0001
100
AcDbLine
 62
7
  6
CONTINUOUS
 10
127.3583509484
 20
123.3368893412
 11
129.6434367253
 21
124.7981752042
  0
LINE
  5
21C
100
AcDbEntity
  8
LAY0001
100
AcDbLine
 62
250
  6
CONTINUOUS
 10
127.6184699497
 20
123.3184073801
 11
129.8998313261
 21
124.7773115322
  0
LINE
  5
21D
100
AcDbEntity
  8
ASSI
100
AcDbLine
 62
250
  6
CONTINUOUS
 10
134.2860909395
 20
122.8950656918
 11
134.2822382177
 21
122.8931514264
  0
LINE
  5
21E
100
AcDbEntity
  8
ASSI
100
AcDbLine
 62
250
  6
CONTINUOUS
 10
134.9134524747
 20
121.4264587424
 11
135.9066354233
 21
121.9999120985
  0
LINE
  5
21F
100
AcDbEntity
  8
ASSI
100
AcDbLine
 62
250
  6
CONTINUOUS
 10
134.9978889526
 20
121.1486570443
 11
136.0480352404
 21
121.7550004314
  0
LINE
  5
220
100
AcDbEntity
  8
ASSI
100
AcDbLine
 62
250
  6
CONTINUOUS
 10
137.9276983806
 20
122.7173681823
 11
136.1041672803
 21
121.7099115087
  0
LINE
  5
221
100
AcDbEntity
  8
ASSI
100
AcDbLine
 62
250
  6
CONTINUOUS
 10
138.5880412341
 20
122.6284715454
 11
135.8335632104
 21
121.1070026364
  0
LINE
  5
222
100
AcDbEntity
  8
RACCORDO
100
AcDbLine
 62
250
  6
CONTINUOUS
 10
138.7565501234
 20
123.1731297562
 11
137.9276983806
 21
122.7173681823
  0
LINE
  5
223
100
AcDbEntity
  8
RACCORDO
100
AcDbLine
 62
250
  6
CONTINUOUS
 10
139.4083502595
 20
123.0795779904
 11
138.5879820298
 21
122.6285057293
  0
LINE
  5
224
100
AcDbEntity
  8
RACCORDO
100
AcDbLine
 62
7
  6
CONTINUOUS
 10
138.6611317372
 20
123.1309611177
 11
136.1288693648
 21
121.7435673265
  0
LINE
  5
225
100
AcDbEntity
  8
RACCORDO
100
AcDbLine
 62
250
  6
CONTINUOUS
 10
138.6659723561
 20
123.1333544483
 11
138.6612737568
 21
123.1307803326
  0
LINE
  5
226
100
AcDbEntity
  8
ASSI
100
AcDbLine
 62
7
  6
CONTINUOUS
 10
134.2822382177
 20
122.8931514264
 11
133.7027791761
 21
122.5815371058
  0
LINE
  5
227
100
AcDbEntity
  8
ASSI
100
AcDbLine
 62
250
  6
CONTINUOUS
 10
134.3794315575
 20
122.8817004702
 11
133.7599177649
 21
122.5485460007
  0
LWPOLYLINE
  5
228
100
AcDbEntity
  8
ASSI
100
AcDbPolyline
 62
250
  6
CONTINUOUS
 90
8
 70
0
 10
138.60636177
 20
122.0238700602
 10
138.6098934844
 20
122.025698345
 10
138.6232399741
 20
122.0304028939
 10
138.6378155346
 20
122.0323411703
 10
138.6533976659
 20
122.0314835323
 10
138.6697485089
 20
122.0278430311
 10
138.6866184822
 20
122.0214751969
 10
138.7037500645
 20
122.0124771954
  0
LWPOLYLINE
  5
229
100
AcDbEntity
  8
ASSI
100
AcDbPolyline
 62
250
  6
CONTINUOUS
 90
8
 70
0
 10
138.4652680626
 20
121.9452096806
 10
138.4687358633
 20
121.9469944868
 10
138.4821227056
 20
121.9516837733
 10
138.4967436078
 20
121.9535946771
 10
138.5123416915
 20
121.9527014824
 10
138.5286620976
 20
121.9490374332
 10
138.5454635886
 20
121.942674429
 10
138.5624896245
 20
121.9337241859
  0
LWPOLYLINE
  5
22A
100
AcDbEntity
  8
ASSI
100
AcDbPolyline
 62
250
  6
CONTINUOUS
 90
9
 70
0
 10
135.9066354233
 20
121.9999120985
 10
135.9212388057
 20
122.0071746647
 10
135.9356592768
 20
122.0125948484
 10
135.9497423328
 20
122.0161145778
 10
135.9633370748
 20
122.017696143
 10
135.9762978582
 20
122.0173226037
 10
135.988485847
 20
122.0149979556
 10
135.9997704627
 20
122.0107470877
 10
136.0041721123
 20
122.0084201296
  0
LINE
  5
22B
100
AcDbEntity
  8
RACCORDO
100
AcDbLine
 62
7
  6
CONTINUOUS
 10
138.6734660604
 20
123.1370705659
 11
138.6611654355
 21
123.1309780544
  0
LINE
  5
22C
100
AcDbEntity
  8
RACCORDO
100
AcDbLine
 62
250
  6
CONTINUOUS
 10
138.7649347119
 20
123.1772367969
 11
138.7565501234
 21
123.1731297562
  0
LINE
  5
22D
100
AcDbEntity
  8
RACCORDO
100
AcDbLine
 62
250
  6
CONTINUOUS
 10
136.1041672803
 20
121.7316632172
 11
136.1278927246
 21
121.7427976369
  0
LINE
  5
22E
100
AcDbEntity
  8
RACCORDO
100
AcDbLine
 62
7
  6
CONTINUOUS
 10
136.1291200061
 20
121.7436922598
 11
136.1041672803
 21
121.7323199615
  0
LINE
  5
22F
100
AcDbEntity
  8
DRAFT
100
AcDbLine
 62
7
  6
CONTINUOUS
 10
138.0399864669
 20
121.2112291834
 11
138.0878359642
 21
121.2326374202
  0
LINE
  5
230
100
AcDbEntity
  8
RACCORDO
100
AcDbLine
 62
250
  6
CONTINUOUS
 10
138.6659723561
 20
123.1333544483
 11
138.6734159735
 21
123.1370482781
  0
LINE
  5
231
100
AcDbEntity
  8
RACCORDO
100
AcDbLine
 62
250
  6
CONTINUOUS
 10
138.693711325
 20
123.1460580893
 11
138.7061698982
 21
123.1511442545
  0
LINE
  5
232
100
AcDbEntity
  8
RACCORDO
100
AcDbLine
 62
7
  6
CONTINUOUS
 10
138.7140307884
 20
123.1550227547
 11
138.6734159735
 21
123.1370482781
  0
LINE
  5
233
100
AcDbEntity
  8
RACCORDO
100
AcDbLine
 62
250
  6
CONTINUOUS
 10
138.7061698982
 20
123.1511442545
 11
138.7140307884
 21
123.1550227547
  0
LWPOLYLINE
  5
234
100
AcDbEntity
  8
RACCORDO
100
AcDbPolyline
 62
7
  6
CONTINUOUS
 90
3
 70
0
 10
138.7649347119
 20
123.1772367969
 10
138.754741914
 20
123.172816582
 10
138.7140307884
 20
123.1550227547
  0
LINE
  5
235
100
AcDbEntity
  8
RACCORDO
100
AcDbLine
 62
250
  6
CONTINUOUS
 10
138.7464622537
 20
123.1687550447
 11
138.754741914
 21
123.172816582
  0
LWPOLYLINE
  5
236
100
AcDbEntity
  8
RACCORDO
100
AcDbPolyline
 62
250
  6
CONTINUOUS
 90
8
 70
0
 10
145.0609684717
 20
124.9743477032
 10
145.0751462239
 20
124.9803671126
 10
145.0902434065
 20
124.9838006685
 10
145.1066691543
 20
124.9847306927
 10
145.1243293918
 20
124.9829853314
 10
145.1430768757
 20
124.9784067311
 10
145.1627041627
 20
124.9708753559
 10
145.1829802469
 20
124.9603137011
  0
LWPOLYLINE
  5
237
100
AcDbEntity
  8
ASSI
100
AcDbPolyline
 62
250
  6
CONTINUOUS
 90
4
 70
0
 10
141.0802030648
 20
122.2313988774
 10
141.1333696758
 20
122.2537715025
 10
141.1881514446
 20
122.2797671578
 10
141.2444193096
 20
122.3095134657
  0
LINE
  5
238
100
AcDbEntity
  8
RACCORDO
100
AcDbLine
 62
250
  6
CONTINUOUS
 10
138.7565501234
 20
123.1731297562
 11
138.7975219334
 21
123.1886824028
  0
LWPOLYLINE
  5
239
100
AcDbEntity
  8
ASSI
100
AcDbPolyline
 62
250
  6
CONTINUOUS
 90
13
 70
0
 10
137.9276983806
 20
122.7173681824
 10
137.9746143451
 20
122.7350686671
 10
138.0236295017
 20
122.7482349174
 10
138.0745709346
 20
122.7568214364
 10
138.1272614911
 20
122.760800622
 10
138.1815123607
 20
122.7601583889
 10
138.237123752
 20
122.7548941839
 10
138.2938998991
 20
122.7450281336
 10
138.3516390757
 20
122.7305973093
 10
138.4101260974
 20
122.7116519106
 10
138.4691501246
 20
122.6882610889
 10
138.5285055647
 20
122.6605118716
 10
138.5879820298
 20
122.6285057293
  0
LWPOLYLINE
  5
23A
100
AcDbEntity
  8
RACCORDO
100
AcDbPolyline
 62
250
  6
CONTINUOUS
 90
12
 70
0
 10
140.6929638395
 20
122.5477586091
 10
140.6837813938
 20
122.5443566633
 10
140.6743020381
 20
122.5412148873
 10
140.664628211
 20
122.5383295995
 10
140.6547771532
 20
122.5357062511
 10
140.6447316239
 20
122.5333393909
 10
140.6345423387
 20
122.5312089844
 10
140.6242176145
 20
122.5293134458
 10
140.6137491344
 20
122.5276543608
 10
140.6031626638
 20
122.5262164522
 10
140.5924645632
 20
122.5249969627
 10
140.5816484719
 20
122.5239986495
  0
LWPOLYLINE
  5
23B
100
AcDbEntity
  8
ASSI
100
AcDbPolyline
 62
7
  6
CONTINUOUS
 90
5
 70
0
 10
144.1629653475
 20
123.9879927483
 10
144.1386857894
 20
123.9805330353
 10
144.1119789717
 20
123.9704086646
 10
144.0852638177
 20
123.9582580172
 10
144.0630027277
 20
123.9465670427
  0
LINE
  5
23C
100
AcDbEntity
  8
LAY0001
100
AcDbLine
 62
7
  6
CONTINUOUS
 10
134.9134524747
 20
121.8825095165
 11
134.4114795373
 21
121.3597712295
  0
LINE
  5
23D
100
AcDbEntity
  8
RACCORDO
100
AcDbLine
 62
7
  6
CONTINUOUS
 10
136.1287785003
 20
121.7435253433
 11
136.1278927247
 21
121.7427976368
  0
LINE
  5
23E
100
AcDbEntity
  8
ASSI
100
AcDbLine
 62
250
  6
CONTINUOUS
 10
144.5457814986
 20
123.7126756527
 11
141.6800045914
 21
122.0580119831
  0
LINE
  5
23F
100
AcDbEntity
  8
ASSI
100
AcDbLine
 62
250
  6
CONTINUOUS
 10
144.6870090418
 20
123.4763847344
 11
141.8212321346
 21
121.8217210648
  0
LINE
  5
240
100
AcDbEntity
  8
ASSI
100
AcDbLine
 62
250
  6
CONTINUOUS
 10
142.1422935184
 20
121.7742937752
 11
140.7158386546
 21
120.9506766145
  0
LINE
  5
241
100
AcDbEntity
  8
ASSI
100
AcDbLine
 62
250
  6
CONTINUOUS
 10
142.2835210616
 20
121.5380028569
 11
140.9910731806
 21
120.7917596487
  0
LWPOLYLINE
  5
242
100
AcDbEntity
  8
ASSI
100
AcDbPolyline
 62
250
  6
CONTINUOUS
 90
13
 70
0
 10
137.9190633329
 20
120.828751336
 10
137.9317330658
 20
120.8360532152
 10
137.9443832587
 20
120.8443494594
 10
137.9569296677
 20
120.8535534956
 10
137.9691837547
 20
120.8634744797
 10
137.9811874231
 20
120.874101295
 10
137.9931792552
 20
120.885682079
 10
138.0051951167
 20
120.8983340434
 10
138.0169691833
 20
120.9118594153
 10
138.0282656635
 20
120.9260625023
 10
138.0389478895
 20
120.9407960421
 10
138.048959275
 20
120.9559812618
 10
138.0582048815
 20
120.9714902452
  0
LWPOLYLINE
  5
243
100
AcDbEntity
  8
ASSI
100
AcDbPolyline
 62
250
  6
CONTINUOUS
 90
16
 70
0
 10
141.6800045914
 20
122.0580119831
 10
141.6476288761
 20
122.0399299295
 10
141.6160256509
 20
122.0234314524
 10
141.5852196331
 20
122.0084479405
 10
141.5554746218
 20
121.9950175334
 10
141.5265626559
 20
121.9829460738
 10
141.4977730418
 20
121.9718893908
 10
141.469097346
 20
121.9618365505
 10
141.4405848944
 20
121.9528054105
 10
141.4116299509
 20
121.9446324252
 10
141.3822016014
 20
121.9373671342
 10
141.3524013325
 20
121.9311002849
 10
141.3218478879
 20
121.9258438446
 10
141.290458155
 20
121.9217043809
 10
141.2584354337
 20
121.9188303871
 10
141.2258477716
 20
121.9173489027
  0
LINE
  5
244
100
AcDbEntity
  8
ASSI
100
AcDbLine
 62
7
  6
CONTINUOUS
 10
138.4651012903
 20
121.9451170286
 11
138.60636177
 21
122.0238700602
  0
LINE
  5
245
100
AcDbEntity
  8
ASSI
100
AcDbLine
 62
250
  6
CONTINUOUS
 10
138.5624896245
 20
121.9337241859
 11
138.7037500645
 21
122.0124771954
  0
LINE
  5
246
100
AcDbEntity
  8
ASSI
100
AcDbLine
 62
7
  6
CONTINUOUS
 10
136.6568874241
 20
120.1907721189
 11
137.8216753467
 21
120.8401439768
  0
LINE
  5
247
100
AcDbEntity
  8
ASSI
100
AcDbLine
 62
250
  6
CONTINUOUS
 10
136.7147671072
 20
120.1573531153
 11
137.9190636818
 21
120.8287511346
  0
LINE
  5
248
100
AcDbEntity
  8
ASSI
100
AcDbLine
 62
7
  6
CONTINUOUS
 10
144.0630212817
 20
123.9465773906
 11
143.2958977747
 21
123.5189043291
  0
LINE
  5
249
100
AcDbEntity
  8
ASSI
100
AcDbLine
 62
7
  6
CONTINUOUS
 10
141.1469707032
 20
122.3208823388
 11
142.3780193325
 21
123.0071850557
  0
LINE
  5
24A
100
AcDbEntity
  8
ASSI
100
AcDbLine
 62
250
  6
CONTINUOUS
 10
141.2444193096
 20
122.3095134657
 11
142.4754076994
 21
122.9957922313
  0
LINE
  5
24B
100
AcDbEntity
  8
ASSI
100
AcDbLine
 62
250
  6
CONTINUOUS
 10
138.4651012903
 20
121.9451170286
 11
138.4652680626
 21
121.9452096806
  0
LWPOLYLINE
  5
24C
100
AcDbEntity
  8
ASSI
100
AcDbPolyline
 62
250
  6
CONTINUOUS
 90
16
 70
0
 10
141.8212321346
 20
121.8217210648
 10
141.7845052293
 20
121.8013563502
 10
141.7487087218
 20
121.7826257224
 10
141.7138426121
 20
121.7655291816
 10
141.680160268
 20
121.7502221701
 10
141.6474083218
 20
121.7365492456
 10
141.6148266701
 20
121.7240440807
 10
141.582368923
 20
121.7125864862
 10
141.5500814705
 20
121.7022966513
 10
141.5173433792
 20
121.6930688165
 10
141.4840551338
 20
121.6847915723
 10
141.4503162496
 20
121.6775763282
 10
141.4158043395
 20
121.6716515527
 10
141.3804119412
 20
121.6670934019
 10
141.3442465171
 20
121.6638257197
 10
141.3073080671
 20
121.661848506
  0
LINE
  5
24D
100
AcDbEntity
  8
ASSI
100
AcDbLine
 62
250
  6
CONTINUOUS
 10
144.1691068221
 20
123.9399882655
 11
143.393286109
 21
123.5075114864
  0
LWPOLYLINE
  5
24E
100
AcDbEntity
  8
ASSI
100
AcDbPolyline
 62
7
  6
CONTINUOUS
 90
10
 70
0
 10
141.1469707032
 20
122.3208823388
 10
141.1346939457
 20
122.314113031
 10
141.0718684192
 20
122.2817524955
 10
141.0104700982
 20
122.2539169231
 10
140.9509824778
 20
122.2307131974
 10
140.8935787087
 20
122.2120729242
 10
140.8382097712
 20
122.197858512
 10
140.7851101946
 20
122.1880427927
 10
140.734690374
 20
122.1825951171
 10
140.726773372
 20
122.1821150164
  0
LWPOLYLINE
  5
24F
100
AcDbEntity
  8
ASSI
100
AcDbPolyline
 62
250
  6
CONTINUOUS
 90
13
 70
0
 10
138.7037500645
 20
122.0124771954
 10
138.7164873991
 20
122.0194352927
 10
138.7288436147
 20
122.0257075894
 10
138.7408058035
 20
122.0313287648
 10
138.7523570084
 20
122.0363330858
 10
138.763495372
 20
122.0407575412
 10
138.7742337418
 20
122.0446397634
 10
138.7845699246
 20
122.0480144497
 10
138.7944984256
 20
122.0509147549
 10
138.8040292853
 20
122.053373318
 10
138.8131641749
 20
122.0554228715
 10
138.8219020819
 20
122.057094946
 10
138.8302506746
 20
122.0584186663
  0
LINE
  5
250
100
AcDbEntity
  8
RACCORDO
100
AcDbLine
 62
7
  6
CONTINUOUS
 10
145.0608508025
 20
124.9742843027
 11
145.0609684717
 21
124.9743477032
  0
LINE
  5
251
100
AcDbEntity
  8
ASSI
100
AcDbLine
 62
7
  6
CONTINUOUS
 10
145.0609692519
 20
124.9743481228
 11
140.597133178
 21
122.5738415376
  0
LINE
  5
252
100
AcDbEntity
  8
RACCORDO
100
AcDbLine
 62
250
  6
CONTINUOUS
 10
145.1829802469
 20
124.9603137011
 11
140.718627279
 21
122.5595291471
  0
LINE
  5
253
100
AcDbEntity
  8
RACCORDO
100
AcDbLine
 62
7
  6
CONTINUOUS
 10
140.597133178
 20
122.5738415376
 11
140.5971690611
 21
122.5738608231
  0
LWPOLYLINE
  5
254
100
AcDbEntity
  8
RACCORDO
100
AcDbPolyline
 62
7
  6
CONTINUOUS
 90
25
 70
0
 10
140.5971693374
 20
122.5738603018
 10
140.5971032897
 20
122.5738258532
 10
140.5957647752
 20
122.5731962456
 10
140.5924646094
 20
122.5718867115
 10
140.5868751925
 20
122.5700292127
 10
140.5789168651
 20
122.5678630167
 10
140.5688417733
 20
122.5656689506
 10
140.557143034
 20
122.5636968259
 10
140.5442042503
 20
122.5620974229
 10
140.530176575
 20
122.5609503257
 10
140.5152293505
 20
122.5603234061
 10
140.4995451677
 20
122.560272358
 10
140.4832831238
 20
122.5608386691
 10
140.4665107364
 20
122.5620603837
 10
140.4492491609
 20
122.5639855361
 10
140.4317641081
 20
122.5666310192
 10
140.4144733776
 20
122.5699528741
 10
140.3975122879
 20
122.5739231474
 10
140.3809927048
 20
122.5785073164
 10
140.3652463637
 20
122.5835838529
 10
140.3503987453
 20
122.5890547909
 10
140.3364489039
 20
122.5948509769
 10
140.3234377933
 20
122.6008772657
 10
140.3114699476
 20
122.6069852358
 10
140.3004916296
 20
122.6130839911
  0
LINE
  5
255
100
AcDbEntity
  8
ASSI
100
AcDbLine
 62
250
  6
CONTINUOUS
 10
144.0665545338
 20
123.9484064122
 11
144.0630212817
 21
123.9465773906
  0
LWPOLYLINE
  5
256
100
AcDbEntity
  8
ASSI
100
AcDbPolyline
 62
250
  6
CONTINUOUS
 90
8
 70
0
 10
137.82168333
 20
120.8401484267
 10
137.8252088661
 20
120.8419731264
 10
137.8385554483
 20
120.8466772622
 10
137.8531309334
 20
120.8486151545
 10
137.868712835
 20
120.8477572317
 10
137.885063303
 20
120.8441165964
 10
137.9019327531
 20
120.8377488282
 10
137.9190636818
 20
120.8287511346
  0
LWPOLYLINE
  5
257
100
AcDbEntity
  8
ASSI
100
AcDbPolyline
 62
250
  6
CONTINUOUS
 90
8
 70
0
 10
143.2959264583
 20
123.5189203106
 10
143.2994310266
 20
123.5207333505
 10
143.3127775958
 20
123.5254375477
 10
143.3273530931
 20
123.5273754971
 10
143.3429350298
 20
123.5265176167
 10
143.3592855543
 20
123.5228770016
 10
143.3761550827
 20
123.5165092244
 10
143.393286109
 20
123.5075114864
  0
LWPOLYLINE
  5
258
100
AcDbEntity
  8
ASSI
100
AcDbPolyline
 62
250
  6
CONTINUOUS
 90
8
 70
0
 10
142.3781445712
 20
123.0072546938
 10
142.3815525751
 20
123.0090140727
 10
142.3948991455
 20
123.0137182724
 10
142.4094746446
 20
123.0156562234
 10
142.425056583
 20
123.0147983437
 10
142.441407109
 20
123.0111577287
 10
142.4582766387
 20
123.0047899511
 10
142.4754076659
 20
122.9957922126
  0
LWPOLYLINE
  5
259
100
AcDbEntity
  8
ASSI
100
AcDbPolyline
 62
250
  6
CONTINUOUS
 90
8
 70
0
 10
141.1470268636
 20
122.3209136942
 10
141.1505642279
 20
122.3227353302
 10
141.1639107974
 20
122.3274395276
 10
141.1784862951
 20
122.3293774772
 10
141.1940682319
 20
122.3285195969
 10
141.2104187562
 20
122.3248789817
 10
141.2272882841
 20
122.3185112042
 10
141.2444193096
 20
122.3095134657
  0
LWPOLYLINE
  5
25A
100
AcDbEntity
  8
RACCORDO
100
AcDbPolyline
 62
250
  6
CONTINUOUS
 90
4
 70
0
 10
140.718627279
 20
122.5595291471
 10
140.7103697091
 20
122.5553454646
 10
140.7018152292
 20
122.551421952
 10
140.6929638395
 20
122.5477586091
  0
LWPOLYLINE
  5
25B
100
AcDbEntity
  8
ASSI
100
AcDbPolyline
 62
250
  6
CONTINUOUS
 90
6
 70
0
 10
143.393286109
 20
123.5075114864
 10
143.3645921327
 20
123.4929714926
 10
143.3340394597
 20
123.4802207049
 10
143.30162809
 20
123.4692591232
 10
143.2669868672
 20
123.4599930091
 10
143.2304869477
 20
123.4525161011
  0
LWPOLYLINE
  5
25C
100
AcDbEntity
  8
ASSI
100
AcDbPolyline
 62
7
  6
CONTINUOUS
 90
15
 70
0
 10
143.2947216196
 20
123.5182542785
 10
143.282440473
 20
123.512045318
 10
143.2678345397
 20
123.5057723501
 10
143.25105336
 20
123.4997187856
 10
143.232148754
 20
123.4940906458
 10
143.211389172
 20
123.4891301842
 10
143.188957587
 20
123.4850203391
 10
143.1651412768
 20
123.4819322651
 10
143.1404336121
 20
123.4800127707
 10
143.1151047302
 20
123.4793434163
 10
143.0895641036
 20
123.4799768883
 10
143.0645586517
 20
123.4818843412
 10
143.0404209894
 20
123.4849917718
 10
143.0175148755
 20
123.4891798988
 10
143.0114627714
 20
123.4905032945
  0
LINE
  5
25D
100
AcDbEntity
  8
DRAFT
100
AcDbLine
 62
7
  6
CONTINUOUS
 10
138.0399864669
 20
121.2112291834
 11
136.3507603694
 21
120.3675260437
  0
LWPOLYLINE
  5
25E
100
AcDbEntity
  8
RACCORDO
100
AcDbPolyline
 62
250
  6
CONTINUOUS
 90
9
 70
0
 10
140.5971690611
 20
122.5738608231
 10
140.6016455263
 20
122.5760948206
 10
140.61597439
 20
122.5812104803
 10
140.6313938265
 20
122.5838340595
 10
140.647734961
 20
122.5839368073
 10
140.664818806
 20
122.5815175887
 10
140.6824582535
 20
122.5766028991
 10
140.7004601279
 20
122.5692465627
 10
140.7186272766
 20
122.5595291458
  0
LWPOLYLINE
  5
25F
100
AcDbEntity
  8
ASSI
100
AcDbPolyline
 62
250
  6
CONTINUOUS
 90
5
 70
0
 10
144.4716082185
 20
120.2709688611
 10
144.5099091426
 20
120.287277195
 10
144.5501491911
 20
120.3060925716
 10
144.5920041739
 20
120.3274759913
 10
144.635418072
 20
120.3515932794
  0
LWPOLYLINE
  5
260
100
AcDbEntity
  8
ASSI
100
AcDbPolyline
 62
250
  6
CONTINUOUS
 90
6
 70
0
 10
147.5448346142
 20
122.0284184782
 10
147.552347569
 20
122.0316123121
 10
147.5599698277
 20
122.034661356
 10
147.5677775531
 20
122.037583051
 10
147.5757909985
 20
122.0403663291
 10
147.5839754286
 20
122.0429792264
  0
LWPOLYLINE
  5
261
100
AcDbEntity
  8
ASSI
100
AcDbPolyline
 62
250
  6
CONTINUOUS
 90
13
 70
0
 10
149.6150038889
 20
121.9808835661
 10
149.6219960271
 20
121.9837058664
 10
149.6288890102
 20
121.9866251472
 10
149.6356768539
 20
121.9896410383
 10
149.6423247075
 20
121.9927381519
 10
149.6488566558
 20
121.9959303225
 10
149.655348553
 20
121.9992632734
 10
149.661791954
 20
122.002740177
 10
149.6681684669
 20
122.0063608817
 10
149.6745259306
 20
122.0101701169
 10
149.6808633701
 20
122.0141853484
 10
149.6871376071
 20
122.0183946235
 10
149.6933258182
 20
122.0227999213
  0
LWPOLYLINE
  5
262
100
AcDbEntity
  8
ASSI
100
AcDbPolyline
 62
250
  6
CONTINUOUS
 90
6
 70
0
 10
147.4038469419
 20
122.0176197534
 10
147.4175711672
 20
122.0229338449
 10
147.4326325456
 20
122.0253701827
 10
147.4487902442
 20
122.0248898096
 10
147.4657858997
 20
122.0215004069
 10
147.48334775
 20
122.0152561713
  0
LINE
  5
263
100
AcDbEntity
  8
LAY0001
100
AcDbLine
 62
7
  6
CONTINUOUS
 10
139.8771162466
 20
119.0165522639
 11
139.007673615
 21
118.7059863729
  0
LWPOLYLINE
  5
264
100
AcDbEntity
  8
ASSI
100
AcDbPolyline
 62
250
  6
CONTINUOUS
 90
3
 70
0
 10
144.4693368912
 20
119.7286742765
 10
144.4016617973
 20
119.7055432453
 10
144.3865223377
 20
119.7004381877
  0
LWPOLYLINE
  5
265
100
AcDbEntity
  8
ASSI
100
AcDbPolyline
 62
7
  6
CONTINUOUS
 90
5
 70
0
 10
147.5017820508
 20
122.0591256845
 10
147.4732143783
 20
122.0499446859
 10
147.4450127519
 20
122.0385526438
 10
147.4173845727
 20
122.0251134126
 10
147.4011533274
 20
122.0161439096
  0
LINE
  5
266
100
AcDbEntity
  8
ASSI
100
AcDbLine
 62
250
  6
CONTINUOUS
 10
147.5839754286
 20
122.0429792264
 11
147.592322515
 21
122.0454000173
  0
LWPOLYLINE
  5
267
100
AcDbEntity
  8
LAY0001
100
AcDbPolyline
 62
7
  6
CONTINUOUS
 90
5
 70
0
 10
145.3483102702
 20
79.2426676246
 10
145.3299021618
 20
79.2428359779
 10
145.3110972117
 20
79.2401526237
 10
145.2921396718
 20
79.2345137315
 10
145.2732903285
 20
79.2258410433
  0
LINE
  5
268
100
AcDbEntity
  8
LAY0001
100
AcDbLine
 62
7
  6
CONTINUOUS
 10
127.3777128185
 20
80.3308778157
 11
142.2459269868
 21
71.7461572974
  0
LINE
  5
269
100
AcDbEntity
  8
LAY0001
100
AcDbLine
 62
250
  6
CONTINUOUS
 10
127.2741715079
 20
80.5597462463
 11
142.1423856763
 21
71.975025728
  0
LWPOLYLINE
  5
26A
100
AcDbEntity
  8
LAY0001
100
AcDbPolyline
 62
250
  6
CONTINUOUS
 90
9
 70
0
 10
127.3777128185
 20
80.3308778157
 10
127.3621129161
 20
80.341086642
 10
127.339533702
 20
80.3610026294
 10
127.3200076906
 20
80.3851868847
 10
127.303741748
 20
80.4133831909
 10
127.2909082014
 20
80.445292826
 10
127.2816430141
 20
80.4805777274
 10
127.2760443448
 20
80.518864074
 10
127.2741715079
 20
80.5597462463
  0
LWPOLYLINE
  5
26B
100
AcDbEntity
  8
ASSI
100
AcDbPolyline
 62
250
  6
CONTINUOUS
 90
3
 70
0
 10
135.6981534989
 20
121.0205555886
 10
135.6776250533
 20
120.9928968881
 10
135.6588715672
 20
120.9644630854
  0
LWPOLYLINE
  5
26C
100
AcDbEntity
  8
ASSI
100
AcDbPolyline
 62
250
  6
CONTINUOUS
 90
3
 70
0
 10
135.7445566458
 20
121.074432281
 10
135.7204640297
 20
121.0477340529
 10
135.6981534989
 20
121.0205555886
  0
LWPOLYLINE
  5
26D
100
AcDbEntity
  8
ASSI
100
AcDbPolyline
 62
250
  6
CONTINUOUS
 90
8
 70
0
 10
136.0473789675
 20
121.3262987889
 10
136.0485585283
 20
121.3275980222
 10
136.052556666
 20
121.3340057554
 10
136.0549376096
 20
121.3418519651
 10
136.0556749315
 20
121.35105055
 10
136.0547606554
 20
121.3615008636
 10
136.0522048034
 20
121.373089269
 10
136.0480352404
 20
121.3856894418
  0
LINE
  5
26E
100
AcDbEntity
  8
ASSI
100
AcDbLine
 62
250
  6
CONTINUOUS
 10
136.0480352404
 20
121.3856894418
 11
135.7445566458
 21
121.074432281
  0
LINE
  5
26F
100
AcDbEntity
  8
ASSI
100
AcDbLine
 62
7
  6
CONTINUOUS
 10
136.0473666499
 20
121.3262861468
 11
135.7438880552
 21
121.0150289858
  0
LWPOLYLINE
  5
270
100
AcDbEntity
  8
ASSI
100
AcDbPolyline
 62
250
  6
CONTINUOUS
 90
3
 70
0
 10
139.5700379868
 20
121.6280867605
 10
139.5645527388
 20
121.622936218
 10
139.5616666318
 20
121.6167212489
  0
LWPOLYLINE
  5
271
100
AcDbEntity
  8
ASSI
100
AcDbPolyline
 62
250
  6
CONTINUOUS
 90
10
 70
0
 10
142.2990438183
 20
119.7762846244
 10
142.282625805
 20
119.7657009338
 10
142.266429816
 20
119.7530520976
 10
142.2506748741
 20
119.7385091692
 10
142.235574038
 20
119.722268816
 10
142.2213315208
 20
119.7045506609
 10
142.2081399286
 20
119.6855943116
 10
142.1961776554
 20
119.6656561205
 10
142.1856064705
 20
119.6450057172
 10
142.1765693312
 20
119.6239223628
  0
LWPOLYLINE
  5
272
100
AcDbEntity
  8
ASSI
100
AcDbPolyline
 62
250
  6
CONTINUOUS
 90
35
 70
0
 10
144.3375585597
 20
119.6706877555
 10
144.3276359869
 20
119.6645016558
 10
144.3176291567
 20
119.6581891131
 10
144.3075605105
 20
119.6517587166
 10
144.2974720854
 20
119.6451828031
 10
144.2874111097
 20
119.6384993466
 10
144.2773303551
 20
119.6316703732
 10
144.2671301741
 20
119.6245542976
 10
144.2568502269
 20
119.617201438
 10
144.2464508533
 20
119.6095614763
 10
144.2357134247
 20
119.6013418722
 10
144.2245952574
 20
119.592549891
 10
144.213139035
 20
119.5831782676
 10
144.20125418
 20
119.5729126664
 10
144.1888792262
 20
119.5617445641
 10
144.1760756397
 20
119.549682484
 10
144.1629372416
 20
119.5364376609
 10
144.1494336117
 20
119.5220335284
 10
144.1355951703
 20
119.5064466529
 10
144.1216069982
 20
119.4893179682
 10
144.1073949383
 20
119.4706311562
 10
144.0930331479
 20
119.450402535
 10
144.0789291795
 20
119.428321992
 10
144.0649078217
 20
119.4040382638
 10
144.051144286
 20
119.377902614
 10
144.0385717598
 20
119.3506587207
 10
144.0272842499
 20
119.322002231
 10
144.0171877495
 20
119.2922374979
 10
144.0089334261
 20
119.2630212591
 10
144.0028121557
 20
119.2345402717
 10
143.9985330623
 20
119.2066077786
 10
143.9958746854
 20
119.1803202466
 10
143.9947632051
 20
119.1560431646
 10
143.9952724413
 20
119.1334110437
 10
143.9974023941
 20
119.1124238839
  0
LINE
  5
273
100
AcDbEntity
  8
ASSI
100
AcDbLine
 62
250
  6
CONTINUOUS
 10
144.3572435439
 20
119.6827598246
 11
144.3375585597
 21
119.6706877555
  0
LWPOLYLINE
  5
274
100
AcDbEntity
  8
ASSI
100
AcDbPolyline
 62
250
  6
CONTINUOUS
 90
3
 70
0
 10
144.3865223377
 20
119.7004381877
 10
144.376799269
 20
119.6946098228
 10
144.3572435439
 20
119.6827598246
  0
LWPOLYLINE
  5
275
100
AcDbEntity
  8
ASSI
100
AcDbPolyline
 62
250
  6
CONTINUOUS
 90
10
 70
0
 10
143.9974023958
 20
119.112423882
 10
144.0143727935
 20
119.122593272
 10
144.0330458832
 20
119.1317406355
 10
144.0531700459
 20
119.1397427119
 10
144.074474109
 20
119.1464916731
 10
144.0966710007
 20
119.1518965769
 10
144.1194616184
 20
119.155884592
 10
144.1425388587
 20
119.1584019799
 10
144.1655917564
 20
119.1594148187
 10
144.1883096739
 20
119.1589094601
  0
LINE
  5
276
100
AcDbEntity
  8
ASSI
100
AcDbLine
 62
250
  6
CONTINUOUS
 10
142.4354392443
 20
119.857846632
 11
142.2990438183
 21
119.7762846244
  0
LINE
  5
277
100
AcDbEntity
  8
ASSI
100
AcDbLine
 62
250
  6
CONTINUOUS
 10
142.5787691354
 20
119.6288756906
 11
142.4423737094
 21
119.547313683
  0
LINE
  5
278
100
AcDbEntity
  8
ASSI
100
AcDbLine
 62
250
  6
CONTINUOUS
 10
141.7993745478
 20
118.5883082723
 11
141.219434463
 21
118.2415145489
  0
LINE
  5
279
100
AcDbEntity
  8
ASSI
100
AcDbLine
 62
250
  6
CONTINUOUS
 10
141.9427044388
 20
118.3593373309
 11
141.4871627365
 21
118.0869315992
  0
LINE
  5
27A
100
AcDbEntity
  8
ASSI
100
AcDbLine
 62
250
  6
CONTINUOUS
 10
146.2595964595
 20
120.8108490622
 11
145.0710033539
 21
120.1000917969
  0
LINE
  5
27B
100
AcDbEntity
  8
ASSI
100
AcDbLine
 62
250
  6
CONTINUOUS
 10
147.1458631077
 20
121.3408205521
 11
147.8865668619
 21
121.7837480538
  0
LINE
  5
27C
100
AcDbEntity
  8
ASSI
100
AcDbLine
 62
250
  6
CONTINUOUS
 10
146.4029263507
 20
120.5818781208
 11
145.2143332449
 21
119.8711208555
  0
LINE
  5
27D
100
AcDbEntity
  8
ASSI
100
AcDbLine
 62
250
  6
CONTINUOUS
 10
147.289193031
 20
121.11184963
 11
148.029896753
 21
121.5547771124
  0
LWPOLYLINE
  5
27E
100
AcDbEntity
  8
ASSI
100
AcDbPolyline
 62
250
  6
CONTINUOUS
 90
7
 70
0
 10
144.8375772187
 20
119.6148332938
 10
144.822390609
 20
119.6057733477
 10
144.8093401013
 20
119.5959505082
 10
144.7986015316
 20
119.5854971468
 10
144.7903195814
 20
119.5745541318
 10
144.7846058209
 20
119.5632689223
 10
144.7830951339
 20
119.5576195652
  0
LWPOLYLINE
  5
27F
100
AcDbEntity
  8
ASSI
100
AcDbPolyline
 62
250
  6
CONTINUOUS
 90
13
 70
0
 10
148.029896753
 20
121.5547771124
 10
148.0341305567
 20
121.5572577431
 10
148.0383970137
 20
121.5596420829
 10
148.0426961239
 20
121.5619301319
 10
148.0470120746
 20
121.564118875
 10
148.0513606786
 20
121.5662113272
 10
148.055789374
 20
121.5682165332
 10
148.0603016553
 20
121.5701416431
 10
148.064894028
 20
121.5719795068
 10
148.0696034474
 20
121.5737177188
 10
148.0744422319
 20
121.575352144
 10
148.079398063
 20
121.5768869176
 10
148.0844709409
 20
121.5783220395
  0
LWPOLYLINE
  5
280
100
AcDbEntity
  8
ASSI
100
AcDbPolyline
 62
250
  6
CONTINUOUS
 90
10
 70
0
 10
146.4060828023
 20
120.5527713974
 10
146.4246552032
 20
120.5635595988
 10
146.4452167145
 20
120.5731286485
 10
146.4674395065
 20
120.581325979
 10
146.4909692626
 20
120.5880208929
 10
146.5154308277
 20
120.5931066473
 10
146.54043419
 20
120.5965021554
 10
146.5655806992
 20
120.5981532796
 10
146.5904694231
 20
120.5980336943
 10
146.6147035391
 20
120.5961453061
  0
LINE
  5
281
100
AcDbEntity
  8
ASSI
100
AcDbLine
 62
7
  6
CONTINUOUS
 10
144.5353447951
 20
120.3614619416
 11
147.4011901472
 21
122.0161651846
  0
LINE
  5
282
100
AcDbEntity
  8
ASSI
100
AcDbLine
 62
250
  6
CONTINUOUS
 10
144.635418072
 20
120.3515932794
 11
147.5011949792
 21
122.006256949
  0
LWPOLYLINE
  5
283
100
AcDbEntity
  8
ASSI
100
AcDbPolyline
 62
250
  6
CONTINUOUS
 90
13
 70
0
 10
147.8865668619
 20
121.7837480538
 10
147.8936657331
 20
121.7878458934
 10
147.9008203759
 20
121.7917968233
 10
147.9080276822
 20
121.7955955381
 10
147.9152542516
 20
121.7992223401
 10
147.9225270013
 20
121.8026877655
 10
147.9299325881
 20
121.8060250532
 10
147.9374706516
 20
121.8092238668
 10
147.9451324187
 20
121.8122692561
 10
147.9529900167
 20
121.8151740802
 10
147.9610624347
 20
121.8179263698
 10
147.9693163646
 20
121.8204962893
 10
147.9777435902
 20
121.822862719
  0
LWPOLYLINE
  5
284
100
AcDbEntity
  8
ASSI
100
AcDbPolyline
 62
250
  6
CONTINUOUS
 90
13
 70
0
 10
145.2143332449
 20
119.8711208555
 10
145.1796245115
 20
119.8510882382
 10
145.1452391603
 20
119.8324425388
 10
145.1111771914
 20
119.8151837574
 10
145.0774648235
 20
119.7993479192
 10
145.0440758378
 20
119.784898999
 10
145.0109315785
 20
119.7717289206
 10
144.9780398114
 20
119.7598218075
 10
144.9453927707
 20
119.7491935362
 10
144.912888503
 20
119.7397836604
 10
144.8804930237
 20
119.7315720313
 10
144.8482403174
 20
119.7245787977
 10
144.816130384
 20
119.7188039596
  0
LWPOLYLINE
  5
285
100
AcDbEntity
  8
RACCORDO
100
AcDbPolyline
 62
7
  6
CONTINUOUS
 90
9
 70
0
 10
143.633874439
 20
121.8711705578
 10
147.3194490563
 20
123.9991509548
 10
147.328444477
 20
124.0042462639
 10
147.3363135805
 20
124.0086335378
 10
147.3429565698
 20
124.012219213
 10
147.3482399512
 20
124.0149624704
 10
147.3520384406
 20
124.0168693579
 10
147.3543028704
 20
124.0177984501
 10
147.3549724864
 20
124.0178337111
  0
LWPOLYLINE
  5
286
100
AcDbEntity
  8
ASSI
100
AcDbPolyline
 62
250
  6
CONTINUOUS
 90
10
 70
0
 10
144.5236743122
 20
119.4752568053
 10
144.5139461469
 20
119.469694351
 10
144.5040884498
 20
119.4642777584
 10
144.4940995282
 20
119.4589935572
 10
144.4839493318
 20
119.453816772
 10
144.4736571464
 20
119.4487460812
 10
144.4633012753
 20
119.4437978455
 10
144.4528727325
 20
119.4389442327
 10
144.4423781512
 20
119.4341743228
 10
144.4319393194
 20
119.4295176873
  0
LWPOLYLINE
  5
287
100
AcDbEntity
  8
ASSI
100
AcDbPolyline
 62
7
  6
CONTINUOUS
 90
10
 70
0
 10
144.5353447953
 20
120.3614619417
 10
144.5238000603
 20
120.3548660783
 10
144.4626298364
 20
120.3222400995
 10
144.4026578697
 20
120.2941359342
 10
144.3443069676
 20
120.2706484634
 10
144.2877646603
 20
120.2517296264
 10
144.2330901521
 20
120.2372987184
 10
144.180546677
 20
120.2273398223
 10
144.1305230566
 20
120.2218133899
 10
144.1225754912
 20
120.2213229315
  0
LWPOLYLINE
  5
288
100
AcDbEntity
  8
ASSI
100
AcDbPolyline
 62
250
  6
CONTINUOUS
 90
10
 70
0
 10
145.0710033539
 20
120.1000917969
 10
145.01901106
 20
120.0705500589
 10
144.9675154213
 20
120.0445613161
 10
144.9166363733
 20
120.0220780342
 10
144.8668069108
 20
120.0031559844
 10
144.8177989234
 20
119.9875754306
 10
144.7687573757
 20
119.9750379264
 10
144.7194962849
 20
119.9655849292
 10
144.6704644435
 20
119.9594013238
 10
144.6217946128
 20
119.9565717578
  0
LINE
  5
289
100
AcDbEntity
  8
RACCORDO
100
AcDbLine
 62
250
  6
CONTINUOUS
 10
149.5557541578
 20
122.2439004723
 11
150.249345457
 21
122.6377333515
  0
LINE
  5
28A
100
AcDbEntity
  8
RACCORDO
100
AcDbLine
 62
250
  6
CONTINUOUS
 10
149.6933258182
 20
122.0227999213
 11
150.3865381154
 21
122.4164175968
  0
LWPOLYLINE
  5
28B
100
AcDbEntity
  8
ASSI
100
AcDbPolyline
 62
250
  6
CONTINUOUS
 90
7
 70
0
 10
147.5011949792
 20
122.006256949
 10
147.5084070149
 20
122.0103386384
 10
147.5156477929
 20
122.0142707936
 10
147.5229141953
 20
122.0180491248
 10
147.5301687078
 20
122.021652527
 10
147.537442471
 20
122.0250952989
 10
147.5448346142
 20
122.0284184782
  0
LWPOLYLINE
  5
28C
100
AcDbEntity
  8
ASSI
100
AcDbPolyline
 62
250
  6
CONTINUOUS
 90
8
 70
0
 10
144.53541324
 20
120.361501515
 10
144.5380700344
 20
120.3629560837
 10
144.5517942596
 20
120.3682701752
 10
144.566855638
 20
120.3707065131
 10
144.5830133367
 20
120.37022614
 10
144.6000089923
 20
120.3668367373
 10
144.6175708427
 20
120.3605925018
 10
144.635418072
 20
120.3515932794
  0
LWPOLYLINE
  5
28D
100
AcDbEntity
  8
ASSI
100
AcDbPolyline
 62
250
  6
CONTINUOUS
 90
13
 70
0
 10
146.2595964595
 20
120.8108490622
 10
146.2873906149
 20
120.8259605369
 10
146.3171508852
 20
120.8393215007
 10
146.3488772706
 20
120.8509319533
 10
146.3829350121
 20
120.8608930834
 10
146.4189588687
 20
120.8691037024
 10
146.4558531169
 20
120.8752602447
 10
146.4936570534
 20
120.8792707382
 10
146.5323313816
 20
120.8812271551
 10
146.570662489
 20
120.8811018465
 10
146.608245838
 20
120.8788855961
 10
146.6454859663
 20
120.8745876203
 10
146.7100729935
 20
120.8634573381
  0
LWPOLYLINE
  5
28E
100
AcDbEntity
  8
RACCORDO
100
AcDbPolyline
 62
7
  6
CONTINUOUS
 90
6
 70
0
 10
150.4194128746
 20
121.9635595768
 10
150.426374825
 20
121.9672996831
 10
150.4321093515
 20
121.9701683769
 10
150.4364990911
 20
121.9721176079
 10
150.4393718342
 20
121.9731459853
 10
150.440615375
 20
121.9732394391
  0
LINE
  5
28F
100
AcDbEntity
  8
ASSI
100
AcDbLine
 62
250
  6
CONTINUOUS
 10
143.4624337218
 20
117.5967603759
 11
143.4585809999
 21
117.5948461105
  0
LWPOLYLINE
  5
290
100
AcDbEntity
  8
ASSI
100
AcDbPolyline
 62
250
  6
CONTINUOUS
 90
13
 70
0
 10
146.4029263507
 20
120.5818781199
 10
146.4165889164
 20
120.5885980374
 10
146.4315082586
 20
120.5944742369
 10
146.4475556663
 20
120.5994309686
 10
146.4646232501
 20
120.6034022417
 10
146.482541717
 20
120.606333421
 10
146.5010732012
 20
120.6081783929
 10
146.5200093038
 20
120.6089231588
 10
146.5392259047
 20
120.6085606837
 10
146.5586016978
 20
120.6070620776
 10
146.5779775539
 20
120.6044143766
 10
146.5971445537
 20
120.6006500264
 10
146.6159022495
 20
120.5958010745
  0
LWPOLYLINE
  5
291
100
AcDbEntity
  8
ASSI
100
AcDbPolyline
 62
250
  6
CONTINUOUS
 90
27
 70
0
 10
144.3910351287
 20
119.411540181
 10
144.3809210895
 20
119.4070321047
 10
144.3707115196
 20
119.4023568902
 10
144.3603248556
 20
119.3974884051
 10
144.3498035576
 20
119.3924110381
 10
144.3391729142
 20
119.3870062154
 10
144.3283667498
 20
119.3812309853
 10
144.3174052147
 20
119.375071015
 10
144.306440585
 20
119.3684299501
 10
144.295479261
 20
119.3612763742
 10
144.2845061676
 20
119.3535674541
 10
144.2736536803
 20
119.345168134
 10
144.2629351057
 20
119.3360399581
 10
144.2523780098
 20
119.3261504229
 10
144.242155338
 20
119.3153601787
 10
144.2322685309
 20
119.3035090848
 10
144.2228352418
 20
119.2907287789
 10
144.2142429582
 20
119.2773294536
 10
144.2066719334
 20
119.2632189609
 10
144.2001521986
 20
119.2485693497
 10
144.1948448758
 20
119.2341006389
 10
144.1909258215
 20
119.2199308697
 10
144.1883385633
 20
119.206052922
 10
144.1868255079
 20
119.1929605926
 10
144.1862806508
 20
119.1808129716
 10
144.1867834032
 20
119.1694644314
 10
144.1883103035
 20
119.1589093739
  0
LINE
  5
292
100
AcDbEntity
  8
ASSI
100
AcDbLine
 62
250
  6
CONTINUOUS
 10
144.4319393194
 20
119.4295176873
 11
144.3910351287
 21
119.411540181
  0
LWPOLYLINE
  5
293
100
AcDbEntity
  8
ASSI
100
AcDbPolyline
 62
250
  6
CONTINUOUS
 90
6
 70
0
 10
135.6588715672
 20
120.9644630854
 10
135.6419001663
 20
120.9355490465
 10
135.626732228
 20
120.9070393694
 10
135.6134982607
 20
120.8793115113
 10
135.6020677559
 20
120.851988015
 10
135.5920705656
 20
120.8248211067
  0
LWPOLYLINE
  5
294
100
AcDbEntity
  8
ASSI
100
AcDbPolyline
 62
250
  6
CONTINUOUS
 90
6
 70
0
 10
135.7438897843
 20
121.0150307595
 10
135.7490984498
 20
121.0227942313
 10
135.7518035158
 20
121.0328136156
 10
135.7519425448
 20
121.0449018692
 10
135.7495131719
 20
121.0588537278
 10
135.7445566458
 20
121.074432281
  0
LWPOLYLINE
  5
295
100
AcDbEntity
  8
ASSI
100
AcDbPolyline
 62
7
  6
CONTINUOUS
 90
7
 70
0
 10
144.8494997646
 20
118.4679411541
 10
144.8385349459
 20
118.4597953182
 10
144.8290875764
 20
118.4511496574
 10
144.8210957292
 20
118.4419316835
 10
144.814621331
 20
118.4322138846
 10
144.8098501627
 20
118.4222137248
 10
144.8072531467
 20
118.4133928614
  0
LINE
  5
296
100
AcDbEntity
  8
ASSI
100
AcDbLine
 62
7
  6
CONTINUOUS
 10
143.6536984599
 20
117.5913537265
 11
144.3803788779
 21
118.1037461572
  0
LINE
  5
297
100
AcDbEntity
  8
RACCORDO
100
AcDbLine
 62
250
  6
CONTINUOUS
 10
143.7168790615
 20
117.5551998001
 11
144.5158370019
 21
118.1185561132
  0
LINE
  5
298
100
AcDbEntity
  8
DRAFT
100
AcDbLine
 62
7
  6
CONTINUOUS
 10
145.2358636286
 20
117.0564198957
 11
146.0663918022
 21
117.5912102232
  0
LWPOLYLINE
  5
299
100
AcDbEntity
  8
ASSI
100
AcDbPolyline
 62
7
  6
CONTINUOUS
 90
6
 70
0
 10
147.3280811823
 20
119.8848237483
 10
147.3142037196
 20
119.8759003368
 10
147.3022494482
 20
119.8663745997
 10
147.2922183678
 20
119.8562465369
 10
147.2840271679
 20
119.8453823381
 10
147.2821268809
 20
119.8419060049
  0
LINE
  5
29A
100
AcDbEntity
  8
ASSI
100
AcDbLine
 62
250
  6
CONTINUOUS
 10
147.2740116572
 20
121.0714595571
 11
147.2904238998
 21
121.0815914207
  0
LINE
  5
29B
100
AcDbEntity
  8
ASSI
100
AcDbLine
 62
7
  6
CONTINUOUS
 10
144.8619820323
 20
118.4755871649
 11
144.8494997646
 21
118.4679411541
  0
LINE
  5
29C
100
AcDbEntity
  8
RACCORDO
100
AcDbLine
 62
250
  6
CONTINUOUS
 10
152.2033254238
 20
120.4078670962
 11
148.1730862384
 21
118.0675476539
  0
LINE
  5
29D
100
AcDbEntity
  8
RACCORDO
100
AcDbLine
 62
250
  6
CONTINUOUS
 10
152.3493829195
 20
120.1225493798
 11
148.4926951251
 21
117.8830094884
  0
LINE
  5
29E
100
AcDbEntity
  8
RACCORDO
100
AcDbLine
 62
250
  6
CONTINUOUS
 10
144.4487734712
 20
117.1326131407
 11
145.3361061587
 21
117.6449429824
  0
LINE
  5
29F
100
AcDbEntity
  8
RACCORDO
100
AcDbLine
 62
250
  6
CONTINUOUS
 10
144.7312155892
 20
116.9695346016
 11
145.4773337018
 21
117.4003297025
  0
LINE
  5
2A0
100
AcDbEntity
  8
RACCORDO
100
AcDbLine
 62
250
  6
CONTINUOUS
 10
147.7154001046
 20
118.5196802078
 11
152.0265756525
 21
121.0089074843
  0
LINE
  5
2A1
100
AcDbEntity
  8
DRAFT
100
AcDbLine
 62
7
  6
CONTINUOUS
 10
144.90830073
 20
116.8672878607
 11
145.2358636286
 21
117.0564198957
  0
LINE
  5
2A2
100
AcDbEntity
  8
ASSI
100
AcDbLine
 62
250
  6
CONTINUOUS
 10
145.0829782055
 20
116.7016067826
 11
144.4847206901
 21
116.3561792051
  0
LINE
  5
2A3
100
AcDbEntity
  8
RACCORDO
100
AcDbLine
 62
250
  6
CONTINUOUS
 10
147.9061925577
 20
118.2216487202
 11
152.2033254238
 21
120.7027679004
  0
LINE
  5
2A4
100
AcDbEntity
  8
ASSI
100
AcDbLine
 62
250
  6
CONTINUOUS
 10
145.2243780226
 20
116.4566951155
 11
144.7675064169
 21
116.1929022706
  0
LINE
  5
2A5
100
AcDbEntity
  8
LAY0001
100
AcDbLine
 62
250
  6
CONTINUOUS
 10
144.8907373951
 20
116.1217502482
 11
142.486684118
 21
114.7336868618
  0
LINE
  5
2A6
100
AcDbEntity
  8
ASSI
100
AcDbLine
 62
7
  6
CONTINUOUS
 10
149.6693233368
 20
121.2326196011
 11
147.3280811823
 21
119.8848237483
  0
LINE
  5
2A7
100
AcDbEntity
  8
ASSI
100
AcDbLine
 62
7
  6
CONTINUOUS
 10
146.5388896873
 20
119.4305054935
 11
145.3310162422
 21
118.7351622851
  0
LINE
  5
2A8
100
AcDbEntity
  8
RACCORDO
100
AcDbLine
 62
250
  6
CONTINUOUS
 10
147.7991379029
 20
117.310099771
 11
148.6088174844
 21
117.7673435237
  0
LINE
  5
2A9
100
AcDbEntity
  8
ASSI
100
AcDbLine
 62
7
  6
CONTINUOUS
 10
145.3310162422
 20
118.7351622851
 11
144.8619827714
 21
118.4755875739
  0
LINE
  5
2AA
100
AcDbEntity
  8
ASSI
100
AcDbLine
 62
7
  6
CONTINUOUS
 10
144.1320397436
 20
118.0716190682
 11
142.7951189542
 21
117.3317340717
  0
LINE
  5
2AB
100
AcDbEntity
  8
ASSI
100
AcDbLine
 62
7
  6
CONTINUOUS
 10
143.4585809999
 20
117.5948461105
 11
142.8791219583
 21
117.2832317899
  0
LINE
  5
2AC
100
AcDbEntity
  8
ASSI
100
AcDbLine
 62
250
  6
CONTINUOUS
 10
143.5557743398
 20
117.5833951543
 11
142.9362605471
 21
117.2502406849
  0
LINE
  5
2AD
100
AcDbEntity
  8
ASSI
100
AcDbLine
 62
250
  6
CONTINUOUS
 10
145.110245794
 20
115.9060638077
 11
147.7990786986
 21
117.3101339548
  0
LWPOLYLINE
  5
2AE
100
AcDbEntity
  8
RACCORDO
100
AcDbPolyline
 62
250
  6
CONTINUOUS
 90
8
 70
0
 10
152.3493829195
 20
120.1225493798
 10
152.36286125
 20
120.1292768006
 10
152.375774932
 20
120.1340338524
 10
152.3879078845
 20
120.1367409387
 10
152.3990570915
 20
120.1373527647
 10
152.4090359966
 20
120.1358590949
 10
152.4176776251
 20
120.1322849255
 10
152.4214171997
 20
120.1297612534
  0
LWPOLYLINE
  5
2AF
100
AcDbEntity
  8
RACCORDO
100
AcDbPolyline
 62
250
  6
CONTINUOUS
 90
8
 70
0
 10
152.6936640312
 20
119.8536707316
 10
152.7071423285
 20
119.8603981379
 10
152.7200559849
 20
119.8651551866
 10
152.7321889205
 20
119.8678622797
 10
152.7433381184
 20
119.86847412
 10
152.7533170227
 20
119.86698047
 10
152.7619586594
 20
119.8634063223
 10
152.7656136508
 20
119.8609483635
  0
LWPOLYLINE
  5
2B0
100
AcDbEntity
  8
LAY0001
100
AcDbPolyline
 62
250
  6
CONTINUOUS
 90
16
 70
0
 10
142.8401163547
 20
114.1215242715
 10
142.8008921084
 20
114.1021531148
 10
142.7584181314
 20
114.0852199715
 10
142.7131470466
 20
114.0709052898
 10
142.6655556239
 20
114.0593604359
 10
142.61615626
 20
114.0507102904
 10
142.5654933775
 20
114.0450485054
 10
142.5141197876
 20
114.0424324853
 10
142.4625707798
 20
114.0428851785
 10
142.4113762661
 20
114.0464003491
 10
142.361011074
 20
114.0529519104
 10
142.3120841816
 20
114.0624672823
 10
142.2652930236
 20
114.074792272
 10
142.221162595
 20
114.0897435598
 10
142.1800630019
 20
114.1071484519
 10
142.1423856763
 20
114.1267980102
  0
LWPOLYLINE
  5
2B1
100
AcDbEntity
  8
RACCORDO
100
AcDbPolyline
 62
250
  6
CONTINUOUS
 90
7
 70
0
 10
152.0265756525
 20
121.0089074843
 10
152.0402495119
 20
121.0155022197
 10
152.053663597
 20
121.019919774
 10
152.0665934539
 20
121.0220862297
 10
152.0788227313
 20
121.0219653361
 10
152.0901468006
 20
121.0195591161
 10
152.0997268155
 20
121.0152892893
  0
LWPOLYLINE
  5
2B2
100
AcDbEntity
  8
RACCORDO
100
AcDbPolyline
 62
250
  6
CONTINUOUS
 90
7
 70
0
 10
148.6088174844
 20
117.7673435237
 10
148.6224913437
 20
117.7739382593
 10
148.6359054286
 20
117.7783558137
 10
148.6488352854
 20
117.7805222694
 10
148.6610645629
 20
117.7804013758
 10
148.6723886323
 20
117.7779951557
 10
148.6819179588
 20
117.7737545541
  0
LWPOLYLINE
  5
2B3
100
AcDbEntity
  8
RACCORDO
100
AcDbPolyline
 62
250
  6
CONTINUOUS
 90
5
 70
0
 10
150.6405659357
 20
86.1692652059
 10
150.6560508195
 20
86.173088185
 10
150.6706860363
 20
86.1737722694
 10
150.6841340956
 20
86.1713016839
 10
150.6941437145
 20
86.1669097478
  0
LWPOLYLINE
  5
2B4
100
AcDbEntity
  8
RACCORDO
100
AcDbPolyline
 62
250
  6
CONTINUOUS
 90
5
 70
0
 10
150.3339304881
 20
86.3463126703
 10
150.3494153742
 20
86.3501356508
 10
150.3640505923
 20
86.3508197349
 10
150.3774986518
 20
86.348349148
 10
150.3875407907
 20
86.3439384822
  0
LWPOLYLINE
  5
2B5
100
AcDbEntity
  8
RACCORDO
100
AcDbPolyline
 62
250
  6
CONTINUOUS
 90
10
 70
0
 10
149.4640675433
 20
86.3507570707
 10
149.4824130935
 20
86.3530589321
 10
149.5004199135
 20
86.3532505471
 10
149.5177860001
 20
86.351328702
 10
149.5342200961
 20
86.3473256292
 10
149.5494465752
 20
86.3413084666
 10
149.5632100649
 20
86.3333781315
 10
149.5752797293
 20
86.3236676285
 10
149.5854531407
 20
86.3123398182
 10
149.591254041
 20
86.3037170691
  0
LWPOLYLINE
  5
2B6
100
AcDbEntity
  8
LAY0001
100
AcDbPolyline
 62
7
  6
CONTINUOUS
 90
3
 70
0
 10
145.3830525979
 20
79.2342943502
 10
145.3660957365
 20
79.2397728414
 10
145.3483102702
 20
79.2426676246
  0
LINE
  5
2B7
100
AcDbEntity
  8
LAY0001
100
AcDbLine
 62
7
  6
CONTINUOUS
 10
145.8745595297
 20
78.9778383951
 11
145.3923601391
 21
79.2299810171
  0
LINE
  5
2B8
100
AcDbEntity
  8
RACCORDO
100
AcDbLine
 62
7
  6
CONTINUOUS
 10
146.132110466
 20
78.8219119207
 11
145.7718053253
 21
79.0108941221
  0
LWPOLYLINE
  5
2B9
100
AcDbEntity
  8
LAY0001
100
AcDbPolyline
 62
250
  6
CONTINUOUS
 90
9
 70
0
 10
127.1277248985
 20
80.7638835429
 10
127.1288395836
 20
80.7446171122
 10
127.1349276454
 20
80.7150580416
 10
127.1462745514
 20
80.6859778109
 10
127.1627545971
 20
80.6577280364
 10
127.1841007302
 20
80.6307114082
 10
127.209995452
 20
80.6052310518
 10
127.2401396672
 20
80.5815006619
 10
127.2741715079
 20
80.5597462463
  0
LINE
  5
2BA
100
AcDbEntity
  8
LAY0001
100
AcDbLine
 62
7
  6
CONTINUOUS
 10
127.1277248985
 20
80.7638835429
 11
127.1277248985
 21
122.9156558252
  0
LINE
  5
2BB
100
AcDbEntity
  8
LAY0001
100
AcDbLine
 62
250
  6
CONTINUOUS
 10
127.2741715079
 20
80.5597462463
 11
127.2741715079
 21
122.7115185285
  0
LWPOLYLINE
  5
2BC
100
AcDbEntity
  8
LAY0001
100
AcDbPolyline
 62
250
  6
CONTINUOUS
 90
16
 70
0
 10
127.2741715079
 20
122.7115185285
 10
127.2760443448
 20
122.7545634059
 10
127.2816430141
 20
122.7993149554
 10
127.2909082014
 20
122.8452990628
 10
127.303741748
 20
122.8920285558
 10
127.3200076906
 20
122.939008365
 10
127.339533702
 20
122.9857407687
 10
127.3621129161
 20
123.0317306667
 10
127.3875061207
 20
123.0764908253
 10
127.415444291
 20
123.1195470392
 10
127.4456314399
 20
123.1604431552
 10
127.4777477536
 20
123.1987459049
 10
127.51145298
 20
123.2340494946
 10
127.5463900336
 20
123.2659799052
 10
127.5821887785
 20
123.2941988544
 10
127.6184699497
 20
123.3184073801
  0
LINE
  5
2BD
100
AcDbEntity
  8
ASSI
100
AcDbLine
 62
7
  6
CONTINUOUS
 10
137.9997736185
 20
121.0458464163
 11
138.3815858892
 21
121.8557169321
  0
LINE
  5
2BE
100
AcDbEntity
  8
ASSI
100
AcDbLine
 62
250
  6
CONTINUOUS
 10
138.0582028668
 20
120.9714914085
 11
138.4400151374
 21
121.7813619243
  0
LWPOLYLINE
  5
2BF
100
AcDbEntity
  8
ASSI
100
AcDbPolyline
 62
7
  6
CONTINUOUS
 90
13
 70
0
 10
137.9997745534
 20
121.0458483988
 10
137.9896077964
 20
121.0255160932
 10
137.9772807742
 20
121.0035127044
 10
137.9636898137
 20
120.9817563727
 10
137.949020781
 20
120.9605539849
 10
137.9334843543
 20
120.9402038764
 10
137.9172528208
 20
120.9209105825
 10
137.9005567815
 20
120.9029088679
 10
137.8836714996
 20
120.886441074
 10
137.8669123154
 20
120.871730588
 10
137.8506412358
 20
120.8589737347
 10
137.8352053985
 20
120.8482933404
 10
137.8216833299
 20
120.8401484267
  0
LWPOLYLINE
  5
2C0
100
AcDbEntity
  8
ASSI
100
AcDbPolyline
 62
7
  6
CONTINUOUS
 90
7
 70
0
 10
142.4041491838
 20
123.0261765491
 10
142.4045045621
 20
123.0267313392
 10
142.4039666906
 20
123.0261075821
 10
142.4012225934
 20
123.0233252714
 10
142.396049461
 20
123.0189390314
 10
142.3885966972
 20
123.0135979055
 10
142.3781445749
 20
123.0072546874
  0
LWPOLYLINE
  5
2C1
100
AcDbEntity
  8
ASSI
100
AcDbPolyline
 62
250
  6
CONTINUOUS
 90
11
 70
0
 10
144.640308251
 20
119.5683688271
 10
144.6264390183
 20
119.5546212574
 10
144.6186295476
 20
119.5470682052
 10
144.6101045046
 20
119.5391356781
 10
144.6008494532
 20
119.5308002412
 10
144.590707594
 20
119.5221117297
 10
144.5795663258
 20
119.5131462341
 10
144.5674414544
 20
119.5039146695
 10
144.554222518
 20
119.4944615762
 10
144.5396898737
 20
119.4848805594
 10
144.5236743122
 20
119.4752568053
  0
LWPOLYLINE
  5
2C2
100
AcDbEntity
  8
ASSI
100
AcDbPolyline
 62
250
  6
CONTINUOUS
 90
3
 70
0
 10
147.2658952896
 20
121.0934233327
 10
147.2768993086
 20
121.103048371
 10
147.289193025
 20
121.1118495971
  0
LWPOLYLINE
  5
2C3
100
AcDbEntity
  8
RACCORDO
100
AcDbPolyline
 62
250
  6
CONTINUOUS
 90
7
 70
0
 10
152.2033254238
 20
120.7027679004
 10
152.2158730866
 20
120.7113132693
 10
152.2264053192
 20
120.720722341
 10
152.234745889
 20
120.7308376762
 10
152.240755236
 20
120.7414900182
 10
152.2443328078
 20
120.7525011246
 10
152.2454244375
 20
120.7628905924
  0
LWPOLYLINE
  5
2C4
100
AcDbEntity
  8
RACCORDO
100
AcDbPolyline
 62
250
  6
CONTINUOUS
 90
7
 70
0
 10
152.2033254238
 20
120.4078670962
 10
152.2158730852
 20
120.416412464
 10
152.226405317
 20
120.4258215345
 10
152.2347458867
 20
120.4359368687
 10
152.2407552341
 20
120.4465892098
 10
152.2443328068
 20
120.4576003156
 10
152.2454244538
 20
120.4680301517
  0
LWPOLYLINE
  5
2C5
100
AcDbEntity
  8
RACCORDO
100
AcDbPolyline
 62
250
  6
CONTINUOUS
 90
7
 70
0
 10
152.8397215269
 20
119.5683530153
 10
152.8522692302
 20
119.5768984131
 10
152.8628014833
 20
119.5863075143
 10
152.8711420556
 20
119.5964228767
 10
152.8771513906
 20
119.6070752419
 10
152.8807289391
 20
119.6180863651
 10
152.8818205034
 20
119.6284429468
  0
LWPOLYLINE
  5
2C6
100
AcDbEntity
  8
RACCORDO
100
AcDbPolyline
 62
250
  6
CONTINUOUS
 90
7
 70
0
 10
152.8397215269
 20
119.1884041824
 10
152.8522691882
 20
119.1969495502
 10
152.86280142
 20
119.2063586207
 10
152.8711419898
 20
119.2164739549
 10
152.8771513372
 20
119.227126296
 10
152.8807289099
 20
119.2381374018
 10
152.8818205482
 20
119.2485378018
  0
LWPOLYLINE
  5
2C7
100
AcDbEntity
  8
RACCORDO
100
AcDbPolyline
 62
7
  6
CONTINUOUS
 90
16
 70
0
 10
149.3586419946
 20
116.7232906793
 10
149.3731806194
 20
116.7331887938
 10
149.3880119016
 20
116.7459069739
 10
149.4014036124
 20
116.7604337441
 10
149.4130685084
 20
116.7765190612
 10
149.4228521663
 20
116.7939797823
 10
149.4306830197
 20
116.8127916223
 10
149.4364160604
 20
116.8328566683
 10
149.4398593065
 20
116.8537830118
 10
149.4409396263
 20
116.875265164
 10
149.4395748427
 20
116.8976435543
 10
149.4356690058
 20
116.9203301909
 10
149.429575856
 20
116.9419375126
 10
149.4214065679
 20
116.9627730783
 10
149.411194789
 20
116.982882557
 10
149.4062296024
 20
116.9912038458
  0
LWPOLYLINE
  5
2C8
100
AcDbEntity
  8
LAY0001
100
AcDbPolyline
 62
250
  6
CONTINUOUS
 90
16
 70
0
 10
142.486684118
 20
114.7336868618
 10
142.4504029468
 20
114.709478336
 10
142.4146042019
 20
114.6812593869
 10
142.3796671483
 20
114.6493289763
 10
142.3459619219
 20
114.6140253866
 10
142.3138456082
 20
114.5757226369
 10
142.2836584594
 20
114.5348265209
 10
142.2557202891
 20
114.4917703069
 10
142.2303270845
 20
114.4470101484
 10
142.2077478703
 20
114.4010202504
 10
142.188221859
 20
114.3542878467
 10
142.1719559163
 20
114.3073080375
 10
142.1591223697
 20
114.2605785445
 10
142.1498571824
 20
114.2145944371
 10
142.1442585132
 20
114.1698428875
 10
142.1423856763
 20
114.1267980102
  0
LWPOLYLINE
  5
2C9
100
AcDbEntity
  8
ASSI
100
AcDbPolyline
 62
250
  6
CONTINUOUS
 90
9
 70
0
 10
145.2243780226
 20
116.4566951155
 10
145.2380329357
 20
116.4657589299
 10
145.2499802334
 20
116.4755901107
 10
145.260092074
 20
116.4860817583
 10
145.2682563372
 20
116.4971132407
 10
145.2743930646
 20
116.5085711988
 10
145.2784430251
 20
116.520353051
 10
145.2803544736
 20
116.5323584274
 10
145.2805100582
 20
116.5368884315
  0
LWPOLYLINE
  5
2CA
100
AcDbEntity
  8
ASSI
100
AcDbPolyline
 62
250
  6
CONTINUOUS
 90
8
 70
0
 10
145.2243780226
 20
116.0873841259
 10
145.2379843871
 20
116.096412124
 10
145.2498994237
 20
116.1062047327
 10
145.2599951558
 20
116.1166567773
 10
145.268163352
 20
116.1276563221
 10
145.2743159562
 20
116.1390849305
 10
145.278386618
 20
116.1508188275
 10
145.28019194
 20
116.1618729737
  0
LWPOLYLINE
  5
2CB
100
AcDbEntity
  8
RACCORDO
100
AcDbPolyline
 62
250
  6
CONTINUOUS
 90
25
 70
0
 10
149.3586457604
 20
116.7232929048
 10
149.3631595406
 20
116.7262720649
 10
149.368533773
 20
116.7305400439
 10
149.3735311517
 20
116.7353625534
 10
149.3780981928
 20
116.7406784404
 10
149.3822613801
 20
116.7465080013
 10
149.386093045
 20
116.7529940923
 10
149.3895765933
 20
116.7602204444
 10
149.392624833
 20
116.7681366215
 10
149.3951793717
 20
116.7767072659
 10
149.3971985117
 20
116.7859209164
 10
149.3986429809
 20
116.7957673478
 10
149.399472766
 20
116.8061933985
 10
149.3996569622
 20
116.817173986
 10
149.3991665043
 20
116.8286705755
 10
149.397982461
 20
116.8405927762
 10
149.3961039588
 20
116.852819724
 10
149.3935159222
 20
116.8653669968
 10
149.3901647716
 20
116.8783447894
 10
149.3860328147
 20
116.8916589286
 10
149.3810885842
 20
116.9052753248
 10
149.3751953457
 20
116.9193856535
 10
149.3682563636
 20
116.933979677
 10
149.360265509
 20
116.9488456299
 10
149.3511953878
 20
116.9638405871
  0
LINE
  5
2CC
100
AcDbEntity
  8
RACCORDO
100
AcDbLine
 62
250
  6
CONTINUOUS
 10
146.939527551
 20
115.5002951898
 11
149.3511953878
 21
116.9638405871
  0
LINE
  5
2CD
100
AcDbEntity
  8
RACCORDO
100
AcDbLine
 62
7
  6
CONTINUOUS
 10
147.1015928559
 20
115.3540982339
 11
149.3574272442
 21
116.7225721088
  0
LINE
  5
2CE
100
AcDbEntity
  8
RACCORDO
100
AcDbLine
 62
250
  6
CONTINUOUS
 10
152.6936640312
 20
119.8536707316
 11
148.8774587061
 21
117.6376386037
  0
LINE
  5
2CF
100
AcDbEntity
  8
RACCORDO
100
AcDbLine
 62
250
  6
CONTINUOUS
 10
152.8397215269
 20
119.5683530153
 11
149.1153392363
 21
117.4056416019
  0
LINE
  5
2D0
100
AcDbEntity
  8
LAY0001
100
AcDbLine
 62
250
  6
CONTINUOUS
 10
145.2441696318
 20
115.5095876579
 11
142.8401163547
 21
114.1215242715
  0
LINE
  5
2D1
100
AcDbEntity
  8
RACCORDO
100
AcDbLine
 62
250
  6
CONTINUOUS
 10
146.0043094216
 20
112.9478324412
 11
145.2441696318
 21
112.5089372534
  0
LWPOLYLINE
  5
2D2
100
AcDbEntity
  8
RACCORDO
100
AcDbPolyline
 62
250
  6
CONTINUOUS
 90
9
 70
0
 10
149.3511953878
 20
116.9638405871
 10
149.3641225394
 20
116.9711933918
 10
149.3756258573
 20
116.9775507866
 10
149.3855128598
 20
116.982806395
 10
149.393618111
 20
116.9868722766
 10
149.3998059882
 20
116.9896803983
 10
149.4039729515
 20
116.9911837726
 10
149.4060492765
 20
116.9913572441
 10
149.4062296024
 20
116.9912038458
  0
LINE
  5
2D3
100
AcDbEntity
  8
RACCORDO
100
AcDbLine
 62
250
  6
CONTINUOUS
 10
148.4421458676
 20
116.646457981
 11
149.2735501008
 21
117.1155576628
  0
LWPOLYLINE
  5
2D4
100
AcDbEntity
  8
RACCORDO
100
AcDbPolyline
 62
250
  6
CONTINUOUS
 90
8
 70
0
 10
149.2735501008
 20
117.1155576628
 10
149.2850665882
 20
117.1218943899
 10
149.294974386
 20
117.1271169859
 10
149.3031077234
 20
117.1311380713
 10
149.3093305122
 20
117.1338903671
 10
149.3135386357
 20
117.1353278277
 10
149.3156617077
 20
117.1354264184
 10
149.3158547829
 20
117.1352526244
  0
LINE
  5
2D5
100
AcDbEntity
  8
ASSI
100
AcDbLine
 62
250
  6
CONTINUOUS
 10
145.2441696318
 20
114.9851827455
 11
148.4421458676
 21
116.646457981
  0
LINE
  5
2D6
100
AcDbEntity
  8
DRAFT
100
AcDbLine
 62
250
  6
CONTINUOUS
 10
145.6314840098
 20
78.9947688619
 11
145.2517276953
 21
79.2140353984
  0
LINE
  5
2D7
100
AcDbEntity
  8
DRAFT
100
AcDbLine
 62
250
  6
CONTINUOUS
 10
145.7718053253
 20
79.0108941221
 11
145.3923601391
 21
79.2299810171
  0
LINE
  5
2D8
100
AcDbEntity
  8
RACCORDO
100
AcDbLine
 62
7
  6
CONTINUOUS
 10
145.8745595297
 20
78.9778383951
 11
146.1296638622
 21
78.8305443507
  0
LWPOLYLINE
  5
2D9
100
AcDbEntity
  8
LAY0001
100
AcDbPolyline
 62
250
  6
CONTINUOUS
 90
9
 70
0
 10
127.1277248989
 20
122.9156444183
 10
127.1288414347
 20
122.8963734214
 10
127.1349328587
 20
122.8668127853
 10
127.146283022
 20
122.8377326438
 10
127.1627656463
 20
122.8094841858
 10
127.1841128579
 20
122.782470223
 10
127.2100064126
 20
122.7569937136
 10
127.2401467308
 20
122.7332679399
 10
127.2741715079
 20
122.7115185285
  0
LWPOLYLINE
  5
2DA
100
AcDbEntity
  8
RACCORDO
100
AcDbPolyline
 62
250
  6
CONTINUOUS
 90
8
 70
0
 10
129.8911834205
 20
106.7888735286
 10
129.8930774603
 20
106.7477673616
 10
129.8987392863
 20
106.7092888083
 10
129.9081082361
 20
106.6738501398
 10
129.9210839277
 20
106.6418310569
 10
129.9375273356
 20
106.6135746218
 10
129.9572622802
 20
106.5893835827
 10
129.9800773151
 20
106.5695171298
  0
LINE
  5
2DB
100
AcDbEntity
  8
RACCORDO
100
AcDbLine
 62
250
  6
CONTINUOUS
 10
129.3962840608
 20
94.3175232589
 11
129.3962840608
 21
106.5031793532
  0
LINE
  5
2DC
100
AcDbEntity
  8
RACCORDO
100
AcDbLine
 62
250
  6
CONTINUOUS
 10
130.0972009435
 20
94.2985093789
 11
130.0971666366
 21
106.4996484733
  0
LINE
  5
2DD
100
AcDbEntity
  8
RACCORDO
100
AcDbLine
 62
7
  6
CONTINUOUS
 10
130.6070592612
 20
106.2064508147
 11
130.6070592612
 21
94.6083953609
  0
LINE
  5
2DE
100
AcDbEntity
  8
RACCORDO
100
AcDbLine
 62
250
  6
CONTINUOUS
 10
130.6271584317
 20
106.1948458055
 11
130.6271584317
 21
94.51329443
  0
LINE
  5
2DF
100
AcDbEntity
  8
IMPORT_IGES
100
AcDbLine
 62
7
  6
CONTINUOUS
 10
130.7838359565
 20
94.3430575277
 11
130.7838359565
 21
106.1043821664
  0
LWPOLYLINE
  5
2E0
100
AcDbEntity
  8
RACCORDO
100
AcDbPolyline
 62
250
  6
CONTINUOUS
 90
19
 70
0
 10
129.3962840608
 20
106.5031793532
 10
129.3983965758
 20
106.5524824545
 10
129.4039843572
 20
106.5984181259
 10
129.4130474048
 20
106.6409863674
 10
129.42570058
 20
106.680350989
 10
129.4418290215
 20
106.7163481808
 10
129.4610881451
 20
106.7484865124
 10
129.483532593
 20
106.776778611
 10
129.5091077228
 20
106.8012118495
 10
129.5373050243
 20
106.8212569168
 10
129.5680319096
 20
106.8368758644
 10
129.6013809665
 20
106.8481066407
 10
129.6371214472
 20
106.8545337794
 10
129.6755519357
 20
106.8561119855
 10
129.716373848
 20
106.8528865539
 10
129.7584606837
 20
106.8445779036
 10
129.801436943
 20
106.8310928411
 10
129.8456781257
 20
106.8125245599
 10
129.8911842319
 20
106.7888730601
  0
LWPOLYLINE
  5
2E1
100
AcDbEntity
  8
RACCORDO
100
AcDbPolyline
 62
250
  6
CONTINUOUS
 90
16
 70
0
 10
129.8911834205
 20
93.4603314872
 10
129.893077476
 20
93.503625032
 10
129.8987393446
 20
93.5486418911
 10
129.9081083557
 20
93.5948997336
 10
129.921084119
 20
93.6419029336
 10
129.9375276007
 20
93.6891478815
 10
129.9572626136
 20
93.7361283797
 10
129.9800777039
 20
93.7823410637
 10
130.0057284183
 20
93.8272907993
 10
130.0339399246
 20
93.8704959875
 10
130.064409952
 20
93.9114937182
 10
130.0968120332
 20
93.9498447349
 10
130.1307990055
 20
93.9851381439
 10
130.1660067236
 20
94.0169958078
 10
130.2020579605
 20
94.0450763987
 10
130.2385664537
 20
94.069079059
  0
LWPOLYLINE
  5
2E2
100
AcDbEntity
  8
ASSI
100
AcDbPolyline
 62
7
  6
CONTINUOUS
 90
12
 70
0
 10
135.6231463777
 20
120.7876412433
 10
135.6267280774
 20
120.8041921715
 10
135.6325382556
 20
120.8252600458
 10
135.6399297637
 20
120.8473197987
 10
135.6488996882
 20
120.8700378454
 10
135.6594072229
 20
120.8930728614
 10
135.6712389466
 20
120.9158463616
 10
135.6842512505
 20
120.9380487418
 10
135.698242884
 20
120.9593404062
 10
135.7127926757
 20
120.9791670431
 10
135.7276472249
 20
120.9973212396
 10
135.7438897843
 20
121.0150307595
  0
LINE
  5
2E3
100
AcDbEntity
  8
ASSI
100
AcDbLine
 62
250
  6
CONTINUOUS
 10
135.5920705656
 20
120.8248211067
 11
135.5868223429
 21
120.8086142857
  0
LWPOLYLINE
  5
2E4
100
AcDbEntity
  8
ASSI
100
AcDbPolyline
 62
250
  6
CONTINUOUS
 90
9
 70
0
 10
137.9997736185
 20
121.0458464163
 10
137.9988221815
 20
121.0430985487
 10
137.998785649
 20
121.0358063959
 10
138.0017497308
 20
121.027272919
 10
138.0076655291
 20
121.0176388922
 10
138.0164354528
 20
121.0070632454
 10
138.0279148271
 20
120.9957204417
 10
138.04191428
 20
120.9837976002
 10
138.0582028668
 20
120.9714914085
  0
LWPOLYLINE
  5
2E5
100
AcDbEntity
  8
ASSI
100
AcDbPolyline
 62
250
  6
CONTINUOUS
 90
11
 70
0
 10
138.3815858892
 20
121.8557169321
 10
138.3809856435
 20
121.854216752
 10
138.3802541324
 20
121.8486767086
 10
138.3814572978
 20
121.8423040091
 10
138.3845794121
 20
121.8351745188
 10
138.3895816073
 20
121.8273668494
 10
138.3964064585
 20
121.8189643126
 10
138.4049699219
 20
121.8100641945
 10
138.4151706015
 20
121.8007649342
 10
138.4268956289
 20
121.7911636185
 10
138.4400151374
 20
121.7813619243
  0
LWPOLYLINE
  5
2E6
100
AcDbEntity
  8
ASSI
100
AcDbPolyline
 62
250
  6
CONTINUOUS
 90
10
 70
0
 10
138.4400151374
 20
121.7813619243
 10
138.4490522731
 20
121.802445271
 10
138.4596234544
 20
121.823095669
 10
138.4715857243
 20
121.843033857
 10
138.4847773141
 20
121.8619902051
 10
138.49901983
 20
121.8797083611
 10
138.5141206667
 20
121.895948717
 10
138.5298756111
 20
121.9104916497
 10
138.5460716047
 20
121.9231404907
 10
138.5624896245
 20
121.9337241859
  0
LWPOLYLINE
  5
2E7
100
AcDbEntity
  8
RACCORDO
100
AcDbPolyline
 62
250
  6
CONTINUOUS
 90
5
 70
0
 10
150.3865381154
 20
122.4164175968
 10
150.3956702486
 20
122.4271558633
 10
150.4019184747
 20
122.4383261976
 10
150.4051538658
 20
122.4496981077
 10
150.4055143769
 20
122.4589474318
  0
LWPOLYLINE
  5
2E8
100
AcDbEntity
  8
ASSI
100
AcDbPolyline
 62
250
  6
CONTINUOUS
 90
10
 70
0
 10
144.8161312167
 20
119.7188041708
 10
144.8023863977
 20
119.7027863042
 10
144.7907564582
 20
119.6860997647
 10
144.7813980063
 20
119.6689692239
 10
144.7744370661
 20
119.6516253308
 10
144.7699673846
 20
119.6343016183
 10
144.768049163
 20
119.6172313588
 10
144.7687082427
 20
119.6006444055
 10
144.7719357623
 20
119.5847640983
 10
144.7760464083
 20
119.5733791384
  0
LINE
  5
2E9
100
AcDbEntity
  8
ASSI
100
AcDbLine
 62
250
  6
CONTINUOUS
 10
145.0838560472
 20
115.9432603826
 11
145.2243780226
 21
116.0873841259
  0
LINE
  5
2EA
100
AcDbEntity
  8
ASSI
100
AcDbLine
 62
7
  6
CONTINUOUS
 10
145.1080634415
 20
115.9093706774
 11
145.2237094321
 21
116.0279808309
  0
LINE
  5
2EB
100
AcDbEntity
  8
RACCORDO
100
AcDbLine
 62
7
  6
CONTINUOUS
 10
150.3996617715
 20
121.9482671691
 11
149.7464700133
 21
121.2907253565
  0
LINE
  5
2EC
100
AcDbEntity
  8
RACCORDO
100
AcDbLine
 62
250
  6
CONTINUOUS
 10
147.4968397205
 20
114.7029307052
 11
152.8397215269
 21
119.1884041824
  0
LINE
  5
2ED
100
AcDbEntity
  8
RACCORDO
100
AcDbLine
 62
7
  6
CONTINUOUS
 10
147.5208668635
 20
114.6629640296
 11
152.8201223089
 21
119.1118121627
  0
LWPOLYLINE
  5
2EE
100
AcDbEntity
  8
LAY0001
100
AcDbPolyline
 62
7
  6
CONTINUOUS
 90
10
 70
0
 10
145.6386787571
 20
110.2315171974
 10
145.6563975591
 20
110.2429911264
 10
145.6737365406
 20
110.2558568139
 10
145.6906957016
 20
110.2701142598
 10
145.7073854692
 20
110.2858796273
 10
145.7236954164
 20
110.3030367533
 10
145.7392942615
 20
110.3212371487
 10
145.7540715773
 20
110.3403646503
 10
145.7681377911
 20
110.3605354214
 10
145.7814929027
 20
110.3817494617
  0
LINE
  5
2EF
100
AcDbEntity
  8
LAY0001
100
AcDbLine
 62
7
  6
CONTINUOUS
 10
145.2441696318
 20
109.9957813505
 11
145.6386787571
 21
110.2315171974
  0
LINE
  5
2F0
100
AcDbEntity
  8
RACCORDO
100
AcDbLine
 62
250
  6
CONTINUOUS
 10
146.1457307778
 20
112.7028834672
 11
145.2441696318
 21
112.1823333607
  0
LINE
  5
2F1
100
AcDbEntity
  8
RACCORDO
100
AcDbLine
 62
7
  6
CONTINUOUS
 10
145.9708524107
 20
109.798358562
 11
145.258812965
 21
109.3873153703
  0
LWPOLYLINE
  5
2F2
100
AcDbEntity
  8
RACCORDO
100
AcDbPolyline
 62
250
  6
CONTINUOUS
 90
6
 70
0
 10
145.3148585811
 20
108.7346725176
 10
145.3015461269
 20
108.7280038674
 10
145.2864127888
 20
108.7227882011
 10
145.269928634
 20
108.719187526
 10
145.2526056882
 20
108.7173136852
 10
145.2441696318
 20
108.7172711778
  0
LWPOLYLINE
  5
2F3
100
AcDbEntity
  8
RACCORDO
100
AcDbPolyline
 62
7
  6
CONTINUOUS
 90
16
 70
0
 10
145.9708524107
 20
109.798358562
 10
145.9829284501
 20
109.8038101693
 10
145.9958714851
 20
109.8069210236
 10
146.0096815155
 20
109.8076911249
 10
146.024638417
 20
109.8060358122
 10
146.040462314
 20
109.8020397465
 10
146.0563135799
 20
109.7959569105
 10
146.0720601391
 20
109.7877391824
 10
146.0878340673
 20
109.7774346839
 10
146.1031919639
 20
109.7654417637
 10
146.1181538654
 20
109.7517073326
 10
146.1326997353
 20
109.7362844797
 10
146.1463260648
 20
109.7197308207
 10
146.1588650175
 20
109.7022322273
 10
146.1704844298
 20
109.6836028278
 10
146.1811843016
 20
109.663842622
  0
LWPOLYLINE
  5
2F4
100
AcDbEntity
  8
RACCORDO
100
AcDbPolyline
 62
250
  6
CONTINUOUS
 90
16
 70
0
 10
129.3962840608
 20
94.3175223221
 10
129.4347253437
 20
94.2975139967
 10
129.4765428346
 20
94.2799072364
 10
129.5212884878
 20
94.2648906853
 10
129.5684828848
 20
94.2526252353
 10
129.6176203703
 20
94.2432423024
 10
129.6681744702
 20
94.236842418
 10
129.7196035324
 20
94.2334941526
 10
129.77135653
 20
94.2332333804
 10
129.8228789656
 20
94.2360628955
 10
129.8736188121
 20
94.2419523815
 10
129.923032427
 20
94.2508387368
 10
129.9705903778
 20
94.2626267501
 10
130.0157831139
 20
94.2771901211
 10
130.0581264266
 20
94.2943728133
 10
130.0971666366
 20
94.3139907261
  0
LINE
  5
2F5
100
AcDbEntity
  8
RACCORDO
100
AcDbLine
 62
250
  6
CONTINUOUS
 10
139.5253729523
 20
87.8976711963
 11
129.8911840408
 21
93.4603311291
  0
LINE
  5
2F6
100
AcDbEntity
  8
RACCORDO
100
AcDbLine
 62
7
  6
CONTINUOUS
 10
130.7484590783
 20
94.3634836938
 11
139.873826514
 21
89.0946109042
  0
LWPOLYLINE
  5
2F7
100
AcDbEntity
  8
RACCORDO
100
AcDbPolyline
 62
250
  6
CONTINUOUS
 90
18
 70
0
 10
139.8727567968
 20
88.5064182997
 10
130.2256772816
 20
94.0765343676
 10
130.213012743
 20
94.085159289
 10
130.2006633862
 20
94.0948671651
 10
130.1887350428
 20
94.1055411956
 10
130.1772844335
 20
94.1171035173
 10
130.1663261028
 20
94.1295334735
 10
130.1559214172
 20
94.1427616073
 10
130.1461625907
 20
94.1566709361
 10
130.1371139657
 20
94.171179078
 10
130.1288716862
 20
94.186128507
 10
130.1214663145
 20
94.2014617693
 10
130.1148865523
 20
94.2172517354
 10
130.1091841865
 20
94.2334896886
 10
130.1044852417
 20
94.249949614
 10
130.1008902092
 20
94.2663750525
 10
130.0984520363
 20
94.2825923779
 10
130.0972009435
 20
94.2985093789
  0
LWPOLYLINE
  5
2F8
100
AcDbEntity
  8
RACCORDO
100
AcDbPolyline
 62
250
  6
CONTINUOUS
 90
4
 70
0
 10
129.8911840408
 20
93.4603311291
 10
129.8474285674
 20
93.4880342348
 10
129.8048516667
 20
93.5190696099
 10
129.7634533387
 20
93.5534372544
  0
LWPOLYLINE
  5
2F9
100
AcDbEntity
  8
RACCORDO
100
AcDbPolyline
 62
250
  6
CONTINUOUS
 90
8
 70
0
 10
140.0202731234
 20
88.1833641872
 10
139.9856197814
 20
88.2055598003
 10
139.9551258592
 20
88.2297047927
 10
139.9291180719
 20
88.2555404623
 10
139.9078750679
 20
88.2827899928
 10
139.8916244424
 20
88.3111614208
 10
139.8805403001
 20
88.3403507639
 10
139.8747413906
 20
88.370045276
  0
LWPOLYLINE
  5
2FA
100
AcDbEntity
  8
RACCORDO
100
AcDbPolyline
 62
250
  6
CONTINUOUS
 90
16
 70
0
 10
129.7634533387
 20
93.5534372544
 10
129.723034279
 20
93.5913848705
 10
129.6837937919
 20
93.632664756
 10
129.6463297911
 20
93.6765338045
 10
129.6106040171
 20
93.7230771997
 10
129.5766547294
 20
93.7722097579
 10
129.5451946193
 20
93.8229328213
 10
129.5163028506
 20
93.8750937745
 10
129.4899002597
 20
93.928845233
 10
129.4664620475
 20
93.9836463857
 10
129.4458781356
 20
94.0399055546
 10
129.4282586025
 20
94.0972144177
 10
129.4144088848
 20
94.1538071974
 10
129.4045974614
 20
94.2090953013
 10
129.3985558534
 20
94.2636673218
 10
129.3962840608
 20
94.3175232589
  0
LINE
  5
2FB
100
AcDbEntity
  8
IMPORT_IGES
100
AcDbLine
 62
7
  6
CONTINUOUS
 10
131.6323640939
 20
97.9763423685
 11
131.6323640939
 21
100.4257531988
  0
LINE
  5
2FC
100
AcDbEntity
  8
IMPORT_IGES
100
AcDbLine
 62
250
  6
CONTINUOUS
 10
132.1626941798
 20
95.8739018145
 11
132.1626941798
 21
97.6701364235
  0
LINE
  5
2FD
100
AcDbEntity
  8
IMPORT_IGES
100
AcDbLine
 62
250
  6
CONTINUOUS
 10
132.1626941798
 20
100.1195472538
 11
132.1626941798
 21
101.9974288905
  0
LINE
  5
2FE
100
AcDbEntity
  8
IMPORT_IGES
100
AcDbLine
 62
250
  6
CONTINUOUS
 10
132.5869582485
 20
101.6510131491
 11
132.5869582485
 21
100.1195472538
  0
LINE
  5
2FF
100
AcDbEntity
  8
IMPORT_IGES
100
AcDbLine
 62
250
  6
CONTINUOUS
 10
132.5869582485
 20
97.6701364235
 11
132.5869582485
 21
96.1188428976
  0
LINE
  5
300
100
AcDbEntity
  8
IMPORT_IGES
100
AcDbLine
 62
250
  6
CONTINUOUS
 10
133.470841725
 20
93.812241374
 11
133.470841725
 21
95.1185938169
  0
LINE
  5
301
100
AcDbEntity
  8
IMPORT_IGES
100
AcDbLine
 62
250
  6
CONTINUOUS
 10
133.8951057937
 20
95.3635348999
 11
133.8951057937
 21
94.057182457
  0
LWPOLYLINE
  5
302
100
AcDbEntity
  8
RACCORDO
100
AcDbPolyline
 62
250
  6
CONTINUOUS
 90
9
 70
0
 10
152.8201309297
 20
119.1118194012
 10
152.8259716453
 20
119.1176313515
 10
152.8306673112
 20
119.12409539
 10
152.8346008811
 20
119.1316248277
 10
152.8377018372
 20
119.1402569885
 10
152.839913811
 20
119.1501957722
 10
152.8410927718
 20
119.1615547456
 10
152.8410758018
 20
119.174293175
 10
152.8397215269
 20
119.1884041824
  0
LWPOLYLINE
  5
303
100
AcDbEntity
  8
RACCORDO
100
AcDbPolyline
 62
7
  6
CONTINUOUS
 90
9
 70
0
 10
152.8201196196
 20
119.1118118653
 10
152.8311416715
 20
119.1219382071
 10
152.84405098
 20
119.1364947314
 10
152.855301257
 20
119.1525829947
 10
152.8646935441
 20
119.1699597159
 10
152.8721622291
 20
119.1885699456
 10
152.8775812037
 20
119.2082853441
 10
152.8808186936
 20
119.2287971369
 10
152.8818205482
 20
119.2485378018
  0
LINE
  5
304
100
AcDbEntity
  8
RACCORDO
100
AcDbLine
 62
250
  6
CONTINUOUS
 10
145.26141923
 20
109.0497332202
 11
145.2441696318
 21
109.0373049388
  0
LINE
  5
305
100
AcDbEntity
  8
RACCORDO
100
AcDbLine
 62
250
  6
CONTINUOUS
 10
146.1811843016
 20
109.663842622
 11
145.26141923
 21
109.0497332202
  0
LINE
  5
306
100
AcDbEntity
  8
RACCORDO
100
AcDbLine
 62
250
  6
CONTINUOUS
 10
145.9708527242
 20
109.798358743
 11
145.2441696318
 21
109.3136250651
  0
LINE
  5
307
100
AcDbEntity
  8
RACCORDO
100
AcDbLine
 62
250
  6
CONTINUOUS
 10
145.2441696318
 20
109.3775755423
 11
145.258812965
 21
109.3873153703
  0
LINE
  5
308
100
AcDbEntity
  8
RACCORDO
100
AcDbLine
 62
250
  6
CONTINUOUS
 10
149.2449696202
 20
111.4034739169
 11
145.26141923
 21
109.0497332202
  0
LINE
  5
309
100
AcDbEntity
  8
RACCORDO
100
AcDbLine
 62
250
  6
CONTINUOUS
 10
149.3103589183
 20
111.0947200751
 11
145.3148585811
 21
108.7346725176
  0
LINE
  5
30A
100
AcDbEntity
  8
IMPORT_IGES
100
AcDbLine
 62
7
  6
CONTINUOUS
 10
149.3524579483
 20
110.411241086
 11
153.0576995639
 21
112.5506011573
  0
LINE
  5
30B
100
AcDbEntity
  8
IMPORT_IGES
100
AcDbLine
 62
7
  6
CONTINUOUS
 10
133.9131611735
 20
100.8852802015
 11
132.5869582485
 21
100.1195472538
  0
LINE
  5
30C
100
AcDbEntity
  8
IMPORT_IGES
100
AcDbLine
 62
7
  6
CONTINUOUS
 10
149.3524579483
 20
109.4314767538
 11
151.0778005766
 21
110.4276679638
  0
LINE
  5
30D
100
AcDbEntity
  8
IMPORT_IGES
100
AcDbLine
 62
7
  6
CONTINUOUS
 10
135.2918143962
 20
100.0892631093
 11
131.6323640939
 21
97.9763423685
  0
LINE
  5
30E
100
AcDbEntity
  8
IMPORT_IGES
100
AcDbLine
 62
7
  6
CONTINUOUS
 10
151.0778005766
 20
108.8763744379
 11
154.4719131263
 21
110.8360924859
  0
LWPOLYLINE
  5
30F
100
AcDbEntity
  8
IMPORT_IGES
100
AcDbPolyline
 62
7
  6
CONTINUOUS
 90
12
 70
0
 10
153.0576995639
 20
112.5506011573
 10
153.1650390986
 20
112.60766392
 10
153.2704434849
 20
112.6547416304
 10
153.3739127226
 20
112.6918342884
 10
153.4759711276
 20
112.7189945593
 10
153.5760943842
 20
112.7361697778
 10
153.6727095451
 20
112.7432019483
 10
153.7657590052
 20
112.7399478178
 10
153.8553003696
 20
112.7265506394
 10
153.9399335068
 20
112.7032821762
 10
154.0195871997
 20
112.6700047071
 10
154.0577476826
 20
112.649683629
  0
LWPOLYLINE
  5
310
100
AcDbEntity
  8
RACCORDO
100
AcDbPolyline
 62
250
  6
CONTINUOUS
 90
13
 70
0
 10
149.6372207514
 20
87.0311829925
 10
149.6542500012
 20
87.0245643953
 10
149.6709581565
 20
87.0159576669
 10
149.6870610649
 20
87.0055091805
 10
149.7022848675
 20
86.9933966313
 10
149.7163706561
 20
86.9798260151
 10
149.7290788763
 20
86.9650281246
 10
149.740193402
 20
86.9492546248
 10
149.7495252105
 20
86.9327737724
 10
149.7569155977
 20
86.915865854
 10
149.7622388765
 20
86.8988184193
 10
149.7654045151
 20
86.8819213905
 10
149.766358676
 20
86.8654621323
  0
LWPOLYLINE
  5
311
100
AcDbEntity
  8
RACCORDO
100
AcDbPolyline
 62
250
  6
CONTINUOUS
 90
4
 70
0
 10
150.2899345492
 20
87.6882436616
 10
150.3070363506
 20
87.6815923029
 10
150.3238066759
 20
87.6729400219
 10
150.3399586309
 20
87.6624373448
  0
LWPOLYLINE
  5
312
100
AcDbEntity
  8
RACCORDO
100
AcDbPolyline
 62
250
  6
CONTINUOUS
 90
7
 70
0
 10
150.3630685075
 20
87.6946353951
 10
150.3536920138
 20
87.6988338974
 10
150.3423544017
 20
87.7012827204
 10
150.3300991258
 20
87.7014341893
 10
150.3171300102
 20
87.6992827517
 10
150.3036662828
 20
87.6948619062
 10
150.2899345492
 20
87.6882436616
  0
LWPOLYLINE
  5
313
100
AcDbEntity
  8
RACCORDO
100
AcDbPolyline
 62
7
  6
CONTINUOUS
 90
9
 70
0
 10
150.3875407906
 20
86.3439384823
 10
150.3696956579
 20
86.3530387108
 10
150.3498218374
 20
86.3605681082
 10
150.3294574775
 20
86.3656835001
 10
150.3089093714
 20
86.3683332331
 10
150.2884330047
 20
86.3685246916
 10
150.2682982913
 20
86.366301947
 10
150.2488261286
 20
86.3617560638
 10
150.2444664932
 20
86.360395009
  0
LWPOLYLINE
  5
314
100
AcDbEntity
  8
RACCORDO
100
AcDbPolyline
 62
250
  6
CONTINUOUS
 90
11
 70
0
 10
150.3339304881
 20
86.3463126703
 10
150.3258713543
 20
86.3507484035
 10
150.3175088598
 20
86.3547118052
 10
150.3088670751
 20
86.3581279534
 10
150.2999646805
 20
86.360921751
 10
150.2908490049
 20
86.3630115162
 10
150.2815959197
 20
86.3643178827
 10
150.272250693
 20
86.3647705242
 10
150.2628708976
 20
86.3642994605
 10
150.2535572661
 20
86.3628476236
 10
150.2448823437
 20
86.3605319802
  0
LINE
  5
315
100
AcDbEntity
  8
IMPORT_IGES
100
AcDbLine
 62
7
  6
CONTINUOUS
 10
134.2486591843
 20
92.3833749892
 11
137.5720610559
 21
90.4644844005
  0
LINE
  5
316
100
AcDbEntity
  8
IMPORT_IGES
100
AcDbLine
 62
250
  6
CONTINUOUS
 10
138.3498785152
 20
90.99514668
 11
137.5720610559
 21
91.4442487327
  0
LINE
  5
317
100
AcDbEntity
  8
IMPORT_IGES
100
AcDbLine
 62
250
  6
CONTINUOUS
 10
134.2486591843
 20
93.3631393213
 11
133.470841725
 21
93.812241374
  0
LINE
  5
318
100
AcDbEntity
  8
IMPORT_IGES
100
AcDbLine
 62
250
  6
CONTINUOUS
 10
133.8951057937
 20
94.057182457
 11
134.6729232531
 21
93.6080804044
  0
LINE
  5
319
100
AcDbEntity
  8
IMPORT_IGES
100
AcDbLine
 62
250
  6
CONTINUOUS
 10
137.5720610559
 20
91.9341545717
 11
138.2620105496
 21
91.5357863812
  0
LINE
  5
31A
100
AcDbEntity
  8
IMPORT_IGES
100
AcDbLine
 62
7
  6
CONTINUOUS
 10
137.7135507457
 20
92.0158489453
 11
135.5214513905
 21
93.2815396396
  0
LINE
  5
31B
100
AcDbEntity
  8
IMPORT_IGES
100
AcDbLine
 62
250
  6
CONTINUOUS
 10
139.6580260604
 20
91.5461911253
 11
138.3498785152
 21
92.3014991229
  0
LINE
  5
31C
100
AcDbEntity
  8
IMPORT_IGES
100
AcDbLine
 62
250
  6
CONTINUOUS
 10
133.470841725
 20
95.1185938169
 11
132.1626941798
 21
95.8739018145
  0
LINE
  5
31D
100
AcDbEntity
  8
IMPORT_IGES
100
AcDbLine
 62
7
  6
CONTINUOUS
 10
135.5214513905
 20
94.0980099164
 11
134.7436339312
 21
94.547111969
  0
LINE
  5
31E
100
AcDbEntity
  8
IMPORT_IGES
100
AcDbLine
 62
250
  6
CONTINUOUS
 10
132.5869582485
 20
96.1188428976
 11
133.8951057937
 21
95.3635348999
  0
LINE
  5
31F
100
AcDbEntity
  8
IMPORT_IGES
100
AcDbLine
 62
250
  6
CONTINUOUS
 10
138.3498785152
 20
92.7914049619
 11
139.5701580948
 21
92.0868308264
  0
LINE
  5
320
100
AcDbEntity
  8
RACCORDO
100
AcDbLine
 62
250
  6
CONTINUOUS
 10
150.6405659357
 20
86.1692652059
 11
150.3339304881
 21
86.3463126703
  0
LINE
  5
321
100
AcDbEntity
  8
RACCORDO
100
AcDbLine
 62
7
  6
CONTINUOUS
 10
150.6942087718
 20
86.1668722497
 11
150.3875733205
 21
86.3439197162
  0
LINE
  5
322
100
AcDbEntity
  8
IMPORT_IGES
100
AcDbLine
 62
250
  6
CONTINUOUS
 10
134.2486591843
 20
92.3833749892
 11
134.2486591843
 21
93.3631393213
  0
LINE
  5
323
100
AcDbEntity
  8
IMPORT_IGES
100
AcDbLine
 62
250
  6
CONTINUOUS
 10
134.6729232531
 20
93.6080804044
 11
134.6729232531
 21
92.4650220169
  0
LINE
  5
324
100
AcDbEntity
  8
LAY0001
100
AcDbLine
 62
7
  6
CONTINUOUS
 10
134.9134524747
 20
121.8825095165
 11
134.9134524747
 21
121.1974096084
  0
LINE
  5
325
100
AcDbEntity
  8
IMPORT_IGES
100
AcDbLine
 62
7
  6
CONTINUOUS
 10
135.5214513905
 20
93.2815396396
 11
135.5214513905
 21
94.0980099164
  0
LINE
  5
326
100
AcDbEntity
  8
ASSI
100
AcDbLine
 62
250
  6
CONTINUOUS
 10
136.0480352404
 20
121.7550004314
 11
136.0480352404
 21
121.3856894418
  0
LINE
  5
327
100
AcDbEntity
  8
ASSI
100
AcDbLine
 62
7
  6
CONTINUOUS
 10
136.1041672803
 20
121.8352178387
 11
136.1041672803
 21
121.4659068492
  0
LWPOLYLINE
  5
328
100
AcDbEntity
  8
ASSI
100
AcDbPolyline
 62
250
  6
CONTINUOUS
 90
9
 70
0
 10
136.1041672803
 20
121.4659068492
 10
136.1039995248
 20
121.4611781172
 10
136.1020709941
 20
121.4492312427
 10
136.0980137908
 20
121.4374824309
 10
136.0918742296
 20
121.4260457765
 10
136.0837124896
 20
121.415032762
 10
136.0736099899
 20
121.4045591437
 10
136.0616754598
 20
121.394742413
 10
136.0480352404
 20
121.3856894418
  0
LWPOLYLINE
  5
329
100
AcDbEntity
  8
ASSI
100
AcDbPolyline
 62
250
  6
CONTINUOUS
 90
9
 70
0
 10
136.1041672703
 20
121.8351813118
 10
136.1039993682
 20
121.8304869024
 10
136.1020754842
 20
121.818560007
 10
136.0980190049
 20
121.8068052775
 10
136.0918715639
 20
121.7953525814
 10
136.0837005298
 20
121.7843296827
 10
136.0735953342
 20
121.7738566406
 10
136.0616640359
 20
121.7640449741
 10
136.0480352404
 20
121.7550004314
  0
LWPOLYLINE
  5
32A
100
AcDbEntity
  8
ASSI
100
AcDbPolyline
 62
250
  6
CONTINUOUS
 90
13
 70
0
 10
139.7257485862
 20
121.6234861112
 10
139.7313384227
 20
121.6476440147
 10
139.7345654893
 20
121.6725879191
 10
139.7353778456
 20
121.6979163964
 10
139.7337624126
 20
121.7232218179
 10
139.7297451823
 20
121.748096944
 10
139.7233907905
 20
121.7721414758
 10
139.7148014861
 20
121.7949684501
 10
139.7041154883
 20
121.8162104896
 10
139.6915047488
 20
121.8355257392
 10
139.6771722003
 20
121.8526033322
 10
139.6613484968
 20
121.8671683988
 10
139.6442882908
 20
121.8789865078
  0
LWPOLYLINE
  5
32B
100
AcDbEntity
  8
ASSI
100
AcDbPolyline
 62
250
  6
CONTINUOUS
 90
13
 70
0
 10
141.3073080671
 20
121.661848506
 10
141.3128979376
 20
121.6860066112
 10
141.3161249976
 20
121.7109507044
 10
141.3169373122
 20
121.7362793471
 10
141.3153218084
 20
121.7615849121
 10
141.3113044854
 20
121.7864601434
 10
141.3049499961
 20
121.8105047107
 10
141.2963606067
 20
121.8333316521
 10
141.2856745507
 20
121.8545736014
 10
141.2730638046
 20
121.8738887008
 10
141.2587313197
 20
121.8909661019
 10
141.2429077564
 20
121.9055309693
 10
141.2258477716
 20
121.9173489027
  0
LWPOLYLINE
  5
32C
100
AcDbEntity
  8
ASSI
100
AcDbPolyline
 62
250
  6
CONTINUOUS
 90
13
 70
0
 10
142.3539093109
 20
121.8401236524
 10
142.3483192637
 20
121.815964566
 10
142.3450922346
 20
121.7910196511
 10
142.3442801028
 20
121.7656903992
 10
142.3458958783
 20
121.7403844834
 10
142.3499134966
 20
121.7155091591
 10
142.3562682521
 20
121.6914647133
 10
142.3648578254
 20
121.6686380924
 10
142.3755439401
 20
121.6473966163
 10
142.3881546166
 20
121.628082046
 10
142.4024869011
 20
121.6110051705
 10
142.4183101162
 20
121.5964407916
 10
142.4353696063
 20
121.5846232557
  0
LWPOLYLINE
  5
32D
100
AcDbEntity
  8
ASSI
100
AcDbPolyline
 62
250
  6
CONTINUOUS
 90
16
 70
0
 10
141.9051836138
 20
118.7502929391
 10
141.9012248902
 20
118.7353261843
 10
141.8966342881
 20
118.7208896393
 10
141.8914930898
 20
118.7070458411
 10
141.8858890643
 20
118.6938632222
 10
141.8798886531
 20
118.6813640647
 10
141.8735301436
 20
118.6695298949
 10
141.8669310356
 20
118.6584712315
 10
141.8600975879
 20
118.6481153794
 10
141.8528650978
 20
118.6381982783
 10
141.8452954894
 20
118.6287856186
 10
141.837390297
 20
118.6199006408
 10
141.8288512988
 20
118.6113115268
 10
141.8195890918
 20
118.6030485577
 10
141.8097477225
 20
118.5953362915
 10
141.7993746753
 20
118.5883081986
  0
LWPOLYLINE
  5
32E
100
AcDbEntity
  8
ASSI
100
AcDbPolyline
 62
250
  6
CONTINUOUS
 90
14
 70
0
 10
142.3902456107
 20
123.0730143562
 10
142.3953556569
 20
123.0905643037
 10
142.4024311587
 20
123.1079614051
 10
142.4113945925
 20
123.1250150583
 10
142.4221477572
 20
123.1415384317
 10
142.4345728418
 20
123.1573504952
 10
142.4485337124
 20
123.1722780051
 10
142.4638774109
 20
123.1861574127
 10
142.4804358278
 20
123.1988366519
 10
142.4980275465
 20
123.2101768072
 10
142.5164598319
 20
123.2200536353
 10
142.5355307375
 20
123.2283589233
 10
142.5550313179
 20
123.2350016754
 10
142.5747479208
 20
123.2399091111
  0
LINE
  5
32F
100
AcDbEntity
  8
ASSI
100
AcDbLine
 62
250
  6
CONTINUOUS
 10
142.1765693312
 20
119.6239223628
 11
141.9051843371
 21
118.7502925215
  0
LINE
  5
330
100
AcDbEntity
  8
ASSI
100
AcDbLine
 62
250
  6
CONTINUOUS
 10
142.4423737094
 20
119.547313683
 11
142.1709887153
 21
118.6736838417
  0
LWPOLYLINE
  5
331
100
AcDbEntity
  8
ASSI
100
AcDbPolyline
 62
250
  6
CONTINUOUS
 90
16
 70
0
 10
142.1709887153
 20
118.6736838417
 10
142.1609959287
 20
118.6446265295
 10
142.1501611326
 20
118.6167809587
 10
142.1384843269
 20
118.5901471292
 10
142.1258501797
 20
118.5646910076
 10
142.1123740229
 20
118.5404466274
 10
142.0984018525
 20
118.5175160893
 10
142.0841039453
 20
118.4960581302
 10
142.0693100245
 20
118.4759140132
 10
142.0538552557
 20
118.456709628
 10
142.0378407951
 20
118.4383622022
 10
142.0211654865
 20
118.4209545083
 10
142.0033610269
 20
118.4043607535
 10
141.9842713152
 20
118.3885390068
 10
141.9640524526
 20
118.3735311993
 10
141.9427044388
 20
118.3593373309
  0
LWPOLYLINE
  5
332
100
AcDbEntity
  8
IMPORT_IGES
100
AcDbPolyline
 62
7
  6
CONTINUOUS
 90
16
 70
0
 10
151.0778005766
 20
108.8763744379
 10
151.1382537329
 20
108.9152740146
 10
151.1967083134
 20
108.9597519822
 10
151.253164318
 20
109.0098083407
 10
151.3081640068
 20
109.0661010927
 10
151.3611651198
 20
109.1279722357
 10
151.4105408761
 20
109.1934477616
 10
151.4561855743
 20
109.2626261407
 10
151.4982049158
 20
109.3354089027
 10
151.5352892246
 20
109.4095266286
 10
151.5673002399
 20
109.4850212917
 10
151.5943762225
 20
109.5618509186
 10
151.6156222793
 20
109.6376201702
 10
151.6307401126
 20
109.7115306001
 10
151.64002802
 20
109.7843806547
 10
151.6434860015
 20
109.856170334
  0
LINE
  5
333
100
AcDbEntity
  8
IMPORT_IGES
100
AcDbLine
 62
7
  6
CONTINUOUS
 10
136.0342765164
 20
99.6605747863
 11
132.5869582485
 21
97.6701364235
  0
LINE
  5
334
100
AcDbEntity
  8
IMPORT_IGES
100
AcDbLine
 62
7
  6
CONTINUOUS
 10
137.377649567
 20
98.8849280234
 11
132.5643903818
 21
96.1057086214
  0
LINE
  5
335
100
AcDbEntity
  8
RACCORDO
100
AcDbLine
 62
250
  6
CONTINUOUS
 10
130.0971666366
 20
94.3139907261
 11
130.6070592612
 21
94.6083953609
  0
LINE
  5
336
100
AcDbEntity
  8
IMPORT_IGES
100
AcDbLine
 62
7
  6
CONTINUOUS
 10
150.5121151516
 20
105.9368604938
 11
149.3524579483
 21
105.2672889585
  0
LINE
  5
337
100
AcDbEntity
  8
IMPORT_IGES
100
AcDbLine
 62
250
  6
CONTINUOUS
 10
151.0778005766
 20
106.2634170406
 11
160.7651634788
 21
111.8567789692
  0
LINE
  5
338
100
AcDbEntity
  8
IMPORT_IGES
100
AcDbLine
 62
7
  6
CONTINUOUS
 10
149.3807443017
 20
105.2019662258
 11
150.5828258297
 21
105.8960330345
  0
LINE
  5
339
100
AcDbEntity
  8
RACCORDO
100
AcDbLine
 62
250
  6
CONTINUOUS
 10
130.2385664537
 20
94.069079059
 11
130.7484590783
 21
94.3634836938
  0
LINE
  5
33A
100
AcDbEntity
  8
IMPORT_IGES
100
AcDbLine
 62
250
  6
CONTINUOUS
 10
160.9772955132
 20
111.4893555081
 11
151.2899326109
 21
105.8959935795
  0
LINE
  5
33B
100
AcDbEntity
  8
IMPORT_IGES
100
AcDbLine
 62
250
  6
CONTINUOUS
 10
149.8757190486
 20
104.9161740105
 11
151.0778005766
 21
105.6102408192
  0
LINE
  5
33C
100
AcDbEntity
  8
IMPORT_IGES
100
AcDbLine
 62
7
  6
CONTINUOUS
 10
132.3356373202
 20
95.9737390999
 11
132.2740559994
 21
95.9380740577
  0
LINE
  5
33D
100
AcDbEntity
  8
IMPORT_IGES
100
AcDbLine
 62
7
  6
CONTINUOUS
 10
132.5643903818
 20
96.1057086214
 11
132.3356373202
 21
95.9737390999
  0
LWPOLYLINE
  5
33E
100
AcDbEntity
  8
IMPORT_IGES
100
AcDbPolyline
 62
7
  6
CONTINUOUS
 90
5
 70
0
 10
132.2740559994
 20
95.9380740577
 10
132.2441644765
 20
95.920936748
 10
132.2153323004
 20
95.9046453829
 10
132.188029919
 20
95.8889870015
 10
132.1626941798
 20
95.8739018145
  0
LWPOLYLINE
  5
33F
100
AcDbEntity
  8
IMPORT_IGES
100
AcDbPolyline
 62
250
  6
CONTINUOUS
 90
13
 70
0
 10
150.0878510829
 20
104.5487505495
 10
150.0583474773
 20
104.5338112448
 10
150.0257190486
 20
104.5212232632
 10
149.9905240783
 20
104.5112019885
 10
149.9533647621
 20
104.5039188876
 10
149.9148769062
 20
104.4994985763
 10
149.8757190486
 20
104.4980166873
 10
149.8365611909
 20
104.4994985763
 10
149.798073335
 20
104.5039188876
 10
149.7609140189
 20
104.5112019885
 10
149.7257190486
 20
104.5212232632
 10
149.6930906199
 20
104.5338112448
 10
149.6635870142
 20
104.5487505495
  0
LWPOLYLINE
  5
340
100
AcDbEntity
  8
IMPORT_IGES
100
AcDbPolyline
 62
250
  6
CONTINUOUS
 90
7
 70
0
 10
160.7651634788
 20
111.8567789692
 10
160.7928522655
 20
111.8706706227
 10
160.8200672894
 20
111.8801335763
 10
160.8463428939
 20
111.8850059162
 10
160.871229496
 20
111.8852042755
 10
160.8943012792
 20
111.88072526
 10
160.9151707269
 20
111.8716413225
  0
LWPOLYLINE
  5
341
100
AcDbEntity
  8
IMPORT_IGES
100
AcDbPolyline
 62
7
  6
CONTINUOUS
 90
13
 70
0
 10
132.5869582485
 20
97.6701364235
 10
132.5559626808
 20
97.654796281
 10
132.5232232045
 20
97.6422101886
 10
132.4887398197
 20
97.6323781461
 10
132.4519312236
 20
97.6252572943
 10
132.4133787189
 20
97.6208904925
 10
132.3748262142
 20
97.6194063189
 10
132.3362737095
 20
97.6208904925
 10
132.2977212048
 20
97.6252572943
 10
132.2609126087
 20
97.6323781461
 10
132.2264292239
 20
97.6422101886
 10
132.1936897476
 20
97.654796281
 10
132.1626941798
 20
97.6701364235
  0
LWPOLYLINE
  5
342
100
AcDbEntity
  8
IMPORT_IGES
100
AcDbPolyline
 62
7
  6
CONTINUOUS
 90
13
 70
0
 10
132.1626941798
 20
100.1195472538
 10
132.1936897476
 20
100.1042071114
 10
132.2264292239
 20
100.0916210189
 10
132.2609126087
 20
100.0817889765
 10
132.2977212048
 20
100.0746681247
 10
132.3362737095
 20
100.0703013229
 10
132.3748262142
 20
100.0688171493
 10
132.4133787189
 20
100.0703013229
 10
132.4519312236
 20
100.0746681247
 10
132.4887398197
 20
100.0817889765
 10
132.5232232045
 20
100.0916210189
 10
132.5559626808
 20
100.1042071114
 10
132.5869582485
 20
100.1195472538
  0
LINE
  5
343
100
AcDbEntity
  8
IMPORT_IGES
100
AcDbLine
 62
7
  6
CONTINUOUS
 10
139.873826514
 20
93.2178252569
 11
139.6580260604
 21
93.3424257342
  0
LINE
  5
344
100
AcDbEntity
  8
IMPORT_IGES
100
AcDbLine
 62
7
  6
CONTINUOUS
 10
132.1626941798
 20
97.6701364235
 11
131.6323640939
 21
97.9763423685
  0
LINE
  5
345
100
AcDbEntity
  8
RACCORDO
100
AcDbLine
 62
250
  6
CONTINUOUS
 10
149.3524579483
 20
88.2295309016
 11
150.2899345492
 21
87.6882436616
  0
LINE
  5
346
100
AcDbEntity
  8
RACCORDO
100
AcDbLine
 62
7
  6
CONTINUOUS
 10
149.3524579483
 20
88.2781492714
 11
150.363087066
 21
87.694624685
  0
LINE
  5
347
100
AcDbEntity
  8
IMPORT_IGES
100
AcDbLine
 62
7
  6
CONTINUOUS
 10
131.6323640939
 20
100.4257531988
 11
132.1626941798
 21
100.1195472538
  0
LINE
  5
348
100
AcDbEntity
  8
IMPORT_IGES
100
AcDbLine
 62
7
  6
CONTINUOUS
 10
139.6580260604
 20
95.7918365646
 11
139.873826514
 21
95.6672360873
  0
LINE
  5
349
100
AcDbEntity
  8
RACCORDO
100
AcDbLine
 62
250
  6
CONTINUOUS
 10
150.6543715638
 20
86.1605852607
 11
150.6405659357
 21
86.1692652059
  0
LWPOLYLINE
  5
34A
100
AcDbEntity
  8
IMPORT_IGES
100
AcDbPolyline
 62
7
  6
CONTINUOUS
 90
7
 70
0
 10
139.6580260604
 20
93.3424257342
 10
139.631457866
 20
93.3603221865
 10
139.6096595189
 20
93.3792255498
 10
139.592631019
 20
93.399135824
 10
139.5802981364
 20
93.4203886461
 10
139.572735101
 20
93.4426483792
 10
139.5701580948
 20
93.4649081122
  0
LWPOLYLINE
  5
34B
100
AcDbEntity
  8
RACCORDO
100
AcDbPolyline
 62
250
  6
CONTINUOUS
 90
12
 70
0
 10
149.4640675433
 20
86.3507570707
 10
149.4562925331
 20
86.3563106764
 10
149.4485248951
 20
86.36117487
 10
149.4408010609
 20
86.3653290991
 10
149.433223293
 20
86.3687339823
 10
149.4257597887
 20
86.3714081112
 10
149.4182566701
 20
86.3733686886
 10
149.4106969555
 20
86.374560327
 10
149.4032106098
 20
86.3748947231
 10
149.3958772874
 20
86.3743040392
 10
149.3887661508
 20
86.3727492108
 10
149.3822287585
 20
86.370304709
  0
LINE
  5
34C
100
AcDbEntity
  8
RACCORDO
100
AcDbLine
 62
250
  6
CONTINUOUS
 10
139.8747413906
 20
88.370045276
 11
139.873826514
 21
88.3875014814
  0
LWPOLYLINE
  5
34D
100
AcDbEntity
  8
RACCORDO
100
AcDbPolyline
 62
250
  6
CONTINUOUS
 90
9
 70
0
 10
139.5253737637
 20
101.2262127693
 10
139.52726782
 20
101.1851064327
 10
139.5329296894
 20
101.146627758
 10
139.5422987011
 20
101.1111890151
 10
139.5552744651
 20
101.0791699017
 10
139.5717179473
 20
101.0509134746
 10
139.5914529607
 20
101.0267224749
 10
139.6142680512
 20
101.0068560854
 10
139.628887137
 20
100.9973604729
  0
LWPOLYLINE
  5
34E
100
AcDbEntity
  8
IMPORT_IGES
100
AcDbPolyline
 62
7
  6
CONTINUOUS
 90
9
 70
0
 10
138.2620554207
 20
91.2908373111
 10
138.2621841338
 20
91.2813218039
 10
138.2645842162
 20
91.2440905336
 10
138.2703193737
 20
91.2049782139
 10
138.2795422528
 20
91.1643456504
 10
138.2919571993
 20
91.1226618009
 10
138.3076120854
 20
91.0803306908
 10
138.3268636414
 20
91.0376895806
 10
138.3498785152
 20
90.99514668
  0
LWPOLYLINE
  5
34F
100
AcDbEntity
  8
IMPORT_IGES
100
AcDbPolyline
 62
7
  6
CONTINUOUS
 90
9
 70
0
 10
139.5702029659
 20
91.8418817563
 10
139.570331679
 20
91.8323662491
 10
139.5727317614
 20
91.7951349788
 10
139.5784669189
 20
91.7560226591
 10
139.587689798
 20
91.7153900956
 10
139.6001047445
 20
91.6737062461
 10
139.6157596306
 20
91.631375136
 10
139.6350111865
 20
91.5887340258
 10
139.6580260604
 20
91.5461911253
  0
LWPOLYLINE
  5
350
100
AcDbEntity
  8
IMPORT_IGES
100
AcDbPolyline
 62
7
  6
CONTINUOUS
 90
9
 70
0
 10
137.4841930918
 20
91.7399134616
 10
137.4843037107
 20
91.7303875091
 10
137.4867637195
 20
91.6931908329
 10
137.4925204679
 20
91.6540909771
 10
137.5016238708
 20
91.6133894428
 10
137.5141421501
 20
91.5717652448
 10
137.5301031624
 20
91.5296108541
 10
137.5494439815
 20
91.4870212733
 10
137.5720610559
 20
91.4442487327
  0
LWPOLYLINE
  5
351
100
AcDbEntity
  8
IMPORT_IGES
100
AcDbPolyline
 62
7
  6
CONTINUOUS
 90
9
 70
0
 10
138.2620105511
 20
92.5971638518
 10
138.2621211701
 20
92.5876378993
 10
138.2645811788
 20
92.5504412231
 10
138.2703379272
 20
92.5113413673
 10
138.2794413301
 20
92.470639833
 10
138.2919596094
 20
92.429015635
 10
138.3079206217
 20
92.3868612443
 10
138.3272614408
 20
92.3442716635
 10
138.3498785152
 20
92.3014991229
  0
LINE
  5
352
100
AcDbEntity
  8
IMPORT_IGES
100
AcDbLine
 62
7
  6
CONTINUOUS
 10
137.4841930903
 20
91.7399306115
 11
137.4841930903
 21
90.6108806393
  0
LINE
  5
353
100
AcDbEntity
  8
IMPORT_IGES
100
AcDbLine
 62
250
  6
CONTINUOUS
 10
137.5720610559
 20
91.4442487327
 11
137.5720610559
 21
90.4644844005
  0
LINE
  5
354
100
AcDbEntity
  8
DRAFT
100
AcDbLine
 62
7
  6
CONTINUOUS
 10
138.0399864669
 20
121.2112291834
 11
138.0399864669
 21
121.1311427851
  0
LINE
  5
355
100
AcDbEntity
  8
IMPORT_IGES
100
AcDbLine
 62
7
  6
CONTINUOUS
 10
138.2620105496
 20
92.5971810017
 11
138.2620105496
 21
91.2908285588
  0
LINE
  5
356
100
AcDbEntity
  8
IMPORT_IGES
100
AcDbLine
 62
250
  6
CONTINUOUS
 10
138.3498785152
 20
92.3014991229
 11
138.3498785152
 21
90.99514668
  0
LINE
  5
357
100
AcDbEntity
  8
IMPORT_IGES
100
AcDbLine
 62
7
  6
CONTINUOUS
 10
139.5701580948
 20
97.6190010784
 11
139.5701580948
 21
95.9143189426
  0
LINE
  5
358
100
AcDbEntity
  8
IMPORT_IGES
100
AcDbLine
 62
7
  6
CONTINUOUS
 10
139.5701580948
 20
93.4649081122
 11
139.5701580948
 21
91.8418730041
  0
LINE
  5
359
100
AcDbEntity
  8
IMPORT_IGES
100
AcDbLine
 62
250
  6
CONTINUOUS
 10
139.6580260604
 20
97.6697182012
 11
139.6580260604
 21
95.7918365646
  0
LINE
  5
35A
100
AcDbEntity
  8
IMPORT_IGES
100
AcDbLine
 62
250
  6
CONTINUOUS
 10
139.6580260604
 20
93.3424257342
 11
139.6580260604
 21
91.5461911253
  0
LINE
  5
35B
100
AcDbEntity
  8
RACCORDO
100
AcDbLine
 62
7
  6
CONTINUOUS
 10
139.873826514
 20
100.573159231
 11
139.873826514
 21
88.3875014814
  0
LINE
  5
35C
100
AcDbEntity
  8
RACCORDO
100
AcDbLine
 62
250
  6
CONTINUOUS
 10
140.0202731234
 20
100.3690209975
 11
140.0202731234
 21
88.1833649033
  0
LWPOLYLINE
  5
35D
100
AcDbEntity
  8
RACCORDO
100
AcDbPolyline
 62
7
  6
CONTINUOUS
 90
4
 70
0
 10
139.8738265142
 20
88.3875086573
 10
139.8736935213
 20
88.3812917545
 10
139.8733815896
 20
88.3768477804
 10
139.873248787
 20
88.3756816383
  0
LWPOLYLINE
  5
35E
100
AcDbEntity
  8
RACCORDO
100
AcDbPolyline
 62
250
  6
CONTINUOUS
 90
15
 70
0
 10
139.5253737637
 20
87.8976707279
 10
139.5272678034
 20
87.9409640845
 10
139.5329296295
 20
87.9859807726
 10
139.5422985792
 20
88.0322384693
 10
139.5552742708
 20
88.0792415557
 10
139.5717176787
 20
88.1264864261
 10
139.5914526233
 20
88.1734668845
 10
139.6142676582
 20
88.2196795679
 10
139.6399183363
 20
88.2646293395
 10
139.6681298282
 20
88.3078345934
 10
139.6985998673
 20
88.3488324155
 10
139.7310019884
 20
88.3871835424
 10
139.764989025
 20
88.4224770684
 10
139.8001968298
 20
88.4543348478
 10
139.8362481755
 20
88.4824155467
  0
LINE
  5
35F
100
AcDbEntity
  8
ASSI
100
AcDbLine
 62
250
  6
CONTINUOUS
 10
139.5616666318
 20
121.6167212489
 11
139.5613415862
 21
121.6108631256
  0
LWPOLYLINE
  5
360
100
AcDbEntity
  8
IMPORT_IGES
100
AcDbPolyline
 62
7
  6
CONTINUOUS
 90
7
 70
0
 10
139.5701580948
 20
93.4649081122
 10
139.572735101
 20
93.4871678452
 10
139.5802981364
 20
93.5094275783
 10
139.592631019
 20
93.5306804004
 10
139.6096595189
 20
93.5505906746
 10
139.631457866
 20
93.5694940378
 10
139.6580260604
 20
93.5873904902
  0
LINE
  5
361
100
AcDbEntity
  8
ASSI
100
AcDbLine
 62
250
  6
CONTINUOUS
 10
142.3871570125
 20
123.0555038474
 11
142.3902456107
 21
123.0730143562
  0
LWPOLYLINE
  5
362
100
AcDbEntity
  8
ASSI
100
AcDbPolyline
 62
250
  6
CONTINUOUS
 90
13
 70
0
 10
142.6685880154
 20
119.6575929023
 10
142.6733617272
 20
119.6813981542
 10
142.6758723922
 20
119.7058433157
 10
142.6760816182
 20
119.7305548623
 10
142.6739861788
 20
119.7551551946
 10
142.6696180649
 20
119.7792683978
 10
142.663044
 20
119.8025259868
 10
142.6543644155
 20
119.8245725585
 10
142.6437119218
 20
119.8450712008
 10
142.6312492917
 20
119.8637086372
 10
142.6171669587
 20
119.8802000448
 10
142.6016801019
 20
119.8942934017
 10
142.5850253702
 20
119.905773322
  0
LWPOLYLINE
  5
363
100
AcDbEntity
  8
ASSI
100
AcDbPolyline
 62
250
  6
CONTINUOUS
 90
5
 70
0
 10
147.2372590745
 20
121.048408497
 10
147.2418987468
 20
121.0604184002
 10
147.2482834537
 20
121.0720191194
 10
147.2563171784
 20
121.0830571352
 10
147.2658952896
 20
121.0934233327
  0
LWPOLYLINE
  5
364
100
AcDbEntity
  8
ASSI
100
AcDbPolyline
 62
250
  6
CONTINUOUS
 90
5
 70
0
 10
147.2372604561
 20
121.0274721456
 10
147.2409075519
 20
121.036488364
 10
147.2490482433
 20
121.0487149756
 10
147.2601460926
 20
121.0604421937
 10
147.2740116572
 20
121.0714595571
  0
LINE
  5
365
100
AcDbEntity
  8
RACCORDO
100
AcDbLine
 62
7
  6
CONTINUOUS
 10
145.7814929027
 20
110.3817494617
 11
146.1457307778
 21
110.9937433837
  0
LINE
  5
366
100
AcDbEntity
  8
IMPORT_IGES
100
AcDbLine
 62
7
  6
CONTINUOUS
 10
135.5214513905
 20
93.2815396396
 11
134.6729232531
 21
92.4650220169
  0
LWPOLYLINE
  5
367
100
AcDbEntity
  8
IMPORT_IGES
100
AcDbPolyline
 62
7
  6
CONTINUOUS
 90
9
 70
0
 10
139.5701580952
 20
97.6190529327
 10
139.5702687152
 20
97.6191371905
 10
139.572728724
 20
97.6204865045
 10
139.5784854724
 20
97.6237833975
 10
139.5875888753
 20
97.629175329
 10
139.6001071546
 20
97.6362815456
 10
139.6160681669
 20
97.645141262
 10
139.635408986
 20
97.6562027371
 10
139.6580260604
 20
97.6697182012
  0
LINE
  5
368
100
AcDbEntity
  8
IMPORT_IGES
100
AcDbLine
 62
7
  6
CONTINUOUS
 10
139.4089369466
 20
97.7120881484
 11
134.7436339311
 21
94.547111969
  0
LINE
  5
369
100
AcDbEntity
  8
IMPORT_IGES
100
AcDbLine
 62
7
  6
CONTINUOUS
 10
149.3807443017
 20
105.2019662258
 11
149.3524579483
 21
105.1831219838
  0
LINE
  5
36A
100
AcDbEntity
  8
IMPORT_IGES
100
AcDbLine
 62
250
  6
CONTINUOUS
 10
151.2899326109
 20
105.2428173581
 11
150.0878510829
 21
104.5487505495
  0
LINE
  5
36B
100
AcDbEntity
  8
IMPORT_IGES
100
AcDbLine
 62
250
  6
CONTINUOUS
 10
151.1838665938
 20
102.0789891173
 11
160.9772955132
 21
107.7335922349
  0
LINE
  5
36C
100
AcDbEntity
  8
IMPORT_IGES
100
AcDbLine
 62
7
  6
CONTINUOUS
 10
160.9151707269
 20
107.5962711765
 11
151.271734559
 21
102.0282719939
  0
LINE
  5
36D
100
AcDbEntity
  8
IMPORT_IGES
100
AcDbLine
 62
7
  6
CONTINUOUS
 10
151.2717345594
 20
101.966452597
 11
151.5727753234
 21
102.1402697612
  0
LWPOLYLINE
  5
36E
100
AcDbEntity
  8
IMPORT_IGES
100
AcDbPolyline
 62
7
  6
CONTINUOUS
 90
3
 70
0
 10
134.7436339311
 20
94.547111969
 10
133.8480329384
 20
94.0299177097
 10
133.8218448405
 20
94.0148958323
  0
LWPOLYLINE
  5
36F
100
AcDbEntity
  8
IMPORT_IGES
100
AcDbPolyline
 62
7
  6
CONTINUOUS
 90
3
 70
0
 10
133.8218448405
 20
94.0148958323
 10
133.6437848654
 20
93.9120786594
 10
133.5822035446
 20
93.8764136172
  0
LWPOLYLINE
  5
370
100
AcDbEntity
  8
IMPORT_IGES
100
AcDbPolyline
 62
7
  6
CONTINUOUS
 90
5
 70
0
 10
133.5822035446
 20
93.8764136172
 10
133.5523120217
 20
93.8592763075
 10
133.5234798456
 20
93.8429849424
 10
133.4961774642
 20
93.827326561
 10
133.470841725
 20
93.812241374
  0
LINE
  5
371
100
AcDbEntity
  8
IMPORT_IGES
100
AcDbLine
 62
7
  6
CONTINUOUS
 10
138.6857971122
 20
98.1296200257
 11
133.6127991412
 21
95.2005244666
  0
LWPOLYLINE
  5
372
100
AcDbEntity
  8
IMPORT_IGES
100
AcDbPolyline
 62
7
  6
CONTINUOUS
 90
6
 70
0
 10
133.6127991412
 20
95.2005244666
 10
133.5821026219
 20
95.1829408634
 10
133.5523144318
 20
95.165624576
 10
133.5237883819
 20
95.1488029847
 10
133.4965752636
 20
95.1329899951
 10
133.470841725
 20
95.1185938169
  0
LINE
  5
373
100
AcDbEntity
  8
IMPORT_IGES
100
AcDbLine
 62
7
  6
CONTINUOUS
 10
135.5214513905
 20
94.0980099164
 11
134.3906166005
 21
93.4450699711
  0
LWPOLYLINE
  5
374
100
AcDbEntity
  8
IMPORT_IGES
100
AcDbPolyline
 62
7
  6
CONTINUOUS
 90
6
 70
0
 10
134.3906166005
 20
93.4450699711
 10
134.3599200812
 20
93.4274863678
 10
134.3301318911
 20
93.4101700804
 10
134.3016058412
 20
93.3933484892
 10
134.2743927229
 20
93.3775354995
 10
134.2486591843
 20
93.3631393213
  0
LWPOLYLINE
  5
375
100
AcDbEntity
  8
IMPORT_IGES
100
AcDbPolyline
 62
250
  6
CONTINUOUS
 90
13
 70
0
 10
149.6635870142
 20
91.8934612592
 10
149.6930906199
 20
91.8785219545
 10
149.7257190486
 20
91.8659339729
 10
149.7609140189
 20
91.8559126982
 10
149.798073335
 20
91.8486295973
 10
149.8365611909
 20
91.844209286
 10
149.8757190486
 20
91.8427273971
 10
149.9148769062
 20
91.844209286
 10
149.9533647621
 20
91.8486295973
 10
149.9905240783
 20
91.8559126982
 10
150.0257190486
 20
91.8659339729
 10
150.0583474773
 20
91.8785219545
 10
150.0878510829
 20
91.8934612592
  0
LINE
  5
376
100
AcDbEntity
  8
IMPORT_IGES
100
AcDbLine
 62
7
  6
CONTINUOUS
 10
132.3748117178
 20
101.7735038972
 11
139.5701580951
 21
97.6190010778
  0
LINE
  5
377
100
AcDbEntity
  8
IMPORT_IGES
100
AcDbLine
 62
7
  6
CONTINUOUS
 10
149.3524579483
 20
91.9716522971
 11
149.7257118005
 21
91.7561402008
  0
LINE
  5
378
100
AcDbEntity
  8
IMPORT_IGES
100
AcDbLine
 62
250
  6
CONTINUOUS
 10
132.1626941798
 20
101.9974288905
 11
139.6580260604
 21
97.6697182012
  0
LINE
  5
379
100
AcDbEntity
  8
IMPORT_IGES
100
AcDbLine
 62
250
  6
CONTINUOUS
 10
149.3524579483
 20
92.0731032825
 11
149.6635870142
 21
91.8934612592
  0
LWPOLYLINE
  5
37A
100
AcDbEntity
  8
IMPORT_IGES
100
AcDbPolyline
 62
7
  6
CONTINUOUS
 90
9
 70
0
 10
132.3747968521
 20
101.7735124822
 10
132.3666170827
 20
101.7783626582
 10
132.3356342828
 20
101.7990906257
 10
132.304651596
 20
101.8236253383
 10
132.2739550767
 20
101.8518592912
 10
132.2441668866
 20
101.8835120476
 10
132.2156408367
 20
101.9184115089
 10
132.1884277184
 20
101.9564557128
 10
132.1626941798
 20
101.9974288905
  0
LWPOLYLINE
  5
37B
100
AcDbEntity
  8
IMPORT_IGES
100
AcDbPolyline
 62
250
  6
CONTINUOUS
 90
7
 70
0
 10
149.7257118005
 20
91.7561402008
 10
149.7074233905
 20
91.7696611497
 10
149.6920073179
 20
91.7874002448
 10
149.6797346038
 20
91.8090497807
 10
149.670815238
 20
91.8342393278
 10
149.6654018332
 20
91.862537886
 10
149.6635870142
 20
91.8934612592
  0
LINE
  5
37C
100
AcDbEntity
  8
RACCORDO
100
AcDbLine
 62
250
  6
CONTINUOUS
 10
150.3399586309
 20
87.6624373448
 11
150.3552147099
 21
87.6502677204
  0
LWPOLYLINE
  5
37D
100
AcDbEntity
  8
RACCORDO
100
AcDbPolyline
 62
250
  6
CONTINUOUS
 90
4
 70
0
 10
150.3552147099
 20
87.6502677204
 10
150.3693170336
 20
87.6366400332
 10
150.3820302376
 20
87.6217833314
 10
150.3931517757
 20
87.6059284642
  0
LWPOLYLINE
  5
37E
100
AcDbEntity
  8
RACCORDO
100
AcDbPolyline
 62
250
  6
CONTINUOUS
 90
4
 70
0
 10
149.6113885172
 20
86.155124212
 10
149.601871002
 20
86.1653427876
 10
149.5724038817
 20
86.1989707297
 10
149.5438454236
 20
86.2343048163
  0
LWPOLYLINE
  5
37F
100
AcDbEntity
  8
RACCORDO
100
AcDbPolyline
 62
7
  6
CONTINUOUS
 90
4
 70
0
 10
149.6815351969
 20
86.1778689845
 10
149.6545891899
 20
86.2103824715
 10
149.6093101211
 20
86.2745577531
 10
149.5912705482
 20
86.3036892039
  0
LWPOLYLINE
  5
380
100
AcDbEntity
  8
IMPORT_IGES
100
AcDbPolyline
 62
7
  6
CONTINUOUS
 90
7
 70
0
 10
139.5701580948
 20
95.9143189426
 10
139.572735101
 20
95.8920592095
 10
139.5802981364
 20
95.8697994765
 10
139.592631019
 20
95.8485466544
 10
139.6096595189
 20
95.8286363802
 10
139.631457866
 20
95.8097330169
 10
139.6580260604
 20
95.7918365646
  0
LINE
  5
381
100
AcDbEntity
  8
ASSI
100
AcDbLine
 62
7
  6
CONTINUOUS
 10
139.5613415862
 20
121.6108631256
 11
139.5613474017
 21
121.6107999658
  0
LINE
  5
382
100
AcDbEntity
  8
ASSI
100
AcDbLine
 62
250
  6
CONTINUOUS
 10
139.7354378528
 20
121.5167477502
 11
139.7257485862
 21
121.6234861112
  0
LWPOLYLINE
  5
383
100
AcDbEntity
  8
LAY0001
100
AcDbPolyline
 62
250
  6
CONTINUOUS
 90
9
 70
0
 10
142.1423856763
 20
71.975025728
 10
142.1442585132
 20
71.9341435557
 10
142.1498571824
 20
71.8958572091
 10
142.1591223697
 20
71.8605723077
 10
142.1719559163
 20
71.8286626726
 10
142.188221859
 20
71.8004663664
 10
142.2077478703
 20
71.7762821111
 10
142.2303270845
 20
71.7563661236
 10
142.2459269868
 20
71.7461572974
  0
LINE
  5
384
100
AcDbEntity
  8
LAY0001
100
AcDbLine
 62
250
  6
CONTINUOUS
 10
142.1423856763
 20
114.1267980102
 11
142.1423856763
 21
71.975025728
  0
LINE
  5
385
100
AcDbEntity
  8
ASSI
100
AcDbLine
 62
7
  6
CONTINUOUS
 10
142.3576842453
 20
123.1342006894
 11
142.3576842453
 21
123.0019324828
  0
LINE
  5
386
100
AcDbEntity
  8
LAY0001
100
AcDbLine
 62
250
  6
CONTINUOUS
 10
142.8401163547
 20
114.1215242715
 11
142.8401163547
 21
71.9697519893
  0
LINE
  5
387
100
AcDbEntity
  8
ASSI
100
AcDbLine
 62
250
  6
CONTINUOUS
 10
142.3853603296
 20
123.0116338082
 11
142.3861236888
 21
123.0382246471
  0
LWPOLYLINE
  5
388
100
AcDbEntity
  8
RACCORDO
100
AcDbPolyline
 62
250
  6
CONTINUOUS
 90
19
 70
0
 10
140.0202731234
 20
88.1833649033
 10
140.0181606084
 20
88.134061802
 10
140.0125728271
 20
88.0881261306
 10
140.0035097795
 20
88.0455578891
 10
139.9908566042
 20
88.0061932675
 10
139.9747281627
 20
87.9701960757
 10
139.9554690391
 20
87.938057744
 10
139.9330245913
 20
87.9097656454
 10
139.9074494614
 20
87.8853324069
 10
139.87925216
 20
87.8652873397
 10
139.8485252746
 20
87.8496683921
 10
139.8151762177
 20
87.8384376157
 10
139.779435737
 20
87.832010477
 10
139.7410052485
 20
87.830432271
 10
139.7001833363
 20
87.8336577026
 10
139.6580965005
 20
87.8419663528
 10
139.6151202413
 20
87.8554514154
 10
139.5708790585
 20
87.8740196965
 10
139.5253729523
 20
87.8976711963
  0
LINE
  5
389
100
AcDbEntity
  8
ASSI
100
AcDbLine
 62
250
  6
CONTINUOUS
 10
142.3861237055
 20
123.0382246269
 11
142.3871570125
 21
123.0555038474
  0
LWPOLYLINE
  5
38A
100
AcDbEntity
  8
ASSI
100
AcDbPolyline
 62
7
  6
CONTINUOUS
 90
19
 70
0
 10
142.3576842495
 20
123.1342006894
 10
142.3599363757
 20
123.1708951112
 10
142.3668872324
 20
123.2080641525
 10
142.3787725731
 20
123.2451545134
 10
142.3957132664
 20
123.2815498159
 10
142.4177534313
 20
123.3167072517
 10
142.4450047576
 20
123.3502688305
 10
142.4780082788
 20
123.3822202601
 10
142.5163867875
 20
123.4115964432
 10
142.5585985326
 20
123.4371567898
 10
142.6042732134
 20
123.4588875594
 10
142.6532648111
 20
123.4768132649
 10
142.7037437894
 20
123.490466578
 10
142.7547046247
 20
123.4999538808
 10
142.806326003
 20
123.5055783966
 10
142.8581885879
 20
123.5074167503
 10
142.9098786034
 20
123.5055178676
 10
142.9610890978
 20
123.4998913781
 10
143.0114633737
 20
123.4905031511
  0
LWPOLYLINE
  5
38B
100
AcDbEntity
  8
ASSI
100
AcDbPolyline
 62
250
  6
CONTINUOUS
 90
13
 70
0
 10
144.7422916675
 20
123.4995206184
 10
144.7448872219
 20
123.5232002016
 10
144.745177626
 20
123.5476702267
 10
144.7431582252
 20
123.5725384961
 10
144.7388613857
 20
123.5974064292
 10
144.7323559756
 20
123.6218754506
 10
144.7237462616
 20
123.6455533788
 10
144.7131702373
 20
123.6680607113
 10
144.7007974116
 20
123.6890367076
 10
144.6868260924
 20
123.7081451712
 10
144.6714802074
 20
123.7250798373
 10
144.6550057155
 20
123.7395692826
 10
144.6376666647
 20
123.7513812747
  0
LWPOLYLINE
  5
38C
100
AcDbEntity
  8
ASSI
100
AcDbPolyline
 62
250
  6
CONTINUOUS
 90
10
 70
0
 10
144.7129167424
 20
119.7639444532
 10
144.7094911043
 20
119.7457757821
 10
144.7074434468
 20
119.7276789455
 10
144.7067920533
 20
119.7098155137
 10
144.7075427424
 20
119.6923449727
 10
144.7096888119
 20
119.6754233017
 10
144.7132111002
 20
119.65920158
 10
144.718078161
 20
119.6438246373
 10
144.7242465434
 20
119.6294297604
 10
144.7316611769
 20
119.616145469
  0
LWPOLYLINE
  5
38D
100
AcDbEntity
  8
IMPORT_IGES
100
AcDbPolyline
 62
250
  6
CONTINUOUS
 90
7
 70
0
 10
160.9151707269
 20
107.5962711765
 10
160.9334591369
 20
107.6097921254
 10
160.9488752095
 20
107.6275312205
 10
160.9611479236
 20
107.6491807564
 10
160.9700672894
 20
107.6743703035
 10
160.9754806942
 20
107.7026688617
 10
160.9772955132
 20
107.7335922349
  0
LWPOLYLINE
  5
38E
100
AcDbEntity
  8
IMPORT_IGES
100
AcDbPolyline
 62
7
  6
CONTINUOUS
 90
9
 70
0
 10
138.3498785152
 20
92.7914049619
 10
138.3294908163
 20
92.7770118842
 10
138.3115001358
 20
92.7591201332
 10
138.2960879616
 20
92.7378763726
 10
138.2834304155
 20
92.7133902713
 10
138.2736212589
 20
92.6858749807
 10
138.2667260554
 20
92.6556344947
 10
138.2628642114
 20
92.6228240335
 10
138.2620105511
 20
92.5971638518
  0
LWPOLYLINE
  5
38F
100
AcDbEntity
  8
IMPORT_IGES
100
AcDbPolyline
 62
7
  6
CONTINUOUS
 90
9
 70
0
 10
137.5720610559
 20
91.9341545717
 10
137.551673357
 20
91.919761494
 10
137.5336826765
 20
91.901869743
 10
137.5182705022
 20
91.8806259824
 10
137.5056129562
 20
91.8561398811
 10
137.4958037996
 20
91.8286245905
 10
137.4889085961
 20
91.7983841045
 10
137.4850467521
 20
91.7655736433
 10
137.4841930918
 20
91.7399134616
  0
LWPOLYLINE
  5
390
100
AcDbEntity
  8
IMPORT_IGES
100
AcDbPolyline
 62
250
  6
CONTINUOUS
 90
7
 70
0
 10
160.9772955132
 20
107.7335922349
 10
161.0031694809
 20
107.750627247
 10
161.0249711
 20
107.7694664928
 10
161.0423273386
 20
107.7897876276
 10
161.0549412267
 20
107.811242951
 10
161.0625969372
 20
107.8334653566
 10
161.0651634788
 20
107.8560746129
  0
LWPOLYLINE
  5
391
100
AcDbEntity
  8
IMPORT_IGES
100
AcDbPolyline
 62
7
  6
CONTINUOUS
 90
3
 70
0
 10
160.1245284316
 20
104.3836464487
 10
160.1342754313
 20
104.3893470738
 10
160.1450893053
 20
104.395527997
  0
LINE
  5
392
100
AcDbEntity
  8
IMPORT_IGES
100
AcDbLine
 62
7
  6
CONTINUOUS
 10
139.873826514
 20
93.7119909675
 11
139.6580260604
 21
93.5873904902
  0
LINE
  5
393
100
AcDbEntity
  8
IMPORT_IGES
100
AcDbLine
 62
7
  6
CONTINUOUS
 10
139.5770883893
 20
93.4999805627
 11
138.3498785152
 21
92.7914049619
  0
LINE
  5
394
100
AcDbEntity
  8
IMPORT_IGES
100
AcDbLine
 62
7
  6
CONTINUOUS
 10
138.2620105496
 20
92.3325227623
 11
137.5720610559
 21
91.9341545717
  0
LINE
  5
395
100
AcDbEntity
  8
IMPORT_IGES
100
AcDbLine
 62
7
  6
CONTINUOUS
 10
159.5630819508
 20
104.0594996623
 11
160.0783543318
 21
104.3571156033
  0
LINE
  5
396
100
AcDbEntity
  8
IMPORT_IGES
100
AcDbLine
 62
7
  6
CONTINUOUS
 10
159.7752139852
 20
103.9370172843
 11
151.6434911265
 21
99.2418624201
  0
LINE
  5
397
100
AcDbEntity
  8
IMPORT_IGES
100
AcDbLine
 62
7
  6
CONTINUOUS
 10
151.2717345594
 20
98.7005714899
 11
151.5727753234
 21
98.8743886541
  0
LINE
  5
398
100
AcDbEntity
  8
IMPORT_IGES
100
AcDbLine
 62
250
  6
CONTINUOUS
 10
151.2717345594
 20
98.4556304068
 11
160.7651634788
 21
103.9370172843
  0
LINE
  5
399
100
AcDbEntity
  8
IMPORT_IGES
100
AcDbLine
 62
7
  6
CONTINUOUS
 10
160.0783543318
 20
104.3571156033
 11
160.1245284316
 21
104.3836464487
  0
LWPOLYLINE
  5
39A
100
AcDbEntity
  8
IMPORT_IGES
100
AcDbPolyline
 62
250
  6
CONTINUOUS
 90
7
 70
0
 10
160.7651634788
 20
103.9370172843
 10
160.7928522655
 20
103.9509089378
 10
160.8200672894
 20
103.9603718914
 10
160.8463428939
 20
103.9652442314
 10
160.871229496
 20
103.9654425906
 10
160.8943012792
 20
103.9609635751
 10
160.9151707269
 20
103.9518796376
  0
LWPOLYLINE
  5
39B
100
AcDbEntity
  8
RACCORDO
100
AcDbPolyline
 62
250
  6
CONTINUOUS
 90
16
 70
0
 10
129.3962840608
 20
106.5031800693
 10
129.4347255145
 20
106.4831716644
 10
129.4765431747
 20
106.4655648564
 10
129.5212889849
 20
106.4505482864
 10
129.5684835162
 20
106.4382828424
 10
129.6176211057
 20
106.4288999352
 10
129.6681752742
 20
106.4225000907
 10
129.7196043646
 20
106.4191518731
 10
129.7713573492
 20
106.4188911504
 10
129.8228797351
 20
106.4217207106
 10
129.8736194965
 20
106.4276102319
 10
129.9230329961
 20
106.4364966072
 10
129.9705908133
 20
106.4482846226
 10
130.0157834062
 20
106.4628479754
 10
130.0581265709
 20
106.4800306264
 10
130.0971666366
 20
106.4996484733
  0
LINE
  5
39C
100
AcDbEntity
  8
RACCORDO
100
AcDbLine
 62
7
  6
CONTINUOUS
 10
129.9947247311
 20
106.560005098
 11
139.6289150763
 21
100.9973443375
  0
LINE
  5
39D
100
AcDbEntity
  8
RACCORDO
100
AcDbLine
 62
250
  6
CONTINUOUS
 10
129.8911842319
 20
106.7888730601
 11
139.5253731434
 21
101.2262131274
  0
LWPOLYLINE
  5
39E
100
AcDbEntity
  8
RACCORDO
100
AcDbPolyline
 62
7
  6
CONTINUOUS
 90
22
 70
0
 10
139.628887137
 20
100.9973604729
 10
139.634751368
 20
100.9938230027
 10
139.6460653838
 20
100.9862384625
 10
139.6595843939
 20
100.9760435989
 10
139.6749520043
 20
100.9631164879
 10
139.6917970122
 20
100.9474148706
 10
139.7097614951
 20
100.9289156613
 10
139.7285565148
 20
100.9075586133
 10
139.7476882552
 20
100.8835764189
 10
139.76651411
 20
100.8575084459
 10
139.7846795891
 20
100.8296469952
 10
139.8018095008
 20
100.8004406097
 10
139.8173407253
 20
100.7708369117
 10
139.831051122
 20
100.7413788891
 10
139.842841529
 20
100.7125214582
 10
139.8525343912
 20
100.6851024886
 10
139.860150022
 20
100.6596734046
 10
139.8658619071
 20
100.6364796472
 10
139.8698476781
 20
100.615863161
 10
139.8723138498
 20
100.5981515164
 10
139.8735302407
 20
100.5835937691
 10
139.8738265143
 20
100.5731492223
  0
LWPOLYLINE
  5
39F
100
AcDbEntity
  8
RACCORDO
100
AcDbPolyline
 62
250
  6
CONTINUOUS
 90
19
 70
0
 10
139.5253731434
 20
101.2262131274
 10
139.5691286169
 20
101.1985100217
 10
139.6117055176
 20
101.1674746466
 10
139.6531038455
 20
101.1331070021
 10
139.6935229053
 20
101.095159386
 10
139.7327633923
 20
101.0538795005
 10
139.7702273931
 20
101.010010452
 10
139.8059531671
 20
100.9634670568
 10
139.8399024549
 20
100.9143344986
 10
139.8713625649
 20
100.8636114352
 10
139.9002543336
 20
100.8114504819
 10
139.9266569246
 20
100.7576990234
 10
139.9500951367
 20
100.7028978708
 10
139.9706790486
 20
100.6466387018
 10
139.9882985817
 20
100.5893298388
 10
140.0021482994
 20
100.532737059
 10
140.0119597229
 20
100.4774489552
 10
140.0180013309
 20
100.4228769347
 10
140.0202731234
 20
100.3690209975
  0
LWPOLYLINE
  5
3A0
100
AcDbEntity
  8
RACCORDO
100
AcDbPolyline
 62
250
  6
CONTINUOUS
 90
9
 70
0
 10
140.0202731234
 20
100.3690219344
 10
139.98561992
 20
100.3912174494
 10
139.9551260812
 20
100.4153623445
 10
139.9291183274
 20
100.4411979239
 10
139.9078753136
 20
100.4684473772
 10
139.891624644
 20
100.4968187455
 10
139.8805404332
 20
100.5260080492
 10
139.874741441
 20
100.5557025452
 10
139.8738265143
 20
100.5731492223
  0
LINE
  5
3A1
100
AcDbEntity
  8
RACCORDO
100
AcDbLine
 62
250
  6
CONTINUOUS
 10
129.9800773151
 20
106.5695171298
 11
129.9947247311
 21
106.560005098
  0
LINE
  5
3A2
100
AcDbEntity
  8
RACCORDO
100
AcDbLine
 62
250
  6
CONTINUOUS
 10
149.5438454236
 20
86.2343048163
 11
149.5163441346
 21
86.2714160899
  0
LWPOLYLINE
  5
3A3
100
AcDbEntity
  8
RACCORDO
100
AcDbPolyline
 62
250
  6
CONTINUOUS
 90
3
 70
0
 10
149.5163441346
 20
86.2714160899
 10
149.4897515079
 20
86.3102335081
 10
149.4640675433
 20
86.3507570707
  0
LWPOLYLINE
  5
3A4
100
AcDbEntity
  8
RACCORDO
100
AcDbPolyline
 62
7
  6
CONTINUOUS
 90
14
 70
0
 10
149.591254041
 20
86.3037170691
 10
149.5819738108
 20
86.3179762627
 10
149.5711698593
 20
86.3316768697
 10
149.558697308
 20
86.344576166
 10
149.5445025697
 20
86.3563619494
 10
149.5284404238
 20
86.3668030924
 10
149.510850294
 20
86.3753851983
 10
149.4920081513
 20
86.3817860261
 10
149.4721065582
 20
86.3857728778
 10
149.4515958692
 20
86.3871112553
 10
149.4308838104
 20
86.38567377
 10
149.410334488
 20
86.3813932116
 10
149.3903907397
 20
86.3742748371
 10
149.3790910847
 20
86.3687784904
  0
LWPOLYLINE
  5
3A5
100
AcDbEntity
  8
RACCORDO
100
AcDbPolyline
 62
250
  6
CONTINUOUS
 90
8
 70
0
 10
150.7259441746
 20
86.0794100412
 10
150.7182450103
 20
86.0922141793
 10
150.709744512
 20
86.1047985409
 10
150.7004609945
 20
86.1170079297
 10
150.69038995
 20
86.1287341253
 10
150.6793630974
 20
86.1400359532
 10
150.66732484
 20
86.1507573549
 10
150.6543715638
 20
86.1605852607
  0
LINE
  5
3A6
100
AcDbEntity
  8
RACCORDO
100
AcDbLine
 62
7
  6
CONTINUOUS
 10
149.591254041
 20
86.3037170691
 11
149.5912705482
 21
86.3036892039
  0
LINE
  5
3A7
100
AcDbEntity
  8
RACCORDO
100
AcDbLine
 62
250
  6
CONTINUOUS
 10
149.3574277692
 20
82.5270204023
 11
149.3517549016
 21
82.5368460972
  0
LINE
  5
3A8
100
AcDbEntity
  8
RACCORDO
100
AcDbLine
 62
7
  6
CONTINUOUS
 10
149.4104913704
 20
82.5576634093
 11
149.3524579483
 21
82.6581802448
  0
LWPOLYLINE
  5
3A9
100
AcDbEntity
  8
ASSI
100
AcDbPolyline
 62
250
  6
CONTINUOUS
 90
13
 70
0
 10
141.8212321346
 20
121.8217210648
 10
141.8191688883
 20
121.843423797
 10
141.8148803146
 20
121.8659466561
 10
141.8084350219
 20
121.8889294771
 10
141.7999361072
 20
121.912004741
 10
141.7895194978
 20
121.9348034746
 10
141.7773517712
 20
121.9569611492
 10
141.7636275118
 20
121.978123467
 10
141.7485661845
 20
121.9979520607
 10
141.7324086063
 20
122.0161299172
 10
141.7154131308
 20
122.032366397
 10
141.6978515236
 20
122.0464018878
 10
141.6800045914
 20
122.0580119831
  0
LWPOLYLINE
  5
3AA
100
AcDbEntity
  8
ASSI
100
AcDbPolyline
 62
250
  6
CONTINUOUS
 90
13
 70
0
 10
142.1422935184
 20
121.7742937752
 10
142.1443566915
 20
121.7525915523
 10
142.1486451169
 20
121.7300691229
 10
142.1550902223
 20
121.7070866229
 10
142.1635889496
 20
121.6840115449
 10
142.1740054036
 20
121.6612128617
 10
142.1861730239
 20
121.6390551265
 10
142.1998972491
 20
121.6178926437
 10
142.2149586275
 20
121.5980638035
 10
142.2311163262
 20
121.5798856712
 10
142.2481119818
 20
121.5636489168
 10
142.2656738322
 20
121.5496131677
 10
142.2835210616
 20
121.5380028569
  0
LINE
  5
3AB
100
AcDbEntity
  8
ASSI
100
AcDbLine
 62
250
  6
CONTINUOUS
 10
144.2171732741
 20
118.8279890838
 11
144.2441144
 21
118.5344042818
  0
LINE
  5
3AC
100
AcDbEntity
  8
ASSI
100
AcDbLine
 62
250
  6
CONTINUOUS
 10
144.1883096739
 20
119.1589094605
 11
144.2171732741
 21
118.8279890838
  0
LWPOLYLINE
  5
3AD
100
AcDbEntity
  8
ASSI
100
AcDbPolyline
 62
250
  6
CONTINUOUS
 90
5
 70
0
 10
142.3576842453
 20
123.1342006894
 10
142.3594962097
 20
123.1096452128
 10
142.3648698473
 20
123.0854329116
 10
142.3737668637
 20
123.0615691837
 10
142.3861236888
 20
123.0382246471
  0
LWPOLYLINE
  5
3AE
100
AcDbEntity
  8
LAY0001
100
AcDbPolyline
 62
250
  6
CONTINUOUS
 90
16
 70
0
 10
142.8401163547
 20
114.1215242715
 10
142.8372264071
 20
114.1649011935
 10
142.8305777061
 20
114.2101065891
 10
142.8202435134
 20
114.2566425747
 10
142.8063358619
 20
114.3040021475
 10
142.7890089787
 20
114.3516582578
 10
142.7684614632
 20
114.3990695134
 10
142.7449283363
 20
114.4457042635
 10
142.7186671565
 20
114.4910613907
 10
142.689959684
 20
114.5346577017
 10
142.6590767774
 20
114.5760708479
 10
142.6263976459
 20
114.614782065
 10
142.5924178292
 20
114.6502329823
 10
142.5575696484
 20
114.6820357789
 10
142.5221966801
 20
114.7099379549
 10
142.4866841133
 20
114.733686859
  0
LWPOLYLINE
  5
3AF
100
AcDbEntity
  8
ASSI
100
AcDbPolyline
 62
250
  6
CONTINUOUS
 90
10
 70
0
 10
144.8375772202
 20
119.6148332946
 10
144.8369207037
 20
119.6278521669
 10
144.83583013
 20
119.6405040926
 10
144.8343054993
 20
119.6527890715
 10
144.8323435572
 20
119.6647067001
 10
144.8299475579
 20
119.676257382
 10
144.8271272647
 20
119.6874423279
 10
144.8238859318
 20
119.6982619412
 10
144.8202203049
 20
119.7087158184
 10
144.816130384
 20
119.7188039596
  0
LWPOLYLINE
  5
3B0
100
AcDbEntity
  8
ASSI
100
AcDbPolyline
 62
250
  6
CONTINUOUS
 90
16
 70
0
 10
145.2243780226
 20
116.4566951155
 10
145.2238395741
 20
116.4744032073
 10
145.2217219111
 20
116.492800058
 10
145.2180483589
 20
116.5116829725
 10
145.2128586541
 20
116.5308462726
 10
145.2062103428
 20
116.5500764576
 10
145.1981799098
 20
116.5691545791
 10
145.1888597924
 20
116.5878661268
 10
145.1783520137
 20
116.6060106596
 10
145.166768602
 20
116.6233960947
 10
145.1542179304
 20
116.6398544458
 10
145.1408544201
 20
116.6551782838
 10
145.1268822133
 20
116.6691456703
 10
145.112480591
 20
116.6816044765
 10
145.0977922994
 20
116.692457242
 10
145.0829782055
 20
116.7016067826
  0
LINE
  5
3B1
100
AcDbEntity
  8
ASSI
100
AcDbLine
 62
250
  6
CONTINUOUS
 10
144.84734168
 20
119.2754919007
 11
144.8375772202
 21
119.6148332946
  0
LINE
  5
3B2
100
AcDbEntity
  8
ASSI
100
AcDbLine
 62
250
  6
CONTINUOUS
 10
144.8546077173
 20
118.9608367506
 11
144.84734168
 21
119.2754919007
  0
LINE
  5
3B3
100
AcDbEntity
  8
ASSI
100
AcDbLine
 62
250
  6
CONTINUOUS
 10
144.8585448671
 20
118.7422180615
 11
144.8546077173
 21
118.9608367506
  0
LWPOLYLINE
  5
3B4
100
AcDbEntity
  8
ASSI
100
AcDbPolyline
 62
250
  6
CONTINUOUS
 90
3
 70
0
 10
144.8619827714
 20
118.4755875739
 10
144.8613121207
 20
118.5395422605
 10
144.8585448671
 20
118.7422180615
  0
LWPOLYLINE
  5
3B5
100
AcDbEntity
  8
ASSI
100
AcDbPolyline
 62
250
  6
CONTINUOUS
 90
16
 70
0
 10
144.7129162918
 20
119.7639445024
 10
144.7128785586
 20
119.7799429461
 10
144.7118749985
 20
119.7959035624
 10
144.7099121076
 20
119.811724193
 10
144.7070025243
 20
119.8273035364
 10
144.703164944
 20
119.8425419361
 10
144.6984239717
 20
119.8573420071
 10
144.6928099695
 20
119.8716090829
 10
144.6863589297
 20
119.885251802
 10
144.6791122269
 20
119.8981828289
 10
144.6711162439
 20
119.910319479
 10
144.6624222365
 20
119.9215840232
 10
144.6530860898
 20
119.9319042115
 10
144.6431676976
 20
119.9412140166
 10
144.632730539
 20
119.949454002
 10
144.6218414676
 20
119.9565715196
  0
LINE
  5
3B6
100
AcDbEntity
  8
ASSI
100
AcDbLine
 62
7
  6
CONTINUOUS
 10
144.8072531467
 20
119.4393156198
 11
144.8072531467
 21
118.370544933
  0
LINE
  5
3B7
100
AcDbEntity
  8
ASSI
100
AcDbLine
 62
7
  6
CONTINUOUS
 10
144.9613269193
 20
118.3966969399
 11
144.9613269193
 21
118.5305670799
  0
LINE
  5
3B8
100
AcDbEntity
  8
ASSI
100
AcDbLine
 62
250
  6
CONTINUOUS
 10
145.2243780226
 20
116.0873841259
 11
145.2243780226
 21
116.4566951155
  0
LINE
  5
3B9
100
AcDbEntity
  8
LAY0001
100
AcDbLine
 62
7
  6
CONTINUOUS
 10
145.2441696318
 20
73.216147536
 11
145.2441696318
 21
115.5095876579
  0
LINE
  5
3BA
100
AcDbEntity
  8
ASSI
100
AcDbLine
 62
7
  6
CONTINUOUS
 10
145.2805100625
 20
116.1676015333
 11
145.2805100625
 21
116.5369125229
  0
LINE
  5
3BB
100
AcDbEntity
  8
RACCORDO
100
AcDbLine
 62
250
  6
CONTINUOUS
 10
145.3148585811
 20
108.7346725176
 11
145.3148585811
 21
80.0755928365
  0
LINE
  5
3BC
100
AcDbEntity
  8
0
100
AcDbLine
 62
7
  6
CONTINUOUS
 10
145.4563016661
 20
79.9950699534
 11
145.4563016661
 21
79.8681155202
  0
LINE
  5
3BD
100
AcDbEntity
  8
DRAFT
100
AcDbLine
 62
7
  6
CONTINUOUS
 10
145.4773337018
 20
117.2119063243
 11
145.4773337018
 21
117.4003297025
  0
LINE
  5
3BE
100
AcDbEntity
  8
DRAFT
100
AcDbLine
 62
250
  6
CONTINUOUS
 10
146.0074541403
 20
118.3445955205
 11
146.0074541403
 21
117.5532593233
  0
LINE
  5
3BF
100
AcDbEntity
  8
RACCORDO
100
AcDbLine
 62
250
  6
CONTINUOUS
 10
146.132110466
 20
78.8219119207
 11
146.132110466
 21
77.115493746
  0
LINE
  5
3C0
100
AcDbEntity
  8
RACCORDO
100
AcDbLine
 62
250
  6
CONTINUOUS
 10
146.1457307778
 20
112.7028834672
 11
146.1457307778
 21
110.9937433837
  0
LWPOLYLINE
  5
3C1
100
AcDbEntity
  8
ASSI
100
AcDbPolyline
 62
7
  6
CONTINUOUS
 90
21
 70
0
 10
144.8071987455
 20
118.3705460481
 10
144.8071803921
 20
118.3681248395
 10
144.8052608639
 20
118.3458793996
 10
144.8001832328
 20
118.3240002243
 10
144.7918688614
 20
118.3023491059
 10
144.7803963869
 20
118.2810642521
 10
144.7660017209
 20
118.2605602866
 10
144.7486492941
 20
118.2408659708
 10
144.7283746757
 20
118.2219525432
 10
144.7055204851
 20
118.2041483435
 10
144.6800036124
 20
118.1874522367
 10
144.6519071674
 20
118.1718653577
 10
144.6218230992
 20
118.1577194511
 10
144.5897424649
 20
118.1450594893
 10
144.5556742074
 20
118.1338404999
 10
144.5202371049
 20
118.12425931
 10
144.4834051494
 20
118.1163401849
 10
144.445204349
 20
118.1100588594
 10
144.4063315057
 20
118.1055393643
 10
144.3670188868
 20
118.1028230433
 10
144.3270342251
 20
118.1018685528
  0
LWPOLYLINE
  5
3C2
100
AcDbEntity
  8
ASSI
100
AcDbPolyline
 62
250
  6
CONTINUOUS
 90
16
 70
0
 10
146.6159022021
 20
120.5960035451
 10
146.6162664405
 20
120.6136690385
 10
146.6173551653
 20
120.6323342174
 10
146.619156448
 20
120.6517945822
 10
146.6216505535
 20
120.6718369209
 10
146.6248101557
 20
120.6922416455
 10
146.6286006375
 20
120.712785198
 10
146.6329804694
 20
120.7332424988
 10
146.6379016652
 20
120.7533894136
 10
146.6433103072
 20
120.7730052088
 10
146.6491471373
 20
120.7918749696
 10
146.655348206
 20
120.8097919551
 10
146.6618455732
 20
120.8265598634
 10
146.6685680525
 20
120.8419949819
 10
146.6754419911
 20
120.8559281997
 10
146.6823920765
 20
120.8682068614
  0
LWPOLYLINE
  5
3C3
100
AcDbEntity
  8
RACCORDO
100
AcDbPolyline
 62
250
  6
CONTINUOUS
 90
5
 70
0
 10
145.3148585811
 20
80.0755928365
 10
145.314088527
 20
80.0487460648
 10
145.3116600458
 20
80.0223337167
 10
145.307467068
 20
79.9965584659
 10
145.3014492459
 20
79.9717763076
  0
LINE
  5
3C4
100
AcDbEntity
  8
ASSI
100
AcDbLine
 62
250
  6
CONTINUOUS
 10
145.2803321075
 20
116.1627312317
 11
145.2805100625
 21
116.1676015333
  0
LWPOLYLINE
  5
3C5
100
AcDbEntity
  8
ASSI
100
AcDbPolyline
 62
250
  6
CONTINUOUS
 90
22
 70
0
 10
144.8072531467
 20
119.4393156198
 10
144.8059405711
 20
119.4184109017
 10
144.8009144776
 20
119.3934924013
 10
144.7921606128
 20
119.3689199172
 10
144.7797450614
 20
119.3448789782
 10
144.7637615808
 20
119.3215511511
 10
144.7443308602
 20
119.2991125879
 10
144.7215996107
 20
119.2777327207
 10
144.6957394869
 20
119.2575730079
 10
144.6669457985
 20
119.2387857054
 10
144.6354360051
 20
119.2215126905
 10
144.6014480324
 20
119.2058843797
 10
144.5652385034
 20
119.1920187708
 10
144.527080834
 20
119.1800205651
 10
144.4872631727
 20
119.16998037
 10
144.4460861906
 20
119.1619740028
 10
144.4038608172
 20
119.1560619227
 10
144.3609059171
 20
119.1522887775
 10
144.3175458797
 20
119.1506830613
 10
144.2741081382
 20
119.1512568976
 10
144.230920696
 20
119.1540059509
 10
144.1883096739
 20
119.1589094605
  0
LWPOLYLINE
  5
3C6
100
AcDbEntity
  8
LAY0001
100
AcDbPolyline
 62
250
  6
CONTINUOUS
 90
9
 70
0
 10
142.8401163547
 20
71.9697519893
 10
142.8372267269
 20
71.9275941883
 10
142.8305788169
 20
71.8882066771
 10
142.8202458312
 20
71.8520231942
 10
142.8063396695
 20
71.8194384967
 10
142.7890145298
 20
71.7908160636
 10
142.7684692385
 20
71.7664791664
 10
142.7449393754
 20
71.7466951402
 10
142.7261893939
 20
71.7353333794
  0
LINE
  5
3C7
100
AcDbEntity
  8
RACCORDO
100
AcDbLine
 62
250
  6
CONTINUOUS
 10
147.3035395296
 20
124.1728083075
 11
147.3022775486
 21
124.1556177344
  0
LWPOLYLINE
  5
3C8
100
AcDbEntity
  8
ASSI
100
AcDbPolyline
 62
250
  6
CONTINUOUS
 90
3
 70
0
 10
147.23411222
 20
121.0324419462
 10
147.2344179058
 20
121.0361323291
 10
147.2372590745
 20
121.048408497
  0
LWPOLYLINE
  5
3C9
100
AcDbEntity
  8
ASSI
100
AcDbPolyline
 62
7
  6
CONTINUOUS
 90
20
 70
0
 10
147.2821071828
 20
119.73755528
 10
147.2798437582
 20
119.7105018314
 10
147.2735295561
 20
119.685447293
 10
147.2632353144
 20
119.6606249762
 10
147.2491988697
 20
119.6366514564
 10
147.2313277238
 20
119.6135554305
 10
147.2097143749
 20
119.5913082016
 10
147.184874154
 20
119.5704402545
 10
147.1567294848
 20
119.5509847319
 10
147.1253579435
 20
119.5329084911
 10
147.0915075898
 20
119.5166425888
 10
147.0551188473
 20
119.5022305438
 10
147.0162512924
 20
119.4896288374
 10
146.9758317136
 20
119.4791379702
 10
146.9338083367
 20
119.470809983
 10
146.890232936
 20
119.464592835
 10
146.8461876228
 20
119.4606309049
 10
146.802033101
 20
119.4589723189
 10
146.7574086669
 20
119.4595689507
 10
146.7123143203
 20
119.4624208005
  0
LWPOLYLINE
  5
3CA
100
AcDbEntity
  8
RACCORDO
100
AcDbPolyline
 62
250
  6
CONTINUOUS
 90
7
 70
0
 10
146.2043094216
 20
112.7845383859
 10
146.202468348
 20
112.7689057882
 10
146.1971848913
 20
112.7539910789
 10
146.1886202101
 20
112.7397042091
 10
146.1770190693
 20
112.7263069846
 10
146.1626236256
 20
112.7139727248
 10
146.1457307778
 20
112.7028834672
  0
LINE
  5
3CB
100
AcDbEntity
  8
IMPORT_IGES
100
AcDbLine
 62
7
  6
CONTINUOUS
 10
160.1450893053
 20
104.395527997
 11
160.1458797922
 21
104.396058578
  0
LINE
  5
3CC
100
AcDbEntity
  8
RACCORDO
100
AcDbLine
 62
250
  6
CONTINUOUS
 10
139.8362481755
 20
88.4824155467
 11
139.8727567968
 21
88.5064182997
  0
LINE
  5
3CD
100
AcDbEntity
  8
IMPORT_IGES
100
AcDbLine
 62
250
  6
CONTINUOUS
 10
160.9772955132
 20
103.5695938232
 11
151.1838665938
 21
97.9149907057
  0
LWPOLYLINE
  5
3CE
100
AcDbEntity
  8
RACCORDO
100
AcDbPolyline
 62
7
  6
CONTINUOUS
 90
6
 70
0
 10
129.9884286491
 20
106.5642303542
 10
129.9847230599
 20
106.5652689911
 10
129.9837789544
 20
106.565586749
 10
129.9855132436
 20
106.5648403501
 10
129.9897664191
 20
106.5627420391
 10
129.9947350908
 20
106.559999117
  0
LWPOLYLINE
  5
3CF
100
AcDbEntity
  8
RACCORDO
100
AcDbPolyline
 62
250
  6
CONTINUOUS
 90
5
 70
0
 10
150.3931517757
 20
87.6059284642
 10
150.4024719108
 20
87.5893677367
 10
150.4098061403
 20
87.5724522772
 10
150.4150480834
 20
87.5554954188
 10
150.4181455102
 20
87.5387603142
  0
LINE
  5
3D0
100
AcDbEntity
  8
RACCORDO
100
AcDbLine
 62
250
  6
CONTINUOUS
 10
150.7329342008
 20
86.066310482
 11
150.7259441746
 21
86.0794100412
  0
LWPOLYLINE
  5
3D1
100
AcDbEntity
  8
RACCORDO
100
AcDbPolyline
 62
250
  6
CONTINUOUS
 90
5
 70
0
 10
149.3852318147
 20
82.467314887
 10
149.3799062694
 20
82.4815661569
 10
149.3735143764
 20
82.4963928367
 10
149.3660343337
 20
82.5115908547
 10
149.3574277797
 20
82.5270204087
  0
LINE
  5
3D2
100
AcDbEntity
  8
RACCORDO
100
AcDbLine
 62
250
  6
CONTINUOUS
 10
149.3895928907
 20
82.4536452142
 11
149.3852318147
 21
82.467314887
  0
LWPOLYLINE
  5
3D3
100
AcDbEntity
  8
ASSI
100
AcDbPolyline
 62
250
  6
CONTINUOUS
 90
7
 70
0
 10
139.4474351647
 20
121.7173785845
 10
139.450371052
 20
121.7030629498
 10
139.456001326
 20
121.6869995971
 10
139.4644989943
 20
121.6696564806
 10
139.4759876714
 20
121.6513661862
 10
139.490562172
 20
121.6325465447
 10
139.5083033572
 20
121.6137400955
  0
LWPOLYLINE
  5
3D4
100
AcDbEntity
  8
ASSI
100
AcDbPolyline
 62
250
  6
CONTINUOUS
 90
13
 70
0
 10
142.4423737094
 20
119.547313683
 10
142.4397274716
 20
119.5687731268
 10
142.4349273238
 20
119.5909069969
 10
142.4280475535
 20
119.6133761975
 10
142.4191950587
 20
119.6358348244
 10
142.408505512
 20
119.657941181
 10
142.3961397646
 20
119.6793625966
 10
142.3822751823
 20
119.699786277
 10
142.3671327099
 20
119.7188818051
 10
142.3509784349
 20
119.7363215815
 10
142.3340763301
 20
119.75183937
 10
142.3166762339
 20
119.7652236218
 10
142.2990438183
 20
119.7762846244
  0
LWPOLYLINE
  5
3D5
100
AcDbEntity
  8
ASSI
100
AcDbPolyline
 62
250
  6
CONTINUOUS
 90
13
 70
0
 10
141.9427044388
 20
118.3593373309
 10
141.9400644168
 20
118.3807603704
 10
141.9352768239
 20
118.4028589259
 10
141.9284147407
 20
118.4252956726
 10
141.919582914
 20
118.4477281229
 10
141.9089161578
 20
118.4698138552
 10
141.8965772956
 20
118.49121574
 10
141.8827546749
 20
118.5116070869
 10
141.8676592922
 20
118.5306766305
 10
141.8515215719
 20
118.5481332824
 10
141.8345878496
 20
118.5637105743
 10
141.8171166112
 20
118.5771707254
 10
141.7993745478
 20
118.5883082723
  0
LWPOLYLINE
  5
3D6
100
AcDbEntity
  8
ASSI
100
AcDbPolyline
 62
250
  6
CONTINUOUS
 90
13
 70
0
 10
142.5787691354
 20
119.6288756906
 10
142.5761291133
 20
119.6502987301
 10
142.5713415204
 20
119.6723972857
 10
142.5644794372
 20
119.6948340323
 10
142.5556476105
 20
119.7172664826
 10
142.5449808543
 20
119.7393522149
 10
142.5326419922
 20
119.7607540998
 10
142.5188193715
 20
119.7811454466
 10
142.5037239887
 20
119.8002149902
 10
142.4875862685
 20
119.8176716421
 10
142.4706525461
 20
119.833248934
 10
142.4531813077
 20
119.8467090851
 10
142.4354392443
 20
119.857846632
  0
LINE
  5
3D7
100
AcDbEntity
  8
ASSI
100
AcDbLine
 62
250
  6
CONTINUOUS
 10
146.4029263507
 20
120.5818781208
 11
146.4159790562
 21
120.4623735872
  0
LINE
  5
3D8
100
AcDbEntity
  8
ASSI
100
AcDbLine
 62
250
  6
CONTINUOUS
 10
144.2629140417
 20
118.3380520855
 11
144.28637732
 21
118.102675886
  0
LWPOLYLINE
  5
3D9
100
AcDbEntity
  8
ASSI
100
AcDbPolyline
 62
250
  6
CONTINUOUS
 90
13
 70
0
 10
144.6870090418
 20
123.4763847344
 10
144.6849458687
 20
123.4980869574
 10
144.6806574433
 20
123.5206093868
 10
144.6742123379
 20
123.5435918867
 10
144.6657136105
 20
123.5666669647
 10
144.6552971566
 20
123.5894656479
 10
144.6431295363
 20
123.6116233831
 10
144.6294053111
 20
123.6327858659
 10
144.6143439326
 20
123.6526147061
 10
144.598186234
 20
123.6707928385
 10
144.5811905784
 20
123.6870295929
 10
144.563628728
 20
123.7010653419
 10
144.5457814986
 20
123.7126756527
  0
LINE
  5
3DA
100
AcDbEntity
  8
ASSI
100
AcDbLine
 62
250
  6
CONTINUOUS
 10
144.2441144
 20
118.5344042818
 11
144.2629140417
 21
118.3380520855
  0
LINE
  5
3DB
100
AcDbEntity
  8
ASSI
100
AcDbLine
 62
250
  6
CONTINUOUS
 10
146.6831311322
 20
119.7850167754
 11
146.7123143969
 21
119.4624208005
  0
LINE
  5
3DC
100
AcDbEntity
  8
ASSI
100
AcDbLine
 62
250
  6
CONTINUOUS
 10
146.6509333566
 20
120.1612797087
 11
146.6831311322
 21
119.7850167754
  0
LINE
  5
3DD
100
AcDbEntity
  8
ASSI
100
AcDbLine
 62
250
  6
CONTINUOUS
 10
146.615902209
 20
120.5960035411
 11
146.6509333566
 21
120.1612797087
  0
LINE
  5
3DE
100
AcDbEntity
  8
RACCORDO
100
AcDbLine
 62
250
  6
CONTINUOUS
 10
147.3022775486
 20
124.1556177344
 11
147.3094521179
 21
123.9934030438
  0
LINE
  5
3DF
100
AcDbEntity
  8
RACCORDO
100
AcDbLine
 62
7
  6
CONTINUOUS
 10
147.3462103918
 20
124.2169932296
 11
147.3550215452
 21
124.0177759011
  0
LINE
  5
3E0
100
AcDbEntity
  8
ASSI
100
AcDbLine
 62
250
  6
CONTINUOUS
 10
147.3066876922
 20
120.6467641412
 11
147.289193031
 21
121.11184963
  0
LINE
  5
3E1
100
AcDbEntity
  8
ASSI
100
AcDbLine
 62
250
  6
CONTINUOUS
 10
147.3163712197
 20
120.3430244558
 11
147.3066876922
 21
120.6467641412
  0
LINE
  5
3E2
100
AcDbEntity
  8
ASSI
100
AcDbLine
 62
250
  6
CONTINUOUS
 10
147.3240370574
 20
120.0605028923
 11
147.3163712197
 21
120.3430244558
  0
LINE
  5
3E3
100
AcDbEntity
  8
ASSI
100
AcDbLine
 62
250
  6
CONTINUOUS
 10
147.3280802668
 20
119.8848232143
 11
147.3240370574
 21
120.0605028923
  0
LWPOLYLINE
  5
3E4
100
AcDbEntity
  8
RACCORDO
100
AcDbPolyline
 62
250
  6
CONTINUOUS
 90
8
 70
0
 10
147.3462141485
 20
124.2169063822
 10
147.3462541064
 20
124.214957009
 10
147.3449582988
 20
124.2042124265
 10
147.3411198799
 20
124.1935731228
 10
147.3348045262
 20
124.1832211393
 10
147.326120295
 20
124.1733336013
 10
147.3152157761
 20
124.1640796873
 10
147.3022775486
 20
124.1556177344
  0
LINE
  5
3E5
100
AcDbEntity
  8
RACCORDO
100
AcDbLine
 62
7
  6
CONTINUOUS
 10
146.1882425059
 20
78.7945695871
 11
146.1882425059
 21
77.1957111534
  0
LINE
  5
3E6
100
AcDbEntity
  8
RACCORDO
100
AcDbLine
 62
7
  6
CONTINUOUS
 10
146.2043094216
 20
112.7845383859
 11
146.2043094216
 21
111.1856799522
  0
LINE
  5
3E7
100
AcDbEntity
  8
ASSI
100
AcDbLine
 62
7
  6
CONTINUOUS
 10
147.2821268809
 20
120.8682766964
 11
147.2821268809
 21
119.7375550915
  0
LWPOLYLINE
  5
3E8
100
AcDbEntity
  8
RACCORDO
100
AcDbPolyline
 62
250
  6
CONTINUOUS
 90
7
 70
0
 10
146.132110466
 20
77.115493746
 10
146.1308796615
 20
77.094865913
 10
146.127208306
 20
77.0759635568
 10
146.1211592151
 20
77.0591101023
 10
146.1128358904
 20
77.0445939206
 10
146.1023807429
 20
77.0326633844
 10
146.0908767562
 20
77.0240539058
  0
LWPOLYLINE
  5
3E9
100
AcDbEntity
  8
RACCORDO
100
AcDbPolyline
 62
250
  6
CONTINUOUS
 90
7
 70
0
 10
149.3524571651
 20
111.1546032664
 10
149.3513663013
 20
111.1444532945
 10
149.3477887287
 20
111.1334421887
 10
149.3417793812
 20
111.1227898476
 10
149.3334388115
 20
111.1126745134
 10
149.3229065797
 20
111.1032654428
 10
149.3103589183
 20
111.0947200751
  0
LWPOLYLINE
  5
3EA
100
AcDbEntity
  8
RACCORDO
100
AcDbPolyline
 62
250
  6
CONTINUOUS
 90
7
 70
0
 10
146.1882425059
 20
77.1957111534
 10
146.1866662077
 20
77.1812414669
 10
146.1817214983
 20
77.1664638736
 10
146.1735574542
 20
77.152278834
 10
146.1624053885
 20
77.1389410437
 10
146.1484955174
 20
77.1266198672
 10
146.132110466
 20
77.115493746
  0
LWPOLYLINE
  5
3EB
100
AcDbEntity
  8
IMPORT_IGES
100
AcDbPolyline
 62
7
  6
CONTINUOUS
 90
15
 70
0
 10
150.7488800973
 20
110.2377534014
 10
150.7468527418
 20
110.2218536062
 10
150.7317319975
 20
110.1479353992
 10
150.7104819758
 20
110.0721597786
 10
150.6834013857
 20
109.9953253433
 10
150.6513863544
 20
109.9198278897
 10
150.6142987453
 20
109.8457097096
 10
150.572276695
 20
109.7729285113
 10
150.5266307401
 20
109.7037532171
 10
150.4772553922
 20
109.6382825642
 10
150.4242561396
 20
109.5764178155
 10
150.369259984
 20
109.5201316816
 10
150.3128092591
 20
109.4700817328
 10
150.2543616312
 20
109.4256103988
 10
150.1939171001
 20
109.3867176795
  0
LINE
  5
3EC
100
AcDbEntity
  8
IMPORT_IGES
100
AcDbLine
 62
250
  6
CONTINUOUS
 10
150.0878510829
 20
91.8934612592
 11
160.9772955132
 21
98.1808899964
  0
LINE
  5
3ED
100
AcDbEntity
  8
IMPORT_IGES
100
AcDbLine
 62
7
  6
CONTINUOUS
 10
150.0257262966
 20
91.7561402008
 11
160.9151707269
 21
98.0435689381
  0
LWPOLYLINE
  5
3EE
100
AcDbEntity
  8
IMPORT_IGES
100
AcDbPolyline
 62
7
  6
CONTINUOUS
 90
9
 70
0
 10
151.1838665938
 20
102.0789891173
 10
151.206443282
 20
102.0654999579
 10
151.2257549402
 20
102.0544546854
 10
151.2416993132
 20
102.0456022346
 10
151.254213372
 20
102.0384968186
 10
151.2633272226
 20
102.0330991386
 10
151.2691107442
 20
102.0297878161
 10
151.2716110137
 20
102.0284131507
 10
151.2717345591
 20
102.0283191425
  0
LWPOLYLINE
  5
3EF
100
AcDbEntity
  8
RACCORDO
100
AcDbPolyline
 62
250
  6
CONTINUOUS
 90
6
 70
0
 10
150.7570977961
 20
85.9991897777
 10
150.753725972
 20
86.0124880802
 10
150.7496327629
 20
86.0259342898
 10
150.7448086463
 20
86.039436641
 10
150.7392366968
 20
86.0529326552
 10
150.7329342008
 20
86.066310482
  0
LWPOLYLINE
  5
3F0
100
AcDbEntity
  8
ASSI
100
AcDbPolyline
 62
7
  6
CONTINUOUS
 90
4
 70
0
 10
144.9471658867
 20
118.5227300146
 10
144.9540418448
 20
118.4900107588
 10
144.9594180593
 20
118.4448787743
 10
144.9613269193
 20
118.3966969399
  0
LWPOLYLINE
  5
3F1
100
AcDbEntity
  8
ASSI
100
AcDbPolyline
 62
7
  6
CONTINUOUS
 90
5
 70
0
 10
144.8008133092
 20
119.5012179506
 10
144.8036311662
 20
119.4858246664
 10
144.8056456409
 20
119.4703403158
 10
144.8068520714
 20
119.454824472
 10
144.8072531426
 20
119.4393156198
  0
LINE
  5
3F2
100
AcDbEntity
  8
ASSI
100
AcDbLine
 62
250
  6
CONTINUOUS
 10
144.1080520467
 20
118.2433439158
 11
144.1320397436
 21
118.0716190682
  0
LINE
  5
3F3
100
AcDbEntity
  8
ASSI
100
AcDbLine
 62
250
  6
CONTINUOUS
 10
144.0827114028
 20
118.4311020895
 11
144.1080520467
 21
118.2433439158
  0
LINE
  5
3F4
100
AcDbEntity
  8
ASSI
100
AcDbLine
 62
250
  6
CONTINUOUS
 10
144.0557934972
 20
118.6377916669
 11
144.0827114028
 21
118.4311020895
  0
LINE
  5
3F5
100
AcDbEntity
  8
ASSI
100
AcDbLine
 62
250
  6
CONTINUOUS
 10
144.0272707569
 20
118.8650801935
 11
144.0557934972
 21
118.6377916669
  0
LWPOLYLINE
  5
3F6
100
AcDbEntity
  8
ASSI
100
AcDbPolyline
 62
250
  6
CONTINUOUS
 90
13
 70
0
 10
145.2143332449
 20
119.8711208555
 10
145.2116931368
 20
119.8925443991
 10
145.2069053879
 20
119.9146433755
 10
145.2000431142
 20
119.9370804337
 10
145.1912111
 20
119.9595130629
 10
145.18054419
 20
119.9815988423
 10
145.1682052242
 20
120.0030006664
 10
145.154382572
 20
120.0233918519
 10
145.1392872426
 20
120.0424611559
 10
145.1231496452
 20
120.0599175393
 10
145.1062161064
 20
120.0754945629
 10
145.0887451153
 20
120.0889544614
 10
145.0710033544
 20
120.1000917972
  0
LWPOLYLINE
  5
3F7
100
AcDbEntity
  8
ASSI
100
AcDbPolyline
 62
250
  6
CONTINUOUS
 90
13
 70
0
 10
146.4029263506
 20
120.5818781208
 10
146.4002863286
 20
120.6033011599
 10
146.3954987358
 20
120.6253997153
 10
146.3886366527
 20
120.6478364618
 10
146.379804826
 20
120.6702689121
 10
146.3691380698
 20
120.6923546445
 10
146.3567992076
 20
120.7137565295
 10
146.3429765869
 20
120.7341478764
 10
146.3278812042
 20
120.7532174201
 10
146.3117434839
 20
120.7706740721
 10
146.2948097614
 20
120.7862513641
 10
146.277338523
 20
120.7997115152
 10
146.2595964595
 20
120.8108490622
  0
LWPOLYLINE
  5
3F8
100
AcDbEntity
  8
ASSI
100
AcDbPolyline
 62
250
  6
CONTINUOUS
 90
13
 70
0
 10
144.3865223377
 20
119.7004381877
 10
144.3890721812
 20
119.6796747151
 10
144.3936453258
 20
119.6582657371
 10
144.4001760478
 20
119.6365189446
 10
144.4085704894
 20
119.6147468835
 10
144.4187080066
 20
119.5932624643
 10
144.430442903
 20
119.5723744649
 10
144.4436065248
 20
119.5523830902
 10
144.458009684
 20
119.5335756596
 10
144.4734453759
 20
119.5162224785
 10
144.4896917567
 20
119.5005729503
 10
144.5065153323
 20
119.4868519924
 10
144.5236743122
 20
119.4752568053
  0
LINE
  5
3F9
100
AcDbEntity
  8
ASSI
100
AcDbLine
 62
250
  6
CONTINUOUS
 10
146.4900899808
 20
119.8203893942
 11
146.5232400758
 21
119.5527340478
  0
LINE
  5
3FA
100
AcDbEntity
  8
ASSI
100
AcDbLine
 62
250
  6
CONTINUOUS
 10
143.9974023941
 20
119.1124238839
 11
144.0272707569
 21
118.8650801935
  0
LINE
  5
3FB
100
AcDbEntity
  8
ASSI
100
AcDbLine
 62
250
  6
CONTINUOUS
 10
146.4542536624
 20
120.1230716684
 11
146.4900899808
 21
119.8203893942
  0
LINE
  5
3FC
100
AcDbEntity
  8
ASSI
100
AcDbLine
 62
250
  6
CONTINUOUS
 10
146.4159790562
 20
120.4623735872
 11
146.4542536624
 21
120.1230716684
  0
LWPOLYLINE
  5
3FD
100
AcDbEntity
  8
RACCORDO
100
AcDbPolyline
 62
7
  6
CONTINUOUS
 90
11
 70
0
 10
147.3462141485
 20
124.2169063822
 10
147.3441014013
 20
124.2387081729
 10
147.338869212
 20
124.2636781682
 10
147.3311447258
 20
124.2871548568
 10
147.3208909851
 20
124.3098818431
 10
147.3081694141
 20
124.3316394231
 10
147.2937287297
 20
124.3512772173
 10
147.2777874541
 20
124.3687789488
 10
147.2600868361
 20
124.3844357878
 10
147.2412446761
 20
124.3976693342
 10
147.2359282738
 20
124.4008523055
  0
LINE
  5
3FE
100
AcDbEntity
  8
ASSI
100
AcDbLine
 62
250
  6
CONTINUOUS
 10
149.6693233368
 20
121.2326196011
 11
149.6150038889
 21
121.9808835661
  0
LINE
  5
3FF
100
AcDbEntity
  8
ASSI
100
AcDbLine
 62
250
  6
CONTINUOUS
 10
149.7464700133
 20
121.2907253565
 11
149.6933258182
 21
122.0227999213
  0
LINE
  5
400
100
AcDbEntity
  8
RACCORDO
100
AcDbLine
 62
250
  6
CONTINUOUS
 10
150.3865381154
 20
122.4164175968
 11
150.4194128746
 21
121.9635595768
  0
LINE
  5
401
100
AcDbEntity
  8
RACCORDO
100
AcDbLine
 62
7
  6
CONTINUOUS
 10
150.4407912468
 20
121.9729997482
 11
150.4055137789
 21
122.4589556807
  0
LWPOLYLINE
  5
402
100
AcDbEntity
  8
IMPORT_IGES
100
AcDbPolyline
 62
7
  6
CONTINUOUS
 90
13
 70
0
 10
151.2899326109
 20
105.2428173581
 10
151.2877189243
 20
105.277328896
 10
151.2822483597
 20
105.311973944
 10
151.2735209173
 20
105.3467525023
 10
151.2612830605
 20
105.3821894194
 10
151.2457883258
 20
105.4177598467
 10
151.2277973226
 20
105.4518892384
 10
151.2072358211
 20
105.4845347435
 10
151.1841780511
 20
105.515739213
 10
151.1596073117
 20
105.5440566545
 10
151.1338513694
 20
105.5690050707
 10
151.1065824576
 20
105.5910664589
 10
151.0778005766
 20
105.6102408192
  0
LINE
  5
403
100
AcDbEntity
  8
RACCORDO
100
AcDbLine
 62
250
  6
CONTINUOUS
 10
150.4181455102
 20
87.5387603142
 11
150.4190724737
 21
87.5225228013
  0
LWPOLYLINE
  5
404
100
AcDbEntity
  8
RACCORDO
100
AcDbPolyline
 62
7
  6
CONTINUOUS
 90
12
 70
0
 10
150.8044415162
 20
85.9750098755
 10
150.8037832686
 20
85.9913602723
 10
150.8007925765
 20
86.0135796173
 10
150.7954121026
 20
86.0357321164
 10
150.7879603154
 20
86.0569083566
 10
150.7784668608
 20
86.077347128
 10
150.766863566
 20
86.0971079033
 10
150.7537603859
 20
86.1151915654
 10
150.7392808057
 20
86.131593971
 10
150.7231962844
 20
86.1465336711
 10
150.7060067173
 20
86.1594926182
 10
150.6941437145
 20
86.1669097478
  0
LINE
  5
405
100
AcDbEntity
  8
RACCORDO
100
AcDbLine
 62
250
  6
CONTINUOUS
 10
149.3092634522
 20
111.1281989447
 11
149.3103589183
 21
111.0947200751
  0
LWPOLYLINE
  5
406
100
AcDbEntity
  8
RACCORDO
100
AcDbPolyline
 62
7
  6
CONTINUOUS
 90
8
 70
0
 10
149.3524571651
 20
111.1546032664
 10
149.3518675222
 20
111.1788433556
 10
149.3474386767
 20
111.2260758746
 10
149.3387342931
 20
111.2742891058
 10
149.3259084089
 20
111.3228045217
 10
149.309567825
 20
111.3700553054
 10
149.2903367391
 20
111.4152470431
 10
149.2820312961
 20
111.4325025134
  0
LWPOLYLINE
  5
407
100
AcDbEntity
  8
RACCORDO
100
AcDbPolyline
 62
250
  6
CONTINUOUS
 90
9
 70
0
 10
150.3865381154
 20
122.4164175968
 10
150.3865173415
 20
122.4272500306
 10
150.3859283167
 20
122.4382094395
 10
150.3847712546
 20
122.4492579323
 10
150.3830632695
 20
122.4602627005
 10
150.3808035886
 20
122.471280349
 10
150.3779245419
 20
122.4825547622
 10
150.3743517688
 20
122.4941506468
 10
150.3700791004
 20
122.5059031082
  0
LINE
  5
408
100
AcDbEntity
  8
RACCORDO
100
AcDbLine
 62
250
  6
CONTINUOUS
 10
149.3103589183
 20
111.0947200751
 11
149.3103589183
 21
82.4933823617
  0
LINE
  5
409
100
AcDbEntity
  8
RACCORDO
100
AcDbLine
 62
7
  6
CONTINUOUS
 10
149.3524579483
 20
111.1548831306
 11
149.3524579483
 21
82.553545434
  0
LINE
  5
40A
100
AcDbEntity
  8
IMPORT_IGES
100
AcDbLine
 62
250
  6
CONTINUOUS
 10
149.6635870142
 20
91.8934612592
 11
149.6635870142
 21
104.5487505495
  0
LINE
  5
40B
100
AcDbEntity
  8
RACCORDO
100
AcDbLine
 62
250
  6
CONTINUOUS
 10
149.766358676
 20
86.8654621323
 11
149.766358676
 21
86.2053726488
  0
LINE
  5
40C
100
AcDbEntity
  8
IMPORT_IGES
100
AcDbLine
 62
250
  6
CONTINUOUS
 10
150.0878510829
 20
104.5487505495
 11
150.0878510829
 21
91.8934612592
  0
LINE
  5
40D
100
AcDbEntity
  8
RACCORDO
100
AcDbLine
 62
250
  6
CONTINUOUS
 10
150.4190724737
 20
87.5225228013
 11
150.4190724737
 21
86.7335517014
  0
LINE
  5
40E
100
AcDbEntity
  8
RACCORDO
100
AcDbLine
 62
7
  6
CONTINUOUS
 10
150.4380834419
 20
87.5647229668
 11
150.4380834419
 21
86.7771151034
  0
LINE
  5
40F
100
AcDbEntity
  8
IMPORT_IGES
100
AcDbLine
 62
7
  6
CONTINUOUS
 10
150.5121151516
 20
105.8552055751
 11
150.5121151516
 21
105.9368604938
  0
LINE
  5
410
100
AcDbEntity
  8
RACCORDO
100
AcDbLine
 62
250
  6
CONTINUOUS
 10
150.7623425578
 20
84.9972877816
 11
150.7623425578
 21
85.9149314338
  0
LINE
  5
411
100
AcDbEntity
  8
RACCORDO
100
AcDbLine
 62
7
  6
CONTINUOUS
 10
150.8044415878
 20
85.0574508372
 11
150.8044415878
 21
85.9750944915
  0
LINE
  5
412
100
AcDbEntity
  8
IMPORT_IGES
100
AcDbLine
 62
250
  6
CONTINUOUS
 10
151.1838665938
 20
97.9149907057
 11
151.1838665938
 21
102.0789891173
  0
LINE
  5
413
100
AcDbEntity
  8
IMPORT_IGES
100
AcDbLine
 62
7
  6
CONTINUOUS
 10
151.2717345594
 20
98.2106725845
 11
151.2717345594
 21
102.0282719945
  0
LINE
  5
414
100
AcDbEntity
  8
IMPORT_IGES
100
AcDbLine
 62
7
  6
CONTINUOUS
 10
151.2899326109
 20
105.2428173581
 11
151.2899326109
 21
105.8959935795
  0
LINE
  5
415
100
AcDbEntity
  8
IMPORT_IGES
100
AcDbLine
 62
7
  6
CONTINUOUS
 10
151.5727753234
 20
102.1402697612
 11
151.5727753234
 21
98.8743886541
  0
LINE
  5
416
100
AcDbEntity
  8
IMPORT_IGES
100
AcDbLine
 62
7
  6
CONTINUOUS
 10
151.6434860015
 20
110.101111417
 11
151.6434860015
 21
109.856170334
  0
LINE
  5
417
100
AcDbEntity
  8
IMPORT_IGES
100
AcDbLine
 62
7
  6
CONTINUOUS
 10
151.7141966796
 20
99.2826869203
 11
151.7141966796
 21
102.283744077
  0
LINE
  5
418
100
AcDbEntity
  8
RACCORDO
100
AcDbLine
 62
250
  6
CONTINUOUS
 10
152.2033254238
 20
120.4078670962
 11
152.2033254238
 21
120.7027679004
  0
LINE
  5
419
100
AcDbEntity
  8
RACCORDO
100
AcDbLine
 62
7
  6
CONTINUOUS
 10
152.2454244375
 20
120.7628905924
 11
152.2454244538
 21
120.7629309558
  0
LINE
  5
41A
100
AcDbEntity
  8
RACCORDO
100
AcDbLine
 62
250
  6
CONTINUOUS
 10
149.3524579483
 20
111.1548831306
 11
149.3524571651
 21
111.1546032664
  0
LWPOLYLINE
  5
41B
100
AcDbEntity
  8
IMPORT_IGES
100
AcDbPolyline
 62
7
  6
CONTINUOUS
 90
9
 70
0
 10
151.2717345579
 20
98.2106554345
 10
151.2716239389
 20
98.2011294821
 10
151.2691639302
 20
98.1639328058
 10
151.2634071818
 20
98.1248329501
 10
151.2543037789
 20
98.0841314157
 10
151.2417854996
 20
98.0425072178
 10
151.2258244873
 20
98.000352827
 10
151.2064836682
 20
97.9577632462
 10
151.1838665938
 20
97.9149907057
  0
LWPOLYLINE
  5
41C
100
AcDbEntity
  8
RACCORDO
100
AcDbPolyline
 62
250
  6
CONTINUOUS
 90
5
 70
0
 10
149.3103589183
 20
82.4933823617
 10
149.3095354048
 20
82.4654258096
 10
149.3069250052
 20
82.4381193169
 10
149.3024436703
 20
82.411666201
 10
149.2960295753
 20
82.3863252363
  0
LINE
  5
41D
100
AcDbEntity
  8
RACCORDO
100
AcDbLine
 62
7
  6
CONTINUOUS
 10
150.4379134261
 20
86.7728173155
 11
150.4380834419
 21
86.7771168237
  0
LWPOLYLINE
  5
41E
100
AcDbEntity
  8
IMPORT_IGES
100
AcDbPolyline
 62
250
  6
CONTINUOUS
 90
13
 70
0
 10
149.6635870142
 20
104.5487505495
 10
149.6654018332
 20
104.5817696301
 10
149.670815238
 20
104.6163194525
 10
149.6797346038
 20
104.6518088597
 10
149.6920073179
 20
104.6876306181
 10
149.7074233905
 20
104.7231718075
 10
149.7257190486
 20
104.7578243082
 10
149.7465812482
 20
104.7909952064
 10
149.7696530314
 20
104.8221169388
 10
149.7945396335
 20
104.8506570039
 10
149.820815238
 20
104.8761270734
 10
149.8480302619
 20
104.8980913472
 10
149.8757190486
 20
104.9161740105
  0
LWPOLYLINE
  5
41F
100
AcDbEntity
  8
IMPORT_IGES
100
AcDbPolyline
 62
250
  6
CONTINUOUS
 90
7
 70
0
 10
150.0878510829
 20
91.8934612592
 10
150.086036264
 20
91.862537886
 10
150.0806228591
 20
91.8342393278
 10
150.0717034933
 20
91.8090497807
 10
150.0594307793
 20
91.7874002448
 10
150.0440147066
 20
91.7696611497
 10
150.0257262966
 20
91.7561402008
  0
LINE
  5
420
100
AcDbEntity
  8
RACCORDO
100
AcDbLine
 62
250
  6
CONTINUOUS
 10
150.3882240207
 20
86.3438843456
 11
150.4191023442
 21
86.7335834518
  0
LINE
  5
421
100
AcDbEntity
  8
RACCORDO
100
AcDbLine
 62
7
  6
CONTINUOUS
 10
150.405438791
 20
86.3629717077
 11
150.4379134266
 21
86.772817031
  0
LWPOLYLINE
  5
422
100
AcDbEntity
  8
RACCORDO
100
AcDbPolyline
 62
250
  6
CONTINUOUS
 90
8
 70
0
 10
150.7623425578
 20
85.9149314338
 10
150.7633850391
 20
85.9261970505
 10
150.7638448367
 20
85.937770116
 10
150.7637145004
 20
85.9496043425
 10
150.7629948805
 20
85.9615555218
 10
150.7616869776
 20
85.9736690291
 10
150.7597446895
 20
85.9861886961
 10
150.7570977961
 20
85.9991897777
  0
LWPOLYLINE
  5
423
100
AcDbEntity
  8
RACCORDO
100
AcDbPolyline
 62
250
  6
CONTINUOUS
 90
7
 70
0
 10
149.3524579464
 20
82.5535316361
 10
149.3513665273
 20
82.543116673
 10
149.3477891354
 20
82.5321054089
 10
149.3417798756
 20
82.5214528618
 10
149.3334392814
 20
82.511337295
 10
149.3229068893
 20
82.5019279752
 10
149.3103589183
 20
82.4933823617
  0
LWPOLYLINE
  5
424
100
AcDbEntity
  8
RACCORDO
100
AcDbPolyline
 62
250
  6
CONTINUOUS
 90
10
 70
0
 10
149.3524579483
 20
86.5182768736
 10
149.3538646874
 20
86.5284995368
 10
149.3716455109
 20
86.6015057473
 10
149.3952339323
 20
86.6718501458
 10
149.4247405209
 20
86.7394220855
 10
149.4600547073
 20
86.8043322131
 10
149.4991613389
 20
86.8660194731
 10
149.5413886979
 20
86.9242968472
 10
149.5874085021
 20
86.9793513536
 10
149.6372207514
 20
87.0311829925
  0
LINE
  5
425
100
AcDbEntity
  8
RACCORDO
100
AcDbLine
 62
250
  6
CONTINUOUS
 10
149.4989711608
 20
86.3794206357
 11
149.501255526
 21
86.3958731784
  0
LWPOLYLINE
  5
426
100
AcDbEntity
  8
RACCORDO
100
AcDbPolyline
 62
7
  6
CONTINUOUS
 90
3
 70
0
 10
150.4012556843
 20
86.3360196908
 10
150.4050001415
 20
86.3582033042
 10
150.4054219397
 20
86.3627637312
  0
LINE
  5
427
100
AcDbEntity
  8
IMPORT_IGES
100
AcDbLine
 62
7
  6
CONTINUOUS
 10
151.5861587532
 20
102.2098165829
 11
151.5727753234
 21
102.1402697612
  0
LINE
  5
428
100
AcDbEntity
  8
IMPORT_IGES
100
AcDbLine
 62
7
  6
CONTINUOUS
 10
151.5727753234
 20
98.8743886541
 11
151.7141966796
 21
99.6092829221
  0
LWPOLYLINE
  5
429
100
AcDbEntity
  8
RACCORDO
100
AcDbPolyline
 62
250
  6
CONTINUOUS
 90
9
 70
0
 10
149.501255526
 20
86.3958731784
 10
149.5175666148
 20
86.4639879242
 10
149.5398835081
 20
86.5297312107
 10
149.5676516361
 20
86.5929597943
 10
149.600323444
 20
86.6535608119
 10
149.6371490409
 20
86.7111646287
 10
149.677446315
 20
86.765638592
 10
149.7206997308
 20
86.8170672409
 10
149.766358676
 20
86.8654621323
  0
LWPOLYLINE
  5
42A
100
AcDbEntity
  8
RACCORDO
100
AcDbPolyline
 62
250
  6
CONTINUOUS
 90
6
 70
0
 10
145.3014492459
 20
79.9717763076
 10
145.2935009632
 20
79.9480559374
 10
145.2833680613
 20
79.9252745944
 10
145.2708229856
 20
79.9036756909
 10
145.2557753133
 20
79.8837693204
 10
145.2479481122
 20
79.8758767235
  0
LWPOLYLINE
  5
42B
100
AcDbEntity
  8
IMPORT_IGES
100
AcDbPolyline
 62
250
  6
CONTINUOUS
 90
7
 70
0
 10
160.9151707269
 20
98.0435689381
 10
160.9334591369
 20
98.057089887
 10
160.9488752095
 20
98.074828982
 10
160.9611479236
 20
98.0964785179
 10
160.9700672894
 20
98.121668065
 10
160.9754806942
 20
98.1499666233
 10
160.9772955132
 20
98.1808899964
  0
LWPOLYLINE
  5
42C
100
AcDbEntity
  8
IMPORT_IGES
100
AcDbPolyline
 62
250
  6
CONTINUOUS
 90
7
 70
0
 10
160.9772955132
 20
98.1808899964
 10
161.0031694809
 20
98.1979250086
 10
161.0249711
 20
98.2167642544
 10
161.0423273386
 20
98.2370853891
 10
161.0549412267
 20
98.2585407126
 10
161.0625969372
 20
98.2807631182
 10
161.0651634788
 20
98.3033723744
  0
LINE
  5
42D
100
AcDbEntity
  8
RACCORDO
100
AcDbLine
 62
250
  6
CONTINUOUS
 10
150.6405659357
 20
86.1692652059
 11
149.3524579483
 21
85.7103365414
  0
LINE
  5
42E
100
AcDbEntity
  8
RACCORDO
100
AcDbLine
 62
7
  6
CONTINUOUS
 10
149.3524579483
 20
86.0711670398
 11
150.2448807932
 21
86.3605314775
  0
LINE
  5
42F
100
AcDbEntity
  8
RACCORDO
100
AcDbLine
 62
250
  6
CONTINUOUS
 10
149.3524579483
 20
86.0280742352
 11
150.3339304881
 21
86.3463126703
  0
LINE
  5
430
100
AcDbEntity
  8
IMPORT_IGES
100
AcDbLine
 62
250
  6
CONTINUOUS
 10
149.6635870142
 20
104.5487505495
 11
149.3524579483
 21
104.7283925728
  0
LINE
  5
431
100
AcDbEntity
  8
IMPORT_IGES
100
AcDbLine
 62
7
  6
CONTINUOUS
 10
155.3915756098
 20
101.4059594262
 11
152.7927513125
 21
102.9064880045
  0
LINE
  5
432
100
AcDbEntity
  8
IMPORT_IGES
100
AcDbLine
 62
250
  6
CONTINUOUS
 10
149.3807443017
 20
105.2019662258
 11
149.8757190486
 21
104.9161740105
  0
LINE
  5
433
100
AcDbEntity
  8
IMPORT_IGES
100
AcDbLine
 62
7
  6
CONTINUOUS
 10
155.7450948336
 20
101.6100769954
 11
155.5679286371
 21
101.7123705369
  0
LINE
  5
434
100
AcDbEntity
  8
IMPORT_IGES
100
AcDbLine
 62
7
  6
CONTINUOUS
 10
149.3524579483
 20
106.6064320291
 11
150.5121151516
 21
105.9368604938
  0
LINE
  5
435
100
AcDbEntity
  8
IMPORT_IGES
100
AcDbLine
 62
7
  6
CONTINUOUS
 10
150.5828258297
 20
105.8960330345
 11
151.0778005766
 21
105.6102408192
  0
LINE
  5
436
100
AcDbEntity
  8
IMPORT_IGES
100
AcDbLine
 62
7
  6
CONTINUOUS
 10
151.0778005766
 20
106.2634170406
 11
149.3524579483
 21
107.2596082505
  0
LWPOLYLINE
  5
437
100
AcDbEntity
  8
IMPORT_IGES
100
AcDbPolyline
 62
250
  6
CONTINUOUS
 90
13
 70
0
 10
149.8757190486
 20
104.9161740105
 10
149.9034078353
 20
104.8980913472
 10
149.9306228591
 20
104.8761270734
 10
149.9568984636
 20
104.8506570039
 10
149.9817850657
 20
104.8221169388
 10
150.0048568489
 20
104.7909952064
 10
150.0257190486
 20
104.7578243082
 10
150.0440147066
 20
104.7231718075
 10
150.0594307793
 20
104.6876306181
 10
150.0717034933
 20
104.6518088597
 10
150.0806228591
 20
104.6163194525
 10
150.086036264
 20
104.5817696301
 10
150.0878510829
 20
104.5487505495
  0
LWPOLYLINE
  5
438
100
AcDbEntity
  8
IMPORT_IGES
100
AcDbPolyline
 62
7
  6
CONTINUOUS
 90
13
 70
0
 10
151.0778005766
 20
106.2634170406
 10
151.1065824576
 20
106.2442426803
 10
151.1338513694
 20
106.2221812921
 10
151.1596073117
 20
106.197232876
 10
151.1841780511
 20
106.1689154344
 10
151.2072358211
 20
106.1377109649
 10
151.2277973226
 20
106.1050654599
 10
151.2457883258
 20
106.0709360681
 10
151.2612830605
 20
106.0353656408
 10
151.2735209173
 20
105.9999287237
 10
151.2822483597
 20
105.9651501654
 10
151.2877189243
 20
105.9305051174
 10
151.2899326109
 20
105.8959935795
  0
LINE
  5
439
100
AcDbEntity
  8
RACCORDO
100
AcDbLine
 62
7
  6
CONTINUOUS
 10
145.7999879062
 20
110.4128248398
 11
145.944795583
 21
110.1321016097
  0
LWPOLYLINE
  5
43A
100
AcDbEntity
  8
RACCORDO
100
AcDbPolyline
 62
7
  6
CONTINUOUS
 90
3
 70
0
 10
145.944795583
 20
110.1321016097
 10
146.1029732323
 20
109.82015697
 10
146.1811843016
 20
109.663842622
  0
LWPOLYLINE
  5
43B
100
AcDbEntity
  8
RACCORDO
100
AcDbPolyline
 62
250
  6
CONTINUOUS
 90
10
 70
0
 10
145.2441696318
 20
109.0200307487
 10
145.252263131
 20
109.0027866398
 10
145.2653799749
 20
108.9716485605
 10
145.2773035867
 20
108.9396556616
 10
145.2878088603
 20
108.9071642119
 10
145.2968204041
 20
108.8741377518
 10
145.3043022409
 20
108.8401620956
 10
145.3100135998
 20
108.8052860501
 10
145.3136246785
 20
108.770008842
 10
145.3148585811
 20
108.7346725176
  0
LWPOLYLINE
  5
43C
100
AcDbEntity
  8
ASSI
100
AcDbPolyline
 62
250
  6
CONTINUOUS
 90
3
 70
0
 10
142.3861236888
 20
123.0382246471
 10
142.3930791481
 20
123.021921678
 10
142.394058829
 20
123.0175124175
  0
LWPOLYLINE
  5
43D
100
AcDbEntity
  8
ASSI
100
AcDbPolyline
 62
250
  6
CONTINUOUS
 90
8
 70
0
 10
145.2243780226
 20
116.0873841259
 10
145.228556703
 20
116.0747511443
 10
145.2311119991
 20
116.0631410604
 10
145.2320182696
 20
116.0526794526
 10
145.2312685087
 20
116.0434819918
 10
145.2288738654
 20
116.0356434385
 10
145.2248578157
 20
116.029241451
 10
145.2237247094
 20
116.0279965134
  0
LWPOLYLINE
  5
43E
100
AcDbEntity
  8
RACCORDO
100
AcDbPolyline
 62
250
  6
CONTINUOUS
 90
4
 70
0
 10
149.2930736047
 20
111.2312914469
 10
149.3005073932
 20
111.196693171
 10
149.305940544
 20
111.1622749809
 10
149.3092634522
 20
111.1281989447
  0
LINE
  5
43F
100
AcDbEntity
  8
ASSI
100
AcDbLine
 62
250
  6
CONTINUOUS
 10
146.5232400758
 20
119.5527340478
 11
146.5388870897
 21
119.4305039978
  0
LWPOLYLINE
  5
440
100
AcDbEntity
  8
ASSI
100
AcDbPolyline
 62
250
  6
CONTINUOUS
 90
13
 70
0
 10
147.28919303
 20
121.1118496294
 10
147.2865530101
 20
121.1332726558
 10
147.2817654209
 20
121.155371202
 10
147.2749033415
 20
121.1778079435
 10
147.2660715169
 20
121.2002403949
 10
147.2554047603
 20
121.2223261327
 10
147.2430658969
 20
121.2437280231
 10
147.2292432749
 20
121.2641193743
 10
147.2141478904
 20
121.2831889219
 10
147.1980101682
 20
121.300645577
 10
147.1810764442
 20
121.3162228711
 10
147.1636052045
 20
121.3296830237
 10
147.1458631401
 20
121.3408205715
  0
LWPOLYLINE
  5
441
100
AcDbEntity
  8
RACCORDO
100
AcDbPolyline
 62
250
  6
CONTINUOUS
 90
3
 70
0
 10
147.8914808819
 20
118.2356065433
 10
147.8888499225
 20
118.2585290115
 10
147.8842858168
 20
118.2820570045
  0
LWPOLYLINE
  5
442
100
AcDbEntity
  8
RACCORDO
100
AcDbPolyline
 62
7
  6
CONTINUOUS
 90
12
 70
0
 10
150.4055143769
 20
122.4589474318
 10
150.4051139187
 20
122.4636979832
 10
150.4019468629
 20
122.4850385698
 10
150.3964759881
 20
122.5065209836
 10
150.3889316724
 20
122.5272529161
 10
150.3792731674
 20
122.5474277222
 10
150.3674217829
 20
122.5669940688
 10
150.3539777153
 20
122.5849314187
 10
150.3389996513
 20
122.6012663289
 10
150.3223152312
 20
122.6161033071
 10
150.304632237
 20
122.6287827383
 10
150.2968756505
 20
122.6334996459
  0
LWPOLYLINE
  5
443
100
AcDbEntity
  8
IMPORT_IGES
100
AcDbPolyline
 62
7
  6
CONTINUOUS
 90
9
 70
0
 10
151.6434860015
 20
110.101111417
 10
151.6400263941
 20
110.1689169264
 10
151.6307362182
 20
110.2310482563
 10
151.615615474
 20
110.2875054068
 10
151.5943654523
 20
110.338742035
 10
151.5672848622
 20
110.3843044838
 10
151.5352698309
 20
110.4228317816
 10
151.4981822218
 20
110.4541221205
 10
151.4778195947
 20
110.4673010849
  0
LWPOLYLINE
  5
444
100
AcDbEntity
  8
RACCORDO
100
AcDbPolyline
 62
250
  6
CONTINUOUS
 90
3
 70
0
 10
152.8397216112
 20
119.5683530642
 10
152.8387801232
 20
119.591798181
 10
152.8356344412
 20
119.616197369
  0
LWPOLYLINE
  5
445
100
AcDbEntity
  8
RACCORDO
100
AcDbPolyline
 62
7
  6
CONTINUOUS
 90
12
 70
0
 10
152.8818205034
 20
119.6284429467
 10
152.8811074366
 20
119.6472506676
 10
152.8780543628
 20
119.6720660857
 10
152.8725627882
 20
119.697285474
 10
152.8645679823
 20
119.7227291669
 10
152.8543353351
 20
119.7475376616
 10
152.841847246
 20
119.771747977
 10
152.8270672842
 20
119.7952491157
 10
152.8105099243
 20
119.817115886
 10
152.7924135101
 20
119.8370842994
 10
152.7725868358
 20
119.8553170564
 10
152.7656136508
 20
119.8609483635
  0
LWPOLYLINE
  5
446
100
AcDbEntity
  8
RACCORDO
100
AcDbPolyline
 62
7
  6
CONTINUOUS
 90
13
 70
0
 10
152.2454244375
 20
120.7628905924
 10
152.2453349912
 20
120.7695578122
 10
152.2431251633
 20
120.7968942684
 10
152.2380612661
 20
120.8241647602
 10
152.2301810925
 20
120.8514428191
 10
152.2194732297
 20
120.8785916376
 10
152.2064260124
 20
120.9044465266
 10
152.1911440364
 20
120.9289787137
 10
152.1736074551
 20
120.9521478383
 10
152.1545493674
 20
120.972989768
 10
152.1341233875
 20
120.9914445581
 10
152.1122449623
 20
121.0075556452
 10
152.0997268155
 20
121.0152892893
  0
LWPOLYLINE
  5
447
100
AcDbEntity
  8
RACCORDO
100
AcDbPolyline
 62
250
  6
CONTINUOUS
 90
9
 70
0
 10
152.2033254238
 20
120.7027679004
 10
152.2032620012
 20
120.7107839002
 10
152.2029363362
 20
120.7188461702
 10
152.2023578685
 20
120.7269384355
 10
152.2015432203
 20
120.7349845793
 10
152.200498933
 20
120.743028921
 10
152.1992032801
 20
120.7512427479
 10
152.1976424155
 20
120.7596557669
 10
152.195816284
 20
120.7682202286
  0
LINE
  5
448
100
AcDbEntity
  8
RACCORDO
100
AcDbLine
 62
7
  6
CONTINUOUS
 10
152.2454244538
 20
120.4680301517
 11
152.2454244538
 21
120.7629309558
  0
LINE
  5
449
100
AcDbEntity
  8
RACCORDO
100
AcDbLine
 62
250
  6
CONTINUOUS
 10
152.8397215269
 20
119.1884041824
 11
152.8397215269
 21
119.5683530153
  0
LINE
  5
44A
100
AcDbEntity
  8
RACCORDO
100
AcDbLine
 62
7
  6
CONTINUOUS
 10
152.8818205568
 20
119.2485672379
 11
152.8818205568
 21
119.6285160619
  0
LINE
  5
44B
100
AcDbEntity
  8
IMPORT_IGES
100
AcDbLine
 62
7
  6
CONTINUOUS
 10
154.4719131263
 20
110.8360924859
 11
154.4719131263
 21
111.7342097903
  0
LWPOLYLINE
  5
44C
100
AcDbEntity
  8
RACCORDO
100
AcDbPolyline
 62
250
  6
CONTINUOUS
 90
5
 70
0
 10
149.2960295753
 20
82.3863252363
 10
149.2876142005
 20
82.3622635582
 10
149.2770878909
 20
82.3395888925
 10
149.264360007
 20
82.3185318908
 10
149.2493977189
 20
82.2994098613
  0
LWPOLYLINE
  5
44D
100
AcDbEntity
  8
RACCORDO
100
AcDbPolyline
 62
250
  6
CONTINUOUS
 90
4
 70
0
 10
150.3975380358
 20
86.3381662145
 10
150.4019184746
 20
86.3470139554
 10
150.4051538658
 20
86.360208067
 10
150.4054219397
 20
86.3627637312
  0
LWPOLYLINE
  5
44E
100
AcDbEntity
  8
RACCORDO
100
AcDbPolyline
 62
7
  6
CONTINUOUS
 90
6
 70
0
 10
150.4190724737
 20
86.7335517014
 10
150.4261759338
 20
86.7421268485
 10
150.4316772264
 20
86.7511477318
 10
150.4355112774
 20
86.7605126414
 10
150.4376325718
 20
86.7701228726
 10
150.4379134261
 20
86.7728173155
  0
LWPOLYLINE
  5
44F
100
AcDbEntity
  8
RACCORDO
100
AcDbPolyline
 62
250
  6
CONTINUOUS
 90
6
 70
0
 10
150.4190724737
 20
87.5225228013
 10
150.4261793731
 20
87.5309099726
 10
150.4316812003
 20
87.5396901482
 10
150.4355140082
 20
87.5487612773
 10
150.4376332487
 20
87.558017927
 10
150.4380834419
 20
87.5647229668
  0
LINE
  5
450
100
AcDbEntity
  8
RACCORDO
100
AcDbLine
 62
7
  6
CONTINUOUS
 10
150.4191023442
 20
86.7335834518
 11
149.9905580692
 21
86.2780683801
  0
LINE
  5
451
100
AcDbEntity
  8
RACCORDO
100
AcDbLine
 62
250
  6
CONTINUOUS
 10
149.6372207514
 20
87.0311829925
 11
150.2899345492
 21
87.6882436616
  0
LINE
  5
452
100
AcDbEntity
  8
RACCORDO
100
AcDbLine
 62
250
  6
CONTINUOUS
 10
149.766358676
 20
86.8654621323
 11
150.4190724737
 21
87.5225228013
  0
LWPOLYLINE
  5
453
100
AcDbEntity
  8
RACCORDO
100
AcDbPolyline
 62
250
  6
CONTINUOUS
 90
7
 70
0
 10
150.0804472706
 20
84.4804155096
 10
150.0863824465
 20
84.4848717029
 10
150.0920463553
 20
84.4899715363
 10
150.0974015005
 20
84.4957269953
 10
150.1023776785
 20
84.5021013728
 10
150.1069218024
 20
84.5090463528
 10
150.108945745
 20
84.5127552139
  0
LWPOLYLINE
  5
454
100
AcDbEntity
  8
RACCORDO
100
AcDbPolyline
 62
7
  6
CONTINUOUS
 90
10
 70
0
 10
150.7131668976
 20
84.8844216134
 10
150.732001095
 20
84.8977138083
 10
150.7482450646
 20
84.9124546463
 10
150.762771263
 20
84.9291704885
 10
150.7753554925
 20
84.9476543075
 10
150.7858030237
 20
84.9676583434
 10
150.7940232759
 20
84.9890764239
 10
150.7999252638
 20
85.0117559289
 10
150.8034145483
 20
85.0354176362
 10
150.8044415781
 20
85.0574197687
  0
LWPOLYLINE
  5
455
100
AcDbEntity
  8
RACCORDO
100
AcDbPolyline
 62
7
  6
CONTINUOUS
 90
5
 70
0
 10
150.0771735194
 20
84.4782911193
 10
150.0911979315
 20
84.4878776034
 10
150.1077566116
 20
84.5019773921
 10
150.1228657253
 20
84.5183152482
 10
150.1267791917
 20
84.5237248254
  0
LWPOLYLINE
  5
456
100
AcDbEntity
  8
RACCORDO
100
AcDbPolyline
 62
250
  6
CONTINUOUS
 90
7
 70
0
 10
150.7623425578
 20
85.9149314338
 10
150.7748902199
 20
85.9234768029
 10
150.7854224521
 20
85.9328858745
 10
150.7937630219
 20
85.9430012096
 10
150.7997723691
 20
85.9536535515
 10
150.8033499413
 20
85.9646646578
 10
150.8044415162
 20
85.9750098755
  0
LWPOLYLINE
  5
457
100
AcDbEntity
  8
RACCORDO
100
AcDbPolyline
 62
250
  6
CONTINUOUS
 90
7
 70
0
 10
150.7623425578
 20
84.9972877816
 10
150.7748902192
 20
85.0058331494
 10
150.785422451
 20
85.01524222
 10
150.7937630207
 20
85.0253575542
 10
150.7997723682
 20
85.0360098953
 10
150.8033499408
 20
85.0470210011
 10
150.8044415781
 20
85.0574197687
  0
LWPOLYLINE
  5
458
100
AcDbEntity
  8
RACCORDO
100
AcDbPolyline
 62
250
  6
CONTINUOUS
 90
8
 70
0
 10
150.7131452911
 20
84.8844071125
 10
150.7181324119
 20
84.8877286081
 10
150.7307852815
 20
84.8988671335
 10
150.7416551765
 20
84.9129302771
 10
150.7505047208
 20
84.929919731
 10
150.7570700408
 20
84.9497662265
 10
150.761090037
 20
84.9722976631
 10
150.7623426435
 20
84.9972878343
  0
LINE
  5
459
100
AcDbEntity
  8
RACCORDO
100
AcDbLine
 62
250
  6
CONTINUOUS
 10
150.0773017912
 20
84.4783698335
 11
150.0804472706
 21
84.4804155096
  0
LINE
  5
45A
100
AcDbEntity
  8
ASSI
100
AcDbLine
 62
7
  6
CONTINUOUS
 10
150.077301512
 20
84.4783696608
 11
149.3524579483
 21
84.0301155282
  0
LINE
  5
45B
100
AcDbEntity
  8
RACCORDO
100
AcDbLine
 62
7
  6
CONTINUOUS
 10
150.0771742823
 20
84.4782911405
 11
150.0773017912
 21
84.4783698335
  0
LINE
  5
45C
100
AcDbEntity
  8
RACCORDO
100
AcDbLine
 62
250
  6
CONTINUOUS
 10
150.7623425578
 20
84.9972877816
 11
149.3524579483
 21
84.130047333
  0
LINE
  5
45D
100
AcDbEntity
  8
ASSI
100
AcDbLine
 62
7
  6
CONTINUOUS
 10
150.7131240939
 20
84.8843940692
 11
149.3524579483
 21
84.0474286108
  0
LINE
  5
45E
100
AcDbEntity
  8
RACCORDO
100
AcDbLine
 62
7
  6
CONTINUOUS
 10
149.3791141217
 20
86.3687902589
 11
149.3524579483
 21
86.3544554314
  0
LINE
  5
45F
100
AcDbEntity
  8
RACCORDO
100
AcDbLine
 62
250
  6
CONTINUOUS
 10
149.4640675433
 20
86.3507570707
 11
149.3524579483
 21
86.2907370424
  0
LINE
  5
460
100
AcDbEntity
  8
RACCORDO
100
AcDbLine
 62
250
  6
CONTINUOUS
 10
149.3819300193
 20
86.3701930026
 11
149.3791167387
 21
86.3687916662
  0
LINE
  5
461
100
AcDbEntity
  8
RACCORDO
100
AcDbLine
 62
250
  6
CONTINUOUS
 10
150.7623425578
 20
85.9149314338
 11
149.3524579483
 21
85.4126160478
  0
LWPOLYLINE
  5
462
100
AcDbEntity
  8
RACCORDO
100
AcDbPolyline
 62
250
  6
CONTINUOUS
 90
7
 70
0
 10
146.1043118377
 20
112.9577420716
 10
146.0898295443
 20
112.9639704229
 10
146.0742713037
 20
112.9668459695
 10
146.0576186504
 20
112.9665666978
 10
146.0402208973
 20
112.9632148161
 10
146.0223491983
 20
112.9569143993
 10
146.0043094216
 20
112.9478324412
  0
LWPOLYLINE
  5
463
100
AcDbEntity
  8
IMPORT_IGES
100
AcDbPolyline
 62
7
  6
CONTINUOUS
 90
9
 70
0
 10
151.4778195947
 20
110.4673010849
 10
151.4561601715
 20
110.4783773084
 10
151.4105142166
 20
110.494841798
 10
151.3611388687
 20
110.5032950367
 10
151.3081396161
 20
110.503957577
 10
151.2531434605
 20
110.4967355289
 10
151.1966927356
 20
110.4815975956
 10
151.1382451076
 20
110.4585750739
 10
151.0778005766
 20
110.4276679638
  0
LINE
  5
464
100
AcDbEntity
  8
IMPORT_IGES
100
AcDbLine
 62
250
  6
CONTINUOUS
 10
151.0778005766
 20
108.8763744379
 11
150.1939171001
 21
109.3867176795
  0
LINE
  5
465
100
AcDbEntity
  8
IMPORT_IGES
100
AcDbLine
 62
7
  6
CONTINUOUS
 10
159.5630819508
 20
104.0594996623
 11
159.7752139852
 21
103.9370172843
  0
LINE
  5
466
100
AcDbEntity
  8
LAY0001
100
AcDbLine
 62
250
  6
CONTINUOUS
 10
142.1423856763
 20
114.1267980102
 11
127.2741715079
 21
122.7115185285
  0
LINE
  5
467
100
AcDbEntity
  8
IMPORT_IGES
100
AcDbLine
 62
250
  6
CONTINUOUS
 10
160.7651634788
 20
103.9370172843
 11
160.0580566976
 21
104.3452918776
  0
LINE
  5
468
100
AcDbEntity
  8
IMPORT_IGES
100
AcDbLine
 62
7
  6
CONTINUOUS
 10
160.1459246629
 20
104.396032674
 11
160.9151707269
 21
103.9518796376
  0
LINE
  5
469
100
AcDbEntity
  8
LAY0001
100
AcDbLine
 62
250
  6
CONTINUOUS
 10
142.486684118
 20
114.7336868618
 11
127.6184699497
 21
123.3184073801
  0
LINE
  5
46A
100
AcDbEntity
  8
RACCORDO
100
AcDbLine
 62
250
  6
CONTINUOUS
 10
145.2441696318
 20
113.386727629
 11
146.0043094216
 21
112.9478324412
  0
LINE
  5
46B
100
AcDbEntity
  8
RACCORDO
100
AcDbLine
 62
7
  6
CONTINUOUS
 10
145.2441696318
 20
113.4543774012
 11
146.1043142536
 21
112.9577406767
  0
LINE
  5
46C
100
AcDbEntity
  8
IMPORT_IGES
100
AcDbLine
 62
250
  6
CONTINUOUS
 10
150.8657437091
 20
110.3052289862
 11
151.6434860015
 21
109.856170334
  0
LINE
  5
46D
100
AcDbEntity
  8
IMPORT_IGES
100
AcDbLine
 62
250
  6
CONTINUOUS
 10
151.6434860015
 20
110.101111417
 11
151.0778279126
 21
110.4277153082
  0
LWPOLYLINE
  5
46E
100
AcDbEntity
  8
RACCORDO
100
AcDbPolyline
 62
250
  6
CONTINUOUS
 90
13
 70
0
 10
146.0043094216
 20
112.9478324412
 10
146.022768569
 20
112.9357773642
 10
146.0409118817
 20
112.9211345543
 10
146.0584289236
 20
112.9041545509
 10
146.0750199697
 20
112.8851278884
 10
146.0904011472
 20
112.8643801119
 10
146.1043092887
 20
112.8422662031
 10
146.116506424
 20
112.8191645202
 10
146.1267838426
 20
112.7954703499
 10
146.1349656817
 20
112.7715891297
 10
146.1409119455
 20
112.7479294829
 10
146.1445208943
 20
112.7248962265
 10
146.1457307778
 20
112.7028834672
  0
LWPOLYLINE
  5
46F
100
AcDbEntity
  8
ASSI
100
AcDbPolyline
 62
250
  6
CONTINUOUS
 90
7
 70
0
 10
139.5483741635
 20
121.6539275626
 10
139.543022648
 20
121.6607541506
 10
139.5276646968
 20
121.6768631818
 10
139.5101417827
 20
121.6907763517
 10
139.4907249241
 20
121.7022785247
 10
139.4697144075
 20
121.7111918696
 10
139.4474351644
 20
121.7173785861
  0
LINE
  5
470
100
AcDbEntity
  8
ASSI
100
AcDbLine
 62
7
  6
CONTINUOUS
 10
139.5485939915
 20
121.6536301674
 11
139.5483741635
 21
121.6539275626
  0
LWPOLYLINE
  5
471
100
AcDbEntity
  8
RACCORDO
100
AcDbPolyline
 62
250
  6
CONTINUOUS
 90
9
 70
0
 10
146.939527551
 20
115.5002951898
 10
147.1919480032
 20
115.0907452731
 10
147.4445427004
 20
114.6717068684
 10
147.6970377001
 20
114.2431738593
 10
147.9475513399
 20
113.8079612493
 10
148.1974485415
 20
113.3633072684
 10
148.4510439286
 20
112.9007161616
 10
148.7092441913
 20
112.4172406249
 10
148.9698440227
 20
111.9156426385
  0
LINE
  5
472
100
AcDbEntity
  8
RACCORDO
100
AcDbLine
 62
7
  6
CONTINUOUS
 10
147.2679132964
 20
115.0837262134
 11
147.0693956616
 21
115.4071731125
  0
LWPOLYLINE
  5
473
100
AcDbEntity
  8
ASSI
100
AcDbPolyline
 62
250
  6
CONTINUOUS
 90
4
 70
0
 10
142.3861237977
 20
123.038020069
 10
142.3917402385
 20
123.0287947927
 10
142.3955473203
 20
123.0192931139
 10
142.3956741239
 20
123.0186700409
  0
LWPOLYLINE
  5
474
100
AcDbEntity
  8
ASSI
100
AcDbPolyline
 62
250
  6
CONTINUOUS
 90
16
 70
0
 10
142.5747481324
 20
123.2399084967
 10
142.5838522668
 20
123.2229289227
 10
142.5906623216
 20
123.2057723332
 10
142.5951782966
 20
123.1884387282
 10
142.5974110216
 20
123.1708226773
 10
142.5973496669
 20
123.1530296109
 10
142.5949617439
 20
123.1353758206
 10
142.5901853645
 20
123.1178476196
 10
142.5830824168
 20
123.1004586946
 10
142.5738060764
 20
123.0835663977
 10
142.5623113069
 20
123.067199634
 10
142.5486431447
 20
123.0513294984
 10
142.5330898744
 20
123.0362266267
 10
142.5157475908
 20
123.0219812309
 10
142.4965201992
 20
123.0085030991
 10
142.4754076994
 20
122.9957922313
  0
LWPOLYLINE
  5
475
100
AcDbEntity
  8
ASSI
100
AcDbPolyline
 62
250
  6
CONTINUOUS
 90
4
 70
0
 10
144.7758410947
 20
119.5738179077
 10
144.7735750249
 20
119.5781951524
 10
144.768976127
 20
119.5857295683
 10
144.7639992038
 20
119.592430816
  0
LINE
  5
476
100
AcDbEntity
  8
RACCORDO
100
AcDbLine
 62
250
  6
CONTINUOUS
 10
148.9698440227
 20
111.9156426385
 11
149.2321727762
 21
111.3958879664
  0
LWPOLYLINE
  5
477
100
AcDbEntity
  8
RACCORDO
100
AcDbPolyline
 62
7
  6
CONTINUOUS
 90
9
 70
0
 10
149.2820394404
 20
111.432486451
 10
149.0479190723
 20
111.8970710954
 10
148.8085917133
 20
112.3596278244
 10
148.5641380502
 20
112.8200010037
 10
148.3146406748
 20
113.2780353613
 10
148.0601834454
 20
113.7335771652
 10
147.8008514204
 20
114.1864742489
 10
147.5367316724
 20
114.6365745555
 10
147.2679132964
 20
115.0837262134
  0
LINE
  5
478
100
AcDbEntity
  8
ASSI
100
AcDbLine
 62
7
  6
CONTINUOUS
 10
144.7758593035
 20
119.573780486
 11
144.7758410947
 21
119.5738179077
  0
LWPOLYLINE
  5
479
100
AcDbEntity
  8
RACCORDO
100
AcDbPolyline
 62
250
  6
CONTINUOUS
 90
3
 70
0
 10
149.2321727762
 20
111.3958879664
 10
149.2468836746
 20
111.3648413039
 10
149.2605030777
 20
111.332719901
  0
LWPOLYLINE
  5
47A
100
AcDbEntity
  8
ASSI
100
AcDbPolyline
 62
7
  6
CONTINUOUS
 90
6
 70
0
 10
144.7758780153
 20
119.5737421139
 10
144.781409649
 20
119.561761566
 10
144.7874924593
 20
119.5468133424
 10
144.7927558145
 20
119.531707776
 10
144.797192946
 20
119.516503679
 10
144.8008133092
 20
119.5012179506
  0
LINE
  5
47B
100
AcDbEntity
  8
ASSI
100
AcDbLine
 62
7
  6
CONTINUOUS
 10
144.7760464083
 20
119.5733791384
 11
144.7760784763
 21
119.5733054228
  0
LWPOLYLINE
  5
47C
100
AcDbEntity
  8
RACCORDO
100
AcDbPolyline
 62
250
  6
CONTINUOUS
 90
4
 70
0
 10
149.2605030777
 20
111.332719901
 10
149.2728552672
 20
111.2996659706
 10
149.2837828171
 20
111.2657659729
 10
149.2930736047
 20
111.2312914469
  0
LWPOLYLINE
  5
47D
100
AcDbEntity
  8
RACCORDO
100
AcDbPolyline
 62
250
  6
CONTINUOUS
 90
12
 70
0
 10
147.8778385661
 20
118.3059327903
 10
147.8695787493
 20
118.3298949601
 10
147.859596697
 20
118.3536812902
 10
147.8480016413
 20
118.3770313551
 10
147.834920551
 20
118.399689331
 10
147.820496634
 20
118.4214069989
 10
147.8048878141
 20
118.4419465092
 10
147.7882650388
 20
118.4610828421
 10
147.770810408
 20
118.4786062527
 10
147.7527151151
 20
118.4943247678
 10
147.7341773355
 20
118.5080662602
 10
147.7154001117
 20
118.5196802118
  0
LWPOLYLINE
  5
47E
100
AcDbEntity
  8
RACCORDO
100
AcDbPolyline
 62
250
  6
CONTINUOUS
 90
8
 70
0
 10
149.2820394404
 20
111.432486451
 10
149.2821525886
 20
111.4321168832
 10
149.2812790705
 20
111.4297935964
 10
149.2781708707
 20
111.4263978547
 10
149.2728799862
 20
111.4219864729
 10
149.2654949424
 20
111.4166332645
 10
149.2561393074
 20
111.410427802
 10
149.2449696202
 20
111.4034739169
  0
LINE
  5
47F
100
AcDbEntity
  8
RACCORDO
100
AcDbLine
 62
250
  6
CONTINUOUS
 10
147.8842858168
 20
118.2820570045
 11
147.8778385661
 21
118.3059327903
  0
LINE
  5
480
100
AcDbEntity
  8
IMPORT_IGES
100
AcDbLine
 62
7
  6
CONTINUOUS
 10
155.5679286371
 20
101.7123705369
 11
155.5679286371
 21
101.507783454
  0
LINE
  5
481
100
AcDbEntity
  8
RACCORDO
100
AcDbLine
 62
250
  6
CONTINUOUS
 10
149.2493977189
 20
82.2994098613
 11
149.2321727762
 21
82.2825018675
  0
LWPOLYLINE
  5
482
100
AcDbEntity
  8
RACCORDO
100
AcDbPolyline
 62
7
  6
CONTINUOUS
 90
9
 70
0
 10
149.2456246326
 20
82.2922801352
 10
149.2651959926
 20
82.310863196
 10
149.2871561376
 20
82.3368666652
 10
149.3065502173
 20
82.3663978952
 10
149.3229205808
 20
82.3992287707
 10
149.3358845008
 20
82.4349814798
 10
149.3452385906
 20
82.4734612319
 10
149.3508169813
 20
82.5145861969
 10
149.3524579464
 20
82.5535316361
  0
LINE
  5
483
100
AcDbEntity
  8
RACCORDO
100
AcDbLine
 62
7
  6
CONTINUOUS
 10
149.2456246323
 20
82.2922801352
 11
149.2452915503
 21
82.2919936288
  0
LINE
  5
484
100
AcDbEntity
  8
RACCORDO
100
AcDbLine
 62
7
  6
CONTINUOUS
 10
146.1811843016
 20
80.4294990782
 11
146.1029732323
 21
80.3635009126
  0
LWPOLYLINE
  5
485
100
AcDbEntity
  8
RACCORDO
100
AcDbPolyline
 62
250
  6
CONTINUOUS
 90
4
 70
0
 10
149.2321727762
 20
82.2825018675
 10
148.9876167745
 20
82.0798857461
 10
148.7412964261
 20
81.8889374079
 10
148.6934975673
 20
81.8528166572
  0
LWPOLYLINE
  5
486
100
AcDbEntity
  8
RACCORDO
100
AcDbPolyline
 62
7
  6
CONTINUOUS
 90
9
 70
0
 10
146.1029732323
 20
80.3635009126
 10
146.0241769928
 20
80.2984065057
 10
145.944795583
 20
80.2342158575
 10
145.8648259245
 20
80.1709265748
 10
145.7842710958
 20
80.1085410508
 10
145.7031403321
 20
80.0470664654
 10
145.6214367117
 20
79.9865052118
 10
145.5391571564
 20
79.9268548967
 10
145.4563016661
 20
79.8681155202
  0
LWPOLYLINE
  5
487
100
AcDbEntity
  8
RACCORDO
100
AcDbPolyline
 62
250
  6
CONTINUOUS
 90
5
 70
0
 10
148.5512793634
 20
81.7497725983
 10
148.4935552755
 20
81.7093251552
 10
148.2466173013
 20
81.541952875
 10
147.9989864208
 20
81.3851250841
 10
147.9657716062
 20
81.3648952935
  0
LINE
  5
488
100
AcDbEntity
  8
RACCORDO
100
AcDbLine
 62
250
  6
CONTINUOUS
 10
149.2452915503
 20
82.2919936288
 11
149.2321727761
 21
82.2825018677
  0
LINE
  5
489
100
AcDbEntity
  8
RACCORDO
100
AcDbLine
 62
7
  6
CONTINUOUS
 10
146.1811843016
 20
80.4294990782
 11
146.1719987712
 21
80.4229139719
  0
LINE
  5
48A
100
AcDbEntity
  8
RACCORDO
100
AcDbLine
 62
250
  6
CONTINUOUS
 10
145.26141923
 20
79.8797575732
 11
145.251316845
 21
79.8725553794
  0
LWPOLYLINE
  5
48B
100
AcDbEntity
  8
RACCORDO
100
AcDbPolyline
 62
250
  6
CONTINUOUS
 90
19
 70
0
 10
149.3588890812
 20
82.2969923116
 10
149.3627842325
 20
82.2995458421
 10
149.3681296617
 20
82.3037147718
 10
149.3731128668
 20
82.3084339295
 10
149.3777410811
 20
82.3137227229
 10
149.3820595727
 20
82.3196808829
 10
149.3860483213
 20
82.3263770967
 10
149.3896237885
 20
82.3337814953
 10
149.3927215262
 20
82.3418580125
 10
149.395299082
 20
82.3505964698
 10
149.3973174679
 20
82.3599900788
 10
149.3987337544
 20
82.3699857805
 10
149.3995168728
 20
82.3805522971
 10
149.3996387347
 20
82.3916612808
 10
149.3990757772
 20
82.4032480599
 10
149.3978189836
 20
82.4151979972
 10
149.3958523585
 20
82.4275277001
 10
149.393120673
 20
82.4403696015
 10
149.3895928907
 20
82.4536452142
  0
LWPOLYLINE
  5
48C
100
AcDbEntity
  8
RACCORDO
100
AcDbPolyline
 62
7
  6
CONTINUOUS
 90
16
 70
0
 10
149.3586124908
 20
82.2968257871
 10
149.3636264763
 20
82.2999868
 10
149.3795083939
 20
82.3118004592
 10
149.3940018074
 20
82.3255351841
 10
149.4067945254
 20
82.3409302735
 10
149.4177349007
 20
82.3578093869
 10
149.4267697216
 20
82.3761754465
 10
149.4337306851
 20
82.3959079509
 10
149.4384032629
 20
82.4166206602
 10
149.4406990283
 20
82.4380685777
 10
149.4405342691
 20
82.4605535795
 10
149.4377797438
 20
82.4834443348
 10
149.4327165319
 20
82.5053911848
 10
149.4254717507
 20
82.5266957763
 10
149.4160989422
 20
82.5473665171
 10
149.4104913597
 20
82.5576634002
  0
LWPOLYLINE
  5
48D
100
AcDbEntity
  8
RACCORDO
100
AcDbPolyline
 62
7
  6
CONTINUOUS
 90
10
 70
0
 10
147.9657716061
 20
81.3648952936
 10
148.1146092371
 20
81.4569977173
 10
148.2618181984
 20
81.5518520408
 10
148.4073811718
 20
81.6494476957
 10
148.5512793634
 20
81.7497725983
 10
148.6934975673
 20
81.8528166572
 10
148.8340239837
 20
81.9585721026
 10
148.9728435577
 20
82.0670286622
 10
149.1099381658
 20
82.1781732351
 10
149.2452915503
 20
82.2919936288
  0
LINE
  5
48E
100
AcDbEntity
  8
RACCORDO
100
AcDbLine
 62
250
  6
CONTINUOUS
 10
149.3574277692
 20
82.5270204023
 11
149.3511807388
 21
82.5232193475
  0
LINE
  5
48F
100
AcDbEntity
  8
RACCORDO
100
AcDbLine
 62
7
  6
CONTINUOUS
 10
148.9443247463
 20
82.0447475669
 11
149.3588894647
 21
82.2969925449
  0
LINE
  5
490
100
AcDbEntity
  8
ASSI
100
AcDbLine
 62
7
  6
CONTINUOUS
 10
147.9657716062
 20
81.3648952935
 11
145.2441696318
 21
79.714923044
  0
LINE
  5
491
100
AcDbEntity
  8
RACCORDO
100
AcDbLine
 62
250
  6
CONTINUOUS
 10
145.3148585811
 20
80.0755928365
 11
149.3103589183
 21
82.4933823617
  0
LINE
  5
492
100
AcDbEntity
  8
RACCORDO
100
AcDbLine
 62
250
  6
CONTINUOUS
 10
145.26141923
 20
79.8797575732
 11
149.2321727762
 21
82.2825018675
  0
LINE
  5
493
100
AcDbEntity
  8
RACCORDO
100
AcDbLine
 62
250
  6
CONTINUOUS
 10
146.1720043306
 20
80.4229044728
 11
146.1811843016
 21
80.4294990782
  0
LINE
  5
494
100
AcDbEntity
  8
RACCORDO
100
AcDbLine
 62
7
  6
CONTINUOUS
 10
145.2441696318
 20
79.8682843217
 11
146.1720043306
 21
80.4229044728
  0
LINE
  5
495
100
AcDbEntity
  8
RACCORDO
100
AcDbLine
 62
250
  6
CONTINUOUS
 10
149.3574272442
 20
82.5270213116
 11
149.4104913597
 21
82.5576634002
  0
LINE
  5
496
100
AcDbEntity
  8
DRAFT
100
AcDbLine
 62
7
  6
CONTINUOUS
 10
145.6314840098
 20
78.9947688619
 11
145.2441696318
 21
78.7711376263
  0
LINE
  5
497
100
AcDbEntity
  8
LAY0001
100
AcDbLine
 62
7
  6
CONTINUOUS
 10
145.2441696318
 20
79.209885355
 11
145.2517276953
 21
79.2140353984
  0
LWPOLYLINE
  5
498
100
AcDbEntity
  8
RACCORDO
100
AcDbPolyline
 62
250
  6
CONTINUOUS
 90
6
 70
0
 10
145.3148585811
 20
80.0755928365
 10
145.3015455835
 20
80.0689239627
 10
145.286411712
 20
80.0637082257
 10
145.2699271172
 20
80.060107607
 10
145.2526038583
 20
80.0582339101
 10
145.2441696318
 20
80.0581915043
  0
LINE
  5
499
100
AcDbEntity
  8
RACCORDO
100
AcDbLine
 62
250
  6
CONTINUOUS
 10
147.592322515
 20
122.0454000173
 11
150.0723840836
 21
122.7399086307
  0
LINE
  5
49A
100
AcDbEntity
  8
ASSI
100
AcDbLine
 62
7
  6
CONTINUOUS
 10
147.5017874097
 20
122.0591271854
 11
149.9838122193
 21
122.7541855786
  0
LWPOLYLINE
  5
49B
100
AcDbEntity
  8
ASSI
100
AcDbPolyline
 62
250
  6
CONTINUOUS
 90
13
 70
0
 10
149.5082765382
 20
122.2254242455
 10
149.5125174394
 20
122.2265731916
 10
149.5166915336
 20
122.2277805555
 10
149.5207988207
 20
122.2290463373
 10
149.5248278968
 20
122.2303631151
 10
149.5287901658
 20
122.2317383108
 10
149.5327198396
 20
122.2331941898
 10
149.5366256425
 20
122.2347295769
 10
149.5404988501
 20
122.2363456474
 10
149.5443475015
 20
122.238068193
 10
149.5481742764
 20
122.2399058109
 10
149.5519764952
 20
122.2418499041
 10
149.5557541578
 20
122.2439004723
  0
LINE
  5
49C
100
AcDbEntity
  8
ASSI
100
AcDbLine
 62
250
  6
CONTINUOUS
 10
148.0844709409
 20
121.5783220395
 11
149.6150038889
 21
121.9808835661
  0
LINE
  5
49D
100
AcDbEntity
  8
ASSI
100
AcDbLine
 62
250
  6
CONTINUOUS
 10
147.9777435902
 20
121.822862719
 11
149.5082765382
 21
122.2254242455
  0
LWPOLYLINE
  5
49E
100
AcDbEntity
  8
ASSI
100
AcDbPolyline
 62
7
  6
CONTINUOUS
 90
10
 70
0
 10
144.2863775205
 20
118.1026758928
 10
144.2668537864
 20
118.1029630674
 10
144.2478217913
 20
118.1022895501
 10
144.2292815349
 20
118.1006553408
 10
144.2110968762
 20
118.0980254416
 10
144.1934039563
 20
118.0944348505
 10
144.1766111994
 20
118.0899885613
 10
144.1608547467
 20
118.084721572
 10
144.145998457
 20
118.0785988846
 10
144.1320423302
 20
118.0716204991
  0
LINE
  5
49F
100
AcDbEntity
  8
ASSI
100
AcDbLine
 62
7
  6
CONTINUOUS
 10
144.3270342251
 20
118.1018685528
 11
144.2863775205
 21
118.1026758928
  0
LWPOLYLINE
  5
4A0
100
AcDbEntity
  8
ASSI
100
AcDbPolyline
 62
250
  6
CONTINUOUS
 90
8
 70
0
 10
143.6489100816
 20
117.594229805
 10
143.6376254998
 20
117.5984808051
 10
143.6254374633
 20
117.6008055856
 10
143.6124765608
 20
117.6011792248
 10
143.5988816795
 20
117.599597713
 10
143.5847984877
 20
117.5960779966
 10
143.5703778717
 20
117.5906577859
 10
143.5557743398
 20
117.5833951543
  0
LWPOLYLINE
  5
4A1
100
AcDbEntity
  8
RACCORDO
100
AcDbPolyline
 62
7
  6
CONTINUOUS
 90
10
 70
0
 10
146.9395275509
 20
115.5002951897
 10
146.9610499157
 20
115.4902849107
 10
146.980879791
 20
115.4801522015
 10
146.9989583872
 20
115.4698761976
 10
147.0152444551
 20
115.4594035023
 10
147.0297464017
 20
115.4487953985
 10
147.0424685612
 20
115.4381929004
 10
147.0533962278
 20
115.4275938985
 10
147.0625191669
 20
115.4170041231
 10
147.0693977988
 20
115.4071696604
  0
LWPOLYLINE
  5
4A2
100
AcDbEntity
  8
ASSI
100
AcDbPolyline
 62
250
  6
CONTINUOUS
 90
9
 70
0
 10
145.1805148945
 20
116.7101148138
 10
145.1761138009
 20
116.7124415039
 10
145.1648291954
 20
116.7166924811
 10
145.1526411636
 20
116.7190172317
 10
145.1396802877
 20
116.7193908467
 10
145.126085439
 20
116.7178093217
 10
145.1120022792
 20
116.7142896016
 10
145.0975816989
 20
116.7088693973
 10
145.0829782055
 20
116.7016067826
  0
LINE
  5
4A3
100
AcDbEntity
  8
ASSI
100
AcDbLine
 62
250
  6
CONTINUOUS
 10
143.6533110288
 20
117.5919031855
 11
143.6489100816
 21
117.594229805
  0
LINE
  5
4A4
100
AcDbEntity
  8
ASSI
100
AcDbLine
 62
250
  6
CONTINUOUS
 10
134.4769682466
 20
122.8902085014
 11
134.4725672994
 21
122.8925351209
  0
LWPOLYLINE
  5
4A5
100
AcDbEntity
  8
ASSI
100
AcDbPolyline
 62
250
  6
CONTINUOUS
 90
8
 70
0
 10
143.5557743398
 20
117.5833951543
 10
143.5414425482
 20
117.5910740828
 10
143.5271804351
 20
117.596936918
 10
143.5131435667
 20
117.60089814
 10
143.4994703133
 20
117.6028928957
 10
143.4863353287
 20
117.6028689566
 10
143.4739389091
 20
117.6008147432
 10
143.462850514
 20
117.5969072513
  0
LWPOLYLINE
  5
4A6
100
AcDbEntity
  8
ASSI
100
AcDbPolyline
 62
250
  6
CONTINUOUS
 90
8
 70
0
 10
134.3794315575
 20
122.8817004702
 10
134.365099766
 20
122.8893793986
 10
134.3508376529
 20
122.8952422339
 10
134.3368007845
 20
122.8992034558
 10
134.3231275311
 20
122.9011982116
 10
134.3099925465
 20
122.9011742724
 10
134.2975961269
 20
122.8991200591
 10
134.2865077317
 20
122.8952125671
  0
LINE
  5
4A7
100
AcDbEntity
  8
LAY0001
100
AcDbLine
 62
7
  6
CONTINUOUS
 10
134.4114795373
 20
121.3597712295
 11
139.007673615
 21
118.7059863729
  0
LINE
  5
4A8
100
AcDbEntity
  8
LAY0001
100
AcDbLine
 62
7
  6
CONTINUOUS
 10
134.9134524747
 20
121.1974096084
 11
139.1440665284
 21
118.7547060758
  0
LINE
  5
4A9
100
AcDbEntity
  8
LAY0001
100
AcDbLine
 62
7
  6
CONTINUOUS
 10
144.8907373951
 20
116.1217502482
 11
139.8771162466
 21
119.0165522639
  0
LINE
  5
4AA
100
AcDbEntity
  8
LAY0001
100
AcDbLine
 62
7
  6
CONTINUOUS
 10
134.9134524747
 20
121.8825095165
 11
129.8998313261
 21
124.7773115322
  0
LINE
  5
4AB
100
AcDbEntity
  8
ASSI
100
AcDbLine
 62
250
  6
CONTINUOUS
 10
137.9190636818
 20
120.8287511346
 11
141.7993745478
 21
118.5883082723
  0
LINE
  5
4AC
100
AcDbEntity
  8
ASSI
100
AcDbLine
 62
250
  6
CONTINUOUS
 10
145.0829782055
 20
116.7016067826
 11
143.5557743398
 21
117.5833951543
  0
LINE
  5
4AD
100
AcDbEntity
  8
ASSI
100
AcDbLine
 62
250
  6
CONTINUOUS
 10
135.9066354233
 20
121.9999120985
 11
134.3794315575
 21
122.8817004702
  0
LINE
  5
4AE
100
AcDbEntity
  8
ASSI
100
AcDbLine
 62
7
  6
CONTINUOUS
 10
145.1805148945
 20
116.7101148138
 11
143.6533110288
 21
117.5919031855
  0
LINE
  5
4AF
100
AcDbEntity
  8
ASSI
100
AcDbLine
 62
7
  6
CONTINUOUS
 10
136.0041721123
 20
122.0084201296
 11
134.4769682466
 21
122.8902085014
  0
LINE
  5
4B0
100
AcDbEntity
  8
ASSI
100
AcDbLine
 62
250
  6
CONTINUOUS
 10
138.0582028668
 20
120.9714914085
 11
141.9051843371
 21
118.7502925215
  0
LINE
  5
4B1
100
AcDbEntity
  8
IMPORT_IGES
100
AcDbLine
 62
250
  6
CONTINUOUS
 10
153.0576995639
 20
112.5506011573
 11
148.2862890782
 21
115.3055537719
  0
LINE
  5
4B2
100
AcDbEntity
  8
DRAFT
100
AcDbLine
 62
7
  6
CONTINUOUS
 10
144.1153409289
 20
117.9168642273
 11
143.9866605808
 21
117.9911626476
  0
LWPOLYLINE
  5
4B3
100
AcDbEntity
  8
ASSI
100
AcDbPolyline
 62
250
  6
CONTINUOUS
 90
16
 70
0
 10
135.9066354233
 20
121.9999120985
 10
135.9213373636
 20
121.9908385181
 10
135.9359342779
 20
121.9800726639
 10
135.9502674199
 20
121.9677038794
 10
135.9641857035
 20
121.9538321868
 10
135.9775199817
 20
121.9385945555
 10
135.9900896671
 20
121.9221719703
 10
136.0017582097
 20
121.9047190629
 10
136.0123744987
 20
121.8864360501
 10
136.021768276
 20
121.867609747
 10
136.029824697
 20
121.8484935702
 10
136.0364823987
 20
121.8292600755
 10
136.0416825402
 20
121.8100870925
 10
136.0453682997
 20
121.7911750183
 10
136.0474941262
 20
121.7727447159
 10
136.0480352404
 20
121.7550004314
  0
LWPOLYLINE
  5
4B4
100
AcDbEntity
  8
ASSI
100
AcDbPolyline
 62
250
  6
CONTINUOUS
 90
3
 70
0
 10
139.5083033572
 20
121.6137400955
 10
139.5292626961
 20
121.5952868926
 10
139.5534624192
 20
121.5772872706
  0
LWPOLYLINE
  5
4B5
100
AcDbEntity
  8
ASSI
100
AcDbPolyline
 62
250
  6
CONTINUOUS
 90
7
 70
0
 10
144.7639992038
 20
119.592430816
 10
144.7587280505
 20
119.5983683415
 10
144.7532745014
 20
119.6035382318
 10
144.7477702852
 20
119.6078654045
 10
144.7423006098
 20
119.6113579197
 10
144.7369123677
 20
119.6141019911
 10
144.7316611769
 20
119.616145469
  0
LWPOLYLINE
  5
4B6
100
AcDbEntity
  8
RACCORDO
100
AcDbPolyline
 62
7
  6
CONTINUOUS
 90
12
 70
0
 10
149.3090817111
 20
117.1459402885
 10
149.2580847861
 20
117.2224871674
 10
149.2042108154
 20
117.2966741419
 10
149.1476989325
 20
117.3681142793
 10
149.088782323
 20
117.4364394761
 10
149.0276722133
 20
117.5013639223
 10
148.9645688659
 20
117.5626105081
 10
148.899704346
 20
117.6198785393
 10
148.8333185296
 20
117.6728784252
 10
148.7656383197
 20
117.7213298484
 10
148.6969207795
 20
117.7649615497
 10
148.6819179589
 20
117.773754554
  0
LWPOLYLINE
  5
4B7
100
AcDbEntity
  8
RACCORDO
100
AcDbPolyline
 62
250
  6
CONTINUOUS
 90
11
 70
0
 10
149.260617625
 20
117.1082128328
 10
149.2052026535
 20
117.1923573677
 10
149.1486065258
 20
117.2709329259
 10
149.0913932345
 20
117.3438586649
 10
149.0341401336
 20
117.4110689726
 10
148.9772458734
 20
117.4726970979
 10
148.9209139628
 20
117.5290318176
 10
148.8654951981
 20
117.5802093757
 10
148.8112908456
 20
117.6264146211
 10
148.7583411655
 20
117.6680046194
 10
148.7067901807
 20
117.7052284104
  0
LWPOLYLINE
  5
4B8
100
AcDbEntity
  8
ASSI
100
AcDbPolyline
 62
7
  6
CONTINUOUS
 90
10
 70
0
 10
147.226810321
 20
121.0439687125
 10
147.238511847
 20
121.0254967019
 10
147.248817793
 20
121.0066082274
 10
147.2577198394
 20
120.9873831292
 10
147.2652011402
 20
120.9679494755
 10
147.2712914388
 20
120.948343204
 10
147.2760334139
 20
120.9285048489
 10
147.2794252151
 20
120.9084685538
 10
147.2814537531
 20
120.8883645663
 10
147.2821268767
 20
120.8682766964
  0
LWPOLYLINE
  5
4B9
100
AcDbEntity
  8
ASSI
100
AcDbPolyline
 62
250
  6
CONTINUOUS
 90
13
 70
0
 10
148.442145867
 20
116.6464579807
 10
148.3975149679
 20
116.7170060638
 10
148.350652858
 20
116.7855327502
 10
148.3017247234
 20
116.8517910227
 10
148.2509004702
 20
116.9155405522
 10
148.1983622259
 20
116.9765529675
 10
148.144303686
 20
117.0346126593
 10
148.0889171303
 20
117.0895093454
 10
148.0323972799
 20
117.1410460039
 10
147.9749485092
 20
117.1890433263
 10
147.9167755438
 20
117.2333296083
 10
147.8580829317
 20
117.2737420323
 10
147.7990786986
 20
117.3101339548
  0
LINE
  5
4BA
100
AcDbEntity
  8
RACCORDO
100
AcDbLine
 62
7
  6
CONTINUOUS
 10
149.3560812438
 20
117.0712731183
 11
149.3090817111
 21
117.1459402885
  0
LINE
  5
4BB
100
AcDbEntity
  8
RACCORDO
100
AcDbLine
 62
250
  6
CONTINUOUS
 10
149.3511953878
 20
116.9638405871
 11
149.2606176205
 21
117.1082128303
  0
LINE
  5
4BC
100
AcDbEntity
  8
RACCORDO
100
AcDbLine
 62
7
  6
CONTINUOUS
 10
149.4062312701
 20
116.9912012026
 11
149.3560812438
 21
117.0712731183
  0
LWPOLYLINE
  5
4BD
100
AcDbEntity
  8
ASSI
100
AcDbPolyline
 62
250
  6
CONTINUOUS
 90
16
 70
0
 10
147.0613952981
 20
121.0948447293
 10
147.0512665241
 20
121.1116297271
 10
147.0434196813
 20
121.1286380351
 10
147.0378547696
 20
121.1458696534
 10
147.0345545691
 20
121.1634297286
 10
147.0335362998
 20
121.1812131141
 10
147.0348516212
 20
121.1989043695
 10
147.0385615529
 20
121.2165184251
 10
147.0446050753
 20
121.2340403507
 10
147.052850789
 20
121.2511099153
 10
147.0633454564
 20
121.2676991423
 10
147.076042315
 20
121.2838360083
 10
147.0906696782
 20
121.2992442124
 10
147.1071369835
 20
121.3138316542
 10
147.1255347933
 20
121.3276904342
 10
147.1458631077
 20
121.3408205521
  0
LWPOLYLINE
  5
4BE
100
AcDbEntity
  8
RACCORDO
100
AcDbPolyline
 62
250
  6
CONTINUOUS
 90
10
 70
0
 10
147.2733866724
 20
124.3083016747
 10
147.279441062
 20
124.2952764102
 10
147.2849273038
 20
124.2817761826
 10
147.2898206981
 20
124.2677952511
 10
147.2941082536
 20
124.2532222311
 10
147.2977010482
 20
124.2381606125
 10
147.3005289361
 20
124.2226615215
 10
147.3025324729
 20
124.206545645
 10
147.3035830703
 20
124.1898455176
 10
147.3035395296
 20
124.1728083075
  0
LWPOLYLINE
  5
4BF
100
AcDbEntity
  8
RACCORDO
100
AcDbPolyline
 62
250
  6
CONTINUOUS
 90
10
 70
0
 10
152.195816284
 20
120.7682202286
 10
152.1937018534
 20
120.7769972858
 10
152.1912863525
 20
120.7859821344
 10
152.1885606921
 20
120.7951566799
 10
152.1854971276
 20
120.8045616313
 10
152.1820813458
 20
120.8141820096
 10
152.1783004548
 20
120.8239993371
 10
152.1741206754
 20
120.834045565
 10
152.1695203085
 20
120.8443096924
 10
152.1644902531
 20
120.8547517629
  0
LWPOLYLINE
  5
4C0
100
AcDbEntity
  8
RACCORDO
100
AcDbPolyline
 62
250
  6
CONTINUOUS
 90
5
 70
0
 10
152.8356344412
 20
119.616197369
 10
152.8303252707
 20
119.6412460634
 10
152.8229730089
 20
119.6664694115
 10
152.8136437181
 20
119.6917168634
 10
152.8022225653
 20
119.7171575679
  0
LWPOLYLINE
  5
4C1
100
AcDbEntity
  8
IMPORT_IGES
100
AcDbPolyline
 62
250
  6
CONTINUOUS
 90
13
 70
0
 10
160.9772955132
 20
103.5695938232
 10
160.9754806942
 20
103.6026129039
 10
160.9700672894
 20
103.6371627263
 10
160.9611479236
 20
103.6726521335
 10
160.9488752095
 20
103.7084738919
 10
160.9334591369
 20
103.7440150813
 10
160.9151634788
 20
103.778667582
 10
160.8943012792
 20
103.8118384802
 10
160.871229496
 20
103.8429602126
 10
160.8463428939
 20
103.8715002777
 10
160.8200672894
 20
103.8969703472
 10
160.7928522655
 20
103.918934621
 10
160.7651634788
 20
103.9370172843
  0
LINE
  5
4C2
100
AcDbEntity
  8
IMPORT_IGES
100
AcDbLine
 62
7
  6
CONTINUOUS
 10
159.5630819508
 20
104.0594996623
 11
159.5630819508
 21
106.8155920629
  0
LINE
  5
4C3
100
AcDbEntity
  8
IMPORT_IGES
100
AcDbLine
 62
250
  6
CONTINUOUS
 10
160.0580566976
 20
104.3452918776
 11
160.0580566976
 21
107.1013842782
  0
LINE
  5
4C4
100
AcDbEntity
  8
IMPORT_IGES
100
AcDbLine
 62
7
  6
CONTINUOUS
 10
160.1459246633
 20
107.1521181404
 11
160.1459246633
 21
104.3960326734
  0
LINE
  5
4C5
100
AcDbEntity
  8
IMPORT_IGES
100
AcDbLine
 62
250
  6
CONTINUOUS
 10
160.9772955132
 20
98.1808899964
 11
160.9772955132
 21
103.5695938232
  0
LINE
  5
4C6
100
AcDbEntity
  8
IMPORT_IGES
100
AcDbLine
 62
250
  6
CONTINUOUS
 10
160.9772955132
 20
107.7335922349
 11
160.9772955132
 21
111.4893555081
  0
LINE
  5
4C7
100
AcDbEntity
  8
IMPORT_IGES
100
AcDbLine
 62
7
  6
CONTINUOUS
 10
161.0651634788
 20
103.6920762012
 11
161.0651634788
 21
98.3033723744
  0
LINE
  5
4C8
100
AcDbEntity
  8
IMPORT_IGES
100
AcDbLine
 62
7
  6
CONTINUOUS
 10
161.0651634788
 20
107.8560746129
 11
161.0651634788
 21
111.6118378861
  0
LWPOLYLINE
  5
4C9
100
AcDbEntity
  8
IMPORT_IGES
100
AcDbPolyline
 62
250
  6
CONTINUOUS
 90
7
 70
0
 10
161.0651634788
 20
111.6118378861
 10
161.0625969372
 20
111.5892286299
 10
161.0549412267
 20
111.5670062243
 10
161.0423273386
 20
111.5455509008
 10
161.0249711
 20
111.5252297661
 10
161.0031694809
 20
111.5063905203
 10
160.9772955132
 20
111.4893555081
  0
LWPOLYLINE
  5
4CA
100
AcDbEntity
  8
IMPORT_IGES
100
AcDbPolyline
 62
250
  6
CONTINUOUS
 90
7
 70
0
 10
161.0651634788
 20
103.6920762012
 10
161.0625969372
 20
103.669466945
 10
161.0549412267
 20
103.6472445394
 10
161.0423273386
 20
103.6257892159
 10
161.0249711
 20
103.6054680812
 10
161.0031694809
 20
103.5866288354
 10
160.9772955132
 20
103.5695938232
  0
LINE
  5
4CB
100
AcDbEntity
  8
RACCORDO
100
AcDbLine
 62
250
  6
CONTINUOUS
 10
146.132110466
 20
77.115493746
 11
145.2441696318
 21
76.5845919456
  0
LINE
  5
4CC
100
AcDbEntity
  8
RACCORDO
100
AcDbLine
 62
7
  6
CONTINUOUS
 10
146.0908767562
 20
77.0240539058
 11
145.2441696318
 21
76.5178058322
  0
LWPOLYLINE
  5
4CD
100
AcDbEntity
  8
ASSI
100
AcDbPolyline
 62
250
  6
CONTINUOUS
 90
12
 70
0
 10
144.2522455896
 20
123.9739185731
 10
144.2452107561
 20
123.9719256914
 10
144.238110181
 20
123.9697415808
 10
144.2309465872
 20
123.9673654369
 10
144.2237588852
 20
123.9648095601
 10
144.2165140714
 20
123.9620621951
 10
144.2091059574
 20
123.9590781818
 10
144.2015273593
 20
123.9558441176
 10
144.193789906
 20
123.9523551836
 10
144.1858144568
 20
123.9485644109
 10
144.1775765028
 20
123.9444431657
 10
144.1691068221
 20
123.9399882655
  0
LINE
  5
4CE
100
AcDbEntity
  8
RACCORDO
100
AcDbLine
 62
250
  6
CONTINUOUS
 10
138.7975219334
 20
123.1886824028
 11
138.8405858077
 21
123.20069817
  0
LWPOLYLINE
  5
4CF
100
AcDbEntity
  8
ASSI
100
AcDbPolyline
 62
250
  6
CONTINUOUS
 90
13
 70
0
 10
144.6376666647
 20
123.7513812747
 10
144.6305261226
 20
123.7494256525
 10
144.6233423497
 20
123.7472731462
 10
144.6161182363
 20
123.7449237543
 10
144.6088961761
 20
123.7423920597
 10
144.601639967
 20
123.7396658013
 10
144.5942334147
 20
123.7366956039
 10
144.5866664934
 20
123.7334675322
 10
144.5789536159
 20
123.7299771018
 10
144.5710139317
 20
123.7261732342
 10
144.5628223272
 20
123.722025468
 10
144.5544101174
 20
123.7175314829
 10
144.5457814986
 20
123.7126756527
  0
LINE
  5
4D0
100
AcDbEntity
  8
ASSI
100
AcDbLine
 62
250
  6
CONTINUOUS
 10
145.764761327
 20
124.3868830112
 11
144.2522455896
 21
123.9739185731
  0
LINE
  5
4D1
100
AcDbEntity
  8
ASSI
100
AcDbLine
 62
7
  6
CONTINUOUS
 10
145.6754806746
 20
124.4009570744
 11
144.162964937
 21
123.9879926362
  0
LWPOLYLINE
  5
4D2
100
AcDbEntity
  8
ASSI
100
AcDbPolyline
 62
250
  6
CONTINUOUS
 90
13
 70
0
 10
144.7422916675
 20
123.4995206184
 10
144.737981492
 20
123.4983603878
 10
144.7336507399
 20
123.4970810471
 10
144.7292994113
 20
123.4956825965
 10
144.7249497105
 20
123.4941766594
 10
144.7205794332
 20
123.4925516123
 10
144.7161219663
 20
123.4907725849
 10
144.7115700654
 20
123.4888431524
 10
144.7069309749
 20
123.4867597396
 10
144.7021598152
 20
123.484476751
 10
144.6972416266
 20
123.481978988
 10
144.6921913688
 20
123.4792816491
 10
144.6870090418
 20
123.4763847344
  0
LINE
  5
4D3
100
AcDbEntity
  8
ASSI
100
AcDbLine
 62
250
  6
CONTINUOUS
 10
145.7699215748
 20
124.388226902
 11
145.764761327
 21
124.3868830112
  0
LINE
  5
4D4
100
AcDbEntity
  8
RACCORDO
100
AcDbLine
 62
250
  6
CONTINUOUS
 10
147.3022775486
 20
124.1556177344
 11
144.7422916675
 21
123.4995206184
  0
LINE
  5
4D5
100
AcDbEntity
  8
RACCORDO
100
AcDbLine
 62
250
  6
CONTINUOUS
 10
147.1883734118
 20
124.4051002475
 11
144.6376666647
 21
123.7513812747
  0
LWPOLYLINE
  5
4D6
100
AcDbEntity
  8
ASSI
100
AcDbPolyline
 62
250
  6
CONTINUOUS
 90
6
 70
0
 10
147.5017874097
 20
122.0591271854
 10
147.518193795
 20
122.0623073494
 10
147.5365648535
 20
122.0627417281
 10
147.5552429243
 20
122.0600313877
 10
147.573928641
 20
122.0542197685
 10
147.592322515
 20
122.0454000173
  0
LWPOLYLINE
  5
4D7
100
AcDbEntity
  8
RACCORDO
100
AcDbPolyline
 62
250
  6
CONTINUOUS
 90
5
 70
0
 10
150.249345457
 20
122.6377333515
 10
150.263904155
 20
122.6402963261
 10
150.2775757267
 20
122.6399724162
 10
150.2900714734
 20
122.6367684617
 10
150.2968756505
 20
122.6334996459
  0
LWPOLYLINE
  5
4D8
100
AcDbEntity
  8
RACCORDO
100
AcDbPolyline
 62
250
  6
CONTINUOUS
 90
5
 70
0
 10
150.0723840836
 20
122.7399086307
 10
150.0869427821
 20
122.7424716062
 10
150.100614354
 20
122.7421476963
 10
150.1131101005
 20
122.7389437413
 10
150.1198470407
 20
122.7357136325
  0
LWPOLYLINE
  5
4D9
100
AcDbEntity
  8
ASSI
100
AcDbPolyline
 62
250
  6
CONTINUOUS
 90
3
 70
0
 10
138.8302506746
 20
122.0584186663
 10
138.8382148075
 20
122.0594237392
 10
138.8457964469
 20
122.0601405474
  0
LWPOLYLINE
  5
4DA
100
AcDbEntity
  8
ASSI
100
AcDbPolyline
 62
250
  6
CONTINUOUS
 90
7
 70
0
 10
140.7970798474
 20
122.1649141284
 10
140.8401457432
 20
122.1686309143
 10
140.8849516654
 20
122.1751453432
 10
140.9314365684
 20
122.1845730792
 10
140.9794023343
 20
122.1970005213
 10
141.0288922096
 20
122.2125399874
 10
141.0802030648
 20
122.2313988774
  0
LWPOLYLINE
  5
4DB
100
AcDbEntity
  8
ASSI
100
AcDbPolyline
 62
250
  6
CONTINUOUS
 90
9
 70
0
 10
144.1930661756
 20
120.2041141842
 10
144.227665433
 20
120.2069445342
 10
144.2622643583
 20
120.2114723934
 10
144.2967893827
 20
120.2175972249
 10
144.3307770954
 20
120.2251235201
 10
144.3645502204
 20
120.2340105855
 10
144.3992563206
 20
120.2445528771
 10
144.4349941183
 20
120.2568663822
 10
144.4716082185
 20
120.2709688611
  0
LWPOLYLINE
  5
4DC
100
AcDbEntity
  8
ASSI
100
AcDbPolyline
 62
7
  6
CONTINUOUS
 90
7
 70
0
 10
138.7822990269
 20
122.0777951857
 10
138.7658082888
 20
122.0764980326
 10
138.7289815453
 20
122.0707494206
 10
138.6907622124
 20
122.0607007813
 10
138.6529269712
 20
122.0466960013
 10
138.6160455937
 20
122.0291317062
 10
138.6062737483
 20
122.0238208974
  0
LINE
  5
4DD
100
AcDbEntity
  8
ASSI
100
AcDbLine
 62
250
  6
CONTINUOUS
 10
138.8457964469
 20
122.0601405474
 11
138.8530001755
 21
122.0605978972
  0
LWPOLYLINE
  5
4DE
100
AcDbEntity
  8
ASSI
100
AcDbPolyline
 62
250
  6
CONTINUOUS
 90
16
 70
0
 10
142.6685880154
 20
119.6575929023
 10
142.6614373721
 20
119.657181572
 10
142.6544343341
 20
119.6564882299
 10
142.6475789013
 20
119.655512876
 10
142.6408628218
 20
119.6542278723
 10
142.6342943476
 20
119.6526608568
 10
142.6278982341
 20
119.6508947438
 10
142.6216766927
 20
119.6489325689
 10
142.615627512
 20
119.6467712964
 10
142.6097688128
 20
119.6444847339
 10
142.6041023326
 20
119.6420754913
 10
142.5986263339
 20
119.6395409588
 10
142.5933537241
 20
119.6369471146
 10
142.5882888056
 20
119.6343159515
 10
142.5834272761
 20
119.6316254769
 10
142.5787691354
 20
119.6288756906
  0
LWPOLYLINE
  5
4DF
100
AcDbEntity
  8
ASSI
100
AcDbPolyline
 62
250
  6
CONTINUOUS
 90
16
 70
0
 10
142.585025372
 20
119.905773322
 10
142.5732475951
 20
119.9051126035
 10
142.5616482125
 20
119.9038932679
 10
142.5502552873
 20
119.9021650908
 10
142.5391000012
 20
119.8999766472
 10
142.5281997251
 20
119.8973758998
 10
142.5175577673
 20
119.8944083911
 10
142.5071896473
 20
119.8911166455
 10
142.4971140792
 20
119.8875430388
 10
142.4873357048
 20
119.8837287137
 10
142.4778648516
 20
119.8797111948
 10
142.4687142531
 20
119.8755278043
 10
142.4598896125
 20
119.8712166003
 10
142.4513975401
 20
119.8668121408
 10
142.44324566
 20
119.8623453842
 10
142.4354392443
 20
119.857846632
  0
LINE
  5
4E0
100
AcDbEntity
  8
ASSI
100
AcDbLine
 62
250
  6
CONTINUOUS
 10
142.6869634435
 20
120.1221840084
 11
144.1930661756
 21
120.2041141842
  0
LINE
  5
4E1
100
AcDbEntity
  8
ASSI
100
AcDbLine
 62
7
  6
CONTINUOUS
 10
142.6156748041
 20
120.1393476425
 11
144.1224352305
 21
120.2213153827
  0
LINE
  5
4E2
100
AcDbEntity
  8
ASSI
100
AcDbLine
 62
250
  6
CONTINUOUS
 10
138.8530001755
 20
122.0605978972
 11
140.7971169989
 21
122.1648926776
  0
LINE
  5
4E3
100
AcDbEntity
  8
ASSI
100
AcDbLine
 62
7
  6
CONTINUOUS
 10
138.7822990268
 20
122.0777951857
 11
140.7266309033
 21
122.1821017031
  0
LWPOLYLINE
  5
4E4
100
AcDbEntity
  8
ASSI
100
AcDbPolyline
 62
250
  6
CONTINUOUS
 90
16
 70
0
 10
139.6442882908
 20
121.8789865078
 10
139.6071059311
 20
121.8771117557
 10
139.5733998908
 20
121.8739246324
 10
139.5431701699
 20
121.869425138
 10
139.5164980266
 20
121.8635733695
 10
139.4933022026
 20
121.8564092299
 10
139.4733389233
 20
121.8480524282
 10
139.4564765734
 20
121.8385873021
 10
139.4428467683
 20
121.8279295139
 10
139.4326005789
 20
121.8159457602
 10
139.4256048937
 20
121.8025380054
 10
139.4219928242
 20
121.7878042851
 10
139.422314776
 20
121.7719054025
 10
139.4267542176
 20
121.7548949588
 10
139.4351276805
 20
121.7367193528
 10
139.4474351647
 20
121.7173785845
  0
LWPOLYLINE
  5
4E5
100
AcDbEntity
  8
ASSI
100
AcDbPolyline
 62
250
  6
CONTINUOUS
 90
10
 70
0
 10
142.4353696063
 20
121.5846232557
 10
142.4206855565
 20
121.583903398
 10
142.4054695374
 20
121.5822280749
 10
142.3897349819
 20
121.5795428545
 10
142.3735786822
 20
121.5758199785
 10
142.3569451174
 20
121.5709930222
 10
142.3396172944
 20
121.5649058617
 10
142.3215391282
 20
121.5574235906
 10
142.3028256077
 20
121.5484851511
 10
142.2835210616
 20
121.5380028569
  0
LWPOLYLINE
  5
4E6
100
AcDbEntity
  8
ASSI
100
AcDbPolyline
 62
250
  6
CONTINUOUS
 90
10
 70
0
 10
142.3539093109
 20
121.8401236524
 10
142.3334967562
 20
121.8391318545
 10
142.3123684891
 20
121.836664065
 10
142.2905245095
 20
121.8327202839
 10
142.2680439711
 20
121.8274400666
 10
142.2448477203
 20
121.8206838577
 10
142.2206982957
 20
121.8120329907
 10
142.1955165436
 20
121.8013479102
 10
142.1693816179
 20
121.7887681717
 10
142.1422935184
 20
121.7742937752
  0
LWPOLYLINE
  5
4E7
100
AcDbEntity
  8
ASSI
100
AcDbPolyline
 62
7
  6
CONTINUOUS
 90
13
 70
0
 10
142.6156748041
 20
120.1393476425
 10
142.5867141265
 20
120.1384561083
 10
142.5476856285
 20
120.1389619082
 10
142.5044799235
 20
120.1413251774
 10
142.4577779455
 20
120.1456250089
 10
142.408394946
 20
120.1518413961
 10
142.3567733833
 20
120.1599579185
 10
142.3033137897
 20
120.1699473227
 10
142.2485563403
 20
120.1817351977
 10
142.1929835763
 20
120.1952434038
 10
142.1370766021
 20
120.2103718728
 10
142.0812497713
 20
120.2270280706
 10
142.0260764482
 20
120.2450641397
  0
LINE
  5
4E8
100
AcDbEntity
  8
ASSI
100
AcDbLine
 62
250
  6
CONTINUOUS
 10
142.6446870733
 20
120.1211171756
 11
142.6869634435
 21
120.1221840084
  0
LINE
  5
4E9
100
AcDbEntity
  8
ASSI
100
AcDbLine
 62
250
  6
CONTINUOUS
 10
144.3865223377
 20
119.7004381877
 11
142.6685880154
 21
119.6575929023
  0
LINE
  5
4EA
100
AcDbEntity
  8
ASSI
100
AcDbLine
 62
250
  6
CONTINUOUS
 10
144.6217969484
 20
119.9565704092
 11
142.585025372
 21
119.905773322
  0
LINE
  5
4EB
100
AcDbEntity
  8
ASSI
100
AcDbLine
 62
250
  6
CONTINUOUS
 10
143.4500136658
 20
121.6092345185
 11
142.4353696063
 21
121.5846232557
  0
LINE
  5
4EC
100
AcDbEntity
  8
ASSI
100
AcDbLine
 62
250
  6
CONTINUOUS
 10
141.3073080671
 20
121.661848506
 11
139.7257485862
 21
121.6234861112
  0
LINE
  5
4ED
100
AcDbEntity
  8
ASSI
100
AcDbLine
 62
250
  6
CONTINUOUS
 10
143.633874439
 20
121.8711705578
 11
142.3539093109
 21
121.8401236524
  0
LINE
  5
4EE
100
AcDbEntity
  8
ASSI
100
AcDbLine
 62
250
  6
CONTINUOUS
 10
141.2258477716
 20
121.9173489027
 11
139.6442882908
 21
121.8789865078
  0
LWPOLYLINE
  5
4EF
100
AcDbEntity
  8
ASSI
100
AcDbPolyline
 62
250
  6
CONTINUOUS
 90
5
 70
0
 10
142.6163324986
 20
120.1393852069
 10
142.6290734158
 20
120.1394107285
 10
142.6488222061
 20
120.1368100286
 10
142.6682229575
 20
120.1310368181
 10
142.6869634435
 20
120.1221840084
  0
LWPOLYLINE
  5
4F0
100
AcDbEntity
  8
ASSI
100
AcDbPolyline
 62
250
  6
CONTINUOUS
 90
5
 70
0
 10
144.1225754911
 20
120.2213229315
 10
144.1351773938
 20
120.2213408417
 10
144.154925826
 20
120.2187400145
 10
144.1743261538
 20
120.2129668159
 10
144.1930661756
 20
120.2041141842
  0
LWPOLYLINE
  5
4F1
100
AcDbEntity
  8
ASSI
100
AcDbPolyline
 62
250
  6
CONTINUOUS
 90
5
 70
0
 10
138.7825190613
 20
122.07780719
 10
138.7966803032
 20
122.0777411684
 10
138.8158960186
 20
122.0750064734
 10
138.8347654229
 20
122.0692627936
 10
138.8530001755
 20
122.0605978972
  0
LWPOLYLINE
  5
4F2
100
AcDbEntity
  8
ASSI
100
AcDbPolyline
 62
250
  6
CONTINUOUS
 90
6
 70
0
 10
139.6322964788
 20
121.6367591859
 10
139.6152393021
 20
121.6372163828
 10
139.6004536702
 20
121.6365083614
 10
139.5880042753
 20
121.634771617
 10
139.5778945579
 20
121.6320591912
 10
139.5704762206
 20
121.6283083398
  0
LWPOLYLINE
  5
4F3
100
AcDbEntity
  8
ASSI
100
AcDbPolyline
 62
250
  6
CONTINUOUS
 90
3
 70
0
 10
142.5560324991
 20
120.1239063296
 10
142.6010434252
 20
120.1216912827
 10
142.6446870733
 20
120.1211171756
  0
LWPOLYLINE
  5
4F4
100
AcDbEntity
  8
ASSI
100
AcDbPolyline
 62
7
  6
CONTINUOUS
 90
10
 70
0
 10
146.7123143203
 20
119.4624208005
 10
146.6908005873
 20
119.4636668724
 10
146.6696699858
 20
119.4636777713
 10
146.6489225159
 20
119.4624534972
 10
146.6283209098
 20
119.4599445586
 10
146.6081024353
 20
119.4562004471
 10
146.5889788955
 20
119.4513696373
 10
146.5711875581
 20
119.4455016209
 10
146.5544911553
 20
119.4385469063
 10
146.5388896873
 20
119.4305054935
  0
LWPOLYLINE
  5
4F5
100
AcDbEntity
  8
ASSI
100
AcDbPolyline
 62
250
  6
CONTINUOUS
 90
24
 70
0
 10
146.7100729935
 20
120.8634573381
 10
146.7379183934
 20
120.8602571956
 10
146.7659190733
 20
120.8586074916
 10
146.7943313892
 20
120.8585202177
 10
146.8228989852
 20
120.8599833823
 10
146.8508527935
 20
120.8629610098
 10
146.8781712344
 20
120.8674924229
 10
146.9048758876
 20
120.8735382989
 10
146.930262424
 20
120.8809446937
 10
146.9543038086
 20
120.8897506979
 10
146.9770270765
 20
120.8999172208
 10
146.9978090039
 20
120.9111730464
 10
147.0165954603
 20
120.9235511956
 10
147.0334405762
 20
120.9370186474
 10
147.0478835196
 20
120.9512051228
 10
147.0598531068
 20
120.9661269596
 10
147.0694205214
 20
120.98176782
 10
147.0763384823
 20
120.9977084114
 10
147.0805363349
 20
121.0139557472
 10
147.0820847338
 20
121.030502814
 10
147.0809483614
 20
121.0469092789
 10
147.077115445
 20
121.0630283643
 10
147.0705977572
 20
121.0790068477
 10
147.0613952981
 20
121.0948447293
  0
LWPOLYLINE
  5
4F6
100
AcDbEntity
  8
ASSI
100
AcDbPolyline
 62
250
  6
CONTINUOUS
 90
16
 70
0
 10
142.4423737094
 20
119.547313683
 10
142.4286106369
 20
119.5489765324
 10
142.4134768063
 20
119.5513166197
 10
142.3971323249
 20
119.5543091883
 10
142.3797497804
 20
119.5579226511
 10
142.3615133676
 20
119.5621187293
 10
142.3426170833
 20
119.5668527539
 10
142.3232616472
 20
119.5720743573
 10
142.3036511432
 20
119.5777284027
 10
142.2839918771
 20
119.5837553802
 10
142.2644840732
 20
119.5900941215
 10
142.2453420188
 20
119.5966752143
 10
142.2267889921
 20
119.6034212718
 10
142.209025226
 20
119.6102579881
 10
142.1922276958
 20
119.617115689
 10
142.1765693312
 20
119.6239223628
  0
LWPOLYLINE
  5
4F7
100
AcDbEntity
  8
ASSI
100
AcDbPolyline
 62
250
  6
CONTINUOUS
 90
13
 70
0
 10
142.1709887153
 20
118.6736838417
 10
142.1535790523
 20
118.6758669585
 10
142.1340921201
 20
118.6790975115
 10
142.1128493867
 20
118.6833222082
 10
142.0902012849
 20
118.6884713562
 10
142.0665214328
 20
118.6944600121
 10
142.0422004701
 20
118.7011893832
 10
142.017639612
 20
118.7085484578
 10
141.9932440322
 20
118.7164158356
 10
141.96941618
 20
118.7246617302
 10
141.9465491379
 20
118.7331501113
 10
141.9250201372
 20
118.7417409487
 10
141.9051843371
 20
118.7502925215
  0
LWPOLYLINE
  5
4F8
100
AcDbEntity
  8
ASSI
100
AcDbPolyline
 62
250
  6
CONTINUOUS
 90
4
 70
0
 10
141.9980355248
 20
120.2548567201
 10
141.997422213
 20
120.2549431006
 10
141.9944986724
 20
120.2534132655
 10
141.9905903832
 20
120.2489926347
  0
LWPOLYLINE
  5
4F9
100
AcDbEntity
  8
ASSI
100
AcDbPolyline
 62
250
  6
CONTINUOUS
 90
24
 70
0
 10
146.615902209
 20
120.5960035411
 10
146.6563329711
 20
120.5888689487
 10
146.6976630833
 20
120.5837319355
 10
146.7395970629
 20
120.5806292288
 10
146.7818351105
 20
120.579583012
 10
146.8240752512
 20
120.580600766
 10
146.8660154938
 20
120.5836752153
 10
146.9073559982
 20
120.5887843813
 10
146.9478012006
 20
120.5958917371
 10
146.987061927
 20
120.6049464663
 10
147.024857479
 20
120.6158838282
 10
147.0609176565
 20
120.6286256285
 10
147.0949846697
 20
120.643080777
 10
147.1268149626
 20
120.6591459306
 10
147.1561809668
 20
120.6767062339
 10
147.1828727416
 20
120.6956361492
 10
147.2066994648
 20
120.7158003513
 10
147.2274907734
 20
120.737054672
 10
147.2450980004
 20
120.7592471325
 10
147.2593952662
 20
120.7822190588
 10
147.2702803702
 20
120.8058062251
 10
147.277675499
 20
120.8298400032
 10
147.2815277843
 20
120.8541485352
 10
147.2821268809
 20
120.8682766964
  0
LWPOLYLINE
  5
4FA
100
AcDbEntity
  8
ASSI
100
AcDbPolyline
 62
250
  6
CONTINUOUS
 90
27
 70
0
 10
144.7129162918
 20
119.7639445024
 10
144.7054117034
 20
119.7653771413
 10
144.697946114
 20
119.7666005354
 10
144.6905228985
 20
119.7676144379
 10
144.6831945587
 20
119.7684114317
 10
144.6759138794
 20
119.7689986532
 10
144.6685336797
 20
119.7693977837
 10
144.6610202887
 20
119.7696194464
 10
144.6534094228
 20
119.7696529606
 10
144.6456571962
 20
119.7694880859
 10
144.6377643315
 20
119.7691274418
 10
144.6297298085
 20
119.7685684148
 10
144.6215064347
 20
119.7677929314
 10
144.6130870866
 20
119.7668010659
 10
144.6044756425
 20
119.7655928509
 10
144.5956403827
 20
119.7641502053
 10
144.5865719293
 20
119.7624698054
 10
144.5772726697
 20
119.7605554321
 10
144.5677273027
 20
119.7583998175
 10
144.5579293354
 20
119.755998503
 10
144.5478742547
 20
119.7533572746
 10
144.5375488537
 20
119.7504845226
 10
144.5269501688
 20
119.7473773528
 10
144.516066934
 20
119.7440415431
 10
144.5048735535
 20
119.7404988625
 10
144.4933719757
 20
119.7367508463
 10
144.4693368912
 20
119.7286742765
  0
LWPOLYLINE
  5
4FB
100
AcDbEntity
  8
ASSI
100
AcDbPolyline
 62
250
  6
CONTINUOUS
 90
5
 70
0
 10
139.7257485862
 20
121.6234861112
 10
139.6986095017
 20
121.6287962533
 10
139.6739637146
 20
121.6326770688
 10
139.6518328687
 20
121.6352630769
 10
139.6322964788
 20
121.6367591859
  0
LWPOLYLINE
  5
4FC
100
AcDbEntity
  8
ASSI
100
AcDbPolyline
 62
250
  6
CONTINUOUS
 90
21
 70
0
 10
144.7281458608
 20
119.6171514735
 10
144.7246504627
 20
119.6178787592
 10
144.7211792752
 20
119.6183368985
 10
144.71775633
 20
119.6185438013
 10
144.7143660709
 20
119.618501288
 10
144.7109435236
 20
119.6181916131
 10
144.7074567627
 20
119.6176306826
 10
144.7039218926
 20
119.6168149011
 10
144.7003313691
 20
119.615695444
 10
144.696666227
 20
119.6142890721
 10
144.6929171151
 20
119.6125955396
 10
144.6890777154
 20
119.6105441762
 10
144.6851156059
 20
119.6081540896
 10
144.6810147151
 20
119.6054299591
 10
144.6767752076
 20
119.6022862937
 10
144.6723507715
 20
119.5987452379
 10
144.667711887
 20
119.5948209576
 10
144.6628606585
 20
119.5904258847
 10
144.6577342989
 20
119.5855879589
 10
144.6522841702
 20
119.5803329397
 10
144.640308251
 20
119.5683688271
  0
LINE
  5
4FD
100
AcDbEntity
  8
ASSI
100
AcDbLine
 62
250
  6
CONTINUOUS
 10
141.9477191664
 20
120.2606705094
 11
141.9905903829
 21
120.2489926347
  0
LWPOLYLINE
  5
4FE
100
AcDbEntity
  8
ASSI
100
AcDbPolyline
 62
250
  6
CONTINUOUS
 90
3
 70
0
 10
141.8250390591
 20
120.2936902224
 10
141.8649580817
 20
120.2824566811
 10
141.9477191664
 20
120.2606705094
  0
LINE
  5
4FF
100
AcDbEntity
  8
ASSI
100
AcDbLine
 62
250
  6
CONTINUOUS
 10
144.7316611769
 20
119.616145469
 11
144.7281458608
 21
119.6171514735
  0
LWPOLYLINE
  5
500
100
AcDbEntity
  8
ASSI
100
AcDbPolyline
 62
250
  6
CONTINUOUS
 90
11
 70
0
 10
142.0800677185
 20
120.219011385
 10
142.1258558432
 20
120.2051935875
 10
142.1724354923
 20
120.1920950557
 10
142.2197147793
 20
120.1797784089
 10
142.2674180448
 20
120.168431505
 10
142.3156740458
 20
120.1580126697
 10
142.3643540253
 20
120.1485635774
 10
142.4127960534
 20
120.1403971092
 10
142.4611559289
 20
120.13349812
 10
142.509277853
 20
120.1278817549
 10
142.5560324991
 20
120.1239063296
  0
LINE
  5
501
100
AcDbEntity
  8
LAY0001
100
AcDbLine
 62
7
  6
CONTINUOUS
 10
134.9134524747
 20
121.1974096084
 11
134.4114795373
 21
121.3597712295
  0
LINE
  5
502
100
AcDbEntity
  8
ASSI
100
AcDbLine
 62
250
  6
CONTINUOUS
 10
142.0349792318
 20
120.2336110674
 11
142.0800677185
 21
120.219011385
  0
LWPOLYLINE
  5
503
100
AcDbEntity
  8
ASSI
100
AcDbPolyline
 62
250
  6
CONTINUOUS
 90
3
 70
0
 10
141.7504156382
 20
120.3179915114
 10
141.786476609
 20
120.3055769665
 10
141.8250390591
 20
120.2936902224
  0
LINE
  5
504
100
AcDbEntity
  8
ASSI
100
AcDbLine
 62
250
  6
CONTINUOUS
 10
141.9905903829
 20
120.2489926347
 11
142.0349792318
 21
120.2336110674
  0
LINE
  5
505
100
AcDbEntity
  8
ASSI
100
AcDbLine
 62
7
  6
CONTINUOUS
 10
142.0260764482
 20
120.2450641397
 11
141.931618627
 21
120.2781509889
  0
LWPOLYLINE
  5
506
100
AcDbEntity
  8
ASSI
100
AcDbPolyline
 62
7
  6
CONTINUOUS
 90
8
 70
0
 10
141.931618627
 20
120.2781509889
 10
141.89688934
 20
120.290454052
 10
141.8641839792
 20
120.3025496242
 10
141.8336189387
 20
120.3145637625
 10
141.8051166158
 20
120.3266599895
 10
141.7790429809
 20
120.3387657635
 10
141.7554698526
 20
120.3507798135
 10
141.7386910742
 20
120.360094367
  0
LWPOLYLINE
  5
507
100
AcDbEntity
  8
ASSI
100
AcDbPolyline
 62
250
  6
CONTINUOUS
 90
8
 70
0
 10
134.4725672994
 20
122.8925351209
 10
134.4612827176
 20
122.896786121
 10
134.4490946811
 20
122.8991109015
 10
134.4361337786
 20
122.8994845407
 10
134.4225388972
 20
122.8979030289
 10
134.4084557055
 20
122.8943833124
 10
134.3940350895
 20
122.8889631017
 10
134.3794315575
 20
122.8817004702
  0
LWPOLYLINE
  5
508
100
AcDbEntity
  8
RACCORDO
100
AcDbPolyline
 62
250
  6
CONTINUOUS
 90
7
 70
0
 10
147.8627413609
 20
118.2467363687
 10
147.8533452996
 20
118.2509005176
 10
147.8420208393
 20
118.2533069649
 10
147.8297909402
 20
118.2534282153
 10
147.8168602386
 20
118.2512622439
 10
147.8034450801
 20
118.2468453068
 10
147.7897699187
 20
118.2402513231
  0
LWPOLYLINE
  5
509
100
AcDbEntity
  8
RACCORDO
100
AcDbPolyline
 62
250
  6
CONTINUOUS
 90
7
 70
0
 10
140.3004920959
 20
122.6130847985
 10
140.2909656741
 20
122.6173236869
 10
140.2796418914
 20
122.6197297065
 10
140.2674130876
 20
122.6198503071
 10
140.2544838903
 20
122.6176834746
 10
140.2410706522
 20
122.6132654621
 10
140.227397825
 20
122.6066701912
  0
LWPOLYLINE
  5
50A
100
AcDbEntity
  8
RACCORDO
100
AcDbPolyline
 62
250
  6
CONTINUOUS
 90
7
 70
0
 10
139.4815027764
 20
123.0859590138
 10
139.4719214078
 20
123.0902296222
 10
139.4605973385
 20
123.0926358422
 10
139.448368061
 20
123.0927567358
 10
139.4354382042
 20
123.0905902801
 10
139.4220241191
 20
123.0861727258
 10
139.4083502595
 20
123.0795779904
  0
LWPOLYLINE
  5
50B
100
AcDbEntity
  8
ASSI
100
AcDbPolyline
 62
250
  6
CONTINUOUS
 90
7
 70
0
 10
141.7386080109
 20
120.3601424065
 10
141.7314070192
 20
120.3637403031
 10
141.7185885928
 20
120.367789962
 10
141.7047197127
 20
120.3694645057
 10
141.6899825146
 20
120.3687419351
 10
141.6745705445
 20
120.3656317319
 10
141.6586862087
 20
120.3601747356
  0
LWPOLYLINE
  5
50C
100
AcDbEntity
  8
ASSI
100
AcDbPolyline
 62
250
  6
CONTINUOUS
 90
7
 70
0
 10
139.6608391932
 20
121.5598200813
 10
139.6536380876
 20
121.5634180274
 10
139.6408196289
 20
121.5674676769
 10
139.6269507198
 20
121.569142216
 10
139.6122135013
 20
121.5684196529
 10
139.5968015181
 20
121.5653094769
 10
139.5809171764
 20
121.5598525343
  0
LWPOLYLINE
  5
50D
100
AcDbEntity
  8
ASSI
100
AcDbPolyline
 62
250
  6
CONTINUOUS
 90
4
 70
0
 10
141.6586858347
 20
120.3601749515
 10
141.686679811
 20
120.3450741927
 10
141.7172609016
 20
120.3310478384
 10
141.7504156382
 20
120.3179915114
  0
LWPOLYLINE
  5
50E
100
AcDbEntity
  8
RACCORDO
100
AcDbPolyline
 62
250
  6
CONTINUOUS
 90
3
 70
0
 10
140.250741971
 20
122.5935941152
 10
140.2428785431
 20
122.5978768821
 10
140.2350971611
 20
122.6022355741
  0
LWPOLYLINE
  5
50F
100
AcDbEntity
  8
RACCORDO
100
AcDbPolyline
 62
7
  6
CONTINUOUS
 90
13
 70
0
 10
139.4815168461
 20
123.085950887
 10
139.4267294848
 20
123.1158418645
 10
139.3583657684
 20
123.1482892974
 10
139.2902350905
 20
123.1752538664
 10
139.2224812195
 20
123.1966449203
 10
139.1554380607
 20
123.2123387949
 10
139.089645674
 20
123.2222436437
 10
139.0252567409
 20
123.2263840973
 10
138.962544128
 20
123.2247910252
 10
138.9022341794
 20
123.2175936818
 10
138.8447168583
 20
123.2050499897
 10
138.7900523548
 20
123.1874119625
 10
138.7650790901
 20
123.1772991742
  0
LINE
  5
510
100
AcDbEntity
  8
ASSI
100
AcDbLine
 62
7
  6
CONTINUOUS
 10
145.3361061587
 20
117.6449429824
 11
144.5158370019
 21
118.1185561132
  0
LINE
  5
511
100
AcDbEntity
  8
IMPORT_IGES
100
AcDbLine
 62
7
  6
CONTINUOUS
 10
148.7637346333
 20
115.7063804141
 11
154.0577478842
 21
112.6496835126
  0
LINE
  5
512
100
AcDbEntity
  8
ASSI
100
AcDbLine
 62
250
  6
CONTINUOUS
 10
138.4400151374
 20
121.7813619243
 11
142.1765693312
 21
119.6239223628
  0
LINE
  5
513
100
AcDbEntity
  8
ASSI
100
AcDbLine
 62
250
  6
CONTINUOUS
 10
138.5624896245
 20
121.9337241859
 11
142.2990438183
 21
119.7762846244
  0
LINE
  5
514
100
AcDbEntity
  8
ASSI
100
AcDbLine
 62
250
  6
CONTINUOUS
 10
144.8437648481
 20
118.4645758064
 11
144.9613269193
 21
118.3966969399
  0
LINE
  5
515
100
AcDbEntity
  8
ASSI
100
AcDbLine
 62
250
  6
CONTINUOUS
 10
142.4354392443
 20
119.857846632
 11
138.7037500645
 21
122.0124771954
  0
LINE
  5
516
100
AcDbEntity
  8
ASSI
100
AcDbLine
 62
250
  6
CONTINUOUS
 10
139.5809171764
 20
121.5598525343
 11
141.6586858347
 21
120.3601749515
  0
LINE
  5
517
100
AcDbEntity
  8
ASSI
100
AcDbLine
 62
7
  6
CONTINUOUS
 10
139.6608391932
 20
121.5598200813
 11
141.7386080109
 21
120.3601424065
  0
LINE
  5
518
100
AcDbEntity
  8
ASSI
100
AcDbLine
 62
250
  6
CONTINUOUS
 10
142.585025372
 20
119.905773322
 11
141.9905903829
 21
120.2489926347
  0
LINE
  5
519
100
AcDbEntity
  8
ASSI
100
AcDbLine
 62
250
  6
CONTINUOUS
 10
139.4474351647
 20
121.7173785845
 11
138.8530001755
 21
122.0605978972
  0
LINE
  5
51A
100
AcDbEntity
  8
ASSI
100
AcDbLine
 62
7
  6
CONTINUOUS
 10
138.5880412341
 20
122.6284715454
 11
139.4772128802
 21
122.1150749809
  0
LINE
  5
51B
100
AcDbEntity
  8
ASSI
100
AcDbLine
 62
7
  6
CONTINUOUS
 10
145.3310162422
 20
118.7351622851
 11
147.7990786986
 21
117.3101339548
  0
LINE
  5
51C
100
AcDbEntity
  8
ASSI
100
AcDbLine
 62
250
  6
CONTINUOUS
 10
144.6217969484
 20
119.9565704092
 11
144.1930661756
 21
120.2041141842
  0
LINE
  5
51D
100
AcDbEntity
  8
ASSI
100
AcDbLine
 62
250
  6
CONTINUOUS
 10
141.2258477716
 20
121.9173489027
 11
140.7971169989
 21
122.1648926776
  0
LINE
  5
51E
100
AcDbEntity
  8
RACCORDO
100
AcDbLine
 62
250
  6
CONTINUOUS
 10
139.4083502595
 20
123.0795779904
 11
140.2350971611
 21
122.6022355741
  0
LINE
  5
51F
100
AcDbEntity
  8
RACCORDO
100
AcDbLine
 62
7
  6
CONTINUOUS
 10
148.6819700009
 20
117.7737245473
 11
147.8629267726
 21
118.2466298423
  0
LINE
  5
520
100
AcDbEntity
  8
RACCORDO
100
AcDbLine
 62
7
  6
CONTINUOUS
 10
139.4815027764
 20
123.0859590138
 11
140.300547109
 21
122.6130530811
  0
LINE
  5
521
100
AcDbEntity
  8
ASSI
100
AcDbLine
 62
250
  6
CONTINUOUS
 10
144.422068683
 20
120.3032322626
 11
142.2835210616
 21
121.5380028569
  0
LINE
  5
522
100
AcDbEntity
  8
ASSI
100
AcDbLine
 62
250
  6
CONTINUOUS
 10
144.5399617075
 20
120.3694581532
 11
142.4353696063
 21
121.5846232557
  0
LINE
  5
523
100
AcDbEntity
  8
ASSI
100
AcDbLine
 62
250
  6
CONTINUOUS
 10
145.0710033539
 20
120.1000917969
 11
144.635418072
 21
120.3515932794
  0
LINE
  5
524
100
AcDbEntity
  8
ASSI
100
AcDbLine
 62
250
  6
CONTINUOUS
 10
141.6800045914
 20
122.0580119831
 11
141.2444193096
 21
122.3095134657
  0
LINE
  5
525
100
AcDbEntity
  8
ASSI
100
AcDbLine
 62
7
  6
CONTINUOUS
 10
145.0732123161
 20
120.6720199613
 11
143.4500136658
 21
121.6092345185
  0
LINE
  5
526
100
AcDbEntity
  8
IMPORT_IGES
100
AcDbLine
 62
250
  6
CONTINUOUS
 10
160.7651634788
 20
111.8567789692
 11
150.9373882932
 21
117.5312131904
  0
LINE
  5
527
100
AcDbEntity
  8
IMPORT_IGES
100
AcDbLine
 62
7
  6
CONTINUOUS
 10
160.9151707269
 20
111.8716413225
 11
151.0090051264
 21
117.5913371868
  0
LINE
  5
528
100
AcDbEntity
  8
RACCORDO
100
AcDbLine
 62
250
  6
CONTINUOUS
 10
148.6088174844
 20
117.7673435237
 11
147.7820805159
 21
118.2447023699
  0
LWPOLYLINE
  5
529
100
AcDbEntity
  8
RACCORDO
100
AcDbPolyline
 62
7
  6
CONTINUOUS
 90
6
 70
0
 10
147.8627416097
 20
118.246736801
 10
147.8583049318
 20
118.2493423468
 10
147.848226663
 20
118.2556526537
 10
147.8406360689
 20
118.2609188659
 10
147.8352667116
 20
118.2650897951
 10
147.8320403423
 20
118.2679277091
  0
LWPOLYLINE
  5
52A
100
AcDbEntity
  8
ASSI
100
AcDbPolyline
 62
7
  6
CONTINUOUS
 90
10
 70
0
 10
139.6608776042
 20
121.5597978862
 10
139.6494363781
 20
121.5665929758
 10
139.6254529138
 20
121.5821968098
 10
139.6056628972
 20
121.5967632637
 10
139.5895444184
 20
121.6101167536
 10
139.5762348684
 20
121.6224054853
 10
139.5654160169
 20
121.63349526
 10
139.557027073
 20
121.6429994211
 10
139.5508161998
 20
121.6506971018
 10
139.5485939915
 20
121.6536301674
  0
LWPOLYLINE
  5
52B
100
AcDbEntity
  8
RACCORDO
100
AcDbPolyline
 62
250
  6
CONTINUOUS
 90
48
 70
0
 10
147.7820805159
 20
118.2447023699
 10
147.7745332132
 20
118.2491941691
 10
147.7671280109
 20
118.2537267205
 10
147.7598804321
 20
118.2582734105
 10
147.7527749536
 20
118.2628608526
 10
147.7457650055
 20
118.267568888
 10
147.7388393927
 20
118.2723991957
 10
147.7320093103
 20
118.2773500966
 10
147.7252617728
 20
118.282496394
 10
147.7185653729
 20
118.2878579453
 10
147.711951518
 20
118.2934148931
 10
147.7055014445
 20
118.2991824677
 10
147.6991956884
 20
118.3051877603
 10
147.6930537138
 20
118.3114036797
 10
147.6872151495
 20
118.3177641821
 10
147.6816906887
 20
118.3242847134
 10
147.6764696383
 20
118.3309498278
 10
147.6716595482
 20
118.3376471438
 10
147.6672950058
 20
118.3443499892
 10
147.6633414237
 20
118.3510850361
 10
147.6598025898
 20
118.3578199197
 10
147.6566827499
 20
118.3645519704
 10
147.6539776582
 20
118.3712838577
 10
147.6516783643
 20
118.3779912251
 10
147.6497861544
 20
118.3846739176
 10
147.6482997424
 20
118.3913320903
 10
147.6472063198
 20
118.3979418519
 10
147.6465060713
 20
118.4044999829
 10
147.6461988122
 20
118.4110097029
 10
147.6462711796
 20
118.417456779
 10
147.6467199459
 20
118.4238376255
 10
147.6475483387
 20
118.4301558281
 10
147.6487526782
 20
118.4364079118
 10
147.6503269881
 20
118.4425932271
 10
147.6522772447
 20
118.4487124234
 10
147.6546176972
 20
118.4547639742
 10
147.6573448028
 20
118.4607538717
 10
147.6604621043
 20
118.4666761236
 10
147.6639944787
 20
118.4725112263
 10
147.6679403965
 20
118.4782636846
 10
147.6723013873
 20
118.4839289937
 10
147.6771069167
 20
118.4894741352
 10
147.682364371
 20
118.4949057038
 10
147.688066364
 20
118.5002171048
 10
147.6942202032
 20
118.505355536
 10
147.7008283242
 20
118.5103033965
 10
147.7078882914
 20
118.5150782871
 10
147.7154001046
 20
118.5196802078
  0
LINE
  5
52C
100
AcDbEntity
  8
RACCORDO
100
AcDbLine
 62
250
  6
CONTINUOUS
 10
148.6568973201
 20
117.7382605085
 11
148.6088174844
 21
117.7673435237
  0
LWPOLYLINE
  5
52D
100
AcDbEntity
  8
IMPORT_IGES
100
AcDbPolyline
 62
7
  6
CONTINUOUS
 90
12
 70
0
 10
154.0577476826
 20
112.649683629
 10
154.0943326652
 20
112.6268559533
 10
154.1629834229
 20
112.5745208414
 10
154.2254558107
 20
112.5128688345
 10
154.2818334906
 20
112.4420304694
 10
154.3311809676
 20
112.3630822839
 10
154.3734029823
 20
112.2759027618
 10
154.4085947942
 20
112.1806134192
 10
154.4361066862
 20
112.0786553422
 10
154.4557220861
 20
111.9705088927
 10
154.4676575661
 20
111.8556937087
 10
154.4719131263
 20
111.7342097903
  0
LINE
  5
52E
100
AcDbEntity
  8
ASSI
100
AcDbLine
 62
250
  6
CONTINUOUS
 10
139.5534624192
 20
121.5772872706
 11
139.5809171764
 21
121.5598525343
  0
LINE
  5
52F
100
AcDbEntity
  8
RACCORDO
100
AcDbLine
 62
250
  6
CONTINUOUS
 10
148.7067901807
 20
117.7052284104
 11
148.6568973201
 21
117.7382605085
  0
LWPOLYLINE
  5
530
100
AcDbEntity
  8
ASSI
100
AcDbPolyline
 62
250
  6
CONTINUOUS
 90
10
 70
0
 10
144.8161311501
 20
119.7188041998
 10
144.8059105436
 20
119.7264404455
 10
144.7951591234
 20
119.7334619114
 10
144.7839534809
 20
119.7398225866
 10
144.7722608395
 20
119.7454462576
 10
144.7602429957
 20
119.7503584005
 10
144.7482437272
 20
119.7546698358
 10
144.7363911726
 20
119.7584016076
 10
144.7246099634
 20
119.7614977364
 10
144.7129169091
 20
119.7639483021
  0
LWPOLYLINE
  5
531
100
AcDbEntity
  8
RACCORDO
100
AcDbPolyline
 62
250
  6
CONTINUOUS
 90
5
 70
0
 10
147.24496507
 20
124.3539352049
 10
147.2525754015
 20
124.343578886
 10
147.259890933
 20
124.3324970482
 10
147.2668448116
 20
124.3207323892
 10
147.2733866724
 20
124.3083016747
  0
LWPOLYLINE
  5
532
100
AcDbEntity
  8
ASSI
100
AcDbPolyline
 62
250
  6
CONTINUOUS
 90
12
 70
0
 10
147.226810321
 20
121.0439687125
 10
147.2226313517
 20
121.0497280363
 10
147.2120175786
 20
121.0616580906
 10
147.1997535584
 20
121.0721626583
 10
147.1859736604
 20
121.0811266466
 10
147.1708288598
 20
121.0884518441
 10
147.154485087
 20
121.0940579942
 10
147.1371214069
 20
121.0978836753
 10
147.1189280564
 20
121.0998869726
 10
147.1001043639
 20
121.1000459365
 10
147.0808565665
 20
121.0983588243
 10
147.0613955468
 20
121.0948441196
  0
LWPOLYLINE
  5
533
100
AcDbEntity
  8
RACCORDO
100
AcDbPolyline
 62
250
  6
CONTINUOUS
 90
7
 70
0
 10
152.1644902531
 20
120.8547517629
 10
152.1590119049
 20
120.8653546235
 10
152.1530602047
 20
120.8761067476
 10
152.1466370619
 20
120.8869462233
 10
152.1397713987
 20
120.8977774032
 10
152.1324534669
 20
120.9085726369
 10
152.1246951304
 20
120.91927182
  0
LWPOLYLINE
  5
534
100
AcDbEntity
  8
RACCORDO
100
AcDbPolyline
 62
250
  6
CONTINUOUS
 90
4
 70
0
 10
150.3700791004
 20
122.5059031082
 10
150.3651105861
 20
122.5177028655
 10
150.3594313092
 20
122.529488333
 10
150.3530284206
 20
122.5411931808
  0
LWPOLYLINE
  5
535
100
AcDbEntity
  8
IMPORT_IGES
100
AcDbPolyline
 62
250
  6
CONTINUOUS
 90
13
 70
0
 10
160.9772955132
 20
111.4893555081
 10
160.9754806942
 20
111.5223745887
 10
160.9700672894
 20
111.5569244112
 10
160.9611479236
 20
111.5924138184
 10
160.9488752095
 20
111.6282355768
 10
160.9334591369
 20
111.6637767662
 10
160.9151634788
 20
111.6984292669
 10
160.8943012792
 20
111.7316001651
 10
160.871229496
 20
111.7627218975
 10
160.8463428939
 20
111.7912619626
 10
160.8200672894
 20
111.816732032
 10
160.7928522655
 20
111.8386963058
 10
160.7651634788
 20
111.8567789692
  0
LINE
  5
536
100
AcDbEntity
  8
LAY0001
100
AcDbLine
 62
250
  6
CONTINUOUS
 10
142.8401163547
 20
71.9697519893
 11
145.2441696318
 21
73.216147536
  0
LINE
  5
537
100
AcDbEntity
  8
LAY0001
100
AcDbLine
 62
7
  6
CONTINUOUS
 10
142.7260757343
 20
71.7352743964
 11
145.1340537444
 21
72.983704744
  0
LWPOLYLINE
  5
538
100
AcDbEntity
  8
LAY0001
100
AcDbPolyline
 62
250
  6
CONTINUOUS
 90
16
 70
0
 10
142.8401163547
 20
71.9697519893
 10
142.8008893819
 20
71.950379621
 10
142.7584124134
 20
71.933445653
 10
142.7131381899
 20
71.9191305413
 10
142.6655437962
 20
71.9075856911
 10
142.6161415537
 20
71.8989359051
 10
142.565475354
 20
71.8932747615
 10
142.5140970755
 20
71.8906597262
 10
142.4625431155
 20
71.8911139651
 10
142.4113458905
 20
71.894631077
 10
142.3609808528
 20
71.901184519
 10
142.3120562406
 20
71.9107013797
 10
142.2652696988
 20
71.9230269921
 10
142.2211459329
 20
71.9379776061
 10
142.180054335
 20
71.9553802481
 10
142.1423856763
 20
71.975025728
  0
LWPOLYLINE
  5
539
100
AcDbEntity
  8
RACCORDO
100
AcDbPolyline
 62
250
  6
CONTINUOUS
 90
11
 70
0
 10
138.8405858077
 20
123.20069817
 10
138.885652818
 20
123.2090573244
 10
138.9321909939
 20
123.2136230449
 10
138.9804995461
 20
123.2143909673
 10
139.0318268605
 20
123.211139476
 10
139.0863406059
 20
123.2034241557
 10
139.1437616088
 20
123.1908513524
 10
139.2047611314
 20
123.1727830394
 10
139.2694694031
 20
123.1485471041
 10
139.3374241392
 20
123.1176528607
 10
139.4083502637
 20
123.0795779927
  0
LINE
  5
53A
100
AcDbEntity
  8
ASSI
100
AcDbLine
 62
250
  6
CONTINUOUS
 10
145.6929612876
 20
124.4041155866
 11
145.6754806746
 21
124.4009570744
  0
LWPOLYLINE
  5
53B
100
AcDbEntity
  8
ASSI
100
AcDbPolyline
 62
250
  6
CONTINUOUS
 90
5
 70
0
 10
143.2304869477
 20
123.4525161011
 10
143.1932418009
 20
123.4471096146
 10
143.1552177349
 20
123.4438662604
 10
143.1164484417
 20
123.4426933277
 10
143.0781484663
 20
123.4435939002
  0
LWPOLYLINE
  5
53C
100
AcDbEntity
  8
ASSI
100
AcDbPolyline
 62
7
  6
CONTINUOUS
 90
6
 70
0
 10
145.7708354483
 20
124.4177886806
 10
145.7604138308
 20
124.4167389257
 10
145.7348767747
 20
124.4134137777
 10
145.7098113069
 20
124.4090236232
 10
145.6852062875
 20
124.4035030925
 10
145.6754193598
 20
124.4009403128
  0
LWPOLYLINE
  5
53D
100
AcDbEntity
  8
ASSI
100
AcDbPolyline
 62
250
  6
CONTINUOUS
 90
12
 70
0
 10
145.8258479074
 20
124.3975015946
 10
145.8205941634
 20
124.3969843925
 10
145.8154008176
 20
124.3964096296
 10
145.81026787
 20
124.3957773059
 10
145.8052173485
 20
124.3950926874
 10
145.8002272251
 20
124.3943505081
 10
145.795231416
 20
124.3935349702
 10
145.790216918
 20
124.3926477188
 10
145.7851967343
 20
124.3916871088
 10
145.7801437908
 20
124.3906324064
 10
145.7750490627
 20
124.3894767004
 10
145.7699215748
 20
124.388226902
  0
LINE
  5
53E
100
AcDbEntity
  8
RACCORDO
100
AcDbLine
 62
250
  6
CONTINUOUS
 10
147.0114120384
 20
124.5072755266
 11
145.8258479074
 21
124.3975015946
  0
LINE
  5
53F
100
AcDbEntity
  8
ASSI
100
AcDbLine
 62
7
  6
CONTINUOUS
 10
146.9526909661
 20
124.5272192317
 11
145.7708058138
 21
124.4177859442
  0
LWPOLYLINE
  5
540
100
AcDbEntity
  8
RACCORDO
100
AcDbPolyline
 62
250
  6
CONTINUOUS
 90
8
 70
0
 10
140.5816484719
 20
122.5239986495
 10
140.5707210735
 20
122.5232145072
 10
140.5596811882
 20
122.5226415204
 10
140.5485299957
 20
122.5222827045
 10
140.5372777183
 20
122.5221401004
 10
140.5259216649
 20
122.5222118404
 10
140.5144645265
 20
122.5224997923
 10
140.502924598
 20
122.5230116001
  0
LINE
  5
541
100
AcDbEntity
  8
RACCORDO
100
AcDbLine
 62
250
  6
CONTINUOUS
 10
146.9526870112
 20
124.5272188655
 11
146.9570520326
 21
124.5274721892
  0
LWPOLYLINE
  5
542
100
AcDbEntity
  8
ASSI
100
AcDbPolyline
 62
250
  6
CONTINUOUS
 90
6
 70
0
 10
140.7267713107
 20
122.1821091539
 10
140.7362330643
 20
122.1822367579
 10
140.7518152486
 20
122.1808416668
 10
140.7672576326
 20
122.1774609775
 10
140.7824043958
 20
122.1721270865
 10
140.7971036284
 20
122.1648919603
  0
LINE
  5
543
100
AcDbEntity
  8
RACCORDO
100
AcDbLine
 62
250
  6
CONTINUOUS
 10
146.9570520326
 20
124.5274721892
 11
146.9652524388
 21
124.5271546535
  0
LWPOLYLINE
  5
544
100
AcDbEntity
  8
RACCORDO
100
AcDbPolyline
 62
250
  6
CONTINUOUS
 90
10
 70
0
 10
140.502924598
 20
122.5230116001
 10
140.4912923536
 20
122.5237475365
 10
140.4795773191
 20
122.5247073289
 10
140.4678263668
 20
122.5258978029
 10
140.4560418317
 20
122.5273194447
 10
140.4442213789
 20
122.5289717682
 10
140.4324048763
 20
122.5308601405
 10
140.4205853086
 20
122.53298744
 10
140.408769691
 20
122.5353507883
 10
140.397018938
 20
122.5379469172
  0
LWPOLYLINE
  5
545
100
AcDbEntity
  8
ASSI
100
AcDbPolyline
 62
250
  6
CONTINUOUS
 90
23
 70
0
 10
142.9122599727
 20
123.4678089172
 10
142.8843765766
 20
123.4700239912
 10
142.8559869974
 20
123.4706859207
 10
142.8273481609
 20
123.4698015045
 10
142.7992308443
 20
123.4673911393
 10
142.7716542259
 20
123.463415089
 10
142.7445991275
 20
123.4579130897
 10
142.7187787913
 20
123.4510247456
 10
142.6942178672
 20
123.4427104443
 10
142.6708917052
 20
123.4330097983
 10
142.6494395977
 20
123.4221812497
 10
142.6299136365
 20
123.4101907031
 10
142.6122617298
 20
123.397072254
 10
142.5969668935
 20
123.3831866315
 10
142.5840992759
 20
123.3685160669
 10
142.5735887288
 20
123.353078329
 10
142.5657078238
 20
123.3372874529
 10
142.5605267475
 20
123.3211350011
 10
142.5579753133
 20
123.3046294111
 10
142.5581155335
 20
123.2882100308
 10
142.5609680788
 20
123.2720233097
 10
142.5665122784
 20
123.2559227983
 10
142.5747481324
 20
123.2399084967
  0
LWPOLYLINE
  5
546
100
AcDbEntity
  8
ASSI
100
AcDbPolyline
 62
250
  6
CONTINUOUS
 90
3
 70
0
 10
143.0781484663
 20
123.4435939002
 10
143.0407226572
 20
123.4465690057
 10
143.003766166
 20
123.4516176164
  0
LINE
  5
547
100
AcDbEntity
  8
ASSI
100
AcDbLine
 62
250
  6
CONTINUOUS
 10
142.9398941114
 20
123.4640474975
 11
142.9122599727
 21
123.4678089172
  0
LWPOLYLINE
  5
548
100
AcDbEntity
  8
ASSI
100
AcDbPolyline
 62
250
  6
CONTINUOUS
 90
8
 70
0
 10
143.0114627699
 20
123.4905032879
 10
143.0102117365
 20
123.4907400235
 10
143.0037984025
 20
123.4906124644
 10
142.9969848541
 20
123.488346631
 10
142.9898457418
 20
123.4839673478
 10
142.982459283
 20
123.4775225949
 10
142.9749064053
 20
123.4690829821
 10
142.9672698597
 20
123.4587409753
  0
LINE
  5
549
100
AcDbEntity
  8
ASSI
100
AcDbLine
 62
250
  6
CONTINUOUS
 10
143.003766166
 20
123.4516176164
 11
142.9398941114
 21
123.4640474975
  0
LWPOLYLINE
  5
54A
100
AcDbEntity
  8
ASSI
100
AcDbPolyline
 62
250
  6
CONTINUOUS
 90
5
 70
0
 10
144.1264090614
 20
123.9505500631
 10
144.1100585369
 20
123.9541906782
 10
144.0944766003
 20
123.9550485587
 10
144.079901103
 20
123.9531106093
 10
144.0665545338
 20
123.9484064122
  0
LWPOLYLINE
  5
54B
100
AcDbEntity
  8
RACCORDO
100
AcDbPolyline
 62
250
  6
CONTINUOUS
 90
16
 70
0
 10
140.397018938
 20
122.5379469172
 10
140.3852844639
 20
122.5407970464
 10
140.3736148543
 20
122.5438799563
 10
140.3622167801
 20
122.54712872
 10
140.351127251
 20
122.550545935
 10
140.3403092573
 20
122.5541290038
 10
140.32985844
 20
122.5578032082
 10
140.3198152347
 20
122.5615588817
 10
140.3101392058
 20
122.5654056907
 10
140.3008046875
 20
122.5692979155
 10
140.2918466799
 20
122.5732173326
 10
140.2832301829
 20
122.5771821655
 10
140.2748245301
 20
122.5812013651
 10
140.266629099
 20
122.5852707289
 10
140.2586445121
 20
122.5893944595
 10
140.250741971
 20
122.5935941152
  0
LWPOLYLINE
  5
54C
100
AcDbEntity
  8
ASSI
100
AcDbPolyline
 62
250
  6
CONTINUOUS
 90
6
 70
0
 10
144.2522455896
 20
123.9739185731
 10
144.2344498123
 20
123.9825890284
 10
144.2163675581
 20
123.9884028387
 10
144.1982742677
 20
123.9912714443
 10
144.18044555
 20
123.9911511485
 10
144.1629653475
 20
123.9879927483
  0
LINE
  5
54D
100
AcDbEntity
  8
ASSI
100
AcDbLine
 62
250
  6
CONTINUOUS
 10
147.48334775
 20
122.0152561713
 11
147.5011949792
 21
122.006256949
  0
LWPOLYLINE
  5
54E
100
AcDbEntity
  8
ASSI
100
AcDbPolyline
 62
250
  6
CONTINUOUS
 90
3
 70
0
 10
144.1604096159
 20
123.9351845479
 10
144.1432785897
 20
123.9441822859
 10
144.1264090614
 20
123.9505500631
  0
LINE
  5
54F
100
AcDbEntity
  8
ASSI
100
AcDbLine
 62
250
  6
CONTINUOUS
 10
147.8865668619
 20
121.7837480538
 11
147.5011949792
 21
122.006256949
  0
LINE
  5
550
100
AcDbEntity
  8
ASSI
100
AcDbLine
 62
250
  6
CONTINUOUS
 10
144.5457814986
 20
123.7126756527
 11
144.1604096159
 21
123.9351845479
  0
LINE
  5
551
100
AcDbEntity
  8
ASSI
100
AcDbLine
 62
250
  6
CONTINUOUS
 10
147.9777435902
 20
121.822862719
 11
147.592322515
 21
122.0454000173
  0
LINE
  5
552
100
AcDbEntity
  8
ASSI
100
AcDbLine
 62
250
  6
CONTINUOUS
 10
144.6376666647
 20
123.7513812747
 11
144.2522455896
 21
123.9739185731
  0
LWPOLYLINE
  5
553
100
AcDbEntity
  8
ASSI
100
AcDbPolyline
 62
250
  6
CONTINUOUS
 90
13
 70
0
 10
147.8865668619
 20
121.7837480538
 10
147.9043089253
 20
121.772610507
 10
147.9217801636
 20
121.7591503559
 10
147.9387138859
 20
121.7435730641
 10
147.9548516061
 20
121.7261164123
 10
147.9699469888
 20
121.7070468688
 10
147.9837696095
 20
121.686655522
 10
147.9961084717
 20
121.6652536371
 10
148.006775228
 20
121.6431679048
 10
148.0156070547
 20
121.6207354544
 10
148.022469138
 20
121.5982987077
 10
148.0272567309
 20
121.576200152
 10
148.029896753
 20
121.5547771124
  0
LWPOLYLINE
  5
554
100
AcDbEntity
  8
ASSI
100
AcDbPolyline
 62
250
  6
CONTINUOUS
 90
13
 70
0
 10
147.9777435902
 20
121.822862719
 10
147.9947893433
 20
121.8114161114
 10
148.0110178902
 20
121.7974192952
 10
148.0261820272
 20
121.781085479
 10
148.0400507641
 20
121.7626634702
 10
148.0524128431
 20
121.7424338851
 10
148.0630799571
 20
121.720704874
 10
148.0718896174
 20
121.6978074274
 10
148.0787076295
 20
121.6740903343
 10
148.0834301371
 20
121.649914869
 10
148.0859852037
 20
121.6256492883
 10
148.0863339088
 20
121.6016632213
 10
148.0844709409
 20
121.5783220395
  0
LWPOLYLINE
  5
555
100
AcDbEntity
  8
ASSI
100
AcDbPolyline
 62
250
  6
CONTINUOUS
 90
6
 70
0
 10
145.8258479074
 20
124.3975015946
 10
145.8133729947
 20
124.4066477219
 10
145.8005613421
 20
124.4131698705
 10
145.7875917567
 20
124.4169770133
 10
145.7746452498
 20
124.4180160153
 10
145.7708354483
 20
124.4177886806
  0
LINE
  5
556
100
AcDbEntity
  8
RACCORDO
100
AcDbLine
 62
250
  6
CONTINUOUS
 10
152.6936640312
 20
119.8536707316
 11
152.3493829195
 21
120.1225493798
  0
LINE
  5
557
100
AcDbEntity
  8
RACCORDO
100
AcDbLine
 62
7
  6
CONTINUOUS
 10
152.7657247658
 20
119.8608619663
 11
152.421443654
 21
120.1297406146
  0
LWPOLYLINE
  5
558
100
AcDbEntity
  8
RACCORDO
100
AcDbPolyline
 62
7
  6
CONTINUOUS
 90
18
 70
0
 10
152.4214171997
 20
120.1297612534
 10
152.4159243351
 20
120.1341467394
 10
152.399291591
 20
120.1485780431
 10
152.3820316412
 20
120.1654327316
 10
152.364561102
 20
120.1845710367
 10
152.3474640905
 20
120.2055366061
 10
152.3310123114
 20
120.228108154
 10
152.3154523156
 20
120.252043338
 10
152.301212231
 20
120.2767038402
 10
152.2884759691
 20
120.3016935217
 10
152.2773238861
 20
120.326737781
 10
152.2678972824
 20
120.3513317765
 10
152.2602132489
 20
120.3751352626
 10
152.2542264594
 20
120.397907291
 10
152.2498882621
 20
120.4193119275
 10
152.247082708
 20
120.4391564516
 10
152.2456742599
 20
120.4571795632
 10
152.2454244443
 20
120.4680608323
  0
LINE
  5
559
100
AcDbEntity
  8
RACCORDO
100
AcDbLine
 62
250
  6
CONTINUOUS
 10
152.7157079083
 20
119.8350201466
 11
152.6936641169
 21
119.8536707814
  0
LWPOLYLINE
  5
55A
100
AcDbEntity
  8
RACCORDO
100
AcDbPolyline
 62
250
  6
CONTINUOUS
 90
16
 70
0
 10
152.3493827992
 20
120.12254931
 10
152.3326502277
 20
120.1368009242
 10
152.3166235081
 20
120.1523838117
 10
152.3014262043
 20
120.1690781987
 10
152.2871925872
 20
120.186626101
 10
152.2739721397
 20
120.2048542139
 10
152.2617501992
 20
120.2236978714
 10
152.2506372664
 20
120.2429042231
 10
152.2406372823
 20
120.2623715748
 10
152.2316339107
 20
120.2823133708
 10
152.2237424443
 20
120.3025352439
 10
152.2170267104
 20
120.32292345
 10
152.2114449086
 20
120.3438212104
 10
152.2071524384
 20
120.3651942765
 10
152.2043864812
 20
120.3866333431
 10
152.2033253157
 20
120.4078670334
  0
LWPOLYLINE
  5
55B
100
AcDbEntity
  8
RACCORDO
100
AcDbPolyline
 62
250
  6
CONTINUOUS
 90
9
 70
0
 10
152.1246951304
 20
120.91927182
 10
152.1165745966
 20
120.9297378149
 10
152.1081586488
 20
120.9398710663
 10
152.0994168662
 20
120.9496948949
 10
152.090286084
 20
120.9592521814
 10
152.080816106
 20
120.9684565198
 10
152.0709946528
 20
120.9772864811
 10
152.0606543263
 20
120.9858355628
 10
152.0497517265
 20
120.9940531257
  0
LWPOLYLINE
  5
55C
100
AcDbEntity
  8
RACCORDO
100
AcDbPolyline
 62
250
  6
CONTINUOUS
 90
4
 70
0
 10
152.7731407614
 20
119.7674408269
 10
152.7556924411
 20
119.7914295544
 10
152.7364722976
 20
119.8141173712
 10
152.7157079083
 20
119.8350201466
  0
LWPOLYLINE
  5
55D
100
AcDbEntity
  8
RACCORDO
100
AcDbPolyline
 62
250
  6
CONTINUOUS
 90
9
 70
0
 10
150.3459336658
 20
122.5527010162
 10
150.3381932148
 20
122.5638899575
 10
150.3297858673
 20
122.5747465971
 10
150.3206409537
 20
122.5853021144
 10
150.3107897412
 20
122.5954370769
 10
150.3002273401
 20
122.6050821496
 10
150.2887980879
 20
122.6142813945
 10
150.2764539722
 20
122.62292631
 10
150.2632856247
 20
122.630800544
  0
LINE
  5
55E
100
AcDbEntity
  8
RACCORDO
100
AcDbLine
 62
250
  6
CONTINUOUS
 10
150.3530284206
 20
122.5411931808
 11
150.3459336658
 21
122.5527010162
  0
LWPOLYLINE
  5
55F
100
AcDbEntity
  8
RACCORDO
100
AcDbPolyline
 62
250
  6
CONTINUOUS
 90
3
 70
0
 10
152.8022225653
 20
119.7171575679
 10
152.7886756943
 20
119.7425713052
 10
152.7731407614
 20
119.7674408269
  0
LWPOLYLINE
  5
560
100
AcDbEntity
  8
ASSI
100
AcDbPolyline
 62
250
  6
CONTINUOUS
 90
3
 70
0
 10
145.7288832957
 20
124.4013672768
 10
145.7107900053
 20
124.4042358824
 10
145.6929612876
 20
124.4041155866
  0
LWPOLYLINE
  5
561
100
AcDbEntity
  8
RACCORDO
100
AcDbPolyline
 62
250
  6
CONTINUOUS
 90
6
 70
0
 10
146.9652524388
 20
124.5271546535
 10
146.9737620929
 20
124.5257709644
 10
146.9826780749
 20
124.5232091107
 10
146.9919936939
 20
124.5193369214
 10
147.0015972213
 20
124.5140576049
 10
147.0114120384
 20
124.5072755266
  0
LWPOLYLINE
  5
562
100
AcDbEntity
  8
RACCORDO
100
AcDbPolyline
 62
250
  6
CONTINUOUS
 90
4
 70
0
 10
147.0521380547
 20
124.5063106368
 10
147.0396423081
 20
124.5095145913
 10
147.0259707364
 20
124.5098385012
 10
147.0114120384
 20
124.5072755266
  0
LWPOLYLINE
  5
563
100
AcDbEntity
  8
RACCORDO
100
AcDbPolyline
 62
250
  6
CONTINUOUS
 90
7
 70
0
 10
145.2561031626
 20
124.9667118023
 10
145.2465513946
 20
124.9709653332
 10
145.2352273251
 20
124.9733715532
 10
145.2229980477
 20
124.9734924469
 10
145.2100681909
 20
124.9713259911
 10
145.196654106
 20
124.9669084367
 10
145.1829802469
 20
124.9603137011
  0
LWPOLYLINE
  5
564
100
AcDbEntity
  8
ASSI
100
AcDbPolyline
 62
250
  6
CONTINUOUS
 90
13
 70
0
 10
149.5557541578
 20
122.2439004723
 10
149.575617388
 20
122.2343749609
 10
149.5946925481
 20
122.2224860629
 10
149.6127134136
 20
122.2083997068
 10
149.6294284745
 20
122.1923124903
 10
149.6446044455
 20
122.1744489362
 10
149.6580295216
 20
122.1550583591
 10
149.6695163343
 20
122.1344113854
 10
149.6789045669
 20
122.1127961767
 10
149.6860631915
 20
122.0905144078
 10
149.690892298
 20
122.0678770564
 10
149.6933244886
 20
122.045200063
 10
149.6933258182
 20
122.0227999213
  0
LINE
  5
565
100
AcDbEntity
  8
RACCORDO
100
AcDbLine
 62
250
  6
CONTINUOUS
 10
147.058874618
 20
124.5030807453
 11
147.0555967583
 21
124.5049294417
  0
LWPOLYLINE
  5
566
100
AcDbEntity
  8
RACCORDO
100
AcDbPolyline
 62
250
  6
CONTINUOUS
 90
5
 70
0
 10
147.2359251222
 20
124.4008541254
 10
147.2290994593
 20
124.4041353469
 10
147.2166037093
 20
124.4073393111
 10
147.2029321273
 20
124.4076632257
 10
147.1883734118
 20
124.4051002475
  0
LWPOLYLINE
  5
567
100
AcDbEntity
  8
ASSI
100
AcDbPolyline
 62
250
  6
CONTINUOUS
 90
3
 70
0
 10
145.764761327
 20
124.3868830112
 10
145.7469655498
 20
124.3955534665
 10
145.7288832957
 20
124.4013672768
  0
LINE
  5
568
100
AcDbEntity
  8
RACCORDO
100
AcDbLine
 62
250
  6
CONTINUOUS
 10
150.2632856247
 20
122.630800544
 11
150.249345457
 21
122.6377333515
  0
LWPOLYLINE
  5
569
100
AcDbEntity
  8
RACCORDO
100
AcDbPolyline
 62
7
  6
CONTINUOUS
 90
8
 70
0
 10
150.1198470406
 20
122.7357136326
 10
150.1001527211
 20
122.7456147991
 10
150.0804143827
 20
122.7528440501
 10
150.0600011583
 20
122.7577356119
 10
150.0390158138
 20
122.7601777688
 10
150.0177648381
 20
122.7600359159
 10
149.9966381993
 20
122.7572403933
 10
149.9838326098
 20
122.7541907708
  0
LWPOLYLINE
  5
56A
100
AcDbEntity
  8
RACCORDO
100
AcDbPolyline
 62
7
  6
CONTINUOUS
 90
10
 70
0
 10
145.2561031626
 20
124.9667118023
 10
145.2356492909
 20
124.977230798
 10
145.2124755532
 20
124.986242776
 10
145.1889354255
 20
124.992449787
 10
145.1652825342
 20
124.9957948125
 10
145.1417851076
 20
124.9962777802
 10
145.1188339468
 20
124.9939614797
 10
145.0968024671
 20
124.9889885159
 10
145.0759562364
 20
124.9815467532
 10
145.0608809546
 20
124.9742915196
  0
LWPOLYLINE
  5
56B
100
AcDbEntity
  8
RACCORDO
100
AcDbPolyline
 62
250
  6
CONTINUOUS
 90
10
 70
0
 10
150.0723840836
 20
122.7399086307
 10
150.0643900638
 20
122.7441574567
 10
150.0560753134
 20
122.7479594649
 10
150.0474599177
 20
122.7512438509
 10
150.0385579476
 20
122.7539397698
 10
150.0294124416
 20
122.7559696475
 10
150.0200956671
 20
122.7572578239
 10
150.0106497473
 20
122.7577376911
 10
150.0011258545
 20
122.7573428894
 10
149.9916170539
 20
122.7560177807
  0
LWPOLYLINE
  5
56C
100
AcDbEntity
  8
RACCORDO
100
AcDbPolyline
 62
7
  6
CONTINUOUS
 90
7
 70
0
 10
147.058874618
 20
124.5030807453
 10
147.0555967583
 20
124.5049294417
 10
147.0360073962
 20
124.5143375356
 10
147.0155981543
 20
124.5213853846
 10
146.9945669316
 20
124.5259334954
 10
146.97313384
 20
124.5278743638
 10
146.9523340556
 20
124.5271838155
  0
LINE
  5
56D
100
AcDbEntity
  8
RACCORDO
100
AcDbLine
 62
250
  6
CONTINUOUS
 10
152.0265756525
 20
121.0089074843
 11
150.3996617715
 21
121.9482671691
  0
LINE
  5
56E
100
AcDbEntity
  8
RACCORDO
100
AcDbLine
 62
250
  6
CONTINUOUS
 10
145.1829802469
 20
124.9603137011
 11
146.0739861442
 21
124.4458580629
  0
LINE
  5
56F
100
AcDbEntity
  8
RACCORDO
100
AcDbLine
 62
7
  6
CONTINUOUS
 10
152.0997281692
 20
121.0152885077
 11
150.4406555798
 21
121.9732162278
  0
LINE
  5
570
100
AcDbEntity
  8
RACCORDO
100
AcDbLine
 62
7
  6
CONTINUOUS
 10
145.2561031626
 20
124.9667118023
 11
146.1465530828
 21
124.4525771918
  0
LINE
  5
571
100
AcDbEntity
  8
RACCORDO
100
AcDbLine
 62
250
  6
CONTINUOUS
 10
147.3094521179
 20
123.9934030438
 11
149.6281836979
 21
122.65459649
  0
LINE
  5
572
100
AcDbEntity
  8
RACCORDO
100
AcDbLine
 62
7
  6
CONTINUOUS
 10
147.3549717532
 20
124.017857906
 11
149.6873578181
 21
122.6711674238
  0
LINE
  5
573
100
AcDbEntity
  8
RACCORDO
100
AcDbLine
 62
250
  6
CONTINUOUS
 10
150.249345457
 20
122.6377333515
 11
150.0723840836
 21
122.7399086307
  0
LINE
  5
574
100
AcDbEntity
  8
RACCORDO
100
AcDbLine
 62
250
  6
CONTINUOUS
 10
147.0114120384
 20
124.5072755266
 11
147.1883734118
 21
124.4051002475
  0
LINE
  5
575
100
AcDbEntity
  8
RACCORDO
100
AcDbLine
 62
7
  6
CONTINUOUS
 10
150.2968971758
 20
122.6334872246
 11
150.1199357992
 21
122.7356625057
  0
LINE
  5
576
100
AcDbEntity
  8
RACCORDO
100
AcDbLine
 62
7
  6
CONTINUOUS
 10
147.058874618
 20
124.5030807453
 11
147.2359251222
 21
124.4008541254
  0
LINE
  5
577
100
AcDbEntity
  8
RACCORDO
100
AcDbLine
 62
250
  6
CONTINUOUS
 10
152.0383792757
 20
121.0017804469
 11
152.0265756525
 21
121.0089074843
  0
LWPOLYLINE
  5
578
100
AcDbEntity
  8
RACCORDO
100
AcDbPolyline
 62
250
  6
CONTINUOUS
 90
8
 70
0
 10
147.1883734118
 20
124.4051002475
 10
147.1967674969
 20
124.3998323509
 10
147.205105197
 20
124.3938863446
 10
147.2133511111
 20
124.3872676474
 10
147.2214184645
 20
124.3800313548
 10
147.229324115
 20
124.3721507628
 10
147.2371713619
 20
124.3634819752
 10
147.24496507
 20
124.3539352049
  0
LWPOLYLINE
  5
579
100
AcDbEntity
  8
ASSI
100
AcDbPolyline
 62
250
  6
CONTINUOUS
 90
13
 70
0
 10
149.5082765382
 20
122.2254242455
 10
149.5253222914
 20
122.2139776379
 10
149.5415508385
 20
122.1999808215
 10
149.5567149755
 20
122.1836470051
 10
149.5705837124
 20
122.1652249963
 10
149.5829457915
 20
122.1449954111
 10
149.5936129054
 20
122.1232663999
 10
149.6024225656
 20
122.1003689533
 10
149.6092405777
 20
122.0766518602
 10
149.6139630851
 20
122.0524763951
 10
149.6165181517
 20
122.0282108145
 10
149.6168668568
 20
122.0042247476
 10
149.6150038889
 20
121.9808835661
  0
LINE
  5
57A
100
AcDbEntity
  8
RACCORDO
100
AcDbLine
 62
250
  6
CONTINUOUS
 10
152.0497517265
 20
120.9940531257
 11
152.0383792757
 21
121.0017804469
  0
ARC
  5
57B
100
AcDbEntity
  8
LAY0001
100
AcDbCircle
 62
7
  6
CONTINUOUS
 10
142.4959390669
 20
72.1791630246
 40
0.5
100
AcDbArc
 50
239.9984015654
 51
297.4194204711
  0
ARC
  5
57C
100
AcDbEntity
  8
LAY0001
100
AcDbCircle
 62
7
  6
CONTINUOUS
 10
127.6277248985
 20
80.7638835429
 40
0.5
100
AcDbArc
 50
179.9840060021
 51
239.998401565
  0
ARC
  5
57D
100
AcDbEntity
  8
LAY0001
100
AcDbCircle
 62
7
  6
CONTINUOUS
 10
127.6277248985
 20
122.9156558252
 40
0.5
100
AcDbArc
 50
122.5992954234
 51
180.0013071251
  0
ARC
  5
57E
100
AcDbEntity
  8
IMPORT_IGES
100
AcDbCircle
 62
7
  6
CONTINUOUS
 10
160.7651634788
 20
98.3033723744
 40
0.3
100
AcDbArc
 50
300.0015984348
 51
360.0
  0
ARC
  5
57F
100
AcDbEntity
  8
IMPORT_IGES
100
AcDbCircle
 62
7
  6
CONTINUOUS
 10
160.7651634788
 20
103.6920762012
 40
0.3
100
AcDbArc
 50
0.0
 51
59.9984015652
  0
ARC
  5
580
100
AcDbEntity
  8
IMPORT_IGES
100
AcDbCircle
 62
7
  6
CONTINUOUS
 10
160.7651634788
 20
111.6118378861
 40
0.3
100
AcDbArc
 50
0.0
 51
59.9984015652
  0
ARC
  5
581
100
AcDbEntity
  8
IMPORT_IGES
100
AcDbCircle
 62
7
  6
CONTINUOUS
 10
160.7651634788
 20
107.8560746129
 40
0.3
100
AcDbArc
 50
300.0015984348
 51
360.0
  0
ARC
  5
582
100
AcDbEntity
  8
IMPORT_IGES
100
AcDbCircle
 62
7
  6
CONTINUOUS
 10
149.8757190486
 20
92.0159436372
 40
0.3
100
AcDbArc
 50
239.9984015652
 51
300.0015984348
  0
ARC
  5
583
100
AcDbEntity
  8
RACCORDO
100
AcDbCircle
 62
7
  6
CONTINUOUS
 10
146.0043094216
 20
112.7845383859
 40
0.2
100
AcDbArc
 50
0.0007993
 51
59.9992007879
  0
ARC
  5
584
100
AcDbEntity
  8
RACCORDO
100
AcDbCircle
 62
7
  6
CONTINUOUS
 10
145.9882425059
 20
77.1957111534
 40
0.2
100
AcDbArc
 50
300.8752970448
 51
0.0114052678
  0
ARC
  5
585
100
AcDbEntity
  8
ASSI
100
AcDbCircle
 62
7
  6
CONTINUOUS
 10
138.5624896245
 20
121.7704301305
 40
0.2
100
AcDbArc
 50
119.0851091898
 51
154.7491244468
  0
ARC
  5
586
100
AcDbEntity
  8
ASSI
100
AcDbCircle
 62
7
  6
CONTINUOUS
 10
134.3769634146
 20
122.7170062105
 40
0.2
100
AcDbArc
 50
59.9984015652
 51
118.2824903446
  0
ARC
  5
587
100
AcDbEntity
  8
ASSI
100
AcDbCircle
 62
7
  6
CONTINUOUS
 10
145.0805100625
 20
116.1676015333
 40
0.2
100
AcDbArc
 50
315.7312262421
 51
0.024486907
  0
ARC
  5
588
100
AcDbEntity
  8
ASSI
100
AcDbCircle
 62
7
  6
CONTINUOUS
 10
145.0805100625
 20
116.5369125229
 40
0.2
100
AcDbArc
 50
359.9930983179
 51
59.9984015652
  0
ARC
  5
589
100
AcDbEntity
  8
ASSI
100
AcDbCircle
 62
7
  6
CONTINUOUS
 10
135.9041672803
 20
121.8352178387
 40
0.2
100
AcDbArc
 50
359.9895357921
 51
59.9984015652
  0
ARC
  5
58A
100
AcDbEntity
  8
ASSI
100
AcDbCircle
 62
7
  6
CONTINUOUS
 10
135.9041672803
 20
121.4659068492
 40
0.2
100
AcDbArc
 50
315.7300106886
 51
0.0272097881
  0
ARC
  5
58B
100
AcDbEntity
  8
ASSI
100
AcDbCircle
 62
7
  6
CONTINUOUS
 10
143.5533061968
 20
117.4187008946
 40
0.2
100
AcDbArc
 50
59.9984015652
 51
118.2824903446
  0
ARC
  5
58C
100
AcDbEntity
  8
RACCORDO
100
AcDbCircle
 62
7
  6
CONTINUOUS
 10
150.2880834419
 20
87.5647229668
 40
0.15
100
AcDbArc
 50
0.0
 51
60.0065861469
  0
ELLIPSE
  5
58D
100
AcDbEntity
  8
IMPORT_IGES
100
AcDbEllipse
 62
7
  6
CONTINUOUS
 10
134.4607912187
 20
92.5875043949
 30
0.0
 11
0.2871251841
 21
0.122187127
 31
0.0
 40
0.7115581783
 41
-2.6502236714
 42
-1.0794273446
  0
ELLIPSE
  5
58E
100
AcDbEntity
  8
IMPORT_IGES
100
AcDbEllipse
 62
7
  6
CONTINUOUS
 10
137.7841930903
 20
90.6686138062
 30
0.0
 11
0.2871251841
 21
0.122187127
 31
0.0
 40
0.7115581783
 41
2.8475577611
 42
3.6329616358
  0
ELLIPSE
  5
58F
100
AcDbEntity
  8
LAY0001
100
AcDbEllipse
 62
7
  6
CONTINUOUS
 10
144.8904950457
 20
73.4206346413
 30
0.0
 11
-0.2501834304
 21
0.4333025529
 31
0.0
 40
0.5769361983
 41
-3.1677535987
 42
-2.3565853618
  0
ELLIPSE
  5
590
100
AcDbEntity
  8
LAY0001
100
AcDbEllipse
 62
7
  6
CONTINUOUS
 10
144.8904950457
 20
115.7135150993
 30
0.0
 11
-0.2500121049
 21
0.4330057129
 31
0.0
 40
0.5777274115
 41
-2.3559002616
 42
-0.7857891675
  0
ELLIPSE
  5
591
100
AcDbEntity
  8
RACCORDO
100
AcDbEllipse
 62
7
  6
CONTINUOUS
 10
146.0043094216
 20
111.0753983024
 30
0.0
 11
0.143107575
 21
0.2366201515
 31
0.0
 40
0.5904602253
 41
-1.5588007257
 42
-0.7734027153
  0
ELLIPSE
  5
592
100
AcDbEntity
  8
LAY0001
100
AcDbEllipse
 62
7
  6
CONTINUOUS
 10
129.9000736755
 20
124.3687965244
 30
0.0
 11
-0.2501834304
 21
0.4333025529
 31
0.0
 40
0.5769361983
 41
-0.7851038024
 42
0.0261609458
  0
ELLIPSE
  5
593
100
AcDbEntity
  8
LAY0001
100
AcDbEllipse
 62
7
  6
CONTINUOUS
 10
145.0358343654
 20
79.0895104996
 30
0.0
 11
0.3037200246
 21
0.1710449014
 31
0.0
 40
0.0105151745
 41
0.6673087948
 42
0.7742146559
  0
ELLIPSE
  5
594
100
AcDbEntity
  8
RACCORDO
100
AcDbEllipse
 62
7
  6
CONTINUOUS
 10
130.7485021599
 20
94.5267777487
 30
0.0
 11
-0.1000048364
 21
0.1732022883
 31
0.0
 40
0.5775075436
 41
0.7855021057
 42
2.355993846
  0
ELLIPSE
  5
595
100
AcDbEntity
  8
LAY0001
100
AcDbEllipse
 62
7
  6
CONTINUOUS
 10
144.9592993273
 20
79.1337008713
 30
0.0
 11
0.4568380168
 21
0.0702030008
 31
0.0
 40
0.2209951355
 41
0.2918164413
 42
0.3503969549
  0
ELLIPSE
  5
596
100
AcDbEntity
  8
DRAFT
100
AcDbEllipse
 62
7
  6
CONTINUOUS
 10
145.6278464178
 20
78.7476901602
 30
0.0
 11
0.1461416733
 21
0.2620230697
 31
0.0
 40
0.5671693725
 41
0.0145836793
 42
0.7595658966
  0
ELLIPSE
  5
597
100
AcDbEntity
  8
RACCORDO
100
AcDbEllipse
 62
7
  6
CONTINUOUS
 10
145.9882425059
 20
78.9048512369
 30
0.0
 11
0.1999879242
 21
-0.1103320873
 31
0.0
 40
0.0199195284
 41
-0.756955834
 42
0.7963872003
  0
ELLIPSE
  5
598
100
AcDbEntity
  8
RACCORDO
100
AcDbEllipse
 62
7
  6
CONTINUOUS
 10
150.4076168493
 20
121.819084506
 30
0.0
 11
0.0396625333
 21
0.1491105824
 31
0.0
 40
0.4377348049
 41
0.3909671288
 42
0.6503781016
  0
ELLIPSE
  5
599
100
AcDbEntity
  8
ASSI
100
AcDbEllipse
 62
7
  6
CONTINUOUS
 10
143.7913622748
 20
121.7985681054
 30
0.0
 11
0.3652263551
 21
0.1644105368
 31
0.0
 40
0.3407407308
 41
1.8589059539
 42
3.382251992
  0
ELLIPSE
  5
59A
100
AcDbEntity
  8
ASSI
100
AcDbEllipse
 62
7
  6
CONTINUOUS
 10
145.3003473591
 20
117.9648326975
 30
0.0
 11
0.999867518
 21
-0.0292282715
 31
0.0
 40
0.5568983954
 41
5.6013315027
 42
7.0848613669
  0
ELLIPSE
  5
59B
100
AcDbEntity
  8
ASSI
100
AcDbEllipse
 62
7
  6
CONTINUOUS
 10
145.3357182666
 20
117.4816487952
 30
0.0
 11
-0.100004872
 21
0.1732022678
 31
0.0
 40
0.5789151826
 41
-2.3548735497
 42
-0.7868162787
  0
ELLIPSE
  5
59C
100
AcDbEntity
  8
0
100
AcDbEllipse
 62
7
  6
CONTINUOUS
 10
-843.3445672673
 20
-436.9274501673
 30
0.0
 11
1091.3872670356
 21
588.1465940607
 31
0.0
 40
0.0261556157
 41
5.8313683858
 42
5.8318271149
  0
ELLIPSE
  5
59D
100
AcDbEntity
  8
RACCORDO
100
AcDbEllipse
 62
7
  6
CONTINUOUS
 10
145.1587670832
 20
109.560810884
 30
0.0
 11
-0.1000051894
 21
0.1735189852
 31
0.0
 40
0.5766278503
 41
-3.2779512934
 42
-3.141185874
  0
ELLIPSE
  5
59E
100
AcDbEntity
  8
ASSI
100
AcDbEllipse
 62
7
  6
CONTINUOUS
 10
149.3082937029
 20
121.4340725746
 30
0.0
 11
0.5013109713
 21
-0.0090323087
 31
0.0
 40
0.5663187271
 41
-0.7565983455
 42
-0.4971873728
  0
ENDSEC
  0
SECTION
  2
OBJECTS
  0
DICTIONARY
  5
C
100
AcDbDictionary
280
0
281
1
  3
ACAD_GROUP
350
D
  3
ACAD_MLINESTYLE
350
17
  3
ACAD_LAYOUT
350
1A
  3
ACAD_PLOTSETTINGS
350
19
  3
ACAD_PLOTSTYLENAME
350
E
  0
DICTIONARY
  5
D
102
{ACAD_REACTORS
330
C
102
}
100
AcDbDictionary
280
0
281
1
  0
ACDBDICTIONARYWDFLT
  5
E
102
{ACAD_REACTORS
330
C
102
}
100
AcDbDictionary
281
1
  3
Normal
350
F
100
AcDbDictionaryWithDefault
340
F
  0
DICTIONARY
  5
17
102
{ACAD_REACTORS
330
C
102
}
100
AcDbDictionary
280
0
281
1
  3
Standard
350
18
  0
DICTIONARY
  5
19
102
{ACAD_REACTORS
330
C
102
}
100
AcDbDictionary
281
1
  0
DICTIONARY
  5
1A
102
{ACAD_REACTORS
330
C
102
}
100
AcDbDictionary
281
1
  3
Model
350
59F
  3
Layout1
350
5A0
  0
ACDBPLACEHOLDER
  5
F
102
{ACAD_REACTORS
330
E
102
}
  0
MLINESTYLE
  5
18
102
{ACAD_REACTORS
330
17
102
}
100
AcDbMlineStyle
  2
STANDARD
 70
0
  3

 62
256
 51
90.0
 52
90.0
 71
2
 49
0.5
 62
256
  6
BYLAYER
 49
-0.5
 62
256
  6
BYLAYER
  0
LAYOUT
  5
59F
102
{ACAD_REACTORS
330
1A
102
}
100
AcDbPlotSettings
  1

  2
none_device
  4
ISO_A4_(297.00_x_210.00_MM)
  6

 40
0.0
 41
0.0
 42
0.0
 43
0.0
 44
297.0
 45
210.0
 46
0.0
 47
0.0
 48
0.0
 49
0.0
140
0.0
141
0.0
142
1.0
143
1.0
 70
1024
 72
1
 73
0
 74
0
  7

 75
0
147
1.0
148
0.0
149
0.0
100
AcDbLayout
  1
Model
 70
0
 71
0
 10
0.0
 20
0.0
 11
297.0
 21
210.0
 12
0.0
 22
0.0
 32
0.0
 14
0.0
 24
0.0
 34
0.0
 15
0.0
 25
0.0
 35
0.0
146
0.0
 13
0.0
 23
0.0
 33
0.0
 16
1.0
 26
0.0
 36
0.0
 17
0.0
 27
1.0
 37
0.0
 76
0
330
213
345
0
346
0
  0
LAYOUT
  5
5A0
102
{ACAD_REACTORS
330
1A
102
}
100
AcDbPlotSettings
  1

  2
none_device
  4
ISO_A4_(297.00_x_210.00_MM)
  6

 40
0.0
 41
0.0
 42
0.0
 43
0.0
 44
297.0
 45
210.0
 46
0.0
 47
0.0
 48
0.0
 49
0.0
140
0.0
141
0.0
142
1.0
143
1.0
 70
0
 72
1
 73
0
 74
0
  7

 75
0
147
1.0
148
0.0
149
0.0
100
AcDbLayout
  1
Layout1
 70
0
 71
1
 10
0.0
 20
0.0
 11
297.0
 21
210.0
 12
0.0
 22
0.0
 32
0.0
 14
0.0
 24
0.0
 34
0.0
 15
0.0
 25
0.0
 35
0.0
146
0.0
 13
0.0
 23
0.0
 33
0.0
 16
1.0
 26
0.0
 36
0.0
 17
0.0
 27
1.0
 37
0.0
 76
0
330
214
345
0
346
0
  0
ENDSEC
  0
EOF
