  0
SECTION
  2
HEADER
  9
$ACADVER
  1
AC1024
  9
$DWGCODEPAGE
  3
ANSI_1252
  9
$EXTMAX
 10
297.0
 20
210.0
 30
0.0
  9
$EXTMIN
 10
0.0
 20
0.0
 30
0.0
  9
$LIMMIN
 10
0.0
 20
0.0
  9
$LIMMAX
 10
297.0
 20
210.0
  9
$VIEWCTR
 10
148.5
 20
105.0
  9
$VIEWSIZE
 40
210.0
  9
$CLAYER
  8
0
  9
$LTSCALE
 40
16.335
  9
$CELTYPE
  6
BYLAYER
  9
$DIMSCALE
 40
1.0
  9
$DIMASZ
 40
3.0
  9
$DIMEXO
 40
0.5
  9
$DIMDLI
 40
11.286
  9
$DIMEXE
 40
1.5
  9
$DIMCEN
 40
2.673
  9
$DIMLFAC
 40
1.0
  9
$DIMBLK
  1
_FILLED
  9
$DIMALT
 70
0
  9
$DIMALTF
 40
0.0393700787
  9
$DIMTXT
 40
3.0
  9
$DIMTOL
 70
1
  9
$DIMLIM
 70
0
  9
$DIMTFAC
 40
1.0
  9
$DIMTP
 40
0.01
  9
$DIMTM
 40
0.01
  9
$DIMGAP
 40
0.625
  9
$DIMDSEP
 70
44
  9
$AUNITS
 70
0
  9
$PDMODE
 70
3
  9
$PDSIZE
 40
3.0
  9
$HANDSEED
  5
653
  9
$TILEMODE
 70
1
  9
$MEASUREMENT
 70
1
  9
$INSUNITS
 70
4
  0
ENDSEC
  0
SECTION
  2
CLASSES
  0
CLASS
  1
ACDBDICTIONARYWDFLT
  2
AcDbDictionaryWithDefault
  3
AutoCAD 2000
 90
0
 91
1
280
0
281
0
  0
CLASS
  1
ACDBPLACEHOLDER
  2
AcDbPlaceHolder
  3
AutoCAD 2000
 90
0
 91
1
280
0
281
0
  0
CLASS
  1
LAYOUT
  2
AcDbLayout
  3
AutoCAD 2000
 90
0
 91
0
280
0
281
0
  0
ENDSEC
  0
SECTION
  2
TABLES
  0
TABLE
  2
VPORT
  5
8
100
AcDbSymbolTable
 70
2
  0
VPORT
  5
1F4
100
AcDbSymbolTableRecord
100
AcDbViewportTableRecord
  2
*ACTIVE
 70
0
 10
0.0
 20
0.0
 11
1.0
 21
1.0
 12
148.5
 22
105.0
 13
0.0
 23
0.0
 14
1.0
 24
1.0
 15
0.0
 25
0.0
 16
0.0
 26
0.0
 36
1.0
 17
0.0
 27
0.0
 37
0.0
 40
210.0
 41
1.4142857143
 42
50.0
 43
0.0
 44
0.0
 50
0.0
 51
0.0
 71
0
 72
100
 73
1
 74
1
 75
0
 76
0
 77
0
 78
0
  0
ENDTAB
  0
TABLE
  2
LTYPE
  5
5
100
AcDbSymbolTable
 70
6
  0
LTYPE
  5
14
100
AcDbSymbolTableRecord
100
AcDbLinetypeTableRecord
  2
BYBLOCK
 70
0
  3

 72
65
 73
0
 40
0.0
  0
LTYPE
  5
15
100
AcDbSymbolTableRecord
100
AcDbLinetypeTableRecord
  2
BYLAYER
 70
0
  3

 72
65
 73
0
 40
0.0
  0
LTYPE
  5
16
100
AcDbSymbolTableRecord
100
AcDbLinetypeTableRecord
  2
CONTINUOUS
 70
64
  3
Solid line
 72
65
 73
0
 40
0.0
  0
LTYPE
  5
1F5
100
AcDbSymbolTableRecord
100
AcDbLinetypeTableRecord
  2
CENTER
 70
64
  3
____ _ ____ _ ____ _ ____ _ ____ _ ____ _ ____
 72
65
 73
4
 40
0.6
 49
0.375
 74
0
 49
-0.075
 74
0
 49
0.075
 74
0
 49
-0.075
 74
0
  0
LTYPE
  5
1F6
100
AcDbSymbolTableRecord
100
AcDbLinetypeTableRecord
  2
HIDDEN
 70
64
  3
- - - - - - - - - - - - - - - - - - - -
 72
65
 73
2
 40
0.2
 49
0.1
 74
0
 49
-0.1
 74
0
  0
LTYPE
  5
1F7
100
AcDbSymbolTableRecord
100
AcDbLinetypeTableRecord
  2
PHANTOM
 70
64
  3
_____ _ _ _____ _ _ _____ _ _ _____
 72
65
 73
6
 40
0.8
 49
0.45
 74
0
 49
-0.05
 74
0
 49
0.1
 74
0
 49
-0.05
 74
0
 49
0.1
 74
0
 49
-0.05
 74
0
  0
LTYPE
  5
1F8
100
AcDbSymbolTableRecord
100
AcDbLinetypeTableRecord
  2
DOT
 70
64
  3
. . . . . . . . . . . . . . . . . . . .
 72
65
 73
2
 40
0.2
 49
0.1
 74
0
 49
-0.1
 74
0
  0
LTYPE
  5
1F9
100
AcDbSymbolTableRecord
100
AcDbLinetypeTableRecord
  2
DASHED
 70
64
  3
- - - - - - - - - - - - - - - - - - - -
 72
65
 73
2
 40
0.2
 49
0.1
 74
0
 49
-0.1
 74
0
  0
ENDTAB
  0
TABLE
  2
LAYER
  5
2
100
AcDbSymbolTable
 70
36
  0
LAYER
  5
10
100
AcDbSymbolTableRecord
100
AcDbLayerTableRecord
  2
0
 70
0
 62
7
  6
CONTINUOUS
370
-3
390
F
  0
LAYER
  5
1FA
100
AcDbSymbolTableRecord
100
AcDbLayerTableRecord
  2
DEFAULT_1
 70
0
 62
7
  6
CENTER
370
-3
390
F
  0
LAYER
  5
1FB
100
AcDbSymbolTableRecord
100
AcDbLayerTableRecord
  2
DEFAULT_2
 70
0
 62
7
  6
HIDDEN
370
-3
390
F
  0
LAYER
  5
1FC
100
AcDbSymbolTableRecord
100
AcDbLayerTableRecord
  2
DEFAULT_3
 70
0
 62
7
  6
PHANTOM
370
-3
390
F
  0
LAYER
  5
1FD
100
AcDbSymbolTableRecord
100
AcDbLayerTableRecord
  2
ASSI
 70
0
 62
7
  6
CONTINUOUS
370
-3
390
F
  0
LAYER
  5
1FE
100
AcDbSymbolTableRecord
100
AcDbLayerTableRecord
  2
COORDINATE
 70
0
 62
7
  6
CONTINUOUS
370
-3
390
F
  0
LAYER
  5
1FF
100
AcDbSymbolTableRecord
100
AcDbLayerTableRecord
  2
COORD_ORIGINE
 70
0
 62
7
  6
CONTINUOUS
370
-3
390
F
  0
LAYER
  5
200
100
AcDbSymbolTableRecord
100
AcDbLayerTableRecord
  2
COPY_PUBLISH
 70
0
 62
7
  6
CONTINUOUS
370
-3
390
F
  0
LAYER
  5
201
100
AcDbSymbolTableRecord
100
AcDbLayerTableRecord
  2
COSMETICI
 70
0
 62
7
  6
CONTINUOUS
370
-3
390
F
  0
LAYER
  5
202
100
AcDbSymbolTableRecord
100
AcDbLayerTableRecord
  2
CURVE
 70
0
 62
7
  6
CONTINUOUS
370
-3
390
F
  0
LAYER
  5
203
100
AcDbSymbolTableRecord
100
AcDbLayerTableRecord
  2
DRAFT
 70
0
 62
7
  6
CONTINUOUS
370
-3
390
F
  0
LAYER
  5
204
100
AcDbSymbolTableRecord
100
AcDbLayerTableRecord
  2
IMPORT_IGES
 70
0
 62
7
  6
CONTINUOUS
370
-3
390
F
  0
LAYER
  5
205
100
AcDbSymbolTableRecord
100
AcDbLayerTableRecord
  2
INTF_1
 70
0
 62
7
  6
CONTINUOUS
370
-3
390
F
  0
LAYER
  5
206
100
AcDbSymbolTableRecord
100
AcDbLayerTableRecord
  2
INTF_8
 70
0
 62
7
  6
CONTINUOUS
370
-3
390
F
  0
LAYER
  5
207
100
AcDbSymbolTableRecord
100
AcDbLayerTableRecord
  2
NOTE
 70
0
 62
7
  6
CONTINUOUS
370
-3
390
F
  0
LAYER
  5
208
100
AcDbSymbolTableRecord
100
AcDbLayerTableRecord
  2
PIANI
 70
0
 62
7
  6
CONTINUOUS
370
-3
390
F
  0
LAYER
  5
209
100
AcDbSymbolTableRecord
100
AcDbLayerTableRecord
  2
PIANI_ORIGINE
 70
0
 62
7
  6
CONTINUOUS
370
-3
390
F
  0
LAYER
  5
20A
100
AcDbSymbolTableRecord
100
AcDbLayerTableRecord
  2
PUNTI
 70
0
 62
7
  6
CONTINUOUS
370
-3
390
F
  0
LAYER
  5
20B
100
AcDbSymbolTableRecord
100
AcDbLayerTableRecord
  2
RACCORDO
 70
0
 62
7
  6
CONTINUOUS
370
-3
390
F
  0
LAYER
  5
20C
100
AcDbSymbolTableRecord
100
AcDbLayerTableRecord
  2
SIMBOLI
 70
0
 62
7
  6
CONTINUOUS
370
-3
390
F
  0
LAYER
  5
20D
100
AcDbSymbolTableRecord
100
AcDbLayerTableRecord
  2
SMUSSO
 70
0
 62
7
  6
CONTINUOUS
370
-3
390
F
  0
LAYER
  5
20E
100
AcDbSymbolTableRecord
100
AcDbLayerTableRecord
  2
SUPERFICI
 70
0
 62
7
  6
CONTINUOUS
370
-3
390
F
  0
LAYER
  5
20F
100
AcDbSymbolTableRecord
100
AcDbLayerTableRecord
  2
TRASH
 70
0
 62
7
  6
CONTINUOUS
370
-3
390
F
  0
ENDTAB
  0
TABLE
  2
STYLE
  5
3
100
AcDbSymbolTable
 70
1
  0
STYLE
  5
11
100
AcDbSymbolTableRecord
100
AcDbTextStyleTableRecord
  2
STANDARD
 70
0
 40
0.0
 41
0.8
 50
0.0
 71
0
 42
0.2
  3
txt
  4

  0
STYLE
  5
210
100
AcDbSymbolTableRecord
100
AcDbTextStyleTableRecord
  2
TEXTSTYLE_1
 70
0
 40
0.0
 41
0.8
 50
0.0
 71
0
 42
0.2
  3
gdt
  4

  0
ENDTAB
  0
TABLE
  2
VIEW
  5
6
100
AcDbSymbolTable
 70
0
  0
ENDTAB
  0
TABLE
  2
UCS
  5
7
100
AcDbSymbolTable
 70
0
  0
ENDTAB
  0
TABLE
  2
APPID
  5
9
100
AcDbSymbolTable
 70
1
  0
APPID
  5
211
100
AcDbSymbolTableRecord
100
AcDbRegAppTableRecord
  2
ACAD
 70
0
  0
ENDTAB
  0
TABLE
  2
BLOCK_RECORD
  5
1
100
AcDbSymbolTable
 70
0
  0
BLOCK_RECORD
  5
212
100
AcDbSymbolTableRecord
100
AcDbBlockTableRecord
  2
*Model_Space
  0
BLOCK_RECORD
  5
213
100
AcDbSymbolTableRecord
100
AcDbBlockTableRecord
  2
*Paper_Space
  0
BLOCK_RECORD
  5
214
100
AcDbSymbolTableRecord
100
AcDbBlockTableRecord
  2
_FILLED
  0
ENDTAB
  0
TABLE
  2
DIMSTYLE
  5
A
100
AcDbSymbolTable
 70
1
100
AcDbDimStyleTable
 71
0
  0
DIMSTYLE
105
215
100
AcDbSymbolTableRecord
100
AcDbDimStyleTableRecord
  2
STANDARD
 70
0
  3

  4

 40
1.0
 41
3.0
 42
0.5
 43
0.38
 44
1.5
 45
0.0
 46
0.0
 47
0.01
 48
0.01
140
3.0
141
0.09
142
0.0
143
25.4
144
1.0
145
0.0
146
1.0
147
0.625
 71
1
 72
0
 73
0
 74
0
 75
0
 76
0
 77
1
 78
8
 79
2
170
0
171
1
172
0
173
0
174
0
175
0
176
0
177
0
178
0
270
2
179
2
271
2
272
2
273
2
274
2
275
0
280
0
281
0
282
0
283
1
284
8
285
0
286
0
287
3
288
0
340
11
278
44
341
214
342
214
343
214
344
214
  0
ENDTAB
  0
ENDSEC
  0
SECTION
  2
BLOCKS
  0
BLOCK
  5
20
100
AcDbEntity
  8
0
100
AcDbBlockBegin
  2
*Model_Space
 70
0
 10
0.0
 20
0.0
 30
0.0
  3
*Model_Space
  1

  0
ENDBLK
  5
21
100
AcDbEntity
  8
0
100
AcDbBlockEnd
  0
BLOCK
  5
1C
100
AcDbEntity
  8
0
100
AcDbBlockBegin
  2
*Paper_Space
 70
0
 10
0.0
 20
0.0
 30
0.0
  3
*Paper_Space
  1

  0
ENDBLK
  5
1D
100
AcDbEntity
  8
0
100
AcDbBlockEnd
  0
BLOCK
  5
216
100
AcDbEntity
  8
0
100
AcDbBlockBegin
  2
_FILLED
 70
64
 10
0.0
 20
0.0
  3
_FILLED
  1

  0
SOLID
  5
217
100
AcDbEntity
  8
0
  6
BYBLOCK
 62
0
100
AcDbTrace
 10
0.0
 20
0.0
 11
-1.0
 21
0.3166666667
 12
-1.0
 22
-0.3166666667
 13
-1.0
 23
-0.3166666667
  0
ENDBLK
  5
218
100
AcDbEntity
  8
0
  6
BYBLOCK
 62
0
100
AcDbBlockEnd
  0
ENDSEC
  0
SECTION
  2
ENTITIES
  0
LWPOLYLINE
  5
219
100
AcDbEntity
  8
RACCORDO
100
AcDbPolyline
 62
250
  6
CONTINUOUS
 90
13
 70
0
 10
130.8265498883
 20
127.1459553896
 10
130.8125834449
 20
127.1370505098
 10
130.7988326648
 20
127.1261386114
 10
130.7855389152
 20
127.1134100873
 10
130.7729366038
 20
127.0990865139
 10
130.7612461424
 20
127.0834184531
 10
130.750670077
 20
127.066681076
 10
130.7413944139
 20
127.0491665701
 10
130.7335824128
 20
127.0311807163
 10
130.7273687837
 20
127.0130392249
 10
130.7228621961
 20
126.9950594358
 10
130.720143356
 20
126.9775547787
 10
130.719260664
 20
126.9608309642
  0
LWPOLYLINE
  5
21A
100
AcDbEntity
  8
RACCORDO
100
AcDbPolyline
 62
7
  6
CONTINUOUS
 90
10
 70
0
 10
130.7396372821
 20
127.1629349439
 10
130.7241219789
 20
127.1533310089
 10
130.7087737159
 20
127.1408932699
 10
130.6951930284
 20
127.1265463574
 10
130.6836155151
 20
127.1105391374
 10
130.6742420134
 20
127.0931492843
 10
130.6672350765
 20
127.0746783333
 10
130.6627162951
 20
127.05544676
 10
130.6607640577
 20
127.0357884878
 10
130.6606819613
 20
127.0308243776
  0
LWPOLYLINE
  5
21B
100
AcDbEntity
  8
0
100
AcDbPolyline
 62
250
  6
CONTINUOUS
 90
9
 70
0
 10
129.4664751693
 20
126.1044058947
 10
129.4869771166
 20
126.1155788778
 10
129.5159745419
 20
126.1258573353
 10
129.5474338221
 20
126.1312768402
 10
129.5809690576
 20
126.1317595786
 10
129.6160708604
 20
126.1273270384
 10
129.6522898678
 20
126.1180998725
 10
129.6892660166
 20
126.1042311607
 10
129.7265941705
 20
126.0859239337
  0
LINE
  5
21C
100
AcDbEntity
  8
RACCORDO
100
AcDbLine
 62
7
  6
CONTINUOUS
 10
130.7396389045
 20
127.1629358641
 11
131.6976906824
 21
127.6781451066
  0
LINE
  5
21D
100
AcDbEntity
  8
RACCORDO
100
AcDbLine
 62
250
  6
CONTINUOUS
 10
130.8265498883
 20
127.1459553896
 11
131.7959231274
 21
127.6672529475
  0
LWPOLYLINE
  5
21E
100
AcDbEntity
  8
RACCORDO
100
AcDbPolyline
 62
250
  6
CONTINUOUS
 90
22
 70
0
 10
130.7396386403
 20
127.1629357221
 10
130.7404171054
 20
127.1633426991
 10
130.7433164851
 20
127.1646675049
 10
130.7463897898
 20
127.1657813533
 10
130.7496393972
 20
127.1666797007
 10
130.7530561284
 20
127.1673547007
 10
130.7566351899
 20
127.1678031167
 10
130.7603773047
 20
127.1680215192
 10
130.7642719675
 20
127.168005171
 10
130.7682951129
 20
127.1677547194
 10
130.7724318289
 20
127.1672731148
 10
130.776682663
 20
127.1665614477
 10
130.7810453179
 20
127.1656217466
 10
130.7854843397
 20
127.164462642
 10
130.7900206563
 20
127.1630824194
 10
130.79473956
 20
127.1614535524
 10
130.7996737468
 20
127.1595475356
 10
130.8047808287
 20
127.1573666376
 10
130.8100346087
 20
127.1549207775
 10
130.8154208095
 20
127.1522120792
 10
130.820937729
 20
127.1492297128
 10
134.7501533653
 20
124.8805159163
  0
LINE
  5
21F
100
AcDbEntity
  8
0
100
AcDbLine
 62
7
  6
CONTINUOUS
 10
129.4664751693
 20
126.1044058947
 11
130.7186751384
 21
126.9051732581
  0
LINE
  5
220
100
AcDbEntity
  8
0
100
AcDbLine
 62
250
  6
CONTINUOUS
 10
129.7265941705
 20
126.0859239337
 11
130.9750697393
 21
126.8843095861
  0
LWPOLYLINE
  5
221
100
AcDbEntity
  8
ASSI
100
AcDbPolyline
 62
250
  6
CONTINUOUS
 90
3
 70
0
 10
136.4057203477
 20
125.6666366126
 10
136.3942151604
 20
125.6625822453
 10
136.3903624386
 20
125.6606679799
  0
LWPOLYLINE
  5
222
100
AcDbEntity
  8
RACCORDO
100
AcDbPolyline
 62
250
  6
CONTINUOUS
 90
10
 70
0
 10
134.7501533653
 20
124.8805159163
 10
134.7361419717
 20
124.8716370134
 10
134.7223432885
 20
124.860752788
 10
134.7089986833
 20
124.8480536285
 10
134.6963415804
 20
124.83376167
 10
134.6845933789
 20
124.8181269091
 10
134.6739595788
 20
124.801422831
 10
134.6646261869
 20
124.783941625
 10
134.6567564628
 20
124.7659890736
 10
134.6546103956
 20
124.7597889266
  0
LINE
  5
223
100
AcDbEntity
  8
RACCORDO
100
AcDbLine
 62
250
  6
CONTINUOUS
 10
136.3280721455
 20
123.7935530856
 11
138.0147596441
 21
124.767428652
  0
LINE
  5
224
100
AcDbEntity
  8
RACCORDO
100
AcDbLine
 62
250
  6
CONTINUOUS
 10
136.6108578723
 20
123.6302761511
 11
138.1561594612
 21
124.5225169849
  0
LINE
  5
225
100
AcDbEntity
  8
RACCORDO
100
AcDbLine
 62
250
  6
CONTINUOUS
 10
140.0358226014
 20
125.4848847359
 11
138.2122915011
 21
124.4774286374
  0
LINE
  5
226
100
AcDbEntity
  8
RACCORDO
100
AcDbLine
 62
250
  6
CONTINUOUS
 10
140.6961654549
 20
125.395988099
 11
137.9416903548
 21
123.8745221884
  0
LINE
  5
227
100
AcDbEntity
  8
RACCORDO
100
AcDbLine
 62
250
  6
CONTINUOUS
 10
140.8297171076
 20
125.9214243924
 11
140.0358226014
 21
125.4848847359
  0
LINE
  5
228
100
AcDbEntity
  8
RACCORDO
100
AcDbLine
 62
250
  6
CONTINUOUS
 10
141.4815083425
 20
125.8278687727
 11
140.6961062506
 21
125.3960222828
  0
LINE
  5
229
100
AcDbEntity
  8
RACCORDO
100
AcDbLine
 62
7
  6
CONTINUOUS
 10
140.7688862173
 20
125.8945811213
 11
138.2724241982
 21
124.5269725789
  0
LINE
  5
22A
100
AcDbEntity
  8
RACCORDO
100
AcDbLine
 62
250
  6
CONTINUOUS
 10
138.2714031837
 20
124.5261540087
 11
138.2724241982
 21
124.5269725789
  0
LINE
  5
22B
100
AcDbEntity
  8
RACCORDO
100
AcDbLine
 62
250
  6
CONTINUOUS
 10
140.7688862173
 20
125.8945811213
 11
140.7739335483
 21
125.89706181
  0
LINE
  5
22C
100
AcDbEntity
  8
RACCORDO
100
AcDbLine
 62
250
  6
CONTINUOUS
 10
134.7501533653
 20
124.8805159163
 11
135.7195266044
 21
125.4018134741
  0
LINE
  5
22D
100
AcDbEntity
  8
ASSI
100
AcDbLine
 62
7
  6
CONTINUOUS
 10
136.3903624386
 20
125.6606679799
 11
135.7908534207
 21
125.338271431
  0
LINE
  5
22E
100
AcDbEntity
  8
RACCORDO
100
AcDbLine
 62
250
  6
CONTINUOUS
 10
136.4875557784
 20
125.6492170237
 11
135.8221420589
 21
125.291379059
  0
LINE
  5
22F
100
AcDbEntity
  8
RACCORDO
100
AcDbLine
 62
250
  6
CONTINUOUS
 10
134.8878725087
 20
124.6334293272
 11
135.8610125847
 21
125.156752568
  0
LWPOLYLINE
  5
230
100
AcDbEntity
  8
ASSI
100
AcDbPolyline
 62
250
  6
CONTINUOUS
 90
8
 70
0
 10
140.7144859908
 20
124.7913866137
 10
140.7180177052
 20
124.7932148985
 10
140.731364195
 20
124.7979194474
 10
140.7459397555
 20
124.7998577238
 10
140.7615218867
 20
124.7990000859
 10
140.7778727297
 20
124.7953595846
 10
140.7947427031
 20
124.7889917504
 10
140.8118742854
 20
124.7799937489
  0
LWPOLYLINE
  5
231
100
AcDbEntity
  8
ASSI
100
AcDbPolyline
 62
250
  6
CONTINUOUS
 90
8
 70
0
 10
140.5733922906
 20
124.7127262381
 10
140.5768600841
 20
124.7145110404
 10
140.5902469264
 20
124.7192003268
 10
140.6048678286
 20
124.7211112306
 10
140.6204659123
 20
124.7202180359
 10
140.6367863184
 20
124.7165539867
 10
140.6535878094
 20
124.7101909825
 10
140.6706138454
 20
124.7012407394
  0
LWPOLYLINE
  5
232
100
AcDbEntity
  8
ASSI
100
AcDbPolyline
 62
250
  6
CONTINUOUS
 90
9
 70
0
 10
138.0147596441
 20
124.767428652
 10
138.0293630266
 20
124.7746912182
 10
138.0437834976
 20
124.7801114019
 10
138.0578665536
 20
124.7836311314
 10
138.0714612957
 20
124.7852126966
 10
138.084422079
 20
124.7848391572
 10
138.0966100678
 20
124.7825145091
 10
138.1078946835
 20
124.7782636412
 10
138.1122963332
 20
124.7759366832
  0
LINE
  5
233
100
AcDbEntity
  8
RACCORDO
100
AcDbLine
 62
250
  6
CONTINUOUS
 10
140.7688862173
 20
125.8945811213
 11
140.7840509211
 21
125.9020724787
  0
LINE
  5
234
100
AcDbEntity
  8
RACCORDO
100
AcDbLine
 62
250
  6
CONTINUOUS
 10
140.8297171077
 20
125.9214243923
 11
140.8408990528
 21
125.9269015263
  0
LINE
  5
235
100
AcDbEntity
  8
RACCORDO
100
AcDbLine
 62
250
  6
CONTINUOUS
 10
134.8878725087
 20
124.6334293272
 11
134.8800714069
 21
124.6296105644
  0
LWPOLYLINE
  5
236
100
AcDbEntity
  8
RACCORDO
100
AcDbPolyline
 62
250
  6
CONTINUOUS
 90
7
 70
0
 10
141.4815083425
 20
125.8278687727
 10
141.4997405277
 20
125.836661904
 10
141.5176262775
 20
125.8425519934
 10
141.5348663086
 20
125.8454405051
 10
141.551172157
 20
125.845279129
 10
141.5662709727
 20
125.842070588
 10
141.5790450333
 20
125.8363768029
  0
LWPOLYLINE
  5
237
100
AcDbEntity
  8
RACCORDO
100
AcDbPolyline
 62
250
  6
CONTINUOUS
 90
7
 70
0
 10
147.2557598051
 20
127.7088230389
 10
147.2739916223
 20
127.7176160213
 10
147.2918770726
 20
127.7235060939
 10
147.3091168842
 20
127.7263947003
 10
147.3254225887
 20
127.7262335067
 10
147.3405213479
 20
127.7230252107
 10
147.3532254691
 20
127.7173720208
  0
LINE
  5
238
100
AcDbEntity
  8
RACCORDO
100
AcDbLine
 62
250
  6
CONTINUOUS
 10
138.2714031837
 20
124.5261540087
 11
138.2122915011
 21
124.4987177697
  0
LINE
  5
239
100
AcDbEntity
  8
RACCORDO
100
AcDbLine
 62
7
  6
CONTINUOUS
 10
138.2726873359
 20
124.5271030737
 11
138.2122915011
 21
124.4998548502
  0
LINE
  5
23A
100
AcDbEntity
  8
ASSI
100
AcDbLine
 62
7
  6
CONTINUOUS
 10
140.1481106877
 20
123.9787457369
 11
140.1959601851
 21
124.0001539738
  0
LWPOLYLINE
  5
23B
100
AcDbEntity
  8
RACCORDO
100
AcDbPolyline
 62
250
  6
CONTINUOUS
 90
3
 70
0
 10
147.1440157099
 20
127.7275572137
 10
147.1363343575
 20
127.7242011438
 10
147.1340083663
 20
127.7229970414
  0
LINE
  5
23C
100
AcDbEntity
  8
RACCORDO
100
AcDbLine
 62
250
  6
CONTINUOUS
 10
140.8297171076
 20
125.9214243924
 11
140.7739335483
 21
125.89706181
  0
LINE
  5
23D
100
AcDbEntity
  8
RACCORDO
100
AcDbLine
 62
7
  6
CONTINUOUS
 10
140.8283150918
 20
125.9214426874
 11
140.784343226
 21
125.9022016668
  0
LINE
  5
23E
100
AcDbEntity
  8
RACCORDO
100
AcDbLine
 62
7
  6
CONTINUOUS
 10
140.8408990528
 20
125.9269015263
 11
140.8283150918
 21
125.9214426874
  0
LWPOLYLINE
  5
23F
100
AcDbEntity
  8
ASSI
100
AcDbPolyline
 62
250
  6
CONTINUOUS
 90
4
 70
0
 10
143.1883272857
 20
124.998915431
 10
143.2414938966
 20
125.021288056
 10
143.2962756654
 20
125.0472837114
 10
143.3525435304
 20
125.0770300192
  0
LWPOLYLINE
  5
240
100
AcDbEntity
  8
ASSI
100
AcDbPolyline
 62
250
  6
CONTINUOUS
 90
13
 70
0
 10
140.0358226014
 20
125.4848847359
 10
140.0827385659
 20
125.5025852207
 10
140.1317537225
 20
125.515751471
 10
140.1826951554
 20
125.52433799
 10
140.2353857119
 20
125.5283171756
 10
140.2896365816
 20
125.5276749424
 10
140.3452479728
 20
125.5224107374
 10
140.4020241199
 20
125.5125446871
 10
140.4597632966
 20
125.4981138628
 10
140.5182503183
 20
125.4791684641
 10
140.5772743454
 20
125.4557776425
 10
140.6366297855
 20
125.4280284252
 10
140.6961062506
 20
125.3960222828
  0
LINE
  5
241
100
AcDbEntity
  8
RACCORDO
100
AcDbLine
 62
250
  6
CONTINUOUS
 10
140.8771965662
 20
125.9390671214
 11
140.8297171076
 21
125.9214243924
  0
LWPOLYLINE
  5
242
100
AcDbEntity
  8
ASSI
100
AcDbPolyline
 62
250
  6
CONTINUOUS
 90
7
 70
0
 10
137.9411241833
 20
123.0958197058
 10
137.9545456471
 20
123.1004865284
 10
137.9691999372
 20
123.1023658914
 10
137.9848042371
 20
123.101437456
 10
138.001090931
 20
123.0977515638
 10
138.0178250142
 20
123.0913940879
 10
138.0347511833
 20
123.0824891105
  0
LWPOLYLINE
  5
243
100
AcDbEntity
  8
ASSI
100
AcDbPolyline
 62
7
  6
CONTINUOUS
 90
5
 70
0
 10
146.2710895683
 20
126.7555093019
 10
146.2468100102
 20
126.7480495888
 10
146.2201031925
 20
126.7379252181
 10
146.1933880386
 20
126.7257745708
 10
146.1711269486
 20
126.7140835963
  0
LINE
  5
244
100
AcDbEntity
  8
RACCORDO
100
AcDbLine
 62
7
  6
CONTINUOUS
 10
138.2714031838
 20
124.5261540086
 11
138.2723288887
 21
124.5269289526
  0
LINE
  5
245
100
AcDbEntity
  8
ASSI
100
AcDbLine
 62
250
  6
CONTINUOUS
 10
146.6539057195
 20
126.4801922062
 11
143.7881288123
 21
124.8255285366
  0
LINE
  5
246
100
AcDbEntity
  8
ASSI
100
AcDbLine
 62
250
  6
CONTINUOUS
 10
146.7951332627
 20
126.243901288
 11
143.9293563555
 21
124.5892376184
  0
LINE
  5
247
100
AcDbEntity
  8
ASSI
100
AcDbLine
 62
250
  6
CONTINUOUS
 10
144.2504177392
 20
124.5418103288
 11
142.8239628754
 21
123.7181931681
  0
LINE
  5
248
100
AcDbEntity
  8
ASSI
100
AcDbLine
 62
250
  6
CONTINUOUS
 10
144.3916452824
 20
124.3055194105
 11
143.0991974015
 21
123.5592762022
  0
LWPOLYLINE
  5
249
100
AcDbEntity
  8
ASSI
100
AcDbPolyline
 62
250
  6
CONTINUOUS
 90
13
 70
0
 10
140.0271875537
 20
123.5962678896
 10
140.0398572867
 20
123.6035697687
 10
140.0525074796
 20
123.611866013
 10
140.0650538885
 20
123.6210700492
 10
140.0773079756
 20
123.6309910333
 10
140.0893116439
 20
123.6416178486
 10
140.1013034761
 20
123.6531986325
 10
140.1133193375
 20
123.665850597
 10
140.1250934041
 20
123.6793759688
 10
140.1363898844
 20
123.6935790559
 10
140.1470721103
 20
123.7083125956
 10
140.1570834958
 20
123.7234978154
 10
140.1663291023
 20
123.7390067988
  0
LWPOLYLINE
  5
24A
100
AcDbEntity
  8
RACCORDO
100
AcDbPolyline
 62
7
  6
CONTINUOUS
 90
8
 70
0
 10
149.3951420997
 20
126.7479739639
 10
149.4068738175
 20
126.754616323
 10
149.4172403554
 20
126.7603737299
 10
149.4260958969
 20
126.7651567685
 10
149.4332421286
 20
126.7689008443
 10
149.438487746
 20
126.7715570543
 10
149.4417411864
 20
126.7729406409
 10
149.4429148796
 20
126.773078284
  0
LWPOLYLINE
  5
24B
100
AcDbEntity
  8
ASSI
100
AcDbPolyline
 62
250
  6
CONTINUOUS
 90
16
 70
0
 10
143.7881288123
 20
124.8255285366
 10
143.755753097
 20
124.807446483
 10
143.7241498717
 20
124.790948006
 10
143.693343854
 20
124.7759644941
 10
143.6635988427
 20
124.7625340869
 10
143.6346868768
 20
124.7504626273
 10
143.6058972627
 20
124.7394059444
 10
143.5772215668
 20
124.729353104
 10
143.5487091153
 20
124.7203219641
 10
143.5197541717
 20
124.7121489787
 10
143.4903258223
 20
124.7048836877
 10
143.4605255534
 20
124.6986168385
 10
143.4299721088
 20
124.6933603982
 10
143.3985823759
 20
124.6892209344
 10
143.3665596546
 20
124.6863469407
 10
143.3339719925
 20
124.6848654562
  0
LINE
  5
24C
100
AcDbEntity
  8
ASSI
100
AcDbLine
 62
7
  6
CONTINUOUS
 10
140.5732255111
 20
124.7126335821
 11
140.7144859908
 21
124.7913866137
  0
LINE
  5
24D
100
AcDbEntity
  8
ASSI
100
AcDbLine
 62
250
  6
CONTINUOUS
 10
140.6706138454
 20
124.7012407394
 11
140.8118742854
 21
124.7799937489
  0
LINE
  5
24E
100
AcDbEntity
  8
ASSI
100
AcDbLine
 62
7
  6
CONTINUOUS
 10
137.7351289646
 20
122.9811361128
 11
137.937362849
 21
123.0938819532
  0
LINE
  5
24F
100
AcDbEntity
  8
ASSI
100
AcDbLine
 62
250
  6
CONTINUOUS
 10
137.7930086477
 20
122.9477171092
 11
138.0347511833
 21
123.0824891105
  0
LINE
  5
250
100
AcDbEntity
  8
ASSI
100
AcDbLine
 62
7
  6
CONTINUOUS
 10
138.5625311487
 20
122.8454053454
 11
139.9297995675
 21
123.6076605303
  0
LINE
  5
251
100
AcDbEntity
  8
ASSI
100
AcDbLine
 62
250
  6
CONTINUOUS
 10
138.6204108317
 20
122.8119863418
 11
140.0271879027
 21
123.5962676881
  0
LINE
  5
252
100
AcDbEntity
  8
ASSI
100
AcDbLine
 62
7
  6
CONTINUOUS
 10
143.255094924
 20
125.0883988923
 11
144.4861435533
 21
125.7747016093
  0
LINE
  5
253
100
AcDbEntity
  8
ASSI
100
AcDbLine
 62
250
  6
CONTINUOUS
 10
143.3525435304
 20
125.0770300192
 11
144.5835319203
 21
125.7633087848
  0
LINE
  5
254
100
AcDbEntity
  8
ASSI
100
AcDbLine
 62
7
  6
CONTINUOUS
 10
144.4861435533
 20
125.7747016093
 11
144.486268792
 21
125.7747712474
  0
LINE
  5
255
100
AcDbEntity
  8
ASSI
100
AcDbLine
 62
250
  6
CONTINUOUS
 10
140.5732255111
 20
124.7126335821
 11
140.5733922906
 21
124.7127262381
  0
LWPOLYLINE
  5
256
100
AcDbEntity
  8
ASSI
100
AcDbPolyline
 62
250
  6
CONTINUOUS
 90
16
 70
0
 10
143.9293563555
 20
124.5892376184
 10
143.8926294501
 20
124.5688729037
 10
143.8568329426
 20
124.550142276
 10
143.8219668329
 20
124.5330457352
 10
143.7882844889
 20
124.5177387237
 10
143.7555325426
 20
124.5040657991
 10
143.722950891
 20
124.4915606342
 10
143.6904931439
 20
124.4801030397
 10
143.6582056914
 20
124.4698132049
 10
143.6254676001
 20
124.4605853701
 10
143.5921793546
 20
124.4523081259
 10
143.5584404704
 20
124.4450928818
 10
143.5239285604
 20
124.4391681062
 10
143.4885361621
 20
124.4346099554
 10
143.4523707379
 20
124.4313422732
 10
143.4154322879
 20
124.4293650596
  0
LWPOLYLINE
  5
257
100
AcDbEntity
  8
ASSI
100
AcDbPolyline
 62
7
  6
CONTINUOUS
 90
16
 70
0
 10
146.1711455025
 20
126.7140939442
 10
145.4028458404
 20
126.2857708321
 10
145.3905646938
 20
126.2795618716
 10
145.3759587605
 20
126.2732889037
 10
145.3591775808
 20
126.2672353392
 10
145.3402729749
 20
126.2616071994
 10
145.3195133928
 20
126.2566467378
 10
145.2970818078
 20
126.2525368926
 10
145.2732654976
 20
126.2494488187
 10
145.248557833
 20
126.2475293243
 10
145.223228951
 20
126.2468599698
 10
145.1976883245
 20
126.2474934419
 10
145.1726828725
 20
126.2494008948
 10
145.1485452102
 20
126.2525083254
 10
145.1256390963
 20
126.2566964524
 10
145.1195869922
 20
126.2580198481
  0
LINE
  5
258
100
AcDbEntity
  8
ASSI
100
AcDbLine
 62
250
  6
CONTINUOUS
 10
146.2772310429
 20
126.7075048191
 11
145.5014103298
 21
126.2750280399
  0
LWPOLYLINE
  5
259
100
AcDbEntity
  8
ASSI
100
AcDbPolyline
 62
7
  6
CONTINUOUS
 90
10
 70
0
 10
143.255094924
 20
125.0883988923
 10
143.2428181666
 20
125.0816295846
 10
143.1799926401
 20
125.0492690491
 10
143.1185943191
 20
125.0214334766
 10
143.0591066986
 20
124.998229751
 10
143.0017029296
 20
124.9795894778
 10
142.946333992
 20
124.9653750656
 10
142.8932344154
 20
124.9555593462
 10
142.8428145948
 20
124.9501116706
 10
142.8348975928
 20
124.94963157
  0
LWPOLYLINE
  5
25A
100
AcDbEntity
  8
ASSI
100
AcDbPolyline
 62
250
  6
CONTINUOUS
 90
13
 70
0
 10
140.8118742854
 20
124.7799937489
 10
140.8246116199
 20
124.7869518462
 10
140.8369678356
 20
124.793224143
 10
140.8489300243
 20
124.7988453183
 10
140.8604812292
 20
124.8038496394
 10
140.8716195928
 20
124.8082740948
 10
140.8823579627
 20
124.8121563169
 10
140.8926941455
 20
124.8155310032
 10
140.9026226464
 20
124.8184313084
 10
140.9121535061
 20
124.8208898715
 10
140.9212883957
 20
124.822939425
 10
140.9300263027
 20
124.8246114995
 10
140.9383748955
 20
124.8259352198
  0
LINE
  5
25B
100
AcDbEntity
  8
RACCORDO
100
AcDbLine
 62
7
  6
CONTINUOUS
 10
147.1340083663
 20
127.7229970414
 11
147.1338637899
 21
127.7229191091
  0
LINE
  5
25C
100
AcDbEntity
  8
ASSI
100
AcDbLine
 62
7
  6
CONTINUOUS
 10
147.1340083625
 20
127.7229970394
 11
142.5650887093
 21
125.2659799059
  0
LINE
  5
25D
100
AcDbEntity
  8
RACCORDO
100
AcDbLine
 62
250
  6
CONTINUOUS
 10
147.2557598051
 20
127.7088230389
 11
142.5793388613
 21
125.1939951902
  0
LINE
  5
25E
100
AcDbEntity
  8
ASSI
100
AcDbLine
 62
250
  6
CONTINUOUS
 10
146.1746787546
 20
126.7159229657
 11
146.1711455025
 21
126.7140939442
  0
LWPOLYLINE
  5
25F
100
AcDbEntity
  8
ASSI
100
AcDbPolyline
 62
250
  6
CONTINUOUS
 90
8
 70
0
 10
139.9298075508
 20
123.6076649803
 10
139.9333330869
 20
123.6094896799
 10
139.9466796691
 20
123.6141938157
 10
139.9612551542
 20
123.616131708
 10
139.9768370558
 20
123.6152737852
 10
139.9931875238
 20
123.61163315
 10
140.0100569739
 20
123.6052653818
 10
140.0271879027
 20
123.5962676881
  0
LWPOLYLINE
  5
260
100
AcDbEntity
  8
ASSI
100
AcDbPolyline
 62
250
  6
CONTINUOUS
 90
8
 70
0
 10
145.4040506791
 20
126.2864368641
 10
145.4075552474
 20
126.288249904
 10
145.4209018166
 20
126.2929541013
 10
145.4354773139
 20
126.2948920506
 10
145.4510592507
 20
126.2940341702
 10
145.4674097751
 20
126.2903935552
 10
145.4842793036
 20
126.2840257779
 10
145.5014103298
 20
126.2750280399
  0
LWPOLYLINE
  5
261
100
AcDbEntity
  8
ASSI
100
AcDbPolyline
 62
250
  6
CONTINUOUS
 90
8
 70
0
 10
144.486268792
 20
125.7747712474
 10
144.489676796
 20
125.7765306263
 10
144.5030233664
 20
125.781234826
 10
144.5175988654
 20
125.7831727769
 10
144.5331808039
 20
125.7823148972
 10
144.5495313299
 20
125.7786742822
 10
144.5664008596
 20
125.7723065047
 10
144.5835318867
 20
125.7633087661
  0
LINE
  5
262
100
AcDbEntity
  8
ASSI
100
AcDbLine
 62
250
  6
CONTINUOUS
 10
137.937362849
 20
123.0938819532
 11
137.9411241833
 21
123.0958197058
  0
LWPOLYLINE
  5
263
100
AcDbEntity
  8
ASSI
100
AcDbPolyline
 62
250
  6
CONTINUOUS
 90
8
 70
0
 10
143.2551510844
 20
125.0884302478
 10
143.2586884487
 20
125.0902518837
 10
143.2720350183
 20
125.0949560812
 10
143.286610516
 20
125.0968940308
 10
143.3021924528
 20
125.0960361505
 10
143.318542977
 20
125.0923955353
 10
143.3354125049
 20
125.0860277577
 10
143.3525435304
 20
125.0770300192
  0
LWPOLYLINE
  5
264
100
AcDbEntity
  8
ASSI
100
AcDbPolyline
 62
250
  6
CONTINUOUS
 90
9
 70
0
 10
138.0347511833
 20
123.0824891105
 10
138.0501472254
 20
123.0904080351
 10
138.0653602472
 20
123.09629171
 10
138.0802094082
 20
123.1000701961
 10
138.0945181796
 20
123.1016985791
 10
138.1081164859
 20
123.1011575086
 10
138.1208427186
 20
123.0984534068
 10
138.1325456081
 20
123.0936183911
 10
138.1347560153
 20
123.0923973461
  0
LWPOLYLINE
  5
265
100
AcDbEntity
  8
ASSI
100
AcDbPolyline
 62
250
  6
CONTINUOUS
 90
6
 70
0
 10
145.5014103298
 20
126.2750280399
 10
145.4727163535
 20
126.2604880461
 10
145.4421636805
 20
126.2477372584
 10
145.4097523108
 20
126.2367756768
 10
145.375111088
 20
126.2275095627
 10
145.3386111685
 20
126.2200326546
  0
LWPOLYLINE
  5
266
100
AcDbEntity
  8
ASSI
100
AcDbPolyline
 62
250
  6
CONTINUOUS
 90
4
 70
0
 10
141.6860187787
 20
124.3995757447
 10
141.6781622077
 20
124.3956033141
 10
141.6726769597
 20
124.3904527716
 10
141.6697908526
 20
124.3842378024
  0
LINE
  5
267
100
AcDbEntity
  8
RACCORDO
100
AcDbLine
 62
7
  6
CONTINUOUS
 10
140.1481106877
 20
123.9787457369
 11
138.2454906344
 21
123.0284605649
  0
LWPOLYLINE
  5
268
100
AcDbEntity
  8
ASSI
100
AcDbPolyline
 62
250
  6
CONTINUOUS
 90
5
 70
0
 10
146.5797324393
 20
123.0384854146
 10
146.6180333634
 20
123.0547937485
 10
146.658273412
 20
123.0736091252
 10
146.7001283947
 20
123.0949925449
 10
146.7435422929
 20
123.119109833
  0
LWPOLYLINE
  5
269
100
AcDbEntity
  8
ASSI
100
AcDbPolyline
 62
250
  6
CONTINUOUS
 90
6
 70
0
 10
149.652958835
 20
124.7959350318
 10
149.6604717898
 20
124.7991288657
 10
149.6680940485
 20
124.8021779096
 10
149.6759017739
 20
124.8050996046
 10
149.6839152194
 20
124.8078828827
 10
149.6920996494
 20
124.8104957799
  0
LWPOLYLINE
  5
26A
100
AcDbEntity
  8
ASSI
100
AcDbPolyline
 62
250
  6
CONTINUOUS
 90
13
 70
0
 10
151.7231281097
 20
124.7484001196
 10
151.7301202479
 20
124.75122242
 10
151.7370132311
 20
124.7541417007
 10
151.7438010748
 20
124.7571575918
 10
151.7504489283
 20
124.7602547054
 10
151.7569808766
 20
124.763446876
 10
151.7634727739
 20
124.7667798269
 10
151.7699161749
 20
124.7702567305
 10
151.7762926877
 20
124.7738774353
 10
151.7826501514
 20
124.7776866705
 10
151.7889875909
 20
124.781701902
 10
151.795261828
 20
124.785911177
 10
151.801450039
 20
124.7903164748
  0
LWPOLYLINE
  5
26B
100
AcDbEntity
  8
ASSI
100
AcDbPolyline
 62
250
  6
CONTINUOUS
 90
6
 70
0
 10
149.5119711628
 20
124.785136307
 10
149.525695388
 20
124.7904503984
 10
149.5407567664
 20
124.7928867362
 10
149.556914465
 20
124.7924063632
 10
149.5739101206
 20
124.7890169604
 10
149.5914719708
 20
124.7827727249
  0
LINE
  5
26C
100
AcDbEntity
  8
ASSI
100
AcDbLine
 62
250
  6
CONTINUOUS
 10
146.5896686776
 20
122.5003175282
 11
146.4946465585
 21
122.4679547413
  0
LWPOLYLINE
  5
26D
100
AcDbEntity
  8
ASSI
100
AcDbPolyline
 62
7
  6
CONTINUOUS
 90
5
 70
0
 10
149.6099062717
 20
124.8266422381
 10
149.5813385991
 20
124.8174612394
 10
149.5531369727
 20
124.8060691974
 10
149.5255087935
 20
124.7926299662
 10
149.5092775483
 20
124.7836604632
  0
LINE
  5
26E
100
AcDbEntity
  8
ASSI
100
AcDbLine
 62
250
  6
CONTINUOUS
 10
149.6920996494
 20
124.8104957799
 11
149.7004467359
 21
124.8129165709
  0
LINE
  5
26F
100
AcDbEntity
  8
0
100
AcDbLine
 62
7
  6
CONTINUOUS
 10
129.4858370393
 20
83.0983943693
 11
144.3540512076
 21
74.5136738509
  0
LINE
  5
270
100
AcDbEntity
  8
0
100
AcDbLine
 62
250
  6
CONTINUOUS
 10
129.3822957288
 20
83.3272627998
 11
144.2505098971
 21
74.7425422815
  0
LWPOLYLINE
  5
271
100
AcDbEntity
  8
0
100
AcDbPolyline
 62
250
  6
CONTINUOUS
 90
9
 70
0
 10
129.4858370393
 20
83.0983943693
 10
129.470237137
 20
83.1086031955
 10
129.4476579228
 20
83.1285191829
 10
129.4281319115
 20
83.1527034382
 10
129.4118659688
 20
83.1808997445
 10
129.3990324222
 20
83.2128093796
 10
129.3897672349
 20
83.248094281
 10
129.3841685657
 20
83.2863806276
 10
129.3822957288
 20
83.3272627998
  0
LWPOLYLINE
  5
272
100
AcDbEntity
  8
ASSI
100
AcDbPolyline
 62
250
  6
CONTINUOUS
 90
3
 70
0
 10
137.8062777197
 20
123.7880721421
 10
137.7857492741
 20
123.7604134416
 10
137.766995788
 20
123.7319796389
  0
LWPOLYLINE
  5
273
100
AcDbEntity
  8
ASSI
100
AcDbPolyline
 62
250
  6
CONTINUOUS
 90
3
 70
0
 10
137.8526808666
 20
123.8419488346
 10
137.8285882505
 20
123.8152506064
 10
137.8062777197
 20
123.7880721421
  0
LWPOLYLINE
  5
274
100
AcDbEntity
  8
ASSI
100
AcDbPolyline
 62
250
  6
CONTINUOUS
 90
8
 70
0
 10
138.1555031899
 20
124.0938153441
 10
138.1566827491
 20
124.0951145757
 10
138.1606808869
 20
124.101522309
 10
138.1630618304
 20
124.1093685186
 10
138.1637991523
 20
124.1185671036
 10
138.1628848762
 20
124.1290174171
 10
138.1603290243
 20
124.1406058226
 10
138.1561594612
 20
124.1532059953
  0
LINE
  5
275
100
AcDbEntity
  8
ASSI
100
AcDbLine
 62
250
  6
CONTINUOUS
 10
138.1561594612
 20
124.1532059953
 11
137.8526808666
 21
123.8419488346
  0
LINE
  5
276
100
AcDbEntity
  8
ASSI
100
AcDbLine
 62
7
  6
CONTINUOUS
 10
138.1554908707
 20
124.0938027003
 11
137.852012276
 21
123.7825455393
  0
LWPOLYLINE
  5
277
100
AcDbEntity
  8
ASSI
100
AcDbPolyline
 62
250
  6
CONTINUOUS
 90
10
 70
0
 10
144.4071680392
 20
122.5438011779
 10
144.3907500259
 20
122.5332174874
 10
144.3745540368
 20
122.5205686512
 10
144.358799095
 20
122.5060257227
 10
144.3436982588
 20
122.4897853696
 10
144.3294557416
 20
122.4720672144
 10
144.3162641494
 20
122.4531108652
 10
144.3043018762
 20
122.4331726741
 10
144.2937306913
 20
122.4125222707
 10
144.284693552
 20
122.3914389163
  0
LWPOLYLINE
  5
278
100
AcDbEntity
  8
RACCORDO
100
AcDbPolyline
 62
250
  6
CONTINUOUS
 90
10
 70
0
 10
142.3511777029
 20
120.4917797269
 10
142.3371663193
 20
120.482900831
 10
142.323367644
 20
120.4720166139
 10
142.3100230441
 20
120.459317463
 10
142.2973659444
 20
120.4450255126
 10
142.2856177435
 20
120.4293907583
 10
142.2749839416
 20
120.4126866842
 10
142.2656505459
 20
120.3952054789
 10
142.2577808166
 20
120.3772529249
 10
142.255634734
 20
120.3710527369
  0
LWPOLYLINE
  5
279
100
AcDbEntity
  8
ASSI
100
AcDbPolyline
 62
250
  6
CONTINUOUS
 90
35
 70
0
 10
146.4456827805
 20
122.4382043091
 10
146.4357602077
 20
122.4320182094
 10
146.4257533776
 20
122.4257056666
 10
146.4156847314
 20
122.4192752701
 10
146.4055963063
 20
122.4126993566
 10
146.3955353306
 20
122.4060159002
 10
146.385454576
 20
122.3991869268
 10
146.3752543949
 20
122.3920708511
 10
146.3649744478
 20
122.3847179916
 10
146.3545750742
 20
122.3770780298
 10
146.3438376455
 20
122.3688584258
 10
146.3327194782
 20
122.3600664446
 10
146.3212632558
 20
122.3506948211
 10
146.3093784008
 20
122.3404292199
 10
146.297003447
 20
122.3292611176
 10
146.2841998605
 20
122.3171990375
 10
146.2710614624
 20
122.3039542144
 10
146.2575578326
 20
122.289550082
 10
146.2437193911
 20
122.2739632065
 10
146.2297312191
 20
122.2568345217
 10
146.2155191592
 20
122.2381477097
 10
146.2011573687
 20
122.2179190885
 10
146.1870534004
 20
122.1958385456
 10
146.1730320425
 20
122.1715548174
 10
146.1592685068
 20
122.1454191675
 10
146.1466959807
 20
122.1181752743
 10
146.1354084707
 20
122.0895187845
 10
146.1253119703
 20
122.0597540514
 10
146.1170576469
 20
122.0305378127
 10
146.1109363765
 20
122.0020568253
 10
146.1066572831
 20
121.9741243322
 10
146.1039989063
 20
121.9478368002
 10
146.1028874259
 20
121.9235597182
 10
146.1033966622
 20
121.9009275973
 10
146.105526615
 20
121.8799404375
  0
LINE
  5
27A
100
AcDbEntity
  8
ASSI
100
AcDbLine
 62
250
  6
CONTINUOUS
 10
146.4653677648
 20
122.4502763781
 11
146.4456827805
 21
122.4382043091
  0
LWPOLYLINE
  5
27B
100
AcDbEntity
  8
RACCORDO
100
AcDbPolyline
 62
7
  6
CONTINUOUS
 90
7
 70
0
 10
142.2493869662
 20
120.5006808105
 10
142.2423451897
 20
120.4963844156
 10
142.2252138285
 20
120.483723491
 10
142.2098633155
 20
120.4690214875
 10
142.1964934329
 20
120.4525120923
 10
142.1852931104
 20
120.4344773317
 10
142.1769702891
 20
120.4164726014
  0
LWPOLYLINE
  5
27C
100
AcDbEntity
  8
ASSI
100
AcDbPolyline
 62
250
  6
CONTINUOUS
 90
3
 70
0
 10
146.4946465585
 20
122.4679547413
 10
146.4849234899
 20
122.4621263764
 10
146.4653677648
 20
122.4502763781
  0
LWPOLYLINE
  5
27D
100
AcDbEntity
  8
ASSI
100
AcDbPolyline
 62
250
  6
CONTINUOUS
 90
10
 70
0
 10
146.1055266166
 20
121.8799404355
 10
146.1224970143
 20
121.8901098256
 10
146.1411701041
 20
121.8992571891
 10
146.1612942667
 20
121.9072592654
 10
146.1825983298
 20
121.9140082266
 10
146.2047952216
 20
121.9194131304
 10
146.2275858392
 20
121.9234011455
 10
146.2506630796
 20
121.9259185334
 10
146.2737159772
 20
121.9269313722
 10
146.2964338947
 20
121.9264260137
  0
LINE
  5
27E
100
AcDbEntity
  8
ASSI
100
AcDbLine
 62
250
  6
CONTINUOUS
 10
144.5435634652
 20
122.6253631856
 11
144.4071680392
 21
122.5438011779
  0
LINE
  5
27F
100
AcDbEntity
  8
ASSI
100
AcDbLine
 62
250
  6
CONTINUOUS
 10
141.8864039829
 20
120.8585930566
 11
141.6529870679
 21
120.7190139463
  0
LINE
  5
280
100
AcDbEntity
  8
ASSI
100
AcDbLine
 62
250
  6
CONTINUOUS
 10
144.6868933562
 20
122.3963922442
 11
144.5504979303
 21
122.3148302365
  0
LINE
  5
281
100
AcDbEntity
  8
ASSI
100
AcDbLine
 62
250
  6
CONTINUOUS
 10
142.029733874
 20
120.6296221152
 11
141.9207153414
 21
120.5644309966
  0
LINE
  5
282
100
AcDbEntity
  8
ASSI
100
AcDbLine
 62
250
  6
CONTINUOUS
 10
143.9074987686
 20
121.3558248258
 11
143.3275586839
 21
121.0090311025
  0
LINE
  5
283
100
AcDbEntity
  8
ASSI
100
AcDbLine
 62
250
  6
CONTINUOUS
 10
144.0508286597
 20
121.1268538844
 11
143.5952869574
 21
120.8544481528
  0
LINE
  5
284
100
AcDbEntity
  8
ASSI
100
AcDbLine
 62
250
  6
CONTINUOUS
 10
148.3677206804
 20
123.5783656157
 11
147.1791275747
 21
122.8676083504
  0
LINE
  5
285
100
AcDbEntity
  8
ASSI
100
AcDbLine
 62
250
  6
CONTINUOUS
 10
149.2539873285
 20
124.1083371057
 11
149.9946910828
 21
124.5512646074
  0
LINE
  5
286
100
AcDbEntity
  8
ASSI
100
AcDbLine
 62
250
  6
CONTINUOUS
 10
148.5110505715
 20
123.3493946744
 11
147.3224574658
 21
122.638637409
  0
LINE
  5
287
100
AcDbEntity
  8
ASSI
100
AcDbLine
 62
250
  6
CONTINUOUS
 10
149.3973172518
 20
123.8793661836
 11
150.1380209738
 21
124.322293666
  0
LWPOLYLINE
  5
288
100
AcDbEntity
  8
ASSI
100
AcDbPolyline
 62
250
  6
CONTINUOUS
 90
7
 70
0
 10
146.9457014396
 20
122.3823498473
 10
146.9305148298
 20
122.3732899013
 10
146.9174643221
 20
122.3634670618
 10
146.9067257524
 20
122.3530137004
 10
146.8984438022
 20
122.3420706854
 10
146.8927300418
 20
122.3307854758
 10
146.8912193601
 20
122.325136139
  0
LWPOLYLINE
  5
289
100
AcDbEntity
  8
ASSI
100
AcDbPolyline
 62
250
  6
CONTINUOUS
 90
13
 70
0
 10
150.1380209738
 20
124.322293666
 10
150.1422547776
 20
124.3247742967
 10
150.1465212345
 20
124.3271586365
 10
150.1508203447
 20
124.3294466854
 10
150.1551362955
 20
124.3316354285
 10
150.1594848994
 20
124.3337278808
 10
150.1639135949
 20
124.3357330868
 10
150.1684258761
 20
124.3376581967
 10
150.1730182488
 20
124.3394960603
 10
150.1777276682
 20
124.3412342724
 10
150.1825664527
 20
124.3428686976
 10
150.1875222839
 20
124.3444034711
 10
150.1925951617
 20
124.3458385931
  0
LWPOLYLINE
  5
28A
100
AcDbEntity
  8
ASSI
100
AcDbPolyline
 62
250
  6
CONTINUOUS
 90
10
 70
0
 10
148.5142070232
 20
123.320287951
 10
148.5327794241
 20
123.3310761523
 10
148.5533409353
 20
123.3406452021
 10
148.5755637273
 20
123.3488425325
 10
148.5990934834
 20
123.3555374465
 10
148.6235550486
 20
123.3606232009
 10
148.6485584108
 20
123.364018709
 10
148.6737049201
 20
123.3656698331
 10
148.6985936439
 20
123.3655502478
 10
148.7228277599
 20
123.3636618596
  0
LINE
  5
28B
100
AcDbEntity
  8
ASSI
100
AcDbLine
 62
7
  6
CONTINUOUS
 10
149.5092775483
 20
124.7836604632
 11
149.5093143681
 21
124.7836817381
  0
LINE
  5
28C
100
AcDbEntity
  8
RACCORDO
100
AcDbLine
 62
7
  6
CONTINUOUS
 10
145.7419986599
 20
124.6386871113
 11
149.3951420997
 21
126.7479739639
  0
LINE
  5
28D
100
AcDbEntity
  8
ASSI
100
AcDbLine
 62
7
  6
CONTINUOUS
 10
146.6434690159
 20
123.1289784952
 11
149.5093143681
 21
124.7836817381
  0
LINE
  5
28E
100
AcDbEntity
  8
ASSI
100
AcDbLine
 62
250
  6
CONTINUOUS
 10
146.7435422929
 20
123.119109833
 11
149.6093192001
 21
124.7737735026
  0
LINE
  5
28F
100
AcDbEntity
  8
RACCORDO
100
AcDbLine
 62
7
  6
CONTINUOUS
 10
142.249310769
 20
120.5006376799
 11
143.1872425561
 21
121.0421895981
  0
LINE
  5
290
100
AcDbEntity
  8
RACCORDO
100
AcDbLine
 62
250
  6
CONTINUOUS
 10
142.3511777029
 20
120.4917797269
 11
143.2872905585
 21
121.0322814134
  0
LWPOLYLINE
  5
291
100
AcDbEntity
  8
ASSI
100
AcDbPolyline
 62
250
  6
CONTINUOUS
 90
13
 70
0
 10
149.9946910828
 20
124.5512646074
 10
150.0017899539
 20
124.555362447
 10
150.0089445968
 20
124.5593133769
 10
150.0161519031
 20
124.5631120917
 10
150.0233784724
 20
124.5667388936
 10
150.0306512221
 20
124.5702043191
 10
150.038056809
 20
124.5735416067
 10
150.0455948725
 20
124.5767404203
 10
150.0532566395
 20
124.5797858096
 10
150.0611142375
 20
124.5826906338
 10
150.0691866556
 20
124.5854429234
 10
150.0774405854
 20
124.5880128428
 10
150.085867811
 20
124.5903792725
  0
LWPOLYLINE
  5
292
100
AcDbEntity
  8
ASSI
100
AcDbPolyline
 62
250
  6
CONTINUOUS
 90
13
 70
0
 10
147.3224574658
 20
122.638637409
 10
147.2877487323
 20
122.6186047917
 10
147.2533633811
 20
122.5999590924
 10
147.2193014123
 20
122.5827003109
 10
147.1855890443
 20
122.5668644728
 10
147.1522000586
 20
122.5524155525
 10
147.1190557993
 20
122.5392454741
 10
147.0861640323
 20
122.527338361
 10
147.0535169916
 20
122.5167100898
 10
147.0210127238
 20
122.507300214
 10
146.9886172445
 20
122.4990885849
 10
146.9563645382
 20
122.4920953513
 10
146.9242546048
 20
122.4863205131
  0
LWPOLYLINE
  5
293
100
AcDbEntity
  8
ASSI
100
AcDbPolyline
 62
250
  6
CONTINUOUS
 90
10
 70
0
 10
146.6317985331
 20
122.2427733589
 10
146.6220703678
 20
122.2372109045
 10
146.6122126707
 20
122.2317943119
 10
146.602223749
 20
122.2265101107
 10
146.5920735526
 20
122.2213333256
 10
146.5817813672
 20
122.2162626347
 10
146.5714254962
 20
122.2113143991
 10
146.5609969533
 20
122.2064607862
 10
146.5505023721
 20
122.2016908764
 10
146.5400635402
 20
122.1970342409
  0
LWPOLYLINE
  5
294
100
AcDbEntity
  8
ASSI
100
AcDbPolyline
 62
7
  6
CONTINUOUS
 90
10
 70
0
 10
146.6434690161
 20
123.1289784952
 10
146.6319242811
 20
123.1223826319
 10
146.5707540572
 20
123.089756653
 10
146.5107820905
 20
123.0616524877
 10
146.4524311884
 20
123.0381650169
 10
146.3958888811
 20
123.01924618
 10
146.341214373
 20
123.0048152719
 10
146.2886708978
 20
122.9948563759
 10
146.2386472775
 20
122.9893299434
 10
146.2306997121
 20
122.988839485
  0
LWPOLYLINE
  5
295
100
AcDbEntity
  8
ASSI
100
AcDbPolyline
 62
250
  6
CONTINUOUS
 90
10
 70
0
 10
147.1791275747
 20
122.8676083504
 10
147.1271352808
 20
122.8380666125
 10
147.0756396421
 20
122.8120778696
 10
147.0247605941
 20
122.7895945878
 10
146.9749311316
 20
122.7706725379
 10
146.9259231443
 20
122.7550919842
 10
146.8768815966
 20
122.74255448
 10
146.8276205058
 20
122.7331014827
 10
146.7785886644
 20
122.7269178774
 10
146.7299188337
 20
122.7240883113
  0
LINE
  5
296
100
AcDbEntity
  8
RACCORDO
100
AcDbLine
 62
250
  6
CONTINUOUS
 10
151.6638783787
 20
125.0114170259
 11
152.338125504
 21
125.3942659558
  0
LINE
  5
297
100
AcDbEntity
  8
RACCORDO
100
AcDbLine
 62
250
  6
CONTINUOUS
 10
151.801450039
 20
124.7903164748
 11
152.4756971643
 21
125.1731654047
  0
LWPOLYLINE
  5
298
100
AcDbEntity
  8
ASSI
100
AcDbPolyline
 62
250
  6
CONTINUOUS
 90
7
 70
0
 10
149.6093192001
 20
124.7737735026
 10
149.6165312357
 20
124.777855192
 10
149.6237720137
 20
124.7817873471
 10
149.6310384161
 20
124.7855656783
 10
149.6382929287
 20
124.7891690805
 10
149.6455666918
 20
124.7926118525
 10
149.652958835
 20
124.7959350318
  0
LWPOLYLINE
  5
299
100
AcDbEntity
  8
ASSI
100
AcDbPolyline
 62
250
  6
CONTINUOUS
 90
8
 70
0
 10
146.6435374608
 20
123.1290180685
 10
146.6461942552
 20
123.1304726372
 10
146.6599184804
 20
123.1357867287
 10
146.6749798589
 20
123.1382230666
 10
146.6911375575
 20
123.1377426936
 10
146.7081332131
 20
123.1343532909
 10
146.7256950635
 20
123.1281090553
 10
146.7435422929
 20
123.119109833
  0
LWPOLYLINE
  5
29A
100
AcDbEntity
  8
ASSI
100
AcDbPolyline
 62
250
  6
CONTINUOUS
 90
13
 70
0
 10
148.3677206804
 20
123.5783656157
 10
148.3955148357
 20
123.5934770905
 10
148.4252751061
 20
123.6068380542
 10
148.4570014915
 20
123.6184485068
 10
148.491059233
 20
123.6284096369
 10
148.5270830895
 20
123.6366202559
 10
148.5639773378
 20
123.6427767983
 10
148.6017812742
 20
123.6467872918
 10
148.6404556024
 20
123.6487437086
 10
148.6787867098
 20
123.6486184
 10
148.7163700589
 20
123.6464021497
 10
148.7536101871
 20
123.6421041739
 10
148.8181972144
 20
123.6309738917
  0
LWPOLYLINE
  5
29B
100
AcDbEntity
  8
RACCORDO
100
AcDbPolyline
 62
250
  6
CONTINUOUS
 90
12
 70
0
 10
142.2493861502
 20
120.5006811419
 10
142.2529151456
 20
120.5025809289
 10
142.2602688016
 20
120.5057662021
 10
142.2680929269
 20
120.5081588566
 10
142.2764047073
 20
120.5097330151
 10
142.2852968096
 20
120.5104507003
 10
142.2947325774
 20
120.5102385795
 10
142.3047027649
 20
120.5090273421
 10
142.3153576771
 20
120.5067012894
 10
142.3267243231
 20
120.5031198302
 10
142.3386884566
 20
120.4981803046
 10
142.3511777029
 20
120.4917797269
  0
LWPOLYLINE
  5
29C
100
AcDbEntity
  8
RACCORDO
100
AcDbPolyline
 62
7
  6
CONTINUOUS
 90
8
 70
0
 10
152.5092384683
 20
124.7111255629
 10
152.51669285
 20
124.715108353
 10
152.523146661
 20
124.7184111429
 10
152.5285214424
 20
124.7209907895
 10
152.5327144947
 20
124.7228251144
 10
152.5356665798
 20
124.7238718055
 10
152.5373639484
 20
124.7240720586
 10
152.5375713621
 20
124.7239957354
  0
LWPOLYLINE
  5
29D
100
AcDbEntity
  8
ASSI
100
AcDbPolyline
 62
250
  6
CONTINUOUS
 90
13
 70
0
 10
148.5110505715
 20
123.3493946735
 10
148.5247131373
 20
123.3561145909
 10
148.5396324795
 20
123.3619907905
 10
148.5556798872
 20
123.3669475222
 10
148.572747471
 20
123.3709187952
 10
148.5906659378
 20
123.3738499746
 10
148.609197422
 20
123.3756949464
 10
148.6281335247
 20
123.3764397123
 10
148.6473501256
 20
123.3760772372
 10
148.6667259186
 20
123.3745786311
 10
148.6861017747
 20
123.3719309302
 10
148.7052687745
 20
123.3681665799
 10
148.7240264704
 20
123.3633176281
  0
LWPOLYLINE
  5
29E
100
AcDbEntity
  8
ASSI
100
AcDbPolyline
 62
250
  6
CONTINUOUS
 90
27
 70
0
 10
146.4991593495
 20
122.1790567345
 10
146.4890453103
 20
122.1745486583
 10
146.4788357405
 20
122.1698734438
 10
146.4684490764
 20
122.1650049586
 10
146.4579277785
 20
122.1599275916
 10
146.447297135
 20
122.1545227689
 10
146.4364909707
 20
122.1487475388
 10
146.4255294355
 20
122.1425875686
 10
146.4145648058
 20
122.1359465037
 10
146.4036034818
 20
122.1287929278
 10
146.3926303885
 20
122.1210840077
 10
146.3817779012
 20
122.1126846875
 10
146.3710593265
 20
122.1035565117
 10
146.3605022307
 20
122.0936669765
 10
146.3502795588
 20
122.0828767322
 10
146.3403927518
 20
122.0710256383
 10
146.3309594627
 20
122.0582453325
 10
146.3223671791
 20
122.0448460072
 10
146.3147961543
 20
122.0307355145
 10
146.3082764194
 20
122.0160859033
 10
146.3029690966
 20
122.0016171924
 10
146.2990500423
 20
121.9874474233
 10
146.2964627842
 20
121.9735694756
 10
146.2949497287
 20
121.9604771461
 10
146.2944048717
 20
121.9483295251
 10
146.2949076241
 20
121.936980985
 10
146.2964345244
 20
121.9264259274
  0
LINE
  5
29F
100
AcDbEntity
  8
ASSI
100
AcDbLine
 62
250
  6
CONTINUOUS
 10
146.5400635402
 20
122.1970342409
 11
146.4991593495
 21
122.1790567345
  0
LWPOLYLINE
  5
2A0
100
AcDbEntity
  8
ASSI
100
AcDbPolyline
 62
250
  6
CONTINUOUS
 90
3
 70
0
 10
145.58206313
 20
120.3683312968
 10
145.5705579426
 20
120.3642769294
 10
145.5667052208
 20
120.3623626641
  0
LWPOLYLINE
  5
2A1
100
AcDbEntity
  8
RACCORDO
100
AcDbPolyline
 62
250
  6
CONTINUOUS
 90
5
 70
0
 10
150.6384782863
 20
86.594390533
 10
150.652074985
 20
86.5959789847
 10
150.6650445726
 20
86.5956116861
 10
150.6772409704
 20
86.593291289
 10
150.6885316337
 20
86.5890435206
  0
LINE
  5
2A2
100
AcDbEntity
  8
RACCORDO
100
AcDbLine
 62
7
  6
CONTINUOUS
 10
141.8430149761
 20
85.2419430394
 11
141.9819507349
 21
85.2576604169
  0
LINE
  5
2A3
100
AcDbEntity
  8
RACCORDO
100
AcDbLine
 62
250
  6
CONTINUOUS
 10
141.9012398198
 20
85.2997754526
 11
141.9819507349
 21
85.3089060316
  0
LINE
  5
2A4
100
AcDbEntity
  8
RACCORDO
100
AcDbLine
 62
7
  6
CONTINUOUS
 10
147.4017834242
 20
85.109022512
 11
147.3522938526
 21
85.1095212363
  0
LINE
  5
2A5
100
AcDbEntity
  8
RACCORDO
100
AcDbLine
 62
250
  6
CONTINUOUS
 10
147.4048064792
 20
85.2357910401
 11
147.3522938526
 21
85.2363202288
  0
LINE
  5
2A6
100
AcDbEntity
  8
RACCORDO
100
AcDbLine
 62
250
  6
CONTINUOUS
 10
142.1283973443
 20
78.7463554651
 11
131.5044082816
 21
84.8805136
  0
LINE
  5
2A7
100
AcDbEntity
  8
RACCORDO
100
AcDbLine
 62
250
  6
CONTINUOUS
 10
142.048938033
 20
78.9118049237
 11
131.6079616722
 21
84.9402938182
  0
LWPOLYLINE
  5
2A8
100
AcDbEntity
  8
ASSI
100
AcDbPolyline
 62
250
  6
CONTINUOUS
 90
6
 70
0
 10
137.766995788
 20
123.7319796389
 10
137.7500243872
 20
123.7030656001
 10
137.7348564489
 20
123.674555923
 10
137.7216224816
 20
123.6468280649
 10
137.7101919768
 20
123.6195045685
 10
137.7001947864
 20
123.5923376603
  0
LWPOLYLINE
  5
2A9
100
AcDbEntity
  8
ASSI
100
AcDbPolyline
 62
250
  6
CONTINUOUS
 90
6
 70
0
 10
137.8520140052
 20
123.782547313
 10
137.8572226706
 20
123.7903107849
 10
137.8599277367
 20
123.8003301692
 10
137.8600667656
 20
123.8124184228
 10
137.8576373927
 20
123.8263702813
 10
137.8526808666
 20
123.8419488346
  0
LWPOLYLINE
  5
2AA
100
AcDbEntity
  8
ASSI
100
AcDbPolyline
 62
250
  6
CONTINUOUS
 90
11
 70
0
 10
142.029733874
 20
120.6296221152
 10
142.0423915192
 20
120.642636518
 10
142.0534068316
 20
120.6561971504
 10
142.062666714
 20
120.6701611067
 10
142.0700742539
 20
120.6843761325
 10
142.0755585495
 20
120.698698541
 10
142.0790679622
 20
120.7129949303
 10
142.0805623159
 20
120.7271313394
 10
142.080016748
 20
120.7409425321
 10
142.0774410128
 20
120.7542531002
 10
142.0760636899
 20
120.758774944
  0
LINE
  5
2AB
100
AcDbEntity
  8
ASSI
100
AcDbLine
 62
250
  6
CONTINUOUS
 10
149.3682703134
 20
123.8279587472
 11
149.3821358781
 21
123.8389761107
  0
LWPOLYLINE
  5
2AC
100
AcDbEntity
  8
ASSI
100
AcDbPolyline
 62
7
  6
CONTINUOUS
 90
7
 70
0
 10
146.9576239854
 20
121.2354577076
 10
146.9466591668
 20
121.2273118718
 10
146.9372117973
 20
121.2186662109
 10
146.92921995
 20
121.209448237
 10
146.9227455519
 20
121.1997304381
 10
146.9179743835
 20
121.1897302783
 10
146.9153773676
 20
121.1809094149
  0
LINE
  5
2AD
100
AcDbEntity
  8
ASSI
100
AcDbLine
 62
7
  6
CONTINUOUS
 10
145.7618226808
 20
120.3588702801
 11
146.4885030988
 21
120.8712627107
  0
LINE
  5
2AE
100
AcDbEntity
  8
RACCORDO
100
AcDbLine
 62
250
  6
CONTINUOUS
 10
145.8250032823
 20
120.3227163537
 11
146.6239612227
 21
120.8860726667
  0
LINE
  5
2AF
100
AcDbEntity
  8
ASSI
100
AcDbLine
 62
7
  6
CONTINUOUS
 10
147.3439878494
 20
119.8239364493
 11
148.174516023
 21
120.3587267767
  0
LWPOLYLINE
  5
2B0
100
AcDbEntity
  8
ASSI
100
AcDbPolyline
 62
7
  6
CONTINUOUS
 90
6
 70
0
 10
149.4362054031
 20
122.6523403018
 10
149.4223279405
 20
122.6434168904
 10
149.410373669
 20
122.6338911533
 10
149.4003425887
 20
122.6237630905
 10
149.3921513887
 20
122.6128988917
 10
149.3902511017
 20
122.6094225584
  0
LINE
  5
2B1
100
AcDbEntity
  8
ASSI
100
AcDbLine
 62
250
  6
CONTINUOUS
 10
149.3821358781
 20
123.8389761107
 11
149.3985481206
 21
123.8491079742
  0
LINE
  5
2B2
100
AcDbEntity
  8
ASSI
100
AcDbLine
 62
7
  6
CONTINUOUS
 10
146.9701062532
 20
121.2431037184
 11
146.9576239854
 21
121.2354577076
  0
LINE
  5
2B3
100
AcDbEntity
  8
RACCORDO
100
AcDbLine
 62
250
  6
CONTINUOUS
 10
154.2773177007
 20
123.1555635725
 11
150.2611697804
 21
120.8234267865
  0
LINE
  5
2B4
100
AcDbEntity
  8
RACCORDO
100
AcDbLine
 62
250
  6
CONTINUOUS
 10
154.4233751963
 20
122.8702458561
 11
150.5807786671
 21
120.6388886209
  0
LINE
  5
2B5
100
AcDbEntity
  8
RACCORDO
100
AcDbLine
 62
250
  6
CONTINUOUS
 10
146.5568976921
 20
119.9001296943
 11
147.4442303795
 21
120.412459536
  0
LINE
  5
2B6
100
AcDbEntity
  8
RACCORDO
100
AcDbLine
 62
250
  6
CONTINUOUS
 10
146.8393398101
 20
119.7370511552
 11
147.5854579227
 21
120.167846256
  0
LINE
  5
2B7
100
AcDbEntity
  8
RACCORDO
100
AcDbLine
 62
250
  6
CONTINUOUS
 10
149.5846007177
 20
121.1492447909
 11
154.1005679293
 21
123.7567166135
  0
LINE
  5
2B8
100
AcDbEntity
  8
RACCORDO
100
AcDbLine
 62
7
  6
CONTINUOUS
 10
147.0164249509
 20
119.6348044143
 11
147.3439878494
 21
119.8239364493
  0
LINE
  5
2B9
100
AcDbEntity
  8
RACCORDO
100
AcDbLine
 62
250
  6
CONTINUOUS
 10
147.1911024263
 20
119.4691233361
 11
146.5928449109
 21
119.1236957586
  0
LINE
  5
2BA
100
AcDbEntity
  8
RACCORDO
100
AcDbLine
 62
250
  6
CONTINUOUS
 10
149.9942188208
 20
120.9775609249
 11
154.2773177007
 21
123.4505770296
  0
LINE
  5
2BB
100
AcDbEntity
  8
RACCORDO
100
AcDbLine
 62
250
  6
CONTINUOUS
 10
147.3325022434
 20
119.224211669
 11
146.8756306377
 21
118.9604188241
  0
LINE
  5
2BC
100
AcDbEntity
  8
0
100
AcDbLine
 62
250
  6
CONTINUOUS
 10
145.9104270801
 20
118.2608214415
 11
144.5948083389
 21
117.5012034153
  0
LINE
  5
2BD
100
AcDbEntity
  8
RACCORDO
100
AcDbLine
 62
250
  6
CONTINUOUS
 10
146.2747811799
 20
118.2263402536
 11
147.2108940355
 21
118.76684194
  0
LINE
  5
2BE
100
AcDbEntity
  8
ASSI
100
AcDbLine
 62
7
  6
CONTINUOUS
 10
151.7774475576
 20
124.0001361546
 11
149.4362054031
 21
122.6523403018
  0
LINE
  5
2BF
100
AcDbEntity
  8
ASSI
100
AcDbLine
 62
7
  6
CONTINUOUS
 10
148.6470139081
 20
122.1980220471
 11
147.439140463
 21
121.5026788386
  0
LINE
  5
2C0
100
AcDbEntity
  8
RACCORDO
100
AcDbLine
 62
250
  6
CONTINUOUS
 10
149.9072621238
 20
120.0776163245
 11
150.6824312364
 21
120.5153712084
  0
LINE
  5
2C1
100
AcDbEntity
  8
ASSI
100
AcDbLine
 62
7
  6
CONTINUOUS
 10
147.439140463
 20
121.5026788386
 11
146.9701069922
 21
121.2431041275
  0
LINE
  5
2C2
100
AcDbEntity
  8
ASSI
100
AcDbLine
 62
7
  6
CONTINUOUS
 10
146.2401639644
 20
120.8391356217
 11
144.903243175
 21
120.0992506253
  0
LINE
  5
2C3
100
AcDbEntity
  8
DRAFT
100
AcDbLine
 62
7
  6
CONTINUOUS
 10
147.2929502607
 20
119.7944677791
 11
147.0069239807
 21
119.6402901554
  0
LINE
  5
2C4
100
AcDbEntity
  8
ASSI
100
AcDbLine
 62
7
  6
CONTINUOUS
 10
145.5667052208
 20
120.3623626641
 11
144.9872461791
 21
120.0507483435
  0
LINE
  5
2C5
100
AcDbEntity
  8
RACCORDO
100
AcDbLine
 62
250
  6
CONTINUOUS
 10
145.6638985606
 20
120.3509117079
 11
145.0443847679
 21
120.0177572384
  0
LINE
  5
2C6
100
AcDbEntity
  8
RACCORDO
100
AcDbLine
 62
250
  6
CONTINUOUS
 10
147.2801282499
 20
118.70582242
 11
149.9072029194
 21
120.0776505084
  0
LWPOLYLINE
  5
2C7
100
AcDbEntity
  8
RACCORDO
100
AcDbPolyline
 62
250
  6
CONTINUOUS
 90
8
 70
0
 10
154.4233751963
 20
122.8702458561
 10
154.4413462922
 20
122.8792157455
 10
154.458564526
 20
122.8855584801
 10
154.47474179
 20
122.8891679309
 10
154.4896073961
 20
122.8899837039
 10
154.5029126024
 20
122.887992151
 10
154.5144347765
 20
122.8832265996
 10
154.5194369684
 20
122.8798491612
  0
LWPOLYLINE
  5
2C8
100
AcDbEntity
  8
RACCORDO
100
AcDbPolyline
 62
250
  6
CONTINUOUS
 90
8
 70
0
 10
154.7676563081
 20
122.6013672079
 10
154.7856273711
 20
122.6103370829
 10
154.8028455797
 20
122.6166798146
 10
154.8190228271
 20
122.620289272
 10
154.8338884243
 20
122.6211050591
 10
154.84719363
 20
122.6191135257
 10
154.8587158123
 20
122.6143479954
 10
154.8636749499
 20
122.6110041153
  0
LWPOLYLINE
  5
2C9
100
AcDbEntity
  8
0
100
AcDbPolyline
 62
250
  6
CONTINUOUS
 90
16
 70
0
 10
144.9482405756
 20
116.889040825
 10
144.9090163292
 20
116.8696696684
 10
144.8665423522
 20
116.852736525
 10
144.8212712675
 20
116.8384218434
 10
144.7736798447
 20
116.8268769894
 10
144.7242804808
 20
116.818226844
 10
144.6736175984
 20
116.8125650589
 10
144.6222440084
 20
116.8099490388
 10
144.5706950006
 20
116.8104017321
 10
144.5195004869
 20
116.8139169026
 10
144.4691352948
 20
116.820468464
 10
144.4202084025
 20
116.8299838358
 10
144.3734172445
 20
116.8423088255
 10
144.3292868158
 20
116.8572601134
 10
144.2881872227
 20
116.8746650054
 10
144.2505098971
 20
116.8943145637
  0
LWPOLYLINE
  5
2CA
100
AcDbEntity
  8
RACCORDO
100
AcDbPolyline
 62
250
  6
CONTINUOUS
 90
7
 70
0
 10
154.1005679293
 20
123.7567166135
 10
154.118799742
 20
123.765509594
 10
154.1366851887
 20
123.7713996665
 10
154.1539249979
 20
123.774288274
 10
154.1702307011
 20
123.7741270826
 10
154.1853294602
 20
123.7709187892
 10
154.1980075398
 20
123.7652805879
  0
LWPOLYLINE
  5
2CB
100
AcDbEntity
  8
RACCORDO
100
AcDbPolyline
 62
250
  6
CONTINUOUS
 90
7
 70
0
 10
150.6824312364
 20
120.5153712084
 10
150.7006630488
 20
120.5241641891
 10
150.7185484954
 20
120.5300542617
 10
150.7357883045
 20
120.5329428693
 10
150.7520940078
 20
120.5327816778
 10
150.767192767
 20
120.5295733843
 10
150.7798914022
 20
120.5239233556
  0
LWPOLYLINE
  5
2CC
100
AcDbEntity
  8
RACCORDO
100
AcDbPolyline
 62
7
  6
CONTINUOUS
 90
6
 70
0
 10
141.7322346125
 20
85.2639408211
 10
141.7527656807
 20
85.2538377663
 10
141.7773543957
 20
85.2458349894
 10
141.8029000527
 20
85.2415236274
 10
141.8293037061
 20
85.2408646909
 10
141.8429342362
 20
85.2419339664
  0
LWPOLYLINE
  5
2CD
100
AcDbEntity
  8
0
100
AcDbPolyline
 62
250
  6
CONTINUOUS
 90
9
 70
0
 10
129.2358491194
 20
83.5314000965
 10
129.2369638045
 20
83.5121336657
 10
129.2430518662
 20
83.4825745951
 10
129.2543987723
 20
83.4534943644
 10
129.270878818
 20
83.42524459
 10
129.292224951
 20
83.3982279618
 10
129.3181196729
 20
83.3727476054
 10
129.348263888
 20
83.3490172154
 10
129.3822957288
 20
83.3272627998
  0
LINE
  5
2CE
100
AcDbEntity
  8
RACCORDO
100
AcDbLine
 62
7
  6
CONTINUOUS
 10
129.2358491253
 20
104.4470318267
 11
129.2358491194
 21
104.4470769204
  0
LINE
  5
2CF
100
AcDbEntity
  8
0
100
AcDbLine
 62
7
  6
CONTINUOUS
 10
129.2358491194
 20
83.5314000965
 11
129.2358491194
 21
104.4470747999
  0
LINE
  5
2D0
100
AcDbEntity
  8
0
100
AcDbLine
 62
7
  6
CONTINUOUS
 10
129.2358491194
 20
104.7810825099
 11
129.2358491194
 21
125.6831723787
  0
LINE
  5
2D1
100
AcDbEntity
  8
RACCORDO
100
AcDbLine
 62
250
  6
CONTINUOUS
 10
129.3822957288
 20
83.3272627998
 11
129.3822957288
 21
104.2412676026
  0
LINE
  5
2D2
100
AcDbEntity
  8
DRAFT
100
AcDbLine
 62
250
  6
CONTINUOUS
 10
129.3822957288
 20
104.583211575
 11
129.3822957288
 21
125.4790350821
  0
LWPOLYLINE
  5
2D3
100
AcDbEntity
  8
0
100
AcDbPolyline
 62
250
  6
CONTINUOUS
 90
16
 70
0
 10
129.3822957288
 20
125.4790350821
 10
129.3841685657
 20
125.5220799594
 10
129.3897672349
 20
125.5668315089
 10
129.3990324222
 20
125.6128156164
 10
129.4118659688
 20
125.6595451094
 10
129.4281319115
 20
125.7065249185
 10
129.4476579228
 20
125.7532573223
 10
129.470237137
 20
125.7992472202
 10
129.4956303416
 20
125.8440073788
 10
129.5235685118
 20
125.8870635927
 10
129.5537556607
 20
125.9279597088
 10
129.5858719744
 20
125.9662624584
 10
129.6195772008
 20
126.0015660482
 10
129.6545142544
 20
126.0334964588
 10
129.6903129993
 20
126.0617154079
 10
129.7265941705
 20
126.0859239337
  0
LWPOLYLINE
  5
2D4
100
AcDbEntity
  8
RACCORDO
100
AcDbPolyline
 62
250
  6
CONTINUOUS
 90
10
 70
0
 10
129.3822957288
 20
104.2412676026
 10
129.3833465347
 20
104.2558977336
 10
129.3864676129
 20
104.2713061058
 10
129.3915660612
 20
104.2870347471
 10
129.3984902609
 20
104.30261629
 10
129.4070343031
 20
104.3175876535
 10
129.4169440503
 20
104.3315038367
 10
129.4279248634
 20
104.3439514293
 10
129.4396504308
 20
104.354560847
 10
129.4517723354
 20
104.363017117
  0
LINE
  5
2D5
100
AcDbEntity
  8
ASSI
100
AcDbLine
 62
7
  6
CONTINUOUS
 10
140.1078978394
 20
123.8133629698
 11
140.48971011
 21
124.6232334856
  0
LINE
  5
2D6
100
AcDbEntity
  8
ASSI
100
AcDbLine
 62
250
  6
CONTINUOUS
 10
140.1663270876
 20
123.739007962
 11
140.5481393582
 21
124.5488784778
  0
LWPOLYLINE
  5
2D7
100
AcDbEntity
  8
ASSI
100
AcDbPolyline
 62
7
  6
CONTINUOUS
 90
13
 70
0
 10
140.1078987742
 20
123.8133649524
 10
140.0977320172
 20
123.7930326468
 10
140.085404995
 20
123.771029258
 10
140.0718140346
 20
123.7492729263
 10
140.0571450019
 20
123.7280705384
 10
140.0416085752
 20
123.70772043
 10
140.0253770417
 20
123.688427136
 10
140.0086810023
 20
123.6704254214
 10
139.9917957204
 20
123.6539576276
 10
139.9750365362
 20
123.6392471416
 10
139.9587654566
 20
123.6264902882
 10
139.9433296194
 20
123.6158098939
 10
139.9298075508
 20
123.6076649802
  0
LWPOLYLINE
  5
2D8
100
AcDbEntity
  8
ASSI
100
AcDbPolyline
 62
7
  6
CONTINUOUS
 90
7
 70
0
 10
144.5122734047
 20
125.7936931027
 10
144.512628783
 20
125.7942478928
 10
144.5120909114
 20
125.7936241357
 10
144.5093468142
 20
125.790841825
 10
144.5041736818
 20
125.7864555849
 10
144.4967209181
 20
125.7811144591
 10
144.4862687957
 20
125.7747712409
  0
LWPOLYLINE
  5
2D9
100
AcDbEntity
  8
RACCORDO
100
AcDbPolyline
 62
7
  6
CONTINUOUS
 90
6
 70
0
 10
129.2881132039
 20
104.5998779206
 10
129.268802689
 20
104.5698778654
 10
129.2539036909
 20
104.5388067437
 10
129.2434758955
 20
104.5070640503
 10
129.2374861043
 20
104.4749655113
 10
129.2358528858
 20
104.447079168
  0
LWPOLYLINE
  5
2DA
100
AcDbEntity
  8
ASSI
100
AcDbPolyline
 62
250
  6
CONTINUOUS
 90
11
 70
0
 10
146.7484324719
 20
122.3358853806
 10
146.7345632392
 20
122.3221378109
 10
146.7267537684
 20
122.3145847588
 10
146.7182287255
 20
122.3066522317
 10
146.7089736741
 20
122.2983167948
 10
146.6988318148
 20
122.2896282832
 10
146.6876905467
 20
122.2806627876
 10
146.6755656752
 20
122.2714312231
 10
146.6623467388
 20
122.2619781298
 10
146.6478140946
 20
122.2523971129
 10
146.6317985331
 20
122.2427733589
  0
LWPOLYLINE
  5
2DB
100
AcDbEntity
  8
RACCORDO
100
AcDbPolyline
 62
7
  6
CONTINUOUS
 90
3
 70
0
 10
129.3147728839
 20
104.631425129
 10
129.3116561568
 20
104.628402049
 10
129.2881132039
 20
104.5998779206
  0
LWPOLYLINE
  5
2DC
100
AcDbEntity
  8
ASSI
100
AcDbPolyline
 62
250
  6
CONTINUOUS
 90
3
 70
0
 10
149.3740195104
 20
123.8609398863
 10
149.3850235295
 20
123.8705649245
 10
149.3973172458
 20
123.8793661506
  0
LWPOLYLINE
  5
2DD
100
AcDbEntity
  8
RACCORDO
100
AcDbPolyline
 62
250
  6
CONTINUOUS
 90
7
 70
0
 10
154.2773177007
 20
123.4505770296
 10
154.2940479243
 20
123.46197086
 10
154.3080909042
 20
123.4745162939
 10
154.3192116643
 20
123.488003412
 10
154.3272241249
 20
123.5022065383
 10
154.331994217
 20
123.5168880159
 10
154.3334496961
 20
123.53071736
  0
LWPOLYLINE
  5
2DE
100
AcDbEntity
  8
RACCORDO
100
AcDbPolyline
 62
250
  6
CONTINUOUS
 90
7
 70
0
 10
154.2773177007
 20
123.1555635725
 10
154.2940479158
 20
123.1669573962
 10
154.3080908916
 20
123.1795028235
 10
154.3192116512
 20
123.1929899358
 10
154.3272241145
 20
123.2071930573
 10
154.3319942113
 20
123.2218745317
 10
154.3334497406
 20
123.2357809798
  0
LWPOLYLINE
  5
2DF
100
AcDbEntity
  8
RACCORDO
100
AcDbPolyline
 62
250
  6
CONTINUOUS
 90
7
 70
0
 10
154.9137138037
 20
122.3160494915
 10
154.9304440189
 20
122.3274433152
 10
154.9444869946
 20
122.3399887426
 10
154.9556077542
 20
122.3534758549
 10
154.9636202175
 20
122.3676789764
 10
154.9683903144
 20
122.3823604507
 10
154.9698457886
 20
122.3961812271
  0
LWPOLYLINE
  5
2E0
100
AcDbEntity
  8
0
100
AcDbPolyline
 62
250
  6
CONTINUOUS
 90
16
 70
0
 10
144.5948083389
 20
117.5012034153
 10
144.5585271677
 20
117.4769948896
 10
144.5227284228
 20
117.4487759405
 10
144.4877913692
 20
117.4168455298
 10
144.4540861427
 20
117.3815419401
 10
144.4219698291
 20
117.3432391905
 10
144.3917826802
 20
117.3023430744
 10
144.3638445099
 20
117.2592868605
 10
144.3384513053
 20
117.2145267019
 10
144.3158720912
 20
117.1685368039
 10
144.2963460798
 20
117.1218044002
 10
144.2800801371
 20
117.074824591
 10
144.2672465905
 20
117.028095098
 10
144.2579814033
 20
116.9821109906
 10
144.252382734
 20
116.9373594411
 10
144.2505098971
 20
116.8943145637
  0
LWPOLYLINE
  5
2E1
100
AcDbEntity
  8
ASSI
100
AcDbPolyline
 62
250
  6
CONTINUOUS
 90
9
 70
0
 10
147.3325022434
 20
119.224211669
 10
147.3461571566
 20
119.2332754835
 10
147.3581044543
 20
119.2431066642
 10
147.3682162948
 20
119.2535983119
 10
147.3763805581
 20
119.2646297942
 10
147.3825172855
 20
119.2760877523
 10
147.3865672459
 20
119.2878696045
 10
147.3884786945
 20
119.2998749809
 10
147.3886342593
 20
119.3043724881
  0
LWPOLYLINE
  5
2E2
100
AcDbEntity
  8
ASSI
100
AcDbPolyline
 62
250
  6
CONTINUOUS
 90
7
 70
0
 10
147.3325022434
 20
118.8549006795
 10
147.346108608
 20
118.8639286775
 10
147.3580236446
 20
118.8737212863
 10
147.3681193766
 20
118.8841733309
 10
147.3762875729
 20
118.8951728757
 10
147.382440177
 20
118.906601484
 10
147.3865108389
 20
118.9183353811
  0
LWPOLYLINE
  5
2E3
100
AcDbEntity
  8
RACCORDO
100
AcDbPolyline
 62
250
  6
CONTINUOUS
 90
9
 70
0
 10
154.9137138037
 20
121.9275471423
 10
154.9271715996
 20
121.9364657151
 10
154.9390114677
 20
121.9461624435
 10
154.9490929841
 20
121.956541258
 10
154.9572997343
 20
121.967508431
 10
154.963515434
 20
121.9789408852
 10
154.9676458299
 20
121.9906835835
 10
154.9696455005
 20
122.002597105
 10
154.9698458437
 20
122.0077645497
  0
LWPOLYLINE
  5
2E4
100
AcDbEntity
  8
RACCORDO
100
AcDbPolyline
 62
7
  6
CONTINUOUS
 90
9
 70
0
 10
146.7585482456
 20
116.8754285306
 10
146.7620804841
 20
116.8777655944
 10
146.7715853202
 20
116.8858329836
 10
146.779781346
 20
116.8956508387
 10
146.7865912909
 20
116.9071062303
 10
146.7919514295
 20
116.9200630959
 10
146.7958121952
 20
116.9343688124
 10
146.7981368869
 20
116.9498579401
 10
146.7989075649
 20
116.9663539689
  0
LWPOLYLINE
  5
2E5
100
AcDbEntity
  8
RACCORDO
100
AcDbPolyline
 62
250
  6
CONTINUOUS
 90
6
 70
0
 10
147.2778320906
 20
116.3384726848
 10
147.2895540438
 20
116.3461449514
 10
147.2987469042
 20
116.3548915536
 10
147.3051218268
 20
116.3644379272
 10
147.3084784233
 20
116.3744843885
 10
147.308996633
 20
116.3803548434
  0
LWPOLYLINE
  5
2E6
100
AcDbEntity
  8
RACCORDO
100
AcDbPolyline
 62
250
  6
CONTINUOUS
 90
13
 70
0
 10
146.2747811799
 20
118.2263402536
 10
146.260726454
 20
118.2174885426
 10
146.246880785
 20
118.2066331043
 10
146.2334855353
 20
118.1939640096
 10
146.2207730274
 20
118.1797034614
 10
146.2089659876
 20
118.164100889
 10
146.1982735091
 20
118.1474287743
 10
146.1888816465
 20
118.1299793783
 10
146.1809537085
 20
118.1120585592
 10
146.1746305836
 20
118.0939795673
 10
146.1700227383
 20
118.0760589293
 10
146.167208551
 20
118.0586108573
 10
146.1662361554
 20
118.0419409115
  0
LINE
  5
2E7
100
AcDbEntity
  8
RACCORDO
100
AcDbLine
 62
250
  6
CONTINUOUS
 10
146.7989075649
 20
116.9663539689
 11
147.3522938526
 21
117.3085763502
  0
LINE
  5
2E8
100
AcDbEntity
  8
RACCORDO
100
AcDbLine
 62
7
  6
CONTINUOUS
 10
146.7585489835
 20
116.8754289569
 11
147.312615562
 21
117.2180720402
  0
LINE
  5
2E9
100
AcDbEntity
  8
RACCORDO
100
AcDbLine
 62
250
  6
CONTINUOUS
 10
151.3900063751
 20
119.7674740599
 11
149.0122655335
 21
118.3245147026
  0
LINE
  5
2EA
100
AcDbEntity
  8
RACCORDO
100
AcDbLine
 62
7
  6
CONTINUOUS
 10
151.3964846856
 20
119.5258120012
 11
149.1747413781
 21
118.1780170014
  0
LINE
  5
2EB
100
AcDbEntity
  8
RACCORDO
100
AcDbLine
 62
7
  6
CONTINUOUS
 10
146.75675863
 20
116.8743588424
 11
146.7585482456
 21
116.8754285306
  0
LINE
  5
2EC
100
AcDbEntity
  8
RACCORDO
100
AcDbLine
 62
250
  6
CONTINUOUS
 10
146.8461673129
 20
116.9215319995
 11
146.7187192712
 21
116.8464915393
  0
LINE
  5
2ED
100
AcDbEntity
  8
RACCORDO
100
AcDbLine
 62
250
  6
CONTINUOUS
 10
146.8927571046
 20
116.7735021801
 11
146.8691856715
 21
116.7596256172
  0
LINE
  5
2EE
100
AcDbEntity
  8
RACCORDO
100
AcDbLine
 62
250
  6
CONTINUOUS
 10
154.7676563081
 20
122.6013672079
 11
150.9671224191
 21
120.3944353257
  0
LINE
  5
2EF
100
AcDbEntity
  8
RACCORDO
100
AcDbLine
 62
250
  6
CONTINUOUS
 10
154.9137138037
 20
122.3160494915
 11
151.2063779983
 21
120.163236801
  0
LINE
  5
2F0
100
AcDbEntity
  8
RACCORDO
100
AcDbLine
 62
250
  6
CONTINUOUS
 10
146.4515254717
 20
118.0018361133
 11
147.3522938526
 21
118.5219302729
  0
LINE
  5
2F1
100
AcDbEntity
  8
0
100
AcDbLine
 62
250
  6
CONTINUOUS
 10
146.2638593168
 20
117.6486588512
 11
144.9482405756
 21
116.889040825
  0
LINE
  5
2F2
100
AcDbEntity
  8
RACCORDO
100
AcDbLine
 62
250
  6
CONTINUOUS
 10
146.5880532476
 20
116.8446089106
 11
146.7989075649
 21
116.9663539689
  0
LINE
  5
2F3
100
AcDbEntity
  8
RACCORDO
100
AcDbLine
 62
7
  6
CONTINUOUS
 10
146.5441903769
 20
116.7516241757
 11
146.7567591262
 21
116.8743591289
  0
LINE
  5
2F4
100
AcDbEntity
  8
DRAFT
100
AcDbLine
 62
7
  6
CONTINUOUS
 10
146.7338039532
 20
114.8447240394
 11
146.2638593168
 21
114.5780019473
  0
LINE
  5
2F5
100
AcDbEntity
  8
RACCORDO
100
AcDbLine
 62
250
  6
CONTINUOUS
 10
150.5502700885
 20
119.4139745345
 11
151.3514657753
 21
119.8660477274
  0
LWPOLYLINE
  5
2F6
100
AcDbEntity
  8
RACCORDO
100
AcDbPolyline
 62
250
  6
CONTINUOUS
 90
8
 70
0
 10
151.3514657753
 20
119.8660477274
 10
151.3668211154
 20
119.8744966366
 10
151.3800315622
 20
119.8814600086
 10
151.3908760863
 20
119.8868213388
 10
151.3991732354
 20
119.8904909233
 10
151.4047841859
 20
119.8924073702
 10
151.4076150854
 20
119.8925386347
 10
151.4078725549
 20
119.8923068593
  0
LINE
  5
2F7
100
AcDbEntity
  8
RACCORDO
100
AcDbLine
 62
250
  6
CONTINUOUS
 10
146.4362269553
 20
116.7115728788
 11
146.2638593168
 21
116.6171291597
  0
LINE
  5
2F8
100
AcDbEntity
  8
RACCORDO
100
AcDbLine
 62
250
  6
CONTINUOUS
 10
146.6797271046
 20
116.6837459652
 11
146.2638593168
 21
116.455883584
  0
LWPOLYLINE
  5
2F9
100
AcDbEntity
  8
RACCORDO
100
AcDbPolyline
 62
250
  6
CONTINUOUS
 90
9
 70
0
 10
146.4515254717
 20
116.9262478345
 10
146.4319333524
 20
116.9159874813
 10
146.4101673862
 20
116.9073096105
 10
146.3866082445
 20
116.9003660413
 10
146.3616679697
 20
116.895278261
 10
146.3357827901
 20
116.8921353032
 10
146.3094054932
 20
116.8909921837
 10
146.2829974592
 20
116.8918689336
 10
146.2638593168
 20
116.8939917138
  0
LWPOLYLINE
  5
2FA
100
AcDbEntity
  8
RACCORDO
100
AcDbPolyline
 62
250
  6
CONTINUOUS
 90
9
 70
0
 10
146.4515254717
 20
114.2232454991
 10
146.4319326559
 20
114.2129848193
 10
146.4101660119
 20
114.2043067877
 10
146.3866062831
 20
114.1973632009
 10
146.3616655777
 20
114.1922755165
 10
146.3357801599
 20
114.1891327287
 10
146.3094028191
 20
114.1879898112
 10
146.2829949493
 20
114.1888667562
 10
146.2638593168
 20
114.1909893966
  0
LINE
  5
2FB
100
AcDbEntity
  8
RACCORDO
100
AcDbLine
 62
250
  6
CONTINUOUS
 10
147.3522938526
 20
117.7526992747
 11
150.5502700885
 21
119.4139745345
  0
LWPOLYLINE
  5
2FC
100
AcDbEntity
  8
RACCORDO
100
AcDbPolyline
 62
250
  6
CONTINUOUS
 90
4
 70
0
 10
151.4283040277
 20
119.7888084351
 10
151.4166444889
 20
119.782785949
 10
151.4037834716
 20
119.7756921836
 10
151.3900061524
 20
119.7674744151
  0
LWPOLYLINE
  5
2FD
100
AcDbEntity
  8
RACCORDO
100
AcDbPolyline
 62
250
  6
CONTINUOUS
 90
9
 70
0
 10
148.3978439735
 20
91.9454278914
 10
148.4731370376
 20
91.9644909051
 10
148.546094813
 20
91.9758516227
 10
148.6168831361
 20
91.9795877721
 10
148.6853014534
 20
91.9756361354
 10
148.7507274165
 20
91.9639774604
 10
148.8126848924
 20
91.944691422
 10
148.8711523473
 20
91.9177341397
 10
148.8819228364
 20
91.9116969101
  0
LWPOLYLINE
  5
2FE
100
AcDbEntity
  8
RACCORDO
100
AcDbPolyline
 62
7
  6
CONTINUOUS
 90
5
 70
0
 10
147.3522938526
 20
91.221063592
 10
147.3624365837
 20
91.2223398316
 10
147.3825761279
 20
91.2274481074
 10
147.4019421571
 20
91.2350166619
 10
147.4151690154
 20
91.2418949599
  0
LWPOLYLINE
  5
2FF
100
AcDbEntity
  8
RACCORDO
100
AcDbPolyline
 62
250
  6
CONTINUOUS
 90
7
 70
0
 10
147.3522938526
 20
91.3080551051
 10
147.3715182925
 20
91.3088880911
 10
147.3909323559
 20
91.3112451821
 10
147.409637885
 20
91.3150609456
 10
147.4273076817
 20
91.3202686358
 10
147.4436326648
 20
91.3267771596
 10
147.4583272766
 20
91.3344726694
  0
LWPOLYLINE
  5
300
100
AcDbEntity
  8
RACCORDO
100
AcDbPolyline
 62
250
  6
CONTINUOUS
 90
10
 70
0
 10
147.4048064792
 20
89.225711141
 10
147.4309531953
 20
89.2263702807
 10
147.4569009213
 20
89.2283426837
 10
147.4824521794
 20
89.2316133392
 10
147.5074125095
 20
89.2361573558
 10
147.5315919477
 20
89.2419401511
 10
147.554806472
 20
89.2489177144
 10
147.5768794054
 20
89.257036942
 10
147.5976427598
 20
89.2662360417
 10
147.6169385136
 20
89.2764450031
  0
LINE
  5
301
100
AcDbEntity
  8
RACCORDO
100
AcDbLine
 62
250
  6
CONTINUOUS
 10
147.3522938526
 20
89.2251819522
 11
147.4048064792
 21
89.225711141
  0
LINE
  5
302
100
AcDbEntity
  8
RACCORDO
100
AcDbLine
 62
250
  6
CONTINUOUS
 10
147.3522938526
 20
89.641201666
 11
147.4011042647
 21
89.6416935462
  0
LWPOLYLINE
  5
303
100
AcDbEntity
  8
RACCORDO
100
AcDbPolyline
 62
250
  6
CONTINUOUS
 90
4
 70
0
 10
133.07490817
 20
91.211996668
 10
133.0842898358
 20
91.2119826009
 10
133.0995546587
 20
91.2088747749
 10
133.1128432906
 20
91.2030199667
  0
LWPOLYLINE
  5
304
100
AcDbEntity
  8
RACCORDO
100
AcDbPolyline
 62
250
  6
CONTINUOUS
 90
7
 70
0
 10
150.5974208522
 20
84.8358785526
 10
150.587839486
 20
84.8401491602
 10
150.5765154166
 20
84.8425553807
 10
150.5642861389
 20
84.8426762748
 10
150.5513562815
 20
84.8405098194
 10
150.5379421957
 20
84.836092265
 10
150.5242683353
 20
84.8294975293
  0
LINE
  5
305
100
AcDbEntity
  8
RACCORDO
100
AcDbLine
 62
7
  6
CONTINUOUS
 10
132.7318654133
 20
90.4606408999
 11
141.732419742
 21
85.263833634
  0
LINE
  5
306
100
AcDbEntity
  8
RACCORDO
100
AcDbLine
 62
250
  6
CONTINUOUS
 10
132.8766104224
 20
90.9646931934
 11
141.8805748691
 21
85.7659169681
  0
LINE
  5
307
100
AcDbEntity
  8
RACCORDO
100
AcDbLine
 62
250
  6
CONTINUOUS
 10
133.1057522142
 20
91.1422897772
 11
133.07490817
 21
91.1600987417
  0
LINE
  5
308
100
AcDbEntity
  8
RACCORDO
100
AcDbLine
 62
7
  6
CONTINUOUS
 10
133.1599622487
 20
91.1758140757
 11
133.1128636827
 21
91.2030081974
  0
LINE
  5
309
100
AcDbEntity
  8
RACCORDO
100
AcDbLine
 62
250
  6
CONTINUOUS
 10
134.131833065
 20
91.7409417043
 11
141.9819507349
 21
87.2083821468
  0
LINE
  5
30A
100
AcDbEntity
  8
RACCORDO
100
AcDbLine
 62
250
  6
CONTINUOUS
 10
134.2013096717
 20
91.8626912187
 11
141.9819507349
 21
87.3702465831
  0
LINE
  5
30B
100
AcDbEntity
  8
RACCORDO
100
AcDbLine
 62
250
  6
CONTINUOUS
 10
147.7619111355
 20
84.688310599
 11
147.3522938526
 21
84.9248162081
  0
LWPOLYLINE
  5
30C
100
AcDbEntity
  8
RACCORDO
100
AcDbPolyline
 62
250
  6
CONTINUOUS
 90
3
 70
0
 10
132.7318654145
 20
90.4606408993
 10
132.7294099758
 20
90.4621069145
 10
132.7232427258
 20
90.4662422373
  0
LINE
  5
30D
100
AcDbEntity
  8
RACCORDO
100
AcDbLine
 62
250
  6
CONTINUOUS
 10
134.0710030009
 20
91.7734462954
 11
134.0599098546
 21
91.781064516
  0
LWPOLYLINE
  5
30E
100
AcDbEntity
  8
RACCORDO
100
AcDbPolyline
 62
250
  6
CONTINUOUS
 90
43
 70
0
 10
132.7232427258
 20
90.4662422373
 10
132.7174324868
 20
90.4708018194
 10
132.7119490032
 20
90.4757921359
 10
132.7067934564
 20
90.4812012422
 10
132.7019745406
 20
90.4870085423
 10
132.6974804389
 20
90.4932192427
 10
132.6933162362
 20
90.4998216073
 10
132.6894885376
 20
90.5068000601
 10
132.685992847
 20
90.514160692
 10
132.6828342067
 20
90.5218963751
 10
132.6800213256
 20
90.5299896288
 10
132.677557931
 20
90.5384339162
 10
132.6754490927
 20
90.5472202056
 10
132.6737015878
 20
90.5563301831
 10
132.6723208961
 20
90.5657425408
 10
132.671310364
 20
90.5754416045
 10
132.67067285
 20
90.5854102884
 10
132.6704104417
 20
90.5956230854
 10
132.670523555
 20
90.6060601612
 10
132.6710119714
 20
90.6167043537
 10
132.6718744908
 20
90.627532753
 10
132.6731089806
 20
90.6385245599
 10
132.6747129357
 20
90.6496612283
 10
132.6766831863
 20
90.660922634
 10
132.6790156864
 20
90.6722881952
 10
132.6817059406
 20
90.6837379692
 10
132.6847492407
 20
90.6952525901
 10
132.6881397048
 20
90.7068111562
 10
132.6918710973
 20
90.7183935063
 10
132.6959375764
 20
90.7299813413
 10
132.7003315524
 20
90.7415535422
 10
132.7050452955
 20
90.7530901439
 10
132.7100724259
 20
90.7645745871
 10
132.7154044195
 20
90.7759869382
 10
132.7210317641
 20
90.7873063388
 10
132.7269462891
 20
90.7985148692
 10
132.7331371877
 20
90.8095913956
 10
132.7395942635
 20
90.8205169981
 10
132.7463100519
 20
90.8312770282
 10
132.7532809144
 20
90.8418632267
 10
132.7604876846
 20
90.8522440306
 10
132.7678973402
 20
90.8623718433
 10
132.7754684112
 20
90.8721958612
  0
LWPOLYLINE
  5
30F
100
AcDbEntity
  8
RACCORDO
100
AcDbPolyline
 62
250
  6
CONTINUOUS
 90
7
 70
0
 10
129.3373276517
 20
104.5005093651
 10
129.3349680135
 20
104.5209136474
 10
129.335179488
 20
104.5404813934
 10
129.3378229205
 20
104.5588611457
 10
129.3430374658
 20
104.5764043617
 10
129.3503948875
 20
104.5935066344
 10
129.3544047466
 20
104.6008192554
  0
LWPOLYLINE
  5
310
100
AcDbEntity
  8
0
100
AcDbPolyline
 62
250
  6
CONTINUOUS
 90
9
 70
0
 10
129.2358491198
 20
125.6831609718
 10
129.2369656556
 20
125.6638899749
 10
129.2430570795
 20
125.6343293389
 10
129.2544072429
 20
125.6052491973
 10
129.2708898672
 20
125.5770007394
 10
129.2922370787
 20
125.5499867765
 10
129.3181306334
 20
125.5245102671
 10
129.3482709516
 20
125.5007844935
 10
129.3822957288
 20
125.4790350821
  0
LWPOLYLINE
  5
311
100
AcDbEntity
  8
RACCORDO
100
AcDbPolyline
 62
250
  6
CONTINUOUS
 90
22
 70
0
 10
130.6606820203
 20
127.0308237759
 10
130.6606918717
 20
127.0299648742
 10
130.6608967981
 20
127.026781873
 10
130.6613698917
 20
127.0235455335
 10
130.6621162807
 20
127.0202558875
 10
130.6631385337
 20
127.0169247655
 10
130.664437234
 20
127.0135579781
 10
130.6660157436
 20
127.0101565214
 10
130.6678732633
 20
127.0067318873
 10
130.669997834
 20
127.0033050011
 10
130.6723797989
 20
126.9998875891
 10
130.675018455
 20
126.9964786676
 10
130.6779109265
 20
126.9930793733
 10
130.6810328264
 20
126.9897169558
 10
130.6843955717
 20
126.9863736881
 10
130.6880637881
 20
126.9829872336
 10
130.69200735
 20
126.9796045992
 10
130.69626641
 20
126.9761964824
 10
130.7010574772
 20
126.9726039021
 10
130.7064943097
 20
126.9687986067
 10
130.71254961
 20
126.9648688592
 10
130.719260664
 20
126.960848476
  0
LINE
  5
312
100
AcDbEntity
  8
RACCORDO
100
AcDbLine
 62
7
  6
CONTINUOUS
 10
130.6606820202
 20
126.8680873313
 11
130.6606820202
 21
127.0308279296
  0
LINE
  5
313
100
AcDbEntity
  8
RACCORDO
100
AcDbLine
 62
250
  6
CONTINUOUS
 10
130.719260664
 20
126.9050820497
 11
130.719260664
 21
126.9608309642
  0
LINE
  5
314
100
AcDbEntity
  8
RACCORDO
100
AcDbLine
 62
250
  6
CONTINUOUS
 10
131.5044082816
 20
100.8202292581
 11
131.5044082816
 21
84.8805136
  0
LINE
  5
315
100
AcDbEntity
  8
RACCORDO
100
AcDbLine
 62
250
  6
CONTINUOUS
 10
132.2052908574
 20
100.8166976621
 11
132.2052908574
 21
86.4276917691
  0
LINE
  5
316
100
AcDbEntity
  8
RACCORDO
100
AcDbLine
 62
7
  6
CONTINUOUS
 10
132.7151834821
 20
100.5235000034
 11
132.7151834821
 21
94.5245652769
  0
LINE
  5
317
100
AcDbEntity
  8
RACCORDO
100
AcDbLine
 62
7
  6
CONTINUOUS
 10
132.8212494992
 20
100.3029863562
 11
132.8212494992
 21
98.0506340778
  0
LINE
  5
318
100
AcDbEntity
  8
DRAFT
100
AcDbLine
 62
7
  6
CONTINUOUS
 10
133.07490817
 20
91.8203954005
 11
133.07490817
 21
91.1232153576
  0
LWPOLYLINE
  5
319
100
AcDbEntity
  8
RACCORDO
100
AcDbPolyline
 62
250
  6
CONTINUOUS
 90
19
 70
0
 10
131.5044082816
 20
100.8202292581
 10
131.5063224909
 20
100.8691742043
 10
131.5118912663
 20
100.9150385766
 10
131.521114608
 20
100.9578223749
 10
131.5341328112
 20
100.9978654579
 10
131.5508055807
 20
101.0348279669
 10
131.5707120302
 20
101.0676903258
 10
131.5939039014
 20
101.0962776749
 10
131.6203294528
 20
101.1207648739
 10
131.6494125736
 20
101.1406569257
 10
131.681202317
 20
101.1558752837
 10
131.7156496299
 20
101.1664984944
 10
131.7520312422
 20
101.1722672001
 10
131.7904833611
 20
101.1730391477
 10
131.8308697796
 20
101.1689565902
 10
131.8720586059
 20
101.1601869284
 10
131.9136725431
 20
101.1467859624
 10
131.9560888883
 20
101.1286978921
 10
131.9993076414
 20
101.1059227174
  0
LWPOLYLINE
  5
31A
100
AcDbEntity
  8
ASSI
100
AcDbPolyline
 62
250
  6
CONTINUOUS
 90
7
 70
0
 10
137.7001947864
 20
123.5923376603
 10
137.6914981359
 20
123.5654818905
 10
137.6842347997
 20
123.5387827087
 10
137.6784329535
 20
123.51152869
 10
137.6741019892
 20
123.4834826926
 10
137.671232515
 20
123.4548818582
 10
137.6698245307
 20
123.4257261868
  0
LWPOLYLINE
  5
31B
100
AcDbEntity
  8
ASSI
100
AcDbPolyline
 62
250
  6
CONTINUOUS
 90
9
 70
0
 10
140.1078978394
 20
123.8133629698
 10
140.1069464023
 20
123.8106151022
 10
140.1069098699
 20
123.8033229494
 10
140.1098739516
 20
123.7947894725
 10
140.1157897499
 20
123.7851554458
 10
140.1245596737
 20
123.7745797989
 10
140.1360390479
 20
123.7632369953
 10
140.1500385009
 20
123.7513141538
 10
140.1663270876
 20
123.739007962
  0
LWPOLYLINE
  5
31C
100
AcDbEntity
  8
ASSI
100
AcDbPolyline
 62
250
  6
CONTINUOUS
 90
11
 70
0
 10
140.48971011
 20
124.6232334856
 10
140.4891098643
 20
124.6217333056
 10
140.4883783533
 20
124.6161932622
 10
140.4895815187
 20
124.6098205626
 10
140.4927036329
 20
124.6026910723
 10
140.4977058282
 20
124.5948834029
 10
140.5045306794
 20
124.5864808662
 10
140.5130941427
 20
124.5775807481
 10
140.5232948223
 20
124.5682814877
 10
140.5350198498
 20
124.558680172
 10
140.5481393582
 20
124.5488784778
  0
LWPOLYLINE
  5
31D
100
AcDbEntity
  8
ASSI
100
AcDbPolyline
 62
250
  6
CONTINUOUS
 90
10
 70
0
 10
140.5481393582
 20
124.5488784778
 10
140.5571764939
 20
124.5699618246
 10
140.5677476752
 20
124.5906122226
 10
140.5797099452
 20
124.6105504105
 10
140.5929015349
 20
124.6295067586
 10
140.6071440509
 20
124.6472249147
 10
140.6222448875
 20
124.6634652706
 10
140.6379998319
 20
124.6780082032
 10
140.6541958256
 20
124.6906570442
 10
140.6706138454
 20
124.7012407394
  0
LWPOLYLINE
  5
31E
100
AcDbEntity
  8
ASSI
100
AcDbPolyline
 62
250
  6
CONTINUOUS
 90
10
 70
0
 10
146.9242554376
 20
122.4863207243
 10
146.9105106186
 20
122.4703028578
 10
146.898880679
 20
122.4536163182
 10
146.8895222271
 20
122.4364857775
 10
146.882561287
 20
122.4191418844
 10
146.8780916054
 20
122.4018181719
 10
146.8761733838
 20
122.3847479123
 10
146.8768324636
 20
122.368160959
 10
146.8800599831
 20
122.3522806519
 10
146.8841706291
 20
122.3408956919
  0
LWPOLYLINE
  5
31F
100
AcDbEntity
  8
RACCORDO
100
AcDbPolyline
 62
250
  6
CONTINUOUS
 90
7
 70
0
 10
152.4756971643
 20
125.1731654047
 10
152.4850918576
 20
125.1837227034
 10
152.4924136569
 20
125.1946659217
 10
152.4975640717
 20
125.2058721222
 10
152.5004682643
 20
125.2172116358
 10
152.501078281
 20
125.2285562915
 10
152.5009980491
 20
125.2298828497
  0
LINE
  5
320
100
AcDbEntity
  8
ASSI
100
AcDbLine
 62
250
  6
CONTINUOUS
 10
147.2292213913
 20
118.7489725996
 11
147.3325022434
 21
118.8549006795
  0
LINE
  5
321
100
AcDbEntity
  8
ASSI
100
AcDbLine
 62
7
  6
CONTINUOUS
 10
147.2630603523
 20
118.7249613313
 11
147.3318336529
 21
118.7954973844
  0
LINE
  5
322
100
AcDbEntity
  8
RACCORDO
100
AcDbLine
 62
7
  6
CONTINUOUS
 10
152.4829036643
 20
124.690735686
 11
151.8545942342
 21
124.0582419101
  0
LINE
  5
323
100
AcDbEntity
  8
RACCORDO
100
AcDbLine
 62
250
  6
CONTINUOUS
 10
149.5997363455
 20
117.4797771964
 11
154.9137138037
 21
121.9275471423
  0
LINE
  5
324
100
AcDbEntity
  8
RACCORDO
100
AcDbLine
 62
7
  6
CONTINUOUS
 10
149.6235746281
 20
117.43955278
 11
154.8982138064
 21
121.8543968017
  0
LWPOLYLINE
  5
325
100
AcDbEntity
  8
RACCORDO
100
AcDbPolyline
 62
250
  6
CONTINUOUS
 90
19
 70
0
 10
146.5880532476
 20
114.4681449449
 10
146.5763025037
 20
114.4602740418
 10
146.5648059934
 20
114.4514526082
 10
146.5535637167
 20
114.441680644
 10
146.5424942586
 20
114.4308671285
 10
146.5316790342
 20
114.4191030824
 10
146.5213622877
 20
114.4066615682
 10
146.5115830143
 20
114.3935828632
 10
146.5023022189
 20
114.3798266901
 10
146.493647161
 20
114.3655452789
 10
146.4855979281
 20
114.3507224476
 10
146.4781744326
 20
114.3353743782
 10
146.4715636711
 20
114.3197018473
 10
146.4657470511
 20
114.3036239661
 10
146.4607431651
 20
114.2872216233
 10
146.4567947867
 20
114.270938261
 10
146.4539828407
 20
114.2549216932
 10
146.4522264023
 20
114.2390241059
 10
146.4515254717
 20
114.2232454991
  0
LINE
  5
326
100
AcDbEntity
  8
RACCORDO
100
AcDbLine
 62
250
  6
CONTINUOUS
 10
146.8607835108
 20
114.6368054307
 11
146.5880532476
 21
114.4681449449
  0
LINE
  5
327
100
AcDbEntity
  8
RACCORDO
100
AcDbLine
 62
250
  6
CONTINUOUS
 10
151.3048267685
 20
114.2677903854
 11
147.3522938495
 21
111.9320897519
  0
LINE
  5
328
100
AcDbEntity
  8
DRAFT
100
AcDbLine
 62
7
  6
CONTINUOUS
 10
147.0577884739
 20
114.2581084866
 11
147.3522938526
 21
114.4281527851
  0
LWPOLYLINE
  5
329
100
AcDbEntity
  8
RACCORDO
100
AcDbPolyline
 62
250
  6
CONTINUOUS
 90
7
 70
0
 10
147.3522938526
 20
93.3000508975
 10
147.3715199779
 20
93.3008192749
 10
147.3909356297
 20
93.3031101445
 10
147.4096417178
 20
93.3068631117
 10
147.4273108652
 20
93.3120122561
 10
147.4436344802
 20
93.3184652182
 10
147.4583272766
 20
93.3261079976
  0
LWPOLYLINE
  5
32A
100
AcDbEntity
  8
RACCORDO
100
AcDbPolyline
 62
250
  6
CONTINUOUS
 90
6
 70
0
 10
152.2130870292
 20
93.1860312097
 10
152.2212316744
 20
93.1854764302
 10
152.2300153832
 20
93.1838502767
 10
152.2394237657
 20
93.181024602
 10
152.2493789895
 20
93.1768891388
 10
152.2598041072
 20
93.1713435611
  0
LINE
  5
32B
100
AcDbEntity
  8
RACCORDO
100
AcDbLine
 62
250
  6
CONTINUOUS
 10
150.6885316337
 20
86.5890435206
 11
150.6928511874
 21
86.5867661084
  0
LWPOLYLINE
  5
32C
100
AcDbEntity
  8
RACCORDO
100
AcDbPolyline
 62
250
  6
CONTINUOUS
 90
10
 70
0
 10
150.5242683353
 20
84.8294975293
 10
150.5299416332
 20
84.8262794252
 10
150.5356691079
 20
84.8227748544
 10
150.5414411694
 20
84.8189806927
 10
150.5472194276
 20
84.8149147993
 10
150.553021759
 20
84.8105575246
 10
150.5589200353
 20
84.8058399661
 10
150.5648994292
 20
84.800751471
 10
150.5709436024
 20
84.7952830054
 10
150.5771141675
 20
84.7893491699
  0
LINE
  5
32D
100
AcDbEntity
  8
RACCORDO
100
AcDbLine
 62
250
  6
CONTINUOUS
 10
150.6928511874
 20
86.5867661084
 11
150.692957036
 21
86.586705122
  0
LINE
  5
32E
100
AcDbEntity
  8
RACCORDO
100
AcDbLine
 62
250
  6
CONTINUOUS
 10
148.1046121648
 20
85.3058299957
 11
147.8823764482
 21
85.4341448782
  0
LINE
  5
32F
100
AcDbEntity
  8
RACCORDO
100
AcDbLine
 62
250
  6
CONTINUOUS
 10
150.3763368596
 20
84.9149113094
 11
150.5242683353
 21
84.8294975293
  0
LINE
  5
330
100
AcDbEntity
  8
RACCORDO
100
AcDbLine
 62
7
  6
CONTINUOUS
 10
150.4184358893
 20
84.939222227
 11
150.5974208522
 21
84.8358785526
  0
LINE
  5
331
100
AcDbEntity
  8
RACCORDO
100
AcDbLine
 62
250
  6
CONTINUOUS
 10
150.5954203469
 20
86.5781970908
 11
150.5037964549
 21
86.6310995778
  0
LINE
  5
332
100
AcDbEntity
  8
RACCORDO
100
AcDbLine
 62
7
  6
CONTINUOUS
 10
150.692957036
 20
86.586705122
 11
150.6013331432
 21
86.6396076094
  0
LWPOLYLINE
  5
333
100
AcDbEntity
  8
RACCORDO
100
AcDbPolyline
 62
250
  6
CONTINUOUS
 90
4
 70
0
 10
134.0872741885
 20
91.7503570627
 10
134.0856395555
 20
91.7555051431
 10
134.0796653675
 20
91.7648412723
 10
134.0710030009
 20
91.7734462954
  0
LINE
  5
334
100
AcDbEntity
  8
DRAFT
100
AcDbLine
 62
7
  6
CONTINUOUS
 10
132.7151834821
 20
94.5245652769
 11
133.07490817
 21
91.8203954005
  0
LINE
  5
335
100
AcDbEntity
  8
RACCORDO
100
AcDbLine
 62
7
  6
CONTINUOUS
 10
133.1538204787
 20
96.427996951
 11
133.1538204787
 21
96.620063341
  0
LINE
  5
336
100
AcDbEntity
  8
RACCORDO
100
AcDbLine
 62
7
  6
CONTINUOUS
 10
133.1538204787
 20
97.543794012
 11
133.1538204787
 21
97.735860402
  0
LINE
  5
337
100
AcDbEntity
  8
RACCORDO
100
AcDbLine
 62
250
  6
CONTINUOUS
 10
134.0599098546
 20
91.7323551746
 11
134.0599098546
 21
91.781064516
  0
LINE
  5
338
100
AcDbEntity
  8
RACCORDO
100
AcDbLine
 62
250
  6
CONTINUOUS
 10
134.8878725087
 20
124.6334293272
 11
134.8878725053
 21
124.6251063079
  0
LINE
  5
339
100
AcDbEntity
  8
RACCORDO
100
AcDbLine
 62
7
  6
CONTINUOUS
 10
135.8610125863
 20
124.0632274215
 11
135.8610125847
 21
125.156752568
  0
LINE
  5
33A
100
AcDbEntity
  8
RACCORDO
100
AcDbLine
 62
250
  6
CONTINUOUS
 10
134.0599098546
 20
91.781064516
 11
134.0601220314
 21
91.7893141328
  0
LWPOLYLINE
  5
33B
100
AcDbEntity
  8
RACCORDO
100
AcDbPolyline
 62
250
  6
CONTINUOUS
 90
3
 70
0
 10
134.0601220314
 20
91.7893141328
 10
134.0606602833
 20
91.7972057248
 10
134.0615246101
 20
91.8047392921
  0
LWPOLYLINE
  5
33C
100
AcDbEntity
  8
ASSI
100
AcDbPolyline
 62
250
  6
CONTINUOUS
 90
7
 70
0
 10
137.7259565706
 20
123.5059426374
 10
137.7245010414
 20
123.492037146
 10
137.7197309445
 20
123.4773556716
 10
137.7117184812
 20
123.4631525501
 10
137.7005977216
 20
123.4496654378
 10
137.6865547459
 20
123.4371200105
 10
137.6698245307
 20
123.4257261868
  0
LWPOLYLINE
  5
33D
100
AcDbEntity
  8
RACCORDO
100
AcDbPolyline
 62
250
  6
CONTINUOUS
 90
28
 70
0
 10
134.0615246101
 20
91.8047392921
 10
134.0627171058
 20
91.8118908971
 10
134.0642356764
 20
91.8186844774
 10
134.0660740408
 20
91.8251918452
 10
134.0682286049
 20
91.8314453063
 10
134.0707029628
 20
91.8374125549
 10
134.0735016152
 20
91.8430684859
 10
134.0766242992
 20
91.8484203792
 10
134.0800712777
 20
91.853460955
 10
134.0838478402
 20
91.8581432688
 10
134.0879595837
 20
91.8624730162
 10
134.0924009112
 20
91.8664445018
 10
134.0971603216
 20
91.8699936946
 10
134.1022515253
 20
91.8731194588
 10
134.1076608118
 20
91.8758229302
 10
134.1133355484
 20
91.8780434851
 10
134.1192786513
 20
91.879769592
 10
134.1254872042
 20
91.8810127824
 10
134.1318998261
 20
91.8817470271
 10
134.1384737886
 20
91.8819796143
 10
134.1452518201
 20
91.8817032558
 10
134.1523007247
 20
91.8808700579
 10
134.1596096752
 20
91.8795155463
 10
134.1671894989
 20
91.8776041954
 10
134.1751394818
 20
91.8749815342
 10
134.1834927192
 20
91.8715960726
 10
134.1922161158
 20
91.8674993007
 10
134.2013096717
 20
91.8626912187
  0
LINE
  5
33E
100
AcDbEntity
  8
RACCORDO
100
AcDbLine
 62
7
  6
CONTINUOUS
 10
132.2052908574
 20
86.4276917691
 11
133.0128785291
 21
90.2983874488
  0
LWPOLYLINE
  5
33F
100
AcDbEntity
  8
RACCORDO
100
AcDbPolyline
 62
7
  6
CONTINUOUS
 90
7
 70
0
 10
134.0900705534
 20
91.7513899003
 10
134.0905407484
 20
91.753571175
 10
134.0909742253
 20
91.7550325059
 10
134.0908939011
 20
91.7549326535
 10
134.0900242859
 20
91.7535344322
 10
134.0881453629
 20
91.7511855888
 10
134.0850835934
 20
91.7482737082
  0
LWPOLYLINE
  5
340
100
AcDbEntity
  8
RACCORDO
100
AcDbPolyline
 62
250
  6
CONTINUOUS
 90
6
 70
0
 10
146.3312217545
 20
114.6162342175
 10
146.3280036592
 20
114.6127812671
 10
146.307150395
 20
114.5879238142
 10
146.2873829473
 20
114.5618006031
 10
146.2687538786
 20
114.5345082374
 10
146.2638593168
 20
114.5265398016
  0
LWPOLYLINE
  5
341
100
AcDbEntity
  8
RACCORDO
100
AcDbPolyline
 62
250
  6
CONTINUOUS
 90
8
 70
0
 10
154.8982138064
 20
121.8543968017
 10
154.9026020412
 20
121.8586404701
 10
154.9083417644
 20
121.8666625249
 10
154.9125708006
 20
121.876223719
 10
154.9152430081
 20
121.8872197482
 10
154.9163292381
 20
121.8995306623
 10
154.9158176434
 20
121.9130221815
 10
154.9137138037
 20
121.9275471423
  0
LINE
  5
342
100
AcDbEntity
  8
RACCORDO
100
AcDbLine
 62
250
  6
CONTINUOUS
 10
151.4184831392
 20
113.7756168827
 11
147.4888216285
 21
111.4546319305
  0
LWPOLYLINE
  5
343
100
AcDbEntity
  8
RACCORDO
100
AcDbPolyline
 62
250
  6
CONTINUOUS
 90
16
 70
0
 10
132.2052908574
 20
100.8166976621
 10
132.1662506475
 20
100.7970797493
 10
132.1239073348
 20
100.779897057
 10
132.0787145986
 20
100.765333686
 10
132.0311566478
 20
100.7535456727
 10
131.9817430329
 20
100.7446593175
 10
131.9310031865
 20
100.7387698314
 10
131.8794807509
 20
100.7359403164
 10
131.8277277532
 20
100.7362010886
 10
131.7762986911
 20
100.739549354
 10
131.7257445912
 20
100.7459492384
 10
131.6766071057
 20
100.7553321713
 10
131.6294127087
 20
100.7675976213
 10
131.5846670554
 20
100.7826141724
 10
131.5428495646
 20
100.8002209327
 10
131.5044082816
 20
100.8202292581
  0
LINE
  5
344
100
AcDbEntity
  8
RACCORDO
100
AcDbLine
 62
7
  6
CONTINUOUS
 10
151.4605821691
 20
109.4247279982
 11
151.8140065519
 21
109.5731727733
  0
LINE
  5
345
100
AcDbEntity
  8
RACCORDO
100
AcDbLine
 62
250
  6
CONTINUOUS
 10
151.4605821691
 20
109.3725881564
 11
151.908473372
 21
109.5607107426
  0
LWPOLYLINE
  5
346
100
AcDbEntity
  8
RACCORDO
100
AcDbPolyline
 62
250
  6
CONTINUOUS
 90
7
 70
0
 10
151.908473372
 20
109.5607107426
 10
151.9249614329
 20
109.5667681713
 10
151.9410721918
 20
109.5703397148
 10
151.9565662858
 20
109.5713295181
 10
151.9712335443
 20
109.5696716857
 10
151.9848106485
 20
109.5653397622
 10
151.9914607788
 20
109.5619798603
  0
LWPOLYLINE
  5
347
100
AcDbEntity
  8
RACCORDO
100
AcDbPolyline
 62
250
  6
CONTINUOUS
 90
7
 70
0
 10
152.5247878242
 20
109.2048585021
 10
152.5412994802
 20
109.210922908
 10
152.557425632
 20
109.2144931118
 10
152.5729269381
 20
109.2154762736
 10
152.5875922775
 20
109.2138100668
 10
152.6011613648
 20
109.2094716499
 10
152.6077506799
 20
109.2061417884
  0
LWPOLYLINE
  5
348
100
AcDbEntity
  8
RACCORDO
100
AcDbPolyline
 62
250
  6
CONTINUOUS
 90
3
 70
0
 10
147.9719306581
 20
96.728902339
 10
147.934956219
 20
96.7255515798
 10
147.9198883973
 20
96.7224815429
  0
LWPOLYLINE
  5
349
100
AcDbEntity
  8
RACCORDO
100
AcDbPolyline
 62
250
  6
CONTINUOUS
 90
4
 70
0
 10
149.6484191733
 20
95.1557144537
 10
149.6313089814
 20
95.1576950786
 10
149.611988039
 20
95.1610403371
 10
149.5907934431
 20
95.1656918206
  0
LINE
  5
34A
100
AcDbEntity
  8
RACCORDO
100
AcDbLine
 62
250
  6
CONTINUOUS
 10
148.4418541135
 20
92.1564685745
 11
148.3944401322
 21
92.1709800995
  0
LINE
  5
34B
100
AcDbEntity
  8
RACCORDO
100
AcDbLine
 62
7
  6
CONTINUOUS
 10
148.4551146738
 20
92.1527321161
 11
148.3944401322
 21
92.1751904323
  0
LINE
  5
34C
100
AcDbEntity
  8
RACCORDO
100
AcDbLine
 62
250
  6
CONTINUOUS
 10
148.4932272305
 20
92.1346914821
 11
148.4418541135
 21
92.1564685745
  0
LINE
  5
34D
100
AcDbEntity
  8
RACCORDO
100
AcDbLine
 62
7
  6
CONTINUOUS
 10
148.4849949341
 20
92.1390681051
 11
148.4551146738
 21
92.1527321161
  0
LINE
  5
34E
100
AcDbEntity
  8
RACCORDO
100
AcDbLine
 62
250
  6
CONTINUOUS
 10
148.1046121648
 20
89.8555909185
 11
147.8102124983
 21
89.9917160578
  0
LINE
  5
34F
100
AcDbEntity
  8
RACCORDO
100
AcDbLine
 62
7
  6
CONTINUOUS
 10
147.996103671
 20
90.0873873674
 11
147.9964186491
 21
90.0872413094
  0
LWPOLYLINE
  5
350
100
AcDbEntity
  8
RACCORDO
100
AcDbPolyline
 62
250
  6
CONTINUOUS
 90
4
 70
0
 10
147.9964186491
 20
90.0872413094
 10
148.0074932098
 20
90.0815503898
 10
148.0276421904
 20
90.0680101539
 10
148.0457537644
 20
90.0512991491
  0
LWPOLYLINE
  5
351
100
AcDbEntity
  8
RACCORDO
100
AcDbPolyline
 62
7
  6
CONTINUOUS
 90
6
 70
0
 10
150.409678745
 20
89.1893505714
 10
150.4048180799
 20
89.1920089928
 10
150.3990452452
 20
89.1952489081
 10
150.3924072536
 20
89.1990436192
 10
150.3848380535
 20
89.2032844227
 10
150.3763368596
 20
89.207898602
  0
LINE
  5
352
100
AcDbEntity
  8
ASSI
100
AcDbLine
 62
7
  6
CONTINUOUS
 10
133.1538204787
 20
97.6114503219
 11
133.3151818721
 21
97.5182822756
  0
LINE
  5
353
100
AcDbEntity
  8
RACCORDO
100
AcDbLine
 62
7
  6
CONTINUOUS
 10
133.0478996639
 20
97.9197691133
 11
132.7151834821
 21
98.1118752668
  0
LINE
  5
354
100
AcDbEntity
  8
RACCORDO
100
AcDbLine
 62
7
  6
CONTINUOUS
 10
147.5805058187
 20
89.8546208643
 11
147.6704919042
 21
89.8026640264
  0
LINE
  5
355
100
AcDbEntity
  8
RACCORDO
100
AcDbLine
 62
7
  6
CONTINUOUS
 10
132.1028489519
 20
100.8770542868
 11
141.737039295
 21
95.3143935274
  0
LINE
  5
356
100
AcDbEntity
  8
RACCORDO
100
AcDbLine
 62
250
  6
CONTINUOUS
 10
131.9993076414
 20
101.1059227174
 11
141.6334979845
 21
95.543261958
  0
LWPOLYLINE
  5
357
100
AcDbEntity
  8
RACCORDO
100
AcDbPolyline
 62
7
  6
CONTINUOUS
 90
4
 70
0
 10
150.4184367107
 20
89.1844587866
 10
150.4178988178
 20
89.1847752739
 10
150.4161946603
 20
89.185676447
 10
150.409678745
 20
89.1893505714
  0
LWPOLYLINE
  5
358
100
AcDbEntity
  8
RACCORDO
100
AcDbPolyline
 62
7
  6
CONTINUOUS
 90
22
 70
0
 10
141.7370310187
 20
95.3143983064
 10
141.7458626971
 20
95.308961377
 10
141.7578438512
 20
95.3006466457
 10
141.7719386212
 20
95.2896710994
 10
141.7878032324
 20
95.2759194403
 10
141.805046911
 20
95.2593730244
 10
141.823273683
 20
95.2400575466
 10
141.8421809927
 20
95.2179532405
 10
141.8612857665
 20
95.1933140025
 10
141.8799498049
 20
95.1667077554
 10
141.8978305694
 20
95.1384489297
 10
141.914569356
 20
95.109003654
 10
141.9296253911
 20
95.0793282634
 10
141.9427980433
 20
95.0499733771
 10
141.9540122487
 20
95.0213928681
 10
141.9631211151
 20
94.9944084467
 10
141.9701694843
 20
94.9695588215
 10
141.9753494071
 20
94.9470786015
 10
141.9788571606
 20
94.9272901318
 10
141.9809187265
 20
94.9104970907
 10
141.9818226578
 20
94.8969353054
 10
141.9819507376
 20
94.8901781667
  0
LWPOLYLINE
  5
359
100
AcDbEntity
  8
RACCORDO
100
AcDbPolyline
 62
7
  6
CONTINUOUS
 90
11
 70
0
 10
150.6012986623
 20
86.6396279482
 10
150.592412986
 20
86.6452024932
 10
150.5825777013
 20
86.6523121397
 10
150.5717776373
 20
86.6611726136
 10
150.5603713354
 20
86.6716969112
 10
150.5486386608
 20
86.6837861902
 10
150.5367797637
 20
86.6973777592
 10
150.5249766365
 20
86.7124155286
 10
150.5134789224
 20
86.7287180094
 10
150.5024834486
 20
86.7461229536
 10
150.4995657325
 20
86.7510932484
  0
LWPOLYLINE
  5
35A
100
AcDbEntity
  8
RACCORDO
100
AcDbPolyline
 62
250
  6
CONTINUOUS
 90
16
 70
0
 10
147.4011042647
 20
89.6416935462
 10
147.4233050454
 20
89.6275561121
 10
147.4453030299
 20
89.6109122666
 10
147.4668570588
 20
89.5919444729
 10
147.4877307613
 20
89.5708607553
 10
147.5076953884
 20
89.5478921806
 10
147.5265322818
 20
89.5232902566
 10
147.5440350161
 20
89.4973244443
 10
147.5600115082
 20
89.4702795524
 10
147.5742863968
 20
89.4424523653
 10
147.5867051831
 20
89.4141429749
 10
147.5971289996
 20
89.3856666911
 10
147.6054396332
 20
89.3573509646
 10
147.6115486034
 20
89.3295104689
 10
147.6153943481
 20
89.3024437037
 10
147.6169385136
 20
89.2764450031
  0
LWPOLYLINE
  5
35B
100
AcDbEntity
  8
RACCORDO
100
AcDbPolyline
 62
250
  6
CONTINUOUS
 90
4
 70
0
 10
132.1028489519
 20
100.8770542868
 10
132.088201536
 20
100.8865663185
 10
132.065386501
 20
100.9064327715
 10
132.0456515564
 20
100.9306238106
  0
LWPOLYLINE
  5
35C
100
AcDbEntity
  8
RACCORDO
100
AcDbPolyline
 62
250
  6
CONTINUOUS
 90
4
 70
0
 10
150.5037964549
 20
86.6310995778
 10
150.4947630948
 20
86.6370182599
 10
150.4857741865
 20
86.6438107916
 10
150.4769005482
 20
86.6514273889
  0
LWPOLYLINE
  5
35D
100
AcDbEntity
  8
RACCORDO
100
AcDbPolyline
 62
250
  6
CONTINUOUS
 90
6
 70
0
 10
132.0456515564
 20
100.9306238106
 10
132.0292081485
 20
100.9588802457
 10
132.0162324569
 20
100.9908993286
 10
132.0068635072
 20
101.0263379971
 10
132.0012016812
 20
101.0648165503
 10
131.9993076414
 20
101.1059227174
  0
LWPOLYLINE
  5
35E
100
AcDbEntity
  8
RACCORDO
100
AcDbPolyline
 62
7
  6
CONTINUOUS
 90
7
 70
0
 10
142.048938033
 20
78.9118049237
 10
142.0598932237
 20
78.8846748927
 10
142.0717213592
 20
78.857306223
 10
142.0844544939
 20
78.8297424833
 10
142.0981242762
 20
78.802029852
 10
142.1127617831
 20
78.7742170848
 10
142.1283973443
 20
78.7463554651
  0
LINE
  5
35F
100
AcDbEntity
  8
ASSI
100
AcDbLine
 62
250
  6
CONTINUOUS
 10
137.6698245307
 20
123.4257261868
 11
137.6698245307
 21
123.0188420745
  0
LINE
  5
360
100
AcDbEntity
  8
ASSI
100
AcDbLine
 62
7
  6
CONTINUOUS
 10
137.7259565707
 20
123.5059435942
 11
137.7259565707
 21
122.9864321382
  0
LINE
  5
361
100
AcDbEntity
  8
ASSI
100
AcDbLine
 62
250
  6
CONTINUOUS
 10
138.1561594612
 20
124.5225169849
 11
138.1561594612
 21
124.1532059953
  0
LINE
  5
362
100
AcDbEntity
  8
ASSI
100
AcDbLine
 62
7
  6
CONTINUOUS
 10
138.2122915011
 20
124.6027343923
 11
138.2122915011
 21
124.2334234027
  0
LWPOLYLINE
  5
363
100
AcDbEntity
  8
ASSI
100
AcDbPolyline
 62
7
  6
CONTINUOUS
 90
15
 70
0
 10
137.7259565706
 20
123.5059426374
 10
137.7263844454
 20
123.5189896958
 10
137.7278711747
 20
123.534579717
 10
137.7306293217
 20
123.5521944757
 10
137.7348522982
 20
123.5717087251
 10
137.7406624764
 20
123.5927765993
 10
137.7480539845
 20
123.6148363523
 10
137.7570239091
 20
123.637554399
 10
137.7675314437
 20
123.6605894149
 10
137.7793631674
 20
123.6833629152
 10
137.7923754713
 20
123.7055652953
 10
137.8063671048
 20
123.7268569597
 10
137.8209168966
 20
123.7466835966
 10
137.8357714457
 20
123.7648377931
 10
137.8520140052
 20
123.782547313
  0
LWPOLYLINE
  5
364
100
AcDbEntity
  8
ASSI
100
AcDbPolyline
 62
250
  6
CONTINUOUS
 90
9
 70
0
 10
138.2122915011
 20
124.2334234027
 10
138.2121237456
 20
124.2286946708
 10
138.2101952149
 20
124.2167477963
 10
138.2061380116
 20
124.2049989844
 10
138.1999984504
 20
124.1935623301
 10
138.1918367104
 20
124.1825493155
 10
138.1817342107
 20
124.1720756973
 10
138.1697996807
 20
124.1622589665
 10
138.1561594612
 20
124.1532059953
  0
LWPOLYLINE
  5
365
100
AcDbEntity
  8
ASSI
100
AcDbPolyline
 62
250
  6
CONTINUOUS
 90
9
 70
0
 10
138.2122914911
 20
124.6026978653
 10
138.2121235891
 20
124.5980034559
 10
138.2101997051
 20
124.5860765605
 10
138.2061432258
 20
124.5743218311
 10
138.1999957847
 20
124.562869135
 10
138.1918247507
 20
124.5518462362
 10
138.181719555
 20
124.5413731941
 10
138.1697882568
 20
124.5315615277
 10
138.1561594612
 20
124.5225169849
  0
LWPOLYLINE
  5
366
100
AcDbEntity
  8
ASSI
100
AcDbPolyline
 62
250
  6
CONTINUOUS
 90
13
 70
0
 10
141.833872807
 20
124.3910026648
 10
141.8394626436
 20
124.4151605682
 10
141.8426897102
 20
124.4401044727
 10
141.8435020664
 20
124.46543295
 10
141.8418866334
 20
124.4907383715
 10
141.8378694032
 20
124.5156134976
 10
141.8315150114
 20
124.5396580294
 10
141.822925707
 20
124.5624850036
 10
141.8122397092
 20
124.5837270431
 10
141.7996289697
 20
124.6030422928
 10
141.7852964212
 20
124.6201198857
 10
141.7694727176
 20
124.6346849523
 10
141.7524125116
 20
124.6465030614
  0
LWPOLYLINE
  5
367
100
AcDbEntity
  8
ASSI
100
AcDbPolyline
 62
250
  6
CONTINUOUS
 90
13
 70
0
 10
143.4154322879
 20
124.4293650596
 10
143.4210221585
 20
124.4535231647
 10
143.4242492184
 20
124.4784672579
 10
143.425061533
 20
124.5037959007
 10
143.4234460292
 20
124.5291014656
 10
143.4194287063
 20
124.5539766969
 10
143.4130742169
 20
124.5780212643
 10
143.4044848275
 20
124.6008482056
 10
143.3937987715
 20
124.622090155
 10
143.3811880254
 20
124.6414052543
 10
143.3668555405
 20
124.6584826555
 10
143.3510319772
 20
124.6730475228
 10
143.3339719925
 20
124.6848654562
  0
LWPOLYLINE
  5
368
100
AcDbEntity
  8
ASSI
100
AcDbPolyline
 62
250
  6
CONTINUOUS
 90
13
 70
0
 10
144.4620335317
 20
124.6076402059
 10
144.4564434845
 20
124.5834811196
 10
144.4532164555
 20
124.5585362047
 10
144.4524043237
 20
124.5332069528
 10
144.4540200992
 20
124.5079010369
 10
144.4580377174
 20
124.4830257126
 10
144.4643924729
 20
124.4589812669
 10
144.4729820462
 20
124.436154646
 10
144.4836681609
 20
124.4149131698
 10
144.4962788375
 20
124.3955985995
 10
144.5106111219
 20
124.3785217241
 10
144.526434337
 20
124.3639573451
 10
144.5434938272
 20
124.3521398093
  0
LWPOLYLINE
  5
369
100
AcDbEntity
  8
ASSI
100
AcDbPolyline
 62
250
  6
CONTINUOUS
 90
16
 70
0
 10
144.0133078347
 20
121.5178094927
 10
144.009349111
 20
121.5028427379
 10
144.0047585089
 20
121.4884061929
 10
143.9996173107
 20
121.4745623946
 10
143.9940132851
 20
121.4613797757
 10
143.988012874
 20
121.4488806182
 10
143.9816543645
 20
121.4370464484
 10
143.9750552564
 20
121.4259877851
 10
143.9682218088
 20
121.4156319329
 10
143.9609893187
 20
121.4057148319
 10
143.9534197102
 20
121.3963021721
 10
143.9455145178
 20
121.3874171944
 10
143.9369755196
 20
121.3788280803
 10
143.9277133127
 20
121.3705651112
 10
143.9178719434
 20
121.3628528451
 10
143.9074988962
 20
121.3558247522
  0
LWPOLYLINE
  5
36A
100
AcDbEntity
  8
ASSI
100
AcDbPolyline
 62
250
  6
CONTINUOUS
 90
14
 70
0
 10
144.4983698315
 20
125.8405309097
 10
144.5034798777
 20
125.8580808572
 10
144.5105553795
 20
125.8754779586
 10
144.5195188134
 20
125.8925316119
 10
144.5302719781
 20
125.9090549853
 10
144.5426970626
 20
125.9248670487
 10
144.5566579332
 20
125.9397945586
 10
144.5720016317
 20
125.9536739663
 10
144.5885600486
 20
125.9663532055
 10
144.6061517674
 20
125.9776933608
 10
144.6245840528
 20
125.9875701888
 10
144.6436549584
 20
125.9958754769
 10
144.6631555388
 20
126.0025182289
 10
144.6828721417
 20
126.0074256647
  0
LINE
  5
36B
100
AcDbEntity
  8
ASSI
100
AcDbLine
 62
250
  6
CONTINUOUS
 10
144.284693552
 20
122.3914389163
 11
144.0133085579
 21
121.5178090751
  0
LINE
  5
36C
100
AcDbEntity
  8
ASSI
100
AcDbLine
 62
250
  6
CONTINUOUS
 10
144.5504979303
 20
122.3148302365
 11
144.2791129362
 21
121.4412003953
  0
LWPOLYLINE
  5
36D
100
AcDbEntity
  8
ASSI
100
AcDbPolyline
 62
250
  6
CONTINUOUS
 90
16
 70
0
 10
144.2791129362
 20
121.4412003953
 10
144.2691201496
 20
121.412143083
 10
144.2582853534
 20
121.3842975122
 10
144.2466085477
 20
121.3576636828
 10
144.2339744005
 20
121.3322075612
 10
144.2204982437
 20
121.307963181
 10
144.2065260734
 20
121.2850326428
 10
144.1922281662
 20
121.2635746837
 10
144.1774342454
 20
121.2434305667
 10
144.1619794766
 20
121.2242261815
 10
144.145965016
 20
121.2058787558
 10
144.1292897074
 20
121.1884710618
 10
144.1114852477
 20
121.171877307
 10
144.0923955361
 20
121.1560555604
 10
144.0721766734
 20
121.1410477529
 10
144.0508286597
 20
121.1268538844
  0
LWPOLYLINE
  5
36E
100
AcDbEntity
  8
RACCORDO
100
AcDbPolyline
 62
250
  6
CONTINUOUS
 90
10
 70
0
 10
146.7823456967
 20
116.6921450481
 10
146.7902842771
 20
116.7078766139
 10
146.7958349276
 20
116.7244215271
 10
146.7988250154
 20
116.7412651857
 10
146.7991615502
 20
116.7578836969
 10
146.7968340764
 20
116.7737601794
 10
146.791914993
 20
116.788400839
 10
146.7845573032
 20
116.8013503146
 10
146.7749898587
 20
116.8122058438
 10
146.7635102392
 20
116.8206297955
  0
LWPOLYLINE
  5
36F
100
AcDbEntity
  8
RACCORDO
100
AcDbPolyline
 62
250
  6
CONTINUOUS
 90
10
 70
0
 10
147.235326078
 20
116.4306491137
 10
147.2432646266
 20
116.4463805967
 10
147.2488152756
 20
116.4629254448
 10
147.2518053834
 20
116.4797690642
 10
147.2521419488
 20
116.4963875682
 10
147.2498145035
 20
116.5122640721
 10
147.2448954381
 20
116.5269047695
 10
147.23753775
 20
116.5398542912
 10
147.2279702853
 20
116.5507098687
 10
147.2164906204
 20
116.5591338611
  0
LWPOLYLINE
  5
370
100
AcDbEntity
  8
RACCORDO
100
AcDbPolyline
 62
250
  6
CONTINUOUS
 90
5
 70
0
 10
146.8706058569
 20
116.9447266083
 10
146.8698454184
 20
116.9435425537
 10
146.8625884199
 20
116.9347627499
 10
146.8546852753
 20
116.9274181746
 10
146.8461673129
 20
116.9215320606
  0
LINE
  5
371
100
AcDbEntity
  8
DRAFT
100
AcDbLine
 62
7
  6
CONTINUOUS
 10
132.7151834821
 20
98.5482488771
 11
132.8212494992
 21
98.6179197712
  0
LINE
  5
372
100
AcDbEntity
  8
RACCORDO
100
AcDbLine
 62
250
  6
CONTINUOUS
 10
132.7151834821
 20
97.7012200013
 11
133.0478996639
 21
97.9197691133
  0
LINE
  5
373
100
AcDbEntity
  8
RACCORDO
100
AcDbLine
 62
250
  6
CONTINUOUS
 10
132.7151834821
 20
97.4477357741
 11
133.1538204787
 21
97.735860402
  0
LINE
  5
374
100
AcDbEntity
  8
RACCORDO
100
AcDbLine
 62
250
  6
CONTINUOUS
 10
151.4605821691
 20
108.6796156133
 11
152.5247878242
 21
109.2048585021
  0
LINE
  5
375
100
AcDbEntity
  8
RACCORDO
100
AcDbLine
 62
250
  6
CONTINUOUS
 10
152.6563993641
 20
108.9556558037
 11
151.4605821691
 21
108.3654555215
  0
LINE
  5
376
100
AcDbEntity
  8
RACCORDO
100
AcDbLine
 62
250
  6
CONTINUOUS
 10
132.7151834821
 20
100.3093255163
 11
132.9219800529
 21
100.4040982552
  0
LINE
  5
377
100
AcDbEntity
  8
RACCORDO
100
AcDbLine
 62
7
  6
CONTINUOUS
 10
132.7151834821
 20
100.2543773928
 11
132.9750353149
 21
100.3734648119
  0
LWPOLYLINE
  5
378
100
AcDbEntity
  8
RACCORDO
100
AcDbPolyline
 62
250
  6
CONTINUOUS
 90
10
 70
0
 10
146.4515254717
 20
103.7422554661
 10
146.573539471
 20
103.7778906181
 10
146.6916756184
 20
103.8098249052
 10
146.8059339139
 20
103.8380583276
 10
146.9157089454
 20
103.8623735462
 10
147.021606125
 20
103.8829879
 10
147.1254416891
 20
103.9005534059
 10
147.2273389315
 20
103.915256637
 10
147.3271745585
 20
103.9269110202
 10
147.4263949247
 20
103.9356088528
  0
LWPOLYLINE
  5
379
100
AcDbEntity
  8
RACCORDO
100
AcDbPolyline
 62
7
  6
CONTINUOUS
 90
6
 70
0
 10
146.3662374754
 20
103.6312442483
 10
146.5429284044
 20
103.6821421829
 10
146.7667283447
 20
103.7368783941
 10
146.9836179674
 20
103.778538869
 10
147.1931578631
 20
103.8069715092
 10
147.3948857512
 20
103.8221091179
  0
LWPOLYLINE
  5
37A
100
AcDbEntity
  8
RACCORDO
100
AcDbPolyline
 62
7
  6
CONTINUOUS
 90
3
 70
0
 10
147.9742490026
 20
96.7516680591
 10
147.9438907301
 20
96.7552626003
 10
147.9287408261
 20
96.7555831664
  0
LINE
  5
37B
100
AcDbEntity
  8
RACCORDO
100
AcDbLine
 62
250
  6
CONTINUOUS
 10
149.5907934431
 20
95.1656918206
 11
149.5800583537
 21
95.1684710783
  0
LWPOLYLINE
  5
37C
100
AcDbEntity
  8
RACCORDO
100
AcDbPolyline
 62
7
  6
CONTINUOUS
 90
6
 70
0
 10
132.0969085911
 20
100.8811913646
 10
132.09302519
 20
100.8822614299
 10
132.0918764437
 20
100.8826454434
 10
132.0933829771
 20
100.8820041587
 10
132.0973903103
 20
100.8800516709
 10
132.1028548383
 20
100.8770508882
  0
LWPOLYLINE
  5
37D
100
AcDbEntity
  8
RACCORDO
100
AcDbPolyline
 62
250
  6
CONTINUOUS
 90
6
 70
0
 10
152.6458348412
 20
92.9808663727
 10
152.6418817111
 20
92.9828013244
 10
152.6319721424
 20
92.9852748424
 10
152.6209908994
 20
92.9850427664
 10
152.6092642863
 20
92.9821119926
 10
152.5971407559
 20
92.9765696079
  0
LWPOLYLINE
  5
37E
100
AcDbEntity
  8
RACCORDO
100
AcDbPolyline
 62
250
  6
CONTINUOUS
 90
6
 70
0
 10
152.3085523749
 20
93.1756091594
 10
152.3045450617
 20
93.1775752778
 10
152.294635493
 20
93.1800487956
 10
152.2836542501
 20
93.1798167195
 10
152.2719276372
 20
93.1768859456
 10
152.2598041072
 20
93.1713435611
  0
LWPOLYLINE
  5
37F
100
AcDbEntity
  8
DRAFT
100
AcDbPolyline
 62
7
  6
CONTINUOUS
 90
7
 70
0
 10
147.6869747485
 20
94.772100562
 10
147.7282025119
 20
94.7514592986
 10
147.7728016057
 20
94.7357491659
 10
147.8201477083
 20
94.7252249645
 10
147.8696292532
 20
94.7200126396
 10
147.9213011834
 20
94.7201408963
 10
147.9684525954
 20
94.7249080862
  0
LWPOLYLINE
  5
380
100
AcDbEntity
  8
RACCORDO
100
AcDbPolyline
 62
7
  6
CONTINUOUS
 90
10
 70
0
 10
152.3085523749
 20
93.1756091594
 10
152.295842868
 20
93.182125901
 10
152.2815906116
 20
93.1876235306
 10
152.2670606853
 20
93.191404443
 10
152.2524290517
 20
93.1934340529
 10
152.2378633789
 20
93.1937175609
 10
152.2235904756
 20
93.1922854032
 10
152.2098396587
 20
93.1892172236
 10
152.1967902288
 20
93.1846299582
 10
152.1865747324
 20
93.1797518867
  0
LINE
  5
381
100
AcDbEntity
  8
RACCORDO
100
AcDbLine
 62
250
  6
CONTINUOUS
 10
153.6063102368
 20
90.119242986
 11
153.6111968924
 21
90.1166846953
  0
LINE
  5
382
100
AcDbEntity
  8
RACCORDO
100
AcDbLine
 62
250
  6
CONTINUOUS
 10
148.4932272293
 20
92.1346914827
 11
148.4852497135
 21
92.1389437543
  0
LWPOLYLINE
  5
383
100
AcDbEntity
  8
RACCORDO
100
AcDbPolyline
 62
250
  6
CONTINUOUS
 90
9
 70
0
 10
153.5136602034
 20
90.1081766641
 10
153.4991271683
 20
90.1159507734
 10
153.4847262698
 20
90.1218360318
 10
153.4706152244
 20
90.1257679863
 10
153.4569485846
 20
90.1277035754
 10
153.4438760132
 20
90.1276216063
 10
153.4315406491
 20
90.1255229708
 10
153.4200775808
 20
90.1214306341
 10
153.4164668635
 20
90.1196276203
  0
LWPOLYLINE
  5
384
100
AcDbEntity
  8
RACCORDO
100
AcDbPolyline
 62
250
  6
CONTINUOUS
 90
5
 70
0
 10
148.5136793656
 20
92.1240688531
 10
148.5079423281
 20
92.1271625811
 10
148.5026134167
 20
92.1299645498
 10
148.4977073905
 20
92.1324725046
 10
148.4932272305
 20
92.1346914821
  0
LINE
  5
385
100
AcDbEntity
  8
RACCORDO
100
AcDbLine
 62
250
  6
CONTINUOUS
 10
148.5204309124
 20
92.1203469206
 11
148.519832645
 21
92.1206700815
  0
LWPOLYLINE
  5
386
100
AcDbEntity
  8
RACCORDO
100
AcDbPolyline
 62
7
  6
CONTINUOUS
 90
6
 70
0
 10
148.5294977982
 20
92.115182181
 10
148.5204309124
 20
92.1203469206
 10
148.5087120294
 20
92.1268209976
 10
148.4975745236
 20
92.1327298453
 10
148.4869686904
 20
92.1380996451
 10
148.4852497144
 20
92.1389437539
  0
LINE
  5
387
100
AcDbEntity
  8
RACCORDO
100
AcDbLine
 62
7
  6
CONTINUOUS
 10
148.529548017
 20
92.115153323
 11
148.8819185023
 21
91.9116994126
  0
LINE
  5
388
100
AcDbEntity
  8
RACCORDO
100
AcDbLine
 62
250
  6
CONTINUOUS
 10
153.1552491601
 20
89.9791531927
 11
152.404463399
 21
90.4126474817
  0
LINE
  5
389
100
AcDbEntity
  8
RACCORDO
100
AcDbLine
 62
250
  6
CONTINUOUS
 10
149.093762025
 20
92.3242049621
 11
148.5707375844
 21
92.6261927191
  0
LINE
  5
38A
100
AcDbEntity
  8
RACCORDO
100
AcDbLine
 62
7
  6
CONTINUOUS
 10
153.2133796324
 20
90.0104138796
 11
152.4586734335
 21
90.4461717802
  0
LINE
  5
38B
100
AcDbEntity
  8
RACCORDO
100
AcDbLine
 62
7
  6
CONTINUOUS
 10
149.1509127568
 20
92.3560313389
 11
148.5707375844
 21
92.6910172122
  0
LINE
  5
38C
100
AcDbEntity
  8
RACCORDO
100
AcDbLine
 62
250
  6
CONTINUOUS
 10
154.7723139867
 20
89.3814457443
 11
153.5136602034
 21
90.1081766641
  0
LINE
  5
38D
100
AcDbEntity
  8
RACCORDO
100
AcDbLine
 62
7
  6
CONTINUOUS
 10
154.8698506757
 20
89.3899537754
 11
153.6111968924
 21
90.1166846953
  0
LINE
  5
38E
100
AcDbEntity
  8
RACCORDO
100
AcDbLine
 62
250
  6
CONTINUOUS
 10
144.2505098971
 20
95.6565470843
 11
129.3822957288
 21
104.2412676026
  0
LINE
  5
38F
100
AcDbEntity
  8
RACCORDO
100
AcDbLine
 62
250
  6
CONTINUOUS
 10
144.3199865038
 20
95.7782965987
 11
129.4517723354
 21
104.363017117
  0
LINE
  5
390
100
AcDbEntity
  8
RACCORDO
100
AcDbLine
 62
250
  6
CONTINUOUS
 10
149.7097056087
 20
92.6672146133
 11
150.2235279194
 21
92.3705419856
  0
LINE
  5
391
100
AcDbEntity
  8
DRAFT
100
AcDbLine
 62
7
  6
CONTINUOUS
 10
144.2505098971
 20
95.9984910566
 11
129.3822957288
 21
104.583211575
  0
LINE
  5
392
100
AcDbEntity
  8
RACCORDO
100
AcDbLine
 62
250
  6
CONTINUOUS
 10
149.8535955374
 20
92.9105393159
 11
150.3597599057
 21
92.6182882593
  0
LINE
  5
393
100
AcDbEntity
  8
ASSI
100
AcDbLine
 62
7
  6
CONTINUOUS
 10
148.5319761895
 20
94.3995366256
 11
147.5107994062
 21
94.9891513019
  0
LWPOLYLINE
  5
394
100
AcDbEntity
  8
RACCORDO
100
AcDbPolyline
 62
250
  6
CONTINUOUS
 90
19
 70
0
 10
141.6334979845
 20
95.543261958
 10
141.6768441141
 20
95.5160241788
 10
141.7193497621
 20
95.4850518895
 10
141.7610149285
 20
95.4503450901
 10
141.8022041035
 20
95.4115313346
 10
141.842552797
 20
95.3689830691
 10
141.8809675383
 20
95.3238176314
 10
141.9173227628
 20
95.276047777
 10
141.9517440351
 20
95.2256607505
 10
141.983514578
 20
95.1737356238
 10
142.0125908952
 20
95.1202408714
 10
142.039016483
 20
95.0652080189
 10
142.0622050538
 20
95.0098107147
 10
142.0821015193
 20
94.9539234929
 10
142.0987609677
 20
94.8976718194
 10
142.1117623767
 20
94.8426057411
 10
142.1209654054
 20
94.78924194
 10
142.1265103946
 20
94.737063734
 10
142.1283973443
 20
94.6860711231
  0
LWPOLYLINE
  5
395
100
AcDbEntity
  8
RACCORDO
100
AcDbPolyline
 62
250
  6
CONTINUOUS
 90
10
 70
0
 10
129.3822957288
 20
104.2412676035
 10
129.3489282329
 20
104.2625858289
 10
129.319717763
 20
104.2854739434
 10
129.2948053555
 20
104.3096515257
 10
129.2741783839
 20
104.3349834522
 10
129.2580154298
 20
104.3610642377
 10
129.2464604383
 20
104.3871730602
 10
129.2392626376
 20
104.4129534913
 10
129.2360768195
 20
104.4382449354
 10
129.2358491253
 20
104.4470318267
  0
LWPOLYLINE
  5
396
100
AcDbEntity
  8
RACCORDO
100
AcDbPolyline
 62
250
  6
CONTINUOUS
 90
9
 70
0
 10
141.7370310187
 20
95.3143983064
 10
141.7223918791
 20
95.3239055592
 10
141.6995768441
 20
95.3437720121
 10
141.6798418996
 20
95.3679630512
 10
141.6633984916
 20
95.3962194863
 10
141.6504228
 20
95.4282385692
 10
141.6410538503
 20
95.4636772377
 10
141.6353920243
 20
95.502155791
 10
141.6334979845
 20
95.543261958
  0
LWPOLYLINE
  5
397
100
AcDbEntity
  8
RACCORDO
100
AcDbPolyline
 62
250
  6
CONTINUOUS
 90
8
 70
0
 10
129.4517723354
 20
104.363017117
 10
129.4249619731
 20
104.380447278
 10
129.4016312069
 20
104.3986993886
 10
129.3817800368
 20
104.4177734486
 10
129.3654293904
 20
104.4380026937
 10
129.3525583401
 20
104.4590538882
 10
129.3431041031
 20
104.4799273261
 10
129.3373276517
 20
104.5005093651
  0
LWPOLYLINE
  5
398
100
AcDbEntity
  8
RACCORDO
100
AcDbPolyline
 62
250
  6
CONTINUOUS
 90
7
 70
0
 10
150.4769005482
 20
86.6514273889
 10
150.4682126254
 20
86.6598134428
 10
150.4597777949
 20
86.6689050813
 10
150.4516595498
 20
86.6786290114
 10
150.4439199156
 20
86.6889099172
 10
150.4366192684
 20
86.6996716465
 10
150.429813513
 20
86.7108325097
  0
LWPOLYLINE
  5
399
100
AcDbEntity
  8
RACCORDO
100
AcDbPolyline
 62
250
  6
CONTINUOUS
 90
7
 70
0
 10
150.5771141675
 20
84.7893491699
 10
150.5833868026
 20
84.7829335263
 10
150.5897339516
 20
84.7760227873
 10
150.5961987772
 20
84.7685199074
 10
150.6027538469
 20
84.7603904386
 10
150.6093387412
 20
84.7516386975
 10
150.6159307221
 20
84.742219418
  0
LWPOLYLINE
  5
39A
100
AcDbEntity
  8
RACCORDO
100
AcDbPolyline
 62
250
  6
CONTINUOUS
 90
10
 70
0
 10
141.9512747776
 20
85.6434611345
 10
141.9500019127
 20
85.6581433731
 10
141.9466578357
 20
85.6736411623
 10
141.9413441183
 20
85.68948379
 10
141.9342221557
 20
85.7051900705
 10
141.9255082635
 20
85.7202829622
 10
141.9154671069
 20
85.7343040557
 10
141.9044036632
 20
85.7468274941
 10
141.8926539605
 20
85.7574729076
 10
141.880574869
 20
85.7659169681
  0
LWPOLYLINE
  5
39B
100
AcDbEntity
  8
RACCORDO
100
AcDbPolyline
 62
250
  6
CONTINUOUS
 90
9
 70
0
 10
141.9819507376
 20
94.8901781667
 10
141.9828656618
 20
94.8727517339
 10
141.9886646541
 20
94.843057238
 10
141.9997488648
 20
94.8138679343
 10
142.0159995344
 20
94.785496566
 10
142.0372425482
 20
94.7582471126
 10
142.0632503021
 20
94.7324115332
 10
142.0937441409
 20
94.7082666381
 10
142.1283973443
 20
94.6860711231
  0
LINE
  5
39C
100
AcDbEntity
  8
DRAFT
100
AcDbLine
 62
7
  6
CONTINUOUS
 10
140.1481106877
 20
123.9787457369
 11
140.1481106877
 21
123.8986593386
  0
LINE
  5
39D
100
AcDbEntity
  8
RACCORDO
100
AcDbLine
 62
7
  6
CONTINUOUS
 10
141.9819507349
 20
79.4504766538
 11
141.9819507349
 21
94.8902084198
  0
LINE
  5
39E
100
AcDbEntity
  8
RACCORDO
100
AcDbLine
 62
250
  6
CONTINUOUS
 10
142.1283973443
 20
78.7463554651
 11
142.1283973443
 21
94.6860711231
  0
LINE
  5
39F
100
AcDbEntity
  8
ASSI
100
AcDbLine
 62
250
  6
CONTINUOUS
 10
141.6697908526
 20
124.3842378024
 11
141.669465807
 21
124.3783796792
  0
LINE
  5
3A0
100
AcDbEntity
  8
ASSI
100
AcDbLine
 62
250
  6
CONTINUOUS
 10
144.4952812333
 20
125.823020401
 11
144.4983698315
 21
125.8405309097
  0
LWPOLYLINE
  5
3A1
100
AcDbEntity
  8
ASSI
100
AcDbPolyline
 62
250
  6
CONTINUOUS
 90
13
 70
0
 10
144.7767122362
 20
122.4251094558
 10
144.781485948
 20
122.4489147078
 10
144.7839966131
 20
122.4733598693
 10
144.784205839
 20
122.4980714159
 10
144.7821103996
 20
122.5226717481
 10
144.7777422858
 20
122.5467849513
 10
144.7711682208
 20
122.5700425404
 10
144.7624886363
 20
122.592089112
 10
144.7518361426
 20
122.6125877543
 10
144.7393735125
 20
122.6312251908
 10
144.7252911795
 20
122.6477165983
 10
144.7098043228
 20
122.6618099552
 10
144.6931495911
 20
122.6732898755
  0
LWPOLYLINE
  5
3A2
100
AcDbEntity
  8
ASSI
100
AcDbPolyline
 62
250
  6
CONTINUOUS
 90
5
 70
0
 10
149.3453832953
 20
123.8159250505
 10
149.3500229677
 20
123.8279349537
 10
149.3564076745
 20
123.8395356729
 10
149.3644413992
 20
123.8505736887
 10
149.3740195104
 20
123.8609398863
  0
LWPOLYLINE
  5
3A3
100
AcDbEntity
  8
ASSI
100
AcDbPolyline
 62
250
  6
CONTINUOUS
 90
4
 70
0
 10
149.345384637
 20
123.7949886004
 10
149.3490317728
 20
123.8040049176
 10
149.3571724641
 20
123.8162315291
 10
149.3682703134
 20
123.8279587472
  0
LWPOLYLINE
  5
3A4
100
AcDbEntity
  8
RACCORDO
100
AcDbPolyline
 62
250
  6
CONTINUOUS
 90
11
 70
0
 10
132.7754684112
 20
90.8721958612
 10
132.7832117163
 20
90.8817358544
 10
132.7911746479
 20
90.8910465403
 10
132.7993163946
 20
90.9000742924
 10
132.8076530689
 20
90.9088313618
 10
132.8163282345
 20
90.9174464022
 10
132.8253374483
 20
90.9258798172
 10
132.8346678356
 20
90.9340841233
 10
132.8444594838
 20
90.9421333249
 10
132.8547516001
 20
90.949992173
 10
132.8654762798
 20
90.9575397665
  0
LINE
  5
3A5
100
AcDbEntity
  8
RACCORDO
100
AcDbLine
 62
250
  6
CONTINUOUS
 10
152.6563993641
 20
106.8939335692
 11
151.4605821691
 21
105.9996288433
  0
LINE
  5
3A6
100
AcDbEntity
  8
RACCORDO
100
AcDbLine
 62
250
  6
CONTINUOUS
 10
148.3353036859
 20
103.6623557809
 11
148.2835128782
 21
103.6236234694
  0
LINE
  5
3A7
100
AcDbEntity
  8
RACCORDO
100
AcDbLine
 62
7
  6
CONTINUOUS
 10
152.6275510006
 20
106.8110387804
 11
151.4605821691
 21
105.9383086128
  0
LINE
  5
3A8
100
AcDbEntity
  8
RACCORDO
100
AcDbLine
 62
7
  6
CONTINUOUS
 10
148.3725195348
 20
103.6288678225
 11
148.3297836299
 21
103.5969073172
  0
LWPOLYLINE
  5
3A9
100
AcDbEntity
  8
RACCORDO
100
AcDbPolyline
 62
250
  6
CONTINUOUS
 90
9
 70
0
 10
152.6563993641
 20
108.9556558037
 10
152.6690237581
 20
108.9646143783
 10
152.6800691834
 20
108.9742895666
 10
152.6894076344
 20
108.9845903252
 10
152.6969338603
 20
108.9954298698
 10
152.7025407108
 20
109.006690545
 10
152.7061423872
 20
109.0182211586
 10
152.7077012434
 20
109.0298888271
 10
152.707770399
 20
109.0329253289
  0
LWPOLYLINE
  5
3AA
100
AcDbEntity
  8
RACCORDO
100
AcDbPolyline
 62
250
  6
CONTINUOUS
 90
7
 70
0
 10
152.6563993641
 20
106.8939335692
 10
152.6690161507
 20
106.9028861575
 10
152.680057992
 20
106.9125563702
 10
152.6893961067
 20
106.9228536515
 10
152.6969247301
 20
106.933692283
 10
152.7025350277
 20
106.9449542484
 10
152.7061395912
 20
106.9564863542
  0
LINE
  5
3AB
100
AcDbEntity
  8
RACCORDO
100
AcDbLine
 62
250
  6
CONTINUOUS
 10
132.7151834821
 20
96.2269741323
 11
133.1538204787
 21
96.427996951
  0
LINE
  5
3AC
100
AcDbEntity
  8
RACCORDO
100
AcDbLine
 62
7
  6
CONTINUOUS
 10
132.7151834821
 20
96.1720260088
 11
133.1184935365
 21
96.3568588536
  0
LWPOLYLINE
  5
3AD
100
AcDbEntity
  8
RACCORDO
100
AcDbPolyline
 62
7
  6
CONTINUOUS
 90
20
 70
0
 10
146.3739627912
 20
103.5046372913
 10
146.5286174995
 20
103.5437199286
 10
146.6795019925
 20
103.5774430296
 10
146.8266162702
 20
103.6058065942
 10
146.9697866205
 20
103.6287344819
 10
147.1091867555
 20
103.6463028332
 10
147.2453378107
 20
103.6587400698
 10
147.3782956991
 20
103.6661047369
 10
147.5080045078
 20
103.6683382893
 10
147.6348176337
 20
103.6654935131
 10
147.7587721981
 20
103.6576189642
 10
147.8798310798
 20
103.6446660866
 10
147.998236312
 20
103.6265419993
 10
148.1140664895
 20
103.6032672012
 10
148.2272430176
 20
103.5748211933
 10
148.3377721456
 20
103.5410495978
 10
148.4457515986
 20
103.5019020173
 10
148.5510836516
 20
103.4574288491
 10
148.6534813789
 20
103.4076269069
 10
148.7354351277
 20
103.3626174109
  0
LWPOLYLINE
  5
3AE
100
AcDbEntity
  8
RACCORDO
100
AcDbPolyline
 62
250
  6
CONTINUOUS
 90
8
 70
0
 10
147.4263949247
 20
103.9356088528
 10
147.5255855877
 20
103.9414695685
 10
147.62416099
 20
103.9443737336
 10
147.7218108137
 20
103.9440553449
 10
147.8187169506
 20
103.9404472544
 10
147.914697509
 20
103.93361661
 10
148.008896496
 20
103.923498853
 10
148.1011079125
 20
103.9100426121
  0
LWPOLYLINE
  5
3AF
100
AcDbEntity
  8
RACCORDO
100
AcDbPolyline
 62
250
  6
CONTINUOUS
 90
4
 70
0
 10
151.5305341295
 20
97.647851386
 10
151.5450778603
 20
97.6440968636
 10
151.5601906517
 20
97.638180601
 10
151.5757047183
 20
97.6300794809
  0
LWPOLYLINE
  5
3B0
100
AcDbEntity
  8
RACCORDO
100
AcDbPolyline
 62
250
  6
CONTINUOUS
 90
6
 70
0
 10
151.9510731004
 20
97.4457585725
 10
151.9471175273
 20
97.447694927
 10
151.9372079586
 20
97.4501684457
 10
151.9262267151
 20
97.4499363703
 10
151.9145001011
 20
97.4470055967
 10
151.9023765695
 20
97.4414632116
  0
LWPOLYLINE
  5
3B1
100
AcDbEntity
  8
RACCORDO
100
AcDbPolyline
 62
250
  6
CONTINUOUS
 90
6
 70
0
 10
151.6244542292
 20
97.634344326
 10
151.62044564
 20
97.63631118
 10
151.6105360714
 20
97.6387846978
 10
151.5995548284
 20
97.6385526217
 10
151.5878282155
 20
97.6356218478
 10
151.5757046855
 20
97.6300794633
  0
LINE
  5
3B2
100
AcDbEntity
  8
DRAFT
100
AcDbLine
 62
250
  6
CONTINUOUS
 10
147.6679179222
 20
95.6686547833
 11
148.4282149926
 21
95.2296687836
  0
LINE
  5
3B3
100
AcDbEntity
  8
RACCORDO
100
AcDbLine
 62
250
  6
CONTINUOUS
 10
152.2598041072
 20
93.1713435611
 11
152.5971407559
 21
92.9765696079
  0
LINE
  5
3B4
100
AcDbEntity
  8
RACCORDO
100
AcDbLine
 62
7
  6
CONTINUOUS
 10
152.3085724517
 20
93.1755975766
 11
152.6459091004
 21
92.9808236235
  0
LINE
  5
3B5
100
AcDbEntity
  8
DRAFT
100
AcDbLine
 62
250
  6
CONTINUOUS
 10
148.6513480568
 20
95.8490735072
 11
147.8815617244
 21
96.2935384878
  0
LWPOLYLINE
  5
3B6
100
AcDbEntity
  8
RACCORDO
100
AcDbPolyline
 62
250
  6
CONTINUOUS
 90
11
 70
0
 10
152.5971407559
 20
92.9765696079
 10
152.6016478798
 20
92.9739163662
 10
152.6062612821
 20
92.9709734697
 10
152.6109711092
 20
92.9677295763
 10
152.6157430522
 20
92.9641917378
 10
152.6205881218
 20
92.9603352372
 10
152.6255602871
 20
92.9560927552
 10
152.6306411965
 20
92.9514474127
 10
152.635809611
 20
92.9463848254
 10
152.6411052667
 20
92.9408248831
 10
152.6465026576
 20
92.9347408862
  0
LWPOLYLINE
  5
3B7
100
AcDbEntity
  8
RACCORDO
100
AcDbPolyline
 62
250
  6
CONTINUOUS
 90
8
 70
0
 10
148.0457537644
 20
90.0512991491
 10
148.0617432223
 20
90.0314255247
 10
148.0754843953
 20
90.0083758563
 10
148.086744865
 20
89.9823526826
 10
148.0953392725
 20
89.9537714982
 10
148.1011986127
 20
89.9229779969
 10
148.104297282
 20
89.8901584929
 10
148.1046112358
 20
89.8555913481
  0
LWPOLYLINE
  5
3B8
100
AcDbEntity
  8
RACCORDO
100
AcDbPolyline
 62
250
  6
CONTINUOUS
 90
13
 70
0
 10
150.6159307221
 20
84.742219418
 10
150.6224902968
 20
84.7320946327
 10
150.6289263658
 20
84.7213017676
 10
150.6351334084
 20
84.7099213441
 10
150.6410465909
 20
84.6979677801
 10
150.6465831532
 20
84.6854907401
 10
150.6516265571
 20
84.6726458945
 10
150.6561103302
 20
84.659496801
 10
150.6599698619
 20
84.6461070521
 10
150.6631212958
 20
84.632646849
 10
150.6655154245
 20
84.6192081454
 10
150.66711024
 20
84.6058637512
 10
150.6678634547
 20
84.5927573096
  0
LWPOLYLINE
  5
3B9
100
AcDbEntity
  8
RACCORDO
100
AcDbPolyline
 62
250
  6
CONTINUOUS
 90
10
 70
0
 10
150.6954051164
 20
86.4726467009
 10
150.6863894002
 20
86.4875655121
 10
150.6766627987
 20
86.5019208425
 10
150.6662993137
 20
86.5156034743
 10
150.6553777922
 20
86.528509308
 10
150.6439813269
 20
86.5405401538
 10
150.6321966239
 20
86.5516044792
 10
150.6201133432
 20
86.5616181051
 10
150.6078234163
 20
86.5705048462
 10
150.5954203469
 20
86.5781970908
  0
LINE
  5
3BA
100
AcDbEntity
  8
RACCORDO
100
AcDbLine
 62
250
  6
CONTINUOUS
 10
151.3964844074
 20
85.25834175
 11
150.6954051164
 21
86.4726467009
  0
LWPOLYLINE
  5
3BB
100
AcDbEntity
  8
RACCORDO
100
AcDbPolyline
 62
7
  6
CONTINUOUS
 90
12
 70
0
 10
147.6970406272
 20
82.8799792021
 10
147.7015950588
 20
82.8660039536
 10
147.7064511927
 20
82.846324843
 10
147.7096349473
 20
82.8270606196
 10
147.7111064892
 20
82.8084488244
 10
147.7108413266
 20
82.7907125707
 10
147.7088437156
 20
82.7740548797
 10
147.7051389814
 20
82.7586920019
 10
147.6997790995
 20
82.7448372688
 10
147.6928463274
 20
82.7326550125
 10
147.6844377919
 20
82.7222704329
 10
147.6746672235
 20
82.7137958576
  0
LINE
  5
3BC
100
AcDbEntity
  8
RACCORDO
100
AcDbLine
 62
7
  6
CONTINUOUS
 10
142.5758843058
 20
125.2275522181
 11
142.5793388613
 21
125.1939951902
  0
LINE
  5
3BD
100
AcDbEntity
  8
ASSI
100
AcDbLine
 62
7
  6
CONTINUOUS
 10
141.669465807
 20
124.3783796792
 11
141.6694716225
 21
124.3783165194
  0
LINE
  5
3BE
100
AcDbEntity
  8
ASSI
100
AcDbLine
 62
250
  6
CONTINUOUS
 10
141.8435620737
 20
124.2842643037
 11
141.833872807
 21
124.3910026648
  0
LWPOLYLINE
  5
3BF
100
AcDbEntity
  8
RACCORDO
100
AcDbPolyline
 62
250
  6
CONTINUOUS
 90
10
 70
0
 10
144.9482405756
 20
95.6568247375
 10
144.9469754787
 20
95.6715135585
 10
144.9436581364
 20
95.6870279605
 10
144.938389446
 20
95.7028966974
 10
144.9313295178
 20
95.7186378896
 10
144.9226928974
 20
95.7337734397
 10
144.9127421092
 20
95.7478435869
 10
144.9017794985
 20
95.7604211713
 10
144.8901379766
 20
95.7711245539
 10
144.8781710465
 20
95.7796289996
  0
LWPOLYLINE
  5
3C0
100
AcDbEntity
  8
0
100
AcDbPolyline
 62
250
  6
CONTINUOUS
 90
9
 70
0
 10
144.2505098971
 20
74.7425422815
 10
144.252382734
 20
74.7016601093
 10
144.2579814033
 20
74.6633737627
 10
144.2672465905
 20
74.6280888612
 10
144.2800801371
 20
74.5961792262
 10
144.2963460798
 20
74.5679829199
 10
144.3158720912
 20
74.5437986646
 10
144.3384513053
 20
74.5238826772
 10
144.3540512077
 20
74.5136738509
  0
LINE
  5
3C1
100
AcDbEntity
  8
DRAFT
100
AcDbLine
 62
250
  6
CONTINUOUS
 10
144.2505098971
 20
116.8943145637
 11
144.2505098971
 21
95.9984910566
  0
LINE
  5
3C2
100
AcDbEntity
  8
RACCORDO
100
AcDbLine
 62
250
  6
CONTINUOUS
 10
144.2505098971
 20
95.6565470843
 11
144.2505098971
 21
74.7425422815
  0
LINE
  5
3C3
100
AcDbEntity
  8
ASSI
100
AcDbLine
 62
7
  6
CONTINUOUS
 10
144.4658084661
 20
125.9017172429
 11
144.4658084661
 21
125.7694490364
  0
LINE
  5
3C4
100
AcDbEntity
  8
DRAFT
100
AcDbLine
 62
250
  6
CONTINUOUS
 10
144.9482405756
 20
116.889040825
 11
144.9482405756
 21
95.9723826688
  0
LINE
  5
3C5
100
AcDbEntity
  8
RACCORDO
100
AcDbLine
 62
250
  6
CONTINUOUS
 10
144.9482405756
 20
95.6568247375
 11
144.9482405756
 21
74.7372685428
  0
LINE
  5
3C6
100
AcDbEntity
  8
ASSI
100
AcDbLine
 62
250
  6
CONTINUOUS
 10
144.4934845505
 20
125.7791503617
 11
144.4942479096
 21
125.8057412007
  0
LWPOLYLINE
  5
3C7
100
AcDbEntity
  8
ASSI
100
AcDbPolyline
 62
7
  6
CONTINUOUS
 90
22
 70
0
 10
144.4658084703
 20
125.9017172429
 10
144.4674456723
 20
125.9330210776
 10
144.4724904218
 20
125.964760749
 10
144.4811106202
 20
125.9965895159
 10
144.4934019795
 20
126.0280958989
 10
144.5094310438
 20
126.0589500709
 10
144.5293215485
 20
126.0889529074
 10
144.5533058552
 20
126.1179782048
 10
144.5812571219
 20
126.1454705752
 10
144.6127150815
 20
126.1708016051
 10
144.6478618568
 20
126.1939928577
 10
144.6864199872
 20
126.2147111135
 10
144.726899248
 20
126.2322397962
 10
144.7686811209
 20
126.2465855993
 10
144.8118861681
 20
126.2579872492
 10
144.8557834029
 20
126.2663987802
 10
144.8998836425
 20
126.2718979703
 10
144.9441755724
 20
126.2746081173
 10
144.9885110848
 20
126.2745751317
 10
145.0326826204
 20
126.2718094628
 10
145.0764520534
 20
126.2663011035
 10
145.1195875946
 20
126.2580197047
  0
LINE
  5
3C8
100
AcDbEntity
  8
ASSI
100
AcDbLine
 62
250
  6
CONTINUOUS
 10
144.4942479264
 20
125.8057411805
 11
144.4952812333
 21
125.823020401
  0
LWPOLYLINE
  5
3C9
100
AcDbEntity
  8
RACCORDO
100
AcDbPolyline
 62
250
  6
CONTINUOUS
 90
10
 70
0
 10
144.2505098971
 20
95.6565470843
 10
144.2515604705
 20
95.6711755743
 10
144.2546809731
 20
95.6865825588
 10
144.2597786801
 20
95.702310224
 10
144.2667021148
 20
95.7178912268
 10
144.2752455492
 20
95.7328625826
 10
144.2851551179
 20
95.7467794218
 10
144.2961363608
 20
95.7592282099
 10
144.3078629737
 20
95.7698390346
 10
144.3199865038
 20
95.7782965987
  0
LWPOLYLINE
  5
3CA
100
AcDbEntity
  8
ASSI
100
AcDbPolyline
 62
250
  6
CONTINUOUS
 90
13
 70
0
 10
146.8504158884
 20
126.267037172
 10
146.8530114428
 20
126.2907167551
 10
146.8533018469
 20
126.3151867802
 10
146.8512824461
 20
126.3400550496
 10
146.8469856065
 20
126.3649229827
 10
146.8404801965
 20
126.3893920042
 10
146.8318704825
 20
126.4130699323
 10
146.8212944581
 20
126.4355772648
 10
146.8089216325
 20
126.4565532612
 10
146.7949503132
 20
126.4756617247
 10
146.7796044282
 20
126.4925963909
 10
146.7631299364
 20
126.5070858362
 10
146.7457908856
 20
126.5188978283
  0
LWPOLYLINE
  5
3CB
100
AcDbEntity
  8
ASSI
100
AcDbPolyline
 62
250
  6
CONTINUOUS
 90
3
 70
0
 10
147.3865108389
 20
118.9183353811
 10
147.3884563283
 20
118.9302477852
 10
147.3886342834
 20
118.9351180869
  0
LWPOLYLINE
  5
3CC
100
AcDbEntity
  8
ASSI
100
AcDbPolyline
 62
250
  6
CONTINUOUS
 90
10
 70
0
 10
146.8210409632
 20
122.5314610067
 10
146.8176153251
 20
122.5132923356
 10
146.8155676676
 20
122.4951954991
 10
146.8149162742
 20
122.4773320673
 10
146.8156669632
 20
122.4598615263
 10
146.8178130327
 20
122.4429398553
 10
146.821335321
 20
122.4267181336
 10
146.8262023818
 20
122.4113411908
 10
146.8323707643
 20
122.396946314
 10
146.8397853977
 20
122.3836620226
  0
LWPOLYLINE
  5
3CD
100
AcDbEntity
  8
RACCORDO
100
AcDbPolyline
 62
250
  6
CONTINUOUS
 90
8
 70
0
 10
152.6275510006
 20
106.8110387804
 10
152.6350019464
 20
106.8176096848
 10
152.6424081132
 20
106.8268286911
 10
152.6483477034
 20
106.8376203558
 10
152.6527560077
 20
106.8498671171
 10
152.6555850059
 20
106.8634355677
 10
152.6568038839
 20
106.8781779136
 10
152.6563993641
 20
106.8939335692
  0
LINE
  5
3CE
100
AcDbEntity
  8
RACCORDO
100
AcDbLine
 62
7
  6
CONTINUOUS
 10
134.0850835934
 20
91.7482737082
 11
134.0815121262
 21
91.7457142434
  0
LWPOLYLINE
  5
3CF
100
AcDbEntity
  8
RACCORDO
100
AcDbPolyline
 62
7
  6
CONTINUOUS
 90
17
 70
0
 10
132.825286989
 20
90.9688458377
 10
132.7965179303
 20
90.9486897467
 10
132.7662873412
 20
90.9219796213
 10
132.7384596069
 20
90.8914807439
 10
132.7131601933
 20
90.8574782213
 10
132.6908833192
 20
90.8206023931
 10
132.6723392948
 20
90.7820424839
 10
132.657779226
 20
90.7423120554
 10
132.6475510191
 20
90.7020404494
 10
132.6420710639
 20
90.6625179313
 10
132.6414918624
 20
90.6238113476
 10
132.6461203509
 20
90.5865996406
 10
132.6557575458
 20
90.5527857979
 10
132.6697436487
 20
90.5232188757
 10
132.6877948617
 20
90.497587503
 10
132.7095437794
 20
90.4761126015
 10
132.7329486918
 20
90.4600248318
  0
LWPOLYLINE
  5
3D0
100
AcDbEntity
  8
RACCORDO
100
AcDbPolyline
 62
250
  6
CONTINUOUS
 90
10
 70
0
 10
134.131833065
 20
91.7409417043
 10
134.1439565951
 20
91.7493992683
 10
134.155683208
 20
91.7600100931
 10
134.1666644509
 20
91.7724588811
 10
134.1765740196
 20
91.7863757204
 10
134.185117454
 20
91.8013470761
 10
134.1920408886
 20
91.816928079
 10
134.1971385957
 20
91.8326557442
 10
134.2002590983
 20
91.8480627287
 10
134.2013096717
 20
91.8626912187
  0
LINE
  5
3D1
100
AcDbEntity
  8
RACCORDO
100
AcDbLine
 62
250
  6
CONTINUOUS
 10
132.8654762798
 20
90.9575397665
 11
132.8766104224
 21
90.9646931934
  0
LINE
  5
3D2
100
AcDbEntity
  8
RACCORDO
100
AcDbLine
 62
7
  6
CONTINUOUS
 10
132.8252479361
 20
90.9688217239
 11
134.0814740242
 21
91.7456907806
  0
LINE
  5
3D3
100
AcDbEntity
  8
RACCORDO
100
AcDbLine
 62
250
  6
CONTINUOUS
 10
132.8766104224
 20
90.9646931934
 11
134.131833065
 21
91.7409417043
  0
LWPOLYLINE
  5
3D4
100
AcDbEntity
  8
RACCORDO
100
AcDbPolyline
 62
250
  6
CONTINUOUS
 90
16
 70
0
 10
134.0815134206
 20
91.7457151059
 10
134.0828049931
 20
91.746471868
 10
134.0855034519
 20
91.7478163598
 10
134.0883368797
 20
91.7489214027
 10
134.0912969134
 20
91.7497803534
 10
134.0943787663
 20
91.750388674
 10
134.0975669715
 20
91.7507409872
 10
134.1008319133
 20
91.7508353391
 10
134.1041846096
 20
91.7506731307
 10
134.1076734772
 20
91.7502444035
 10
134.1112885435
 20
91.7495377453
 10
134.1150263947
 20
91.7485403537
 10
134.1189513967
 20
91.7472126784
 10
134.123080553
 20
91.7455167804
 10
134.1273791198
 20
91.7434345445
 10
134.131833065
 20
91.7409417043
  0
LWPOLYLINE
  5
3D5
100
AcDbEntity
  8
RACCORDO
100
AcDbPolyline
 62
250
  6
CONTINUOUS
 90
6
 70
0
 10
132.825286989
 20
90.9688458377
 10
132.8306684613
 20
90.9715294485
 10
132.8408152153
 20
90.9738943057
 10
132.8520866501
 20
90.9735218752
 10
132.8641404211
 20
90.9704234687
 10
132.8766104224
 20
90.9646931934
  0
LWPOLYLINE
  5
3D6
100
AcDbEntity
  8
RACCORDO
100
AcDbPolyline
 62
7
  6
CONTINUOUS
 90
4
 70
0
 10
147.3948857512
 20
103.8221091179
 10
147.5883394745
 20
103.8239935771
 10
147.7730490312
 20
103.8127984237
 10
147.9487941274
 20
103.788822735
  0
LWPOLYLINE
  5
3D7
100
AcDbEntity
  8
RACCORDO
100
AcDbPolyline
 62
250
  6
CONTINUOUS
 90
11
 70
0
 10
146.2638593168
 20
103.7099450186
 10
146.2777497574
 20
103.7082938248
 10
146.298816653
 20
103.7071082579
 10
146.3199826114
 20
103.7072148632
 10
146.3410105585
 20
103.708612454
 10
146.3616649748
 20
103.7112853854
 10
146.3817144965
 20
103.7152037249
 10
146.400934513
 20
103.7203235803
 10
146.4191097314
 20
103.7265876009
 10
146.4360365833
 20
103.7339256269
 10
146.4515254717
 20
103.7422554661
  0
LWPOLYLINE
  5
3D8
100
AcDbEntity
  8
RACCORDO
100
AcDbPolyline
 62
250
  6
CONTINUOUS
 90
48
 70
0
 10
148.1011079125
 20
103.9100426121
 10
148.1915377577
 20
103.8932992585
 10
148.2799480372
 20
103.8733583475
 10
148.3662275402
 20
103.850231459
 10
148.4504874774
 20
103.823907013
 10
148.5328234861
 20
103.7944398248
 10
148.6132327032
 20
103.7618447047
 10
148.6917179918
 20
103.7261068425
 10
148.7683835777
 20
103.687236622
 10
148.8432675504
 20
103.6452193881
 10
148.9163318204
 20
103.600069796
 10
148.9875663455
 20
103.5518421946
 10
149.0570208599
 20
103.5004722841
 10
149.1246456293
 20
103.4460243644
 10
149.1902814093
 20
103.3887456843
 10
149.2538599497
 20
103.3286674316
 10
149.3154495007
 20
103.2657584185
 10
149.3750955686
 20
103.2001723315
 10
149.4326685575
 20
103.132126579
 10
149.4882980633
 20
103.0614037525
 10
149.5424183807
 20
102.9875053128
 10
149.5950134307
 20
102.9106629231
 10
149.6460992923
 20
102.8306449202
 10
149.6961584972
 20
102.7462577745
 10
149.7452904882
 20
102.6576153656
 10
149.7933958225
 20
102.564603814
 10
149.8406587026
 20
102.4656879511
 10
149.887215984
 20
102.360849062
 10
149.9329308112
 20
102.2501058617
 10
149.9775768206
 20
102.1319793268
 10
150.0212896166
 20
102.0062194805
 10
150.0639335948
 20
101.8730762998
 10
150.1048755787
 20
101.7318206919
 10
150.1440860441
 20
101.5826056822
 10
150.1815945151
 20
101.4252782454
 10
150.2168563883
 20
101.2586502129
 10
150.2499850674
 20
101.0815546755
 10
150.2808671486
 20
100.8951585424
 10
150.3086178163
 20
100.7017743729
 10
150.3330764321
 20
100.4994302092
 10
150.3544036344
 20
100.2900980091
 10
150.3721965239
 20
100.0820062056
 10
150.3860336211
 20
99.8747999
 10
150.3963364054
 20
99.6688339909
 10
150.4039664151
 20
99.4734016067
 10
150.4092108295
 20
99.2916004571
 10
150.4117824692
 20
99.1203328324
 10
150.4116813342
 20
98.9595987327
  0
LINE
  5
3D9
100
AcDbEntity
  8
RACCORDO
100
AcDbLine
 62
7
  6
CONTINUOUS
 10
147.9487941274
 20
103.788822735
 11
148.1155970078
 21
103.7524257442
  0
LWPOLYLINE
  5
3DA
100
AcDbEntity
  8
RACCORDO
100
AcDbPolyline
 62
7
  6
CONTINUOUS
 90
5
 70
0
 10
148.1155970078
 20
103.7524257442
 10
148.2732590542
 20
103.7041059247
 10
148.4218089247
 20
103.6444380114
 10
148.5617164431
 20
103.5738726703
 10
148.5850166884
 20
103.5606232752
  0
LWPOLYLINE
  5
3DB
100
AcDbEntity
  8
RACCORDO
100
AcDbPolyline
 62
7
  6
CONTINUOUS
 90
10
 70
0
 10
151.6244542278
 20
97.6343443268
 10
151.6092315889
 20
97.6422290152
 10
151.5916973378
 20
97.6491938759
 10
151.574006598
 20
97.6540422924
 10
151.5562991946
 20
97.6567484752
 10
151.53875938
 20
97.6573130318
 10
151.5216992545
 20
97.6557853416
 10
151.5053887121
 20
97.6522821002
 10
151.4899883133
 20
97.646946573
 10
151.4779329578
 20
97.6412110692
  0
LINE
  5
3DC
100
AcDbEntity
  8
RACCORDO
100
AcDbLine
 62
250
  6
CONTINUOUS
 10
151.5757046855
 20
97.6300794633
 11
151.9023765695
 21
97.4414632116
  0
LINE
  5
3DD
100
AcDbEntity
  8
RACCORDO
100
AcDbLine
 62
7
  6
CONTINUOUS
 10
151.62447303
 20
97.6343334788
 11
151.9511449142
 21
97.4457172271
  0
LWPOLYLINE
  5
3DE
100
AcDbEntity
  8
RACCORDO
100
AcDbPolyline
 62
250
  6
CONTINUOUS
 90
12
 70
0
 10
151.9023765695
 20
97.4414632116
 10
151.9069614999
 20
97.4387624942
 10
151.9115065782
 20
97.4358609935
 10
151.9160038638
 20
97.432768084
 10
151.9204127265
 20
97.4295183843
 10
151.9247595447
 20
97.4260992817
 10
151.9291348322
 20
97.4224366468
 10
151.9335404703
 20
97.4185170025
 10
151.9379535773
 20
97.4143487624
 10
151.9424211852
 20
97.4098715256
 10
151.9469252411
 20
97.4050808978
 10
151.9514510662
 20
97.399969277
  0
LINE
  5
3DF
100
AcDbEntity
  8
RACCORDO
100
AcDbLine
 62
250
  6
CONTINUOUS
 10
152.6465026576
 20
92.9347408862
 11
152.6519581177
 21
92.928125225
  0
LINE
  5
3E0
100
AcDbEntity
  8
RACCORDO
100
AcDbLine
 62
7
  6
CONTINUOUS
 10
151.4672367721
 20
85.29919754
 11
150.7661572847
 21
86.5135028312
  0
LWPOLYLINE
  5
3E1
100
AcDbEntity
  8
RACCORDO
100
AcDbPolyline
 62
7
  6
CONTINUOUS
 90
11
 70
0
 10
150.4995657394
 20
86.7510932514
 10
150.4907940937
 20
86.7671094679
 10
150.4819523352
 20
86.7852645124
 10
150.4743224635
 20
86.803195463
 10
150.4679590234
 20
86.8205959707
 10
150.4628481113
 20
86.8372456499
 10
150.4589554452
 20
86.8529214181
 10
150.4562416211
 20
86.8673289178
 10
150.4546233923
 20
86.8801040134
 10
150.4539360297
 20
86.8910661252
 10
150.4538788602
 20
86.8949732105
  0
LWPOLYLINE
  5
3E2
100
AcDbEntity
  8
RACCORDO
100
AcDbPolyline
 62
250
  6
CONTINUOUS
 90
3
 70
0
 10
150.429813513
 20
86.7108325097
 10
150.4235646496
 20
86.7222778301
 10
150.4184358895
 20
86.732857844
  0
LWPOLYLINE
  5
3E3
100
AcDbEntity
  8
RACCORDO
100
AcDbPolyline
 62
250
  6
CONTINUOUS
 90
13
 70
0
 10
151.3964846039
 20
85.2583414097
 10
151.409455942
 20
85.2344993733
 10
151.4202922044
 20
85.2100043364
 10
151.4287929459
 20
85.1853093994
 10
151.4348009228
 20
85.16087136
 10
151.4382050018
 20
85.1371422644
 10
151.4389422154
 20
85.1145610446
 10
151.436998927
 20
85.0935453997
 10
151.4324110827
 20
85.0744840696
 10
151.425263547
 20
85.0577296438
 10
151.4156885321
 20
85.0435920395
 10
151.4038631534
 20
85.0323327689
 10
151.3980014024
 20
85.0283458521
  0
LWPOLYLINE
  5
3E4
100
AcDbEntity
  8
RACCORDO
100
AcDbPolyline
 62
250
  6
CONTINUOUS
 90
7
 70
0
 10
148.264640362
 20
91.7323705618
 10
148.2746173284
 20
91.7134139037
 10
148.284804795
 20
91.6896736061
 10
148.2928403621
 20
91.6657133991
 10
148.2985866434
 20
91.6419430923
 10
148.3019454182
 20
91.618769206
 10
148.3028592971
 20
91.5965880579
  0
LINE
  5
3E5
100
AcDbEntity
  8
RACCORDO
100
AcDbLine
 62
250
  6
CONTINUOUS
 10
147.6040561751
 20
89.8410231837
 11
147.593904998
 21
89.8626178589
  0
LINE
  5
3E6
100
AcDbEntity
  8
RACCORDO
100
AcDbLine
 62
7
  6
CONTINUOUS
 10
147.8392277576
 20
89.6409211243
 11
147.7040978647
 21
89.9283839586
  0
LWPOLYLINE
  5
3E7
100
AcDbEntity
  8
ASSI
100
AcDbPolyline
 62
250
  6
CONTINUOUS
 90
13
 70
0
 10
142.029733874
 20
120.6296221152
 10
142.0270796978
 20
120.6511280037
 10
142.0222638797
 20
120.6733055215
 10
142.0153626372
 20
120.695813275
 10
142.0064852289
 20
120.7183027585
 10
141.9957691678
 20
120.7404316871
 10
141.9833759544
 20
120.7618686687
 10
141.9694765616
 20
120.7823108573
 10
141.9542998186
 20
120.8014153588
 10
141.9381384732
 20
120.8188293046
 10
141.9212696083
 20
120.8342882712
 10
141.9039366237
 20
120.8476016216
 10
141.8864039829
 20
120.8585930566
  0
LWPOLYLINE
  5
3E8
100
AcDbEntity
  8
ASSI
100
AcDbPolyline
 62
250
  6
CONTINUOUS
 90
13
 70
0
 10
143.9293563555
 20
124.5892376184
 10
143.9272931092
 20
124.6109403506
 10
143.9230045354
 20
124.6334632097
 10
143.9165592428
 20
124.6564460306
 10
143.908060328
 20
124.6795212945
 10
143.8976437186
 20
124.7023200282
 10
143.885475992
 20
124.7244777027
 10
143.8717517326
 20
124.7456400205
 10
143.8566904054
 20
124.7654686142
 10
143.8405328271
 20
124.7836464708
 10
143.8235373517
 20
124.7998829505
 10
143.8059757445
 20
124.8139184413
 10
143.7881288123
 20
124.8255285366
  0
LWPOLYLINE
  5
3E9
100
AcDbEntity
  8
ASSI
100
AcDbPolyline
 62
250
  6
CONTINUOUS
 90
13
 70
0
 10
144.2504177392
 20
124.5418103288
 10
144.2524809123
 20
124.5201081058
 10
144.2567693378
 20
124.4975856764
 10
144.2632144431
 20
124.4746031765
 10
144.2717131705
 20
124.4515280985
 10
144.2821296244
 20
124.4287294153
 10
144.2942972447
 20
124.40657168
 10
144.30802147
 20
124.3854091972
 10
144.3230828484
 20
124.3655803571
 10
144.339240547
 20
124.3474022247
 10
144.3562362026
 20
124.3311654703
 10
144.373798053
 20
124.3171297212
 10
144.3916452824
 20
124.3055194105
  0
LINE
  5
3EA
100
AcDbEntity
  8
ASSI
100
AcDbLine
 62
250
  6
CONTINUOUS
 10
146.325297495
 20
121.5955056373
 11
146.3522386208
 21
121.3019208354
  0
LINE
  5
3EB
100
AcDbEntity
  8
ASSI
100
AcDbLine
 62
250
  6
CONTINUOUS
 10
146.2964338947
 20
121.926426014
 11
146.325297495
 21
121.5955056373
  0
LWPOLYLINE
  5
3EC
100
AcDbEntity
  8
ASSI
100
AcDbPolyline
 62
250
  6
CONTINUOUS
 90
5
 70
0
 10
144.4658084661
 20
125.9017172429
 10
144.4676204306
 20
125.8771617663
 10
144.4729940682
 20
125.8529494651
 10
144.4818910845
 20
125.8290857372
 10
144.4942479096
 20
125.8057412007
  0
LWPOLYLINE
  5
3ED
100
AcDbEntity
  8
RACCORDO
100
AcDbPolyline
 62
250
  6
CONTINUOUS
 90
12
 70
0
 10
146.5880532476
 20
114.4681449449
 10
146.5865054753
 20
114.4899571692
 10
146.5825216376
 20
114.51276912
 10
146.5761699193
 20
114.5361903321
 10
146.5675590354
 20
114.5598199105
 10
146.556836372
 20
114.5832533907
 10
146.5441854638
 20
114.6060896614
 10
146.5298228508
 20
114.6279378355
 10
146.5139943736
 20
114.6484239361
 10
146.4969709684
 20
114.6671972964
 10
146.4790440239
 20
114.6839365694
 10
146.4670110997
 20
114.6933029091
  0
LWPOLYLINE
  5
3EE
100
AcDbEntity
  8
RACCORDO
100
AcDbPolyline
 62
250
  6
CONTINUOUS
 90
9
 70
0
 10
146.6797271046
 20
116.6837459652
 10
146.6786813397
 20
116.6985601074
 10
146.6755758197
 20
116.7141966992
 10
146.6705049041
 20
116.7301806307
 10
146.6636226707
 20
116.7460262385
 10
146.6551382322
 20
116.7612520618
 10
146.6453093825
 20
116.7753954708
 10
146.6344347658
 20
116.7880267251
 10
146.6239910939
 20
116.7977002678
  0
LWPOLYLINE
  5
3EF
100
AcDbEntity
  8
0
100
AcDbPolyline
 62
250
  6
CONTINUOUS
 90
16
 70
0
 10
144.9482405756
 20
116.889040825
 10
144.9453506279
 20
116.9324177471
 10
144.938701927
 20
116.9776231426
 10
144.9283677342
 20
117.0241591283
 10
144.9144600828
 20
117.071518701
 10
144.8971331996
 20
117.1191748114
 10
144.8765856841
 20
117.1665860669
 10
144.8530525571
 20
117.2132208171
 10
144.8267913774
 20
117.2585779443
 10
144.7980839048
 20
117.3021742553
 10
144.7672009983
 20
117.3435874015
 10
144.7345218667
 20
117.3822986186
 10
144.7005420501
 20
117.4177495359
 10
144.6656938692
 20
117.4495523325
 10
144.6303209009
 20
117.4774545084
 10
144.5948083341
 20
117.5012034126
  0
LWPOLYLINE
  5
3F0
100
AcDbEntity
  8
RACCORDO
100
AcDbPolyline
 62
250
  6
CONTINUOUS
 90
8
 70
0
 10
147.4284154667
 20
84.0074224722
 10
147.4266658433
 20
84.0392834871
 10
147.4214931476
 20
84.0725588426
 10
147.4129802216
 20
84.106716366
 10
147.4012633255
 20
84.1412097856
 10
147.3865299305
 20
84.1754875398
 10
147.3690156964
 20
84.2090015945
 10
147.3522938526
 20
84.2359157744
  0
LWPOLYLINE
  5
3F1
100
AcDbEntity
  8
RACCORDO
100
AcDbPolyline
 62
250
  6
CONTINUOUS
 90
13
 70
0
 10
147.9666109428
 20
84.3297893205
 10
147.9648615225
 20
84.3616484224
 10
147.959689345
 20
84.3949221355
 10
147.9511771146
 20
84.4290784042
 10
147.9394609444
 20
84.4635710607
 10
147.924728179
 20
84.497848558
 10
147.9072143992
 20
84.5313627898
 10
147.8871996552
 20
84.5635778546
 10
147.865003988
 20
84.5939786247
 10
147.8409823123
 20
84.6220789838
 10
147.8155187412
 20
84.6474295994
 10
147.789020444
 20
84.6696251086
 10
147.7619111355
 20
84.688310599
  0
LWPOLYLINE
  5
3F2
100
AcDbEntity
  8
ASSI
100
AcDbPolyline
 62
250
  6
CONTINUOUS
 90
10
 70
0
 10
146.945701441
 20
122.3823498482
 10
146.9450449245
 20
122.3953687205
 10
146.9439543509
 20
122.4080206461
 10
146.9424297202
 20
122.420305625
 10
146.940467778
 20
122.4322232536
 10
146.9380717788
 20
122.4437739356
 10
146.9352514855
 20
122.4549588814
 10
146.9320101526
 20
122.4657784947
 10
146.9283445257
 20
122.476232372
 10
146.9242546048
 20
122.4863205131
  0
LWPOLYLINE
  5
3F3
100
AcDbEntity
  8
RACCORDO
100
AcDbPolyline
 62
7
  6
CONTINUOUS
 90
10
 70
0
 10
147.3089966255
 20
116.3803772739
 10
147.3080410953
 20
116.4032666458
 10
147.3044312947
 20
116.4294541417
 10
147.2982232376
 20
116.4540718214
 10
147.2895071815
 20
116.4770267637
 10
147.2784104405
 20
116.4981279385
 10
147.2652035109
 20
116.5170592474
 10
147.2501988363
 20
116.5336224706
 10
147.2336741274
 20
116.5477695742
 10
147.2164549838
 20
116.5591544293
  0
LWPOLYLINE
  5
3F4
100
AcDbEntity
  8
RACCORDO
100
AcDbPolyline
 62
250
  6
CONTINUOUS
 90
19
 70
0
 10
146.4515254717
 20
116.9262478345
 10
146.4520766563
 20
116.9125271178
 10
146.4535701136
 20
116.899709408
 10
146.4560058436
 20
116.8877947052
 10
146.4594141926
 20
116.8767292271
 10
146.4637648143
 20
116.8665667558
 10
146.4689666693
 20
116.8574686384
 10
146.475028664
 20
116.8494415665
 10
146.481941892
 20
116.8424788484
 10
146.4895885938
 20
116.8367217558
 10
146.497943072
 20
116.8321729526
 10
146.507031024
 20
116.828829775
 10
146.5168117825
 20
116.8268255026
 10
146.527342558
 20
116.8261517668
 10
146.5385661399
 20
116.8268169362
 10
146.5502702297
 20
116.8289793967
 10
146.5623840611
 20
116.8326919436
 10
146.5749784004
 20
116.8379017816
 10
146.5880532476
 20
116.8446089106
  0
LWPOLYLINE
  5
3F5
100
AcDbEntity
  8
RACCORDO
100
AcDbPolyline
 62
250
  6
CONTINUOUS
 90
10
 70
0
 10
146.8461673129
 20
116.9215319995
 10
146.8466873372
 20
116.9059849741
 10
146.8484426329
 20
116.8898806648
 10
146.8514180741
 20
116.8733578474
 10
146.8555880206
 20
116.8565589039
 10
146.8609165388
 20
116.8396285956
 10
146.8673577111
 20
116.822712816
 10
146.8748560322
 20
116.8059573334
 10
146.8833468868
 20
116.7895065347
 10
146.8927571067
 20
116.7735021814
  0
LWPOLYLINE
  5
3F6
100
AcDbEntity
  8
ASSI
100
AcDbPolyline
 62
250
  6
CONTINUOUS
 90
16
 70
0
 10
147.3325022434
 20
119.224211669
 10
147.3319637949
 20
119.2419197609
 10
147.3298461319
 20
119.2603166116
 10
147.3261725797
 20
119.2791995261
 10
147.3209828749
 20
119.2983628262
 10
147.3143345637
 20
119.3175930112
 10
147.3063041306
 20
119.3366711327
 10
147.2969840132
 20
119.3553826803
 10
147.2864762346
 20
119.3735272132
 10
147.2748928228
 20
119.3909126483
 10
147.2623421512
 20
119.4073709994
 10
147.248978641
 20
119.4226948373
 10
147.2350064341
 20
119.4366622239
 10
147.2206048118
 20
119.44912103
 10
147.2059165203
 20
119.4599737956
 10
147.1911024263
 20
119.4691233361
  0
LINE
  5
3F7
100
AcDbEntity
  8
ASSI
100
AcDbLine
 62
250
  6
CONTINUOUS
 10
146.9532655313
 20
122.1255836946
 11
146.945701441
 21
122.3823498482
  0
LWPOLYLINE
  5
3F8
100
AcDbEntity
  8
RACCORDO
100
AcDbPolyline
 62
250
  6
CONTINUOUS
 90
9
 70
0
 10
147.2778320906
 20
116.3384726848
 10
147.2775536074
 20
116.3483820666
 10
147.27673714
 20
116.3578929654
 10
147.2753826885
 20
116.3670053813
 10
147.2735187248
 20
116.3757066562
 10
147.2711167769
 20
116.3840094481
 10
147.2680914285
 20
116.3919517316
 10
147.2644642451
 20
116.3996002978
 10
147.2602136613
 20
116.4068883556
  0
LWPOLYLINE
  5
3F9
100
AcDbEntity
  8
RACCORDO
100
AcDbPolyline
 62
250
  6
CONTINUOUS
 90
31
 70
0
 10
147.4583147168
 20
93.3261002304
 10
147.4581297849
 20
93.3331808116
 10
147.4577465501
 20
93.3401371892
 10
147.4571962352
 20
93.3469427345
 10
147.4565242466
 20
93.3534572975
 10
147.4557509744
 20
93.359774841
 10
147.4548377313
 20
93.366235253
 10
147.4537632252
 20
93.3728940598
 10
147.4525393451
 20
93.3796827135
 10
147.4511330363
 20
93.3867682763
 10
147.4495180788
 20
93.3941696244
 10
147.4476869235
 20
93.4018530325
 10
147.4456132438
 20
93.4099074828
 10
147.4432692205
 20
93.4183305221
 10
147.4406367871
 20
93.4270946397
 10
147.4376925683
 20
93.4362460731
 10
147.4344038658
 20
93.4457800164
 10
147.4307535161
 20
93.4556437626
 10
147.4267396843
 20
93.4658034879
 10
147.4223486549
 20
93.4762173742
 10
147.4175618027
 20
93.4868356931
 10
147.4123758539
 20
93.4976038983
 10
147.4067965432
 20
93.5084420646
 10
147.4008127892
 20
93.519301214
 10
147.394399888
 20
93.5301576736
 10
147.387573113
 20
93.5409208326
 10
147.3803420237
 20
93.5514959937
 10
147.3726775268
 20
93.5618251737
 10
147.3645942641
 20
93.5717979067
 10
147.3561560442
 20
93.5812636181
 10
147.3522938526
 20
93.5851628139
  0
LINE
  5
3FA
100
AcDbEntity
  8
ASSI
100
AcDbLine
 62
250
  6
CONTINUOUS
 10
146.959398916
 20
121.8824945272
 11
146.9532655313
 21
122.1255836946
  0
LWPOLYLINE
  5
3FB
100
AcDbEntity
  8
RACCORDO
100
AcDbPolyline
 62
250
  6
CONTINUOUS
 90
13
 70
0
 10
147.4888216285
 20
111.4546319305
 10
147.4882564047
 20
111.4832697864
 10
147.4866889975
 20
111.5116200846
 10
147.4842128798
 20
111.5395882078
 10
147.4809298396
 20
111.5670274163
 10
147.4769237466
 20
111.5939213172
 10
147.4722407923
 20
111.6203901212
 10
147.4669662148
 20
111.6462966329
 10
147.4611543107
 20
111.671672029
 10
147.4547494307
 20
111.6969113872
 10
147.4478062408
 20
111.7218875416
 10
147.4403332899
 20
111.7466606452
 10
147.4321165523
 20
111.7719212151
  0
LINE
  5
3FC
100
AcDbEntity
  8
ASSI
100
AcDbLine
 62
250
  6
CONTINUOUS
 10
146.9654963213
 20
121.5809079597
 11
146.959398916
 21
121.8824945272
  0
LWPOLYLINE
  5
3FD
100
AcDbEntity
  8
ASSI
100
AcDbPolyline
 62
250
  6
CONTINUOUS
 90
3
 70
0
 10
146.9701069922
 20
121.2431041275
 10
146.9694363415
 20
121.3070588141
 10
146.9654963213
 20
121.5809079597
  0
LINE
  5
3FE
100
AcDbEntity
  8
RACCORDO
100
AcDbLine
 62
250
  6
CONTINUOUS
 10
147.4026457672
 20
89.4011988975
 11
147.4048064792
 21
89.225711141
  0
LINE
  5
3FF
100
AcDbEntity
  8
RACCORDO
100
AcDbLine
 62
250
  6
CONTINUOUS
 10
147.4012967497
 20
89.5759355513
 11
147.4026457672
 21
89.4011988975
  0
LWPOLYLINE
  5
400
100
AcDbEntity
  8
RACCORDO
100
AcDbPolyline
 62
250
  6
CONTINUOUS
 90
14
 70
0
 10
147.0053452995
 20
117.0280515007
 10
147.005419865
 20
117.0028657723
 10
147.0040180155
 20
116.9774035165
 10
147.0011187753
 20
116.9530656898
 10
146.9968077657
 20
116.9298148069
 10
146.9911655748
 20
116.9076578163
 10
146.9841143771
 20
116.8865898313
 10
146.9755019185
 20
116.8665554286
 10
146.9652050961
 20
116.8473321994
 10
146.9533489693
 20
116.8291440438
 10
146.9401535266
 20
116.8126050403
 10
146.9256926092
 20
116.7979203314
 10
146.9098936991
 20
116.7848859341
 10
146.8927571046
 20
116.7735021801
  0
LWPOLYLINE
  5
401
100
AcDbEntity
  8
ASSI
100
AcDbPolyline
 62
250
  6
CONTINUOUS
 90
16
 70
0
 10
146.8210405126
 20
122.5314610559
 10
146.8210027794
 20
122.5474594997
 10
146.8199992193
 20
122.563420116
 10
146.8180363284
 20
122.5792407466
 10
146.8151267451
 20
122.59482009
 10
146.8112891649
 20
122.6100584897
 10
146.8065481925
 20
122.6248585606
 10
146.8009341904
 20
122.6391256365
 10
146.7944831505
 20
122.6527683556
 10
146.7872364478
 20
122.6656993825
 10
146.7792404648
 20
122.6778360325
 10
146.7705464574
 20
122.6891005768
 10
146.7612103107
 20
122.699420765
 10
146.7512919184
 20
122.7087305702
 10
146.7408547598
 20
122.7169705555
 10
146.7299656885
 20
122.7240880731
  0
LINE
  5
402
100
AcDbEntity
  8
RACCORDO
100
AcDbLine
 62
250
  6
CONTINUOUS
 10
147.4011042647
 20
89.6416935462
 11
147.4012967497
 21
89.5759355513
  0
LINE
  5
403
100
AcDbEntity
  8
RACCORDO
100
AcDbLine
 62
250
  6
CONTINUOUS
 10
146.1662361554
 20
118.0419409115
 11
146.1662361554
 21
117.9859149035
  0
LINE
  5
404
100
AcDbEntity
  8
RACCORDO
100
AcDbLine
 62
7
  6
CONTINUOUS
 10
146.2638593168
 20
103.6027774604
 11
146.2638593168
 21
114.5780019473
  0
LINE
  5
405
100
AcDbEntity
  8
RACCORDO
100
AcDbLine
 62
7
  6
CONTINUOUS
 10
146.2638593168
 20
116.455883584
 11
146.2638593168
 21
117.6486588512
  0
LINE
  5
406
100
AcDbEntity
  8
RACCORDO
100
AcDbLine
 62
250
  6
CONTINUOUS
 10
146.4515254717
 20
118.0018361133
 11
146.4515254717
 21
116.9262478345
  0
LINE
  5
407
100
AcDbEntity
  8
RACCORDO
100
AcDbLine
 62
250
  6
CONTINUOUS
 10
146.4515254717
 20
114.2232454991
 11
146.4515254717
 21
103.7422554661
  0
LINE
  5
408
100
AcDbEntity
  8
ASSI
100
AcDbLine
 62
7
  6
CONTINUOUS
 10
146.9153773676
 20
122.2068321733
 11
146.9153773676
 21
121.1380614865
  0
LINE
  5
409
100
AcDbEntity
  8
ASSI
100
AcDbLine
 62
7
  6
CONTINUOUS
 10
147.0694511402
 20
121.1642134935
 11
147.0694511402
 21
121.2980836334
  0
LINE
  5
40A
100
AcDbEntity
  8
RACCORDO
100
AcDbLine
 62
250
  6
CONTINUOUS
 10
147.2778320906
 20
114.9990957508
 11
147.2778320906
 21
116.3384726848
  0
LINE
  5
40B
100
AcDbEntity
  8
RACCORDO
100
AcDbLine
 62
7
  6
CONTINUOUS
 10
147.308996633
 20
115.1218779745
 11
147.308996633
 21
116.3803548434
  0
LINE
  5
40C
100
AcDbEntity
  8
ASSI
100
AcDbLine
 62
250
  6
CONTINUOUS
 10
147.3325022434
 20
118.8549006795
 11
147.3325022434
 21
119.224211669
  0
LINE
  5
40D
100
AcDbEntity
  8
RACCORDO
100
AcDbLine
 62
7
  6
CONTINUOUS
 10
147.3522938526
 20
75.9836640896
 11
147.3522938526
 21
97.0212708226
  0
LINE
  5
40E
100
AcDbEntity
  8
RACCORDO
100
AcDbLine
 62
7
  6
CONTINUOUS
 10
147.3522938494
 20
111.8590527772
 11
147.3522938526
 21
114.4281527851
  0
LINE
  5
40F
100
AcDbEntity
  8
RACCORDO
100
AcDbLine
 62
7
  6
CONTINUOUS
 10
147.3522938526
 20
117.3085763502
 11
147.3522938526
 21
118.5219302729
  0
LINE
  5
410
100
AcDbEntity
  8
ASSI
100
AcDbLine
 62
7
  6
CONTINUOUS
 10
147.3886342834
 20
80.9038648144
 11
147.3886342834
 21
80.5345538248
  0
LINE
  5
411
100
AcDbEntity
  8
ASSI
100
AcDbLine
 62
7
  6
CONTINUOUS
 10
147.3886342834
 20
118.9351180869
 11
147.3886342834
 21
119.3044290764
  0
LINE
  5
412
100
AcDbEntity
  8
RACCORDO
100
AcDbLine
 62
250
  6
CONTINUOUS
 10
147.4048064792
 20
85.2357910401
 11
147.4048064792
 21
89.225711141
  0
LINE
  5
413
100
AcDbEntity
  8
RACCORDO
100
AcDbLine
 62
250
  6
CONTINUOUS
 10
147.4583272766
 20
91.3344726694
 11
147.4583272766
 21
93.3261079976
  0
LINE
  5
414
100
AcDbEntity
  8
DRAFT
100
AcDbLine
 62
7
  6
CONTINUOUS
 10
147.5854579227
 20
119.9794228778
 11
147.5854579227
 21
120.167846256
  0
LINE
  5
415
100
AcDbEntity
  8
RACCORDO
100
AcDbLine
 62
250
  6
CONTINUOUS
 10
147.6169385136
 20
85.2865249022
 11
147.6169385136
 21
89.2764450031
  0
LINE
  5
416
100
AcDbEntity
  8
RACCORDO
100
AcDbLine
 62
7
  6
CONTINUOUS
 10
147.8826239385
 20
89.5193311582
 11
147.8826239385
 21
85.3504456162
  0
LINE
  5
417
100
AcDbEntity
  8
RACCORDO
100
AcDbLine
 62
250
  6
CONTINUOUS
 10
148.0942743295
 20
103.7333222176
 11
148.0942743295
 21
103.7570784296
  0
LINE
  5
418
100
AcDbEntity
  8
RACCORDO
100
AcDbLine
 62
250
  6
CONTINUOUS
 10
148.1046121648
 20
89.8555909185
 11
148.1046121648
 21
85.3058299957
  0
LINE
  5
419
100
AcDbEntity
  8
DRAFT
100
AcDbLine
 62
250
  6
CONTINUOUS
 10
148.1155783611
 20
121.112112074
 11
148.1155783611
 21
120.3207758769
  0
LINE
  5
41A
100
AcDbEntity
  8
RACCORDO
100
AcDbLine
 62
7
  6
CONTINUOUS
 10
148.1504063695
 20
103.7004774993
 11
148.1504063695
 21
103.7417574692
  0
LINE
  5
41B
100
AcDbEntity
  8
ASSI
100
AcDbLine
 62
250
  6
CONTINUOUS
 10
147.3886342593
 20
119.3043724881
 11
147.3886342834
 21
119.3044290764
  0
LWPOLYLINE
  5
41C
100
AcDbEntity
  8
ASSI
100
AcDbPolyline
 62
7
  6
CONTINUOUS
 90
21
 70
0
 10
146.9153229664
 20
121.1380626017
 10
146.9153046129
 20
121.1356413931
 10
146.9133850848
 20
121.1133959531
 10
146.9083074536
 20
121.0915167779
 10
146.8999930822
 20
121.0698656594
 10
146.8885206078
 20
121.0485808057
 10
146.8741259418
 20
121.0280768402
 10
146.856773515
 20
121.0083825243
 10
146.8364988966
 20
120.9894690967
 10
146.813644706
 20
120.971664897
 10
146.7881278332
 20
120.9549687902
 10
146.7600313882
 20
120.9393819113
 10
146.72994732
 20
120.9252360047
 10
146.6978666857
 20
120.9125760429
 10
146.6637984282
 20
120.9013570535
 10
146.6283613257
 20
120.8917758635
 10
146.5915293703
 20
120.8838567385
 10
146.5533285698
 20
120.8775754129
 10
146.5144557265
 20
120.8730559178
 10
146.4751431077
 20
120.8703395969
 10
146.435158446
 20
120.8693851064
  0
LWPOLYLINE
  5
41D
100
AcDbEntity
  8
RACCORDO
100
AcDbPolyline
 62
250
  6
CONTINUOUS
 90
19
 70
0
 10
148.1046113363
 20
85.305830474
 10
148.1043073743
 20
85.2689561724
 10
148.1012960532
 20
85.2309215741
 10
148.0956325628
 20
85.1920094562
 10
148.0874064408
 20
85.1525176248
 10
148.0766931827
 20
85.1127264297
 10
148.0635435125
 20
85.0728950086
 10
148.0480782179
 20
85.0333402648
 10
148.0304203953
 20
84.9943216318
 10
148.0106193387
 20
84.95601321
 10
147.9888199016
 20
84.9187164662
 10
147.9651717552
 20
84.8827024642
 10
147.9397170423
 20
84.8481182237
 10
147.9124898267
 20
84.8151221455
 10
147.8838005328
 20
84.7841678895
 10
147.8541376446
 20
84.7557962167
 10
147.8238284588
 20
84.7302899986
 10
147.793009865
 20
84.7077419097
 10
147.7619105161
 20
84.6883109567
  0
LWPOLYLINE
  5
41E
100
AcDbEntity
  8
RACCORDO
100
AcDbPolyline
 62
7
  6
CONTINUOUS
 90
12
 70
0
 10
147.3090029174
 20
115.1218781962
 10
147.3088431103
 20
115.112358478
 10
147.3082786905
 20
115.1021798916
 10
147.3073135336
 20
115.0916882205
 10
147.3059123755
 20
115.0808986496
 10
147.3039575494
 20
115.0698311725
 10
147.3014552583
 20
115.0584698989
 10
147.2983636851
 20
115.0468519663
 10
147.2944908876
 20
115.0350799187
 10
147.2897607394
 20
115.0231990844
 10
147.2842135637
 20
115.0111976005
 10
147.2778320906
 20
114.9990957508
  0
LINE
  5
41F
100
AcDbEntity
  8
RACCORDO
100
AcDbLine
 62
250
  6
CONTINUOUS
 10
147.4036722704
 20
85.169090076
 11
147.4048064792
 21
85.2357910401
  0
LWPOLYLINE
  5
420
100
AcDbEntity
  8
ASSI
100
AcDbPolyline
 62
250
  6
CONTINUOUS
 90
16
 70
0
 10
148.724026423
 20
123.3635200986
 10
148.7243906614
 20
123.381185592
 10
148.7254793861
 20
123.3998507709
 10
148.7272806689
 20
123.4193111357
 10
148.7297747743
 20
123.4393534744
 10
148.7329343766
 20
123.4597581991
 10
148.7367248583
 20
123.4803017515
 10
148.7411046902
 20
123.5007590524
 10
148.746025886
 20
123.5209059671
 10
148.7514345281
 20
123.5405217624
 10
148.7572713581
 20
123.5593915232
 10
148.7634724268
 20
123.5773085087
 10
148.769969794
 20
123.594076417
 10
148.7766922734
 20
123.6095115354
 10
148.7835662119
 20
123.6234447533
 10
148.7905162974
 20
123.6357234149
  0
LWPOLYLINE
  5
421
100
AcDbEntity
  8
ASSI
100
AcDbPolyline
 62
250
  6
CONTINUOUS
 90
8
 70
0
 10
147.3886342834
 20
80.5345538248
 10
147.3884786945
 20
80.5299997291
 10
147.3865672459
 20
80.5179943527
 10
147.3825172854
 20
80.5062125005
 10
147.376380558
 20
80.4947545425
 10
147.3682162947
 20
80.4837230602
 10
147.3581044542
 20
80.4732314126
 10
147.3522938526
 20
80.4684499904
  0
LWPOLYLINE
  5
422
100
AcDbEntity
  8
ASSI
100
AcDbPolyline
 62
250
  6
CONTINUOUS
 90
8
 70
0
 10
147.3886342834
 20
80.9038648144
 10
147.3884563283
 20
80.8989945127
 10
147.3865108389
 20
80.8870821085
 10
147.382440177
 20
80.8753482115
 10
147.3762875729
 20
80.8639196032
 10
147.3681193766
 20
80.8529200583
 10
147.3580236446
 20
80.8424680138
 10
147.3522938526
 20
80.8377588708
  0
LWPOLYLINE
  5
423
100
AcDbEntity
  8
RACCORDO
100
AcDbPolyline
 62
250
  6
CONTINUOUS
 90
8
 70
0
 10
147.4284154667
 20
89.864094977
 10
147.4266660464
 20
89.8341311571
 10
147.4214938689
 20
89.8065705136
 10
147.4129816386
 20
89.7818537485
 10
147.4012654683
 20
89.7603760896
 10
147.3865327029
 20
89.7424809704
 10
147.3690189232
 20
89.7284545386
 10
147.3663608475
 20
89.7268133217
  0
LWPOLYLINE
  5
424
100
AcDbEntity
  8
ASSI
100
AcDbPolyline
 62
250
  6
CONTINUOUS
 90
22
 70
0
 10
146.9153773676
 20
122.2068321733
 10
146.9140647919
 20
122.1859274552
 10
146.9090386984
 20
122.1610089548
 10
146.9002848336
 20
122.1364364707
 10
146.8878692822
 20
122.1123955317
 10
146.8718858016
 20
122.0890677046
 10
146.852455081
 20
122.0666291414
 10
146.8297238316
 20
122.0452492743
 10
146.8038637077
 20
122.0250895615
 10
146.7750700194
 20
122.006302259
 10
146.7435602259
 20
121.9890292441
 10
146.7095722532
 20
121.9734009332
 10
146.6733627242
 20
121.9595353243
 10
146.6352050548
 20
121.9475371186
 10
146.5953873936
 20
121.9374969236
 10
146.5542104114
 20
121.9294905563
 10
146.511985038
 20
121.9235784763
 10
146.4690301379
 20
121.919805331
 10
146.4256701005
 20
121.9181996149
 10
146.382232359
 20
121.9187734512
 10
146.3390449168
 20
121.9215225044
 10
146.2964338947
 20
121.926426014
  0
LWPOLYLINE
  5
425
100
AcDbEntity
  8
0
100
AcDbPolyline
 62
250
  6
CONTINUOUS
 90
9
 70
0
 10
144.9482405756
 20
74.7372685428
 10
144.9453509478
 20
74.6951107418
 10
144.9387030378
 20
74.6557232307
 10
144.928370052
 20
74.6195397477
 10
144.9144638903
 20
74.5869550502
 10
144.8971387506
 20
74.5583326172
 10
144.8765934593
 20
74.53399572
 10
144.8530635962
 20
74.5142116937
 10
144.8343136148
 20
74.5028499329
  0
LWPOLYLINE
  5
426
100
AcDbEntity
  8
RACCORDO
100
AcDbPolyline
 62
250
  6
CONTINUOUS
 90
7
 70
0
 10
146.5880532476
 20
116.8446089106
 10
146.5865054619
 20
116.8237911976
 10
146.5825215955
 20
116.8047028929
 10
146.5761698397
 20
116.7876707294
 10
146.567558917
 20
116.7729862449
 10
146.5568362198
 20
116.7609007924
 10
146.5441903769
 20
116.7516241757
  0
LWPOLYLINE
  5
427
100
AcDbEntity
  8
ASSI
100
AcDbPolyline
 62
250
  6
CONTINUOUS
 90
3
 70
0
 10
149.3422364325
 20
123.7999583997
 10
149.3425421266
 20
123.8036488826
 10
149.3453832953
 20
123.8159250505
  0
LWPOLYLINE
  5
428
100
AcDbEntity
  8
ASSI
100
AcDbPolyline
 62
7
  6
CONTINUOUS
 90
20
 70
0
 10
149.3902314036
 20
122.5050718336
 10
149.387967979
 20
122.478018385
 10
149.3816537769
 20
122.4529638466
 10
149.3713595352
 20
122.4281415297
 10
149.3573230905
 20
122.4041680099
 10
149.3394519447
 20
122.381071984
 10
149.3178385958
 20
122.3588247552
 10
149.2929983748
 20
122.3379568081
 10
149.2648537056
 20
122.3185012855
 10
149.2334821643
 20
122.3004250446
 10
149.1996318106
 20
122.2841591424
 10
149.1632430681
 20
122.2697470974
 10
149.1243755132
 20
122.2571453909
 10
149.0839559345
 20
122.2466545238
 10
149.0419325576
 20
122.2383265365
 10
148.9983571568
 20
122.2321093885
 10
148.9543118436
 20
122.2281474584
 10
148.9101573219
 20
122.2264888724
 10
148.8655328877
 20
122.2270855043
 10
148.8204385412
 20
122.229937354
  0
LWPOLYLINE
  5
429
100
AcDbEntity
  8
RACCORDO
100
AcDbPolyline
 62
250
  6
CONTINUOUS
 90
10
 70
0
 10
146.4515254717
 20
103.7422554661
 10
146.4470184473
 20
103.7240481259
 10
146.4413204739
 20
103.707076954
 10
146.4343329566
 20
103.6913871478
 10
146.4257847946
 20
103.6769935894
 10
146.4157198739
 20
103.6640374131
 10
146.4045735687
 20
103.6528296355
 10
146.392371388
 20
103.6435241686
 10
146.3790530235
 20
103.6361541692
 10
146.3662209336
 20
103.631239185
  0
LWPOLYLINE
  5
42A
100
AcDbEntity
  8
RACCORDO
100
AcDbPolyline
 62
250
  6
CONTINUOUS
 90
7
 70
0
 10
141.9012398198
 20
85.2997754526
 10
141.8956567287
 20
85.2847231799
 10
141.8881482503
 20
85.2713763766
 10
141.8789406856
 20
85.2601373072
 10
141.8683115449
 20
85.2513447106
 10
141.8565811842
 20
85.2452635902
 10
141.8430149761
 20
85.2419430394
  0
LINE
  5
42B
100
AcDbEntity
  8
RACCORDO
100
AcDbLine
 62
250
  6
CONTINUOUS
 10
151.4605821691
 20
97.186375786
 11
151.9023765695
 21
97.4414632116
  0
LINE
  5
42C
100
AcDbEntity
  8
RACCORDO
100
AcDbLine
 62
250
  6
CONTINUOUS
 10
151.4605821691
 20
96.9414599637
 11
152.0084264323
 21
97.2577794613
  0
LINE
  5
42D
100
AcDbEntity
  8
RACCORDO
100
AcDbLine
 62
250
  6
CONTINUOUS
 10
146.8943764184
 20
96.9239478684
 11
144.8781710465
 21
95.7796289996
  0
LINE
  5
42E
100
AcDbEntity
  8
RACCORDO
100
AcDbLine
 62
250
  6
CONTINUOUS
 10
147.3522938526
 20
97.0212708226
 11
144.9482405756
 21
95.6568247375
  0
LINE
  5
42F
100
AcDbEntity
  8
RACCORDO
100
AcDbLine
 62
7
  6
CONTINUOUS
 10
147.3522938526
 20
94.3422577131
 11
148.01370475
 21
94.6987800593
  0
LINE
  5
430
100
AcDbEntity
  8
RACCORDO
100
AcDbLine
 62
7
  6
CONTINUOUS
 10
151.4779915917
 20
97.6412509126
 11
151.4605821691
 21
97.6318886885
  0
LINE
  5
431
100
AcDbEntity
  8
RACCORDO
100
AcDbLine
 62
250
  6
CONTINUOUS
 10
151.5757046855
 20
97.6300794633
 11
151.4605821691
 21
97.5681702995
  0
LWPOLYLINE
  5
432
100
AcDbEntity
  8
RACCORDO
100
AcDbPolyline
 62
250
  6
CONTINUOUS
 90
5
 70
0
 10
150.4116813342
 20
98.9595987327
 10
150.3920883068
 20
98.949337956
 10
150.3703214599
 20
98.9406598783
 10
150.3467615595
 20
98.9337162888
 10
150.3265242356
 20
98.9295880977
  0
LWPOLYLINE
  5
433
100
AcDbEntity
  8
RACCORDO
100
AcDbPolyline
 62
250
  6
CONTINUOUS
 90
19
 70
0
 10
144.9482405756
 20
95.65682477
 10
144.9112704994
 20
95.6378994923
 10
144.8718120525
 20
95.6213211085
 10
144.8303182002
 20
95.6071689876
 10
144.787037356
 20
95.5954427281
 10
144.7426028457
 20
95.5862389438
 10
144.6980940491
 20
95.579641415
 10
144.6540379058
 20
95.5755306991
 10
144.6107523265
 20
95.5737420479
 10
144.5689931705
 20
95.5740985197
 10
144.529646359
 20
95.5763189396
 10
144.4923062221
 20
95.580163466
 10
144.4557636826
 20
95.5856367456
 10
144.4203117909
 20
95.5926611279
 10
144.3860414752
 20
95.6011930081
 10
144.3516425727
 20
95.6116665424
 10
144.3170263915
 20
95.6243935017
 10
144.2831520412
 20
95.6393292081
 10
144.2505098971
 20
95.6565470851
  0
LINE
  5
434
100
AcDbEntity
  8
RACCORDO
100
AcDbLine
 62
250
  6
CONTINUOUS
 10
151.4779915917
 20
97.6412509126
 11
151.4806103788
 21
97.6425856909
  0
LWPOLYLINE
  5
435
100
AcDbEntity
  8
RACCORDO
100
AcDbPolyline
 62
250
  6
CONTINUOUS
 90
19
 70
0
 10
144.8781710465
 20
95.7796289996
 10
144.8479963483
 20
95.7643082113
 10
144.8165503813
 20
95.7509586038
 10
144.7838331455
 20
95.7395801772
 10
144.7493283433
 20
95.7301761642
 10
144.7135522724
 20
95.722743332
 10
144.6780538255
 20
95.717271982
 10
144.6429715783
 20
95.7139039251
 10
144.6081669552
 20
95.7124973505
 10
144.5747731224
 20
95.712617127
 10
144.5433681875
 20
95.714195601
 10
144.513374043
 20
95.7173004262
 10
144.4841895321
 20
95.7216994322
 10
144.4557956009
 20
95.7271859819
 10
144.4282113033
 20
95.7339667124
 10
144.4008926443
 20
95.7424293652
 10
144.3736582922
 20
95.7527031874
 10
144.3466895787
 20
95.7646589319
 10
144.3199865038
 20
95.7782965987
  0
LINE
  5
436
100
AcDbEntity
  8
RACCORDO
100
AcDbLine
 62
7
  6
CONTINUOUS
 10
144.9482405756
 20
95.9723826688
 11
147.5540788273
 21
97.2465100661
  0
LWPOLYLINE
  5
437
100
AcDbEntity
  8
RACCORDO
100
AcDbPolyline
 62
250
  6
CONTINUOUS
 90
5
 70
0
 10
151.4806103788
 20
97.6425856909
 10
151.4917022077
 20
97.646781738
 10
151.5037875888
 20
97.6491130059
 10
151.5167394206
 20
97.6494942777
 10
151.5305341295
 20
97.647851386
  0
LINE
  5
438
100
AcDbEntity
  8
RACCORDO
100
AcDbLine
 62
7
  6
CONTINUOUS
 10
148.0936109894
 20
103.7332686684
 11
148.019689021
 21
103.7733532133
  0
LWPOLYLINE
  5
439
100
AcDbEntity
  8
RACCORDO
100
AcDbPolyline
 62
250
  6
CONTINUOUS
 90
3
 70
0
 10
148.0930111877
 20
103.7336167579
 10
148.0336406786
 20
103.7666161496
 10
148.0205354398
 20
103.7731685216
  0
LINE
  5
43A
100
AcDbEntity
  8
RACCORDO
100
AcDbLine
 62
250
  6
CONTINUOUS
 10
146.2683614647
 20
103.5656101738
 11
146.3739627912
 21
103.5046372913
  0
LINE
  5
43B
100
AcDbEntity
  8
ASSI
100
AcDbLine
 62
7
  6
CONTINUOUS
 10
148.5369142143
 20
103.4773127138
 11
148.0930129969
 21
103.7336157133
  0
LINE
  5
43C
100
AcDbEntity
  8
RACCORDO
100
AcDbLine
 62
7
  6
CONTINUOUS
 10
148.0935211469
 20
103.7333222176
 11
148.0930111877
 21
103.7336167579
  0
LINE
  5
43D
100
AcDbEntity
  8
RACCORDO
100
AcDbLine
 62
7
  6
CONTINUOUS
 10
148.5839501486
 20
103.5612395888
 11
148.5850658155
 21
103.5605948888
  0
LWPOLYLINE
  5
43E
100
AcDbEntity
  8
RACCORDO
100
AcDbPolyline
 62
250
  6
CONTINUOUS
 90
4
 70
0
 10
148.5850658155
 20
103.5605948888
 10
148.5988987979
 20
103.552521724
 10
148.6696228808
 20
103.5088268948
 10
148.7385788874
 20
103.4621293076
  0
LWPOLYLINE
  5
43F
100
AcDbEntity
  8
RACCORDO
100
AcDbPolyline
 62
7
  6
CONTINUOUS
 90
31
 70
0
 10
148.7354351277
 20
103.3626174109
 10
148.7530540265
 20
103.3523127111
 10
148.8496923483
 20
103.2916697413
 10
148.9427816812
 20
103.226245249
 10
149.032109443
 20
103.1560647376
 10
149.1178882158
 20
103.0811027039
 10
149.2001410828
 20
103.0018298896
 10
149.2784645323
 20
102.9188800979
 10
149.3532620759
 20
102.8316195257
 10
149.4257673314
 20
102.7386175055
 10
149.4961731637
 20
102.6401937077
 10
149.564286708
 20
102.536028462
 10
149.6307629877
 20
102.4237320899
 10
149.6958755885
 20
102.3034502113
 10
149.7593509248
 20
102.1750372063
 10
149.8210232632
 20
102.0356665375
 10
149.8811905499
 20
101.8850711999
 10
149.9395548387
 20
101.7235181985
 10
149.9950565575
 20
101.5489820101
 10
150.0479273471
 20
101.3598820918
 10
150.0979355667
 20
101.1577989865
 10
150.1433267217
 20
100.9454488004
 10
150.1837195686
 20
100.7221047984
 10
150.219495351
 20
100.4884937157
 10
150.2500433042
 20
100.2495118632
 10
150.2749737969
 20
100.0050191413
 10
150.2946764605
 20
99.7551556497
 10
150.3097094247
 20
99.5052379981
 10
150.3202587327
 20
99.2570383896
 10
150.3261383414
 20
99.0087846211
 10
150.3273482506
 20
98.7604766926
  0
LINE
  5
440
100
AcDbEntity
  8
RACCORDO
100
AcDbLine
 62
250
  6
CONTINUOUS
 10
148.7385788874
 20
103.4621293076
 11
148.8058341911
 21
103.4123945836
  0
LWPOLYLINE
  5
441
100
AcDbEntity
  8
RACCORDO
100
AcDbPolyline
 62
250
  6
CONTINUOUS
 90
9
 70
0
 10
148.8058341911
 20
103.4123945836
 10
148.871333395
 20
103.3596750165
 10
148.9348975371
 20
103.3041513402
 10
148.9964993762
 20
103.2459103254
 10
149.0562172135
 20
103.1849415796
 10
149.1140491139
 20
103.1213080849
 10
149.1698738436
 20
103.0552269941
 10
149.2238720256
 20
102.9865699917
 10
149.2562065565
 20
102.9424527886
  0
LWPOLYLINE
  5
442
100
AcDbEntity
  8
DRAFT
100
AcDbPolyline
 62
7
  6
CONTINUOUS
 90
4
 70
0
 10
148.5200667172
 20
103.4870402475
 10
148.4773987614
 20
103.5327813645
 10
148.3399374121
 20
103.658718355
 10
148.2914011566
 20
103.6968188002
  0
LINE
  5
443
100
AcDbEntity
  8
RACCORDO
100
AcDbLine
 62
250
  6
CONTINUOUS
 10
151.9514510662
 20
97.399969277
 11
151.9560411529
 21
97.3944583249
  0
LWPOLYLINE
  5
444
100
AcDbEntity
  8
RACCORDO
100
AcDbPolyline
 62
250
  6
CONTINUOUS
 90
7
 70
0
 10
151.9560411529
 20
97.3944583249
 10
151.9606707912
 20
97.3885369212
 10
151.9653094357
 20
97.3822009737
 10
151.9699758699
 20
97.3753727202
 10
151.9746350251
 20
97.3680352261
 10
151.9792314058
 20
97.3602015555
 10
151.9837358995
 20
97.3518382248
  0
LWPOLYLINE
  5
445
100
AcDbEntity
  8
RACCORDO
100
AcDbPolyline
 62
250
  6
CONTINUOUS
 90
6
 70
0
 10
152.6519581177
 20
92.928125225
 10
152.6574693629
 20
92.9209168192
 10
152.6629959945
 20
92.9130886932
 10
152.6684670464
 20
92.9046544293
 10
152.6738205222
 20
92.8956188452
 10
152.6789806704
 20
92.8860063553
  0
LWPOLYLINE
  5
446
100
AcDbEntity
  8
RACCORDO
100
AcDbPolyline
 62
250
  6
CONTINUOUS
 90
8
 70
0
 10
152.6789806704
 20
92.8860063553
 10
152.6838745799
 20
92.8758368269
 10
152.6884311476
 20
92.8651238774
 10
152.6925500683
 20
92.8539417227
 10
152.6961423209
 20
92.8423400511
 10
152.6991262707
 20
92.8303193455
 10
152.7013837397
 20
92.8179615906
 10
152.7027803107
 20
92.8054306676
  0
LWPOLYLINE
  5
447
100
AcDbEntity
  8
ASSI
100
AcDbPolyline
 62
250
  6
CONTINUOUS
 90
7
 70
0
 10
141.5555593855
 20
124.4848951381
 10
141.5584952729
 20
124.4705795033
 10
141.5641255469
 20
124.4545161506
 10
141.5726232152
 20
124.4371730342
 10
141.5841118923
 20
124.4188827398
 10
141.5986863928
 20
124.4000630983
 10
141.616427578
 20
124.381256649
  0
LWPOLYLINE
  5
448
100
AcDbEntity
  8
ASSI
100
AcDbPolyline
 62
250
  6
CONTINUOUS
 90
13
 70
0
 10
144.5504979303
 20
122.3148302365
 10
144.5478516924
 20
122.3362896803
 10
144.5430515446
 20
122.3584235505
 10
144.5361717744
 20
122.3808927511
 10
144.5273192795
 20
122.4033513779
 10
144.5166297329
 20
122.4254577346
 10
144.5042639854
 20
122.4468791501
 10
144.4903994031
 20
122.4673028306
 10
144.4752569308
 20
122.4863983586
 10
144.4591026558
 20
122.5038381351
 10
144.4422005509
 20
122.5193559236
 10
144.4248004547
 20
122.5327401753
 10
144.4071680392
 20
122.5438011779
  0
LWPOLYLINE
  5
449
100
AcDbEntity
  8
ASSI
100
AcDbPolyline
 62
250
  6
CONTINUOUS
 90
13
 70
0
 10
144.0508286597
 20
121.1268538844
 10
144.0481886376
 20
121.1482769239
 10
144.0434010447
 20
121.1703754795
 10
144.0365389615
 20
121.1928122261
 10
144.0277071348
 20
121.2152446765
 10
144.0170403786
 20
121.2373304087
 10
144.0047015164
 20
121.2587322936
 10
143.9908788958
 20
121.2791236404
 10
143.975783513
 20
121.298193184
 10
143.9596457928
 20
121.3156498359
 10
143.9427120704
 20
121.3312271278
 10
143.925240832
 20
121.3446872789
 10
143.9074987686
 20
121.3558248258
  0
LWPOLYLINE
  5
44A
100
AcDbEntity
  8
ASSI
100
AcDbPolyline
 62
250
  6
CONTINUOUS
 90
13
 70
0
 10
144.6868933562
 20
122.3963922442
 10
144.6842533342
 20
122.4178152836
 10
144.6794657413
 20
122.4399138392
 10
144.6726036581
 20
122.4623505859
 10
144.6637718313
 20
122.4847830362
 10
144.6531050752
 20
122.5068687684
 10
144.640766213
 20
122.5282706533
 10
144.6269435923
 20
122.5486620002
 10
144.6118482096
 20
122.5677315438
 10
144.5957104893
 20
122.5851881957
 10
144.578776767
 20
122.6007654876
 10
144.5613055286
 20
122.6142256387
 10
144.5435634652
 20
122.6253631856
  0
LINE
  5
44B
100
AcDbEntity
  8
ASSI
100
AcDbLine
 62
250
  6
CONTINUOUS
 10
148.5110505715
 20
123.3493946744
 11
148.524103277
 21
123.2298901408
  0
LINE
  5
44C
100
AcDbEntity
  8
ASSI
100
AcDbLine
 62
250
  6
CONTINUOUS
 10
146.3710382626
 20
121.1055686391
 11
146.3945015409
 21
120.8701924396
  0
LWPOLYLINE
  5
44D
100
AcDbEntity
  8
ASSI
100
AcDbPolyline
 62
250
  6
CONTINUOUS
 90
13
 70
0
 10
146.7951332627
 20
126.243901288
 10
146.7930700895
 20
126.2656035109
 10
146.7887816641
 20
126.2881259403
 10
146.7823365588
 20
126.3111084402
 10
146.7738378314
 20
126.3341835182
 10
146.7634213775
 20
126.3569822015
 10
146.7512537571
 20
126.3791399367
 10
146.7375295319
 20
126.4003024195
 10
146.7224681535
 20
126.4201312597
 10
146.7063104549
 20
126.438309392
 10
146.6893147992
 20
126.4545461464
 10
146.6717529488
 20
126.4685818955
 10
146.6539057195
 20
126.4801922062
  0
LINE
  5
44E
100
AcDbEntity
  8
ASSI
100
AcDbLine
 62
250
  6
CONTINUOUS
 10
146.3522386208
 20
121.3019208354
 11
146.3710382626
 21
121.1055686391
  0
LINE
  5
44F
100
AcDbEntity
  8
ASSI
100
AcDbLine
 62
250
  6
CONTINUOUS
 10
148.791255353
 20
122.5525333289
 11
148.8204386177
 21
122.2299373541
  0
LINE
  5
450
100
AcDbEntity
  8
ASSI
100
AcDbLine
 62
250
  6
CONTINUOUS
 10
148.7590575775
 20
122.9287962622
 11
148.791255353
 21
122.5525333289
  0
LWPOLYLINE
  5
451
100
AcDbEntity
  8
ASSI
100
AcDbPolyline
 62
250
  6
CONTINUOUS
 90
3
 70
0
 10
148.7240264299
 20
123.3635200947
 10
148.731222246
 20
123.2720094535
 10
148.7590575775
 20
122.9287962622
  0
LWPOLYLINE
  5
452
100
AcDbEntity
  8
RACCORDO
100
AcDbPolyline
 62
250
  6
CONTINUOUS
 90
8
 70
0
 10
148.9409494195
 20
94.2429837705
 10
148.9394016338
 20
94.2647960868
 10
148.9354177674
 20
94.2876081174
 10
148.9290660117
 20
94.311029391
 10
148.920455089
 20
94.3346590078
 10
148.9097323918
 20
94.3580925021
 10
148.8970814594
 20
94.380928765
 10
148.8907927859
 20
94.390494974
  0
LWPOLYLINE
  5
453
100
AcDbEntity
  8
RACCORDO
100
AcDbPolyline
 62
250
  6
CONTINUOUS
 90
13
 70
0
 10
150.3624603453
 20
92.1299797128
 10
150.3612727401
 20
92.1514725958
 10
150.3577509685
 20
92.1739261773
 10
150.3519526445
 20
92.1969731301
 10
150.3439726254
 20
92.2202364196
 10
150.3339414595
 20
92.243335472
 10
150.3220232508
 20
92.2658924006
 10
150.3084129742
 20
92.2875381872
 10
150.2933332857
 20
92.3079187197
 10
150.2770308802
 20
92.3267005843
 10
150.2597724554
 20
92.3435765211
 10
150.2418403489
 20
92.3582704495
 10
150.2235279194
 20
92.3705419856
  0
LINE
  5
454
100
AcDbEntity
  8
RACCORDO
100
AcDbLine
 62
250
  6
CONTINUOUS
 10
149.3745499487
 20
126.9139458481
 11
149.3822209997
 21
126.7405058676
  0
LINE
  5
455
100
AcDbEntity
  8
RACCORDO
100
AcDbLine
 62
7
  6
CONTINUOUS
 10
149.433127073
 20
126.9957798418
 11
149.4429802361
 21
126.7730030107
  0
LINE
  5
456
100
AcDbEntity
  8
RACCORDO
100
AcDbLine
 62
250
  6
CONTINUOUS
 10
149.433127073
 20
126.9957798418
 11
149.4331291308
 21
126.9957328971
  0
LINE
  5
457
100
AcDbEntity
  8
ASSI
100
AcDbLine
 62
250
  6
CONTINUOUS
 10
149.4148119131
 20
123.4142806948
 11
149.3973172518
 21
123.8793661836
  0
LINE
  5
458
100
AcDbEntity
  8
ASSI
100
AcDbLine
 62
250
  6
CONTINUOUS
 10
149.4244954405
 20
123.1105410093
 11
149.4148119131
 21
123.4142806948
  0
LINE
  5
459
100
AcDbEntity
  8
ASSI
100
AcDbLine
 62
250
  6
CONTINUOUS
 10
149.4321612783
 20
122.8280194458
 11
149.4244954405
 21
123.1105410093
  0
LINE
  5
45A
100
AcDbEntity
  8
ASSI
100
AcDbLine
 62
250
  6
CONTINUOUS
 10
149.4362044876
 20
122.6523397679
 11
149.4321612783
 21
122.8280194458
  0
LWPOLYLINE
  5
45B
100
AcDbEntity
  8
RACCORDO
100
AcDbPolyline
 62
7
  6
CONTINUOUS
 90
12
 70
0
 10
149.2464218013
 20
91.1460498252
 10
149.2458483718
 20
91.1864228783
 10
149.2392547592
 20
91.2861117915
 10
149.2253482378
 20
91.3812205961
 10
149.204157862
 20
91.4712812371
 10
149.1757523415
 20
91.5558399609
 10
149.140269972
 20
91.6344188226
 10
149.0978437792
 20
91.7065911549
 10
149.0486818318
 20
91.7719093158
 10
148.9931893867
 20
91.8297488345
 10
148.9317992203
 20
91.8796106662
 10
148.8820360505
 20
91.9116218513
  0
LINE
  5
45C
100
AcDbEntity
  8
RACCORDO
100
AcDbLine
 62
7
  6
CONTINUOUS
 10
148.3944401322
 20
91.8749743559
 11
148.3944401322
 21
92.9855817962
  0
LINE
  5
45D
100
AcDbEntity
  8
RACCORDO
100
AcDbLine
 62
250
  6
CONTINUOUS
 10
148.5146055444
 20
92.1235651352
 11
148.5146055444
 21
93.0269105597
  0
LINE
  5
45E
100
AcDbEntity
  8
RACCORDO
100
AcDbLine
 62
250
  6
CONTINUOUS
 10
148.5211532869
 20
89.86398956
 11
148.5211532869
 21
85.3142286371
  0
LINE
  5
45F
100
AcDbEntity
  8
RACCORDO
100
AcDbLine
 62
7
  6
CONTINUOUS
 10
148.5707375844
 20
92.0913713746
 11
148.5707375844
 21
93.0616234552
  0
LINE
  5
460
100
AcDbEntity
  8
RACCORDO
100
AcDbLine
 62
250
  6
CONTINUOUS
 10
149.1902898404
 20
91.0659350524
 11
149.1902898404
 21
84.9124396129
  0
LINE
  5
461
100
AcDbEntity
  8
RACCORDO
100
AcDbLine
 62
7
  6
CONTINUOUS
 10
149.2464218803
 20
91.1461524598
 11
149.2464218803
 21
84.9926570167
  0
LINE
  5
462
100
AcDbEntity
  8
ASSI
100
AcDbLine
 62
7
  6
CONTINUOUS
 10
149.3902511017
 20
123.63579325
 11
149.3902511017
 21
122.5050716451
  0
LINE
  5
463
100
AcDbEntity
  8
RACCORDO
100
AcDbLine
 62
7
  6
CONTINUOUS
 10
149.8535955374
 20
93.8549620566
 11
149.8535955374
 21
92.9105393159
  0
LINE
  5
464
100
AcDbEntity
  8
RACCORDO
100
AcDbLine
 62
250
  6
CONTINUOUS
 10
150.3597599057
 20
94.1679816946
 11
150.3597599057
 21
92.6182882593
  0
LINE
  5
465
100
AcDbEntity
  8
RACCORDO
100
AcDbLine
 62
250
  6
CONTINUOUS
 10
150.3763368596
 20
84.9149113094
 11
150.3763368596
 21
89.207898602
  0
LINE
  5
466
100
AcDbEntity
  8
RACCORDO
100
AcDbLine
 62
7
  6
CONTINUOUS
 10
150.4184358895
 20
84.9392222267
 11
150.4184358895
 21
89.1844582821
  0
LINE
  5
467
100
AcDbEntity
  8
RACCORDO
100
AcDbLine
 62
7
  6
CONTINUOUS
 10
150.453878632
 20
86.8950007355
 11
150.453878632
 21
87.8041959151
  0
LINE
  5
468
100
AcDbEntity
  8
RACCORDO
100
AcDbLine
 62
250
  6
CONTINUOUS
 10
150.6400275378
 20
94.3413034024
 11
150.6400275378
 21
92.6225258075
  0
LINE
  5
469
100
AcDbEntity
  8
RACCORDO
100
AcDbLine
 62
250
  6
CONTINUOUS
 10
151.2548562198
 20
87.8132269369
 11
151.2548562198
 21
89.7017131576
  0
LINE
  5
46A
100
AcDbEntity
  8
RACCORDO
100
AcDbLine
 62
7
  6
CONTINUOUS
 10
151.3016473312
 20
87.8856873872
 11
151.3016473312
 21
89.7306494828
  0
LWPOLYLINE
  5
46B
100
AcDbEntity
  8
RACCORDO
100
AcDbPolyline
 62
250
  6
CONTINUOUS
 90
19
 70
0
 10
150.3597592249
 20
92.6182886525
 10
150.3596650811
 20
92.6031744218
 10
150.3584298926
 20
92.5874777914
 10
150.3560570774
 20
92.5713140692
 10
150.3525442619
 20
92.5547242782
 10
150.3479183615
 20
92.5379155809
 10
150.3422832003
 20
92.5212659719
 10
150.3357289658
 20
92.5049481544
 10
150.3283314207
 20
92.4890427162
 10
150.320238857
 20
92.4737762509
 10
150.3116411024
 20
92.4593827153
 10
150.3025590911
 20
92.4457882055
 10
150.2928656686
 20
92.4327664221
 10
150.2826008699
 20
92.4203806184
 10
150.2718510847
 20
92.4087600788
 10
150.2605147376
 20
92.3978454379
 10
150.248599961
 20
92.3877215298
 10
150.2362412738
 20
92.3785758624
 10
150.2235276338
 20
92.3705421505
  0
LWPOLYLINE
  5
46C
100
AcDbEntity
  8
RACCORDO
100
AcDbPolyline
 62
250
  6
CONTINUOUS
 90
9
 70
0
 10
150.6678634547
 20
84.5927573096
 10
150.6677529668
 20
84.5800633549
 10
150.666766094
 20
84.5677762788
 10
150.6648486073
 20
84.5557951397
 10
150.6619542814
 20
84.5442717288
 10
150.6580322764
 20
84.5333054345
 10
150.6529211801
 20
84.5228157212
 10
150.6464776813
 20
84.5129561954
 10
150.6386548807
 20
84.5040457294
  0
LWPOLYLINE
  5
46D
100
AcDbEntity
  8
RACCORDO
100
AcDbPolyline
 62
250
  6
CONTINUOUS
 90
13
 70
0
 10
150.4116813342
 20
98.9595987327
 10
150.4059996464
 20
98.656043641
 10
150.3888907566
 20
98.3469227459
 10
150.3603546649
 20
98.0322360476
 10
150.3199731666
 20
97.7100861989
 10
150.2681644663
 20
97.3823705468
 10
150.2061831779
 20
97.0547811324
 10
150.1335127337
 20
96.7272732752
 10
150.0506697012
 20
96.3998916556
 10
149.9604583973
 20
96.0784623555
 10
149.8638135941
 20
95.7649274021
 10
149.7598005194
 20
95.4573447681
 10
149.6484191732
 20
95.1557144536
  0
LWPOLYLINE
  5
46E
100
AcDbEntity
  8
RACCORDO
100
AcDbPolyline
 62
250
  6
CONTINUOUS
 90
9
 70
0
 10
149.4331291308
 20
126.9957328971
 10
149.432889391
 20
126.9871813576
 10
149.4306558626
 20
126.9757188192
 10
149.4262507473
 20
126.9643697044
 10
149.419723455
 20
126.953268826
 10
149.4111686011
 20
126.9425633783
 10
149.4007032175
 20
126.9323754345
 10
149.3884485931
 20
126.9228032553
 10
149.3745499487
 20
126.9139458481
  0
LWPOLYLINE
  5
46F
100
AcDbEntity
  8
RACCORDO
100
AcDbPolyline
 62
250
  6
CONTINUOUS
 90
22
 70
0
 10
149.1902898404
 20
84.9124396129
 10
149.1873687946
 20
84.8288938559
 10
149.1795789833
 20
84.7442743202
 10
149.1669204064
 20
84.658581006
 10
149.1492839347
 20
84.5715277247
 10
149.1267786974
 20
84.4834006648
 10
149.099732082
 20
84.3950583917
 10
149.0680302849
 20
84.306238433
 10
149.0317871096
 20
84.2172032611
 10
148.9916713544
 20
84.1295988593
 10
148.9472856401
 20
84.0431079277
 10
148.8990273459
 20
83.9580477663
 10
148.8487574075
 20
83.8770162574
 10
148.7971137565
 20
83.8010711473
 10
148.7434584613
 20
83.7291546899
 10
148.6877386623
 20
83.6606915292
 10
148.6301997125
 20
83.5955153564
 10
148.5705962589
 20
83.5337924803
 10
148.5081393825
 20
83.475446471
 10
148.4425661102
 20
83.4204518521
 10
148.3741394151
 20
83.3688341
 10
148.3028592971
 20
83.3205932148
  0
LWPOLYLINE
  5
470
100
AcDbEntity
  8
RACCORDO
100
AcDbPolyline
 62
250
  6
CONTINUOUS
 90
19
 70
0
 10
150.6400275378
 20
92.6225258075
 10
150.6388977397
 20
92.5924118999
 10
150.6355885865
 20
92.5615810679
 10
150.6301000782
 20
92.5300333115
 10
150.6222913681
 20
92.4973557549
 10
150.6123033028
 20
92.4639612738
 10
150.6005584228
 20
92.4310884956
 10
150.5869786237
 20
92.398860414
 10
150.5716420099
 20
92.3671540352
 10
150.5552054351
 20
92.3368390052
 10
150.537863651
 20
92.3082331266
 10
150.5194219058
 20
92.2810185967
 10
150.4999527987
 20
92.2551116538
 10
150.4794526926
 20
92.2303726026
 10
150.4579252246
 20
92.2069411384
 10
150.4354539048
 20
92.185152585
 10
150.4120665701
 20
92.1651187168
 10
150.3877353836
 20
92.1467277594
 10
150.3624603453
 20
92.1299797128
  0
LWPOLYLINE
  5
471
100
AcDbEntity
  8
RACCORDO
100
AcDbPolyline
 62
250
  6
CONTINUOUS
 90
19
 70
0
 10
148.5211532869
 20
85.3142286371
 10
148.5188836948
 20
85.2553827607
 10
148.5126339556
 20
85.1955217601
 10
148.5024040691
 20
85.1346456353
 10
148.4880524536
 20
85.0723123173
 10
148.469720691
 20
85.0089638752
 10
148.4478335262
 20
84.9459265158
 10
148.422358645
 20
84.8832447041
 10
148.3933283616
 20
84.8208739751
 10
148.3612643639
 20
84.7600071397
 10
148.326141736
 20
84.700653355
 10
148.2879853937
 20
84.6428034639
 10
148.2473917723
 20
84.587622806
 10
148.2040866875
 20
84.5349492394
 10
148.1583443235
 20
84.4849449059
 10
148.1115836682
 20
84.4392615708
 10
148.0642777177
 20
84.3984498224
 10
148.0159534758
 20
84.3619590723
 10
147.9666109428
 20
84.3297893205
  0
LWPOLYLINE
  5
472
100
AcDbEntity
  8
RACCORDO
100
AcDbPolyline
 62
250
  6
CONTINUOUS
 90
8
 70
0
 10
147.9666109428
 20
90.1853046738
 10
147.9648612962
 20
90.1553389719
 10
147.9596885414
 20
90.1277771395
 10
147.9511755356
 20
90.1030598387
 10
147.9394585556
 20
90.08158223
 10
147.924725087
 20
90.0636876064
 10
147.9072107994
 20
90.0496619373
 10
147.9047019571
 20
90.0481100983
  0
LWPOLYLINE
  5
473
100
AcDbEntity
  8
RACCORDO
100
AcDbPolyline
 62
250
  6
CONTINUOUS
 90
7
 70
0
 10
149.2464218803
 20
84.9926570167
 10
149.2449659933
 20
84.9787488661
 10
149.240195557
 20
84.9640675191
 10
149.2321828844
 20
84.9498646613
 10
149.2210621315
 20
84.9363779308
 10
149.2070194411
 20
84.9238329574
 10
149.1902898404
 20
84.9124396129
  0
LWPOLYLINE
  5
474
100
AcDbEntity
  8
RACCORDO
100
AcDbPolyline
 62
250
  6
CONTINUOUS
 90
7
 70
0
 10
149.2464218013
 20
91.1460498252
 10
149.244966351
 20
91.1322460117
 10
149.2401962541
 20
91.1175645373
 10
149.2321837909
 20
91.1033614158
 10
149.2210630312
 20
91.0898743035
 10
149.2070200555
 20
91.0773288762
 10
149.1902898404
 20
91.0659350524
  0
LWPOLYLINE
  5
475
100
AcDbEntity
  8
RACCORDO
100
AcDbPolyline
 62
250
  6
CONTINUOUS
 90
7
 70
0
 10
151.4605820477
 20
113.8356697229
 10
151.4594905222
 20
113.825350102
 10
151.4559129496
 20
113.8143389961
 10
151.4499036022
 20
113.8036866549
 10
151.4415630325
 20
113.7935713207
 10
151.4310308006
 20
113.7841622503
 10
151.4184831392
 20
113.7756168827
  0
LWPOLYLINE
  5
476
100
AcDbEntity
  8
DRAFT
100
AcDbPolyline
 62
7
  6
CONTINUOUS
 90
18
 70
0
 10
147.5686735596
 20
95.6960655144
 10
147.5418319041
 20
95.6261083135
 10
147.5191749626
 20
95.5568729883
 10
147.500702735
 20
95.488359539
 10
147.4863523147
 20
95.4201045797
 10
147.4761866083
 20
95.3525714962
 10
147.4703943357
 20
95.2871504456
 10
147.4690474393
 20
95.2240439279
 10
147.4720739767
 20
95.1630494431
 10
147.4794468407
 20
95.1049496486
 10
147.4912830629
 20
95.0496026654
 10
147.5074656117
 20
94.9971503725
 10
147.5276162851
 20
94.948801064
 10
147.5517161278
 20
94.9048028814
 10
147.5797840951
 20
94.8649076832
 10
147.6114988507
 20
94.8295793388
 10
147.6470532092
 20
94.7987661124
 10
147.6869747485
 20
94.772100562
  0
LINE
  5
477
100
AcDbEntity
  8
RACCORDO
100
AcDbLine
 62
250
  6
CONTINUOUS
 10
149.6484191732
 20
95.1557144536
 11
149.6167523195
 21
95.077634629
  0
LWPOLYLINE
  5
478
100
AcDbEntity
  8
RACCORDO
100
AcDbPolyline
 62
250
  6
CONTINUOUS
 90
15
 70
0
 10
149.6167523195
 20
95.077634629
 10
149.5822327441
 20
95.0012768323
 10
149.544860447
 20
94.9266410636
 10
149.5041765121
 20
94.8531649279
 10
149.4606398555
 20
94.7814108201
 10
149.4156272253
 20
94.7130659249
 10
149.3696800574
 20
94.6488998651
 10
149.322256916
 20
94.5881430179
 10
149.2731102419
 20
94.5301736994
 10
149.2221794221
 20
94.4746613018
 10
149.1695250696
 20
94.4219364329
 10
149.1150814651
 20
94.3723692315
 10
149.058826702
 20
94.326083077
 10
149.0007826868
 20
94.2829545901
 10
148.9409494195
 20
94.2429837705
  0
LWPOLYLINE
  5
479
100
AcDbEntity
  8
RACCORDO
100
AcDbPolyline
 62
250
  6
CONTINUOUS
 90
15
 70
0
 10
151.4225970841
 20
94.8583227877
 10
151.4264838293
 20
94.8610715622
 10
151.4301436361
 20
94.863934328
 10
151.4335611881
 20
94.8668903549
 10
151.4367559871
 20
94.8699455877
 10
151.4397732957
 20
94.873136148
 10
151.442621353
 20
94.8764740932
 10
151.4452784737
 20
94.8799404771
 10
151.4477376473
 20
94.8835277002
 10
151.4499935276
 20
94.8872307763
 10
151.4520422973
 20
94.8910459468
 10
151.4538799664
 20
94.8949671613
 10
151.4555031594
 20
94.8989918751
 10
151.4569073486
 20
94.9031132561
 10
151.458087936
 20
94.9073185624
  0
LWPOLYLINE
  5
47A
100
AcDbEntity
  8
RACCORDO
100
AcDbPolyline
 62
7
  6
CONTINUOUS
 90
10
 70
0
 10
151.3991718025
 20
94.8107696198
 10
151.4091329428
 20
94.8176299151
 10
151.4202246857
 20
94.8271778983
 10
151.4305091845
 20
94.8384295105
 10
151.4395242269
 20
94.8510748919
 10
151.4470917729
 20
94.8649699231
 10
151.4531504036
 20
94.8802002837
 10
151.4574963052
 20
94.896569376
 10
151.4599662253
 20
94.9136349283
 10
151.4605820799
 20
94.9278640678
  0
LINE
  5
47B
100
AcDbEntity
  8
RACCORDO
100
AcDbLine
 62
250
  6
CONTINUOUS
 10
151.4184831392
 20
94.8556953533
 11
151.4225970841
 21
94.8583227877
  0
LINE
  5
47C
100
AcDbEntity
  8
RACCORDO
100
AcDbLine
 62
250
  6
CONTINUOUS
 10
148.6069128158
 20
94.3689684828
 11
147.3522938526
 21
93.5930932963
  0
LINE
  5
47D
100
AcDbEntity
  8
RACCORDO
100
AcDbLine
 62
250
  6
CONTINUOUS
 10
148.9409494195
 20
94.2429837705
 11
147.4583272766
 21
93.3261079976
  0
LINE
  5
47E
100
AcDbEntity
  8
RACCORDO
100
AcDbLine
 62
250
  6
CONTINUOUS
 10
148.3944401322
 20
92.9855817962
 11
151.4184831392
 21
94.8556953533
  0
LINE
  5
47F
100
AcDbEntity
  8
RACCORDO
100
AcDbLine
 62
7
  6
CONTINUOUS
 10
148.3944401322
 20
92.9525984663
 11
151.3991457107
 21
94.8107534675
  0
LWPOLYLINE
  5
480
100
AcDbEntity
  8
RACCORDO
100
AcDbPolyline
 62
250
  6
CONTINUOUS
 90
11
 70
0
 10
147.4151637886
 20
91.2418918462
 10
147.418412932
 20
91.2438943995
 10
147.4255224818
 20
91.2492116259
 10
147.4320931179
 20
91.2555340377
 10
147.438144872
 20
91.2629712749
 10
147.4435725691
 20
91.2715295879
 10
147.4482970631
 20
91.2812425431
 10
147.4522925811
 20
91.2923397788
 10
147.4554193474
 20
91.304941538
 10
147.4574853947
 20
91.3189914623
 10
147.4583272766
 20
91.3344726694
  0
LINE
  5
481
100
AcDbEntity
  8
RACCORDO
100
AcDbLine
 62
250
  6
CONTINUOUS
 10
147.4583272766
 20
91.3344726694
 11
148.3944401322
 21
91.8749743559
  0
LINE
  5
482
100
AcDbEntity
  8
RACCORDO
100
AcDbLine
 62
7
  6
CONTINUOUS
 10
147.4150705577
 20
91.2418379202
 11
148.3530021544
 21
91.7833897285
  0
LINE
  5
483
100
AcDbEntity
  8
RACCORDO
100
AcDbLine
 62
250
  6
CONTINUOUS
 10
147.3522938526
 20
91.0477415991
 11
148.3028592971
 21
91.5965880579
  0
LINE
  5
484
100
AcDbEntity
  8
RACCORDO
100
AcDbLine
 62
7
  6
CONTINUOUS
 10
131.6079616722
 20
84.9402938182
 11
131.5044082816
 21
84.8805136
  0
LINE
  5
485
100
AcDbEntity
  8
RACCORDO
100
AcDbLine
 62
7
  6
CONTINUOUS
 10
149.7097056087
 20
92.6672146133
 11
148.6222514929
 21
92.0616278894
  0
LWPOLYLINE
  5
486
100
AcDbEntity
  8
RACCORDO
100
AcDbPolyline
 62
250
  6
CONTINUOUS
 90
22
 70
0
 10
148.3028592971
 20
91.5965880579
 10
148.3726531432
 20
91.6334256196
 10
148.4407806357
 20
91.6635424801
 10
148.5072417748
 20
91.6869386395
 10
148.572225236
 20
91.703591503
 10
148.6355423437
 20
91.7135236653
 10
148.6966270709
 20
91.7168029108
 10
148.7556395881
 20
91.7133906232
 10
148.8124197248
 20
91.7033254188
 10
148.8659209415
 20
91.6867909312
 10
148.916223212
 20
91.6633210256
 10
148.9632465626
 20
91.6333818369
 10
149.0057045325
 20
91.5985554028
 10
149.042994112
 20
91.5592705825
 10
149.0757183108
 20
91.5150985169
 10
149.1043996969
 20
91.4663346663
 10
149.1292992834
 20
91.4135212191
 10
149.1501560572
 20
91.356115987
 10
149.1667095469
 20
91.2927878648
 10
149.1788729287
 20
91.2230931507
 10
149.1867330266
 20
91.1474755466
 10
149.1902898404
 20
91.0659350524
  0
LWPOLYLINE
  5
487
100
AcDbEntity
  8
RACCORDO
100
AcDbPolyline
 62
250
  6
CONTINUOUS
 90
13
 70
0
 10
150.6400275378
 20
92.6225257442
 10
150.6208899117
 20
92.612474121
 10
150.5996652131
 20
92.603932967
 10
150.5767085978
 20
92.5970451947
 10
150.5524042005
 20
92.5919260502
 10
150.5271587037
 20
92.5886611847
 10
150.5013945322
 20
92.5873052218
 10
150.475542792
 20
92.5878808448
 10
150.4500360499
 20
92.5903784164
 10
150.4253010921
 20
92.5947561416
 10
150.4017517947
 20
92.6009407665
 10
150.3797821979
 20
92.6088288026
 10
150.3597599057
 20
92.6182882593
  0
LWPOLYLINE
  5
488
100
AcDbEntity
  8
RACCORDO
100
AcDbPolyline
 62
250
  6
CONTINUOUS
 90
5
 70
0
 10
152.1866493406
 20
93.1797920868
 10
152.1922714208
 20
93.1823818044
 10
152.1985976044
 20
93.1843799611
 10
152.2055418504
 20
93.1856317392
 10
152.2130870292
 20
93.1860312097
  0
LWPOLYLINE
  5
489
100
AcDbEntity
  8
RACCORDO
100
AcDbPolyline
 62
250
  6
CONTINUOUS
 90
9
 70
0
 10
151.9837358995
 20
97.3518382248
 10
151.988091367
 20
97.3429483642
 10
151.9922251042
 20
97.3335642361
 10
151.9960706189
 20
97.3237069646
 10
151.9995465283
 20
97.313428563
 10
152.0025726146
 20
97.3027789087
 10
152.0050701294
 20
97.2917955124
 10
152.0069450625
 20
97.2805554962
 10
152.0080963323
 20
97.2691757747
  0
LWPOLYLINE
  5
48A
100
AcDbEntity
  8
RACCORDO
100
AcDbPolyline
 62
250
  6
CONTINUOUS
 90
6
 70
0
 10
147.4321165523
 20
111.7719212151
 10
147.4231135073
 20
111.79768803
 10
147.4133190875
 20
111.823880447
 10
147.4024808052
 20
111.851035998
 10
147.3904543397
 20
111.8792974968
 10
147.3772519004
 20
111.9084156907
  0
LINE
  5
48B
100
AcDbEntity
  8
ASSI
100
AcDbLine
 62
250
  6
CONTINUOUS
 10
142.0829058019
 20
120.4707842575
 11
142.029733874
 21
120.6296221152
  0
LINE
  5
48C
100
AcDbEntity
  8
ASSI
100
AcDbLine
 62
7
  6
CONTINUOUS
 10
142.1849051896
 20
120.433638144
 11
142.0760595414
 21
120.7587873397
  0
LWPOLYLINE
  5
48D
100
AcDbEntity
  8
RACCORDO
100
AcDbPolyline
 62
7
  6
CONTINUOUS
 90
9
 70
0
 10
147.3804302986
 20
111.6827873804
 10
147.3769346287
 20
111.6940868482
 10
147.371263021
 20
111.7145994511
 10
147.36610862
 20
111.7359117021
 10
147.3615157616
 20
111.7580633894
 10
147.3578057275
 20
111.7814170828
 10
147.3550856116
 20
111.8060936389
 10
147.35324832
 20
111.8319722012
 10
147.3522938527
 20
111.8590527696
  0
LWPOLYLINE
  5
48E
100
AcDbEntity
  8
ASSI
100
AcDbPolyline
 62
7
  6
CONTINUOUS
 90
4
 70
0
 10
147.0552901075
 20
121.2902465681
 10
147.0621660656
 20
121.2575273124
 10
147.0675422801
 20
121.2123953278
 10
147.0694511402
 20
121.1642134935
  0
LWPOLYLINE
  5
48F
100
AcDbEntity
  8
ASSI
100
AcDbPolyline
 62
7
  6
CONTINUOUS
 90
5
 70
0
 10
146.9089380865
 20
122.2687318519
 10
146.9117556743
 20
122.2533393841
 10
146.9137699888
 20
122.2378556457
 10
146.9149763238
 20
122.2223404154
 10
146.9153773634
 20
122.2068321733
  0
LINE
  5
490
100
AcDbEntity
  8
ASSI
100
AcDbLine
 62
250
  6
CONTINUOUS
 10
146.2161762676
 20
121.0108604693
 11
146.2401639644
 21
120.8391356217
  0
LINE
  5
491
100
AcDbEntity
  8
ASSI
100
AcDbLine
 62
250
  6
CONTINUOUS
 10
146.1908356236
 20
121.1986186431
 11
146.2161762676
 21
121.0108604693
  0
LINE
  5
492
100
AcDbEntity
  8
ASSI
100
AcDbLine
 62
250
  6
CONTINUOUS
 10
146.1639177181
 20
121.4053082204
 11
146.1908356236
 21
121.1986186431
  0
LINE
  5
493
100
AcDbEntity
  8
ASSI
100
AcDbLine
 62
250
  6
CONTINUOUS
 10
146.1353949778
 20
121.632596747
 11
146.1639177181
 21
121.4053082204
  0
LWPOLYLINE
  5
494
100
AcDbEntity
  8
ASSI
100
AcDbPolyline
 62
250
  6
CONTINUOUS
 90
13
 70
0
 10
147.3224574658
 20
122.638637409
 10
147.3198173576
 20
122.6600609526
 10
147.3150296088
 20
122.6821599291
 10
147.308167335
 20
122.7045969873
 10
147.2993353208
 20
122.7270296165
 10
147.2886684109
 20
122.7491153959
 10
147.276329445
 20
122.77051722
 10
147.2625067929
 20
122.7909084055
 10
147.2474114635
 20
122.8099777094
 10
147.2312738661
 20
122.8274340928
 10
147.2143403272
 20
122.8430111164
 10
147.1968693362
 20
122.856471015
 10
147.1791275752
 20
122.8676083507
  0
LWPOLYLINE
  5
495
100
AcDbEntity
  8
ASSI
100
AcDbPolyline
 62
250
  6
CONTINUOUS
 90
13
 70
0
 10
148.5110505714
 20
123.3493946743
 10
148.5084105495
 20
123.3708177135
 10
148.5036229566
 20
123.3929162688
 10
148.4967608735
 20
123.4153530153
 10
148.4879290469
 20
123.4377854657
 10
148.4772622907
 20
123.459871198
 10
148.4649234285
 20
123.481273083
 10
148.4511008078
 20
123.50166443
 10
148.436005425
 20
123.5207339737
 10
148.4198677047
 20
123.5381906257
 10
148.4029339823
 20
123.5537679176
 10
148.3854627438
 20
123.5672280688
 10
148.3677206803
 20
123.5783656157
  0
LWPOLYLINE
  5
496
100
AcDbEntity
  8
ASSI
100
AcDbPolyline
 62
250
  6
CONTINUOUS
 90
13
 70
0
 10
146.4946465585
 20
122.4679547413
 10
146.497196402
 20
122.4471912686
 10
146.5017695466
 20
122.4257822907
 10
146.5083002686
 20
122.4040354982
 10
146.5166947102
 20
122.3822634371
 10
146.5268322275
 20
122.3607790178
 10
146.5385671239
 20
122.3398910184
 10
146.5517307457
 20
122.3198996437
 10
146.5661339048
 20
122.3010922131
 10
146.5815695967
 20
122.2837390321
 10
146.5978159776
 20
122.2680895039
 10
146.6146395531
 20
122.254368546
 10
146.6317985331
 20
122.2427733589
  0
LINE
  5
497
100
AcDbEntity
  8
ASSI
100
AcDbLine
 62
250
  6
CONTINUOUS
 10
148.5982142016
 20
122.5879059478
 11
148.6313642966
 21
122.3202506013
  0
LINE
  5
498
100
AcDbEntity
  8
ASSI
100
AcDbLine
 62
250
  6
CONTINUOUS
 10
146.105526615
 20
121.8799404375
 11
146.1353949778
 21
121.632596747
  0
LINE
  5
499
100
AcDbEntity
  8
ASSI
100
AcDbLine
 62
250
  6
CONTINUOUS
 10
148.5623778832
 20
122.8905882219
 11
148.5982142016
 21
122.5879059478
  0
LWPOLYLINE
  5
49A
100
AcDbEntity
  8
ASSI
100
AcDbPolyline
 62
250
  6
CONTINUOUS
 90
3
 70
0
 10
148.524103277
 20
123.2298901408
 10
148.5338666037
 20
123.1417269317
 10
148.5623778832
 20
122.8905882219
  0
LWPOLYLINE
  5
49B
100
AcDbEntity
  8
RACCORDO
100
AcDbPolyline
 62
250
  6
CONTINUOUS
 90
3
 70
0
 10
151.4111911618
 20
113.885047933
 10
151.4166522908
 20
113.829955094
 10
151.4184831392
 20
113.7756168827
  0
LINE
  5
49C
100
AcDbEntity
  8
ASSI
100
AcDbLine
 62
250
  6
CONTINUOUS
 10
151.7774475576
 20
124.0001361546
 11
151.7231281097
 21
124.7484001196
  0
LINE
  5
49D
100
AcDbEntity
  8
ASSI
100
AcDbLine
 62
250
  6
CONTINUOUS
 10
151.8545942342
 20
124.0582419101
 11
151.801450039
 21
124.7903164748
  0
LINE
  5
49E
100
AcDbEntity
  8
RACCORDO
100
AcDbLine
 62
250
  6
CONTINUOUS
 10
152.4756971643
 20
125.1731654047
 11
152.5092384683
 21
124.7111255629
  0
LINE
  5
49F
100
AcDbEntity
  8
RACCORDO
100
AcDbLine
 62
7
  6
CONTINUOUS
 10
152.5377429646
 20
124.7237124582
 11
152.5009980491
 21
125.2298828497
  0
LINE
  5
4A0
100
AcDbEntity
  8
RACCORDO
100
AcDbLine
 62
250
  6
CONTINUOUS
 10
152.7027803107
 20
92.8054306676
 11
152.7031906187
 21
92.7928858576
  0
LINE
  5
4A1
100
AcDbEntity
  8
RACCORDO
100
AcDbLine
 62
250
  6
CONTINUOUS
 10
152.0080963323
 20
97.2691757747
 11
152.0084264323
 21
97.2577794613
  0
LWPOLYLINE
  5
4A2
100
AcDbEntity
  8
RACCORDO
100
AcDbPolyline
 62
7
  6
CONTINUOUS
 90
11
 70
0
 10
151.4605820477
 20
113.8356697231
 10
151.4598817136
 20
113.8686747638
 10
151.4562810288
 20
113.9185476494
 10
151.4496946441
 20
113.9691697727
 10
151.4402024219
 20
114.020261008
 10
151.4279438413
 20
114.0713957732
 10
151.4130443826
 20
114.1223866067
 10
151.3956155251
 20
114.173054287
 10
151.3758877862
 20
114.2229451391
 10
151.3540845292
 20
114.2717460836
 10
151.3419978017
 20
114.2965992029
  0
LWPOLYLINE
  5
4A3
100
AcDbEntity
  8
RACCORDO
100
AcDbPolyline
 62
7
  6
CONTINUOUS
 90
12
 70
0
 10
152.0364924409
 20
97.2978607193
 10
152.0364345953
 20
97.3020094409
 10
152.0349703947
 20
97.3192750411
 10
152.0316279234
 20
97.336358809
 10
152.026429071
 20
97.353353836
 10
152.0193614653
 20
97.3701829292
 10
152.0107556056
 20
97.3860873667
 10
152.0006053622
 20
97.4011358961
 10
151.9888341274
 20
97.4152956615
 10
151.9759603841
 20
97.4278614444
 10
151.962034882
 20
97.4387861883
 10
151.9510731004
 20
97.4457585725
  0
LWPOLYLINE
  5
4A4
100
AcDbEntity
  8
RACCORDO
100
AcDbPolyline
 62
7
  6
CONTINUOUS
 90
12
 70
0
 10
152.731256624
 20
92.8329633151
 10
152.7312221588
 20
92.8361701135
 10
152.7298780969
 20
92.8533289659
 10
152.7266686058
 20
92.8703462521
 10
152.7216072627
 20
92.8873041502
 10
152.7146818066
 20
92.9041187022
 10
152.7062022437
 20
92.9200579047
 10
152.6961447418
 20
92.9351992344
 10
152.6844354518
 20
92.9494884076
 10
152.6715996859
 20
92.9621948697
 10
152.6576795477
 20
92.9732736484
 10
152.6458348412
 20
92.9808663727
  0
LINE
  5
4A5
100
AcDbEntity
  8
RACCORDO
100
AcDbLine
 62
250
  6
CONTINUOUS
 10
151.4184831392
 20
113.7756168827
 11
151.4184831392
 21
94.8556953533
  0
LINE
  5
4A6
100
AcDbEntity
  8
RACCORDO
100
AcDbLine
 62
7
  6
CONTINUOUS
 10
151.4605821691
 20
113.835779938
 11
151.4605821691
 21
94.927809233
  0
LINE
  5
4A7
100
AcDbEntity
  8
RACCORDO
100
AcDbLine
 62
250
  6
CONTINUOUS
 10
152.0084264323
 20
97.2577794613
 11
152.0084264323
 21
92.3917363464
  0
LINE
  5
4A8
100
AcDbEntity
  8
RACCORDO
100
AcDbLine
 62
7
  6
CONTINUOUS
 10
152.0364924522
 20
97.297888165
 11
152.0364924522
 21
92.502194476
  0
LWPOLYLINE
  5
4A9
100
AcDbEntity
  8
RACCORDO
100
AcDbPolyline
 62
250
  6
CONTINUOUS
 90
5
 70
0
 10
152.4756971643
 20
125.1731654047
 10
152.4756958393
 20
125.1955654624
 10
152.4732636708
 20
125.2182423735
 10
152.4684346026
 20
125.2408796478
 10
152.4612760362
 20
125.2631613333
  0
LINE
  5
4AA
100
AcDbEntity
  8
RACCORDO
100
AcDbLine
 62
250
  6
CONTINUOUS
 10
152.6563993641
 20
106.8939335692
 11
152.6563993641
 21
108.9556558037
  0
LINE
  5
4AB
100
AcDbEntity
  8
RACCORDO
100
AcDbLine
 62
250
  6
CONTINUOUS
 10
152.7031906187
 20
92.7928858576
 11
152.7031906187
 21
90.6468598702
  0
LINE
  5
4AC
100
AcDbEntity
  8
RACCORDO
100
AcDbLine
 62
7
  6
CONTINUOUS
 10
152.707770399
 20
106.9712030944
 11
152.707770399
 21
109.0329253289
  0
LINE
  5
4AD
100
AcDbEntity
  8
RACCORDO
100
AcDbLine
 62
7
  6
CONTINUOUS
 10
152.7312566386
 20
92.8329945613
 11
152.7312566386
 21
90.6869685739
  0
LINE
  5
4AE
100
AcDbEntity
  8
RACCORDO
100
AcDbLine
 62
250
  6
CONTINUOUS
 10
154.2773177007
 20
123.1555635725
 11
154.2773177007
 21
123.4505770296
  0
LINE
  5
4AF
100
AcDbEntity
  8
RACCORDO
100
AcDbLine
 62
7
  6
CONTINUOUS
 10
154.3334497406
 20
123.2357809798
 11
154.3334497406
 21
123.5307944372
  0
LINE
  5
4B0
100
AcDbEntity
  8
RACCORDO
100
AcDbLine
 62
250
  6
CONTINUOUS
 10
152.7031906187
 20
90.6468598702
 11
152.7031465448
 21
90.641797736
  0
LWPOLYLINE
  5
4B1
100
AcDbEntity
  8
RACCORDO
100
AcDbPolyline
 62
7
  6
CONTINUOUS
 90
9
 70
0
 10
152.0364924521
 20
92.5021930241
 10
152.0364451592
 20
92.4979745698
 10
152.0356232877
 20
92.4838715525
 10
152.0337735037
 20
92.4693142087
 10
152.0308929425
 20
92.4543541065
 10
152.0269345948
 20
92.4390393867
 10
152.021860003
 20
92.4234412422
 10
152.0156843718
 20
92.4076457754
 10
152.0084264323
 20
92.3917363464
  0
LWPOLYLINE
  5
4B2
100
AcDbEntity
  8
RACCORDO
100
AcDbPolyline
 62
250
  6
CONTINUOUS
 90
7
 70
0
 10
151.4184831392
 20
94.8556953533
 10
151.4180261598
 20
94.845479547
 10
151.4163466649
 20
94.8361244705
 10
151.4134733795
 20
94.8277901299
 10
151.4094554463
 20
94.8206190734
 10
151.4043615862
 20
94.8147339528
 10
151.3991718025
 20
94.8107696198
  0
LWPOLYLINE
  5
4B3
100
AcDbEntity
  8
RACCORDO
100
AcDbPolyline
 62
250
  6
CONTINUOUS
 90
16
 70
0
 10
152.6563993641
 20
108.9556558037
 10
152.657265952
 20
108.9740267591
 10
152.6565077462
 20
108.9930378496
 10
152.6541329885
 20
109.0124824525
 10
152.6501674939
 20
109.0321492182
 10
152.6446543612
 20
109.0518244143
 10
152.6376534922
 20
109.0712942479
 10
152.6292409567
 20
109.0903471292
 10
152.6195081852
 20
109.1087759556
 10
152.6085609611
 20
109.1263804115
 10
152.5965182602
 20
109.1429691583
 10
152.5835109681
 20
109.1583618914
 10
152.5696804714
 20
109.1723912901
 10
152.555177096
 20
109.1849048676
 10
152.5401584692
 20
109.1957666228
 10
152.5247878242
 20
109.2048585021
  0
LWPOLYLINE
  5
4B4
100
AcDbEntity
  8
RACCORDO
100
AcDbPolyline
 62
250
  6
CONTINUOUS
 90
12
 70
0
 10
152.7031465448
 20
90.641797736
 10
152.7029047589
 20
90.6367252991
 10
152.7024505107
 20
90.6316614952
 10
152.7017727516
 20
90.6266503558
 10
152.7008555812
 20
90.6216883538
 10
152.6996676843
 20
90.6167327256
 10
152.6981852664
 20
90.6118164454
 10
152.6963852493
 20
90.6069759486
 10
152.6942181231
 20
90.6021950879
 10
152.6916480107
 20
90.5975212562
 10
152.6886464864
 20
90.5930188593
 10
152.6851595095
 20
90.5887222186
  0
LWPOLYLINE
  5
4B5
100
AcDbEntity
  8
RACCORDO
100
AcDbPolyline
 62
250
  6
CONTINUOUS
 90
3
 70
0
 10
151.4602662456
 20
94.920379347
 10
151.4605324773
 20
94.924845695
 10
151.4605821691
 20
94.9278088115
  0
LWPOLYLINE
  5
4B6
100
AcDbEntity
  8
RACCORDO
100
AcDbPolyline
 62
250
  6
CONTINUOUS
 90
6
 70
0
 10
152.0364924409
 20
97.2978607193
 10
152.0361917464
 20
97.2934138498
 10
152.0333796392
 20
97.2835942038
 10
152.0276885581
 20
97.2741992986
 10
152.0192876119
 20
97.2655083009
 10
152.0084264323
 20
97.2577794613
  0
LWPOLYLINE
  5
4B7
100
AcDbEntity
  8
RACCORDO
100
AcDbPolyline
 62
250
  6
CONTINUOUS
 90
6
 70
0
 10
152.731256624
 20
92.8329633151
 10
152.7309559328
 20
92.828520246
 10
152.7281438256
 20
92.8187006
 10
152.7224527445
 20
92.8093056948
 10
152.7140517983
 20
92.8006146972
 10
152.7031906187
 20
92.7928858576
  0
LWPOLYLINE
  5
4B8
100
AcDbEntity
  8
RACCORDO
100
AcDbPolyline
 62
250
  6
CONTINUOUS
 90
6
 70
0
 10
152.7312566262
 20
90.6869397924
 10
152.7309559329
 20
90.6824942594
 10
152.7281438258
 20
90.6726746133
 10
152.7224527449
 20
90.6632797079
 10
152.7140517986
 20
90.65458871
 10
152.7031906187
 20
90.6468598702
  0
LWPOLYLINE
  5
4B9
100
AcDbEntity
  8
RACCORDO
100
AcDbPolyline
 62
250
  6
CONTINUOUS
 90
3
 70
0
 10
152.7061395912
 20
106.9564863542
 10
152.7077007083
 20
106.9681548703
 10
152.707770399
 20
106.9712030944
  0
LWPOLYLINE
  5
4BA
100
AcDbEntity
  8
RACCORDO
100
AcDbPolyline
 62
250
  6
CONTINUOUS
 90
4
 70
0
 10
151.458087936
 20
94.9073185624
 10
151.4590423439
 20
94.9116017758
 10
151.4597690108
 20
94.9159587501
 10
151.4602530573
 20
94.9202620982
  0
LWPOLYLINE
  5
4BB
100
AcDbEntity
  8
RACCORDO
100
AcDbPolyline
 62
250
  6
CONTINUOUS
 90
3
 70
0
 10
147.3522938526
 20
89.8122211481
 10
147.3889523123
 20
89.8385806493
 10
147.4284154667
 20
89.864094977
  0
LWPOLYLINE
  5
4BC
100
AcDbEntity
  8
RACCORDO
100
AcDbPolyline
 62
7
  6
CONTINUOUS
 90
3
 70
0
 10
147.3522938526
 20
89.7178568062
 10
147.3590713017
 20
89.7223677293
 10
147.3662588711
 20
89.7267480404
  0
LWPOLYLINE
  5
4BD
100
AcDbEntity
  8
RACCORDO
100
AcDbPolyline
 62
250
  6
CONTINUOUS
 90
64
 70
0
 10
141.9512747776
 20
85.6434611345
 10
141.9431936528
 20
85.6384626859
 10
141.935416081
 20
85.6332503148
 10
141.9279420621
 20
85.6278240212
 10
141.9207804764
 20
85.6221545283
 10
141.9139224436
 20
85.6162711128
 10
141.9073413232
 20
85.6102616055
 10
141.9010461212
 20
85.6041490449
 10
141.8950278317
 20
85.5979103924
 10
141.889232796
 20
85.5915643624
 10
141.8836542597
 20
85.5851169634
 10
141.8782989773
 20
85.5785621869
 10
141.8731335534
 20
85.571900721
 10
141.8681483756
 20
85.5651278375
 10
141.8633530562
 20
85.5582482647
 10
141.8587430369
 20
85.5512768753
 10
141.8543154377
 20
85.5442130795
 10
141.8500731385
 20
85.5370574673
 10
141.8460202212
 20
85.5298266803
 10
141.8421544722
 20
85.5225191077
 10
141.8384781051
 20
85.5151363604
 10
141.8350018429
 20
85.5076999138
 10
141.8317234189
 20
85.5002046755
 10
141.8286450998
 20
85.492655738
 10
141.825784408
 20
85.4850898531
 10
141.8231416694
 20
85.4775040608
 10
141.820716558
 20
85.4699013212
 10
141.8185256182
 20
85.4623272662
 10
141.8165708084
 20
85.4547822963
 10
141.8148501701
 20
85.4472660111
 10
141.8133743726
 20
85.4398228405
 10
141.8121453468
 20
85.4324543748
 10
141.8111611619
 20
85.4251590238
 10
141.8104266936
 20
85.4179764472
 10
141.8099434158
 20
85.4109079809
 10
141.8097098546
 20
85.4039522891
 10
141.8097264644
 20
85.397145024
 10
141.8099944876
 20
85.3904871194
 10
141.8105126818
 20
85.3839776415
 10
141.8112777732
 20
85.3776494421
 10
141.8122908104
 20
85.3715037455
 10
141.8135507448
 20
85.3655393273
 10
141.8150511571
 20
85.3597853657
 10
141.8167930873
 20
85.3542426525
 10
141.8187754953
 20
85.3489103959
 10
141.8209888415
 20
85.343815398
 10
141.8234334252
 20
85.3389593162
 10
141.8261089471
 20
85.3343404931
 10
141.8290049709
 20
85.3299807582
 10
141.8321257031
 20
85.3258782863
 10
141.835466937
 20
85.3220349025
 10
141.8390056165
 20
85.3184779115
 10
141.8427244976
 20
85.3152175978
 10
141.8466408241
 20
85.3122436769
 10
141.850783271
 20
85.3095525991
 10
141.8551354758
 20
85.3071331325
 10
141.859713801
 20
85.3049965092
 10
141.8645960083
 20
85.303172875
 10
141.8697778882
 20
85.3016385264
 10
141.8752636504
 20
85.300417167
 10
141.8811436855
 20
85.2996100542
 10
141.887448124
 20
85.2992509404
 10
141.8941468354
 20
85.2993060732
 10
141.9012398198
 20
85.2997754526
  0
LINE
  5
4BE
100
AcDbEntity
  8
RACCORDO
100
AcDbLine
 62
250
  6
CONTINUOUS
 10
152.7031906187
 20
90.6468598702
 11
150.3763368596
 21
89.207898602
  0
LINE
  5
4BF
100
AcDbEntity
  8
RACCORDO
100
AcDbLine
 62
7
  6
CONTINUOUS
 10
152.6739336233
 20
90.5792919105
 11
150.4184358867
 21
89.184458277
  0
LWPOLYLINE
  5
4C0
100
AcDbEntity
  8
RACCORDO
100
AcDbPolyline
 62
250
  6
CONTINUOUS
 90
56
 70
0
 10
141.8805748691
 20
85.7659169681
 10
141.8685653968
 20
85.7585197194
 10
141.8569620706
 20
85.7506377343
 10
141.8457929446
 20
85.7423575299
 10
141.835107281
 20
85.7337841171
 10
141.8248935983
 20
85.7249746684
 10
141.8150836028
 20
85.7159250508
 10
141.8056965328
 20
85.7067010678
 10
141.7967305148
 20
85.6973484894
 10
141.7880893468
 20
85.6878035193
 10
141.7797724319
 20
85.6780922738
 10
141.771794408
 20
85.6682586793
 10
141.7640903299
 20
85.6582430365
 10
141.7566569452
 20
85.6480538168
 10
141.7495141255
 20
85.6377310979
 10
141.7426384934
 20
85.6272514131
 10
141.7360361445
 20
85.6166312308
 10
141.7297180612
 20
85.6058955403
 10
141.7236726873
 20
85.595029126
 10
141.7179075004
 20
85.5840474865
 10
141.7124334131
 20
85.5729734703
 10
141.7072476729
 20
85.561800913
 10
141.7023569278
 20
85.5505412649
 10
141.6977740925
 20
85.5392211845
 10
141.6935073115
 20
85.5278570239
 10
141.6895639165
 20
85.5164643871
 10
141.6859535926
 20
85.505067126
 10
141.6826866878
 20
85.4936941449
 10
141.6797695692
 20
85.4823657661
 10
141.6772077259
 20
85.4711014927
 10
141.6750077643
 20
85.4599287388
 10
141.6731736447
 20
85.4488686003
 10
141.6717080422
 20
85.4379387303
 10
141.6706136812
 20
85.4271607901
 10
141.6698921354
 20
85.4165543635
 10
141.6695441187
 20
85.4061367641
 10
141.6695698548
 20
85.3959256575
 10
141.6699689489
 20
85.38593879
 10
141.6707403313
 20
85.3761930866
 10
141.6718823792
 20
85.3667044298
 10
141.673392788
 20
85.3574896399
 10
141.6752687494
 20
85.3485639086
 10
141.6775073346
 20
85.339940238
 10
141.6801048068
 20
85.3316334525
 10
141.6830566997
 20
85.3236581201
 10
141.6863585965
 20
85.3160265064
 10
141.6900043637
 20
85.3087534828
 10
141.6939886112
 20
85.3018503933
 10
141.6983081803
 20
85.2953244604
 10
141.7029608987
 20
85.2891830683
 10
141.7079360913
 20
85.2834440811
 10
141.7132160691
 20
85.2781281862
 10
141.718767232
 20
85.2732631165
 10
141.7246008075
 20
85.2688332889
 10
141.730772928
 20
85.2648050901
 10
141.7322373369
 20
85.2639392028
  0
LINE
  5
4C1
100
AcDbEntity
  8
RACCORDO
100
AcDbLine
 62
250
  6
CONTINUOUS
 10
150.2235279194
 20
92.3705419856
 11
149.1021505924
 21
91.6992647197
  0
LINE
  5
4C2
100
AcDbEntity
  8
RACCORDO
100
AcDbLine
 62
250
  6
CONTINUOUS
 10
150.3624603453
 20
92.1299797128
 11
149.2113109
 21
91.4408803046
  0
LINE
  5
4C3
100
AcDbEntity
  8
RACCORDO
100
AcDbLine
 62
250
  6
CONTINUOUS
 10
147.4011042647
 20
89.6416935462
 11
147.6704919042
 21
89.8026640264
  0
LINE
  5
4C4
100
AcDbEntity
  8
RACCORDO
100
AcDbLine
 62
250
  6
CONTINUOUS
 10
147.6169385136
 20
89.2764450031
 11
147.8826239385
 21
89.4352032539
  0
LINE
  5
4C5
100
AcDbEntity
  8
RACCORDO
100
AcDbLine
 62
250
  6
CONTINUOUS
 10
147.4284154667
 20
89.864094977
 11
147.9666109428
 21
90.1853046738
  0
LINE
  5
4C6
100
AcDbEntity
  8
RACCORDO
100
AcDbLine
 62
7
  6
CONTINUOUS
 10
147.3663608475
 20
89.7268133217
 11
147.9045563241
 21
90.0480230188
  0
LWPOLYLINE
  5
4C7
100
AcDbEntity
  8
RACCORDO
100
AcDbPolyline
 62
7
  6
CONTINUOUS
 90
9
 70
0
 10
147.9047019574
 20
90.0481100985
 10
147.9135672583
 20
90.0532549669
 10
147.9328037856
 20
90.063415054
 10
147.9505289656
 20
90.0714652348
 10
147.9665648753
 20
90.077518187
 10
147.9804025696
 20
90.0816154952
 10
147.9912163787
 20
90.0838853849
 10
147.9985672158
 20
90.0847765919
 10
147.999636205
 20
90.0848442055
  0
LINE
  5
4C8
100
AcDbEntity
  8
RACCORDO
100
AcDbLine
 62
250
  6
CONTINUOUS
 10
152.5971407559
 20
92.9765696079
 11
152.0364924522
 21
92.6528571925
  0
LINE
  5
4C9
100
AcDbEntity
  8
RACCORDO
100
AcDbLine
 62
250
  6
CONTINUOUS
 10
152.7031906187
 20
92.7928858576
 11
152.0084264323
 21
92.3917363464
  0
LINE
  5
4CA
100
AcDbEntity
  8
RACCORDO
100
AcDbLine
 62
250
  6
CONTINUOUS
 10
141.9819507349
 20
85.8244499284
 11
141.8805748691
 21
85.7659169681
  0
LINE
  5
4CB
100
AcDbEntity
  8
RACCORDO
100
AcDbLine
 62
250
  6
CONTINUOUS
 10
141.9819507349
 20
85.6611729891
 11
141.9512747776
 21
85.6434611345
  0
LWPOLYLINE
  5
4CC
100
AcDbEntity
  8
RACCORDO
100
AcDbPolyline
 62
250
  6
CONTINUOUS
 90
19
 70
0
 10
147.9666109428
 20
90.1853046738
 10
148.015423153
 20
90.2117786685
 10
148.0630827615
 20
90.2328873828
 10
148.1095897682
 20
90.2486308168
 10
148.1552486651
 20
90.2590266299
 10
148.1997549602
 20
90.2640571627
 10
148.2421951784
 20
90.2636694368
 10
148.282515755
 20
90.2577924956
 10
148.3207702547
 20
90.2464972958
 10
148.3562058953
 20
90.2299437297
 10
148.3888027426
 20
90.2080883183
 10
148.4185807309
 20
90.1809745406
 10
148.4448468806
 20
90.1488927262
 10
148.4675981956
 20
90.111519806
 10
148.486837672
 20
90.0691788491
 10
148.5018813184
 20
90.0231293924
 10
148.5125011378
 20
89.9737912814
 10
148.5189251273
 20
89.9207446706
 10
148.5211532869
 20
89.86398956
  0
LINE
  5
4CD
100
AcDbEntity
  8
RACCORDO
100
AcDbLine
 62
7
  6
CONTINUOUS
 10
152.1866493406
 20
93.1797920868
 11
152.0364924522
 21
93.0990425715
  0
LINE
  5
4CE
100
AcDbEntity
  8
RACCORDO
100
AcDbLine
 62
250
  6
CONTINUOUS
 10
152.2598041072
 20
93.1713435611
 11
152.0364924522
 21
93.0512537797
  0
LWPOLYLINE
  5
4CF
100
AcDbEntity
  8
RACCORDO
100
AcDbPolyline
 62
250
  6
CONTINUOUS
 90
13
 70
0
 10
148.5211532869
 20
89.86398956
 10
148.4927879011
 20
89.8490694654
 10
148.4613561851
 20
89.8363619038
 10
148.4273723397
 20
89.8260747617
 10
148.3913923166
 20
89.8183763297
 10
148.3540047237
 20
89.8133925486
 10
148.3158211958
 20
89.8112049496
 10
148.2774663885
 20
89.8118493203
 10
148.2395677595
 20
89.8153151193
 10
148.2027453038
 20
89.8215456484
 10
148.1676014107
 20
89.8304389807
 10
148.1347110098
 20
89.8418496275
 10
148.1046121648
 20
89.8555909185
  0
LWPOLYLINE
  5
4D0
100
AcDbEntity
  8
RACCORDO
100
AcDbPolyline
 62
250
  6
CONTINUOUS
 90
8
 70
0
 10
151.908473372
 20
109.5607107426
 10
151.893873735
 20
109.568405042
 10
151.8792476822
 20
109.5741365769
 10
151.8647550305
 20
109.577842721
 10
151.8505541478
 20
109.5794829786
 10
151.8368001949
 20
109.5790394314
 10
151.823643433
 20
109.5765169203
 10
151.8140065519
 20
109.5731727733
  0
LINE
  5
4D1
100
AcDbEntity
  8
RACCORDO
100
AcDbLine
 62
7
  6
CONTINUOUS
 10
151.4705032004
 20
109.4288950147
 11
151.4605821691
 21
109.4346232938
  0
LINE
  5
4D2
100
AcDbEntity
  8
RACCORDO
100
AcDbLine
 62
250
  6
CONTINUOUS
 10
152.5247878242
 20
109.2048585021
 11
151.908473372
 21
109.5607107426
  0
LINE
  5
4D3
100
AcDbEntity
  8
RACCORDO
100
AcDbLine
 62
7
  6
CONTINUOUS
 10
152.607775231
 20
109.2061276198
 11
151.9914607788
 21
109.5619798603
  0
LWPOLYLINE
  5
4D4
100
AcDbEntity
  8
RACCORDO
100
AcDbPolyline
 62
7
  6
CONTINUOUS
 90
15
 70
0
 10
147.4888216285
 20
111.4546319305
 10
147.4796803683
 20
111.4705456307
 10
147.4706666396
 20
111.4865184331
 10
147.4617804425
 20
111.5025503376
 10
147.4530031339
 20
111.5185873737
 10
147.4443533568
 20
111.534683512
 10
147.4358870406
 20
111.5510006643
 10
147.4275961427
 20
111.5675384294
 10
147.4194887057
 20
111.5842972086
 10
147.411644787
 20
111.6014401182
 10
147.404054489
 20
111.6189508301
 10
147.3967277092
 20
111.6368456725
 10
147.3897741975
 20
111.6553367457
 10
147.3831677791
 20
111.6744136815
 10
147.3804302986
 20
111.6827873804
  0
LINE
  5
4D5
100
AcDbEntity
  8
RACCORDO
100
AcDbLine
 62
7
  6
CONTINUOUS
 10
147.0577884739
 20
114.2581084866
 11
146.8607835108
 21
114.6368054307
  0
LINE
  5
4D6
100
AcDbEntity
  8
RACCORDO
100
AcDbLine
 62
250
  6
CONTINUOUS
 10
147.3628157781
 20
111.9383232671
 11
147.3522938495
 21
111.9591293573
  0
LINE
  5
4D7
100
AcDbEntity
  8
RACCORDO
100
AcDbLine
 62
250
  6
CONTINUOUS
 10
147.3772519004
 20
111.9084156907
 11
147.3628157781
 21
111.9383232671
  0
LWPOLYLINE
  5
4D8
100
AcDbEntity
  8
ASSI
100
AcDbPolyline
 62
250
  6
CONTINUOUS
 90
3
 70
0
 10
144.4942479096
 20
125.8057412006
 10
144.5012033689
 20
125.7894382316
 10
144.5021830499
 20
125.7850289711
  0
LWPOLYLINE
  5
4D9
100
AcDbEntity
  8
ASSI
100
AcDbPolyline
 62
250
  6
CONTINUOUS
 90
8
 70
0
 10
147.3325022434
 20
118.8549006795
 10
147.3366809238
 20
118.8422676978
 10
147.33923622
 20
118.8306576139
 10
147.3401424904
 20
118.8201960061
 10
147.3393927295
 20
118.8109985453
 10
147.3369980862
 20
118.8031599921
 10
147.3329820365
 20
118.7967580045
 10
147.3318489298
 20
118.7955130665
  0
LINE
  5
4DA
100
AcDbEntity
  8
ASSI
100
AcDbLine
 62
250
  6
CONTINUOUS
 10
148.6313642966
 20
122.3202506013
 11
148.6470113105
 21
122.1980205513
  0
LWPOLYLINE
  5
4DB
100
AcDbEntity
  8
ASSI
100
AcDbPolyline
 62
250
  6
CONTINUOUS
 90
13
 70
0
 10
149.3973172508
 20
123.879366183
 10
149.394677231
 20
123.9007892094
 10
149.3898896418
 20
123.9228877555
 10
149.3830275624
 20
123.9453244971
 10
149.3741957377
 20
123.9677569484
 10
149.3635289812
 20
123.9898426862
 10
149.3511901177
 20
124.0112445767
 10
149.3373674958
 20
124.0316359278
 10
149.3222721112
 20
124.0507054754
 10
149.3061343891
 20
124.0681621305
 10
149.2892006651
 20
124.0837394247
 10
149.2717294253
 20
124.0971995773
 10
149.2539873609
 20
124.1083371251
  0
LWPOLYLINE
  5
4DC
100
AcDbEntity
  8
RACCORDO
100
AcDbPolyline
 62
250
  6
CONTINUOUS
 90
16
 70
0
 10
154.9137138037
 20
89.1365340771
 10
154.9131793534
 20
89.1541877274
 10
154.911075135
 20
89.1725265625
 10
154.9074241949
 20
89.1913497378
 10
154.9022665235
 20
89.2104510889
 10
154.8956586056
 20
89.229621436
 10
154.8876727899
 20
89.248650875
 10
154.8783965164
 20
89.2673310166
 10
154.8679313782
 20
89.2854572529
 10
154.8563919924
 20
89.3028310469
 10
154.8439047329
 20
89.319262119
 10
154.8306063586
 20
89.3345705089
 10
154.8166425292
 20
89.3485885368
 10
154.8021661835
 20
89.3611626709
 10
154.7873358617
 20
89.3721552038
 10
154.7723139867
 20
89.3814457443
  0
LWPOLYLINE
  5
4DD
100
AcDbEntity
  8
RACCORDO
100
AcDbPolyline
 62
7
  6
CONTINUOUS
 90
12
 70
0
 10
154.9698457886
 20
122.3961812271
 10
154.9697397496
 20
122.4035145025
 10
154.9677449332
 20
122.42866392
 10
154.963202645
 20
122.453964575
 10
154.9560967206
 20
122.479200238
 10
154.9467762646
 20
122.5033326843
 10
154.9351731928
 20
122.526730873
 10
154.9211621934
 20
122.5494469748
 10
154.9054521702
 20
122.5703115407
 10
154.8883189025
 20
122.5891614874
 10
154.8692772098
 20
122.6065054189
 10
154.8636749499
 20
122.6110041153
  0
LWPOLYLINE
  5
4DE
100
AcDbEntity
  8
RACCORDO
100
AcDbPolyline
 62
250
  6
CONTINUOUS
 90
25
 70
0
 10
154.9137138037
 20
122.3160494915
 10
154.9136104072
 20
122.3258314296
 10
154.9130910976
 20
122.336082606
 10
154.9121245003
 20
122.3467944596
 10
154.9106764407
 20
122.3579751768
 10
154.9087182871
 20
122.3695878394
 10
154.9062358998
 20
122.3815475567
 10
154.9032098453
 20
122.3938254032
 10
154.8996218099
 20
122.4063911642
 10
154.8954771152
 20
122.4191490856
 10
154.890769954
 20
122.4320584341
 10
154.8854958375
 20
122.4450782364
 10
154.8796794932
 20
122.4581081268
 10
154.8733326017
 20
122.4710939966
 10
154.8664616493
 20
122.483996314
 10
154.8590971113
 20
122.4967365858
 10
154.8513082609
 20
122.5091879399
 10
154.8430696865
 20
122.5213845224
 10
154.8342566515
 20
122.5334726862
 10
154.8248942052
 20
122.5453599286
 10
154.8149785213
 20
122.5569948994
 10
154.8043077391
 20
122.5685270127
 10
154.7928131947
 20
122.5799018172
 10
154.7805851893
 20
122.5908990798
 10
154.7676563081
 20
122.6013672079
  0
LWPOLYLINE
  5
4DF
100
AcDbEntity
  8
RACCORDO
100
AcDbPolyline
 62
250
  6
CONTINUOUS
 90
28
 70
0
 10
154.2773177007
 20
123.4505770296
 10
154.2772287127
 20
123.4605074475
 10
154.2767178453
 20
123.4708400679
 10
154.2757623842
 20
123.4815616738
 10
154.2743422074
 20
123.492642484
 10
154.2724356764
 20
123.5040760793
 10
154.2700143852
 20
123.5158808902
 10
154.2670430767
 20
123.528077066
 10
154.2635084946
 20
123.5405894755
 10
154.2594244564
 20
123.5532874972
 10
154.2547916309
 20
123.5661156454
 10
154.2496013588
 20
123.5790492999
 10
154.2438738047
 20
123.5919995138
 10
154.2376131524
 20
123.6049260335
 10
154.2308306047
 20
123.617776751
 10
154.2235721866
 20
123.6304460032
 10
154.2158753293
 20
123.6428611275
 10
154.2077465107
 20
123.6550045752
 10
154.1991923142
 20
123.6668541799
 10
154.190284254
 20
123.6783032063
 10
154.1810038264
 20
123.6893683058
 10
154.1712069769
 20
123.7001854731
 10
154.1609201102
 20
123.7106688775
 10
154.1501560233
 20
123.7207498084
 10
154.1387286853
 20
123.7305201458
 10
154.126591449
 20
123.7399004762
 10
154.1138535586
 20
123.7486836659
 10
154.1005679293
 20
123.7567166135
  0
LWPOLYLINE
  5
4E0
100
AcDbEntity
  8
RACCORDO
100
AcDbPolyline
 62
7
  6
CONTINUOUS
 90
14
 70
0
 10
154.3334496961
 20
123.53071736
 10
154.3334359194
 20
123.5334052641
 10
154.3320212115
 20
123.5574906396
 10
154.3282998014
 20
123.5815859518
 10
154.3222854417
 20
123.6055682716
 10
154.3142493336
 20
123.6286272704
 10
154.3041522578
 20
123.6510827037
 10
154.2919264465
 20
123.6729591868
 10
154.2781523184
 20
123.6932523513
 10
154.2628865285
 20
123.7120351479
 10
154.2458853477
 20
123.7295583052
 10
154.2276499221
 20
123.7452408141
 10
154.2082545185
 20
123.7590347953
 10
154.1980075398
 20
123.7652805879
  0
LINE
  5
4E1
100
AcDbEntity
  8
RACCORDO
100
AcDbLine
 62
250
  6
CONTINUOUS
 10
154.9137138037
 20
89.0216351812
 11
154.9137138037
 21
89.1365340771
  0
LINE
  5
4E2
100
AcDbEntity
  8
RACCORDO
100
AcDbLine
 62
250
  6
CONTINUOUS
 10
154.9137138037
 20
121.9275471423
 11
154.9137138037
 21
122.3160494915
  0
LINE
  5
4E3
100
AcDbEntity
  8
RACCORDO
100
AcDbLine
 62
7
  6
CONTINUOUS
 10
154.9698458437
 20
89.1018525886
 11
154.9698458437
 21
89.2167514845
  0
LINE
  5
4E4
100
AcDbEntity
  8
RACCORDO
100
AcDbLine
 62
7
  6
CONTINUOUS
 10
154.9698458437
 20
122.0077645497
 11
154.9698458437
 21
122.3962668989
  0
LWPOLYLINE
  5
4E5
100
AcDbEntity
  8
RACCORDO
100
AcDbPolyline
 62
250
  6
CONTINUOUS
 90
7
 70
0
 10
147.4017834242
 20
85.109022512
 10
147.4018276136
 20
85.1090843667
 10
147.4020717969
 20
85.1113346226
 10
147.4023455001
 20
85.1167974167
 10
147.4026457627
 20
85.1254137791
 10
147.4029693946
 20
85.1370927125
 10
147.4036722704
 20
85.169090076
  0
LINE
  5
4E6
100
AcDbEntity
  8
RACCORDO
100
AcDbLine
 62
250
  6
CONTINUOUS
 10
152.6851595095
 20
90.5887222186
 11
152.6811435162
 21
90.5846996128
  0
LWPOLYLINE
  5
4E7
100
AcDbEntity
  8
RACCORDO
100
AcDbPolyline
 62
250
  6
CONTINUOUS
 90
6
 70
0
 10
150.4184358895
 20
86.829714036
 10
150.428519783
 20
86.8387225792
 10
150.4396405426
 20
86.8522096914
 10
150.4476530059
 20
86.866412813
 10
150.4524231027
 20
86.8810942873
 10
150.4538786263
 20
86.894973211
  0
LWPOLYLINE
  5
4E8
100
AcDbEntity
  8
RACCORDO
100
AcDbPolyline
 62
250
  6
CONTINUOUS
 90
8
 70
0
 10
150.4184358895
 20
87.7388109188
 10
150.4228217866
 20
87.7423906106
 10
150.4328781874
 20
87.7526848005
 10
150.4411018953
 20
87.7635835721
 10
150.4473684083
 20
87.7749724282
 10
150.4515730191
 20
87.7867121374
 10
150.4536511563
 20
87.7986898499
 10
150.453878632
 20
87.8041959151
  0
LWPOLYLINE
  5
4E9
100
AcDbEntity
  8
RACCORDO
100
AcDbPolyline
 62
250
  6
CONTINUOUS
 90
3
 70
0
 10
152.6811435162
 20
90.5846996128
 10
152.6765747835
 20
90.5810432438
 10
152.673933409
 20
90.579291778
  0
LWPOLYLINE
  5
4EA
100
AcDbEntity
  8
RACCORDO
100
AcDbPolyline
 62
250
  6
CONTINUOUS
 90
13
 70
0
 10
154.866028772
 20
88.9097025453
 10
154.8728757782
 20
88.9145972169
 10
154.8793041952
 20
88.920239375
 10
154.8852673896
 20
88.9266105355
 10
154.8907032906
 20
88.9336527477
 10
154.8956241132
 20
88.9413909875
 10
154.9000717269
 20
88.9499540811
 10
154.9039840417
 20
88.9593342597
 10
154.9073147921
 20
88.9695522383
 10
154.9100572683
 20
88.9808429866
 10
154.912119605
 20
88.9933171531
 10
154.9133742556
 20
89.0069146679
 10
154.9137138037
 20
89.0216351812
  0
LWPOLYLINE
  5
4EB
100
AcDbEntity
  8
RACCORDO
100
AcDbPolyline
 62
250
  6
CONTINUOUS
 90
5
 70
0
 10
154.2287232823
 20
88.5094920691
 10
154.2362090885
 20
88.5147074401
 10
154.242625735
 20
88.5202531812
 10
154.2485937727
 20
88.5265337179
 10
154.2536699356
 20
88.5330139135
  0
LWPOLYLINE
  5
4EC
100
AcDbEntity
  8
RACCORDO
100
AcDbPolyline
 62
7
  6
CONTINUOUS
 90
11
 70
0
 10
154.8646347556
 20
88.90882729
 10
154.8844116379
 20
88.9225558349
 10
154.9014938731
 20
88.937369956
 10
154.9169714514
 20
88.9539038376
 10
154.9307430557
 20
88.9720771203
 10
154.9426246392
 20
88.9916866436
 10
154.9524551669
 20
89.0124820992
 10
154.9601748469
 20
89.0343646331
 10
154.9656943287
 20
89.0571793214
 10
154.9689225608
 20
89.0806345107
 10
154.9698458223
 20
89.1017992061
  0
LWPOLYLINE
  5
4ED
100
AcDbEntity
  8
RACCORDO
100
AcDbPolyline
 62
7
  6
CONTINUOUS
 90
10
 70
0
 10
152.6738601418
 20
90.5792465702
 10
152.683130951
 20
90.585607637
 10
152.6935926656
 20
90.5945677752
 10
152.7031122134
 20
90.6049033444
 10
152.7114933582
 20
90.6165190329
 10
152.7185495695
 20
90.6292623232
 10
152.7241366182
 20
90.6429652446
 10
152.7281595903
 20
90.6574828972
 10
152.7305455535
 20
90.6726539395
 10
152.7312566262
 20
90.6869397924
  0
LWPOLYLINE
  5
4EE
100
AcDbEntity
  8
RACCORDO
100
AcDbPolyline
 62
7
  6
CONTINUOUS
 90
4
 70
0
 10
154.2286000001
 20
88.5094160078
 10
154.2451587395
 20
88.5207327617
 10
154.2646145691
 20
88.5372728973
 10
154.2699635152
 20
88.5430363303
  0
LWPOLYLINE
  5
4EF
100
AcDbEntity
  8
RACCORDO
100
AcDbPolyline
 62
250
  6
CONTINUOUS
 90
7
 70
0
 10
154.9137138037
 20
89.0216351812
 10
154.9304440189
 20
89.0330290049
 10
154.9444869946
 20
89.0455744323
 10
154.9556077542
 20
89.0590615446
 10
154.9636202175
 20
89.0732646661
 10
154.9683903144
 20
89.0879461404
 10
154.9698458223
 20
89.1017992061
  0
LINE
  5
4F0
100
AcDbEntity
  8
RACCORDO
100
AcDbLine
 62
7
  6
CONTINUOUS
 10
150.453878632
 20
87.2797626518
 11
151.2548562198
 21
87.8132269369
  0
LINE
  5
4F1
100
AcDbEntity
  8
RACCORDO
100
AcDbLine
 62
250
  6
CONTINUOUS
 10
154.9137138037
 20
89.1365340771
 11
154.9270289818
 21
89.1453478623
  0
LWPOLYLINE
  5
4F2
100
AcDbEntity
  8
RACCORDO
100
AcDbPolyline
 62
250
  6
CONTINUOUS
 90
9
 70
0
 10
147.5509856634
 20
85.1470309651
 10
147.5600117466
 20
85.1527086782
 10
147.5742866266
 20
85.1647475757
 10
147.5867053785
 20
85.179467253
 10
147.5971291483
 20
85.1967044013
 10
147.6054397309
 20
85.2162588617
 10
147.6115486539
 20
85.2379087639
 10
147.6153943633
 20
85.2614173502
 10
147.6169385136
 20
85.2865249022
  0
LINE
  5
4F3
100
AcDbEntity
  8
RACCORDO
100
AcDbLine
 62
250
  6
CONTINUOUS
 10
154.8646783988
 20
88.908854071
 11
154.866028772
 21
88.9097025453
  0
LINE
  5
4F4
100
AcDbEntity
  8
ASSI
100
AcDbLine
 62
7
  6
CONTINUOUS
 10
154.2287232853
 20
88.5094920709
 11
150.8311613679
 21
86.4083888168
  0
LINE
  5
4F5
100
AcDbEntity
  8
RACCORDO
100
AcDbLine
 62
7
  6
CONTINUOUS
 10
154.2285976975
 20
88.5094145593
 11
154.2287232823
 21
88.5094920691
  0
LINE
  5
4F6
100
AcDbEntity
  8
RACCORDO
100
AcDbLine
 62
250
  6
CONTINUOUS
 10
154.9137138037
 20
89.0216351812
 11
150.7853866718
 21
86.4822413545
  0
LINE
  5
4F7
100
AcDbEntity
  8
ASSI
100
AcDbLine
 62
7
  6
CONTINUOUS
 10
154.86467841
 20
88.9088540779
 11
150.8222563996
 21
86.4223017359
  0
LINE
  5
4F8
100
AcDbEntity
  8
RACCORDO
100
AcDbLine
 62
7
  6
CONTINUOUS
 10
154.8646319107
 20
88.9088254964
 11
154.8646783988
 21
88.908854071
  0
LINE
  5
4F9
100
AcDbEntity
  8
RACCORDO
100
AcDbLine
 62
250
  6
CONTINUOUS
 10
147.7619111355
 20
84.688310599
 11
147.3522938526
 21
84.4429591638
  0
LINE
  5
4FA
100
AcDbEntity
  8
RACCORDO
100
AcDbLine
 62
250
  6
CONTINUOUS
 10
147.9666109428
 20
84.3297893205
 11
147.4284154667
 21
84.0074224722
  0
LINE
  5
4FB
100
AcDbEntity
  8
RACCORDO
100
AcDbLine
 62
250
  6
CONTINUOUS
 10
154.7723139867
 20
89.3814457443
 11
150.4568866435
 21
86.8897635259
  0
LINE
  5
4FC
100
AcDbEntity
  8
RACCORDO
100
AcDbLine
 62
250
  6
CONTINUOUS
 10
150.5037964549
 20
86.6310995778
 11
150.4184358895
 21
86.5818132879
  0
LINE
  5
4FD
100
AcDbEntity
  8
RACCORDO
100
AcDbLine
 62
250
  6
CONTINUOUS
 10
154.9137138037
 20
89.1365340771
 11
150.5983004913
 21
86.64485996
  0
LINE
  5
4FE
100
AcDbEntity
  8
RACCORDO
100
AcDbLine
 62
250
  6
CONTINUOUS
 10
150.6954051164
 20
86.4726467009
 11
150.7661572847
 21
86.5135028312
  0
LINE
  5
4FF
100
AcDbEntity
  8
RACCORDO
100
AcDbLine
 62
250
  6
CONTINUOUS
 10
150.4298102449
 20
86.7108417078
 11
150.49956574
 21
86.7510932527
  0
LINE
  5
500
100
AcDbEntity
  8
RACCORDO
100
AcDbLine
 62
250
  6
CONTINUOUS
 10
150.4184358895
 20
86.4781130999
 11
150.5954203469
 21
86.5781970908
  0
LINE
  5
501
100
AcDbEntity
  8
RACCORDO
100
AcDbLine
 62
250
  6
CONTINUOUS
 10
150.4184358895
 20
86.3160217295
 11
150.6954051164
 21
86.4726467009
  0
LINE
  5
502
100
AcDbEntity
  8
RACCORDO
100
AcDbLine
 62
250
  6
CONTINUOUS
 10
147.5508351021
 20
85.146946903
 11
147.5509856634
 21
85.1470309651
  0
LINE
  5
503
100
AcDbEntity
  8
RACCORDO
100
AcDbLine
 62
250
  6
CONTINUOUS
 10
147.8826239385
 20
85.4345735204
 11
147.6169385136
 21
85.2865249022
  0
LINE
  5
504
100
AcDbEntity
  8
RACCORDO
100
AcDbLine
 62
7
  6
CONTINUOUS
 10
147.8191614043
 20
85.2964671045
 11
147.5508351022
 21
85.146946903
  0
LWPOLYLINE
  5
505
100
AcDbEntity
  8
RACCORDO
100
AcDbPolyline
 62
250
  6
CONTINUOUS
 90
3
 70
0
 10
147.4284154667
 20
84.0074224722
 10
147.378982968
 20
83.9805089337
 10
147.3522938526
 20
83.9686695358
  0
LINE
  5
506
100
AcDbEntity
  8
RACCORDO
100
AcDbLine
 62
7
  6
CONTINUOUS
 10
153.4164668635
 20
90.1196276203
 11
151.3016473312
 21
88.9823461141
  0
LINE
  5
507
100
AcDbEntity
  8
RACCORDO
100
AcDbLine
 62
250
  6
CONTINUOUS
 10
153.5136602034
 20
90.1081766641
 11
151.3016473312
 21
88.918627725
  0
LWPOLYLINE
  5
508
100
AcDbEntity
  8
RACCORDO
100
AcDbPolyline
 62
250
  6
CONTINUOUS
 90
10
 70
0
 10
147.6169385136
 20
85.2865249022
 10
147.5976427638
 20
85.2763159428
 10
147.5768794131
 20
85.2671168442
 10
147.5548064832
 20
85.2589976172
 10
147.5315919621
 20
85.2520200541
 10
147.5074125263
 20
85.2462372584
 10
147.4824521963
 20
85.2416932409
 10
147.4569009352
 20
85.2384225842
 10
147.4309532036
 20
85.2364501802
 10
147.4048064792
 20
85.2357910401
  0
LWPOLYLINE
  5
509
100
AcDbEntity
  8
RACCORDO
100
AcDbPolyline
 62
250
  6
CONTINUOUS
 90
13
 70
0
 10
148.5211532869
 20
85.3142286371
 10
148.4927859554
 20
85.2993076437
 10
148.4613523643
 20
85.2865996379
 10
148.4273669097
 20
85.2763124432
 10
148.3913857318
 20
85.2686142688
 10
148.3539975277
 20
85.2636309432
 10
148.3158139089
 20
85.2614438802
 10
148.2774595688
 20
85.2620887653
 10
148.2395619181
 20
85.2655549545
 10
148.2027407407
 20
85.2717856844
 10
148.167598296
 20
85.2806789873
 10
148.1347094573
 20
85.2920893244
 10
148.1046121648
 20
85.3058299957
  0
LWPOLYLINE
  5
50A
100
AcDbEntity
  8
RACCORDO
100
AcDbPolyline
 62
250
  6
CONTINUOUS
 90
8
 70
0
 10
153.5136602034
 20
90.1081766641
 10
153.5279502625
 20
90.1153019057
 10
153.5421421218
 20
90.1206881474
 10
153.5560847777
 20
90.1242511458
 10
153.5696346365
 20
90.1259247532
 10
153.5826302963
 20
90.1256583853
 10
153.5948988331
 20
90.1234309651
 10
153.6060238735
 20
90.1193480812
  0
LWPOLYLINE
  5
50B
100
AcDbEntity
  8
RACCORDO
100
AcDbPolyline
 62
250
  6
CONTINUOUS
 90
9
 70
0
 10
154.7723139867
 20
89.3814457443
 10
154.7867131866
 20
89.3886189135
 10
154.8009939964
 20
89.3940201296
 10
154.8150033988
 20
89.3975704368
 10
154.8286061153
 20
89.399210247
 10
154.8416307132
 20
89.3988925747
 10
154.8538807944
 20
89.3966104188
 10
154.8652083219
 20
89.392396138
 10
154.8698482598
 20
89.3899551703
  0
LWPOLYLINE
  5
50C
100
AcDbEntity
  8
RACCORDO
100
AcDbPolyline
 62
250
  6
CONTINUOUS
 90
4
 70
0
 10
150.5954203469
 20
86.5781970908
 10
150.609999296
 20
86.5854489778
 10
150.6244033947
 20
86.590867035
 10
150.6384782863
 20
86.594390533
  0
LWPOLYLINE
  5
50D
100
AcDbEntity
  8
RACCORDO
100
AcDbPolyline
 62
250
  6
CONTINUOUS
 90
7
 70
0
 10
150.5037964549
 20
86.6310995778
 10
150.522028184
 20
86.6398925246
 10
150.5399135641
 20
86.6457825936
 10
150.5571533261
 20
86.6486712226
 10
150.5734590011
 20
86.6485100713
 10
150.5885577521
 20
86.6453018302
 10
150.6012984707
 20
86.639627615
  0
LWPOLYLINE
  5
50E
100
AcDbEntity
  8
RACCORDO
100
AcDbPolyline
 62
250
  6
CONTINUOUS
 90
4
 70
0
 10
146.7127808704
 20
116.8350753938
 10
146.7008887819
 20
116.8351459474
 10
146.6879778226
 20
116.8341017627
 10
146.6866528391
 20
116.8338804984
  0
LWPOLYLINE
  5
50F
100
AcDbEntity
  8
RACCORDO
100
AcDbPolyline
 62
7
  6
CONTINUOUS
 90
11
 70
0
 10
146.2638593168
 20
116.7342025861
 10
146.2722142858
 20
116.7299264304
 10
146.3000343453
 20
116.7192628139
 10
146.3292710871
 20
116.7116783006
 10
146.3596542345
 20
116.7073524509
 10
146.3907774454
 20
116.706423302
 10
146.4221673258
 20
116.7089256959
 10
146.4535661227
 20
116.7148375415
 10
146.4847177312
 20
116.7241081793
 10
146.51529233
 20
116.7365899791
 10
146.5442167392
 20
116.7516394046
  0
LWPOLYLINE
  5
510
100
AcDbEntity
  8
RACCORDO
100
AcDbPolyline
 62
250
  6
CONTINUOUS
 90
6
 70
0
 10
146.7635129946
 20
116.8206282048
 10
146.7543341692
 20
116.8253354954
 10
146.7446150344
 20
116.8291608857
 10
146.7343813244
 20
116.8320773366
 10
146.7238039236
 20
116.8340409866
 10
146.7127808704
 20
116.8350753938
  0
LWPOLYLINE
  5
511
100
AcDbEntity
  8
RACCORDO
100
AcDbPolyline
 62
250
  6
CONTINUOUS
 90
13
 70
0
 10
146.7823456967
 20
116.6921450481
 10
146.7761430854
 20
116.6953400653
 10
146.7696144664
 20
116.6979160238
 10
146.7627598395
 20
116.6998729238
 10
146.7556657787
 20
116.7012531458
 10
146.7482457102
 20
116.7020143092
 10
146.7402399121
 20
116.702029272
 10
146.7315491533
 20
116.7013463416
 10
146.722272665
 20
116.6999172106
 10
146.7124484188
 20
116.6974698139
 10
146.7020890719
 20
116.6939134633
 10
146.6911819672
 20
116.689338847
 10
146.6797271046
 20
116.6837459652
  0
LINE
  5
512
100
AcDbEntity
  8
RACCORDO
100
AcDbLine
 62
7
  6
CONTINUOUS
 10
147.3522938526
 20
114.4281527851
 11
146.8123928518
 21
114.7398848565
  0
LINE
  5
513
100
AcDbEntity
  8
ASSI
100
AcDbLine
 62
7
  6
CONTINUOUS
 10
146.813535087
 20
114.7418642759
 11
146.722864226
 21
114.7942164947
  0
LINE
  5
514
100
AcDbEntity
  8
0
100
AcDbLine
 62
250
  6
CONTINUOUS
 10
144.2505098971
 20
116.8943145637
 11
129.3822957288
 21
125.4790350821
  0
LINE
  5
515
100
AcDbEntity
  8
0
100
AcDbLine
 62
250
  6
CONTINUOUS
 10
144.5948083389
 20
117.5012034153
 11
129.7265941705
 21
126.0859239337
  0
LINE
  5
516
100
AcDbEntity
  8
RACCORDO
100
AcDbLine
 62
250
  6
CONTINUOUS
 10
147.235326078
 20
116.4306491137
 11
146.7823456967
 21
116.6921450481
  0
LINE
  5
517
100
AcDbEntity
  8
RACCORDO
100
AcDbLine
 62
7
  6
CONTINUOUS
 10
147.2164906204
 20
116.5591338611
 11
146.7136067871
 21
116.8494434235
  0
LINE
  5
518
100
AcDbEntity
  8
RACCORDO
100
AcDbLine
 62
250
  6
CONTINUOUS
 10
147.2427207534
 20
116.4255068186
 11
147.235326078
 21
116.4306491137
  0
LWPOLYLINE
  5
519
100
AcDbEntity
  8
ASSI
100
AcDbPolyline
 62
250
  6
CONTINUOUS
 90
7
 70
0
 10
141.6564983844
 20
124.4214441162
 10
141.6511468688
 20
124.4282707042
 10
141.6357889176
 20
124.4443797353
 10
141.6182660036
 20
124.4582929053
 10
141.5988491449
 20
124.4697950782
 10
141.5778386283
 20
124.4787084231
 10
141.5555593853
 20
124.4848951397
  0
LWPOLYLINE
  5
51A
100
AcDbEntity
  8
RACCORDO
100
AcDbPolyline
 62
250
  6
CONTINUOUS
 90
4
 70
0
 10
147.2602136613
 20
116.4068883556
 10
147.2551895639
 20
116.413653506
 10
147.2493419154
 20
116.419841616
 10
147.2427207534
 20
116.4255068186
  0
LINE
  5
51B
100
AcDbEntity
  8
RACCORDO
100
AcDbLine
 62
250
  6
CONTINUOUS
 10
149.2844854476
 20
117.8838131871
 11
149.0122655335
 21
118.3245147026
  0
LINE
  5
51C
100
AcDbEntity
  8
RACCORDO
100
AcDbLine
 62
7
  6
CONTINUOUS
 10
149.3389082368
 20
117.9121665846
 11
149.1423633226
 21
118.2313899332
  0
LWPOLYLINE
  5
51D
100
AcDbEntity
  8
ASSI
100
AcDbPolyline
 62
250
  6
CONTINUOUS
 90
4
 70
0
 10
144.4942480185
 20
125.8055366226
 10
144.4998644594
 20
125.7963113463
 10
144.5036715412
 20
125.7868096675
 10
144.5037983447
 20
125.7861865944
  0
LWPOLYLINE
  5
51E
100
AcDbEntity
  8
ASSI
100
AcDbPolyline
 62
250
  6
CONTINUOUS
 90
16
 70
0
 10
144.6828723532
 20
126.0074250503
 10
144.6919764877
 20
125.9904454762
 10
144.6987865424
 20
125.9732888867
 10
144.7033025175
 20
125.9559552818
 10
144.7055352424
 20
125.9383392308
 10
144.7054738877
 20
125.9205461645
 10
144.7030859647
 20
125.9028923742
 10
144.6983095853
 20
125.8853641731
 10
144.6912066376
 20
125.8679752482
 10
144.6819302972
 20
125.8510829512
 10
144.6704355277
 20
125.8347161876
 10
144.6567673655
 20
125.8188460519
 10
144.6412140952
 20
125.8037431802
 10
144.6238718117
 20
125.7894977845
 10
144.60464442
 20
125.7760196527
 10
144.5835319203
 20
125.7633087848
  0
LWPOLYLINE
  5
51F
100
AcDbEntity
  8
ASSI
100
AcDbPolyline
 62
250
  6
CONTINUOUS
 90
4
 70
0
 10
146.8839653199
 20
122.3413344522
 10
146.8816992458
 20
122.3457117059
 10
146.8771003479
 20
122.3532461218
 10
146.8721234246
 20
122.3599473695
  0
LWPOLYLINE
  5
520
100
AcDbEntity
  8
RACCORDO
100
AcDbPolyline
 62
250
  6
CONTINUOUS
 90
9
 70
0
 10
151.2920269483
 20
114.2602096954
 10
151.0584137562
 20
114.721293647
 10
150.8196868654
 20
115.1803563865
 10
150.5759256847
 20
115.6372451963
 10
150.3272122283
 20
116.0918064014
 10
150.0736283329
 20
116.5438904795
 10
149.8152554508
 20
116.9933520162
 10
149.5521783865
 20
117.4400430441
 10
149.2844854476
 20
117.8838131871
  0
LWPOLYLINE
  5
521
100
AcDbEntity
  8
RACCORDO
100
AcDbPolyline
 62
7
  6
CONTINUOUS
 90
9
 70
0
 10
151.3419995941
 20
114.2965956347
 10
151.1088960992
 20
114.7566734811
 10
150.8706929356
 20
115.2147287776
 10
150.6274689889
 20
115.6706101175
 10
150.3793049813
 20
116.1241664499
 10
150.126282847
 20
116.5752482252
 10
149.8684856681
 20
117.0237074204
 10
149.6059984713
 20
117.4693961192
 10
149.3389082368
 20
117.9121665846
  0
LINE
  5
522
100
AcDbEntity
  8
ASSI
100
AcDbLine
 62
7
  6
CONTINUOUS
 10
146.8839835243
 20
122.3412970396
 11
146.8839653199
 21
122.3413344522
  0
LINE
  5
523
100
AcDbEntity
  8
RACCORDO
100
AcDbLine
 62
250
  6
CONTINUOUS
 10
151.2920269483
 20
114.2602096954
 11
151.3160101516
 21
114.2097800272
  0
LWPOLYLINE
  5
524
100
AcDbEntity
  8
ASSI
100
AcDbPolyline
 62
7
  6
CONTINUOUS
 90
6
 70
0
 10
146.8840022404
 20
122.3412586586
 10
146.8895346345
 20
122.3292763695
 10
146.8956178012
 20
122.3143269253
 10
146.9008811929
 20
122.2992207105
 10
146.9053180791
 20
122.2840167789
 10
146.9089380865
 20
122.2687318519
  0
LINE
  5
525
100
AcDbEntity
  8
ASSI
100
AcDbLine
 62
7
  6
CONTINUOUS
 10
146.8841706291
 20
122.3408956919
 11
146.8842026972
 21
122.3408219763
  0
LWPOLYLINE
  5
526
100
AcDbEntity
  8
RACCORDO
100
AcDbPolyline
 62
250
  6
CONTINUOUS
 90
7
 70
0
 10
151.3160101516
 20
114.2097800272
 10
151.3380898656
 20
114.157852599
 10
151.3580144726
 20
114.1046683171
 10
151.3755158752
 20
114.0505402174
 10
151.3903626457
 20
113.9957309644
 10
151.4023392575
 20
113.9404557267
 10
151.4111911618
 20
113.885047933
  0
LWPOLYLINE
  5
527
100
AcDbEntity
  8
RACCORDO
100
AcDbPolyline
 62
250
  6
CONTINUOUS
 90
8
 70
0
 10
151.3419995941
 20
114.2965956347
 10
151.3421078376
 20
114.2962360167
 10
151.3412095728
 20
114.2939628579
 10
151.3380795863
 20
114.290611227
 10
151.3327702063
 20
114.2862371857
 10
151.325370254
 20
114.2809139206
 10
151.3160035388
 20
114.2747305022
 10
151.3048267685
 20
114.2677903854
  0
LINE
  5
528
100
AcDbEntity
  8
RACCORDO
100
AcDbLine
 62
250
  6
CONTINUOUS
 10
150.6386548807
 20
84.5040457294
 11
150.6293923179
 21
84.4963383984
  0
LWPOLYLINE
  5
529
100
AcDbEntity
  8
RACCORDO
100
AcDbPolyline
 62
250
  6
CONTINUOUS
 90
8
 70
0
 10
154.9270289818
 20
89.1453478623
 10
154.9387889981
 20
89.1549461797
 10
154.9488453988
 20
89.1652403695
 10
154.9570691066
 20
89.176139141
 10
154.9633356197
 20
89.187527997
 10
154.9675402306
 20
89.1992677062
 10
154.9696183679
 20
89.2112454188
 10
154.9698458437
 20
89.2167514845
  0
LWPOLYLINE
  5
52A
100
AcDbEntity
  8
RACCORDO
100
AcDbPolyline
 62
250
  6
CONTINUOUS
 90
7
 70
0
 10
148.2641844521
 20
83.2307094507
 10
148.2746161676
 20
83.2386703883
 10
148.284803896
 20
83.2504406242
 10
148.2928397701
 20
83.2647827361
 10
148.2985863473
 20
83.2814514215
 10
148.3019453399
 20
83.3001615852
 10
148.3028592971
 20
83.3205932148
  0
LWPOLYLINE
  5
52B
100
AcDbEntity
  8
RACCORDO
100
AcDbPolyline
 62
7
  6
CONTINUOUS
 90
20
 70
0
 10
150.635492759
 20
84.5003487732
 10
150.6440612386
 20
84.5068520457
 10
150.6588867326
 20
84.5204327881
 10
150.6721994177
 20
84.5359619765
 10
150.6836832087
 20
84.5532061116
 10
150.6931034094
 20
84.5719336677
 10
150.7003198898
 20
84.5920037298
 10
150.7051961546
 20
84.6133168868
 10
150.7075522211
 20
84.6354370105
 10
150.7073401447
 20
84.6579125486
 10
150.7044957588
 20
84.681040296
 10
150.6989612791
 20
84.7043479241
 10
150.6910948611
 20
84.7266222196
 10
150.6808753469
 20
84.7482167581
 10
150.6682175103
 20
84.7691188279
 10
150.653997645
 20
84.7879482254
 10
150.6384796007
 20
84.8046681712
 10
150.6213705095
 20
84.8196501329
 10
150.60330166
 20
84.8323458314
 10
150.5974366066
 20
84.8358694524
  0
LINE
  5
52C
100
AcDbEntity
  8
RACCORDO
100
AcDbLine
 62
7
  6
CONTINUOUS
 10
150.6354927589
 20
84.5003487733
 11
150.6352251275
 21
84.5001591167
  0
LWPOLYLINE
  5
52D
100
AcDbEntity
  8
RACCORDO
100
AcDbPolyline
 62
250
  6
CONTINUOUS
 90
3
 70
0
 10
150.2859295873
 20
84.2648102806
 10
150.4588337954
 20
84.378647997
 10
150.6293923179
 20
84.4963383984
  0
LINE
  5
52E
100
AcDbEntity
  8
RACCORDO
100
AcDbLine
 62
250
  6
CONTINUOUS
 10
150.6352251275
 20
84.5001591167
 11
150.6293923178
 21
84.4963383986
  0
LWPOLYLINE
  5
52F
100
AcDbEntity
  8
RACCORDO
100
AcDbPolyline
 62
7
  6
CONTINUOUS
 90
22
 70
0
 10
148.2641342874
 20
83.2306784588
 10
148.3167457002
 20
83.2647818922
 10
148.3949517267
 20
83.3213315761
 10
148.471524054
 20
83.3837000554
 10
148.5460798823
 20
83.4514741139
 10
148.6183455143
 20
83.5242873332
 10
148.6880939761
 20
83.6018047655
 10
148.7550533002
 20
83.683671516
 10
148.8189159525
 20
83.7694511996
 10
148.8793558086
 20
83.8586740912
 10
148.9360755946
 20
83.9508941012
 10
148.9888157827
 20
84.0456499964
 10
149.0372919243
 20
84.1424412879
 10
149.0812524247
 20
84.2408007663
 10
149.1204792986
 20
84.340238496
 10
149.1547395056
 20
84.4402367978
 10
149.1838258975
 20
84.5403071492
 10
149.2075808764
 20
84.6400230544
 10
149.2258377952
 20
84.7390082021
 10
149.2384296259
 20
84.8368367582
 10
149.2452086258
 20
84.9329761577
 10
149.2464218511
 20
84.992719407
  0
LINE
  5
530
100
AcDbEntity
  8
RACCORDO
100
AcDbLine
 62
250
  6
CONTINUOUS
 10
150.1107071356
 20
84.1548433418
 11
150.2859295873
 21
84.2648102806
  0
LINE
  5
531
100
AcDbEntity
  8
RACCORDO
100
AcDbLine
 62
250
  6
CONTINUOUS
 10
148.3028592971
 20
83.3205932148
 11
147.3522938526
 21
82.7327492852
  0
LINE
  5
532
100
AcDbEntity
  8
RACCORDO
100
AcDbLine
 62
7
  6
CONTINUOUS
 10
148.2641844521
 20
83.2307094507
 11
147.3522938526
 21
82.6667826254
  0
LWPOLYLINE
  5
533
100
AcDbEntity
  8
RACCORDO
100
AcDbPolyline
 62
7
  6
CONTINUOUS
 90
10
 70
0
 10
150.073895827
 20
84.1324118472
 10
150.1374534307
 20
84.1712824568
 10
150.2007171136
 20
84.2106524629
 10
150.2636855346
 20
84.2505210578
 10
150.326357214
 20
84.2908873286
 10
150.3887309706
 20
84.3317505381
 10
150.4508059152
 20
84.373110137
 10
150.5125808704
 20
84.414965383
 10
150.574054377
 20
84.45731533
 10
150.6352251275
 20
84.5001591167
  0
LINE
  5
534
100
AcDbEntity
  8
RACCORDO
100
AcDbLine
 62
250
  6
CONTINUOUS
 10
150.6429827832
 20
84.7998162088
 11
151.3964844074
 21
85.25834175
  0
LINE
  5
535
100
AcDbEntity
  8
RACCORDO
100
AcDbLine
 62
7
  6
CONTINUOUS
 10
150.7034520755
 20
84.6056938735
 11
151.3980014023
 21
85.028345852
  0
LINE
  5
536
100
AcDbEntity
  8
RACCORDO
100
AcDbLine
 62
250
  6
CONTINUOUS
 10
147.6746672235
 20
82.7137958576
 11
147.3522938526
 21
82.5181703736
  0
LINE
  5
537
100
AcDbEntity
  8
ASSI
100
AcDbLine
 62
7
  6
CONTINUOUS
 10
150.0738958271
 20
84.1324118471
 11
147.3522938526
 21
82.4824395975
  0
LINE
  5
538
100
AcDbEntity
  8
RACCORDO
100
AcDbLine
 62
250
  6
CONTINUOUS
 10
150.5242683353
 20
84.8294975293
 11
148.8544941148
 21
83.8219726105
  0
LINE
  5
539
100
AcDbEntity
  8
RACCORDO
100
AcDbLine
 62
250
  6
CONTINUOUS
 10
150.6293923179
 20
84.4963383984
 11
147.6746672235
 21
82.7137958576
  0
LWPOLYLINE
  5
53A
100
AcDbEntity
  8
RACCORDO
100
AcDbPolyline
 62
7
  6
CONTINUOUS
 90
4
 70
0
 10
150.4129267169
 20
84.935989052
 10
150.4162808659
 20
84.9379766497
 10
150.4180947102
 20
84.9390340448
 10
150.4184358886
 20
84.9391945523
  0
LINE
  5
53B
100
AcDbEntity
  8
RACCORDO
100
AcDbLine
 62
7
  6
CONTINUOUS
 10
149.0368125319
 20
84.1414840951
 11
150.385898842
 21
84.9204490263
  0
LINE
  5
53C
100
AcDbEntity
  8
RACCORDO
100
AcDbLine
 62
250
  6
CONTINUOUS
 10
151.4672367721
 20
85.29919754
 11
151.3964846039
 21
85.2583414097
  0
LINE
  5
53D
100
AcDbEntity
  8
RACCORDO
100
AcDbLine
 62
7
  6
CONTINUOUS
 10
150.385898842
 20
84.9204490263
 11
150.4129267169
 21
84.935989052
  0
LINE
  5
53E
100
AcDbEntity
  8
RACCORDO
100
AcDbLine
 62
250
  6
CONTINUOUS
 10
149.7004467359
 20
124.8129165709
 11
152.1546715832
 21
125.5001899504
  0
LINE
  5
53F
100
AcDbEntity
  8
ASSI
100
AcDbLine
 62
7
  6
CONTINUOUS
 10
149.6099116305
 20
124.8266437389
 11
152.0641364779
 21
125.5139171185
  0
LWPOLYLINE
  5
540
100
AcDbEntity
  8
ASSI
100
AcDbPolyline
 62
250
  6
CONTINUOUS
 90
13
 70
0
 10
151.616400759
 20
124.9929407991
 10
151.6206416602
 20
124.9940897452
 10
151.6248157544
 20
124.9952971091
 10
151.6289230415
 20
124.9965628909
 10
151.6329521176
 20
124.9978796687
 10
151.6369143867
 20
124.9992548643
 10
151.6408440605
 20
125.0007107434
 10
151.6447498633
 20
125.0022461304
 10
151.6486230709
 20
125.0038622009
 10
151.6524717223
 20
125.0055847465
 10
151.6562984973
 20
125.0074223645
 10
151.6601007161
 20
125.0093664576
 10
151.6638783787
 20
125.0114170259
  0
LINE
  5
541
100
AcDbEntity
  8
ASSI
100
AcDbLine
 62
250
  6
CONTINUOUS
 10
150.1925951617
 20
124.3458385931
 11
151.7231281097
 21
124.7484001196
  0
LINE
  5
542
100
AcDbEntity
  8
ASSI
100
AcDbLine
 62
250
  6
CONTINUOUS
 10
150.085867811
 20
124.5903792725
 11
151.616400759
 21
124.9929407991
  0
LWPOLYLINE
  5
543
100
AcDbEntity
  8
ASSI
100
AcDbPolyline
 62
7
  6
CONTINUOUS
 90
10
 70
0
 10
146.3945017414
 20
120.8701924463
 10
146.3749780073
 20
120.8704796209
 10
146.3559460121
 20
120.8698061036
 10
146.3374057558
 20
120.8681718943
 10
146.319221097
 20
120.8655419952
 10
146.3015281771
 20
120.8619514041
 10
146.2847354202
 20
120.8575051149
 10
146.2689789675
 20
120.8522381256
 10
146.2541226778
 20
120.8461154382
 10
146.2401665511
 20
120.8391370527
  0
LINE
  5
544
100
AcDbEntity
  8
ASSI
100
AcDbLine
 62
7
  6
CONTINUOUS
 10
146.435158446
 20
120.8693851064
 11
146.3945017414
 21
120.8701924463
  0
LWPOLYLINE
  5
545
100
AcDbEntity
  8
ASSI
100
AcDbPolyline
 62
250
  6
CONTINUOUS
 90
8
 70
0
 10
145.7570343024
 20
120.3617463586
 10
145.7457497206
 20
120.3659973587
 10
145.7335616841
 20
120.3683221392
 10
145.7206007817
 20
120.3686957783
 10
145.7070059003
 20
120.3671142666
 10
145.6929227086
 20
120.3635945501
 10
145.6785020925
 20
120.3581743394
 10
145.6638985606
 20
120.3509117079
  0
LWPOLYLINE
  5
546
100
AcDbEntity
  8
ASSI
100
AcDbPolyline
 62
250
  6
CONTINUOUS
 90
9
 70
0
 10
147.2886391154
 20
119.4776313673
 10
147.2842380217
 20
119.4799580575
 10
147.2729534162
 20
119.4842090346
 10
147.2607653844
 20
119.4865337852
 10
147.2478045085
 20
119.4869074003
 10
147.2342096599
 20
119.4853258753
 10
147.2201265001
 20
119.4818061551
 10
147.2057059198
 20
119.4763859509
 10
147.1911024263
 20
119.4691233361
  0
LINE
  5
547
100
AcDbEntity
  8
ASSI
100
AcDbLine
 62
250
  6
CONTINUOUS
 10
145.7614352496
 20
120.3594197391
 11
145.7570343024
 21
120.3617463586
  0
LINE
  5
548
100
AcDbEntity
  8
ASSI
100
AcDbLine
 62
250
  6
CONTINUOUS
 10
136.5850924674
 20
125.6577250549
 11
136.5806915202
 21
125.6600516745
  0
LWPOLYLINE
  5
549
100
AcDbEntity
  8
ASSI
100
AcDbPolyline
 62
250
  6
CONTINUOUS
 90
7
 70
0
 10
145.6638985606
 20
120.3509117079
 10
145.649566769
 20
120.3585906363
 10
145.6353046559
 20
120.3644534716
 10
145.6212677875
 20
120.3684146935
 10
145.6075945341
 20
120.3704094493
 10
145.5944595495
 20
120.3703855101
 10
145.58206313
 20
120.3683312968
  0
LWPOLYLINE
  5
54A
100
AcDbEntity
  8
ASSI
100
AcDbPolyline
 62
250
  6
CONTINUOUS
 90
7
 70
0
 10
136.4875557784
 20
125.6492170237
 10
136.4732239868
 20
125.6568959522
 10
136.4589618737
 20
125.6627587874
 10
136.4449250053
 20
125.6667200094
 10
136.4312517519
 20
125.6687147651
 10
136.4181167673
 20
125.668690826
 10
136.4057203477
 20
125.6666366126
  0
LWPOLYLINE
  5
54B
100
AcDbEntity
  8
ASSI
100
AcDbPolyline
 62
250
  6
CONTINUOUS
 90
9
 70
0
 10
141.9864088149
 20
120.8685012921
 10
141.9841989061
 20
120.869722074
 10
141.9724960926
 20
120.8745571755
 10
141.9597698396
 20
120.8772613863
 10
141.9461714342
 20
120.8778025429
 10
141.9318625459
 20
120.8761742049
 10
141.9170132781
 20
120.8723957304
 10
141.9018001422
 20
120.866512034
 10
141.8864039829
 20
120.8585930566
  0
LWPOLYLINE
  5
54C
100
AcDbEntity
  8
RACCORDO
100
AcDbPolyline
 62
250
  6
CONTINUOUS
 90
31
 70
0
 10
146.1662361554
 20
118.0419544816
 10
146.1720471666
 20
118.0387100263
 10
146.1779281648
 20
118.0356243338
 10
146.1838546434
 20
118.032692023
 10
146.1897213437
 20
118.0299444221
 10
146.195584601
 20
118.0273342214
 10
146.2016834394
 20
118.0247529028
 10
146.2080690019
 20
118.022194443
 10
146.2146882255
 20
118.0196848346
 10
146.2216482444
 20
118.0171864948
 10
146.2289502996
 20
118.014720129
 10
146.2365943135
 20
118.0122996156
 10
146.2446951138
 20
118.0098934081
 10
146.2532764332
 20
118.0075254301
 10
146.2623121557
 20
118.0052302197
 10
146.2718444629
 20
118.0030063028
 10
146.2818852253
 20
118.000885008
 10
146.2923958156
 20
117.9989098533
 10
146.3033355895
 20
117.9971018845
 10
146.3146640726
 20
117.9954956744
 10
146.3263550999
 20
117.9941312496
 10
146.3383782923
 20
117.9930380054
 10
146.350664133
 20
117.9922538732
 10
146.3631673465
 20
117.9918156846
 10
146.3758773466
 20
117.9917579223
 10
146.3886997522
 20
117.9921155071
 10
146.4015463478
 20
117.9929306514
 10
146.4143864819
 20
117.9942613129
 10
146.4271118104
 20
117.9961550993
 10
146.4395460417
 20
117.9986362509
 10
146.4515254717
 20
118.0017275801
  0
LINE
  5
54D
100
AcDbEntity
  8
RACCORDO
100
AcDbLine
 62
250
  6
CONTINUOUS
 10
130.719260664
 20
126.9608309642
 11
130.7763391092
 21
126.9278745852
  0
LINE
  5
54E
100
AcDbEntity
  8
RACCORDO
100
AcDbLine
 62
250
  6
CONTINUOUS
 10
146.1091577101
 20
118.0748972904
 11
146.1662361554
 21
118.0419409115
  0
LINE
  5
54F
100
AcDbEntity
  8
0
100
AcDbLine
 62
7
  6
CONTINUOUS
 10
145.9104270801
 20
118.2608214415
 11
130.9750697393
 21
126.8843095861
  0
LINE
  5
550
100
AcDbEntity
  8
RACCORDO
100
AcDbLine
 62
250
  6
CONTINUOUS
 10
137.7259565707
 20
123.0076544966
 11
137.7538288952
 21
122.9915613657
  0
LINE
  5
551
100
AcDbEntity
  8
ASSI
100
AcDbLine
 62
250
  6
CONTINUOUS
 10
142.1962749401
 20
120.4521602753
 11
142.1744951022
 21
120.4647356808
  0
LINE
  5
552
100
AcDbEntity
  8
RACCORDO
100
AcDbLine
 62
250
  6
CONTINUOUS
 10
142.3511777029
 20
120.4917797269
 11
146.2794680713
 21
118.2236700926
  0
LINE
  5
553
100
AcDbEntity
  8
ASSI
100
AcDbLine
 62
250
  6
CONTINUOUS
 10
141.8864039829
 20
120.8585930566
 11
138.0347511833
 21
123.0824891105
  0
LINE
  5
554
100
AcDbEntity
  8
ASSI
100
AcDbLine
 62
7
  6
CONTINUOUS
 10
141.9864088149
 20
120.8685012921
 11
138.1347560153
 21
123.0923973461
  0
LINE
  5
555
100
AcDbEntity
  8
RACCORDO
100
AcDbLine
 62
7
  6
CONTINUOUS
 10
147.2108940355
 20
118.76684194
 11
143.2872905585
 21
121.0322814134
  0
LINE
  5
556
100
AcDbEntity
  8
RACCORDO
100
AcDbLine
 62
7
  6
CONTINUOUS
 10
135.7195266044
 20
125.4018134741
 11
131.7959231274
 21
127.6672529475
  0
LINE
  5
557
100
AcDbEntity
  8
ASSI
100
AcDbLine
 62
250
  6
CONTINUOUS
 10
140.0271879027
 20
123.5962676881
 11
143.9074987686
 21
121.3558248258
  0
LINE
  5
558
100
AcDbEntity
  8
ASSI
100
AcDbLine
 62
250
  6
CONTINUOUS
 10
147.1911024263
 20
119.4691233361
 11
145.6638985606
 21
120.3509117079
  0
LINE
  5
559
100
AcDbEntity
  8
ASSI
100
AcDbLine
 62
250
  6
CONTINUOUS
 10
138.0147596441
 20
124.767428652
 11
136.4875557784
 21
125.6492170237
  0
LINE
  5
55A
100
AcDbEntity
  8
ASSI
100
AcDbLine
 62
7
  6
CONTINUOUS
 10
147.2886391154
 20
119.4776313673
 11
145.7614352496
 21
120.3594197391
  0
LINE
  5
55B
100
AcDbEntity
  8
ASSI
100
AcDbLine
 62
7
  6
CONTINUOUS
 10
138.1122963332
 20
124.7759366832
 11
136.5850924674
 21
125.6577250549
  0
LINE
  5
55C
100
AcDbEntity
  8
ASSI
100
AcDbLine
 62
250
  6
CONTINUOUS
 10
140.1663270876
 20
123.739007962
 11
144.0133085579
 21
121.5178090751
  0
LINE
  5
55D
100
AcDbEntity
  8
DRAFT
100
AcDbLine
 62
7
  6
CONTINUOUS
 10
146.2656918964
 20
120.714155445
 11
146.1426759189
 21
120.7851833287
  0
LWPOLYLINE
  5
55E
100
AcDbEntity
  8
RACCORDO
100
AcDbPolyline
 62
250
  6
CONTINUOUS
 90
30
 70
0
 10
146.2794680713
 20
118.2236700926
 10
146.2843147095
 20
118.2207550183
 10
146.2893372714
 20
118.2175954201
 10
146.2945484598
 20
118.2141632266
 10
146.2999196859
 20
118.2104609078
 10
146.3053823406
 20
118.2065297496
 10
146.3108749509
 20
118.2024062546
 10
146.3164415965
 20
118.198051871
 10
146.3221695105
 20
118.1933940268
 10
146.3280412358
 20
118.1884206135
 10
146.3340443682
 20
118.1831239403
 10
146.340264312
 20
118.1774208914
 10
146.3466920098
 20
118.1712779691
 10
146.3532838257
 20
118.1646989453
 10
146.3600619212
 20
118.1576470906
 10
146.3670048352
 20
118.1500951537
 10
146.3740545116
 20
118.1420527424
 10
146.3811708846
 20
118.1335422057
 10
146.3883026482
 20
118.1245792843
 10
146.3954014941
 20
118.1151650386
 10
146.402426007
 20
118.1053093432
 10
146.4093076395
 20
118.0950516764
 10
146.4159906918
 20
118.0844107209
 10
146.422438643
 20
118.0733757547
 10
146.428572362
 20
118.0620086247
 10
146.4343100836
 20
118.0503627075
 10
146.4395853727
 20
118.0384329863
 10
146.4443012359
 20
118.0262868635
 10
146.4483465249
 20
118.0140628512
 10
146.4516178266
 20
118.001889438
  0
LWPOLYLINE
  5
55F
100
AcDbEntity
  8
ASSI
100
AcDbPolyline
 62
250
  6
CONTINUOUS
 90
16
 70
0
 10
138.0147596441
 20
124.767428652
 10
138.0294615844
 20
124.7583550716
 10
138.0440584988
 20
124.7475892175
 10
138.0583916407
 20
124.7352204329
 10
138.0723099243
 20
124.7213487404
 10
138.0856442025
 20
124.7061111091
 10
138.098213888
 20
124.6896885239
 10
138.1098824305
 20
124.6722356165
 10
138.1204987195
 20
124.6539526037
 10
138.1298924968
 20
124.6351263005
 10
138.1379489179
 20
124.6160101238
 10
138.1446066196
 20
124.596776629
 10
138.1498067611
 20
124.5776036461
 10
138.1534925205
 20
124.5586915719
 10
138.1556183471
 20
124.5402612695
 10
138.1561594612
 20
124.5225169849
  0
LWPOLYLINE
  5
560
100
AcDbEntity
  8
RACCORDO
100
AcDbPolyline
 62
250
  6
CONTINUOUS
 90
25
 70
0
 10
134.7501533653
 20
124.8805159163
 10
134.7573233487
 20
124.8760496554
 10
134.7645829013
 20
124.8710795978
 10
134.7719106159
 20
124.8655991427
 10
134.7792507256
 20
124.8596315382
 10
134.786611772
 20
124.8531509145
 10
134.7940620383
 20
124.8460641125
 10
134.8016086907
 20
124.8383149452
 10
134.8091702788
 20
124.8299350707
 10
134.8166749029
 20
124.8209582161
 10
134.824079284
 20
124.8113926451
 10
134.8313383737
 20
124.801250298
 10
134.8383791954
 20
124.7905874035
 10
134.8451525423
 20
124.7794360738
 10
134.8516128177
 20
124.7678255873
 10
134.85769658
 20
124.7558218826
 10
134.8633289405
 20
124.7435355779
 10
134.8684962988
 20
124.7309546823
 10
134.873207846
 20
124.7179668895
 10
134.8773858087
 20
124.7046594312
 10
134.8809679607
 20
124.6910789117
 10
134.8839241509
 20
124.6770691881
 10
134.8861485721
 20
124.6626601658
 10
134.8875042616
 20
124.6480628419
 10
134.8878725087
 20
124.6334293272
  0
LWPOLYLINE
  5
561
100
AcDbEntity
  8
ASSI
100
AcDbPolyline
 62
250
  6
CONTINUOUS
 90
3
 70
0
 10
141.616427578
 20
124.381256649
 10
141.6373869169
 20
124.3628034462
 10
141.66158664
 20
124.3448038242
  0
LWPOLYLINE
  5
562
100
AcDbEntity
  8
ASSI
100
AcDbPolyline
 62
250
  6
CONTINUOUS
 90
7
 70
0
 10
146.8721234246
 20
122.3599473695
 10
146.8668522713
 20
122.3658848951
 10
146.8613987222
 20
122.3710547853
 10
146.855894506
 20
122.3753819581
 10
146.8504248307
 20
122.3788744732
 10
146.8450365885
 20
122.3816185446
 10
146.8397853977
 20
122.3836620226
  0
LWPOLYLINE
  5
563
100
AcDbEntity
  8
RACCORDO
100
AcDbPolyline
 62
7
  6
CONTINUOUS
 90
10
 70
0
 10
149.1423661218
 20
118.2313854255
 10
149.1358105617
 20
118.2407840996
 10
149.1267041592
 20
118.2514167318
 10
149.1157673929
 20
118.2620680456
 10
149.1030126269
 20
118.2727295319
 10
149.0884477007
 20
118.2834021535
 10
149.0720760924
 20
118.2939368144
 10
149.0538928351
 20
118.3042695551
 10
149.0339361101
 20
118.3144552878
 10
149.0122655335
 20
118.3245147026
  0
LINE
  5
564
100
AcDbEntity
  8
RACCORDO
100
AcDbLine
 62
250
  6
CONTINUOUS
 10
151.4634909684
 20
119.8037896515
 11
151.4634655107
 21
119.8038266493
  0
LWPOLYLINE
  5
565
100
AcDbEntity
  8
RACCORDO
100
AcDbPolyline
 62
7
  6
CONTINUOUS
 90
12
 70
0
 10
151.4014026468
 20
119.9025181195
 10
151.3509613974
 20
119.9782472801
 10
151.2976736437
 20
120.0516106308
 10
151.2417433247
 20
120.1222625604
 10
151.1833879806
 20
120.1898730183
 10
151.1228313056
 20
120.2541334372
 10
151.0602698213
 20
120.3147648433
 10
150.9959030377
 20
120.3715022822
 10
150.9299268588
 20
120.4240735837
 10
150.8625498398
 20
120.4722153325
 10
150.7940236668
 20
120.5156481166
 10
150.7798914022
 20
120.5239233556
  0
LWPOLYLINE
  5
566
100
AcDbEntity
  8
RACCORDO
100
AcDbPolyline
 62
250
  6
CONTINUOUS
 90
11
 70
0
 10
151.3342224713
 20
119.8562546478
 10
151.2896095883
 20
119.9245947916
 10
151.2428819811
 20
119.9910853893
 10
151.1941947292
 20
120.055494288
 10
151.1438243679
 20
120.1174588035
 10
151.0918332581
 20
120.1769096898
 10
151.0380341226
 20
120.2340114753
 10
150.9825887441
 20
120.2884945292
 10
150.9256605211
 20
120.3401051847
 10
150.8670307115
 20
120.3889090659
 10
150.8067448571
 20
120.4346714353
  0
LWPOLYLINE
  5
567
100
AcDbEntity
  8
ASSI
100
AcDbPolyline
 62
7
  6
CONTINUOUS
 90
10
 70
0
 10
149.3349345418
 20
123.8114852661
 10
149.346637578
 20
123.7930106902
 10
149.356944236
 20
123.7741203687
 10
149.3658463605
 20
123.7548942494
 10
149.3733271752
 20
123.7354608055
 10
149.3794167647
 20
123.7158557324
 10
149.3841582033
 20
123.6960186149
 10
149.3875496867
 20
123.6759832488
 10
149.389578036
 20
123.6558801945
 10
149.3902510975
 20
123.63579325
  0
LWPOLYLINE
  5
568
100
AcDbEntity
  8
ASSI
100
AcDbPolyline
 62
250
  6
CONTINUOUS
 90
13
 70
0
 10
150.5502700878
 20
119.4139745342
 10
150.5056391887
 20
119.4845226173
 10
150.4587770789
 20
119.5530493038
 10
150.4098489443
 20
119.6193075762
 10
150.359024691
 20
119.6830571058
 10
150.3064864468
 20
119.744069521
 10
150.2524279069
 20
119.8021292129
 10
150.1970413512
 20
119.857025899
 10
150.1405215008
 20
119.9085625574
 10
150.0830727301
 20
119.9565598799
 10
150.0248997646
 20
120.0008461618
 10
149.9662071526
 20
120.0412585859
 10
149.9072029194
 20
120.0776505084
  0
LINE
  5
569
100
AcDbEntity
  8
RACCORDO
100
AcDbLine
 62
250
  6
CONTINUOUS
 10
151.3900063751
 20
119.7674740599
 11
151.3342224713
 21
119.8562546478
  0
LINE
  5
56A
100
AcDbEntity
  8
RACCORDO
100
AcDbLine
 62
7
  6
CONTINUOUS
 10
151.4634909927
 20
119.8037896127
 11
151.4014026468
 21
119.9025181195
  0
LWPOLYLINE
  5
56B
100
AcDbEntity
  8
ASSI
100
AcDbPolyline
 62
250
  6
CONTINUOUS
 90
16
 70
0
 10
149.1695195189
 20
123.8623612828
 10
149.159390745
 20
123.8791462807
 10
149.1515439021
 20
123.8961545887
 10
149.1459789904
 20
123.913386207
 10
149.1426787899
 20
123.9309462822
 10
149.1416605206
 20
123.9487296676
 10
149.142975842
 20
123.9664209231
 10
149.1466857738
 20
123.9840349787
 10
149.1527292962
 20
124.0015569043
 10
149.1609750099
 20
124.0186264689
 10
149.1714696773
 20
124.0352156959
 10
149.1841665359
 20
124.0513525619
 10
149.198793899
 20
124.066760766
 10
149.2152612044
 20
124.0813482078
 10
149.2336590142
 20
124.0952069877
 10
149.2539873285
 20
124.1083371057
  0
LWPOLYLINE
  5
56C
100
AcDbEntity
  8
RACCORDO
100
AcDbPolyline
 62
250
  6
CONTINUOUS
 90
13
 70
0
 10
151.3900061524
 20
119.7674744151
 10
151.4032902647
 20
119.7439651223
 10
151.4152394638
 20
119.7197251241
 10
151.4252635461
 20
119.6951315056
 10
151.4324910975
 20
119.6704701386
 10
151.4368528765
 20
119.6462688089
 10
151.4389422142
 20
119.6231888361
 10
151.4383475041
 20
119.6013063839
 10
151.4347071823
 20
119.5811057093
 10
151.428792945
 20
119.5634760886
 10
151.4208052845
 20
119.5485387177
 10
151.4101777002
 20
119.5359796734
 10
151.3977430759
 20
119.5265569613
  0
LWPOLYLINE
  5
56D
100
AcDbEntity
  8
RACCORDO
100
AcDbPolyline
 62
250
  6
CONTINUOUS
 90
9
 70
0
 10
149.3520010957
 20
127.0691430934
 10
149.359692706
 20
127.0506273858
 10
149.3660874183
 20
127.0314580941
 10
149.3711196023
 20
127.011831954
 10
149.3747376152
 20
126.9919503754
 10
149.3769043243
 20
126.9720174027
 10
149.377597493
 20
126.9522376045
 10
149.3768100074
 20
126.9328139731
 10
149.3745499487
 20
126.9139458481
  0
LWPOLYLINE
  5
56E
100
AcDbEntity
  8
ASSI
100
AcDbPolyline
 62
250
  6
CONTINUOUS
 90
12
 70
0
 10
146.3603698104
 20
126.7414351266
 10
146.3533349769
 20
126.7394422449
 10
146.3462344018
 20
126.7372581343
 10
146.3390708081
 20
126.7348819904
 10
146.331883106
 20
126.7323261136
 10
146.3246382922
 20
126.7295787487
 10
146.3172301783
 20
126.7265947354
 10
146.3096515801
 20
126.7233606712
 10
146.3019141269
 20
126.7198717371
 10
146.2939386776
 20
126.7160809645
 10
146.2857007237
 20
126.7119597193
 10
146.2772310429
 20
126.7075048191
  0
LWPOLYLINE
  5
56F
100
AcDbEntity
  8
ASSI
100
AcDbPolyline
 62
250
  6
CONTINUOUS
 90
13
 70
0
 10
146.7457908856
 20
126.5188978283
 10
146.7386503434
 20
126.5169422061
 10
146.7314665705
 20
126.5147896998
 10
146.7242424571
 20
126.5124403078
 10
146.717020397
 20
126.5099086132
 10
146.7097641878
 20
126.5071823549
 10
146.7023576356
 20
126.5042121575
 10
146.6947907142
 20
126.5009840857
 10
146.6870778367
 20
126.4974936553
 10
146.6791381525
 20
126.4936897877
 10
146.670946548
 20
126.4895420216
 10
146.6625343383
 20
126.4850480364
 10
146.6539057195
 20
126.4801922062
  0
LINE
  5
570
100
AcDbEntity
  8
ASSI
100
AcDbLine
 62
250
  6
CONTINUOUS
 10
147.8728855479
 20
127.1543995647
 11
146.3603698104
 21
126.7414351266
  0
LINE
  5
571
100
AcDbEntity
  8
ASSI
100
AcDbLine
 62
7
  6
CONTINUOUS
 10
147.7836048954
 20
127.1684736279
 11
146.2710891579
 21
126.7555091898
  0
LWPOLYLINE
  5
572
100
AcDbEntity
  8
ASSI
100
AcDbPolyline
 62
250
  6
CONTINUOUS
 90
13
 70
0
 10
146.8504158884
 20
126.267037172
 10
146.8461057128
 20
126.2658769413
 10
146.8417749607
 20
126.2645976007
 10
146.8374236321
 20
126.2631991501
 10
146.8330739314
 20
126.2616932129
 10
146.8287036541
 20
126.2600681658
 10
146.8242461872
 20
126.2582891384
 10
146.8196942862
 20
126.2563597059
 10
146.8150551957
 20
126.2542762932
 10
146.8102840361
 20
126.2519933046
 10
146.8053658474
 20
126.2494955416
 10
146.8003155896
 20
126.2467982027
 10
146.7951332627
 20
126.243901288
  0
LINE
  5
573
100
AcDbEntity
  8
ASSI
100
AcDbLine
 62
250
  6
CONTINUOUS
 10
147.8780457956
 20
127.1557434555
 11
147.8728855479
 21
127.1543995647
  0
LINE
  5
574
100
AcDbEntity
  8
RACCORDO
100
AcDbLine
 62
250
  6
CONTINUOUS
 10
140.926572171
 20
125.9517958262
 11
140.8771965662
 21
125.9390671214
  0
LINE
  5
575
100
AcDbEntity
  8
RACCORDO
100
AcDbLine
 62
250
  6
CONTINUOUS
 10
149.3745499487
 20
126.9139458481
 11
146.8504158884
 21
126.267037172
  0
LINE
  5
576
100
AcDbEntity
  8
RACCORDO
100
AcDbLine
 62
250
  6
CONTINUOUS
 10
149.2699249459
 20
127.1658065044
 11
146.7457908856
 21
126.5188978283
  0
LWPOLYLINE
  5
577
100
AcDbEntity
  8
RACCORDO
100
AcDbPolyline
 62
250
  6
CONTINUOUS
 90
6
 70
0
 10
152.1546715832
 20
125.5001899504
 10
152.1690290603
 20
125.5030738525
 10
152.1828615228
 20
125.5038843391
 10
152.1960016347
 20
125.5025860183
 10
152.2082758691
 20
125.4991719374
 10
152.2180738749
 20
125.4945284479
  0
LWPOLYLINE
  5
578
100
AcDbEntity
  8
RACCORDO
100
AcDbPolyline
 62
250
  6
CONTINUOUS
 90
6
 70
0
 10
152.338125504
 20
125.3942659558
 10
152.3526745174
 20
125.3971748314
 10
152.3666550159
 20
125.3979536423
 10
152.3798978646
 20
125.3965787583
 10
152.3922496724
 20
125.3930485182
 10
152.4014985257
 20
125.3886213435
  0
LWPOLYLINE
  5
579
100
AcDbEntity
  8
ASSI
100
AcDbPolyline
 62
250
  6
CONTINUOUS
 90
6
 70
0
 10
149.6099116305
 20
124.8266437389
 10
149.6263180158
 20
124.8298239029
 10
149.6446890744
 20
124.8302582817
 10
149.6633671451
 20
124.8275479412
 10
149.6820528618
 20
124.821736322
 10
149.7004467359
 20
124.8129165709
  0
LWPOLYLINE
  5
57A
100
AcDbEntity
  8
ASSI
100
AcDbPolyline
 62
250
  6
CONTINUOUS
 90
3
 70
0
 10
140.9383748955
 20
124.8259352198
 10
140.9463390284
 20
124.8269402927
 10
140.9539206677
 20
124.8276571009
  0
LWPOLYLINE
  5
57B
100
AcDbEntity
  8
ASSI
100
AcDbPolyline
 62
250
  6
CONTINUOUS
 90
7
 70
0
 10
142.9052040682
 20
124.9324306819
 10
142.948269964
 20
124.9361474678
 10
142.9930758862
 20
124.9426618967
 10
143.0395607893
 20
124.9520896327
 10
143.0875265552
 20
124.9645170749
 10
143.1370164305
 20
124.980056541
 10
143.1883272857
 20
124.998915431
  0
LWPOLYLINE
  5
57C
100
AcDbEntity
  8
ASSI
100
AcDbPolyline
 62
250
  6
CONTINUOUS
 90
9
 70
0
 10
146.3011903965
 20
122.9716307377
 10
146.3357896539
 20
122.9744610877
 10
146.3703885791
 20
122.9789889469
 10
146.4049136035
 20
122.9851137785
 10
146.4389013162
 20
122.9926400737
 10
146.4726744412
 20
123.001527139
 10
146.5073805414
 20
123.0120694307
 10
146.5431183392
 20
123.0243829358
 10
146.5797324393
 20
123.0384854146
  0
LWPOLYLINE
  5
57D
100
AcDbEntity
  8
ASSI
100
AcDbPolyline
 62
7
  6
CONTINUOUS
 90
7
 70
0
 10
140.8904232477
 20
124.8453117393
 10
140.8739325097
 20
124.8440145861
 10
140.8371057662
 20
124.8382659742
 10
140.7988864332
 20
124.8282173348
 10
140.7610511921
 20
124.8142125548
 10
140.7241698145
 20
124.7966482597
 10
140.7143979691
 20
124.791337451
  0
LINE
  5
57E
100
AcDbEntity
  8
ASSI
100
AcDbLine
 62
250
  6
CONTINUOUS
 10
140.9539206677
 20
124.8276571009
 11
140.9611243964
 21
124.8281144508
  0
LWPOLYLINE
  5
57F
100
AcDbEntity
  8
ASSI
100
AcDbPolyline
 62
250
  6
CONTINUOUS
 90
16
 70
0
 10
144.7767122362
 20
122.4251094558
 10
144.769561593
 20
122.4246981255
 10
144.7625585549
 20
122.4240047834
 10
144.7557031221
 20
122.4230294296
 10
144.7489870427
 20
122.4217444259
 10
144.7424185685
 20
122.4201774104
 10
144.7360224549
 20
122.4184112974
 10
144.7298009136
 20
122.4164491224
 10
144.7237517329
 20
122.4142878499
 10
144.7178930336
 20
122.4120012875
 10
144.7122265535
 20
122.4095920449
 10
144.7067505547
 20
122.4070575123
 10
144.7014779449
 20
122.4044636681
 10
144.6964130265
 20
122.4018325051
 10
144.6915514969
 20
122.3991420304
 10
144.6868933562
 20
122.3963922442
  0
LWPOLYLINE
  5
580
100
AcDbEntity
  8
ASSI
100
AcDbPolyline
 62
250
  6
CONTINUOUS
 90
16
 70
0
 10
144.6931495929
 20
122.6732898756
 10
144.6813718159
 20
122.672629157
 10
144.6697724333
 20
122.6714098214
 10
144.6583795081
 20
122.6696816444
 10
144.647224222
 20
122.6674932008
 10
144.6363239459
 20
122.6648924534
 10
144.6256819882
 20
122.6619249446
 10
144.6153138681
 20
122.658633199
 10
144.6052383
 20
122.6550595923
 10
144.5954599256
 20
122.6512452672
 10
144.5859890724
 20
122.6472277483
 10
144.5768384739
 20
122.6430443579
 10
144.5680138334
 20
122.6387331538
 10
144.5595217609
 20
122.6343286943
 10
144.5513698808
 20
122.6298619377
 10
144.5435634652
 20
122.6253631856
  0
LINE
  5
581
100
AcDbEntity
  8
ASSI
100
AcDbLine
 62
250
  6
CONTINUOUS
 10
144.7950876643
 20
122.8897005619
 11
146.3011903965
 21
122.9716307377
  0
LINE
  5
582
100
AcDbEntity
  8
ASSI
100
AcDbLine
 62
7
  6
CONTINUOUS
 10
144.7240237733
 20
122.9068774346
 11
146.2305594514
 21
122.9888319362
  0
LINE
  5
583
100
AcDbEntity
  8
ASSI
100
AcDbLine
 62
7
  6
CONTINUOUS
 10
146.2305594514
 20
122.9888319362
 11
146.230699712
 21
122.988839485
  0
LINE
  5
584
100
AcDbEntity
  8
ASSI
100
AcDbLine
 62
250
  6
CONTINUOUS
 10
140.9611243964
 20
124.8281144508
 11
142.9052412197
 21
124.9324092311
  0
LINE
  5
585
100
AcDbEntity
  8
ASSI
100
AcDbLine
 62
7
  6
CONTINUOUS
 10
140.8904232476
 20
124.8453117393
 11
142.8347551242
 21
124.9496182567
  0
LINE
  5
586
100
AcDbEntity
  8
ASSI
100
AcDbLine
 62
7
  6
CONTINUOUS
 10
142.8347551242
 20
124.9496182567
 11
142.8348955316
 21
124.9496257075
  0
LWPOLYLINE
  5
587
100
AcDbEntity
  8
ASSI
100
AcDbPolyline
 62
250
  6
CONTINUOUS
 90
16
 70
0
 10
141.7524125116
 20
124.6465030614
 10
141.715230152
 20
124.6446283092
 10
141.6815241117
 20
124.6414411859
 10
141.6512943907
 20
124.6369416915
 10
141.6246222474
 20
124.631089923
 10
141.6014264234
 20
124.6239257834
 10
141.5814631441
 20
124.6155689818
 10
141.5646007943
 20
124.6061038556
 10
141.5509709892
 20
124.5954460675
 10
141.5407247998
 20
124.5834623138
 10
141.5337291145
 20
124.570054559
 10
141.530117045
 20
124.5553208387
 10
141.5304389968
 20
124.5394219561
 10
141.5348784384
 20
124.5224115123
 10
141.5432519013
 20
124.5042359063
 10
141.5555593855
 20
124.4848951381
  0
LWPOLYLINE
  5
588
100
AcDbEntity
  8
ASSI
100
AcDbPolyline
 62
250
  6
CONTINUOUS
 90
10
 70
0
 10
144.5434938272
 20
124.3521398093
 10
144.5288097774
 20
124.3514199515
 10
144.5135937583
 20
124.3497446285
 10
144.4978592027
 20
124.3470594081
 10
144.481702903
 20
124.3433365321
 10
144.4650693383
 20
124.3385095758
 10
144.4477415152
 20
124.3324224153
 10
144.429663349
 20
124.3249401441
 10
144.4109498286
 20
124.3160017046
 10
144.3916452824
 20
124.3055194105
  0
LWPOLYLINE
  5
589
100
AcDbEntity
  8
ASSI
100
AcDbPolyline
 62
250
  6
CONTINUOUS
 90
10
 70
0
 10
144.4620335317
 20
124.6076402059
 10
144.4416209771
 20
124.6066484081
 10
144.4204927099
 20
124.6041806186
 10
144.3986487303
 20
124.6002368375
 10
144.3761681919
 20
124.5949566202
 10
144.3529719411
 20
124.5882004112
 10
144.3288225165
 20
124.5795495443
 10
144.3036407645
 20
124.5688644638
 10
144.2775058387
 20
124.5562847253
 10
144.2504177392
 20
124.5418103288
  0
LWPOLYLINE
  5
58A
100
AcDbEntity
  8
ASSI
100
AcDbPolyline
 62
7
  6
CONTINUOUS
 90
17
 70
0
 10
144.7240237732
 20
122.9068774346
 10
144.7070814096
 20
122.9062003714
 10
144.6760474061
 20
122.9059997541
 10
144.6418635906
 20
122.9070528962
 10
144.604958304
 20
122.9094302009
 10
144.5658897668
 20
122.913142921
 10
144.5249331359
 20
122.9181872062
 10
144.4822975193
 20
122.9245639854
 10
144.4383266355
 20
122.9322462553
 10
144.3933048309
 20
122.9411970996
 10
144.3474803007
 20
122.9513818196
 10
144.3011146892
 20
122.9627581918
 10
144.2545066197
 20
122.9752633718
 10
144.2079389451
 20
122.9888312629
 10
144.1616879579
 20
123.0033947921
 10
144.1161148483
 20
123.0188472658
 10
144.1061893996
 20
123.0223630465
  0
LINE
  5
58B
100
AcDbEntity
  8
ASSI
100
AcDbLine
 62
250
  6
CONTINUOUS
 10
144.7528112941
 20
122.8886337292
 11
144.7950876643
 21
122.8897005619
  0
LINE
  5
58C
100
AcDbEntity
  8
ASSI
100
AcDbLine
 62
250
  6
CONTINUOUS
 10
146.4946465585
 20
122.4679547413
 11
144.7767122362
 21
122.4251094558
  0
LINE
  5
58D
100
AcDbEntity
  8
ASSI
100
AcDbLine
 62
250
  6
CONTINUOUS
 10
146.7299211692
 20
122.7240869628
 11
144.6931495929
 21
122.6732898756
  0
LINE
  5
58E
100
AcDbEntity
  8
ASSI
100
AcDbLine
 62
250
  6
CONTINUOUS
 10
145.5581378866
 20
124.3767510721
 11
144.5434938272
 21
124.3521398093
  0
LINE
  5
58F
100
AcDbEntity
  8
ASSI
100
AcDbLine
 62
250
  6
CONTINUOUS
 10
143.4154322879
 20
124.4293650596
 11
141.833872807
 21
124.3910026648
  0
LINE
  5
590
100
AcDbEntity
  8
ASSI
100
AcDbLine
 62
250
  6
CONTINUOUS
 10
145.7419986599
 20
124.6386871113
 11
144.4620335317
 21
124.6076402059
  0
LINE
  5
591
100
AcDbEntity
  8
ASSI
100
AcDbLine
 62
250
  6
CONTINUOUS
 10
143.3339719925
 20
124.6848654562
 11
141.7524125116
 21
124.6465030614
  0
LWPOLYLINE
  5
592
100
AcDbEntity
  8
ASSI
100
AcDbPolyline
 62
250
  6
CONTINUOUS
 90
5
 70
0
 10
144.7244567195
 20
122.9069017604
 10
144.7371976366
 20
122.9069272821
 10
144.7569464269
 20
122.9043265821
 10
144.7763471783
 20
122.8985533716
 10
144.7950876643
 20
122.8897005619
  0
LWPOLYLINE
  5
593
100
AcDbEntity
  8
ASSI
100
AcDbPolyline
 62
250
  6
CONTINUOUS
 90
5
 70
0
 10
146.230699712
 20
122.988839485
 10
146.2433016146
 20
122.9888573953
 10
146.2630500468
 20
122.986256568
 10
146.2824503747
 20
122.9804833694
 10
146.3011903965
 20
122.9716307377
  0
LWPOLYLINE
  5
594
100
AcDbEntity
  8
ASSI
100
AcDbPolyline
 62
250
  6
CONTINUOUS
 90
5
 70
0
 10
140.8906432822
 20
124.8453237435
 10
140.904804524
 20
124.8452577219
 10
140.9240202395
 20
124.842523027
 10
140.9428896438
 20
124.8367793472
 10
140.9611243964
 20
124.8281144508
  0
LWPOLYLINE
  5
595
100
AcDbEntity
  8
ASSI
100
AcDbPolyline
 62
250
  6
CONTINUOUS
 90
5
 70
0
 10
141.7404206997
 20
124.4042757395
 10
141.7233635229
 20
124.4047329364
 10
141.7085778911
 20
124.404024915
 10
141.6961284962
 20
124.4022881706
 10
141.6860187787
 20
124.3995757447
  0
LWPOLYLINE
  5
596
100
AcDbEntity
  8
ASSI
100
AcDbPolyline
 62
250
  6
CONTINUOUS
 90
3
 70
0
 10
144.66415672
 20
122.8914228832
 10
144.709167646
 20
122.8892078363
 10
144.7528112941
 20
122.8886337292
  0
LWPOLYLINE
  5
597
100
AcDbEntity
  8
ASSI
100
AcDbPolyline
 62
7
  6
CONTINUOUS
 90
10
 70
0
 10
148.8204385412
 20
122.229937354
 10
148.7989248081
 20
122.2311834259
 10
148.7777942067
 20
122.2311943248
 10
148.7570467368
 20
122.2299700508
 10
148.7364451307
 20
122.2274611122
 10
148.7162266562
 20
122.2237170006
 10
148.6971031163
 20
122.2188861909
 10
148.6793117789
 20
122.2130181745
 10
148.6626153762
 20
122.2060634599
 10
148.6470139081
 20
122.1980220471
  0
LWPOLYLINE
  5
598
100
AcDbEntity
  8
RACCORDO
100
AcDbPolyline
 62
7
  6
CONTINUOUS
 90
9
 70
0
 10
149.5846007177
 20
121.1492447909
 10
149.6184644444
 20
121.146796709
 10
149.6509228994
 20
121.1425136052
 10
149.6818066488
 20
121.1364676996
 10
149.710944587
 20
121.1287417359
 10
149.7382602795
 20
121.1195002918
 10
149.7637358492
 20
121.1088916636
 10
149.7872673216
 20
121.0969982912
 10
149.792057161
 20
121.0942865335
  0
LWPOLYLINE
  5
599
100
AcDbEntity
  8
ASSI
100
AcDbPolyline
 62
250
  6
CONTINUOUS
 90
24
 70
0
 10
148.8181972144
 20
123.6309738917
 10
148.8460426142
 20
123.6277737492
 10
148.8740432941
 20
123.6261240451
 10
148.90245561
 20
123.6260367713
 10
148.9310232061
 20
123.6274999359
 10
148.9589770143
 20
123.6304775633
 10
148.9862954552
 20
123.6350089764
 10
149.0130001084
 20
123.6410548525
 10
149.0383866448
 20
123.6484612472
 10
149.0624280294
 20
123.6572672514
 10
149.0851512973
 20
123.6674337744
 10
149.1059332247
 20
123.6786896
 10
149.1247196811
 20
123.6910677492
 10
149.141564797
 20
123.7045352009
 10
149.1560077404
 20
123.7187216763
 10
149.1679773276
 20
123.7336435131
 10
149.1775447423
 20
123.7492843735
 10
149.1844627032
 20
123.7652249649
 10
149.1886605558
 20
123.7814723007
 10
149.1902089547
 20
123.7980193675
 10
149.1890725822
 20
123.8144258324
 10
149.1852396658
 20
123.8305449178
 10
149.1787219781
 20
123.8465234013
 10
149.1695195189
 20
123.8623612828
  0
LWPOLYLINE
  5
59A
100
AcDbEntity
  8
ASSI
100
AcDbPolyline
 62
250
  6
CONTINUOUS
 90
16
 70
0
 10
144.5504979303
 20
122.3148302365
 10
144.5367348577
 20
122.316493086
 10
144.5216010271
 20
122.3188331732
 10
144.5052565458
 20
122.3218257419
 10
144.4878740012
 20
122.3254392047
 10
144.4696375884
 20
122.3296352828
 10
144.4507413041
 20
122.3343693074
 10
144.431385868
 20
122.3395909108
 10
144.411775364
 20
122.3452449562
 10
144.3921160979
 20
122.3512719337
 10
144.372608294
 20
122.3576106751
 10
144.3534662397
 20
122.3641917678
 10
144.3349132129
 20
122.3709378254
 10
144.3171494469
 20
122.3777745416
 10
144.3003519166
 20
122.3846322425
 10
144.284693552
 20
122.3914389163
  0
LWPOLYLINE
  5
59B
100
AcDbEntity
  8
ASSI
100
AcDbPolyline
 62
250
  6
CONTINUOUS
 90
13
 70
0
 10
144.2791129362
 20
121.4412003953
 10
144.2617032731
 20
121.443383512
 10
144.2422163409
 20
121.446614065
 10
144.2209736075
 20
121.4508387618
 10
144.1983255058
 20
121.4559879097
 10
144.1746456537
 20
121.4619765656
 10
144.150324691
 20
121.4687059368
 10
144.1257638329
 20
121.4760650114
 10
144.1013682531
 20
121.4839323891
 10
144.0775404008
 20
121.4921782837
 10
144.0546733587
 20
121.5006666648
 10
144.0331443581
 20
121.5092575022
 10
144.0133085579
 20
121.5178090751
  0
LWPOLYLINE
  5
59C
100
AcDbEntity
  8
ASSI
100
AcDbPolyline
 62
250
  6
CONTINUOUS
 90
4
 70
0
 10
144.1061597456
 20
123.0223732736
 10
144.1055464338
 20
123.0224596542
 10
144.1026228932
 20
123.020929819
 10
144.098714604
 20
123.0165091882
  0
LWPOLYLINE
  5
59D
100
AcDbEntity
  8
ASSI
100
AcDbPolyline
 62
250
  6
CONTINUOUS
 90
24
 70
0
 10
148.7240264299
 20
123.3635200947
 10
148.764457192
 20
123.3563855022
 10
148.8057873041
 20
123.351248489
 10
148.8477212837
 20
123.3481457824
 10
148.8899593313
 20
123.3470995656
 10
148.932199472
 20
123.3481173196
 10
148.9741397147
 20
123.3511917689
 10
149.015480219
 20
123.3563009348
 10
149.0559254215
 20
123.3634082907
 10
149.0951861478
 20
123.3724630199
 10
149.1329816998
 20
123.3834003817
 10
149.1690418773
 20
123.396142182
 10
149.2031088906
 20
123.4105973306
 10
149.2349391834
 20
123.4266624841
 10
149.2643051877
 20
123.4442227875
 10
149.2909969624
 20
123.4631527027
 10
149.3148236857
 20
123.4833169048
 10
149.3356149942
 20
123.5045712255
 10
149.3532222212
 20
123.526763686
 10
149.3675194871
 20
123.5497356124
 10
149.378404591
 20
123.5733227786
 10
149.3857997198
 20
123.5973565567
 10
149.3896520051
 20
123.6216650888
 10
149.3902511017
 20
123.63579325
  0
LWPOLYLINE
  5
59E
100
AcDbEntity
  8
ASSI
100
AcDbPolyline
 62
250
  6
CONTINUOUS
 90
27
 70
0
 10
146.8210405126
 20
122.5314610559
 10
146.8135359243
 20
122.5328936948
 10
146.8060703349
 20
122.534117089
 10
146.7986471194
 20
122.5351309915
 10
146.7913187796
 20
122.5359279852
 10
146.7840381002
 20
122.5365152067
 10
146.7766579005
 20
122.5369143373
 10
146.7691445095
 20
122.5371359999
 10
146.7615336437
 20
122.5371695142
 10
146.753781417
 20
122.5370046394
 10
146.7458885524
 20
122.5366439953
 10
146.7378540293
 20
122.5360849683
 10
146.7296306555
 20
122.5353094849
 10
146.7212113075
 20
122.5343176194
 10
146.7125998633
 20
122.5331094044
 10
146.7037646036
 20
122.5316667588
 10
146.6946961502
 20
122.5299863589
 10
146.6853968905
 20
122.5280719857
 10
146.6758515235
 20
122.525916371
 10
146.6660535562
 20
122.5235150565
 10
146.6559984755
 20
122.5208738282
 10
146.6456730745
 20
122.5180010762
 10
146.6350743896
 20
122.5148939063
 10
146.6241911548
 20
122.5115580966
 10
146.6129977743
 20
122.508015416
 10
146.6014961965
 20
122.5042673999
 10
146.5896686776
 20
122.5003175282
  0
LWPOLYLINE
  5
59F
100
AcDbEntity
  8
ASSI
100
AcDbPolyline
 62
250
  6
CONTINUOUS
 90
5
 70
0
 10
141.833872807
 20
124.3910026648
 10
141.8067337226
 20
124.3963128069
 10
141.7820879355
 20
124.4001936223
 10
141.7599570895
 20
124.4027796305
 10
141.7404206997
 20
124.4042757395
  0
LWPOLYLINE
  5
5A0
100
AcDbEntity
  8
ASSI
100
AcDbPolyline
 62
250
  6
CONTINUOUS
 90
21
 70
0
 10
146.8362700816
 20
122.384668027
 10
146.8327746836
 20
122.3853953127
 10
146.829303496
 20
122.385853452
 10
146.8258805509
 20
122.3860603549
 10
146.8224902918
 20
122.3860178416
 10
146.8190677445
 20
122.3857081667
 10
146.8155809835
 20
122.3851472361
 10
146.8120461135
 20
122.3843314547
 10
146.8084555899
 20
122.3832119975
 10
146.8047904479
 20
122.3818056256
 10
146.8010413359
 20
122.3801120932
 10
146.7972019362
 20
122.3780607297
 10
146.7932398267
 20
122.3756706431
 10
146.7891389359
 20
122.3729465126
 10
146.7848994284
 20
122.3698028473
 10
146.7804749923
 20
122.3662617914
 10
146.7758361078
 20
122.3623375112
 10
146.7709848793
 20
122.3579424383
 10
146.7658585197
 20
122.3531045124
 10
146.760408391
 20
122.3478494932
 10
146.7484324719
 20
122.3358853806
  0
LWPOLYLINE
  5
5A1
100
AcDbEntity
  8
RACCORDO
100
AcDbPolyline
 62
250
  6
CONTINUOUS
 90
6
 70
0
 10
151.4634655107
 20
119.8038266493
 10
151.4620095698
 20
119.8041560739
 10
151.4587739428
 20
119.8032150609
 10
151.4536006472
 20
119.8013112133
 10
151.4467270128
 20
119.7982969269
 10
151.4283040277
 20
119.7888084351
  0
LINE
  5
5A2
100
AcDbEntity
  8
ASSI
100
AcDbLine
 62
250
  6
CONTINUOUS
 10
144.0558433872
 20
123.028187063
 11
144.0987146038
 21
123.0165091883
  0
LWPOLYLINE
  5
5A3
100
AcDbEntity
  8
ASSI
100
AcDbPolyline
 62
250
  6
CONTINUOUS
 90
3
 70
0
 10
143.9331632799
 20
123.0612067759
 10
143.9730823026
 20
123.0499732347
 10
144.0558433872
 20
123.028187063
  0
LINE
  5
5A4
100
AcDbEntity
  8
ASSI
100
AcDbLine
 62
250
  6
CONTINUOUS
 10
146.8397853977
 20
122.3836620226
 11
146.8362700816
 21
122.384668027
  0
LWPOLYLINE
  5
5A5
100
AcDbEntity
  8
ASSI
100
AcDbPolyline
 62
250
  6
CONTINUOUS
 90
11
 70
0
 10
144.1881919394
 20
122.9865279385
 10
144.2339800641
 20
122.9727101411
 10
144.2805597131
 20
122.9596116093
 10
144.3278390001
 20
122.9472949624
 10
144.3755422657
 20
122.9359480585
 10
144.4237982666
 20
122.9255292233
 10
144.4724782462
 20
122.916080131
 10
144.5209202742
 20
122.9079136627
 10
144.5692801497
 20
122.9010146736
 10
144.6174020738
 20
122.8953983085
 10
144.66415672
 20
122.8914228832
  0
LINE
  5
5A6
100
AcDbEntity
  8
ASSI
100
AcDbLine
 62
250
  6
CONTINUOUS
 10
144.1431034526
 20
123.0011276209
 11
144.1881919394
 21
122.9865279385
  0
LWPOLYLINE
  5
5A7
100
AcDbEntity
  8
ASSI
100
AcDbPolyline
 62
250
  6
CONTINUOUS
 90
3
 70
0
 10
143.8585398591
 20
123.0855080649
 10
143.8946008298
 20
123.0730935201
 10
143.9331632799
 20
123.0612067759
  0
LINE
  5
5A8
100
AcDbEntity
  8
ASSI
100
AcDbLine
 62
7
  6
CONTINUOUS
 10
144.1061893996
 20
123.0223630465
 11
144.1061597456
 21
123.0223732736
  0
LINE
  5
5A9
100
AcDbEntity
  8
ASSI
100
AcDbLine
 62
250
  6
CONTINUOUS
 10
144.0987146038
 20
123.0165091883
 11
144.1431034526
 21
123.0011276209
  0
LINE
  5
5AA
100
AcDbEntity
  8
ASSI
100
AcDbLine
 62
7
  6
CONTINUOUS
 10
144.1061597463
 20
123.0223732734
 11
144.0397428479
 21
123.0456675425
  0
LWPOLYLINE
  5
5AB
100
AcDbEntity
  8
ASSI
100
AcDbPolyline
 62
7
  6
CONTINUOUS
 90
8
 70
0
 10
144.0397428479
 20
123.0456675425
 10
144.0050135608
 20
123.0579706056
 10
143.9723082001
 20
123.0700661777
 10
143.9417431595
 20
123.0820803161
 10
143.9132408366
 20
123.094176543
 10
143.8871672017
 20
123.106282317
 10
143.8635940734
 20
123.118296367
 10
143.8468152951
 20
123.1276109206
  0
LWPOLYLINE
  5
5AC
100
AcDbEntity
  8
ASSI
100
AcDbPolyline
 62
250
  6
CONTINUOUS
 90
8
 70
0
 10
136.5806915202
 20
125.6600516745
 10
136.5694069384
 20
125.6643026746
 10
136.5572189019
 20
125.666627455
 10
136.5442579995
 20
125.6670010942
 10
136.5306631181
 20
125.6654195824
 10
136.5165799264
 20
125.661899866
 10
136.5021593103
 20
125.6564796553
 10
136.4875557784
 20
125.6492170237
  0
LWPOLYLINE
  5
5AD
100
AcDbEntity
  8
ASSI
100
AcDbPolyline
 62
250
  6
CONTINUOUS
 90
7
 70
0
 10
143.8467322317
 20
123.1276589601
 10
143.83953124
 20
123.1312568567
 10
143.8267128137
 20
123.1353065156
 10
143.8128439335
 20
123.1369810593
 10
143.7981067355
 20
123.1362584887
 10
143.7826947654
 20
123.1331482855
 10
143.7668104295
 20
123.1276912891
  0
LWPOLYLINE
  5
5AE
100
AcDbEntity
  8
ASSI
100
AcDbPolyline
 62
250
  6
CONTINUOUS
 90
7
 70
0
 10
141.7689522583
 20
124.3273430745
 10
141.7617623084
 20
124.3309345809
 10
141.7489438498
 20
124.3349842305
 10
141.7350749407
 20
124.3366587696
 10
141.7203377222
 20
124.3359362064
 10
141.7049257389
 20
124.3328260305
 10
141.6890413972
 20
124.3273690878
  0
LWPOLYLINE
  5
5AF
100
AcDbEntity
  8
ASSI
100
AcDbPolyline
 62
250
  6
CONTINUOUS
 90
4
 70
0
 10
143.7668100555
 20
123.1276915051
 10
143.7948040318
 20
123.1125907462
 10
143.8253851224
 20
123.098564392
 10
143.8585398591
 20
123.0855080649
  0
LWPOLYLINE
  5
5B0
100
AcDbEntity
  8
RACCORDO
100
AcDbPolyline
 62
7
  6
CONTINUOUS
 90
13
 70
0
 10
141.5790501309
 20
125.8363738593
 10
141.5164628596
 20
125.8702495337
 10
141.4465172521
 20
125.9028003269
 10
141.3769424554
 20
125.9296099863
 10
141.3078561827
 20
125.9506582018
 10
141.2395537855
 20
125.9658878308
 10
141.1725448333
 20
125.9752422086
 10
141.1069843832
 20
125.97878563
 10
141.0431418773
 20
125.9765831272
 10
140.9817254395
 20
125.968795653
 10
140.9231338231
 20
125.9557251578
 10
140.8674439286
 20
125.9376542494
 10
140.8410717182
 20
125.9269761374
  0
LWPOLYLINE
  5
5B1
100
AcDbEntity
  8
RACCORDO
100
AcDbPolyline
 62
250
  6
CONTINUOUS
 90
11
 70
0
 10
141.4815083425
 20
125.8278687727
 10
141.4233114212
 20
125.8595458556
 10
141.3652419163
 20
125.8871781771
 10
141.307501471
 20
125.9106546796
 10
141.2503583295
 20
125.929857692
 10
141.1939454879
 20
125.9447356996
 10
141.1382699394
 20
125.9552515989
 10
141.0835481317
 20
125.9613045306
 10
141.029986201
 20
125.9628106523
 10
140.9776035935
 20
125.9596807902
 10
140.926572171
 20
125.9517958262
  0
LINE
  5
5B2
100
AcDbEntity
  8
ASSI
100
AcDbLine
 62
7
  6
CONTINUOUS
 10
147.4442303795
 20
120.412459536
 11
146.6239612227
 21
120.8860726667
  0
LINE
  5
5B3
100
AcDbEntity
  8
ASSI
100
AcDbLine
 62
250
  6
CONTINUOUS
 10
140.5481393582
 20
124.5488784778
 11
144.284693552
 21
122.3914389163
  0
LINE
  5
5B4
100
AcDbEntity
  8
ASSI
100
AcDbLine
 62
250
  6
CONTINUOUS
 10
140.6706138454
 20
124.7012407394
 11
144.4071680392
 21
122.5438011779
  0
LINE
  5
5B5
100
AcDbEntity
  8
ASSI
100
AcDbLine
 62
250
  6
CONTINUOUS
 10
146.9518888781
 20
121.2320924702
 11
147.0694511402
 21
121.1642134935
  0
LINE
  5
5B6
100
AcDbEntity
  8
ASSI
100
AcDbLine
 62
250
  6
CONTINUOUS
 10
144.5435634652
 20
122.6253631856
 11
140.8118742854
 21
124.7799937489
  0
LINE
  5
5B7
100
AcDbEntity
  8
ASSI
100
AcDbLine
 62
250
  6
CONTINUOUS
 10
141.6890413972
 20
124.3273690878
 11
143.7668100555
 21
123.1276915051
  0
LINE
  5
5B8
100
AcDbEntity
  8
ASSI
100
AcDbLine
 62
7
  6
CONTINUOUS
 10
141.768963414
 20
124.3273366349
 11
143.8467322317
 21
123.1276589601
  0
LINE
  5
5B9
100
AcDbEntity
  8
ASSI
100
AcDbLine
 62
250
  6
CONTINUOUS
 10
144.6931495929
 20
122.6732898756
 11
144.0987146038
 21
123.0165091883
  0
LINE
  5
5BA
100
AcDbEntity
  8
ASSI
100
AcDbLine
 62
250
  6
CONTINUOUS
 10
141.5555593855
 20
124.4848951381
 11
140.9611243964
 21
124.8281144508
  0
LINE
  5
5BB
100
AcDbEntity
  8
ASSI
100
AcDbLine
 62
7
  6
CONTINUOUS
 10
140.6961654549
 20
125.395988099
 11
141.5853371011
 21
124.8825915344
  0
LINE
  5
5BC
100
AcDbEntity
  8
ASSI
100
AcDbLine
 62
7
  6
CONTINUOUS
 10
147.439140463
 20
121.5026788386
 11
149.9072029194
 21
120.0776505084
  0
LINE
  5
5BD
100
AcDbEntity
  8
ASSI
100
AcDbLine
 62
250
  6
CONTINUOUS
 10
146.7299211692
 20
122.7240869628
 11
146.3011903965
 21
122.9716307377
  0
LINE
  5
5BE
100
AcDbEntity
  8
ASSI
100
AcDbLine
 62
250
  6
CONTINUOUS
 10
143.3339719925
 20
124.6848654562
 11
142.9052412197
 21
124.9324092311
  0
LINE
  5
5BF
100
AcDbEntity
  8
RACCORDO
100
AcDbLine
 62
250
  6
CONTINUOUS
 10
150.6824312364
 20
120.5153712084
 11
149.5846007177
 21
121.1492447909
  0
LINE
  5
5C0
100
AcDbEntity
  8
RACCORDO
100
AcDbLine
 62
250
  6
CONTINUOUS
 10
142.5793388613
 20
125.1939951902
 11
141.4815083425
 21
125.8278687727
  0
LINE
  5
5C1
100
AcDbEntity
  8
RACCORDO
100
AcDbLine
 62
7
  6
CONTINUOUS
 10
150.7799679251
 20
120.5238792398
 11
149.7920592834
 21
121.0942853082
  0
LINE
  5
5C2
100
AcDbEntity
  8
RACCORDO
100
AcDbLine
 62
7
  6
CONTINUOUS
 10
142.5669536737
 20
125.2659707354
 11
141.5790450333
 21
125.8363768029
  0
LINE
  5
5C3
100
AcDbEntity
  8
ASSI
100
AcDbLine
 62
250
  6
CONTINUOUS
 10
146.5301929039
 20
123.0707488162
 11
144.3916452824
 21
124.3055194105
  0
LINE
  5
5C4
100
AcDbEntity
  8
ASSI
100
AcDbLine
 62
250
  6
CONTINUOUS
 10
146.6480859283
 20
123.1369747068
 11
144.5434938272
 21
124.3521398093
  0
LINE
  5
5C5
100
AcDbEntity
  8
ASSI
100
AcDbLine
 62
250
  6
CONTINUOUS
 10
147.1791275747
 20
122.8676083504
 11
146.7435422929
 21
123.119109833
  0
LINE
  5
5C6
100
AcDbEntity
  8
ASSI
100
AcDbLine
 62
250
  6
CONTINUOUS
 10
143.7881288123
 20
124.8255285366
 11
143.3525435304
 21
125.0770300192
  0
LINE
  5
5C7
100
AcDbEntity
  8
ASSI
100
AcDbLine
 62
7
  6
CONTINUOUS
 10
147.1813365369
 20
123.4395365148
 11
145.5581378866
 21
124.3767510721
  0
LWPOLYLINE
  5
5C8
100
AcDbEntity
  8
ASSI
100
AcDbPolyline
 62
7
  6
CONTINUOUS
 90
11
 70
0
 10
141.7689522581
 20
124.3273430747
 10
141.7473622888
 20
124.3405048523
 10
141.7293734374
 20
124.3526639643
 10
141.7139486984
 20
124.3641533461
 10
141.7006520232
 20
124.3750457531
 10
141.6893580957
 20
124.3851534455
 10
141.6799226285
 20
124.3943304706
 10
141.6719614683
 20
124.40273458
 10
141.6652819967
 20
124.4103616651
 10
141.6599399851
 20
124.4169282537
 10
141.6565129963
 20
124.421424393
  0
LINE
  5
5C9
100
AcDbEntity
  8
ASSI
100
AcDbLine
 62
250
  6
CONTINUOUS
 10
141.66158664
 20
124.3448038242
 11
141.6890413972
 21
124.3273690878
  0
LWPOLYLINE
  5
5CA
100
AcDbEntity
  8
RACCORDO
100
AcDbPolyline
 62
250
  6
CONTINUOUS
 90
3
 70
0
 10
150.8067448571
 20
120.4346714353
 10
150.7451370898
 20
120.4769381627
 10
150.6824312364
 20
120.5153712084
  0
LWPOLYLINE
  5
5CB
100
AcDbEntity
  8
RACCORDO
100
AcDbPolyline
 62
7
  6
CONTINUOUS
 90
7
 70
0
 10
142.5669620992
 20
125.2659658705
 10
142.5673810361
 20
125.2656701461
 10
142.5692097952
 20
125.2629208385
 10
142.5709679209
 20
125.2578050723
 10
142.5727529685
 20
125.2502441139
 10
142.5743879383
 20
125.2402021862
 10
142.5758843058
 20
125.2275522181
  0
LWPOLYLINE
  5
5CC
100
AcDbEntity
  8
ASSI
100
AcDbPolyline
 62
250
  6
CONTINUOUS
 90
10
 70
0
 10
146.924255371
 20
122.4863207533
 10
146.9140347644
 20
122.4939569991
 10
146.9032833442
 20
122.500978465
 10
146.8920777017
 20
122.5073391401
 10
146.8803850604
 20
122.5129628111
 10
146.8683672165
 20
122.517874954
 10
146.856367948
 20
122.5221863893
 10
146.8445153935
 20
122.5259181611
 10
146.8327341843
 20
122.52901429
 10
146.82104113
 20
122.5314648556
  0
LWPOLYLINE
  5
5CD
100
AcDbEntity
  8
ASSI
100
AcDbPolyline
 62
250
  6
CONTINUOUS
 90
12
 70
0
 10
149.3349345418
 20
123.8114852661
 10
149.3307555726
 20
123.8172445898
 10
149.3201417994
 20
123.8291746442
 10
149.3078777793
 20
123.8396792119
 10
149.2940978812
 20
123.8486432002
 10
149.2789530806
 20
123.8559683976
 10
149.2626093079
 20
123.8615745478
 10
149.2452456278
 20
123.8654002289
 10
149.2270522772
 20
123.8674035261
 10
149.2082285847
 20
123.86756249
 10
149.1889807873
 20
123.8658753778
 10
149.1695197677
 20
123.8623606731
  0
LWPOLYLINE
  5
5CE
100
AcDbEntity
  8
RACCORDO
100
AcDbPolyline
 62
250
  6
CONTINUOUS
 90
4
 70
0
 10
149.3219959378
 20
127.118913504
 10
149.3330554884
 20
127.1034622484
 10
149.3430915386
 20
127.0868151727
 10
149.3520010957
 20
127.0691430934
  0
LINE
  5
5CF
100
AcDbEntity
  8
ASSI
100
AcDbLine
 62
7
  6
CONTINUOUS
 10
149.3349725902
 20
123.8114292458
 11
149.3349345418
 21
123.8114852661
  0
LWPOLYLINE
  5
5D0
100
AcDbEntity
  8
RACCORDO
100
AcDbPolyline
 62
250
  6
CONTINUOUS
 90
3
 70
0
 10
152.4612760362
 20
125.2631613333
 10
152.451887877
 20
125.284776471
 10
152.4404011249
 20
125.3054234292
  0
LINE
  5
5D1
100
AcDbEntity
  8
0
100
AcDbLine
 62
250
  6
CONTINUOUS
 10
144.9482405756
 20
74.7372685428
 11
147.3522938526
 21
75.9836640896
  0
LINE
  5
5D2
100
AcDbEntity
  8
0
100
AcDbLine
 62
7
  6
CONTINUOUS
 10
144.8341999552
 20
74.5027909499
 11
147.2421779653
 21
75.7512212976
  0
LWPOLYLINE
  5
5D3
100
AcDbEntity
  8
0
100
AcDbPolyline
 62
250
  6
CONTINUOUS
 90
16
 70
0
 10
144.9482405756
 20
74.7372685428
 10
144.9090136027
 20
74.7178961746
 10
144.8665366342
 20
74.7009622065
 10
144.8212624107
 20
74.6866470948
 10
144.773668017
 20
74.6751022446
 10
144.7242657746
 20
74.6664524586
 10
144.6735995748
 20
74.660791315
 10
144.6222212964
 20
74.6581762798
 10
144.5706673363
 20
74.6586305187
 10
144.5194701114
 20
74.6621476305
 10
144.4691050736
 20
74.6687010726
 10
144.4201804614
 20
74.6782179333
 10
144.3733939196
 20
74.6905435457
 10
144.3292701537
 20
74.7054941596
 10
144.2881785558
 20
74.7228968016
 10
144.2505098971
 20
74.7425422815
  0
LINE
  5
5D4
100
AcDbEntity
  8
ASSI
100
AcDbLine
 62
250
  6
CONTINUOUS
 10
147.8010855085
 20
127.1716321402
 11
147.7836048954
 21
127.1684736279
  0
LWPOLYLINE
  5
5D5
100
AcDbEntity
  8
ASSI
100
AcDbPolyline
 62
250
  6
CONTINUOUS
 90
5
 70
0
 10
145.3386111685
 20
126.2200326546
 10
145.3013660218
 20
126.2146261682
 10
145.2633419558
 20
126.2113828139
 10
145.2245726625
 20
126.2102098813
 10
145.1862726871
 20
126.2111104538
  0
LWPOLYLINE
  5
5D6
100
AcDbEntity
  8
ASSI
100
AcDbPolyline
 62
7
  6
CONTINUOUS
 90
6
 70
0
 10
147.8789596692
 20
127.1853052342
 10
147.8685380516
 20
127.1842554792
 10
147.8430009955
 20
127.1809303313
 10
147.8179355277
 20
127.1765401767
 10
147.7933305083
 20
127.1710196461
 10
147.7835435807
 20
127.1684568663
  0
LWPOLYLINE
  5
5D7
100
AcDbEntity
  8
ASSI
100
AcDbPolyline
 62
250
  6
CONTINUOUS
 90
12
 70
0
 10
147.9339721282
 20
127.1650181482
 10
147.9287183843
 20
127.164500946
 10
147.9235250385
 20
127.1639261831
 10
147.9183920908
 20
127.1632938594
 10
147.9133415693
 20
127.162609241
 10
147.9083514459
 20
127.1618670617
 10
147.9033556369
 20
127.1610515238
 10
147.8983411389
 20
127.1601642724
 10
147.8933209552
 20
127.1592036623
 10
147.8882680117
 20
127.1581489599
 10
147.8831732836
 20
127.1569932539
 10
147.8780457956
 20
127.1557434555
  0
LINE
  5
5D8
100
AcDbEntity
  8
RACCORDO
100
AcDbLine
 62
250
  6
CONTINUOUS
 10
149.0864710251
 20
127.2717304991
 11
147.9339721282
 21
127.1650181482
  0
LINE
  5
5D9
100
AcDbEntity
  8
ASSI
100
AcDbLine
 62
7
  6
CONTINUOUS
 10
149.03142893
 20
127.2920148486
 11
147.8789300346
 21
127.1853024978
  0
LINE
  5
5DA
100
AcDbEntity
  8
RACCORDO
100
AcDbLine
 62
250
  6
CONTINUOUS
 10
149.03142893
 20
127.2920148486
 11
149.0352681255
 21
127.292244913
  0
LWPOLYLINE
  5
5DB
100
AcDbEntity
  8
ASSI
100
AcDbPolyline
 62
250
  6
CONTINUOUS
 90
7
 70
0
 10
145.1183359573
 20
126.258256577
 10
145.1119226234
 20
126.258129018
 10
145.105109075
 20
126.2558631845
 10
145.0979699626
 20
126.2514839014
 10
145.0905835038
 20
126.2450391484
 10
145.0830306261
 20
126.2365995356
 10
145.0753940805
 20
126.2262575289
  0
LWPOLYLINE
  5
5DC
100
AcDbEntity
  8
ASSI
100
AcDbPolyline
 62
250
  6
CONTINUOUS
 90
6
 70
0
 10
142.8348955316
 20
124.9496257075
 10
142.8443572851
 20
124.9497533115
 10
142.8599394694
 20
124.9483582204
 10
142.8753818534
 20
124.9449775311
 10
142.8905286166
 20
124.9396436401
 10
142.9052278493
 20
124.9324085139
  0
LWPOLYLINE
  5
5DD
100
AcDbEntity
  8
ASSI
100
AcDbPolyline
 62
250
  6
CONTINUOUS
 90
23
 70
0
 10
145.0203841935
 20
126.2353254707
 10
144.9925007975
 20
126.2375405448
 10
144.9641112183
 20
126.2382024742
 10
144.9354723817
 20
126.2373180581
 10
144.9073550651
 20
126.2349076928
 10
144.8797784468
 20
126.2309316426
 10
144.8527233484
 20
126.2254296432
 10
144.8269030121
 20
126.2185412992
 10
144.802342088
 20
126.2102269978
 10
144.7790159261
 20
126.2005263518
 10
144.7575638185
 20
126.1896978033
 10
144.7380378574
 20
126.1777072566
 10
144.7203859506
 20
126.1645888075
 10
144.7050911144
 20
126.150703185
 10
144.6922234968
 20
126.1360326205
 10
144.6817129496
 20
126.1205948825
 10
144.6738320447
 20
126.1048040064
 10
144.6686509683
 20
126.0886515546
 10
144.6660995341
 20
126.0721459646
 10
144.6662397543
 20
126.0557265844
 10
144.6690922996
 20
126.0395398633
 10
144.6746364992
 20
126.0234393519
 10
144.6828723532
 20
126.0074250503
  0
LWPOLYLINE
  5
5DE
100
AcDbEntity
  8
ASSI
100
AcDbPolyline
 62
250
  6
CONTINUOUS
 90
3
 70
0
 10
145.1862726871
 20
126.2111104538
 10
145.148846878
 20
126.2140855593
 10
145.1118903869
 20
126.2191341699
  0
LINE
  5
5DF
100
AcDbEntity
  8
ASSI
100
AcDbLine
 62
250
  6
CONTINUOUS
 10
145.0480183322
 20
126.2315640511
 11
145.0203841935
 21
126.2353254707
  0
LINE
  5
5E0
100
AcDbEntity
  8
ASSI
100
AcDbLine
 62
250
  6
CONTINUOUS
 10
145.1118903869
 20
126.2191341699
 11
145.0480183322
 21
126.2315640511
  0
LWPOLYLINE
  5
5E1
100
AcDbEntity
  8
ASSI
100
AcDbPolyline
 62
250
  6
CONTINUOUS
 90
5
 70
0
 10
146.2345332822
 20
126.7180666167
 10
146.2181827578
 20
126.7217072318
 10
146.2026008211
 20
126.7225651122
 10
146.1880253238
 20
126.7206271629
 10
146.1746787546
 20
126.7159229657
  0
LWPOLYLINE
  5
5E2
100
AcDbEntity
  8
ASSI
100
AcDbPolyline
 62
250
  6
CONTINUOUS
 90
6
 70
0
 10
146.3603698104
 20
126.7414351266
 10
146.3425740332
 20
126.750105582
 10
146.324491779
 20
126.7559193923
 10
146.3063984886
 20
126.7587879978
 10
146.2885697709
 20
126.7586677021
 10
146.2710895683
 20
126.7555093019
  0
LINE
  5
5E3
100
AcDbEntity
  8
ASSI
100
AcDbLine
 62
250
  6
CONTINUOUS
 10
149.5914719708
 20
124.7827727249
 11
149.6093192001
 21
124.7737735026
  0
LWPOLYLINE
  5
5E4
100
AcDbEntity
  8
ASSI
100
AcDbPolyline
 62
250
  6
CONTINUOUS
 90
3
 70
0
 10
146.2685338368
 20
126.7027011015
 10
146.2514028106
 20
126.7116988395
 10
146.2345332822
 20
126.7180666167
  0
LINE
  5
5E5
100
AcDbEntity
  8
ASSI
100
AcDbLine
 62
250
  6
CONTINUOUS
 10
149.9946910828
 20
124.5512646074
 11
149.6093192001
 21
124.7737735026
  0
LINE
  5
5E6
100
AcDbEntity
  8
ASSI
100
AcDbLine
 62
250
  6
CONTINUOUS
 10
146.6539057195
 20
126.4801922062
 11
146.2685338368
 21
126.7027011015
  0
LINE
  5
5E7
100
AcDbEntity
  8
ASSI
100
AcDbLine
 62
250
  6
CONTINUOUS
 10
150.085867811
 20
124.5903792725
 11
149.7004467359
 21
124.8129165709
  0
LINE
  5
5E8
100
AcDbEntity
  8
ASSI
100
AcDbLine
 62
250
  6
CONTINUOUS
 10
146.7457908856
 20
126.5188978283
 11
146.3603698104
 21
126.7414351266
  0
LWPOLYLINE
  5
5E9
100
AcDbEntity
  8
ASSI
100
AcDbPolyline
 62
250
  6
CONTINUOUS
 90
13
 70
0
 10
149.9946910828
 20
124.5512646074
 10
150.0124331461
 20
124.5401270605
 10
150.0299043844
 20
124.5266669095
 10
150.0468381067
 20
124.5110896177
 10
150.0629758269
 20
124.4936329659
 10
150.0780712097
 20
124.4745634223
 10
150.0918938304
 20
124.4541720755
 10
150.1042326926
 20
124.4327701907
 10
150.1148994488
 20
124.4106844584
 10
150.1237312756
 20
124.388252008
 10
150.1305933588
 20
124.3658152613
 10
150.1353809518
 20
124.3437167056
 10
150.1380209738
 20
124.322293666
  0
LWPOLYLINE
  5
5EA
100
AcDbEntity
  8
ASSI
100
AcDbPolyline
 62
250
  6
CONTINUOUS
 90
13
 70
0
 10
150.085867811
 20
124.5903792725
 10
150.1029135641
 20
124.578932665
 10
150.1191421111
 20
124.5649358487
 10
150.134306248
 20
124.5486020325
 10
150.1481749849
 20
124.5301800238
 10
150.160537064
 20
124.5099504387
 10
150.1712041779
 20
124.4882214275
 10
150.1800138382
 20
124.4653239809
 10
150.1868318504
 20
124.4416068878
 10
150.1915543579
 20
124.4174314226
 10
150.1941094245
 20
124.3931658418
 10
150.1944581297
 20
124.3691797748
 10
150.1925951617
 20
124.3458385931
  0
LWPOLYLINE
  5
5EB
100
AcDbEntity
  8
ASSI
100
AcDbPolyline
 62
250
  6
CONTINUOUS
 90
6
 70
0
 10
147.9339721282
 20
127.1650181482
 10
147.9214972155
 20
127.1741642755
 10
147.9086855629
 20
127.1806864241
 10
147.8957159775
 20
127.1844935668
 10
147.8827694706
 20
127.1855325689
 10
147.8789596691
 20
127.1853052342
  0
LINE
  5
5EC
100
AcDbEntity
  8
RACCORDO
100
AcDbLine
 62
250
  6
CONTINUOUS
 10
154.7676563081
 20
122.6013672079
 11
154.4233751963
 21
122.8702458561
  0
LINE
  5
5ED
100
AcDbEntity
  8
RACCORDO
100
AcDbLine
 62
7
  6
CONTINUOUS
 10
154.8637372875
 20
122.6109555209
 11
154.5194561758
 21
122.8798341691
  0
LWPOLYLINE
  5
5EE
100
AcDbEntity
  8
RACCORDO
100
AcDbPolyline
 62
7
  6
CONTINUOUS
 90
18
 70
0
 10
154.5194369684
 20
122.8798491612
 10
154.5129476601
 20
122.8850456112
 10
154.4958176788
 20
122.8999835958
 10
154.4778402012
 20
122.9176055779
 10
154.4594875527
 20
122.9377696822
 10
154.4414396942
 20
122.9599496832
 10
154.4240202139
 20
122.9838879699
 10
154.4075101927
 20
123.00931298
 10
154.3923996005
 20
123.0354931218
 10
154.3789007129
 20
123.061973337
 10
154.3670990357
 20
123.0884451292
 10
154.3571441457
 20
123.1143467838
 10
154.3490513187
 20
123.1392951777
 10
154.3427641404
 20
123.1630121267
 10
154.3382176151
 20
123.1851183636
 10
154.3352728297
 20
123.205398173
 10
154.3337654595
 20
123.2235702968
 10
154.3334497359
 20
123.2358061141
  0
LWPOLYLINE
  5
5EF
100
AcDbEntity
  8
RACCORDO
100
AcDbPolyline
 62
250
  6
CONTINUOUS
 90
16
 70
0
 10
154.4233749735
 20
122.8702457267
 10
154.4073199416
 20
122.8839542809
 10
154.3917035757
 20
122.8991001201
 10
154.3766615884
 20
122.9155376604
 10
154.362282454
 20
122.9331633586
 10
154.3487299859
 20
122.9517686398
 10
154.3362170935
 20
122.9710135082
 10
154.3249201225
 20
122.9905137228
 10
154.3147696338
 20
123.0102679524
 10
154.3056328296
 20
123.0305216409
 10
154.2975892483
 20
123.0511907024
 10
154.2907680315
 20
123.0720361963
 10
154.2852101195
 20
123.0930826567
 10
154.2810289472
 20
123.1141994323
 10
154.2783625675
 20
123.1351033243
 10
154.2773174839
 20
123.1555634466
  0
LWPOLYLINE
  5
5F0
100
AcDbEntity
  8
RACCORDO
100
AcDbPolyline
 62
250
  6
CONTINUOUS
 90
5
 70
0
 10
152.4269760642
 20
125.3248140647
 10
152.4118000654
 20
125.3426777132
 10
152.3950849578
 20
125.3587650182
 10
152.3770640397
 20
125.3728514445
 10
152.3579888129
 20
125.3847404011
  0
LINE
  5
5F1
100
AcDbEntity
  8
RACCORDO
100
AcDbLine
 62
250
  6
CONTINUOUS
 10
152.4404011249
 20
125.3054234292
 11
152.4269760642
 21
125.3248140647
  0
LWPOLYLINE
  5
5F2
100
AcDbEntity
  8
RACCORDO
100
AcDbPolyline
 62
250
  6
CONTINUOUS
 90
5
 70
0
 10
149.0352681255
 20
127.292244913
 10
149.0482146956
 20
127.2912059508
 10
149.0611843392
 20
127.2873988228
 10
149.0739960523
 20
127.2808766633
 10
149.0864710251
 20
127.2717304991
  0
LWPOLYLINE
  5
5F3
100
AcDbEntity
  8
ASSI
100
AcDbPolyline
 62
250
  6
CONTINUOUS
 90
3
 70
0
 10
147.8370075165
 20
127.1688838304
 10
147.8189142261
 20
127.1717524359
 10
147.8010855085
 20
127.1716321402
  0
LWPOLYLINE
  5
5F4
100
AcDbEntity
  8
RACCORDO
100
AcDbPolyline
 62
250
  6
CONTINUOUS
 90
6
 70
0
 10
149.3331968789
 20
127.1602200734
 10
149.3235292307
 20
127.1647884918
 10
149.3112549964
 20
127.1682025725
 10
149.2981148847
 20
127.1695008931
 10
149.2842824226
 20
127.1686904065
 10
149.2699249459
 20
127.1658065044
  0
LWPOLYLINE
  5
5F5
100
AcDbEntity
  8
RACCORDO
100
AcDbPolyline
 62
250
  6
CONTINUOUS
 90
6
 70
0
 10
149.1498733168
 20
127.2660689965
 10
149.1405951935
 20
127.2705130615
 10
149.1282433857
 20
127.2740433016
 10
149.115000537
 20
127.2754181856
 10
149.1010200385
 20
127.2746393747
 10
149.0864710251
 20
127.2717304991
  0
LWPOLYLINE
  5
5F6
100
AcDbEntity
  8
ASSI
100
AcDbPolyline
 62
250
  6
CONTINUOUS
 90
13
 70
0
 10
151.6638783787
 20
125.0114170259
 10
151.6837416089
 20
125.0018915145
 10
151.7028167689
 20
124.9900026164
 10
151.7208376344
 20
124.9759162603
 10
151.7375526953
 20
124.9598290438
 10
151.7527286663
 20
124.9419654898
 10
151.7661537424
 20
124.9225749126
 10
151.7776405551
 20
124.9019279389
 10
151.7870287877
 20
124.8803127302
 10
151.7941874123
 20
124.8580309613
 10
151.7990165189
 20
124.8353936099
 10
151.8014487095
 20
124.8127166165
 10
151.801450039
 20
124.7903164748
  0
LINE
  5
5F7
100
AcDbEntity
  8
RACCORDO
100
AcDbLine
 62
250
  6
CONTINUOUS
 10
152.3579888129
 20
125.3847404011
 11
152.338125504
 21
125.3942659558
  0
LWPOLYLINE
  5
5F8
100
AcDbEntity
  8
ASSI
100
AcDbPolyline
 62
250
  6
CONTINUOUS
 90
3
 70
0
 10
147.8728855479
 20
127.1543995647
 10
147.8550897707
 20
127.1630700201
 10
147.8370075165
 20
127.1688838304
  0
LWPOLYLINE
  5
5F9
100
AcDbEntity
  8
RACCORDO
100
AcDbPolyline
 62
250
  6
CONTINUOUS
 90
8
 70
0
 10
152.1546715832
 20
125.5001899504
 10
152.1399894274
 20
125.507482533
 10
152.1250823151
 20
125.5128646722
 10
152.1101032318
 20
125.5162811347
 10
152.0952059101
 20
125.5176968598
 10
152.0805432253
 20
125.5170973226
 10
152.0662656277
 20
125.5144886703
 10
152.0641364779
 20
125.5139171185
  0
LWPOLYLINE
  5
5FA
100
AcDbEntity
  8
RACCORDO
100
AcDbPolyline
 62
7
  6
CONTINUOUS
 90
10
 70
0
 10
147.3532254691
 20
127.7173720208
 10
147.3314384205
 20
127.7285259488
 10
147.3060422763
 20
127.7382394269
 10
147.2799325591
 20
127.7448805636
 10
147.2535356364
 20
127.7483677318
 10
147.2271858182
 20
127.7487088911
 10
147.2011965262
 20
127.7459462135
 10
147.1759719504
 20
127.7401803376
 10
147.1519282628
 20
127.7315971489
 10
147.1338584524
 20
127.7229158507
  0
LWPOLYLINE
  5
5FB
100
AcDbEntity
  8
RACCORDO
100
AcDbPolyline
 62
250
  6
CONTINUOUS
 90
14
 70
0
 10
147.2557598051
 20
127.7088230389
 10
147.2475039386
 20
127.7134899523
 10
147.2390719621
 20
127.717776502
 10
147.2304851013
 20
127.7216388765
 10
147.2217607518
 20
127.725034605
 10
147.212932248
 20
127.7279154129
 10
147.2040482492
 20
127.7302317776
 10
147.1951270919
 20
127.7319442462
 10
147.1862164734
 20
127.7330077528
 10
147.177408683
 20
127.7333822872
 10
147.1687461506
 20
127.7330433211
 10
147.1602558568
 20
127.7319682517
 10
147.1520022288
 20
127.7301436693
 10
147.1440157099
 20
127.7275572137
  0
LINE
  5
5FC
100
AcDbEntity
  8
RACCORDO
100
AcDbLine
 62
250
  6
CONTINUOUS
 10
149.3333272376
 20
127.1601450019
 11
149.3331968789
 21
127.1602200734
  0
LINE
  5
5FD
100
AcDbEntity
  8
RACCORDO
100
AcDbLine
 62
250
  6
CONTINUOUS
 10
152.4014985257
 20
125.3886213435
 11
152.4015277957
 21
125.3886044532
  0
LINE
  5
5FE
100
AcDbEntity
  8
RACCORDO
100
AcDbLine
 62
250
  6
CONTINUOUS
 10
154.1005679293
 20
123.7567166135
 11
152.4829036643
 21
124.690735686
  0
LINE
  5
5FF
100
AcDbEntity
  8
RACCORDO
100
AcDbLine
 62
250
  6
CONTINUOUS
 10
148.1232805439
 20
127.2079274368
 11
147.2557598051
 21
127.7088230389
  0
LINE
  5
600
100
AcDbEntity
  8
RACCORDO
100
AcDbLine
 62
7
  6
CONTINUOUS
 10
154.1981046184
 20
123.7652246447
 11
152.5375620754
 21
124.7240010975
  0
LINE
  5
601
100
AcDbEntity
  8
RACCORDO
100
AcDbLine
 62
7
  6
CONTINUOUS
 10
148.2200364621
 20
127.2168862753
 11
147.3532964941
 21
127.7173310701
  0
LINE
  5
602
100
AcDbEntity
  8
RACCORDO
100
AcDbLine
 62
250
  6
CONTINUOUS
 10
149.3822209997
 20
126.7405058676
 11
151.6886915183
 21
125.4087786971
  0
LINE
  5
603
100
AcDbEntity
  8
RACCORDO
100
AcDbLine
 62
7
  6
CONTINUOUS
 10
149.4429138467
 20
126.7731123506
 11
151.7675903452
 21
125.4308732755
  0
LINE
  5
604
100
AcDbEntity
  8
RACCORDO
100
AcDbLine
 62
250
  6
CONTINUOUS
 10
152.338125504
 20
125.3942659558
 11
152.1546715832
 21
125.5001899504
  0
LINE
  5
605
100
AcDbEntity
  8
RACCORDO
100
AcDbLine
 62
250
  6
CONTINUOUS
 10
149.0864710251
 20
127.2717304991
 11
149.2699249459
 21
127.1658065044
  0
LINE
  5
606
100
AcDbEntity
  8
RACCORDO
100
AcDbLine
 62
7
  6
CONTINUOUS
 10
152.4015277957
 20
125.3886044532
 11
152.2180738749
 21
125.4945284479
  0
LINE
  5
607
100
AcDbEntity
  8
RACCORDO
100
AcDbLine
 62
7
  6
CONTINUOUS
 10
149.1498733168
 20
127.2660689965
 11
149.3333272376
 21
127.1601450019
  0
LWPOLYLINE
  5
608
100
AcDbEntity
  8
RACCORDO
100
AcDbPolyline
 62
250
  6
CONTINUOUS
 90
5
 70
0
 10
149.2699249459
 20
127.1658065044
 10
149.2838565836
 20
127.156577839
 10
149.2972696082
 20
127.1456082793
 10
149.3100263677
 20
127.1330104021
 10
149.3219959378
 20
127.118913504
  0
LWPOLYLINE
  5
609
100
AcDbEntity
  8
ASSI
100
AcDbPolyline
 62
250
  6
CONTINUOUS
 90
13
 70
0
 10
151.616400759
 20
124.9929407991
 10
151.6334465122
 20
124.9814941914
 10
151.6496750593
 20
124.967497375
 10
151.6648391964
 20
124.9511635587
 10
151.6787079333
 20
124.9327415498
 10
151.6910700123
 20
124.9125119646
 10
151.7017371262
 20
124.8907829534
 10
151.7105467864
 20
124.8678855068
 10
151.7173647985
 20
124.8441684138
 10
151.722087306
 20
124.8199929486
 10
151.7246423725
 20
124.795727368
 10
151.7249910777
 20
124.7717413012
 10
151.7231281097
 20
124.7484001196
  0
ARC
  5
60A
100
AcDbEntity
  8
0
100
AcDbCircle
 62
7
  6
CONTINUOUS
 10
144.6040632877
 20
74.9466795782
 40
0.5
100
AcDbArc
 50
239.9984015654
 51
297.4194204711
  0
ARC
  5
60B
100
AcDbEntity
  8
0
100
AcDbCircle
 62
7
  6
CONTINUOUS
 10
129.7358491194
 20
83.5314000965
 40
0.5
100
AcDbArc
 50
179.9840060021
 51
239.998401565
  0
ARC
  5
60C
100
AcDbEntity
  8
0
100
AcDbCircle
 62
7
  6
CONTINUOUS
 10
129.7358491194
 20
125.6831723787
 40
0.5
100
AcDbArc
 50
122.5992954222
 51
180.0013071313
  0
ARC
  5
60D
100
AcDbEntity
  8
RACCORDO
100
AcDbCircle
 62
7
  6
CONTINUOUS
 10
147.4048064792
 20
85.4090072802
 40
0.3
100
AcDbArc
 50
269.422326239
 51
299.1609168796
  0
ARC
  5
60E
100
AcDbEntity
  8
RACCORDO
100
AcDbCircle
 62
7
  6
CONTINUOUS
 10
133.0128588507
 20
91.0298059065
 40
0.2
100
AcDbArc
 50
60.0051466597
 51
71.8946233554
  0
ARC
  5
60F
100
AcDbEntity
  8
RACCORDO
100
AcDbCircle
 62
7
  6
CONTINUOUS
 10
152.507770399
 20
106.9712030944
 40
0.2
100
AcDbArc
 50
306.7913716996
 51
0.0023167695
  0
ARC
  5
610
100
AcDbEntity
  8
RACCORDO
100
AcDbCircle
 62
7
  6
CONTINUOUS
 10
151.8914559468
 20
109.3887775694
 40
0.2
100
AcDbArc
 50
59.9969877763
 51
112.7833062076
  0
ARC
  5
611
100
AcDbEntity
  8
RACCORDO
100
AcDbCircle
 62
7
  6
CONTINUOUS
 10
152.507770399
 20
109.0329253289
 40
0.2
100
AcDbArc
 50
0.0008670738
 51
60.0065221665
  0
ARC
  5
612
100
AcDbEntity
  8
RACCORDO
100
AcDbCircle
 62
7
  6
CONTINUOUS
 10
140.8649716016
 20
125.7191741689
 40
0.2
100
AcDbArc
 50
113.7747149635
 51
118.7132886444
  0
ARC
  5
613
100
AcDbEntity
  8
RACCORDO
100
AcDbCircle
 62
7
  6
CONTINUOUS
 10
149.0498684848
 20
127.0928667057
 40
0.2
100
AcDbArc
 50
59.9906129199
 51
95.2900560707
  0
ARC
  5
614
100
AcDbEntity
  8
RACCORDO
100
AcDbCircle
 62
7
  6
CONTINUOUS
 10
149.2333224056
 20
126.986942711
 40
0.2
100
AcDbArc
 50
2.5190144107
 51
60.0414965264
  0
ARC
  5
615
100
AcDbEntity
  8
RACCORDO
100
AcDbCircle
 62
7
  6
CONTINUOUS
 10
152.3015229637
 20
125.2154021623
 40
0.2
100
AcDbArc
 50
4.1591735959
 51
60.0080827507
  0
ARC
  5
616
100
AcDbEntity
  8
RACCORDO
100
AcDbCircle
 62
7
  6
CONTINUOUS
 10
152.1180690428
 20
125.321326157
 40
0.2
100
AcDbArc
 50
59.9262345776
 51
105.644203948
  0
ARC
  5
617
100
AcDbEntity
  8
RACCORDO
100
AcDbCircle
 62
7
  6
CONTINUOUS
 10
154.7698458437
 20
122.0077645497
 40
0.2
100
AcDbArc
 50
309.9291469819
 51
0.0054037064
  0
ARC
  5
618
100
AcDbEntity
  8
RACCORDO
100
AcDbCircle
 62
7
  6
CONTINUOUS
 10
151.2940316914
 20
119.6975655798
 40
0.2
100
AcDbArc
 50
301.2772965601
 51
32.093960952
  0
ARC
  5
619
100
AcDbEntity
  8
RACCORDO
100
AcDbCircle
 62
7
  6
CONTINUOUS
 10
151.2940316914
 20
85.1991975399
 40
0.2
100
AcDbArc
 50
301.3220933764
 51
30.0000006194
  0
ARC
  5
61A
100
AcDbEntity
  8
RACCORDO
100
AcDbCircle
 62
7
  6
CONTINUOUS
 10
150.5929522039
 20
86.4135028311
 40
0.2
100
AcDbArc
 50
30.0000014818
 51
60.0333980538
  0
ARC
  5
61B
100
AcDbEntity
  8
RACCORDO
100
AcDbCircle
 62
7
  6
CONTINUOUS
 10
150.253878632
 20
87.8041959151
 40
0.2
100
AcDbArc
 50
0.0007992803
 51
34.5490666879
  0
ARC
  5
61C
100
AcDbEntity
  8
RACCORDO
100
AcDbCircle
 62
7
  6
CONTINUOUS
 10
153.5111920604
 20
89.9434824044
 40
0.2
100
AcDbArc
 50
59.9867464189
 51
118.2699256376
  0
ARC
  5
61D
100
AcDbEntity
  8
RACCORDO
100
AcDbCircle
 62
7
  6
CONTINUOUS
 10
154.7698458437
 20
89.2167514845
 40
0.2
100
AcDbArc
 50
0.0007992627
 51
59.9992007507
  0
ARC
  5
61E
100
AcDbEntity
  8
RACCORDO
100
AcDbCircle
 62
7
  6
CONTINUOUS
 10
146.3076575116
 20
103.8224728735
 40
0.2
100
AcDbArc
 50
257.3292403517
 51
287.0230299445
  0
ARC
  5
61F
100
AcDbEntity
  8
ASSI
100
AcDbCircle
 62
7
  6
CONTINUOUS
 10
141.8864039829
 20
120.6952990012
 40
0.2
100
AcDbArc
 50
18.5045349448
 51
59.9984015652
  0
ARC
  5
620
100
AcDbEntity
  8
ASSI
100
AcDbCircle
 62
7
  6
CONTINUOUS
 10
140.6706138454
 20
124.537946684
 40
0.2
100
AcDbArc
 50
119.0851068374
 51
154.7491248196
  0
ARC
  5
621
100
AcDbEntity
  8
ASSI
100
AcDbCircle
 62
7
  6
CONTINUOUS
 10
138.0347511833
 20
122.9191950552
 40
0.2
100
AcDbArc
 50
59.9984015652
 51
119.1557271591
  0
ARC
  5
622
100
AcDbEntity
  8
ASSI
100
AcDbCircle
 62
7
  6
CONTINUOUS
 10
136.4850876354
 20
125.484522764
 40
0.2
100
AcDbArc
 50
59.9984015652
 51
118.2824903446
  0
ARC
  5
623
100
AcDbEntity
  8
ASSI
100
AcDbCircle
 62
7
  6
CONTINUOUS
 10
147.1886342834
 20
118.9351180869
 40
0.2
100
AcDbArc
 50
315.7312260546
 51
0.0244885462
  0
ARC
  5
624
100
AcDbEntity
  8
ASSI
100
AcDbCircle
 62
7
  6
CONTINUOUS
 10
147.1886342834
 20
119.3044290764
 40
0.2
100
AcDbArc
 50
359.9837886302
 51
59.9984015652
  0
ARC
  5
625
100
AcDbEntity
  8
ASSI
100
AcDbCircle
 62
7
  6
CONTINUOUS
 10
147.1886342834
 20
80.9038648144
 40
0.2
100
AcDbArc
 50
0.0061341609
 51
34.9794225703
  0
ARC
  5
626
100
AcDbEntity
  8
ASSI
100
AcDbCircle
 62
7
  6
CONTINUOUS
 10
147.1886342834
 20
80.5345538248
 40
0.2
100
AcDbArc
 50
325.0024931296
 51
0.0011842197
  0
ARC
  5
627
100
AcDbEntity
  8
ASSI
100
AcDbCircle
 62
7
  6
CONTINUOUS
 10
138.0122915011
 20
124.6027343923
 40
0.2
100
AcDbArc
 50
359.9895357921
 51
59.9984015652
  0
ARC
  5
628
100
AcDbEntity
  8
ASSI
100
AcDbCircle
 62
7
  6
CONTINUOUS
 10
138.0122915011
 20
124.2334234027
 40
0.2
100
AcDbArc
 50
315.7300113268
 51
0.0272094249
  0
ARC
  5
629
100
AcDbEntity
  8
ASSI
100
AcDbCircle
 62
7
  6
CONTINUOUS
 10
145.6614304176
 20
120.1862174482
 40
0.2
100
AcDbArc
 50
59.9984015652
 51
118.2824903446
  0
ELLIPSE
  5
62A
100
AcDbEntity
  8
0
100
AcDbEllipse
 62
7
  6
CONTINUOUS
 10
146.9986192666
 20
76.1881511949
 30
0.0
 11
-0.2501834304
 21
0.4333025529
 31
0.0
 40
0.5769361983
 41
-3.1677535987
 42
-2.3565853618
  0
ELLIPSE
  5
62B
100
AcDbEntity
  8
RACCORDO
100
AcDbEllipse
 62
7
  6
CONTINUOUS
 10
147.2815589354
 20
97.0620749711
 30
0.0
 11
-0.0500176659
 21
0.0865945414
 31
0.0
 40
0.5775954524
 41
-2.3562050126
 42
-1.1310304851
  0
ELLIPSE
  5
62C
100
AcDbEntity
  8
RACCORDO
100
AcDbEllipse
 62
7
  6
CONTINUOUS
 10
147.2626354537
 20
85.3842589093
 30
0.0
 11
0.2570456323
 21
0.428918115
 31
0.0
 40
0.5894576291
 41
-2.0962802676
 42
-1.8795851234
  0
ELLIPSE
  5
62D
100
AcDbEntity
  8
RACCORDO
100
AcDbEllipse
 62
7
  6
CONTINUOUS
 10
131.8579616722
 20
86.6619503502
 30
0.0
 11
0.3254038621
 21
1.7382577199
 31
0.0
 40
0.2183918352
 41
-2.9565436216
 42
-1.6649999751
  0
ELLIPSE
  5
62E
100
AcDbEntity
  8
RACCORDO
100
AcDbEllipse
 62
7
  6
CONTINUOUS
 10
142.4819507349
 20
80.5277922153
 30
0.0
 11
0.3254038621
 21
1.7382577199
 31
0.0
 40
0.2183918352
 41
-4.0037411729
 42
-3.4801423972
  0
ELLIPSE
  5
62F
100
AcDbEntity
  8
DRAFT
100
AcDbEllipse
 62
7
  6
CONTINUOUS
 10
129.7358491194
 20
104.7659541746
 30
0.0
 11
0.4998610155
 21
-0.0215739
 31
0.0
 40
0.5464172455
 41
-3.1180137663
 42
-2.3326156034
  0
ELLIPSE
  5
630
100
AcDbEntity
  8
DRAFT
100
AcDbEllipse
 62
7
  6
CONTINUOUS
 10
144.6040632877
 20
96.1812336563
 30
0.0
 11
0.4998610155
 21
-0.0215739
 31
0.0
 40
0.5464172455
 41
-2.3326156034
 42
-0.7879992153
  0
ELLIPSE
  5
631
100
AcDbEntity
  8
0
100
AcDbEllipse
 62
7
  6
CONTINUOUS
 10
145.9101847307
 20
117.8525862927
 30
0.0
 11
-0.2500121049
 21
0.4330057129
 31
0.0
 40
0.5777274115
 41
-2.3559002616
 42
-0.7857891675
  0
ELLIPSE
  5
632
100
AcDbEntity
  8
ASSI
100
AcDbEllipse
 62
7
  6
CONTINUOUS
 10
144.5949263618
 20
95.6195666725
 30
0.0
 11
4.1091514676
 21
6.7488408307
 31
0.0
 40
0.5922410672
 41
-1.2951550528
 42
-0.7715562772
  0
ELLIPSE
  5
633
100
AcDbEntity
  8
DRAFT
100
AcDbEllipse
 62
7
  6
CONTINUOUS
 10
146.7673244583
 20
96.1991213019
 30
0.0
 11
0.8524930942
 21
1.5284679067
 31
0.0
 40
0.5671693725
 41
5.0776938706
 42
5.8313048814
  0
ELLIPSE
  5
634
100
AcDbEntity
  8
DRAFT
100
AcDbEllipse
 62
7
  6
CONTINUOUS
 10
143.9976489683
 20
95.9644271539
 30
0.0
 11
2.9715473571
 21
5.3278024176
 31
0.0
 40
0.5671693725
 41
-1.3173759133
 42
-1.2054914366
  0
ELLIPSE
  5
635
100
AcDbEntity
  8
0
100
AcDbEllipse
 62
7
  6
CONTINUOUS
 10
130.9753120886
 20
126.4757945783
 30
0.0
 11
-0.2501834304
 21
0.4333025529
 31
0.0
 40
0.5769361983
 41
-0.7851038024
 42
0.0261609458
  0
ELLIPSE
  5
636
100
AcDbEntity
  8
RACCORDO
100
AcDbEllipse
 62
7
  6
CONTINUOUS
 10
147.0444380762
 20
115.1281673959
 30
0.0
 11
0.2340655899
 21
0.3844276423
 31
0.0
 40
0.5922410672
 41
-3.5998360866
 42
-1.5460578258
  0
ELLIPSE
  5
637
100
AcDbEntity
  8
ASSI
100
AcDbEllipse
 62
7
  6
CONTINUOUS
 10
144.5949263618
 20
95.6195666725
 30
0.0
 11
3.1728891079
 21
5.2111302617
 31
0.0
 40
0.5922410672
 41
-1.2951550528
 42
-1.1832705761
  0
ELLIPSE
  5
638
100
AcDbEntity
  8
ASSI
100
AcDbEllipse
 62
7
  6
CONTINUOUS
 10
147.4876205214
 20
95.7832313825
 30
0.0
 11
0.9102550719
 21
1.4949963866
 31
0.0
 40
0.5922410672
 41
-1.1832705761
 42
0.746880172
  0
ELLIPSE
  5
639
100
AcDbEntity
  8
ASSI
100
AcDbEllipse
 62
7
  6
CONTINUOUS
 10
148.9937821677
 20
95.1721428656
 30
0.0
 11
0.4681311799
 21
0.7688552845
 31
0.0
 40
0.5922410672
 41
-4.4367477064
 42
-1.2951550528
  0
ELLIPSE
  5
63A
100
AcDbEntity
  8
RACCORDO
100
AcDbEllipse
 62
7
  6
CONTINUOUS
 10
146.4089839216
 20
103.6822941698
 30
0.0
 11
0.1040291511
 21
0.1708567299
 31
0.0
 40
0.5922410672
 41
2.3700363764
 42
3.6971092904
  0
ELLIPSE
  5
63B
100
AcDbEntity
  8
RACCORDO
100
AcDbEllipse
 62
7
  6
CONTINUOUS
 10
146.7193210328
 20
114.7185104243
 30
0.0
 11
-0.1499555689
 21
0.1417376379
 31
0.0
 40
0.2871998027
 41
-2.4500079414
 42
-1.1133093541
  0
ELLIPSE
  5
63C
100
AcDbEntity
  8
RACCORDO
100
AcDbEllipse
 62
7
  6
CONTINUOUS
 10
131.795966209
 20
127.5039091431
 30
0.0
 11
-0.1000352924
 21
0.1732550566
 31
0.0
 40
0.5771558487
 41
-0.7852941622
 42
-0.0174472724
  0
ELLIPSE
  5
63D
100
AcDbEntity
  8
RACCORDO
100
AcDbEllipse
 62
7
  6
CONTINUOUS
 10
143.2872474769
 20
120.8689873585
 30
0.0
 11
-0.1000048364
 21
0.1732022883
 31
0.0
 40
0.5775075436
 41
-0.7855988075
 42
0.0000008443
  0
ELLIPSE
  5
63E
100
AcDbEntity
  8
RACCORDO
100
AcDbEllipse
 62
7
  6
CONTINUOUS
 10
135.719569686
 20
125.2384696697
 30
0.0
 11
-0.1000352924
 21
0.1732550566
 31
0.0
 40
0.5771558487
 41
-2.3563950755
 42
-0.7852941622
  0
ELLIPSE
  5
63F
100
AcDbEntity
  8
RACCORDO
100
AcDbEllipse
 62
7
  6
CONTINUOUS
 10
147.210850954
 20
117.3902934519
 30
0.0
 11
-0.1000352924
 21
0.1732550566
 31
0.0
 40
0.5771558487
 41
-3.1241453804
 42
-2.3563950755
  0
ELLIPSE
  5
640
100
AcDbEntity
  8
RACCORDO
100
AcDbEllipse
 62
7
  6
CONTINUOUS
 10
147.210850954
 20
118.6035478852
 30
0.0
 11
-0.1000048364
 21
0.1732022883
 31
0.0
 40
0.5775075436
 41
-2.3560905478
 42
-0.7855988075
  0
ELLIPSE
  5
641
100
AcDbEntity
  8
RACCORDO
100
AcDbEllipse
 62
7
  6
CONTINUOUS
 10
133.0477383047
 20
96.4894344676
 30
0.0
 11
-0.0747980753
 21
0.1304963185
 31
0.0
 40
0.5764466743
 41
-3.1939951889
 42
-2.3533542958
  0
ELLIPSE
  5
642
100
AcDbEntity
  8
RACCORDO
100
AcDbEllipse
 62
7
  6
CONTINUOUS
 10
133.0477383047
 20
97.796923921
 30
0.0
 11
-0.0746819116
 21
0.1302994005
 31
0.0
 40
0.57820294
 41
-2.3518112446
 42
-0.7825359958
  0
ELLIPSE
  5
643
100
AcDbEntity
  8
DRAFT
100
AcDbEllipse
 62
7
  6
CONTINUOUS
 10
143.7018804687
 20
96.1352001786
 30
0.0
 11
3.2478032004
 21
5.0501468509
 31
0.0
 40
0.6067084637
 41
5.0033060965
 42
5.2387059167
  0
ELLIPSE
  5
644
100
AcDbEntity
  8
RACCORDO
100
AcDbEllipse
 62
7
  6
CONTINUOUS
 10
148.2529972336
 20
91.9565919681
 30
0.0
 11
-0.1000048364
 21
0.1732022883
 31
0.0
 40
0.5775075436
 41
-3.1415918093
 42
-2.3560905478
  0
ELLIPSE
  5
645
100
AcDbEntity
  8
RACCORDO
100
AcDbEllipse
 62
7
  6
CONTINUOUS
 10
149.7095301407
 20
92.8305104882
 30
0.0
 11
0.1027653899
 21
0.1715981983
 31
0.0
 40
0.588385554
 41
-2.3461440863
 42
-0.7765657347
  0
ELLIPSE
  5
646
100
AcDbEntity
  8
RACCORDO
100
AcDbEllipse
 62
7
  6
CONTINUOUS
 10
147.599781226
 20
85.5162238929
 30
0.0
 11
0.2706129798
 21
-0.206110056
 31
0.0
 40
0.3991634155
 41
5.7745275104
 42
6.5783255269
  0
ELLIPSE
  5
647
100
AcDbEntity
  8
RACCORDO
100
AcDbEllipse
 62
7
  6
CONTINUOUS
 10
151.1016473312
 20
87.8877028596
 30
0.0
 11
0.1999928968
 21
-0.0029716584
 31
0.0
 40
0.5672251703
 41
-0.6897036039
 42
0.0084283335
  0
ELLIPSE
  5
648
100
AcDbEntity
  8
RACCORDO
100
AcDbEllipse
 62
7
  6
CONTINUOUS
 10
152.4935104347
 20
124.5184921352
 30
0.0
 11
0.0528833778
 21
0.1988141098
 31
0.0
 40
0.4377348049
 41
0.3909671288
 42
0.6503781016
  0
ELLIPSE
  5
649
100
AcDbEntity
  8
RACCORDO
100
AcDbEllipse
 62
7
  6
CONTINUOUS
 10
147.599781226
 20
89.6801725561
 30
0.0
 11
0.2708035788
 21
-0.2011315484
 31
0.0
 40
0.4059136155
 41
6.5759999252
 42
7.4417664316
  0
ELLIPSE
  5
64A
100
AcDbEntity
  8
ASSI
100
AcDbEllipse
 62
7
  6
CONTINUOUS
 10
145.8994864956
 20
124.566084659
 30
0.0
 11
0.3652263551
 21
0.1644105368
 31
0.0
 40
0.3407407308
 41
1.8589059539
 42
3.382251992
  0
ELLIPSE
  5
64B
100
AcDbEntity
  8
ASSI
100
AcDbEllipse
 62
7
  6
CONTINUOUS
 10
147.4084715799
 20
120.732349251
 30
0.0
 11
0.999867518
 21
-0.0292282715
 31
0.0
 40
0.5568983954
 41
5.6013315027
 42
7.0848613669
  0
ELLIPSE
  5
64C
100
AcDbEntity
  8
ASSI
100
AcDbEllipse
 62
7
  6
CONTINUOUS
 10
147.4438424874
 20
120.2491653487
 30
0.0
 11
-0.100004872
 21
0.1732022678
 31
0.0
 40
0.5789151826
 41
-2.3548735497
 42
-0.7868162787
  0
ELLIPSE
  5
64D
100
AcDbEntity
  8
ASSI
100
AcDbEllipse
 62
7
  6
CONTINUOUS
 10
151.4164179238
 20
124.2015891282
 30
0.0
 11
0.5013109713
 21
-0.0090323087
 31
0.0
 40
0.5663187271
 41
-0.7565983455
 42
-0.4971873728
  0
ELLIPSE
  5
64E
100
AcDbEntity
  8
DRAFT
100
AcDbEllipse
 62
7
  6
CONTINUOUS
 10
133.0099306035
 20
97.0016990498
 30
0.0
 11
0.3079969422
 21
0.51496962
 31
0.0
 40
0.5873179545
 41
4.2759126724
 42
6.7378315071
  0
ELLIPSE
  5
64F
100
AcDbEntity
  8
RACCORDO
100
AcDbEllipse
 62
7
  6
CONTINUOUS
 10
147.6704919042
 20
85.5570558984
 30
0.0
 11
-0.149984401
 21
0.2598430098
 31
0.0
 40
0.5773316645
 41
-3.150319777
 42
-2.3560905026
  0
ELLIPSE
  5
650
100
AcDbEntity
  8
RACCORDO
100
AcDbEllipse
 62
7
  6
CONTINUOUS
 10
147.6704919042
 20
89.5576856319
 30
0.0
 11
-0.149984401
 21
0.2598430098
 31
0.0
 40
0.5773316645
 41
-2.3560905026
 42
-0.7852941758
  0
ENDSEC
  0
SECTION
  2
OBJECTS
  0
DICTIONARY
  5
C
100
AcDbDictionary
280
0
281
1
  3
ACAD_GROUP
350
D
  3
ACAD_MLINESTYLE
350
17
  3
ACAD_LAYOUT
350
1A
  3
ACAD_PLOTSETTINGS
350
19
  3
ACAD_PLOTSTYLENAME
350
E
  0
DICTIONARY
  5
D
102
{ACAD_REACTORS
330
C
102
}
100
AcDbDictionary
280
0
281
1
  0
ACDBDICTIONARYWDFLT
  5
E
102
{ACAD_REACTORS
330
C
102
}
100
AcDbDictionary
281
1
  3
Normal
350
F
100
AcDbDictionaryWithDefault
340
F
  0
DICTIONARY
  5
17
102
{ACAD_REACTORS
330
C
102
}
100
AcDbDictionary
280
0
281
1
  3
Standard
350
18
  0
DICTIONARY
  5
19
102
{ACAD_REACTORS
330
C
102
}
100
AcDbDictionary
281
1
  0
DICTIONARY
  5
1A
102
{ACAD_REACTORS
330
C
102
}
100
AcDbDictionary
281
1
  3
Model
350
651
  3
Layout1
350
652
  0
ACDBPLACEHOLDER
  5
F
102
{ACAD_REACTORS
330
E
102
}
  0
MLINESTYLE
  5
18
102
{ACAD_REACTORS
330
17
102
}
100
AcDbMlineStyle
  2
STANDARD
 70
0
  3

 62
256
 51
90.0
 52
90.0
 71
2
 49
0.5
 62
256
  6
BYLAYER
 49
-0.5
 62
256
  6
BYLAYER
  0
LAYOUT
  5
651
102
{ACAD_REACTORS
330
1A
102
}
100
AcDbPlotSettings
  1

  2
none_device
  4
ISO_A4_(297.00_x_210.00_MM)
  6

 40
0.0
 41
0.0
 42
0.0
 43
0.0
 44
297.0
 45
210.0
 46
0.0
 47
0.0
 48
0.0
 49
0.0
140
0.0
141
0.0
142
1.0
143
1.0
 70
1024
 72
1
 73
0
 74
0
  7

 75
0
147
1.0
148
0.0
149
0.0
100
AcDbLayout
  1
Model
 70
0
 71
0
 10
0.0
 20
0.0
 11
297.0
 21
210.0
 12
0.0
 22
0.0
 32
0.0
 14
0.0
 24
0.0
 34
0.0
 15
0.0
 25
0.0
 35
0.0
146
0.0
 13
0.0
 23
0.0
 33
0.0
 16
1.0
 26
0.0
 36
0.0
 17
0.0
 27
1.0
 37
0.0
 76
0
330
212
345
0
346
0
  0
LAYOUT
  5
652
102
{ACAD_REACTORS
330
1A
102
}
100
AcDbPlotSettings
  1

  2
none_device
  4
ISO_A4_(297.00_x_210.00_MM)
  6

 40
0.0
 41
0.0
 42
0.0
 43
0.0
 44
297.0
 45
210.0
 46
0.0
 47
0.0
 48
0.0
 49
0.0
140
0.0
141
0.0
142
1.0
143
1.0
 70
0
 72
1
 73
0
 74
0
  7

 75
0
147
1.0
148
0.0
149
0.0
100
AcDbLayout
  1
Layout1
 70
0
 71
1
 10
0.0
 20
0.0
 11
297.0
 21
210.0
 12
0.0
 22
0.0
 32
0.0
 14
0.0
 24
0.0
 34
0.0
 15
0.0
 25
0.0
 35
0.0
146
0.0
 13
0.0
 23
0.0
 33
0.0
 16
1.0
 26
0.0
 36
0.0
 17
0.0
 27
1.0
 37
0.0
 76
0
330
213
345
0
346
0
  0
ENDSEC
  0
EOF
