  0
SECTION
  2
HEADER
  9
$ACADVER
  1
AC1024
  9
$DWGCODEPAGE
  3
ANSI_1252
  9
$EXTMAX
 10
297.0
 20
210.0
 30
0.0
  9
$EXTMIN
 10
0.0
 20
0.0
 30
0.0
  9
$LIMMIN
 10
0.0
 20
0.0
  9
$LIMMAX
 10
297.0
 20
210.0
  9
$VIEWCTR
 10
148.5
 20
105.0
  9
$VIEWSIZE
 40
210.0
  9
$CLAYER
  8
0
  9
$LTSCALE
 40
16.335
  9
$CELTYPE
  6
BYLAYER
  9
$DIMSCALE
 40
1.0
  9
$DIMASZ
 40
3.0
  9
$DIMEXO
 40
0.5
  9
$DIMDLI
 40
11.286
  9
$DIMEXE
 40
1.5
  9
$DIMCEN
 40
2.673
  9
$DIMLFAC
 40
1.0
  9
$DIMBLK
  1
_FILLED
  9
$DIMALT
 70
0
  9
$DIMALTF
 40
0.0393700787
  9
$DIMTXT
 40
3.0
  9
$DIMTOL
 70
1
  9
$DIMLIM
 70
0
  9
$DIMTFAC
 40
1.0
  9
$DIMTP
 40
0.01
  9
$DIMTM
 40
0.01
  9
$DIMGAP
 40
0.625
  9
$DIMDSEP
 70
44
  9
$AUNITS
 70
0
  9
$PDMODE
 70
3
  9
$PDSIZE
 40
3.0
  9
$HANDSEED
  5
671
  9
$TILEMODE
 70
1
  9
$MEASUREMENT
 70
1
  9
$INSUNITS
 70
4
  0
ENDSEC
  0
SECTION
  2
CLASSES
  0
CLASS
  1
ACDBDICTIONARYWDFLT
  2
AcDbDictionaryWithDefault
  3
AutoCAD 2000
 90
0
 91
1
280
0
281
0
  0
CLASS
  1
ACDBPLACEHOLDER
  2
AcDbPlaceHolder
  3
AutoCAD 2000
 90
0
 91
1
280
0
281
0
  0
CLASS
  1
LAYOUT
  2
AcDbLayout
  3
AutoCAD 2000
 90
0
 91
0
280
0
281
0
  0
ENDSEC
  0
SECTION
  2
TABLES
  0
TABLE
  2
VPORT
  5
8
100
AcDbSymbolTable
 70
2
  0
VPORT
  5
1F4
100
AcDbSymbolTableRecord
100
AcDbViewportTableRecord
  2
*ACTIVE
 70
0
 10
0.0
 20
0.0
 11
1.0
 21
1.0
 12
148.5
 22
105.0
 13
0.0
 23
0.0
 14
1.0
 24
1.0
 15
0.0
 25
0.0
 16
0.0
 26
0.0
 36
1.0
 17
0.0
 27
0.0
 37
0.0
 40
210.0
 41
1.4142857143
 42
50.0
 43
0.0
 44
0.0
 50
0.0
 51
0.0
 71
0
 72
100
 73
1
 74
1
 75
0
 76
0
 77
0
 78
0
  0
ENDTAB
  0
TABLE
  2
LTYPE
  5
5
100
AcDbSymbolTable
 70
6
  0
LTYPE
  5
14
100
AcDbSymbolTableRecord
100
AcDbLinetypeTableRecord
  2
BYBLOCK
 70
0
  3

 72
65
 73
0
 40
0.0
  0
LTYPE
  5
15
100
AcDbSymbolTableRecord
100
AcDbLinetypeTableRecord
  2
BYLAYER
 70
0
  3

 72
65
 73
0
 40
0.0
  0
LTYPE
  5
16
100
AcDbSymbolTableRecord
100
AcDbLinetypeTableRecord
  2
CONTINUOUS
 70
64
  3
Solid line
 72
65
 73
0
 40
0.0
  0
LTYPE
  5
1F5
100
AcDbSymbolTableRecord
100
AcDbLinetypeTableRecord
  2
CENTER
 70
64
  3
____ _ ____ _ ____ _ ____ _ ____ _ ____ _ ____
 72
65
 73
4
 40
0.6
 49
0.375
 74
0
 49
-0.075
 74
0
 49
0.075
 74
0
 49
-0.075
 74
0
  0
LTYPE
  5
1F6
100
AcDbSymbolTableRecord
100
AcDbLinetypeTableRecord
  2
HIDDEN
 70
64
  3
- - - - - - - - - - - - - - - - - - - -
 72
65
 73
2
 40
0.2
 49
0.1
 74
0
 49
-0.1
 74
0
  0
LTYPE
  5
1F7
100
AcDbSymbolTableRecord
100
AcDbLinetypeTableRecord
  2
PHANTOM
 70
64
  3
_____ _ _ _____ _ _ _____ _ _ _____
 72
65
 73
6
 40
0.8
 49
0.45
 74
0
 49
-0.05
 74
0
 49
0.1
 74
0
 49
-0.05
 74
0
 49
0.1
 74
0
 49
-0.05
 74
0
  0
LTYPE
  5
1F8
100
AcDbSymbolTableRecord
100
AcDbLinetypeTableRecord
  2
DOT
 70
64
  3
. . . . . . . . . . . . . . . . . . . .
 72
65
 73
2
 40
0.2
 49
0.1
 74
0
 49
-0.1
 74
0
  0
LTYPE
  5
1F9
100
AcDbSymbolTableRecord
100
AcDbLinetypeTableRecord
  2
DASHED
 70
64
  3
- - - - - - - - - - - - - - - - - - - -
 72
65
 73
2
 40
0.2
 49
0.1
 74
0
 49
-0.1
 74
0
  0
ENDTAB
  0
TABLE
  2
LAYER
  5
2
100
AcDbSymbolTable
 70
36
  0
LAYER
  5
10
100
AcDbSymbolTableRecord
100
AcDbLayerTableRecord
  2
0
 70
0
 62
7
  6
CONTINUOUS
370
-3
390
F
  0
LAYER
  5
1FA
100
AcDbSymbolTableRecord
100
AcDbLayerTableRecord
  2
DEFAULT_1
 70
0
 62
7
  6
CENTER
370
-3
390
F
  0
LAYER
  5
1FB
100
AcDbSymbolTableRecord
100
AcDbLayerTableRecord
  2
DEFAULT_2
 70
0
 62
7
  6
HIDDEN
370
-3
390
F
  0
LAYER
  5
1FC
100
AcDbSymbolTableRecord
100
AcDbLayerTableRecord
  2
DEFAULT_3
 70
0
 62
7
  6
PHANTOM
370
-3
390
F
  0
LAYER
  5
1FD
100
AcDbSymbolTableRecord
100
AcDbLayerTableRecord
  2
ASSI
 70
0
 62
7
  6
CONTINUOUS
370
-3
390
F
  0
LAYER
  5
1FE
100
AcDbSymbolTableRecord
100
AcDbLayerTableRecord
  2
COORDINATE
 70
0
 62
7
  6
CONTINUOUS
370
-3
390
F
  0
LAYER
  5
1FF
100
AcDbSymbolTableRecord
100
AcDbLayerTableRecord
  2
COORD_ORIGINE
 70
0
 62
7
  6
CONTINUOUS
370
-3
390
F
  0
LAYER
  5
200
100
AcDbSymbolTableRecord
100
AcDbLayerTableRecord
  2
COPY_PUBLISH
 70
0
 62
7
  6
CONTINUOUS
370
-3
390
F
  0
LAYER
  5
201
100
AcDbSymbolTableRecord
100
AcDbLayerTableRecord
  2
COSMETICI
 70
0
 62
7
  6
CONTINUOUS
370
-3
390
F
  0
LAYER
  5
202
100
AcDbSymbolTableRecord
100
AcDbLayerTableRecord
  2
CURVE
 70
0
 62
7
  6
CONTINUOUS
370
-3
390
F
  0
LAYER
  5
203
100
AcDbSymbolTableRecord
100
AcDbLayerTableRecord
  2
DRAFT
 70
0
 62
7
  6
CONTINUOUS
370
-3
390
F
  0
LAYER
  5
204
100
AcDbSymbolTableRecord
100
AcDbLayerTableRecord
  2
IMPORT_IGES
 70
0
 62
7
  6
CONTINUOUS
370
-3
390
F
  0
LAYER
  5
205
100
AcDbSymbolTableRecord
100
AcDbLayerTableRecord
  2
INTF_1
 70
0
 62
7
  6
CONTINUOUS
370
-3
390
F
  0
LAYER
  5
206
100
AcDbSymbolTableRecord
100
AcDbLayerTableRecord
  2
INTF_8
 70
0
 62
7
  6
CONTINUOUS
370
-3
390
F
  0
LAYER
  5
207
100
AcDbSymbolTableRecord
100
AcDbLayerTableRecord
  2
NOTE
 70
0
 62
7
  6
CONTINUOUS
370
-3
390
F
  0
LAYER
  5
208
100
AcDbSymbolTableRecord
100
AcDbLayerTableRecord
  2
PIANI
 70
0
 62
7
  6
CONTINUOUS
370
-3
390
F
  0
LAYER
  5
209
100
AcDbSymbolTableRecord
100
AcDbLayerTableRecord
  2
PIANI_ORIGINE
 70
0
 62
7
  6
CONTINUOUS
370
-3
390
F
  0
LAYER
  5
20A
100
AcDbSymbolTableRecord
100
AcDbLayerTableRecord
  2
PUNTI
 70
0
 62
7
  6
CONTINUOUS
370
-3
390
F
  0
LAYER
  5
20B
100
AcDbSymbolTableRecord
100
AcDbLayerTableRecord
  2
RACCORDO
 70
0
 62
7
  6
CONTINUOUS
370
-3
390
F
  0
LAYER
  5
20C
100
AcDbSymbolTableRecord
100
AcDbLayerTableRecord
  2
SIMBOLI
 70
0
 62
7
  6
CONTINUOUS
370
-3
390
F
  0
LAYER
  5
20D
100
AcDbSymbolTableRecord
100
AcDbLayerTableRecord
  2
SMUSSO
 70
0
 62
7
  6
CONTINUOUS
370
-3
390
F
  0
LAYER
  5
20E
100
AcDbSymbolTableRecord
100
AcDbLayerTableRecord
  2
SUPERFICI
 70
0
 62
7
  6
CONTINUOUS
370
-3
390
F
  0
LAYER
  5
20F
100
AcDbSymbolTableRecord
100
AcDbLayerTableRecord
  2
TRASH
 70
0
 62
7
  6
CONTINUOUS
370
-3
390
F
  0
ENDTAB
  0
TABLE
  2
STYLE
  5
3
100
AcDbSymbolTable
 70
1
  0
STYLE
  5
11
100
AcDbSymbolTableRecord
100
AcDbTextStyleTableRecord
  2
STANDARD
 70
0
 40
0.0
 41
0.8
 50
0.0
 71
0
 42
0.2
  3
txt
  4

  0
STYLE
  5
210
100
AcDbSymbolTableRecord
100
AcDbTextStyleTableRecord
  2
TEXTSTYLE_1
 70
0
 40
0.0
 41
0.8
 50
0.0
 71
0
 42
0.2
  3
gdt
  4

  0
ENDTAB
  0
TABLE
  2
VIEW
  5
6
100
AcDbSymbolTable
 70
0
  0
ENDTAB
  0
TABLE
  2
UCS
  5
7
100
AcDbSymbolTable
 70
0
  0
ENDTAB
  0
TABLE
  2
APPID
  5
9
100
AcDbSymbolTable
 70
1
  0
APPID
  5
211
100
AcDbSymbolTableRecord
100
AcDbRegAppTableRecord
  2
ACAD
 70
0
  0
ENDTAB
  0
TABLE
  2
BLOCK_RECORD
  5
1
100
AcDbSymbolTable
 70
0
  0
BLOCK_RECORD
  5
212
100
AcDbSymbolTableRecord
100
AcDbBlockTableRecord
  2
*Model_Space
  0
BLOCK_RECORD
  5
213
100
AcDbSymbolTableRecord
100
AcDbBlockTableRecord
  2
*Paper_Space
  0
BLOCK_RECORD
  5
214
100
AcDbSymbolTableRecord
100
AcDbBlockTableRecord
  2
_FILLED
  0
ENDTAB
  0
TABLE
  2
DIMSTYLE
  5
A
100
AcDbSymbolTable
 70
1
100
AcDbDimStyleTable
 71
0
  0
DIMSTYLE
105
215
100
AcDbSymbolTableRecord
100
AcDbDimStyleTableRecord
  2
STANDARD
 70
0
  3

  4

 40
1.0
 41
3.0
 42
0.5
 43
0.38
 44
1.5
 45
0.0
 46
0.0
 47
0.01
 48
0.01
140
3.0
141
0.09
142
0.0
143
25.4
144
1.0
145
0.0
146
1.0
147
0.625
 71
1
 72
0
 73
0
 74
0
 75
0
 76
0
 77
1
 78
8
 79
2
170
0
171
1
172
0
173
0
174
0
175
0
176
0
177
0
178
0
270
2
179
2
271
2
272
2
273
2
274
2
275
0
280
0
281
0
282
0
283
1
284
8
285
0
286
0
287
3
288
0
340
11
278
44
341
214
342
214
343
214
344
214
  0
ENDTAB
  0
ENDSEC
  0
SECTION
  2
BLOCKS
  0
BLOCK
  5
20
100
AcDbEntity
  8
0
100
AcDbBlockBegin
  2
*Model_Space
 70
0
 10
0.0
 20
0.0
 30
0.0
  3
*Model_Space
  1

  0
ENDBLK
  5
21
100
AcDbEntity
  8
0
100
AcDbBlockEnd
  0
BLOCK
  5
1C
100
AcDbEntity
  8
0
100
AcDbBlockBegin
  2
*Paper_Space
 70
0
 10
0.0
 20
0.0
 30
0.0
  3
*Paper_Space
  1

  0
ENDBLK
  5
1D
100
AcDbEntity
  8
0
100
AcDbBlockEnd
  0
BLOCK
  5
216
100
AcDbEntity
  8
0
100
AcDbBlockBegin
  2
_FILLED
 70
64
 10
0.0
 20
0.0
  3
_FILLED
  1

  0
SOLID
  5
217
100
AcDbEntity
  8
0
  6
BYBLOCK
 62
0
100
AcDbTrace
 10
0.0
 20
0.0
 11
-1.0
 21
0.3166666667
 12
-1.0
 22
-0.3166666667
 13
-1.0
 23
-0.3166666667
  0
ENDBLK
  5
218
100
AcDbEntity
  8
0
  6
BYBLOCK
 62
0
100
AcDbBlockEnd
  0
ENDSEC
  0
SECTION
  2
ENTITIES
  0
LWPOLYLINE
  5
219
100
AcDbEntity
  8
RACCORDO
100
AcDbPolyline
 62
250
  6
CONTINUOUS
 90
13
 70
0
 10
122.3145339236
 20
123.4006683652
 10
122.3005674802
 20
123.3917634853
 10
122.2868167001
 20
123.380851587
 10
122.2735229506
 20
123.3681230629
 10
122.2609206392
 20
123.3537994894
 10
122.2492301777
 20
123.3381314286
 10
122.2386541123
 20
123.3213940516
 10
122.2293784493
 20
123.3038795457
 10
122.2215664481
 20
123.2858936918
 10
122.2153528191
 20
123.2677522004
 10
122.2108462314
 20
123.2497724114
 10
122.2081273913
 20
123.2322677542
 10
122.2072446993
 20
123.2155439397
  0
LWPOLYLINE
  5
21A
100
AcDbEntity
  8
RACCORDO
100
AcDbPolyline
 62
7
  6
CONTINUOUS
 90
10
 70
0
 10
122.2276213174
 20
123.4176479194
 10
122.2121060143
 20
123.4080439845
 10
122.1967577513
 20
123.3956062456
 10
122.1831770638
 20
123.3812593331
 10
122.1715995505
 20
123.3652521131
 10
122.1622260488
 20
123.3478622601
 10
122.1552191119
 20
123.3293913091
 10
122.1507003305
 20
123.3101597358
 10
122.148748093
 20
123.2905014636
 10
122.1486659966
 20
123.2855373532
  0
LWPOLYLINE
  5
21B
100
AcDbEntity
  8
0
100
AcDbPolyline
 62
250
  6
CONTINUOUS
 90
9
 70
0
 10
120.9544592046
 20
122.3591188703
 10
120.9749611519
 20
122.3702918533
 10
121.0039585773
 20
122.3805703109
 10
121.0354178574
 20
122.3859898158
 10
121.068953093
 20
122.3864725541
 10
121.1040548957
 20
122.382040014
 10
121.1402739031
 20
122.372812848
 10
121.1772500519
 20
122.3589441362
 10
121.2145782059
 20
122.3406369092
  0
LINE
  5
21C
100
AcDbEntity
  8
RACCORDO
100
AcDbLine
 62
7
  6
CONTINUOUS
 10
122.2276229398
 20
123.4176488397
 11
123.1856747178
 21
123.9328580821
  0
LINE
  5
21D
100
AcDbEntity
  8
RACCORDO
100
AcDbLine
 62
250
  6
CONTINUOUS
 10
122.3145339236
 20
123.4006683652
 11
123.2839071627
 21
123.921965923
  0
LWPOLYLINE
  5
21E
100
AcDbEntity
  8
RACCORDO
100
AcDbPolyline
 62
250
  6
CONTINUOUS
 90
22
 70
0
 10
122.2276226757
 20
123.4176486976
 10
122.2284011829
 20
123.418055696
 10
122.2313005666
 20
123.4193804993
 10
122.2343738749
 20
123.4204943447
 10
122.2376234851
 20
123.4213926887
 10
122.2410402186
 20
123.422067685
 10
122.2446192816
 20
123.4225160974
 10
122.248361397
 20
123.4227344962
 10
122.2522560597
 20
123.4227181446
 10
122.2562792045
 20
123.4224676899
 10
122.2604159196
 20
123.4219860825
 10
122.2646667525
 20
123.4212744128
 10
122.2690294059
 20
123.4203347096
 10
122.2734684266
 20
123.4191756029
 10
122.278004742
 20
123.4177953786
 10
122.2827236435
 20
123.4161665103
 10
122.2876578273
 20
123.4142604928
 10
122.2927649054
 20
123.4120795948
 10
122.298018679
 20
123.409633736
 10
122.3034048706
 20
123.4069250411
 10
122.3089217784
 20
123.4039426803
 10
126.2381374006
 20
121.1352288918
  0
LINE
  5
21F
100
AcDbEntity
  8
0
100
AcDbLine
 62
7
  6
CONTINUOUS
 10
120.9544592046
 20
122.3591188703
 11
122.2066591738
 21
123.1598862336
  0
LINE
  5
220
100
AcDbEntity
  8
0
100
AcDbLine
 62
250
  6
CONTINUOUS
 10
121.2145782059
 20
122.3406369092
 11
122.4630537746
 21
123.1390225617
  0
LWPOLYLINE
  5
221
100
AcDbEntity
  8
ASSI
100
AcDbPolyline
 62
250
  6
CONTINUOUS
 90
3
 70
0
 10
127.8937043831
 20
121.9213495882
 10
127.8821991957
 20
121.9172952209
 10
127.8783464739
 20
121.9153809555
  0
LWPOLYLINE
  5
222
100
AcDbEntity
  8
RACCORDO
100
AcDbPolyline
 62
250
  6
CONTINUOUS
 90
10
 70
0
 10
126.2381374006
 20
121.1352288918
 10
126.2241260071
 20
121.126349989
 10
126.2103273239
 20
121.1154657635
 10
126.1969827186
 20
121.102766604
 10
126.1843256157
 20
121.0884746455
 10
126.1725774142
 20
121.0728398846
 10
126.1619436141
 20
121.0561358065
 10
126.1526102223
 20
121.0386546005
 10
126.1447404981
 20
121.0207020491
 10
126.1425944309
 20
121.0145019022
  0
LINE
  5
223
100
AcDbEntity
  8
RACCORDO
100
AcDbLine
 62
250
  6
CONTINUOUS
 10
127.8160561809
 20
120.0482660612
 11
129.5027436795
 21
121.0221416276
  0
LINE
  5
224
100
AcDbEntity
  8
RACCORDO
100
AcDbLine
 62
250
  6
CONTINUOUS
 10
128.0988419077
 20
119.8849891266
 11
129.6441434965
 21
120.7772299604
  0
LINE
  5
225
100
AcDbEntity
  8
RACCORDO
100
AcDbLine
 62
250
  6
CONTINUOUS
 10
131.5238066368
 20
121.7395977114
 11
129.7002755365
 21
120.732141613
  0
LINE
  5
226
100
AcDbEntity
  8
RACCORDO
100
AcDbLine
 62
250
  6
CONTINUOUS
 10
132.1841494903
 20
121.6507010745
 11
129.4296743901
 21
120.129235164
  0
LINE
  5
227
100
AcDbEntity
  8
RACCORDO
100
AcDbLine
 62
250
  6
CONTINUOUS
 10
132.3526583796
 20
122.1953592853
 11
131.5238066368
 21
121.7395977114
  0
LINE
  5
228
100
AcDbEntity
  8
RACCORDO
100
AcDbLine
 62
250
  6
CONTINUOUS
 10
133.0044585157
 20
122.1018075195
 11
132.1840902859
 21
121.6507352584
  0
LINE
  5
229
100
AcDbEntity
  8
RACCORDO
100
AcDbLine
 62
7
  6
CONTINUOUS
 10
132.2924616909
 20
122.1687905536
 11
129.7604082334
 21
120.7816855544
  0
LINE
  5
22A
100
AcDbEntity
  8
RACCORDO
100
AcDbLine
 62
250
  6
CONTINUOUS
 10
132.2975445698
 20
122.171290359
 11
132.2924616909
 21
122.1687905536
  0
LINE
  5
22B
100
AcDbEntity
  8
RACCORDO
100
AcDbLine
 62
250
  6
CONTINUOUS
 10
129.7604082334
 20
120.7816855544
 11
129.7593872191
 21
120.7808669843
  0
LINE
  5
22C
100
AcDbEntity
  8
RACCORDO
100
AcDbLine
 62
250
  6
CONTINUOUS
 10
126.2381374006
 20
121.1352288918
 11
127.2075106397
 21
121.6565264497
  0
LINE
  5
22D
100
AcDbEntity
  8
ASSI
100
AcDbLine
 62
7
  6
CONTINUOUS
 10
127.8783464739
 20
121.9153809555
 11
127.2788374561
 21
121.5929844066
  0
LINE
  5
22E
100
AcDbEntity
  8
RACCORDO
100
AcDbLine
 62
250
  6
CONTINUOUS
 10
127.9755398137
 20
121.9039299993
 11
127.3101260943
 21
121.5460920346
  0
LINE
  5
22F
100
AcDbEntity
  8
RACCORDO
100
AcDbLine
 62
250
  6
CONTINUOUS
 10
126.375856544
 20
120.8881423027
 11
127.34899662
 21
121.4114655435
  0
LWPOLYLINE
  5
230
100
AcDbEntity
  8
ASSI
100
AcDbPolyline
 62
250
  6
CONTINUOUS
 90
8
 70
0
 10
132.2024700261
 20
121.0460995893
 10
132.2060017406
 20
121.0479278741
 10
132.2193482303
 20
121.052632423
 10
132.2339237908
 20
121.0545706994
 10
132.2495059221
 20
121.0537130614
 10
132.265856765
 20
121.0500725602
 10
132.2827267384
 20
121.043704726
 10
132.2998583207
 20
121.0347067245
  0
LWPOLYLINE
  5
231
100
AcDbEntity
  8
ASSI
100
AcDbPolyline
 62
250
  6
CONTINUOUS
 90
8
 70
0
 10
132.061376326
 20
120.9674392137
 10
132.0648441195
 20
120.9692240159
 10
132.0782309617
 20
120.9739133024
 10
132.092851864
 20
120.9758242062
 10
132.1084499476
 20
120.9749310115
 10
132.1247703537
 20
120.9712669623
 10
132.1415718448
 20
120.9649039581
 10
132.1585978807
 20
120.9559537149
  0
LWPOLYLINE
  5
232
100
AcDbEntity
  8
ASSI
100
AcDbPolyline
 62
250
  6
CONTINUOUS
 90
9
 70
0
 10
129.5027436795
 20
121.0221416276
 10
129.5173470619
 20
121.0294041938
 10
129.5317675329
 20
121.0348243774
 10
129.5458505889
 20
121.0383441069
 10
129.559445331
 20
121.0399256721
 10
129.5724061144
 20
121.0395521327
 10
129.5845941032
 20
121.0372274847
 10
129.5958787189
 20
121.0329766168
 10
129.6002803685
 20
121.0306496587
  0
LINE
  5
233
100
AcDbEntity
  8
RACCORDO
100
AcDbLine
 62
7
  6
CONTINUOUS
 10
132.3054046313
 20
122.1751684947
 11
132.292500371
 21
122.1688100071
  0
LINE
  5
234
100
AcDbEntity
  8
RACCORDO
100
AcDbLine
 62
250
  6
CONTINUOUS
 10
132.3610429681
 20
122.199466326
 11
132.3526583796
 21
122.1953592853
  0
LINE
  5
235
100
AcDbEntity
  8
RACCORDO
100
AcDbLine
 62
250
  6
CONTINUOUS
 10
126.375856544
 20
120.8881423027
 11
126.3680554422
 21
120.88432354
  0
LWPOLYLINE
  5
236
100
AcDbEntity
  8
RACCORDO
100
AcDbPolyline
 62
7
  6
CONTINUOUS
 90
27
 70
0
 10
134.1931554476
 20
121.5960211628
 10
134.1928655228
 20
121.5958813026
 10
134.1912368217
 20
121.5951549374
 10
134.1877976979
 20
121.5938358852
 10
134.1823018473
 20
121.5920544329
 10
134.174858895
 20
121.5900522112
 10
134.1657656106
 20
121.5880564888
 10
134.1552671901
 20
121.5862280887
 10
134.1435280196
 20
121.5846732741
 10
134.1308426194
 20
121.5834900102
 10
134.1174475225
 20
121.5827385332
 10
134.1034313335
 20
121.5824522299
 10
134.0888169059
 20
121.5826646574
 10
134.0736682184
 20
121.5834129222
 10
134.0581509119
 20
121.5847233104
 10
134.0424147101
 20
121.5866109804
 10
134.0265201752
 20
121.5890947163
 10
134.0106219437
 20
121.5921738455
 10
133.9950024616
 20
121.5958019056
 10
133.9797521899
 20
121.5999514582
 10
133.9649546311
 20
121.6045890951
 10
133.9508386597
 20
121.6096164314
 10
133.937491416
 20
121.6149541985
 10
133.9249155062
 20
121.6205444573
 10
133.9131351063
 20
121.6263098647
 10
133.9022263079
 20
121.6321271126
 10
133.8965560475
 20
121.6353398149
  0
LWPOLYLINE
  5
237
100
AcDbEntity
  8
RACCORDO
100
AcDbPolyline
 62
250
  6
CONTINUOUS
 90
7
 70
0
 10
135.4696213736
 20
122.2028189065
 10
135.483295212
 20
122.2094136345
 10
135.4967092803
 20
122.2138311886
 10
135.5096391254
 20
122.2159976499
 10
135.5218683958
 20
122.2158767661
 10
135.5331924632
 20
122.2134705585
 10
135.54274147
 20
122.2092186329
  0
LINE
  5
238
100
AcDbEntity
  8
RACCORDO
100
AcDbLine
 62
250
  6
CONTINUOUS
 10
129.7002755365
 20
120.7534618484
 11
129.7593872191
 21
120.7808669843
  0
LINE
  5
239
100
AcDbEntity
  8
RACCORDO
100
AcDbLine
 62
7
  6
CONTINUOUS
 10
129.7606713711
 20
120.7818160492
 11
129.7002755365
 21
120.7545678258
  0
LINE
  5
23A
100
AcDbEntity
  8
ASSI
100
AcDbLine
 62
7
  6
CONTINUOUS
 10
131.6360947231
 20
120.2334587125
 11
131.6839442204
 21
120.2548669493
  0
LINE
  5
23B
100
AcDbEntity
  8
RACCORDO
100
AcDbLine
 62
7
  6
CONTINUOUS
 10
132.3486527686
 20
122.1940913622
 11
132.3053569892
 21
122.1751475251
  0
LINE
  5
23C
100
AcDbEntity
  8
RACCORDO
100
AcDbLine
 62
7
  6
CONTINUOUS
 10
132.3610429681
 20
122.199466326
 11
132.3486527686
 21
122.1940913622
  0
LINE
  5
23D
100
AcDbEntity
  8
RACCORDO
100
AcDbLine
 62
250
  6
CONTINUOUS
 10
132.2975445698
 20
122.171290359
 11
132.3526583796
 21
122.1953592853
  0
LWPOLYLINE
  5
23E
100
AcDbEntity
  8
ASSI
100
AcDbPolyline
 62
250
  6
CONTINUOUS
 90
4
 70
0
 10
134.676311321
 20
121.2536284065
 10
134.729477932
 20
121.2760010316
 10
134.7842597008
 20
121.3019966869
 10
134.8405275658
 20
121.3317429947
  0
LINE
  5
23F
100
AcDbEntity
  8
RACCORDO
100
AcDbLine
 62
250
  6
CONTINUOUS
 10
132.3526583795
 20
122.1953592853
 11
132.3939172777
 21
122.2110060394
  0
LWPOLYLINE
  5
240
100
AcDbEntity
  8
ASSI
100
AcDbPolyline
 62
250
  6
CONTINUOUS
 90
13
 70
0
 10
131.5238066367
 20
121.7395977115
 10
131.5707226013
 20
121.7572981962
 10
131.6197377579
 20
121.7704644465
 10
131.6706791908
 20
121.7790509655
 10
131.7233697473
 20
121.7830301511
 10
131.7776206169
 20
121.782387918
 10
131.8332320082
 20
121.7771237129
 10
131.8900081552
 20
121.7672576627
 10
131.9477473319
 20
121.7528268384
 10
132.0062343536
 20
121.7338814397
 10
132.0652583807
 20
121.710490618
 10
132.1246138209
 20
121.6827414007
 10
132.1840902859
 20
121.6507352584
  0
LWPOLYLINE
  5
241
100
AcDbEntity
  8
RACCORDO
100
AcDbPolyline
 62
250
  6
CONTINUOUS
 90
12
 70
0
 10
134.2900029481
 20
121.5703542256
 10
134.281166539
 20
121.567037195
 10
134.2720480073
 20
121.5639618447
 10
134.2627312581
 20
121.5611248986
 10
134.2532194135
 20
121.5585293769
 10
134.2435093515
 20
121.5561722594
 10
134.2336756107
 20
121.5540412091
 10
134.2237239026
 20
121.5521371696
 10
134.2136485159
 20
121.5504591974
 10
134.2035068557
 20
121.5489921243
 10
134.1933115161
 20
121.5477359156
 10
134.1830499029
 20
121.5466906061
  0
LWPOLYLINE
  5
242
100
AcDbEntity
  8
ASSI
100
AcDbPolyline
 62
250
  6
CONTINUOUS
 90
7
 70
0
 10
129.4291082187
 20
119.3505326813
 10
129.4425296824
 20
119.355199504
 10
129.4571839725
 20
119.357078867
 10
129.4727882724
 20
119.3561504316
 10
129.4890749663
 20
119.3524645394
 10
129.5058090496
 20
119.3461070635
 10
129.5227352186
 20
119.3372020861
  0
LINE
  5
243
100
AcDbEntity
  8
RACCORDO
100
AcDbLine
 62
7
  6
CONTINUOUS
 10
129.7603133698
 20
120.7816421323
 11
129.7593872191
 21
120.7808669841
  0
LINE
  5
244
100
AcDbEntity
  8
RACCORDO
100
AcDbLine
 62
250
  6
CONTINUOUS
 10
137.4686371648
 20
122.3461775742
 11
135.2761128476
 21
121.0802415122
  0
LINE
  5
245
100
AcDbEntity
  8
RACCORDO
100
AcDbLine
 62
250
  6
CONTINUOUS
 10
137.609864708
 20
122.1098866559
 11
135.4173403908
 21
120.8439505939
  0
LINE
  5
246
100
AcDbEntity
  8
ASSI
100
AcDbLine
 62
250
  6
CONTINUOUS
 10
135.7384017745
 20
120.7965233043
 11
134.3119469107
 21
119.9729061436
  0
LINE
  5
247
100
AcDbEntity
  8
ASSI
100
AcDbLine
 62
250
  6
CONTINUOUS
 10
135.8796293177
 20
120.560232386
 11
134.5871814368
 21
119.8139891778
  0
LWPOLYLINE
  5
248
100
AcDbEntity
  8
ASSI
100
AcDbPolyline
 62
250
  6
CONTINUOUS
 90
13
 70
0
 10
131.5151715891
 20
119.8509808651
 10
131.527841322
 20
119.8582827442
 10
131.5404915149
 20
119.8665789885
 10
131.5530379238
 20
119.8757830247
 10
131.5652920109
 20
119.8857040088
 10
131.5772956792
 20
119.8963308241
 10
131.5892875114
 20
119.9079116081
 10
131.6013033728
 20
119.9205635725
 10
131.6130774395
 20
119.9340889443
 10
131.6243739197
 20
119.9482920314
 10
131.6350561456
 20
119.9630255712
 10
131.6450675312
 20
119.9782107909
 10
131.6543131377
 20
119.9937197743
  0
LWPOLYLINE
  5
249
100
AcDbEntity
  8
ASSI
100
AcDbPolyline
 62
250
  6
CONTINUOUS
 90
16
 70
0
 10
135.2761128476
 20
121.0802415122
 10
135.2437371323
 20
121.0621594586
 10
135.2121339071
 20
121.0456609815
 10
135.1813278893
 20
121.0306774696
 10
135.151582878
 20
121.0172470625
 10
135.1226709121
 20
121.0051756029
 10
135.093881298
 20
120.9941189199
 10
135.0652056022
 20
120.9840660796
 10
135.0366931506
 20
120.9750349396
 10
135.007738207
 20
120.9668619543
 10
134.9783098576
 20
120.9595966633
 10
134.9485095887
 20
120.953329814
 10
134.9179561441
 20
120.9480733737
 10
134.8865664112
 20
120.94393391
 10
134.8545436899
 20
120.9410599162
 10
134.8219560278
 20
120.9395784318
  0
LINE
  5
24A
100
AcDbEntity
  8
RACCORDO
100
AcDbLine
 62
7
  6
CONTINUOUS
 10
136.9736386965
 20
122.5866442508
 11
136.9735728285
 21
122.5866074791
  0
LINE
  5
24B
100
AcDbEntity
  8
ASSI
100
AcDbLine
 62
7
  6
CONTINUOUS
 10
132.0612095465
 20
120.9673465576
 11
132.2024700261
 21
121.0460995893
  0
LINE
  5
24C
100
AcDbEntity
  8
ASSI
100
AcDbLine
 62
250
  6
CONTINUOUS
 10
132.1585978807
 20
120.9559537149
 11
132.2998583207
 21
121.0347067245
  0
LINE
  5
24D
100
AcDbEntity
  8
ASSI
100
AcDbLine
 62
7
  6
CONTINUOUS
 10
129.223113
 20
119.2358490884
 11
129.4253468844
 21
119.3485949288
  0
LINE
  5
24E
100
AcDbEntity
  8
ASSI
100
AcDbLine
 62
250
  6
CONTINUOUS
 10
129.2809926831
 20
119.2024300848
 11
129.5227352186
 21
119.3372020861
  0
LINE
  5
24F
100
AcDbEntity
  8
ASSI
100
AcDbLine
 62
7
  6
CONTINUOUS
 10
130.050515184
 20
119.1001183209
 11
131.4177836029
 21
119.8623735059
  0
LINE
  5
250
100
AcDbEntity
  8
ASSI
100
AcDbLine
 62
250
  6
CONTINUOUS
 10
130.1083948671
 20
119.0666993173
 11
131.515171938
 21
119.8509806636
  0
LINE
  5
251
100
AcDbEntity
  8
ASSI
100
AcDbLine
 62
7
  6
CONTINUOUS
 10
134.7430789594
 20
121.3431118679
 11
135.9741275887
 21
122.0294145848
  0
LINE
  5
252
100
AcDbEntity
  8
RACCORDO
100
AcDbLine
 62
250
  6
CONTINUOUS
 10
137.071468725
 20
122.5754976536
 11
136.9893943652
 21
122.5297410155
  0
LINE
  5
253
100
AcDbEntity
  8
ASSI
100
AcDbLine
 62
250
  6
CONTINUOUS
 10
134.8405275658
 20
121.3317429947
 11
136.0715159556
 21
122.0180217604
  0
LINE
  5
254
100
AcDbEntity
  8
ASSI
100
AcDbLine
 62
7
  6
CONTINUOUS
 10
135.9741275887
 20
122.0294145848
 11
135.9742528274
 21
122.0294842229
  0
LINE
  5
255
100
AcDbEntity
  8
ASSI
100
AcDbLine
 62
250
  6
CONTINUOUS
 10
132.0612095465
 20
120.9673465576
 11
132.061376326
 21
120.9674392137
  0
LWPOLYLINE
  5
256
100
AcDbEntity
  8
ASSI
100
AcDbPolyline
 62
250
  6
CONTINUOUS
 90
16
 70
0
 10
135.4173403908
 20
120.8439505939
 10
135.3806134854
 20
120.8235858793
 10
135.3448169779
 20
120.8048552515
 10
135.3099508683
 20
120.7877587107
 10
135.2762685242
 20
120.7724516992
 10
135.243516578
 20
120.7587787747
 10
135.2109349263
 20
120.7462736098
 10
135.1784771792
 20
120.7348160153
 10
135.1461897267
 20
120.7245261804
 10
135.1134516354
 20
120.7152983456
 10
135.08016339
 20
120.7070211014
 10
135.0464245058
 20
120.6998058573
 10
135.0119125957
 20
120.6938810817
 10
134.9765201974
 20
120.689322931
 10
134.9403547732
 20
120.6860552487
 10
134.9034163232
 20
120.6840780351
  0
LWPOLYLINE
  5
257
100
AcDbEntity
  8
ASSI
100
AcDbPolyline
 62
7
  6
CONTINUOUS
 90
16
 70
0
 10
136.9736387245
 20
122.5866442664
 10
136.8908298758
 20
122.5404838076
 10
136.8785487292
 20
122.5342748471
 10
136.8639427959
 20
122.5280018792
 10
136.8471616161
 20
122.5219483147
 10
136.8282570102
 20
122.5163201749
 10
136.8074974282
 20
122.5113597133
 10
136.7850658432
 20
122.5072498682
 10
136.7612495329
 20
122.5041617942
 10
136.7365418683
 20
122.5022422998
 10
136.7112129864
 20
122.5015729454
 10
136.6856723598
 20
122.5022064174
 10
136.6606669078
 20
122.5041138703
 10
136.6365292456
 20
122.5072213009
 10
136.6136231317
 20
122.5114094279
 10
136.6075710276
 20
122.5127328236
  0
LWPOLYLINE
  5
258
100
AcDbEntity
  8
ASSI
100
AcDbPolyline
 62
7
  6
CONTINUOUS
 90
10
 70
0
 10
134.7430789594
 20
121.3431118679
 10
134.7308022019
 20
121.3363425601
 10
134.6679766754
 20
121.3039820246
 10
134.6065783544
 20
121.2761464522
 10
134.5470907339
 20
121.2529427265
 10
134.4896869649
 20
121.2343024533
 10
134.4343180274
 20
121.2200880411
 10
134.3812184508
 20
121.2102723218
 10
134.3307986301
 20
121.2048246461
 10
134.3228816282
 20
121.2043445455
  0
LWPOLYLINE
  5
259
100
AcDbEntity
  8
ASSI
100
AcDbPolyline
 62
250
  6
CONTINUOUS
 90
13
 70
0
 10
132.2998583207
 20
121.0347067245
 10
132.3125956552
 20
121.0416648217
 10
132.3249518709
 20
121.0479371185
 10
132.3369140597
 20
121.0535582939
 10
132.3484652645
 20
121.0585626149
 10
132.3596036282
 20
121.0629870703
 10
132.370341998
 20
121.0668692925
 10
132.3806781808
 20
121.0702439788
 10
132.3906066818
 20
121.0731442839
 10
132.4001375414
 20
121.0756028471
 10
132.409272431
 20
121.0776524006
 10
132.418010338
 20
121.0793244751
 10
132.4263589308
 20
121.0806481954
  0
LINE
  5
25A
100
AcDbEntity
  8
RACCORDO
100
AcDbLine
 62
7
  6
CONTINUOUS
 10
135.3476096462
 20
122.2168529343
 11
135.3474890539
 21
122.2167879558
  0
LINE
  5
25B
100
AcDbEntity
  8
RACCORDO
100
AcDbLine
 62
7
  6
CONTINUOUS
 10
134.1931539564
 20
121.5960239576
 11
134.1932407837
 21
121.5960707169
  0
LINE
  5
25C
100
AcDbEntity
  8
ASSI
100
AcDbLine
 62
7
  6
CONTINUOUS
 10
135.3476104014
 20
122.2168533404
 11
134.1932407837
 21
121.5960707169
  0
LINE
  5
25D
100
AcDbEntity
  8
RACCORDO
100
AcDbLine
 62
250
  6
CONTINUOUS
 10
135.4696213736
 20
122.2028189065
 11
134.3147355352
 21
121.5817586762
  0
LWPOLYLINE
  5
25E
100
AcDbEntity
  8
ASSI
100
AcDbPolyline
 62
250
  6
CONTINUOUS
 90
8
 70
0
 10
131.4177915862
 20
119.8623779558
 10
131.4213171223
 20
119.8642026555
 10
131.4346637044
 20
119.8689067912
 10
131.4492391895
 20
119.8708446835
 10
131.4648210911
 20
119.8699867608
 10
131.4811715591
 20
119.8663461255
 10
131.4980410093
 20
119.8599783573
 10
131.515171938
 20
119.8509806636
  0
LWPOLYLINE
  5
25F
100
AcDbEntity
  8
ASSI
100
AcDbPolyline
 62
250
  6
CONTINUOUS
 90
7
 70
0
 10
136.8920347144
 20
122.5411498397
 10
136.8955392828
 20
122.5429628796
 10
136.9088858519
 20
122.5476670768
 10
136.9234613493
 20
122.5496050262
 10
136.939043286
 20
122.5487471458
 10
136.9553938105
 20
122.5451065307
 10
136.9722633389
 20
122.5387387535
  0
LWPOLYLINE
  5
260
100
AcDbEntity
  8
ASSI
100
AcDbPolyline
 62
250
  6
CONTINUOUS
 90
8
 70
0
 10
135.9742528274
 20
122.0294842229
 10
135.9776608313
 20
122.0312436018
 10
135.9910074017
 20
122.0359478015
 10
136.0055829007
 20
122.0378857525
 10
136.0211648392
 20
122.0370278728
 10
136.0375153652
 20
122.0333872578
 10
136.0543848949
 20
122.0270194802
 10
136.071515922
 20
122.0180217416
  0
LINE
  5
261
100
AcDbEntity
  8
ASSI
100
AcDbLine
 62
250
  6
CONTINUOUS
 10
129.4253468844
 20
119.3485949288
 11
129.4291082187
 21
119.3505326813
  0
LWPOLYLINE
  5
262
100
AcDbEntity
  8
ASSI
100
AcDbPolyline
 62
250
  6
CONTINUOUS
 90
8
 70
0
 10
134.7431351197
 20
121.3431432233
 10
134.7466724841
 20
121.3449648593
 10
134.7600190536
 20
121.3496690567
 10
134.7745945513
 20
121.3516070063
 10
134.7901764881
 20
121.350749126
 10
134.8065270123
 20
121.3471085108
 10
134.8233965403
 20
121.3407407333
 10
134.8405275658
 20
121.3317429947
  0
LWPOLYLINE
  5
263
100
AcDbEntity
  8
ASSI
100
AcDbPolyline
 62
250
  6
CONTINUOUS
 90
9
 70
0
 10
129.5227352186
 20
119.3372020861
 10
129.5381312608
 20
119.3451210107
 10
129.5533442825
 20
119.3510046855
 10
129.5681934435
 20
119.3547831717
 10
129.5825022149
 20
119.3564115547
 10
129.5961005212
 20
119.3558704841
 10
129.6088267539
 20
119.3531663823
 10
129.6205296434
 20
119.3483313667
 10
129.6227400506
 20
119.3471103216
  0
LWPOLYLINE
  5
264
100
AcDbEntity
  8
RACCORDO
100
AcDbPolyline
 62
250
  6
CONTINUOUS
 90
4
 70
0
 10
134.3147355352
 20
121.5817586762
 10
134.306773462
 20
121.5777155123
 10
134.2985292663
 20
121.5739140288
 10
134.2900029481
 20
121.5703542256
  0
LWPOLYLINE
  5
265
100
AcDbEntity
  8
ASSI
100
AcDbPolyline
 62
250
  6
CONTINUOUS
 90
6
 70
0
 10
136.9893943652
 20
122.5297410155
 10
136.9607003888
 20
122.5152010217
 10
136.9301477158
 20
122.502450234
 10
136.8977363461
 20
122.4914886523
 10
136.8630951233
 20
122.4822225382
 10
136.8265952039
 20
122.4747456302
  0
LWPOLYLINE
  5
266
100
AcDbEntity
  8
ASSI
100
AcDbPolyline
 62
250
  6
CONTINUOUS
 90
4
 70
0
 10
133.174002814
 20
120.6542887202
 10
133.166146243
 20
120.6503162896
 10
133.160660995
 20
120.6451657471
 10
133.1577748879
 20
120.638950778
  0
LWPOLYLINE
  5
267
100
AcDbEntity
  8
RACCORDO
100
AcDbPolyline
 62
250
  6
CONTINUOUS
 90
7
 70
0
 10
137.071468725
 20
122.5754976536
 10
137.0853131263
 20
122.5824434838
 10
137.0989206445
 20
122.587174961
 10
137.112058451
 20
122.589611129
 10
137.1245017545
 20
122.589710305
 10
137.1360376465
 20
122.5874707925
 10
137.146407135
 20
122.5829664186
  0
LWPOLYLINE
  5
268
100
AcDbEntity
  8
RACCORDO
100
AcDbPolyline
 62
250
  6
CONTINUOUS
 90
7
 70
0
 10
137.4686371648
 20
122.3461775742
 10
137.4824815582
 20
122.3531234009
 10
137.4960890701
 20
122.3578548777
 10
137.5092268723
 20
122.3602910477
 10
137.5216701734
 20
122.3603902273
 10
137.533206065
 20
122.3581507196
 10
137.5436407889
 20
122.3536087508
  0
LINE
  5
269
100
AcDbEntity
  8
RACCORDO
100
AcDbLine
 62
7
  6
CONTINUOUS
 10
131.6360947231
 20
120.2334587125
 11
129.7334746697
 21
119.2831735404
  0
LWPOLYLINE
  5
26A
100
AcDbEntity
  8
RACCORDO
100
AcDbPolyline
 62
250
  6
CONTINUOUS
 90
9
 70
0
 10
134.1932407837
 20
121.5960707169
 10
134.1977507938
 20
121.598322922
 10
134.2120796901
 20
121.6034390997
 10
134.2274993592
 20
121.6060631785
 10
134.2438409237
 20
121.6061663347
 10
134.260925281
 20
121.6037473745
 10
134.2785652713
 20
121.5988327797
 10
134.2965677459
 20
121.5914763621
 10
134.3147355357
 20
121.5817586765
  0
LWPOLYLINE
  5
26B
100
AcDbEntity
  8
ASSI
100
AcDbPolyline
 62
250
  6
CONTINUOUS
 90
5
 70
0
 10
138.0677164747
 20
119.2931983902
 10
138.1060173987
 20
119.3095067241
 10
138.1462574473
 20
119.3283221007
 10
138.1881124301
 20
119.3497055204
 10
138.2315263282
 20
119.3738228085
  0
LINE
  5
26C
100
AcDbEntity
  8
ASSI
100
AcDbLine
 62
250
  6
CONTINUOUS
 10
138.0776527129
 20
118.7550305038
 11
137.9826305939
 21
118.7226677168
  0
LINE
  5
26D
100
AcDbEntity
  8
0
100
AcDbLine
 62
7
  6
CONTINUOUS
 10
120.9738210746
 20
79.3531073448
 11
135.842035243
 21
70.7683868265
  0
LINE
  5
26E
100
AcDbEntity
  8
0
100
AcDbLine
 62
250
  6
CONTINUOUS
 10
120.8702797641
 20
79.5819757754
 11
135.7384939325
 21
70.9972552571
  0
LWPOLYLINE
  5
26F
100
AcDbEntity
  8
0
100
AcDbPolyline
 62
250
  6
CONTINUOUS
 90
9
 70
0
 10
120.9738210746
 20
79.3531073448
 10
120.9582211723
 20
79.3633161711
 10
120.9356419581
 20
79.3832321585
 10
120.9161159468
 20
79.4074164138
 10
120.8998500041
 20
79.43561272
 10
120.8870164575
 20
79.4675223551
 10
120.8777512702
 20
79.5028072565
 10
120.872152601
 20
79.5410936031
 10
120.8702797641
 20
79.5819757754
  0
LWPOLYLINE
  5
270
100
AcDbEntity
  8
ASSI
100
AcDbPolyline
 62
250
  6
CONTINUOUS
 90
3
 70
0
 10
129.294261755
 20
120.0427851177
 10
129.2737333094
 20
120.0151264171
 10
129.2549798233
 20
119.9866926145
  0
LWPOLYLINE
  5
271
100
AcDbEntity
  8
ASSI
100
AcDbPolyline
 62
250
  6
CONTINUOUS
 90
3
 70
0
 10
129.340664902
 20
120.0966618101
 10
129.3165722859
 20
120.069963582
 10
129.294261755
 20
120.0427851177
  0
LWPOLYLINE
  5
272
100
AcDbEntity
  8
ASSI
100
AcDbPolyline
 62
250
  6
CONTINUOUS
 90
8
 70
0
 10
129.6434872252
 20
120.3485283196
 10
129.6446667844
 20
120.3498275512
 10
129.6486649222
 20
120.3562352845
 10
129.6510458658
 20
120.3640814942
 10
129.6517831876
 20
120.3732800791
 10
129.6508689115
 20
120.3837303926
 10
129.6483130596
 20
120.3953187981
 10
129.6441434965
 20
120.4079189709
  0
LINE
  5
273
100
AcDbEntity
  8
ASSI
100
AcDbLine
 62
250
  6
CONTINUOUS
 10
129.6441434965
 20
120.4079189709
 11
129.340664902
 21
120.0966618101
  0
LINE
  5
274
100
AcDbEntity
  8
ASSI
100
AcDbLine
 62
7
  6
CONTINUOUS
 10
129.6434749061
 20
120.3485156759
 11
129.3399963113
 21
120.0372585149
  0
LWPOLYLINE
  5
275
100
AcDbEntity
  8
RACCORDO
100
AcDbPolyline
 62
250
  6
CONTINUOUS
 90
8
 70
0
 10
137.609864708
 20
122.1098866559
 10
137.6228029355
 20
122.1183486088
 10
137.6337074544
 20
122.1276025228
 10
137.6423916856
 20
122.1374900608
 10
137.6487070393
 20
122.1478420443
 10
137.6525454582
 20
122.1584813481
 10
137.6538412657
 20
122.1692259306
 10
137.6537975512
 20
122.1712621512
  0
LWPOLYLINE
  5
276
100
AcDbEntity
  8
ASSI
100
AcDbPolyline
 62
250
  6
CONTINUOUS
 90
10
 70
0
 10
135.8951520745
 20
118.7985141535
 10
135.8787340612
 20
118.7879304629
 10
135.8625380721
 20
118.7752816267
 10
135.8467831303
 20
118.7607386982
 10
135.8316822942
 20
118.7444983451
 10
135.8174397769
 20
118.72678019
 10
135.8042481847
 20
118.7078238407
 10
135.7922859115
 20
118.6878856496
 10
135.7817147266
 20
118.6672352462
 10
135.7726775874
 20
118.6461518919
  0
LWPOLYLINE
  5
277
100
AcDbEntity
  8
RACCORDO
100
AcDbPolyline
 62
250
  6
CONTINUOUS
 90
10
 70
0
 10
133.8391617382
 20
116.7464927025
 10
133.8251503546
 20
116.7376138066
 10
133.8113516793
 20
116.7267295895
 10
133.7980070795
 20
116.7140304386
 10
133.7853499797
 20
116.6997384881
 10
133.7736017788
 20
116.6841037338
 10
133.7629679769
 20
116.6673996597
 10
133.7536345812
 20
116.6499184545
 10
133.7457648519
 20
116.6319659004
 10
133.7436187693
 20
116.6257657124
  0
LWPOLYLINE
  5
278
100
AcDbEntity
  8
ASSI
100
AcDbPolyline
 62
250
  6
CONTINUOUS
 90
35
 70
0
 10
137.9336668158
 20
118.6929172846
 10
137.923744243
 20
118.6867311849
 10
137.9137374129
 20
118.6804186422
 10
137.9036687667
 20
118.6739882457
 10
137.8935803416
 20
118.6674123322
 10
137.8835193659
 20
118.6607288757
 10
137.8734386113
 20
118.6538999023
 10
137.8632384303
 20
118.6467838267
 10
137.8529584831
 20
118.6394309671
 10
137.8425591095
 20
118.6317910053
 10
137.8318216809
 20
118.6235714013
 10
137.8207035135
 20
118.6147794201
 10
137.8092472912
 20
118.6054077967
 10
137.7973624362
 20
118.5951421955
 10
137.7849874823
 20
118.5839740931
 10
137.7721838959
 20
118.5719120131
 10
137.7590454977
 20
118.55866719
 10
137.7455418679
 20
118.5442630575
 10
137.7317034264
 20
118.528676182
 10
137.7177152544
 20
118.5115474973
 10
137.7035031945
 20
118.4928606853
 10
137.689141404
 20
118.472632064
 10
137.6750374357
 20
118.4505515211
 10
137.6610160779
 20
118.4262677929
 10
137.6472525421
 20
118.4001321431
 10
137.634680016
 20
118.3728882498
 10
137.623392506
 20
118.3442317601
 10
137.6132960056
 20
118.314467027
 10
137.6050416822
 20
118.2852507882
 10
137.5989204118
 20
118.2567698008
 10
137.5946413184
 20
118.2288373077
 10
137.5919829416
 20
118.2025497757
 10
137.5908714612
 20
118.1782726937
 10
137.5913806975
 20
118.1556405728
 10
137.5935106503
 20
118.134653413
  0
LINE
  5
279
100
AcDbEntity
  8
ASSI
100
AcDbLine
 62
250
  6
CONTINUOUS
 10
137.9533518001
 20
118.7049893537
 11
137.9336668158
 21
118.6929172846
  0
LWPOLYLINE
  5
27A
100
AcDbEntity
  8
RACCORDO
100
AcDbPolyline
 62
7
  6
CONTINUOUS
 90
7
 70
0
 10
133.737370998
 20
116.755393784
 10
133.730329182
 20
116.7510973635
 10
133.7131978151
 20
116.7384364254
 10
133.6978472991
 20
116.7237344067
 10
133.684477418
 20
116.7072249974
 10
133.6732771012
 20
116.6891902242
 10
133.664954329
 20
116.6711855744
  0
LWPOLYLINE
  5
27B
100
AcDbEntity
  8
ASSI
100
AcDbPolyline
 62
250
  6
CONTINUOUS
 90
3
 70
0
 10
137.9826305939
 20
118.7226677168
 10
137.9729075252
 20
118.7168393519
 10
137.9533518001
 20
118.7049893537
  0
LWPOLYLINE
  5
27C
100
AcDbEntity
  8
ASSI
100
AcDbPolyline
 62
250
  6
CONTINUOUS
 90
10
 70
0
 10
137.593510652
 20
118.1346534111
 10
137.6104810496
 20
118.1448228011
 10
137.6291541394
 20
118.1539701646
 10
137.6492783021
 20
118.161972241
 10
137.6705823651
 20
118.1687212022
 10
137.6927792569
 20
118.174126106
 10
137.7155698745
 20
118.1781141211
 10
137.7386471149
 20
118.180631509
 10
137.7617000125
 20
118.1816443477
 10
137.7844179301
 20
118.1811389892
  0
LINE
  5
27D
100
AcDbEntity
  8
ASSI
100
AcDbLine
 62
250
  6
CONTINUOUS
 10
136.0315475005
 20
118.8800761611
 11
135.8951520745
 21
118.7985141535
  0
LINE
  5
27E
100
AcDbEntity
  8
ASSI
100
AcDbLine
 62
250
  6
CONTINUOUS
 10
133.3743880182
 20
117.1133060321
 11
133.1409711032
 21
116.9737269218
  0
LINE
  5
27F
100
AcDbEntity
  8
ASSI
100
AcDbLine
 62
250
  6
CONTINUOUS
 10
136.1748773916
 20
118.6511052197
 11
136.0384819656
 21
118.5695432121
  0
LINE
  5
280
100
AcDbEntity
  8
ASSI
100
AcDbLine
 62
250
  6
CONTINUOUS
 10
133.5177179093
 20
116.8843350907
 11
133.4086993767
 21
116.8191439722
  0
LINE
  5
281
100
AcDbEntity
  8
ASSI
100
AcDbLine
 62
250
  6
CONTINUOUS
 10
135.3954828039
 20
117.6105378014
 11
134.8155427192
 21
117.263744078
  0
LINE
  5
282
100
AcDbEntity
  8
ASSI
100
AcDbLine
 62
250
  6
CONTINUOUS
 10
135.538812695
 20
117.38156686
 11
135.0832709927
 21
117.1091611283
  0
LINE
  5
283
100
AcDbEntity
  8
ASSI
100
AcDbLine
 62
250
  6
CONTINUOUS
 10
139.8557047157
 20
119.8330785913
 11
138.66711161
 21
119.122321326
  0
LINE
  5
284
100
AcDbEntity
  8
RACCORDO
100
AcDbLine
 62
250
  6
CONTINUOUS
 10
140.7419713638
 20
120.3630500812
 11
140.8212190853
 21
120.410438791
  0
LINE
  5
285
100
AcDbEntity
  8
ASSI
100
AcDbLine
 62
250
  6
CONTINUOUS
 10
139.9990346069
 20
119.6041076499
 11
138.8104415011
 21
118.8933503846
  0
LINE
  5
286
100
AcDbEntity
  8
RACCORDO
100
AcDbLine
 62
250
  6
CONTINUOUS
 10
140.8853012871
 20
120.1340791591
 11
140.9639427521
 21
120.1811053385
  0
LWPOLYLINE
  5
287
100
AcDbEntity
  8
ASSI
100
AcDbPolyline
 62
250
  6
CONTINUOUS
 90
7
 70
0
 10
138.4336854749
 20
118.6370628229
 10
138.4184988652
 20
118.6280028768
 10
138.4054483575
 20
118.6181800373
 10
138.3947097878
 20
118.6077266759
 10
138.3864278375
 20
118.5967836609
 10
138.3807140771
 20
118.5854984514
 10
138.3792033955
 20
118.5798491146
  0
LWPOLYLINE
  5
288
100
AcDbEntity
  8
ASSI
100
AcDbPolyline
 62
250
  6
CONTINUOUS
 90
10
 70
0
 10
140.0021910585
 20
119.5750009265
 10
140.0207634594
 20
119.5857891279
 10
140.0413249706
 20
119.5953581776
 10
140.0635477627
 20
119.6035555081
 10
140.0870775188
 20
119.610250422
 10
140.1115390839
 20
119.6153361764
 10
140.1365424462
 20
119.6187316845
 10
140.1616889554
 20
119.6203828087
 10
140.1865776793
 20
119.6202632234
 10
140.2108117953
 20
119.6183748351
  0
LINE
  5
289
100
AcDbEntity
  8
RACCORDO
100
AcDbLine
 62
7
  6
CONTINUOUS
 10
137.2299826952
 20
120.8934000869
 11
137.6528691806
 21
121.1375694436
  0
LINE
  5
28A
100
AcDbEntity
  8
ASSI
100
AcDbLine
 62
7
  6
CONTINUOUS
 10
138.1314530513
 20
119.3836914707
 11
140.3240458134
 21
120.649667106
  0
LINE
  5
28B
100
AcDbEntity
  8
RACCORDO
100
AcDbLine
 62
250
  6
CONTINUOUS
 10
138.2315263282
 20
119.3738228085
 11
140.4240506454
 21
120.6397588705
  0
LINE
  5
28C
100
AcDbEntity
  8
RACCORDO
100
AcDbLine
 62
7
  6
CONTINUOUS
 10
133.7372948044
 20
116.7553506555
 11
134.6752265914
 21
117.2969025737
  0
LINE
  5
28D
100
AcDbEntity
  8
RACCORDO
100
AcDbLine
 62
250
  6
CONTINUOUS
 10
133.8391617382
 20
116.7464927025
 11
134.7752745939
 21
117.2869943889
  0
LWPOLYLINE
  5
28E
100
AcDbEntity
  8
ASSI
100
AcDbPolyline
 62
250
  6
CONTINUOUS
 90
13
 70
0
 10
138.8104415011
 20
118.8933503846
 10
138.7757327676
 20
118.8733177673
 10
138.7413474165
 20
118.8546720679
 10
138.7072854476
 20
118.8374132865
 10
138.6735730796
 20
118.8215774483
 10
138.640184094
 20
118.8071285281
 10
138.6070398347
 20
118.7939584497
 10
138.5741480676
 20
118.7820513366
 10
138.5415010269
 20
118.7714230653
 10
138.5089967591
 20
118.7620131895
 10
138.4766012799
 20
118.7538015604
 10
138.4443485735
 20
118.7468083268
 10
138.4122386402
 20
118.7410334887
  0
LWPOLYLINE
  5
28F
100
AcDbEntity
  8
ASSI
100
AcDbPolyline
 62
250
  6
CONTINUOUS
 90
10
 70
0
 10
138.1197825684
 20
118.4974863344
 10
138.1100544031
 20
118.49192388
 10
138.100196706
 20
118.4865072874
 10
138.0902077843
 20
118.4812230863
 10
138.0800575879
 20
118.4760463011
 10
138.0697654026
 20
118.4709756103
 10
138.0594095315
 20
118.4660273746
 10
138.0489809887
 20
118.4611737617
 10
138.0384864074
 20
118.4564038519
 10
138.0280475755
 20
118.4517472164
  0
LWPOLYLINE
  5
290
100
AcDbEntity
  8
ASSI
100
AcDbPolyline
 62
7
  6
CONTINUOUS
 90
10
 70
0
 10
138.1314530514
 20
119.3836914708
 10
138.1199083165
 20
119.3770956074
 10
138.0587380926
 20
119.3444696286
 10
137.9987661259
 20
119.3163654632
 10
137.9404152237
 20
119.2928779925
 10
137.8838729164
 20
119.2739591555
 10
137.8291984083
 20
119.2595282475
 10
137.7766549332
 20
119.2495693514
 10
137.7266313128
 20
119.2440429189
 10
137.7186837474
 20
119.2435524606
  0
LWPOLYLINE
  5
291
100
AcDbEntity
  8
ASSI
100
AcDbPolyline
 62
250
  6
CONTINUOUS
 90
10
 70
0
 10
138.66711161
 20
119.122321326
 10
138.6151193161
 20
119.092779588
 10
138.5636236774
 20
119.0667908452
 10
138.5127446294
 20
119.0443075633
 10
138.462915167
 20
119.0253855135
 10
138.4139071796
 20
119.0098049597
 10
138.3648656319
 20
118.9972674555
 10
138.3156045411
 20
118.9878144582
 10
138.2665726997
 20
118.9816308529
 10
138.217902869
 20
118.9788012869
  0
LWPOLYLINE
  5
292
100
AcDbEntity
  8
ASSI
100
AcDbPolyline
 62
250
  6
CONTINUOUS
 90
8
 70
0
 10
138.1315214962
 20
119.3837310441
 10
138.1341782905
 20
119.3851856127
 10
138.1479025158
 20
119.3904997043
 10
138.1629638942
 20
119.3929360421
 10
138.1791215928
 20
119.3924556691
 10
138.1961172484
 20
119.3890662664
 10
138.2136790988
 20
119.3828220309
 10
138.2315263282
 20
119.3738228085
  0
LWPOLYLINE
  5
293
100
AcDbEntity
  8
ASSI
100
AcDbPolyline
 62
250
  6
CONTINUOUS
 90
13
 70
0
 10
139.8557047157
 20
119.8330785913
 10
139.883498871
 20
119.848190066
 10
139.9132591414
 20
119.8615510297
 10
139.9449855268
 20
119.8731614824
 10
139.9790432683
 20
119.8831226125
 10
140.0150671248
 20
119.8913332315
 10
140.0519613731
 20
119.8974897738
 10
140.0897653096
 20
119.9015002673
 10
140.1284396377
 20
119.9034566842
 10
140.1667707451
 20
119.9033313756
 10
140.2043540942
 20
119.9011151252
 10
140.2415942225
 20
119.8968171494
 10
140.3061812497
 20
119.8856868672
  0
LWPOLYLINE
  5
294
100
AcDbEntity
  8
RACCORDO
100
AcDbPolyline
 62
250
  6
CONTINUOUS
 90
12
 70
0
 10
133.7373701835
 20
116.7553941163
 10
133.7409001497
 20
116.7572943908
 10
133.7482538248
 20
116.7604795412
 10
133.7560779423
 20
116.7628720738
 10
133.7643896874
 20
116.7644461179
 10
133.773281729
 20
116.7651637013
 10
133.7827174103
 20
116.7649514975
 10
133.7926874844
 20
116.7637402017
 10
133.8033422586
 20
116.7614141196
 10
133.8147087435
 20
116.7578326657
 10
133.8266726939
 20
116.7528931868
 10
133.8391617382
 20
116.7464927025
  0
LWPOLYLINE
  5
295
100
AcDbEntity
  8
RACCORDO
100
AcDbPolyline
 62
7
  6
CONTINUOUS
 90
10
 70
0
 10
140.3240458134
 20
120.649667106
 10
140.3411167145
 20
120.658258025
 10
140.3593766865
 20
120.6649387146
 10
140.3785855095
 20
120.6695131131
 10
140.3984058224
 20
120.6718256763
 10
140.4185835099
 20
120.6717969631
 10
140.4390084757
 20
120.6693565481
 10
140.4594680744
 20
120.6644273914
 10
140.4795886877
 20
120.6570147279
 10
140.4990542695
 20
120.6471900472
  0
LWPOLYLINE
  5
296
100
AcDbEntity
  8
RACCORDO
100
AcDbPolyline
 62
250
  6
CONTINUOUS
 90
7
 70
0
 10
140.4240506454
 20
120.6397588705
 10
140.4378950388
 20
120.6467046973
 10
140.4515025507
 20
120.6514361741
 10
140.4646403529
 20
120.653872344
 10
140.477083654
 20
120.6539715237
 10
140.4886195456
 20
120.6517320159
 10
140.4990542695
 20
120.6471900472
  0
LWPOLYLINE
  5
297
100
AcDbEntity
  8
RACCORDO
100
AcDbPolyline
 62
250
  6
CONTINUOUS
 90
7
 70
0
 10
140.8212190853
 20
120.410438791
 10
140.8350634786
 20
120.4173846178
 10
140.8486709905
 20
120.4221160946
 10
140.8618087928
 20
120.4245522646
 10
140.8742520939
 20
120.4246514442
 10
140.8857879855
 20
120.4224119365
 10
140.8962190853
 20
120.41787206
  0
LWPOLYLINE
  5
298
100
AcDbEntity
  8
ASSI
100
AcDbPolyline
 62
250
  6
CONTINUOUS
 90
13
 70
0
 10
139.9990346068
 20
119.604107649
 10
140.0126971726
 20
119.6108275664
 10
140.0276165148
 20
119.616703766
 10
140.0436639225
 20
119.6216604977
 10
140.0607315063
 20
119.6256317708
 10
140.0786499731
 20
119.6285629501
 10
140.0971814574
 20
119.630407922
 10
140.11611756
 20
119.6311526879
 10
140.1353341609
 20
119.6307902128
 10
140.154709954
 20
119.6292916067
 10
140.1740858101
 20
119.6266439057
 10
140.1932528098
 20
119.6228795554
 10
140.2120105057
 20
119.6180306036
  0
LWPOLYLINE
  5
299
100
AcDbEntity
  8
ASSI
100
AcDbPolyline
 62
250
  6
CONTINUOUS
 90
27
 70
0
 10
137.9871433849
 20
118.4337697101
 10
137.9770293456
 20
118.4292616338
 10
137.9668197758
 20
118.4245864193
 10
137.9564331117
 20
118.4197179342
 10
137.9459118138
 20
118.4146405672
 10
137.9352811703
 20
118.4092357445
 10
137.924475006
 20
118.4034605143
 10
137.9135134708
 20
118.3973005441
 10
137.9025488412
 20
118.3906594792
 10
137.8915875172
 20
118.3835059033
 10
137.8806144238
 20
118.3757969832
 10
137.8697619365
 20
118.3673976631
 10
137.8590433619
 20
118.3582694872
 10
137.848486266
 20
118.348379952
 10
137.8382635942
 20
118.3375897078
 10
137.8283767871
 20
118.3257386139
 10
137.818943498
 20
118.312958308
 10
137.8103512144
 20
118.2995589827
 10
137.8027801896
 20
118.28544849
 10
137.7962604547
 20
118.2707988788
 10
137.790953132
 20
118.256330168
 10
137.7870340777
 20
118.2421603988
 10
137.7844468195
 20
118.2282824511
 10
137.7829337641
 20
118.2151901217
 10
137.782388907
 20
118.2030425007
 10
137.7828916594
 20
118.1916939605
 10
137.7844185597
 20
118.181138903
  0
LINE
  5
29A
100
AcDbEntity
  8
ASSI
100
AcDbLine
 62
250
  6
CONTINUOUS
 10
138.0280475755
 20
118.4517472164
 11
137.9871433849
 21
118.4337697101
  0
LWPOLYLINE
  5
29B
100
AcDbEntity
  8
ASSI
100
AcDbPolyline
 62
250
  6
CONTINUOUS
 90
3
 70
0
 10
137.0700471653
 20
116.6230442723
 10
137.0585419779
 20
116.618989905
 10
137.0546892561
 20
116.6170756396
  0
LINE
  5
29C
100
AcDbEntity
  8
RACCORDO
100
AcDbLine
 62
7
  6
CONTINUOUS
 10
133.3309990114
 20
81.6599500703
 11
133.4699347702
 21
81.6756674478
  0
LINE
  5
29D
100
AcDbEntity
  8
RACCORDO
100
AcDbLine
 62
250
  6
CONTINUOUS
 10
133.3892238551
 20
81.7177824835
 11
133.4699347702
 21
81.7269130625
  0
LINE
  5
29E
100
AcDbEntity
  8
RACCORDO
100
AcDbLine
 62
7
  6
CONTINUOUS
 10
138.8897674595
 20
81.3637354875
 11
138.840277888
 21
81.3642342119
  0
LINE
  5
29F
100
AcDbEntity
  8
RACCORDO
100
AcDbLine
 62
250
  6
CONTINUOUS
 10
138.8927905145
 20
81.4905040156
 11
138.840277888
 21
81.4910332043
  0
LINE
  5
2A0
100
AcDbEntity
  8
RACCORDO
100
AcDbLine
 62
250
  6
CONTINUOUS
 10
133.6163813796
 20
75.0010684406
 11
122.9923923169
 21
81.1352265756
  0
LINE
  5
2A1
100
AcDbEntity
  8
RACCORDO
100
AcDbLine
 62
250
  6
CONTINUOUS
 10
133.5369220683
 20
75.1665178992
 11
123.0959457075
 21
81.1950067938
  0
LWPOLYLINE
  5
2A2
100
AcDbEntity
  8
ASSI
100
AcDbPolyline
 62
250
  6
CONTINUOUS
 90
6
 70
0
 10
129.2549798233
 20
119.9866926145
 10
129.2380084225
 20
119.9577785756
 10
129.2228404842
 20
119.9292688985
 10
129.2096065169
 20
119.9015410404
 10
129.1981760121
 20
119.8742175441
 10
129.1881788217
 20
119.8470506358
  0
LWPOLYLINE
  5
2A3
100
AcDbEntity
  8
ASSI
100
AcDbPolyline
 62
250
  6
CONTINUOUS
 90
6
 70
0
 10
129.3399980405
 20
120.0372602886
 10
129.3452067059
 20
120.0450237604
 10
129.347911772
 20
120.0550431447
 10
129.348050801
 20
120.0671313983
 10
129.3456214281
 20
120.0810832569
 10
129.340664902
 20
120.0966618101
  0
LWPOLYLINE
  5
2A4
100
AcDbEntity
  8
ASSI
100
AcDbPolyline
 62
250
  6
CONTINUOUS
 90
11
 70
0
 10
133.5177179093
 20
116.8843350907
 10
133.5303755545
 20
116.8973494936
 10
133.5413908669
 20
116.910910126
 10
133.5506507493
 20
116.9248740823
 10
133.5580582892
 20
116.9390891081
 10
133.5635425848
 20
116.9534115165
 10
133.5670519975
 20
116.9677079058
 10
133.5685463512
 20
116.9818443149
 10
133.5680007834
 20
116.9956555077
 10
133.5654250481
 20
117.0089660757
 10
133.5640477252
 20
117.0134879196
  0
LINE
  5
2A5
100
AcDbEntity
  8
ASSI
100
AcDbLine
 62
250
  6
CONTINUOUS
 10
140.8562543488
 20
120.0826717228
 11
140.8701199134
 21
120.0936890862
  0
LWPOLYLINE
  5
2A6
100
AcDbEntity
  8
ASSI
100
AcDbPolyline
 62
7
  6
CONTINUOUS
 90
7
 70
0
 10
138.4456080207
 20
117.4901706832
 10
138.4346432021
 20
117.4820248473
 10
138.4251958326
 20
117.4733791865
 10
138.4172039853
 20
117.4641612126
 10
138.4107295872
 20
117.4544434137
 10
138.4059584189
 20
117.4444432539
 10
138.4033614029
 20
117.4356223905
  0
LINE
  5
2A7
100
AcDbEntity
  8
ASSI
100
AcDbLine
 62
7
  6
CONTINUOUS
 10
137.2498067161
 20
116.6135832556
 11
137.9764871341
 21
117.1259756863
  0
LINE
  5
2A8
100
AcDbEntity
  8
RACCORDO
100
AcDbLine
 62
250
  6
CONTINUOUS
 10
137.3129873176
 20
116.5774293292
 11
138.111945258
 21
117.1407856423
  0
LWPOLYLINE
  5
2A9
100
AcDbEntity
  8
RACCORDO
100
AcDbPolyline
 62
250
  6
CONTINUOUS
 90
8
 70
0
 10
140.9639427521
 20
120.1811053385
 10
140.9764946994
 20
120.1895348966
 10
140.9870378978
 20
120.1986476188
 10
140.9953959311
 20
120.2082910246
 10
141.0014289472
 20
120.2183037539
 10
141.0050359973
 20
120.2285182668
 10
141.006156726
 20
120.2387636471
 10
141.0060621788
 20
120.241074735
  0
LINE
  5
2AA
100
AcDbEntity
  8
ASSI
100
AcDbLine
 62
7
  6
CONTINUOUS
 10
138.8319718848
 20
116.0786494248
 11
139.6625000584
 21
116.6134397522
  0
LWPOLYLINE
  5
2AB
100
AcDbEntity
  8
ASSI
100
AcDbPolyline
 62
7
  6
CONTINUOUS
 90
6
 70
0
 10
140.9241894385
 20
118.9070532774
 10
140.9103119758
 20
118.8981298659
 10
140.8983577043
 20
118.8886041288
 10
140.888326624
 20
118.878476066
 10
140.880135424
 20
118.8676118672
 10
140.878235137
 20
118.864135534
  0
LINE
  5
2AC
100
AcDbEntity
  8
ASSI
100
AcDbLine
 62
250
  6
CONTINUOUS
 10
140.8701199134
 20
120.0936890862
 11
140.886532156
 21
120.1038209498
  0
LINE
  5
2AD
100
AcDbEntity
  8
ASSI
100
AcDbLine
 62
7
  6
CONTINUOUS
 10
138.4580902885
 20
117.497816694
 11
138.4456080207
 21
117.4901706832
  0
LINE
  5
2AE
100
AcDbEntity
  8
RACCORDO
100
AcDbLine
 62
250
  6
CONTINUOUS
 10
142.6035184225
 20
117.5742607136
 11
141.7691944945
 21
117.089777183
  0
LINE
  5
2AF
100
AcDbEntity
  8
RACCORDO
100
AcDbLine
 62
250
  6
CONTINUOUS
 10
142.7495759181
 20
117.2889429973
 11
142.0888033812
 21
116.9052390175
  0
LINE
  5
2B0
100
AcDbEntity
  8
RACCORDO
100
AcDbLine
 62
250
  6
CONTINUOUS
 10
138.0448817274
 20
116.1548426698
 11
138.9322144148
 21
116.6671725115
  0
LINE
  5
2B1
100
AcDbEntity
  8
RACCORDO
100
AcDbLine
 62
250
  6
CONTINUOUS
 10
138.3273238454
 20
115.9917641307
 11
139.073441958
 21
116.4225592316
  0
LINE
  5
2B2
100
AcDbEntity
  8
RACCORDO
100
AcDbLine
 62
250
  6
CONTINUOUS
 10
141.3115083608
 20
117.5419097369
 11
142.4267686511
 21
118.185849262
  0
LINE
  5
2B3
100
AcDbEntity
  8
RACCORDO
100
AcDbLine
 62
7
  6
CONTINUOUS
 10
138.5044089862
 20
115.8895173898
 11
138.8319718848
 21
116.0786494248
  0
LINE
  5
2B4
100
AcDbEntity
  8
RACCORDO
100
AcDbLine
 62
250
  6
CONTINUOUS
 10
138.6790864617
 20
115.7238363117
 11
138.0808289463
 21
115.3784087342
  0
LINE
  5
2B5
100
AcDbEntity
  8
RACCORDO
100
AcDbLine
 62
250
  6
CONTINUOUS
 10
141.5023008139
 20
117.2438782493
 11
142.6035184225
 21
117.8797096781
  0
LINE
  5
2B6
100
AcDbEntity
  8
RACCORDO
100
AcDbLine
 62
250
  6
CONTINUOUS
 10
138.8204862787
 20
115.4789246446
 11
138.3636146731
 21
115.2151317997
  0
LINE
  5
2B7
100
AcDbEntity
  8
0
100
AcDbLine
 62
250
  6
CONTINUOUS
 10
137.3984111154
 20
114.5155344171
 11
136.0827923742
 21
113.7559163909
  0
LINE
  5
2B8
100
AcDbEntity
  8
RACCORDO
100
AcDbLine
 62
250
  6
CONTINUOUS
 10
137.7627652153
 20
114.4810532292
 11
138.6988780709
 21
115.0215549156
  0
LINE
  5
2B9
100
AcDbEntity
  8
RACCORDO
100
AcDbLine
 62
7
  6
CONTINUOUS
 10
141.0511264721
 20
118.9801278153
 11
140.9241894385
 21
118.9070532774
  0
LINE
  5
2BA
100
AcDbEntity
  8
ASSI
100
AcDbLine
 62
7
  6
CONTINUOUS
 10
140.1349979435
 20
118.4527350226
 11
138.9271244983
 21
117.7573918142
  0
LINE
  5
2BB
100
AcDbEntity
  8
RACCORDO
100
AcDbLine
 62
250
  6
CONTINUOUS
 10
141.3952461591
 20
116.3323293001
 11
142.2049257405
 21
116.7895730528
  0
LINE
  5
2BC
100
AcDbEntity
  8
ASSI
100
AcDbLine
 62
7
  6
CONTINUOUS
 10
138.9271244983
 20
117.7573918142
 11
138.4580910275
 21
117.497817103
  0
LINE
  5
2BD
100
AcDbEntity
  8
ASSI
100
AcDbLine
 62
7
  6
CONTINUOUS
 10
137.7281479998
 20
117.0938485973
 11
136.3912272104
 21
116.3539636008
  0
LINE
  5
2BE
100
AcDbEntity
  8
DRAFT
100
AcDbLine
 62
7
  6
CONTINUOUS
 10
138.7809342961
 20
116.0491807547
 11
138.494908016
 21
115.8950031309
  0
LINE
  5
2BF
100
AcDbEntity
  8
ASSI
100
AcDbLine
 62
7
  6
CONTINUOUS
 10
137.0546892561
 20
116.6170756396
 11
136.4752302145
 21
116.305461319
  0
LINE
  5
2C0
100
AcDbEntity
  8
RACCORDO
100
AcDbLine
 62
250
  6
CONTINUOUS
 10
137.1518825959
 20
116.6056246834
 11
136.5323688033
 21
116.272470214
  0
LINE
  5
2C1
100
AcDbEntity
  8
RACCORDO
100
AcDbLine
 62
250
  6
CONTINUOUS
 10
138.7681122852
 20
114.9605353955
 11
141.3951869548
 21
116.3323634839
  0
LWPOLYLINE
  5
2C2
100
AcDbEntity
  8
0
100
AcDbPolyline
 62
250
  6
CONTINUOUS
 90
16
 70
0
 10
136.4362246109
 20
113.1437538006
 10
136.3970003646
 20
113.1243826439
 10
136.3545263876
 20
113.1074495006
 10
136.3092553028
 20
113.0931348189
 10
136.2616638801
 20
113.081589965
 10
136.2122645161
 20
113.0729398195
 10
136.1616016337
 20
113.0672780345
 10
136.1102280438
 20
113.0646620144
 10
136.058679036
 20
113.0651147076
 10
136.0074845223
 20
113.0686298782
 10
135.9571193301
 20
113.0751814395
 10
135.9081924378
 20
113.0846968114
 10
135.8614012798
 20
113.0970218011
 10
135.8172708511
 20
113.1119730889
 10
135.776171258
 20
113.1293779809
 10
135.7384939325
 20
113.1490275393
  0
LWPOLYLINE
  5
2C3
100
AcDbEntity
  8
RACCORDO
100
AcDbPolyline
 62
250
  6
CONTINUOUS
 90
7
 70
0
 10
142.2049257405
 20
116.7895730528
 10
142.2185995998
 20
116.7961677884
 10
142.2320136847
 20
116.8005853428
 10
142.2449435416
 20
116.8027517985
 10
142.257172819
 20
116.8026309049
 10
142.2684968884
 20
116.8002246848
 10
142.2780264456
 20
116.7959839504
  0
LWPOLYLINE
  5
2C4
100
AcDbEntity
  8
RACCORDO
100
AcDbPolyline
 62
250
  6
CONTINUOUS
 90
4
 70
0
 10
142.0492436562
 20
81.1343315643
 10
142.0393340876
 20
81.1368050821
 10
142.0283528446
 20
81.136573006
 10
142.0166262317
 20
81.1336422322
  0
LWPOLYLINE
  5
2C5
100
AcDbEntity
  8
RACCORDO
100
AcDbPolyline
 62
7
  6
CONTINUOUS
 90
6
 70
0
 10
133.2202186478
 20
81.681947852
 10
133.240749716
 20
81.6718447972
 10
133.265338431
 20
81.6638420203
 10
133.290884088
 20
81.6595306583
 10
133.3172877414
 20
81.6588717218
 10
133.3309182715
 20
81.6599409973
  0
LWPOLYLINE
  5
2C6
100
AcDbEntity
  8
0
100
AcDbPolyline
 62
250
  6
CONTINUOUS
 90
9
 70
0
 10
120.7238331547
 20
79.786113072
 10
120.7249478398
 20
79.7668466413
 10
120.7310359015
 20
79.7372875707
 10
120.7423828076
 20
79.70820734
 10
120.7588628533
 20
79.6799575655
 10
120.7802089864
 20
79.6529409373
 10
120.8061037082
 20
79.6274605809
 10
120.8362479233
 20
79.603730191
 10
120.8702797641
 20
79.5819757754
  0
LINE
  5
2C7
100
AcDbEntity
  8
RACCORDO
100
AcDbLine
 62
7
  6
CONTINUOUS
 10
120.7238331606
 20
100.7017448023
 11
120.7238331547
 21
100.7017898959
  0
LINE
  5
2C8
100
AcDbEntity
  8
0
100
AcDbLine
 62
7
  6
CONTINUOUS
 10
120.7238331547
 20
79.786113072
 11
120.7238331547
 21
100.7017877755
  0
LINE
  5
2C9
100
AcDbEntity
  8
0
100
AcDbLine
 62
7
  6
CONTINUOUS
 10
120.7238331547
 20
101.0357954855
 11
120.7238331547
 21
121.9378853543
  0
LINE
  5
2CA
100
AcDbEntity
  8
RACCORDO
100
AcDbLine
 62
250
  6
CONTINUOUS
 10
120.8702797641
 20
79.5819757754
 11
120.8702797641
 21
100.4959805782
  0
LINE
  5
2CB
100
AcDbEntity
  8
DRAFT
100
AcDbLine
 62
250
  6
CONTINUOUS
 10
120.8702797641
 20
100.8379245505
 11
120.8702797641
 21
121.7337480576
  0
LWPOLYLINE
  5
2CC
100
AcDbEntity
  8
0
100
AcDbPolyline
 62
250
  6
CONTINUOUS
 90
16
 70
0
 10
120.8702797641
 20
121.7337480576
 10
120.872152601
 20
121.776792935
 10
120.8777512702
 20
121.8215444845
 10
120.8870164575
 20
121.8675285919
 10
120.8998500041
 20
121.9142580849
 10
120.9161159468
 20
121.9612378941
 10
120.9356419581
 20
122.0079702978
 10
120.9582211723
 20
122.0539601958
 10
120.9836143769
 20
122.0987203544
 10
121.0115525472
 20
122.1417765683
 10
121.041739696
 20
122.1826726843
 10
121.0738560097
 20
122.220975434
 10
121.1075612361
 20
122.2562790237
 10
121.1424982898
 20
122.2882094343
 10
121.1782970347
 20
122.3164283835
 10
121.2145782059
 20
122.3406369092
  0
LWPOLYLINE
  5
2CD
100
AcDbEntity
  8
RACCORDO
100
AcDbPolyline
 62
250
  6
CONTINUOUS
 90
10
 70
0
 10
120.8702797641
 20
100.4959805782
 10
120.87133057
 20
100.5106107091
 10
120.8744516482
 20
100.5260190813
 10
120.8795500966
 20
100.5417477226
 10
120.8864742962
 20
100.5573292656
 10
120.8950183384
 20
100.5723006291
 10
120.9049280856
 20
100.5862168123
 10
120.9159088988
 20
100.5986644049
 10
120.9276344661
 20
100.6092738225
 10
120.9397563707
 20
100.6177300925
  0
LINE
  5
2CE
100
AcDbEntity
  8
ASSI
100
AcDbLine
 62
7
  6
CONTINUOUS
 10
131.5958818747
 20
120.0680759454
 11
131.9776941453
 21
120.8779464612
  0
LINE
  5
2CF
100
AcDbEntity
  8
ASSI
100
AcDbLine
 62
250
  6
CONTINUOUS
 10
131.6543111229
 20
119.9937209376
 11
132.0361233936
 21
120.8035914534
  0
LWPOLYLINE
  5
2D0
100
AcDbEntity
  8
ASSI
100
AcDbPolyline
 62
7
  6
CONTINUOUS
 90
13
 70
0
 10
131.5958828096
 20
120.0680779279
 10
131.5857160525
 20
120.0477456223
 10
131.5733890303
 20
120.0257422335
 10
131.5597980699
 20
120.0039859018
 10
131.5451290372
 20
119.982783514
 10
131.5295926105
 20
119.9624334055
 10
131.513361077
 20
119.9431401116
 10
131.4966650376
 20
119.925138397
 10
131.4797797557
 20
119.9086706031
 10
131.4630205715
 20
119.8939601171
 10
131.4467494919
 20
119.8812032638
 10
131.4313136547
 20
119.8705228695
 10
131.4177915861
 20
119.8623779558
  0
LWPOLYLINE
  5
2D1
100
AcDbEntity
  8
ASSI
100
AcDbPolyline
 62
7
  6
CONTINUOUS
 90
7
 70
0
 10
136.00025744
 20
122.0484060782
 10
136.0006128183
 20
122.0489608683
 10
136.0000749468
 20
122.0483371112
 10
135.9973308495
 20
122.0455548005
 10
135.9921577172
 20
122.0411685605
 10
135.9847049534
 20
122.0358274346
 10
135.9742528311
 20
122.0294842165
  0
LWPOLYLINE
  5
2D2
100
AcDbEntity
  8
RACCORDO
100
AcDbPolyline
 62
7
  6
CONTINUOUS
 90
6
 70
0
 10
120.7760972392
 20
100.8545908961
 10
120.7567867244
 20
100.8245908409
 10
120.7418877262
 20
100.7935197192
 10
120.7314599308
 20
100.7617770258
 10
120.7254701397
 20
100.7296784869
 10
120.7238369211
 20
100.7017921436
  0
LWPOLYLINE
  5
2D3
100
AcDbEntity
  8
ASSI
100
AcDbPolyline
 62
250
  6
CONTINUOUS
 90
11
 70
0
 10
138.2364165072
 20
118.5905983562
 10
138.2225472745
 20
118.5768507865
 10
138.2147378038
 20
118.5692977343
 10
138.2062127608
 20
118.5613652072
 10
138.1969577094
 20
118.5530297703
 10
138.1868158502
 20
118.5443412588
 10
138.175674582
 20
118.5353757632
 10
138.1635497105
 20
118.5261441986
 10
138.1503307741
 20
118.5166911053
 10
138.1357981299
 20
118.5071100884
 10
138.1197825684
 20
118.4974863344
  0
LWPOLYLINE
  5
2D4
100
AcDbEntity
  8
RACCORDO
100
AcDbPolyline
 62
7
  6
CONTINUOUS
 90
3
 70
0
 10
120.8027569192
 20
100.8861381046
 10
120.7996401921
 20
100.8831150245
 10
120.7760972392
 20
100.8545908961
  0
LWPOLYLINE
  5
2D5
100
AcDbEntity
  8
ASSI
100
AcDbPolyline
 62
250
  6
CONTINUOUS
 90
3
 70
0
 10
140.8620035457
 20
120.1156528618
 10
140.8730075648
 20
120.1252779
 10
140.8853012812
 20
120.1340791262
  0
LWPOLYLINE
  5
2D6
100
AcDbEntity
  8
RACCORDO
100
AcDbPolyline
 62
7
  6
CONTINUOUS
 90
16
 70
0
 10
142.9195372361
 20
115.8017805554
 10
142.934107451
 20
115.8117027116
 10
142.9489591419
 20
115.8244471246
 10
142.9623601258
 20
115.8389991411
 10
142.9740222539
 20
115.8551013225
 10
142.9837968349
 20
115.8725729203
 10
142.9916203235
 20
115.8914034612
 10
142.9973446264
 20
115.9114995218
 10
143.0007742049
 20
115.9324648883
 10
143.0018324771
 20
115.9540016924
 10
143.0004299879
 20
115.9764668626
 10
142.9964639012
 20
115.9992538991
 10
142.9902986634
 20
116.0209341528
 10
142.9820488416
 20
116.0418214378
 10
142.9717510126
 20
116.0619636317
 10
142.9669524514
 20
116.069967134
  0
LWPOLYLINE
  5
2D7
100
AcDbEntity
  8
0
100
AcDbPolyline
 62
250
  6
CONTINUOUS
 90
16
 70
0
 10
136.0827923742
 20
113.7559163909
 10
136.046511203
 20
113.7317078651
 10
136.0107124581
 20
113.703488916
 10
135.9757754045
 20
113.6715585054
 10
135.9420701781
 20
113.6362549157
 10
135.9099538644
 20
113.597952166
 10
135.8797667155
 20
113.55705605
 10
135.8518285452
 20
113.513999836
 10
135.8264353406
 20
113.4692396775
 10
135.8038561265
 20
113.4232497795
 10
135.7843301152
 20
113.3765173757
 10
135.7680641725
 20
113.3295375666
 10
135.7552306259
 20
113.2828080736
 10
135.7459654386
 20
113.2368239662
 10
135.7403667694
 20
113.1920724166
 10
135.7384939325
 20
113.1490275393
  0
LWPOLYLINE
  5
2D8
100
AcDbEntity
  8
ASSI
100
AcDbPolyline
 62
250
  6
CONTINUOUS
 90
9
 70
0
 10
138.8204862787
 20
115.4789246446
 10
138.8341411919
 20
115.487988459
 10
138.8460884896
 20
115.4978196398
 10
138.8562003301
 20
115.5083112874
 10
138.8643645934
 20
115.5193427698
 10
138.8705013208
 20
115.5308007279
 10
138.8745512812
 20
115.5425825801
 10
138.8764627298
 20
115.5545879565
 10
138.8766182947
 20
115.5590854636
  0
LWPOLYLINE
  5
2D9
100
AcDbEntity
  8
ASSI
100
AcDbPolyline
 62
250
  6
CONTINUOUS
 90
7
 70
0
 10
138.8204862787
 20
115.109613655
 10
138.8340926433
 20
115.118641653
 10
138.8460076799
 20
115.1284342618
 10
138.8561034119
 20
115.1388863064
 10
138.8642716082
 20
115.1498858512
 10
138.8704242123
 20
115.1613144596
 10
138.8744948742
 20
115.1730483566
  0
LWPOLYLINE
  5
2DA
100
AcDbEntity
  8
RACCORDO
100
AcDbPolyline
 62
7
  6
CONTINUOUS
 90
9
 70
0
 10
138.246532281
 20
113.1301415062
 10
138.2500645194
 20
113.1324785699
 10
138.2595693555
 20
113.1405459592
 10
138.2677653814
 20
113.1503638142
 10
138.2745753262
 20
113.1618192058
 10
138.2799354648
 20
113.1747760715
 10
138.2837962305
 20
113.189081788
 10
138.2861209222
 20
113.2045709156
 10
138.2868916002
 20
113.2210669444
  0
LWPOLYLINE
  5
2DB
100
AcDbEntity
  8
RACCORDO
100
AcDbPolyline
 62
250
  6
CONTINUOUS
 90
25
 70
0
 10
142.9195406324
 20
115.8017825616
 10
142.9238043017
 20
115.8045831677
 10
142.9289875187
 20
115.8086462765
 10
142.9338491447
 20
115.8132470181
 10
142.9383338197
 20
115.8183377778
 10
142.942460552
 20
115.82394512
 10
142.9462920927
 20
115.8302070972
 10
142.9498077291
 20
115.8372072572
 10
142.9529192377
 20
115.8449065477
 10
142.955564782
 20
115.8532795944
 10
142.9576974116
 20
115.8623215076
 10
142.9592721834
 20
115.8720282014
 10
142.960242756
 20
115.8823563486
 10
142.9605709218
 20
115.8932876476
 10
142.9602197327
 20
115.9047867205
 10
142.9591620235
 20
115.9167664403
 10
142.9573882435
 20
115.9291094712
 10
142.9548766298
 20
115.9418304241
 10
142.9515689059
 20
115.9550341911
 10
142.9474405661
 20
115.9686239719
 10
142.9424538457
 20
115.9825628899
 10
142.9364681496
 20
115.9970354103
 10
142.9293814434
 20
116.01202357
 10
142.9211821403
 20
116.0273066476
 10
142.9118396864
 20
116.0427293871
  0
LWPOLYLINE
  5
2DC
100
AcDbEntity
  8
RACCORDO
100
AcDbPolyline
 62
250
  6
CONTINUOUS
 90
6
 70
0
 10
138.7658161259
 20
112.5931856604
 10
138.7775380791
 20
112.6008579269
 10
138.7867309396
 20
112.6096045292
 10
138.7931058621
 20
112.6191509027
 10
138.7964624587
 20
112.629197364
 10
138.7969806684
 20
112.6350678189
  0
LWPOLYLINE
  5
2DD
100
AcDbEntity
  8
RACCORDO
100
AcDbPolyline
 62
250
  6
CONTINUOUS
 90
13
 70
0
 10
137.7627652153
 20
114.4810532292
 10
137.7487104894
 20
114.4722015182
 10
137.7348648204
 20
114.4613460798
 10
137.7214695706
 20
114.4486769852
 10
137.7087570627
 20
114.4344164369
 10
137.6969500229
 20
114.4188138645
 10
137.6862575445
 20
114.4021417498
 10
137.6768656819
 20
114.3846923538
 10
137.6689377439
 20
114.3667715347
 10
137.6626146189
 20
114.3486925429
 10
137.6580067736
 20
114.3307719049
 10
137.6551925863
 20
114.3133238328
 10
137.6542201907
 20
114.296653887
  0
LINE
  5
2DE
100
AcDbEntity
  8
RACCORDO
100
AcDbLine
 62
250
  6
CONTINUOUS
 10
138.2868916002
 20
113.2210669444
 11
138.840277888
 21
113.5632893257
  0
LINE
  5
2DF
100
AcDbEntity
  8
RACCORDO
100
AcDbLine
 62
7
  6
CONTINUOUS
 10
138.2465330188
 20
113.1301419325
 11
138.8005995973
 21
113.4727850158
  0
LINE
  5
2E0
100
AcDbEntity
  8
RACCORDO
100
AcDbLine
 62
250
  6
CONTINUOUS
 10
140.5002495689
 20
114.5792276781
 11
142.9118396864
 21
116.042729387
  0
LINE
  5
2E1
100
AcDbEntity
  8
RACCORDO
100
AcDbLine
 62
7
  6
CONTINUOUS
 10
140.6627254131
 20
114.4327299755
 11
142.9183215773
 21
115.8010614393
  0
LINE
  5
2E2
100
AcDbEntity
  8
RACCORDO
100
AcDbLine
 62
7
  6
CONTINUOUS
 10
138.2447426653
 20
113.1290718179
 11
138.246532281
 21
113.1301415062
  0
LINE
  5
2E3
100
AcDbEntity
  8
RACCORDO
100
AcDbLine
 62
250
  6
CONTINUOUS
 10
138.3341513483
 20
113.1762449751
 11
138.2067033065
 21
113.1012045149
  0
LINE
  5
2E4
100
AcDbEntity
  8
RACCORDO
100
AcDbLine
 62
250
  6
CONTINUOUS
 10
138.38074114
 20
113.0282151557
 11
138.3571697068
 21
113.0143385928
  0
LINE
  5
2E5
100
AcDbEntity
  8
RACCORDO
100
AcDbLine
 62
250
  6
CONTINUOUS
 10
143.0938570299
 20
117.0200643491
 11
142.4735673852
 21
116.6598683785
  0
LINE
  5
2E6
100
AcDbEntity
  8
RACCORDO
100
AcDbLine
 62
250
  6
CONTINUOUS
 10
143.2399145256
 20
116.7347466327
 11
142.7114471758
 21
116.4278709471
  0
LINE
  5
2E7
100
AcDbEntity
  8
RACCORDO
100
AcDbLine
 62
250
  6
CONTINUOUS
 10
137.939509507
 20
114.2565490888
 11
138.840277888
 21
114.7766432485
  0
LINE
  5
2E8
100
AcDbEntity
  8
0
100
AcDbLine
 62
250
  6
CONTINUOUS
 10
137.7518433521
 20
113.9033718267
 11
136.4362246109
 21
113.1437538006
  0
LINE
  5
2E9
100
AcDbEntity
  8
RACCORDO
100
AcDbLine
 62
250
  6
CONTINUOUS
 10
138.0760372829
 20
113.0993218862
 11
138.2868916002
 21
113.2210669444
  0
LINE
  5
2EA
100
AcDbEntity
  8
RACCORDO
100
AcDbLine
 62
7
  6
CONTINUOUS
 10
138.0321744122
 20
113.0063371513
 11
138.2447431616
 21
113.1290721045
  0
LWPOLYLINE
  5
2EB
100
AcDbEntity
  8
RACCORDO
100
AcDbPolyline
 62
250
  6
CONTINUOUS
 90
9
 70
0
 10
142.9118396864
 20
116.042729387
 10
142.9247688295
 20
116.0500790102
 10
142.9362772432
 20
116.0564282634
 10
142.9461723609
 20
116.0616709066
 10
142.9542886107
 20
116.0657192162
 10
142.9604901858
 20
116.0685054532
 10
142.9646733173
 20
116.0699829963
 10
142.9667680101
 20
116.0701271223
 10
142.9669524513
 20
116.069967134
  0
LINE
  5
2EC
100
AcDbEntity
  8
DRAFT
100
AcDbLine
 62
7
  6
CONTINUOUS
 10
138.2217879886
 20
111.0994370149
 11
137.7518433521
 21
110.8327149229
  0
LINE
  5
2ED
100
AcDbEntity
  8
RACCORDO
100
AcDbLine
 62
250
  6
CONTINUOUS
 10
142.0382541238
 20
115.6686875101
 11
142.8696583649
 21
116.1377871963
  0
LWPOLYLINE
  5
2EE
100
AcDbEntity
  8
RACCORDO
100
AcDbPolyline
 62
250
  6
CONTINUOUS
 90
8
 70
0
 10
142.8696583649
 20
116.1377871963
 10
142.8811748572
 20
116.144123926
 10
142.8910826573
 20
116.1493465227
 10
142.8992159946
 20
116.1533676075
 10
142.9054387809
 20
116.1561199013
 10
142.9096469
 20
116.1575573588
 10
142.9117699666
 20
116.1576559461
 10
142.9119630391
 20
116.1574821535
  0
LINE
  5
2EF
100
AcDbEntity
  8
RACCORDO
100
AcDbLine
 62
250
  6
CONTINUOUS
 10
137.9242109872
 20
112.9662858525
 11
137.7518433521
 21
112.8718421352
  0
LINE
  5
2F0
100
AcDbEntity
  8
RACCORDO
100
AcDbLine
 62
250
  6
CONTINUOUS
 10
138.1677111399
 20
112.9384589407
 11
137.7518433521
 21
112.7105965595
  0
LWPOLYLINE
  5
2F1
100
AcDbEntity
  8
RACCORDO
100
AcDbPolyline
 62
250
  6
CONTINUOUS
 90
9
 70
0
 10
137.939509507
 20
113.1809608101
 10
137.9199173877
 20
113.1707004568
 10
137.8981514215
 20
113.1620225861
 10
137.8745922799
 20
113.1550790169
 10
137.849652005
 20
113.1499912365
 10
137.8237668254
 20
113.1468482788
 10
137.7973895285
 20
113.1457051593
 10
137.7709814945
 20
113.1465819091
 10
137.7518433521
 20
113.1487046894
  0
LWPOLYLINE
  5
2F2
100
AcDbEntity
  8
RACCORDO
100
AcDbPolyline
 62
250
  6
CONTINUOUS
 90
9
 70
0
 10
137.939509507
 20
110.4779584746
 10
137.9199166912
 20
110.4676977948
 10
137.8981500472
 20
110.4590197632
 10
137.8745903184
 20
110.4520761764
 10
137.849649613
 20
110.4469884921
 10
137.8237641953
 20
110.4438457043
 10
137.7973868545
 20
110.4427027868
 10
137.7709789846
 20
110.4435797317
 10
137.7518433521
 20
110.4457023721
  0
LINE
  5
2F3
100
AcDbEntity
  8
RACCORDO
100
AcDbLine
 62
250
  6
CONTINUOUS
 10
138.840277888
 20
114.0074122503
 11
142.0382541238
 21
115.6686875101
  0
LWPOLYLINE
  5
2F4
100
AcDbEntity
  8
RACCORDO
100
AcDbPolyline
 62
250
  6
CONTINUOUS
 90
9
 70
0
 10
139.8858280089
 20
88.2001408669
 10
139.9611210729
 20
88.2192038806
 10
140.0340788483
 20
88.2305645983
 10
140.1048671715
 20
88.2343007476
 10
140.1732854887
 20
88.230349111
 10
140.2387114519
 20
88.2186904359
 10
140.3006689277
 20
88.1994043976
 10
140.3591363826
 20
88.1724471152
 10
140.3699068718
 20
88.1664098856
  0
LWPOLYLINE
  5
2F5
100
AcDbEntity
  8
RACCORDO
100
AcDbPolyline
 62
7
  6
CONTINUOUS
 90
5
 70
0
 10
138.840277888
 20
87.4757765679
 10
138.8504205153
 20
87.4770527876
 10
138.8705600772
 20
87.4821610553
 10
138.8899261243
 20
87.489729606
 10
138.9031530517
 20
87.4966079361
  0
LWPOLYLINE
  5
2F6
100
AcDbEntity
  8
RACCORDO
100
AcDbPolyline
 62
250
  6
CONTINUOUS
 90
7
 70
0
 10
138.840277888
 20
87.5627680806
 10
138.8595023279
 20
87.5636010666
 10
138.8789163912
 20
87.5659581577
 10
138.8976219204
 20
87.5697739211
 10
138.915291717
 20
87.5749816113
 10
138.9316167001
 20
87.5814901351
 10
138.946311312
 20
87.589185645
  0
LWPOLYLINE
  5
2F7
100
AcDbEntity
  8
RACCORDO
100
AcDbPolyline
 62
250
  6
CONTINUOUS
 90
6
 70
0
 10
143.6661002216
 20
87.3387994072
 10
143.6619531014
 20
87.338664088
 10
143.6577770154
 20
87.3382426356
 10
143.6535533136
 20
87.3375016043
 10
143.6493018537
 20
87.3364055766
 10
143.6450538336
 20
87.3349208991
  0
LWPOLYLINE
  5
2F8
100
AcDbEntity
  8
RACCORDO
100
AcDbPolyline
 62
250
  6
CONTINUOUS
 90
10
 70
0
 10
138.8927905145
 20
85.4804241165
 10
138.9189372306
 20
85.4810832563
 10
138.9448849566
 20
85.4830556593
 10
138.9704362147
 20
85.4863263147
 10
138.9953965448
 20
85.4908703313
 10
139.0195759831
 20
85.4966531267
 10
139.0427905074
 20
85.5036306899
 10
139.0648634407
 20
85.5117499175
 10
139.0856267951
 20
85.5209490173
 10
139.1049225489
 20
85.5311579786
  0
LINE
  5
2F9
100
AcDbEntity
  8
RACCORDO
100
AcDbLine
 62
250
  6
CONTINUOUS
 10
138.840277888
 20
85.4798949278
 11
138.8927905145
 21
85.4804241165
  0
LINE
  5
2FA
100
AcDbEntity
  8
RACCORDO
100
AcDbLine
 62
250
  6
CONTINUOUS
 10
138.840277888
 20
85.8959146415
 11
138.8890883001
 21
85.8964065217
  0
LINE
  5
2FB
100
AcDbEntity
  8
RACCORDO
100
AcDbLine
 62
7
  6
CONTINUOUS
 10
124.2198494486
 20
86.8786479308
 11
133.2204037773
 21
81.6818406649
  0
LINE
  5
2FC
100
AcDbEntity
  8
RACCORDO
100
AcDbLine
 62
250
  6
CONTINUOUS
 10
124.3645944578
 20
87.3827002243
 11
133.3685589044
 21
82.183923999
  0
LINE
  5
2FD
100
AcDbEntity
  8
RACCORDO
100
AcDbLine
 62
250
  6
CONTINUOUS
 10
125.6198171004
 20
88.1589487352
 11
133.4699347702
 21
83.6263891777
  0
LINE
  5
2FE
100
AcDbEntity
  8
RACCORDO
100
AcDbLine
 62
250
  6
CONTINUOUS
 10
125.689293707
 20
88.2806982496
 11
133.4699347702
 21
83.788253614
  0
LINE
  5
2FF
100
AcDbEntity
  8
RACCORDO
100
AcDbLine
 62
250
  6
CONTINUOUS
 10
139.2498951709
 20
80.9430235746
 11
138.840277888
 21
81.1795291837
  0
LWPOLYLINE
  5
300
100
AcDbEntity
  8
RACCORDO
100
AcDbPolyline
 62
250
  6
CONTINUOUS
 90
3
 70
0
 10
124.2198494498
 20
86.8786479302
 10
124.2173940111
 20
86.8801139454
 10
124.2112267611
 20
86.8842492682
  0
LINE
  5
301
100
AcDbEntity
  8
RACCORDO
100
AcDbLine
 62
250
  6
CONTINUOUS
 10
125.5589870362
 20
88.1914533263
 11
125.5478938899
 21
88.1990715469
  0
LWPOLYLINE
  5
302
100
AcDbEntity
  8
RACCORDO
100
AcDbPolyline
 62
250
  6
CONTINUOUS
 90
43
 70
0
 10
124.2112267611
 20
86.8842492682
 10
124.2054165221
 20
86.8888088503
 10
124.1999330385
 20
86.8937991668
 10
124.1947774917
 20
86.8992082731
 10
124.1899585759
 20
86.9050155732
 10
124.1854644742
 20
86.9112262736
 10
124.1813002715
 20
86.9178286382
 10
124.177472573
 20
86.924807091
 10
124.1739768823
 20
86.9321677229
 10
124.170818242
 20
86.939903406
 10
124.1680053609
 20
86.9479966597
 10
124.1655419663
 20
86.9564409471
 10
124.163433128
 20
86.9652272365
 10
124.1616856232
 20
86.974337214
 10
124.1603049315
 20
86.9837495717
 10
124.1592943994
 20
86.9934486354
 10
124.1586568854
 20
87.0034173193
 10
124.158394477
 20
87.0136301163
 10
124.1585075904
 20
87.0240671921
 10
124.1589960067
 20
87.0347113846
 10
124.1598585261
 20
87.0455397839
 10
124.1610930159
 20
87.0565315908
 10
124.162696971
 20
87.0676682592
 10
124.1646672217
 20
87.0789296649
 10
124.1669997217
 20
87.0902952261
 10
124.1696899759
 20
87.1017450001
 10
124.172733276
 20
87.113259621
 10
124.1761237401
 20
87.1248181871
 10
124.1798551326
 20
87.1364005372
 10
124.1839216117
 20
87.1479883722
 10
124.1883155878
 20
87.1595605731
 10
124.1930293308
 20
87.1710971748
 10
124.1980564612
 20
87.182581618
 10
124.2033884548
 20
87.1939939691
 10
124.2090157994
 20
87.2053133697
 10
124.2149303244
 20
87.2165219001
 10
124.221121223
 20
87.2275984265
 10
124.2275782988
 20
87.238524029
 10
124.2342940872
 20
87.2492840591
 10
124.2412649497
 20
87.2598702576
 10
124.2484717199
 20
87.2702510615
 10
124.2558813755
 20
87.2803788742
 10
124.2634524465
 20
87.2902028921
  0
LWPOLYLINE
  5
303
100
AcDbEntity
  8
RACCORDO
100
AcDbPolyline
 62
250
  6
CONTINUOUS
 90
7
 70
0
 10
120.825311687
 20
100.7552223406
 10
120.8229520488
 20
100.7756266229
 10
120.8231635233
 20
100.7951943689
 10
120.8258069559
 20
100.8135741212
 10
120.8310215011
 20
100.8311173372
 10
120.8383789228
 20
100.84821961
 10
120.8423887819
 20
100.855532231
  0
LWPOLYLINE
  5
304
100
AcDbEntity
  8
0
100
AcDbPolyline
 62
250
  6
CONTINUOUS
 90
9
 70
0
 10
120.7238331551
 20
121.9378739474
 10
120.7249496909
 20
121.9186029505
 10
120.7310411149
 20
121.8890423144
 10
120.7423912782
 20
121.8599621729
 10
120.7588739025
 20
121.8317137149
 10
120.780221114
 20
121.8046997521
 10
120.8061146687
 20
121.7792232427
 10
120.8362549869
 20
121.755497469
 10
120.8702797641
 20
121.7337480576
  0
LWPOLYLINE
  5
305
100
AcDbEntity
  8
RACCORDO
100
AcDbPolyline
 62
250
  6
CONTINUOUS
 90
22
 70
0
 10
122.1486660556
 20
123.2855367514
 10
122.1486759081
 20
123.2846778025
 10
122.1488808387
 20
123.2814947989
 10
122.1493539366
 20
123.2782584577
 10
122.15010033
 20
123.2749688108
 10
122.1511225872
 20
123.2716376886
 10
122.1524212914
 20
123.2682709015
 10
122.1539998046
 20
123.264869446
 10
122.1558573272
 20
123.2614448137
 10
122.1579819004
 20
123.2580179295
 10
122.1603638674
 20
123.2546005195
 10
122.1630025251
 20
123.2511916003
 10
122.1658949978
 20
123.2477923083
 10
122.169016899
 20
123.2444298929
 10
122.1723796452
 20
123.2410866271
 10
122.1760478617
 20
123.2377001751
 10
122.1799914228
 20
123.2343175436
 10
122.184250481
 20
123.2309094302
 10
122.189041544
 20
123.2273168549
 10
122.1944783692
 20
123.2235115661
 10
122.2005336592
 20
123.2195818262
 10
122.2072446993
 20
123.2155614515
  0
LINE
  5
306
100
AcDbEntity
  8
RACCORDO
100
AcDbLine
 62
7
  6
CONTINUOUS
 10
122.1486660555
 20
123.1228003069
 11
122.1486660555
 21
123.2855409052
  0
LINE
  5
307
100
AcDbEntity
  8
RACCORDO
100
AcDbLine
 62
250
  6
CONTINUOUS
 10
122.2072446993
 20
123.1597950253
 11
122.2072446993
 21
123.2155439397
  0
LINE
  5
308
100
AcDbEntity
  8
RACCORDO
100
AcDbLine
 62
250
  6
CONTINUOUS
 10
122.9923923169
 20
97.0749422336
 11
122.9923923169
 21
81.1352265756
  0
LINE
  5
309
100
AcDbEntity
  8
RACCORDO
100
AcDbLine
 62
250
  6
CONTINUOUS
 10
123.6932748928
 20
97.0714106376
 11
123.6932748928
 21
82.6824047446
  0
LINE
  5
30A
100
AcDbEntity
  8
RACCORDO
100
AcDbLine
 62
7
  6
CONTINUOUS
 10
124.2031675174
 20
96.778212979
 11
124.2031675174
 21
90.7792782525
  0
LINE
  5
30B
100
AcDbEntity
  8
RACCORDO
100
AcDbLine
 62
7
  6
CONTINUOUS
 10
124.3092335346
 20
96.5576993318
 11
124.3092335346
 21
94.3053470534
  0
LINE
  5
30C
100
AcDbEntity
  8
RACCORDO
100
AcDbLine
 62
7
  6
CONTINUOUS
 10
124.3092335346
 20
92.4753479478
 11
124.3092335346
 21
89.9819447968
  0
LINE
  5
30D
100
AcDbEntity
  8
DRAFT
100
AcDbLine
 62
7
  6
CONTINUOUS
 10
124.5628922054
 20
88.075108376
 11
124.5628922054
 21
87.5412223885
  0
LWPOLYLINE
  5
30E
100
AcDbEntity
  8
RACCORDO
100
AcDbPolyline
 62
250
  6
CONTINUOUS
 90
19
 70
0
 10
122.9923923169
 20
97.0749422336
 10
122.9943065262
 20
97.1238871799
 10
122.9998753017
 20
97.1697515521
 10
123.0090986433
 20
97.2125353504
 10
123.0221168466
 20
97.2525784334
 10
123.038789616
 20
97.2895409424
 10
123.0586960656
 20
97.3224033013
 10
123.0818879368
 20
97.3509906505
 10
123.1083134881
 20
97.3754778495
 10
123.1373966089
 20
97.3953699012
 10
123.1691863523
 20
97.4105882592
 10
123.2036336652
 20
97.42121147
 10
123.2400152775
 20
97.4269801756
 10
123.2784673965
 20
97.4277521232
 10
123.3188538149
 20
97.4236695658
 10
123.3600426413
 20
97.4148999039
 10
123.4016565785
 20
97.401498938
 10
123.4440729236
 20
97.3834108676
 10
123.4872916767
 20
97.3606356929
  0
LWPOLYLINE
  5
30F
100
AcDbEntity
  8
ASSI
100
AcDbPolyline
 62
250
  6
CONTINUOUS
 90
7
 70
0
 10
129.1881788217
 20
119.8470506358
 10
129.1794821712
 20
119.820194866
 10
129.172218835
 20
119.7934956843
 10
129.1664169888
 20
119.7662416655
 10
129.1620860246
 20
119.7381956681
 10
129.1592165503
 20
119.7095948337
 10
129.157808566
 20
119.6804391623
  0
LWPOLYLINE
  5
310
100
AcDbEntity
  8
ASSI
100
AcDbPolyline
 62
250
  6
CONTINUOUS
 90
9
 70
0
 10
131.5958818747
 20
120.0680759454
 10
131.5949304377
 20
120.0653280777
 10
131.5948939052
 20
120.058035925
 10
131.5978579869
 20
120.0495024481
 10
131.6037737853
 20
120.0398684213
 10
131.612543709
 20
120.0292927745
 10
131.6240230833
 20
120.0179499708
 10
131.6380225362
 20
120.0060271293
 10
131.6543111229
 20
119.9937209376
  0
LWPOLYLINE
  5
311
100
AcDbEntity
  8
ASSI
100
AcDbPolyline
 62
250
  6
CONTINUOUS
 90
11
 70
0
 10
131.9776941453
 20
120.8779464612
 10
131.9770938996
 20
120.8764462811
 10
131.9763623886
 20
120.8709062377
 10
131.977565554
 20
120.8645335382
 10
131.9806876683
 20
120.8574040479
 10
131.9856898635
 20
120.8495963784
 10
131.9925147147
 20
120.8411938417
 10
132.001078178
 20
120.8322937236
 10
132.0112788576
 20
120.8229944633
 10
132.0230038851
 20
120.8133931476
 10
132.0361233936
 20
120.8035914534
  0
LWPOLYLINE
  5
312
100
AcDbEntity
  8
ASSI
100
AcDbPolyline
 62
250
  6
CONTINUOUS
 90
10
 70
0
 10
132.0361233936
 20
120.8035914534
 10
132.0451605293
 20
120.8246748001
 10
132.0557317105
 20
120.8453251981
 10
132.0676939805
 20
120.8652633861
 10
132.0808855702
 20
120.8842197342
 10
132.0951280862
 20
120.9019378902
 10
132.1102289229
 20
120.9181782461
 10
132.1259838673
 20
120.9327211788
 10
132.1421798609
 20
120.9453700198
 10
132.1585978807
 20
120.9559537149
  0
LWPOLYLINE
  5
313
100
AcDbEntity
  8
ASSI
100
AcDbPolyline
 62
250
  6
CONTINUOUS
 90
10
 70
0
 10
138.4122394729
 20
118.7410336999
 10
138.3984946539
 20
118.7250158333
 10
138.3868647143
 20
118.7083292938
 10
138.3775062624
 20
118.691198753
 10
138.3705453223
 20
118.6738548599
 10
138.3660756408
 20
118.6565311474
 10
138.3641574192
 20
118.6394608879
 10
138.3648164989
 20
118.6228739346
 10
138.3680440185
 20
118.6069936274
 10
138.3721546645
 20
118.5956086675
  0
LINE
  5
314
100
AcDbEntity
  8
ASSI
100
AcDbLine
 62
250
  6
CONTINUOUS
 10
138.7172054266
 20
115.0036855752
 11
138.8204862787
 21
115.109613655
  0
LINE
  5
315
100
AcDbEntity
  8
ASSI
100
AcDbLine
 62
7
  6
CONTINUOUS
 10
138.7510443877
 20
114.9796743068
 11
138.8198176883
 21
115.05021036
  0
LINE
  5
316
100
AcDbEntity
  8
RACCORDO
100
AcDbLine
 62
250
  6
CONTINUOUS
 10
143.2399145256
 20
116.2967846723
 11
142.9735634287
 21
116.0624528284
  0
LINE
  5
317
100
AcDbEntity
  8
RACCORDO
100
AcDbLine
 62
250
  6
CONTINUOUS
 10
142.1392883619
 20
115.3284696873
 11
140.8241114684
 21
114.1713960723
  0
LINE
  5
318
100
AcDbEntity
  8
RACCORDO
100
AcDbLine
 62
7
  6
CONTINUOUS
 10
140.8476334087
 20
114.1324958145
 11
142.3574659568
 21
115.4608246599
  0
LINE
  5
319
100
AcDbEntity
  8
RACCORDO
100
AcDbLine
 62
7
  6
CONTINUOUS
 10
142.9910612171
 20
116.0182526088
 11
143.2231831023
 21
116.2224700872
  0
LWPOLYLINE
  5
31A
100
AcDbEntity
  8
RACCORDO
100
AcDbPolyline
 62
250
  6
CONTINUOUS
 90
19
 70
0
 10
138.0760372829
 20
110.7228579205
 10
138.0642866893
 20
110.7149871273
 10
138.0527903181
 20
110.7061658219
 10
138.0415481692
 20
110.6963940041
 10
138.0304788275
 20
110.6855806523
 10
138.0196637081
 20
110.6738167881
 10
138.0093470567
 20
110.6613754768
 10
137.9995678794
 20
110.6482970166
 10
137.9902871701
 20
110.6345411092
 10
137.9816321562
 20
110.6202599245
 10
137.9735829139
 20
110.605437285
 10
137.9661593669
 20
110.5900893682
 10
137.9595485142
 20
110.5744168761
 10
137.9537317429
 20
110.558338886
 10
137.9487276658
 20
110.5419363205
 10
137.94477912
 20
110.5256526496
 10
137.9419670511
 20
110.5096356967
 10
137.9402105134
 20
110.4937376383
 10
137.939509507
 20
110.4779584746
  0
LINE
  5
31B
100
AcDbEntity
  8
RACCORDO
100
AcDbLine
 62
250
  6
CONTINUOUS
 10
138.3487675461
 20
110.8915184062
 11
138.0760372829
 21
110.7228579205
  0
LINE
  5
31C
100
AcDbEntity
  8
RACCORDO
100
AcDbLine
 62
250
  6
CONTINUOUS
 10
142.7928108038
 20
110.522503361
 11
138.8402778848
 21
108.1868027274
  0
LINE
  5
31D
100
AcDbEntity
  8
DRAFT
100
AcDbLine
 62
7
  6
CONTINUOUS
 10
138.5457725092
 20
110.5128214621
 11
138.840277888
 21
110.6828657607
  0
LWPOLYLINE
  5
31E
100
AcDbEntity
  8
RACCORDO
100
AcDbPolyline
 62
250
  6
CONTINUOUS
 90
7
 70
0
 10
138.840277888
 20
89.554763873
 10
138.8595040132
 20
89.5555322504
 10
138.8789196651
 20
89.55782312
 10
138.8976257531
 20
89.5615760873
 10
138.9152949005
 20
89.5667252316
 10
138.9316185155
 20
89.5731781937
 10
138.946311312
 20
89.5808209731
  0
LWPOLYLINE
  5
31F
100
AcDbEntity
  8
RACCORDO
100
AcDbPolyline
 62
250
  6
CONTINUOUS
 90
6
 70
0
 10
143.6661002216
 20
91.0945626804
 10
143.6619531014
 20
91.0944273612
 10
143.6577770154
 20
91.0940059088
 10
143.6535533136
 20
91.0932648776
 10
143.6493018537
 20
91.0921688498
 10
143.6450538336
 20
91.0906841723
  0
LWPOLYLINE
  5
320
100
AcDbEntity
  8
RACCORDO
100
AcDbPolyline
 62
250
  6
CONTINUOUS
 90
5
 70
0
 10
142.0943204504
 20
81.1086523131
 10
142.090370838
 20
81.1105852909
 10
142.0804612628
 20
81.113058896
 10
142.069479963
 20
81.1128268885
 10
142.0577532388
 20
81.1098961417
  0
LINE
  5
321
100
AcDbEntity
  8
RACCORDO
100
AcDbLine
 62
250
  6
CONTINUOUS
 10
142.0532584255
 20
81.1323611465
 11
142.0492436562
 21
81.1343315643
  0
LINE
  5
322
100
AcDbEntity
  8
RACCORDO
100
AcDbLine
 62
250
  6
CONTINUOUS
 10
139.5925962002
 20
81.5605429712
 11
139.3703604836
 21
81.6888578537
  0
LINE
  5
323
100
AcDbEntity
  8
RACCORDO
100
AcDbLine
 62
250
  6
CONTINUOUS
 10
142.0045027017
 20
81.1280998476
 11
142.0456295473
 21
81.1043537223
  0
LINE
  5
324
100
AcDbEntity
  8
RACCORDO
100
AcDbLine
 62
7
  6
CONTINUOUS
 10
142.0532710462
 20
81.1323538632
 11
142.0943979529
 21
81.1086077027
  0
LWPOLYLINE
  5
325
100
AcDbEntity
  8
RACCORDO
100
AcDbPolyline
 62
250
  6
CONTINUOUS
 90
3
 70
0
 10
142.0456296421
 20
81.1043537795
 10
142.0616095531
 20
81.0944537444
 10
142.0773026708
 20
81.0827201236
  0
LWPOLYLINE
  5
326
100
AcDbEntity
  8
RACCORDO
100
AcDbPolyline
 62
7
  6
CONTINUOUS
 90
5
 70
0
 10
142.0532584255
 20
81.1323611465
 10
142.0431117975
 20
81.1387874729
 10
142.0325135494
 20
81.1466603218
 10
142.0213279449
 20
81.1562259793
 10
142.0099353031
 20
81.1673240015
  0
LWPOLYLINE
  5
327
100
AcDbEntity
  8
RACCORDO
100
AcDbPolyline
 62
250
  6
CONTINUOUS
 90
4
 70
0
 10
125.5752582238
 20
88.1683640936
 10
125.5736235909
 20
88.173512174
 10
125.5676494028
 20
88.1828483032
 10
125.5589870362
 20
88.1914533263
  0
LINE
  5
328
100
AcDbEntity
  8
DRAFT
100
AcDbLine
 62
7
  6
CONTINUOUS
 10
124.2031675174
 20
90.7792782525
 11
124.5628922054
 21
88.075108376
  0
LINE
  5
329
100
AcDbEntity
  8
RACCORDO
100
AcDbLine
 62
7
  6
CONTINUOUS
 10
124.641804514
 20
92.6827099266
 11
124.641804514
 21
92.8747763166
  0
LINE
  5
32A
100
AcDbEntity
  8
RACCORDO
100
AcDbLine
 62
7
  6
CONTINUOUS
 10
124.641804514
 20
93.7985069876
 11
124.641804514
 21
93.9905733776
  0
LINE
  5
32B
100
AcDbEntity
  8
RACCORDO
100
AcDbLine
 62
250
  6
CONTINUOUS
 10
125.5478938899
 20
88.1503622055
 11
125.5478938899
 21
88.1990715469
  0
LINE
  5
32C
100
AcDbEntity
  8
RACCORDO
100
AcDbLine
 62
250
  6
CONTINUOUS
 10
126.375856544
 20
120.8881423027
 11
126.3758565406
 21
120.8798192835
  0
LINE
  5
32D
100
AcDbEntity
  8
RACCORDO
100
AcDbLine
 62
7
  6
CONTINUOUS
 10
127.3489966217
 20
120.317940397
 11
127.34899662
 21
121.4114655435
  0
LINE
  5
32E
100
AcDbEntity
  8
RACCORDO
100
AcDbLine
 62
250
  6
CONTINUOUS
 10
125.5478938899
 20
88.1990715469
 11
125.5481060667
 21
88.2073211637
  0
LWPOLYLINE
  5
32F
100
AcDbEntity
  8
RACCORDO
100
AcDbPolyline
 62
250
  6
CONTINUOUS
 90
3
 70
0
 10
125.5481060667
 20
88.2073211637
 10
125.5486443186
 20
88.2152127557
 10
125.5495086455
 20
88.222746323
  0
LWPOLYLINE
  5
330
100
AcDbEntity
  8
ASSI
100
AcDbPolyline
 62
250
  6
CONTINUOUS
 90
7
 70
0
 10
129.213940606
 20
119.7606556129
 10
129.2124850767
 20
119.7467501215
 10
129.2077149798
 20
119.7320686472
 10
129.1997025166
 20
119.7178655256
 10
129.1885817569
 20
119.7043784134
 10
129.1745387812
 20
119.691832986
 10
129.157808566
 20
119.6804391623
  0
LWPOLYLINE
  5
331
100
AcDbEntity
  8
RACCORDO
100
AcDbPolyline
 62
250
  6
CONTINUOUS
 90
28
 70
0
 10
125.5495086455
 20
88.222746323
 10
125.5507011411
 20
88.229897928
 10
125.5522197117
 20
88.2366915083
 10
125.5540580761
 20
88.2431988761
 10
125.5562126403
 20
88.2494523372
 10
125.5586869982
 20
88.2554195858
 10
125.5614856505
 20
88.2610755168
 10
125.5646083345
 20
88.2664274101
 10
125.568055313
 20
88.2714679859
 10
125.5718318755
 20
88.2761502997
 10
125.575943619
 20
88.2804800471
 10
125.5803849465
 20
88.2844515327
 10
125.5851443569
 20
88.2880007255
 10
125.5902355606
 20
88.2911264897
 10
125.5956448471
 20
88.2938299611
 10
125.6013195837
 20
88.296050516
 10
125.6072626866
 20
88.2977766229
 10
125.6134712395
 20
88.2990198133
 10
125.6198838614
 20
88.299754058
 10
125.6264578239
 20
88.2999866452
 10
125.6332358554
 20
88.2997102867
 10
125.64028476
 20
88.2988770888
 10
125.6475937105
 20
88.2975225772
 10
125.6551735342
 20
88.2956112263
 10
125.6631235171
 20
88.2929885651
 10
125.6714767545
 20
88.2896031035
 10
125.6802001512
 20
88.2855063316
 10
125.689293707
 20
88.2806982496
  0
LINE
  5
332
100
AcDbEntity
  8
RACCORDO
100
AcDbLine
 62
7
  6
CONTINUOUS
 10
123.6932748928
 20
82.6824047446
 11
124.5312694519
 21
86.698837924
  0
LWPOLYLINE
  5
333
100
AcDbEntity
  8
RACCORDO
100
AcDbPolyline
 62
7
  6
CONTINUOUS
 90
7
 70
0
 10
125.5780545888
 20
88.1693969312
 10
125.5785247837
 20
88.1715782059
 10
125.5789582606
 20
88.1730395368
 10
125.5788779364
 20
88.1729396844
 10
125.5780083212
 20
88.1715414631
 10
125.5761293982
 20
88.1691926197
 10
125.5730676287
 20
88.1662807391
  0
LWPOLYLINE
  5
334
100
AcDbEntity
  8
RACCORDO
100
AcDbPolyline
 62
250
  6
CONTINUOUS
 90
6
 70
0
 10
137.8192056811
 20
110.8709471314
 10
137.8159889797
 20
110.8674956966
 10
137.7951359108
 20
110.8426386482
 10
137.7753686669
 20
110.8165159217
 10
137.7567397721
 20
110.7892240808
 10
137.7518433521
 20
110.7812527131
  0
LWPOLYLINE
  5
335
100
AcDbEntity
  8
RACCORDO
100
AcDbPolyline
 62
7
  6
CONTINUOUS
 90
9
 70
0
 10
143.2231898762
 20
116.2224760734
 10
143.2343398587
 20
116.233239727
 10
143.2464716693
 20
116.2476047454
 10
143.2570389353
 20
116.2633806315
 10
143.2658662834
 20
116.280351602
 10
143.27289924
 20
116.2985002392
 10
143.2780144026
 20
116.3177195085
 10
143.2810738149
 20
116.3377342309
 10
143.2820135449
 20
116.3569151245
  0
LINE
  5
336
100
AcDbEntity
  8
RACCORDO
100
AcDbLine
 62
250
  6
CONTINUOUS
 10
142.9064671745
 20
110.0303298583
 11
138.9768056638
 21
107.709344906
  0
LWPOLYLINE
  5
337
100
AcDbEntity
  8
RACCORDO
100
AcDbPolyline
 62
250
  6
CONTINUOUS
 90
16
 70
0
 10
123.6932748928
 20
97.0714106376
 10
123.6542346828
 20
97.0517927248
 10
123.6118913701
 20
97.0346100326
 10
123.5666986339
 20
97.0200466616
 10
123.5191406831
 20
97.0082586483
 10
123.4697270682
 20
96.999372293
 10
123.4189872218
 20
96.993482807
 10
123.3674647862
 20
96.9906532919
 10
123.3157117886
 20
96.9909140641
 10
123.2642827264
 20
96.9942623295
 10
123.2137286265
 20
97.0006622139
 10
123.164591141
 20
97.0100451469
 10
123.117396744
 20
97.0223105968
 10
123.0726510907
 20
97.0373271479
 10
123.0308335999
 20
97.0549339083
 10
122.9923923169
 20
97.0749422336
  0
LWPOLYLINE
  5
338
100
AcDbEntity
  8
RACCORDO
100
AcDbPolyline
 62
250
  6
CONTINUOUS
 90
3
 70
0
 10
139.4599146934
 20
92.9836153145
 10
139.4229402543
 20
92.9802645553
 10
139.4078724326
 20
92.9771945185
  0
LWPOLYLINE
  5
339
100
AcDbEntity
  8
RACCORDO
100
AcDbPolyline
 62
250
  6
CONTINUOUS
 90
4
 70
0
 10
141.1364032086
 20
91.4104274292
 10
141.1192930168
 20
91.4124080541
 10
141.0999720743
 20
91.4157533127
 10
141.0787774784
 20
91.4204047961
  0
LINE
  5
33A
100
AcDbEntity
  8
RACCORDO
100
AcDbLine
 62
250
  6
CONTINUOUS
 10
139.9298381488
 20
88.41118155
 11
139.8824241676
 21
88.425693075
  0
LINE
  5
33B
100
AcDbEntity
  8
RACCORDO
100
AcDbLine
 62
7
  6
CONTINUOUS
 10
139.9430987091
 20
88.4074450916
 11
139.8824241676
 21
88.4299034078
  0
LINE
  5
33C
100
AcDbEntity
  8
RACCORDO
100
AcDbLine
 62
250
  6
CONTINUOUS
 10
139.9812112658
 20
88.3894044576
 11
139.9298381488
 21
88.41118155
  0
LINE
  5
33D
100
AcDbEntity
  8
RACCORDO
100
AcDbLine
 62
7
  6
CONTINUOUS
 10
139.9729789694
 20
88.3937810806
 11
139.9430987091
 21
88.4074450916
  0
LINE
  5
33E
100
AcDbEntity
  8
RACCORDO
100
AcDbLine
 62
250
  6
CONTINUOUS
 10
139.5925962002
 20
86.1103038941
 11
139.2981965336
 21
86.2464290334
  0
LINE
  5
33F
100
AcDbEntity
  8
RACCORDO
100
AcDbLine
 62
7
  6
CONTINUOUS
 10
139.4840877063
 20
86.3421003429
 11
139.4844026844
 21
86.3419542849
  0
LWPOLYLINE
  5
340
100
AcDbEntity
  8
RACCORDO
100
AcDbPolyline
 62
250
  6
CONTINUOUS
 90
4
 70
0
 10
139.4844026844
 20
86.3419542849
 10
139.4954772451
 20
86.3362633654
 10
139.5156262257
 20
86.3227231294
 10
139.5337377997
 20
86.3060121246
  0
LINE
  5
341
100
AcDbEntity
  8
ASSI
100
AcDbLine
 62
7
  6
CONTINUOUS
 10
124.641804514
 20
93.8661632974
 11
124.8031659074
 21
93.7729952512
  0
LINE
  5
342
100
AcDbEntity
  8
RACCORDO
100
AcDbLine
 62
7
  6
CONTINUOUS
 10
124.5358836992
 20
94.1744820889
 11
124.2031675174
 21
94.3665882424
  0
LINE
  5
343
100
AcDbEntity
  8
RACCORDO
100
AcDbLine
 62
7
  6
CONTINUOUS
 10
139.068489854
 20
86.1093338399
 11
139.1584759395
 21
86.0573770019
  0
LINE
  5
344
100
AcDbEntity
  8
RACCORDO
100
AcDbLine
 62
7
  6
CONTINUOUS
 10
123.5908329872
 20
97.1317672623
 11
133.2250233304
 21
91.569106503
  0
LINE
  5
345
100
AcDbEntity
  8
RACCORDO
100
AcDbLine
 62
250
  6
CONTINUOUS
 10
123.4872916767
 20
97.3606356929
 11
133.1214820198
 21
91.7979749336
  0
LWPOLYLINE
  5
346
100
AcDbEntity
  8
RACCORDO
100
AcDbPolyline
 62
7
  6
CONTINUOUS
 90
22
 70
0
 10
133.2250150541
 20
91.5691112819
 10
133.2338467324
 20
91.5636743526
 10
133.2458278865
 20
91.5553596212
 10
133.2599226566
 20
91.544384075
 10
133.2757872678
 20
91.5306324159
 10
133.2930309464
 20
91.5140859999
 10
133.3112577183
 20
91.4947705221
 10
133.330165028
 20
91.4726662161
 10
133.3492698018
 20
91.448026978
 10
133.3679338402
 20
91.421420731
 10
133.3858146048
 20
91.3931619053
 10
133.4025533914
 20
91.3637166296
 10
133.4176094265
 20
91.334041239
 10
133.4307820786
 20
91.3046863527
 10
133.4419962841
 20
91.2761058437
 10
133.4511051505
 20
91.2491214222
 10
133.4581535196
 20
91.224271797
 10
133.4633334424
 20
91.201791577
 10
133.4668411959
 20
91.1820031074
 10
133.4689027618
 20
91.1652100662
 10
133.4698066931
 20
91.151648281
 10
133.469934773
 20
91.1448911422
  0
LWPOLYLINE
  5
347
100
AcDbEntity
  8
RACCORDO
100
AcDbPolyline
 62
250
  6
CONTINUOUS
 90
16
 70
0
 10
138.8890883001
 20
85.8964065217
 10
138.9112890807
 20
85.8822690877
 10
138.9332870652
 20
85.8656252422
 10
138.9548410941
 20
85.8466574484
 10
138.9757147966
 20
85.8255737308
 10
138.9956794237
 20
85.8026051561
 10
139.0145163172
 20
85.7780032321
 10
139.0320190514
 20
85.7520374198
 10
139.0479955435
 20
85.724992528
 10
139.0622704321
 20
85.6971653409
 10
139.0746892184
 20
85.6688559505
 10
139.0851130349
 20
85.6403796666
 10
139.0934236685
 20
85.6120639402
 10
139.0995326388
 20
85.5842234444
 10
139.1033783834
 20
85.5571566793
 10
139.1049225489
 20
85.5311579786
  0
LWPOLYLINE
  5
348
100
AcDbEntity
  8
RACCORDO
100
AcDbPolyline
 62
250
  6
CONTINUOUS
 90
4
 70
0
 10
123.5908329872
 20
97.1317672623
 10
123.5761855713
 20
97.1412792941
 10
123.5533705363
 20
97.161145747
 10
123.5336355918
 20
97.1853367861
  0
LINE
  5
349
100
AcDbEntity
  8
RACCORDO
100
AcDbLine
 62
250
  6
CONTINUOUS
 10
142.0773026708
 20
81.0827201236
 11
142.092519017
 21
81.0693221082
  0
LWPOLYLINE
  5
34A
100
AcDbEntity
  8
RACCORDO
100
AcDbPolyline
 62
250
  6
CONTINUOUS
 90
6
 70
0
 10
123.5336355918
 20
97.1853367861
 10
123.5171921838
 20
97.2135932212
 10
123.5042164922
 20
97.2456123041
 10
123.4948475425
 20
97.2810509726
 10
123.4891857165
 20
97.3195295259
 10
123.4872916767
 20
97.3606356929
  0
LWPOLYLINE
  5
34B
100
AcDbEntity
  8
RACCORDO
100
AcDbPolyline
 62
7
  6
CONTINUOUS
 90
7
 70
0
 10
133.5369220683
 20
75.1665178992
 10
133.547877259
 20
75.1393878683
 10
133.5597053946
 20
75.1120191985
 10
133.5724385292
 20
75.0844554588
 10
133.5861083115
 20
75.0567428276
 10
133.6007458184
 20
75.0289300603
 10
133.6163813796
 20
75.0010684406
  0
LINE
  5
34C
100
AcDbEntity
  8
ASSI
100
AcDbLine
 62
250
  6
CONTINUOUS
 10
129.157808566
 20
119.6804391623
 11
129.157808566
 21
119.2735550501
  0
LINE
  5
34D
100
AcDbEntity
  8
ASSI
100
AcDbLine
 62
7
  6
CONTINUOUS
 10
129.213940606
 20
119.7606565697
 11
129.213940606
 21
119.2411451137
  0
LINE
  5
34E
100
AcDbEntity
  8
ASSI
100
AcDbLine
 62
250
  6
CONTINUOUS
 10
129.6441434965
 20
120.7772299604
 11
129.6441434965
 21
120.4079189709
  0
LINE
  5
34F
100
AcDbEntity
  8
ASSI
100
AcDbLine
 62
7
  6
CONTINUOUS
 10
129.7002755365
 20
120.8574473678
 11
129.7002755365
 21
120.4881363783
  0
LWPOLYLINE
  5
350
100
AcDbEntity
  8
ASSI
100
AcDbPolyline
 62
7
  6
CONTINUOUS
 90
15
 70
0
 10
129.213940606
 20
119.7606556129
 10
129.2143684807
 20
119.7737026713
 10
129.2158552101
 20
119.7892926925
 10
129.218613357
 20
119.8069074513
 10
129.2228363336
 20
119.8264217006
 10
129.2286465118
 20
119.8474895749
 10
129.2360380199
 20
119.8695493278
 10
129.2450079444
 20
119.8922673745
 10
129.255515479
 20
119.9153023905
 10
129.2673472027
 20
119.9380758907
 10
129.2803595066
 20
119.9602782709
 10
129.2943511402
 20
119.9815699353
 10
129.3089009319
 20
120.0013965721
 10
129.323755481
 20
120.0195507687
 10
129.3399980405
 20
120.0372602886
  0
LWPOLYLINE
  5
351
100
AcDbEntity
  8
ASSI
100
AcDbPolyline
 62
250
  6
CONTINUOUS
 90
9
 70
0
 10
129.7002755365
 20
120.4881363783
 10
129.7001077809
 20
120.4834076463
 10
129.6981792503
 20
120.4714607718
 10
129.694122047
 20
120.45971196
 10
129.6879824858
 20
120.4482753056
 10
129.6798207457
 20
120.4372622911
 10
129.6697182461
 20
120.4267886728
 10
129.657783716
 20
120.4169719421
 10
129.6441434965
 20
120.4079189709
  0
LWPOLYLINE
  5
352
100
AcDbEntity
  8
ASSI
100
AcDbPolyline
 62
250
  6
CONTINUOUS
 90
9
 70
0
 10
129.7002755265
 20
120.8574108409
 10
129.7001076244
 20
120.8527164315
 10
129.6981837404
 20
120.8407895361
 10
129.6941272611
 20
120.8290348066
 10
129.68797982
 20
120.8175821105
 10
129.679808786
 20
120.8065592118
 10
129.6697035904
 20
120.7960861697
 10
129.6577722921
 20
120.7862745032
 10
129.6441434965
 20
120.7772299604
  0
LWPOLYLINE
  5
353
100
AcDbEntity
  8
ASSI
100
AcDbPolyline
 62
250
  6
CONTINUOUS
 90
13
 70
0
 10
133.3218568424
 20
120.6457156403
 10
133.3274466789
 20
120.6698735438
 10
133.3306737455
 20
120.6948174482
 10
133.3314861017
 20
120.7201459255
 10
133.3298706687
 20
120.745451347
 10
133.3258534385
 20
120.7703264731
 10
133.3194990467
 20
120.7943710049
 10
133.3109097423
 20
120.8171979791
 10
133.3002237445
 20
120.8384400187
 10
133.287613005
 20
120.8577552683
 10
133.2732804565
 20
120.8748328613
 10
133.257456753
 20
120.8893979279
 10
133.2403965469
 20
120.9012160369
  0
LWPOLYLINE
  5
354
100
AcDbEntity
  8
ASSI
100
AcDbPolyline
 62
250
  6
CONTINUOUS
 90
13
 70
0
 10
134.9034163232
 20
120.6840780351
 10
134.9090061938
 20
120.7082361403
 10
134.9122332538
 20
120.7331802335
 10
134.9130455684
 20
120.7585088762
 10
134.9114300646
 20
120.7838144412
 10
134.9074127416
 20
120.8086896725
 10
134.9010582523
 20
120.8327342398
 10
134.8924688628
 20
120.8555611812
 10
134.8817828069
 20
120.8768031305
 10
134.8691720607
 20
120.8961182299
 10
134.8548395759
 20
120.913195631
 10
134.8390160125
 20
120.9277604984
 10
134.8219560278
 20
120.9395784318
  0
LWPOLYLINE
  5
355
100
AcDbEntity
  8
ASSI
100
AcDbPolyline
 62
250
  6
CONTINUOUS
 90
13
 70
0
 10
135.9500175671
 20
120.8623531814
 10
135.9444275198
 20
120.8381940951
 10
135.9412004908
 20
120.8132491802
 10
135.940388359
 20
120.7879199283
 10
135.9420041345
 20
120.7626140124
 10
135.9460217527
 20
120.7377386882
 10
135.9523765083
 20
120.7136942424
 10
135.9609660815
 20
120.6908676215
 10
135.9716521963
 20
120.6696261454
 10
135.9842628728
 20
120.6503115751
 10
135.9985951572
 20
120.6332346996
 10
136.0144183723
 20
120.6186703206
 10
136.0314778625
 20
120.6068527848
  0
LWPOLYLINE
  5
356
100
AcDbEntity
  8
ASSI
100
AcDbPolyline
 62
250
  6
CONTINUOUS
 90
16
 70
0
 10
135.50129187
 20
117.7725224682
 10
135.4973331463
 20
117.7575557134
 10
135.4927425442
 20
117.7431191684
 10
135.487601346
 20
117.7292753702
 10
135.4819973204
 20
117.7160927513
 10
135.4759969093
 20
117.7035935938
 10
135.4696383998
 20
117.691759424
 10
135.4630392917
 20
117.6807007606
 10
135.4562058441
 20
117.6703449085
 10
135.448973354
 20
117.6604278074
 10
135.4414037455
 20
117.6510151477
 10
135.4334985532
 20
117.6421301699
 10
135.4249595549
 20
117.6335410559
 10
135.415697348
 20
117.6252780868
 10
135.4058559787
 20
117.6175658206
 10
135.3954829315
 20
117.6105377277
  0
LWPOLYLINE
  5
357
100
AcDbEntity
  8
ASSI
100
AcDbPolyline
 62
250
  6
CONTINUOUS
 90
14
 70
0
 10
135.9863538669
 20
122.0952438853
 10
135.991463913
 20
122.1127938328
 10
135.9985394148
 20
122.1301909342
 10
136.0075028487
 20
122.1472445874
 10
136.0182560134
 20
122.1637679608
 10
136.0306810979
 20
122.1795800243
 10
136.0446419685
 20
122.1945075342
 10
136.0599856671
 20
122.2083869418
 10
136.0765440839
 20
122.221066181
 10
136.0941358027
 20
122.2324063363
 10
136.1125680881
 20
122.2422831644
 10
136.1316389937
 20
122.2505884524
 10
136.1511395741
 20
122.2572312045
 10
136.170856177
 20
122.2621386402
  0
LINE
  5
358
100
AcDbEntity
  8
ASSI
100
AcDbLine
 62
250
  6
CONTINUOUS
 10
135.7726775874
 20
118.6461518919
 11
135.5012925933
 21
117.7725220506
  0
LINE
  5
359
100
AcDbEntity
  8
ASSI
100
AcDbLine
 62
250
  6
CONTINUOUS
 10
136.0384819656
 20
118.5695432121
 11
135.7670969715
 21
117.6959133708
  0
LWPOLYLINE
  5
35A
100
AcDbEntity
  8
ASSI
100
AcDbPolyline
 62
250
  6
CONTINUOUS
 90
16
 70
0
 10
135.7670969715
 20
117.6959133708
 10
135.7571041849
 20
117.6668560586
 10
135.7462693887
 20
117.6390104877
 10
135.7345925831
 20
117.6123766583
 10
135.7219584358
 20
117.5869205367
 10
135.7084822791
 20
117.5626761565
 10
135.6945101087
 20
117.5397456184
 10
135.6802122015
 20
117.5182876593
 10
135.6654182807
 20
117.4981435422
 10
135.6499635119
 20
117.4789391571
 10
135.6339490513
 20
117.4605917313
 10
135.6172737427
 20
117.4431840374
 10
135.5994692831
 20
117.4265902826
 10
135.5803795714
 20
117.4107685359
 10
135.5601607087
 20
117.3957607284
 10
135.538812695
 20
117.38156686
  0
LWPOLYLINE
  5
35B
100
AcDbEntity
  8
RACCORDO
100
AcDbPolyline
 62
250
  6
CONTINUOUS
 90
10
 70
0
 10
138.2703297321
 20
112.9468580236
 10
138.2782683125
 20
112.9625895894
 10
138.283818963
 20
112.9791345026
 10
138.2868090507
 20
112.9959781612
 10
138.2871455855
 20
113.0125966724
 10
138.2848181117
 20
113.028473155
 10
138.2798990283
 20
113.0431138145
 10
138.2725413385
 20
113.0560632902
 10
138.262973894
 20
113.0669188194
 10
138.2514942745
 20
113.075342771
  0
LWPOLYLINE
  5
35C
100
AcDbEntity
  8
RACCORDO
100
AcDbPolyline
 62
250
  6
CONTINUOUS
 90
10
 70
0
 10
138.7233101133
 20
112.6853620893
 10
138.7312486619
 20
112.7010935722
 10
138.7367993109
 20
112.7176384203
 10
138.7397894187
 20
112.7344820397
 10
138.7401259841
 20
112.7511005438
 10
138.7377985388
 20
112.7669770477
 10
138.7328794734
 20
112.7816177451
 10
138.7255217853
 20
112.7945672668
 10
138.7159543206
 20
112.8054228442
 10
138.7044746557
 20
112.8138468366
  0
LWPOLYLINE
  5
35D
100
AcDbEntity
  8
RACCORDO
100
AcDbPolyline
 62
250
  6
CONTINUOUS
 90
5
 70
0
 10
138.3585899859
 20
113.1994396418
 10
138.3578300952
 20
113.1982564118
 10
138.3505729618
 20
113.1894762912
 10
138.3426696055
 20
113.1821314196
 10
138.3341513483
 20
113.1762450361
  0
LINE
  5
35E
100
AcDbEntity
  8
DRAFT
100
AcDbLine
 62
7
  6
CONTINUOUS
 10
124.2031675174
 20
94.8029618526
 11
124.3092335346
 21
94.8726327467
  0
LINE
  5
35F
100
AcDbEntity
  8
RACCORDO
100
AcDbLine
 62
250
  6
CONTINUOUS
 10
124.2031675174
 20
93.9559329769
 11
124.5358836992
 21
94.1744820889
  0
LINE
  5
360
100
AcDbEntity
  8
RACCORDO
100
AcDbLine
 62
250
  6
CONTINUOUS
 10
124.2031675174
 20
93.7024487496
 11
124.641804514
 21
93.9905733776
  0
LINE
  5
361
100
AcDbEntity
  8
RACCORDO
100
AcDbLine
 62
250
  6
CONTINUOUS
 10
124.2031675174
 20
96.5640384919
 11
124.4099640882
 21
96.6588112308
  0
LINE
  5
362
100
AcDbEntity
  8
RACCORDO
100
AcDbLine
 62
7
  6
CONTINUOUS
 10
124.2031675174
 20
96.5090903683
 11
124.4630193502
 21
96.6281777874
  0
LWPOLYLINE
  5
363
100
AcDbEntity
  8
RACCORDO
100
AcDbPolyline
 62
250
  6
CONTINUOUS
 90
6
 70
0
 10
144.1637257726
 20
103.3306901268
 10
144.1755304019
 20
103.3356307637
 10
144.1868947206
 20
103.3380550401
 10
144.1974960122
 20
103.337894113
 10
144.2070332281
 20
103.3351525522
 10
144.2099918534
 20
103.3336399345
  0
LWPOLYLINE
  5
364
100
AcDbEntity
  8
RACCORDO
100
AcDbPolyline
 62
250
  6
CONTINUOUS
 90
10
 70
0
 10
137.939509507
 20
99.9969684416
 10
138.0615235626
 20
100.0326036113
 10
138.1796597802
 20
100.0645379148
 10
138.2939181598
 20
100.0927713522
 10
138.4036932975
 20
100.1170865863
 10
138.5095905972
 20
100.1377009542
 10
138.6134262708
 20
100.1552664671
 10
138.7153236068
 20
100.1699696956
 10
138.8151593167
 20
100.1816240691
 10
138.9143797465
 20
100.1903218868
  0
LWPOLYLINE
  5
365
100
AcDbEntity
  8
RACCORDO
100
AcDbPolyline
 62
7
  6
CONTINUOUS
 90
6
 70
0
 10
137.8542215107
 20
99.8859572239
 10
138.0309124411
 20
99.9368551588
 10
138.2547123825
 20
99.9915913702
 10
138.4716020063
 20
100.0332518451
 10
138.6811419027
 20
100.0616844852
 10
138.8828697913
 20
100.0768220936
  0
LWPOLYLINE
  5
366
100
AcDbEntity
  8
RACCORDO
100
AcDbPolyline
 62
250
  6
CONTINUOUS
 90
6
 70
0
 10
143.6661002216
 20
95.1769140644
 10
143.6619531014
 20
95.1767787452
 10
143.6577770154
 20
95.1763572928
 10
143.6535533136
 20
95.1756162615
 10
143.6493018537
 20
95.1745202338
 10
143.6450538336
 20
95.1730355563
  0
LWPOLYLINE
  5
367
100
AcDbEntity
  8
RACCORDO
100
AcDbPolyline
 62
7
  6
CONTINUOUS
 90
3
 70
0
 10
139.462233038
 20
93.0063810347
 10
139.4318747654
 20
93.0099755759
 10
139.4167248615
 20
93.010296142
  0
LINE
  5
368
100
AcDbEntity
  8
RACCORDO
100
AcDbLine
 62
250
  6
CONTINUOUS
 10
141.0787774784
 20
91.4204047961
 11
141.068042389
 21
91.4231840539
  0
LWPOLYLINE
  5
369
100
AcDbEntity
  8
RACCORDO
100
AcDbPolyline
 62
7
  6
CONTINUOUS
 90
6
 70
0
 10
123.5848926264
 20
97.1359043402
 10
123.5810092253
 20
97.1369744054
 10
123.5798604791
 20
97.1373584189
 10
123.5813670124
 20
97.1367171342
 10
123.5853743456
 20
97.1347646465
 10
123.5908388737
 20
97.1317638638
  0
LWPOLYLINE
  5
36A
100
AcDbEntity
  8
RACCORDO
100
AcDbPolyline
 62
250
  6
CONTINUOUS
 90
13
 70
0
 10
143.5130666509
 20
89.6332100811
 10
143.5353004273
 20
89.6239176281
 10
143.5571137668
 20
89.6119801947
 10
143.5781354007
 20
89.5976009605
 10
143.5980075364
 20
89.5810246644
 10
143.6163919445
 20
89.5625334407
 10
143.6329757166
 20
89.5424420178
 10
143.6474765942
 20
89.5210923584
 10
143.6596477706
 20
89.4988478393
 10
143.6692820909
 20
89.4760870696
 10
143.6762155792
 20
89.4531974435
 10
143.680330229
 20
89.4305685468
 10
143.681556011
 20
89.4085855273
  0
LWPOLYLINE
  5
36B
100
AcDbEntity
  8
DRAFT
100
AcDbPolyline
 62
7
  6
CONTINUOUS
 90
7
 70
0
 10
139.1749587838
 20
91.0268135375
 10
139.2161865472
 20
91.0061722741
 10
139.260785641
 20
90.9904621415
 10
139.3081317436
 20
90.97993794
 10
139.3576132886
 20
90.9747256151
 10
139.4092852187
 20
90.9748538719
 10
139.4564366307
 20
90.9796210618
  0
LWPOLYLINE
  5
36C
100
AcDbEntity
  8
RACCORDO
100
AcDbPolyline
 62
7
  6
CONTINUOUS
 90
10
 70
0
 10
143.7621520359
 20
87.3285238552
 10
143.7488522913
 20
87.3353095746
 10
143.734530198
 20
87.3407536718
 10
143.719945953
 20
87.3444609943
 10
143.705270016
 20
87.3464090913
 10
143.6906808474
 20
87.3466018348
 10
143.676414997
 20
87.3450774358
 10
143.6627040565
 20
87.3419254462
 10
143.6497232246
 20
87.3372697113
 10
143.6394198151
 20
87.3322634663
  0
LINE
  5
36D
100
AcDbEntity
  8
RACCORDO
100
AcDbLine
 62
250
  6
CONTINUOUS
 10
139.9812112646
 20
88.3894044582
 11
139.9732337489
 21
88.3936567299
  0
LWPOLYLINE
  5
36E
100
AcDbEntity
  8
RACCORDO
100
AcDbPolyline
 62
250
  6
CONTINUOUS
 90
5
 70
0
 10
140.001663401
 20
88.3787818287
 10
139.9959263634
 20
88.3818755567
 10
139.990597452
 20
88.3846775253
 10
139.9856914258
 20
88.3871854801
 10
139.9812112658
 20
88.3894044576
  0
LWPOLYLINE
  5
36F
100
AcDbEntity
  8
RACCORDO
100
AcDbPolyline
 62
250
  6
CONTINUOUS
 90
13
 70
0
 10
143.7133962477
 20
87.3242625934
 10
143.7094469419
 20
87.3264821866
 10
143.705513143
 20
87.3285201106
 10
143.7016002711
 20
87.3303750916
 10
143.6977369456
 20
87.3320366102
 10
143.6939047968
 20
87.3335156835
 10
143.6900397545
 20
87.3348339719
 10
143.6861388914
 20
87.3359838107
 10
143.6822190058
 20
87.336951476
 10
143.6782487233
 20
87.3377335648
 10
143.6742397244
 20
87.3383131892
 10
143.6702006112
 20
87.3386740436
 10
143.6661002216
 20
87.3387994072
  0
LINE
  5
370
100
AcDbEntity
  8
RACCORDO
100
AcDbLine
 62
250
  6
CONTINUOUS
 10
140.0084149477
 20
88.3750598961
 11
140.0078166803
 21
88.375383057
  0
LWPOLYLINE
  5
371
100
AcDbEntity
  8
RACCORDO
100
AcDbPolyline
 62
7
  6
CONTINUOUS
 90
6
 70
0
 10
140.0174818336
 20
88.3698951565
 10
140.0084149477
 20
88.3750598961
 10
139.9966960647
 20
88.3815339732
 10
139.9855585589
 20
88.3874428209
 10
139.9749527258
 20
88.3928126206
 10
139.9732337497
 20
88.3936567295
  0
LINE
  5
372
100
AcDbEntity
  8
RACCORDO
100
AcDbLine
 62
7
  6
CONTINUOUS
 10
140.0175320524
 20
88.3698662986
 11
140.3699025376
 21
88.1664123881
  0
LINE
  5
373
100
AcDbEntity
  8
RACCORDO
100
AcDbLine
 62
250
  6
CONTINUOUS
 10
135.7384939325
 20
91.9112600598
 11
120.8702797641
 21
100.4959805782
  0
LINE
  5
374
100
AcDbEntity
  8
RACCORDO
100
AcDbLine
 62
250
  6
CONTINUOUS
 10
144.1965660321
 20
87.0452864155
 11
143.7133962477
 21
87.3242625934
  0
LINE
  5
375
100
AcDbEntity
  8
RACCORDO
100
AcDbLine
 62
7
  6
CONTINUOUS
 10
144.2453343766
 20
87.049540431
 11
143.7621645921
 21
87.3285166091
  0
LINE
  5
376
100
AcDbEntity
  8
RACCORDO
100
AcDbLine
 62
250
  6
CONTINUOUS
 10
135.8079705391
 20
92.0330095742
 11
120.9397563707
 21
100.6177300925
  0
LINE
  5
377
100
AcDbEntity
  8
DRAFT
100
AcDbLine
 62
7
  6
CONTINUOUS
 10
135.7384939325
 20
92.2532040322
 11
120.8702797641
 21
100.8379245505
  0
LINE
  5
378
100
AcDbEntity
  8
ASSI
100
AcDbLine
 62
7
  6
CONTINUOUS
 10
140.0199602248
 20
90.6542496012
 11
138.9987834415
 21
91.2438642775
  0
LINE
  5
379
100
AcDbEntity
  8
RACCORDO
100
AcDbLine
 62
250
  6
CONTINUOUS
 10
144.2062774395
 20
87.0392974481
 11
144.1965660321
 21
87.0452864155
  0
LWPOLYLINE
  5
37A
100
AcDbEntity
  8
RACCORDO
100
AcDbPolyline
 62
250
  6
CONTINUOUS
 90
19
 70
0
 10
133.1214820198
 20
91.7979749336
 10
133.1648281494
 20
91.7707371543
 10
133.2073337974
 20
91.739764865
 10
133.2489989638
 20
91.7050580657
 10
133.2901881389
 20
91.6662443102
 10
133.3305368324
 20
91.6236960446
 10
133.3689515736
 20
91.578530607
 10
133.4053067981
 20
91.5307607525
 10
133.4397280704
 20
91.480373726
 10
133.4714986133
 20
91.4284485993
 10
133.5005749305
 20
91.374953847
 10
133.5270005183
 20
91.3199209944
 10
133.5501890891
 20
91.2645236903
 10
133.5700855546
 20
91.2086364685
 10
133.586745003
 20
91.152384795
 10
133.599746412
 20
91.0973187166
 10
133.6089494407
 20
91.0439549155
 10
133.6144944299
 20
90.9917767096
 10
133.6163813796
 20
90.9407840987
  0
LWPOLYLINE
  5
37B
100
AcDbEntity
  8
RACCORDO
100
AcDbPolyline
 62
250
  6
CONTINUOUS
 90
10
 70
0
 10
120.8702797641
 20
100.495980579
 10
120.8369122682
 20
100.5172988044
 10
120.8077017984
 20
100.5401869189
 10
120.7827893909
 20
100.5643645012
 10
120.7621624192
 20
100.5896964278
 10
120.7459994651
 20
100.6157772133
 10
120.7344444736
 20
100.6418860357
 10
120.7272466729
 20
100.6676664668
 10
120.7240608548
 20
100.692957911
 10
120.7238331606
 20
100.7017448023
  0
LWPOLYLINE
  5
37C
100
AcDbEntity
  8
RACCORDO
100
AcDbPolyline
 62
250
  6
CONTINUOUS
 90
9
 70
0
 10
133.2250150541
 20
91.5691112819
 10
133.2103759144
 20
91.5786185347
 10
133.1875608795
 20
91.5984849877
 10
133.1678259349
 20
91.6226760268
 10
133.1513825269
 20
91.6509324619
 10
133.1384068353
 20
91.6829515448
 10
133.1290378856
 20
91.7183902133
 10
133.1233760596
 20
91.7568687665
 10
133.1214820198
 20
91.7979749336
  0
LWPOLYLINE
  5
37D
100
AcDbEntity
  8
RACCORDO
100
AcDbPolyline
 62
250
  6
CONTINUOUS
 90
8
 70
0
 10
120.9397563707
 20
100.6177300925
 10
120.9129460084
 20
100.6351602535
 10
120.8896152422
 20
100.6534123641
 10
120.8697640721
 20
100.6724864242
 10
120.8534134257
 20
100.6927156692
 10
120.8405423755
 20
100.7137668638
 10
120.8310881384
 20
100.7346403017
 10
120.825311687
 20
100.7552223406
  0
LWPOLYLINE
  5
37E
100
AcDbEntity
  8
RACCORDO
100
AcDbPolyline
 62
250
  6
CONTINUOUS
 90
4
 70
0
 10
142.092519017
 20
81.0693221082
 10
142.107044589
 20
81.0544800057
 10
142.1207520744
 20
81.038364175
 10
142.1335827021
 20
81.021062533
  0
LWPOLYLINE
  5
37F
100
AcDbEntity
  8
RACCORDO
100
AcDbPolyline
 62
7
  6
CONTINUOUS
 90
14
 70
0
 10
142.0099353031
 20
81.1673240015
 10
141.9985711284
 20
81.1798471754
 10
141.9874447307
 20
81.1936721758
 10
141.9768396016
 20
81.2085233679
 10
141.9669385206
 20
81.2241848706
 10
141.9578937989
 20
81.240437184
 10
141.9498785339
 20
81.2569545846
 10
141.9429866233
 20
81.2734832541
 10
141.9372850817
 20
81.2897629392
 10
141.9328355646
 20
81.3054309069
 10
141.9296143635
 20
81.3202638023
 10
141.9275732987
 20
81.3340170468
 10
141.926630573
 20
81.3462846512
 10
141.9265188489
 20
81.3518665555
  0
LWPOLYLINE
  5
380
100
AcDbEntity
  8
RACCORDO
100
AcDbPolyline
 62
250
  6
CONTINUOUS
 90
14
 70
0
 10
141.9542730209
 20
81.1724737006
 10
141.9577535112
 20
81.168341165
 10
141.9612492159
 20
81.1643748676
 10
141.9647524639
 20
81.160575091
 10
141.9683124459
 20
81.1568859521
 10
141.9719246532
 20
81.1533133741
 10
141.9755845055
 20
81.1498621735
 10
141.9793457096
 20
81.1464864143
 10
141.9832045263
 20
81.1431988374
 10
141.987157751
 20
81.1400107886
 10
141.9912625997
 20
81.1368886912
 10
141.9955356914
 20
81.1338394324
 10
141.9999512927
 20
81.1309019183
 10
142.0045027017
 20
81.1280998476
  0
LWPOLYLINE
  5
381
100
AcDbEntity
  8
RACCORDO
100
AcDbPolyline
 62
250
  6
CONTINUOUS
 90
10
 70
0
 10
133.4392588129
 20
82.0614681654
 10
133.437985948
 20
82.076150404
 10
133.434641871
 20
82.0916481932
 10
133.4293281536
 20
82.1074908209
 10
133.422206191
 20
82.1231971014
 10
133.4134922989
 20
82.1382899931
 10
133.4034511422
 20
82.1523110866
 10
133.3923876986
 20
82.164834525
 10
133.3806379958
 20
82.1754799385
 10
133.3685589044
 20
82.183923999
  0
LWPOLYLINE
  5
382
100
AcDbEntity
  8
RACCORDO
100
AcDbPolyline
 62
250
  6
CONTINUOUS
 90
9
 70
0
 10
133.469934773
 20
91.1448911422
 10
133.4708496972
 20
91.1274647094
 10
133.4766486894
 20
91.0977702135
 10
133.4877329002
 20
91.0685809098
 10
133.5039835698
 20
91.0402095415
 10
133.5252265836
 20
91.0129600882
 10
133.5512343374
 20
90.9871245088
 10
133.5817281762
 20
90.9629796137
 10
133.6163813796
 20
90.9407840987
  0
LINE
  5
383
100
AcDbEntity
  8
DRAFT
100
AcDbLine
 62
7
  6
CONTINUOUS
 10
131.6360947231
 20
120.2334587125
 11
131.6360947231
 21
120.1533723142
  0
LINE
  5
384
100
AcDbEntity
  8
RACCORDO
100
AcDbLine
 62
7
  6
CONTINUOUS
 10
133.4699347702
 20
75.7051896294
 11
133.4699347702
 21
91.1449213953
  0
LINE
  5
385
100
AcDbEntity
  8
RACCORDO
100
AcDbLine
 62
250
  6
CONTINUOUS
 10
133.6163813796
 20
75.0010684406
 11
133.6163813796
 21
90.9407840987
  0
LINE
  5
386
100
AcDbEntity
  8
ASSI
100
AcDbLine
 62
250
  6
CONTINUOUS
 10
133.1577748879
 20
120.638950778
 11
133.1574498423
 21
120.6330926547
  0
LINE
  5
387
100
AcDbEntity
  8
ASSI
100
AcDbLine
 62
250
  6
CONTINUOUS
 10
135.9832652686
 20
122.0777333765
 11
135.9863538669
 21
122.0952438853
  0
LWPOLYLINE
  5
388
100
AcDbEntity
  8
ASSI
100
AcDbPolyline
 62
250
  6
CONTINUOUS
 90
13
 70
0
 10
136.2646962715
 20
118.6798224314
 10
136.2694699834
 20
118.7036276833
 10
136.2719806484
 20
118.7280728448
 10
136.2721898743
 20
118.7527843914
 10
136.2700944349
 20
118.7773847237
 10
136.2657263211
 20
118.8014979269
 10
136.2591522562
 20
118.8247555159
 10
136.2504726717
 20
118.8468020876
 10
136.239820178
 20
118.8673007299
 10
136.2273575478
 20
118.8859381663
 10
136.2132752149
 20
118.9024295739
 10
136.1977883581
 20
118.9165229308
 10
136.1811336264
 20
118.9280028511
  0
LWPOLYLINE
  5
389
100
AcDbEntity
  8
ASSI
100
AcDbPolyline
 62
250
  6
CONTINUOUS
 90
5
 70
0
 10
140.8333673307
 20
120.0706380261
 10
140.838007003
 20
120.0826479293
 10
140.8443917098
 20
120.0942486485
 10
140.8524254345
 20
120.1052866643
 10
140.8620035457
 20
120.1156528618
  0
LWPOLYLINE
  5
38A
100
AcDbEntity
  8
ASSI
100
AcDbPolyline
 62
250
  6
CONTINUOUS
 90
4
 70
0
 10
140.8333686723
 20
120.0497015759
 10
140.8370158081
 20
120.0587178931
 10
140.8451564995
 20
120.0709445047
 10
140.8562543488
 20
120.0826717228
  0
LWPOLYLINE
  5
38B
100
AcDbEntity
  8
RACCORDO
100
AcDbPolyline
 62
250
  6
CONTINUOUS
 90
11
 70
0
 10
124.2634524465
 20
87.2902028921
 10
124.2711957516
 20
87.2997428853
 10
124.2791586832
 20
87.3090535712
 10
124.2873004299
 20
87.3180813233
 10
124.2956371042
 20
87.3268383927
 10
124.3043122699
 20
87.3354534331
 10
124.3133214837
 20
87.3438868481
 10
124.3226518709
 20
87.3520911542
 10
124.3324435191
 20
87.3601403558
 10
124.3427356355
 20
87.3679992039
 10
124.3534603151
 20
87.3755467974
  0
LWPOLYLINE
  5
38C
100
AcDbEntity
  8
RACCORDO
100
AcDbPolyline
 62
250
  6
CONTINUOUS
 90
6
 70
0
 10
144.3026158949
 20
103.0844287663
 10
144.3134770764
 20
103.0921576075
 10
144.3218780231
 20
103.1008486067
 10
144.3275691037
 20
103.1102435131
 10
144.3303812097
 20
103.1200631598
 10
144.330681873
 20
103.124484641
  0
LINE
  5
38D
100
AcDbEntity
  8
RACCORDO
100
AcDbLine
 62
250
  6
CONTINUOUS
 10
144.1637257726
 20
103.3306901268
 11
142.9485662044
 21
102.6789832149
  0
LINE
  5
38E
100
AcDbEntity
  8
RACCORDO
100
AcDbLine
 62
250
  6
CONTINUOUS
 10
144.3026158949
 20
103.0844287663
 11
142.9485662044
 21
102.3582331576
  0
LINE
  5
38F
100
AcDbEntity
  8
RACCORDO
100
AcDbLine
 62
250
  6
CONTINUOUS
 10
124.2031675174
 20
92.4816871079
 11
124.641804514
 21
92.6827099266
  0
LINE
  5
390
100
AcDbEntity
  8
RACCORDO
100
AcDbLine
 62
7
  6
CONTINUOUS
 10
124.2031675174
 20
92.4267389843
 11
124.6064775718
 21
92.6115718292
  0
LWPOLYLINE
  5
391
100
AcDbEntity
  8
RACCORDO
100
AcDbPolyline
 62
7
  6
CONTINUOUS
 90
20
 70
0
 10
137.8619468265
 20
99.7593502669
 10
138.0166015349
 20
99.7984329042
 10
138.1674860279
 20
99.8321560051
 10
138.3146003055
 20
99.8605195697
 10
138.4577706558
 20
99.8834474574
 10
138.5971707908
 20
99.9010158087
 10
138.7333218461
 20
99.9134530453
 10
138.8662797345
 20
99.9208177124
 10
138.9959885431
 20
99.9230512649
 10
139.1228016691
 20
99.9202064887
 10
139.2467562335
 20
99.9123319397
 10
139.3678151151
 20
99.8993790622
 10
139.4862203474
 20
99.8812549749
 10
139.6020505248
 20
99.8579801768
 10
139.7152270529
 20
99.8295341689
 10
139.8257561809
 20
99.7957625733
 10
139.9337356339
 20
99.7566149928
 10
140.0390676869
 20
99.7121418247
 10
140.1414654142
 20
99.6623398824
 10
140.223419163
 20
99.6173303865
  0
LWPOLYLINE
  5
392
100
AcDbEntity
  8
RACCORDO
100
AcDbPolyline
 62
250
  6
CONTINUOUS
 90
8
 70
0
 10
138.9143797465
 20
100.1903218868
 10
139.0135704488
 20
100.1961825813
 10
139.112145871
 20
100.19908672
 10
139.2097957019
 20
100.1987683038
 10
139.3067018312
 20
100.1951601856
 10
139.4026823692
 20
100.1883295124
 10
139.4968813359
 20
100.1782117266
 10
139.5890927352
 20
100.1647554577
  0
LWPOLYLINE
  5
393
100
AcDbEntity
  8
RACCORDO
100
AcDbPolyline
 62
7
  6
CONTINUOUS
 90
10
 70
0
 10
143.7621520359
 20
91.0842871285
 10
143.7488522913
 20
91.0910728479
 10
143.734530198
 20
91.096516945
 10
143.719945953
 20
91.1002242676
 10
143.705270016
 20
91.1021723646
 10
143.6906808474
 20
91.102365108
 10
143.676414997
 20
91.100840709
 10
143.6627040565
 20
91.0976887195
 10
143.6497232246
 20
91.0930329846
 10
143.6394198151
 20
91.0880267395
  0
LWPOLYLINE
  5
394
100
AcDbEntity
  8
RACCORDO
100
AcDbPolyline
 62
250
  6
CONTINUOUS
 90
13
 70
0
 10
143.7133962477
 20
91.0800258667
 10
143.7094469419
 20
91.0822454599
 10
143.705513143
 20
91.0842833839
 10
143.7016002711
 20
91.0861383648
 10
143.6977369456
 20
91.0877998835
 10
143.6939047968
 20
91.0892789567
 10
143.6900397545
 20
91.0905972452
 10
143.6861388914
 20
91.0917470839
 10
143.6822190058
 20
91.0927147492
 10
143.6782487233
 20
91.093496838
 10
143.6742397244
 20
91.0940764624
 10
143.6702006112
 20
91.0944373169
 10
143.6661002216
 20
91.0945626804
  0
LINE
  5
395
100
AcDbEntity
  8
DRAFT
100
AcDbLine
 62
250
  6
CONTINUOUS
 10
139.1559019575
 20
91.9233677589
 11
139.916199028
 21
91.4843817591
  0
LINE
  5
396
100
AcDbEntity
  8
DRAFT
100
AcDbLine
 62
250
  6
CONTINUOUS
 10
140.1393320922
 20
92.1037864827
 11
139.3695457597
 21
92.5482514634
  0
LINE
  5
397
100
AcDbEntity
  8
RACCORDO
100
AcDbLine
 62
250
  6
CONTINUOUS
 10
144.1965660321
 20
90.8010496887
 11
143.7133962477
 21
91.0800258667
  0
LINE
  5
398
100
AcDbEntity
  8
RACCORDO
100
AcDbLine
 62
7
  6
CONTINUOUS
 10
144.2453343766
 20
90.8053037043
 11
143.7621645921
 21
91.0842798823
  0
LINE
  5
399
100
AcDbEntity
  8
RACCORDO
100
AcDbLine
 62
250
  6
CONTINUOUS
 10
144.2062774395
 20
90.7950607214
 11
144.1965660321
 21
90.8010496887
  0
LWPOLYLINE
  5
39A
100
AcDbEntity
  8
RACCORDO
100
AcDbPolyline
 62
250
  6
CONTINUOUS
 90
8
 70
0
 10
139.5337377997
 20
86.3060121246
 10
139.5497272576
 20
86.2861385002
 10
139.5634684307
 20
86.2630888318
 10
139.5747289003
 20
86.2370656582
 10
139.5833233078
 20
86.2084844738
 10
139.589182648
 20
86.1776909724
 10
139.5922813173
 20
86.1448714685
 10
139.5925952711
 20
86.1103043236
  0
LWPOLYLINE
  5
39B
100
AcDbEntity
  8
RACCORDO
100
AcDbPolyline
 62
250
  6
CONTINUOUS
 90
9
 70
0
 10
142.1335827021
 20
81.021062533
 10
142.1454190949
 20
81.0027049928
 10
142.1560621487
 20
80.9835662658
 10
142.1653454538
 20
80.9639533397
 10
142.1731680842
 20
80.9441050679
 10
142.1794455582
 20
80.9242563768
 10
142.1840983396
 20
80.9047163107
 10
142.1870903282
 20
80.8858191185
 10
142.1884501224
 20
80.8676567105
  0
LWPOLYLINE
  5
39C
100
AcDbEntity
  8
RACCORDO
100
AcDbPolyline
 62
7
  6
CONTINUOUS
 90
12
 70
0
 10
139.1850246625
 20
79.1346921776
 10
139.1895790941
 20
79.1207169291
 10
139.1944352281
 20
79.1010378186
 10
139.1976189826
 20
79.0817735951
 10
139.1990905245
 20
79.0631617999
 10
139.1988253619
 20
79.0454255462
 10
139.1968277509
 20
79.0287678553
 10
139.1931230167
 20
79.0134049774
 10
139.1877631349
 20
78.9995502444
 10
139.1808303628
 20
78.987367988
 10
139.1724218272
 20
78.9769834085
 10
139.1626512588
 20
78.9685088331
  0
LINE
  5
39D
100
AcDbEntity
  8
ASSI
100
AcDbLine
 62
7
  6
CONTINUOUS
 10
133.1574498423
 20
120.6330926547
 11
133.1574556578
 21
120.6330294949
  0
LINE
  5
39E
100
AcDbEntity
  8
ASSI
100
AcDbLine
 62
250
  6
CONTINUOUS
 10
133.331546109
 20
120.5389772793
 11
133.3218568424
 21
120.6457156403
  0
LWPOLYLINE
  5
39F
100
AcDbEntity
  8
RACCORDO
100
AcDbPolyline
 62
250
  6
CONTINUOUS
 90
10
 70
0
 10
136.4362246109
 20
91.9115377131
 10
136.434959514
 20
91.9262265341
 10
136.4316421718
 20
91.941740936
 10
136.4263734813
 20
91.957609673
 10
136.4193135531
 20
91.9733508651
 10
136.4106769327
 20
91.9884864152
 10
136.4007261445
 20
92.0025565625
 10
136.3897635338
 20
92.0151341468
 10
136.3781220119
 20
92.0258375295
 10
136.3661550818
 20
92.0343419752
  0
LWPOLYLINE
  5
3A0
100
AcDbEntity
  8
0
100
AcDbPolyline
 62
250
  6
CONTINUOUS
 90
9
 70
0
 10
135.7384939325
 20
70.9972552571
 10
135.7403667694
 20
70.9563730848
 10
135.7459654386
 20
70.9180867382
 10
135.7552306259
 20
70.8828018368
 10
135.7680641725
 20
70.8508922017
 10
135.7843301152
 20
70.8226958954
 10
135.8038561265
 20
70.7985116402
 10
135.8264353406
 20
70.7785956527
 10
135.842035243
 20
70.7683868265
  0
LINE
  5
3A1
100
AcDbEntity
  8
DRAFT
100
AcDbLine
 62
250
  6
CONTINUOUS
 10
135.7384939325
 20
113.1490275393
 11
135.7384939325
 21
92.2532040322
  0
LINE
  5
3A2
100
AcDbEntity
  8
RACCORDO
100
AcDbLine
 62
250
  6
CONTINUOUS
 10
135.7384939325
 20
91.9112600598
 11
135.7384939325
 21
70.9972552571
  0
LINE
  5
3A3
100
AcDbEntity
  8
ASSI
100
AcDbLine
 62
7
  6
CONTINUOUS
 10
135.9537925015
 20
122.1564302185
 11
135.9537925015
 21
122.0241620119
  0
LINE
  5
3A4
100
AcDbEntity
  8
DRAFT
100
AcDbLine
 62
250
  6
CONTINUOUS
 10
136.4362246109
 20
113.1437538006
 11
136.4362246109
 21
92.2270956443
  0
LINE
  5
3A5
100
AcDbEntity
  8
RACCORDO
100
AcDbLine
 62
250
  6
CONTINUOUS
 10
136.4362246109
 20
91.9115377131
 11
136.4362246109
 21
70.9919815183
  0
LINE
  5
3A6
100
AcDbEntity
  8
ASSI
100
AcDbLine
 62
250
  6
CONTINUOUS
 10
135.9814685858
 20
122.0338633373
 11
135.9822319449
 21
122.0604541762
  0
LWPOLYLINE
  5
3A7
100
AcDbEntity
  8
ASSI
100
AcDbPolyline
 62
7
  6
CONTINUOUS
 90
22
 70
0
 10
135.9537925056
 20
122.1564302185
 10
135.9554297077
 20
122.1877340531
 10
135.9604744572
 20
122.2194737246
 10
135.9690946555
 20
122.2513024914
 10
135.9813860148
 20
122.2828088745
 10
135.9974150791
 20
122.3136630464
 10
136.0173055838
 20
122.3436658829
 10
136.0412898905
 20
122.3726911804
 10
136.0692411573
 20
122.4001835508
 10
136.1006991168
 20
122.4255145806
 10
136.1358458922
 20
122.4487058332
 10
136.1744040225
 20
122.469424089
 10
136.2148832834
 20
122.4869527717
 10
136.2566651563
 20
122.5012985748
 10
136.2998702035
 20
122.5127002247
 10
136.3437674383
 20
122.5211117558
 10
136.3878676778
 20
122.5266109458
 10
136.4321596077
 20
122.5293210929
 10
136.4764951201
 20
122.5292881073
 10
136.5206666557
 20
122.5265224384
 10
136.5644360887
 20
122.521014079
 10
136.6075716299
 20
122.5127326802
  0
LINE
  5
3A8
100
AcDbEntity
  8
ASSI
100
AcDbLine
 62
250
  6
CONTINUOUS
 10
135.9822319617
 20
122.060454156
 11
135.9832652686
 21
122.0777333765
  0
LWPOLYLINE
  5
3A9
100
AcDbEntity
  8
RACCORDO
100
AcDbPolyline
 62
250
  6
CONTINUOUS
 90
10
 70
0
 10
135.7384939325
 20
91.9112600598
 10
135.7395445058
 20
91.9258885498
 10
135.7426650084
 20
91.9412955343
 10
135.7477627155
 20
91.9570231995
 10
135.7546861501
 20
91.9726042024
 10
135.7632295845
 20
91.9875755581
 10
135.7731391532
 20
92.0014923974
 10
135.7841203961
 20
92.0139411854
 10
135.795847009
 20
92.0245520102
 10
135.8079705391
 20
92.0330095742
  0
LWPOLYLINE
  5
3AA
100
AcDbEntity
  8
ASSI
100
AcDbPolyline
 62
250
  6
CONTINUOUS
 90
3
 70
0
 10
138.8744948742
 20
115.1730483566
 10
138.8764403636
 20
115.1849607607
 10
138.8766183187
 20
115.1898310624
  0
LWPOLYLINE
  5
3AB
100
AcDbEntity
  8
ASSI
100
AcDbPolyline
 62
250
  6
CONTINUOUS
 90
10
 70
0
 10
138.3090249986
 20
118.7861739823
 10
138.3055993605
 20
118.7680053112
 10
138.303551703
 20
118.7499084746
 10
138.3029003095
 20
118.7320450428
 10
138.3036509985
 20
118.7145745018
 10
138.3057970681
 20
118.6976528308
 10
138.3093193563
 20
118.6814311091
 10
138.3141864172
 20
118.6660541664
 10
138.3203547996
 20
118.6516592895
 10
138.327769433
 20
118.6383749981
  0
LINE
  5
3AC
100
AcDbEntity
  8
RACCORDO
100
AcDbLine
 62
7
  6
CONTINUOUS
 10
125.5730676287
 20
88.1662807391
 11
125.5694961615
 21
88.1637212743
  0
LWPOLYLINE
  5
3AD
100
AcDbEntity
  8
RACCORDO
100
AcDbPolyline
 62
7
  6
CONTINUOUS
 90
17
 70
0
 10
124.3132710244
 20
87.3868528686
 10
124.2845019656
 20
87.3666967776
 10
124.2542713765
 20
87.3399866522
 10
124.2264436422
 20
87.3094877748
 10
124.2011442286
 20
87.2754852522
 10
124.1788673546
 20
87.238609424
 10
124.1603233301
 20
87.2000495148
 10
124.1457632613
 20
87.1603190863
 10
124.1355350544
 20
87.1200474803
 10
124.1300550993
 20
87.0805249622
 10
124.1294758977
 20
87.0418183785
 10
124.1341043862
 20
87.0046066715
 10
124.1437415811
 20
86.9707928288
 10
124.1577276841
 20
86.9412259066
 10
124.175778897
 20
86.9155945339
 10
124.1975278147
 20
86.8941196324
 10
124.2209327271
 20
86.8780318627
  0
LWPOLYLINE
  5
3AE
100
AcDbEntity
  8
RACCORDO
100
AcDbPolyline
 62
250
  6
CONTINUOUS
 90
10
 70
0
 10
125.6198171004
 20
88.1589487352
 10
125.6319406304
 20
88.1674062992
 10
125.6436672433
 20
88.178017124
 10
125.6546484863
 20
88.190465912
 10
125.6645580549
 20
88.2043827513
 10
125.6731014893
 20
88.219354107
 10
125.680024924
 20
88.2349351099
 10
125.685122631
 20
88.2506627751
 10
125.6882431336
 20
88.2660697596
 10
125.689293707
 20
88.2806982496
  0
LINE
  5
3AF
100
AcDbEntity
  8
RACCORDO
100
AcDbLine
 62
250
  6
CONTINUOUS
 10
124.3534603151
 20
87.3755467974
 11
124.3645944578
 21
87.3827002243
  0
LINE
  5
3B0
100
AcDbEntity
  8
RACCORDO
100
AcDbLine
 62
7
  6
CONTINUOUS
 10
124.3132319714
 20
87.3868287548
 11
125.5694580595
 21
88.1636978115
  0
LINE
  5
3B1
100
AcDbEntity
  8
RACCORDO
100
AcDbLine
 62
250
  6
CONTINUOUS
 10
124.3645944578
 20
87.3827002243
 11
125.6198171004
 21
88.1589487352
  0
LWPOLYLINE
  5
3B2
100
AcDbEntity
  8
RACCORDO
100
AcDbPolyline
 62
250
  6
CONTINUOUS
 90
16
 70
0
 10
125.5694974559
 20
88.1637221368
 10
125.5707890284
 20
88.1644788989
 10
125.5734874872
 20
88.1658233907
 10
125.576320915
 20
88.1669284336
 10
125.5792809487
 20
88.1677873843
 10
125.5823628016
 20
88.1683957049
 10
125.5855510068
 20
88.1687480181
 10
125.5888159486
 20
88.16884237
 10
125.592168645
 20
88.1686801616
 10
125.5956575125
 20
88.1682514344
 10
125.5992725789
 20
88.1675447762
 10
125.6030104301
 20
88.1665473846
 10
125.6069354321
 20
88.1652197093
 10
125.6110645883
 20
88.1635238113
 10
125.6153631551
 20
88.1614415754
 10
125.6198171004
 20
88.1589487352
  0
LWPOLYLINE
  5
3B3
100
AcDbEntity
  8
RACCORDO
100
AcDbPolyline
 62
250
  6
CONTINUOUS
 90
6
 70
0
 10
124.3132710244
 20
87.3868528686
 10
124.3186524967
 20
87.3895364794
 10
124.3287992507
 20
87.3919013366
 10
124.3400706854
 20
87.3915289061
 10
124.3521244564
 20
87.3884304996
 10
124.3645944578
 20
87.3827002243
  0
LWPOLYLINE
  5
3B4
100
AcDbEntity
  8
RACCORDO
100
AcDbPolyline
 62
7
  6
CONTINUOUS
 90
4
 70
0
 10
138.8828697913
 20
100.0768220936
 10
139.0763235147
 20
100.0787065525
 10
139.2610330714
 20
100.0675113988
 10
139.4367781675
 20
100.0435357097
  0
LWPOLYLINE
  5
3B5
100
AcDbEntity
  8
RACCORDO
100
AcDbPolyline
 62
250
  6
CONTINUOUS
 90
11
 70
0
 10
137.7518433521
 20
99.9646579942
 10
137.7657337929
 20
99.9630068004
 10
137.7868006884
 20
99.9618212334
 10
137.8079666468
 20
99.9619278387
 10
137.828994594
 20
99.9633254295
 10
137.8496490102
 20
99.965998361
 10
137.8696985319
 20
99.9699167004
 10
137.8889185484
 20
99.9750365559
 10
137.9070937668
 20
99.9813005764
 10
137.9240206187
 20
99.9886386025
 10
137.939509507
 20
99.9969684416
  0
LWPOLYLINE
  5
3B6
100
AcDbEntity
  8
RACCORDO
100
AcDbPolyline
 62
250
  6
CONTINUOUS
 90
48
 70
0
 10
139.5890927352
 20
100.1647554577
 10
139.6795225632
 20
100.1480120763
 10
139.7679328279
 20
100.1280711366
 10
139.8542123204
 20
100.1049442182
 10
139.9384722495
 20
100.0786197417
 10
140.0208082502
 20
100.0491525223
 10
140.1012174591
 20
100.0165573702
 10
140.1797027396
 20
99.9808194753
 10
140.2563683159
 20
99.9419492223
 10
140.3312522771
 20
99.8999319564
 10
140.4043165342
 20
99.8547823324
 10
140.4755510452
 20
99.8065546999
 10
140.5450055431
 20
99.7551847601
 10
140.612630295
 20
99.7007368118
 10
140.6782660597
 20
99.6434581008
 10
140.7418445878
 20
99.5833798149
 10
140.8034341288
 20
99.5204707663
 10
140.8630801903
 20
99.4548846379
 10
140.920653178
 20
99.3868388358
 10
140.9762826861
 20
99.3161159538
 10
141.0304030048
 20
99.2422174565
 10
141.0829980559
 20
99.1653750038
 10
141.1340839176
 20
99.0853569356
 10
141.1841431147
 20
99.000969736
 10
141.2332750894
 20
98.9123272819
 10
141.2813803995
 20
98.8193156963
 10
141.3286432433
 20
98.7203998324
 10
141.3752004745
 20
98.6155609731
 10
141.4209152394
 20
98.5048178355
 10
141.465561175
 20
98.3866914252
 10
141.5092738827
 20
98.2609317683
 10
141.551917761
 20
98.1277888386
 10
141.592859643
 20
97.9865335626
 10
141.6320700056
 20
97.8373189528
 10
141.6695783718
 20
97.6799919967
 10
141.7048401444
 20
97.5133645831
 10
141.7379687187
 20
97.3362698824
 10
141.7688506994
 20
97.1498747241
 10
141.7966013033
 20
96.9564914862
 10
141.8210599058
 20
96.7541482434
 10
141.8423871314
 20
96.544816921
 10
141.8601800713
 20
96.3367256731
 10
141.8740172564
 20
96.1295196013
 10
141.8843201556
 20
95.923553604
 10
141.8919502668
 20
95.7281205311
 10
141.8971947558
 20
95.5463179991
 10
141.8997664567
 20
95.3750483915
 10
141.8996653695
 20
95.2143117082
  0
LINE
  5
3B7
100
AcDbEntity
  8
RACCORDO
100
AcDbLine
 62
7
  6
CONTINUOUS
 10
139.4367781675
 20
100.0435357097
 11
139.6035810476
 21
100.0071387186
  0
LWPOLYLINE
  5
3B8
100
AcDbEntity
  8
RACCORDO
100
AcDbPolyline
 62
7
  6
CONTINUOUS
 90
5
 70
0
 10
139.6035810476
 20
100.0071387186
 10
139.7612430935
 20
99.9588188988
 10
139.9097929635
 20
99.8991509854
 10
140.0497004812
 20
99.8285856443
 10
140.0730007267
 20
99.8153362491
  0
LINE
  5
3B9
100
AcDbEntity
  8
RACCORDO
100
AcDbLine
 62
250
  6
CONTINUOUS
 10
144.2416033906
 20
94.8583848645
 11
144.2289461084
 21
94.8647052224
  0
LWPOLYLINE
  5
3BA
100
AcDbEntity
  8
RACCORDO
100
AcDbPolyline
 62
7
  6
CONTINUOUS
 90
10
 70
0
 10
143.7621520359
 20
95.1666385124
 10
143.7488522913
 20
95.1734242318
 10
143.734530198
 20
95.178868329
 10
143.719945953
 20
95.1825756515
 10
143.705270016
 20
95.1845237485
 10
143.6906808474
 20
95.184716492
 10
143.676414997
 20
95.183192093
 10
143.6627040565
 20
95.1800401034
 10
143.6497232246
 20
95.1753843685
 10
143.6394198151
 20
95.1703781235
  0
LWPOLYLINE
  5
3BB
100
AcDbEntity
  8
RACCORDO
100
AcDbPolyline
 62
250
  6
CONTINUOUS
 90
13
 70
0
 10
143.7133962477
 20
95.1623772506
 10
143.7094469419
 20
95.1645968438
 10
143.705513143
 20
95.1666347679
 10
143.7016002711
 20
95.1684897488
 10
143.6977369456
 20
95.1701512674
 10
143.6939047968
 20
95.1716303407
 10
143.6900397545
 20
95.1729486291
 10
143.6861388914
 20
95.1740984679
 10
143.6822190058
 20
95.1750661332
 10
143.6782487233
 20
95.175848222
 10
143.6742397244
 20
95.1764278464
 10
143.6702006112
 20
95.1767887008
 10
143.6661002216
 20
95.1769140644
  0
LINE
  5
3BC
100
AcDbEntity
  8
RACCORDO
100
AcDbLine
 62
250
  6
CONTINUOUS
 10
144.2289461084
 20
94.8647052224
 11
143.7133962477
 21
95.1623772506
  0
LINE
  5
3BD
100
AcDbEntity
  8
RACCORDO
100
AcDbLine
 62
7
  6
CONTINUOUS
 10
144.2777144529
 20
94.868959238
 11
143.7621645921
 21
95.1666312663
  0
LWPOLYLINE
  5
3BE
100
AcDbEntity
  8
RACCORDO
100
AcDbPolyline
 62
250
  6
CONTINUOUS
 90
7
 70
0
 10
144.2540089128
 20
86.993477644
 10
144.2473898133
 20
87.0017327024
 10
144.2402439695
 20
87.0098528513
 10
144.2325712251
 20
87.0177541111
 10
144.2243381787
 20
87.0253785031
 10
144.2155539579
 20
87.0326119205
 10
144.2062774395
 20
87.0392974481
  0
LINE
  5
3BF
100
AcDbEntity
  8
RACCORDO
100
AcDbLine
 62
250
  6
CONTINUOUS
 10
142.2211559356
 20
82.7411815065
 11
142.9221373371
 21
81.5270462362
  0
LINE
  5
3C0
100
AcDbEntity
  8
RACCORDO
100
AcDbLine
 62
7
  6
CONTINUOUS
 10
142.270940419
 20
82.7775041122
 11
142.9713857034
 21
81.5642972928
  0
LINE
  5
3C1
100
AcDbEntity
  8
RACCORDO
100
AcDbLine
 62
250
  6
CONTINUOUS
 10
142.9221373371
 20
81.5270462362
 11
142.9257823722
 21
81.5203928749
  0
LWPOLYLINE
  5
3C2
100
AcDbEntity
  8
RACCORDO
100
AcDbPolyline
 62
250
  6
CONTINUOUS
 90
7
 70
0
 10
139.7526243973
 20
87.9870835374
 10
139.7626013637
 20
87.9681268793
 10
139.7727888303
 20
87.9443865817
 10
139.7808243975
 20
87.9204263746
 10
139.7865706787
 20
87.8966560678
 10
139.7899294536
 20
87.8734821815
 10
139.7908433324
 20
87.8513010334
  0
LWPOLYLINE
  5
3C3
100
AcDbEntity
  8
RACCORDO
100
AcDbPolyline
 62
250
  6
CONTINUOUS
 90
8
 70
0
 10
142.9257823722
 20
81.5203928749
 10
142.9292535983
 20
81.5137056988
 10
142.9325187468
 20
81.5070568669
 10
142.935608045
 20
81.5003955896
 10
142.9385989793
 20
81.4935443523
 10
142.9414896399
 20
81.4864743908
 10
142.9442469768
 20
81.4792310351
 10
142.9468805691
 20
81.4717461635
  0
LINE
  5
3C4
100
AcDbEntity
  8
RACCORDO
100
AcDbLine
 62
250
  6
CONTINUOUS
 10
139.0920402104
 20
86.0957361592
 11
139.0818890333
 21
86.1173308345
  0
LINE
  5
3C5
100
AcDbEntity
  8
RACCORDO
100
AcDbLine
 62
7
  6
CONTINUOUS
 10
139.3272117929
 20
85.8956340999
 11
139.1920819001
 21
86.1830969342
  0
LWPOLYLINE
  5
3C6
100
AcDbEntity
  8
RACCORDO
100
AcDbPolyline
 62
250
  6
CONTINUOUS
 90
15
 70
0
 10
141.9075945527
 20
81.2582107366
 10
141.9103121391
 20
81.2500865735
 10
141.9132349395
 20
81.2422719619
 10
141.9163380886
 20
81.2347506609
 10
141.9195861629
 20
81.2275327251
 10
141.9229382204
 20
81.2206407866
 10
141.9263711006
 20
81.2140712382
 10
141.9298501586
 20
81.2078369214
 10
141.9333494682
 20
81.2019345444
 10
141.9368665522
 20
81.1963335556
 10
141.9403717989
 20
81.1910451986
 10
141.9438516533
 20
81.1860550864
 10
141.9473373742
 20
81.1812970501
 10
141.95081523
 20
81.1767710645
 10
141.9542730209
 20
81.1724737006
  0
LWPOLYLINE
  5
3C7
100
AcDbEntity
  8
ASSI
100
AcDbPolyline
 62
250
  6
CONTINUOUS
 90
13
 70
0
 10
133.5177179093
 20
116.8843350907
 10
133.5150637331
 20
116.9058409793
 10
133.510247915
 20
116.9280184971
 10
133.5033466725
 20
116.9505262505
 10
133.4944692642
 20
116.9730157341
 10
133.4837532031
 20
116.9951446626
 10
133.4713599898
 20
117.0165816442
 10
133.4574605969
 20
117.0370238329
 10
133.4422838539
 20
117.0561283343
 10
133.4261225086
 20
117.0735422802
 10
133.4092536437
 20
117.0890012468
 10
133.391920659
 20
117.1023145972
 10
133.3743880182
 20
117.1133060321
  0
LWPOLYLINE
  5
3C8
100
AcDbEntity
  8
ASSI
100
AcDbPolyline
 62
250
  6
CONTINUOUS
 90
13
 70
0
 10
135.4173403908
 20
120.8439505939
 10
135.4152771445
 20
120.8656533261
 10
135.4109885708
 20
120.8881761852
 10
135.4045432781
 20
120.9111590061
 10
135.3960443634
 20
120.93423427
 10
135.385627754
 20
120.9570330037
 10
135.3734600273
 20
120.9791906783
 10
135.359735768
 20
121.0003529961
 10
135.3446744407
 20
121.0201815898
 10
135.3285168624
 20
121.0383594463
 10
135.311521387
 20
121.0545959261
 10
135.2939597798
 20
121.0686314169
 10
135.2761128476
 20
121.0802415122
  0
LWPOLYLINE
  5
3C9
100
AcDbEntity
  8
ASSI
100
AcDbPolyline
 62
250
  6
CONTINUOUS
 90
13
 70
0
 10
135.7384017745
 20
120.7965233043
 10
135.7404649477
 20
120.7748210814
 10
135.7447533731
 20
120.752298652
 10
135.7511984784
 20
120.729316152
 10
135.7596972058
 20
120.706241074
 10
135.7701136597
 20
120.6834423908
 10
135.7822812801
 20
120.6612846556
 10
135.7960055053
 20
120.6401221728
 10
135.8110668837
 20
120.6202933326
 10
135.8272245823
 20
120.6021152003
 10
135.844220238
 20
120.5858784459
 10
135.8617820884
 20
120.5718426968
 10
135.8796293177
 20
120.560232386
  0
LINE
  5
3CA
100
AcDbEntity
  8
ASSI
100
AcDbLine
 62
250
  6
CONTINUOUS
 10
137.8132815303
 20
117.8502186129
 11
137.8402226561
 21
117.5566338109
  0
LINE
  5
3CB
100
AcDbEntity
  8
ASSI
100
AcDbLine
 62
250
  6
CONTINUOUS
 10
137.78441793
 20
118.1811389896
 11
137.8132815303
 21
117.8502186129
  0
LWPOLYLINE
  5
3CC
100
AcDbEntity
  8
RACCORDO
100
AcDbPolyline
 62
250
  6
CONTINUOUS
 90
3
 70
0
 10
137.609864708
 20
122.1098866559
 10
137.6083937695
 20
122.1271714342
 10
137.6054919306
 20
122.1450266206
  0
LWPOLYLINE
  5
3CD
100
AcDbEntity
  8
ASSI
100
AcDbPolyline
 62
250
  6
CONTINUOUS
 90
5
 70
0
 10
135.9537925015
 20
122.1564302185
 10
135.9556044659
 20
122.1318747419
 10
135.9609781035
 20
122.1076624407
 10
135.9698751198
 20
122.0837987128
 10
135.9822319449
 20
122.0604541762
  0
LWPOLYLINE
  5
3CE
100
AcDbEntity
  8
RACCORDO
100
AcDbPolyline
 62
250
  6
CONTINUOUS
 90
12
 70
0
 10
138.0760372829
 20
110.7228579205
 10
138.0744895106
 20
110.7446701447
 10
138.070505673
 20
110.7674820956
 10
138.0641539546
 20
110.7909033076
 10
138.0555430707
 20
110.8145328861
 10
138.0448204073
 20
110.8379663662
 10
138.0321694992
 20
110.8608026369
 10
138.0178068861
 20
110.882650811
 10
138.0019784089
 20
110.9031369116
 10
137.9849550037
 20
110.9219102719
 10
137.9670280593
 20
110.938649545
 10
137.9549951351
 20
110.9480158846
  0
LWPOLYLINE
  5
3CF
100
AcDbEntity
  8
RACCORDO
100
AcDbPolyline
 62
250
  6
CONTINUOUS
 90
9
 70
0
 10
138.1677111399
 20
112.9384589407
 10
138.166665375
 20
112.9532730829
 10
138.163559855
 20
112.9689096747
 10
138.1584889394
 20
112.9848936062
 10
138.151606706
 20
113.0007392141
 10
138.1431222675
 20
113.0159650373
 10
138.1332934178
 20
113.0301084463
 10
138.1224188012
 20
113.0427397006
 10
138.1119751292
 20
113.0524132433
  0
LWPOLYLINE
  5
3D0
100
AcDbEntity
  8
0
100
AcDbPolyline
 62
250
  6
CONTINUOUS
 90
16
 70
0
 10
136.4362246109
 20
113.1437538006
 10
136.4333346632
 20
113.1871307226
 10
136.4266859623
 20
113.2323361182
 10
136.4163517696
 20
113.2788721038
 10
136.4024441181
 20
113.3262316766
 10
136.3851172349
 20
113.3738877869
 10
136.3645697194
 20
113.4212990425
 10
136.3410365925
 20
113.4679337926
 10
136.3147754127
 20
113.5132909198
 10
136.2860679401
 20
113.5568872308
 10
136.2551850336
 20
113.598300377
 10
136.2225059021
 20
113.6370115941
 10
136.1885260854
 20
113.6724625114
 10
136.1536779045
 20
113.704265308
 10
136.1183049362
 20
113.732167484
 10
136.0827923694
 20
113.7559163881
  0
LWPOLYLINE
  5
3D1
100
AcDbEntity
  8
RACCORDO
100
AcDbPolyline
 62
250
  6
CONTINUOUS
 90
8
 70
0
 10
138.916399502
 20
80.2621354477
 10
138.9146498786
 20
80.2939964626
 10
138.9094771829
 20
80.3272718181
 10
138.9009642569
 20
80.3614293416
 10
138.8892473608
 20
80.3959227611
 10
138.8745139658
 20
80.4302005153
 10
138.8569997317
 20
80.46371457
 10
138.840277888
 20
80.49062875
  0
LWPOLYLINE
  5
3D2
100
AcDbEntity
  8
RACCORDO
100
AcDbPolyline
 62
250
  6
CONTINUOUS
 90
13
 70
0
 10
139.4545949781
 20
80.5845022961
 10
139.4528455578
 20
80.6163613979
 10
139.4476733803
 20
80.649635111
 10
139.43916115
 20
80.6837913798
 10
139.4274449798
 20
80.7182840362
 10
139.4127122143
 20
80.7525615336
 10
139.3951984346
 20
80.7860757654
 10
139.3751836905
 20
80.8182908301
 10
139.3529880233
 20
80.8486916003
 10
139.3289663476
 20
80.8767919593
 10
139.3035027765
 20
80.902142575
 10
139.2770044793
 20
80.9243380841
 10
139.2498951709
 20
80.9430235746
  0
LWPOLYLINE
  5
3D3
100
AcDbEntity
  8
ASSI
100
AcDbPolyline
 62
250
  6
CONTINUOUS
 90
10
 70
0
 10
138.4336854764
 20
118.6370628237
 10
138.4330289598
 20
118.650081696
 10
138.4319383862
 20
118.6627336216
 10
138.4304137555
 20
118.6750186005
 10
138.4284518133
 20
118.6869362292
 10
138.4260558141
 20
118.6984869111
 10
138.4232355208
 20
118.7096718569
 10
138.4199941879
 20
118.7204914703
 10
138.416328561
 20
118.7309453475
 10
138.4122386402
 20
118.7410334887
  0
LINE
  5
3D4
100
AcDbEntity
  8
RACCORDO
100
AcDbLine
 62
250
  6
CONTINUOUS
 10
137.6528691806
 20
121.1375694436
 11
137.609864708
 21
122.1098866559
  0
LINE
  5
3D5
100
AcDbEntity
  8
RACCORDO
100
AcDbLine
 62
7
  6
CONTINUOUS
 10
137.698438608
 20
121.1619423009
 11
137.6537975512
 21
122.1712621512
  0
LWPOLYLINE
  5
3D6
100
AcDbEntity
  8
RACCORDO
100
AcDbPolyline
 62
7
  6
CONTINUOUS
 90
10
 70
0
 10
138.7969806608
 20
112.6350902495
 10
138.7960251306
 20
112.6579796214
 10
138.7924153301
 20
112.6841671173
 10
138.786207273
 20
112.708784797
 10
138.7774912168
 20
112.7317397392
 10
138.7663944758
 20
112.752840914
 10
138.7531875462
 20
112.7717722229
 10
138.7381828716
 20
112.7883354461
 10
138.7216581627
 20
112.8024825497
 10
138.7044390191
 20
112.8138674048
  0
LWPOLYLINE
  5
3D7
100
AcDbEntity
  8
RACCORDO
100
AcDbPolyline
 62
250
  6
CONTINUOUS
 90
19
 70
0
 10
137.939509507
 20
113.1809608101
 10
137.9400606784
 20
113.1672402383
 10
137.9415541045
 20
113.154422651
 10
137.9439897851
 20
113.1425080481
 10
137.947398067
 20
113.1314426472
 10
137.9517486034
 20
113.1212802308
 10
137.9569503549
 20
113.1121821457
 10
137.9630122229
 20
113.1041550871
 10
137.9699253059
 20
113.0971923599
 10
137.97757186
 20
113.0914352258
 10
137.9859261692
 20
113.0868863381
 10
137.9950139495
 20
113.0835430435
 10
138.0047946048
 20
113.0815386442
 10
138.01532536
 20
113.0808647507
 10
138.0265489903
 20
113.0815297525
 10
138.0382532248
 20
113.0836921199
 10
138.0503673066
 20
113.0874046763
 10
138.0629619926
 20
113.0926145984
 10
138.0760372829
 20
113.0993218862
  0
LWPOLYLINE
  5
3D8
100
AcDbEntity
  8
RACCORDO
100
AcDbPolyline
 62
250
  6
CONTINUOUS
 90
10
 70
0
 10
138.3341513483
 20
113.1762449751
 10
138.3346713725
 20
113.1606979496
 10
138.3364266682
 20
113.1445936404
 10
138.3394021094
 20
113.128070823
 10
138.3435720559
 20
113.1112718794
 10
138.3489005741
 20
113.0943415711
 10
138.3553417464
 20
113.0774257915
 10
138.3628400675
 20
113.0606703089
 10
138.3713309221
 20
113.0442195103
 10
138.380741142
 20
113.0282151569
  0
LWPOLYLINE
  5
3D9
100
AcDbEntity
  8
ASSI
100
AcDbPolyline
 62
250
  6
CONTINUOUS
 90
16
 70
0
 10
138.8204862787
 20
115.4789246446
 10
138.8199478302
 20
115.4966327364
 10
138.8178301672
 20
115.5150295871
 10
138.8141566151
 20
115.5339125016
 10
138.8089669103
 20
115.5530758017
 10
138.802318599
 20
115.5723059867
 10
138.794288166
 20
115.5913841082
 10
138.7849680485
 20
115.6100956559
 10
138.7744602699
 20
115.6282401887
 10
138.7628768581
 20
115.6456256238
 10
138.7503261866
 20
115.6620839749
 10
138.7369626763
 20
115.6774078129
 10
138.7229904694
 20
115.6913751994
 10
138.7085888472
 20
115.7038340056
 10
138.6939005556
 20
115.7146867711
 10
138.6790864617
 20
115.7238363117
  0
LINE
  5
3DA
100
AcDbEntity
  8
ASSI
100
AcDbLine
 62
250
  6
CONTINUOUS
 10
138.4412495666
 20
118.3802966701
 11
138.4336854764
 21
118.6370628237
  0
LWPOLYLINE
  5
3DB
100
AcDbEntity
  8
RACCORDO
100
AcDbPolyline
 62
250
  6
CONTINUOUS
 90
9
 70
0
 10
138.7658161259
 20
112.5931856604
 10
138.7655376427
 20
112.6030950421
 10
138.7647211754
 20
112.6126059409
 10
138.7633667238
 20
112.6217183568
 10
138.7615027601
 20
112.6304196317
 10
138.7591008122
 20
112.6387224237
 10
138.7560754638
 20
112.6466647072
 10
138.7524482805
 20
112.6543132734
 10
138.7481976966
 20
112.6616013312
  0
LWPOLYLINE
  5
3DC
100
AcDbEntity
  8
RACCORDO
100
AcDbPolyline
 62
250
  6
CONTINUOUS
 90
31
 70
0
 10
138.946298752
 20
89.5808132059
 10
138.9461138189
 20
89.5878938156
 10
138.9457305812
 20
89.5948502263
 10
138.9451802615
 20
89.6016558092
 10
138.9445082661
 20
89.6081704137
 10
138.943734985
 20
89.614488003
 10
138.9428217306
 20
89.6209484664
 10
138.94174721
 20
89.6276073321
 10
138.9405233121
 20
89.6343960502
 10
138.9391169829
 20
89.6414816777
 10
138.9375020027
 20
89.648883089
 10
138.9356708221
 20
89.6565665602
 10
138.9335971143
 20
89.6646210734
 10
138.9312530595
 20
89.6730441778
 10
138.9286205914
 20
89.6818083595
 10
138.9256763371
 20
89.6909598481
 10
138.9223875989
 20
89.7004938383
 10
138.9187372142
 20
89.7103576216
 10
138.9147233522
 20
89.7205173634
 10
138.9103323007
 20
89.730931242
 10
138.905545435
 20
89.7415495338
 10
138.9003594805
 20
89.752317695
 10
138.8947801728
 20
89.7631558022
 10
138.8887964322
 20
89.7740148785
 10
138.8823835549
 20
89.7848712521
 10
138.8755568152
 20
89.795634314
 10
138.8683257732
 20
89.8062093706
 10
138.8606613338
 20
89.8165384438
 10
138.8525781379
 20
89.8265110714
 10
138.8441399937
 20
89.8359766826
 10
138.840277888
 20
89.8398757888
  0
LINE
  5
3DD
100
AcDbEntity
  8
ASSI
100
AcDbLine
 62
250
  6
CONTINUOUS
 10
138.4473829513
 20
118.1372075027
 11
138.4412495666
 21
118.3802966701
  0
LWPOLYLINE
  5
3DE
100
AcDbEntity
  8
RACCORDO
100
AcDbPolyline
 62
250
  6
CONTINUOUS
 90
13
 70
0
 10
138.9768056638
 20
107.709344906
 10
138.9762404392
 20
107.7379827837
 10
138.9746730297
 20
107.7663331036
 10
138.9721969084
 20
107.7943012482
 10
138.9689138634
 20
107.8217404779
 10
138.9649077645
 20
107.8486343995
 10
138.9602248035
 20
107.8751032233
 10
138.9549502185
 20
107.9010097546
 10
138.9491383062
 20
107.9263851693
 10
138.9427334181
 20
107.9516245427
 10
138.9357902204
 20
107.9766007094
 10
138.9283172622
 20
108.0013738217
 10
138.9201005194
 20
108.026634393
  0
LINE
  5
3DF
100
AcDbEntity
  8
ASSI
100
AcDbLine
 62
250
  6
CONTINUOUS
 10
138.4534803566
 20
117.8356209352
 11
138.4473829513
 21
118.1372075027
  0
LWPOLYLINE
  5
3E0
100
AcDbEntity
  8
ASSI
100
AcDbPolyline
 62
250
  6
CONTINUOUS
 90
3
 70
0
 10
138.4580910275
 20
117.497817103
 10
138.4574203769
 20
117.5617717896
 10
138.4534803566
 20
117.8356209352
  0
LINE
  5
3E1
100
AcDbEntity
  8
RACCORDO
100
AcDbLine
 62
250
  6
CONTINUOUS
 10
138.8906298025
 20
85.6559118731
 11
138.8927905145
 21
85.4804241165
  0
LINE
  5
3E2
100
AcDbEntity
  8
RACCORDO
100
AcDbLine
 62
250
  6
CONTINUOUS
 10
138.889280785
 20
85.8306485268
 11
138.8906298025
 21
85.6559118731
  0
LWPOLYLINE
  5
3E3
100
AcDbEntity
  8
RACCORDO
100
AcDbPolyline
 62
250
  6
CONTINUOUS
 90
14
 70
0
 10
138.4933292506
 20
113.2827644242
 10
138.4934039959
 20
113.2575822847
 10
138.4920023604
 20
113.2321200346
 10
138.4891033457
 20
113.2077821771
 10
138.4847925546
 20
113.1845312099
 10
138.4791505911
 20
113.162374088
 10
138.4720996139
 20
113.1413059183
 10
138.4634873026
 20
113.1212712418
 10
138.4531905533
 20
113.1020476104
 10
138.4413344264
 20
113.0838589635
 10
138.4281388476
 20
113.0673194625
 10
138.4136776375
 20
113.0526342775
 10
138.3978782988
 20
113.039599398
 10
138.38074114
 20
113.0282151557
  0
LWPOLYLINE
  5
3E4
100
AcDbEntity
  8
ASSI
100
AcDbPolyline
 62
250
  6
CONTINUOUS
 90
16
 70
0
 10
138.3090245479
 20
118.7861740315
 10
138.3089868147
 20
118.8021724752
 10
138.3079832547
 20
118.8181330915
 10
138.3060203638
 20
118.8339537221
 10
138.3031107805
 20
118.8495330655
 10
138.2992732002
 20
118.8647714652
 10
138.2945322279
 20
118.8795715362
 10
138.2889182257
 20
118.893838612
 10
138.2824671859
 20
118.9074813311
 10
138.2752204831
 20
118.920412358
 10
138.2672245001
 20
118.932549008
 10
138.2585304927
 20
118.9438135523
 10
138.249194346
 20
118.9541337405
 10
138.2392759538
 20
118.9634435457
 10
138.2288387951
 20
118.9716835311
 10
138.2179497238
 20
118.9788010487
  0
LINE
  5
3E5
100
AcDbEntity
  8
RACCORDO
100
AcDbLine
 62
250
  6
CONTINUOUS
 10
138.8890883001
 20
85.8964065217
 11
138.889280785
 21
85.8306485268
  0
LINE
  5
3E6
100
AcDbEntity
  8
RACCORDO
100
AcDbLine
 62
250
  6
CONTINUOUS
 10
137.6542201907
 20
114.296653887
 11
137.6542201907
 21
114.240627879
  0
LINE
  5
3E7
100
AcDbEntity
  8
RACCORDO
100
AcDbLine
 62
7
  6
CONTINUOUS
 10
137.7518433521
 20
99.857490436
 11
137.7518433521
 21
110.8327149229
  0
LINE
  5
3E8
100
AcDbEntity
  8
RACCORDO
100
AcDbLine
 62
7
  6
CONTINUOUS
 10
137.7518433521
 20
112.7105965595
 11
137.7518433521
 21
113.9033718267
  0
LINE
  5
3E9
100
AcDbEntity
  8
RACCORDO
100
AcDbLine
 62
250
  6
CONTINUOUS
 10
137.939509507
 20
114.2565490888
 11
137.939509507
 21
113.1809608101
  0
LINE
  5
3EA
100
AcDbEntity
  8
RACCORDO
100
AcDbLine
 62
250
  6
CONTINUOUS
 10
137.939509507
 20
110.4779584746
 11
137.939509507
 21
99.9969684416
  0
LINE
  5
3EB
100
AcDbEntity
  8
ASSI
100
AcDbLine
 62
7
  6
CONTINUOUS
 10
138.4033614029
 20
118.4615451489
 11
138.4033614029
 21
117.3927744621
  0
LINE
  5
3EC
100
AcDbEntity
  8
ASSI
100
AcDbLine
 62
7
  6
CONTINUOUS
 10
138.5574351755
 20
117.418926469
 11
138.5574351755
 21
117.552796609
  0
LINE
  5
3ED
100
AcDbEntity
  8
RACCORDO
100
AcDbLine
 62
250
  6
CONTINUOUS
 10
138.7658161259
 20
111.2538087264
 11
138.7658161259
 21
112.5931856604
  0
LINE
  5
3EE
100
AcDbEntity
  8
RACCORDO
100
AcDbLine
 62
7
  6
CONTINUOUS
 10
138.7969806684
 20
111.3765909501
 11
138.7969806684
 21
112.6350678189
  0
LINE
  5
3EF
100
AcDbEntity
  8
ASSI
100
AcDbLine
 62
250
  6
CONTINUOUS
 10
138.8204862787
 20
115.109613655
 11
138.8204862787
 21
115.4789246446
  0
LINE
  5
3F0
100
AcDbEntity
  8
RACCORDO
100
AcDbLine
 62
7
  6
CONTINUOUS
 10
138.840277888
 20
72.2383770651
 11
138.840277888
 21
93.2759837982
  0
LINE
  5
3F1
100
AcDbEntity
  8
RACCORDO
100
AcDbLine
 62
7
  6
CONTINUOUS
 10
138.8402778847
 20
108.1137657527
 11
138.840277888
 21
110.6828657607
  0
LINE
  5
3F2
100
AcDbEntity
  8
RACCORDO
100
AcDbLine
 62
7
  6
CONTINUOUS
 10
138.840277888
 20
113.5632893257
 11
138.840277888
 21
114.7766432485
  0
LINE
  5
3F3
100
AcDbEntity
  8
ASSI
100
AcDbLine
 62
7
  6
CONTINUOUS
 10
138.8766183187
 20
77.1585777899
 11
138.8766183187
 21
76.7892668003
  0
LINE
  5
3F4
100
AcDbEntity
  8
ASSI
100
AcDbLine
 62
7
  6
CONTINUOUS
 10
138.8766183187
 20
115.1898310624
 11
138.8766183187
 21
115.559142052
  0
LINE
  5
3F5
100
AcDbEntity
  8
RACCORDO
100
AcDbLine
 62
250
  6
CONTINUOUS
 10
138.8927905145
 20
81.4905040156
 11
138.8927905145
 21
85.4804241165
  0
LINE
  5
3F6
100
AcDbEntity
  8
RACCORDO
100
AcDbLine
 62
250
  6
CONTINUOUS
 10
138.946311312
 20
87.589185645
 11
138.946311312
 21
89.5808209731
  0
LINE
  5
3F7
100
AcDbEntity
  8
DRAFT
100
AcDbLine
 62
7
  6
CONTINUOUS
 10
139.073441958
 20
116.2341358534
 11
139.073441958
 21
116.4225592316
  0
LINE
  5
3F8
100
AcDbEntity
  8
RACCORDO
100
AcDbLine
 62
250
  6
CONTINUOUS
 10
139.1049225489
 20
81.5412378777
 11
139.1049225489
 21
85.5311579786
  0
LINE
  5
3F9
100
AcDbEntity
  8
RACCORDO
100
AcDbLine
 62
7
  6
CONTINUOUS
 10
139.3706079738
 20
85.7740441337
 11
139.3706079738
 21
81.6051585917
  0
LINE
  5
3FA
100
AcDbEntity
  8
RACCORDO
100
AcDbLine
 62
250
  6
CONTINUOUS
 10
139.5925962002
 20
86.1103038941
 11
139.5925962002
 21
81.5605429712
  0
LINE
  5
3FB
100
AcDbEntity
  8
DRAFT
100
AcDbLine
 62
250
  6
CONTINUOUS
 10
139.6035623964
 20
117.3668250496
 11
139.6035623964
 21
116.5754888524
  0
LINE
  5
3FC
100
AcDbEntity
  8
RACCORDO
100
AcDbLine
 62
250
  6
CONTINUOUS
 10
139.6858667275
 20
99.9277782412
 11
139.6858667275
 21
99.9819200352
  0
LINE
  5
3FD
100
AcDbEntity
  8
RACCORDO
100
AcDbLine
 62
7
  6
CONTINUOUS
 10
139.7279657574
 20
99.9034707889
 11
139.7279657574
 21
99.969017643
  0
LINE
  5
3FE
100
AcDbEntity
  8
ASSI
100
AcDbLine
 62
250
  6
CONTINUOUS
 10
138.8766182947
 20
115.5590854636
 11
138.8766183187
 21
115.559142052
  0
LWPOLYLINE
  5
3FF
100
AcDbEntity
  8
ASSI
100
AcDbPolyline
 62
7
  6
CONTINUOUS
 90
21
 70
0
 10
138.4033070017
 20
117.3927755772
 10
138.4032886482
 20
117.3903543686
 10
138.4013691201
 20
117.3681089287
 10
138.3962914889
 20
117.3462297534
 10
138.3879771175
 20
117.324578635
 10
138.3765046431
 20
117.3032937812
 10
138.3621099771
 20
117.2827898157
 10
138.3447575503
 20
117.2630954999
 10
138.3244829319
 20
117.2441820723
 10
138.3016287413
 20
117.2263778726
 10
138.2761118685
 20
117.2096817658
 10
138.2480154235
 20
117.1940948868
 10
138.2179313554
 20
117.1799489802
 10
138.185850721
 20
117.1672890184
 10
138.1517824635
 20
117.156070029
 10
138.116345361
 20
117.1464888391
 10
138.0795134056
 20
117.138569714
 10
138.0413126052
 20
117.1322883885
 10
138.0024397618
 20
117.1277688934
 10
137.963127143
 20
117.1250525724
 10
137.9231424813
 20
117.1240980819
  0
LWPOLYLINE
  5
400
100
AcDbEntity
  8
RACCORDO
100
AcDbPolyline
 62
250
  6
CONTINUOUS
 90
19
 70
0
 10
139.5925953717
 20
81.5605434496
 10
139.5922914096
 20
81.523669148
 10
139.5892800885
 20
81.4856345496
 10
139.5836165981
 20
81.4467224317
 10
139.5753904761
 20
81.4072306004
 10
139.5646772181
 20
81.3674394053
 10
139.5515275479
 20
81.3276079842
 10
139.5360622532
 20
81.2880532404
 10
139.5184044307
 20
81.2490346073
 10
139.498603374
 20
81.2107261856
 10
139.4768039369
 20
81.1734294417
 10
139.4531557905
 20
81.1374154397
 10
139.4277010776
 20
81.1028311992
 10
139.4004738621
 20
81.069835121
 10
139.3717845682
 20
81.038880865
 10
139.3421216799
 20
81.0105091923
 10
139.3118124941
 20
80.9850029742
 10
139.2809939004
 20
80.9624548852
 10
139.2498945514
 20
80.9430239322
  0
LWPOLYLINE
  5
401
100
AcDbEntity
  8
RACCORDO
100
AcDbPolyline
 62
7
  6
CONTINUOUS
 90
12
 70
0
 10
138.7969869527
 20
111.3765911718
 10
138.7968271456
 20
111.3670714535
 10
138.7962627258
 20
111.3568928671
 10
138.7952975689
 20
111.346401196
 10
138.7938964108
 20
111.3356116252
 10
138.7919415847
 20
111.3245441481
 10
138.7894392936
 20
111.3131828744
 10
138.7863477204
 20
111.3015649418
 10
138.7824749229
 20
111.2897928943
 10
138.7777447747
 20
111.27791206
 10
138.772197599
 20
111.265910576
 10
138.7658161259
 20
111.2538087264
  0
LINE
  5
402
100
AcDbEntity
  8
RACCORDO
100
AcDbLine
 62
250
  6
CONTINUOUS
 10
138.8916563057
 20
81.4238030515
 11
138.8927905145
 21
81.4905040156
  0
LWPOLYLINE
  5
403
100
AcDbEntity
  8
ASSI
100
AcDbPolyline
 62
250
  6
CONTINUOUS
 90
16
 70
0
 10
140.2120104583
 20
119.6182330742
 10
140.2123746967
 20
119.6358985676
 10
140.2134634214
 20
119.6545637465
 10
140.2152647042
 20
119.6740241113
 10
140.2177588097
 20
119.69406645
 10
140.2209184119
 20
119.7144711746
 10
140.2247088936
 20
119.7350147271
 10
140.2290887256
 20
119.7554720279
 10
140.2340099213
 20
119.7756189427
 10
140.2394185634
 20
119.7952347379
 10
140.2452553935
 20
119.8141044987
 10
140.2514564621
 20
119.8320214842
 10
140.2579538293
 20
119.8487893925
 10
140.2646763087
 20
119.864224511
 10
140.2715502472
 20
119.8781577288
 10
140.2785003327
 20
119.8904363905
  0
LWPOLYLINE
  5
404
100
AcDbEntity
  8
ASSI
100
AcDbPolyline
 62
250
  6
CONTINUOUS
 90
8
 70
0
 10
138.8766183187
 20
76.7892668003
 10
138.8764627298
 20
76.7847127046
 10
138.8745512812
 20
76.7727073283
 10
138.8705013208
 20
76.7609254761
 10
138.8643645933
 20
76.749467518
 10
138.8562003301
 20
76.7384360357
 10
138.8460884895
 20
76.7279443881
 10
138.840277888
 20
76.7231629659
  0
LWPOLYLINE
  5
405
100
AcDbEntity
  8
ASSI
100
AcDbPolyline
 62
250
  6
CONTINUOUS
 90
8
 70
0
 10
138.8766183187
 20
77.1585777899
 10
138.8764403636
 20
77.1537074882
 10
138.8744948742
 20
77.1417950841
 10
138.8704242123
 20
77.1300611871
 10
138.8642716082
 20
77.1186325787
 10
138.8561034119
 20
77.1076330339
 10
138.8460076799
 20
77.0971809893
 10
138.840277888
 20
77.0924718463
  0
LWPOLYLINE
  5
406
100
AcDbEntity
  8
RACCORDO
100
AcDbPolyline
 62
250
  6
CONTINUOUS
 90
8
 70
0
 10
138.916399502
 20
86.1188079525
 10
138.9146500817
 20
86.0888441327
 10
138.9094779042
 20
86.0612834891
 10
138.9009656739
 20
86.0365667241
 10
138.8892495037
 20
86.0150890651
 10
138.8745167382
 20
85.9971939459
 10
138.8570029585
 20
85.9831675141
 10
138.8543448828
 20
85.9815262972
  0
LWPOLYLINE
  5
407
100
AcDbEntity
  8
ASSI
100
AcDbPolyline
 62
250
  6
CONTINUOUS
 90
22
 70
0
 10
138.4033614029
 20
118.4615451489
 10
138.4020488272
 20
118.4406404307
 10
138.3970227337
 20
118.4157219304
 10
138.388268869
 20
118.3911494462
 10
138.3758533175
 20
118.3671085073
 10
138.359869837
 20
118.3437806802
 10
138.3404391163
 20
118.321342117
 10
138.3177078669
 20
118.2999622498
 10
138.2918477431
 20
118.279802537
 10
138.2630540547
 20
118.2610152345
 10
138.2315442613
 20
118.2437422196
 10
138.1975562885
 20
118.2281139088
 10
138.1613467596
 20
118.2142482999
 10
138.1231890901
 20
118.2022500942
 10
138.0833714289
 20
118.1922098991
 10
138.0421944467
 20
118.1842035319
 10
137.9999690734
 20
118.1782914518
 10
137.9570141733
 20
118.1745183065
 10
137.9136541359
 20
118.1729125904
 10
137.8702163944
 20
118.1734864267
 10
137.8270289521
 20
118.17623548
 10
137.78441793
 20
118.1811389896
  0
LWPOLYLINE
  5
408
100
AcDbEntity
  8
0
100
AcDbPolyline
 62
250
  6
CONTINUOUS
 90
9
 70
0
 10
136.4362246109
 20
70.9919815183
 10
136.4333349831
 20
70.9498237174
 10
136.4266870731
 20
70.9104362062
 10
136.4163540873
 20
70.8742527233
 10
136.4024479256
 20
70.8416680258
 10
136.3851227859
 20
70.8130455927
 10
136.3645774947
 20
70.7887086955
 10
136.3410476315
 20
70.7689246693
 10
136.3222976501
 20
70.7575629085
  0
LWPOLYLINE
  5
409
100
AcDbEntity
  8
RACCORDO
100
AcDbPolyline
 62
250
  6
CONTINUOUS
 90
7
 70
0
 10
138.0760372829
 20
113.0993218862
 10
138.0744894972
 20
113.0785041731
 10
138.0705056308
 20
113.0594158685
 10
138.064153875
 20
113.042383705
 10
138.0555429524
 20
113.0276992205
 10
138.0448202551
 20
113.015613768
 10
138.0321744122
 20
113.0063371513
  0
LWPOLYLINE
  5
40A
100
AcDbEntity
  8
ASSI
100
AcDbPolyline
 62
250
  6
CONTINUOUS
 90
3
 70
0
 10
140.8302204679
 20
120.0546713752
 10
140.830526162
 20
120.0583618582
 10
140.8333673307
 20
120.0706380261
  0
LWPOLYLINE
  5
40B
100
AcDbEntity
  8
ASSI
100
AcDbPolyline
 62
7
  6
CONTINUOUS
 90
20
 70
0
 10
140.8782154389
 20
118.7597848091
 10
140.8759520144
 20
118.7327313605
 10
140.8696378123
 20
118.7076768221
 10
140.8593435706
 20
118.6828545053
 10
140.8453071259
 20
118.6588809855
 10
140.82743598
 20
118.6357849596
 10
140.8058226311
 20
118.6135377307
 10
140.7809824101
 20
118.5926697836
 10
140.7528377409
 20
118.573214261
 10
140.7214661996
 20
118.5551380202
 10
140.6876158459
 20
118.5388721179
 10
140.6512271035
 20
118.5244600729
 10
140.6123595486
 20
118.5118583665
 10
140.5719399698
 20
118.5013674993
 10
140.5299165929
 20
118.4930395121
 10
140.4863411921
 20
118.4868223641
 10
140.442295879
 20
118.482860434
 10
140.3981413572
 20
118.481201848
 10
140.3535169231
 20
118.4817984798
 10
140.3084225765
 20
118.4846503296
  0
LWPOLYLINE
  5
40C
100
AcDbEntity
  8
RACCORDO
100
AcDbPolyline
 62
250
  6
CONTINUOUS
 90
10
 70
0
 10
137.939509507
 20
99.9969684416
 10
137.9350024827
 20
99.9787611015
 10
137.9293045092
 20
99.9617899295
 10
137.9223169919
 20
99.9461001234
 10
137.9137688299
 20
99.931706565
 10
137.9037039092
 20
99.9187503887
 10
137.892557604
 20
99.907542611
 10
137.8803554233
 20
99.8982371442
 10
137.8670370588
 20
99.8908671448
 10
137.8542049689
 20
99.8859521605
  0
LWPOLYLINE
  5
40D
100
AcDbEntity
  8
RACCORDO
100
AcDbPolyline
 62
250
  6
CONTINUOUS
 90
7
 70
0
 10
133.3892238551
 20
81.7177824835
 10
133.383640764
 20
81.7027302108
 10
133.3761322856
 20
81.6893834075
 10
133.3669247209
 20
81.6781443381
 10
133.3562955802
 20
81.6693517415
 10
133.3445652195
 20
81.6632706211
 10
133.3309990114
 20
81.6599500703
  0
LWPOLYLINE
  5
40E
100
AcDbEntity
  8
RACCORDO
100
AcDbPolyline
 62
250
  6
CONTINUOUS
 90
7
 70
0
 10
144.2655667373
 20
96.9864825654
 10
144.2708723172
 20
96.9904417569
 10
144.2759646071
 20
96.9950917895
 10
144.2807777012
 20
97.0004530523
 10
144.2852692574
 20
97.0065685832
 10
144.2894100877
 20
97.0135191095
 10
144.2931226242
 20
97.0213296975
  0
LWPOLYLINE
  5
40F
100
AcDbEntity
  8
RACCORDO
100
AcDbPolyline
 62
250
  6
CONTINUOUS
 90
6
 70
0
 10
144.3026158949
 20
97.0753045084
 10
144.3134770745
 20
97.083033348
 10
144.3218780207
 20
97.0917243457
 10
144.3275691018
 20
97.1011192509
 10
144.330381209
 20
97.1109388969
 10
144.3306819045
 20
97.1153869462
  0
LWPOLYLINE
  5
410
100
AcDbEntity
  8
RACCORDO
100
AcDbPolyline
 62
7
  6
CONTINUOUS
 90
10
 70
0
 10
144.2633355972
 20
96.9850466144
 10
144.2741521431
 20
96.9924813458
 10
144.286423868
 20
97.0030630485
 10
144.297608338
 20
97.0153617553
 10
144.307489878
 20
97.02931957
 10
144.3158201639
 20
97.0447706157
 10
144.3223932093
 20
97.0614743633
 10
144.3271053375
 20
97.0792803824
 10
144.3298846753
 20
97.0980782428
 10
144.3306819045
 20
97.1153869462
  0
LINE
  5
411
100
AcDbEntity
  8
RACCORDO
100
AcDbLine
 62
250
  6
CONTINUOUS
 10
144.2634395469
 20
96.9851106074
 11
144.2655667373
 21
96.9864825654
  0
LINE
  5
412
100
AcDbEntity
  8
RACCORDO
100
AcDbLine
 62
250
  6
CONTINUOUS
 10
144.3026158949
 20
97.0753045084
 11
142.9485662044
 21
96.2379398687
  0
LINE
  5
413
100
AcDbEntity
  8
RACCORDO
100
AcDbLine
 62
7
  6
CONTINUOUS
 10
142.9485662044
 20
96.1719732089
 11
144.2634393303
 21
96.9851104734
  0
LWPOLYLINE
  5
414
100
AcDbEntity
  8
RACCORDO
100
AcDbPolyline
 62
250
  6
CONTINUOUS
 90
4
 70
0
 10
144.3370349374
 20
93.8614934745
 10
144.3245960127
 20
93.8540143622
 10
144.3116256919
 20
93.8461364951
 10
144.2929818939
 20
93.83468103
  0
LWPOLYLINE
  5
415
100
AcDbEntity
  8
RACCORDO
100
AcDbPolyline
 62
250
  6
CONTINUOUS
 90
3
 70
0
 10
144.3856817512
 20
93.961092178
 10
144.3736810389
 20
93.9539823821
 10
144.3611307899
 20
93.946339605
  0
LINE
  5
416
100
AcDbEntity
  8
RACCORDO
100
AcDbLine
 62
250
  6
CONTINUOUS
 10
138.3823604537
 20
93.1786608439
 11
136.3661550818
 21
92.0343419752
  0
LINE
  5
417
100
AcDbEntity
  8
RACCORDO
100
AcDbLine
 62
250
  6
CONTINUOUS
 10
138.840277888
 20
93.2759837982
 11
136.4362246109
 21
91.9115377131
  0
LINE
  5
418
100
AcDbEntity
  8
RACCORDO
100
AcDbLine
 62
7
  6
CONTINUOUS
 10
142.9485662044
 20
94.7921934057
 11
143.6394778649
 21
95.1704100048
  0
LINE
  5
419
100
AcDbEntity
  8
RACCORDO
100
AcDbLine
 62
250
  6
CONTINUOUS
 10
142.9485662044
 20
94.7436964924
 11
143.7133962477
 21
95.1623772506
  0
LINE
  5
41A
100
AcDbEntity
  8
RACCORDO
100
AcDbLine
 62
7
  6
CONTINUOUS
 10
138.840277888
 20
90.5969706886
 11
139.5016887853
 21
90.9534930349
  0
LWPOLYLINE
  5
41B
100
AcDbEntity
  8
RACCORDO
100
AcDbPolyline
 62
250
  6
CONTINUOUS
 90
5
 70
0
 10
141.8996653695
 20
95.2143117082
 10
141.8800723421
 20
95.2040509315
 10
141.8583054952
 20
95.1953728539
 10
141.8347455948
 20
95.1884292644
 10
141.814508271
 20
95.1843010733
  0
LWPOLYLINE
  5
41C
100
AcDbEntity
  8
RACCORDO
100
AcDbPolyline
 62
250
  6
CONTINUOUS
 90
19
 70
0
 10
136.4362246109
 20
91.9115377455
 10
136.3992545347
 20
91.8926124678
 10
136.3597960878
 20
91.8760340841
 10
136.3183022356
 20
91.8618819631
 10
136.2750213913
 20
91.8501557036
 10
136.2305868811
 20
91.8409519193
 10
136.1860780845
 20
91.8343543906
 10
136.1420219411
 20
91.8302436746
 10
136.0987363618
 20
91.8284550235
 10
136.0569772058
 20
91.8288114952
 10
136.0176303943
 20
91.8310319151
 10
135.9802902574
 20
91.8348764415
 10
135.9437477179
 20
91.8403497211
 10
135.9082958262
 20
91.8473741035
 10
135.8740255105
 20
91.8559059837
 10
135.8396266081
 20
91.866379518
 10
135.8050104269
 20
91.8791064773
 10
135.7711360765
 20
91.8940421836
 10
135.7384939325
 20
91.9112600606
  0
LWPOLYLINE
  5
41D
100
AcDbEntity
  8
RACCORDO
100
AcDbPolyline
 62
250
  6
CONTINUOUS
 90
19
 70
0
 10
136.3661550818
 20
92.0343419752
 10
136.3359803836
 20
92.0190211869
 10
136.3045344166
 20
92.0056715794
 10
136.2718171808
 20
91.9942931527
 10
136.2373123787
 20
91.9848891397
 10
136.2015363077
 20
91.9774563075
 10
136.1660378609
 20
91.9719849575
 10
136.1309556137
 20
91.9686169007
 10
136.0961509905
 20
91.967210326
 10
136.0627571577
 20
91.9673301025
 10
136.0313522229
 20
91.9689085765
 10
136.0013580783
 20
91.9720134017
 10
135.9721735674
 20
91.9764124077
 10
135.9437796362
 20
91.9818989574
 10
135.9161953386
 20
91.9886796879
 10
135.8888766796
 20
91.9971423407
 10
135.8616423275
 20
92.007416163
 10
135.834673614
 20
92.0193719074
 10
135.8079705391
 20
92.0330095742
  0
LINE
  5
41E
100
AcDbEntity
  8
RACCORDO
100
AcDbLine
 62
7
  6
CONTINUOUS
 10
136.4362246109
 20
92.2270956443
 11
139.0420628627
 21
93.5012230416
  0
LWPOLYLINE
  5
41F
100
AcDbEntity
  8
RACCORDO
100
AcDbPolyline
 62
250
  6
CONTINUOUS
 90
6
 70
0
 10
143.7133962477
 20
95.1623772506
 10
143.7255197804
 20
95.1679196362
 10
143.7372463951
 20
95.1708504098
 10
143.7482276389
 20
95.1710824846
 10
143.7581372075
 20
95.1686089652
 10
143.7621520359
 20
95.1666385124
  0
LWPOLYLINE
  5
420
100
AcDbEntity
  8
RACCORDO
100
AcDbPolyline
 62
250
  6
CONTINUOUS
 90
6
 70
0
 10
144.2289461084
 20
94.8647052224
 10
144.2410696384
 20
94.870247607
 10
144.2527962513
 20
94.8731783809
 10
144.2637774942
 20
94.873410457
 10
144.2736870629
 20
94.8709369392
 10
144.277676257
 20
94.8689812582
  0
LWPOLYLINE
  5
421
100
AcDbEntity
  8
RACCORDO
100
AcDbPolyline
 62
250
  6
CONTINUOUS
 90
3
 70
0
 10
143.6450538336
 20
95.1730355563
 10
143.6408172082
 20
95.1711173346
 10
143.6394779412
 20
95.1704100466
  0
LINE
  5
422
100
AcDbEntity
  8
RACCORDO
100
AcDbLine
 62
7
  6
CONTINUOUS
 10
139.5815950247
 20
99.9879816439
 11
139.5076730562
 21
100.0280661889
  0
LWPOLYLINE
  5
423
100
AcDbEntity
  8
RACCORDO
100
AcDbPolyline
 62
250
  6
CONTINUOUS
 90
3
 70
0
 10
139.5809952231
 20
99.9883297334
 10
139.5216247139
 20
100.0213291252
 10
139.508519475
 20
100.0278814972
  0
LINE
  5
424
100
AcDbEntity
  8
RACCORDO
100
AcDbLine
 62
250
  6
CONTINUOUS
 10
137.7563455
 20
99.8203231493
 11
137.8619468265
 21
99.7593502669
  0
LINE
  5
425
100
AcDbEntity
  8
ASSI
100
AcDbLine
 62
7
  6
CONTINUOUS
 10
140.0248982526
 20
99.7320256876
 11
139.5809970322
 21
99.9883286889
  0
LINE
  5
426
100
AcDbEntity
  8
RACCORDO
100
AcDbLine
 62
7
  6
CONTINUOUS
 10
139.5815051823
 20
99.9880351931
 11
139.5809952231
 21
99.9883297334
  0
LINE
  5
427
100
AcDbEntity
  8
RACCORDO
100
AcDbLine
 62
7
  6
CONTINUOUS
 10
140.0719341841
 20
99.8159525643
 11
140.0730498541
 21
99.8153078625
  0
LWPOLYLINE
  5
428
100
AcDbEntity
  8
RACCORDO
100
AcDbPolyline
 62
250
  6
CONTINUOUS
 90
4
 70
0
 10
140.0730498541
 20
99.8153078625
 10
140.0868835024
 20
99.8072343053
 10
140.1576075728
 20
99.7635394453
 10
140.2265635659
 20
99.7168418278
  0
LWPOLYLINE
  5
429
100
AcDbEntity
  8
RACCORDO
100
AcDbPolyline
 62
7
  6
CONTINUOUS
 90
31
 70
0
 10
140.223419163
 20
99.6173303865
 10
140.2410380618
 20
99.6070256867
 10
140.3376763836
 20
99.5463827168
 10
140.4307657165
 20
99.4809582246
 10
140.5200934783
 20
99.4107777132
 10
140.6058722512
 20
99.3358156794
 10
140.6881251181
 20
99.2565428651
 10
140.7664485676
 20
99.1735930734
 10
140.8412461112
 20
99.0863325012
 10
140.9137513667
 20
98.9933304811
 10
140.984157199
 20
98.8949066833
 10
141.0522707433
 20
98.7907414375
 10
141.118747023
 20
98.6784450654
 10
141.1838596239
 20
98.5581631868
 10
141.2473349602
 20
98.4297501819
 10
141.3090072985
 20
98.290379513
 10
141.3691745852
 20
98.1397841755
 10
141.427538874
 20
97.978231174
 10
141.4830405928
 20
97.8036949857
 10
141.5359113824
 20
97.6145950673
 10
141.585919602
 20
97.412511962
 10
141.631310757
 20
97.2001617759
 10
141.6717036039
 20
96.976817774
 10
141.7074793863
 20
96.7432066912
 10
141.7380273395
 20
96.5042248387
 10
141.7629578322
 20
96.2597321169
 10
141.7826604958
 20
96.0098686253
 10
141.79769346
 20
95.7599509736
 10
141.808242768
 20
95.5117513652
 10
141.8141223767
 20
95.2634975967
 10
141.8153322859
 20
95.0151896681
  0
LINE
  5
42A
100
AcDbEntity
  8
RACCORDO
100
AcDbLine
 62
250
  6
CONTINUOUS
 10
140.2265635659
 20
99.7168418278
 11
140.2938188537
 21
99.667107075
  0
LWPOLYLINE
  5
42B
100
AcDbEntity
  8
RACCORDO
100
AcDbPolyline
 62
250
  6
CONTINUOUS
 90
9
 70
0
 10
140.2938188537
 20
99.667107075
 10
140.3593180407
 20
99.6143874801
 10
140.4228821683
 20
99.558863774
 10
140.4844839957
 20
99.5006227268
 10
140.5442018233
 20
99.439653946
 10
140.6020337179
 20
99.3760204112
 10
140.6578584471
 20
99.3099392725
 10
140.7118566315
 20
99.2412822157
 10
140.7441905697
 20
99.1971657876
  0
LWPOLYLINE
  5
42C
100
AcDbEntity
  8
DRAFT
100
AcDbPolyline
 62
7
  6
CONTINUOUS
 90
4
 70
0
 10
140.0080508853
 20
99.7417531463
 10
139.9653863485
 20
99.7874907885
 10
139.8279243969
 20
99.9134288036
 10
139.7793849528
 20
99.9515318719
  0
LWPOLYLINE
  5
42D
100
AcDbEntity
  8
RACCORDO
100
AcDbPolyline
 62
250
  6
CONTINUOUS
 90
7
 70
0
 10
144.2540089128
 20
90.7492409172
 10
144.2473898133
 20
90.7574959756
 10
144.2402439695
 20
90.7656161245
 10
144.2325712251
 20
90.7735173843
 10
144.2243381787
 20
90.7811417763
 10
144.2155539579
 20
90.7883751938
 10
144.2062774395
 20
90.7950607214
  0
LINE
  5
42E
100
AcDbEntity
  8
RACCORDO
100
AcDbLine
 62
250
  6
CONTINUOUS
 10
144.3450774695
 20
90.2782859189
 11
144.3370353891
 21
90.2902419443
  0
LWPOLYLINE
  5
42F
100
AcDbEntity
  8
RACCORDO
100
AcDbPolyline
 62
250
  6
CONTINUOUS
 90
6
 70
0
 10
144.2793679253
 20
86.9528139148
 10
144.2752724814
 20
86.9606778359
 10
144.2707085463
 20
86.9687243378
 10
144.2656516239
 20
86.9769151925
 10
144.2600892907
 20
86.9851872604
 10
144.2540089128
 20
86.993477644
  0
LINE
  5
430
100
AcDbEntity
  8
RACCORDO
100
AcDbLine
 62
250
  6
CONTINUOUS
 10
144.2830098418
 20
86.945190412
 11
144.2793679253
 21
86.9528139148
  0
LWPOLYLINE
  5
431
100
AcDbEntity
  8
RACCORDO
100
AcDbPolyline
 62
250
  6
CONTINUOUS
 90
21
 70
0
 10
142.9468805691
 20
81.4717461635
 10
142.9493645168
 20
81.4640342876
 10
142.951673376
 20
81.456108369
 10
142.953800873
 20
81.4479021175
 10
142.9557114602
 20
81.4394287787
 10
142.9573636611
 20
81.4307242502
 10
142.9587250419
 20
81.4217652503
 10
142.9597489741
 20
81.4125647087
 10
142.9603802939
 20
81.4031945327
 10
142.9605682597
 20
81.3937294581
 10
142.9602633239
 20
81.3842144175
 10
142.9594160238
 20
81.3747247048
 10
142.9579887641
 20
81.3653823355
 10
142.95595491
 20
81.3562943721
 10
142.9532747696
 20
81.347489891
 10
142.9498907132
 20
81.33898633
 10
142.9457709365
 20
81.3308951568
 10
142.9408715921
 20
81.3232962444
 10
142.9350841956
 20
81.316210344
 10
142.9283299848
 20
81.3097581361
 10
142.9197918098
 20
81.3036313004
  0
LWPOLYLINE
  5
432
100
AcDbEntity
  8
ASSI
100
AcDbPolyline
 62
250
  6
CONTINUOUS
 90
7
 70
0
 10
133.0435434208
 20
120.7396081136
 10
133.0464793082
 20
120.7252924789
 10
133.0521095822
 20
120.7092291262
 10
133.0606072505
 20
120.6918860097
 10
133.0720959276
 20
120.6735957153
 10
133.0866704281
 20
120.6547760738
 10
133.1044116133
 20
120.6359696246
  0
LWPOLYLINE
  5
433
100
AcDbEntity
  8
ASSI
100
AcDbPolyline
 62
250
  6
CONTINUOUS
 90
13
 70
0
 10
136.0384819656
 20
118.5695432121
 10
136.0358357278
 20
118.5910026559
 10
136.0310355799
 20
118.613136526
 10
136.0241558097
 20
118.6356057266
 10
136.0153033149
 20
118.6580643535
 10
136.0046137682
 20
118.6801707101
 10
135.9922480208
 20
118.7015921257
 10
135.9783834384
 20
118.7220158061
 10
135.9632409661
 20
118.7411113342
 10
135.9470866911
 20
118.7585511106
 10
135.9301845862
 20
118.7740688991
 10
135.91278449
 20
118.7874531509
 10
135.8951520745
 20
118.7985141535
  0
LWPOLYLINE
  5
434
100
AcDbEntity
  8
ASSI
100
AcDbPolyline
 62
250
  6
CONTINUOUS
 90
13
 70
0
 10
135.538812695
 20
117.38156686
 10
135.536172673
 20
117.4029898995
 10
135.5313850801
 20
117.425088455
 10
135.5245229969
 20
117.4475252017
 10
135.5156911701
 20
117.469957652
 10
135.5050244139
 20
117.4920433842
 10
135.4926855518
 20
117.5134452691
 10
135.4788629311
 20
117.533836616
 10
135.4637675484
 20
117.5529061596
 10
135.4476298281
 20
117.5703628115
 10
135.4306961057
 20
117.5859401034
 10
135.4132248674
 20
117.5994002545
 10
135.3954828039
 20
117.6105378014
  0
LWPOLYLINE
  5
435
100
AcDbEntity
  8
ASSI
100
AcDbPolyline
 62
250
  6
CONTINUOUS
 90
13
 70
0
 10
136.1748773916
 20
118.6511052197
 10
136.1722373695
 20
118.6725282592
 10
136.1674497766
 20
118.6946268148
 10
136.1605876934
 20
118.7170635614
 10
136.1517558667
 20
118.7394960117
 10
136.1410891105
 20
118.761581744
 10
136.1287502483
 20
118.7829836289
 10
136.1149276277
 20
118.8033749757
 10
136.0998322449
 20
118.8224445193
 10
136.0836945246
 20
118.8399011712
 10
136.0667608023
 20
118.8554784631
 10
136.0492895639
 20
118.8689386142
 10
136.0315475005
 20
118.8800761611
  0
LINE
  5
436
100
AcDbEntity
  8
ASSI
100
AcDbLine
 62
250
  6
CONTINUOUS
 10
139.9990346069
 20
119.6041076499
 11
140.0120873123
 21
119.4846031163
  0
LWPOLYLINE
  5
437
100
AcDbEntity
  8
RACCORDO
100
AcDbPolyline
 62
7
  6
CONTINUOUS
 90
10
 70
0
 10
137.6537975512
 20
122.1712621512
 10
137.6510835264
 20
122.1966306356
 10
137.6455740258
 20
122.2207112139
 10
137.6376041627
 20
122.2436290762
 10
137.6269959472
 20
122.2661184295
 10
137.6137734087
 20
122.2878133998
 10
137.5987576866
 20
122.3073971904
 10
137.5823411371
 20
122.3246566499
 10
137.5640300067
 20
122.3401158776
 10
137.5436407889
 20
122.3536087508
  0
LWPOLYLINE
  5
438
100
AcDbEntity
  8
RACCORDO
100
AcDbPolyline
 62
250
  6
CONTINUOUS
 90
6
 70
0
 10
141.8988359913
 20
81.3024911716
 10
141.8997628027
 20
81.293253536
 10
141.9011668461
 20
81.2841463764
 10
141.9029770215
 20
81.2752525914
 10
141.9051329156
 20
81.2666100961
 10
141.9075945527
 20
81.2582107366
  0
LINE
  5
439
100
AcDbEntity
  8
ASSI
100
AcDbLine
 62
250
  6
CONTINUOUS
 10
137.8590222979
 20
117.3602816146
 11
137.8824855762
 21
117.1249054151
  0
LINE
  5
43A
100
AcDbEntity
  8
ASSI
100
AcDbLine
 62
250
  6
CONTINUOUS
 10
137.8402226561
 20
117.5566338109
 11
137.8590222979
 21
117.3602816146
  0
LINE
  5
43B
100
AcDbEntity
  8
ASSI
100
AcDbLine
 62
250
  6
CONTINUOUS
 10
140.2792393884
 20
118.8072463045
 11
140.3084226531
 21
118.4846503296
  0
LINE
  5
43C
100
AcDbEntity
  8
ASSI
100
AcDbLine
 62
250
  6
CONTINUOUS
 10
140.2470416128
 20
119.1835092378
 11
140.2792393884
 21
118.8072463045
  0
LWPOLYLINE
  5
43D
100
AcDbEntity
  8
ASSI
100
AcDbPolyline
 62
250
  6
CONTINUOUS
 90
3
 70
0
 10
140.2120104652
 20
119.6182330702
 10
140.2192062813
 20
119.526722429
 10
140.2470416128
 20
119.1835092378
  0
LINE
  5
43E
100
AcDbEntity
  8
RACCORDO
100
AcDbLine
 62
250
  6
CONTINUOUS
 10
141.0511264721
 20
118.9801278153
 11
140.9639427521
 21
120.1811053385
  0
LINE
  5
43F
100
AcDbEntity
  8
RACCORDO
100
AcDbLine
 62
7
  6
CONTINUOUS
 10
141.0959593776
 20
119.0027220802
 11
141.0060516479
 21
120.2412235185
  0
LWPOLYLINE
  5
440
100
AcDbEntity
  8
RACCORDO
100
AcDbPolyline
 62
250
  6
CONTINUOUS
 90
8
 70
0
 10
140.4289334548
 20
90.4976967461
 10
140.4273856692
 20
90.5195090623
 10
140.4234018027
 20
90.5423210929
 10
140.417050047
 20
90.5657423665
 10
140.4084391244
 20
90.5893719834
 10
140.3977164271
 20
90.6128054777
 10
140.3850654947
 20
90.6356417405
 10
140.3787768212
 20
90.6452079495
  0
LINE
  5
441
100
AcDbEntity
  8
RACCORDO
100
AcDbLine
 62
250
  6
CONTINUOUS
 10
141.8984527911
 20
81.3117835703
 11
141.8988359913
 21
81.3024911716
  0
LINE
  5
442
100
AcDbEntity
  8
ASSI
100
AcDbLine
 62
250
  6
CONTINUOUS
 10
140.9027959484
 20
119.6689936703
 11
140.8853012871
 21
120.1340791591
  0
LINE
  5
443
100
AcDbEntity
  8
ASSI
100
AcDbLine
 62
250
  6
CONTINUOUS
 10
140.9124794759
 20
119.3652539849
 11
140.9027959484
 21
119.6689936703
  0
LINE
  5
444
100
AcDbEntity
  8
ASSI
100
AcDbLine
 62
250
  6
CONTINUOUS
 10
140.9201453136
 20
119.0827324213
 11
140.9124794759
 21
119.3652539849
  0
LINE
  5
445
100
AcDbEntity
  8
ASSI
100
AcDbLine
 62
250
  6
CONTINUOUS
 10
140.9241885229
 20
118.9070527434
 11
140.9201453136
 21
119.0827324213
  0
LWPOLYLINE
  5
446
100
AcDbEntity
  8
RACCORDO
100
AcDbPolyline
 62
7
  6
CONTINUOUS
 90
12
 70
0
 10
140.7344058366
 20
87.4007628008
 10
140.7338324071
 20
87.4411358538
 10
140.7272387945
 20
87.5408247671
 10
140.7133322731
 20
87.6359335716
 10
140.6921418973
 20
87.7259942126
 10
140.6637363768
 20
87.8105529364
 10
140.6282540073
 20
87.8891317981
 10
140.5858278146
 20
87.9613041304
 10
140.5366658671
 20
88.0266222913
 10
140.481173422
 20
88.08446181
 10
140.4197832556
 20
88.1343236418
 10
140.3700200858
 20
88.1663348268
  0
LINE
  5
447
100
AcDbEntity
  8
RACCORDO
100
AcDbLine
 62
7
  6
CONTINUOUS
 10
139.8824241676
 20
88.1296873314
 11
139.8824241676
 21
89.2577974266
  0
LINE
  5
448
100
AcDbEntity
  8
RACCORDO
100
AcDbLine
 62
250
  6
CONTINUOUS
 10
140.0091373222
 20
86.1187025355
 11
140.0091373222
 21
81.5689416126
  0
LINE
  5
449
100
AcDbEntity
  8
RACCORDO
100
AcDbLine
 62
250
  6
CONTINUOUS
 10
140.6782738757
 20
87.320648028
 11
140.6782738757
 21
81.1671525884
  0
LINE
  5
44A
100
AcDbEntity
  8
RACCORDO
100
AcDbLine
 62
7
  6
CONTINUOUS
 10
140.7344059156
 20
87.4008654354
 11
140.7344059156
 21
81.2473699922
  0
LINE
  5
44B
100
AcDbEntity
  8
ASSI
100
AcDbLine
 62
7
  6
CONTINUOUS
 10
140.878235137
 20
119.8905062255
 11
140.878235137
 21
118.7597846206
  0
LINE
  5
44C
100
AcDbEntity
  8
RACCORDO
100
AcDbLine
 62
250
  6
CONTINUOUS
 10
141.8984528389
 20
88.0076584694
 11
141.8984474942
 21
90.4385698329
  0
LINE
  5
44D
100
AcDbEntity
  8
RACCORDO
100
AcDbLine
 62
250
  6
CONTINUOUS
 10
141.8984528389
 20
87.0701105233
 11
141.8984528389
 21
81.3117835979
  0
LINE
  5
44E
100
AcDbEntity
  8
RACCORDO
100
AcDbLine
 62
7
  6
CONTINUOUS
 10
141.9265188588
 20
87.092024176
 11
141.9265188588
 21
81.3518923027
  0
LINE
  5
44F
100
AcDbEntity
  8
RACCORDO
100
AcDbLine
 62
7
  6
CONTINUOUS
 10
141.9265188588
 20
88.05213662
 11
141.9265188588
 21
90.4559295859
  0
LINE
  5
450
100
AcDbEntity
  8
RACCORDO
100
AcDbLine
 62
7
  6
CONTINUOUS
 10
142.2071341113
 20
88.0457541391
 11
142.2071341113
 21
87.4011372928
  0
LINE
  5
451
100
AcDbEntity
  8
RACCORDO
100
AcDbLine
 62
250
  6
CONTINUOUS
 10
142.6035184225
 20
117.8797096781
 11
142.6035184225
 21
117.5742607136
  0
LINE
  5
452
100
AcDbEntity
  8
RACCORDO
100
AcDbLine
 62
7
  6
CONTINUOUS
 10
142.6456174524
 20
117.9398727337
 11
142.6456174524
 21
117.6344237692
  0
LWPOLYLINE
  5
453
100
AcDbEntity
  8
RACCORDO
100
AcDbPolyline
 62
250
  6
CONTINUOUS
 90
7
 70
0
 10
142.1884501224
 20
80.8676567105
 10
142.1881752442
 20
80.8501845054
 10
142.1862258289
 20
80.8335896276
 10
142.1825869428
 20
80.8181318951
 10
142.1772183942
 20
80.8039294253
 10
142.1700962408
 20
80.7911965163
 10
142.161255293
 20
80.7802073617
  0
LWPOLYLINE
  5
454
100
AcDbEntity
  8
RACCORDO
100
AcDbPolyline
 62
250
  6
CONTINUOUS
 90
13
 70
0
 10
141.8996653695
 20
95.2143117082
 10
141.8939836698
 20
94.9107563863
 10
141.8768747567
 20
94.6016352748
 10
141.8483386303
 20
94.2869483737
 10
141.8079570791
 20
93.9647983188
 10
141.7561483145
 20
93.6370824743
 10
141.6941669712
 20
93.309492933
 10
141.6214964762
 20
92.9819850153
 10
141.5386534026
 20
92.6546034008
 10
141.4484421037
 20
92.3331742217
 10
141.3517973639
 20
92.0196395221
 10
141.2477843989
 20
91.7120572579
 10
141.1364032086
 20
91.4104274291
  0
LWPOLYLINE
  5
455
100
AcDbEntity
  8
RACCORDO
100
AcDbPolyline
 62
250
  6
CONTINUOUS
 90
22
 70
0
 10
140.6782738757
 20
81.1671525884
 10
140.67535283
 20
81.0836068314
 10
140.6675630187
 20
80.9989872958
 10
140.6549044417
 20
80.9132939816
 10
140.63726797
 20
80.8262407002
 10
140.6147627328
 20
80.7381136403
 10
140.5877161173
 20
80.6497713673
 10
140.5560143202
 20
80.5609514085
 10
140.5197711449
 20
80.4719162367
 10
140.4796553897
 20
80.3843118348
 10
140.4352696755
 20
80.2978209033
 10
140.3870113813
 20
80.2127607418
 10
140.3367414428
 20
80.1317292329
 10
140.2850977919
 20
80.0557841229
 10
140.2314424966
 20
79.9838676655
 10
140.1757226976
 20
79.9154045047
 10
140.1181837479
 20
79.8502283319
 10
140.0585802943
 20
79.7885054558
 10
139.9961234178
 20
79.7301594466
 10
139.9305501455
 20
79.6751648276
 10
139.8621234504
 20
79.6235470756
 10
139.7908433324
 20
79.5753061904
  0
LWPOLYLINE
  5
456
100
AcDbEntity
  8
RACCORDO
100
AcDbPolyline
 62
250
  6
CONTINUOUS
 90
19
 70
0
 10
140.0091373222
 20
81.5689416126
 10
140.0068677301
 20
81.5100957362
 10
140.0006179909
 20
81.4502347356
 10
139.9903881044
 20
81.3893586108
 10
139.976036489
 20
81.3270252929
 10
139.9577047263
 20
81.2636768508
 10
139.9358175615
 20
81.2006394913
 10
139.9103426803
 20
81.1379576797
 10
139.8813123969
 20
81.0755869507
 10
139.8492483992
 20
81.0147201152
 10
139.8141257713
 20
80.9553663305
 10
139.7759694291
 20
80.8975164394
 10
139.7353758077
 20
80.8423357815
 10
139.6920707228
 20
80.7896622149
 10
139.6463283588
 20
80.7396578815
 10
139.5995677035
 20
80.6939745464
 10
139.552261753
 20
80.6531627979
 10
139.5039375112
 20
80.6166720478
 10
139.4545949781
 20
80.5845022961
  0
LWPOLYLINE
  5
457
100
AcDbEntity
  8
RACCORDO
100
AcDbPolyline
 62
250
  6
CONTINUOUS
 90
8
 70
0
 10
139.4545949781
 20
86.4400176494
 10
139.4528453315
 20
86.4100519474
 10
139.4476725767
 20
86.382490115
 10
139.4391595709
 20
86.3577728142
 10
139.4274425909
 20
86.3362952055
 10
139.4127091224
 20
86.3184005819
 10
139.3951948348
 20
86.3043749128
 10
139.3926859924
 20
86.3028230738
  0
LWPOLYLINE
  5
458
100
AcDbEntity
  8
RACCORDO
100
AcDbPolyline
 62
7
  6
CONTINUOUS
 90
7
 70
0
 10
141.9265188586
 20
88.052154852
 10
141.9258292823
 20
88.0432622361
 10
141.9234975628
 20
88.0339238244
 10
141.9195360335
 20
88.0255317216
 10
141.9139853926
 20
88.0183460132
 10
141.9069234273
 20
88.0123500204
 10
141.8984528389
 20
88.0076584694
  0
LWPOLYLINE
  5
459
100
AcDbEntity
  8
RACCORDO
100
AcDbPolyline
 62
250
  6
CONTINUOUS
 90
7
 70
0
 10
142.6456174524
 20
117.6344237692
 10
142.6445258103
 20
117.623993956
 10
142.6409482415
 20
117.6129828469
 10
142.6349388959
 20
117.6023305013
 10
142.6265983256
 20
117.5922151623
 10
142.6160660904
 20
117.5828060865
 10
142.6035184225
 20
117.5742607136
  0
LWPOLYLINE
  5
45A
100
AcDbEntity
  8
RACCORDO
100
AcDbPolyline
 62
250
  6
CONTINUOUS
 90
7
 70
0
 10
140.7344059156
 20
81.2473699922
 10
140.7329500287
 20
81.2334618417
 10
140.7281795924
 20
81.2187804946
 10
140.7201669197
 20
81.2045776369
 10
140.7090461668
 20
81.1910909064
 10
140.6950034764
 20
81.1785459329
 10
140.6782738757
 20
81.1671525884
  0
LWPOLYLINE
  5
45B
100
AcDbEntity
  8
RACCORDO
100
AcDbPolyline
 62
250
  6
CONTINUOUS
 90
7
 70
0
 10
143.2820135456
 20
116.794878247
 10
143.2809219085
 20
116.7844798521
 10
143.2773443359
 20
116.7734687464
 10
143.2713349884
 20
116.7628164052
 10
143.2629944187
 20
116.752701071
 10
143.2524621869
 20
116.7432920005
 10
143.2399145256
 20
116.7347466327
  0
LWPOLYLINE
  5
45C
100
AcDbEntity
  8
RACCORDO
100
AcDbPolyline
 62
250
  6
CONTINUOUS
 90
7
 70
0
 10
143.2820135449
 20
116.3569151245
 10
143.2809219097
 20
116.3465178932
 10
143.277344338
 20
116.335506787
 10
143.271334991
 20
116.3248544455
 10
143.2629944212
 20
116.3147391109
 10
143.2524621885
 20
116.3053300401
 10
143.2399145256
 20
116.2967846723
  0
LWPOLYLINE
  5
45D
100
AcDbEntity
  8
RACCORDO
100
AcDbPolyline
 62
250
  6
CONTINUOUS
 90
7
 70
0
 10
142.6456174248
 20
117.9398201617
 10
142.6445258055
 20
117.9294428975
 10
142.6409482328
 20
117.9184317918
 10
142.6349388854
 20
117.9077794506
 10
142.6265983157
 20
117.8976641164
 10
142.6160660838
 20
117.8882550459
 10
142.6035184225
 20
117.8797096781
  0
LWPOLYLINE
  5
45E
100
AcDbEntity
  8
RACCORDO
100
AcDbPolyline
 62
250
  6
CONTINUOUS
 90
7
 70
0
 10
140.7344058366
 20
87.4007628008
 10
140.7329503863
 20
87.3869589872
 10
140.7281802895
 20
87.3722775129
 10
140.7201678262
 20
87.3580743913
 10
140.7090470666
 20
87.3445872791
 10
140.6950040908
 20
87.3320418517
 10
140.6782738757
 20
87.320648028
  0
LWPOLYLINE
  5
45F
100
AcDbEntity
  8
RACCORDO
100
AcDbPolyline
 62
250
  6
CONTINUOUS
 90
7
 70
0
 10
142.948566083
 20
110.090382698
 10
142.9474745575
 20
110.0800630777
 10
142.9438969848
 20
110.0690519719
 10
142.9378876374
 20
110.0583996308
 10
142.9295470677
 20
110.0482842966
 10
142.9190148358
 20
110.0388752261
 10
142.9064671745
 20
110.0303298583
  0
LWPOLYLINE
  5
460
100
AcDbEntity
  8
DRAFT
100
AcDbPolyline
 62
7
  6
CONTINUOUS
 90
18
 70
0
 10
139.0566575949
 20
91.9507784899
 10
139.0298159395
 20
91.880821289
 10
139.0071589979
 20
91.8115859639
 10
138.9886867703
 20
91.7430725145
 10
138.97433635
 20
91.6748175552
 10
138.9641706436
 20
91.6072844718
 10
138.958378371
 20
91.5418634212
 10
138.9570314746
 20
91.4787569034
 10
138.9600580121
 20
91.4177624186
 10
138.9674308761
 20
91.3596626241
 10
138.9792670983
 20
91.3043156409
 10
138.995449647
 20
91.251863348
 10
139.0156003204
 20
91.2035140395
 10
139.0397001631
 20
91.1595158569
 10
139.0677681304
 20
91.1196206587
 10
139.0994828861
 20
91.0842923144
 10
139.1350372446
 20
91.053479088
 10
139.1749587838
 20
91.0268135375
  0
LINE
  5
461
100
AcDbEntity
  8
RACCORDO
100
AcDbLine
 62
250
  6
CONTINUOUS
 10
141.1364032086
 20
91.4104274291
 11
141.1047361118
 21
91.3323472595
  0
LWPOLYLINE
  5
462
100
AcDbEntity
  8
RACCORDO
100
AcDbPolyline
 62
250
  6
CONTINUOUS
 90
15
 70
0
 10
141.1047361118
 20
91.3323472595
 10
141.0702165461
 20
91.2559894812
 10
141.0328445113
 20
91.1813540942
 10
140.9921611841
 20
91.1078788878
 10
140.9486253879
 20
91.0361260728
 10
140.903613593
 20
90.9677822813
 10
140.8576672233
 20
90.9036170031
 10
140.8102448548
 20
90.8428607485
 10
140.7610986866
 20
90.7848916808
 10
140.7101680748
 20
90.7293791055
 10
140.6575136634
 20
90.6766537172
 10
140.6030695826
 20
90.6270857624
 10
140.546813876
 20
90.5807986567
 10
140.4887685001
 20
90.5376689846
 10
140.4289334548
 20
90.4976967461
  0
LWPOLYLINE
  5
463
100
AcDbEntity
  8
RACCORDO
100
AcDbPolyline
 62
250
  6
CONTINUOUS
 90
6
 70
0
 10
143.6505115798
 20
93.2995164792
 10
143.6596477241
 20
93.3098824569
 10
143.6692820602
 20
93.3253521883
 10
143.6762155637
 20
93.3428146146
 10
143.6803302248
 20
93.3619725212
 10
143.681556011
 20
93.3824998358
  0
LWPOLYLINE
  5
464
100
AcDbEntity
  8
RACCORDO
100
AcDbPolyline
 62
250
  6
CONTINUOUS
 90
5
 70
0
 10
144.3856817458
 20
94.6292165177
 10
144.3923960884
 20
94.6368163145
 10
144.397097571
 20
94.6449044134
 10
144.3996835475
 20
94.6533042263
 10
144.4002029835
 20
94.6591548132
  0
LWPOLYLINE
  5
465
100
AcDbEntity
  8
RACCORDO
100
AcDbPolyline
 62
250
  6
CONTINUOUS
 90
5
 70
0
 10
144.3856817512
 20
93.9610921773
 10
144.3923960819
 20
93.9686919601
 10
144.397097561
 20
93.9767800458
 10
144.3996835414
 20
93.9851798472
 10
144.4002029838
 20
93.9910308588
  0
LINE
  5
466
100
AcDbEntity
  8
RACCORDO
100
AcDbLine
 62
7
  6
CONTINUOUS
 10
143.6505115798
 20
93.2995164792
 11
142.9485662044
 21
92.6132478687
  0
LWPOLYLINE
  5
467
100
AcDbEntity
  8
RACCORDO
100
AcDbPolyline
 62
7
  6
CONTINUOUS
 90
10
 70
0
 10
143.6505115798
 20
93.2995164792
 10
143.7065512957
 20
93.3537076022
 10
143.7956625598
 20
93.4374026
 10
143.8802431943
 20
93.5139362404
 10
143.9594418114
 20
93.5828673385
 10
144.034103621
 20
93.6452011253
 10
144.1066858897
 20
93.7030182052
 10
144.1778804707
 20
93.756620848
 10
144.2466832848
 20
93.80481611
 10
144.2901986472
 20
93.8329583302
  0
LINE
  5
468
100
AcDbEntity
  8
RACCORDO
100
AcDbLine
 62
250
  6
CONTINUOUS
 10
142.9485662044
 20
93.6812299077
 11
144.2289461084
 21
94.8647052224
  0
LINE
  5
469
100
AcDbEntity
  8
RACCORDO
100
AcDbLine
 62
250
  6
CONTINUOUS
 10
142.9485662044
 20
93.3008679842
 11
144.3856817458
 21
94.6292165177
  0
LINE
  5
46A
100
AcDbEntity
  8
RACCORDO
100
AcDbLine
 62
250
  6
CONTINUOUS
 10
144.3318582022
 20
93.8570673427
 11
144.3370349374
 21
93.8614934745
  0
LWPOLYLINE
  5
46B
100
AcDbEntity
  8
RACCORDO
100
AcDbPolyline
 62
250
  6
CONTINUOUS
 90
6
 70
0
 10
144.3370348069
 20
93.8614934448
 10
144.3434113967
 20
93.8666260592
 10
144.3494021968
 20
93.8722707558
 10
144.3549870092
 20
93.87840441
 10
144.3600898953
 20
93.8849268602
 10
144.3647610767
 20
93.8918789524
  0
LWPOLYLINE
  5
46C
100
AcDbEntity
  8
RACCORDO
100
AcDbPolyline
 62
7
  6
CONTINUOUS
 90
10
 70
0
 10
144.3429566488
 20
93.8656149146
 10
144.3451549092
 20
93.8673580165
 10
144.3572480559
 20
93.8783889312
 10
144.3681518946
 20
93.89098242
 10
144.377672768
 20
93.9050114433
 10
144.3856642777
 20
93.9203512812
 10
144.3920269187
 20
93.9369430424
 10
144.3966497458
 20
93.9547306306
 10
144.3994056496
 20
93.9735892162
 10
144.4002030526
 20
93.9910308578
  0
LINE
  5
46D
100
AcDbEntity
  8
RACCORDO
100
AcDbLine
 62
7
  6
CONTINUOUS
 10
144.3427619503
 20
93.8654636257
 11
144.3429566488
 21
93.8656149146
  0
LWPOLYLINE
  5
46E
100
AcDbEntity
  8
RACCORDO
100
AcDbPolyline
 62
250
  6
CONTINUOUS
 90
19
 70
0
 10
144.2021690811
 20
93.837008378
 10
144.1821809321
 20
93.821939615
 10
144.1613346553
 20
93.8059848032
 10
144.1394946766
 20
93.7889736957
 10
144.1166654184
 20
93.7709164292
 10
144.0928424582
 20
93.7518028671
 10
144.0678769548
 20
93.7314323522
 10
144.0417362936
 20
93.7097836705
 10
144.0144530891
 20
93.6868780361
 10
143.9859763437
 20
93.6625784346
 10
143.9562360877
 20
93.6368240855
 10
143.9253022909
 20
93.6096757693
 10
143.8933338651
 20
93.5811788137
 10
143.8603303705
 20
93.5513285674
 10
143.8262922469
 20
93.5201296816
 10
143.791379726
 20
93.4876414375
 10
143.7556462183
 20
93.4538835953
 10
143.7190383133
 20
93.4188363947
 10
142.9485662044
 20
92.6658802632
  0
LWPOLYLINE
  5
46F
100
AcDbEntity
  8
RACCORDO
100
AcDbPolyline
 62
250
  6
CONTINUOUS
 90
3
 70
0
 10
142.8741871862
 20
91.0425638953
 10
142.8693996115
 20
91.0390641706
 10
142.867541428
 20
91.0378720583
  0
LWPOLYLINE
  5
470
100
AcDbEntity
  8
RACCORDO
100
AcDbPolyline
 62
250
  6
CONTINUOUS
 90
6
 70
0
 10
144.3026158949
 20
93.774672181
 10
144.3134770966
 20
93.7824010396
 10
144.3218780497
 20
93.7910920558
 10
144.327569125
 20
93.8004869765
 10
144.3303812176
 20
93.8103066344
 10
144.3306819149
 20
93.8147808853
  0
LWPOLYLINE
  5
471
100
AcDbEntity
  8
RACCORDO
100
AcDbPolyline
 62
250
  6
CONTINUOUS
 90
6
 70
0
 10
144.3026158949
 20
92.9521358283
 10
144.3134770745
 20
92.9598646679
 10
144.3218780207
 20
92.9685556655
 10
144.3275691018
 20
92.9779505707
 10
144.330381209
 20
92.9877702167
 10
144.3306819056
 20
92.9922196498
  0
LINE
  5
472
100
AcDbEntity
  8
RACCORDO
100
AcDbLine
 62
250
  6
CONTINUOUS
 10
144.3370348301
 20
93.8614934361
 11
144.3427619503
 21
93.8654636257
  0
LWPOLYLINE
  5
473
100
AcDbEntity
  8
RACCORDO
100
AcDbPolyline
 62
250
  6
CONTINUOUS
 90
6
 70
0
 10
144.2899990707
 20
93.899981255
 10
144.2739284339
 20
93.8888966149
 10
144.2571203349
 20
93.8770686214
 10
144.2395809344
 20
93.8645061255
 10
144.2213040717
 20
93.8512002761
 10
144.2021690811
 20
93.837008378
  0
LWPOLYLINE
  5
474
100
AcDbEntity
  8
RACCORDO
100
AcDbPolyline
 62
7
  6
CONTINUOUS
 90
10
 70
0
 10
144.273283255
 20
92.8845213913
 10
144.2825101385
 20
92.8908483666
 10
144.293008381
 20
92.8998341451
 10
144.3025472746
 20
92.9101922406
 10
144.3109350048
 20
92.9218209909
 10
144.3179878547
 20
92.9345652745
 10
144.323567018
 20
92.9482551259
 10
144.3275824524
 20
92.9627494696
 10
144.3299648314
 20
92.9778863892
 10
144.3306819056
 20
92.9922196498
  0
LWPOLYLINE
  5
475
100
AcDbEntity
  8
RACCORDO
100
AcDbPolyline
 62
7
  6
CONTINUOUS
 90
10
 70
0
 10
142.8674232208
 20
91.0377994431
 10
142.8797039938
 20
91.046158088
 10
142.8947361205
 20
91.0588457359
 10
142.9083770181
 20
91.0734446653
 10
142.9203417773
 20
91.0897741603
 10
142.9303916587
 20
91.1076080702
 10
142.9383579156
 20
91.1267367772
 10
142.9441041279
 20
91.1469477474
 10
142.9475212948
 20
91.167956637
 10
142.9485661913
 20
91.1880377386
  0
LINE
  5
476
100
AcDbEntity
  8
RACCORDO
100
AcDbLine
 62
250
  6
CONTINUOUS
 10
144.3054344278
 20
93.910438684
 11
144.2899990707
 21
93.899981255
  0
LWPOLYLINE
  5
477
100
AcDbEntity
  8
RACCORDO
100
AcDbPolyline
 62
250
  6
CONTINUOUS
 90
5
 70
0
 10
144.2733590116
 20
92.8845679379
 10
144.2739045701
 20
92.8849101974
 10
144.2779792559
 20
92.8877978823
 10
144.2819173521
 20
92.8912315907
 10
144.2856696063
 20
92.8952440179
  0
LWPOLYLINE
  5
478
100
AcDbEntity
  8
RACCORDO
100
AcDbPolyline
 62
250
  6
CONTINUOUS
 90
5
 70
0
 10
144.3611307899
 20
93.946339605
 10
144.3480310044
 20
93.9381638466
 10
144.3344102631
 20
93.9294865169
 10
144.3202399853
 20
93.920276206
 10
144.3054344278
 20
93.910438684
  0
LINE
  5
479
100
AcDbEntity
  8
RACCORDO
100
AcDbLine
 62
250
  6
CONTINUOUS
 10
143.8786174962
 20
93.5124652111
 11
144.3026158949
 21
93.774672181
  0
LINE
  5
47A
100
AcDbEntity
  8
RACCORDO
100
AcDbLine
 62
250
  6
CONTINUOUS
 10
140.0948968511
 20
90.6236814584
 11
138.840277888
 21
89.8478062718
  0
LINE
  5
47B
100
AcDbEntity
  8
RACCORDO
100
AcDbLine
 62
250
  6
CONTINUOUS
 10
142.9485662044
 20
92.1147711885
 11
144.3026158949
 21
92.9521358283
  0
LINE
  5
47C
100
AcDbEntity
  8
RACCORDO
100
AcDbLine
 62
7
  6
CONTINUOUS
 10
142.9485662044
 20
92.0652961937
 11
144.2733589046
 21
92.8845678717
  0
LINE
  5
47D
100
AcDbEntity
  8
RACCORDO
100
AcDbLine
 62
250
  6
CONTINUOUS
 10
140.4289334548
 20
90.4976967461
 11
138.946311312
 21
89.5808209731
  0
LINE
  5
47E
100
AcDbEntity
  8
RACCORDO
100
AcDbLine
 62
250
  6
CONTINUOUS
 10
139.8824241676
 20
89.2577974266
 11
142.9064671745
 21
91.1279109837
  0
LINE
  5
47F
100
AcDbEntity
  8
RACCORDO
100
AcDbLine
 62
7
  6
CONTINUOUS
 10
139.8824241676
 20
89.1918307668
 11
142.8675414768
 21
91.0378720885
  0
LWPOLYLINE
  5
480
100
AcDbEntity
  8
RACCORDO
100
AcDbPolyline
 62
250
  6
CONTINUOUS
 90
11
 70
0
 10
138.9031478236
 20
87.4966048215
 10
138.9063977993
 20
87.4986079195
 10
138.9135072467
 20
87.5039252212
 10
138.9200777685
 20
87.5102476818
 10
138.9261294029
 20
87.517684939
 10
138.9315569806
 20
87.5262432383
 10
138.9362813611
 20
87.5359561414
 10
138.9402767775
 20
87.5470532858
 10
138.9434034611
 20
87.5596549123
 10
138.9454694522
 20
87.5737046595
 10
138.946311312
 20
87.589185645
  0
LWPOLYLINE
  5
481
100
AcDbEntity
  8
RACCORDO
100
AcDbPolyline
 62
250
  6
CONTINUOUS
 90
7
 70
0
 10
144.3370351153
 20
90.2902417545
 10
144.3480766511
 20
90.296787446
 10
144.3571602387
 20
90.3024627545
 10
144.3640183876
 20
90.307100567
 10
144.3684491032
 20
90.3105642991
 10
144.370321877
 20
90.3127519467
 10
144.3703351401
 20
90.3132632381
  0
LINE
  5
482
100
AcDbEntity
  8
RACCORDO
100
AcDbLine
 62
250
  6
CONTINUOUS
 10
144.1965660321
 20
90.8010496887
 11
141.9265188588
 21
89.4903484008
  0
LINE
  5
483
100
AcDbEntity
  8
RACCORDO
100
AcDbLine
 62
250
  6
CONTINUOUS
 10
138.946311312
 20
87.589185645
 11
139.8824241676
 21
88.1296873314
  0
LINE
  5
484
100
AcDbEntity
  8
RACCORDO
100
AcDbLine
 62
250
  6
CONTINUOUS
 10
144.3026158949
 20
90.6173659384
 11
141.9265188588
 21
89.2454325786
  0
LINE
  5
485
100
AcDbEntity
  8
RACCORDO
100
AcDbLine
 62
7
  6
CONTINUOUS
 10
138.903054593
 20
87.4965508957
 11
139.8409861898
 21
88.0381027041
  0
LINE
  5
486
100
AcDbEntity
  8
RACCORDO
100
AcDbLine
 62
250
  6
CONTINUOUS
 10
138.840277888
 20
87.3024545747
 11
139.7908433324
 21
87.8513010334
  0
LINE
  5
487
100
AcDbEntity
  8
RACCORDO
100
AcDbLine
 62
250
  6
CONTINUOUS
 10
144.3026158949
 20
90.4156419141
 11
141.9265188588
 21
89.0437085544
  0
LINE
  5
488
100
AcDbEntity
  8
RACCORDO
100
AcDbLine
 62
7
  6
CONTINUOUS
 10
123.0959457075
 20
81.1950067938
 11
122.9923923169
 21
81.1352265756
  0
LINE
  5
489
100
AcDbEntity
  8
RACCORDO
100
AcDbLine
 62
7
  6
CONTINUOUS
 10
141.9265188588
 20
90.1503562099
 11
143.6394778649
 21
91.0880586209
  0
LINE
  5
48A
100
AcDbEntity
  8
RACCORDO
100
AcDbLine
 62
250
  6
CONTINUOUS
 10
141.9265188588
 20
90.1018592966
 11
143.7133962477
 21
91.0800258667
  0
LWPOLYLINE
  5
48B
100
AcDbEntity
  8
RACCORDO
100
AcDbPolyline
 62
250
  6
CONTINUOUS
 90
22
 70
0
 10
139.7908433324
 20
87.8513010334
 10
139.8606371785
 20
87.8881385951
 10
139.9287646711
 20
87.9182554556
 10
139.9952258101
 20
87.941651615
 10
140.0602092713
 20
87.9583044785
 10
140.1235263791
 20
87.9682366408
 10
140.1846111062
 20
87.9715158864
 10
140.2436236235
 20
87.9681035987
 10
140.3004037601
 20
87.9580383943
 10
140.3539049768
 20
87.9415039067
 10
140.4042072474
 20
87.9180340012
 10
140.451230598
 20
87.8880948124
 10
140.4936885678
 20
87.8532683783
 10
140.5309781474
 20
87.8139835581
 10
140.5637023462
 20
87.7698114925
 10
140.5923837323
 20
87.7210476418
 10
140.6172833187
 20
87.6682341947
 10
140.6381400925
 20
87.6108289625
 10
140.6546935822
 20
87.5475008403
 10
140.6668569641
 20
87.4778061263
 10
140.6747170619
 20
87.4021885222
 10
140.6782738757
 20
87.320648028
  0
LWPOLYLINE
  5
48C
100
AcDbEntity
  8
RACCORDO
100
AcDbPolyline
 62
250
  6
CONTINUOUS
 90
6
 70
0
 10
143.7133962477
 20
91.0800258667
 10
143.7255197804
 20
91.0855682522
 10
143.7372463951
 20
91.0884990258
 10
143.7482276389
 20
91.0887311007
 10
143.7581372075
 20
91.0862575812
 10
143.7621520359
 20
91.0842871285
  0
LWPOLYLINE
  5
48D
100
AcDbEntity
  8
RACCORDO
100
AcDbPolyline
 62
250
  6
CONTINUOUS
 90
6
 70
0
 10
144.1965660321
 20
90.8010496887
 10
144.2086895621
 20
90.8065920733
 10
144.220416175
 20
90.8095228471
 10
144.231397418
 20
90.8097549232
 10
144.2413069866
 20
90.8072814054
 10
144.2453121584
 20
90.8053165214
  0
LWPOLYLINE
  5
48E
100
AcDbEntity
  8
RACCORDO
100
AcDbPolyline
 62
250
  6
CONTINUOUS
 90
3
 70
0
 10
143.6450538336
 20
91.0906841723
 10
143.6408172082
 20
91.0887659506
 10
143.6394779412
 20
91.0880586626
  0
LWPOLYLINE
  5
48F
100
AcDbEntity
  8
RACCORDO
100
AcDbPolyline
 62
250
  6
CONTINUOUS
 90
11
 70
0
 10
144.3353125467
 20
94.773012512
 10
144.3285335056
 20
94.782241636
 10
144.3212067147
 20
94.7914721406
 10
144.3133492617
 20
94.8006230007
 10
144.3049415769
 20
94.8096553611
 10
144.2959251151
 20
94.818561858
 10
144.28631883
 20
94.8272498085
 10
144.2761269395
 20
94.8356388879
 10
144.2652664048
 20
94.8437025257
 10
144.2537312623
 20
94.8513373225
 10
144.2416033906
 20
94.8583848645
  0
LWPOLYLINE
  5
490
100
AcDbEntity
  8
RACCORDO
100
AcDbPolyline
 62
250
  6
CONTINUOUS
 90
3
 70
0
 10
144.3472559443
 20
94.754770742
 10
144.3415484165
 20
94.7638389647
 10
144.3353125467
 20
94.773012512
  0
LWPOLYLINE
  5
491
100
AcDbEntity
  8
RACCORDO
100
AcDbPolyline
 62
250
  6
CONTINUOUS
 90
6
 70
0
 10
144.2793679253
 20
90.7085771881
 10
144.2752724814
 20
90.7164411092
 10
144.2707085463
 20
90.7244876111
 10
144.2656516239
 20
90.7326784657
 10
144.2600892907
 20
90.7409505337
 10
144.2540089128
 20
90.7492409172
  0
LWPOLYLINE
  5
492
100
AcDbEntity
  8
RACCORDO
100
AcDbPolyline
 62
250
  6
CONTINUOUS
 90
4
 70
0
 10
144.3642218672
 20
90.244009365
 10
144.3586528924
 20
90.2550970976
 10
144.3522767364
 20
90.2665490487
 10
144.3450774695
 20
90.2782859189
  0
LWPOLYLINE
  5
493
100
AcDbEntity
  8
RACCORDO
100
AcDbPolyline
 62
250
  6
CONTINUOUS
 90
4
 70
0
 10
144.3370351381
 20
90.2902417109
 10
144.3319618378
 20
90.3004028084
 10
144.3272869142
 20
90.3105875763
 10
144.3230158517
 20
90.3207609433
  0
LINE
  5
494
100
AcDbEntity
  8
RACCORDO
100
AcDbLine
 62
250
  6
CONTINUOUS
 10
144.2830098418
 20
90.7009536853
 11
144.2793679253
 21
90.7085771881
  0
LWPOLYLINE
  5
495
100
AcDbEntity
  8
RACCORDO
100
AcDbPolyline
 62
7
  6
CONTINUOUS
 90
9
 70
0
 10
144.3682074425
 20
90.317422536
 10
144.358403673
 20
90.3382931939
 10
144.3499753153
 20
90.3592733716
 10
144.3430190259
 20
90.3800642591
 10
144.3376047503
 20
90.400339718
 10
144.333817276
 20
90.4194332802
 10
144.3315591936
 20
90.4371147572
 10
144.3307009715
 20
90.4531023379
 10
144.3306819036
 20
90.4557780265
  0
LWPOLYLINE
  5
496
100
AcDbEntity
  8
RACCORDO
100
AcDbPolyline
 62
250
  6
CONTINUOUS
 90
3
 70
0
 10
144.3731608777
 20
90.2229738501
 10
144.3690342727
 20
90.2333111482
 10
144.3642218672
 20
90.244009365
  0
LWPOLYLINE
  5
497
100
AcDbEntity
  8
RACCORDO
100
AcDbPolyline
 62
250
  6
CONTINUOUS
 90
7
 70
0
 10
144.3715070751
 20
94.7045233284
 10
144.3685105745
 20
94.7123418072
 10
144.3651370207
 20
94.7203828469
 10
144.3613672626
 20
94.7286243343
 10
144.3571519893
 20
94.7371157612
 10
144.3524523594
 20
94.7458507067
 10
144.3472559443
 20
94.754770742
  0
LWPOLYLINE
  5
498
100
AcDbEntity
  8
RACCORDO
100
AcDbPolyline
 62
250
  6
CONTINUOUS
 90
5
 70
0
 10
144.3230158517
 20
90.3207609433
 10
144.3191888088
 20
90.3307887743
 10
144.3157633024
 20
90.3407392078
 10
144.3126536994
 20
90.3508828181
 10
144.3098875199
 20
90.3612254065
  0
LWPOLYLINE
  5
499
100
AcDbEntity
  8
RACCORDO
100
AcDbPolyline
 62
250
  6
CONTINUOUS
 90
6
 70
0
 10
138.9201005194
 20
108.026634393
 10
138.9110974714
 20
108.0524012023
 10
138.9013030518
 20
108.0785936064
 10
138.8904647755
 20
108.1057491314
 10
138.8784383234
 20
108.1340105897
 10
138.8652359054
 20
108.1631287308
  0
LINE
  5
49A
100
AcDbEntity
  8
ASSI
100
AcDbLine
 62
250
  6
CONTINUOUS
 10
133.5708898372
 20
116.725497233
 11
133.5177179093
 21
116.8843350907
  0
LINE
  5
49B
100
AcDbEntity
  8
ASSI
100
AcDbLine
 62
7
  6
CONTINUOUS
 10
133.6728892226
 20
116.6883511266
 11
133.5640435767
 21
117.0135003153
  0
LWPOLYLINE
  5
49C
100
AcDbEntity
  8
RACCORDO
100
AcDbPolyline
 62
7
  6
CONTINUOUS
 90
9
 70
0
 10
138.8684143338
 20
107.9375003559
 10
138.8649186762
 20
107.9487997827
 10
138.8592470662
 20
107.9693123888
 10
138.8540926628
 20
107.9906246444
 10
138.849499802
 20
108.0127763374
 10
138.8457897659
 20
108.036130037
 10
138.8430696485
 20
108.0608065997
 10
138.8412323559
 20
108.0866851691
 10
138.840277888
 20
108.1137657452
  0
LWPOLYLINE
  5
49D
100
AcDbEntity
  8
RACCORDO
100
AcDbPolyline
 62
250
  6
CONTINUOUS
 90
5
 70
0
 10
144.3098875199
 20
90.3612254065
 10
144.3075128262
 20
90.3716889113
 10
144.3055352341
 20
90.3824066639
 10
144.3040102668
 20
90.3933799107
 10
144.3030154911
 20
90.4044833798
  0
LWPOLYLINE
  5
49E
100
AcDbEntity
  8
ASSI
100
AcDbPolyline
 62
7
  6
CONTINUOUS
 90
4
 70
0
 10
138.5432741429
 20
117.5449595437
 10
138.550150101
 20
117.5122402879
 10
138.5555263155
 20
117.4671083034
 10
138.5574351755
 20
117.418926469
  0
LWPOLYLINE
  5
49F
100
AcDbEntity
  8
ASSI
100
AcDbPolyline
 62
7
  6
CONTINUOUS
 90
5
 70
0
 10
138.3969221218
 20
118.5234448274
 10
138.3997397097
 20
118.5080523596
 10
138.4017540241
 20
118.4925686212
 10
138.4029603592
 20
118.4770533909
 10
138.4033613987
 20
118.4615451489
  0
LINE
  5
4A0
100
AcDbEntity
  8
ASSI
100
AcDbLine
 62
250
  6
CONTINUOUS
 10
137.7041603029
 20
117.2655734449
 11
137.7281479998
 21
117.0938485973
  0
LINE
  5
4A1
100
AcDbEntity
  8
ASSI
100
AcDbLine
 62
250
  6
CONTINUOUS
 10
137.678819659
 20
117.4533316186
 11
137.7041603029
 21
117.2655734449
  0
LINE
  5
4A2
100
AcDbEntity
  8
ASSI
100
AcDbLine
 62
250
  6
CONTINUOUS
 10
137.6519017534
 20
117.660021196
 11
137.678819659
 21
117.4533316186
  0
LINE
  5
4A3
100
AcDbEntity
  8
ASSI
100
AcDbLine
 62
250
  6
CONTINUOUS
 10
137.6233790131
 20
117.8873097226
 11
137.6519017534
 21
117.660021196
  0
LWPOLYLINE
  5
4A4
100
AcDbEntity
  8
ASSI
100
AcDbPolyline
 62
250
  6
CONTINUOUS
 90
13
 70
0
 10
138.8104415011
 20
118.8933503846
 10
138.807801393
 20
118.9147739282
 10
138.8030136441
 20
118.9368729046
 10
138.7961513703
 20
118.9593099628
 10
138.7873193562
 20
118.981742592
 10
138.7766524462
 20
119.0038283714
 10
138.7643134803
 20
119.0252301955
 10
138.7504908282
 20
119.045621381
 10
138.7353954988
 20
119.064690685
 10
138.7192579014
 20
119.0821470684
 10
138.7023243625
 20
119.097724092
 10
138.6848533715
 20
119.1111839905
 10
138.6671116106
 20
119.1223213263
  0
LWPOLYLINE
  5
4A5
100
AcDbEntity
  8
ASSI
100
AcDbPolyline
 62
250
  6
CONTINUOUS
 90
13
 70
0
 10
139.9990346068
 20
119.6041076499
 10
139.9963945848
 20
119.625530689
 10
139.991606992
 20
119.6476292444
 10
139.9847449089
 20
119.6700659909
 10
139.9759130822
 20
119.6924984412
 10
139.965246326
 20
119.7145841736
 10
139.9529074638
 20
119.7359860586
 10
139.9390848431
 20
119.7563774055
 10
139.9239894603
 20
119.7754469492
 10
139.90785174
 20
119.7929036012
 10
139.8909180176
 20
119.8084808932
 10
139.8734467792
 20
119.8219410443
 10
139.8557047157
 20
119.8330785913
  0
LWPOLYLINE
  5
4A6
100
AcDbEntity
  8
ASSI
100
AcDbPolyline
 62
250
  6
CONTINUOUS
 90
13
 70
0
 10
137.9826305939
 20
118.7226677168
 10
137.9851804374
 20
118.7019042441
 10
137.9897535819
 20
118.6804952662
 10
137.996284304
 20
118.6587484737
 10
138.0046787456
 20
118.6369764126
 10
138.0148162628
 20
118.6154919934
 10
138.0265511592
 20
118.594603994
 10
138.039714781
 20
118.5746126193
 10
138.0541179402
 20
118.5558051887
 10
138.069553632
 20
118.5384520076
 10
138.0858000129
 20
118.5228024794
 10
138.1026235885
 20
118.5090815215
 10
138.1197825684
 20
118.4974863344
  0
LINE
  5
4A7
100
AcDbEntity
  8
ASSI
100
AcDbLine
 62
250
  6
CONTINUOUS
 10
140.086198237
 20
118.8426189233
 11
140.119348332
 21
118.5749635769
  0
LINE
  5
4A8
100
AcDbEntity
  8
ASSI
100
AcDbLine
 62
250
  6
CONTINUOUS
 10
137.5935106503
 20
118.134653413
 11
137.6233790131
 21
117.8873097226
  0
LINE
  5
4A9
100
AcDbEntity
  8
ASSI
100
AcDbLine
 62
250
  6
CONTINUOUS
 10
140.0503619185
 20
119.1453011975
 11
140.086198237
 21
118.8426189233
  0
LWPOLYLINE
  5
4AA
100
AcDbEntity
  8
ASSI
100
AcDbPolyline
 62
250
  6
CONTINUOUS
 90
3
 70
0
 10
140.0120873123
 20
119.4846031163
 10
140.021850639
 20
119.3964399072
 10
140.0503619185
 20
119.1453011975
  0
LWPOLYLINE
  5
4AB
100
AcDbEntity
  8
RACCORDO
100
AcDbPolyline
 62
7
  6
CONTINUOUS
 90
11
 70
0
 10
141.0060621788
 20
120.241074735
 10
141.0045030913
 20
120.2555584943
 10
140.9997493299
 20
120.2791767474
 10
140.9926944574
 20
120.3014832362
 10
140.9833414348
 20
120.3230891726
 10
140.9717778832
 20
120.3438055432
 10
140.9586575361
 20
120.3626527121
 10
140.9441549755
 20
120.3796683289
 10
140.9280507549
 20
120.3951363318
 10
140.9108890894
 20
120.4085238437
 10
140.8961642715
 20
120.4179036564
  0
LWPOLYLINE
  5
4AC
100
AcDbEntity
  8
RACCORDO
100
AcDbPolyline
 62
250
  6
CONTINUOUS
 90
7
 70
0
 10
144.3856820986
 20
90.1692284945
 10
144.3848630137
 20
90.1771930674
 10
144.3835813487
 20
90.1855731789
 10
144.3818025064
 20
90.1943579283
 10
144.379499286
 20
90.2035091011
 10
144.3766369976
 20
90.2130313732
 10
144.3731608777
 20
90.2229738501
  0
LWPOLYLINE
  5
4AD
100
AcDbEntity
  8
RACCORDO
100
AcDbPolyline
 62
250
  6
CONTINUOUS
 90
3
 70
0
 10
142.8991750168
 20
110.1397623025
 10
142.9046362735
 20
110.0846688695
 10
142.9064671745
 20
110.0303298583
  0
LWPOLYLINE
  5
4AE
100
AcDbEntity
  8
RACCORDO
100
AcDbPolyline
 62
250
  6
CONTINUOUS
 90
5
 70
0
 10
140.9639427521
 20
120.1811053385
 10
140.962971206
 20
120.1911187766
 10
140.9615105343
 20
120.2013603703
 10
140.9595605102
 20
120.2117968619
 10
140.9571471119
 20
120.222296112
  0
LWPOLYLINE
  5
4AF
100
AcDbEntity
  8
RACCORDO
100
AcDbPolyline
 62
7
  6
CONTINUOUS
 90
12
 70
0
 10
144.3306818154
 20
86.9016299549
 10
144.3300587295
 20
86.9153564841
 10
144.3274790157
 20
86.932864256
 10
144.3229662744
 20
86.9502485901
 10
144.316539342
 20
86.9674529742
 10
144.3085514317
 20
86.9836876849
 10
144.2990739689
 20
86.9989980248
 10
144.2880516786
 20
87.0134291639
 10
144.2759647242
 20
87.0263364797
 10
144.2628847852
 20
87.0376921639
 10
144.2487229116
 20
87.0475227524
 10
144.2453121584
 20
87.0495532482
  0
LWPOLYLINE
  5
4B0
100
AcDbEntity
  8
RACCORDO
100
AcDbPolyline
 62
7
  6
CONTINUOUS
 90
12
 70
0
 10
144.3306818154
 20
90.6573932281
 10
144.3300587295
 20
90.6711197574
 10
144.3274790157
 20
90.6886275293
 10
144.3229662744
 20
90.7060118634
 10
144.316539342
 20
90.7232162474
 10
144.3085514317
 20
90.7394509581
 10
144.2990739689
 20
90.7547612981
 10
144.2880516786
 20
90.7691924372
 10
144.2759647242
 20
90.7820997529
 10
144.2628847852
 20
90.7934554371
 10
144.2487229116
 20
90.8032860257
 10
144.2453121584
 20
90.8053165214
  0
LWPOLYLINE
  5
4B1
100
AcDbEntity
  8
RACCORDO
100
AcDbPolyline
 62
7
  6
CONTINUOUS
 90
14
 70
0
 10
142.6456174248
 20
117.9398201617
 10
142.644664132
 20
117.9615721207
 10
142.6415979817
 20
117.9848868138
 10
142.6364138129
 20
118.0084412236
 10
142.6290766631
 20
118.0321148387
 10
142.6198123371
 20
118.0552081035
 10
142.6086151931
 20
118.0777774474
 10
142.5954865056
 20
118.0997273807
 10
142.5809038283
 20
118.1202325055
 10
142.5649558956
 20
118.1392507058
 10
142.5475958572
 20
118.1567998198
 10
142.5293279456
 20
118.1723598439
 10
142.5102684132
 20
118.1859087913
 10
142.4998496178
 20
118.1922715188
  0
LWPOLYLINE
  5
4B2
100
AcDbEntity
  8
RACCORDO
100
AcDbPolyline
 62
250
  6
CONTINUOUS
 90
19
 70
0
 10
142.603518315
 20
117.5742606512
 10
142.6042831553
 20
117.5566145065
 10
142.6062930625
 20
117.5384408041
 10
142.6095165487
 20
117.519878818
 10
142.6139503701
 20
117.5009230252
 10
142.6195279296
 20
117.4818524497
 10
142.626030676
 20
117.4632386415
 10
142.633250709
 20
117.445366684
 10
142.6411134984
 20
117.428173465
 10
142.6495340627
 20
117.4116877857
 10
142.6583169099
 20
117.3961222468
 10
142.6674302421
 20
117.3813718133
 10
142.6771101842
 20
117.3670090739
 10
142.6872956246
 20
117.3531399277
 10
142.6979578368
 20
117.339802633
 10
142.7094880133
 20
117.3265821314
 10
142.7220274485
 20
117.3134890333
 10
142.7354060426
 20
117.3008766592
 10
142.7495758564
 20
117.2889429614
  0
LWPOLYLINE
  5
4B3
100
AcDbEntity
  8
RACCORDO
100
AcDbPolyline
 62
7
  6
CONTINUOUS
 90
13
 70
0
 10
144.4002029835
 20
94.6591548132
 10
144.3995190372
 20
94.6755461279
 10
144.3969244267
 20
94.6954000195
 10
144.3923590219
 20
94.7156815148
 10
144.3858731031
 20
94.7360038009
 10
144.3774153212
 20
94.7563709275
 10
144.3669835001
 20
94.7765482866
 10
144.3548991598
 20
94.7958150531
 10
144.3411551911
 20
94.8141265609
 10
144.3258161751
 20
94.8312514544
 10
144.309521633
 20
94.8464382351
 10
144.2923734147
 20
94.8596433571
 10
144.277676257
 20
94.8689812582
  0
LINE
  5
4B4
100
AcDbEntity
  8
RACCORDO
100
AcDbLine
 62
250
  6
CONTINUOUS
 10
142.6025927347
 20
117.9034078016
 11
142.6035184225
 21
117.8797096781
  0
LINE
  5
4B5
100
AcDbEntity
  8
RACCORDO
100
AcDbLine
 62
250
  6
CONTINUOUS
 10
144.3030154911
 20
90.4044833798
 11
144.3026158653
 21
90.415641897
  0
LWPOLYLINE
  5
4B6
100
AcDbEntity
  8
RACCORDO
100
AcDbPolyline
 62
7
  6
CONTINUOUS
 90
7
 70
0
 10
144.4002025837
 20
90.1990235307
 10
144.3997194854
 20
90.2131151344
 10
144.3967231154
 20
90.237144577
 10
144.3910769852
 20
90.2613983559
 10
144.3828186714
 20
90.2857849239
 10
144.3724976395
 20
90.3090091629
 10
144.3682074425
 20
90.317422536
  0
LWPOLYLINE
  5
4B7
100
AcDbEntity
  8
RACCORDO
100
AcDbPolyline
 62
7
  6
CONTINUOUS
 90
11
 70
0
 10
142.948566083
 20
110.0903826979
 10
142.947865749
 20
110.1233877334
 10
142.9442650642
 20
110.1732606194
 10
142.9376786797
 20
110.2238827432
 10
142.9281864584
 20
110.2749739785
 10
142.9159278784
 20
110.3261087429
 10
142.9010284197
 20
110.3770995767
 10
142.8835995623
 20
110.427767258
 10
142.863871823
 20
110.4776581114
 10
142.8420685656
 20
110.5264590569
 10
142.8299818371
 20
110.5513121784
  0
LINE
  5
4B8
100
AcDbEntity
  8
RACCORDO
100
AcDbLine
 62
250
  6
CONTINUOUS
 10
143.2396709797
 20
116.7475412891
 11
143.2399145256
 21
116.7347466327
  0
LWPOLYLINE
  5
4B9
100
AcDbEntity
  8
RACCORDO
100
AcDbPolyline
 62
250
  6
CONTINUOUS
 90
12
 70
0
 10
144.3856817458
 20
94.6292165177
 10
144.3855988639
 20
94.6355778878
 10
144.3852829079
 20
94.6420210326
 10
144.3847360125
 20
94.6485359708
 10
144.383965033
 20
94.6550778801
 10
144.3829710032
 20
94.6616712479
 10
144.3817363122
 20
94.6684122242
 10
144.3802496737
 20
94.6753016498
 10
144.3785060494
 20
94.6823210539
 10
144.376477947
 20
94.6895390022
 10
144.3741495001
 20
94.6969439286
 10
144.3715070751
 20
94.7045233284
  0
LWPOLYLINE
  5
4BA
100
AcDbEntity
  8
RACCORDO
100
AcDbPolyline
 62
250
  6
CONTINUOUS
 90
15
 70
0
 10
144.3026158949
 20
86.8616026651
 10
144.302579317
 20
86.8665410988
 10
144.3023713179
 20
86.8716094226
 10
144.3019879156
 20
86.8768015801
 10
144.3014284281
 20
86.8820852715
 10
144.3006881043
 20
86.8874785138
 10
144.2997496277
 20
86.8930525908
 10
144.2986020825
 20
86.8988027373
 10
144.2972355481
 20
86.9047201324
 10
144.2956194911
 20
86.9108720635
 10
144.2937370058
 20
86.9172480127
 10
144.291571506
 20
86.9238364317
 10
144.2890781162
 20
86.9307008017
 10
144.2862307383
 20
86.9378288799
 10
144.2830098418
 20
86.945190412
  0
LWPOLYLINE
  5
4BB
100
AcDbEntity
  8
RACCORDO
100
AcDbPolyline
 62
250
  6
CONTINUOUS
 90
15
 70
0
 10
144.3026158949
 20
90.6173659384
 10
144.302579317
 20
90.622304372
 10
144.3023713179
 20
90.6273726959
 10
144.3019879156
 20
90.6325648534
 10
144.3014284281
 20
90.6378485448
 10
144.3006881043
 20
90.643241787
 10
144.2997496277
 20
90.648815864
 10
144.2986020825
 20
90.6545660106
 10
144.2972355481
 20
90.6604834056
 10
144.2956194911
 20
90.6666353367
 10
144.2937370058
 20
90.6730112859
 10
144.291571506
 20
90.6795997049
 10
144.2890781162
 20
90.686464075
 10
144.2862307383
 20
90.6935921532
 10
144.2830098418
 20
90.7009536853
  0
LWPOLYLINE
  5
4BC
100
AcDbEntity
  8
RACCORDO
100
AcDbPolyline
 62
7
  6
CONTINUOUS
 90
13
 70
0
 10
143.2820135456
 20
116.794878247
 10
143.2819887562
 20
116.7983884002
 10
143.2804676922
 20
116.8226948307
 10
143.2766218243
 20
116.8471961413
 10
143.2704276081
 20
116.8719524245
 10
143.2618454906
 20
116.8968355323
 10
143.2511683525
 20
116.9209608778
 10
143.238412215
 20
116.9443433359
 10
143.2235595895
 20
116.9668847023
 10
143.2071790759
 20
116.9876947311
 10
143.189541398
 20
117.0065441943
 10
143.1704258954
 20
117.0236565914
 10
143.1658551437
 20
117.0273043682
  0
LWPOLYLINE
  5
4BD
100
AcDbEntity
  8
RACCORDO
100
AcDbPolyline
 62
7
  6
CONTINUOUS
 90
14
 70
0
 10
144.330681873
 20
103.124484641
 10
144.3306641286
 20
103.12716883
 10
144.3293509299
 20
103.1476324402
 10
144.3259451726
 20
103.1685627691
 10
144.3204183622
 20
103.1898494786
 10
144.3129571655
 20
103.2107766977
 10
144.3036221473
 20
103.2312689191
 10
144.2924427011
 20
103.2512007889
 10
144.2798547116
 20
103.2698198595
 10
144.2659974585
 20
103.2870177728
 10
144.2509090381
 20
103.3027498738
 10
144.2350455257
 20
103.3165618282
 10
144.2185289199
 20
103.3284183951
 10
144.2099918534
 20
103.3336399345
  0
LINE
  5
4BE
100
AcDbEntity
  8
RACCORDO
100
AcDbLine
 62
250
  6
CONTINUOUS
 10
142.9064671745
 20
110.0303298583
 11
142.9064671745
 21
91.1279109837
  0
LINE
  5
4BF
100
AcDbEntity
  8
RACCORDO
100
AcDbLine
 62
7
  6
CONTINUOUS
 10
142.9485662044
 20
110.0904929138
 11
142.9485662044
 21
91.1880740391
  0
LINE
  5
4C0
100
AcDbEntity
  8
RACCORDO
100
AcDbLine
 62
250
  6
CONTINUOUS
 10
143.2399145256
 20
116.7347466327
 11
143.2399145256
 21
116.2967846723
  0
LINE
  5
4C1
100
AcDbEntity
  8
RACCORDO
100
AcDbLine
 62
250
  6
CONTINUOUS
 10
143.2399145256
 20
83.3314894353
 11
143.2399145256
 21
83.3711971002
  0
LINE
  5
4C2
100
AcDbEntity
  8
RACCORDO
100
AcDbLine
 62
7
  6
CONTINUOUS
 10
143.2820135555
 20
116.7949096883
 11
143.2820135555
 21
116.3569477238
  0
LINE
  5
4C3
100
AcDbEntity
  8
RACCORDO
100
AcDbLine
 62
250
  6
CONTINUOUS
 10
144.3026158949
 20
84.3582208669
 11
144.3026158949
 21
86.8616026651
  0
LINE
  5
4C4
100
AcDbEntity
  8
RACCORDO
100
AcDbLine
 62
250
  6
CONTINUOUS
 10
144.3026158949
 20
89.0330784997
 11
144.3026158949
 21
89.2348025239
  0
LINE
  5
4C5
100
AcDbEntity
  8
RACCORDO
100
AcDbLine
 62
250
  6
CONTINUOUS
 10
144.3026158949
 20
90.4156419141
 11
144.3026158949
 21
90.6173659384
  0
LINE
  5
4C6
100
AcDbEntity
  8
RACCORDO
100
AcDbLine
 62
250
  6
CONTINUOUS
 10
144.3026158949
 20
92.9521358283
 11
144.3026158949
 21
93.774672181
  0
LINE
  5
4C7
100
AcDbEntity
  8
RACCORDO
100
AcDbLine
 62
250
  6
CONTINUOUS
 10
144.3026158949
 20
97.0753045084
 11
144.3026158949
 21
103.0844287663
  0
LINE
  5
4C8
100
AcDbEntity
  8
RACCORDO
100
AcDbLine
 62
7
  6
CONTINUOUS
 10
144.3306819149
 20
84.3983295706
 11
144.3306819149
 21
86.9017113689
  0
LINE
  5
4C9
100
AcDbEntity
  8
RACCORDO
100
AcDbLine
 62
7
  6
CONTINUOUS
 10
144.3306819149
 20
89.0731872034
 11
144.3306819149
 21
89.2749112282
  0
LINE
  5
4CA
100
AcDbEntity
  8
RACCORDO
100
AcDbLine
 62
7
  6
CONTINUOUS
 10
144.3306819149
 20
90.4557506178
 11
144.3306819149
 21
90.6574746422
  0
LINE
  5
4CB
100
AcDbEntity
  8
RACCORDO
100
AcDbLine
 62
7
  6
CONTINUOUS
 10
144.3306819149
 20
92.992244532
 11
144.3306819149
 21
93.8147808853
  0
LINE
  5
4CC
100
AcDbEntity
  8
RACCORDO
100
AcDbLine
 62
7
  6
CONTINUOUS
 10
144.3306819149
 20
97.1154132121
 11
144.3306819149
 21
103.12453747
  0
LINE
  5
4CD
100
AcDbEntity
  8
RACCORDO
100
AcDbLine
 62
250
  6
CONTINUOUS
 10
144.3856817512
 20
93.961092178
 11
144.3856817458
 21
94.6292165177
  0
LINE
  5
4CE
100
AcDbEntity
  8
RACCORDO
100
AcDbLine
 62
250
  6
CONTINUOUS
 10
144.3856817525
 20
89.4212224293
 11
144.3856818945
 21
90.1692283134
  0
LINE
  5
4CF
100
AcDbEntity
  8
RACCORDO
100
AcDbLine
 62
7
  6
CONTINUOUS
 10
144.4002029943
 20
89.4511875717
 11
144.4002029943
 21
90.1991933594
  0
LINE
  5
4D0
100
AcDbEntity
  8
RACCORDO
100
AcDbLine
 62
7
  6
CONTINUOUS
 10
144.4002029943
 20
93.9910573218
 11
144.4002029943
 21
94.6591816661
  0
LINE
  5
4D1
100
AcDbEntity
  8
RACCORDO
100
AcDbLine
 62
7
  6
CONTINUOUS
 10
143.2820135408
 20
83.391614122
 11
143.2820135555
 21
83.3916524908
  0
LWPOLYLINE
  5
4D2
100
AcDbEntity
  8
RACCORDO
100
AcDbPolyline
 62
250
  6
CONTINUOUS
 90
13
 70
0
 10
144.3026158949
 20
103.0844287663
 10
144.3026511774
 20
103.0907212841
 10
144.3024832193
 20
103.0971436421
 10
144.3021098078
 20
103.103687655
 10
144.3015316902
 20
103.1103157724
 10
144.3007463759
 20
103.1170475226
 10
144.2997391819
 20
103.1239626942
 10
144.2985000639
 20
103.1310578249
 10
144.2970209263
 20
103.1383208115
 10
144.2952752107
 20
103.1458212049
 10
144.2932473011
 20
103.1535490307
 10
144.2909225721
 20
103.1614924414
 10
144.2882619355
 20
103.1697169941
  0
LWPOLYLINE
  5
4D3
100
AcDbEntity
  8
RACCORDO
100
AcDbPolyline
 62
250
  6
CONTINUOUS
 90
13
 70
0
 10
142.9064671745
 20
91.1279109837
 10
142.9063326392
 20
91.1186737588
 10
142.90571663
 20
91.1097007851
 10
142.9046151814
 20
91.1010261093
 10
142.9030286516
 20
91.0926956561
 10
142.9009553082
 20
91.0847290728
 10
142.8983841178
 20
91.077125797
 10
142.8952674351
 20
91.0698304785
 10
142.8916356096
 20
91.0629878491
 10
142.8876421961
 20
91.0568476855
 10
142.8833834755
 20
91.0514406794
 10
142.8788709395
 20
91.0466791738
 10
142.8741871862
 20
91.0425638953
  0
LINE
  5
4D4
100
AcDbEntity
  8
RACCORDO
100
AcDbLine
 62
250
  6
CONTINUOUS
 10
144.3016616533
 20
84.3149853193
 11
144.3026158949
 21
84.3582208669
  0
LWPOLYLINE
  5
4D5
100
AcDbEntity
  8
RACCORDO
100
AcDbPolyline
 62
250
  6
CONTINUOUS
 90
15
 70
0
 10
144.3026158949
 20
93.774672181
 10
144.3027825173
 20
93.7812948358
 10
144.3031838086
 20
93.7877969112
 10
144.3038224871
 20
93.794165662
 10
144.3046904778
 20
93.8003202458
 10
144.3057946338
 20
93.8063201084
 10
144.3071837605
 20
93.8123443184
 10
144.3089043043
 20
93.8184236482
 10
144.3109674517
 20
93.8244514814
 10
144.3133922599
 20
93.8303788299
 10
144.3161946824
 20
93.8361482544
 10
144.3194039079
 20
93.8417325441
 10
144.3230634384
 20
93.8471171643
 10
144.3272086007
 20
93.8522534293
 10
144.3318582022
 20
93.8570673427
  0
LWPOLYLINE
  5
4D6
100
AcDbEntity
  8
RACCORDO
100
AcDbPolyline
 62
250
  6
CONTINUOUS
 90
15
 70
0
 10
144.3026158949
 20
89.2348025239
 10
144.3027825173
 20
89.2414251785
 10
144.3031838086
 20
89.2479272538
 10
144.303822487
 20
89.2542960045
 10
144.3046904778
 20
89.2604505882
 10
144.3057946337
 20
89.2664504507
 10
144.3071837603
 20
89.2724746606
 10
144.308904304
 20
89.2785539901
 10
144.3109674512
 20
89.284581823
 10
144.3133922592
 20
89.2905091712
 10
144.3161946805
 20
89.2962785949
 10
144.3194039048
 20
89.3018628838
 10
144.3230634367
 20
89.3072475048
 10
144.3272086038
 20
89.312383773
 10
144.3318582128
 20
89.3171976913
  0
LWPOLYLINE
  5
4D7
100
AcDbEntity
  8
RACCORDO
100
AcDbPolyline
 62
7
  6
CONTINUOUS
 90
7
 70
0
 10
144.3306819
 20
93.814812342
 10
144.3309463466
 20
93.824372311
 10
144.3318860158
 20
93.8345916314
 10
144.3333961757
 20
93.8435024609
 10
144.3353263282
 20
93.8509830166
 10
144.3374922243
 20
93.8569561193
 10
144.339621327
 20
93.8612904646
  0
LWPOLYLINE
  5
4D8
100
AcDbEntity
  8
RACCORDO
100
AcDbPolyline
 62
7
  6
CONTINUOUS
 90
7
 70
0
 10
144.3306819
 20
89.2749426848
 10
144.3309463465
 20
89.284502653
 10
144.3318860156
 20
89.2947219729
 10
144.3333961754
 20
89.303632802
 10
144.3353263281
 20
89.3111133592
 10
144.3374922247
 20
89.3170864633
 10
144.3396213261
 20
89.3214208056
  0
LWPOLYLINE
  5
4D9
100
AcDbEntity
  8
RACCORDO
100
AcDbPolyline
 62
250
  6
CONTINUOUS
 90
6
 70
0
 10
141.9265188489
 20
81.3518665529
 10
141.9262180109
 20
81.3474169322
 10
141.9234056533
 20
81.3375974546
 10
141.9177144686
 20
81.3282027994
 10
141.9093136368
 20
81.319512113
 10
141.8984528389
 20
81.3117835987
  0
LINE
  5
4DA
100
AcDbEntity
  8
RACCORDO
100
AcDbLine
 62
250
  6
CONTINUOUS
 10
144.384454517
 20
93.9488035568
 11
144.3856819301
 21
93.9610921313
  0
LINE
  5
4DB
100
AcDbEntity
  8
RACCORDO
100
AcDbLine
 62
250
  6
CONTINUOUS
 10
144.384454478
 20
89.4089338326
 11
144.3856818945
 21
89.4212223942
  0
LWPOLYLINE
  5
4DC
100
AcDbEntity
  8
RACCORDO
100
AcDbPolyline
 62
250
  6
CONTINUOUS
 90
7
 70
0
 10
142.9485661913
 20
91.1880377386
 10
142.9474745595
 20
91.1776442125
 10
142.9438969886
 20
91.1666331056
 10
142.937887642
 20
91.1559807628
 10
142.9295470722
 20
91.1458654265
 10
142.9190148388
 20
91.1364563537
 10
142.9064671745
 20
91.1279109837
  0
LWPOLYLINE
  5
4DD
100
AcDbEntity
  8
RACCORDO
100
AcDbPolyline
 62
250
  6
CONTINUOUS
 90
6
 70
0
 10
144.2931226242
 20
97.0213296975
 10
144.2963358431
 20
97.0300358096
 10
144.29899514
 20
97.0397553409
 10
144.3010037358
 20
97.0505497415
 10
144.3022460281
 20
97.0624006797
 10
144.3026158949
 20
97.0753045084
  0
LWPOLYLINE
  5
4DE
100
AcDbEntity
  8
RACCORDO
100
AcDbPolyline
 62
250
  6
CONTINUOUS
 90
5
 70
0
 10
144.3731486656
 20
93.907815035
 10
144.3767334316
 20
93.9168194991
 10
144.3798711735
 20
93.9266346035
 10
144.3824842879
 20
93.9373120056
 10
144.384454517
 20
93.9488035568
  0
LWPOLYLINE
  5
4DF
100
AcDbEntity
  8
RACCORDO
100
AcDbPolyline
 62
250
  6
CONTINUOUS
 90
3
 70
0
 10
144.3647610767
 20
93.8918789524
 10
144.3691282542
 20
93.8994888347
 10
144.3731486656
 20
93.907815035
  0
LWPOLYLINE
  5
4E0
100
AcDbEntity
  8
RACCORDO
100
AcDbPolyline
 62
7
  6
CONTINUOUS
 90
4
 70
0
 10
144.339621327
 20
93.8612904646
 10
144.3413794176
 20
93.8639699851
 10
144.3424923244
 20
93.8652319068
 10
144.342762033
 20
93.8654636635
  0
LWPOLYLINE
  5
4E1
100
AcDbEntity
  8
RACCORDO
100
AcDbPolyline
 62
250
  6
CONTINUOUS
 90
9
 70
0
 10
144.2856696063
 20
92.8952440179
 10
144.289188372
 20
92.8998694229
 10
144.2924286623
 20
92.9051498228
 10
144.29532863
 20
92.9111048639
 10
144.2978318196
 20
92.9177624997
 10
144.299886224
 20
92.9251803834
 10
144.3014206416
 20
92.9333880646
 10
144.3023555069
 20
92.9423759539
 10
144.3026158949
 20
92.9521358283
  0
LWPOLYLINE
  5
4E2
100
AcDbEntity
  8
RACCORDO
100
AcDbPolyline
 62
250
  6
CONTINUOUS
 90
6
 70
0
 10
143.6505115839
 20
88.7596468261
 10
143.6596477241
 20
88.7700127998
 10
143.6692820602
 20
88.7854825312
 10
143.6762155637
 20
88.8029449575
 10
143.6803302248
 20
88.8221028641
 10
143.681556011
 20
88.8426301786
  0
LWPOLYLINE
  5
4E3
100
AcDbEntity
  8
RACCORDO
100
AcDbPolyline
 62
250
  6
CONTINUOUS
 90
5
 70
0
 10
144.3856818945
 20
90.1692283123
 10
144.3923962164
 20
90.1768281671
 10
144.3970976566
 20
90.1849162984
 10
144.3996835815
 20
90.1933161146
 10
144.4002025618
 20
90.199023546
  0
LWPOLYLINE
  5
4E4
100
AcDbEntity
  8
RACCORDO
100
AcDbPolyline
 62
250
  6
CONTINUOUS
 90
5
 70
0
 10
144.3856817525
 20
89.4212224286
 10
144.3923960836
 20
89.4288222126
 10
144.3970975627
 20
89.4369102995
 10
144.3996835423
 20
89.4453101022
 10
144.4002029838
 20
89.451161121
  0
LINE
  5
4E5
100
AcDbEntity
  8
RACCORDO
100
AcDbLine
 62
7
  6
CONTINUOUS
 10
143.6505115839
 20
88.7596468261
 11
142.1759919981
 21
87.3180582978
  0
LWPOLYLINE
  5
4E6
100
AcDbEntity
  8
RACCORDO
100
AcDbPolyline
 62
7
  6
CONTINUOUS
 90
10
 70
0
 10
143.6505115839
 20
88.7596468261
 10
143.7065511273
 20
88.8138377644
 10
143.795661966
 20
88.8975323772
 10
143.8802426432
 20
88.9740660944
 10
143.9594413693
 20
89.0429973142
 10
144.0341033931
 20
89.1053312763
 10
144.1066858737
 20
89.1631485692
 10
144.1778803836
 20
89.2167510991
 10
144.2466831045
 20
89.2649463003
 10
144.290196766
 20
89.2930874935
  0
LWPOLYLINE
  5
4E7
100
AcDbEntity
  8
RACCORDO
100
AcDbPolyline
 62
250
  6
CONTINUOUS
 90
30
 70
0
 10
143.7153746267
 20
89.4400982703
 10
143.7483835792
 20
89.47121277
 10
143.7805828685
 20
89.5019290265
 10
143.8119542005
 20
89.5322512556
 10
143.8425158692
 20
89.5621752415
 10
143.8723227568
 20
89.5916883366
 10
143.9013749207
 20
89.6207852543
 10
143.9296723033
 20
89.6494712813
 10
143.9572696141
 20
89.6777496303
 10
143.9841603392
 20
89.7056089133
 10
144.0103509925
 20
89.7330605183
 10
144.0359158247
 20
89.7601418217
 10
144.0608663168
 20
89.786861296
 10
144.085190988
 20
89.8132104688
 10
144.1089296459
 20
89.8392012995
 10
144.1321162675
 20
89.8648711357
 10
144.1547168759
 20
89.8901826299
 10
144.1766693486
 20
89.9150356982
 10
144.1979817855
 20
89.9394434403
 10
144.2186460868
 20
89.9633927565
 10
144.2385758305
 20
89.9867442637
 10
144.2577387613
 20
90.0094628601
 10
144.2761671345
 20
90.0315836476
 10
144.293871294
 20
90.0530725488
 10
144.3108260418
 20
90.0738974595
 10
144.3270565759
 20
90.094090484
 10
144.3426488344
 20
90.113713858
 10
144.3576314634
 20
90.1327883269
 10
144.3719758167
 20
90.1512931454
 10
144.3856818945
 20
90.1692283134
  0
LINE
  5
4E8
100
AcDbEntity
  8
RACCORDO
100
AcDbLine
 62
250
  6
CONTINUOUS
 10
141.9265188588
 20
88.1667389643
 11
143.5130666509
 21
89.6332100811
  0
LINE
  5
4E9
100
AcDbEntity
  8
RACCORDO
100
AcDbLine
 62
250
  6
CONTINUOUS
 10
142.2071341113
 20
88.0457541391
 11
143.7153746267
 21
89.4400982703
  0
LINE
  5
4EA
100
AcDbEntity
  8
RACCORDO
100
AcDbLine
 62
250
  6
CONTINUOUS
 10
144.3079913413
 20
90.2641659207
 11
144.3370351381
 21
90.2902417109
  0
LINE
  5
4EB
100
AcDbEntity
  8
RACCORDO
100
AcDbLine
 62
250
  6
CONTINUOUS
 10
144.2765159308
 20
90.2363426414
 11
144.3079913413
 21
90.2641659207
  0
LINE
  5
4EC
100
AcDbEntity
  8
RACCORDO
100
AcDbLine
 62
250
  6
CONTINUOUS
 10
144.2425321652
 20
90.2067290544
 11
144.2765159308
 21
90.2363426414
  0
LINE
  5
4ED
100
AcDbEntity
  8
RACCORDO
100
AcDbLine
 62
250
  6
CONTINUOUS
 10
144.2057333824
 20
90.1751119699
 11
144.2425321652
 21
90.2067290544
  0
LINE
  5
4EE
100
AcDbEntity
  8
RACCORDO
100
AcDbLine
 62
250
  6
CONTINUOUS
 10
144.3318582128
 20
89.3171976913
 11
144.337034958
 21
89.3216238296
  0
LINE
  5
4EF
100
AcDbEntity
  8
RACCORDO
100
AcDbLine
 62
250
  6
CONTINUOUS
 10
144.1659736679
 20
90.1414213853
 11
144.2057333824
 21
90.1751119699
  0
LINE
  5
4F0
100
AcDbEntity
  8
RACCORDO
100
AcDbLine
 62
250
  6
CONTINUOUS
 10
144.123245067
 20
90.1056936828
 11
144.1659736679
 21
90.1414213853
  0
LINE
  5
4F1
100
AcDbEntity
  8
RACCORDO
100
AcDbLine
 62
250
  6
CONTINUOUS
 10
144.0776450538
 20
90.0680659835
 11
144.123245067
 21
90.1056936828
  0
LINE
  5
4F2
100
AcDbEntity
  8
RACCORDO
100
AcDbLine
 62
250
  6
CONTINUOUS
 10
144.0294788547
 20
90.0288244391
 11
144.0776450538
 21
90.0680659835
  0
LWPOLYLINE
  5
4F3
100
AcDbEntity
  8
RACCORDO
100
AcDbPolyline
 62
250
  6
CONTINUOUS
 90
6
 70
0
 10
144.3370348575
 20
89.3216237999
 10
144.3434114421
 20
89.3267564125
 10
144.3494022352
 20
89.3324011068
 10
144.3549870389
 20
89.3385347577
 10
144.3600899145
 20
89.3450572031
 10
144.3647610842
 20
89.3520092889
  0
LINE
  5
4F4
100
AcDbEntity
  8
RACCORDO
100
AcDbLine
 62
250
  6
CONTINUOUS
 10
143.9788599555
 20
89.9880987367
 11
144.0294788547
 21
90.0288244391
  0
LWPOLYLINE
  5
4F5
100
AcDbEntity
  8
RACCORDO
100
AcDbPolyline
 62
7
  6
CONTINUOUS
 90
10
 70
0
 10
144.342956642
 20
89.3257452425
 10
144.3451549749
 20
89.3274884024
 10
144.3572481699
 20
89.3385193766
 10
144.3681520318
 20
89.3511129236
 10
144.3776729098
 20
89.365142009
 10
144.3856644022
 20
89.380481899
 10
144.3920269996
 20
89.397073666
 10
144.3966497752
 20
89.4148611927
 10
144.3994056448
 20
89.4337196536
 10
144.4002030375
 20
89.4511611201
  0
LINE
  5
4F6
100
AcDbEntity
  8
RACCORDO
100
AcDbLine
 62
250
  6
CONTINUOUS
 10
143.9259205968
 20
89.9460260144
 11
143.9788599555
 21
89.9880987367
  0
LINE
  5
4F7
100
AcDbEntity
  8
RACCORDO
100
AcDbLine
 62
250
  6
CONTINUOUS
 10
143.8704486214
 20
89.9024683135
 11
143.9259205968
 21
89.9460260144
  0
LINE
  5
4F8
100
AcDbEntity
  8
RACCORDO
100
AcDbLine
 62
7
  6
CONTINUOUS
 10
144.342761975
 20
89.325593978
 11
144.342956642
 21
89.3257452425
  0
LINE
  5
4F9
100
AcDbEntity
  8
RACCORDO
100
AcDbLine
 62
250
  6
CONTINUOUS
 10
143.8123163974
 20
89.8573703198
 11
143.8704486214
 21
89.9024683135
  0
LINE
  5
4FA
100
AcDbEntity
  8
RACCORDO
100
AcDbLine
 62
250
  6
CONTINUOUS
 10
143.7512908465
 20
89.8105990177
 11
143.8123163974
 21
89.8573703198
  0
LWPOLYLINE
  5
4FB
100
AcDbEntity
  8
RACCORDO
100
AcDbPolyline
 62
250
  6
CONTINUOUS
 90
23
 70
0
 10
144.1939292821
 20
89.2909620163
 10
144.1770998161
 20
89.278205331
 10
144.1597810877
 20
89.2649022507
 10
144.1419686471
 20
89.251047402
 10
144.1236027703
 20
89.2365670882
 10
144.1046869153
 20
89.2214666144
 10
144.0852176242
 20
89.2057406756
 10
144.0651247998
 20
89.1892996594
 10
144.0444051981
 20
89.1721437136
 10
144.023062063
 20
89.1542726906
 10
144.0010350286
 20
89.1355965346
 10
143.9783107871
 20
89.1161061572
 10
143.9549026464
 20
89.095810647
 10
143.9307901641
 20
89.0746472134
 10
143.9059704077
 20
89.0526151701
 10
143.8804463097
 20
89.0297152035
 10
143.8542062257
 20
89.0058865823
 10
143.8272518561
 20
88.9811335612
 10
143.7995815003
 20
88.9554518855
 10
143.7711784126
 20
88.928768059
 10
143.7420370108
 20
88.901057583
 10
143.7121628769
 20
88.8723449562
 10
142.2071341113
 20
87.4011372928
  0
LINE
  5
4FC
100
AcDbEntity
  8
RACCORDO
100
AcDbLine
 62
250
  6
CONTINUOUS
 10
143.6872393178
 20
89.7621049804
 11
143.7512908465
 21
89.8105990177
  0
LINE
  5
4FD
100
AcDbEntity
  8
RACCORDO
100
AcDbLine
 62
250
  6
CONTINUOUS
 10
143.6200555959
 20
89.711880526
 11
143.6872393178
 21
89.7621049804
  0
LWPOLYLINE
  5
4FE
100
AcDbEntity
  8
RACCORDO
100
AcDbPolyline
 62
250
  6
CONTINUOUS
 90
3
 70
0
 10
143.5130666509
 20
89.6332100811
 10
143.549557746
 20
89.6598541877
 10
143.6200555959
 20
89.711880526
  0
LWPOLYLINE
  5
4FF
100
AcDbEntity
  8
RACCORDO
100
AcDbPolyline
 62
250
  6
CONTINUOUS
 90
3
 70
0
 10
138.840277888
 20
86.0669341236
 10
138.8769363476
 20
86.0932936249
 10
138.916399502
 20
86.1188079525
  0
LWPOLYLINE
  5
500
100
AcDbEntity
  8
RACCORDO
100
AcDbPolyline
 62
250
  6
CONTINUOUS
 90
6
 70
0
 10
144.3026158949
 20
90.6173659384
 10
144.3134770759
 20
90.6250947792
 10
144.3218780225
 20
90.633785778
 10
144.3275691032
 20
90.6431806841
 10
144.3303812095
 20
90.6530003306
 10
144.3306818154
 20
90.6573932281
  0
LWPOLYLINE
  5
501
100
AcDbEntity
  8
RACCORDO
100
AcDbPolyline
 62
250
  6
CONTINUOUS
 90
6
 70
0
 10
144.3026158949
 20
90.4156419141
 10
144.3134770745
 20
90.4233707538
 10
144.3218780207
 20
90.4320617514
 10
144.3275691018
 20
90.4414566566
 10
144.330381209
 20
90.4512763026
 10
144.3306819149
 20
90.4557506178
  0
LWPOLYLINE
  5
502
100
AcDbEntity
  8
RACCORDO
100
AcDbPolyline
 62
250
  6
CONTINUOUS
 90
6
 70
0
 10
144.3026158949
 20
89.2348025239
 10
144.3134770966
 20
89.2425313825
 10
144.3218780497
 20
89.2512223987
 10
144.327569125
 20
89.2606173194
 10
144.3303812176
 20
89.2704369773
 10
144.3306819149
 20
89.2749112282
  0
LWPOLYLINE
  5
503
100
AcDbEntity
  8
RACCORDO
100
AcDbPolyline
 62
250
  6
CONTINUOUS
 90
6
 70
0
 10
144.3026158949
 20
89.0330784997
 10
144.3134770745
 20
89.0408073393
 10
144.3218780207
 20
89.0494983369
 10
144.3275691018
 20
89.0588932421
 10
144.330381209
 20
89.0687128881
 10
144.3306819056
 20
89.0731623212
  0
LWPOLYLINE
  5
504
100
AcDbEntity
  8
RACCORDO
100
AcDbPolyline
 62
250
  6
CONTINUOUS
 90
7
 70
0
 10
144.2853622377
 20
89.3569373246
 10
144.2711810398
 20
89.3471022588
 10
144.2565925548
 20
89.3368227538
 10
144.2415966722
 20
89.3260973019
 10
144.2261534511
 20
89.3148776582
 10
144.2102650358
 20
89.3031669332
 10
144.1939292821
 20
89.2909620163
  0
LINE
  5
505
100
AcDbEntity
  8
RACCORDO
100
AcDbLine
 62
250
  6
CONTINUOUS
 10
144.337034874
 20
89.3216237959
 11
144.342761975
 21
89.325593978
  0
LWPOLYLINE
  5
506
100
AcDbEntity
  8
RACCORDO
100
AcDbPolyline
 62
7
  6
CONTINUOUS
 90
10
 70
0
 10
144.273283255
 20
88.9654640627
 10
144.2825101385
 20
88.971791038
 10
144.293008381
 20
88.9807768164
 10
144.3025472746
 20
88.991134912
 10
144.3109350048
 20
89.0027636623
 10
144.3179878547
 20
89.0155079459
 10
144.323567018
 20
89.0291977973
 10
144.3275824524
 20
89.043692141
 10
144.3299648314
 20
89.0588290606
 10
144.3306819056
 20
89.0731623212
  0
LINE
  5
507
100
AcDbEntity
  8
RACCORDO
100
AcDbLine
 62
250
  6
CONTINUOUS
 10
144.2991360379
 20
89.3663264435
 11
144.2853622377
 21
89.3569373246
  0
LINE
  5
508
100
AcDbEntity
  8
RACCORDO
100
AcDbLine
 62
250
  6
CONTINUOUS
 10
144.3125420498
 20
89.3753133374
 11
144.2991360379
 21
89.3663264435
  0
LWPOLYLINE
  5
509
100
AcDbEntity
  8
RACCORDO
100
AcDbPolyline
 62
7
  6
CONTINUOUS
 90
3
 70
0
 10
138.840277888
 20
85.9725697818
 10
138.847055337
 20
85.9770807049
 10
138.8542429064
 20
85.9814610159
  0
LWPOLYLINE
  5
50A
100
AcDbEntity
  8
RACCORDO
100
AcDbPolyline
 62
250
  6
CONTINUOUS
 90
5
 70
0
 10
144.2733590116
 20
88.9655106093
 10
144.2739045701
 20
88.9658528688
 10
144.2779792559
 20
88.9687405537
 10
144.2819173521
 20
88.9721742621
 10
144.2856696063
 20
88.9761866893
  0
LWPOLYLINE
  5
50B
100
AcDbEntity
  8
RACCORDO
100
AcDbPolyline
 62
250
  6
CONTINUOUS
 90
5
 70
0
 10
144.3626183532
 20
89.4073740719
 10
144.3505929654
 20
89.3999043907
 10
144.3382513399
 20
89.3920838935
 10
144.325580589
 20
89.3838997279
 10
144.3125420498
 20
89.3753133374
  0
LWPOLYLINE
  5
50C
100
AcDbEntity
  8
RACCORDO
100
AcDbPolyline
 62
250
  6
CONTINUOUS
 90
64
 70
0
 10
133.4392588129
 20
82.0614681654
 10
133.4311776881
 20
82.0564697168
 10
133.4234001163
 20
82.0512573457
 10
133.4159260974
 20
82.0458310521
 10
133.4087645117
 20
82.0401615592
 10
133.4019064789
 20
82.0342781437
 10
133.3953253585
 20
82.0282686364
 10
133.3890301565
 20
82.0221560758
 10
133.383011867
 20
82.0159174233
 10
133.3772168313
 20
82.0095713933
 10
133.3716382951
 20
82.0031239943
 10
133.3662830127
 20
81.9965692178
 10
133.3611175887
 20
81.9899077519
 10
133.3561324109
 20
81.9831348684
 10
133.3513370915
 20
81.9762552956
 10
133.3467270723
 20
81.9692839062
 10
133.342299473
 20
81.9622201104
 10
133.3380571738
 20
81.9550644982
 10
133.3340042565
 20
81.9478337112
 10
133.3301385075
 20
81.9405261386
 10
133.3264621404
 20
81.9331433913
 10
133.3229858782
 20
81.9257069447
 10
133.3197074543
 20
81.9182117065
 10
133.3166291352
 20
81.9106627689
 10
133.3137684433
 20
81.903096884
 10
133.3111257047
 20
81.8955110917
 10
133.3087005933
 20
81.8879083521
 10
133.3065096535
 20
81.8803342971
 10
133.3045548437
 20
81.8727893272
 10
133.3028342054
 20
81.865273042
 10
133.3013584079
 20
81.8578298714
 10
133.3001293822
 20
81.8504614057
 10
133.2991451972
 20
81.8431660547
 10
133.2984107289
 20
81.8359834781
 10
133.2979274511
 20
81.8289150118
 10
133.2976938899
 20
81.82195932
 10
133.2977104997
 20
81.8151520549
 10
133.2979785229
 20
81.8084941503
 10
133.2984967171
 20
81.8019846724
 10
133.2992618085
 20
81.795656473
 10
133.3002748457
 20
81.7895107764
 10
133.3015347802
 20
81.7835463582
 10
133.3030351925
 20
81.7777923966
 10
133.3047771226
 20
81.7722496834
 10
133.3067595306
 20
81.7669174268
 10
133.3089728769
 20
81.7618224289
 10
133.3114174605
 20
81.7569663471
 10
133.3140929825
 20
81.7523475241
 10
133.3169890062
 20
81.7479877891
 10
133.3201097384
 20
81.7438853172
 10
133.3234509724
 20
81.7400419334
 10
133.3269896518
 20
81.7364849424
 10
133.3307085329
 20
81.7332246287
 10
133.3346248595
 20
81.7302507078
 10
133.3387673063
 20
81.72755963
 10
133.3431195112
 20
81.7251401634
 10
133.3476978363
 20
81.7230035401
 10
133.3525800436
 20
81.7211799059
 10
133.3577619236
 20
81.7196455573
 10
133.3632476857
 20
81.7184241979
 10
133.3691277209
 20
81.7176170851
 10
133.3754321593
 20
81.7172579713
 10
133.3821308707
 20
81.7173131041
 10
133.3892238551
 20
81.7177824835
  0
LINE
  5
50D
100
AcDbEntity
  8
RACCORDO
100
AcDbLine
 62
250
  6
CONTINUOUS
 10
143.8786174647
 20
88.9725955345
 11
144.3026158949
 21
89.2348025239
  0
LINE
  5
50E
100
AcDbEntity
  8
RACCORDO
100
AcDbLine
 62
250
  6
CONTINUOUS
 10
143.289095475
 20
88.4063022689
 11
144.3026158949
 21
89.0330784997
  0
LINE
  5
50F
100
AcDbEntity
  8
RACCORDO
100
AcDbLine
 62
7
  6
CONTINUOUS
 10
143.1513785941
 20
88.271661089
 11
144.2733589046
 21
88.9655105431
  0
LWPOLYLINE
  5
510
100
AcDbEntity
  8
RACCORDO
100
AcDbPolyline
 62
250
  6
CONTINUOUS
 90
56
 70
0
 10
133.3685589044
 20
82.183923999
 10
133.3565494322
 20
82.1765267503
 10
133.3449461059
 20
82.1686447652
 10
133.3337769799
 20
82.1603645608
 10
133.3230913164
 20
82.151791148
 10
133.3128776337
 20
82.1429816993
 10
133.3030676382
 20
82.1339320817
 10
133.2936805681
 20
82.1247080987
 10
133.2847145501
 20
82.1153555203
 10
133.2760733822
 20
82.1058105502
 10
133.2677564672
 20
82.0960993047
 10
133.2597784433
 20
82.0862657102
 10
133.2520743652
 20
82.0762500674
 10
133.2446409805
 20
82.0660608477
 10
133.2374981608
 20
82.0557381288
 10
133.2306225287
 20
82.045258444
 10
133.2240201798
 20
82.0346382617
 10
133.2177020965
 20
82.0239025712
 10
133.2116567227
 20
82.0130361569
 10
133.2058915358
 20
82.0020545174
 10
133.2004174484
 20
81.9909805012
 10
133.1952317083
 20
81.9798079439
 10
133.1903409631
 20
81.9685482958
 10
133.1857581278
 20
81.9572282154
 10
133.1814913468
 20
81.9458640548
 10
133.1775479518
 20
81.934471418
 10
133.1739376279
 20
81.9230741569
 10
133.1706707231
 20
81.9117011758
 10
133.1677536045
 20
81.900372797
 10
133.1651917612
 20
81.8891085236
 10
133.1629917996
 20
81.8779357697
 10
133.16115768
 20
81.8668756312
 10
133.1596920776
 20
81.8559457612
 10
133.1585977166
 20
81.845167821
 10
133.1578761708
 20
81.8345613944
 10
133.157528154
 20
81.824143795
 10
133.1575538901
 20
81.8139326884
 10
133.1579529842
 20
81.8039458209
 10
133.1587243666
 20
81.7942001175
 10
133.1598664146
 20
81.7847114607
 10
133.1613768233
 20
81.7754966708
 10
133.1632527847
 20
81.7665709395
 10
133.1654913699
 20
81.7579472689
 10
133.1680888421
 20
81.7496404834
 10
133.171040735
 20
81.741665151
 10
133.1743426318
 20
81.7340335373
 10
133.177988399
 20
81.7267605138
 10
133.1819726465
 20
81.7198574242
 10
133.1862922157
 20
81.7133314913
 10
133.1909449341
 20
81.7071900992
 10
133.1959201266
 20
81.701451112
 10
133.2012001044
 20
81.6961352171
 10
133.2067512674
 20
81.6912701474
 10
133.2125848428
 20
81.6868403198
 10
133.2187569633
 20
81.682812121
 10
133.2202213722
 20
81.6819462337
  0
LINE
  5
511
100
AcDbEntity
  8
RACCORDO
100
AcDbLine
 62
250
  6
CONTINUOUS
 10
144.3125666201
 20
89.3068408152
 11
144.2929797504
 21
89.2948100474
  0
LINE
  5
512
100
AcDbEntity
  8
RACCORDO
100
AcDbLine
 62
250
  6
CONTINUOUS
 10
144.337034958
 20
89.3216238296
 11
144.3125666201
 21
89.3068408152
  0
LINE
  5
513
100
AcDbEntity
  8
RACCORDO
100
AcDbLine
 62
250
  6
CONTINUOUS
 10
138.8890883001
 20
85.8964065217
 11
139.1584759395
 21
86.0573770019
  0
LINE
  5
514
100
AcDbEntity
  8
RACCORDO
100
AcDbLine
 62
250
  6
CONTINUOUS
 10
139.1049225489
 20
85.5311579786
 11
139.3706079738
 21
85.6899162295
  0
LINE
  5
515
100
AcDbEntity
  8
RACCORDO
100
AcDbLine
 62
250
  6
CONTINUOUS
 10
138.916399502
 20
86.1188079525
 11
139.4545949781
 21
86.4400176494
  0
LINE
  5
516
100
AcDbEntity
  8
RACCORDO
100
AcDbLine
 62
7
  6
CONTINUOUS
 10
138.8543448828
 20
85.9815262972
 11
139.3925403594
 21
86.3027359944
  0
LWPOLYLINE
  5
517
100
AcDbEntity
  8
RACCORDO
100
AcDbPolyline
 62
250
  6
CONTINUOUS
 90
3
 70
0
 10
144.3856817525
 20
89.4212224293
 10
144.3743146155
 20
89.4144800848
 10
144.3626183532
 20
89.4073740719
  0
LWPOLYLINE
  5
518
100
AcDbEntity
  8
RACCORDO
100
AcDbPolyline
 62
7
  6
CONTINUOUS
 90
9
 70
0
 10
139.3926859927
 20
86.302823074
 10
139.4015512936
 20
86.3079679425
 10
139.420787821
 20
86.3181280296
 10
139.4385130009
 20
86.3261782104
 10
139.4545489106
 20
86.3322311625
 10
139.4683866049
 20
86.3363284707
 10
139.479200414
 20
86.3385983604
 10
139.4865512511
 20
86.3394895674
 10
139.4876202404
 20
86.3395571811
  0
LINE
  5
519
100
AcDbEntity
  8
RACCORDO
100
AcDbLine
 62
250
  6
CONTINUOUS
 10
143.5130666509
 20
89.6332100811
 11
141.9265188588
 21
88.7171541247
  0
LINE
  5
51A
100
AcDbEntity
  8
RACCORDO
100
AcDbLine
 62
250
  6
CONTINUOUS
 10
133.4699347702
 20
82.2424569593
 11
133.3685589044
 21
82.183923999
  0
LINE
  5
51B
100
AcDbEntity
  8
RACCORDO
100
AcDbLine
 62
250
  6
CONTINUOUS
 10
133.4699347702
 20
82.07918002
 11
133.4392588129
 21
82.0614681654
  0
LINE
  5
51C
100
AcDbEntity
  8
RACCORDO
100
AcDbLine
 62
250
  6
CONTINUOUS
 10
141.9265188588
 20
85.7345851276
 11
144.1965660321
 21
87.0452864155
  0
LINE
  5
51D
100
AcDbEntity
  8
RACCORDO
100
AcDbLine
 62
250
  6
CONTINUOUS
 10
144.3026158949
 20
86.8616026651
 11
141.9265188588
 21
85.4896693053
  0
LINE
  5
51E
100
AcDbEntity
  8
RACCORDO
100
AcDbLine
 62
7
  6
CONTINUOUS
 10
141.9265188588
 20
86.3945929367
 11
143.6394778649
 21
87.3322953476
  0
LINE
  5
51F
100
AcDbEntity
  8
RACCORDO
100
AcDbLine
 62
250
  6
CONTINUOUS
 10
141.9265188588
 20
86.3460960234
 11
143.7133962477
 21
87.3242625934
  0
LWPOLYLINE
  5
520
100
AcDbEntity
  8
RACCORDO
100
AcDbPolyline
 62
250
  6
CONTINUOUS
 90
19
 70
0
 10
139.4545949781
 20
86.4400176494
 10
139.5034071883
 20
86.466491644
 10
139.5510667968
 20
86.4876003583
 10
139.5975738036
 20
86.5033437923
 10
139.6432327004
 20
86.5137396054
 10
139.6877389956
 20
86.5187701382
 10
139.7301792137
 20
86.5183824124
 10
139.7704997904
 20
86.5125054712
 10
139.80875429
 20
86.5012102713
 10
139.8441899306
 20
86.4846567053
 10
139.876786778
 20
86.4628012938
 10
139.9065647662
 20
86.4356875161
 10
139.9328309159
 20
86.4036057017
 10
139.9555822309
 20
86.3662327815
 10
139.9748217073
 20
86.3238918246
 10
139.9898653538
 20
86.2778423679
 10
140.0004851732
 20
86.2285042569
 10
140.0069091626
 20
86.1754576461
 10
140.0091373222
 20
86.1187025355
  0
LWPOLYLINE
  5
521
100
AcDbEntity
  8
RACCORDO
100
AcDbPolyline
 62
250
  6
CONTINUOUS
 90
13
 70
0
 10
140.0091373222
 20
86.1187025355
 10
139.9807719364
 20
86.103782441
 10
139.9493402205
 20
86.0910748793
 10
139.915356375
 20
86.0807877372
 10
139.8793763519
 20
86.0730893052
 10
139.841988759
 20
86.0681055241
 10
139.8038052311
 20
86.0659179251
 10
139.7654504238
 20
86.0665622958
 10
139.7275517948
 20
86.0700280948
 10
139.6907293391
 20
86.076258624
 10
139.6555854461
 20
86.0851519562
 10
139.6226950451
 20
86.096562603
 10
139.5925962002
 20
86.1103038941
  0
LWPOLYLINE
  5
522
100
AcDbEntity
  8
RACCORDO
100
AcDbPolyline
 62
250
  6
CONTINUOUS
 90
6
 70
0
 10
143.7133962477
 20
87.3242625934
 10
143.7255197804
 20
87.329804979
 10
143.7372463951
 20
87.3327357526
 10
143.7482276389
 20
87.3329678274
 10
143.7581372075
 20
87.330494308
 10
143.7621520359
 20
87.3285238552
  0
LWPOLYLINE
  5
523
100
AcDbEntity
  8
RACCORDO
100
AcDbPolyline
 62
250
  6
CONTINUOUS
 90
6
 70
0
 10
144.1965660321
 20
87.0452864155
 10
144.2086895621
 20
87.0508288
 10
144.220416175
 20
87.0537595739
 10
144.231397418
 20
87.05399165
 10
144.2413069866
 20
87.0515181322
 10
144.2453121584
 20
87.0495532482
  0
LWPOLYLINE
  5
524
100
AcDbEntity
  8
RACCORDO
100
AcDbPolyline
 62
250
  6
CONTINUOUS
 90
3
 70
0
 10
143.6450538336
 20
87.3349208991
 10
143.6408172082
 20
87.3330026774
 10
143.6394779412
 20
87.3322953894
  0
LINE
  5
525
100
AcDbEntity
  8
RACCORDO
100
AcDbLine
 62
250
  6
CONTINUOUS
 10
144.1637257726
 20
103.3306901268
 11
142.9485662044
 21
104.0323080319
  0
LINE
  5
526
100
AcDbEntity
  8
RACCORDO
100
AcDbLine
 62
7
  6
CONTINUOUS
 10
144.2100274777
 20
103.3336193948
 11
142.9485662044
 21
104.0619713242
  0
LINE
  5
527
100
AcDbEntity
  8
RACCORDO
100
AcDbLine
 62
250
  6
CONTINUOUS
 10
144.1747884953
 20
103.3239054608
 11
144.1637257726
 21
103.3306901268
  0
LWPOLYLINE
  5
528
100
AcDbEntity
  8
RACCORDO
100
AcDbPolyline
 62
250
  6
CONTINUOUS
 90
11
 70
0
 10
144.2580313287
 20
103.2342941589
 10
144.2517805879
 20
103.2441919556
 10
144.2450741981
 20
103.254016503
 10
144.2379520473
 20
103.2636663262
 10
144.2303881298
 20
103.2731346953
 10
144.2223484156
 20
103.2824166891
 10
144.2138734505
 20
103.2914085465
 10
144.2049520351
 20
103.3000679286
 10
144.1954643093
 20
103.3084396315
 10
144.1853832498
 20
103.3164433112
 10
144.1747884953
 20
103.3239054608
  0
LINE
  5
529
100
AcDbEntity
  8
RACCORDO
100
AcDbLine
 62
250
  6
CONTINUOUS
 10
144.2637710245
 20
103.2244645614
 11
144.2580313287
 21
103.2342941589
  0
LWPOLYLINE
  5
52A
100
AcDbEntity
  8
RACCORDO
100
AcDbPolyline
 62
7
  6
CONTINUOUS
 90
15
 70
0
 10
138.9768056638
 20
107.709344906
 10
138.9676644044
 20
107.7252586051
 10
138.958650677
 20
107.7412314054
 10
138.9497644814
 20
107.7572633069
 10
138.9409871749
 20
107.7733003389
 10
138.9323374003
 20
107.7893964721
 10
138.9238710864
 20
107.8057136193
 10
138.9155801907
 20
107.8222513791
 10
138.9074727557
 20
107.8390101529
 10
138.8996288383
 20
107.856153058
 10
138.8920385408
 20
107.8736637663
 10
138.884711761
 20
107.8915586059
 10
138.8777582486
 20
107.9100496778
 10
138.8711518287
 20
107.9291266141
 10
138.8684143338
 20
107.9375003559
  0
LINE
  5
52B
100
AcDbEntity
  8
RACCORDO
100
AcDbLine
 62
7
  6
CONTINUOUS
 10
138.5457725092
 20
110.5128214621
 11
138.3487675461
 21
110.8915184062
  0
LINE
  5
52C
100
AcDbEntity
  8
RACCORDO
100
AcDbLine
 62
250
  6
CONTINUOUS
 10
138.8507998135
 20
108.1930362426
 11
138.8402778849
 21
108.2138423325
  0
LINE
  5
52D
100
AcDbEntity
  8
RACCORDO
100
AcDbLine
 62
250
  6
CONTINUOUS
 10
138.8652359054
 20
108.1631287308
 11
138.8507998135
 21
108.1930362426
  0
LWPOLYLINE
  5
52E
100
AcDbEntity
  8
ASSI
100
AcDbPolyline
 62
250
  6
CONTINUOUS
 90
3
 70
0
 10
135.9822319449
 20
122.0604541762
 10
135.9891874042
 20
122.0441512071
 10
135.9901670852
 20
122.0397419466
  0
LWPOLYLINE
  5
52F
100
AcDbEntity
  8
RACCORDO
100
AcDbPolyline
 62
250
  6
CONTINUOUS
 90
7
 70
0
 10
144.2882619355
 20
103.1697169941
 10
144.2852417592
 20
103.1782110069
 10
144.2818435946
 20
103.1869488727
 10
144.2780237717
 20
103.1959695472
 10
144.2737461498
 20
103.205267363
 10
144.2689985504
 20
103.2147825182
 10
144.2637710245
 20
103.2244645614
  0
LWPOLYLINE
  5
530
100
AcDbEntity
  8
ASSI
100
AcDbPolyline
 62
250
  6
CONTINUOUS
 90
8
 70
0
 10
138.8204862787
 20
115.109613655
 10
138.8246649591
 20
115.0969806734
 10
138.8272202553
 20
115.0853705895
 10
138.8281265257
 20
115.0749089817
 10
138.8273767649
 20
115.0657115209
 10
138.8249821215
 20
115.0578729676
 10
138.8209660718
 20
115.0514709801
 10
138.8198329651
 20
115.050226042
  0
LWPOLYLINE
  5
531
100
AcDbEntity
  8
RACCORDO
100
AcDbPolyline
 62
250
  6
CONTINUOUS
 90
7
 70
0
 10
137.6054919306
 20
122.1450266206
 10
137.601188902
 20
122.1632694043
 10
137.5955287433
 20
122.1817129983
 10
137.5885694049
 20
122.2001685754
 10
137.5803821287
 20
122.2184472018
 10
137.5710507306
 20
122.2363617402
 10
137.5606707508
 20
122.2537287592
  0
LINE
  5
532
100
AcDbEntity
  8
ASSI
100
AcDbLine
 62
250
  6
CONTINUOUS
 10
140.119348332
 20
118.5749635769
 11
140.1349953458
 21
118.4527335269
  0
LWPOLYLINE
  5
533
100
AcDbEntity
  8
ASSI
100
AcDbPolyline
 62
250
  6
CONTINUOUS
 90
13
 70
0
 10
140.8853012861
 20
120.1340791585
 10
140.8826612663
 20
120.1555021849
 10
140.8778736771
 20
120.1776007311
 10
140.8710115977
 20
120.2000374726
 10
140.8621797731
 20
120.222469924
 10
140.8515130165
 20
120.2445556618
 10
140.839174153
 20
120.2659575522
 10
140.8253515311
 20
120.2863489034
 10
140.8102561465
 20
120.305418451
 10
140.7941184244
 20
120.3228751061
 10
140.7771847004
 20
120.3384524002
 10
140.7597134606
 20
120.3519125528
 10
140.7419713962
 20
120.3630501006
  0
LWPOLYLINE
  5
534
100
AcDbEntity
  8
RACCORDO
100
AcDbPolyline
 62
250
  6
CONTINUOUS
 90
3
 70
0
 10
141.4875894914
 20
117.2578369925
 10
141.4849587013
 20
117.2807603733
 10
141.4803945682
 20
117.3042892362
  0
LWPOLYLINE
  5
535
100
AcDbEntity
  8
RACCORDO
100
AcDbPolyline
 62
250
  6
CONTINUOUS
 90
5
 70
0
 10
144.3731486501
 20
89.3679453553
 10
144.3767334055
 20
89.3769498091
 10
144.3798711395
 20
89.3867649026
 10
144.3824842497
 20
89.3974422934
 10
144.384454478
 20
89.4089338326
  0
LWPOLYLINE
  5
536
100
AcDbEntity
  8
RACCORDO
100
AcDbPolyline
 62
250
  6
CONTINUOUS
 90
3
 70
0
 10
144.3647610842
 20
89.3520092889
 10
144.3691282501
 20
89.3596191638
 10
144.3731486501
 20
89.3679453553
  0
LWPOLYLINE
  5
537
100
AcDbEntity
  8
RACCORDO
100
AcDbPolyline
 62
7
  6
CONTINUOUS
 90
4
 70
0
 10
144.3396213261
 20
89.3214208056
 10
144.3413794159
 20
89.3241003258
 10
144.3424923291
 20
89.3253622544
 10
144.342762039
 20
89.3255940111
  0
LWPOLYLINE
  5
538
100
AcDbEntity
  8
RACCORDO
100
AcDbPolyline
 62
250
  6
CONTINUOUS
 90
7
 70
0
 10
138.8897674595
 20
81.3637354875
 10
138.889811649
 20
81.3637973422
 10
138.8900558322
 20
81.3660475982
 10
138.8903295355
 20
81.3715103922
 10
138.890629798
 20
81.3801267546
 10
138.8909534299
 20
81.391805688
 10
138.8916563057
 20
81.4238030515
  0
LWPOLYLINE
  5
539
100
AcDbEntity
  8
RACCORDO
100
AcDbPolyline
 62
250
  6
CONTINUOUS
 90
9
 70
0
 10
144.2856696063
 20
88.9761866893
 10
144.289188372
 20
88.9808120943
 10
144.2924286623
 20
88.9860924942
 10
144.29532863
 20
88.9920475353
 10
144.2978318196
 20
88.9987051711
 10
144.299886224
 20
89.0061230548
 10
144.3014206416
 20
89.014330736
 10
144.3023555069
 20
89.0233186253
 10
144.3026158949
 20
89.0330784997
  0
LWPOLYLINE
  5
53A
100
AcDbEntity
  8
RACCORDO
100
AcDbPolyline
 62
250
  6
CONTINUOUS
 90
14
 70
0
 10
143.1982265348
 20
83.2238156885
 10
143.2039260465
 20
83.2286583224
 10
143.209230468
 20
83.2340148136
 10
143.2141419513
 20
83.2398799341
 10
143.218667689
 20
83.2462640989
 10
143.2227743332
 20
83.2531216691
 10
143.2264698452
 20
83.2604671986
 10
143.2297961893
 20
83.2684304315
 10
143.2327145465
 20
83.2770126432
 10
143.2351897549
 20
83.2862209806
 10
143.237216501
 20
83.2962384414
 10
143.2387336202
 20
83.3071464818
 10
143.2396567072
 20
83.318896316
 10
143.2399145256
 20
83.3314894353
  0
LWPOLYLINE
  5
53B
100
AcDbEntity
  8
RACCORDO
100
AcDbPolyline
 62
250
  6
CONTINUOUS
 90
15
 70
0
 10
144.1238816594
 20
83.9187884823
 10
144.1487958261
 20
83.9385106328
 10
144.1711033146
 20
83.9597156983
 10
144.1911535446
 20
83.9823026437
 10
144.2090223649
 20
84.0059561604
 10
144.2248677038
 20
84.0304638271
 10
144.2390477231
 20
84.0560592192
 10
144.2515455253
 20
84.0824392299
 10
144.2625062765
 20
84.1096060911
 10
144.2723186284
 20
84.1384874719
 10
144.2809254525
 20
84.1691894613
 10
144.2882118148
 20
84.2016077598
 10
144.2942246825
 20
84.2365750297
 10
144.2987948242
 20
84.2744442328
 10
144.3016616533
 20
84.3149853193
  0
LWPOLYLINE
  5
53C
100
AcDbEntity
  8
RACCORDO
100
AcDbPolyline
 62
250
  6
CONTINUOUS
 90
6
 70
0
 10
144.3026158949
 20
86.8616026651
 10
144.3134770759
 20
86.869331506
 10
144.3218780225
 20
86.8780225047
 10
144.3275691032
 20
86.8874174108
 10
144.3303812095
 20
86.8972370574
 10
144.3306818154
 20
86.9016299549
  0
LWPOLYLINE
  5
53D
100
AcDbEntity
  8
RACCORDO
100
AcDbPolyline
 62
250
  6
CONTINUOUS
 90
6
 70
0
 10
144.3026158949
 20
84.3582208669
 10
144.3134770745
 20
84.3659497065
 10
144.3218780207
 20
84.3746407042
 10
144.3275691018
 20
84.3840356094
 10
144.330381209
 20
84.3938552554
 10
144.3306819149
 20
84.3983295706
  0
LWPOLYLINE
  5
53E
100
AcDbEntity
  8
RACCORDO
100
AcDbPolyline
 62
7
  6
CONTINUOUS
 90
10
 70
0
 10
143.1906714925
 20
83.218580898
 10
143.209268165
 20
83.2316701781
 10
143.2254524108
 20
83.2462797545
 10
143.2399683432
 20
83.2628812741
 10
143.2525845017
 20
83.2812852612
 10
143.2630936191
 20
83.3012431044
 10
143.2714088996
 20
83.3226672532
 10
143.2774106125
 20
83.3454375374
 10
143.2809665277
 20
83.3693050073
 10
143.2820135408
 20
83.391614122
  0
LWPOLYLINE
  5
53F
100
AcDbEntity
  8
RACCORDO
100
AcDbPolyline
 62
7
  6
CONTINUOUS
 90
5
 70
0
 10
142.5546178867
 20
82.8087311531
 10
142.5695390556
 20
82.8189990278
 10
142.5861845894
 20
82.8333553644
 10
142.6012900634
 20
82.8499267038
 10
142.609038862
 20
82.8608099528
  0
LWPOLYLINE
  5
540
100
AcDbEntity
  8
RACCORDO
100
AcDbPolyline
 62
250
  6
CONTINUOUS
 90
7
 70
0
 10
143.2399145256
 20
83.3314894353
 10
143.2524621869
 20
83.3400348031
 10
143.2629944187
 20
83.3494438736
 10
143.2713349884
 20
83.3595592078
 10
143.2773443359
 20
83.3702115489
 10
143.2809219085
 20
83.3812226547
 10
143.2820135408
 20
83.391614122
  0
LWPOLYLINE
  5
541
100
AcDbEntity
  8
RACCORDO
100
AcDbPolyline
 62
7
  6
CONTINUOUS
 90
13
 70
0
 10
144.1045934085
 20
83.9059288404
 10
144.1326387915
 20
83.9249388879
 10
144.1654794752
 20
83.9520572823
 10
144.1958556436
 20
83.9829424482
 10
144.2235797709
 20
84.0175206375
 10
144.2484320155
 20
84.0556336364
 10
144.270197617
 20
84.0970346459
 10
144.2887529395
 20
84.141539752
 10
144.3040243501
 20
84.1890373269
 10
144.3159271903
 20
84.2393945669
 10
144.3243822623
 20
84.2924814779
 10
144.3293128292
 20
84.3481380372
 10
144.3306819143
 20
84.3983354186
  0
LINE
  5
542
100
AcDbEntity
  8
RACCORDO
100
AcDbLine
 62
250
  6
CONTINUOUS
 10
144.1047284527
 20
83.9060110053
 11
144.1238816594
 21
83.9187884823
  0
LWPOLYLINE
  5
543
100
AcDbEntity
  8
RACCORDO
100
AcDbPolyline
 62
250
  6
CONTINUOUS
 90
6
 70
0
 10
142.5546725756
 20
82.8087553287
 10
142.5560298369
 20
82.8096128624
 10
142.5675866043
 20
82.8185855153
 10
142.5779273824
 20
82.8299406714
 10
142.5867820995
 20
82.8436378423
 10
142.5889331272
 20
82.848442624
  0
LINE
  5
544
100
AcDbEntity
  8
RACCORDO
100
AcDbLine
 62
250
  6
CONTINUOUS
 10
143.1906961056
 20
83.2185957498
 11
143.1921576712
 21
83.2195157176
  0
LWPOLYLINE
  5
545
100
AcDbEntity
  8
RACCORDO
100
AcDbPolyline
 62
250
  6
CONTINUOUS
 90
9
 70
0
 10
139.0389696987
 20
81.4017439407
 10
139.0479957819
 20
81.4074216537
 10
139.0622706619
 20
81.4194605513
 10
139.0746894139
 20
81.4341802285
 10
139.0851131836
 20
81.4514173768
 10
139.0934237662
 20
81.4709718373
 10
139.0995326892
 20
81.4926217395
 10
139.1033783986
 20
81.5161303257
 10
139.1049225489
 20
81.5412378777
  0
LINE
  5
546
100
AcDbEntity
  8
RACCORDO
100
AcDbLine
 62
250
  6
CONTINUOUS
 10
144.3026158949
 20
84.3582208669
 11
141.9265188588
 21
82.8888068176
  0
LINE
  5
547
100
AcDbEntity
  8
RACCORDO
100
AcDbLine
 62
7
  6
CONTINUOUS
 10
144.1047261864
 20
83.9060096037
 11
141.9265188588
 21
82.5589735186
  0
LINE
  5
548
100
AcDbEntity
  8
ASSI
100
AcDbLine
 62
7
  6
CONTINUOUS
 10
142.5546733741
 20
82.8087558225
 11
142.3354522039
 21
82.6731861624
  0
LINE
  5
549
100
AcDbEntity
  8
RACCORDO
100
AcDbLine
 62
7
  6
CONTINUOUS
 10
142.5545999073
 20
82.808710441
 11
142.5546725756
 21
82.8087553287
  0
LINE
  5
54A
100
AcDbEntity
  8
RACCORDO
100
AcDbLine
 62
250
  6
CONTINUOUS
 10
143.2399145256
 20
83.3314894353
 11
142.2897034323
 21
82.7470008259
  0
LINE
  5
54B
100
AcDbEntity
  8
ASSI
100
AcDbLine
 62
7
  6
CONTINUOUS
 10
143.1906960752
 20
83.2185957312
 11
142.32657316
 21
82.6870612073
  0
LINE
  5
54C
100
AcDbEntity
  8
RACCORDO
100
AcDbLine
 62
250
  6
CONTINUOUS
 10
139.2498951709
 20
80.9430235746
 11
138.840277888
 21
80.6976721393
  0
LINE
  5
54D
100
AcDbEntity
  8
RACCORDO
100
AcDbLine
 62
250
  6
CONTINUOUS
 10
139.4545949781
 20
80.5845022961
 11
138.916399502
 21
80.2621354477
  0
LINE
  5
54E
100
AcDbEntity
  8
RACCORDO
100
AcDbLine
 62
250
  6
CONTINUOUS
 10
139.0388191375
 20
81.4016598785
 11
139.0389696987
 21
81.4017439407
  0
LINE
  5
54F
100
AcDbEntity
  8
RACCORDO
100
AcDbLine
 62
250
  6
CONTINUOUS
 10
139.3706079738
 20
81.689286496
 11
139.1049225489
 21
81.5412378777
  0
LINE
  5
550
100
AcDbEntity
  8
RACCORDO
100
AcDbLine
 62
7
  6
CONTINUOUS
 10
139.3071454397
 20
81.5511800801
 11
139.0388191375
 21
81.4016598785
  0
LWPOLYLINE
  5
551
100
AcDbEntity
  8
RACCORDO
100
AcDbPolyline
 62
250
  6
CONTINUOUS
 90
3
 70
0
 10
138.916399502
 20
80.2621354477
 10
138.8669670033
 20
80.2352219093
 10
138.840277888
 20
80.2233825113
  0
LWPOLYLINE
  5
552
100
AcDbEntity
  8
RACCORDO
100
AcDbPolyline
 62
250
  6
CONTINUOUS
 90
10
 70
0
 10
139.1049225489
 20
81.5412378777
 10
139.0856267991
 20
81.5310289183
 10
139.0648634485
 20
81.5218298197
 10
139.0427905185
 20
81.5137105928
 10
139.0195759974
 20
81.5067330296
 10
138.9953965617
 20
81.5009502339
 10
138.9704362316
 20
81.4964062164
 10
138.9448849705
 20
81.4931355598
 10
138.9189372389
 20
81.4911631558
 10
138.8927905145
 20
81.4905040156
  0
LWPOLYLINE
  5
553
100
AcDbEntity
  8
RACCORDO
100
AcDbPolyline
 62
250
  6
CONTINUOUS
 90
13
 70
0
 10
140.0091373222
 20
81.5689416126
 10
139.9807699907
 20
81.5540206192
 10
139.9493363996
 20
81.5413126135
 10
139.9153509451
 20
81.5310254187
 10
139.8793697671
 20
81.5233272444
 10
139.841981563
 20
81.5183439187
 10
139.8037979443
 20
81.5161568557
 10
139.7654436041
 20
81.5168017408
 10
139.7275459534
 20
81.52026793
 10
139.690724776
 20
81.5264986599
 10
139.6555823313
 20
81.5353919628
 10
139.6226934926
 20
81.5468023
 10
139.5925962002
 20
81.5605429712
  0
LWPOLYLINE
  5
554
100
AcDbEntity
  8
RACCORDO
100
AcDbPolyline
 62
250
  6
CONTINUOUS
 90
4
 70
0
 10
138.2007649057
 20
113.0897883694
 10
138.1888728172
 20
113.0898589229
 10
138.175961858
 20
113.0888147383
 10
138.1746368744
 20
113.0885934739
  0
LWPOLYLINE
  5
555
100
AcDbEntity
  8
RACCORDO
100
AcDbPolyline
 62
7
  6
CONTINUOUS
 90
11
 70
0
 10
137.7518433521
 20
112.9889155641
 10
137.7601983657
 20
112.9846393863
 10
137.7880184686
 20
112.9739757609
 10
137.8172552459
 20
112.9663912508
 10
137.8476384193
 20
112.9620654138
 10
137.8787616452
 20
112.9611362815
 10
137.9101515292
 20
112.9636386935
 10
137.9415503172
 20
112.9695505562
 10
137.972701907
 20
112.9788212059
 10
138.0032764817
 20
112.9913030095
 10
138.0322007768
 20
113.0063523814
  0
LWPOLYLINE
  5
556
100
AcDbEntity
  8
RACCORDO
100
AcDbPolyline
 62
250
  6
CONTINUOUS
 90
6
 70
0
 10
138.2514970299
 20
113.0753411803
 10
138.2423182045
 20
113.080048471
 10
138.2325990697
 20
113.0838738613
 10
138.2223653598
 20
113.0867903121
 10
138.211787959
 20
113.0887539621
 10
138.2007649057
 20
113.0897883694
  0
LWPOLYLINE
  5
557
100
AcDbEntity
  8
RACCORDO
100
AcDbPolyline
 62
250
  6
CONTINUOUS
 90
13
 70
0
 10
138.2703297321
 20
112.9468580236
 10
138.2641271208
 20
112.9500530408
 10
138.2575985017
 20
112.9526289994
 10
138.2507438748
 20
112.9545858993
 10
138.2436498141
 20
112.9559661213
 10
138.2362297455
 20
112.9567272848
 10
138.2282239474
 20
112.9567422475
 10
138.2195331886
 20
112.9560593172
 10
138.2102567003
 20
112.9546301861
 10
138.2004324541
 20
112.9521827894
 10
138.1900731073
 20
112.9486264388
 10
138.1791660025
 20
112.9440518226
 10
138.1677111399
 20
112.9384589407
  0
LINE
  5
558
100
AcDbEntity
  8
RACCORDO
100
AcDbLine
 62
7
  6
CONTINUOUS
 10
138.840277888
 20
110.6828657607
 11
138.3003768871
 21
110.994597832
  0
LINE
  5
559
100
AcDbEntity
  8
ASSI
100
AcDbLine
 62
7
  6
CONTINUOUS
 10
138.3015191224
 20
110.9965772515
 11
138.2108482614
 21
111.0489294702
  0
LINE
  5
55A
100
AcDbEntity
  8
0
100
AcDbLine
 62
250
  6
CONTINUOUS
 10
135.7384939325
 20
113.1490275393
 11
120.8702797641
 21
121.7337480576
  0
LINE
  5
55B
100
AcDbEntity
  8
0
100
AcDbLine
 62
250
  6
CONTINUOUS
 10
136.0827923742
 20
113.7559163909
 11
121.2145782059
 21
122.3406369092
  0
LINE
  5
55C
100
AcDbEntity
  8
RACCORDO
100
AcDbLine
 62
250
  6
CONTINUOUS
 10
138.7233101133
 20
112.6853620893
 11
138.2703297321
 21
112.9468580236
  0
LINE
  5
55D
100
AcDbEntity
  8
RACCORDO
100
AcDbLine
 62
7
  6
CONTINUOUS
 10
138.7044746557
 20
112.8138468366
 11
138.2015908224
 21
113.1041563991
  0
LINE
  5
55E
100
AcDbEntity
  8
RACCORDO
100
AcDbLine
 62
250
  6
CONTINUOUS
 10
138.7307047888
 20
112.6802197941
 11
138.7233101133
 21
112.6853620893
  0
LWPOLYLINE
  5
55F
100
AcDbEntity
  8
ASSI
100
AcDbPolyline
 62
250
  6
CONTINUOUS
 90
7
 70
0
 10
133.1444824197
 20
120.6761570917
 10
133.1391309041
 20
120.6829836797
 10
133.123772953
 20
120.6990927109
 10
133.1062500389
 20
120.7130058808
 10
133.0868331802
 20
120.7245080538
 10
133.0658226636
 20
120.7334213987
 10
133.0435434206
 20
120.7396081152
  0
LWPOLYLINE
  5
560
100
AcDbEntity
  8
RACCORDO
100
AcDbPolyline
 62
250
  6
CONTINUOUS
 90
4
 70
0
 10
138.7481976966
 20
112.6616013312
 10
138.7431735992
 20
112.6683664815
 10
138.7373259507
 20
112.6745545915
 10
138.7307047888
 20
112.6802197941
  0
LWPOLYLINE
  5
561
100
AcDbEntity
  8
RACCORDO
100
AcDbPolyline
 62
250
  6
CONTINUOUS
 90
9
 70
0
 10
140.5002495689
 20
114.5792276781
 10
140.7503906016
 20
114.1746602203
 10
141.0009533611
 20
113.760420118
 10
141.2516620156
 20
113.3364933005
 10
141.5006790417
 20
112.9055940152
 10
141.7493177107
 20
112.4650443048
 10
142.0017579572
 20
112.006621639
 10
142.2588726433
 20
111.5274686225
 10
142.5185107249
 20
111.0302489743
  0
LINE
  5
562
100
AcDbEntity
  8
RACCORDO
100
AcDbLine
 62
7
  6
CONTINUOUS
 10
140.8268922722
 20
114.1668795601
 11
140.6303473579
 21
114.4861029087
  0
LWPOLYLINE
  5
563
100
AcDbEntity
  8
ASSI
100
AcDbPolyline
 62
250
  6
CONTINUOUS
 90
4
 70
0
 10
135.9822320539
 20
122.0602495981
 10
135.9878484947
 20
122.0510243218
 10
135.9916555765
 20
122.041522643
 10
135.9917823801
 20
122.04089957
  0
LWPOLYLINE
  5
564
100
AcDbEntity
  8
ASSI
100
AcDbPolyline
 62
250
  6
CONTINUOUS
 90
16
 70
0
 10
136.1708563886
 20
122.2621380258
 10
136.179960523
 20
122.2451584518
 10
136.1867705777
 20
122.2280018623
 10
136.1912865528
 20
122.2106682573
 10
136.1935192778
 20
122.1930522064
 10
136.1934579231
 20
122.17525914
 10
136.1910700001
 20
122.1576053497
 10
136.1862936207
 20
122.1400771487
 10
136.1791906729
 20
122.1226882237
 10
136.1699143325
 20
122.1057959268
 10
136.158419563
 20
122.0894291631
 10
136.1447514008
 20
122.0735590275
 10
136.1291981305
 20
122.0584561558
 10
136.111855847
 20
122.04421076
 10
136.0926284553
 20
122.0307326282
 10
136.0715159556
 20
122.0180217604
  0
LWPOLYLINE
  5
565
100
AcDbEntity
  8
ASSI
100
AcDbPolyline
 62
250
  6
CONTINUOUS
 90
4
 70
0
 10
138.3719493552
 20
118.5960474278
 10
138.3696832811
 20
118.6004246815
 10
138.3650843832
 20
118.6079590974
 10
138.3601074599
 20
118.6146603451
  0
LINE
  5
566
100
AcDbEntity
  8
RACCORDO
100
AcDbLine
 62
250
  6
CONTINUOUS
 10
142.5185107249
 20
111.0302489743
 11
142.7800109836
 21
110.5149226709
  0
LWPOLYLINE
  5
567
100
AcDbEntity
  8
RACCORDO
100
AcDbPolyline
 62
7
  6
CONTINUOUS
 90
9
 70
0
 10
142.8299836295
 20
110.5513086103
 10
142.5968801345
 20
111.0113864567
 10
142.3586769709
 20
111.4694417531
 10
142.1154530242
 20
111.9253230931
 10
141.8672890166
 20
112.3788794254
 10
141.6142668823
 20
112.8299612008
 10
141.3564697034
 20
113.278420396
 10
141.0939825066
 20
113.7241090947
 10
140.8268922722
 20
114.1668795601
  0
LINE
  5
568
100
AcDbEntity
  8
ASSI
100
AcDbLine
 62
7
  6
CONTINUOUS
 10
138.3719675596
 20
118.5960100151
 11
138.3719493552
 21
118.5960474278
  0
LINE
  5
569
100
AcDbEntity
  8
RACCORDO
100
AcDbLine
 62
250
  6
CONTINUOUS
 10
142.7800109836
 20
110.5149226709
 11
142.8039939734
 21
110.464493476
  0
LWPOLYLINE
  5
56A
100
AcDbEntity
  8
ASSI
100
AcDbPolyline
 62
7
  6
CONTINUOUS
 90
6
 70
0
 10
138.3719862758
 20
118.5959716341
 10
138.3775186698
 20
118.5839893451
 10
138.3836018366
 20
118.5690399008
 10
138.3888652283
 20
118.553933686
 10
138.3933021144
 20
118.5387297544
 10
138.3969221218
 20
118.5234448274
  0
LINE
  5
56B
100
AcDbEntity
  8
ASSI
100
AcDbLine
 62
7
  6
CONTINUOUS
 10
138.3721546645
 20
118.5956086675
 11
138.3721867325
 21
118.5955349518
  0
LWPOLYLINE
  5
56C
100
AcDbEntity
  8
RACCORDO
100
AcDbPolyline
 62
250
  6
CONTINUOUS
 90
7
 70
0
 10
142.8039939734
 20
110.464493476
 10
142.8260735476
 20
110.4125664572
 10
142.8459980818
 20
110.359382513
 10
142.8634994513
 20
110.3052547361
 10
142.8783462451
 20
110.2504457226
 10
142.8903229626
 20
110.1951704519
 10
142.8991750168
 20
110.1397623025
  0
LWPOLYLINE
  5
56D
100
AcDbEntity
  8
RACCORDO
100
AcDbPolyline
 62
250
  6
CONTINUOUS
 90
12
 70
0
 10
141.4739470714
 20
117.3281658906
 10
141.4656868218
 20
117.3521288388
 10
141.455704289
 20
117.37591564
 10
141.4441088023
 20
117.3992657825
 10
141.4310273515
 20
117.4219235342
 10
141.4166032028
 20
117.4436407454
 10
141.4009943329
 20
117.4641795725
 10
141.3843716891
 20
117.4833150745
 10
141.3669173163
 20
117.5008376748
 10
141.3488223751
 20
117.5165554669
 10
141.3302850482
 20
117.530296316
 10
141.3115083608
 20
117.5419097369
  0
LWPOLYLINE
  5
56E
100
AcDbEntity
  8
RACCORDO
100
AcDbPolyline
 62
250
  6
CONTINUOUS
 90
8
 70
0
 10
142.8299836295
 20
110.5513086103
 10
142.8300918729
 20
110.5509489923
 10
142.8291936082
 20
110.5486758334
 10
142.8260636216
 20
110.5453242026
 10
142.8207542415
 20
110.5409501612
 10
142.8133542893
 20
110.5356268961
 10
142.8039875741
 20
110.5294434777
 10
142.7928108038
 20
110.522503361
  0
LWPOLYLINE
  5
56F
100
AcDbEntity
  8
RACCORDO
100
AcDbPolyline
 62
250
  6
CONTINUOUS
 90
10
 70
0
 10
140.9571471119
 20
120.222296112
 10
140.9542578965
 20
120.2329187194
 10
140.9507989768
 20
120.2439242266
 10
140.9466953317
 20
120.2553904653
 10
140.9419527134
 20
120.2671558184
 10
140.9365712485
 20
120.2791154928
 10
140.9305393926
 20
120.2912065518
 10
140.9238484023
 20
120.3033634027
 10
140.9165223857
 20
120.3154701018
 10
140.9086082227
 20
120.3273948092
  0
LINE
  5
570
100
AcDbEntity
  8
RACCORDO
100
AcDbLine
 62
250
  6
CONTINUOUS
 10
141.4803945682
 20
117.3042892362
 11
141.4739470714
 21
117.3281658906
  0
LWPOLYLINE
  5
571
100
AcDbEntity
  8
RACCORDO
100
AcDbPolyline
 62
250
  6
CONTINUOUS
 90
12
 70
0
 10
143.2399145256
 20
116.2967846723
 10
143.2410753076
 20
116.2884563964
 10
143.2417595247
 20
116.2803978326
 10
143.2419576363
 20
116.2726382714
 10
143.2416607994
 20
116.2652142613
 10
143.2408648523
 20
116.2581452568
 10
143.2395640243
 20
116.2514383938
 10
143.2377235825
 20
116.2450470236
 10
143.2353497234
 20
116.2390924447
 10
143.2325495217
 20
116.2337875976
 10
143.2294085053
 20
116.2291561247
 10
143.2259478307
 20
116.2251168144
  0
LINE
  5
572
100
AcDbEntity
  8
RACCORDO
100
AcDbLine
 62
250
  6
CONTINUOUS
 10
142.161255293
 20
80.7802073617
 11
142.1507471809
 21
80.7711900981
  0
LWPOLYLINE
  5
573
100
AcDbEntity
  8
RACCORDO
100
AcDbPolyline
 62
7
  6
CONTINUOUS
 90
20
 70
0
 10
142.1548239171
 20
80.773870645
 10
142.1632650159
 20
80.7803775654
 10
142.176036297
 20
80.7925651218
 10
142.1874231589
 20
80.8066985365
 10
142.1971406701
 20
80.8226365486
 10
142.2049282595
 20
80.840189679
 10
142.2106087365
 20
80.8592053098
 10
142.2140731451
 20
80.8797959398
 10
142.2150988018
 20
80.9015919279
 10
142.21364434
 20
80.9237949709
 10
142.2097584891
 20
80.9463971249
 10
142.203439739
 20
80.9692515676
 10
142.1950432076
 20
80.991342284
 10
142.1847944691
 20
81.0124445226
 10
142.172758129
 20
81.0326097795
 10
142.1593331671
 20
81.0512547321
 10
142.1446360136
 20
81.0683300809
 10
142.1287305469
 20
81.0837530177
 10
142.1121047074
 20
81.0970907509
 10
142.0943204474
 20
81.1086523148
  0
LWPOLYLINE
  5
574
100
AcDbEntity
  8
RACCORDO
100
AcDbPolyline
 62
250
  6
CONTINUOUS
 90
7
 70
0
 10
139.7521684874
 20
79.4854224263
 10
139.7626002029
 20
79.4933833638
 10
139.7727879313
 20
79.5051535997
 10
139.7808238055
 20
79.5194957116
 10
139.7865703826
 20
79.5361643971
 10
139.7899293752
 20
79.5548745607
 10
139.7908433324
 20
79.5753061904
  0
LINE
  5
575
100
AcDbEntity
  8
RACCORDO
100
AcDbLine
 62
7
  6
CONTINUOUS
 10
142.1548238347
 20
80.7738705867
 11
142.1546292478
 21
80.7737326836
  0
LWPOLYLINE
  5
576
100
AcDbEntity
  8
RACCORDO
100
AcDbPolyline
 62
250
  6
CONTINUOUS
 90
4
 70
0
 10
142.15074708
 20
80.7711900372
 10
141.9769122773
 20
80.6513221321
 10
141.8026695813
 20
80.5367561533
 10
141.6281290568
 20
80.4273747158
  0
LINE
  5
577
100
AcDbEntity
  8
RACCORDO
100
AcDbLine
 62
250
  6
CONTINUOUS
 10
142.1546292478
 20
80.7737326836
 11
142.1507470799
 21
80.7711900374
  0
LWPOLYLINE
  5
578
100
AcDbEntity
  8
RACCORDO
100
AcDbPolyline
 62
7
  6
CONTINUOUS
 90
22
 70
0
 10
139.7521183227
 20
79.4853914344
 10
139.8047297355
 20
79.5194948677
 10
139.882935762
 20
79.5760445517
 10
139.9595080893
 20
79.6384130309
 10
140.0340639177
 20
79.7061870895
 10
140.1063295496
 20
79.7790003088
 10
140.1760780114
 20
79.8565177411
 10
140.2430373356
 20
79.9383844916
 10
140.3068999879
 20
80.0241641752
 10
140.3673398439
 20
80.1133870667
 10
140.4240596299
 20
80.2056070767
 10
140.476799818
 20
80.3003629719
 10
140.5252759597
 20
80.3971542635
 10
140.5692364601
 20
80.4955137418
 10
140.608463334
 20
80.5949514715
 10
140.6427235409
 20
80.6949497734
 10
140.6718099328
 20
80.7950201247
 10
140.6955649117
 20
80.89473603
 10
140.7138218305
 20
80.9937211776
 10
140.7264136612
 20
81.0915497338
 10
140.7331926612
 20
81.1876891332
 10
140.7344058864
 20
81.2474323825
  0
LWPOLYLINE
  5
579
100
AcDbEntity
  8
RACCORDO
100
AcDbPolyline
 62
7
  6
CONTINUOUS
 90
16
 70
0
 10
142.9194873914
 20
81.3034500516
 10
142.925539129
 20
81.3072968171
 10
142.9414181379
 20
81.319298842
 10
142.9558827978
 20
81.3332316013
 10
142.968608286
 20
81.3488256394
 10
142.9794465988
 20
81.365898294
 10
142.9883503915
 20
81.384463047
 10
142.9951478538
 20
81.4043969856
 10
142.999626333
 20
81.4253102557
 10
143.0016943602
 20
81.446986556
 10
143.0012481395
 20
81.4697543392
 10
142.9981470207
 20
81.4929517647
 10
142.9926797052
 20
81.5151981657
 10
142.9849471393
 20
81.5368303726
 10
142.9749893686
 20
81.5578232711
 10
142.9713856791
 20
81.5642972744
  0
LINE
  5
57A
100
AcDbEntity
  8
RACCORDO
100
AcDbLine
 62
250
  6
CONTINUOUS
 10
139.7908433324
 20
79.5753061904
 11
138.840277888
 21
78.9874622607
  0
LINE
  5
57B
100
AcDbEntity
  8
RACCORDO
100
AcDbLine
 62
7
  6
CONTINUOUS
 10
139.7521684874
 20
79.4854224263
 11
138.840277888
 21
78.9214956009
  0
LWPOLYLINE
  5
57C
100
AcDbEntity
  8
RACCORDO
100
AcDbPolyline
 62
7
  6
CONTINUOUS
 90
10
 70
0
 10
141.5961841252
 20
80.4079217954
 10
141.6594139721
 20
80.4465913952
 10
141.7223516818
 20
80.485756853
 10
141.7849959457
 20
80.5254173724
 10
141.8473453646
 20
80.5655720836
 10
141.9093987407
 20
80.6062202308
 10
141.9711550727
 20
80.6473611803
 10
142.0326131691
 20
80.6889941667
 10
142.0937716523
 20
80.731118285
 10
142.1546292478
 20
80.7737326836
  0
LINE
  5
57D
100
AcDbEntity
  8
RACCORDO
100
AcDbLine
 62
250
  6
CONTINUOUS
 10
142.9183215773
 20
81.5336551951
 11
142.1477335245
 21
81.0647313514
  0
LINE
  5
57E
100
AcDbEntity
  8
RACCORDO
100
AcDbLine
 62
7
  6
CONTINUOUS
 10
142.2130208219
 20
80.873541482
 11
142.9197919314
 21
81.3036313744
  0
LINE
  5
57F
100
AcDbEntity
  8
RACCORDO
100
AcDbLine
 62
250
  6
CONTINUOUS
 10
139.1626512588
 20
78.9685088332
 11
138.840277888
 21
78.7728833492
  0
LINE
  5
580
100
AcDbEntity
  8
ASSI
100
AcDbLine
 62
7
  6
CONTINUOUS
 10
141.5961841253
 20
80.4079217953
 11
138.840277888
 21
78.737152573
  0
LINE
  5
581
100
AcDbEntity
  8
RACCORDO
100
AcDbLine
 62
250
  6
CONTINUOUS
 10
142.0456295473
 20
81.1043537223
 11
140.3424783467
 21
80.0766858762
  0
LINE
  5
582
100
AcDbEntity
  8
RACCORDO
100
AcDbLine
 62
250
  6
CONTINUOUS
 10
142.15074708
 20
80.7711900372
 11
139.1626512588
 21
78.9685088332
  0
LINE
  5
583
100
AcDbEntity
  8
RACCORDO
100
AcDbLine
 62
250
  6
CONTINUOUS
 10
140.5941681152
 20
80.558713965
 11
141.8984528389
 21
81.3117835979
  0
LINE
  5
584
100
AcDbEntity
  8
RACCORDO
100
AcDbLine
 62
250
  6
CONTINUOUS
 10
140.4322193237
 20
80.220267227
 11
142.0045027017
 21
81.1280998476
  0
LINE
  5
585
100
AcDbEntity
  8
RACCORDO
100
AcDbLine
 62
250
  6
CONTINUOUS
 10
142.9713856791
 20
81.5642972744
 11
142.9183215773
 21
81.5336551951
  0
LINE
  5
586
100
AcDbEntity
  8
RACCORDO
100
AcDbLine
 62
250
  6
CONTINUOUS
 10
142.0166262317
 20
81.1336422322
 11
142.0045027017
 21
81.1280998476
  0
LINE
  5
587
100
AcDbEntity
  8
RACCORDO
100
AcDbLine
 62
250
  6
CONTINUOUS
 10
142.0577532388
 20
81.1098961417
 11
142.0456295473
 21
81.1043537223
  0
LWPOLYLINE
  5
588
100
AcDbEntity
  8
ASSI
100
AcDbPolyline
 62
7
  6
CONTINUOUS
 90
10
 70
0
 10
137.8824857767
 20
117.1249054219
 10
137.8629620426
 20
117.1251925965
 10
137.8439300474
 20
117.1245190791
 10
137.8253897911
 20
117.1228848699
 10
137.8072051323
 20
117.1202549707
 10
137.7895122125
 20
117.1166643796
 10
137.7727194555
 20
117.1122180904
 10
137.7569630029
 20
117.1069511011
 10
137.7421067132
 20
117.1008284137
 10
137.7281505864
 20
117.0938500282
  0
LINE
  5
589
100
AcDbEntity
  8
ASSI
100
AcDbLine
 62
7
  6
CONTINUOUS
 10
137.9231424813
 20
117.1240980819
 11
137.8824857767
 21
117.1249054219
  0
LWPOLYLINE
  5
58A
100
AcDbEntity
  8
ASSI
100
AcDbPolyline
 62
250
  6
CONTINUOUS
 90
8
 70
0
 10
137.2450183378
 20
116.6164593341
 10
137.233733756
 20
116.6207103342
 10
137.2215457194
 20
116.6230351147
 10
137.208584817
 20
116.6234087539
 10
137.1949899356
 20
116.6218272421
 10
137.1809067439
 20
116.6183075257
 10
137.1664861278
 20
116.612887315
 10
137.1518825959
 20
116.6056246834
  0
LWPOLYLINE
  5
58B
100
AcDbEntity
  8
RACCORDO
100
AcDbPolyline
 62
7
  6
CONTINUOUS
 90
10
 70
0
 10
140.5002495688
 20
114.5792276781
 10
140.5220072442
 20
114.5691264692
 10
140.542020824
 20
114.5589050062
 10
140.5602331785
 20
114.5485444966
 10
140.5766062379
 20
114.53799531
 10
140.5911523968
 20
114.5273212605
 10
140.6038807125
 20
114.5166644629
 10
140.6147810725
 20
114.5060294196
 10
140.6238504881
 20
114.4954235779
 10
140.6303506423
 20
114.4860976196
  0
LWPOLYLINE
  5
58C
100
AcDbEntity
  8
ASSI
100
AcDbPolyline
 62
250
  6
CONTINUOUS
 90
9
 70
0
 10
138.7766231507
 20
115.7323443429
 10
138.772222057
 20
115.734671033
 10
138.7609374515
 20
115.7389220102
 10
138.7487494197
 20
115.7412467607
 10
138.7357885439
 20
115.7416203758
 10
138.7221936952
 20
115.7400388508
 10
138.7081105354
 20
115.7365191307
 10
138.6936899551
 20
115.7310989264
 10
138.6790864617
 20
115.7238363117
  0
LINE
  5
58D
100
AcDbEntity
  8
ASSI
100
AcDbLine
 62
250
  6
CONTINUOUS
 10
137.249419285
 20
116.6141327146
 11
137.2450183378
 21
116.6164593341
  0
LINE
  5
58E
100
AcDbEntity
  8
ASSI
100
AcDbLine
 62
250
  6
CONTINUOUS
 10
128.0730765027
 20
121.9124380305
 11
128.0686755556
 21
121.91476465
  0
LWPOLYLINE
  5
58F
100
AcDbEntity
  8
ASSI
100
AcDbPolyline
 62
250
  6
CONTINUOUS
 90
7
 70
0
 10
137.1518825959
 20
116.6056246834
 10
137.1375508043
 20
116.6133036119
 10
137.1232886913
 20
116.6191664471
 10
137.1092518229
 20
116.6231276691
 10
137.0955785694
 20
116.6251224248
 10
137.0824435849
 20
116.6250984857
 10
137.0700471653
 20
116.6230442723
  0
LWPOLYLINE
  5
590
100
AcDbEntity
  8
ASSI
100
AcDbPolyline
 62
250
  6
CONTINUOUS
 90
7
 70
0
 10
127.9755398137
 20
121.9039299993
 10
127.9612080221
 20
121.9116089277
 10
127.946945909
 20
121.917471763
 10
127.9329090407
 20
121.9214329849
 10
127.9192357872
 20
121.9234277407
 10
127.9061008027
 20
121.9234038015
 10
127.8937043831
 20
121.9213495882
  0
LWPOLYLINE
  5
591
100
AcDbEntity
  8
ASSI
100
AcDbPolyline
 62
250
  6
CONTINUOUS
 90
9
 70
0
 10
133.4743928502
 20
117.1232142677
 10
133.4721829415
 20
117.1244350495
 10
133.460480128
 20
117.1292701511
 10
133.4477538749
 20
117.1319743619
 10
133.4341554695
 20
117.1325155184
 10
133.4198465812
 20
117.1308871804
 10
133.4049973134
 20
117.1271087059
 10
133.3897841776
 20
117.1212250096
 10
133.3743880182
 20
117.1133060321
  0
LWPOLYLINE
  5
592
100
AcDbEntity
  8
RACCORDO
100
AcDbPolyline
 62
250
  6
CONTINUOUS
 90
31
 70
0
 10
137.6542201907
 20
114.2966674573
 10
137.6600312386
 20
114.2934229822
 10
137.6659122773
 20
114.2903372701
 10
137.6718387999
 20
114.2874049402
 10
137.677705547
 20
114.284657321
 10
137.6835688543
 20
114.2820471025
 10
137.6896677478
 20
114.2794657659
 10
137.6960533723
 20
114.2769072878
 10
137.7026726632
 20
114.2743976616
 10
137.7096327511
 20
114.2718993062
 10
137.7169348758
 20
114.2694329273
 10
137.7245789604
 20
114.2670124033
 10
137.732679833
 20
114.2646061879
 10
137.7412612282
 20
114.262238204
 10
137.7502970274
 20
114.259942991
 10
137.7598294048
 20
114.2577190769
 10
137.7698702325
 20
114.2555977892
 10
137.7803808798
 20
114.2536226463
 10
137.791320688
 20
114.2518146969
 10
137.8026491762
 20
114.2502085122
 10
137.8143401847
 20
114.248844116
 10
137.826363337
 20
114.2477509026
 10
137.8386491172
 20
114.2469668015
 10
137.8511522502
 20
114.2465286421
 10
137.8638621527
 20
114.2464709061
 10
137.8766844455
 20
114.2468285125
 10
137.8895309158
 20
114.2476436712
 10
137.9023709171
 20
114.2489743388
 10
137.9150961098
 20
114.2508681215
 10
137.9275302061
 20
114.2533492578
 10
137.939509507
 20
114.2564405591
  0
LINE
  5
593
100
AcDbEntity
  8
RACCORDO
100
AcDbLine
 62
250
  6
CONTINUOUS
 10
122.2072446993
 20
123.2155439397
 11
122.2643231445
 21
123.1825875608
  0
LINE
  5
594
100
AcDbEntity
  8
RACCORDO
100
AcDbLine
 62
250
  6
CONTINUOUS
 10
137.5971417455
 20
114.329610266
 11
137.6542201907
 21
114.296653887
  0
LINE
  5
595
100
AcDbEntity
  8
0
100
AcDbLine
 62
7
  6
CONTINUOUS
 10
137.3984111154
 20
114.5155344171
 11
122.4630537746
 21
123.1390225617
  0
LINE
  5
596
100
AcDbEntity
  8
RACCORDO
100
AcDbLine
 62
250
  6
CONTINUOUS
 10
129.213940606
 20
119.2623674721
 11
129.2418129305
 21
119.2462743413
  0
LINE
  5
597
100
AcDbEntity
  8
ASSI
100
AcDbLine
 62
250
  6
CONTINUOUS
 10
133.6842589709
 20
116.7068732535
 11
133.6624791375
 21
116.7194486563
  0
LINE
  5
598
100
AcDbEntity
  8
RACCORDO
100
AcDbLine
 62
250
  6
CONTINUOUS
 10
133.8391617382
 20
116.7464927025
 11
137.7674521428
 21
114.4783830469
  0
LINE
  5
599
100
AcDbEntity
  8
ASSI
100
AcDbLine
 62
250
  6
CONTINUOUS
 10
133.3743880182
 20
117.1133060321
 11
129.5227352186
 21
119.3372020861
  0
LINE
  5
59A
100
AcDbEntity
  8
ASSI
100
AcDbLine
 62
7
  6
CONTINUOUS
 10
133.4743928502
 20
117.1232142677
 11
129.6227400506
 21
119.3471103216
  0
LINE
  5
59B
100
AcDbEntity
  8
RACCORDO
100
AcDbLine
 62
7
  6
CONTINUOUS
 10
138.6988780709
 20
115.0215549156
 11
134.7752745939
 21
117.2869943889
  0
LINE
  5
59C
100
AcDbEntity
  8
RACCORDO
100
AcDbLine
 62
7
  6
CONTINUOUS
 10
127.2075106397
 20
121.6565264497
 11
123.2839071627
 21
123.921965923
  0
LINE
  5
59D
100
AcDbEntity
  8
ASSI
100
AcDbLine
 62
250
  6
CONTINUOUS
 10
131.515171938
 20
119.8509806636
 11
135.3954828039
 21
117.6105378014
  0
LINE
  5
59E
100
AcDbEntity
  8
ASSI
100
AcDbLine
 62
250
  6
CONTINUOUS
 10
138.6790864617
 20
115.7238363117
 11
137.1518825959
 21
116.6056246834
  0
LINE
  5
59F
100
AcDbEntity
  8
ASSI
100
AcDbLine
 62
250
  6
CONTINUOUS
 10
129.5027436795
 20
121.0221416276
 11
127.9755398137
 21
121.9039299993
  0
LINE
  5
5A0
100
AcDbEntity
  8
ASSI
100
AcDbLine
 62
7
  6
CONTINUOUS
 10
138.7766231507
 20
115.7323443429
 11
137.249419285
 21
116.6141327146
  0
LINE
  5
5A1
100
AcDbEntity
  8
ASSI
100
AcDbLine
 62
7
  6
CONTINUOUS
 10
129.6002803685
 20
121.0306496587
 11
128.0730765027
 21
121.9124380305
  0
LINE
  5
5A2
100
AcDbEntity
  8
ASSI
100
AcDbLine
 62
250
  6
CONTINUOUS
 10
131.6543111229
 20
119.9937209376
 11
135.5012925933
 21
117.7725220506
  0
LINE
  5
5A3
100
AcDbEntity
  8
DRAFT
100
AcDbLine
 62
7
  6
CONTINUOUS
 10
137.7536759318
 20
116.9688684205
 11
137.6306599542
 21
117.0398963042
  0
LWPOLYLINE
  5
5A4
100
AcDbEntity
  8
RACCORDO
100
AcDbPolyline
 62
250
  6
CONTINUOUS
 90
30
 70
0
 10
137.7674521428
 20
114.4783830469
 10
137.7722988187
 20
114.4754679485
 10
137.7773214197
 20
114.4723083229
 10
137.7825326479
 20
114.4688760991
 10
137.7879039151
 20
114.4651737468
 10
137.7933666134
 20
114.4612425505
 10
137.7988592713
 20
114.4571190118
 10
137.8044259666
 20
114.4527645796
 10
137.8101539293
 20
114.448106684
 10
137.8160257011
 20
114.4431332175
 10
137.8220288786
 20
114.4378364887
 10
137.8282488659
 20
114.4321333813
 10
137.8346766071
 20
114.4259903963
 10
137.8412684638
 20
114.4194113072
 10
137.8480465922
 20
114.4123593899
 10
137.8549895328
 20
114.4048073922
 10
137.8620392273
 20
114.3967649245
 10
137.8691556004
 20
114.3882543472
 10
137.8762873439
 20
114.379291407
 10
137.8833861549
 20
114.3698771616
 10
137.8904106201
 20
114.3600214838
 10
137.8972921944
 20
114.3497638522
 10
137.9039751802
 20
114.3391229504
 10
137.9104230588
 20
114.3280880543
 10
137.9165567018
 20
114.3167210105
 10
137.9222943474
 20
114.3050751943
 10
137.9275695644
 20
114.2931455853
 10
137.9322853626
 20
114.2809995829
 10
137.9363305972
 20
114.2687756969
 10
137.939601859
 20
114.2566024119
  0
LWPOLYLINE
  5
5A5
100
AcDbEntity
  8
ASSI
100
AcDbPolyline
 62
250
  6
CONTINUOUS
 90
16
 70
0
 10
129.5027436795
 20
121.0221416276
 10
129.5174456197
 20
121.0130680472
 10
129.5320425341
 20
121.002302193
 10
129.546375676
 20
120.9899334085
 10
129.5602939597
 20
120.9760617159
 10
129.5736282379
 20
120.9608240846
 10
129.5861979233
 20
120.9444014994
 10
129.5978664658
 20
120.926948592
 10
129.6084827548
 20
120.9086655792
 10
129.6178765322
 20
120.8898392761
 10
129.6259329532
 20
120.8707230993
 10
129.6325906549
 20
120.8514896046
 10
129.6377907964
 20
120.8323166216
 10
129.6414765558
 20
120.8134045474
 10
129.6436023824
 20
120.794974245
 10
129.6441434965
 20
120.7772299604
  0
LWPOLYLINE
  5
5A6
100
AcDbEntity
  8
RACCORDO
100
AcDbPolyline
 62
250
  6
CONTINUOUS
 90
25
 70
0
 10
126.2381374006
 20
121.1352288918
 10
126.2453076068
 20
121.1307624855
 10
126.2525673549
 20
121.1257922739
 10
126.2598952366
 20
121.1203116617
 10
126.2672354796
 20
121.1143439056
 10
126.2745966295
 20
121.1078631377
 10
126.2820469815
 20
121.1007761911
 10
126.2895937072
 20
121.0930268742
 10
126.2971553494
 20
121.0846468546
 10
126.3046600021
 20
121.0756698695
 10
126.3120643852
 20
121.0661041892
 10
126.3193234533
 20
121.0559617551
 10
126.3263642316
 20
121.0452987996
 10
126.3331375155
 20
121.0341474373
 10
126.3395977108
 20
121.022536949
 10
126.3456813783
 20
121.010533277
 10
126.3513136324
 20
120.9982470427
 10
126.3564808777
 20
120.9856662531
 10
126.361192311
 20
120.9726785962
 10
126.3653701638
 20
120.9593713012
 10
126.368952214
 20
120.9457909714
 10
126.3719083158
 20
120.9317814582
 10
126.3741326672
 20
120.9173726622
 10
126.3754883116
 20
120.9027755758
 10
126.375856544
 20
120.8881423027
  0
LWPOLYLINE
  5
5A7
100
AcDbEntity
  8
ASSI
100
AcDbPolyline
 62
250
  6
CONTINUOUS
 90
3
 70
0
 10
133.1044116133
 20
120.6359696246
 10
133.1253709522
 20
120.6175164217
 10
133.1495706754
 20
120.5995167997
  0
LWPOLYLINE
  5
5A8
100
AcDbEntity
  8
ASSI
100
AcDbPolyline
 62
250
  6
CONTINUOUS
 90
7
 70
0
 10
138.3601074599
 20
118.6146603451
 10
138.3548363067
 20
118.6205978706
 10
138.3493827575
 20
118.6257677609
 10
138.3438785413
 20
118.6300949336
 10
138.338408866
 20
118.6335874488
 10
138.3330206238
 20
118.6363315202
 10
138.327769433
 20
118.6383749981
  0
LWPOLYLINE
  5
5A9
100
AcDbEntity
  8
RACCORDO
100
AcDbPolyline
 62
250
  6
CONTINUOUS
 90
7
 70
0
 10
137.5606707508
 20
122.2537287592
 10
137.5493484667
 20
122.2703704364
 10
137.5371997989
 20
122.286116384
 10
137.5243491326
 20
122.3008053804
 10
137.5109280498
 20
122.3142870177
 10
137.4970739677
 20
122.3264232588
 10
137.4829287301
 20
122.3370898482
  0
LWPOLYLINE
  5
5AA
100
AcDbEntity
  8
RACCORDO
100
AcDbPolyline
 62
7
  6
CONTINUOUS
 90
12
 70
0
 10
142.9051769146
 20
116.1681903248
 10
142.8541712759
 20
116.2447489317
 10
142.8002912276
 20
116.3189418445
 10
142.7437738806
 20
116.3903842989
 10
142.6848512981
 20
116.4587120217
 10
142.6237363552
 20
116.523638099
 10
142.5606312022
 20
116.5848824693
 10
142.4957687493
 20
116.6421447446
 10
142.4293890224
 20
116.6951365326
 10
142.3617191336
 20
116.7435780464
 10
142.2930152451
 20
116.7871993043
 10
142.2780264457
 20
116.7959839503
  0
LWPOLYLINE
  5
5AB
100
AcDbEntity
  8
RACCORDO
100
AcDbPolyline
 62
250
  6
CONTINUOUS
 90
11
 70
0
 10
142.856725881
 20
116.1304423618
 10
142.8025811115
 20
116.2127369752
 10
142.7469594793
 20
116.2901689748
 10
142.6903455546
 20
116.3626039249
 10
142.6331317099
 20
116.4300446261
 10
142.5757831853
 20
116.4923963306
 10
142.5188560253
 20
116.5494972256
 10
142.4627037565
 20
116.6014631784
 10
142.4076310165
 20
116.6484555905
 10
142.3540838406
 20
116.6905094204
 10
142.3023564115
 20
116.7278312652
  0
LWPOLYLINE
  5
5AC
100
AcDbEntity
  8
ASSI
100
AcDbPolyline
 62
7
  6
CONTINUOUS
 90
10
 70
0
 10
140.8229185771
 20
120.0661982416
 10
140.8346216134
 20
120.0477236657
 10
140.8449282713
 20
120.0288333443
 10
140.8538303958
 20
120.009607225
 10
140.8613112105
 20
119.990173781
 10
140.8674008
 20
119.970568708
 10
140.8721422386
 20
119.9507315905
 10
140.875533722
 20
119.9306962243
 10
140.8775620714
 20
119.91059317
 10
140.8782351329
 20
119.8905062255
  0
LWPOLYLINE
  5
5AD
100
AcDbEntity
  8
ASSI
100
AcDbPolyline
 62
250
  6
CONTINUOUS
 90
13
 70
0
 10
142.0382541232
 20
115.6686875098
 10
141.993623224
 20
115.7392355929
 10
141.9467611142
 20
115.8077622793
 10
141.8978329796
 20
115.8740205517
 10
141.8470087263
 20
115.9377700813
 10
141.7944704821
 20
115.9987824966
 10
141.7404119422
 20
116.0568421884
 10
141.6850253865
 20
116.1117388745
 10
141.6285055361
 20
116.163275533
 10
141.5710567654
 20
116.2112728554
 10
141.5128837999
 20
116.2555591374
 10
141.4541911879
 20
116.2959715614
 10
141.3951869548
 20
116.3323634839
  0
LINE
  5
5AE
100
AcDbEntity
  8
RACCORDO
100
AcDbLine
 62
250
  6
CONTINUOUS
 10
142.9118396864
 20
116.042729387
 11
142.8567258767
 21
116.1304423594
  0
LINE
  5
5AF
100
AcDbEntity
  8
RACCORDO
100
AcDbLine
 62
7
  6
CONTINUOUS
 10
142.9669544009
 20
116.0699640558
 11
142.9051769146
 21
116.1681903248
  0
LWPOLYLINE
  5
5B0
100
AcDbEntity
  8
ASSI
100
AcDbPolyline
 62
250
  6
CONTINUOUS
 90
16
 70
0
 10
140.6575035543
 20
120.1170742584
 10
140.6473747803
 20
120.1338592562
 10
140.6395279374
 20
120.1508675642
 10
140.6339630257
 20
120.1680991825
 10
140.6306628253
 20
120.1856592577
 10
140.629644556
 20
120.2034426432
 10
140.6309598773
 20
120.2211338986
 10
140.6346698091
 20
120.2387479542
 10
140.6407133315
 20
120.2562698798
 10
140.6489590452
 20
120.2733394444
 10
140.6594537126
 20
120.2899286714
 10
140.6721505712
 20
120.3060655374
 10
140.6867779343
 20
120.3214737415
 10
140.7032452397
 20
120.3360611833
 10
140.7216430495
 20
120.3499199632
 10
140.7419713638
 20
120.3630500812
  0
LWPOLYLINE
  5
5B1
100
AcDbEntity
  8
RACCORDO
100
AcDbPolyline
 62
250
  6
CONTINUOUS
 90
13
 70
0
 10
143.1995397591
 20
116.8893079863
 10
143.2051135059
 20
116.8779400901
 10
143.2102968276
 20
116.8665048832
 10
143.2150872734
 20
116.8550159617
 10
143.2194875083
 20
116.8434688714
 10
143.2234664623
 20
116.8319504727
 10
143.2270360974
 20
116.8204329121
 10
143.2302389508
 20
116.8087405551
 10
143.2330395932
 20
116.7969175751
 10
143.2354084401
 20
116.7849906449
 10
143.2373448766
 20
116.772771437
 10
143.2387922969
 20
116.7602408517
 10
143.2396709797
 20
116.7475412891
  0
LWPOLYLINE
  5
5B2
100
AcDbEntity
  8
RACCORDO
100
AcDbPolyline
 62
250
  6
CONTINUOUS
 90
7
 70
0
 10
142.5611091905
 20
118.0386937125
 10
142.5717838775
 20
118.0167243449
 10
142.5808487883
 20
117.9949127189
 10
142.5883989423
 20
117.9732258861
 10
142.5947036112
 20
117.9506984747
 10
142.5995659443
 20
117.9271925974
 10
142.6025927347
 20
117.9034078016
  0
LINE
  5
5B3
100
AcDbEntity
  8
RACCORDO
100
AcDbLine
 62
250
  6
CONTINUOUS
 10
132.3939172777
 20
122.2110060394
 11
132.4373555602
 21
122.2230802927
  0
LWPOLYLINE
  5
5B4
100
AcDbEntity
  8
RACCORDO
100
AcDbPolyline
 62
7
  6
CONTINUOUS
 90
9
 70
0
 10
137.6983638139
 20
121.1620387406
 10
137.6976004537
 20
121.1619025924
 10
137.6951981253
 20
121.1609175924
 10
137.6912335161
 20
121.1590197013
 10
137.68587354
 20
121.1561878832
 10
137.6792386199
 20
121.1525283175
 10
137.671453507
 20
121.1481550275
 10
137.6626286953
 20
121.1431357065
 10
137.6528691806
 20
121.1375694436
  0
LWPOLYLINE
  5
5B5
100
AcDbEntity
  8
ASSI
100
AcDbPolyline
 62
250
  6
CONTINUOUS
 90
3
 70
0
 10
132.4263589308
 20
121.0806481954
 10
132.4343230637
 20
121.0816532683
 10
132.4419047031
 20
121.0823700765
  0
LWPOLYLINE
  5
5B6
100
AcDbEntity
  8
ASSI
100
AcDbPolyline
 62
250
  6
CONTINUOUS
 90
7
 70
0
 10
134.3931881036
 20
121.1871436575
 10
134.4362539993
 20
121.1908604434
 10
134.4810599215
 20
121.1973748723
 10
134.5275448246
 20
121.2068026083
 10
134.5755105905
 20
121.2192300504
 10
134.6250004658
 20
121.2347695165
 10
134.676311321
 20
121.2536284065
  0
LWPOLYLINE
  5
5B7
100
AcDbEntity
  8
ASSI
100
AcDbPolyline
 62
250
  6
CONTINUOUS
 90
9
 70
0
 10
137.7891744318
 20
119.2263437133
 10
137.8237736892
 20
119.2291740633
 10
137.8583726145
 20
119.2337019225
 10
137.8928976389
 20
119.239826754
 10
137.9268853515
 20
119.2473530492
 10
137.9606584766
 20
119.2562401146
 10
137.9953645767
 20
119.2667824062
 10
138.0311023745
 20
119.2790959113
 10
138.0677164747
 20
119.2931983902
  0
LWPOLYLINE
  5
5B8
100
AcDbEntity
  8
ASSI
100
AcDbPolyline
 62
7
  6
CONTINUOUS
 90
7
 70
0
 10
132.3784072831
 20
121.1000247148
 10
132.361916545
 20
121.0987275617
 10
132.3250898015
 20
121.0929789497
 10
132.2868704685
 20
121.0829303104
 10
132.2490352274
 20
121.0689255304
 10
132.2121538499
 20
121.0513612353
 10
132.2023820044
 20
121.0460504265
  0
LINE
  5
5B9
100
AcDbEntity
  8
ASSI
100
AcDbLine
 62
250
  6
CONTINUOUS
 10
132.4419047031
 20
121.0823700765
 11
132.4491084317
 21
121.0828274263
  0
LWPOLYLINE
  5
5BA
100
AcDbEntity
  8
ASSI
100
AcDbPolyline
 62
250
  6
CONTINUOUS
 90
16
 70
0
 10
136.2646962715
 20
118.6798224314
 10
136.2575456283
 20
118.6794111011
 10
136.2505425902
 20
118.678717759
 10
136.2436871574
 20
118.6777424051
 10
136.236971078
 20
118.6764574014
 10
136.2304026038
 20
118.6748903859
 10
136.2240064902
 20
118.6731242729
 10
136.2177849489
 20
118.671162098
 10
136.2117357682
 20
118.6690008255
 10
136.2058770689
 20
118.666714263
 10
136.2002105888
 20
118.6643050204
 10
136.1947345901
 20
118.6617704878
 10
136.1894619802
 20
118.6591766437
 10
136.1843970618
 20
118.6565454806
 10
136.1795355322
 20
118.653855006
 10
136.1748773916
 20
118.6511052197
  0
LWPOLYLINE
  5
5BB
100
AcDbEntity
  8
ASSI
100
AcDbPolyline
 62
250
  6
CONTINUOUS
 90
16
 70
0
 10
136.1811336282
 20
118.9280028511
 10
136.1693558512
 20
118.9273421326
 10
136.1577564687
 20
118.926122797
 10
136.1463635434
 20
118.9243946199
 10
136.1352082574
 20
118.9222061763
 10
136.1243079813
 20
118.9196054289
 10
136.1136660235
 20
118.9166379202
 10
136.1032979035
 20
118.9133461746
 10
136.0932223353
 20
118.9097725679
 10
136.0834439609
 20
118.9059582428
 10
136.0739731077
 20
118.9019407238
 10
136.0648225093
 20
118.8977573334
 10
136.0559978687
 20
118.8934461294
 10
136.0475057962
 20
118.8890416699
 10
136.0393539162
 20
118.8845749133
 10
136.0315475005
 20
118.8800761611
  0
LINE
  5
5BC
100
AcDbEntity
  8
ASSI
100
AcDbLine
 62
250
  6
CONTINUOUS
 10
136.2830716996
 20
119.1444135375
 11
137.7891744318
 21
119.2263437133
  0
LINE
  5
5BD
100
AcDbEntity
  8
ASSI
100
AcDbLine
 62
7
  6
CONTINUOUS
 10
136.2120078086
 20
119.1615904101
 11
137.7185434867
 21
119.2435449118
  0
LINE
  5
5BE
100
AcDbEntity
  8
ASSI
100
AcDbLine
 62
7
  6
CONTINUOUS
 10
137.7185434867
 20
119.2435449118
 11
137.7186837473
 21
119.2435524606
  0
LINE
  5
5BF
100
AcDbEntity
  8
ASSI
100
AcDbLine
 62
250
  6
CONTINUOUS
 10
132.4491084317
 20
121.0828274263
 11
134.393225255
 21
121.1871222067
  0
LINE
  5
5C0
100
AcDbEntity
  8
ASSI
100
AcDbLine
 62
7
  6
CONTINUOUS
 10
132.3784072829
 20
121.1000247148
 11
134.3227391595
 21
121.2043312322
  0
LINE
  5
5C1
100
AcDbEntity
  8
ASSI
100
AcDbLine
 62
7
  6
CONTINUOUS
 10
134.3227391595
 20
121.2043312322
 11
134.3228795669
 21
121.204338683
  0
LWPOLYLINE
  5
5C2
100
AcDbEntity
  8
ASSI
100
AcDbPolyline
 62
250
  6
CONTINUOUS
 90
16
 70
0
 10
133.2403965469
 20
120.9012160369
 10
133.2032141873
 20
120.8993412848
 10
133.169508147
 20
120.8961541615
 10
133.1392784261
 20
120.8916546671
 10
133.1126062827
 20
120.8858028986
 10
133.0894104587
 20
120.878638759
 10
133.0694471794
 20
120.8702819573
 10
133.0525848296
 20
120.8608168312
 10
133.0389550245
 20
120.850159043
 10
133.0287088351
 20
120.8381752893
 10
133.0217131499
 20
120.8247675345
 10
133.0181010804
 20
120.8100338142
 10
133.0184230321
 20
120.7941349316
 10
133.0228624737
 20
120.7771244879
 10
133.0312359366
 20
120.7589488819
 10
133.0435434208
 20
120.7396081136
  0
LWPOLYLINE
  5
5C3
100
AcDbEntity
  8
ASSI
100
AcDbPolyline
 62
250
  6
CONTINUOUS
 90
10
 70
0
 10
136.0314778625
 20
120.6068527848
 10
136.0167938127
 20
120.6061329271
 10
136.0015777936
 20
120.604457604
 10
135.985843238
 20
120.6017723836
 10
135.9696869383
 20
120.5980495076
 10
135.9530533736
 20
120.5932225513
 10
135.9357255505
 20
120.5871353908
 10
135.9176473843
 20
120.5796531197
 10
135.8989338639
 20
120.5707146802
 10
135.8796293177
 20
120.560232386
  0
LWPOLYLINE
  5
5C4
100
AcDbEntity
  8
ASSI
100
AcDbPolyline
 62
250
  6
CONTINUOUS
 90
10
 70
0
 10
135.9500175671
 20
120.8623531814
 10
135.9296050124
 20
120.8613613836
 10
135.9084767453
 20
120.8588935941
 10
135.8866327656
 20
120.854949813
 10
135.8641522273
 20
120.8496695957
 10
135.8409559764
 20
120.8429133868
 10
135.8168065518
 20
120.8342625198
 10
135.7916247998
 20
120.8235774393
 10
135.765489874
 20
120.8109977008
 10
135.7384017745
 20
120.7965233043
  0
LWPOLYLINE
  5
5C5
100
AcDbEntity
  8
ASSI
100
AcDbPolyline
 62
7
  6
CONTINUOUS
 90
17
 70
0
 10
136.2120078085
 20
119.1615904101
 10
136.1950654449
 20
119.1609133469
 10
136.1640314415
 20
119.1607127296
 10
136.1298476259
 20
119.1617658717
 10
136.0929423393
 20
119.1641431764
 10
136.0538738021
 20
119.1678558965
 10
136.0129171713
 20
119.1729001818
 10
135.9702815546
 20
119.179276961
 10
135.9263106708
 20
119.1869592309
 10
135.8812888662
 20
119.1959100752
 10
135.8354643361
 20
119.2060947952
 10
135.7890987245
 20
119.2174711674
 10
135.742490655
 20
119.2299763473
 10
135.6959229804
 20
119.2435442384
 10
135.6496719932
 20
119.2581077676
 10
135.6040988837
 20
119.2735602413
 10
135.5941734349
 20
119.277076022
  0
LINE
  5
5C6
100
AcDbEntity
  8
ASSI
100
AcDbLine
 62
250
  6
CONTINUOUS
 10
136.2407953294
 20
119.1433467047
 11
136.2830716996
 21
119.1444135375
  0
LINE
  5
5C7
100
AcDbEntity
  8
ASSI
100
AcDbLine
 62
250
  6
CONTINUOUS
 10
137.9826305939
 20
118.7226677168
 11
136.2646962715
 21
118.6798224314
  0
LINE
  5
5C8
100
AcDbEntity
  8
ASSI
100
AcDbLine
 62
250
  6
CONTINUOUS
 10
138.2179052045
 20
118.9787999383
 11
136.1811336282
 21
118.9280028511
  0
LINE
  5
5C9
100
AcDbEntity
  8
ASSI
100
AcDbLine
 62
250
  6
CONTINUOUS
 10
137.046121922
 20
120.6314640476
 11
136.0314778625
 21
120.6068527848
  0
LINE
  5
5CA
100
AcDbEntity
  8
ASSI
100
AcDbLine
 62
250
  6
CONTINUOUS
 10
134.9034163232
 20
120.6840780351
 11
133.3218568424
 21
120.6457156403
  0
LINE
  5
5CB
100
AcDbEntity
  8
ASSI
100
AcDbLine
 62
250
  6
CONTINUOUS
 10
137.2299826952
 20
120.8934000869
 11
135.9500175671
 21
120.8623531814
  0
LINE
  5
5CC
100
AcDbEntity
  8
ASSI
100
AcDbLine
 62
250
  6
CONTINUOUS
 10
134.8219560278
 20
120.9395784318
 11
133.2403965469
 21
120.9012160369
  0
LWPOLYLINE
  5
5CD
100
AcDbEntity
  8
ASSI
100
AcDbPolyline
 62
250
  6
CONTINUOUS
 90
5
 70
0
 10
136.2124407548
 20
119.161614736
 10
136.225181672
 20
119.1616402576
 10
136.2449304623
 20
119.1590395577
 10
136.2643312137
 20
119.1532663472
 10
136.2830716996
 20
119.1444135375
  0
LWPOLYLINE
  5
5CE
100
AcDbEntity
  8
ASSI
100
AcDbPolyline
 62
250
  6
CONTINUOUS
 90
5
 70
0
 10
137.7186837473
 20
119.2435524606
 10
137.7312856499
 20
119.2435703708
 10
137.7510340821
 20
119.2409695436
 10
137.77043441
 20
119.2351963449
 10
137.7891744318
 20
119.2263437133
  0
LWPOLYLINE
  5
5CF
100
AcDbEntity
  8
RACCORDO
100
AcDbPolyline
 62
7
  6
CONTINUOUS
 90
9
 70
0
 10
141.0958012788
 20
119.0029515109
 10
141.094963155
 20
119.0029530765
 10
141.0924901309
 20
119.0021723196
 10
141.0885357306
 20
119.0004866132
 10
141.083257212
 20
118.9978829027
 10
141.0767647861
 20
118.9944554982
 10
141.0691748927
 20
118.9903056608
 10
141.0605951753
 20
118.9854989678
 10
141.0511264721
 20
118.9801278153
  0
LWPOLYLINE
  5
5D0
100
AcDbEntity
  8
ASSI
100
AcDbPolyline
 62
250
  6
CONTINUOUS
 90
5
 70
0
 10
132.3786273175
 20
121.1000367191
 10
132.3927885594
 20
121.0999706975
 10
132.4120042748
 20
121.0972360025
 10
132.4308736791
 20
121.0914923227
 10
132.4491084317
 20
121.0828274263
  0
LWPOLYLINE
  5
5D1
100
AcDbEntity
  8
ASSI
100
AcDbPolyline
 62
250
  6
CONTINUOUS
 90
5
 70
0
 10
133.228404735
 20
120.658988715
 10
133.2113475583
 20
120.6594459119
 10
133.1965619264
 20
120.6587378905
 10
133.1841125315
 20
120.6570011461
 10
133.174002814
 20
120.6542887202
  0
LWPOLYLINE
  5
5D2
100
AcDbEntity
  8
ASSI
100
AcDbPolyline
 62
250
  6
CONTINUOUS
 90
3
 70
0
 10
136.1521407553
 20
119.1461358587
 10
136.1971516813
 20
119.1439208118
 10
136.2407953294
 20
119.1433467047
  0
LWPOLYLINE
  5
5D3
100
AcDbEntity
  8
ASSI
100
AcDbPolyline
 62
7
  6
CONTINUOUS
 90
10
 70
0
 10
140.3084225765
 20
118.4846503296
 10
140.2869088435
 20
118.4858964015
 10
140.265778242
 20
118.4859073004
 10
140.2450307721
 20
118.4846830263
 10
140.224429166
 20
118.4821740877
 10
140.2042106915
 20
118.4784299762
 10
140.1850871517
 20
118.4735991664
 10
140.1672958142
 20
118.46773115
 10
140.1505994115
 20
118.4607764354
 10
140.1349979435
 20
118.4527350226
  0
LWPOLYLINE
  5
5D4
100
AcDbEntity
  8
ASSI
100
AcDbPolyline
 62
250
  6
CONTINUOUS
 90
24
 70
0
 10
140.3061812497
 20
119.8856868672
 10
140.3340266495
 20
119.8824867247
 10
140.3620273294
 20
119.8808370207
 10
140.3904396454
 20
119.8807497468
 10
140.4190072414
 20
119.8822129114
 10
140.4469610497
 20
119.8851905388
 10
140.4742794906
 20
119.889721952
 10
140.5009841437
 20
119.895767828
 10
140.5263706802
 20
119.9031742228
 10
140.5504120648
 20
119.911980227
 10
140.5731353327
 20
119.9221467499
 10
140.5939172601
 20
119.9334025755
 10
140.6127037165
 20
119.9457807247
 10
140.6295488324
 20
119.9592481765
 10
140.6439917757
 20
119.9734346519
 10
140.6559613629
 20
119.9883564887
 10
140.6655287776
 20
120.0039973491
 10
140.6724467385
 20
120.0199379404
 10
140.6766445911
 20
120.0361852763
 10
140.67819299
 20
120.0527323431
 10
140.6770566175
 20
120.069138808
 10
140.6732237011
 20
120.0852578933
 10
140.6667060134
 20
120.1012363768
 10
140.6575035543
 20
120.1170742584
  0
LWPOLYLINE
  5
5D5
100
AcDbEntity
  8
ASSI
100
AcDbPolyline
 62
250
  6
CONTINUOUS
 90
16
 70
0
 10
136.0384819656
 20
118.5695432121
 10
136.0247188931
 20
118.5712060615
 10
136.0095850624
 20
118.5735461487
 10
135.9932405811
 20
118.5765387174
 10
135.9758580365
 20
118.5801521802
 10
135.9576216238
 20
118.5843482583
 10
135.9387253394
 20
118.589082283
 10
135.9193699034
 20
118.5943038864
 10
135.8997593994
 20
118.5999579318
 10
135.8801001332
 20
118.6059849093
 10
135.8605923294
 20
118.6123236506
 10
135.841450275
 20
118.6189047433
 10
135.8228972483
 20
118.6256508009
 10
135.8051334822
 20
118.6324875172
 10
135.788335952
 20
118.639345218
 10
135.7726775874
 20
118.6461518919
  0
LWPOLYLINE
  5
5D6
100
AcDbEntity
  8
ASSI
100
AcDbPolyline
 62
250
  6
CONTINUOUS
 90
13
 70
0
 10
135.7670969715
 20
117.6959133708
 10
135.7496873084
 20
117.6980964876
 10
135.7302003762
 20
117.7013270406
 10
135.7089576429
 20
117.7055517373
 10
135.6863095411
 20
117.7107008852
 10
135.662629689
 20
117.7166895412
 10
135.6383087263
 20
117.7234189123
 10
135.6137478682
 20
117.7307779869
 10
135.5893522884
 20
117.7386453647
 10
135.5655244362
 20
117.7468912593
 10
135.542657394
 20
117.7553796404
 10
135.5211283934
 20
117.7639704778
 10
135.5012925933
 20
117.7725220506
  0
LWPOLYLINE
  5
5D7
100
AcDbEntity
  8
ASSI
100
AcDbPolyline
 62
250
  6
CONTINUOUS
 90
4
 70
0
 10
135.5941437809
 20
119.2770862492
 10
135.5935304692
 20
119.2771726297
 10
135.5906069286
 20
119.2756427945
 10
135.5866986393
 20
119.2712221637
  0
LWPOLYLINE
  5
5D8
100
AcDbEntity
  8
ASSI
100
AcDbPolyline
 62
250
  6
CONTINUOUS
 90
24
 70
0
 10
140.2120104652
 20
119.6182330702
 10
140.2524412273
 20
119.6110984778
 10
140.2937713394
 20
119.6059614646
 10
140.3357053191
 20
119.6028587579
 10
140.3779433666
 20
119.6018125411
 10
140.4201835074
 20
119.6028302951
 10
140.46212375
 20
119.6059047444
 10
140.5034642543
 20
119.6110139104
 10
140.5439094568
 20
119.6181212662
 10
140.5831701831
 20
119.6271759954
 10
140.6209657351
 20
119.6381133573
 10
140.6570259126
 20
119.6508551575
 10
140.6910929259
 20
119.6653103061
 10
140.7229232188
 20
119.6813754597
 10
140.752289223
 20
119.698935763
 10
140.7789809978
 20
119.7178656782
 10
140.802807721
 20
119.7380298804
 10
140.8235990295
 20
119.7592842011
 10
140.8412062565
 20
119.7814766616
 10
140.8555035224
 20
119.8044485879
 10
140.8663886263
 20
119.8280357542
 10
140.8737837551
 20
119.8520695323
 10
140.8776360405
 20
119.8763780643
 10
140.878235137
 20
119.8905062255
  0
LWPOLYLINE
  5
5D9
100
AcDbEntity
  8
ASSI
100
AcDbPolyline
 62
250
  6
CONTINUOUS
 90
27
 70
0
 10
138.3090245479
 20
118.7861740315
 10
138.3015199596
 20
118.7876066704
 10
138.2940543702
 20
118.7888300645
 10
138.2866311547
 20
118.789843967
 10
138.2793028149
 20
118.7906409608
 10
138.2720221355
 20
118.7912281823
 10
138.2646419359
 20
118.7916273128
 10
138.2571285448
 20
118.7918489754
 10
138.249517679
 20
118.7918824897
 10
138.2417654524
 20
118.791717615
 10
138.2338725877
 20
118.7913569708
 10
138.2258380647
 20
118.7907979439
 10
138.2176146908
 20
118.7900224605
 10
138.2091953428
 20
118.789030595
 10
138.2005838986
 20
118.78782238
 10
138.1917486389
 20
118.7863797344
 10
138.1826801855
 20
118.7846993345
 10
138.1733809259
 20
118.7827849612
 10
138.1638355588
 20
118.7806293466
 10
138.1540375916
 20
118.7782280321
 10
138.1439825108
 20
118.7755868037
 10
138.1336571099
 20
118.7727140517
 10
138.1230584249
 20
118.7696068819
 10
138.1121751902
 20
118.7662710722
 10
138.1009818097
 20
118.7627283916
 10
138.0894802318
 20
118.7589803754
 10
138.0776527129
 20
118.7550305038
  0
LWPOLYLINE
  5
5DA
100
AcDbEntity
  8
ASSI
100
AcDbPolyline
 62
250
  6
CONTINUOUS
 90
5
 70
0
 10
133.3218568424
 20
120.6457156403
 10
133.2947177579
 20
120.6510257824
 10
133.2700719708
 20
120.6549065979
 10
133.2479411249
 20
120.657492606
 10
133.228404735
 20
120.658988715
  0
LWPOLYLINE
  5
5DB
100
AcDbEntity
  8
ASSI
100
AcDbPolyline
 62
250
  6
CONTINUOUS
 90
21
 70
0
 10
138.324254117
 20
118.6393810026
 10
138.3207587189
 20
118.6401082883
 10
138.3172875313
 20
118.6405664276
 10
138.3138645862
 20
118.6407733304
 10
138.3104743271
 20
118.6407308171
 10
138.3070517798
 20
118.6404211422
 10
138.3035650189
 20
118.6398602117
 10
138.3000301488
 20
118.6390444302
 10
138.2964396253
 20
118.6379249731
 10
138.2927744832
 20
118.6365186012
 10
138.2890253712
 20
118.6348250687
 10
138.2851859715
 20
118.6327737052
 10
138.281223862
 20
118.6303836186
 10
138.2771229713
 20
118.6276594882
 10
138.2728834637
 20
118.6245158228
 10
138.2684590277
 20
118.620974767
 10
138.2638201432
 20
118.6170504867
 10
138.2589689147
 20
118.6126554138
 10
138.2538425551
 20
118.607817488
 10
138.2483924263
 20
118.6025624688
 10
138.2364165072
 20
118.5905983562
  0
LINE
  5
5DC
100
AcDbEntity
  8
ASSI
100
AcDbLine
 62
250
  6
CONTINUOUS
 10
135.5438274226
 20
119.2829000385
 11
135.5866986391
 21
119.2712221638
  0
LWPOLYLINE
  5
5DD
100
AcDbEntity
  8
ASSI
100
AcDbPolyline
 62
250
  6
CONTINUOUS
 90
3
 70
0
 10
135.4211473152
 20
119.3159197515
 10
135.4610663379
 20
119.3046862102
 10
135.5438274226
 20
119.2829000385
  0
LINE
  5
5DE
100
AcDbEntity
  8
ASSI
100
AcDbLine
 62
250
  6
CONTINUOUS
 10
138.327769433
 20
118.6383749981
 11
138.324254117
 21
118.6393810026
  0
LWPOLYLINE
  5
5DF
100
AcDbEntity
  8
ASSI
100
AcDbPolyline
 62
250
  6
CONTINUOUS
 90
11
 70
0
 10
135.6761759747
 20
119.2412409141
 10
135.7219640994
 20
119.2274231166
 10
135.7685437485
 20
119.2143245848
 10
135.8158230355
 20
119.202007938
 10
135.863526301
 20
119.1906610341
 10
135.911782302
 20
119.1802421988
 10
135.9604622815
 20
119.1707931065
 10
136.0089043096
 20
119.1626266383
 10
136.0572641851
 20
119.1557276491
 10
136.1053861091
 20
119.150111284
 10
136.1521407553
 20
119.1461358587
  0
LINE
  5
5E0
100
AcDbEntity
  8
ASSI
100
AcDbLine
 62
250
  6
CONTINUOUS
 10
135.6310874879
 20
119.2558405965
 11
135.6761759747
 21
119.2412409141
  0
LWPOLYLINE
  5
5E1
100
AcDbEntity
  8
ASSI
100
AcDbPolyline
 62
250
  6
CONTINUOUS
 90
3
 70
0
 10
135.3465238944
 20
119.3402210405
 10
135.3825848651
 20
119.3278064956
 10
135.4211473152
 20
119.3159197515
  0
LINE
  5
5E2
100
AcDbEntity
  8
ASSI
100
AcDbLine
 62
7
  6
CONTINUOUS
 10
135.5941734349
 20
119.277076022
 11
135.5941437809
 21
119.2770862492
  0
LINE
  5
5E3
100
AcDbEntity
  8
ASSI
100
AcDbLine
 62
250
  6
CONTINUOUS
 10
135.5866986391
 20
119.2712221638
 11
135.6310874879
 21
119.2558405965
  0
LINE
  5
5E4
100
AcDbEntity
  8
ASSI
100
AcDbLine
 62
7
  6
CONTINUOUS
 10
135.5941437816
 20
119.2770862489
 11
135.5277268832
 21
119.300380518
  0
LWPOLYLINE
  5
5E5
100
AcDbEntity
  8
ASSI
100
AcDbPolyline
 62
7
  6
CONTINUOUS
 90
8
 70
0
 10
135.5277268832
 20
119.300380518
 10
135.4929975961
 20
119.3126835811
 10
135.4602922354
 20
119.3247791533
 10
135.4297271949
 20
119.3367932916
 10
135.401224872
 20
119.3488895186
 10
135.3751512371
 20
119.3609952926
 10
135.3515781087
 20
119.3730093426
 10
135.3347993304
 20
119.3823238961
  0
LWPOLYLINE
  5
5E6
100
AcDbEntity
  8
ASSI
100
AcDbPolyline
 62
250
  6
CONTINUOUS
 90
8
 70
0
 10
128.0686755556
 20
121.91476465
 10
128.0573909737
 20
121.9190156501
 10
128.0452029372
 20
121.9213404306
 10
128.0322420348
 20
121.9217140697
 10
128.0186471534
 20
121.920132558
 10
128.0045639617
 20
121.9166128415
 10
127.9901433456
 20
121.9111926308
 10
127.9755398137
 20
121.9039299993
  0
LWPOLYLINE
  5
5E7
100
AcDbEntity
  8
RACCORDO
100
AcDbPolyline
 62
250
  6
CONTINUOUS
 90
7
 70
0
 10
141.4588816261
 20
117.2689475835
 10
141.4494531651
 20
117.2731302208
 10
141.4381287167
 20
117.2755366136
 10
141.4258988602
 20
117.2756578098
 10
141.412968239
 20
117.273491795
 10
141.3995531933
 20
117.2690748337
 10
141.3858781751
 20
117.262480852
  0
LWPOLYLINE
  5
5E8
100
AcDbEntity
  8
RACCORDO
100
AcDbPolyline
 62
250
  6
CONTINUOUS
 90
7
 70
0
 10
133.8965560422
 20
121.6353398058
 10
133.88707429
 20
121.63955305
 10
133.8757504875
 20
121.6419591166
 10
133.8635216387
 20
121.642079763
 10
133.850592368
 20
121.6399129688
 10
133.8371790308
 20
121.6354949821
 10
133.8235060812
 20
121.6288997203
  0
LWPOLYLINE
  5
5E9
100
AcDbEntity
  8
RACCORDO
100
AcDbPolyline
 62
250
  6
CONTINUOUS
 90
7
 70
0
 10
133.0776110325
 20
122.1081885429
 10
133.0680296639
 20
122.1124591513
 10
133.0567055946
 20
122.1148653713
 10
133.0444763172
 20
122.1149862649
 10
133.0315464603
 20
122.1128198092
 10
133.0181323752
 20
122.1084022549
 10
133.0044585157
 20
122.1018075195
  0
LWPOLYLINE
  5
5EA
100
AcDbEntity
  8
ASSI
100
AcDbPolyline
 62
250
  6
CONTINUOUS
 90
7
 70
0
 10
135.3347162671
 20
119.3823719356
 10
135.3275152754
 20
119.3859698322
 10
135.314696849
 20
119.3900194911
 10
135.3008279689
 20
119.3916940348
 10
135.2860907708
 20
119.3909714642
 10
135.2706788007
 20
119.387861261
 10
135.2547944648
 20
119.3824042647
  0
LWPOLYLINE
  5
5EB
100
AcDbEntity
  8
ASSI
100
AcDbPolyline
 62
250
  6
CONTINUOUS
 90
7
 70
0
 10
133.2569362937
 20
120.5820560501
 10
133.2497463437
 20
120.5856475565
 10
133.2369278851
 20
120.589697206
 10
133.223058976
 20
120.5913717451
 10
133.2083217575
 20
120.590649182
 10
133.1929097742
 20
120.587539006
 10
133.1770254325
 20
120.5820820634
  0
LWPOLYLINE
  5
5EC
100
AcDbEntity
  8
RACCORDO
100
AcDbPolyline
 62
250
  6
CONTINUOUS
 90
4
 70
0
 10
133.8537110564
 20
121.6121710725
 10
133.8460697418
 20
121.616245247
 10
133.838473813
 20
121.6203926234
 10
133.8309525928
 20
121.6246107812
  0
LWPOLYLINE
  5
5ED
100
AcDbEntity
  8
ASSI
100
AcDbPolyline
 62
250
  6
CONTINUOUS
 90
4
 70
0
 10
135.2547940908
 20
119.3824044806
 10
135.2827880671
 20
119.3673037217
 10
135.3133691577
 20
119.3532773675
 10
135.3465238944
 20
119.3402210405
  0
LWPOLYLINE
  5
5EE
100
AcDbEntity
  8
RACCORDO
100
AcDbPolyline
 62
7
  6
CONTINUOUS
 90
13
 70
0
 10
133.077624543
 20
122.1081807393
 10
133.0227943937
 20
122.1380942624
 10
132.9544032028
 20
122.1705513116
 10
132.886258006
 20
122.197514825
 10
132.8185010084
 20
122.2188980249
 10
132.7514618692
 20
122.234583935
 10
132.6856773098
 20
122.2444813891
 10
132.6213024187
 20
122.2486149651
 10
132.5586089916
 20
122.2470175687
 10
132.4983154379
 20
122.2398185046
 10
132.4408094475
 20
122.2272751321
 10
132.386153904
 20
122.2096389658
 10
132.3611864093
 20
122.1995282994
  0
LINE
  5
5EF
100
AcDbEntity
  8
ASSI
100
AcDbLine
 62
7
  6
CONTINUOUS
 10
138.9322144148
 20
116.6671725115
 11
138.111945258
 21
117.1407856423
  0
LINE
  5
5F0
100
AcDbEntity
  8
ASSI
100
AcDbLine
 62
250
  6
CONTINUOUS
 10
132.0361233936
 20
120.8035914534
 11
135.7726775874
 21
118.6461518919
  0
LINE
  5
5F1
100
AcDbEntity
  8
ASSI
100
AcDbLine
 62
250
  6
CONTINUOUS
 10
132.1585978807
 20
120.9559537149
 11
135.8951520745
 21
118.7985141535
  0
LINE
  5
5F2
100
AcDbEntity
  8
ASSI
100
AcDbLine
 62
250
  6
CONTINUOUS
 10
138.4398729134
 20
117.4868054458
 11
138.5574351755
 21
117.418926469
  0
LINE
  5
5F3
100
AcDbEntity
  8
ASSI
100
AcDbLine
 62
250
  6
CONTINUOUS
 10
136.0315475005
 20
118.8800761611
 11
132.2998583207
 21
121.0347067245
  0
LINE
  5
5F4
100
AcDbEntity
  8
ASSI
100
AcDbLine
 62
250
  6
CONTINUOUS
 10
133.1770254325
 20
120.5820820634
 11
135.2547940908
 21
119.3824044806
  0
LINE
  5
5F5
100
AcDbEntity
  8
ASSI
100
AcDbLine
 62
7
  6
CONTINUOUS
 10
133.2569474493
 20
120.5820496104
 11
135.3347162671
 21
119.3823719356
  0
LINE
  5
5F6
100
AcDbEntity
  8
ASSI
100
AcDbLine
 62
250
  6
CONTINUOUS
 10
136.1811336282
 20
118.9280028511
 11
135.5866986391
 21
119.2712221638
  0
LINE
  5
5F7
100
AcDbEntity
  8
ASSI
100
AcDbLine
 62
250
  6
CONTINUOUS
 10
133.0435434208
 20
120.7396081136
 11
132.4491084317
 21
121.0828274263
  0
LINE
  5
5F8
100
AcDbEntity
  8
ASSI
100
AcDbLine
 62
7
  6
CONTINUOUS
 10
132.1841494903
 20
121.6507010745
 11
133.0733211364
 21
121.13730451
  0
LINE
  5
5F9
100
AcDbEntity
  8
ASSI
100
AcDbLine
 62
7
  6
CONTINUOUS
 10
138.9271244983
 20
117.7573918142
 11
141.3951869548
 21
116.3323634839
  0
LINE
  5
5FA
100
AcDbEntity
  8
ASSI
100
AcDbLine
 62
250
  6
CONTINUOUS
 10
138.2179052045
 20
118.9787999383
 11
137.7891744318
 21
119.2263437133
  0
LINE
  5
5FB
100
AcDbEntity
  8
ASSI
100
AcDbLine
 62
250
  6
CONTINUOUS
 10
134.8219560278
 20
120.9395784318
 11
134.393225255
 21
121.1871222067
  0
LINE
  5
5FC
100
AcDbEntity
  8
RACCORDO
100
AcDbLine
 62
250
  6
CONTINUOUS
 10
133.0044585157
 20
122.1018075195
 11
133.8309525928
 21
121.6246107812
  0
LINE
  5
5FD
100
AcDbEntity
  8
RACCORDO
100
AcDbLine
 62
7
  6
CONTINUOUS
 10
142.278078257
 20
116.7959540764
 11
141.4590348378
 21
117.2688594816
  0
LINE
  5
5FE
100
AcDbEntity
  8
RACCORDO
100
AcDbLine
 62
7
  6
CONTINUOUS
 10
133.0776110325
 20
122.1081885429
 11
133.8966555639
 21
121.6352824955
  0
LINE
  5
5FF
100
AcDbEntity
  8
ASSI
100
AcDbLine
 62
250
  6
CONTINUOUS
 10
138.0181769392
 20
119.3254617917
 11
135.8796293177
 21
120.560232386
  0
LINE
  5
600
100
AcDbEntity
  8
ASSI
100
AcDbLine
 62
250
  6
CONTINUOUS
 10
138.1360699637
 20
119.3916876823
 11
136.0314778625
 21
120.6068527848
  0
LINE
  5
601
100
AcDbEntity
  8
ASSI
100
AcDbLine
 62
250
  6
CONTINUOUS
 10
138.66711161
 20
119.122321326
 11
138.2315263282
 21
119.3738228085
  0
LINE
  5
602
100
AcDbEntity
  8
ASSI
100
AcDbLine
 62
250
  6
CONTINUOUS
 10
135.2761128476
 20
121.0802415122
 11
134.8405275658
 21
121.3317429947
  0
LINE
  5
603
100
AcDbEntity
  8
ASSI
100
AcDbLine
 62
7
  6
CONTINUOUS
 10
138.6693205723
 20
119.6942494904
 11
137.046121922
 21
120.6314640476
  0
LWPOLYLINE
  5
604
100
AcDbEntity
  8
RACCORDO
100
AcDbPolyline
 62
250
  6
CONTINUOUS
 90
52
 70
0
 10
142.2049257405
 20
116.7895730528
 10
141.3784653082
 20
117.2667710248
 10
141.3711722242
 20
117.2711062033
 10
141.3639989232
 20
117.2754863877
 10
141.3569470498
 20
117.279896023
 10
141.3500149594
 20
117.2843506642
 10
141.3431977179
 20
117.2888969761
 10
141.3364940496
 20
117.2935346003
 10
141.3299052302
 20
117.2982638953
 10
141.3234301529
 20
117.303132602
 10
141.3170494891
 20
117.3081547705
 10
141.3107825675
 20
117.3133163506
 10
141.3046862671
 20
117.3186229327
 10
141.2987543619
 20
117.3240850243
 10
141.292993078
 20
117.329692118
 10
141.2874779718
 20
117.335418282
 10
141.2822086218
 20
117.3412771385
 10
141.2771854497
 20
117.3472550653
 10
141.2724852765
 20
117.3532852651
 10
141.2681252767
 20
117.3593616309
 10
141.264088276
 20
117.3654902697
 10
141.2603995721
 20
117.3716227046
 10
141.2570708853
 20
117.3777453458
 10
141.2540904953
 20
117.3838717831
 10
141.2514485393
 20
117.3899943087
 10
141.2491434606
 20
117.3961164918
 10
141.2471768159
 20
117.4022347633
 10
141.2455434117
 20
117.4083307072
 10
141.2442436068
 20
117.4143991892
 10
141.2432770426
 20
117.4204453435
 10
141.2426374497
 20
117.4264661572
 10
141.2423216585
 20
117.4324606949
 10
141.2423328387
 20
117.4384298919
 10
141.2426742298
 20
117.4443735413
 10
141.2433422746
 20
117.4502937815
 10
141.2443405304
 20
117.4561884741
 10
141.2456829089
 20
117.4620509966
 10
141.2473658134
 20
117.4678830544
 10
141.2493928407
 20
117.4736829422
 10
141.2517886924
 20
117.4794389213
 10
141.2545527138
 20
117.4851569053
 10
141.2576855597
 20
117.4908309808
 10
141.2612138961
 20
117.4964316683
 10
141.2651386244
 20
117.5019622375
 10
141.2694588433
 20
117.5074194188
 10
141.2741985145
 20
117.5127639238
 10
141.2793650553
 20
117.518000302
 10
141.2849510484
 20
117.5231240039
 10
141.2909582045
 20
117.5280820921
 10
141.2973870937
 20
117.5328569208
 10
141.3042371458
 20
117.5374661357
 10
141.3115083608
 20
117.5419097369
  0
LWPOLYLINE
  5
605
100
AcDbEntity
  8
RACCORDO
100
AcDbPolyline
 62
7
  6
CONTINUOUS
 90
7
 70
0
 10
141.4588812461
 20
117.2689469251
 10
141.4564004113
 20
117.2703939254
 10
141.4474953772
 20
117.2758357161
 10
141.4403174187
 20
117.2805986129
 10
141.4346929459
 20
117.284684732
 10
141.4305928502
 20
117.2879757587
 10
141.4301370418
 20
117.2883659988
  0
LINE
  5
606
100
AcDbEntity
  8
RACCORDO
100
AcDbLine
 62
250
  6
CONTINUOUS
 10
142.2525843994
 20
116.7607549039
 11
142.2049257405
 21
116.7895730528
  0
LWPOLYLINE
  5
607
100
AcDbEntity
  8
ASSI
100
AcDbPolyline
 62
7
  6
CONTINUOUS
 90
11
 70
0
 10
133.2569362935
 20
120.5820560502
 10
133.2353463242
 20
120.5952178279
 10
133.2173574727
 20
120.6073769398
 10
133.2019327337
 20
120.6188663217
 10
133.1886360585
 20
120.6297587287
 10
133.1773421311
 20
120.639866421
 10
133.1679066639
 20
120.6490434461
 10
133.1599455036
 20
120.6574475556
 10
133.153266032
 20
120.6650746407
 10
133.1479240204
 20
120.6716412292
 10
133.1444970316
 20
120.6761373685
  0
LINE
  5
608
100
AcDbEntity
  8
ASSI
100
AcDbLine
 62
250
  6
CONTINUOUS
 10
133.1495706754
 20
120.5995167997
 11
133.1770254325
 21
120.5820820634
  0
LINE
  5
609
100
AcDbEntity
  8
RACCORDO
100
AcDbLine
 62
250
  6
CONTINUOUS
 10
142.3023564115
 20
116.7278312652
 11
142.2525843994
 21
116.7607549039
  0
LWPOLYLINE
  5
60A
100
AcDbEntity
  8
RACCORDO
100
AcDbPolyline
 62
250
  6
CONTINUOUS
 90
8
 70
0
 10
143.1658551437
 20
117.0273043682
 10
143.1621516774
 20
117.0297999285
 10
143.1535100431
 20
117.0333740814
 10
143.1435311391
 20
117.0348677364
 10
143.1323819392
 20
117.0342558999
 10
143.1202489994
 20
117.0315488087
 10
143.1073353362
 20
117.0267917592
 10
143.0938570299
 20
117.0200643491
  0
LWPOLYLINE
  5
60B
100
AcDbEntity
  8
RACCORDO
100
AcDbPolyline
 62
250
  6
CONTINUOUS
 90
8
 70
0
 10
142.8216043689
 20
117.2961594129
 10
142.8178705463
 20
117.298678588
 10
142.8092289096
 20
117.3022527357
 10
142.7992500053
 20
117.3037463857
 10
142.7881008074
 20
117.3031345454
 10
142.7759678719
 20
117.3004274523
 10
142.7630542154
 20
117.2956704036
 10
142.7495759181
 20
117.2889429973
  0
LWPOLYLINE
  5
60C
100
AcDbEntity
  8
ASSI
100
AcDbPolyline
 62
250
  6
CONTINUOUS
 90
10
 70
0
 10
138.4122394063
 20
118.7410337289
 10
138.4020187997
 20
118.7486699746
 10
138.3912673796
 20
118.7556914405
 10
138.380061737
 20
118.7620521157
 10
138.3683690957
 20
118.7676757867
 10
138.3563512519
 20
118.7725879296
 10
138.3443519834
 20
118.7768993649
 10
138.3324994288
 20
118.7806311367
 10
138.3207182196
 20
118.7837272655
 10
138.3090251653
 20
118.7861778312
  0
LINE
  5
60D
100
AcDbEntity
  8
RACCORDO
100
AcDbLine
 62
250
  6
CONTINUOUS
 10
142.7495759181
 20
117.2889429973
 11
143.0938570299
 21
117.0200643491
  0
LINE
  5
60E
100
AcDbEntity
  8
RACCORDO
100
AcDbLine
 62
7
  6
CONTINUOUS
 10
142.8216043689
 20
117.2961594129
 11
143.1659177647
 21
117.0272555837
  0
LWPOLYLINE
  5
60F
100
AcDbEntity
  8
RACCORDO
100
AcDbPolyline
 62
250
  6
CONTINUOUS
 90
6
 70
0
 10
143.0938570299
 20
117.0200643491
 10
143.1022169267
 20
117.0133943775
 10
143.1105604104
 20
117.0062501871
 10
143.1188649287
 20
116.9986370455
 10
143.1271077399
 20
116.9905610824
 10
143.1352639782
 20
116.9820321001
  0
LWPOLYLINE
  5
610
100
AcDbEntity
  8
RACCORDO
100
AcDbPolyline
 62
7
  6
CONTINUOUS
 90
18
 70
0
 10
142.8216043689
 20
117.2961594129
 10
142.8138349158
 20
117.3024174554
 10
142.7972653846
 20
117.3170286819
 10
142.7802563172
 20
117.3338742327
 10
142.7631675331
 20
117.3528129679
 10
142.7464409355
 20
117.3735138976
 10
142.7303280167
 20
117.3957796817
 10
142.7150651928
 20
117.4193853373
 10
142.7009942141
 20
117.4438564443
 10
142.6882930284
 20
117.4688771019
 10
142.6771038441
 20
117.4941323574
 10
142.6676109288
 20
117.519091382
 10
142.6598552202
 20
117.5434281476
 10
142.6538399056
 20
117.5668294452
 10
142.6495665882
 20
117.5887753725
 10
142.6469105701
 20
117.609058888
 10
142.645724108
 20
117.627386372
 10
142.645617443
 20
117.6344545235
  0
LWPOLYLINE
  5
611
100
AcDbEntity
  8
RACCORDO
100
AcDbPolyline
 62
250
  6
CONTINUOUS
 90
4
 70
0
 10
142.4656330688
 20
118.1589121687
 10
142.4843707874
 20
118.1422103197
 10
142.5024908116
 20
118.1234766077
 10
142.5196272311
 20
118.1030772619
  0
LWPOLYLINE
  5
612
100
AcDbEntity
  8
RACCORDO
100
AcDbPolyline
 62
250
  6
CONTINUOUS
 90
6
 70
0
 10
143.1352639782
 20
116.9820321001
 10
143.1433068873
 20
116.9730640098
 10
143.1512297738
 20
116.9636471448
 10
143.1589868234
 20
116.9538179719
 10
143.166497426
 20
116.943670079
 10
143.1737280891
 20
116.9332484818
  0
LWPOLYLINE
  5
613
100
AcDbEntity
  8
RACCORDO
100
AcDbPolyline
 62
250
  6
CONTINUOUS
 90
4
 70
0
 10
142.5196272311
 20
118.1030772619
 10
142.5352127832
 20
118.0818105317
 10
142.5489778378
 20
118.0603429236
 10
142.5611091905
 20
118.0386937125
  0
LWPOLYLINE
  5
614
100
AcDbEntity
  8
RACCORDO
100
AcDbPolyline
 62
250
  6
CONTINUOUS
 90
8
 70
0
 10
140.9086082227
 20
120.3273948092
 10
140.9000878974
 20
120.3391124158
 10
140.890889255
 20
120.3506475999
 10
140.8810574397
 20
120.3618601352
 10
140.8705948676
 20
120.3726651273
 10
140.8593493269
 20
120.3831039957
 10
140.8472954371
 20
120.393044814
 10
140.8345570186
 20
120.4022274375
  0
LWPOLYLINE
  5
615
100
AcDbEntity
  8
ASSI
100
AcDbPolyline
 62
250
  6
CONTINUOUS
 90
12
 70
0
 10
140.8229185771
 20
120.0661982416
 10
140.8187396079
 20
120.0719575654
 10
140.8081258348
 20
120.0838876197
 10
140.7958618146
 20
120.0943921874
 10
140.7820819165
 20
120.1033561757
 10
140.766937116
 20
120.1106813732
 10
140.7505933432
 20
120.1162875233
 10
140.7332296631
 20
120.1201132044
 10
140.7150363125
 20
120.1221165017
 10
140.6962126201
 20
120.1222754656
 10
140.6769648227
 20
120.1205883534
 10
140.657503803
 20
120.1170736487
  0
LINE
  5
616
100
AcDbEntity
  8
ASSI
100
AcDbLine
 62
7
  6
CONTINUOUS
 10
140.8229566255
 20
120.0661422213
 11
140.8229185771
 21
120.0661982416
  0
LWPOLYLINE
  5
617
100
AcDbEntity
  8
RACCORDO
100
AcDbPolyline
 62
250
  6
CONTINUOUS
 90
5
 70
0
 10
143.1737280891
 20
116.9332484818
 10
143.1806729684
 20
116.9225609623
 10
143.1873010249
 20
116.911655116
 10
143.1935948404
 20
116.9005615718
 10
143.1995397591
 20
116.8893079863
  0
LINE
  5
618
100
AcDbEntity
  8
0
100
AcDbLine
 62
250
  6
CONTINUOUS
 10
136.4362246109
 20
70.9919815183
 11
138.840277888
 21
72.2383770651
  0
LINE
  5
619
100
AcDbEntity
  8
0
100
AcDbLine
 62
7
  6
CONTINUOUS
 10
136.3221839905
 20
70.7575039255
 11
138.7301620006
 21
72.0059342731
  0
LWPOLYLINE
  5
61A
100
AcDbEntity
  8
0
100
AcDbPolyline
 62
250
  6
CONTINUOUS
 90
16
 70
0
 10
136.4362246109
 20
70.9919815183
 10
136.396997638
 20
70.9726091501
 10
136.3545206695
 20
70.9556751821
 10
136.309246446
 20
70.9413600704
 10
136.2616520523
 20
70.9298152201
 10
136.2122498099
 20
70.9211654342
 10
136.1615836101
 20
70.9155042906
 10
136.1102053317
 20
70.9128892553
 10
136.0586513717
 20
70.9133434942
 10
136.0074541467
 20
70.9168606061
 10
135.957089109
 20
70.9234140481
 10
135.9081644967
 20
70.9329309088
 10
135.8613779549
 20
70.9452565212
 10
135.817254189
 20
70.9602071352
 10
135.7761625911
 20
70.9776097771
 10
135.7384939325
 20
70.9972552571
  0
LWPOLYLINE
  5
61B
100
AcDbEntity
  8
RACCORDO
100
AcDbPolyline
 62
250
  6
CONTINUOUS
 90
11
 70
0
 10
132.4373555602
 20
122.2230802927
 10
132.4828886426
 20
122.2314446563
 10
132.5300314055
 20
122.2359481015
 10
132.5790431272
 20
122.2365584856
 10
132.6310340514
 20
122.2330451764
 10
132.6863044399
 20
122.2249501839
 10
132.7444268429
 20
122.2118973644
 10
132.8054727894
 20
122.1934579258
 10
132.8693449056
 20
122.1692052686
 10
132.9357626288
 20
122.1387716189
 10
133.0044585198
 20
122.1018075218
  0
LWPOLYLINE
  5
61C
100
AcDbEntity
  8
ASSI
100
AcDbPolyline
 62
250
  6
CONTINUOUS
 90
5
 70
0
 10
136.8265952039
 20
122.4747456302
 10
136.7893500571
 20
122.4693391437
 10
136.7513259911
 20
122.4660957895
 10
136.7125566978
 20
122.4649228568
 10
136.6742567224
 20
122.4658234293
  0
LWPOLYLINE
  5
61D
100
AcDbEntity
  8
RACCORDO
100
AcDbPolyline
 62
250
  6
CONTINUOUS
 90
9
 70
0
 10
134.1830499029
 20
121.5466906061
 10
134.1727416393
 20
121.5458411327
 10
134.162391345
 20
121.5451852777
 10
134.1519944002
 20
121.5447252588
 10
134.1415565678
 20
121.5444526663
 10
134.1310792016
 20
121.5443652532
 10
134.1205609479
 20
121.5444652664
 10
134.1100035082
 20
121.5447510367
 10
134.0994047789
 20
121.5452209431
  0
LWPOLYLINE
  5
61E
100
AcDbEntity
  8
ASSI
100
AcDbPolyline
 62
250
  6
CONTINUOUS
 90
7
 70
0
 10
136.6063199926
 20
122.5129695525
 10
136.5999066587
 20
122.5128419935
 10
136.5930931103
 20
122.5105761601
 10
136.585953998
 20
122.5061968769
 10
136.5785675391
 20
122.499752124
 10
136.5710146615
 20
122.4913125112
 10
136.5633781159
 20
122.4809705044
  0
LWPOLYLINE
  5
61F
100
AcDbEntity
  8
ASSI
100
AcDbPolyline
 62
250
  6
CONTINUOUS
 90
6
 70
0
 10
134.3228795669
 20
121.204338683
 10
134.3323413205
 20
121.204466287
 10
134.3479235048
 20
121.2030711959
 10
134.3633658888
 20
121.1996905066
 10
134.3785126519
 20
121.1943566156
 10
134.3932118846
 20
121.1871214894
  0
LWPOLYLINE
  5
620
100
AcDbEntity
  8
RACCORDO
100
AcDbPolyline
 62
250
  6
CONTINUOUS
 90
11
 70
0
 10
134.0994047789
 20
121.5452209431
 10
134.0887668636
 20
121.5458766065
 10
134.078097775
 20
121.5467212206
 10
134.0673919612
 20
121.5477545891
 10
134.056654974
 20
121.5489769083
 10
134.045911481
 20
121.5503919608
 10
134.0351613753
 20
121.5519998203
 10
134.0244047639
 20
121.5538004131
 10
134.0136666355
 20
121.5557973004
 10
134.0029305043
 20
121.5579959706
 10
133.9922128561
 20
121.5603909353
  0
LWPOLYLINE
  5
621
100
AcDbEntity
  8
ASSI
100
AcDbPolyline
 62
250
  6
CONTINUOUS
 90
23
 70
0
 10
136.5083682289
 20
122.4900384463
 10
136.4804848328
 20
122.4922535203
 10
136.4520952536
 20
122.4929154498
 10
136.4234564171
 20
122.4920310336
 10
136.3953391005
 20
122.4896206684
 10
136.3677624821
 20
122.4856446181
 10
136.3407073837
 20
122.4801426188
 10
136.3148870474
 20
122.4732542747
 10
136.2903261233
 20
122.4649399734
 10
136.2669999614
 20
122.4552393273
 10
136.2455478538
 20
122.4444107788
 10
136.2260218927
 20
122.4324202322
 10
136.208369986
 20
122.4193017831
 10
136.1930751497
 20
122.4054161606
 10
136.1802075321
 20
122.390745596
 10
136.169696985
 20
122.3753078581
 10
136.16181608
 20
122.359516982
 10
136.1566350036
 20
122.3433645302
 10
136.1540835695
 20
122.3268589402
 10
136.1542237897
 20
122.3104395599
 10
136.1570763349
 20
122.2942528388
 10
136.1626205346
 20
122.2781523274
 10
136.1708563886
 20
122.2621380258
  0
LWPOLYLINE
  5
622
100
AcDbEntity
  8
ASSI
100
AcDbPolyline
 62
250
  6
CONTINUOUS
 90
3
 70
0
 10
136.6742567224
 20
122.4658234293
 10
136.6368309134
 20
122.4687985348
 10
136.5998744222
 20
122.4738471455
  0
LINE
  5
623
100
AcDbEntity
  8
ASSI
100
AcDbLine
 62
250
  6
CONTINUOUS
 10
136.5360023676
 20
122.4862770266
 11
136.5083682289
 21
122.4900384463
  0
LINE
  5
624
100
AcDbEntity
  8
ASSI
100
AcDbLine
 62
250
  6
CONTINUOUS
 10
136.5998744222
 20
122.4738471455
 11
136.5360023676
 21
122.4862770266
  0
LWPOLYLINE
  5
625
100
AcDbEntity
  8
RACCORDO
100
AcDbPolyline
 62
250
  6
CONTINUOUS
 90
16
 70
0
 10
133.9922128561
 20
121.5603909353
 10
133.9815881378
 20
121.5629692914
 10
133.9710421055
 20
121.5657414547
 10
133.960589003
 20
121.5686970094
 10
133.9503460091
 20
121.5717918047
 10
133.9403347307
 20
121.5750264673
 10
133.9305335608
 20
121.5784003704
 10
133.9209948573
 20
121.5818674826
 10
133.9117387899
 20
121.5854238557
 10
133.9027451889
 20
121.5890734378
 10
133.8940059024
 20
121.5927820426
 10
133.8855487595
 20
121.5965367754
 10
133.8773459311
 20
121.6003505309
 10
133.8693057789
 20
121.604227806
 10
133.8614270795
 20
121.6081676794
 10
133.8537110564
 20
121.6121710725
  0
LWPOLYLINE
  5
626
100
AcDbEntity
  8
RACCORDO
100
AcDbPolyline
 62
250
  6
CONTINUOUS
 90
7
 70
0
 10
142.4998496178
 20
118.1922715188
 10
142.4903400401
 20
118.1965008177
 10
142.479015965
 20
118.1989070931
 10
142.46678666
 20
118.1990280295
 10
142.4538567546
 20
118.1968615961
 10
142.4404425999
 20
118.1924440364
 10
142.4267686519
 20
118.1858492616
  0
LWPOLYLINE
  5
627
100
AcDbEntity
  8
RACCORDO
100
AcDbPolyline
 62
7
  6
CONTINUOUS
 90
10
 70
0
 10
135.54274147
 20
122.2092186329
 10
135.5226008693
 20
122.2195966882
 10
135.4995696817
 20
122.2286039588
 10
135.4761837087
 20
122.2348338517
 10
135.452688118
 20
122.2382363484
 10
135.4293418528
 20
122.2388179267
 10
135.4065305039
 20
122.2366365693
 10
135.3846211052
 20
122.2318293756
 10
135.3638713718
 20
122.2245855439
 10
135.3474914118
 20
122.216778942
  0
LWPOLYLINE
  5
628
100
AcDbEntity
  8
RACCORDO
100
AcDbPolyline
 62
250
  6
CONTINUOUS
 90
9
 70
0
 10
140.4240506454
 20
120.6397588705
 10
140.4097591712
 20
120.647174644
 10
140.395614021
 20
120.6528426016
 10
140.3817600201
 20
120.6567047119
 10
140.3683390172
 20
120.6587214326
 10
140.3554884189
 20
120.6588721171
 10
140.3433397843
 20
120.6571552203
 10
140.3320174972
 20
120.6535883142
 10
140.3240458134
 20
120.649667106
  0
LINE
  5
629
100
AcDbEntity
  8
ASSI
100
AcDbLine
 62
250
  6
CONTINUOUS
 10
136.9722633389
 20
122.5387387535
 11
136.9893943652
 21
122.5297410155
  0
LWPOLYLINE
  5
62A
100
AcDbEntity
  8
RACCORDO
100
AcDbPolyline
 62
250
  6
CONTINUOUS
 90
8
 70
0
 10
135.4696213736
 20
122.2028189065
 10
135.4507929253
 20
122.212718965
 10
135.4325126112
 20
122.2200058257
 10
135.4149675254
 20
122.224739524
 10
135.3984277244
 20
122.2270044776
 10
135.3829076788
 20
122.2269580916
 10
135.368217993
 20
122.2246698911
 10
135.3547836175
 20
122.2202543685
  0
LWPOLYLINE
  5
62B
100
AcDbEntity
  8
RACCORDO
100
AcDbPolyline
 62
250
  6
CONTINUOUS
 90
13
 70
0
 10
137.071468725
 20
122.5754976536
 10
137.0635423939
 20
122.5799322028
 10
137.055552025
 20
122.5838666585
 10
137.0475252183
 20
122.5872689963
 10
137.0395450819
 20
122.5900908135
 10
137.0315868596
 20
122.5923277554
 10
137.02352628
 20
122.5939775604
 10
137.0153399085
 20
122.5949785051
 10
137.0071494734
 20
122.5952455601
 10
136.9990593015
 20
122.5947177665
 10
136.9911354359
 20
122.5933472084
 10
136.9834248282
 20
122.5910864886
 10
136.9760018736
 20
122.5878986213
  0
LWPOLYLINE
  5
62C
100
AcDbEntity
  8
RACCORDO
100
AcDbPolyline
 62
7
  6
CONTINUOUS
 90
11
 70
0
 10
137.146407135
 20
122.5829664186
 10
137.1428600255
 20
122.5849638528
 10
137.1239357945
 20
122.5940586423
 10
137.104107767
 20
122.6009866645
 10
137.0836960752
 20
122.605563789
 10
137.0628090576
 20
122.6076982821
 10
137.0417376244
 20
122.6072817896
 10
137.0208673516
 20
122.6042629158
 10
137.0005276246
 20
122.5986573563
 10
136.9810269908
 20
122.5905241047
 10
136.9735841648
 20
122.5866133496
  0
LINE
  5
62D
100
AcDbEntity
  8
RACCORDO
100
AcDbLine
 62
250
  6
CONTINUOUS
 10
135.8702485555
 20
121.9715017928
 11
135.4696213736
 21
122.2028189065
  0
LINE
  5
62E
100
AcDbEntity
  8
RACCORDO
100
AcDbLine
 62
250
  6
CONTINUOUS
 10
141.0511264721
 20
118.9801278153
 11
142.4267686511
 21
118.185849262
  0
LINE
  5
62F
100
AcDbEntity
  8
RACCORDO
100
AcDbLine
 62
7
  6
CONTINUOUS
 10
135.9130882871
 20
121.9953850384
 11
135.5427738863
 21
122.2091999323
  0
LINE
  5
630
100
AcDbEntity
  8
RACCORDO
100
AcDbLine
 62
7
  6
CONTINUOUS
 10
141.0958237107
 20
119.0029385597
 11
142.4999211567
 21
118.1922302919
  0
LINE
  5
631
100
AcDbEntity
  8
RACCORDO
100
AcDbLine
 62
250
  6
CONTINUOUS
 10
139.4109660942
 20
120.1224663198
 11
137.6528691806
 21
121.1375694436
  0
LINE
  5
632
100
AcDbEntity
  8
RACCORDO
100
AcDbLine
 62
7
  6
CONTINUOUS
 10
139.4549030794
 20
120.1478349843
 11
137.6983888159
 21
121.1620243058
  0
LINE
  5
633
100
AcDbEntity
  8
RACCORDO
100
AcDbLine
 62
250
  6
CONTINUOUS
 10
140.8212190853
 20
120.410438791
 11
140.4240506454
 21
120.6397588705
  0
LINE
  5
634
100
AcDbEntity
  8
RACCORDO
100
AcDbLine
 62
250
  6
CONTINUOUS
 10
137.4686371648
 20
122.3461775742
 11
137.071468725
 21
122.5754976536
  0
LINE
  5
635
100
AcDbEntity
  8
RACCORDO
100
AcDbLine
 62
7
  6
CONTINUOUS
 10
140.8962227093
 20
120.4178699677
 11
140.4990542695
 21
120.6471900472
  0
LINE
  5
636
100
AcDbEntity
  8
RACCORDO
100
AcDbLine
 62
7
  6
CONTINUOUS
 10
137.5436407889
 20
122.3536087508
 11
137.146472349
 21
122.5829288303
  0
LINE
  5
637
100
AcDbEntity
  8
RACCORDO
100
AcDbLine
 62
250
  6
CONTINUOUS
 10
140.8345570186
 20
120.4022274375
 11
140.8212190853
 21
120.410438791
  0
LWPOLYLINE
  5
638
100
AcDbEntity
  8
RACCORDO
100
AcDbPolyline
 62
250
  6
CONTINUOUS
 90
3
 70
0
 10
142.4267687037
 20
118.1858492924
 10
142.4463558366
 20
118.173522912
 10
142.4656330688
 20
118.1589121687
  0
LINE
  5
639
100
AcDbEntity
  8
RACCORDO
100
AcDbLine
 62
250
  6
CONTINUOUS
 10
137.4829287301
 20
122.3370898482
 11
137.4686371648
 21
122.3461775742
  0
ARC
  5
63A
100
AcDbEntity
  8
0
100
AcDbCircle
 62
7
  6
CONTINUOUS
 10
136.092047323
 20
71.2013925537
 40
0.5
100
AcDbArc
 50
239.9984015654
 51
297.4194204711
  0
ARC
  5
63B
100
AcDbEntity
  8
0
100
AcDbCircle
 62
7
  6
CONTINUOUS
 10
121.2238331547
 20
79.786113072
 40
0.5
100
AcDbArc
 50
179.9840060021
 51
239.998401565
  0
ARC
  5
63C
100
AcDbEntity
  8
0
100
AcDbCircle
 62
7
  6
CONTINUOUS
 10
121.2238331547
 20
121.9378853543
 40
0.5
100
AcDbArc
 50
122.5992954222
 51
180.0013071313
  0
ARC
  5
63D
100
AcDbEntity
  8
RACCORDO
100
AcDbCircle
 62
7
  6
CONTINUOUS
 10
138.8927905145
 20
81.6637202557
 40
0.3
100
AcDbArc
 50
269.422326239
 51
299.1609168796
  0
ARC
  5
63E
100
AcDbEntity
  8
RACCORDO
100
AcDbCircle
 62
7
  6
CONTINUOUS
 10
137.7956415469
 20
100.077185849
 40
0.2
100
AcDbArc
 50
257.3292403517
 51
287.0230299442
  0
ARC
  5
63F
100
AcDbEntity
  8
ASSI
100
AcDbCircle
 62
7
  6
CONTINUOUS
 10
133.3743880182
 20
116.9500119768
 40
0.2
100
AcDbArc
 50
18.5045349448
 51
59.9984015652
  0
ARC
  5
640
100
AcDbEntity
  8
ASSI
100
AcDbCircle
 62
7
  6
CONTINUOUS
 10
132.1585978807
 20
120.7926596596
 40
0.2
100
AcDbArc
 50
119.0851068374
 51
154.7491248196
  0
ARC
  5
641
100
AcDbEntity
  8
ASSI
100
AcDbCircle
 62
7
  6
CONTINUOUS
 10
129.5227352186
 20
119.1739080307
 40
0.2
100
AcDbArc
 50
59.9984015652
 51
119.1557271591
  0
ARC
  5
642
100
AcDbEntity
  8
ASSI
100
AcDbCircle
 62
7
  6
CONTINUOUS
 10
127.9730716707
 20
121.7392357396
 40
0.2
100
AcDbArc
 50
59.9984015652
 51
118.2824903446
  0
ARC
  5
643
100
AcDbEntity
  8
ASSI
100
AcDbCircle
 62
7
  6
CONTINUOUS
 10
138.6766183187
 20
115.1898310624
 40
0.2
100
AcDbArc
 50
315.7312260546
 51
0.0244885462
  0
ARC
  5
644
100
AcDbEntity
  8
ASSI
100
AcDbCircle
 62
7
  6
CONTINUOUS
 10
138.6766183187
 20
115.559142052
 40
0.2
100
AcDbArc
 50
359.9837886302
 51
59.9984015652
  0
ARC
  5
645
100
AcDbEntity
  8
ASSI
100
AcDbCircle
 62
7
  6
CONTINUOUS
 10
138.6766183187
 20
77.1585777899
 40
0.2
100
AcDbArc
 50
0.0061341609
 51
34.9794225703
  0
ARC
  5
646
100
AcDbEntity
  8
ASSI
100
AcDbCircle
 62
7
  6
CONTINUOUS
 10
138.6766183187
 20
76.7892668003
 40
0.2
100
AcDbArc
 50
325.0024931296
 51
0.0011842197
  0
ARC
  5
647
100
AcDbEntity
  8
ASSI
100
AcDbCircle
 62
7
  6
CONTINUOUS
 10
129.5002755365
 20
120.8574473678
 40
0.2
100
AcDbArc
 50
359.9895357921
 51
59.9984015652
  0
ARC
  5
648
100
AcDbEntity
  8
ASSI
100
AcDbCircle
 62
7
  6
CONTINUOUS
 10
129.5002755365
 20
120.4881363783
 40
0.2
100
AcDbArc
 50
315.7300113268
 51
0.0272094249
  0
ARC
  5
649
100
AcDbEntity
  8
ASSI
100
AcDbCircle
 62
7
  6
CONTINUOUS
 10
137.1494144529
 20
116.4409304237
 40
0.2
100
AcDbArc
 50
59.9984015652
 51
118.2824903446
  0
ELLIPSE
  5
64A
100
AcDbEntity
  8
0
100
AcDbEllipse
 62
7
  6
CONTINUOUS
 10
138.4866033019
 20
72.4428641704
 30
0.0
 11
-0.2501834304
 21
0.4333025529
 31
0.0
 40
0.5769361983
 41
-3.1677535987
 42
-2.3565853618
  0
ELLIPSE
  5
64B
100
AcDbEntity
  8
RACCORDO
100
AcDbEllipse
 62
7
  6
CONTINUOUS
 10
138.7695429707
 20
93.3167879467
 30
0.0
 11
-0.0500176659
 21
0.0865945414
 31
0.0
 40
0.5775954524
 41
-2.3562050126
 42
-1.1310304851
  0
ELLIPSE
  5
64C
100
AcDbEntity
  8
RACCORDO
100
AcDbEllipse
 62
7
  6
CONTINUOUS
 10
138.750619489
 20
81.6389718848
 30
0.0
 11
0.2570456323
 21
0.428918115
 31
0.0
 40
0.5894576291
 41
-2.0962802676
 42
-1.8795851234
  0
ELLIPSE
  5
64D
100
AcDbEntity
  8
RACCORDO
100
AcDbEllipse
 62
7
  6
CONTINUOUS
 10
123.3459457075
 20
82.9166633257
 30
0.0
 11
0.3254038621
 21
1.7382577199
 31
0.0
 40
0.2183918352
 41
-2.9565436216
 42
-1.6649999751
  0
ELLIPSE
  5
64E
100
AcDbEntity
  8
RACCORDO
100
AcDbEllipse
 62
7
  6
CONTINUOUS
 10
133.9699347702
 20
76.7825051908
 30
0.0
 11
0.3254038621
 21
1.7382577199
 31
0.0
 40
0.2183918352
 41
-4.0037411729
 42
-3.4801423972
  0
ELLIPSE
  5
64F
100
AcDbEntity
  8
DRAFT
100
AcDbEllipse
 62
7
  6
CONTINUOUS
 10
121.2238331547
 20
101.0206671501
 30
0.0
 11
0.4998610155
 21
-0.0215739
 31
0.0
 40
0.5464172455
 41
-3.1180137663
 42
-2.3326156034
  0
ELLIPSE
  5
650
100
AcDbEntity
  8
DRAFT
100
AcDbEllipse
 62
7
  6
CONTINUOUS
 10
136.092047323
 20
92.4359466318
 30
0.0
 11
0.4998610155
 21
-0.0215739
 31
0.0
 40
0.5464172455
 41
-2.3326156034
 42
-0.7879992153
  0
ELLIPSE
  5
651
100
AcDbEntity
  8
0
100
AcDbEllipse
 62
7
  6
CONTINUOUS
 10
137.3981687661
 20
114.1072992682
 30
0.0
 11
-0.2500121049
 21
0.4330057129
 31
0.0
 40
0.5777274115
 41
-2.3559002616
 42
-0.7857891675
  0
ELLIPSE
  5
652
100
AcDbEntity
  8
ASSI
100
AcDbEllipse
 62
7
  6
CONTINUOUS
 10
136.0829103971
 20
91.874279648
 30
0.0
 11
4.1091514676
 21
6.7488408307
 31
0.0
 40
0.5922410672
 41
-1.2951550528
 42
-0.7715562772
  0
ELLIPSE
  5
653
100
AcDbEntity
  8
DRAFT
100
AcDbEllipse
 62
7
  6
CONTINUOUS
 10
138.2553084936
 20
92.4538342774
 30
0.0
 11
0.8524930942
 21
1.5284679067
 31
0.0
 40
0.5671693725
 41
5.0776938706
 42
5.8313048814
  0
ELLIPSE
  5
654
100
AcDbEntity
  8
DRAFT
100
AcDbEllipse
 62
7
  6
CONTINUOUS
 10
135.4856330036
 20
92.2191401294
 30
0.0
 11
2.9715473571
 21
5.3278024176
 31
0.0
 40
0.5671693725
 41
-1.3173759133
 42
-1.2054914366
  0
ELLIPSE
  5
655
100
AcDbEntity
  8
0
100
AcDbEllipse
 62
7
  6
CONTINUOUS
 10
122.4632961239
 20
122.7305075539
 30
0.0
 11
-0.2501834304
 21
0.4333025529
 31
0.0
 40
0.5769361983
 41
-0.7851038024
 42
0.0261609458
  0
ELLIPSE
  5
656
100
AcDbEntity
  8
RACCORDO
100
AcDbEllipse
 62
7
  6
CONTINUOUS
 10
138.5324221115
 20
111.3828803714
 30
0.0
 11
0.2340655899
 21
0.3844276423
 31
0.0
 40
0.5922410672
 41
-3.5998360866
 42
-1.5460578258
  0
ELLIPSE
  5
657
100
AcDbEntity
  8
ASSI
100
AcDbEllipse
 62
7
  6
CONTINUOUS
 10
136.0829103971
 20
91.874279648
 30
0.0
 11
3.1728891079
 21
5.2111302617
 31
0.0
 40
0.5922410672
 41
-1.2951550528
 42
-1.1832705761
  0
ELLIPSE
  5
658
100
AcDbEntity
  8
ASSI
100
AcDbEllipse
 62
7
  6
CONTINUOUS
 10
138.9756045567
 20
92.037944358
 30
0.0
 11
0.9102550719
 21
1.4949963866
 31
0.0
 40
0.5922410672
 41
-1.1832705761
 42
0.746880172
  0
ELLIPSE
  5
659
100
AcDbEntity
  8
ASSI
100
AcDbEllipse
 62
7
  6
CONTINUOUS
 10
140.481766203
 20
91.4268558411
 30
0.0
 11
0.4681311799
 21
0.7688552845
 31
0.0
 40
0.5922410672
 41
-4.4367477064
 42
-1.2951550528
  0
ELLIPSE
  5
65A
100
AcDbEntity
  8
RACCORDO
100
AcDbEllipse
 62
7
  6
CONTINUOUS
 10
137.8969679569
 20
99.9370071454
 30
0.0
 11
0.1040291511
 21
0.1708567299
 31
0.0
 40
0.5922410672
 41
2.3700363764
 42
3.6971092904
  0
ELLIPSE
  5
65B
100
AcDbEntity
  8
RACCORDO
100
AcDbEllipse
 62
7
  6
CONTINUOUS
 10
138.2073050681
 20
110.9732233999
 30
0.0
 11
-0.1499555689
 21
0.1417376379
 31
0.0
 40
0.2871998027
 41
-2.4500079414
 42
-1.1133093541
  0
ELLIPSE
  5
65C
100
AcDbEntity
  8
RACCORDO
100
AcDbEllipse
 62
7
  6
CONTINUOUS
 10
127.2075537213
 20
121.4931826453
 30
0.0
 11
-0.1000352924
 21
0.1732550566
 31
0.0
 40
0.5771558487
 41
-2.3563950755
 42
-0.7852941622
  0
ELLIPSE
  5
65D
100
AcDbEntity
  8
RACCORDO
100
AcDbEllipse
 62
7
  6
CONTINUOUS
 10
138.6988349893
 20
113.6450064274
 30
0.0
 11
-0.1000352924
 21
0.1732550566
 31
0.0
 40
0.5771558487
 41
-3.1241453804
 42
-2.3563950755
  0
ELLIPSE
  5
65E
100
AcDbEntity
  8
RACCORDO
100
AcDbEllipse
 62
7
  6
CONTINUOUS
 10
138.6988349893
 20
114.8582608607
 30
0.0
 11
-0.1000048364
 21
0.1732022883
 31
0.0
 40
0.5775075436
 41
-2.3560905478
 42
-0.7855988075
  0
ELLIPSE
  5
65F
100
AcDbEntity
  8
RACCORDO
100
AcDbEllipse
 62
7
  6
CONTINUOUS
 10
123.2839502443
 20
123.7586221186
 30
0.0
 11
-0.1000352924
 21
0.1732550566
 31
0.0
 40
0.5771558487
 41
-0.7852941622
 42
-0.0174472724
  0
ELLIPSE
  5
660
100
AcDbEntity
  8
RACCORDO
100
AcDbEllipse
 62
7
  6
CONTINUOUS
 10
134.7752315123
 20
117.1237003341
 30
0.0
 11
-0.1000048364
 21
0.1732022883
 31
0.0
 40
0.5775075436
 41
-0.7855988075
 42
0.0000008443
  0
ELLIPSE
  5
661
100
AcDbEntity
  8
RACCORDO
100
AcDbEllipse
 62
7
  6
CONTINUOUS
 10
124.53572234
 20
92.7441474431
 30
0.0
 11
-0.0747980753
 21
0.1304963185
 31
0.0
 40
0.5764466743
 41
-3.1939951889
 42
-2.3533542958
  0
ELLIPSE
  5
662
100
AcDbEntity
  8
RACCORDO
100
AcDbEllipse
 62
7
  6
CONTINUOUS
 10
124.53572234
 20
94.0516368966
 30
0.0
 11
-0.0746819116
 21
0.1302994005
 31
0.0
 40
0.57820294
 41
-2.3518112446
 42
-0.7825359958
  0
ELLIPSE
  5
663
100
AcDbEntity
  8
DRAFT
100
AcDbEllipse
 62
7
  6
CONTINUOUS
 10
135.1898645041
 20
92.3899131542
 30
0.0
 11
3.2478032004
 21
5.0501468509
 31
0.0
 40
0.6067084637
 41
5.0033060965
 42
5.2387059167
  0
ELLIPSE
  5
664
100
AcDbEntity
  8
RACCORDO
100
AcDbEllipse
 62
7
  6
CONTINUOUS
 10
139.7409812689
 20
88.2113049437
 30
0.0
 11
-0.1000048364
 21
0.1732022883
 31
0.0
 40
0.5775075436
 41
-3.1415918093
 42
-2.3560905478
  0
ELLIPSE
  5
665
100
AcDbEntity
  8
RACCORDO
100
AcDbEllipse
 62
7
  6
CONTINUOUS
 10
139.0877652614
 20
81.7709368685
 30
0.0
 11
0.2706129798
 21
-0.206110056
 31
0.0
 40
0.3991634155
 41
5.774527437
 42
6.5783255269
  0
ELLIPSE
  5
666
100
AcDbEntity
  8
ASSI
100
AcDbEllipse
 62
7
  6
CONTINUOUS
 10
137.387470531
 20
120.8207976345
 30
0.0
 11
0.3652263551
 21
0.1644105368
 31
0.0
 40
0.3407407308
 41
1.8589059539
 42
3.382251992
  0
ELLIPSE
  5
667
100
AcDbEntity
  8
ASSI
100
AcDbEllipse
 62
7
  6
CONTINUOUS
 10
138.8964556153
 20
116.9870622266
 30
0.0
 11
0.999867518
 21
-0.0292282715
 31
0.0
 40
0.5568983954
 41
5.6013315027
 42
7.0848613669
  0
ELLIPSE
  5
668
100
AcDbEntity
  8
ASSI
100
AcDbEllipse
 62
7
  6
CONTINUOUS
 10
138.9318265227
 20
116.5038783242
 30
0.0
 11
-0.100004872
 21
0.1732022678
 31
0.0
 40
0.5789151826
 41
-2.3548735497
 42
-0.7868162787
  0
ELLIPSE
  5
669
100
AcDbEntity
  8
RACCORDO
100
AcDbEllipse
 62
7
  6
CONTINUOUS
 10
139.0877652614
 20
85.9348855316
 30
0.0
 11
0.2708035788
 21
-0.2011315484
 31
0.0
 40
0.4059136155
 41
6.5759999252
 42
7.4417664316
  0
ELLIPSE
  5
66A
100
AcDbEntity
  8
DRAFT
100
AcDbEllipse
 62
7
  6
CONTINUOUS
 10
124.4979146389
 20
93.2564120253
 30
0.0
 11
0.3079969422
 21
0.51496962
 31
0.0
 40
0.5873179545
 41
4.2759126724
 42
6.7378315071
  0
ELLIPSE
  5
66B
100
AcDbEntity
  8
RACCORDO
100
AcDbEllipse
 62
7
  6
CONTINUOUS
 10
141.5769546764
 20
87.0121016919
 30
0.0
 11
0.6256898559
 21
0.4057240338
 31
0.0
 40
0.1850735234
 41
5.1283321619
 42
6.1637469377
  0
ELLIPSE
  5
66C
100
AcDbEntity
  8
RACCORDO
100
AcDbEllipse
 62
7
  6
CONTINUOUS
 10
139.1584759395
 20
81.811768874
 30
0.0
 11
-0.149984401
 21
0.2598430098
 31
0.0
 40
0.5773316645
 41
-3.150319777
 42
-2.3560905026
  0
ELLIPSE
  5
66D
100
AcDbEntity
  8
RACCORDO
100
AcDbEllipse
 62
7
  6
CONTINUOUS
 10
139.1584759395
 20
85.8123986075
 30
0.0
 11
-0.149984401
 21
0.2598430098
 31
0.0
 40
0.5773316645
 41
-2.3560905026
 42
-0.7852941758
  0
ELLIPSE
  5
66E
100
AcDbEntity
  8
RACCORDO
100
AcDbEllipse
 62
7
  6
CONTINUOUS
 10
141.5769546764
 20
87.6812183676
 30
0.0
 11
0.6259337583
 21
0.3810056972
 31
0.0
 40
0.191670984
 41
6.1670403203
 42
7.2024550962
  0
ENDSEC
  0
SECTION
  2
OBJECTS
  0
DICTIONARY
  5
C
100
AcDbDictionary
280
0
281
1
  3
ACAD_GROUP
350
D
  3
ACAD_MLINESTYLE
350
17
  3
ACAD_LAYOUT
350
1A
  3
ACAD_PLOTSETTINGS
350
19
  3
ACAD_PLOTSTYLENAME
350
E
  0
DICTIONARY
  5
D
102
{ACAD_REACTORS
330
C
102
}
100
AcDbDictionary
280
0
281
1
  0
ACDBDICTIONARYWDFLT
  5
E
102
{ACAD_REACTORS
330
C
102
}
100
AcDbDictionary
281
1
  3
Normal
350
F
100
AcDbDictionaryWithDefault
340
F
  0
DICTIONARY
  5
17
102
{ACAD_REACTORS
330
C
102
}
100
AcDbDictionary
280
0
281
1
  3
Standard
350
18
  0
DICTIONARY
  5
19
102
{ACAD_REACTORS
330
C
102
}
100
AcDbDictionary
281
1
  0
DICTIONARY
  5
1A
102
{ACAD_REACTORS
330
C
102
}
100
AcDbDictionary
281
1
  3
Model
350
66F
  3
Layout1
350
670
  0
ACDBPLACEHOLDER
  5
F
102
{ACAD_REACTORS
330
E
102
}
  0
MLINESTYLE
  5
18
102
{ACAD_REACTORS
330
17
102
}
100
AcDbMlineStyle
  2
STANDARD
 70
0
  3

 62
256
 51
90.0
 52
90.0
 71
2
 49
0.5
 62
256
  6
BYLAYER
 49
-0.5
 62
256
  6
BYLAYER
  0
LAYOUT
  5
66F
102
{ACAD_REACTORS
330
1A
102
}
100
AcDbPlotSettings
  1

  2
none_device
  4
ISO_A4_(297.00_x_210.00_MM)
  6

 40
0.0
 41
0.0
 42
0.0
 43
0.0
 44
297.0
 45
210.0
 46
0.0
 47
0.0
 48
0.0
 49
0.0
140
0.0
141
0.0
142
1.0
143
1.0
 70
1024
 72
1
 73
0
 74
0
  7

 75
0
147
1.0
148
0.0
149
0.0
100
AcDbLayout
  1
Model
 70
0
 71
0
 10
0.0
 20
0.0
 11
297.0
 21
210.0
 12
0.0
 22
0.0
 32
0.0
 14
0.0
 24
0.0
 34
0.0
 15
0.0
 25
0.0
 35
0.0
146
0.0
 13
0.0
 23
0.0
 33
0.0
 16
1.0
 26
0.0
 36
0.0
 17
0.0
 27
1.0
 37
0.0
 76
0
330
212
345
0
346
0
  0
LAYOUT
  5
670
102
{ACAD_REACTORS
330
1A
102
}
100
AcDbPlotSettings
  1

  2
none_device
  4
ISO_A4_(297.00_x_210.00_MM)
  6

 40
0.0
 41
0.0
 42
0.0
 43
0.0
 44
297.0
 45
210.0
 46
0.0
 47
0.0
 48
0.0
 49
0.0
140
0.0
141
0.0
142
1.0
143
1.0
 70
0
 72
1
 73
0
 74
0
  7

 75
0
147
1.0
148
0.0
149
0.0
100
AcDbLayout
  1
Layout1
 70
0
 71
1
 10
0.0
 20
0.0
 11
297.0
 21
210.0
 12
0.0
 22
0.0
 32
0.0
 14
0.0
 24
0.0
 34
0.0
 15
0.0
 25
0.0
 35
0.0
146
0.0
 13
0.0
 23
0.0
 33
0.0
 16
1.0
 26
0.0
 36
0.0
 17
0.0
 27
1.0
 37
0.0
 76
0
330
213
345
0
346
0
  0
ENDSEC
  0
EOF
