  0
SECTION
  2
HEADER
  9
$ACADVER
  1
AC1024
  9
$DWGCODEPAGE
  3
ANSI_1252
  9
$EXTMAX
 10
297.0
 20
210.0
 30
0.0
  9
$EXTMIN
 10
0.0
 20
0.0
 30
0.0
  9
$LIMMIN
 10
0.0
 20
0.0
  9
$LIMMAX
 10
297.0
 20
210.0
  9
$VIEWCTR
 10
148.5
 20
105.0
  9
$VIEWSIZE
 40
210.0
  9
$CLAYER
  8
0
  9
$LTSCALE
 40
16.335
  9
$CELTYPE
  6
BYLAYER
  9
$DIMSCALE
 40
1.0
  9
$DIMASZ
 40
3.0
  9
$DIMEXO
 40
0.5
  9
$DIMDLI
 40
11.286
  9
$DIMEXE
 40
1.5
  9
$DIMCEN
 40
2.673
  9
$DIMLFAC
 40
1.0
  9
$DIMBLK
  1
_FILLED
  9
$DIMALT
 70
0
  9
$DIMALTF
 40
0.0393700787
  9
$DIMTXT
 40
3.0
  9
$DIMTOL
 70
1
  9
$DIMLIM
 70
0
  9
$DIMTFAC
 40
1.0
  9
$DIMTP
 40
0.01
  9
$DIMTM
 40
0.01
  9
$DIMGAP
 40
0.625
  9
$DIMDSEP
 70
44
  9
$AUNITS
 70
0
  9
$PDMODE
 70
3
  9
$PDSIZE
 40
3.0
  9
$HANDSEED
  5
613
  9
$TILEMODE
 70
1
  9
$MEASUREMENT
 70
1
  9
$INSUNITS
 70
4
  0
ENDSEC
  0
SECTION
  2
CLASSES
  0
CLASS
  1
ACDBDICTIONARYWDFLT
  2
AcDbDictionaryWithDefault
  3
AutoCAD 2000
 90
0
 91
1
280
0
281
0
  0
CLASS
  1
ACDBPLACEHOLDER
  2
AcDbPlaceHolder
  3
AutoCAD 2000
 90
0
 91
1
280
0
281
0
  0
CLASS
  1
LAYOUT
  2
AcDbLayout
  3
AutoCAD 2000
 90
0
 91
0
280
0
281
0
  0
ENDSEC
  0
SECTION
  2
TABLES
  0
TABLE
  2
VPORT
  5
8
100
AcDbSymbolTable
 70
2
  0
VPORT
  5
1F4
100
AcDbSymbolTableRecord
100
AcDbViewportTableRecord
  2
*ACTIVE
 70
0
 10
0.0
 20
0.0
 11
1.0
 21
1.0
 12
148.5
 22
105.0
 13
0.0
 23
0.0
 14
1.0
 24
1.0
 15
0.0
 25
0.0
 16
0.0
 26
0.0
 36
1.0
 17
0.0
 27
0.0
 37
0.0
 40
210.0
 41
1.4142857143
 42
50.0
 43
0.0
 44
0.0
 50
0.0
 51
0.0
 71
0
 72
100
 73
1
 74
1
 75
0
 76
0
 77
0
 78
0
  0
ENDTAB
  0
TABLE
  2
LTYPE
  5
5
100
AcDbSymbolTable
 70
6
  0
LTYPE
  5
14
100
AcDbSymbolTableRecord
100
AcDbLinetypeTableRecord
  2
BYBLOCK
 70
0
  3

 72
65
 73
0
 40
0.0
  0
LTYPE
  5
15
100
AcDbSymbolTableRecord
100
AcDbLinetypeTableRecord
  2
BYLAYER
 70
0
  3

 72
65
 73
0
 40
0.0
  0
LTYPE
  5
16
100
AcDbSymbolTableRecord
100
AcDbLinetypeTableRecord
  2
CONTINUOUS
 70
64
  3
Solid line
 72
65
 73
0
 40
0.0
  0
LTYPE
  5
1F5
100
AcDbSymbolTableRecord
100
AcDbLinetypeTableRecord
  2
CENTER
 70
64
  3
____ _ ____ _ ____ _ ____ _ ____ _ ____ _ ____
 72
65
 73
4
 40
0.6
 49
0.375
 74
0
 49
-0.075
 74
0
 49
0.075
 74
0
 49
-0.075
 74
0
  0
LTYPE
  5
1F6
100
AcDbSymbolTableRecord
100
AcDbLinetypeTableRecord
  2
HIDDEN
 70
64
  3
- - - - - - - - - - - - - - - - - - - -
 72
65
 73
2
 40
0.2
 49
0.1
 74
0
 49
-0.1
 74
0
  0
LTYPE
  5
1F7
100
AcDbSymbolTableRecord
100
AcDbLinetypeTableRecord
  2
PHANTOM
 70
64
  3
_____ _ _ _____ _ _ _____ _ _ _____
 72
65
 73
6
 40
0.8
 49
0.45
 74
0
 49
-0.05
 74
0
 49
0.1
 74
0
 49
-0.05
 74
0
 49
0.1
 74
0
 49
-0.05
 74
0
  0
LTYPE
  5
1F8
100
AcDbSymbolTableRecord
100
AcDbLinetypeTableRecord
  2
DOT
 70
64
  3
. . . . . . . . . . . . . . . . . . . .
 72
65
 73
2
 40
0.2
 49
0.1
 74
0
 49
-0.1
 74
0
  0
LTYPE
  5
1F9
100
AcDbSymbolTableRecord
100
AcDbLinetypeTableRecord
  2
DASHED
 70
64
  3
- - - - - - - - - - - - - - - - - - - -
 72
65
 73
2
 40
0.2
 49
0.1
 74
0
 49
-0.1
 74
0
  0
ENDTAB
  0
TABLE
  2
LAYER
  5
2
100
AcDbSymbolTable
 70
36
  0
LAYER
  5
10
100
AcDbSymbolTableRecord
100
AcDbLayerTableRecord
  2
0
 70
0
 62
7
  6
CONTINUOUS
370
-3
390
F
  0
LAYER
  5
1FA
100
AcDbSymbolTableRecord
100
AcDbLayerTableRecord
  2
DEFAULT_1
 70
0
 62
7
  6
CENTER
370
-3
390
F
  0
LAYER
  5
1FB
100
AcDbSymbolTableRecord
100
AcDbLayerTableRecord
  2
DEFAULT_2
 70
0
 62
7
  6
HIDDEN
370
-3
390
F
  0
LAYER
  5
1FC
100
AcDbSymbolTableRecord
100
AcDbLayerTableRecord
  2
DEFAULT_3
 70
0
 62
7
  6
PHANTOM
370
-3
390
F
  0
LAYER
  5
1FD
100
AcDbSymbolTableRecord
100
AcDbLayerTableRecord
  2
ASSI
 70
0
 62
7
  6
CONTINUOUS
370
-3
390
F
  0
LAYER
  5
1FE
100
AcDbSymbolTableRecord
100
AcDbLayerTableRecord
  2
COORDINATE
 70
0
 62
7
  6
CONTINUOUS
370
-3
390
F
  0
LAYER
  5
1FF
100
AcDbSymbolTableRecord
100
AcDbLayerTableRecord
  2
COORD_ORIGINE
 70
0
 62
7
  6
CONTINUOUS
370
-3
390
F
  0
LAYER
  5
200
100
AcDbSymbolTableRecord
100
AcDbLayerTableRecord
  2
COPY_PUBLISH
 70
0
 62
7
  6
CONTINUOUS
370
-3
390
F
  0
LAYER
  5
201
100
AcDbSymbolTableRecord
100
AcDbLayerTableRecord
  2
COSMETICI
 70
0
 62
7
  6
CONTINUOUS
370
-3
390
F
  0
LAYER
  5
202
100
AcDbSymbolTableRecord
100
AcDbLayerTableRecord
  2
CURVE
 70
0
 62
7
  6
CONTINUOUS
370
-3
390
F
  0
LAYER
  5
203
100
AcDbSymbolTableRecord
100
AcDbLayerTableRecord
  2
DRAFT
 70
0
 62
7
  6
CONTINUOUS
370
-3
390
F
  0
LAYER
  5
204
100
AcDbSymbolTableRecord
100
AcDbLayerTableRecord
  2
IMPORT_IGES
 70
0
 62
7
  6
CONTINUOUS
370
-3
390
F
  0
LAYER
  5
205
100
AcDbSymbolTableRecord
100
AcDbLayerTableRecord
  2
INTF_1
 70
0
 62
7
  6
CONTINUOUS
370
-3
390
F
  0
LAYER
  5
206
100
AcDbSymbolTableRecord
100
AcDbLayerTableRecord
  2
INTF_8
 70
0
 62
7
  6
CONTINUOUS
370
-3
390
F
  0
LAYER
  5
207
100
AcDbSymbolTableRecord
100
AcDbLayerTableRecord
  2
NOTE
 70
0
 62
7
  6
CONTINUOUS
370
-3
390
F
  0
LAYER
  5
208
100
AcDbSymbolTableRecord
100
AcDbLayerTableRecord
  2
PIANI
 70
0
 62
7
  6
CONTINUOUS
370
-3
390
F
  0
LAYER
  5
209
100
AcDbSymbolTableRecord
100
AcDbLayerTableRecord
  2
PIANI_ORIGINE
 70
0
 62
7
  6
CONTINUOUS
370
-3
390
F
  0
LAYER
  5
20A
100
AcDbSymbolTableRecord
100
AcDbLayerTableRecord
  2
PUNTI
 70
0
 62
7
  6
CONTINUOUS
370
-3
390
F
  0
LAYER
  5
20B
100
AcDbSymbolTableRecord
100
AcDbLayerTableRecord
  2
RACCORDO
 70
0
 62
7
  6
CONTINUOUS
370
-3
390
F
  0
LAYER
  5
20C
100
AcDbSymbolTableRecord
100
AcDbLayerTableRecord
  2
SIMBOLI
 70
0
 62
7
  6
CONTINUOUS
370
-3
390
F
  0
LAYER
  5
20D
100
AcDbSymbolTableRecord
100
AcDbLayerTableRecord
  2
SMUSSO
 70
0
 62
7
  6
CONTINUOUS
370
-3
390
F
  0
LAYER
  5
20E
100
AcDbSymbolTableRecord
100
AcDbLayerTableRecord
  2
SUPERFICI
 70
0
 62
7
  6
CONTINUOUS
370
-3
390
F
  0
LAYER
  5
20F
100
AcDbSymbolTableRecord
100
AcDbLayerTableRecord
  2
TRASH
 70
0
 62
7
  6
CONTINUOUS
370
-3
390
F
  0
ENDTAB
  0
TABLE
  2
STYLE
  5
3
100
AcDbSymbolTable
 70
1
  0
STYLE
  5
11
100
AcDbSymbolTableRecord
100
AcDbTextStyleTableRecord
  2
STANDARD
 70
0
 40
0.0
 41
0.8
 50
0.0
 71
0
 42
0.2
  3
txt
  4

  0
STYLE
  5
210
100
AcDbSymbolTableRecord
100
AcDbTextStyleTableRecord
  2
TEXTSTYLE_1
 70
0
 40
0.0
 41
0.8
 50
0.0
 71
0
 42
0.2
  3
gdt
  4

  0
ENDTAB
  0
TABLE
  2
VIEW
  5
6
100
AcDbSymbolTable
 70
0
  0
ENDTAB
  0
TABLE
  2
UCS
  5
7
100
AcDbSymbolTable
 70
0
  0
ENDTAB
  0
TABLE
  2
APPID
  5
9
100
AcDbSymbolTable
 70
1
  0
APPID
  5
211
100
AcDbSymbolTableRecord
100
AcDbRegAppTableRecord
  2
ACAD
 70
0
  0
ENDTAB
  0
TABLE
  2
BLOCK_RECORD
  5
1
100
AcDbSymbolTable
 70
0
  0
BLOCK_RECORD
  5
212
100
AcDbSymbolTableRecord
100
AcDbBlockTableRecord
  2
*Model_Space
  0
BLOCK_RECORD
  5
213
100
AcDbSymbolTableRecord
100
AcDbBlockTableRecord
  2
*Paper_Space
  0
BLOCK_RECORD
  5
214
100
AcDbSymbolTableRecord
100
AcDbBlockTableRecord
  2
_FILLED
  0
ENDTAB
  0
TABLE
  2
DIMSTYLE
  5
A
100
AcDbSymbolTable
 70
1
100
AcDbDimStyleTable
 71
0
  0
DIMSTYLE
105
215
100
AcDbSymbolTableRecord
100
AcDbDimStyleTableRecord
  2
STANDARD
 70
0
  3

  4

 40
1.0
 41
3.0
 42
0.5
 43
0.38
 44
1.5
 45
0.0
 46
0.0
 47
0.01
 48
0.01
140
3.0
141
0.09
142
0.0
143
25.4
144
1.0
145
0.0
146
1.0
147
0.625
 71
1
 72
0
 73
0
 74
0
 75
0
 76
0
 77
1
 78
8
 79
2
170
0
171
1
172
0
173
0
174
0
175
0
176
0
177
0
178
0
270
2
179
2
271
2
272
2
273
2
274
2
275
0
280
0
281
0
282
0
283
1
284
8
285
0
286
0
287
3
288
0
340
11
278
44
341
214
342
214
343
214
344
214
  0
ENDTAB
  0
ENDSEC
  0
SECTION
  2
BLOCKS
  0
BLOCK
  5
20
100
AcDbEntity
  8
0
100
AcDbBlockBegin
  2
*Model_Space
 70
0
 10
0.0
 20
0.0
 30
0.0
  3
*Model_Space
  1

  0
ENDBLK
  5
21
100
AcDbEntity
  8
0
100
AcDbBlockEnd
  0
BLOCK
  5
1C
100
AcDbEntity
  8
0
100
AcDbBlockBegin
  2
*Paper_Space
 70
0
 10
0.0
 20
0.0
 30
0.0
  3
*Paper_Space
  1

  0
ENDBLK
  5
1D
100
AcDbEntity
  8
0
100
AcDbBlockEnd
  0
BLOCK
  5
216
100
AcDbEntity
  8
0
100
AcDbBlockBegin
  2
_FILLED
 70
64
 10
0.0
 20
0.0
  3
_FILLED
  1

  0
SOLID
  5
217
100
AcDbEntity
  8
0
  6
BYBLOCK
 62
0
100
AcDbTrace
 10
0.0
 20
0.0
 11
-1.0
 21
0.3166666667
 12
-1.0
 22
-0.3166666667
 13
-1.0
 23
-0.3166666667
  0
ENDBLK
  5
218
100
AcDbEntity
  8
0
  6
BYBLOCK
 62
0
100
AcDbBlockEnd
  0
ENDSEC
  0
SECTION
  2
ENTITIES
  0
LWPOLYLINE
  5
219
100
AcDbEntity
  8
RACCORDO
100
AcDbPolyline
 62
250
  6
CONTINUOUS
 90
13
 70
0
 10
131.9832431781
 20
146.4817525658
 10
131.9692767347
 20
146.472847686
 10
131.9555259546
 20
146.4619357876
 10
131.9422322051
 20
146.4492072635
 10
131.9296298937
 20
146.4348836901
 10
131.9179394323
 20
146.4192156293
 10
131.9073633669
 20
146.4024782522
 10
131.8980877038
 20
146.3849637463
 10
131.8902757027
 20
146.3669778925
 10
131.8840620736
 20
146.3488364011
 10
131.879555486
 20
146.330856612
 10
131.8768366458
 20
146.3133519549
 10
131.8759539538
 20
146.2966281404
  0
LWPOLYLINE
  5
21A
100
AcDbEntity
  8
RACCORDO
100
AcDbPolyline
 62
7
  6
CONTINUOUS
 90
10
 70
0
 10
131.896332473
 20
146.4987331549
 10
131.8808105761
 20
146.4891248829
 10
131.8654623774
 20
146.4766861757
 10
131.8518819085
 20
146.4623382295
 10
131.8403048028
 20
146.4463299519
 10
131.830931914
 20
146.4289390612
 10
131.8239258135
 20
146.4104671831
 10
131.8194080555
 20
146.391234779
 10
131.8174570119
 20
146.3715756477
 10
131.8173752471
 20
146.3666249796
  0
LWPOLYLINE
  5
21B
100
AcDbEntity
  8
0
100
AcDbPolyline
 62
250
  6
CONTINUOUS
 90
9
 70
0
 10
130.6231684591
 20
145.4402030709
 10
130.6436704065
 20
145.451376054
 10
130.6726678318
 20
145.4616545115
 10
130.704127112
 20
145.4670740164
 10
130.7376623475
 20
145.4675567548
 10
130.7727641502
 20
145.4631242146
 10
130.8089831577
 20
145.4538970487
 10
130.8459593065
 20
145.4400283369
 10
130.8832874604
 20
145.4217211099
  0
LINE
  5
21C
100
AcDbEntity
  8
RACCORDO
100
AcDbLine
 62
7
  6
CONTINUOUS
 10
131.8963308367
 20
146.4987323103
 11
132.8543839723
 21
147.0139422828
  0
LINE
  5
21D
100
AcDbEntity
  8
RACCORDO
100
AcDbLine
 62
250
  6
CONTINUOUS
 10
131.9832431781
 20
146.4817525658
 11
132.9526164172
 21
147.0030501237
  0
LWPOLYLINE
  5
21E
100
AcDbEntity
  8
RACCORDO
100
AcDbPolyline
 62
250
  6
CONTINUOUS
 90
23
 70
0
 10
131.8963317021
 20
146.4987327756
 10
131.8985041738
 20
146.499812775
 10
131.9012991472
 20
146.5009659322
 10
131.9042406683
 20
146.5019291724
 10
131.9073330977
 20
146.5027013129
 10
131.9105781844
 20
146.5032784742
 10
131.9139679154
 20
146.5036548107
 10
131.9174911035
 20
146.50382793
 10
131.9211447312
 20
146.5037963067
 10
131.9249223323
 20
146.5035579398
 10
131.9288055335
 20
146.5031149733
 10
131.9327845343
 20
146.5024702705
 10
131.9368571413
 20
146.5016251427
 10
131.9410153497
 20
146.5005829718
 10
131.9452260158
 20
146.499354212
 10
131.9495098089
 20
146.4979371289
 10
131.953941571
 20
146.4963062336
 10
131.9585538851
 20
146.4944365649
 10
131.963305769
 20
146.4923341711
 10
131.9681624921
 20
146.4900144107
 10
131.9731079673
 20
146.4874838871
 10
131.9781454285
 20
146.484734627
 10
135.9068466551
 20
144.2163130925
  0
LINE
  5
21F
100
AcDbEntity
  8
0
100
AcDbLine
 62
7
  6
CONTINUOUS
 10
130.6231684591
 20
145.4402030709
 11
131.8753684283
 21
146.2409704343
  0
LINE
  5
220
100
AcDbEntity
  8
0
100
AcDbLine
 62
250
  6
CONTINUOUS
 10
130.8832874604
 20
145.4217211099
 11
132.1317630291
 21
146.2201067623
  0
LWPOLYLINE
  5
221
100
AcDbEntity
  8
ASSI
100
AcDbPolyline
 62
250
  6
CONTINUOUS
 90
3
 70
0
 10
137.5624136376
 20
145.0024337888
 10
137.5509084502
 20
144.9983794215
 10
137.5470557284
 20
144.9964651561
  0
LWPOLYLINE
  5
222
100
AcDbEntity
  8
RACCORDO
100
AcDbPolyline
 62
250
  6
CONTINUOUS
 90
10
 70
0
 10
135.9068466551
 20
144.2163130925
 10
135.8928352616
 20
144.2074341896
 10
135.8790365784
 20
144.1965499642
 10
135.8656919731
 20
144.1838508047
 10
135.8530348703
 20
144.1695588462
 10
135.8412866687
 20
144.1539240853
 10
135.8306528687
 20
144.1372200072
 10
135.8213194768
 20
144.1197388012
 10
135.8134497527
 20
144.1017862498
 10
135.8113036854
 20
144.0955861028
  0
LINE
  5
223
100
AcDbEntity
  8
RACCORDO
100
AcDbLine
 62
250
  6
CONTINUOUS
 10
137.4847654354
 20
143.1293502618
 11
139.171452934
 21
144.1032258282
  0
LINE
  5
224
100
AcDbEntity
  8
RACCORDO
100
AcDbLine
 62
250
  6
CONTINUOUS
 10
137.7675511622
 20
142.9660733273
 11
139.3128527511
 21
143.8583141611
  0
LINE
  5
225
100
AcDbEntity
  8
RACCORDO
100
AcDbLine
 62
250
  6
CONTINUOUS
 10
141.1925158913
 20
144.8206819121
 11
139.368984791
 21
143.8132258136
  0
LINE
  5
226
100
AcDbEntity
  8
RACCORDO
100
AcDbLine
 62
250
  6
CONTINUOUS
 10
141.8528587448
 20
144.7317852752
 11
139.0983836447
 21
143.2103193646
  0
LINE
  5
227
100
AcDbEntity
  8
RACCORDO
100
AcDbLine
 62
250
  6
CONTINUOUS
 10
141.9864103975
 20
145.2572215686
 11
141.1925158913
 21
144.8206819121
  0
LINE
  5
228
100
AcDbEntity
  8
RACCORDO
100
AcDbLine
 62
250
  6
CONTINUOUS
 10
142.6382016324
 20
145.1636659489
 11
141.8527995405
 21
144.731819459
  0
LINE
  5
229
100
AcDbEntity
  8
RACCORDO
100
AcDbLine
 62
7
  6
CONTINUOUS
 10
141.9255795072
 20
145.2303782975
 11
139.429117488
 21
143.8627697551
  0
LINE
  5
22A
100
AcDbEntity
  8
RACCORDO
100
AcDbLine
 62
250
  6
CONTINUOUS
 10
139.4280964736
 20
143.8619511849
 11
139.429117488
 21
143.8627697551
  0
LINE
  5
22B
100
AcDbEntity
  8
RACCORDO
100
AcDbLine
 62
250
  6
CONTINUOUS
 10
141.9255795072
 20
145.2303782975
 11
141.9306271204
 21
145.2328591106
  0
LINE
  5
22C
100
AcDbEntity
  8
RACCORDO
100
AcDbLine
 62
250
  6
CONTINUOUS
 10
135.9068466551
 20
144.2163130925
 11
136.8762198943
 21
144.7376106503
  0
LINE
  5
22D
100
AcDbEntity
  8
ASSI
100
AcDbLine
 62
7
  6
CONTINUOUS
 10
137.5470557284
 20
144.9964651561
 11
136.9475467106
 21
144.6740686072
  0
LINE
  5
22E
100
AcDbEntity
  8
RACCORDO
100
AcDbLine
 62
250
  6
CONTINUOUS
 10
137.6442490682
 20
144.9850141999
 11
136.9788353488
 21
144.6271762353
  0
LINE
  5
22F
100
AcDbEntity
  8
RACCORDO
100
AcDbLine
 62
250
  6
CONTINUOUS
 10
136.0445657985
 20
143.9692265034
 11
137.0177058745
 21
144.4925497442
  0
LWPOLYLINE
  5
230
100
AcDbEntity
  8
ASSI
100
AcDbPolyline
 62
250
  6
CONTINUOUS
 90
8
 70
0
 10
141.8711792807
 20
144.1271837899
 10
141.8747109951
 20
144.1290120747
 10
141.8880574848
 20
144.1337166236
 10
141.9026330453
 20
144.1356549
 10
141.9182151766
 20
144.1347972621
 10
141.9345660196
 20
144.1311567608
 10
141.9514359929
 20
144.1247889266
 10
141.9685675752
 20
144.1157909251
  0
LWPOLYLINE
  5
231
100
AcDbEntity
  8
ASSI
100
AcDbPolyline
 62
250
  6
CONTINUOUS
 90
8
 70
0
 10
141.7300855806
 20
144.0485234144
 10
141.733553374
 20
144.0503082166
 10
141.7469402163
 20
144.054997503
 10
141.7615611185
 20
144.0569084068
 10
141.7771592022
 20
144.0560152121
 10
141.7934796083
 20
144.0523511629
 10
141.8102810993
 20
144.0459881587
 10
141.8273071352
 20
144.0370379156
  0
LWPOLYLINE
  5
232
100
AcDbEntity
  8
ASSI
100
AcDbPolyline
 62
250
  6
CONTINUOUS
 90
9
 70
0
 10
139.171452934
 20
144.1032258282
 10
139.1860563164
 20
144.1104883945
 10
139.2004767875
 20
144.1159085781
 10
139.2145598435
 20
144.1194283076
 10
139.2281545855
 20
144.1210098728
 10
139.2411153689
 20
144.1206363334
 10
139.2533033577
 20
144.1183116853
 10
139.2645879734
 20
144.1140608175
 10
139.268989623
 20
144.1117338594
  0
LINE
  5
233
100
AcDbEntity
  8
RACCORDO
100
AcDbLine
 62
250
  6
CONTINUOUS
 10
141.9255795072
 20
145.2303782975
 11
141.940744211
 21
145.237869655
  0
LINE
  5
234
100
AcDbEntity
  8
RACCORDO
100
AcDbLine
 62
250
  6
CONTINUOUS
 10
141.9864103975
 20
145.2572215685
 11
141.9975923427
 21
145.2626987025
  0
LINE
  5
235
100
AcDbEntity
  8
RACCORDO
100
AcDbLine
 62
250
  6
CONTINUOUS
 10
136.0445657985
 20
143.9692265034
 11
136.0367646967
 21
143.9654077406
  0
LWPOLYLINE
  5
236
100
AcDbEntity
  8
RACCORDO
100
AcDbPolyline
 62
250
  6
CONTINUOUS
 90
7
 70
0
 10
142.6382016324
 20
145.1636659489
 10
142.6564338176
 20
145.1724590802
 10
142.6743195673
 20
145.1783491697
 10
142.6915595985
 20
145.1812376813
 10
142.7078654469
 20
145.1810763052
 10
142.7229642625
 20
145.1778677642
 10
142.7357383231
 20
145.1721739791
  0
LWPOLYLINE
  5
237
100
AcDbEntity
  8
RACCORDO
100
AcDbPolyline
 62
250
  6
CONTINUOUS
 90
7
 70
0
 10
148.4124530949
 20
147.0446202151
 10
148.4306849121
 20
147.0534131974
 10
148.4485703623
 20
147.05930327
 10
148.4658101739
 20
147.0621918764
 10
148.4821158784
 20
147.0620306829
 10
148.4972146376
 20
147.0588223869
 10
148.5099187541
 20
147.0531691998
  0
LINE
  5
238
100
AcDbEntity
  8
RACCORDO
100
AcDbLine
 62
250
  6
CONTINUOUS
 10
139.4280964736
 20
143.8619511849
 11
139.368984791
 21
143.8345149459
  0
LINE
  5
239
100
AcDbEntity
  8
RACCORDO
100
AcDbLine
 62
7
  6
CONTINUOUS
 10
139.4293806257
 20
143.8629002499
 11
139.368984791
 21
143.8356520264
  0
LINE
  5
23A
100
AcDbEntity
  8
ASSI
100
AcDbLine
 62
7
  6
CONTINUOUS
 10
141.3048039776
 20
143.3145429131
 11
141.3526534749
 21
143.33595115
  0
LWPOLYLINE
  5
23B
100
AcDbEntity
  8
RACCORDO
100
AcDbPolyline
 62
250
  6
CONTINUOUS
 90
3
 70
0
 10
148.3007388803
 20
147.063365704
 10
148.2930559238
 20
147.0600123924
 10
148.2907016558
 20
147.0587942174
  0
LINE
  5
23C
100
AcDbEntity
  8
RACCORDO
100
AcDbLine
 62
250
  6
CONTINUOUS
 10
141.9864103975
 20
145.2572215686
 11
141.9306271204
 21
145.2328591106
  0
LINE
  5
23D
100
AcDbEntity
  8
RACCORDO
100
AcDbLine
 62
7
  6
CONTINUOUS
 10
141.9850083817
 20
145.2572398636
 11
141.9410365159
 21
145.237998843
  0
LINE
  5
23E
100
AcDbEntity
  8
RACCORDO
100
AcDbLine
 62
7
  6
CONTINUOUS
 10
141.9975923427
 20
145.2626987025
 11
141.9850083817
 21
145.2572398636
  0
LWPOLYLINE
  5
23F
100
AcDbEntity
  8
ASSI
100
AcDbPolyline
 62
250
  6
CONTINUOUS
 90
4
 70
0
 10
144.3450205755
 20
144.3347126072
 10
144.3981871865
 20
144.3570852322
 10
144.4529689553
 20
144.3830808876
 10
144.5092368203
 20
144.4128271954
  0
LWPOLYLINE
  5
240
100
AcDbEntity
  8
ASSI
100
AcDbPolyline
 62
250
  6
CONTINUOUS
 90
13
 70
0
 10
141.1925158913
 20
144.8206819121
 10
141.2394318558
 20
144.8383823969
 10
141.2884470124
 20
144.8515486472
 10
141.3393884453
 20
144.8601351662
 10
141.3920790018
 20
144.8641143518
 10
141.4463298714
 20
144.8634721187
 10
141.5019412627
 20
144.8582079136
 10
141.5587174098
 20
144.8483418633
 10
141.6164565864
 20
144.833911039
 10
141.6749436081
 20
144.8149656403
 10
141.7339676353
 20
144.7915748187
 10
141.7933230754
 20
144.7638256014
 10
141.8527995405
 20
144.731819459
  0
LINE
  5
241
100
AcDbEntity
  8
RACCORDO
100
AcDbLine
 62
250
  6
CONTINUOUS
 10
142.033894156
 20
145.2748656493
 11
141.9864103975
 21
145.2572215686
  0
LWPOLYLINE
  5
242
100
AcDbEntity
  8
ASSI
100
AcDbPolyline
 62
250
  6
CONTINUOUS
 90
7
 70
0
 10
139.0978174732
 20
142.431616882
 10
139.1112389369
 20
142.4362837046
 10
139.1258932271
 20
142.4381630676
 10
139.1414975269
 20
142.4372346323
 10
139.1577842208
 20
142.43354874
 10
139.1745183041
 20
142.4271912641
 10
139.1914444731
 20
142.4182862867
  0
LWPOLYLINE
  5
243
100
AcDbEntity
  8
ASSI
100
AcDbPolyline
 62
7
  6
CONTINUOUS
 90
5
 70
0
 10
147.4277828582
 20
146.0913064781
 10
147.4035033001
 20
146.083846765
 10
147.3767964824
 20
146.0737223943
 10
147.3500813284
 20
146.061571747
 10
147.3278202384
 20
146.0498807725
  0
LINE
  5
244
100
AcDbEntity
  8
RACCORDO
100
AcDbLine
 62
7
  6
CONTINUOUS
 10
139.4280964737
 20
143.8619511848
 11
139.4290221702
 21
143.8627261249
  0
LINE
  5
245
100
AcDbEntity
  8
ASSI
100
AcDbLine
 62
250
  6
CONTINUOUS
 10
147.8105990093
 20
145.8159893824
 11
144.9448221021
 21
144.1613257128
  0
LINE
  5
246
100
AcDbEntity
  8
ASSI
100
AcDbLine
 62
250
  6
CONTINUOUS
 10
147.9518265525
 20
145.5796984642
 11
145.0860496453
 21
143.9250347946
  0
LINE
  5
247
100
AcDbEntity
  8
ASSI
100
AcDbLine
 62
250
  6
CONTINUOUS
 10
145.4071110291
 20
143.877607505
 11
143.9806561653
 21
143.0539903443
  0
LINE
  5
248
100
AcDbEntity
  8
ASSI
100
AcDbLine
 62
250
  6
CONTINUOUS
 10
145.5483385723
 20
143.6413165867
 11
144.2558906913
 21
142.8950733784
  0
LWPOLYLINE
  5
249
100
AcDbEntity
  8
ASSI
100
AcDbPolyline
 62
250
  6
CONTINUOUS
 90
13
 70
0
 10
141.1838808436
 20
142.9320650658
 10
141.1965505765
 20
142.9393669449
 10
141.2092007694
 20
142.9476631892
 10
141.2217471784
 20
142.9568672254
 10
141.2340012654
 20
142.9667882095
 10
141.2460049338
 20
142.9774150248
 10
141.2579967659
 20
142.9889958087
 10
141.2700126274
 20
143.0016477732
 10
141.281786694
 20
143.015173145
 10
141.2930831742
 20
143.0293762321
 10
141.3037654002
 20
143.0441097718
 10
141.3137767857
 20
143.0592949916
 10
141.3230223922
 20
143.074803975
  0
LWPOLYLINE
  5
24A
100
AcDbEntity
  8
RACCORDO
100
AcDbPolyline
 62
7
  6
CONTINUOUS
 90
8
 70
0
 10
150.5518331327
 20
146.0837699842
 10
150.5635632862
 20
146.0904114564
 10
150.573928949
 20
146.0961683107
 10
150.5827842274
 20
146.1009513009
 10
150.5899308488
 20
146.104695783
 10
150.5951775341
 20
146.1073526017
 10
150.5984325217
 20
146.1087370859
 10
150.599608171
 20
146.1088754108
  0
LWPOLYLINE
  5
24B
100
AcDbEntity
  8
ASSI
100
AcDbPolyline
 62
250
  6
CONTINUOUS
 90
16
 70
0
 10
144.9448221021
 20
144.1613257128
 10
144.9124463868
 20
144.1432436592
 10
144.8808431616
 20
144.1267451822
 10
144.8500371438
 20
144.1117616703
 10
144.8202921325
 20
144.0983312631
 10
144.7913801666
 20
144.0862598035
 10
144.7625905525
 20
144.0752031206
 10
144.7339148567
 20
144.0651502802
 10
144.7054024051
 20
144.0561191403
 10
144.6764474616
 20
144.0479461549
 10
144.6470191121
 20
144.0406808639
 10
144.6172188432
 20
144.0344140147
 10
144.5866653986
 20
144.0291575744
 10
144.5552756657
 20
144.0250181106
 10
144.5232529444
 20
144.0221441169
 10
144.4906652823
 20
144.0206626324
  0
LINE
  5
24C
100
AcDbEntity
  8
ASSI
100
AcDbLine
 62
7
  6
CONTINUOUS
 10
141.729918801
 20
144.0484307583
 11
141.8711792807
 21
144.1271837899
  0
LINE
  5
24D
100
AcDbEntity
  8
ASSI
100
AcDbLine
 62
250
  6
CONTINUOUS
 10
141.8273071352
 20
144.0370379156
 11
141.9685675752
 21
144.1157909251
  0
LINE
  5
24E
100
AcDbEntity
  8
ASSI
100
AcDbLine
 62
7
  6
CONTINUOUS
 10
138.8918222545
 20
142.316933289
 11
139.0940561389
 21
142.4296791294
  0
LINE
  5
24F
100
AcDbEntity
  8
ASSI
100
AcDbLine
 62
250
  6
CONTINUOUS
 10
138.9497019376
 20
142.2835142854
 11
139.1914444731
 21
142.4182862867
  0
LINE
  5
250
100
AcDbEntity
  8
ASSI
100
AcDbLine
 62
7
  6
CONTINUOUS
 10
139.7192244385
 20
142.1812025216
 11
141.0864928574
 21
142.9434577065
  0
LINE
  5
251
100
AcDbEntity
  8
ASSI
100
AcDbLine
 62
250
  6
CONTINUOUS
 10
139.7771041216
 20
142.147783518
 11
141.1838811925
 21
142.9320648643
  0
LINE
  5
252
100
AcDbEntity
  8
ASSI
100
AcDbLine
 62
7
  6
CONTINUOUS
 10
144.4117882139
 20
144.4241960685
 11
145.6428368432
 21
145.1104987855
  0
LINE
  5
253
100
AcDbEntity
  8
ASSI
100
AcDbLine
 62
250
  6
CONTINUOUS
 10
144.5092368203
 20
144.4128271954
 11
145.7402252101
 21
145.099105961
  0
LINE
  5
254
100
AcDbEntity
  8
ASSI
100
AcDbLine
 62
7
  6
CONTINUOUS
 10
145.6428368432
 20
145.1104987855
 11
145.6429620819
 21
145.1105684236
  0
LINE
  5
255
100
AcDbEntity
  8
ASSI
100
AcDbLine
 62
250
  6
CONTINUOUS
 10
141.729918801
 20
144.0484307583
 11
141.7300855806
 21
144.0485234144
  0
LWPOLYLINE
  5
256
100
AcDbEntity
  8
ASSI
100
AcDbPolyline
 62
250
  6
CONTINUOUS
 90
16
 70
0
 10
145.0860496453
 20
143.9250347946
 10
145.04932274
 20
143.9046700799
 10
145.0135262325
 20
143.8859394522
 10
144.9786601228
 20
143.8688429114
 10
144.9449777787
 20
143.8535358999
 10
144.9122258325
 20
143.8398629753
 10
144.8796441808
 20
143.8273578104
 10
144.8471864337
 20
143.8159002159
 10
144.8148989812
 20
143.8056103811
 10
144.7821608899
 20
143.7963825463
 10
144.7488726445
 20
143.7881053021
 10
144.7151337603
 20
143.780890058
 10
144.6806218502
 20
143.7749652824
 10
144.6452294519
 20
143.7704071316
 10
144.6090640278
 20
143.7671394494
 10
144.5721255778
 20
143.7651622358
  0
LWPOLYLINE
  5
257
100
AcDbEntity
  8
ASSI
100
AcDbPolyline
 62
7
  6
CONTINUOUS
 90
16
 70
0
 10
147.3278387924
 20
146.0498911204
 10
146.5595391303
 20
145.6215680083
 10
146.5472579837
 20
145.6153590478
 10
146.5326520504
 20
145.6090860799
 10
146.5158708707
 20
145.6030325154
 10
146.4969662647
 20
145.5974043756
 10
146.4762066827
 20
145.592443914
 10
146.4537750977
 20
145.5883340688
 10
146.4299587875
 20
145.5852459949
 10
146.4052511228
 20
145.5833265005
 10
146.3799222409
 20
145.582657146
 10
146.3543816143
 20
145.5832906181
 10
146.3293761624
 20
145.585198071
 10
146.3052385001
 20
145.5883055016
 10
146.2823323862
 20
145.5924936286
 10
146.2762802821
 20
145.5938170243
  0
LINE
  5
258
100
AcDbEntity
  8
ASSI
100
AcDbLine
 62
250
  6
CONTINUOUS
 10
147.4339243328
 20
146.0433019953
 11
146.6581036197
 21
145.6108252161
  0
LWPOLYLINE
  5
259
100
AcDbEntity
  8
ASSI
100
AcDbPolyline
 62
7
  6
CONTINUOUS
 90
10
 70
0
 10
144.4117882139
 20
144.4241960685
 10
144.3995114564
 20
144.4174267608
 10
144.3366859299
 20
144.3850662253
 10
144.2752876089
 20
144.3572306528
 10
144.2157999885
 20
144.3340269272
 10
144.1583962194
 20
144.315386654
 10
144.1030272819
 20
144.3011722418
 10
144.0499277053
 20
144.2913565224
 10
143.9995078847
 20
144.2859088468
 10
143.9915908827
 20
144.2854287462
  0
LWPOLYLINE
  5
25A
100
AcDbEntity
  8
ASSI
100
AcDbPolyline
 62
250
  6
CONTINUOUS
 90
13
 70
0
 10
141.9685675752
 20
144.1157909251
 10
141.9813049098
 20
144.1227490224
 10
141.9936611254
 20
144.1290213192
 10
142.0056233142
 20
144.1346424945
 10
142.0171745191
 20
144.1396468156
 10
142.0283128827
 20
144.144071271
 10
142.0390512525
 20
144.1479534931
 10
142.0493874353
 20
144.1513281794
 10
142.0593159363
 20
144.1542284846
 10
142.068846796
 20
144.1566870477
 10
142.0779816856
 20
144.1587366012
 10
142.0867195926
 20
144.1604086758
 10
142.0950681853
 20
144.161732396
  0
LINE
  5
25B
100
AcDbEntity
  8
RACCORDO
100
AcDbLine
 62
7
  6
CONTINUOUS
 10
148.2907016558
 20
147.0587942174
 11
148.2905570857
 21
147.0587162885
  0
LINE
  5
25C
100
AcDbEntity
  8
ASSI
100
AcDbLine
 62
7
  6
CONTINUOUS
 10
148.2907016523
 20
147.0587942156
 11
143.7217819991
 21
144.6017770821
  0
LINE
  5
25D
100
AcDbEntity
  8
RACCORDO
100
AcDbLine
 62
250
  6
CONTINUOUS
 10
148.4124530949
 20
147.0446202151
 11
143.7360321512
 21
144.5297923664
  0
LINE
  5
25E
100
AcDbEntity
  8
ASSI
100
AcDbLine
 62
250
  6
CONTINUOUS
 10
147.3313720445
 20
146.0517201419
 11
147.3278387924
 21
146.0498911204
  0
LWPOLYLINE
  5
25F
100
AcDbEntity
  8
ASSI
100
AcDbPolyline
 62
250
  6
CONTINUOUS
 90
8
 70
0
 10
141.0865008407
 20
142.9434621565
 10
141.0900263768
 20
142.9452868561
 10
141.103372959
 20
142.9499909919
 10
141.1179484441
 20
142.9519288842
 10
141.1335303457
 20
142.9510709614
 10
141.1498808137
 20
142.9474303262
 10
141.1667502638
 20
142.941062558
 10
141.1838811925
 20
142.9320648643
  0
LWPOLYLINE
  5
260
100
AcDbEntity
  8
ASSI
100
AcDbPolyline
 62
250
  6
CONTINUOUS
 90
8
 70
0
 10
146.560743969
 20
145.6222340403
 10
146.5642485373
 20
145.6240470802
 10
146.5775951065
 20
145.6287512775
 10
146.5921706038
 20
145.6306892268
 10
146.6077525405
 20
145.6298313464
 10
146.624103065
 20
145.6261907314
 10
146.6409725934
 20
145.6198229541
 10
146.6581036197
 20
145.6108252161
  0
LWPOLYLINE
  5
261
100
AcDbEntity
  8
ASSI
100
AcDbPolyline
 62
250
  6
CONTINUOUS
 90
8
 70
0
 10
145.6429620819
 20
145.1105684236
 10
145.6463700858
 20
145.1123278025
 10
145.6597166562
 20
145.1170320022
 10
145.6742921553
 20
145.1189699531
 10
145.6898740937
 20
145.1181120734
 10
145.7062246197
 20
145.1144714584
 10
145.7230941494
 20
145.1081036809
 10
145.7402251766
 20
145.0991059423
  0
LINE
  5
262
100
AcDbEntity
  8
ASSI
100
AcDbLine
 62
250
  6
CONTINUOUS
 10
139.0940561389
 20
142.4296791294
 11
139.0978174732
 21
142.431616882
  0
LWPOLYLINE
  5
263
100
AcDbEntity
  8
ASSI
100
AcDbPolyline
 62
250
  6
CONTINUOUS
 90
8
 70
0
 10
144.4118443743
 20
144.424227424
 10
144.4153817386
 20
144.4260490599
 10
144.4287283081
 20
144.4307532574
 10
144.4433038058
 20
144.432691207
 10
144.4588857426
 20
144.4318333267
 10
144.4752362668
 20
144.4281927115
 10
144.4921057948
 20
144.4218249339
 10
144.5092368203
 20
144.4128271954
  0
LWPOLYLINE
  5
264
100
AcDbEntity
  8
ASSI
100
AcDbPolyline
 62
250
  6
CONTINUOUS
 90
9
 70
0
 10
139.1914444731
 20
142.4182862867
 10
139.2068405153
 20
142.4262052113
 10
139.222053537
 20
142.4320888862
 10
139.236902698
 20
142.4358673723
 10
139.2512114695
 20
142.4374957553
 10
139.2648097757
 20
142.4369546848
 10
139.2775360084
 20
142.434250583
 10
139.2892388979
 20
142.4294155673
 10
139.2914493052
 20
142.4281945223
  0
LWPOLYLINE
  5
265
100
AcDbEntity
  8
ASSI
100
AcDbPolyline
 62
250
  6
CONTINUOUS
 90
6
 70
0
 10
146.6581036197
 20
145.6108252161
 10
146.6294096434
 20
145.5962852223
 10
146.5988569704
 20
145.5835344346
 10
146.5664456007
 20
145.572572853
 10
146.5318043779
 20
145.5633067389
 10
146.4953044584
 20
145.5558298308
  0
LWPOLYLINE
  5
266
100
AcDbEntity
  8
ASSI
100
AcDbPolyline
 62
250
  6
CONTINUOUS
 90
4
 70
0
 10
142.8427120685
 20
143.7353729209
 10
142.8348554975
 20
143.7314004903
 10
142.8293702495
 20
143.7262499478
 10
142.8264841425
 20
143.7200349786
  0
LINE
  5
267
100
AcDbEntity
  8
RACCORDO
100
AcDbLine
 62
7
  6
CONTINUOUS
 10
141.3048039776
 20
143.3145429131
 11
139.4021839242
 21
142.3642577411
  0
LWPOLYLINE
  5
268
100
AcDbEntity
  8
ASSI
100
AcDbPolyline
 62
250
  6
CONTINUOUS
 90
5
 70
0
 10
147.7364257292
 20
142.3742825908
 10
147.7747266533
 20
142.3905909247
 10
147.8149667018
 20
142.4094063014
 10
147.8568216846
 20
142.4307897211
 10
147.9002355827
 20
142.4549070092
  0
LWPOLYLINE
  5
269
100
AcDbEntity
  8
ASSI
100
AcDbPolyline
 62
250
  6
CONTINUOUS
 90
6
 70
0
 10
150.8096521249
 20
144.131732208
 10
150.8171650797
 20
144.1349260419
 10
150.8247873384
 20
144.1379750858
 10
150.8325950638
 20
144.1408967808
 10
150.8406085092
 20
144.1436800589
 10
150.8487929393
 20
144.1462929561
  0
LWPOLYLINE
  5
26A
100
AcDbEntity
  8
ASSI
100
AcDbPolyline
 62
250
  6
CONTINUOUS
 90
13
 70
0
 10
152.8798213996
 20
144.0841972958
 10
152.8868135378
 20
144.0870195962
 10
152.8937065209
 20
144.0899388769
 10
152.9004943646
 20
144.092954768
 10
152.9071422182
 20
144.0960518816
 10
152.9136741665
 20
144.0992440522
 10
152.9201660637
 20
144.1025770031
 10
152.9266094647
 20
144.1060539067
 10
152.9329859776
 20
144.1096746115
 10
152.9393434413
 20
144.1134838467
 10
152.9456808808
 20
144.1174990782
 10
152.9519551178
 20
144.1217083532
 10
152.9581433289
 20
144.1261136511
  0
LWPOLYLINE
  5
26B
100
AcDbEntity
  8
ASSI
100
AcDbPolyline
 62
250
  6
CONTINUOUS
 90
6
 70
0
 10
150.6686644526
 20
144.1209334832
 10
150.6823886779
 20
144.1262475746
 10
150.6974500563
 20
144.1286839124
 10
150.7136077549
 20
144.1282035394
 10
150.7306034104
 20
144.1248141366
 10
150.7481652607
 20
144.1185699011
  0
LINE
  5
26C
100
AcDbEntity
  8
ASSI
100
AcDbLine
 62
250
  6
CONTINUOUS
 10
147.7463619674
 20
141.8361147044
 11
147.6513398484
 21
141.8037519175
  0
LWPOLYLINE
  5
26D
100
AcDbEntity
  8
ASSI
100
AcDbPolyline
 62
7
  6
CONTINUOUS
 90
5
 70
0
 10
150.7665995615
 20
144.1624394143
 10
150.738031889
 20
144.1532584156
 10
150.7098302626
 20
144.1418663736
 10
150.6822020834
 20
144.1284271424
 10
150.6659708381
 20
144.1194576394
  0
LINE
  5
26E
100
AcDbEntity
  8
ASSI
100
AcDbLine
 62
250
  6
CONTINUOUS
 10
150.8487929393
 20
144.1462929561
 11
150.8571400257
 21
144.1487137471
  0
LINE
  5
26F
100
AcDbEntity
  8
0
100
AcDbLine
 62
7
  6
CONTINUOUS
 10
130.6425303292
 20
102.4341915455
 11
145.5107444975
 21
93.8494710271
  0
LINE
  5
270
100
AcDbEntity
  8
0
100
AcDbLine
 62
250
  6
CONTINUOUS
 10
130.5389890186
 20
102.663059976
 11
145.407203187
 21
94.0783394577
  0
LWPOLYLINE
  5
271
100
AcDbEntity
  8
0
100
AcDbPolyline
 62
250
  6
CONTINUOUS
 90
9
 70
0
 10
130.6425303292
 20
102.4341915455
 10
130.6269304268
 20
102.4444003717
 10
130.6043512127
 20
102.4643163591
 10
130.5848252013
 20
102.4885006144
 10
130.5685592587
 20
102.5166969207
 10
130.555725712
 20
102.5486065558
 10
130.5464605248
 20
102.5838914572
 10
130.5408618555
 20
102.6221778038
 10
130.5389890186
 20
102.663059976
  0
LWPOLYLINE
  5
272
100
AcDbEntity
  8
ASSI
100
AcDbPolyline
 62
250
  6
CONTINUOUS
 90
3
 70
0
 10
138.9629710096
 20
143.1238693183
 10
138.942442564
 20
143.0962106178
 10
138.9236890779
 20
143.0677768151
  0
LWPOLYLINE
  5
273
100
AcDbEntity
  8
ASSI
100
AcDbPolyline
 62
250
  6
CONTINUOUS
 90
3
 70
0
 10
139.0093741565
 20
143.1777460108
 10
138.9852815404
 20
143.1510477826
 10
138.9629710096
 20
143.1238693183
  0
LWPOLYLINE
  5
274
100
AcDbEntity
  8
ASSI
100
AcDbPolyline
 62
250
  6
CONTINUOUS
 90
8
 70
0
 10
139.3121964797
 20
143.4296125203
 10
139.313376039
 20
143.4309117519
 10
139.3173741767
 20
143.4373194852
 10
139.3197551203
 20
143.4451656949
 10
139.3204924422
 20
143.4543642798
 10
139.3195781661
 20
143.4648145933
 10
139.3170223141
 20
143.4764029988
 10
139.3128527511
 20
143.4890031715
  0
LINE
  5
275
100
AcDbEntity
  8
ASSI
100
AcDbLine
 62
250
  6
CONTINUOUS
 10
139.3128527511
 20
143.4890031715
 11
139.0093741565
 21
143.1777460108
  0
LINE
  5
276
100
AcDbEntity
  8
ASSI
100
AcDbLine
 62
7
  6
CONTINUOUS
 10
139.3121841606
 20
143.4295998765
 11
139.0087055659
 21
143.1183427156
  0
LWPOLYLINE
  5
277
100
AcDbEntity
  8
ASSI
100
AcDbPolyline
 62
250
  6
CONTINUOUS
 90
10
 70
0
 10
145.563861329
 20
141.8795983541
 10
145.5474433157
 20
141.8690146636
 10
145.5312473267
 20
141.8563658274
 10
145.5154923848
 20
141.8418228989
 10
145.5003915487
 20
141.8255825458
 10
145.4861490315
 20
141.8078643906
 10
145.4729574393
 20
141.7889080414
 10
145.4609951661
 20
141.7689698503
 10
145.4504239812
 20
141.7483194469
 10
145.4413868419
 20
141.7272360925
  0
LWPOLYLINE
  5
278
100
AcDbEntity
  8
RACCORDO
100
AcDbPolyline
 62
250
  6
CONTINUOUS
 90
10
 70
0
 10
143.5078709928
 20
139.8275769032
 10
143.4938596092
 20
139.8186980072
 10
143.4800609338
 20
139.8078137901
 10
143.466716334
 20
139.7951146392
 10
143.4540592343
 20
139.7808226888
 10
143.4423110333
 20
139.7651879345
 10
143.4316772315
 20
139.7484838604
 10
143.4223438357
 20
139.7310026551
 10
143.4144741065
 20
139.7130501011
 10
143.4123280238
 20
139.7068499131
  0
LWPOLYLINE
  5
279
100
AcDbEntity
  8
ASSI
100
AcDbPolyline
 62
250
  6
CONTINUOUS
 90
35
 70
0
 10
147.6023760704
 20
141.7740014853
 10
147.5924534976
 20
141.7678153856
 10
147.5824466674
 20
141.7615028428
 10
147.5723780212
 20
141.7550724463
 10
147.5622895961
 20
141.7484965328
 10
147.5522286204
 20
141.7418130764
 10
147.5421478658
 20
141.734984103
 10
147.5319476848
 20
141.7278680274
 10
147.5216677376
 20
141.7205151678
 10
147.511268364
 20
141.712875206
 10
147.5005309354
 20
141.704655602
 10
147.4894127681
 20
141.6958636208
 10
147.4779565457
 20
141.6864919973
 10
147.4660716907
 20
141.6762263961
 10
147.4536967369
 20
141.6650582938
 10
147.4408931504
 20
141.6529962137
 10
147.4277547523
 20
141.6397513906
 10
147.4142511224
 20
141.6253472582
 10
147.400412681
 20
141.6097603827
 10
147.3864245089
 20
141.5926316979
 10
147.372212449
 20
141.573944886
 10
147.3578506586
 20
141.5537162647
 10
147.3437466902
 20
141.5316357218
 10
147.3297253324
 20
141.5073519936
 10
147.3159617967
 20
141.4812163437
 10
147.3033892705
 20
141.4539724505
 10
147.2921017606
 20
141.4253159607
 10
147.2820052602
 20
141.3955512276
 10
147.2737509368
 20
141.3663349889
 10
147.2676296664
 20
141.3378540015
 10
147.2633505729
 20
141.3099215084
 10
147.2606921961
 20
141.2836339764
 10
147.2595807158
 20
141.2593568944
 10
147.260089952
 20
141.2367247735
 10
147.2622199048
 20
141.2157376137
  0
LINE
  5
27A
100
AcDbEntity
  8
ASSI
100
AcDbLine
 62
250
  6
CONTINUOUS
 10
147.6220610546
 20
141.7860735543
 11
147.6023760704
 21
141.7740014853
  0
LWPOLYLINE
  5
27B
100
AcDbEntity
  8
RACCORDO
100
AcDbPolyline
 62
7
  6
CONTINUOUS
 90
7
 70
0
 10
143.4060803449
 20
139.8364780382
 10
143.3990395643
 20
139.832182289
 10
143.3819083478
 20
139.8195217044
 10
143.3665579086
 20
139.804820082
 10
143.3531879876
 20
139.7883110443
 10
143.3419875236
 20
139.7702765993
 10
143.3336634641
 20
139.752269844
  0
LWPOLYLINE
  5
27C
100
AcDbEntity
  8
ASSI
100
AcDbPolyline
 62
250
  6
CONTINUOUS
 90
3
 70
0
 10
147.6513398484
 20
141.8037519175
 10
147.6416167797
 20
141.7979235526
 10
147.6220610546
 20
141.7860735543
  0
LWPOLYLINE
  5
27D
100
AcDbEntity
  8
ASSI
100
AcDbPolyline
 62
250
  6
CONTINUOUS
 90
10
 70
0
 10
147.2622199065
 20
141.2157376118
 10
147.2791903042
 20
141.2259070018
 10
147.2978633939
 20
141.2350543653
 10
147.3179875566
 20
141.2430564416
 10
147.3392916197
 20
141.2498054028
 10
147.3614885114
 20
141.2552103066
 10
147.3842791291
 20
141.2591983217
 10
147.4073563694
 20
141.2617157097
 10
147.4304092671
 20
141.2627285484
 10
147.4531271846
 20
141.2622231899
  0
LINE
  5
27E
100
AcDbEntity
  8
ASSI
100
AcDbLine
 62
250
  6
CONTINUOUS
 10
145.700256755
 20
141.9611603618
 11
145.563861329
 21
141.8795983541
  0
LINE
  5
27F
100
AcDbEntity
  8
ASSI
100
AcDbLine
 62
250
  6
CONTINUOUS
 10
143.0430972728
 20
140.1943902328
 11
142.8096803578
 21
140.0548111225
  0
LINE
  5
280
100
AcDbEntity
  8
ASSI
100
AcDbLine
 62
250
  6
CONTINUOUS
 10
145.8435866461
 20
141.7321894204
 11
145.7071912201
 21
141.6506274127
  0
LINE
  5
281
100
AcDbEntity
  8
ASSI
100
AcDbLine
 62
250
  6
CONTINUOUS
 10
143.1864271638
 20
139.9654192914
 11
143.0774086312
 21
139.9002281728
  0
LINE
  5
282
100
AcDbEntity
  8
ASSI
100
AcDbLine
 62
250
  6
CONTINUOUS
 10
145.0641920585
 20
140.691622002
 11
144.4842519737
 21
140.3448282787
  0
LINE
  5
283
100
AcDbEntity
  8
ASSI
100
AcDbLine
 62
250
  6
CONTINUOUS
 10
145.2075219495
 20
140.4626510606
 11
144.7519802472
 21
140.190245329
  0
LINE
  5
284
100
AcDbEntity
  8
ASSI
100
AcDbLine
 62
250
  6
CONTINUOUS
 10
149.5244139702
 20
142.9141627919
 11
148.3358208646
 21
142.2034055266
  0
LINE
  5
285
100
AcDbEntity
  8
ASSI
100
AcDbLine
 62
250
  6
CONTINUOUS
 10
150.4106806184
 20
143.4441342819
 11
151.1513843726
 21
143.8870617836
  0
LINE
  5
286
100
AcDbEntity
  8
ASSI
100
AcDbLine
 62
250
  6
CONTINUOUS
 10
149.6677438614
 20
142.6851918506
 11
148.4791507556
 21
141.9744345852
  0
LINE
  5
287
100
AcDbEntity
  8
ASSI
100
AcDbLine
 62
250
  6
CONTINUOUS
 10
150.5540105417
 20
143.2151633598
 11
151.2947142637
 21
143.6580908422
  0
LWPOLYLINE
  5
288
100
AcDbEntity
  8
ASSI
100
AcDbPolyline
 62
250
  6
CONTINUOUS
 90
7
 70
0
 10
148.1023947294
 20
141.7181470235
 10
148.0872081197
 20
141.7090870775
 10
148.074157612
 20
141.699264238
 10
148.0634190423
 20
141.6888108766
 10
148.0551370921
 20
141.6778678616
 10
148.0494233316
 20
141.666582652
 10
148.0479126501
 20
141.6609333156
  0
LWPOLYLINE
  5
289
100
AcDbEntity
  8
ASSI
100
AcDbPolyline
 62
250
  6
CONTINUOUS
 90
13
 70
0
 10
151.2947142637
 20
143.6580908422
 10
151.2989480674
 20
143.6605714729
 10
151.3032145244
 20
143.6629558127
 10
151.3075136346
 20
143.6652438616
 10
151.3118295853
 20
143.6674326047
 10
151.3161781893
 20
143.669525057
 10
151.3206068847
 20
143.671530263
 10
151.325119166
 20
143.6734553729
 10
151.3297115387
 20
143.6752932365
 10
151.3344209581
 20
143.6770314486
 10
151.3392597426
 20
143.6786658738
 10
151.3442155737
 20
143.6802006474
 10
151.3492884516
 20
143.6816357693
  0
LWPOLYLINE
  5
28A
100
AcDbEntity
  8
ASSI
100
AcDbPolyline
 62
250
  6
CONTINUOUS
 90
10
 70
0
 10
149.670900313
 20
142.6560851272
 10
149.6894727139
 20
142.6668733285
 10
149.7100342252
 20
142.6764423783
 10
149.7322570172
 20
142.6846397087
 10
149.7557867733
 20
142.6913346227
 10
149.7802483384
 20
142.6964203771
 10
149.8052517007
 20
142.6998158852
 10
149.8303982099
 20
142.7014670093
 10
149.8552869338
 20
142.701347424
 10
149.8795210498
 20
142.6994590358
  0
LINE
  5
28B
100
AcDbEntity
  8
ASSI
100
AcDbLine
 62
7
  6
CONTINUOUS
 10
150.6659708381
 20
144.1194576394
 11
150.6660076579
 21
144.1194789143
  0
LINE
  5
28C
100
AcDbEntity
  8
RACCORDO
100
AcDbLine
 62
7
  6
CONTINUOUS
 10
146.8986919497
 20
143.9744842875
 11
150.5518331327
 21
146.0837699842
  0
LINE
  5
28D
100
AcDbEntity
  8
ASSI
100
AcDbLine
 62
7
  6
CONTINUOUS
 10
147.8001623058
 20
142.4647756714
 11
150.6660076579
 21
144.1194789143
  0
LINE
  5
28E
100
AcDbEntity
  8
ASSI
100
AcDbLine
 62
250
  6
CONTINUOUS
 10
147.9002355827
 20
142.4549070092
 11
150.7660124899
 21
144.1095706788
  0
LINE
  5
28F
100
AcDbEntity
  8
RACCORDO
100
AcDbLine
 62
7
  6
CONTINUOUS
 10
143.406004058
 20
139.8364348556
 11
144.3439358459
 21
140.3779867743
  0
LINE
  5
290
100
AcDbEntity
  8
RACCORDO
100
AcDbLine
 62
250
  6
CONTINUOUS
 10
143.5078709928
 20
139.8275769032
 11
144.4439838484
 21
140.3680785896
  0
LWPOLYLINE
  5
291
100
AcDbEntity
  8
ASSI
100
AcDbPolyline
 62
250
  6
CONTINUOUS
 90
13
 70
0
 10
151.1513843726
 20
143.8870617836
 10
151.1584832438
 20
143.8911596232
 10
151.1656378866
 20
143.8951105531
 10
151.1728451929
 20
143.8989092679
 10
151.1800717623
 20
143.9025360698
 10
151.187344512
 20
143.9060014953
 10
151.1947500988
 20
143.9093387829
 10
151.2022881623
 20
143.9125375965
 10
151.2099499294
 20
143.9155829858
 10
151.2178075274
 20
143.91848781
 10
151.2258799454
 20
143.9212400996
 10
151.2341338753
 20
143.923810019
 10
151.2425611009
 20
143.9261764487
  0
LWPOLYLINE
  5
292
100
AcDbEntity
  8
ASSI
100
AcDbPolyline
 62
250
  6
CONTINUOUS
 90
13
 70
0
 10
148.4791507556
 20
141.9744345852
 10
148.4444420222
 20
141.9544019679
 10
148.410056671
 20
141.9357562686
 10
148.3759947021
 20
141.9184974871
 10
148.3422823342
 20
141.902661649
 10
148.3088933485
 20
141.8882127287
 10
148.2757490892
 20
141.8750426503
 10
148.2428573221
 20
141.8631355372
 10
148.2102102814
 20
141.852507266
 10
148.1777060137
 20
141.8430973902
 10
148.1453105344
 20
141.8348857611
 10
148.1130578281
 20
141.8278925275
 10
148.0809478947
 20
141.8221176893
  0
LWPOLYLINE
  5
293
100
AcDbEntity
  8
ASSI
100
AcDbPolyline
 62
250
  6
CONTINUOUS
 90
10
 70
0
 10
147.7884918229
 20
141.5785705351
 10
147.7787636576
 20
141.5730080807
 10
147.7689059605
 20
141.5675914881
 10
147.7589170389
 20
141.5623072869
 10
147.7487668425
 20
141.5571305018
 10
147.7384746571
 20
141.5520598109
 10
147.728118786
 20
141.5471115753
 10
147.7176902432
 20
141.5422579624
 10
147.7071956619
 20
141.5374880526
 10
147.6967568301
 20
141.5328314171
  0
LWPOLYLINE
  5
294
100
AcDbEntity
  8
ASSI
100
AcDbPolyline
 62
7
  6
CONTINUOUS
 90
10
 70
0
 10
147.800162306
 20
142.4647756714
 10
147.788617571
 20
142.4581798081
 10
147.7274473471
 20
142.4255538292
 10
147.6674753804
 20
142.3974496639
 10
147.6091244783
 20
142.3739621931
 10
147.552582171
 20
142.3550433562
 10
147.4979076628
 20
142.3406124481
 10
147.4453641877
 20
142.3306535521
 10
147.3953405673
 20
142.3251271196
 10
147.3873930019
 20
142.3246366612
  0
LWPOLYLINE
  5
295
100
AcDbEntity
  8
ASSI
100
AcDbPolyline
 62
250
  6
CONTINUOUS
 90
10
 70
0
 10
148.3358208646
 20
142.2034055266
 10
148.2838285707
 20
142.1738637887
 10
148.232332932
 20
142.1478750458
 10
148.181453884
 20
142.125391764
 10
148.1316244215
 20
142.1064697141
 10
148.0826164341
 20
142.0908891604
 10
148.0335748864
 20
142.0783516562
 10
147.9843137956
 20
142.0688986589
 10
147.9352819542
 20
142.0627150536
 10
147.8866121235
 20
142.0598854875
  0
LINE
  5
296
100
AcDbEntity
  8
RACCORDO
100
AcDbLine
 62
250
  6
CONTINUOUS
 10
152.8205716685
 20
144.3472142021
 11
153.4948187939
 21
144.730063132
  0
LINE
  5
297
100
AcDbEntity
  8
RACCORDO
100
AcDbLine
 62
250
  6
CONTINUOUS
 10
152.9581433289
 20
144.1261136511
 11
153.6323904542
 21
144.5089625809
  0
LWPOLYLINE
  5
298
100
AcDbEntity
  8
ASSI
100
AcDbPolyline
 62
250
  6
CONTINUOUS
 90
7
 70
0
 10
150.7660124899
 20
144.1095706788
 10
150.7732245256
 20
144.1136523682
 10
150.7804653036
 20
144.1175845233
 10
150.787731706
 20
144.1213628545
 10
150.7949862185
 20
144.1249662567
 10
150.8022599817
 20
144.1284090287
 10
150.8096521249
 20
144.131732208
  0
LWPOLYLINE
  5
299
100
AcDbEntity
  8
ASSI
100
AcDbPolyline
 62
250
  6
CONTINUOUS
 90
8
 70
0
 10
147.8002307507
 20
142.4648152447
 10
147.8028875451
 20
142.4662698134
 10
147.8166117703
 20
142.4715839049
 10
147.8316731487
 20
142.4740202428
 10
147.8478308474
 20
142.4735398698
 10
147.864826503
 20
142.4701504671
 10
147.8823883534
 20
142.4639062315
 10
147.9002355827
 20
142.4549070092
  0
LWPOLYLINE
  5
29A
100
AcDbEntity
  8
ASSI
100
AcDbPolyline
 62
250
  6
CONTINUOUS
 90
13
 70
0
 10
149.5244139702
 20
142.9141627919
 10
149.5522081256
 20
142.9292742667
 10
149.5819683959
 20
142.9426352304
 10
149.6136947813
 20
142.954245683
 10
149.6477525228
 20
142.9642068131
 10
149.6837763794
 20
142.9724174321
 10
149.7206706276
 20
142.9785739745
 10
149.7584745641
 20
142.982584468
 10
149.7971488923
 20
142.9845408848
 10
149.8354799997
 20
142.9844155762
 10
149.8730633487
 20
142.9821993259
 10
149.910303477
 20
142.9779013501
 10
149.9748905042
 20
142.9667710679
  0
LWPOLYLINE
  5
29B
100
AcDbEntity
  8
RACCORDO
100
AcDbPolyline
 62
250
  6
CONTINUOUS
 90
12
 70
0
 10
143.4060794912
 20
139.8364783475
 10
143.4095840224
 20
139.8383658411
 10
143.4169371958
 20
139.8415542107
 10
143.4247615165
 20
139.8439499367
 10
143.4330741865
 20
139.8455269817
 10
143.4419678176
 20
139.8462472321
 10
143.4514057654
 20
139.8460372032
 10
143.4613788092
 20
139.84482744
 10
143.4720371994
 20
139.8425021289
 10
143.4834079076
 20
139.8389205343
 10
143.4953766564
 20
139.8339798333
 10
143.5078709928
 20
139.8275769032
  0
LWPOLYLINE
  5
29C
100
AcDbEntity
  8
RACCORDO
100
AcDbPolyline
 62
7
  6
CONTINUOUS
 90
8
 70
0
 10
153.6659317582
 20
144.0469227391
 10
153.6733848497
 20
144.0509047134
 10
153.6798378403
 20
144.0542071562
 10
153.6852122778
 20
144.0567868305
 10
153.6894055277
 20
144.058621417
 10
153.6923582605
 20
144.0596685346
 10
153.6940564814
 20
144.0598693907
 10
153.6942646547
 20
144.05979291
  0
LWPOLYLINE
  5
29D
100
AcDbEntity
  8
ASSI
100
AcDbPolyline
 62
250
  6
CONTINUOUS
 90
13
 70
0
 10
149.6677438614
 20
142.6851918497
 10
149.6814064271
 20
142.6919117671
 10
149.6963257693
 20
142.6977879667
 10
149.712373177
 20
142.7027446984
 10
149.7294407608
 20
142.7067159714
 10
149.7473592277
 20
142.7096471508
 10
149.7658907119
 20
142.7114921226
 10
149.7848268145
 20
142.7122368885
 10
149.8040434154
 20
142.7118744135
 10
149.8234192085
 20
142.7103758073
 10
149.8427950646
 20
142.7077281064
 10
149.8619620644
 20
142.7039637561
 10
149.8807197602
 20
142.6991148043
  0
LWPOLYLINE
  5
29E
100
AcDbEntity
  8
ASSI
100
AcDbPolyline
 62
250
  6
CONTINUOUS
 90
27
 70
0
 10
147.6558526394
 20
141.5148539107
 10
147.6457386002
 20
141.5103458345
 10
147.6355290303
 20
141.50567062
 10
147.6251423663
 20
141.5008021348
 10
147.6146210683
 20
141.4957247678
 10
147.6039904249
 20
141.4903199451
 10
147.5931842605
 20
141.484544715
 10
147.5822227254
 20
141.4783847448
 10
147.5712580957
 20
141.4717436799
 10
147.5602967717
 20
141.464590104
 10
147.5493236783
 20
141.4568811839
 10
147.538471191
 20
141.4484818637
 10
147.5277526164
 20
141.4393536879
 10
147.5171955205
 20
141.4294641527
 10
147.5069728487
 20
141.4186739084
 10
147.4970860416
 20
141.4068228145
 10
147.4876527525
 20
141.3940425087
 10
147.4790604689
 20
141.3806431834
 10
147.4714894441
 20
141.3665326907
 10
147.4649697093
 20
141.3518830795
 10
147.4596623865
 20
141.3374143686
 10
147.4557433322
 20
141.3232445995
 10
147.453156074
 20
141.3093666518
 10
147.4516430186
 20
141.2962743223
 10
147.4510981615
 20
141.2841267013
 10
147.4516009139
 20
141.2727781612
 10
147.4531278142
 20
141.2622231036
  0
LINE
  5
29F
100
AcDbEntity
  8
ASSI
100
AcDbLine
 62
250
  6
CONTINUOUS
 10
147.6967568301
 20
141.5328314171
 11
147.6558526394
 21
141.5148539107
  0
LWPOLYLINE
  5
2A0
100
AcDbEntity
  8
ASSI
100
AcDbPolyline
 62
250
  6
CONTINUOUS
 90
3
 70
0
 10
146.7387564198
 20
139.704128473
 10
146.7272512325
 20
139.7000741056
 10
146.7233985106
 20
139.6981598403
  0
LWPOLYLINE
  5
2A1
100
AcDbEntity
  8
RACCORDO
100
AcDbPolyline
 62
250
  6
CONTINUOUS
 90
5
 70
0
 10
151.7951715762
 20
105.9301877092
 10
151.8087682748
 20
105.9317761609
 10
151.8217378625
 20
105.9314088623
 10
151.8339342603
 20
105.9290884652
 10
151.8452249236
 20
105.9248406968
  0
LINE
  5
2A2
100
AcDbEntity
  8
RACCORDO
100
AcDbLine
 62
7
  6
CONTINUOUS
 10
142.999708266
 20
104.6593872432
 11
143.1386440247
 21
104.6751046208
  0
LINE
  5
2A3
100
AcDbEntity
  8
RACCORDO
100
AcDbLine
 62
250
  6
CONTINUOUS
 10
143.0579331096
 20
104.7172196565
 11
143.1386440247
 21
104.7263502355
  0
LINE
  5
2A4
100
AcDbEntity
  8
RACCORDO
100
AcDbLine
 62
7
  6
CONTINUOUS
 10
148.558476714
 20
104.4448196882
 11
148.5089871425
 21
104.4453184125
  0
LINE
  5
2A5
100
AcDbEntity
  8
RACCORDO
100
AcDbLine
 62
250
  6
CONTINUOUS
 10
148.5614997691
 20
104.5715882163
 11
148.5089871425
 21
104.572117405
  0
LINE
  5
2A6
100
AcDbEntity
  8
RACCORDO
100
AcDbLine
 62
250
  6
CONTINUOUS
 10
143.2850906341
 20
98.0821526413
 11
132.6611015715
 21
104.2163107762
  0
LINE
  5
2A7
100
AcDbEntity
  8
RACCORDO
100
AcDbLine
 62
250
  6
CONTINUOUS
 10
143.2056313228
 20
98.2476020999
 11
132.7646549621
 21
104.2760909944
  0
LWPOLYLINE
  5
2A8
100
AcDbEntity
  8
ASSI
100
AcDbPolyline
 62
250
  6
CONTINUOUS
 90
6
 70
0
 10
138.9236890779
 20
143.0677768151
 10
138.906717677
 20
143.0388627763
 10
138.8915497387
 20
143.0103530992
 10
138.8783157714
 20
142.9826252411
 10
138.8668852666
 20
142.9553017447
 10
138.8568880763
 20
142.9281348365
  0
LWPOLYLINE
  5
2A9
100
AcDbEntity
  8
ASSI
100
AcDbPolyline
 62
250
  6
CONTINUOUS
 90
6
 70
0
 10
139.008707295
 20
143.1183444892
 10
139.0139159605
 20
143.1261079611
 10
139.0166210265
 20
143.1361273454
 10
139.0167600555
 20
143.148215599
 10
139.0143306826
 20
143.1621674575
 10
139.0093741565
 20
143.1777460108
  0
LWPOLYLINE
  5
2AA
100
AcDbEntity
  8
ASSI
100
AcDbPolyline
 62
250
  6
CONTINUOUS
 90
11
 70
0
 10
143.1864271638
 20
139.9654192914
 10
143.199084809
 20
139.9784336942
 10
143.2101001215
 20
139.9919943266
 10
143.2193600038
 20
140.0059582829
 10
143.2267675437
 20
140.0201733087
 10
143.2322518393
 20
140.0344957172
 10
143.235761252
 20
140.0487921065
 10
143.2372556057
 20
140.0629285156
 10
143.2367100379
 20
140.0767397083
 10
143.2341343026
 20
140.0900502764
 10
143.2327569798
 20
140.0945721202
  0
LINE
  5
2AB
100
AcDbEntity
  8
ASSI
100
AcDbLine
 62
250
  6
CONTINUOUS
 10
150.5249636033
 20
143.1637559234
 11
150.5388291679
 21
143.1747732869
  0
LWPOLYLINE
  5
2AC
100
AcDbEntity
  8
ASSI
100
AcDbPolyline
 62
7
  6
CONTINUOUS
 90
7
 70
0
 10
148.1143172753
 20
140.5712548838
 10
148.1033524566
 20
140.563109048
 10
148.0939050871
 20
140.5544633871
 10
148.0859132399
 20
140.5452454132
 10
148.0794388417
 20
140.5355276143
 10
148.0746676734
 20
140.5255274545
 10
148.0720706574
 20
140.5167065912
  0
LINE
  5
2AD
100
AcDbEntity
  8
ASSI
100
AcDbLine
 62
7
  6
CONTINUOUS
 10
146.9185159706
 20
139.6946674563
 11
147.6451963886
 21
140.2070598869
  0
LINE
  5
2AE
100
AcDbEntity
  8
RACCORDO
100
AcDbLine
 62
250
  6
CONTINUOUS
 10
146.9816965722
 20
139.6585135299
 11
147.7806545126
 21
140.2218698429
  0
LINE
  5
2AF
100
AcDbEntity
  8
ASSI
100
AcDbLine
 62
7
  6
CONTINUOUS
 10
148.5006811393
 20
139.1597336255
 11
149.3312093129
 21
139.6945239529
  0
LWPOLYLINE
  5
2B0
100
AcDbEntity
  8
ASSI
100
AcDbPolyline
 62
7
  6
CONTINUOUS
 90
6
 70
0
 10
150.592898693
 20
141.988137478
 10
150.5790212303
 20
141.9792140666
 10
150.5670669589
 20
141.9696883295
 10
150.5570358785
 20
141.9595602667
 10
150.5488446786
 20
141.9486960679
 10
150.5469443916
 20
141.9452197346
  0
LINE
  5
2B1
100
AcDbEntity
  8
ASSI
100
AcDbLine
 62
250
  6
CONTINUOUS
 10
150.5388291679
 20
143.1747732869
 11
150.5552414105
 21
143.1849051504
  0
LINE
  5
2B2
100
AcDbEntity
  8
ASSI
100
AcDbLine
 62
7
  6
CONTINUOUS
 10
148.126799543
 20
140.5789008947
 11
148.1143172753
 21
140.5712548838
  0
LINE
  5
2B3
100
AcDbEntity
  8
RACCORDO
100
AcDbLine
 62
250
  6
CONTINUOUS
 10
155.4340109905
 20
142.4913607487
 11
151.4178630703
 21
140.1592239627
  0
LINE
  5
2B4
100
AcDbEntity
  8
RACCORDO
100
AcDbLine
 62
250
  6
CONTINUOUS
 10
155.5800684862
 20
142.2060430323
 11
151.737471957
 21
139.9746857971
  0
LINE
  5
2B5
100
AcDbEntity
  8
RACCORDO
100
AcDbLine
 62
250
  6
CONTINUOUS
 10
147.7135909819
 20
139.2359268705
 11
148.6009236694
 21
139.7482567122
  0
LINE
  5
2B6
100
AcDbEntity
  8
RACCORDO
100
AcDbLine
 62
250
  6
CONTINUOUS
 10
147.9960330999
 20
139.0728483314
 11
148.7421512125
 21
139.5036434322
  0
LINE
  5
2B7
100
AcDbEntity
  8
RACCORDO
100
AcDbLine
 62
250
  6
CONTINUOUS
 10
150.7412940075
 20
140.4850419671
 11
155.2572612192
 21
143.0925137897
  0
LINE
  5
2B8
100
AcDbEntity
  8
RACCORDO
100
AcDbLine
 62
7
  6
CONTINUOUS
 10
148.1731182407
 20
138.9706015905
 11
148.5006811393
 21
139.1597336255
  0
LINE
  5
2B9
100
AcDbEntity
  8
RACCORDO
100
AcDbLine
 62
250
  6
CONTINUOUS
 10
148.3477957162
 20
138.8049205123
 11
147.7495382008
 21
138.4594929348
  0
LINE
  5
2BA
100
AcDbEntity
  8
RACCORDO
100
AcDbLine
 62
250
  6
CONTINUOUS
 10
151.1509121106
 20
140.3133581011
 11
155.4340109905
 21
142.7863742058
  0
LINE
  5
2BB
100
AcDbEntity
  8
RACCORDO
100
AcDbLine
 62
250
  6
CONTINUOUS
 10
148.4891955333
 20
138.5600088452
 11
148.0323239276
 21
138.2962160003
  0
LINE
  5
2BC
100
AcDbEntity
  8
0
100
AcDbLine
 62
250
  6
CONTINUOUS
 10
147.06712037
 20
137.5966186177
 11
145.7515016287
 21
136.8370005915
  0
LINE
  5
2BD
100
AcDbEntity
  8
RACCORDO
100
AcDbLine
 62
250
  6
CONTINUOUS
 10
147.4314744698
 20
137.5621374298
 11
148.3675873254
 21
138.1026391163
  0
LINE
  5
2BE
100
AcDbEntity
  8
ASSI
100
AcDbLine
 62
7
  6
CONTINUOUS
 10
152.9341408475
 20
143.3359333308
 11
150.592898693
 21
141.988137478
  0
LINE
  5
2BF
100
AcDbEntity
  8
ASSI
100
AcDbLine
 62
7
  6
CONTINUOUS
 10
149.803707198
 20
141.5338192233
 11
148.5958337529
 21
140.8384760149
  0
LINE
  5
2C0
100
AcDbEntity
  8
RACCORDO
100
AcDbLine
 62
250
  6
CONTINUOUS
 10
151.0639554136
 20
139.4134135007
 11
151.8391245263
 21
139.8511683846
  0
LINE
  5
2C1
100
AcDbEntity
  8
ASSI
100
AcDbLine
 62
7
  6
CONTINUOUS
 10
148.5958337529
 20
140.8384760149
 11
148.1268002821
 21
140.5789013037
  0
LINE
  5
2C2
100
AcDbEntity
  8
ASSI
100
AcDbLine
 62
7
  6
CONTINUOUS
 10
147.3968572543
 20
140.1749327979
 11
146.0599364649
 21
139.4350478015
  0
LINE
  5
2C3
100
AcDbEntity
  8
DRAFT
100
AcDbLine
 62
7
  6
CONTINUOUS
 10
148.4496435506
 20
139.1302649553
 11
148.1636172705
 21
138.9760873316
  0
LINE
  5
2C4
100
AcDbEntity
  8
ASSI
100
AcDbLine
 62
7
  6
CONTINUOUS
 10
146.7233985106
 20
139.6981598403
 11
146.143939469
 21
139.3865455197
  0
LINE
  5
2C5
100
AcDbEntity
  8
RACCORDO
100
AcDbLine
 62
250
  6
CONTINUOUS
 10
146.8205918505
 20
139.6867088841
 11
146.2010780578
 21
139.3535544146
  0
LINE
  5
2C6
100
AcDbEntity
  8
RACCORDO
100
AcDbLine
 62
250
  6
CONTINUOUS
 10
148.4368215398
 20
138.0416195962
 11
151.0638962093
 21
139.4134476846
  0
LWPOLYLINE
  5
2C7
100
AcDbEntity
  8
RACCORDO
100
AcDbPolyline
 62
250
  6
CONTINUOUS
 90
8
 70
0
 10
155.5800684862
 20
142.2060430323
 10
155.5980395821
 20
142.2150129217
 10
155.6152578158
 20
142.2213556563
 10
155.6314350799
 20
142.2249651071
 10
155.646300686
 20
142.2257808801
 10
155.6596058923
 20
142.2237893272
 10
155.6711280664
 20
142.2190237758
 10
155.676130242
 20
142.2156463501
  0
LWPOLYLINE
  5
2C8
100
AcDbEntity
  8
RACCORDO
100
AcDbPolyline
 62
250
  6
CONTINUOUS
 90
8
 70
0
 10
155.9243495979
 20
141.9371643841
 10
155.9423206609
 20
141.9461342591
 10
155.9595388696
 20
141.9524769908
 10
155.9757161169
 20
141.9560864482
 10
155.9905817142
 20
141.9569022353
 10
156.0038869199
 20
141.9549107019
 10
156.0154091021
 20
141.9501451716
 10
156.0203682474
 20
141.9468012856
  0
LWPOLYLINE
  5
2C9
100
AcDbEntity
  8
0
100
AcDbPolyline
 62
250
  6
CONTINUOUS
 90
16
 70
0
 10
146.1049338654
 20
136.2248380012
 10
146.0657096191
 20
136.2054668446
 10
146.0232356421
 20
136.1885337012
 10
145.9779645573
 20
136.1742190196
 10
145.9303731346
 20
136.1626741656
 10
145.8809737707
 20
136.1540240202
 10
145.8303108882
 20
136.1483622351
 10
145.7789372983
 20
136.145746215
 10
145.7273882905
 20
136.1461989083
 10
145.6761937768
 20
136.1497140788
 10
145.6258285847
 20
136.1562656402
 10
145.5769016923
 20
136.165781012
 10
145.5301105343
 20
136.1781060017
 10
145.4859801057
 20
136.1930572896
 10
145.4448805126
 20
136.2104621816
 10
145.407203187
 20
136.2301117399
  0
LWPOLYLINE
  5
2CA
100
AcDbEntity
  8
RACCORDO
100
AcDbPolyline
 62
250
  6
CONTINUOUS
 90
7
 70
0
 10
155.2572612192
 20
143.0925137897
 10
155.2754930318
 20
143.1013067702
 10
155.2933784786
 20
143.1071968427
 10
155.3106182877
 20
143.1100854502
 10
155.326923991
 20
143.1099242588
 10
155.34202275
 20
143.1067159654
 10
155.3547008238
 20
143.1010777675
  0
LWPOLYLINE
  5
2CB
100
AcDbEntity
  8
RACCORDO
100
AcDbPolyline
 62
250
  6
CONTINUOUS
 90
7
 70
0
 10
151.8391245263
 20
139.8511683846
 10
151.8573563387
 20
139.8599613653
 10
151.8752417853
 20
139.8658514379
 10
151.8924815944
 20
139.8687400455
 10
151.9087872977
 20
139.868578854
 10
151.9238860568
 20
139.8653705606
 10
151.9365846863
 20
139.8597205351
  0
LWPOLYLINE
  5
2CC
100
AcDbEntity
  8
RACCORDO
100
AcDbPolyline
 62
250
  6
CONTINUOUS
 90
7
 70
0
 10
155.9541770835
 20
109.0017074516
 10
155.9695875988
 20
109.0060048149
 10
155.9845284076
 20
109.0080213175
 10
155.998798234
 20
109.0076951469
 10
156.0122215516
 20
109.0049875223
 10
156.0245812575
 20
108.9998961727
 10
156.0264542816
 20
108.9988582575
  0
LWPOLYLINE
  5
2CD
100
AcDbEntity
  8
RACCORDO
100
AcDbPolyline
 62
250
  6
CONTINUOUS
 90
7
 70
0
 10
155.6771667906
 20
109.1616497229
 10
155.6925936042
 20
109.1659504815
 10
155.7075435961
 20
109.1679650703
 10
155.7218158651
 20
109.1676343712
 10
155.7352338388
 20
109.1649229715
 10
155.7475839368
 20
109.1598315236
 10
155.7495336727
 20
109.1587488393
  0
LWPOLYLINE
  5
2CE
100
AcDbEntity
  8
RACCORDO
100
AcDbPolyline
 62
7
  6
CONTINUOUS
 90
6
 70
0
 10
142.8889279024
 20
104.6813850249
 10
142.9094589706
 20
104.6712819702
 10
142.9340476856
 20
104.6632791932
 10
142.9595933425
 20
104.6589678313
 10
142.9859969959
 20
104.6583088948
 10
142.999627526
 20
104.6593781703
  0
LWPOLYLINE
  5
2CF
100
AcDbEntity
  8
0
100
AcDbPolyline
 62
250
  6
CONTINUOUS
 90
9
 70
0
 10
130.3925424092
 20
102.8671972727
 10
130.3936570943
 20
102.8479308419
 10
130.3997451561
 20
102.8183717713
 10
130.4110920621
 20
102.7892915406
 10
130.4275721078
 20
102.7610417662
 10
130.4489182409
 20
102.734025138
 10
130.4748129627
 20
102.7085447816
 10
130.5049571779
 20
102.6848143916
 10
130.5389890186
 20
102.663059976
  0
LINE
  5
2D0
100
AcDbEntity
  8
RACCORDO
100
AcDbLine
 62
7
  6
CONTINUOUS
 10
130.3925424152
 20
123.7828290029
 11
130.3925424092
 21
123.7828740966
  0
LINE
  5
2D1
100
AcDbEntity
  8
0
100
AcDbLine
 62
7
  6
CONTINUOUS
 10
130.3925424092
 20
102.8671972727
 11
130.3925424092
 21
123.7828719761
  0
LINE
  5
2D2
100
AcDbEntity
  8
0
100
AcDbLine
 62
7
  6
CONTINUOUS
 10
130.3925424092
 20
124.1168796861
 11
130.3925424092
 21
145.0189695549
  0
LINE
  5
2D3
100
AcDbEntity
  8
RACCORDO
100
AcDbLine
 62
250
  6
CONTINUOUS
 10
130.5389890186
 20
102.663059976
 11
130.5389890186
 21
123.5770647788
  0
LINE
  5
2D4
100
AcDbEntity
  8
DRAFT
100
AcDbLine
 62
250
  6
CONTINUOUS
 10
130.5389890186
 20
123.9190087512
 11
130.5389890186
 21
144.8148322583
  0
LWPOLYLINE
  5
2D5
100
AcDbEntity
  8
0
100
AcDbPolyline
 62
250
  6
CONTINUOUS
 90
16
 70
0
 10
130.5389890186
 20
144.8148322583
 10
130.5408618555
 20
144.8578771356
 10
130.5464605248
 20
144.9026286851
 10
130.555725712
 20
144.9486127926
 10
130.5685592587
 20
144.9953422856
 10
130.5848252013
 20
145.0423220947
 10
130.6043512127
 20
145.0890544985
 10
130.6269304268
 20
145.1350443964
 10
130.6523236314
 20
145.179804555
 10
130.6802618017
 20
145.2228607689
 10
130.7104489506
 20
145.263756885
 10
130.7425652643
 20
145.3020596346
 10
130.7762704907
 20
145.3373632244
 10
130.8112075443
 20
145.369293635
 10
130.8470062892
 20
145.3975125841
 10
130.8832874604
 20
145.4217211099
  0
LWPOLYLINE
  5
2D6
100
AcDbEntity
  8
RACCORDO
100
AcDbPolyline
 62
250
  6
CONTINUOUS
 90
10
 70
0
 10
130.5389890186
 20
123.5770647788
 10
130.5400398246
 20
123.5916949098
 10
130.5431609027
 20
123.607103282
 10
130.5482593511
 20
123.6228319233
 10
130.5551835507
 20
123.6384134662
 10
130.5637275929
 20
123.6533848297
 10
130.5736373401
 20
123.6673010129
 10
130.5846181533
 20
123.6797486055
 10
130.5963437206
 20
123.6903580232
 10
130.6084656253
 20
123.6988142932
  0
LINE
  5
2D7
100
AcDbEntity
  8
ASSI
100
AcDbLine
 62
7
  6
CONTINUOUS
 10
141.2645911292
 20
143.149160146
 11
141.6464033999
 21
143.9590306618
  0
LINE
  5
2D8
100
AcDbEntity
  8
ASSI
100
AcDbLine
 62
250
  6
CONTINUOUS
 10
141.3230203775
 20
143.0748051382
 11
141.7048326481
 21
143.884675654
  0
LWPOLYLINE
  5
2D9
100
AcDbEntity
  8
ASSI
100
AcDbPolyline
 62
7
  6
CONTINUOUS
 90
13
 70
0
 10
141.2645920641
 20
143.1491621286
 10
141.2544253071
 20
143.128829823
 10
141.2420982849
 20
143.1068264342
 10
141.2285073244
 20
143.0850701025
 10
141.2138382917
 20
143.0638677146
 10
141.198301865
 20
143.0435176062
 10
141.1820703315
 20
143.0242243122
 10
141.1653742922
 20
143.0062225976
 10
141.1484890103
 20
142.9897548038
 10
141.1317298261
 20
142.9750443178
 10
141.1154587465
 20
142.9622874644
 10
141.1000229092
 20
142.9516070701
 10
141.0865008406
 20
142.9434621564
  0
LWPOLYLINE
  5
2DA
100
AcDbEntity
  8
ASSI
100
AcDbPolyline
 62
7
  6
CONTINUOUS
 90
7
 70
0
 10
145.6689666945
 20
145.1294902789
 10
145.6693220728
 20
145.130045069
 10
145.6687842013
 20
145.1294213119
 10
145.6660401041
 20
145.1266390012
 10
145.6608669717
 20
145.1222527611
 10
145.6534142079
 20
145.1169116353
 10
145.6429620856
 20
145.1105684171
  0
LWPOLYLINE
  5
2DB
100
AcDbEntity
  8
RACCORDO
100
AcDbPolyline
 62
7
  6
CONTINUOUS
 90
6
 70
0
 10
130.4448064937
 20
123.9356750968
 10
130.4254959789
 20
123.9056750416
 10
130.4105969807
 20
123.8746039199
 10
130.4001691853
 20
123.8428612265
 10
130.3941793942
 20
123.8107626875
 10
130.3925461756
 20
123.7828763442
  0
LWPOLYLINE
  5
2DC
100
AcDbEntity
  8
ASSI
100
AcDbPolyline
 62
250
  6
CONTINUOUS
 90
11
 70
0
 10
147.9051257617
 20
141.6716825568
 10
147.891256529
 20
141.6579349872
 10
147.8834470583
 20
141.650381935
 10
147.8749220153
 20
141.6424494079
 10
147.8656669639
 20
141.634113971
 10
147.8555251047
 20
141.6254254594
 10
147.8443838365
 20
141.6164599638
 10
147.8322589651
 20
141.6072283993
 10
147.8190400287
 20
141.597775306
 10
147.8045073844
 20
141.5881942891
 10
147.7884918229
 20
141.5785705351
  0
LWPOLYLINE
  5
2DD
100
AcDbEntity
  8
RACCORDO
100
AcDbPolyline
 62
7
  6
CONTINUOUS
 90
3
 70
0
 10
130.4714661738
 20
123.9672223052
 10
130.4683494467
 20
123.9641992252
 10
130.4448064937
 20
123.9356750968
  0
LWPOLYLINE
  5
2DE
100
AcDbEntity
  8
ASSI
100
AcDbPolyline
 62
250
  6
CONTINUOUS
 90
3
 70
0
 10
150.5307128003
 20
143.1967370625
 10
150.5417168193
 20
143.2063621007
 10
150.5540105357
 20
143.2151633268
  0
LWPOLYLINE
  5
2DF
100
AcDbEntity
  8
RACCORDO
100
AcDbPolyline
 62
250
  6
CONTINUOUS
 90
7
 70
0
 10
155.4340109905
 20
142.7863742058
 10
155.4507412141
 20
142.7977680361
 10
155.464784194
 20
142.81031347
 10
155.475904954
 20
142.8238005881
 10
155.4839174147
 20
142.8380037144
 10
155.4886875068
 20
142.852685192
 10
155.4901429859
 20
142.8665145374
  0
LWPOLYLINE
  5
2E0
100
AcDbEntity
  8
RACCORDO
100
AcDbPolyline
 62
250
  6
CONTINUOUS
 90
7
 70
0
 10
155.4340109905
 20
142.4913607487
 10
155.4507412057
 20
142.5027545724
 10
155.4647841814
 20
142.5152999997
 10
155.475904941
 20
142.528787112
 10
155.4839174043
 20
142.5429902335
 10
155.4886875012
 20
142.5576717079
 10
155.4901430305
 20
142.5715781561
  0
LWPOLYLINE
  5
2E1
100
AcDbEntity
  8
RACCORDO
100
AcDbPolyline
 62
250
  6
CONTINUOUS
 90
7
 70
0
 10
156.0704070936
 20
141.6518466677
 10
156.0871373087
 20
141.6632404914
 10
156.1011802845
 20
141.6757859188
 10
156.1123010441
 20
141.6892730311
 10
156.1203135074
 20
141.7034761526
 10
156.1250836042
 20
141.7181576269
 10
156.1265390785
 20
141.7319784094
  0
LWPOLYLINE
  5
2E2
100
AcDbEntity
  8
0
100
AcDbPolyline
 62
250
  6
CONTINUOUS
 90
16
 70
0
 10
145.7515016287
 20
136.8370005915
 10
145.7152204575
 20
136.8127920658
 10
145.6794217126
 20
136.7845731167
 10
145.644484659
 20
136.752642706
 10
145.6107794326
 20
136.7173391163
 10
145.5786631189
 20
136.6790363667
 10
145.5484759701
 20
136.6381402506
 10
145.5205377998
 20
136.5950840367
 10
145.4951445952
 20
136.5503238781
 10
145.472565381
 20
136.5043339801
 10
145.4530393697
 20
136.4576015764
 10
145.436773427
 20
136.4106217673
 10
145.4239398804
 20
136.3638922742
 10
145.4146746931
 20
136.3179081668
 10
145.4090760239
 20
136.2731566173
 10
145.407203187
 20
136.2301117399
  0
LWPOLYLINE
  5
2E3
100
AcDbEntity
  8
ASSI
100
AcDbPolyline
 62
250
  6
CONTINUOUS
 90
9
 70
0
 10
148.4891955333
 20
138.5600088452
 10
148.5028504464
 20
138.5690726597
 10
148.5147977441
 20
138.5789038404
 10
148.5249095847
 20
138.5893954881
 10
148.5330738479
 20
138.6004269704
 10
148.5392105753
 20
138.6118849285
 10
148.5432605358
 20
138.6236667807
 10
148.5451719843
 20
138.6356721572
 10
148.5453275492
 20
138.6401696643
  0
LWPOLYLINE
  5
2E4
100
AcDbEntity
  8
ASSI
100
AcDbPolyline
 62
250
  6
CONTINUOUS
 90
7
 70
0
 10
148.4891955333
 20
138.1906978557
 10
148.5028018978
 20
138.1997258537
 10
148.5147169344
 20
138.2095184625
 10
148.5248126665
 20
138.2199705071
 10
148.5329808627
 20
138.2309700519
 10
148.5391334669
 20
138.2423986602
 10
148.5432041287
 20
138.2541325573
  0
LWPOLYLINE
  5
2E5
100
AcDbEntity
  8
RACCORDO
100
AcDbPolyline
 62
250
  6
CONTINUOUS
 90
9
 70
0
 10
156.0704070936
 20
141.2633443185
 10
156.0838648895
 20
141.2722628913
 10
156.0957047576
 20
141.2819596197
 10
156.105786274
 20
141.2923384342
 10
156.1139930242
 20
141.3033056072
 10
156.1202087239
 20
141.3147380614
 10
156.1243391198
 20
141.3264807597
 10
156.1263387904
 20
141.3383942812
 10
156.1265391335
 20
141.3435617259
  0
LWPOLYLINE
  5
2E6
100
AcDbEntity
  8
RACCORDO
100
AcDbPolyline
 62
7
  6
CONTINUOUS
 90
9
 70
0
 10
147.9152415355
 20
136.2112257068
 10
147.918773774
 20
136.2135627706
 10
147.92827861
 20
136.2216301598
 10
147.9364746359
 20
136.2314480149
 10
147.9432845808
 20
136.2429034065
 10
147.9486447194
 20
136.2558602721
 10
147.952505485
 20
136.2701659886
 10
147.9548301768
 20
136.2856551163
 10
147.9556008548
 20
136.3021511451
  0
LWPOLYLINE
  5
2E7
100
AcDbEntity
  8
RACCORDO
100
AcDbPolyline
 62
250
  6
CONTINUOUS
 90
6
 70
0
 10
148.4345253805
 20
135.674269861
 10
148.4462473336
 20
135.6819421276
 10
148.4554401941
 20
135.6906887298
 10
148.4618151167
 20
135.7002351034
 10
148.4651717132
 20
135.7102815647
 10
148.4656899229
 20
135.7161520196
  0
LWPOLYLINE
  5
2E8
100
AcDbEntity
  8
RACCORDO
100
AcDbPolyline
 62
250
  6
CONTINUOUS
 90
13
 70
0
 10
147.4314744698
 20
137.5621374298
 10
147.4174197438
 20
137.5532857188
 10
147.4035740748
 20
137.5424302804
 10
147.390178825
 20
137.5297611857
 10
147.3774663171
 20
137.5155006375
 10
147.3656592773
 20
137.499898065
 10
147.3549667989
 20
137.4832259504
 10
147.3455749363
 20
137.4657765544
 10
147.3376469983
 20
137.4478557353
 10
147.3313238734
 20
137.4297767435
 10
147.3267160281
 20
137.4118561055
 10
147.3239018408
 20
137.3944080335
 10
147.3229294452
 20
137.3777380877
  0
LINE
  5
2E9
100
AcDbEntity
  8
RACCORDO
100
AcDbLine
 62
250
  6
CONTINUOUS
 10
147.9556008548
 20
136.3021511451
 11
148.5089871425
 21
136.6443735264
  0
LINE
  5
2EA
100
AcDbEntity
  8
RACCORDO
100
AcDbLine
 62
7
  6
CONTINUOUS
 10
147.9152422734
 20
136.2112261331
 11
148.4693088518
 21
136.5538692164
  0
LINE
  5
2EB
100
AcDbEntity
  8
RACCORDO
100
AcDbLine
 62
250
  6
CONTINUOUS
 10
152.5466995406
 20
139.1032714344
 11
150.1689588234
 21
137.6603118788
  0
LINE
  5
2EC
100
AcDbEntity
  8
RACCORDO
100
AcDbLine
 62
7
  6
CONTINUOUS
 10
152.5531779474
 20
138.8616091612
 11
150.331434668
 21
137.5138141776
  0
LINE
  5
2ED
100
AcDbEntity
  8
RACCORDO
100
AcDbLine
 62
7
  6
CONTINUOUS
 10
147.9134519198
 20
136.2101560186
 11
147.9152415355
 21
136.2112257068
  0
LINE
  5
2EE
100
AcDbEntity
  8
RACCORDO
100
AcDbLine
 62
250
  6
CONTINUOUS
 10
148.0028606028
 20
136.2573291757
 11
147.875412561
 21
136.1822887155
  0
LINE
  5
2EF
100
AcDbEntity
  8
RACCORDO
100
AcDbLine
 62
250
  6
CONTINUOUS
 10
148.0494503927
 20
136.1092993553
 11
148.0258789613
 21
136.0954227934
  0
LINE
  5
2F0
100
AcDbEntity
  8
RACCORDO
100
AcDbLine
 62
250
  6
CONTINUOUS
 10
155.9243495979
 20
141.9371643841
 11
152.1238157048
 21
139.7302324995
  0
LINE
  5
2F1
100
AcDbEntity
  8
RACCORDO
100
AcDbLine
 62
250
  6
CONTINUOUS
 10
156.0704070936
 20
141.6518466677
 11
152.3630712961
 21
139.4990339818
  0
LINE
  5
2F2
100
AcDbEntity
  8
RACCORDO
100
AcDbLine
 62
250
  6
CONTINUOUS
 10
147.6082187615
 20
137.3376332895
 11
148.5089871425
 21
137.8577274491
  0
LINE
  5
2F3
100
AcDbEntity
  8
0
100
AcDbLine
 62
250
  6
CONTINUOUS
 10
147.4205526066
 20
136.9844560274
 11
146.1049338654
 21
136.2248380012
  0
LINE
  5
2F4
100
AcDbEntity
  8
RACCORDO
100
AcDbLine
 62
250
  6
CONTINUOUS
 10
147.7447465374
 20
136.1804060868
 11
147.9556008548
 21
136.3021511451
  0
LINE
  5
2F5
100
AcDbEntity
  8
RACCORDO
100
AcDbLine
 62
7
  6
CONTINUOUS
 10
147.7008836668
 20
136.0874213519
 11
147.9134524161
 21
136.2101563051
  0
LINE
  5
2F6
100
AcDbEntity
  8
DRAFT
100
AcDbLine
 62
7
  6
CONTINUOUS
 10
147.8904972431
 20
134.1805212156
 11
147.4205526066
 21
133.9137991235
  0
LINE
  5
2F7
100
AcDbEntity
  8
RACCORDO
100
AcDbLine
 62
250
  6
CONTINUOUS
 10
151.7069633783
 20
138.7497717107
 11
152.5081590652
 21
139.2018449036
  0
LWPOLYLINE
  5
2F8
100
AcDbEntity
  8
RACCORDO
100
AcDbPolyline
 62
250
  6
CONTINUOUS
 90
8
 70
0
 10
152.5081590652
 20
139.2018449036
 10
152.5235144052
 20
139.2102938128
 10
152.5367248521
 20
139.2172571848
 10
152.5475693762
 20
139.222618515
 10
152.5558665253
 20
139.2262880995
 10
152.5614774758
 20
139.2282045464
 10
152.5643083753
 20
139.2283358109
 10
152.5645658447
 20
139.2281040355
  0
LINE
  5
2F9
100
AcDbEntity
  8
RACCORDO
100
AcDbLine
 62
250
  6
CONTINUOUS
 10
147.5929203302
 20
136.0473701016
 11
147.4205526066
 21
135.9529263359
  0
LINE
  5
2FA
100
AcDbEntity
  8
RACCORDO
100
AcDbLine
 62
250
  6
CONTINUOUS
 10
147.8364203944
 20
136.0195431414
 11
147.4205526066
 21
135.7916807602
  0
LWPOLYLINE
  5
2FB
100
AcDbEntity
  8
RACCORDO
100
AcDbPolyline
 62
250
  6
CONTINUOUS
 90
9
 70
0
 10
147.6082187615
 20
136.2620450108
 10
147.5886266422
 20
136.2517846575
 10
147.566860676
 20
136.2431067867
 10
147.5433015344
 20
136.2361632175
 10
147.5183612595
 20
136.2310754372
 10
147.4924760799
 20
136.2279324794
 10
147.4660987831
 20
136.2267893599
 10
147.4396907491
 20
136.2276661098
 10
147.4205526066
 20
136.22978889
  0
LWPOLYLINE
  5
2FC
100
AcDbEntity
  8
RACCORDO
100
AcDbPolyline
 62
250
  6
CONTINUOUS
 90
9
 70
0
 10
147.6082187615
 20
133.5590426753
 10
147.5886259458
 20
133.5487819955
 10
147.5668593017
 20
133.5401039639
 10
147.5432995729
 20
133.5331603771
 10
147.5183588675
 20
133.5280726928
 10
147.4924734498
 20
133.5249299049
 10
147.466096109
 20
133.5237869875
 10
147.4396882391
 20
133.5246639324
 10
147.4205526066
 20
133.5267865728
  0
LINE
  5
2FD
100
AcDbEntity
  8
RACCORDO
100
AcDbLine
 62
250
  6
CONTINUOUS
 10
148.5089871425
 20
137.0884964509
 11
151.7069633783
 21
138.7497717107
  0
LWPOLYLINE
  5
2FE
100
AcDbEntity
  8
RACCORDO
100
AcDbPolyline
 62
250
  6
CONTINUOUS
 90
4
 70
0
 10
152.5849973175
 20
139.1246056113
 10
152.5733377787
 20
139.1185831252
 10
152.5604767615
 20
139.1114893598
 10
152.5466994423
 20
139.1032715913
  0
LWPOLYLINE
  5
2FF
100
AcDbEntity
  8
RACCORDO
100
AcDbPolyline
 62
250
  6
CONTINUOUS
 90
9
 70
0
 10
149.5545372634
 20
111.2812250676
 10
149.6298303275
 20
111.3002880813
 10
149.7027881029
 20
111.3116487989
 10
149.773576426
 20
111.3153849483
 10
149.8419947432
 20
111.3114333116
 10
149.9074207064
 20
111.2997746366
 10
149.9693781822
 20
111.2804885982
 10
150.0278456372
 20
111.2535313159
 10
150.0386161263
 20
111.2474940863
  0
LWPOLYLINE
  5
300
100
AcDbEntity
  8
RACCORDO
100
AcDbPolyline
 62
7
  6
CONTINUOUS
 90
5
 70
0
 10
148.5089871425
 20
110.5568607594
 10
148.5191324874
 20
110.5581374985
 10
148.5392715885
 20
110.5632459827
 10
148.5586371635
 20
110.5708146332
 10
148.5718622823
 20
110.5776921201
  0
LWPOLYLINE
  5
301
100
AcDbEntity
  8
RACCORDO
100
AcDbPolyline
 62
250
  6
CONTINUOUS
 90
7
 70
0
 10
148.5089871425
 20
110.6438522813
 10
148.5282115824
 20
110.6446852673
 10
148.5476256458
 20
110.6470423583
 10
148.5663311749
 20
110.6508581218
 10
148.5840009716
 20
110.656065812
 10
148.6003259546
 20
110.6625743358
 10
148.6150205665
 20
110.6702698457
  0
LWPOLYLINE
  5
302
100
AcDbEntity
  8
RACCORDO
100
AcDbPolyline
 62
250
  6
CONTINUOUS
 90
10
 70
0
 10
148.5614997691
 20
108.5615083172
 10
148.5876464852
 20
108.5621674569
 10
148.6135942112
 20
108.5641398599
 10
148.6391454692
 20
108.5674105154
 10
148.6641057993
 20
108.571954532
 10
148.6882852375
 20
108.5777373273
 10
148.7114997619
 20
108.5847148906
 10
148.7335726952
 20
108.5928341181
 10
148.7543360496
 20
108.6020332179
 10
148.7736318034
 20
108.6122421793
  0
LINE
  5
303
100
AcDbEntity
  8
RACCORDO
100
AcDbLine
 62
250
  6
CONTINUOUS
 10
148.5089871425
 20
108.5609791284
 11
148.5614997691
 21
108.5615083172
  0
LINE
  5
304
100
AcDbEntity
  8
RACCORDO
100
AcDbLine
 62
250
  6
CONTINUOUS
 10
148.5089871425
 20
108.9769988422
 11
148.5577975546
 21
108.9774907224
  0
LWPOLYLINE
  5
305
100
AcDbEntity
  8
RACCORDO
100
AcDbPolyline
 62
250
  6
CONTINUOUS
 90
7
 70
0
 10
151.7541141421
 20
104.1716757288
 10
151.7445327758
 20
104.1759463364
 10
151.7332087065
 20
104.178352557
 10
151.7209794288
 20
104.178473451
 10
151.7080495714
 20
104.1763069956
 10
151.6946354856
 20
104.1718894412
 10
151.6809616252
 20
104.1652947055
  0
LINE
  5
306
100
AcDbEntity
  8
RACCORDO
100
AcDbLine
 62
7
  6
CONTINUOUS
 10
133.8885587032
 20
109.8780851038
 11
142.8891130318
 21
104.6812778379
  0
LINE
  5
307
100
AcDbEntity
  8
RACCORDO
100
AcDbLine
 62
250
  6
CONTINUOUS
 10
134.0333037123
 20
110.3821373973
 11
143.0372681589
 21
105.183361172
  0
LINE
  5
308
100
AcDbEntity
  8
RACCORDO
100
AcDbLine
 62
250
  6
CONTINUOUS
 10
135.2885263549
 20
111.1583859082
 11
143.1386440247
 21
106.6258263507
  0
LINE
  5
309
100
AcDbEntity
  8
RACCORDO
100
AcDbLine
 62
250
  6
CONTINUOUS
 10
135.3580029615
 20
111.2801354226
 11
143.1386440247
 21
106.787690787
  0
LINE
  5
30A
100
AcDbEntity
  8
RACCORDO
100
AcDbLine
 62
250
  6
CONTINUOUS
 10
148.9186044254
 20
104.0241077752
 11
148.5089871425
 21
104.2606133843
  0
LWPOLYLINE
  5
30B
100
AcDbEntity
  8
RACCORDO
100
AcDbPolyline
 62
250
  6
CONTINUOUS
 90
3
 70
0
 10
133.8885587043
 20
109.8780851032
 10
133.8861032656
 20
109.8795511184
 10
133.8799360157
 20
109.8836864412
  0
LINE
  5
30C
100
AcDbEntity
  8
RACCORDO
100
AcDbLine
 62
250
  6
CONTINUOUS
 10
135.2276962907
 20
111.1908904992
 11
135.2166031444
 21
111.1985087199
  0
LWPOLYLINE
  5
30D
100
AcDbEntity
  8
RACCORDO
100
AcDbPolyline
 62
250
  6
CONTINUOUS
 90
43
 70
0
 10
133.8799360157
 20
109.8836864412
 10
133.8741257766
 20
109.8882460233
 10
133.8686422931
 20
109.8932363398
 10
133.8634867462
 20
109.8986454461
 10
133.8586678305
 20
109.9044527462
 10
133.8541737287
 20
109.9106634466
 10
133.8500095261
 20
109.9172658112
 10
133.8461818275
 20
109.924244264
 10
133.8426861368
 20
109.9316048958
 10
133.8395274965
 20
109.9393405789
 10
133.8367146155
 20
109.9474338327
 10
133.8342512209
 20
109.95587812
 10
133.8321423826
 20
109.9646644095
 10
133.8303948777
 20
109.973774387
 10
133.829014186
 20
109.9831867447
 10
133.8280036539
 20
109.9928858084
 10
133.8273661399
 20
110.0028544922
 10
133.8271037315
 20
110.0130672893
 10
133.8272168449
 20
110.0235043651
 10
133.8277052613
 20
110.0341485576
 10
133.8285677807
 20
110.0449769569
 10
133.8298022705
 20
110.0559687638
 10
133.8314062256
 20
110.0671054322
 10
133.8333764762
 20
110.0783668379
 10
133.8357089762
 20
110.0897323991
 10
133.8383992304
 20
110.101182173
 10
133.8414425306
 20
110.112696794
 10
133.8448329947
 20
110.1242553601
 10
133.8485643871
 20
110.1358377102
 10
133.8526308663
 20
110.1474255451
 10
133.8570248423
 20
110.158997746
 10
133.8617385854
 20
110.1705343478
 10
133.8667657158
 20
110.182018791
 10
133.8720977094
 20
110.193431142
 10
133.8777250539
 20
110.2047505427
 10
133.8836395789
 20
110.2159590731
 10
133.8898304776
 20
110.2270355994
 10
133.8962875534
 20
110.237961202
 10
133.9030033417
 20
110.2487212321
 10
133.9099742042
 20
110.2593074306
 10
133.9171809744
 20
110.2696882345
 10
133.9245906301
 20
110.2798160471
 10
133.9321617011
 20
110.289640065
  0
LWPOLYLINE
  5
30E
100
AcDbEntity
  8
RACCORDO
100
AcDbPolyline
 62
250
  6
CONTINUOUS
 90
7
 70
0
 10
130.4940209415
 20
123.8363065413
 10
130.4916613033
 20
123.8567108236
 10
130.4918727778
 20
123.8762785696
 10
130.4945162104
 20
123.8946583219
 10
130.4997307557
 20
123.9122015379
 10
130.5070881773
 20
123.9293038106
 10
130.5110980364
 20
123.9366164316
  0
LWPOLYLINE
  5
30F
100
AcDbEntity
  8
0
100
AcDbPolyline
 62
250
  6
CONTINUOUS
 90
9
 70
0
 10
130.3925424096
 20
145.018958148
 10
130.3936589454
 20
144.9996871511
 10
130.3997503694
 20
144.9701265151
 10
130.4111005327
 20
144.9410463735
 10
130.427583157
 20
144.9127979156
 10
130.4489303686
 20
144.8857839527
 10
130.4748239233
 20
144.8603074433
 10
130.5049642415
 20
144.8365816697
 10
130.5389890186
 20
144.8148322583
  0
LWPOLYLINE
  5
310
100
AcDbEntity
  8
RACCORDO
100
AcDbPolyline
 62
250
  6
CONTINUOUS
 90
23
 70
0
 10
131.8173753101
 20
146.3666246194
 10
131.8174519174
 20
146.3642148784
 10
131.8177586606
 20
146.3612052289
 10
131.8183020763
 20
146.3581564132
 10
131.8190852714
 20
146.3550651515
 10
131.8201124917
 20
146.3519317263
 10
131.821385094
 20
146.3487659817
 10
131.8228998917
 20
146.3455789534
 10
131.8246567995
 20
146.3423740334
 10
131.8266545191
 20
146.3391578567
 10
131.828882467
 20
146.3359456106
 10
131.8313334823
 20
146.332744565
 10
131.8340053708
 20
146.3295560405
 10
131.8368913642
 20
146.3263855305
 10
131.8399665642
 20
146.3232573567
 10
131.8432422826
 20
146.3201540579
 10
131.8467764011
 20
146.3170215943
 10
131.8505337595
 20
146.3139048966
 10
131.8545544362
 20
146.3107723104
 10
131.859049488
 20
146.3074707989
 10
131.8641252324
 20
146.3039705922
 10
131.8697493279
 20
146.3003521203
 10
131.8759539538
 20
146.2966436385
  0
LINE
  5
311
100
AcDbEntity
  8
RACCORDO
100
AcDbLine
 62
7
  6
CONTINUOUS
 10
131.8173753101
 20
146.2038845075
 11
131.8173753101
 21
146.3666225596
  0
LINE
  5
312
100
AcDbEntity
  8
RACCORDO
100
AcDbLine
 62
250
  6
CONTINUOUS
 10
131.8759539538
 20
146.2408792259
 11
131.8759539538
 21
146.2966281404
  0
LINE
  5
313
100
AcDbEntity
  8
RACCORDO
100
AcDbLine
 62
250
  6
CONTINUOUS
 10
132.6611015715
 20
120.1560264343
 11
132.6611015715
 21
104.2163107762
  0
LINE
  5
314
100
AcDbEntity
  8
RACCORDO
100
AcDbLine
 62
250
  6
CONTINUOUS
 10
133.3619841473
 20
120.1524948383
 11
133.3619841473
 21
105.7634889453
  0
LINE
  5
315
100
AcDbEntity
  8
RACCORDO
100
AcDbLine
 62
7
  6
CONTINUOUS
 10
133.8718767719
 20
119.8592971796
 11
133.8718767719
 21
113.8603624531
  0
LINE
  5
316
100
AcDbEntity
  8
RACCORDO
100
AcDbLine
 62
7
  6
CONTINUOUS
 10
133.9779427891
 20
119.6387835324
 11
133.9779427891
 21
117.386431254
  0
LINE
  5
317
100
AcDbEntity
  8
RACCORDO
100
AcDbLine
 62
7
  6
CONTINUOUS
 10
133.9779427891
 20
115.5564321484
 11
133.9779427891
 21
113.0630289974
  0
LINE
  5
318
100
AcDbEntity
  8
DRAFT
100
AcDbLine
 62
7
  6
CONTINUOUS
 10
134.2316014599
 20
111.1561925767
 11
134.2316014599
 21
110.5388053736
  0
LWPOLYLINE
  5
319
100
AcDbEntity
  8
RACCORDO
100
AcDbPolyline
 62
250
  6
CONTINUOUS
 90
19
 70
0
 10
132.6611015715
 20
120.1560264343
 10
132.6630157807
 20
120.2049713805
 10
132.6685845562
 20
120.2508357528
 10
132.6778078979
 20
120.2936195511
 10
132.6908261011
 20
120.3336626341
 10
132.7074988705
 20
120.3706251431
 10
132.7274053201
 20
120.403487502
 10
132.7505971913
 20
120.4320748511
 10
132.7770227426
 20
120.4565620501
 10
132.8061058634
 20
120.4764541019
 10
132.8378956068
 20
120.4916724599
 10
132.8723429197
 20
120.5022956706
 10
132.908724532
 20
120.5080643763
 10
132.947176651
 20
120.5088363239
 10
132.9875630694
 20
120.5047537664
 10
133.0287518958
 20
120.4959841046
 10
133.070365833
 20
120.4825831386
 10
133.1127821781
 20
120.4644950683
 10
133.1560009312
 20
120.4417198936
  0
LWPOLYLINE
  5
31A
100
AcDbEntity
  8
ASSI
100
AcDbPolyline
 62
250
  6
CONTINUOUS
 90
7
 70
0
 10
138.8568880763
 20
142.9281348365
 10
138.8481914257
 20
142.9012790667
 10
138.8409280895
 20
142.8745798849
 10
138.8351262434
 20
142.8473258662
 10
138.8307952791
 20
142.8192798688
 10
138.8279258048
 20
142.7906790344
 10
138.8265178206
 20
142.761523363
  0
LWPOLYLINE
  5
31B
100
AcDbEntity
  8
ASSI
100
AcDbPolyline
 62
250
  6
CONTINUOUS
 90
9
 70
0
 10
141.2645911292
 20
143.149160146
 10
141.2636396922
 20
143.1464122784
 10
141.2636031597
 20
143.1391201256
 10
141.2665672415
 20
143.1305866487
 10
141.2724830398
 20
143.120952622
 10
141.2812529635
 20
143.1103769751
 10
141.2927323378
 20
143.0990341715
 10
141.3067317907
 20
143.08711133
 10
141.3230203775
 20
143.0748051382
  0
LWPOLYLINE
  5
31C
100
AcDbEntity
  8
ASSI
100
AcDbPolyline
 62
250
  6
CONTINUOUS
 90
11
 70
0
 10
141.6464033999
 20
143.9590306618
 10
141.6458031542
 20
143.9575304818
 10
141.6450716431
 20
143.9519904384
 10
141.6462748085
 20
143.9456177388
 10
141.6493969228
 20
143.9384882485
 10
141.654399118
 20
143.9306805791
 10
141.6612239692
 20
143.9222780424
 10
141.6697874326
 20
143.9133779243
 10
141.6799881122
 20
143.9040786639
 10
141.6917131396
 20
143.8944773483
 10
141.7048326481
 20
143.884675654
  0
LWPOLYLINE
  5
31D
100
AcDbEntity
  8
ASSI
100
AcDbPolyline
 62
250
  6
CONTINUOUS
 90
10
 70
0
 10
141.7048326481
 20
143.884675654
 10
141.7138697838
 20
143.9057590008
 10
141.7244409651
 20
143.9264093988
 10
141.736403235
 20
143.9463475867
 10
141.7495948248
 20
143.9653039348
 10
141.7638373407
 20
143.9830220909
 10
141.7789381774
 20
143.9992624468
 10
141.7946931218
 20
144.0138053794
 10
141.8108891154
 20
144.0264542204
 10
141.8273071352
 20
144.0370379156
  0
LWPOLYLINE
  5
31E
100
AcDbEntity
  8
ASSI
100
AcDbPolyline
 62
250
  6
CONTINUOUS
 90
10
 70
0
 10
148.0809487274
 20
141.8221179005
 10
148.0672039084
 20
141.806100034
 10
148.0555739689
 20
141.7894134944
 10
148.046215517
 20
141.7722829537
 10
148.0392545768
 20
141.7549390606
 10
148.0347848953
 20
141.7376153481
 10
148.0328666737
 20
141.7205450885
 10
148.0335257534
 20
141.7039581353
 10
148.036753273
 20
141.6880778281
 10
148.040863919
 20
141.6766928681
  0
LWPOLYLINE
  5
31F
100
AcDbEntity
  8
RACCORDO
100
AcDbPolyline
 62
250
  6
CONTINUOUS
 90
7
 70
0
 10
153.6323904542
 20
144.5089625809
 10
153.6417851475
 20
144.5195198796
 10
153.6491069468
 20
144.5304630979
 10
153.6542573616
 20
144.5416692984
 10
153.6571615541
 20
144.553008812
 10
153.6577715709
 20
144.5643534677
 10
153.6576913389
 20
144.5656800259
  0
LINE
  5
320
100
AcDbEntity
  8
ASSI
100
AcDbLine
 62
250
  6
CONTINUOUS
 10
148.3859146812
 20
138.0847697758
 11
148.4891955333
 21
138.1906978557
  0
LINE
  5
321
100
AcDbEntity
  8
ASSI
100
AcDbLine
 62
7
  6
CONTINUOUS
 10
148.4197536422
 20
138.0607585075
 11
148.4885269428
 21
138.1312945606
  0
LINE
  5
322
100
AcDbEntity
  8
RACCORDO
100
AcDbLine
 62
7
  6
CONTINUOUS
 10
153.6395969542
 20
144.0265328623
 11
153.011287524
 21
143.3940390863
  0
LINE
  5
323
100
AcDbEntity
  8
RACCORDO
100
AcDbLine
 62
250
  6
CONTINUOUS
 10
150.7564296354
 20
136.8155743726
 11
156.0704070936
 21
141.2633443185
  0
LINE
  5
324
100
AcDbEntity
  8
RACCORDO
100
AcDbLine
 62
7
  6
CONTINUOUS
 10
150.780267918
 20
136.7753499562
 11
156.0549070963
 21
141.1901939779
  0
LWPOLYLINE
  5
325
100
AcDbEntity
  8
RACCORDO
100
AcDbPolyline
 62
250
  6
CONTINUOUS
 90
19
 70
0
 10
147.7447465374
 20
133.8039421211
 10
147.7329920051
 20
133.7960684453
 10
147.7214919886
 20
133.7872437797
 10
147.7102464877
 20
133.7774681241
 10
147.6991740975
 20
133.7666504808
 10
147.688356223
 20
133.7548818476
 10
147.6780370795
 20
133.7424352181
 10
147.668255383
 20
133.7293503395
 10
147.6589724174
 20
133.7155874647
 10
147.6503162504
 20
133.7013003457
 10
147.6422672593
 20
133.6864726836
 10
147.6348450667
 20
133.6711207772
 10
147.6282366083
 20
133.655447275
 10
147.6224238028
 20
133.6393721476
 10
147.6174247316
 20
133.6229754244
 10
147.6134805739
 20
133.606699842
 10
147.6106717229
 20
133.590692979
 10
147.6089177854
 20
133.5748072568
 10
147.6082187615
 20
133.5590426753
  0
LINE
  5
326
100
AcDbEntity
  8
RACCORDO
100
AcDbLine
 62
250
  6
CONTINUOUS
 10
148.0174768006
 20
133.9726026069
 11
147.7447465374
 21
133.8039421211
  0
LINE
  5
327
100
AcDbEntity
  8
RACCORDO
100
AcDbLine
 62
250
  6
CONTINUOUS
 10
152.4615200591
 20
133.6035875621
 11
148.5089871394
 21
131.2678869281
  0
LINE
  5
328
100
AcDbEntity
  8
DRAFT
100
AcDbLine
 62
7
  6
CONTINUOUS
 10
148.2144817637
 20
133.5939056628
 11
148.5089871425
 21
133.7639499613
  0
LWPOLYLINE
  5
329
100
AcDbEntity
  8
RACCORDO
100
AcDbPolyline
 62
250
  6
CONTINUOUS
 90
7
 70
0
 10
148.5089871425
 20
112.6358480738
 10
148.5282132677
 20
112.6366164511
 10
148.5476289195
 20
112.6389073208
 10
148.5663350076
 20
112.642660288
 10
148.5840041551
 20
112.6478094323
 10
148.60032777
 20
112.6542623944
 10
148.6150205665
 20
112.6619051738
  0
LWPOLYLINE
  5
32A
100
AcDbEntity
  8
RACCORDO
100
AcDbPolyline
 62
7
  6
CONTINUOUS
 90
7
 70
0
 10
151.5751291794
 20
106.1423480741
 10
151.5927308375
 20
106.1339090961
 10
151.6099105938
 20
106.1239855033
 10
151.6259384232
 20
106.1131353542
 10
151.6406557716
 20
106.1012266126
 10
151.6535869766
 20
106.0878631701
 10
151.6653453492
 20
106.0718532216
  0
LINE
  5
32B
100
AcDbEntity
  8
RACCORDO
100
AcDbLine
 62
250
  6
CONTINUOUS
 10
151.8452249236
 20
105.9248406968
 11
151.8495444773
 21
105.9225632845
  0
LWPOLYLINE
  5
32C
100
AcDbEntity
  8
RACCORDO
100
AcDbPolyline
 62
250
  6
CONTINUOUS
 90
10
 70
0
 10
151.6809616252
 20
104.1652947055
 10
151.6866316521
 20
104.1620785298
 10
151.6923557576
 20
104.1585762438
 10
151.6981243695
 20
104.1547847334
 10
151.7038991218
 20
104.1507218599
 10
151.7096979066
 20
104.1463679847
 10
151.7155926058
 20
104.1416542333
 10
151.7215683974
 20
104.136569983
 10
151.7276089991
 20
104.1311061871
 10
151.7337761185
 20
104.1251774112
  0
LINE
  5
32D
100
AcDbEntity
  8
RACCORDO
100
AcDbLine
 62
250
  6
CONTINUOUS
 10
151.8495444773
 20
105.9225632845
 11
151.8496503258
 21
105.9225022982
  0
LINE
  5
32E
100
AcDbEntity
  8
RACCORDO
100
AcDbLine
 62
250
  6
CONTINUOUS
 10
149.2613054547
 20
104.6416271719
 11
149.0390697381
 21
104.7699420544
  0
LINE
  5
32F
100
AcDbEntity
  8
RACCORDO
100
AcDbLine
 62
250
  6
CONTINUOUS
 10
151.5330301494
 20
104.2507084856
 11
151.6809616252
 21
104.1652947055
  0
LINE
  5
330
100
AcDbEntity
  8
RACCORDO
100
AcDbLine
 62
7
  6
CONTINUOUS
 10
151.5751291792
 20
104.2750194032
 11
151.7541141421
 21
104.1716757288
  0
LINE
  5
331
100
AcDbEntity
  8
RACCORDO
100
AcDbLine
 62
250
  6
CONTINUOUS
 10
151.7521136368
 20
105.913994267
 11
151.6604897447
 21
105.966896754
  0
LINE
  5
332
100
AcDbEntity
  8
RACCORDO
100
AcDbLine
 62
7
  6
CONTINUOUS
 10
151.8496503258
 20
105.9225022982
 11
151.758026433
 21
105.9754047856
  0
LWPOLYLINE
  5
333
100
AcDbEntity
  8
RACCORDO
100
AcDbPolyline
 62
7
  6
CONTINUOUS
 90
10
 70
0
 10
151.7580134334
 20
105.9754127334
 10
151.7566234728
 20
105.9762268533
 10
151.7476230196
 20
105.9820111553
 10
151.7373700674
 20
105.9895902592
 10
151.726104257
 20
105.9990551087
 10
151.7140867548
 20
106.0104396183
 10
151.7015171909
 20
106.0237995415
 10
151.6887572736
 20
106.0389922111
 10
151.6762537135
 20
106.0556732171
 10
151.665367237
 20
106.0718803044
  0
LWPOLYLINE
  5
334
100
AcDbEntity
  8
RACCORDO
100
AcDbPolyline
 62
250
  6
CONTINUOUS
 90
4
 70
0
 10
135.2439674783
 20
111.1678012666
 10
135.2423328454
 20
111.172949347
 10
135.2363586573
 20
111.1822854762
 10
135.2276962907
 20
111.1908904992
  0
LINE
  5
335
100
AcDbEntity
  8
DRAFT
100
AcDbLine
 62
7
  6
CONTINUOUS
 10
133.8718767719
 20
113.8603624531
 11
134.2316014599
 21
111.1561925767
  0
LINE
  5
336
100
AcDbEntity
  8
RACCORDO
100
AcDbLine
 62
7
  6
CONTINUOUS
 10
134.3105137686
 20
115.7637941272
 11
134.3105137686
 21
115.9558605173
  0
LINE
  5
337
100
AcDbEntity
  8
RACCORDO
100
AcDbLine
 62
7
  6
CONTINUOUS
 10
134.3105137686
 20
116.8795911882
 11
134.3105137686
 21
117.0716575782
  0
LINE
  5
338
100
AcDbEntity
  8
RACCORDO
100
AcDbLine
 62
250
  6
CONTINUOUS
 10
135.2166031444
 20
111.1497993785
 11
135.2166031444
 21
111.1985087199
  0
LINE
  5
339
100
AcDbEntity
  8
RACCORDO
100
AcDbLine
 62
250
  6
CONTINUOUS
 10
136.0445657985
 20
143.9692265034
 11
136.0445657951
 21
143.9609034842
  0
LINE
  5
33A
100
AcDbEntity
  8
RACCORDO
100
AcDbLine
 62
7
  6
CONTINUOUS
 10
137.0177058762
 20
143.3990245976
 11
137.0177058745
 21
144.4925497442
  0
LINE
  5
33B
100
AcDbEntity
  8
RACCORDO
100
AcDbLine
 62
250
  6
CONTINUOUS
 10
135.2166031444
 20
111.1985087199
 11
135.2168153213
 21
111.2067583367
  0
LWPOLYLINE
  5
33C
100
AcDbEntity
  8
RACCORDO
100
AcDbPolyline
 62
250
  6
CONTINUOUS
 90
3
 70
0
 10
135.2168153213
 20
111.2067583367
 10
135.2173535731
 20
111.2146499287
 10
135.2182179
 20
111.2221834959
  0
LWPOLYLINE
  5
33D
100
AcDbEntity
  8
ASSI
100
AcDbPolyline
 62
250
  6
CONTINUOUS
 90
7
 70
0
 10
138.8826498605
 20
142.8417398136
 10
138.8811943312
 20
142.8278343222
 10
138.8764242344
 20
142.8131528478
 10
138.8684117711
 20
142.7989497263
 10
138.8572910115
 20
142.785462614
 10
138.8432480357
 20
142.7729171867
 10
138.8265178206
 20
142.761523363
  0
LWPOLYLINE
  5
33E
100
AcDbEntity
  8
RACCORDO
100
AcDbPolyline
 62
250
  6
CONTINUOUS
 90
28
 70
0
 10
135.2182179
 20
111.2221834959
 10
135.2194103956
 20
111.229335101
 10
135.2209289663
 20
111.2361286813
 10
135.2227673307
 20
111.2426360491
 10
135.2249218948
 20
111.2488895102
 10
135.2273962527
 20
111.2548567588
 10
135.2301949051
 20
111.2605126898
 10
135.2333175891
 20
111.2658645831
 10
135.2367645675
 20
111.2709051588
 10
135.2405411301
 20
111.2755874727
 10
135.2446528735
 20
111.2799172201
 10
135.2490942011
 20
111.2838887057
 10
135.2538536114
 20
111.2874378984
 10
135.2589448151
 20
111.2905636627
 10
135.2643541017
 20
111.2932671341
 10
135.2700288383
 20
111.295487689
 10
135.2759719411
 20
111.2972137959
 10
135.282180494
 20
111.2984569863
 10
135.2885931159
 20
111.299191231
 10
135.2951670784
 20
111.2994238182
 10
135.3019451099
 20
111.2991474597
 10
135.3089940146
 20
111.2983142618
 10
135.3163029651
 20
111.2969597502
 10
135.3238827887
 20
111.2950483992
 10
135.3318327716
 20
111.2924257381
 10
135.3401860091
 20
111.2890402764
 10
135.3489094057
 20
111.2849435046
 10
135.3580029615
 20
111.2801354226
  0
LINE
  5
33F
100
AcDbEntity
  8
RACCORDO
100
AcDbLine
 62
7
  6
CONTINUOUS
 10
133.3619841473
 20
105.7634889453
 11
134.1847752627
 21
109.7070533748
  0
LWPOLYLINE
  5
340
100
AcDbEntity
  8
RACCORDO
100
AcDbPolyline
 62
7
  6
CONTINUOUS
 90
7
 70
0
 10
135.2467638433
 20
111.1688341042
 10
135.2472340383
 20
111.1710153789
 10
135.2476675152
 20
111.1724767097
 10
135.2475871909
 20
111.1723768573
 10
135.2467175757
 20
111.170978636
 10
135.2448386527
 20
111.1686297927
 10
135.2417768833
 20
111.1657179121
  0
LWPOLYLINE
  5
341
100
AcDbEntity
  8
RACCORDO
100
AcDbPolyline
 62
250
  6
CONTINUOUS
 90
6
 70
0
 10
147.48791778
 20
133.9520329464
 10
147.4846645483
 20
133.9485417818
 10
147.4638063601
 20
133.9236741275
 10
147.4440337734
 20
133.8975386992
 10
147.4254003192
 20
133.8702331009
 10
147.4205526066
 20
133.8623386044
  0
LWPOLYLINE
  5
342
100
AcDbEntity
  8
RACCORDO
100
AcDbPolyline
 62
250
  6
CONTINUOUS
 90
8
 70
0
 10
156.0549070963
 20
141.1901939779
 10
156.0592953306
 20
141.1944376458
 10
156.065035054
 20
141.2024597005
 10
156.0692640902
 20
141.2120208946
 10
156.0719362979
 20
141.2230169239
 10
156.073022528
 20
141.2353278381
 10
156.0725109333
 20
141.2488193575
 10
156.0704070936
 20
141.2633443185
  0
LINE
  5
343
100
AcDbEntity
  8
RACCORDO
100
AcDbLine
 62
250
  6
CONTINUOUS
 10
152.575176429
 20
133.1114140589
 11
148.6455149184
 21
130.7904291067
  0
LWPOLYLINE
  5
344
100
AcDbEntity
  8
RACCORDO
100
AcDbPolyline
 62
250
  6
CONTINUOUS
 90
16
 70
0
 10
133.3619841473
 20
120.1524948383
 10
133.3229439373
 20
120.1328769255
 10
133.2806006246
 20
120.1156942332
 10
133.2354078885
 20
120.1011308622
 10
133.1878499377
 20
120.0893428489
 10
133.1384363228
 20
120.0804564937
 10
133.0876964763
 20
120.0745670077
 10
133.0361740407
 20
120.0717374926
 10
132.9844210431
 20
120.0719982648
 10
132.9329919809
 20
120.0753465302
 10
132.882437881
 20
120.0817464146
 10
132.8333003955
 20
120.0911293475
 10
132.7861059985
 20
120.1033947975
 10
132.7413603453
 20
120.1184113486
 10
132.6995428544
 20
120.1360181089
 10
132.6611015715
 20
120.1560264343
  0
LWPOLYLINE
  5
345
100
AcDbEntity
  8
RACCORDO
100
AcDbPolyline
 62
250
  6
CONTINUOUS
 90
3
 70
0
 10
149.128623948
 20
116.0646995152
 10
149.0916495089
 20
116.061348756
 10
149.0765816871
 20
116.0582787191
  0
LWPOLYLINE
  5
346
100
AcDbEntity
  8
RACCORDO
100
AcDbPolyline
 62
250
  6
CONTINUOUS
 90
4
 70
0
 10
150.8051124631
 20
114.4915116299
 10
150.7880022713
 20
114.4934922548
 10
150.7686813289
 20
114.4968375133
 10
150.747486733
 20
114.5014889968
  0
LINE
  5
347
100
AcDbEntity
  8
RACCORDO
100
AcDbLine
 62
250
  6
CONTINUOUS
 10
149.5985474033
 20
111.4922657507
 11
149.5511334221
 21
111.5067772757
  0
LINE
  5
348
100
AcDbEntity
  8
RACCORDO
100
AcDbLine
 62
7
  6
CONTINUOUS
 10
149.6118079636
 20
111.4885292923
 11
149.5511334221
 21
111.5109876085
  0
LINE
  5
349
100
AcDbEntity
  8
RACCORDO
100
AcDbLine
 62
250
  6
CONTINUOUS
 10
149.6499205204
 20
111.4704886583
 11
149.5985474033
 21
111.4922657507
  0
LINE
  5
34A
100
AcDbEntity
  8
RACCORDO
100
AcDbLine
 62
7
  6
CONTINUOUS
 10
149.641688224
 20
111.4748652813
 11
149.6118079636
 21
111.4885292923
  0
LINE
  5
34B
100
AcDbEntity
  8
RACCORDO
100
AcDbLine
 62
250
  6
CONTINUOUS
 10
149.2613054547
 20
109.1913880947
 11
148.9669057882
 21
109.327513234
  0
LINE
  5
34C
100
AcDbEntity
  8
RACCORDO
100
AcDbLine
 62
7
  6
CONTINUOUS
 10
149.1527969608
 20
109.4231845436
 11
149.1531119389
 21
109.4230384856
  0
LWPOLYLINE
  5
34D
100
AcDbEntity
  8
RACCORDO
100
AcDbPolyline
 62
250
  6
CONTINUOUS
 90
4
 70
0
 10
149.1531119389
 20
109.4230384856
 10
149.1641864996
 20
109.417347566
 10
149.1843354802
 20
109.4038073301
 10
149.2024470543
 20
109.3870963253
  0
LWPOLYLINE
  5
34E
100
AcDbEntity
  8
RACCORDO
100
AcDbPolyline
 62
7
  6
CONTINUOUS
 90
8
 70
0
 10
152.0154290398
 20
107.947713055
 10
152.000838357
 20
107.9554142025
 10
151.9862153685
 20
107.9611548021
 10
151.9717177948
 20
107.9648700031
 10
151.9574995633
 20
107.9665137507
 10
151.9437131064
 20
107.9660683121
 10
151.9305092766
 20
107.9635393256
 10
151.9266615156
 20
107.9623695136
  0
LINE
  5
34F
100
AcDbEntity
  8
ASSI
100
AcDbLine
 62
7
  6
CONTINUOUS
 10
134.3105137686
 20
116.9472474981
 11
134.471875162
 21
116.8540794518
  0
LINE
  5
350
100
AcDbEntity
  8
RACCORDO
100
AcDbLine
 62
7
  6
CONTINUOUS
 10
134.2045929538
 20
117.2555662895
 11
133.8718767719
 21
117.447672443
  0
LINE
  5
351
100
AcDbEntity
  8
RACCORDO
100
AcDbLine
 62
7
  6
CONTINUOUS
 10
148.7371991085
 20
109.1904180405
 11
148.827185194
 21
109.1384612026
  0
LINE
  5
352
100
AcDbEntity
  8
RACCORDO
100
AcDbLine
 62
7
  6
CONTINUOUS
 10
152.4173837012
 20
107.7156294712
 11
152.0154290398
 21
107.947713055
  0
LINE
  5
353
100
AcDbEntity
  8
RACCORDO
100
AcDbLine
 62
7
  6
CONTINUOUS
 10
133.2595422418
 20
120.212851463
 11
142.8937325849
 21
114.6501907036
  0
LINE
  5
354
100
AcDbEntity
  8
RACCORDO
100
AcDbLine
 62
250
  6
CONTINUOUS
 10
133.1560009312
 20
120.4417198936
 11
142.7901912744
 21
114.8790591342
  0
LWPOLYLINE
  5
355
100
AcDbEntity
  8
RACCORDO
100
AcDbPolyline
 62
7
  6
CONTINUOUS
 90
22
 70
0
 10
142.8937243086
 20
114.6501954826
 10
142.9025559869
 20
114.6447585532
 10
142.9145371411
 20
114.6364438219
 10
142.9286319111
 20
114.6254682756
 10
142.9444965223
 20
114.6117166165
 10
142.9617402009
 20
114.5951702006
 10
142.9799669729
 20
114.5758547228
 10
142.9988742825
 20
114.5537504167
 10
143.0179790563
 20
114.5291111787
 10
143.0366430947
 20
114.5025049316
 10
143.0545238593
 20
114.474246106
 10
143.0712626459
 20
114.4448008302
 10
143.086318681
 20
114.4151254397
 10
143.0994913332
 20
114.3857705533
 10
143.1107055386
 20
114.3571900443
 10
143.119814405
 20
114.3302056229
 10
143.1268627741
 20
114.3053559977
 10
143.1320426969
 20
114.2828757777
 10
143.1355504505
 20
114.263087308
 10
143.1376120164
 20
114.2462942669
 10
143.1385159476
 20
114.2327324816
 10
143.1386440275
 20
114.2259753429
  0
LWPOLYLINE
  5
356
100
AcDbEntity
  8
RACCORDO
100
AcDbPolyline
 62
7
  6
CONTINUOUS
 90
16
 70
0
 10
152.4177369311
 20
107.7154255207
 10
152.43248695
 20
107.7061671856
 10
152.4469290223
 20
107.6951280113
 10
152.4609048865
 20
107.6824114323
 10
152.4742757979
 20
107.6681299317
 10
152.4868755263
 20
107.6524358129
 10
152.4985206027
 20
107.6355314094
 10
152.5090800056
 20
107.6176252882
 10
152.5184542851
 20
107.5988949504
 10
152.5265300978
 20
107.5795222563
 10
152.5332350624
 20
107.5596862204
 10
152.5384805312
 20
107.5396419547
 10
152.5421695164
 20
107.519694275
 10
152.5442754087
 20
107.5000913474
 10
152.5448182507
 20
107.4810209277
 10
152.5438186246
 20
107.462688215
  0
LWPOLYLINE
  5
357
100
AcDbEntity
  8
RACCORDO
100
AcDbPolyline
 62
250
  6
CONTINUOUS
 90
16
 70
0
 10
148.5577975546
 20
108.9774907224
 10
148.5799983352
 20
108.9633532883
 10
148.6019963197
 20
108.9467094428
 10
148.6235503486
 20
108.9277416491
 10
148.6444240512
 20
108.9066579315
 10
148.6643886782
 20
108.8836893568
 10
148.6832255717
 20
108.8590874328
 10
148.700728306
 20
108.8331216205
 10
148.716704798
 20
108.8060767286
 10
148.7309796866
 20
108.7782495415
 10
148.743398473
 20
108.7499401511
 10
148.7538222894
 20
108.7214638673
 10
148.762132923
 20
108.6931481408
 10
148.7682418933
 20
108.6653076451
 10
148.772087638
 20
108.6382408799
 10
148.7736318034
 20
108.6122421793
  0
LWPOLYLINE
  5
358
100
AcDbEntity
  8
RACCORDO
100
AcDbPolyline
 62
250
  6
CONTINUOUS
 90
4
 70
0
 10
133.2595422418
 20
120.212851463
 10
133.2448948258
 20
120.2223634947
 10
133.2220797909
 20
120.2422299477
 10
133.2023448463
 20
120.2664209868
  0
LINE
  5
359
100
AcDbEntity
  8
RACCORDO
100
AcDbLine
 62
250
  6
CONTINUOUS
 10
151.6604897447
 20
105.966896754
 11
151.6514564556
 21
105.9728153844
  0
LWPOLYLINE
  5
35A
100
AcDbEntity
  8
RACCORDO
100
AcDbPolyline
 62
250
  6
CONTINUOUS
 90
11
 70
0
 10
151.6514564556
 20
105.9728153844
 10
151.6424676842
 20
105.979607799
 10
151.6335942428
 20
105.9872241971
 10
151.6249067973
 20
105.9956096825
 10
151.6164724642
 20
106.0047006048
 10
151.6083540926
 20
106.0144246069
 10
151.6006139075
 20
106.0247074471
 10
151.5933123719
 20
106.0354722144
 10
151.586504576
 20
106.0466354141
 10
151.5802432823
 20
106.058107797
 10
151.5751291794
 20
106.0686612112
  0
LWPOLYLINE
  5
35B
100
AcDbEntity
  8
RACCORDO
100
AcDbPolyline
 62
250
  6
CONTINUOUS
 90
6
 70
0
 10
133.2023448463
 20
120.2664209868
 10
133.1859014384
 20
120.2946774219
 10
133.1729257468
 20
120.3266965048
 10
133.163556797
 20
120.3621351733
 10
133.157894971
 20
120.4006137265
 10
133.1560009312
 20
120.4417198936
  0
LWPOLYLINE
  5
35C
100
AcDbEntity
  8
RACCORDO
100
AcDbPolyline
 62
7
  6
CONTINUOUS
 90
7
 70
0
 10
143.2056313228
 20
98.2476020999
 10
143.2165865135
 20
98.2204720689
 10
143.2284146491
 20
98.1931033992
 10
143.2411477837
 20
98.1655396595
 10
143.254817566
 20
98.1378270282
 10
143.2694550729
 20
98.110014261
 10
143.2850906341
 20
98.0821526413
  0
LINE
  5
35D
100
AcDbEntity
  8
ASSI
100
AcDbLine
 62
250
  6
CONTINUOUS
 10
138.8265178206
 20
142.761523363
 11
138.8265178206
 21
142.3546392507
  0
LINE
  5
35E
100
AcDbEntity
  8
ASSI
100
AcDbLine
 62
7
  6
CONTINUOUS
 10
138.8826498605
 20
142.8417407704
 11
138.8826498605
 21
142.3222293144
  0
LINE
  5
35F
100
AcDbEntity
  8
ASSI
100
AcDbLine
 62
250
  6
CONTINUOUS
 10
139.3128527511
 20
143.8583141611
 11
139.3128527511
 21
143.4890031715
  0
LINE
  5
360
100
AcDbEntity
  8
ASSI
100
AcDbLine
 62
7
  6
CONTINUOUS
 10
139.368984791
 20
143.9385315685
 11
139.368984791
 21
143.5692205789
  0
LWPOLYLINE
  5
361
100
AcDbEntity
  8
ASSI
100
AcDbPolyline
 62
7
  6
CONTINUOUS
 90
15
 70
0
 10
138.8826498605
 20
142.8417398136
 10
138.8830777352
 20
142.854786872
 10
138.8845644646
 20
142.8703768932
 10
138.8873226115
 20
142.8879916519
 10
138.8915455881
 20
142.9075059013
 10
138.8973557663
 20
142.9285737755
 10
138.9047472744
 20
142.9506335285
 10
138.9137171989
 20
142.9733515752
 10
138.9242247336
 20
142.9963865911
 10
138.9360564573
 20
143.0191600914
 10
138.9490687612
 20
143.0413624716
 10
138.9630603947
 20
143.0626541359
 10
138.9776101864
 20
143.0824807728
 10
138.9924647356
 20
143.1006349693
 10
139.008707295
 20
143.1183444892
  0
LWPOLYLINE
  5
362
100
AcDbEntity
  8
ASSI
100
AcDbPolyline
 62
250
  6
CONTINUOUS
 90
9
 70
0
 10
139.368984791
 20
143.5692205789
 10
139.3688170355
 20
143.564491847
 10
139.3668885048
 20
143.5525449725
 10
139.3628313015
 20
143.5407961606
 10
139.3566917403
 20
143.5293595063
 10
139.3485300003
 20
143.5183464917
 10
139.3384275006
 20
143.5078728735
 10
139.3264929705
 20
143.4980561428
 10
139.3128527511
 20
143.4890031715
  0
LWPOLYLINE
  5
363
100
AcDbEntity
  8
ASSI
100
AcDbPolyline
 62
250
  6
CONTINUOUS
 90
9
 70
0
 10
139.368984781
 20
143.9384950415
 10
139.3688168789
 20
143.9338006321
 10
139.3668929949
 20
143.9218737367
 10
139.3628365156
 20
143.9101190073
 10
139.3566890746
 20
143.8986663112
 10
139.3485180405
 20
143.8876434124
 10
139.3384128449
 20
143.8771703703
 10
139.3264815466
 20
143.8673587039
 10
139.3128527511
 20
143.8583141611
  0
LWPOLYLINE
  5
364
100
AcDbEntity
  8
ASSI
100
AcDbPolyline
 62
250
  6
CONTINUOUS
 90
13
 70
0
 10
142.9905660969
 20
143.726799841
 10
142.9961559334
 20
143.7509577444
 10
142.999383
 20
143.7759016489
 10
143.0001953563
 20
143.8012301262
 10
142.9985799233
 20
143.8265355477
 10
142.994562693
 20
143.8514106738
 10
142.9882083012
 20
143.8754552056
 10
142.9796189968
 20
143.8982821798
 10
142.968932999
 20
143.9195242194
 10
142.9563222595
 20
143.938839469
 10
142.941989711
 20
143.9559170619
 10
142.9261660075
 20
143.9704821285
 10
142.9091058015
 20
143.9823002376
  0
LWPOLYLINE
  5
365
100
AcDbEntity
  8
ASSI
100
AcDbPolyline
 62
250
  6
CONTINUOUS
 90
13
 70
0
 10
144.5721255778
 20
143.7651622358
 10
144.5777154483
 20
143.7893203409
 10
144.5809425083
 20
143.8142644341
 10
144.5817548229
 20
143.8395930769
 10
144.5801393191
 20
143.8648986418
 10
144.5761219961
 20
143.8897738731
 10
144.5697675068
 20
143.9138184405
 10
144.5611781174
 20
143.9366453818
 10
144.5504920614
 20
143.9578873312
 10
144.5378813153
 20
143.9772024305
 10
144.5235488304
 20
143.9942798317
 10
144.5077252671
 20
144.008844699
 10
144.4906652823
 20
144.0206626324
  0
LWPOLYLINE
  5
366
100
AcDbEntity
  8
ASSI
100
AcDbPolyline
 62
250
  6
CONTINUOUS
 90
13
 70
0
 10
145.6187268216
 20
143.9434373821
 10
145.6131367744
 20
143.9192782958
 10
145.6099097453
 20
143.8943333809
 10
145.6090976135
 20
143.869004129
 10
145.610713389
 20
143.8436982131
 10
145.6147310073
 20
143.8188228889
 10
145.6210857628
 20
143.7947784431
 10
145.6296753361
 20
143.7719518222
 10
145.6403614508
 20
143.750710346
 10
145.6529721273
 20
143.7313957757
 10
145.6673044118
 20
143.7143189003
 10
145.6831276269
 20
143.6997545213
 10
145.700187117
 20
143.6879369855
  0
LWPOLYLINE
  5
367
100
AcDbEntity
  8
ASSI
100
AcDbPolyline
 62
250
  6
CONTINUOUS
 90
16
 70
0
 10
145.1700011245
 20
140.8536066689
 10
145.1660424009
 20
140.8386399141
 10
145.1614517988
 20
140.8242033691
 10
145.1563106005
 20
140.8103595708
 10
145.150706575
 20
140.7971769519
 10
145.1447061638
 20
140.7846777944
 10
145.1383476543
 20
140.7728436247
 10
145.1317485463
 20
140.7617849613
 10
145.1249150986
 20
140.7514291091
 10
145.1176826085
 20
140.7415120081
 10
145.1101130001
 20
140.7320993483
 10
145.1022078077
 20
140.7232143706
 10
145.0936688095
 20
140.7146252565
 10
145.0844066025
 20
140.7063622874
 10
145.0745652332
 20
140.6986500213
 10
145.064192186
 20
140.6916219284
  0
LWPOLYLINE
  5
368
100
AcDbEntity
  8
ASSI
100
AcDbPolyline
 62
250
  6
CONTINUOUS
 90
14
 70
0
 10
145.6550631214
 20
145.1763280859
 10
145.6601731676
 20
145.1938780334
 10
145.6672486694
 20
145.2112751348
 10
145.6762121032
 20
145.2283287881
 10
145.6869652679
 20
145.2448521615
 10
145.6993903525
 20
145.2606642249
 10
145.7133512231
 20
145.2755917348
 10
145.7286949216
 20
145.2894711425
 10
145.7452533385
 20
145.3021503817
 10
145.7628450572
 20
145.313490537
 10
145.7812773426
 20
145.323367365
 10
145.8003482482
 20
145.3316726531
 10
145.8198488286
 20
145.3383154051
 10
145.8395654315
 20
145.3432228409
  0
LINE
  5
369
100
AcDbEntity
  8
ASSI
100
AcDbLine
 62
250
  6
CONTINUOUS
 10
145.4413868419
 20
141.7272360925
 11
145.1700018478
 21
140.8536062513
  0
LINE
  5
36A
100
AcDbEntity
  8
ASSI
100
AcDbLine
 62
250
  6
CONTINUOUS
 10
145.7071912201
 20
141.6506274127
 11
145.435806226
 21
140.7769975715
  0
LWPOLYLINE
  5
36B
100
AcDbEntity
  8
ASSI
100
AcDbPolyline
 62
250
  6
CONTINUOUS
 90
16
 70
0
 10
145.435806226
 20
140.7769975715
 10
145.4258134394
 20
140.7479402592
 10
145.4149786433
 20
140.7200946884
 10
145.4033018376
 20
140.693460859
 10
145.3906676904
 20
140.6680047374
 10
145.3771915336
 20
140.6437603572
 10
145.3632193632
 20
140.620829819
 10
145.348921456
 20
140.5993718599
 10
145.3341275352
 20
140.5792277429
 10
145.3186727664
 20
140.5600233577
 10
145.3026583058
 20
140.541675932
 10
145.2859829972
 20
140.524268238
 10
145.2681785376
 20
140.5076744832
 10
145.2490888259
 20
140.4918527366
 10
145.2288699633
 20
140.4768449291
 10
145.2075219495
 20
140.4626510606
  0
LWPOLYLINE
  5
36C
100
AcDbEntity
  8
RACCORDO
100
AcDbPolyline
 62
250
  6
CONTINUOUS
 90
10
 70
0
 10
147.9390389866
 20
136.0279422243
 10
147.946977567
 20
136.0436737901
 10
147.9525282175
 20
136.0602187033
 10
147.9555183053
 20
136.0770623619
 10
147.95585484
 20
136.0936808731
 10
147.9535273662
 20
136.1095573556
 10
147.9486082828
 20
136.1241980152
 10
147.941250593
 20
136.1371474908
 10
147.9316831485
 20
136.14800302
 10
147.920203529
 20
136.1564269717
  0
LWPOLYLINE
  5
36D
100
AcDbEntity
  8
RACCORDO
100
AcDbPolyline
 62
250
  6
CONTINUOUS
 90
10
 70
0
 10
148.3920193678
 20
135.7664462899
 10
148.3999579164
 20
135.7821777729
 10
148.4055085654
 20
135.798722621
 10
148.4084986733
 20
135.8155662404
 10
148.4088352386
 20
135.8321847444
 10
148.4065077934
 20
135.8480612484
 10
148.4015887279
 20
135.8627019457
 10
148.3942310399
 20
135.8756514674
 10
148.3846635751
 20
135.8865070449
 10
148.3731839103
 20
135.8949310373
  0
LWPOLYLINE
  5
36E
100
AcDbEntity
  8
RACCORDO
100
AcDbPolyline
 62
250
  6
CONTINUOUS
 90
5
 70
0
 10
148.027296793
 20
136.2805223289
 10
148.0265225451
 20
136.2793175027
 10
148.0192689493
 20
136.2705456783
 10
148.0113711364
 20
136.2632085673
 10
148.0028606028
 20
136.2573292375
  0
LINE
  5
36F
100
AcDbEntity
  8
DRAFT
100
AcDbLine
 62
7
  6
CONTINUOUS
 10
133.8718767719
 20
117.8840460533
 11
133.9779427891
 21
117.9537169474
  0
LINE
  5
370
100
AcDbEntity
  8
RACCORDO
100
AcDbLine
 62
250
  6
CONTINUOUS
 10
133.8718767719
 20
117.0370171775
 11
134.2045929538
 21
117.2555662895
  0
LINE
  5
371
100
AcDbEntity
  8
RACCORDO
100
AcDbLine
 62
250
  6
CONTINUOUS
 10
133.8718767719
 20
116.7835329503
 11
134.3105137686
 21
117.0716575782
  0
LINE
  5
372
100
AcDbEntity
  8
RACCORDO
100
AcDbLine
 62
250
  6
CONTINUOUS
 10
133.8718767719
 20
119.6451226925
 11
134.0786733427
 21
119.7398954314
  0
LINE
  5
373
100
AcDbEntity
  8
RACCORDO
100
AcDbLine
 62
7
  6
CONTINUOUS
 10
133.8718767719
 20
119.590174569
 11
134.1317286047
 21
119.7092619881
  0
LINE
  5
374
100
AcDbEntity
  8
RACCORDO
100
AcDbLine
 62
7
  6
CONTINUOUS
 10
147.5229149998
 20
122.9670365992
 11
147.5228858339
 21
122.9670276648
  0
LWPOLYLINE
  5
375
100
AcDbEntity
  8
RACCORDO
100
AcDbPolyline
 62
250
  6
CONTINUOUS
 90
10
 70
0
 10
147.6082187615
 20
123.0780526423
 10
147.7302313421
 20
123.1136873477
 10
147.8483657201
 20
123.1456212231
 10
147.9626218956
 20
123.1738542684
 10
148.0723942502
 20
123.1981690967
 10
148.1782884022
 20
123.2187830949
 10
148.2821212065
 20
123.2363484239
 10
148.38401609
 20
123.2510517195
 10
148.4838496259
 20
123.2627063458
 10
148.583068388
 20
123.2714045558
  0
LWPOLYLINE
  5
376
100
AcDbEntity
  8
RACCORDO
100
AcDbPolyline
 62
7
  6
CONTINUOUS
 90
6
 70
0
 10
147.5229315515
 20
122.9670416655
 10
147.6983867138
 20
123.0176063742
 10
147.9211854144
 20
123.0721856691
 10
148.1373067555
 20
123.1138409006
 10
148.3463288548
 20
123.1423937725
 10
148.5477618159
 20
123.1577398791
  0
LWPOLYLINE
  5
377
100
AcDbEntity
  8
RACCORDO
100
AcDbPolyline
 62
7
  6
CONTINUOUS
 90
3
 70
0
 10
149.1309422925
 20
116.0874652353
 10
149.10058402
 20
116.0910597765
 10
149.085434116
 20
116.0913803426
  0
LINE
  5
378
100
AcDbEntity
  8
RACCORDO
100
AcDbLine
 62
250
  6
CONTINUOUS
 10
150.747486733
 20
114.5014889968
 11
150.7367516436
 21
114.5042682545
  0
LWPOLYLINE
  5
379
100
AcDbEntity
  8
RACCORDO
100
AcDbPolyline
 62
7
  6
CONTINUOUS
 90
6
 70
0
 10
133.2536018809
 20
120.2169885408
 10
133.2497184798
 20
120.2180586061
 10
133.2485697336
 20
120.2184426196
 10
133.2500762669
 20
120.2178013349
 10
133.2540836001
 20
120.2158488471
 10
133.2595481282
 20
120.2128480644
  0
LWPOLYLINE
  5
37A
100
AcDbEntity
  8
DRAFT
100
AcDbPolyline
 62
7
  6
CONTINUOUS
 90
7
 70
0
 10
148.8436680383
 20
114.1078977382
 10
148.8848958018
 20
114.0872564748
 10
148.9294948955
 20
114.0715463421
 10
148.9768409982
 20
114.0610221407
 10
149.0263225431
 20
114.0558098158
 10
149.0779944732
 20
114.0559380725
 10
149.1251458852
 20
114.0607052624
  0
LINE
  5
37B
100
AcDbEntity
  8
RACCORDO
100
AcDbLine
 62
250
  6
CONTINUOUS
 10
154.7630035267
 20
109.4550401622
 11
154.7678901823
 21
109.4524818715
  0
LWPOLYLINE
  5
37C
100
AcDbEntity
  8
RACCORDO
100
AcDbPolyline
 62
250
  6
CONTINUOUS
 90
8
 70
0
 10
155.6771667906
 20
109.1616497229
 10
155.6629391669
 20
109.1690987116
 10
155.6485735386
 20
109.1746587487
 10
155.6342177436
 20
109.1782726165
 10
155.6200195253
 20
109.1799031249
 10
155.6061249914
 20
109.1795334974
 10
155.5926771121
 20
109.177167534
 10
155.5866083096
 20
109.1753912396
  0
LINE
  5
37D
100
AcDbEntity
  8
RACCORDO
100
AcDbLine
 62
250
  6
CONTINUOUS
 10
149.6499205191
 20
111.4704886589
 11
149.6419430034
 21
111.4747409306
  0
LWPOLYLINE
  5
37E
100
AcDbEntity
  8
RACCORDO
100
AcDbPolyline
 62
250
  6
CONTINUOUS
 90
9
 70
0
 10
154.6703534932
 20
109.4439738403
 10
154.6558204582
 20
109.4517479496
 10
154.6414195599
 20
109.457633208
 10
154.6273085146
 20
109.4615651624
 10
154.613641875
 20
109.4635007515
 10
154.6005693038
 20
109.4634187826
 10
154.5882339398
 20
109.4613201472
 10
154.5767708714
 20
109.4572278107
 10
154.5731601534
 20
109.4554247965
  0
LWPOLYLINE
  5
37F
100
AcDbEntity
  8
RACCORDO
100
AcDbPolyline
 62
250
  6
CONTINUOUS
 90
5
 70
0
 10
149.6703726555
 20
111.4598660293
 10
149.6646356179
 20
111.4629597573
 10
149.6593067066
 20
111.465761726
 10
149.6544006803
 20
111.4682696808
 10
149.6499205204
 20
111.4704886583
  0
LINE
  5
380
100
AcDbEntity
  8
RACCORDO
100
AcDbLine
 62
250
  6
CONTINUOUS
 10
149.6771242023
 20
111.4561440968
 11
149.6765259348
 21
111.4564672577
  0
LWPOLYLINE
  5
381
100
AcDbEntity
  8
RACCORDO
100
AcDbPolyline
 62
7
  6
CONTINUOUS
 90
6
 70
0
 10
149.6861910881
 20
111.4509793572
 10
149.6771242023
 20
111.4561440968
 10
149.6654053192
 20
111.4626181738
 10
149.6542678135
 20
111.4685270215
 10
149.6436619803
 20
111.4738968213
 10
149.6419430042
 20
111.4747409301
  0
LINE
  5
382
100
AcDbEntity
  8
RACCORDO
100
AcDbLine
 62
250
  6
CONTINUOUS
 10
156.0264542816
 20
108.9988582575
 11
156.0265439656
 21
108.9988065679
  0
LINE
  5
383
100
AcDbEntity
  8
RACCORDO
100
AcDbLine
 62
7
  6
CONTINUOUS
 10
149.6862413069
 20
111.4509504992
 11
150.0386117921
 21
111.2474965888
  0
LINE
  5
384
100
AcDbEntity
  8
RACCORDO
100
AcDbLine
 62
250
  6
CONTINUOUS
 10
154.31194245
 20
109.3149503689
 11
152.0140340862
 21
110.6417338586
  0
LINE
  5
385
100
AcDbEntity
  8
RACCORDO
100
AcDbLine
 62
7
  6
CONTINUOUS
 10
154.3700729223
 20
109.3462110558
 11
152.0643801511
 21
110.6774891647
  0
LINE
  5
386
100
AcDbEntity
  8
RACCORDO
100
AcDbLine
 62
250
  6
CONTINUOUS
 10
155.3000260584
 20
109.080408822
 11
154.6703534932
 21
109.4439738403
  0
LINE
  5
387
100
AcDbEntity
  8
RACCORDO
100
AcDbLine
 62
7
  6
CONTINUOUS
 10
155.3713542966
 20
109.104049255
 11
154.7678901823
 21
109.4524818715
  0
LINE
  5
388
100
AcDbEntity
  8
RACCORDO
100
AcDbLine
 62
250
  6
CONTINUOUS
 10
145.407203187
 20
114.9923442605
 11
130.5389890186
 21
123.5770647788
  0
LINE
  5
389
100
AcDbEntity
  8
RACCORDO
100
AcDbLine
 62
250
  6
CONTINUOUS
 10
155.9541770835
 20
109.0017074516
 11
155.6771667906
 21
109.1616497229
  0
LINE
  5
38A
100
AcDbEntity
  8
RACCORDO
100
AcDbLine
 62
7
  6
CONTINUOUS
 10
156.0265439656
 20
108.9988065679
 11
155.7495336727
 21
109.1587488393
  0
LINE
  5
38B
100
AcDbEntity
  8
RACCORDO
100
AcDbLine
 62
250
  6
CONTINUOUS
 10
145.4766797936
 20
115.1140937749
 11
130.6084656253
 21
123.6988142932
  0
LINE
  5
38C
100
AcDbEntity
  8
DRAFT
100
AcDbLine
 62
7
  6
CONTINUOUS
 10
145.407203187
 20
115.3342882328
 11
130.5389890186
 21
123.9190087512
  0
LINE
  5
38D
100
AcDbEntity
  8
ASSI
100
AcDbLine
 62
7
  6
CONTINUOUS
 10
149.6886694793
 20
113.7353338018
 11
148.6674926961
 21
114.3249484781
  0
LINE
  5
38E
100
AcDbEntity
  8
DRAFT
100
AcDbLine
 62
7
  6
CONTINUOUS
 10
151.5751291794
 20
112.8751714879
 11
152.4687851171
 21
112.3591857496
  0
LWPOLYLINE
  5
38F
100
AcDbEntity
  8
RACCORDO
100
AcDbPolyline
 62
250
  6
CONTINUOUS
 90
19
 70
0
 10
142.7901912744
 20
114.8790591342
 10
142.8335374039
 20
114.851821355
 10
142.8760430519
 20
114.8208490657
 10
142.9177082183
 20
114.7861422663
 10
142.9588973934
 20
114.7473285108
 10
142.9992460869
 20
114.7047802453
 10
143.0376608282
 20
114.6596148076
 10
143.0740160527
 20
114.6118449532
 10
143.1084373249
 20
114.5614579267
 10
143.1402078679
 20
114.5095328
 10
143.169284185
 20
114.4560380476
 10
143.1957097728
 20
114.4010051951
 10
143.2188983437
 20
114.345607891
 10
143.2387948091
 20
114.2897206691
 10
143.2554542576
 20
114.2334689956
 10
143.2684556665
 20
114.1784029173
 10
143.2776586952
 20
114.1250391162
 10
143.2832036844
 20
114.0728609102
 10
143.2850906341
 20
114.0218682993
  0
LINE
  5
390
100
AcDbEntity
  8
RACCORDO
100
AcDbLine
 62
250
  6
CONTINUOUS
 10
155.9690224275
 20
108.9923173101
 11
155.9541770835
 21
109.0017074516
  0
LWPOLYLINE
  5
391
100
AcDbEntity
  8
RACCORDO
100
AcDbPolyline
 62
250
  6
CONTINUOUS
 90
10
 70
0
 10
130.5389890186
 20
123.5770647797
 10
130.5056215228
 20
123.5983830051
 10
130.4764110529
 20
123.6212711196
 10
130.4514986454
 20
123.6454487019
 10
130.4308716737
 20
123.6707806284
 10
130.4147087196
 20
123.6968614139
 10
130.4031537282
 20
123.7229702364
 10
130.3959559275
 20
123.7487506675
 10
130.3927701094
 20
123.7740421116
 10
130.3925424152
 20
123.7828290029
  0
LWPOLYLINE
  5
392
100
AcDbEntity
  8
RACCORDO
100
AcDbPolyline
 62
250
  6
CONTINUOUS
 90
9
 70
0
 10
142.8937243086
 20
114.6501954826
 10
142.8790851689
 20
114.6597027354
 10
142.856270134
 20
114.6795691883
 10
142.8365351894
 20
114.7037602274
 10
142.8200917815
 20
114.7320166625
 10
142.8071160899
 20
114.7640357454
 10
142.7977471402
 20
114.7994744139
 10
142.7920853141
 20
114.8379529672
 10
142.7901912744
 20
114.8790591342
  0
LWPOLYLINE
  5
393
100
AcDbEntity
  8
RACCORDO
100
AcDbPolyline
 62
250
  6
CONTINUOUS
 90
8
 70
0
 10
130.6084656253
 20
123.6988142932
 10
130.581655263
 20
123.7162444542
 10
130.5583244967
 20
123.7344965648
 10
130.5384733266
 20
123.7535706248
 10
130.5221226803
 20
123.7737998699
 10
130.50925163
 20
123.7948510644
 10
130.4997973929
 20
123.8157245023
 10
130.4940209415
 20
123.8363065413
  0
LWPOLYLINE
  5
394
100
AcDbEntity
  8
RACCORDO
100
AcDbPolyline
 62
250
  6
CONTINUOUS
 90
7
 70
0
 10
151.7337761185
 20
104.1251774112
 10
151.7400454659
 20
104.1187672215
 10
151.7463895399
 20
104.1118623105
 10
151.7528516404
 20
104.1043655425
 10
151.7594043362
 20
104.0962425096
 10
151.7659873216
 20
104.0874974157
 10
151.7725781451
 20
104.0780846236
  0
LWPOLYLINE
  5
395
100
AcDbEntity
  8
RACCORDO
100
AcDbPolyline
 62
250
  6
CONTINUOUS
 90
10
 70
0
 10
143.1079680675
 20
105.0609053384
 10
143.1066952025
 20
105.075587577
 10
143.1033511255
 20
105.0910853662
 10
143.0980374081
 20
105.1069279939
 10
143.0909154455
 20
105.1226342744
 10
143.0822015534
 20
105.1377271661
 10
143.0721603967
 20
105.1517482596
 10
143.0610969531
 20
105.164271698
 10
143.0493472503
 20
105.1749171115
 10
143.0372681589
 20
105.183361172
  0
LWPOLYLINE
  5
396
100
AcDbEntity
  8
RACCORDO
100
AcDbPolyline
 62
250
  6
CONTINUOUS
 90
9
 70
0
 10
143.1386440275
 20
114.2259753429
 10
143.1395589517
 20
114.2085489101
 10
143.1453579439
 20
114.1788544142
 10
143.1564421547
 20
114.1496651105
 10
143.1726928243
 20
114.1212937422
 10
143.1939358381
 20
114.0940442888
 10
143.2199435919
 20
114.0682087095
 10
143.2504374307
 20
114.0440638143
 10
143.2850906341
 20
114.0218682993
  0
LINE
  5
397
100
AcDbEntity
  8
DRAFT
100
AcDbLine
 62
7
  6
CONTINUOUS
 10
141.3048039776
 20
143.3145429131
 11
141.3048039776
 21
143.2344565148
  0
LINE
  5
398
100
AcDbEntity
  8
RACCORDO
100
AcDbLine
 62
7
  6
CONTINUOUS
 10
143.1386440247
 20
98.78627383
 11
143.1386440247
 21
114.226005596
  0
LINE
  5
399
100
AcDbEntity
  8
RACCORDO
100
AcDbLine
 62
250
  6
CONTINUOUS
 10
143.2850906341
 20
98.0821526413
 11
143.2850906341
 21
114.0218682993
  0
LINE
  5
39A
100
AcDbEntity
  8
ASSI
100
AcDbLine
 62
250
  6
CONTINUOUS
 10
142.8264841425
 20
143.7200349786
 11
142.8261590969
 21
143.7141768554
  0
LINE
  5
39B
100
AcDbEntity
  8
ASSI
100
AcDbLine
 62
250
  6
CONTINUOUS
 10
145.6519745232
 20
145.1588175772
 11
145.6550631214
 21
145.1763280859
  0
LWPOLYLINE
  5
39C
100
AcDbEntity
  8
ASSI
100
AcDbPolyline
 62
250
  6
CONTINUOUS
 90
13
 70
0
 10
145.9334055261
 20
141.760906632
 10
145.9381792379
 20
141.784711884
 10
145.9406899029
 20
141.8091570455
 10
145.9408991289
 20
141.8338685921
 10
145.9388036895
 20
141.8584689244
 10
145.9344355756
 20
141.8825821275
 10
145.9278615107
 20
141.9058397166
 10
145.9191819262
 20
141.9278862882
 10
145.9085294325
 20
141.9483849305
 10
145.8960668024
 20
141.967022367
 10
145.8819844694
 20
141.9835137745
 10
145.8664976126
 20
141.9976071314
 10
145.8498428809
 20
142.0090870517
  0
LWPOLYLINE
  5
39D
100
AcDbEntity
  8
ASSI
100
AcDbPolyline
 62
250
  6
CONTINUOUS
 90
5
 70
0
 10
150.5020765852
 20
143.1517222267
 10
150.5067162575
 20
143.1637321299
 10
150.5131009644
 20
143.1753328491
 10
150.5211346891
 20
143.1863708649
 10
150.5307128003
 20
143.1967370625
  0
LWPOLYLINE
  5
39E
100
AcDbEntity
  8
ASSI
100
AcDbPolyline
 62
250
  6
CONTINUOUS
 90
4
 70
0
 10
150.5020779261
 20
143.1307857749
 10
150.5057250626
 20
143.1398020938
 10
150.513865754
 20
143.1520287054
 10
150.5249636033
 20
143.1637559234
  0
LWPOLYLINE
  5
39F
100
AcDbEntity
  8
RACCORDO
100
AcDbPolyline
 62
250
  6
CONTINUOUS
 90
11
 70
0
 10
133.9321617011
 20
110.289640065
 10
133.9399050061
 20
110.2991800583
 10
133.9478679378
 20
110.3084907441
 10
133.9560096844
 20
110.3175184963
 10
133.9643463587
 20
110.3262755657
 10
133.9730215244
 20
110.3348906061
 10
133.9820307382
 20
110.3433240211
 10
133.9913611254
 20
110.3515283272
 10
134.0011527736
 20
110.3595775288
 10
134.01144489
 20
110.3674363769
 10
134.0221695697
 20
110.3749839704
  0
LINE
  5
3A0
100
AcDbEntity
  8
RACCORDO
100
AcDbLine
 62
250
  6
CONTINUOUS
 10
133.8718767719
 20
115.5627713085
 11
134.3105137686
 21
115.7637941272
  0
LINE
  5
3A1
100
AcDbEntity
  8
RACCORDO
100
AcDbLine
 62
7
  6
CONTINUOUS
 10
133.8718767719
 20
115.507823185
 11
134.2751868264
 21
115.6926560298
  0
LWPOLYLINE
  5
3A2
100
AcDbEntity
  8
RACCORDO
100
AcDbPolyline
 62
7
  6
CONTINUOUS
 90
20
 70
0
 10
147.530656081
 20
122.8404344676
 10
147.6853107894
 20
122.8795171048
 10
147.8361952824
 20
122.9132402058
 10
147.98330956
 20
122.9416037704
 10
148.1264799104
 20
122.9645316581
 10
148.2658800453
 20
122.9821000094
 10
148.4020311006
 20
122.994537246
 10
148.534988989
 20
123.0019019131
 10
148.6646977977
 20
123.0041354655
 10
148.7915109236
 20
123.0012906893
 10
148.915465488
 20
122.9934161404
 10
149.0365243697
 20
122.9804632628
 10
149.1549296019
 20
122.9623391755
 10
149.2707597794
 20
122.9390643774
 10
149.3839363074
 20
122.9106183695
 10
149.4944654355
 20
122.876846774
 10
149.6024448885
 20
122.8376991935
 10
149.7077769415
 20
122.7932260253
 10
149.8101746688
 20
122.7434240831
 10
149.8921284175
 20
122.6984145871
  0
LWPOLYLINE
  5
3A3
100
AcDbEntity
  8
RACCORDO
100
AcDbPolyline
 62
250
  6
CONTINUOUS
 90
8
 70
0
 10
148.583068388
 20
123.2714045558
 10
148.6822580622
 20
123.2772658036
 10
148.7808329626
 20
123.280170635
 10
148.8784826058
 20
123.279852941
 10
148.9753889344
 20
123.2762455483
 10
149.0713700057
 20
123.2694156302
 10
149.1655695079
 20
123.2592985976
 10
149.2577813569
 20
123.245843062
  0
LWPOLYLINE
  5
3A4
100
AcDbEntity
  8
RACCORDO
100
AcDbPolyline
 62
250
  6
CONTINUOUS
 90
10
 70
0
 10
152.7710488864
 20
114.6596939629
 10
152.7622244706
 20
114.6639591208
 10
152.7527235406
 20
114.6669554286
 10
152.7426104347
 20
114.6686526264
 10
152.7319466601
 20
114.6690294224
 10
152.7208139752
 20
114.6680724683
 10
152.7093168923
 20
114.6657864081
 10
152.6975483007
 20
114.6621910479
 10
152.68558587
 20
114.6573114204
 10
152.6735170294
 20
114.651183142
  0
LINE
  5
3A5
100
AcDbEntity
  8
DRAFT
100
AcDbLine
 62
250
  6
CONTINUOUS
 10
148.824611212
 20
115.0044519595
 11
149.5849082825
 21
114.5654659598
  0
LINE
  5
3A6
100
AcDbEntity
  8
DRAFT
100
AcDbLine
 62
250
  6
CONTINUOUS
 10
151.7688547198
 20
113.611216497
 11
152.4687851171
 21
113.2070854578
  0
LINE
  5
3A7
100
AcDbEntity
  8
DRAFT
100
AcDbLine
 62
7
  6
CONTINUOUS
 10
151.96876025
 20
113.7348410755
 11
152.2106879356
 21
113.5951550619
  0
LINE
  5
3A8
100
AcDbEntity
  8
DRAFT
100
AcDbLine
 62
250
  6
CONTINUOUS
 10
149.8080413467
 20
115.1848706834
 11
149.0382550143
 21
115.629335664
  0
LINE
  5
3A9
100
AcDbEntity
  8
RACCORDO
100
AcDbLine
 62
250
  6
CONTINUOUS
 10
154.0562920796
 20
113.7010508853
 11
152.8242577751
 21
114.4122613803
  0
LINE
  5
3AA
100
AcDbEntity
  8
RACCORDO
100
AcDbLine
 62
250
  6
CONTINUOUS
 10
152.617275459
 20
114.6836563199
 11
152.6735170294
 21
114.651183142
  0
LINE
  5
3AB
100
AcDbEntity
  8
RACCORDO
100
AcDbLine
 62
7
  6
CONTINUOUS
 10
154.0030732734
 20
113.9484891929
 11
152.7710488864
 21
114.6596939629
  0
LINE
  5
3AC
100
AcDbEntity
  8
RACCORDO
100
AcDbLine
 62
7
  6
CONTINUOUS
 10
152.617275459
 20
114.7484808127
 11
152.7710488864
 21
114.6596939629
  0
LWPOLYLINE
  5
3AD
100
AcDbEntity
  8
RACCORDO
100
AcDbPolyline
 62
250
  6
CONTINUOUS
 90
16
 70
0
 10
152.7710488864
 20
114.6596939629
 10
152.7853400223
 20
114.6502747568
 10
152.7984754257
 20
114.6391991305
 10
152.8103222351
 20
114.6265790614
 10
152.8207606219
 20
114.6125421423
 10
152.8296849857
 20
114.597230313
 10
152.8370050316
 20
114.5807984314
 10
152.8426467025
 20
114.5634126752
 10
152.8465529205
 20
114.5452488563
 10
152.8486841544
 20
114.5264906681
 10
152.8490188224
 20
114.5073277677
 10
152.8475535061
 20
114.4879540124
 10
152.8443030335
 20
114.4685655032
 10
152.8393003133
 20
114.4493583848
 10
152.8325959528
 20
114.4305268596
 10
152.8242577751
 20
114.4122613803
  0
LWPOLYLINE
  5
3AE
100
AcDbEntity
  8
RACCORDO
100
AcDbPolyline
 62
250
  6
CONTINUOUS
 90
8
 70
0
 10
149.2024470543
 20
109.3870963253
 10
149.2184365121
 20
109.3672227009
 10
149.2321776852
 20
109.3441730325
 10
149.2434381548
 20
109.3181498588
 10
149.2520325623
 20
109.2895686744
 10
149.2578919026
 20
109.2587751731
 10
149.2609905718
 20
109.2259556691
 10
149.2613045256
 20
109.1913885243
  0
LWPOLYLINE
  5
3AF
100
AcDbEntity
  8
RACCORDO
100
AcDbPolyline
 62
250
  6
CONTINUOUS
 90
13
 70
0
 10
151.7725781451
 20
104.0780846236
 10
151.7791373415
 20
104.0679660983
 10
151.7855738432
 20
104.0571791427
 10
151.7917823389
 20
104.0458037609
 10
151.7976979798
 20
104.0338541783
 10
151.8032378909
 20
104.0213800189
 10
151.8082854791
 20
104.0085366616
 10
151.8127741454
 20
103.9953875202
 10
151.8166390752
 20
103.9819962369
 10
151.8197961814
 20
103.9685330723
 10
151.8221960573
 20
103.9550899966
 10
151.8237964798
 20
103.9417399394
 10
151.8245549253
 20
103.9286268188
  0
LWPOLYLINE
  5
3B0
100
AcDbEntity
  8
RACCORDO
100
AcDbPolyline
 62
250
  6
CONTINUOUS
 90
10
 70
0
 10
151.8520984063
 20
105.8084438771
 10
151.84308269
 20
105.8233626884
 10
151.8333560886
 20
105.8377180187
 10
151.8229926035
 20
105.8514006506
 10
151.812071082
 20
105.8643064842
 10
151.8006746167
 20
105.8763373301
 10
151.7888899137
 20
105.8874016555
 10
151.776806633
 20
105.8974152814
 10
151.7645167061
 20
105.9063020224
 10
151.7521136368
 20
105.913994267
  0
LINE
  5
3B1
100
AcDbEntity
  8
RACCORDO
100
AcDbLine
 62
250
  6
CONTINUOUS
 10
152.5531777349
 20
104.5941388611
 11
151.8520984063
 21
105.8084438771
  0
LWPOLYLINE
  5
3B2
100
AcDbEntity
  8
RACCORDO
100
AcDbPolyline
 62
7
  6
CONTINUOUS
 90
12
 70
0
 10
148.8537339176
 20
102.2157763786
 10
148.8582883492
 20
102.2018011301
 10
148.8631444832
 20
102.1821220197
 10
148.8663282378
 20
102.1628577962
 10
148.8677997798
 20
102.1442460011
 10
148.8675346173
 20
102.1265097475
 10
148.8655370065
 20
102.1098520566
 10
148.8618322727
 20
102.0944891789
 10
148.8564723909
 20
102.0806344459
 10
148.8495396185
 20
102.0684521894
 10
148.8411310825
 20
102.0580676095
 10
148.8313605134
 20
102.0495930338
  0
LINE
  5
3B3
100
AcDbEntity
  8
RACCORDO
100
AcDbLine
 62
7
  6
CONTINUOUS
 10
143.7325769308
 20
144.5633549909
 11
143.7360321512
 21
144.5297923664
  0
LINE
  5
3B4
100
AcDbEntity
  8
ASSI
100
AcDbLine
 62
7
  6
CONTINUOUS
 10
142.8261590969
 20
143.7141768554
 11
142.8261649124
 21
143.7141136956
  0
LINE
  5
3B5
100
AcDbEntity
  8
ASSI
100
AcDbLine
 62
250
  6
CONTINUOUS
 10
143.0002553635
 20
143.6200614799
 11
142.9905660969
 21
143.726799841
  0
LWPOLYLINE
  5
3B6
100
AcDbEntity
  8
RACCORDO
100
AcDbPolyline
 62
250
  6
CONTINUOUS
 90
10
 70
0
 10
146.1049338654
 20
114.9926219137
 10
146.1036687685
 20
115.0073107347
 10
146.1003514263
 20
115.0228251367
 10
146.0950827359
 20
115.0386938736
 10
146.0880228076
 20
115.0544350658
 10
146.0793861873
 20
115.0695706159
 10
146.0694353991
 20
115.0836407631
 10
146.0584727883
 20
115.0962183475
 10
146.0468312664
 20
115.1069217301
 10
146.0348643364
 20
115.1154261758
  0
LWPOLYLINE
  5
3B7
100
AcDbEntity
  8
0
100
AcDbPolyline
 62
250
  6
CONTINUOUS
 90
9
 70
0
 10
145.407203187
 20
94.0783394577
 10
145.4090760239
 20
94.0374572855
 10
145.4146746931
 20
93.9991709389
 10
145.4239398804
 20
93.9638860374
 10
145.436773427
 20
93.9319764024
 10
145.4530393697
 20
93.9037800961
 10
145.472565381
 20
93.8795958408
 10
145.4951445952
 20
93.8596798534
 10
145.5107444975
 20
93.8494710271
  0
LINE
  5
3B8
100
AcDbEntity
  8
DRAFT
100
AcDbLine
 62
250
  6
CONTINUOUS
 10
145.407203187
 20
136.2301117399
 11
145.407203187
 21
115.3342882328
  0
LINE
  5
3B9
100
AcDbEntity
  8
RACCORDO
100
AcDbLine
 62
250
  6
CONTINUOUS
 10
145.407203187
 20
114.9923442605
 11
145.407203187
 21
94.0783394577
  0
LINE
  5
3BA
100
AcDbEntity
  8
ASSI
100
AcDbLine
 62
7
  6
CONTINUOUS
 10
145.622501756
 20
145.2375144191
 11
145.622501756
 21
145.1052462126
  0
LINE
  5
3BB
100
AcDbEntity
  8
DRAFT
100
AcDbLine
 62
250
  6
CONTINUOUS
 10
146.1049338654
 20
136.2248380012
 11
146.1049338654
 21
115.308179845
  0
LINE
  5
3BC
100
AcDbEntity
  8
RACCORDO
100
AcDbLine
 62
250
  6
CONTINUOUS
 10
146.1049338654
 20
114.9926219137
 11
146.1049338654
 21
94.073065719
  0
LINE
  5
3BD
100
AcDbEntity
  8
ASSI
100
AcDbLine
 62
250
  6
CONTINUOUS
 10
145.6501778403
 20
145.1149475379
 11
145.6509411995
 21
145.1415383769
  0
LWPOLYLINE
  5
3BE
100
AcDbEntity
  8
ASSI
100
AcDbPolyline
 62
7
  6
CONTINUOUS
 90
22
 70
0
 10
145.6225017601
 20
145.2375144191
 10
145.6241389223
 20
145.2688178725
 10
145.6291835676
 20
145.3005572512
 10
145.6378036227
 20
145.3323858191
 10
145.6500947644
 20
145.3638919607
 10
145.6661235949
 20
145.3947459924
 10
145.6860141499
 20
145.4247491547
 10
145.709999303
 20
145.4537755531
 10
145.7379520669
 20
145.4812692235
 10
145.7694113167
 20
145.5066009297
 10
145.8045585269
 20
145.5297920494
 10
145.8431165479
 20
145.5505098688
 10
145.8835955824
 20
145.5680381486
 10
145.9253772577
 20
145.5823836366
 10
145.9685819964
 20
145.5937850011
 10
146.0124788881
 20
145.602196302
 10
146.0565787803
 20
145.6076953175
 10
146.1008703414
 20
145.610405338
 10
146.1452054779
 20
145.6103722731
 10
146.1893766396
 20
145.6076065705
 10
146.2331457031
 20
145.6020982227
 10
146.2762808844
 20
145.5938168809
  0
LINE
  5
3BF
100
AcDbEntity
  8
ASSI
100
AcDbLine
 62
250
  6
CONTINUOUS
 10
145.6509412162
 20
145.1415383567
 11
145.6519745232
 21
145.1588175772
  0
LWPOLYLINE
  5
3C0
100
AcDbEntity
  8
RACCORDO
100
AcDbPolyline
 62
250
  6
CONTINUOUS
 90
10
 70
0
 10
145.407203187
 20
114.9923442605
 10
145.4082537603
 20
115.0069727505
 10
145.4113742629
 20
115.022379735
 10
145.41647197
 20
115.0381074002
 10
145.4233954046
 20
115.053688403
 10
145.4319388391
 20
115.0686597588
 10
145.4418484077
 20
115.082576598
 10
145.4528296507
 20
115.0950253861
 10
145.4645562636
 20
115.1056362108
 10
145.4766797936
 20
115.1140937749
  0
LWPOLYLINE
  5
3C1
100
AcDbEntity
  8
ASSI
100
AcDbPolyline
 62
250
  6
CONTINUOUS
 90
13
 70
0
 10
148.0071091782
 20
145.6028343482
 10
148.0097047326
 20
145.6265139313
 10
148.0099951367
 20
145.6509839564
 10
148.0079757359
 20
145.6758522258
 10
148.0036788964
 20
145.7007201589
 10
147.9971734863
 20
145.7251891804
 10
147.9885637723
 20
145.7488671085
 10
147.977987748
 20
145.771374441
 10
147.9656149223
 20
145.7923504374
 10
147.9516436031
 20
145.8114589009
 10
147.9362977181
 20
145.8283935671
 10
147.9198232262
 20
145.8428830124
 10
147.9024841754
 20
145.8546950045
  0
LWPOLYLINE
  5
3C2
100
AcDbEntity
  8
ASSI
100
AcDbPolyline
 62
250
  6
CONTINUOUS
 90
3
 70
0
 10
148.5432041287
 20
138.2541325573
 10
148.5451496182
 20
138.2660449614
 10
148.5453275732
 20
138.2709152631
  0
LWPOLYLINE
  5
3C3
100
AcDbEntity
  8
ASSI
100
AcDbPolyline
 62
250
  6
CONTINUOUS
 90
10
 70
0
 10
147.9777342531
 20
141.8672581829
 10
147.974308615
 20
141.8490895118
 10
147.9722609575
 20
141.8309926753
 10
147.971609564
 20
141.8131292435
 10
147.9723602531
 20
141.7956587025
 10
147.9745063226
 20
141.7787370315
 10
147.9780286109
 20
141.7625153098
 10
147.9828956717
 20
141.747138367
 10
147.9890640541
 20
141.7327434902
 10
147.9964786876
 20
141.7194591988
  0
LINE
  5
3C4
100
AcDbEntity
  8
RACCORDO
100
AcDbLine
 62
7
  6
CONTINUOUS
 10
135.2417768833
 20
111.1657179121
 11
135.2382054161
 21
111.1631584473
  0
LWPOLYLINE
  5
3C5
100
AcDbEntity
  8
RACCORDO
100
AcDbPolyline
 62
7
  6
CONTINUOUS
 90
17
 70
0
 10
133.9819802789
 20
110.3862900416
 10
133.9532112201
 20
110.3661339506
 10
133.922980631
 20
110.3394238251
 10
133.8951528967
 20
110.3089249478
 10
133.8698534832
 20
110.2749224252
 10
133.8475766091
 20
110.238046597
 10
133.8290325847
 20
110.1994866878
 10
133.8144725158
 20
110.1597562593
 10
133.8042443089
 20
110.1194846533
 10
133.7987643538
 20
110.0799621352
 10
133.7981851522
 20
110.0412555515
 10
133.8028136407
 20
110.0040438444
 10
133.8124508357
 20
109.9702300018
 10
133.8264369386
 20
109.9406630796
 10
133.8444881515
 20
109.9150317069
 10
133.8662370692
 20
109.8935568054
 10
133.8896419817
 20
109.8774690357
  0
LWPOLYLINE
  5
3C6
100
AcDbEntity
  8
RACCORDO
100
AcDbPolyline
 62
250
  6
CONTINUOUS
 90
10
 70
0
 10
135.2885263549
 20
111.1583859082
 10
135.3006498849
 20
111.1668434722
 10
135.3123764978
 20
111.177454297
 10
135.3233577408
 20
111.189903085
 10
135.3332673094
 20
111.2038199243
 10
135.3418107439
 20
111.21879128
 10
135.3487341785
 20
111.2343722829
 10
135.3538318856
 20
111.250099948
 10
135.3569523882
 20
111.2655069326
 10
135.3580029615
 20
111.2801354226
  0
LINE
  5
3C7
100
AcDbEntity
  8
RACCORDO
100
AcDbLine
 62
250
  6
CONTINUOUS
 10
134.0221695697
 20
110.3749839704
 11
134.0333037123
 21
110.3821373973
  0
LINE
  5
3C8
100
AcDbEntity
  8
RACCORDO
100
AcDbLine
 62
7
  6
CONTINUOUS
 10
133.9819412259
 20
110.3862659278
 11
135.2381673141
 21
111.1631349845
  0
LINE
  5
3C9
100
AcDbEntity
  8
RACCORDO
100
AcDbLine
 62
250
  6
CONTINUOUS
 10
134.0333037123
 20
110.3821373973
 11
135.2885263549
 21
111.1583859082
  0
LWPOLYLINE
  5
3CA
100
AcDbEntity
  8
RACCORDO
100
AcDbPolyline
 62
250
  6
CONTINUOUS
 90
16
 70
0
 10
135.2382067104
 20
111.1631593098
 10
135.239498283
 20
111.1639160719
 10
135.2421967418
 20
111.1652605637
 10
135.2450301695
 20
111.1663656066
 10
135.2479902033
 20
111.1672245572
 10
135.2510720562
 20
111.1678328779
 10
135.2542602613
 20
111.168185191
 10
135.2575252032
 20
111.168279543
 10
135.2608778995
 20
111.1681173346
 10
135.264366767
 20
111.1676886074
 10
135.2679818334
 20
111.1669819491
 10
135.2717196846
 20
111.1659845576
 10
135.2756446866
 20
111.1646568823
 10
135.2797738428
 20
111.1629609843
 10
135.2840724096
 20
111.1608787484
 10
135.2885263549
 20
111.1583859082
  0
LWPOLYLINE
  5
3CB
100
AcDbEntity
  8
RACCORDO
100
AcDbPolyline
 62
250
  6
CONTINUOUS
 90
6
 70
0
 10
133.9819802789
 20
110.3862900416
 10
133.9873617512
 20
110.3889736524
 10
133.9975085052
 20
110.3913385096
 10
134.0087799399
 20
110.390966079
 10
134.020833711
 20
110.3878676726
 10
134.0333037123
 20
110.3821373973
  0
LWPOLYLINE
  5
3CC
100
AcDbEntity
  8
RACCORDO
100
AcDbPolyline
 62
7
  6
CONTINUOUS
 90
4
 70
0
 10
148.5477618159
 20
123.1577398791
 10
148.7410736309
 20
123.1598861846
 10
148.9257618671
 20
123.148981816
 10
149.1016209681
 20
123.1252992856
  0
LWPOLYLINE
  5
3CD
100
AcDbEntity
  8
RACCORDO
100
AcDbPolyline
 62
250
  6
CONTINUOUS
 90
11
 70
0
 10
147.4205526066
 20
123.0457421948
 10
147.4344430441
 20
123.0440910013
 10
147.4555099394
 20
123.0429054341
 10
147.4766758978
 20
123.0430120393
 10
147.4977038451
 20
123.0444096299
 10
147.5183582618
 20
123.0470825611
 10
147.5384077841
 20
123.0510009006
 10
147.5576278013
 20
123.056120756
 10
147.5758030202
 20
123.0623847767
 10
147.5927298727
 20
123.0697228029
 10
147.6082187615
 20
123.0780526423
  0
LWPOLYLINE
  5
3CE
100
AcDbEntity
  8
RACCORDO
100
AcDbPolyline
 62
250
  6
CONTINUOUS
 90
48
 70
0
 10
149.2577813569
 20
123.245843062
 10
149.3482116368
 20
123.2291004119
 10
149.436622288
 20
123.2091602238
 10
149.522902058
 20
123.186034086
 10
149.6071621993
 20
123.1597104102
 10
149.6894984097
 20
123.1302440078
 10
149.7699078339
 20
123.0976496952
 10
149.8483933272
 20
123.0619126561
 10
149.9250591535
 20
123.0230432529
 10
149.999943417
 20
122.9810268274
 10
150.0730080136
 20
122.9358780377
 10
150.1442428951
 20
122.8876512212
 10
150.2136978226
 20
122.836282048
 10
150.2813230349
 20
122.7818348479
 10
150.3469592006
 20
122.7245569472
 10
150.4105380502
 20
122.66447953
 10
150.4721278532
 20
122.6015714122
 10
150.5317740853
 20
122.5359863679
 10
150.5893471024
 20
122.4679418658
 10
150.6449765487
 20
122.3972204371
 10
150.6990968325
 20
122.3233234495
 10
150.7516918559
 20
122.2464826487
 10
150.8027777168
 20
122.166466289
 10
150.8528371175
 20
122.0820805009
 10
150.9019695213
 20
121.9934392332
 10
150.9500754649
 20
121.9004285372
 10
150.9973392608
 20
121.801512697
 10
151.043897806
 20
121.696673056
 10
151.0896142035
 20
121.5859282709
 10
151.1342620741
 20
121.4677985954
 10
151.1779770969
 20
121.3420339723
 10
151.2206235928
 20
121.2088844589
 10
151.2615681453
 20
121.067620481
 10
151.3007812038
 20
120.9183953857
 10
151.3382923189
 20
120.7610558259
 10
151.3735567263
 20
120.594412186
 10
151.4066880479
 20
120.4172955489
 10
151.4375726618
 20
120.2308748316
 10
151.4653249386
 20
120.0374671695
 10
151.4897838882
 20
119.8350997873
 10
151.5111105007
 20
119.6257454603
 10
151.5289021175
 20
119.4176396486
 10
151.5427369995
 20
119.2104274543
 10
151.5530368858
 20
119.0044637753
 10
151.5606643355
 20
118.8090487659
 10
151.5659068683
 20
118.6272824774
 10
151.5684769645
 20
118.4560648584
 10
151.5683746241
 20
118.2953959089
  0
LINE
  5
3CF
100
AcDbEntity
  8
RACCORDO
100
AcDbLine
 62
7
  6
CONTINUOUS
 10
149.1016209681
 20
123.1252992856
 11
149.2686721217
 21
123.0891660931
  0
LWPOLYLINE
  5
3D0
100
AcDbEntity
  8
RACCORDO
100
AcDbPolyline
 62
7
  6
CONTINUOUS
 90
5
 70
0
 10
149.2686721217
 20
123.0891660931
 10
149.4266923372
 20
123.0410516431
 10
149.575701407
 20
122.9814989739
 10
149.7161835529
 20
122.9109123224
 10
149.7417814329
 20
122.896379128
  0
LINE
  5
3D1
100
AcDbEntity
  8
RACCORDO
100
AcDbLine
 62
7
  6
CONTINUOUS
 10
152.623930062
 20
104.6349947162
 11
151.9228505745
 21
105.8493000074
  0
LWPOLYLINE
  5
3D2
100
AcDbEntity
  8
RACCORDO
100
AcDbPolyline
 62
250
  6
CONTINUOUS
 90
13
 70
0
 10
152.5531778938
 20
104.5941385859
 10
152.5661492319
 20
104.5702965495
 10
152.5769854943
 20
104.5458015126
 10
152.5854862358
 20
104.5211065756
 10
152.5914942127
 20
104.4966685363
 10
152.5948982916
 20
104.4729394406
 10
152.5956355053
 20
104.4503582208
 10
152.5936922168
 20
104.429342576
 10
152.5891043726
 20
104.4102812459
 10
152.5819568368
 20
104.39352682
 10
152.572381822
 20
104.3793892157
 10
152.5605564433
 20
104.3681299451
 10
152.5546946922
 20
104.3641430283
  0
LWPOLYLINE
  5
3D3
100
AcDbEntity
  8
RACCORDO
100
AcDbPolyline
 62
250
  6
CONTINUOUS
 90
7
 70
0
 10
149.4213336519
 20
111.068167738
 10
149.4313106182
 20
111.04921108
 10
149.4414980848
 20
111.0254707823
 10
149.449533652
 20
111.0015105753
 10
149.4552799333
 20
110.9777402685
 10
149.4586387081
 20
110.9545663822
 10
149.4595525869
 20
110.9323852341
  0
LINE
  5
3D4
100
AcDbEntity
  8
RACCORDO
100
AcDbLine
 62
250
  6
CONTINUOUS
 10
148.760749465
 20
109.1768203599
 11
148.7505982878
 21
109.1984150351
  0
LINE
  5
3D5
100
AcDbEntity
  8
RACCORDO
100
AcDbLine
 62
7
  6
CONTINUOUS
 10
148.9959210475
 20
108.9767183005
 11
148.8607911546
 21
109.2641811348
  0
LWPOLYLINE
  5
3D6
100
AcDbEntity
  8
ASSI
100
AcDbPolyline
 62
250
  6
CONTINUOUS
 90
13
 70
0
 10
143.1864271638
 20
139.9654192914
 10
143.1837729877
 20
139.9869251799
 10
143.1789571696
 20
140.0091026977
 10
143.1720559271
 20
140.0316104512
 10
143.1631785187
 20
140.0540999347
 10
143.1524624577
 20
140.0762288633
 10
143.1400692443
 20
140.0976658449
 10
143.1261698514
 20
140.1181080335
 10
143.1109931084
 20
140.137212535
 10
143.0948317631
 20
140.1546264808
 10
143.0779628982
 20
140.1700854475
 10
143.0606299135
 20
140.1833987978
 10
143.0430972728
 20
140.1943902328
  0
LWPOLYLINE
  5
3D7
100
AcDbEntity
  8
ASSI
100
AcDbPolyline
 62
250
  6
CONTINUOUS
 90
13
 70
0
 10
145.0860496453
 20
143.9250347946
 10
145.083986399
 20
143.9467375268
 10
145.0796978253
 20
143.9692603859
 10
145.0732525326
 20
143.9922432068
 10
145.0647536179
 20
144.0153184707
 10
145.0543370085
 20
144.0381172044
 10
145.0421692819
 20
144.0602748789
 10
145.0284450225
 20
144.0814371967
 10
145.0133836952
 20
144.1012657904
 10
144.997226117
 20
144.119443647
 10
144.9802306415
 20
144.1356801267
 10
144.9626690343
 20
144.1497156175
 10
144.9448221021
 20
144.1613257128
  0
LWPOLYLINE
  5
3D8
100
AcDbEntity
  8
ASSI
100
AcDbPolyline
 62
250
  6
CONTINUOUS
 90
13
 70
0
 10
145.4071110291
 20
143.877607505
 10
145.4091742022
 20
143.855905282
 10
145.4134626276
 20
143.8333828526
 10
145.419907733
 20
143.8104003527
 10
145.4284064603
 20
143.7873252747
 10
145.4388229143
 20
143.7645265915
 10
145.4509905346
 20
143.7423688562
 10
145.4647147598
 20
143.7212063734
 10
145.4797761382
 20
143.7013775333
 10
145.4959338369
 20
143.6831994009
 10
145.5129294925
 20
143.6669626465
 10
145.5304913429
 20
143.6529268974
 10
145.5483385723
 20
143.6413165867
  0
LINE
  5
3D9
100
AcDbEntity
  8
ASSI
100
AcDbLine
 62
250
  6
CONTINUOUS
 10
147.4819907848
 20
140.9313028135
 11
147.5089319107
 21
140.6377180116
  0
LINE
  5
3DA
100
AcDbEntity
  8
ASSI
100
AcDbLine
 62
250
  6
CONTINUOUS
 10
147.4531271846
 20
141.2622231902
 11
147.4819907848
 21
140.9313028135
  0
LWPOLYLINE
  5
3DB
100
AcDbEntity
  8
ASSI
100
AcDbPolyline
 62
250
  6
CONTINUOUS
 90
5
 70
0
 10
145.622501756
 20
145.2375144191
 10
145.6243137204
 20
145.2129589425
 10
145.629687358
 20
145.1887466413
 10
145.6385843744
 20
145.1648829134
 10
145.6509411995
 20
145.1415383769
  0
LWPOLYLINE
  5
3DC
100
AcDbEntity
  8
RACCORDO
100
AcDbPolyline
 62
250
  6
CONTINUOUS
 90
12
 70
0
 10
147.7447465374
 20
133.8039421211
 10
147.7431987651
 20
133.8257543454
 10
147.7392149275
 20
133.8485662963
 10
147.7328632091
 20
133.8719875083
 10
147.7242523253
 20
133.8956170867
 10
147.7135296618
 20
133.9190505669
 10
147.7008787537
 20
133.9418868376
 10
147.6865161406
 20
133.9637350117
 10
147.6706876635
 20
133.9842211123
 10
147.6536642583
 20
134.0029944726
 10
147.6357373138
 20
134.0197337456
 10
147.6237043896
 20
134.0291000853
  0
LWPOLYLINE
  5
3DD
100
AcDbEntity
  8
RACCORDO
100
AcDbPolyline
 62
250
  6
CONTINUOUS
 90
9
 70
0
 10
147.8364203944
 20
136.0195431414
 10
147.8353746295
 20
136.0343572836
 10
147.8322691095
 20
136.0499938754
 10
147.827198194
 20
136.0659778069
 10
147.8203159606
 20
136.0818234147
 10
147.811831522
 20
136.097049238
 10
147.8020026724
 20
136.111192647
 10
147.7911280557
 20
136.1238239013
 10
147.7806843837
 20
136.133497444
  0
LWPOLYLINE
  5
3DE
100
AcDbEntity
  8
0
100
AcDbPolyline
 62
250
  6
CONTINUOUS
 90
16
 70
0
 10
146.1049338654
 20
136.2248380012
 10
146.1020439178
 20
136.2682149233
 10
146.0953952168
 20
136.3134203189
 10
146.0850610241
 20
136.3599563045
 10
146.0711533726
 20
136.4073158772
 10
146.0538264894
 20
136.4549719876
 10
146.0332789739
 20
136.5023832432
 10
146.009745847
 20
136.5490179933
 10
145.9834846672
 20
136.5943751205
 10
145.9547771947
 20
136.6379714315
 10
145.9238942881
 20
136.6793845777
 10
145.8912151566
 20
136.7180957948
 10
145.8572353399
 20
136.7535467121
 10
145.8223871591
 20
136.7853495087
 10
145.7870141908
 20
136.8132516846
 10
145.7515016239
 20
136.8370005888
  0
LWPOLYLINE
  5
3DF
100
AcDbEntity
  8
RACCORDO
100
AcDbPolyline
 62
250
  6
CONTINUOUS
 90
8
 70
0
 10
148.5851087565
 20
103.3432196484
 10
148.5833591331
 20
103.3750806633
 10
148.5781864375
 20
103.4083560188
 10
148.5696735115
 20
103.4425135422
 10
148.5579566153
 20
103.4770069618
 10
148.5432232203
 20
103.511284716
 10
148.5257089863
 20
103.5447987707
 10
148.5089871425
 20
103.5717129506
  0
LWPOLYLINE
  5
3E0
100
AcDbEntity
  8
RACCORDO
100
AcDbPolyline
 62
250
  6
CONTINUOUS
 90
13
 70
0
 10
149.1233042326
 20
103.6655864967
 10
149.1215548124
 20
103.6974455986
 10
149.1163826348
 20
103.7307193117
 10
149.1078704045
 20
103.7648755804
 10
149.0961542343
 20
103.7993682369
 10
149.0814214689
 20
103.8336457342
 10
149.0639076891
 20
103.867159966
 10
149.043892945
 20
103.8993750308
 10
149.0216972778
 20
103.9297758009
 10
148.9976756022
 20
103.95787616
 10
148.972212031
 20
103.9832267756
 10
148.9457137338
 20
104.0054222848
 10
148.9186044254
 20
104.0241077752
  0
LWPOLYLINE
  5
3E1
100
AcDbEntity
  8
ASSI
100
AcDbPolyline
 62
250
  6
CONTINUOUS
 90
10
 70
0
 10
148.1023947309
 20
141.7181470244
 10
148.1017382144
 20
141.7311658967
 10
148.1006476407
 20
141.7438178223
 10
148.09912301
 20
141.7561028012
 10
148.0971610679
 20
141.7680204298
 10
148.0947650686
 20
141.7795711118
 10
148.0919447754
 20
141.7907560576
 10
148.0887034425
 20
141.8015756709
 10
148.0850378156
 20
141.8120295482
 10
148.0809478947
 20
141.8221176893
  0
LWPOLYLINE
  5
3E2
100
AcDbEntity
  8
RACCORDO
100
AcDbPolyline
 62
7
  6
CONTINUOUS
 90
10
 70
0
 10
148.4656899153
 20
135.7161744501
 10
148.4647343852
 20
135.739063822
 10
148.4611245846
 20
135.7652513179
 10
148.4549165275
 20
135.7898689976
 10
148.4462004713
 20
135.8128239399
 10
148.4351037303
 20
135.8339251147
 10
148.4218968007
 20
135.8528564236
 10
148.4068921261
 20
135.8694196468
 10
148.3903674173
 20
135.8835667504
 10
148.3731482737
 20
135.8949516055
  0
LWPOLYLINE
  5
3E3
100
AcDbEntity
  8
RACCORDO
100
AcDbPolyline
 62
250
  6
CONTINUOUS
 90
19
 70
0
 10
147.6082187615
 20
136.2620450108
 10
147.6087702801
 20
136.2483206388
 10
147.6102645256
 20
136.2354998421
 10
147.612701498
 20
136.2235826208
 10
147.6161115424
 20
136.2125151935
 10
147.6204643137
 20
136.2023513416
 10
147.6256687765
 20
136.1932524086
 10
147.631733969
 20
136.1852250014
 10
147.638650853
 20
136.178262513
 10
147.6463012782
 20
136.1725064663
 10
147.6546600158
 20
136.1679597976
 10
147.6637522947
 20
136.1646195706
 10
147.6735356516
 20
136.1626184995
 10
147.684066931
 20
136.1619487367
 10
147.6952892884
 20
136.1626181297
 10
147.7069897275
 20
136.1647829356
 10
147.7190972492
 20
136.1684952399
 10
147.7316828526
 20
136.173702957
 10
147.7447465374
 20
136.1804060868
  0
LWPOLYLINE
  5
3E4
100
AcDbEntity
  8
RACCORDO
100
AcDbPolyline
 62
250
  6
CONTINUOUS
 90
10
 70
0
 10
148.0028606028
 20
136.2573291757
 10
148.003380627
 20
136.2417821503
 10
148.0051359227
 20
136.225677841
 10
148.008111364
 20
136.2091550236
 10
148.0122813105
 20
136.1923560801
 10
148.0176098286
 20
136.1754257718
 10
148.024051001
 20
136.1585099922
 10
148.0315493221
 20
136.1417545096
 10
148.0400401766
 20
136.1253037109
 10
148.0494503965
 20
136.1092993576
  0
LWPOLYLINE
  5
3E5
100
AcDbEntity
  8
ASSI
100
AcDbPolyline
 62
250
  6
CONTINUOUS
 90
16
 70
0
 10
148.4891955333
 20
138.5600088452
 10
148.4886570848
 20
138.5777169371
 10
148.4865394218
 20
138.5961137878
 10
148.4828658696
 20
138.6149967023
 10
148.4776761648
 20
138.6341600024
 10
148.4710278535
 20
138.6533901874
 10
148.4629974205
 20
138.6724683089
 10
148.4536773031
 20
138.6911798565
 10
148.4431695244
 20
138.7093243894
 10
148.4315861127
 20
138.7267098245
 10
148.4190354411
 20
138.7431681756
 10
148.4056719308
 20
138.7584920135
 10
148.391699724
 20
138.7724594001
 10
148.3772981017
 20
138.7849182062
 10
148.3626098101
 20
138.7957709718
 10
148.3477957162
 20
138.8049205123
  0
LINE
  5
3E6
100
AcDbEntity
  8
ASSI
100
AcDbLine
 62
250
  6
CONTINUOUS
 10
148.1099588211
 20
141.4613808708
 11
148.1023947309
 21
141.7181470244
  0
LWPOLYLINE
  5
3E7
100
AcDbEntity
  8
RACCORDO
100
AcDbPolyline
 62
250
  6
CONTINUOUS
 90
9
 70
0
 10
148.4345253805
 20
135.674269861
 10
148.4342468973
 20
135.6841792428
 10
148.4334304299
 20
135.6936901416
 10
148.4320759783
 20
135.7028025575
 10
148.4302120146
 20
135.7115038324
 10
148.4278100667
 20
135.7198066243
 10
148.4247847184
 20
135.7277489078
 10
148.421157535
 20
135.735397474
 10
148.4169069511
 20
135.7426855318
  0
LWPOLYLINE
  5
3E8
100
AcDbEntity
  8
RACCORDO
100
AcDbPolyline
 62
250
  6
CONTINUOUS
 90
31
 70
0
 10
148.615008009
 20
112.661897408
 10
148.6148231082
 20
112.6689772703
 10
148.6144399471
 20
112.6759328144
 10
148.6138897532
 20
112.6827374133
 10
148.613217936
 20
112.6892509297
 10
148.6124448873
 20
112.6955673185
 10
148.611531929
 20
112.7020264354
 10
148.6104577881
 20
112.7086837571
 10
148.6092343563
 20
112.7154707892
 10
148.6078285624
 20
112.7225547188
 10
148.6062141765
 20
112.7299544742
 10
148.6043836581
 20
112.7376362939
 10
148.6023106867
 20
112.7456891571
 10
148.5999674605
 20
112.7541105555
 10
148.5973358999
 20
112.7628730568
 10
148.5943925752
 20
112.7720230983
 10
148.5911047717
 20
112.7815558589
 10
148.5874553048
 20
112.7914186704
 10
148.5834422378
 20
112.8015779778
 10
148.5790517628
 20
112.8119920565
 10
148.574265252
 20
112.8226110597
 10
148.5690794468
 20
112.8333803748
 10
148.56350006
 20
112.8442200279
 10
148.5575159689
 20
112.855081021
 10
148.5511024661
 20
112.8659396476
 10
148.5442747985
 20
112.8767052548
 10
148.5370425194
 20
112.8872830498
 10
148.5293765736
 20
112.8976149258
 10
148.5212916271
 20
112.9075903142
 10
148.5128514979
 20
112.9170585513
 10
148.5089871425
 20
112.9209600053
  0
LINE
  5
3E9
100
AcDbEntity
  8
ASSI
100
AcDbLine
 62
250
  6
CONTINUOUS
 10
148.1160922059
 20
141.2182917034
 11
148.1099588211
 21
141.4613808708
  0
LWPOLYLINE
  5
3EA
100
AcDbEntity
  8
RACCORDO
100
AcDbPolyline
 62
250
  6
CONTINUOUS
 90
13
 70
0
 10
148.6455149184
 20
130.7904291067
 10
148.6449497153
 20
130.8190664147
 10
148.6433823663
 20
130.8474161658
 10
148.6409063405
 20
130.8753837473
 10
148.6376234217
 20
130.9028224225
 10
148.6336174755
 20
130.9297158032
 10
148.6289346899
 20
130.9561841073
 10
148.6236603026
 20
130.9820901242
 10
148.6178486038
 20
131.0074650507
 10
148.6114439278
 20
131.0327040245
 10
148.604500936
 20
131.0576798695
 10
148.5970281679
 20
131.082452753
 10
148.5888115626
 20
131.1077132899
  0
LINE
  5
3EB
100
AcDbEntity
  8
ASSI
100
AcDbLine
 62
250
  6
CONTINUOUS
 10
148.1221896111
 20
140.9167051359
 11
148.1160922059
 21
141.2182917034
  0
LWPOLYLINE
  5
3EC
100
AcDbEntity
  8
ASSI
100
AcDbPolyline
 62
250
  6
CONTINUOUS
 90
3
 70
0
 10
148.1268002821
 20
140.5789013037
 10
148.1261296314
 20
140.6428559903
 10
148.1221896111
 20
140.9167051359
  0
LINE
  5
3ED
100
AcDbEntity
  8
RACCORDO
100
AcDbLine
 62
250
  6
CONTINUOUS
 10
148.5593390571
 20
108.7369960737
 11
148.5614997691
 21
108.5615083172
  0
LINE
  5
3EE
100
AcDbEntity
  8
RACCORDO
100
AcDbLine
 62
250
  6
CONTINUOUS
 10
148.5579900395
 20
108.9117327275
 11
148.5593390571
 21
108.7369960737
  0
LWPOLYLINE
  5
3EF
100
AcDbEntity
  8
RACCORDO
100
AcDbPolyline
 62
250
  6
CONTINUOUS
 90
14
 70
0
 10
148.1620407211
 20
136.3638499952
 10
148.1621107366
 20
136.3385738145
 10
148.1607034933
 20
136.3131114183
 10
148.157798571
 20
136.2887743719
 10
148.1534820551
 20
136.2655256145
 10
148.1478341332
 20
136.2433719377
 10
148.1407773814
 20
136.2223086126
 10
148.132161213
 20
136.2022811119
 10
148.1218625542
 20
136.1830680213
 10
148.1100064351
 20
136.1648922468
 10
148.0968144229
 20
136.1483657791
 10
148.0823608832
 20
136.1336930635
 10
148.0665727706
 20
136.1206708118
 10
148.0494503927
 20
136.1092993553
  0
LWPOLYLINE
  5
3F0
100
AcDbEntity
  8
ASSI
100
AcDbPolyline
 62
250
  6
CONTINUOUS
 90
16
 70
0
 10
147.9777338025
 20
141.8672582321
 10
147.9776960693
 20
141.8832566759
 10
147.9766925092
 20
141.8992172922
 10
147.9747296183
 20
141.9150379228
 10
147.971820035
 20
141.9306172662
 10
147.9679824547
 20
141.9458556659
 10
147.9632414824
 20
141.9606557368
 10
147.9576274802
 20
141.9749228127
 10
147.9511764404
 20
141.9885655318
 10
147.9439297376
 20
142.0014965587
 10
147.9359337546
 20
142.0136332087
 10
147.9272397472
 20
142.024897753
 10
147.9179036005
 20
142.0352179412
 10
147.9079852083
 20
142.0445277464
 10
147.8975480497
 20
142.0527677317
 10
147.8866589783
 20
142.0598852493
  0
LINE
  5
3F1
100
AcDbEntity
  8
RACCORDO
100
AcDbLine
 62
250
  6
CONTINUOUS
 10
148.5577975546
 20
108.9774907224
 11
148.5579900395
 21
108.9117327275
  0
LINE
  5
3F2
100
AcDbEntity
  8
RACCORDO
100
AcDbLine
 62
250
  6
CONTINUOUS
 10
147.3229294452
 20
137.3777380877
 11
147.3229294452
 21
137.3217120797
  0
LINE
  5
3F3
100
AcDbEntity
  8
RACCORDO
100
AcDbLine
 62
7
  6
CONTINUOUS
 10
147.4205526066
 20
122.9385746366
 11
147.4205526066
 21
133.9137991235
  0
LINE
  5
3F4
100
AcDbEntity
  8
RACCORDO
100
AcDbLine
 62
7
  6
CONTINUOUS
 10
147.4205526066
 20
135.7916807602
 11
147.4205526066
 21
136.9844560274
  0
LINE
  5
3F5
100
AcDbEntity
  8
RACCORDO
100
AcDbLine
 62
250
  6
CONTINUOUS
 10
147.6082187615
 20
137.3376332895
 11
147.6082187615
 21
136.2620450108
  0
LINE
  5
3F6
100
AcDbEntity
  8
RACCORDO
100
AcDbLine
 62
250
  6
CONTINUOUS
 10
147.6082187615
 20
133.5590426753
 11
147.6082187615
 21
123.0780526423
  0
LINE
  5
3F7
100
AcDbEntity
  8
ASSI
100
AcDbLine
 62
7
  6
CONTINUOUS
 10
148.0720706574
 20
141.5426293495
 11
148.0720706574
 21
140.4738586627
  0
LINE
  5
3F8
100
AcDbEntity
  8
ASSI
100
AcDbLine
 62
7
  6
CONTINUOUS
 10
148.22614443
 20
140.5000106697
 11
148.22614443
 21
140.6338808096
  0
LINE
  5
3F9
100
AcDbEntity
  8
RACCORDO
100
AcDbLine
 62
250
  6
CONTINUOUS
 10
148.4345253805
 20
134.334892927
 11
148.4345253805
 21
135.674269861
  0
LINE
  5
3FA
100
AcDbEntity
  8
RACCORDO
100
AcDbLine
 62
7
  6
CONTINUOUS
 10
148.4656899229
 20
134.4576751507
 11
148.4656899229
 21
135.7161520196
  0
LINE
  5
3FB
100
AcDbEntity
  8
ASSI
100
AcDbLine
 62
250
  6
CONTINUOUS
 10
148.4891955333
 20
138.1906978557
 11
148.4891955333
 21
138.5600088452
  0
LINE
  5
3FC
100
AcDbEntity
  8
RACCORDO
100
AcDbLine
 62
7
  6
CONTINUOUS
 10
148.5089871425
 20
95.3194612658
 11
148.5089871425
 21
116.3570679988
  0
LINE
  5
3FD
100
AcDbEntity
  8
RACCORDO
100
AcDbLine
 62
7
  6
CONTINUOUS
 10
148.5089871393
 20
131.1948499534
 11
148.5089871425
 21
133.7639499613
  0
LINE
  5
3FE
100
AcDbEntity
  8
RACCORDO
100
AcDbLine
 62
7
  6
CONTINUOUS
 10
148.5089871425
 20
136.6443735264
 11
148.5089871425
 21
137.8577274491
  0
LINE
  5
3FF
100
AcDbEntity
  8
ASSI
100
AcDbLine
 62
7
  6
CONTINUOUS
 10
148.5453275732
 20
100.2396619906
 11
148.5453275732
 21
99.870351001
  0
LINE
  5
400
100
AcDbEntity
  8
ASSI
100
AcDbLine
 62
7
  6
CONTINUOUS
 10
148.5453275732
 20
138.2709152631
 11
148.5453275732
 21
138.6402262526
  0
LINE
  5
401
100
AcDbEntity
  8
RACCORDO
100
AcDbLine
 62
250
  6
CONTINUOUS
 10
148.5614997691
 20
104.5715882163
 11
148.5614997691
 21
108.5615083172
  0
LINE
  5
402
100
AcDbEntity
  8
RACCORDO
100
AcDbLine
 62
250
  6
CONTINUOUS
 10
148.6150205665
 20
110.6702698457
 11
148.6150205665
 21
112.6619051738
  0
LINE
  5
403
100
AcDbEntity
  8
DRAFT
100
AcDbLine
 62
7
  6
CONTINUOUS
 10
148.7421512125
 20
139.315220054
 11
148.7421512125
 21
139.5036434322
  0
LINE
  5
404
100
AcDbEntity
  8
RACCORDO
100
AcDbLine
 62
250
  6
CONTINUOUS
 10
148.7736318034
 20
104.6223220784
 11
148.7736318034
 21
108.6122421793
  0
LINE
  5
405
100
AcDbEntity
  8
RACCORDO
100
AcDbLine
 62
7
  6
CONTINUOUS
 10
149.0393172284
 20
108.8551283344
 11
149.0393172284
 21
104.6862427924
  0
LINE
  5
406
100
AcDbEntity
  8
RACCORDO
100
AcDbLine
 62
250
  6
CONTINUOUS
 10
149.2613054547
 20
109.1913880947
 11
149.2613054547
 21
104.6416271719
  0
LINE
  5
407
100
AcDbEntity
  8
DRAFT
100
AcDbLine
 62
250
  6
CONTINUOUS
 10
149.272271651
 20
140.4479092502
 11
149.272271651
 21
139.6565730531
  0
LINE
  5
408
100
AcDbEntity
  8
RACCORDO
100
AcDbLine
 62
250
  6
CONTINUOUS
 10
149.3192315073
 20
123.0292698985
 11
149.3192315073
 21
123.0737716258
  0
LINE
  5
409
100
AcDbEntity
  8
RACCORDO
100
AcDbLine
 62
7
  6
CONTINUOUS
 10
149.3472975273
 20
123.0130649303
 11
149.3472975273
 21
123.0652260033
  0
LINE
  5
40A
100
AcDbEntity
  8
ASSI
100
AcDbLine
 62
250
  6
CONTINUOUS
 10
148.5453275492
 20
138.6401696643
 11
148.5453275732
 21
138.6402262526
  0
LWPOLYLINE
  5
40B
100
AcDbEntity
  8
ASSI
100
AcDbPolyline
 62
7
  6
CONTINUOUS
 90
21
 70
0
 10
148.0720162562
 20
140.4738597779
 10
148.0719979028
 20
140.4714385693
 10
148.0700783746
 20
140.4491931293
 10
148.0650007435
 20
140.4273139541
 10
148.0566863721
 20
140.4056628356
 10
148.0452138976
 20
140.3843779819
 10
148.0308192316
 20
140.3638740164
 10
148.0134668048
 20
140.3441797005
 10
147.9931921864
 20
140.3252662729
 10
147.9703379958
 20
140.3074620732
 10
147.9448211231
 20
140.2907659664
 10
147.9167246781
 20
140.2751790875
 10
147.8866406099
 20
140.2610331809
 10
147.8545599756
 20
140.2483732191
 10
147.8204917181
 20
140.2371542297
 10
147.7850546156
 20
140.2275730397
 10
147.7482226601
 20
140.2196539147
 10
147.7100218597
 20
140.2133725891
 10
147.6711490164
 20
140.208853094
 10
147.6318363975
 20
140.2061367731
 10
147.5918517358
 20
140.2051822826
  0
LWPOLYLINE
  5
40C
100
AcDbEntity
  8
RACCORDO
100
AcDbPolyline
 62
250
  6
CONTINUOUS
 90
19
 70
0
 10
149.2613046262
 20
104.6416276502
 10
149.2610006641
 20
104.6047533486
 10
149.257989343
 20
104.5667187503
 10
149.2523258527
 20
104.5278066324
 10
149.2440997306
 20
104.488314801
 10
149.2333864726
 20
104.4485236059
 10
149.2202368024
 20
104.4086921848
 10
149.2047715078
 20
104.369137441
 10
149.1871136852
 20
104.330118808
 10
149.1673126286
 20
104.2918103862
 10
149.1455131914
 20
104.2545136424
 10
149.1218650451
 20
104.2184996404
 10
149.0964103321
 20
104.1839153999
 10
149.0691831166
 20
104.1509193217
 10
149.0404938227
 20
104.1199650657
 10
149.0108309344
 20
104.0915933929
 10
148.9805217486
 20
104.0660871748
 10
148.9497031549
 20
104.0435390859
 10
148.9186038059
 20
104.0241081329
  0
LWPOLYLINE
  5
40D
100
AcDbEntity
  8
RACCORDO
100
AcDbPolyline
 62
7
  6
CONTINUOUS
 90
12
 70
0
 10
148.4656962073
 20
134.4576753724
 10
148.4655364001
 20
134.4481556542
 10
148.4649719804
 20
134.4379770678
 10
148.4640068234
 20
134.4274853967
 10
148.4626056653
 20
134.4166958258
 10
148.4606508393
 20
134.4056283487
 10
148.4581485482
 20
134.3942670751
 10
148.455056975
 20
134.3826491425
 10
148.4511841774
 20
134.3708770949
 10
148.4464540293
 20
134.3589962606
 10
148.4409068535
 20
134.3469947767
 10
148.4345253805
 20
134.334892927
  0
LINE
  5
40E
100
AcDbEntity
  8
RACCORDO
100
AcDbLine
 62
250
  6
CONTINUOUS
 10
148.5603655602
 20
104.5048872522
 11
148.5614997691
 21
104.5715882163
  0
LWPOLYLINE
  5
40F
100
AcDbEntity
  8
ASSI
100
AcDbPolyline
 62
250
  6
CONTINUOUS
 90
16
 70
0
 10
149.8807197128
 20
142.6993172748
 10
149.8810839512
 20
142.7169827682
 10
149.882172676
 20
142.7356479471
 10
149.8839739587
 20
142.7551083119
 10
149.8864680642
 20
142.7751506506
 10
149.8896276664
 20
142.7955553753
 10
149.8934181482
 20
142.8160989277
 10
149.8977979801
 20
142.8365562286
 10
149.9027191759
 20
142.8567031433
 10
149.9081278179
 20
142.8763189386
 10
149.913964648
 20
142.8951886994
 10
149.9201657167
 20
142.9131056849
 10
149.9266630839
 20
142.9298735932
 10
149.9333855632
 20
142.9453087116
 10
149.9402595018
 20
142.9592419295
 10
149.9472095872
 20
142.9715205911
  0
LWPOLYLINE
  5
410
100
AcDbEntity
  8
ASSI
100
AcDbPolyline
 62
250
  6
CONTINUOUS
 90
8
 70
0
 10
148.5453275732
 20
99.870351001
 10
148.5451719843
 20
99.8657969053
 10
148.5432605357
 20
99.8537915289
 10
148.5392105753
 20
99.8420096767
 10
148.5330738478
 20
99.8305517187
 10
148.5249095846
 20
99.8195202364
 10
148.5147977441
 20
99.8090285888
 10
148.5089871425
 20
99.8042471666
  0
LWPOLYLINE
  5
411
100
AcDbEntity
  8
ASSI
100
AcDbPolyline
 62
250
  6
CONTINUOUS
 90
8
 70
0
 10
148.5453275732
 20
100.2396619906
 10
148.5451496182
 20
100.2347916889
 10
148.5432041287
 20
100.2228792847
 10
148.5391334669
 20
100.2111453877
 10
148.5329808627
 20
100.1997167794
 10
148.5248126665
 20
100.1887172345
 10
148.5147169344
 20
100.17826519
 10
148.5089871425
 20
100.173556047
  0
LWPOLYLINE
  5
412
100
AcDbEntity
  8
RACCORDO
100
AcDbPolyline
 62
250
  6
CONTINUOUS
 90
8
 70
0
 10
148.5851087565
 20
109.1998921532
 10
148.5833593363
 20
109.1699283333
 10
148.5781871587
 20
109.1423676898
 10
148.5696749284
 20
109.1176509247
 10
148.5579587582
 20
109.0961732658
 10
148.5432259928
 20
109.0782781466
 10
148.525712213
 20
109.0642517148
 10
148.5230541373
 20
109.0626104979
  0
LWPOLYLINE
  5
413
100
AcDbEntity
  8
ASSI
100
AcDbPolyline
 62
250
  6
CONTINUOUS
 90
22
 70
0
 10
148.0720706574
 20
141.5426293495
 10
148.0707580818
 20
141.5217246314
 10
148.0657319883
 20
141.496806131
 10
148.0569781235
 20
141.4722336469
 10
148.0445625721
 20
141.4481927079
 10
148.0285790915
 20
141.4248648808
 10
148.0091483709
 20
141.4024263176
 10
147.9864171214
 20
141.3810464505
 10
147.9605569976
 20
141.3608867377
 10
147.9317633092
 20
141.3420994352
 10
147.9002535158
 20
141.3248264203
 10
147.8662655431
 20
141.3091981094
 10
147.8300560141
 20
141.2953325006
 10
147.7918983447
 20
141.2833342948
 10
147.7520806834
 20
141.2732940998
 10
147.7109037013
 20
141.2652877325
 10
147.6686783279
 20
141.2593756525
 10
147.6257234278
 20
141.2556025072
 10
147.5823633904
 20
141.2539967911
 10
147.5389256489
 20
141.2545706274
 10
147.4957382067
 20
141.2573196806
 10
147.4531271846
 20
141.2622231902
  0
LWPOLYLINE
  5
414
100
AcDbEntity
  8
0
100
AcDbPolyline
 62
250
  6
CONTINUOUS
 90
9
 70
0
 10
146.1049338654
 20
94.073065719
 10
146.1020442376
 20
94.030907918
 10
146.0953963276
 20
93.9915204069
 10
146.0850633419
 20
93.9553369239
 10
146.0711571802
 20
93.9227522264
 10
146.0538320405
 20
93.8941297934
 10
146.0332867492
 20
93.8697928962
 10
146.0097568861
 20
93.8500088699
 10
145.9910069046
 20
93.8386471091
  0
LWPOLYLINE
  5
415
100
AcDbEntity
  8
RACCORDO
100
AcDbPolyline
 62
250
  6
CONTINUOUS
 90
7
 70
0
 10
147.7447465374
 20
136.1804060868
 10
147.7431987518
 20
136.1595883738
 10
147.7392148853
 20
136.1405000691
 10
147.7328631296
 20
136.1234679056
 10
147.7242522069
 20
136.1087834211
 10
147.7135295097
 20
136.0966979686
 10
147.7009099714
 20
136.0874365474
  0
LWPOLYLINE
  5
416
100
AcDbEntity
  8
ASSI
100
AcDbPolyline
 62
250
  6
CONTINUOUS
 90
3
 70
0
 10
150.4989297223
 20
143.1357555742
 10
150.4992354165
 20
143.1394460588
 10
150.5020765852
 20
143.1517222267
  0
LWPOLYLINE
  5
417
100
AcDbEntity
  8
ASSI
100
AcDbPolyline
 62
7
  6
CONTINUOUS
 90
20
 70
0
 10
150.5469246935
 20
141.8408690098
 10
150.5446612689
 20
141.8138155612
 10
150.5383470668
 20
141.7887610228
 10
150.5280528251
 20
141.7639387059
 10
150.5140163804
 20
141.7399651861
 10
150.4961452345
 20
141.7168691602
 10
150.4745318856
 20
141.6946219314
 10
150.4496916647
 20
141.6737539843
 10
150.4215469955
 20
141.6542984617
 10
150.3901754542
 20
141.6362222208
 10
150.3563251005
 20
141.6199563186
 10
150.319936358
 20
141.6055442736
 10
150.2810688031
 20
141.5929425671
 10
150.2406492243
 20
141.5824517
 10
150.1986258474
 20
141.5741237127
 10
150.1550504467
 20
141.5679065647
 10
150.1110051335
 20
141.5639446346
 10
150.0668506117
 20
141.5622860486
 10
150.0222261776
 20
141.5628826805
 10
149.977131831
 20
141.5657345302
  0
LWPOLYLINE
  5
418
100
AcDbEntity
  8
RACCORDO
100
AcDbPolyline
 62
250
  6
CONTINUOUS
 90
10
 70
0
 10
147.6082187615
 20
123.0780526423
 10
147.6037117372
 20
123.0598453021
 10
147.5980137638
 20
123.0428741302
 10
147.5910262464
 20
123.0271843241
 10
147.5824780845
 20
123.0127907656
 10
147.5724131638
 20
122.9998345893
 10
147.5612668586
 20
122.9886268117
 10
147.5490646779
 20
122.9793213449
 10
147.5357463134
 20
122.9719513454
 10
147.5229149998
 20
122.9670365992
  0
LWPOLYLINE
  5
419
100
AcDbEntity
  8
RACCORDO
100
AcDbPolyline
 62
250
  6
CONTINUOUS
 90
7
 70
0
 10
143.0579331096
 20
104.7172196565
 10
143.0523500186
 20
104.7021673838
 10
143.0448415402
 20
104.6888205805
 10
143.0356339754
 20
104.6775815111
 10
143.0250048348
 20
104.6687889145
 10
143.0132744741
 20
104.6627077941
 10
142.999708266
 20
104.6593872432
  0
LINE
  5
41A
100
AcDbEntity
  8
RACCORDO
100
AcDbLine
 62
250
  6
CONTINUOUS
 10
148.0510697082
 20
116.2597450446
 11
146.0348643364
 21
115.1154261758
  0
LINE
  5
41B
100
AcDbEntity
  8
RACCORDO
100
AcDbLine
 62
250
  6
CONTINUOUS
 10
148.5089871425
 20
116.3570679988
 11
146.1049338654
 21
114.9926219137
  0
LINE
  5
41C
100
AcDbEntity
  8
RACCORDO
100
AcDbLine
 62
7
  6
CONTINUOUS
 10
148.5089871425
 20
113.6780548893
 11
149.1703980398
 21
114.0345772355
  0
LWPOLYLINE
  5
41D
100
AcDbEntity
  8
RACCORDO
100
AcDbPolyline
 62
250
  6
CONTINUOUS
 90
5
 70
0
 10
151.5683746241
 20
118.2953959089
 10
151.5487815966
 20
118.2851351322
 10
151.5270147497
 20
118.2764570545
 10
151.5034548493
 20
118.269513465
 10
151.4832175255
 20
118.2653852739
  0
LWPOLYLINE
  5
41E
100
AcDbEntity
  8
RACCORDO
100
AcDbPolyline
 62
250
  6
CONTINUOUS
 90
19
 70
0
 10
146.1049338654
 20
114.9926219462
 10
146.0679637893
 20
114.9736966685
 10
146.0285053423
 20
114.9571182847
 10
145.9870114901
 20
114.9429661638
 10
145.9437306459
 20
114.9312399043
 10
145.8992961356
 20
114.92203612
 10
145.854787339
 20
114.9154385912
 10
145.8107311956
 20
114.9113278753
 10
145.7674456163
 20
114.9095392241
 10
145.7256864604
 20
114.9098956959
 10
145.6863396488
 20
114.9121161158
 10
145.6489995119
 20
114.9159606422
 10
145.6124569724
 20
114.9214339218
 10
145.5770050807
 20
114.9284583041
 10
145.542734765
 20
114.9369901843
 10
145.5083358626
 20
114.9474637186
 10
145.4737196814
 20
114.9601906779
 10
145.439845331
 20
114.9751263843
 10
145.407203187
 20
114.9923442613
  0
LWPOLYLINE
  5
41F
100
AcDbEntity
  8
RACCORDO
100
AcDbPolyline
 62
250
  6
CONTINUOUS
 90
19
 70
0
 10
146.0348643364
 20
115.1154261758
 10
146.0046896381
 20
115.1001053875
 10
145.9732436711
 20
115.08675578
 10
145.9405264354
 20
115.0753773534
 10
145.9060216332
 20
115.0659733404
 10
145.8702455622
 20
115.0585405082
 10
145.8347471154
 20
115.0530691582
 10
145.7996648682
 20
115.0497011013
 10
145.7648602451
 20
115.0482945267
 10
145.7314664122
 20
115.0484143032
 10
145.7000614774
 20
115.0499927772
 10
145.6700673328
 20
115.0530976024
 10
145.6408828219
 20
115.0574966084
 10
145.6124888907
 20
115.0629831581
 10
145.5849045931
 20
115.0697638886
 10
145.5575859342
 20
115.0782265414
 10
145.5303515821
 20
115.0885003636
 10
145.5033828685
 20
115.1004561081
 10
145.4766797936
 20
115.1140937749
  0
LINE
  5
420
100
AcDbEntity
  8
RACCORDO
100
AcDbLine
 62
7
  6
CONTINUOUS
 10
146.1049338654
 20
115.308179845
 11
148.7107721172
 21
116.5823072423
  0
LINE
  5
421
100
AcDbEntity
  8
RACCORDO
100
AcDbLine
 62
7
  6
CONTINUOUS
 10
149.2503042792
 20
123.0690658446
 11
149.176449789
 21
123.1091137991
  0
LWPOLYLINE
  5
422
100
AcDbEntity
  8
RACCORDO
100
AcDbPolyline
 62
250
  6
CONTINUOUS
 90
3
 70
0
 10
149.2497044776
 20
123.0694139341
 10
149.1903339685
 20
123.1024133258
 10
149.1773005841
 20
123.108929772
  0
LINE
  5
423
100
AcDbEntity
  8
RACCORDO
100
AcDbLine
 62
250
  6
CONTINUOUS
 10
147.4250547545
 20
122.90140735
 11
147.530656081
 21
122.8404344676
  0
LINE
  5
424
100
AcDbEntity
  8
ASSI
100
AcDbLine
 62
7
  6
CONTINUOUS
 10
149.6936789876
 20
122.8130686163
 11
149.2497062868
 21
123.0694128895
  0
LINE
  5
425
100
AcDbEntity
  8
RACCORDO
100
AcDbLine
 62
7
  6
CONTINUOUS
 10
149.2502144368
 20
123.0691193938
 11
149.2497044776
 21
123.0694139341
  0
LINE
  5
426
100
AcDbEntity
  8
RACCORDO
100
AcDbLine
 62
7
  6
CONTINUOUS
 10
149.7406434359
 20
122.8970367661
 11
149.7418305266
 21
122.89635076
  0
LWPOLYLINE
  5
427
100
AcDbEntity
  8
RACCORDO
100
AcDbPolyline
 62
250
  6
CONTINUOUS
 90
4
 70
0
 10
149.7418305266
 20
122.89635076
 10
149.7555752246
 20
122.8883288351
 10
149.8262996204
 20
122.8446347818
 10
149.8952559705
 20
122.7979379577
  0
LWPOLYLINE
  5
428
100
AcDbEntity
  8
RACCORDO
100
AcDbPolyline
 62
7
  6
CONTINUOUS
 90
31
 70
0
 10
149.8921284175
 20
122.6984145871
 10
149.9097473163
 20
122.6881098873
 10
150.0063856382
 20
122.6274669175
 10
150.0994749711
 20
122.5620424252
 10
150.1888027329
 20
122.4918619138
 10
150.2745815057
 20
122.4168998801
 10
150.3568343726
 20
122.3376270658
 10
150.4351578221
 20
122.2546772741
 10
150.5099553657
 20
122.1674167019
 10
150.5824606213
 20
122.0744146817
 10
150.6528664536
 20
121.9759908839
 10
150.7209799978
 20
121.8718256382
 10
150.7874562776
 20
121.7595292661
 10
150.8525688784
 20
121.6392473875
 10
150.9160442147
 20
121.5108343825
 10
150.9777165531
 20
121.3714637137
 10
151.0378838398
 20
121.2208683761
 10
151.0962481285
 20
121.0593153747
 10
151.1517498473
 20
120.8847791863
 10
151.2046206369
 20
120.695679268
 10
151.2546288565
 20
120.4935961627
 10
151.3000200115
 20
120.2812459766
 10
151.3404128585
 20
120.0579019747
 10
151.3761886408
 20
119.8242908919
 10
151.406736594
 20
119.5853090394
 10
151.4316670867
 20
119.3408163175
 10
151.4513697503
 20
119.0909528259
 10
151.4664027145
 20
118.8410351743
 10
151.4769520226
 20
118.5928355658
 10
151.4828316312
 20
118.3445817973
 10
151.4840415405
 20
118.0962738688
  0
LINE
  5
429
100
AcDbEntity
  8
RACCORDO
100
AcDbLine
 62
250
  6
CONTINUOUS
 10
149.8952559705
 20
122.7979379577
 11
149.9625116761
 21
122.7482039579
  0
LWPOLYLINE
  5
42A
100
AcDbEntity
  8
RACCORDO
100
AcDbPolyline
 62
250
  6
CONTINUOUS
 90
9
 70
0
 10
149.9625116761
 20
122.7482039579
 10
150.0280113061
 20
122.6954850928
 10
150.0915758111
 20
122.6399621671
 10
150.1531779456
 20
122.5817219682
 10
150.2128960265
 20
122.5207541037
 10
150.2707280744
 20
122.457121619
 10
150.3265528168
 20
122.3910417375
 10
150.3805509375
 20
122.3223861061
 10
150.4129004034
 20
122.2782493749
  0
LWPOLYLINE
  5
42B
100
AcDbEntity
  8
DRAFT
100
AcDbPolyline
 62
7
  6
CONTINUOUS
 90
4
 70
0
 10
149.6767566694
 20
122.8228393508
 10
149.6340025948
 20
122.8686679872
 10
149.4965564242
 20
122.9945791656
 10
149.4484063443
 20
123.0323734661
  0
LWPOLYLINE
  5
42C
100
AcDbEntity
  8
RACCORDO
100
AcDbPolyline
 62
250
  6
CONTINUOUS
 90
7
 70
0
 10
152.8782935382
 20
111.3177934306
 10
152.8839782656
 20
111.3083408795
 10
152.888048823
 20
111.2997239868
 10
152.8904524347
 20
111.2920371207
 10
152.8911529441
 20
111.2853618144
 10
152.8901294111
 20
111.2797799857
 10
152.8885547477
 20
111.2767927806
  0
LWPOLYLINE
  5
42D
100
AcDbEntity
  8
RACCORDO
100
AcDbPolyline
 62
250
  6
CONTINUOUS
 90
6
 70
0
 10
153.9761115648
 20
112.8752289831
 10
153.9830074123
 20
112.8634614566
 10
153.987313827
 20
112.8530846807
 10
153.9889610823
 20
112.8442665302
 10
153.9879224576
 20
112.8371496747
 10
153.9863727918
 20
112.8342283579
  0
LWPOLYLINE
  5
42E
100
AcDbEntity
  8
RACCORDO
100
AcDbPolyline
 62
250
  6
CONTINUOUS
 90
7
 70
0
 10
156.043141591
 20
108.9026787617
 10
156.0332709356
 20
108.9208006217
 10
156.0222359498
 20
108.9378840299
 10
156.0101570091
 20
108.9537426196
 10
155.9971658937
 20
108.9682033695
 10
155.9834043274
 20
108.9811085244
 10
155.9690224275
 20
108.9923173101
  0
LWPOLYLINE
  5
42F
100
AcDbEntity
  8
ASSI
100
AcDbPolyline
 62
250
  6
CONTINUOUS
 90
7
 70
0
 10
142.7122526754
 20
143.8206923143
 10
142.7151885627
 20
143.8063766795
 10
142.7208188367
 20
143.7903133268
 10
142.729316505
 20
143.7729702104
 10
142.7408051821
 20
143.754679916
 10
142.7553796827
 20
143.7358602745
 10
142.7731208679
 20
143.7170538252
  0
LWPOLYLINE
  5
430
100
AcDbEntity
  8
ASSI
100
AcDbPolyline
 62
250
  6
CONTINUOUS
 90
13
 70
0
 10
145.7071912201
 20
141.6506274127
 10
145.7045449823
 20
141.6720868565
 10
145.6997448345
 20
141.6942207267
 10
145.6928650642
 20
141.7166899273
 10
145.6840125694
 20
141.7391485541
 10
145.6733230227
 20
141.7612549108
 10
145.6609572753
 20
141.7826763263
 10
145.647092693
 20
141.8031000068
 10
145.6319502206
 20
141.8221955348
 10
145.6157959456
 20
141.8396353113
 10
145.5988938408
 20
141.8551530998
 10
145.5814937446
 20
141.8685373515
 10
145.563861329
 20
141.8795983541
  0
LWPOLYLINE
  5
431
100
AcDbEntity
  8
ASSI
100
AcDbPolyline
 62
250
  6
CONTINUOUS
 90
13
 70
0
 10
145.2075219495
 20
140.4626510606
 10
145.2048819275
 20
140.4840741001
 10
145.2000943346
 20
140.5061726557
 10
145.1932322514
 20
140.5286094023
 10
145.1844004247
 20
140.5510418527
 10
145.1737336685
 20
140.5731275849
 10
145.1613948063
 20
140.5945294698
 10
145.1475721856
 20
140.6149208166
 10
145.1324768029
 20
140.6339903602
 10
145.1163390826
 20
140.6514470121
 10
145.0994053603
 20
140.667024304
 10
145.0819341219
 20
140.6804844551
 10
145.0641920585
 20
140.691622002
  0
LWPOLYLINE
  5
432
100
AcDbEntity
  8
ASSI
100
AcDbPolyline
 62
250
  6
CONTINUOUS
 90
13
 70
0
 10
145.8435866461
 20
141.7321894204
 10
145.840946624
 20
141.7536124598
 10
145.8361590311
 20
141.7757110154
 10
145.8292969479
 20
141.7981477621
 10
145.8204651212
 20
141.8205802124
 10
145.809798365
 20
141.8426659446
 10
145.7974595029
 20
141.8640678295
 10
145.7836368822
 20
141.8844591764
 10
145.7685414994
 20
141.90352872
 10
145.7524037792
 20
141.9209853719
 10
145.7354700568
 20
141.9365626638
 10
145.7179988184
 20
141.9500228149
 10
145.700256755
 20
141.9611603618
  0
LINE
  5
433
100
AcDbEntity
  8
ASSI
100
AcDbLine
 62
250
  6
CONTINUOUS
 10
149.6677438614
 20
142.6851918506
 11
149.6807965669
 21
142.565687317
  0
LINE
  5
434
100
AcDbEntity
  8
ASSI
100
AcDbLine
 62
250
  6
CONTINUOUS
 10
147.5277315524
 20
140.4413658153
 11
147.5511948307
 21
140.2059896158
  0
LWPOLYLINE
  5
435
100
AcDbEntity
  8
ASSI
100
AcDbPolyline
 62
250
  6
CONTINUOUS
 90
13
 70
0
 10
147.9518265525
 20
145.5796984642
 10
147.9497633794
 20
145.6014006871
 10
147.945474954
 20
145.6239231165
 10
147.9390298486
 20
145.6469056165
 10
147.9305311212
 20
145.6699806944
 10
147.9201146673
 20
145.6927793777
 10
147.907947047
 20
145.7149371129
 10
147.8942228218
 20
145.7360995957
 10
147.8791614433
 20
145.7559284359
 10
147.8630037447
 20
145.7741065682
 10
147.8460080891
 20
145.7903433226
 10
147.8284462387
 20
145.8043790717
 10
147.8105990093
 20
145.8159893824
  0
LINE
  5
436
100
AcDbEntity
  8
ASSI
100
AcDbLine
 62
250
  6
CONTINUOUS
 10
147.5089319107
 20
140.6377180116
 11
147.5277315524
 21
140.4413658153
  0
LINE
  5
437
100
AcDbEntity
  8
ASSI
100
AcDbLine
 62
250
  6
CONTINUOUS
 10
149.9479486429
 20
141.8883305051
 11
149.9771319076
 21
141.5657345303
  0
LINE
  5
438
100
AcDbEntity
  8
ASSI
100
AcDbLine
 62
250
  6
CONTINUOUS
 10
149.9157508673
 20
142.2645934384
 11
149.9479486429
 21
141.8883305051
  0
LWPOLYLINE
  5
439
100
AcDbEntity
  8
ASSI
100
AcDbPolyline
 62
250
  6
CONTINUOUS
 90
3
 70
0
 10
149.8807197197
 20
142.6993172709
 10
149.8879155358
 20
142.6078066297
 10
149.9157508673
 20
142.2645934384
  0
LWPOLYLINE
  5
43A
100
AcDbEntity
  8
RACCORDO
100
AcDbPolyline
 62
250
  6
CONTINUOUS
 90
8
 70
0
 10
150.0976427094
 20
113.5787809467
 10
150.0960949237
 20
113.600593263
 10
150.0921110573
 20
113.6234052936
 10
150.0857593015
 20
113.6468265672
 10
150.0771483789
 20
113.670456184
 10
150.0664256817
 20
113.6938896783
 10
150.0537747492
 20
113.7167259412
 10
150.0474860758
 20
113.7262921502
  0
LINE
  5
43B
100
AcDbEntity
  8
RACCORDO
100
AcDbLine
 62
250
  6
CONTINUOUS
 10
150.5312432386
 20
146.2497430243
 11
150.5389142896
 21
146.0763030439
  0
LINE
  5
43C
100
AcDbEntity
  8
RACCORDO
100
AcDbLine
 62
7
  6
CONTINUOUS
 10
150.5898203628
 20
146.331577018
 11
150.599673526
 21
146.1088001869
  0
LINE
  5
43D
100
AcDbEntity
  8
RACCORDO
100
AcDbLine
 62
250
  6
CONTINUOUS
 10
150.5898203628
 20
146.331577018
 11
150.5898224206
 21
146.3315300733
  0
LINE
  5
43E
100
AcDbEntity
  8
ASSI
100
AcDbLine
 62
250
  6
CONTINUOUS
 10
150.5715052029
 20
142.750077871
 11
150.5540105417
 21
143.2151633598
  0
LINE
  5
43F
100
AcDbEntity
  8
ASSI
100
AcDbLine
 62
250
  6
CONTINUOUS
 10
150.5811887304
 20
142.4463381855
 11
150.5715052029
 21
142.750077871
  0
LINE
  5
440
100
AcDbEntity
  8
ASSI
100
AcDbLine
 62
250
  6
CONTINUOUS
 10
150.5888545681
 20
142.163816622
 11
150.5811887304
 21
142.4463381855
  0
LINE
  5
441
100
AcDbEntity
  8
ASSI
100
AcDbLine
 62
250
  6
CONTINUOUS
 10
150.5928977775
 20
141.9881369441
 11
150.5888545681
 21
142.163816622
  0
LWPOLYLINE
  5
442
100
AcDbEntity
  8
RACCORDO
100
AcDbPolyline
 62
7
  6
CONTINUOUS
 90
12
 70
0
 10
150.4031150912
 20
110.4818470014
 10
150.4025416616
 20
110.5222200545
 10
150.395948049
 20
110.6219089677
 10
150.3820415277
 20
110.7170177723
 10
150.3608511518
 20
110.8070784133
 10
150.3324456313
 20
110.8916371371
 10
150.2969632618
 20
110.9702159988
 10
150.2545370691
 20
111.0423883311
 10
150.2053751216
 20
111.107706492
 10
150.1498826765
 20
111.1655460107
 10
150.0884925101
 20
111.2154078424
 10
150.0387293404
 20
111.2474190275
  0
LINE
  5
443
100
AcDbEntity
  8
RACCORDO
100
AcDbLine
 62
7
  6
CONTINUOUS
 10
149.5511334221
 20
111.2107715321
 11
149.5511334221
 21
112.23974438
  0
LINE
  5
444
100
AcDbEntity
  8
RACCORDO
100
AcDbLine
 62
250
  6
CONTINUOUS
 10
149.6778465767
 20
109.1997867362
 11
149.6778465767
 21
104.6500258133
  0
LINE
  5
445
100
AcDbEntity
  8
RACCORDO
100
AcDbLine
 62
250
  6
CONTINUOUS
 10
150.3469831302
 20
110.4017322286
 11
150.3469831302
 21
104.2482367891
  0
LINE
  5
446
100
AcDbEntity
  8
RACCORDO
100
AcDbLine
 62
7
  6
CONTINUOUS
 10
150.4031151701
 20
110.481949636
 11
150.4031151701
 21
104.3284541929
  0
LINE
  5
447
100
AcDbEntity
  8
ASSI
100
AcDbLine
 62
7
  6
CONTINUOUS
 10
150.5469443916
 20
142.9715904262
 11
150.5469443916
 21
141.8408688213
  0
LINE
  5
448
100
AcDbEntity
  8
RACCORDO
100
AcDbLine
 62
250
  6
CONTINUOUS
 10
151.5330301494
 20
104.2507084856
 11
151.5330301494
 21
113.4653790452
  0
LINE
  5
449
100
AcDbEntity
  8
RACCORDO
100
AcDbLine
 62
7
  6
CONTINUOUS
 10
151.5751291794
 20
104.2750194029
 11
151.5751291794
 21
113.4914137168
  0
LINE
  5
44A
100
AcDbEntity
  8
RACCORDO
100
AcDbLine
 62
7
  6
CONTINUOUS
 10
152.2106879356
 20
113.8844527853
 11
152.2106879356
 21
113.5951550619
  0
LINE
  5
44B
100
AcDbEntity
  8
DRAFT
100
AcDbLine
 62
7
  6
CONTINUOUS
 10
152.4687851171
 20
113.2070854578
 11
152.4687851171
 21
112.3591857496
  0
LWPOLYLINE
  5
44C
100
AcDbEntity
  8
RACCORDO
100
AcDbPolyline
 62
250
  6
CONTINUOUS
 90
9
 70
0
 10
151.8245549253
 20
103.9286268188
 10
151.8244490746
 20
103.9159253746
 10
151.8234661
 20
103.9036301203
 10
151.8215516631
 20
103.8916402933
 10
151.8186593533
 20
103.8801079663
 10
151.8147381558
 20
103.8691327388
 10
151.8096264924
 20
103.8586342342
 10
151.8031808258
 20
103.8487664187
 10
151.7953540636
 20
103.8398486735
  0
LWPOLYLINE
  5
44D
100
AcDbEntity
  8
RACCORDO
100
AcDbPolyline
 62
250
  6
CONTINUOUS
 90
13
 70
0
 10
151.5683746241
 20
118.2953959089
 10
151.5626932368
 20
117.9918466188
 10
151.545584934
 20
117.6827311787
 10
151.5170497156
 20
117.3680495886
 10
151.4766695523
 20
117.0459049376
 10
151.4248624735
 20
116.7181941365
 10
151.3628825677
 20
116.3906079177
 10
151.2902134008
 20
116.0631015869
 10
151.2073714068
 20
115.7357198384
 10
151.117159977
 20
115.4142874869
 10
151.0205135749
 20
115.1007461375
 10
150.916497737
 20
114.7931541851
 10
150.8051124631
 20
114.4915116298
  0
LWPOLYLINE
  5
44E
100
AcDbEntity
  8
RACCORDO
100
AcDbPolyline
 62
250
  6
CONTINUOUS
 90
9
 70
0
 10
150.5898224206
 20
146.3315300733
 10
150.5895826809
 20
146.3229785338
 10
150.5873491524
 20
146.3115159954
 10
150.5829440372
 20
146.3001668806
 10
150.5764167448
 20
146.2890660022
 10
150.567861891
 20
146.2783605545
 10
150.5573965073
 20
146.2681726107
 10
150.545141883
 20
146.2586004315
 10
150.5312432386
 20
146.2497430243
  0
LWPOLYLINE
  5
44F
100
AcDbEntity
  8
RACCORDO
100
AcDbPolyline
 62
250
  6
CONTINUOUS
 90
22
 70
0
 10
150.3469831302
 20
104.2482367891
 10
150.3440620845
 20
104.1646910321
 10
150.3362722732
 20
104.0800714964
 10
150.3236136963
 20
103.9943781822
 10
150.3059772246
 20
103.9073249009
 10
150.2834719873
 20
103.819197841
 10
150.2564253719
 20
103.7308555679
 10
150.2247235747
 20
103.6420356092
 10
150.1884803994
 20
103.5530004373
 10
150.1483646443
 20
103.4653960355
 10
150.10397893
 20
103.378905104
 10
150.0557206358
 20
103.2938449425
 10
150.0054506973
 20
103.2128134336
 10
149.9538070464
 20
103.1368683236
 10
149.9001517512
 20
103.0649518661
 10
149.8444319521
 20
102.9964887054
 10
149.7868930024
 20
102.9313125326
 10
149.7272895488
 20
102.8695896565
 10
149.6648326724
 20
102.8112436472
 10
149.5992594001
 20
102.7562490283
 10
149.5308327049
 20
102.7046312762
 10
149.4595525869
 20
102.656390391
  0
LWPOLYLINE
  5
450
100
AcDbEntity
  8
RACCORDO
100
AcDbPolyline
 62
250
  6
CONTINUOUS
 90
19
 70
0
 10
149.6778465767
 20
104.6500258133
 10
149.6755769847
 20
104.5911799369
 10
149.6693272454
 20
104.5313189363
 10
149.6590973589
 20
104.4704428115
 10
149.6447457435
 20
104.4081094935
 10
149.6264139808
 20
104.3447610515
 10
149.604526816
 20
104.281723692
 10
149.5790519348
 20
104.2190418803
 10
149.5500216515
 20
104.1566711513
 10
149.5179576537
 20
104.0958043159
 10
149.4828350258
 20
104.0364505312
 10
149.4446786836
 20
103.9786006401
 10
149.4040850622
 20
103.9234199822
 10
149.3607799774
 20
103.8707464156
 10
149.3150376133
 20
103.8207420821
 10
149.2682769581
 20
103.775058747
 10
149.2209710075
 20
103.7342469986
 10
149.1726467657
 20
103.6977562485
 10
149.1233042326
 20
103.6655864967
  0
LWPOLYLINE
  5
451
100
AcDbEntity
  8
RACCORDO
100
AcDbPolyline
 62
250
  6
CONTINUOUS
 90
8
 70
0
 10
149.1233042326
 20
109.52110185
 10
149.1215545861
 20
109.4911361481
 10
149.1163818312
 20
109.4635743157
 10
149.1078688254
 20
109.4388570149
 10
149.0961518454
 20
109.4173794062
 10
149.0814183769
 20
109.3994847826
 10
149.0639040893
 20
109.3854591135
 10
149.0613952469
 20
109.3839072745
  0
LWPOLYLINE
  5
452
100
AcDbEntity
  8
RACCORDO
100
AcDbPolyline
 62
250
  6
CONTINUOUS
 90
7
 70
0
 10
150.4031151701
 20
104.3284541929
 10
150.4016592832
 20
104.3145460424
 10
150.3968888469
 20
104.2998646953
 10
150.3888761742
 20
104.2856618375
 10
150.3777554213
 20
104.272175107
 10
150.363712731
 20
104.2596301336
 10
150.3469831302
 20
104.2482367891
  0
LWPOLYLINE
  5
453
100
AcDbEntity
  8
RACCORDO
100
AcDbPolyline
 62
250
  6
CONTINUOUS
 90
7
 70
0
 10
150.4031150912
 20
110.4818470014
 10
150.4016596409
 20
110.4680431879
 10
150.396889544
 20
110.4533617135
 10
150.3888770807
 20
110.439158592
 10
150.3777563211
 20
110.4256714797
 10
150.3637133453
 20
110.4131260524
 10
150.3469831302
 20
110.4017322286
  0
LWPOLYLINE
  5
454
100
AcDbEntity
  8
RACCORDO
100
AcDbPolyline
 62
250
  6
CONTINUOUS
 90
7
 70
0
 10
152.6172753376
 20
133.1714669185
 10
152.6161838121
 20
133.1611472782
 10
152.6126062395
 20
133.1501361723
 10
152.606596892
 20
133.1394838311
 10
152.5982563223
 20
133.1293684969
 10
152.5877240905
 20
133.1199594265
 10
152.575176429
 20
133.1114140589
  0
LWPOLYLINE
  5
455
100
AcDbEntity
  8
DRAFT
100
AcDbPolyline
 62
7
  6
CONTINUOUS
 90
18
 70
0
 10
148.7253668495
 20
115.0318626906
 10
148.698525194
 20
114.9619054897
 10
148.6758682525
 20
114.8926701645
 10
148.6573960249
 20
114.8241567152
 10
148.6430456045
 20
114.7559017559
 10
148.6328798981
 20
114.6883686724
 10
148.6270876256
 20
114.6229476218
 10
148.6257407292
 20
114.5598411041
 10
148.6287672666
 20
114.4988466193
 10
148.6361401306
 20
114.4407468248
 10
148.6479763528
 20
114.3853998416
 10
148.6641589016
 20
114.3329475487
 10
148.684309575
 20
114.2845982402
 10
148.7084094177
 20
114.2406000576
 10
148.7364773849
 20
114.2007048594
 10
148.7681921406
 20
114.165376515
 10
148.8037464991
 20
114.1345632886
 10
148.8436680383
 20
114.1078977382
  0
LINE
  5
456
100
AcDbEntity
  8
RACCORDO
100
AcDbLine
 62
250
  6
CONTINUOUS
 10
150.8051124631
 20
114.4915116298
 11
150.7734517353
 21
114.413440501
  0
LWPOLYLINE
  5
457
100
AcDbEntity
  8
RACCORDO
100
AcDbPolyline
 62
250
  6
CONTINUOUS
 90
15
 70
0
 10
150.7734517353
 20
114.413440501
 10
150.7389319146
 20
114.3370822389
 10
150.701553001
 20
114.2624368432
 10
150.6608537424
 20
114.1889372758
 10
150.617295391
 20
114.117150575
 10
150.5722617033
 20
114.0487778554
 10
150.5262944178
 20
113.9845921008
 10
150.4788517962
 20
113.9238203273
 10
150.4296923798
 20
113.865844698
 10
150.3787563332
 20
113.8103367979
 10
150.3261034919
 20
113.7576250418
 10
150.271671904
 20
113.7080768379
 10
150.215440919
 20
113.6618146554
 10
150.1574311875
 20
113.618716025
 10
150.0976427094
 20
113.5787809467
  0
LWPOLYLINE
  5
458
100
AcDbEntity
  8
RACCORDO
100
AcDbPolyline
 62
7
  6
CONTINUOUS
 90
9
 70
0
 10
152.575176429
 20
114.1098579371
 10
152.5847363178
 20
114.116918848
 10
152.5932939656
 20
114.1257620756
 10
152.6007252399
 20
114.1363390573
 10
152.6069254422
 20
114.1486552052
 10
152.6117631329
 20
114.162581819
 10
152.6151183027
 20
114.1778493322
 10
152.6169333969
 20
114.1943705772
 10
152.6172754581
 20
114.2058823022
  0
LINE
  5
459
100
AcDbEntity
  8
RACCORDO
100
AcDbLine
 62
250
  6
CONTINUOUS
 10
152.6735170294
 20
114.651183142
 11
152.617275459
 21
114.6137253284
  0
LINE
  5
45A
100
AcDbEntity
  8
RACCORDO
100
AcDbLine
 62
250
  6
CONTINUOUS
 10
152.8242577751
 20
114.4122613803
 11
152.617275459
 21
114.2744077438
  0
LINE
  5
45B
100
AcDbEntity
  8
RACCORDO
100
AcDbLine
 62
250
  6
CONTINUOUS
 10
149.7636061057
 20
113.704765659
 11
148.5089871425
 21
112.9288904725
  0
LINE
  5
45C
100
AcDbEntity
  8
RACCORDO
100
AcDbLine
 62
250
  6
CONTINUOUS
 10
150.0976427094
 20
113.5787809467
 11
148.6150205665
 21
112.6619051738
  0
LINE
  5
45D
100
AcDbEntity
  8
RACCORDO
100
AcDbLine
 62
7
  6
CONTINUOUS
 10
152.575176429
 20
114.1098579371
 11
149.5511334221
 21
112.23974438
  0
LWPOLYLINE
  5
45E
100
AcDbEntity
  8
RACCORDO
100
AcDbPolyline
 62
250
  6
CONTINUOUS
 90
11
 70
0
 10
148.5718570882
 20
110.577689028
 10
148.575085251
 20
110.5796778567
 10
148.5821973813
 20
110.5849931844
 10
148.5887708975
 20
110.5913143658
 10
148.5948256688
 20
110.5987510978
 10
148.6002563747
 20
110.6073097557
 10
148.604983731
 20
110.6170240236
 10
148.6089818094
 20
110.6281235599
 10
148.6121106602
 20
110.6407286638
 10
148.6141781258
 20
110.6547830514
 10
148.6150205665
 20
110.6702698457
  0
LINE
  5
45F
100
AcDbEntity
  8
RACCORDO
100
AcDbLine
 62
250
  6
CONTINUOUS
 10
148.6150205665
 20
110.6702698457
 11
149.5511334221
 21
111.2107715321
  0
LINE
  5
460
100
AcDbEntity
  8
RACCORDO
100
AcDbLine
 62
7
  6
CONTINUOUS
 10
148.5717638481
 20
110.5776350967
 11
149.5096954443
 21
111.1191869047
  0
LINE
  5
461
100
AcDbEntity
  8
RACCORDO
100
AcDbLine
 62
250
  6
CONTINUOUS
 10
148.5089871425
 20
110.3835387753
 11
149.4595525869
 21
110.9323852341
  0
LINE
  5
462
100
AcDbEntity
  8
RACCORDO
100
AcDbLine
 62
7
  6
CONTINUOUS
 10
132.7646549621
 20
104.2760909944
 11
132.6611015715
 21
104.2163107762
  0
LWPOLYLINE
  5
463
100
AcDbEntity
  8
RACCORDO
100
AcDbPolyline
 62
250
  6
CONTINUOUS
 90
22
 70
0
 10
149.4595525869
 20
110.9323852341
 10
149.529346433
 20
110.9692227958
 10
149.5974739256
 20
110.9993396563
 10
149.6639350646
 20
111.0227358157
 10
149.7289185259
 20
111.0393886792
 10
149.7922356336
 20
111.0493208415
 10
149.8533203607
 20
111.052600087
 10
149.912332878
 20
111.0491877994
 10
149.9691130146
 20
111.039122595
 10
150.0226142313
 20
111.0225881074
 10
150.0729165019
 20
110.9991182018
 10
150.1199398525
 20
110.9691790131
 10
150.1623978224
 20
110.934352579
 10
150.1996874019
 20
110.8950677587
 10
150.2324116007
 20
110.8508956931
 10
150.2610929868
 20
110.8021318425
 10
150.2859925733
 20
110.7493183953
 10
150.306849347
 20
110.6919131632
 10
150.3234028367
 20
110.628585041
 10
150.3355662186
 20
110.5588903269
 10
150.3434263164
 20
110.4832727228
 10
150.3469831302
 20
110.4017322286
  0
LWPOLYLINE
  5
464
100
AcDbEntity
  8
RACCORDO
100
AcDbPolyline
 62
250
  6
CONTINUOUS
 90
6
 70
0
 10
148.5888115626
 20
131.1077132899
 10
148.5798085907
 20
131.1334802449
 10
148.5700141667
 20
131.1596729895
 10
148.5591757354
 20
131.1868291939
 10
148.5471489309
 20
131.215091713
 10
148.5339459535
 20
131.2442112381
  0
LINE
  5
465
100
AcDbEntity
  8
ASSI
100
AcDbLine
 62
250
  6
CONTINUOUS
 10
143.2395990917
 20
139.8065814337
 11
143.1864271638
 21
139.9654192914
  0
LINE
  5
466
100
AcDbEntity
  8
ASSI
100
AcDbLine
 62
7
  6
CONTINUOUS
 10
143.3415985393
 20
139.7694351415
 11
143.2327528313
 21
140.0945845159
  0
LWPOLYLINE
  5
467
100
AcDbEntity
  8
RACCORDO
100
AcDbPolyline
 62
7
  6
CONTINUOUS
 90
9
 70
0
 10
148.5371235911
 20
131.0185845594
 10
148.5336276132
 20
131.0298850577
 10
148.5279560623
 20
131.05039758
 10
148.5228017207
 20
131.0717097173
 10
148.5182089242
 20
131.0938612606
 10
148.5144989414
 20
131.1172147965
 10
148.5117788615
 20
131.1418911871
 10
148.5099415953
 20
131.1677695702
 10
148.5089871425
 20
131.1948499458
  0
LWPOLYLINE
  5
468
100
AcDbEntity
  8
ASSI
100
AcDbPolyline
 62
7
  6
CONTINUOUS
 90
4
 70
0
 10
148.2119833974
 20
140.6260437443
 10
148.2188593555
 20
140.5933244886
 10
148.22423557
 20
140.548192504
 10
148.22614443
 20
140.5000106697
  0
LWPOLYLINE
  5
469
100
AcDbEntity
  8
ASSI
100
AcDbPolyline
 62
7
  6
CONTINUOUS
 90
5
 70
0
 10
148.065631386
 20
141.6045289822
 10
148.0684489692
 20
141.5891365286
 10
148.0704632809
 20
141.5736528007
 10
148.0716696142
 20
141.558137581
 10
148.0720706532
 20
141.5426293495
  0
LINE
  5
46A
100
AcDbEntity
  8
ASSI
100
AcDbLine
 62
250
  6
CONTINUOUS
 10
147.3728695574
 20
140.3466576455
 11
147.3968572543
 21
140.1749327979
  0
LINE
  5
46B
100
AcDbEntity
  8
ASSI
100
AcDbLine
 62
250
  6
CONTINUOUS
 10
147.3475289135
 20
140.5344158193
 11
147.3728695574
 21
140.3466576455
  0
LINE
  5
46C
100
AcDbEntity
  8
ASSI
100
AcDbLine
 62
250
  6
CONTINUOUS
 10
147.3206110079
 20
140.7411053966
 11
147.3475289135
 21
140.5344158193
  0
LINE
  5
46D
100
AcDbEntity
  8
ASSI
100
AcDbLine
 62
250
  6
CONTINUOUS
 10
147.2920882676
 20
140.9683939232
 11
147.3206110079
 21
140.7411053966
  0
LWPOLYLINE
  5
46E
100
AcDbEntity
  8
ASSI
100
AcDbPolyline
 62
250
  6
CONTINUOUS
 90
13
 70
0
 10
148.4791507556
 20
141.9744345852
 10
148.4765106475
 20
141.9958581288
 10
148.4717228986
 20
142.0179571053
 10
148.4648606249
 20
142.0403941635
 10
148.4560286107
 20
142.0628267927
 10
148.4453617007
 20
142.0849125721
 10
148.4330227349
 20
142.1063143962
 10
148.4192000827
 20
142.1267055817
 10
148.4041047533
 20
142.1457748857
 10
148.3879671559
 20
142.163231269
 10
148.3710336171
 20
142.1788082926
 10
148.353562626
 20
142.1922681912
 10
148.3358208651
 20
142.2034055269
  0
LWPOLYLINE
  5
46F
100
AcDbEntity
  8
ASSI
100
AcDbPolyline
 62
250
  6
CONTINUOUS
 90
13
 70
0
 10
149.6677438613
 20
142.6851918505
 10
149.6651038393
 20
142.7066148897
 10
149.6603162465
 20
142.728713445
 10
149.6534541634
 20
142.7511501915
 10
149.6446223367
 20
142.7735826419
 10
149.6339555805
 20
142.7956683742
 10
149.6216167183
 20
142.8170702592
 10
149.6077940976
 20
142.8374616062
 10
149.5926987149
 20
142.8565311499
 10
149.5765609946
 20
142.8739878019
 10
149.5596272721
 20
142.8895650938
 10
149.5421560337
 20
142.903025245
 10
149.5244139702
 20
142.9141627919
  0
LWPOLYLINE
  5
470
100
AcDbEntity
  8
ASSI
100
AcDbPolyline
 62
250
  6
CONTINUOUS
 90
13
 70
0
 10
147.6513398484
 20
141.8037519175
 10
147.6538896919
 20
141.7829884448
 10
147.6584628365
 20
141.7615794669
 10
147.6649935585
 20
141.7398326744
 10
147.6733880001
 20
141.7180606133
 10
147.6835255173
 20
141.696576194
 10
147.6952604137
 20
141.6756881946
 10
147.7084240355
 20
141.6556968199
 10
147.7228271947
 20
141.6368893893
 10
147.7382628866
 20
141.6195362083
 10
147.7545092674
 20
141.6038866801
 10
147.771332843
 20
141.5901657222
 10
147.7884918229
 20
141.5785705351
  0
LINE
  5
471
100
AcDbEntity
  8
ASSI
100
AcDbLine
 62
250
  6
CONTINUOUS
 10
149.7549074915
 20
141.923703124
 11
149.7880575865
 21
141.6560477775
  0
LINE
  5
472
100
AcDbEntity
  8
ASSI
100
AcDbLine
 62
250
  6
CONTINUOUS
 10
147.2622199048
 20
141.2157376137
 11
147.2920882676
 21
140.9683939232
  0
LINE
  5
473
100
AcDbEntity
  8
ASSI
100
AcDbLine
 62
250
  6
CONTINUOUS
 10
149.7190711731
 20
142.2263853982
 11
149.7549074915
 21
141.923703124
  0
LWPOLYLINE
  5
474
100
AcDbEntity
  8
ASSI
100
AcDbPolyline
 62
250
  6
CONTINUOUS
 90
3
 70
0
 10
149.6807965669
 20
142.565687317
 10
149.6905598936
 20
142.4775241079
 10
149.7190711731
 20
142.2263853982
  0
LWPOLYLINE
  5
475
100
AcDbEntity
  8
RACCORDO
100
AcDbPolyline
 62
250
  6
CONTINUOUS
 90
3
 70
0
 10
152.5678889957
 20
133.2208099685
 10
152.573346906
 20
133.165732103
 10
152.575176429
 20
133.1114140589
  0
LINE
  5
476
100
AcDbEntity
  8
ASSI
100
AcDbLine
 62
250
  6
CONTINUOUS
 10
152.9341408475
 20
143.3359333308
 11
152.8798213996
 21
144.0841972958
  0
LINE
  5
477
100
AcDbEntity
  8
ASSI
100
AcDbLine
 62
250
  6
CONTINUOUS
 10
153.011287524
 20
143.3940390863
 11
152.9581433289
 21
144.1261136511
  0
LINE
  5
478
100
AcDbEntity
  8
RACCORDO
100
AcDbLine
 62
250
  6
CONTINUOUS
 10
153.6323904542
 20
144.5089625809
 11
153.6659317582
 21
144.0469227391
  0
LINE
  5
479
100
AcDbEntity
  8
RACCORDO
100
AcDbLine
 62
7
  6
CONTINUOUS
 10
153.6944362545
 20
144.0595096344
 11
153.6576913389
 21
144.5656800259
  0
LWPOLYLINE
  5
47A
100
AcDbEntity
  8
RACCORDO
100
AcDbPolyline
 62
250
  6
CONTINUOUS
 90
16
 70
0
 10
152.8242577751
 20
114.4122613803
 10
152.8236610463
 20
114.4297834815
 10
152.8214081803
 20
114.4479477042
 10
152.8175159991
 20
114.4665592867
 10
152.8120164516
 20
114.485425913
 10
152.804963837
 20
114.5043332171
 10
152.7964414715
 20
114.5230474368
 10
152.7865464708
 20
114.54135594
 10
152.7753836321
 20
114.5590653595
 10
152.7630774186
 20
114.5759779257
 10
152.7497627229
 20
114.5919086155
 10
152.7355858903
 20
114.6066826645
 10
152.7207062689
 20
114.6201351466
 10
152.7052887586
 20
114.6321190345
 10
152.6895013498
 20
114.6425057343
 10
152.6735170294
 20
114.651183142
  0
LWPOLYLINE
  5
47B
100
AcDbEntity
  8
RACCORDO
100
AcDbPolyline
 62
7
  6
CONTINUOUS
 90
11
 70
0
 10
152.6172753376
 20
133.1714669186
 10
152.6165750013
 20
133.2044720902
 10
152.6129743183
 20
133.2543449664
 10
152.6063879277
 20
133.3049670761
 10
152.5968956827
 20
133.3560583131
 10
152.5846370869
 20
133.4071930952
 10
152.5697376261
 20
133.458183922
 10
152.5523087687
 20
133.5088515773
 10
152.532581037
 20
133.5587423971
 10
152.5107777908
 20
133.6075433151
 10
152.4986910916
 20
133.6323963791
  0
LINE
  5
47C
100
AcDbEntity
  8
RACCORDO
100
AcDbLine
 62
250
  6
CONTINUOUS
 10
152.575176429
 20
133.1114140589
 11
152.575176429
 21
114.1098579371
  0
LINE
  5
47D
100
AcDbEntity
  8
RACCORDO
100
AcDbLine
 62
7
  6
CONTINUOUS
 10
152.617275459
 20
133.1715771142
 11
152.617275459
 21
114.2058731309
  0
LWPOLYLINE
  5
47E
100
AcDbEntity
  8
RACCORDO
100
AcDbPolyline
 62
250
  6
CONTINUOUS
 90
5
 70
0
 10
153.6323904542
 20
144.5089625809
 10
153.6323891292
 20
144.5313626385
 10
153.6299569607
 20
144.5540395495
 10
153.6251278925
 20
144.5766768237
 10
153.6179693263
 20
144.5989585091
  0
LINE
  5
47F
100
AcDbEntity
  8
RACCORDO
100
AcDbLine
 62
250
  6
CONTINUOUS
 10
155.4340109905
 20
142.4913607487
 11
155.4340109905
 21
142.7863742058
  0
LINE
  5
480
100
AcDbEntity
  8
RACCORDO
100
AcDbLine
 62
7
  6
CONTINUOUS
 10
155.4901430305
 20
142.5715781561
 11
155.4901430305
 21
142.8665916134
  0
LINE
  5
481
100
AcDbEntity
  8
RACCORDO
100
AcDbLine
 62
250
  6
CONTINUOUS
 10
152.8776887691
 20
111.3013044429
 11
152.8782935382
 21
111.3177934306
  0
LWPOLYLINE
  5
482
100
AcDbEntity
  8
RACCORDO
100
AcDbPolyline
 62
250
  6
CONTINUOUS
 90
13
 70
0
 10
154.0562920796
 20
113.7010508853
 10
154.0664623916
 20
113.7239783678
 10
154.0740521408
 20
113.7477161303
 10
154.0789414477
 20
113.7718892368
 10
154.081053086
 20
113.7961158747
 10
154.0803537024
 20
113.8200133859
 10
154.0768543438
 20
113.8432043111
 10
154.0706102823
 20
113.8653223512
 10
154.0617201422
 20
113.8860181534
 10
154.0503243427
 20
113.9049648289
 10
154.0366028795
 20
113.9218631163
 10
154.0207724823
 20
113.9364461085
 10
154.0030831909
 20
113.9484834679
  0
LWPOLYLINE
  5
483
100
AcDbEntity
  8
RACCORDO
100
AcDbPolyline
 62
250
  6
CONTINUOUS
 90
24
 70
0
 10
154.0014602964
 20
112.9129969722
 10
154.0252039811
 20
112.9516303214
 10
154.0473426188
 20
112.9911290308
 10
154.0679516347
 20
113.0316790789
 10
154.0869556036
 20
113.0730944872
 10
154.1041282508
 20
113.1148173202
 10
154.1194733888
 20
113.156907819
 10
154.1329872052
 20
113.1993057426
 10
154.1444319877
 20
113.2412724323
 10
154.1537692103
 20
113.2827973758
 10
154.1610373991
 20
113.3238910855
 10
154.1661144199
 20
113.3638464406
 10
154.1689716377
 20
113.4026085027
 10
154.1696376875
 20
113.4402322101
 10
154.1680763396
 20
113.4761752566
 10
154.16426354
 20
113.5104588142
 10
154.1582233426
 20
113.5430617109
 10
154.1499916794
 20
113.5733781237
 10
154.1395198131
 20
113.6013912195
 10
154.126856481
 20
113.6271178316
 10
154.1121838271
 20
113.6500026365
 10
154.0955625663
 20
113.6698605266
 10
154.0769319838
 20
113.6868766095
 10
154.0562920796
 20
113.7010508853
  0
LINE
  5
484
100
AcDbEntity
  8
RACCORDO
100
AcDbLine
 62
250
  6
CONTINUOUS
 10
153.9761115648
 20
112.8752289831
 11
154.0014602964
 21
112.9129969722
  0
LWPOLYLINE
  5
485
100
AcDbEntity
  8
RACCORDO
100
AcDbPolyline
 62
7
  6
CONTINUOUS
 90
24
 70
0
 10
153.9863613547
 20
112.8342121589
 10
154.011811494
 20
112.8717476925
 10
154.04414295
 20
112.9239819467
 10
154.0743105115
 20
112.9782354928
 10
154.1020907475
 20
113.0341835512
 10
154.1272761704
 20
113.0914543997
 10
154.1497111696
 20
113.1498012221
 10
154.1692148871
 20
113.2089023809
 10
154.185576272
 20
113.2682990571
 10
154.1986369749
 20
113.327708861
 10
154.2082501599
 20
113.3868361554
 10
154.2142437493
 20
113.4453105456
 10
154.2164637613
 20
113.5030835048
 10
154.2147136038
 20
113.5597084564
 10
154.2088552128
 20
113.6144203485
 10
154.1987151031
 20
113.6673404263
 10
154.1841697721
 20
113.7179442519
 10
154.1655822992
 20
113.7647948712
 10
154.1430272702
 20
113.807990722
 10
154.116768472
 20
113.8471919977
 10
154.088363423
 20
113.8808351131
 10
154.0590625181
 20
113.9087852867
 10
154.029169999
 20
113.9319152531
 10
154.0028557956
 20
113.9486146173
  0
LINE
  5
486
100
AcDbEntity
  8
RACCORDO
100
AcDbLine
 62
250
  6
CONTINUOUS
 10
152.8782935382
 20
111.3177934306
 11
153.9761115648
 21
112.8752289831
  0
LINE
  5
487
100
AcDbEntity
  8
RACCORDO
100
AcDbLine
 62
7
  6
CONTINUOUS
 10
152.8885547477
 20
111.2767927806
 11
153.9863727918
 21
112.8342283579
  0
LWPOLYLINE
  5
488
100
AcDbEntity
  8
RACCORDO
100
AcDbPolyline
 62
250
  6
CONTINUOUS
 90
7
 70
0
 10
152.8408897046
 20
111.2289590142
 10
152.8503810252
 20
111.2369399387
 10
152.858908955
 20
111.2469053924
 10
152.8659725483
 20
111.2584589283
 10
152.8714944052
 20
111.2714739964
 10
152.8754140978
 20
111.2858081054
 10
152.8776887691
 20
111.3013044429
  0
LWPOLYLINE
  5
489
100
AcDbEntity
  8
RACCORDO
100
AcDbPolyline
 62
250
  6
CONTINUOUS
 90
3
 70
0
 10
148.5089871425
 20
109.1480183243
 10
148.5456456021
 20
109.1743778255
 10
148.5851087565
 20
109.1998921532
  0
LINE
  5
48A
100
AcDbEntity
  8
RACCORDO
100
AcDbLine
 62
250
  6
CONTINUOUS
 10
151.5751291794
 20
110.3922982458
 11
152.8782935382
 21
111.3177934306
  0
LINE
  5
48B
100
AcDbEntity
  8
RACCORDO
100
AcDbLine
 62
7
  6
CONTINUOUS
 10
151.5751291794
 20
110.3300276834
 11
152.8408897046
 21
111.2289590142
  0
LINE
  5
48C
100
AcDbEntity
  8
DRAFT
100
AcDbLine
 62
7
  6
CONTINUOUS
 10
151.5751291794
 20
111.7343895125
 11
152.4687851171
 21
112.3591857496
  0
LWPOLYLINE
  5
48D
100
AcDbEntity
  8
RACCORDO
100
AcDbPolyline
 62
7
  6
CONTINUOUS
 90
3
 70
0
 10
148.5089871425
 20
109.0536539824
 10
148.5157645916
 20
109.0581649055
 10
148.522952161
 20
109.0625452166
  0
LWPOLYLINE
  5
48E
100
AcDbEntity
  8
RACCORDO
100
AcDbPolyline
 62
250
  6
CONTINUOUS
 90
64
 70
0
 10
143.1079680675
 20
105.0609053384
 10
143.0998869427
 20
105.0559068898
 10
143.0921093709
 20
105.0506945187
 10
143.084635352
 20
105.0452682251
 10
143.0774737662
 20
105.0395987322
 10
143.0706157334
 20
105.0337153167
 10
143.064034613
 20
105.0277058094
 10
143.0577394111
 20
105.0215932488
 10
143.0517211215
 20
105.0153545963
 10
143.0459260858
 20
105.0090085662
 10
143.0403475496
 20
105.0025611673
 10
143.0349922672
 20
104.9960063908
 10
143.0298268433
 20
104.9893449249
 10
143.0248416654
 20
104.9825720414
 10
143.0200463461
 20
104.9756924686
 10
143.0154363268
 20
104.9687210791
 10
143.0110087275
 20
104.9616572834
 10
143.0067664283
 20
104.9545016711
 10
143.0027135111
 20
104.9472708842
 10
142.9988477621
 20
104.9399633116
 10
142.995171395
 20
104.9325805643
 10
142.9916951327
 20
104.9251441176
 10
142.9884167088
 20
104.9176488794
 10
142.9853383897
 20
104.9100999419
 10
142.9824776978
 20
104.902534057
 10
142.9798349592
 20
104.8949482647
 10
142.9774098479
 20
104.8873455251
 10
142.9752189081
 20
104.87977147
 10
142.9732640982
 20
104.8722265002
 10
142.9715434599
 20
104.864710215
 10
142.9700676624
 20
104.8572670444
 10
142.9688386367
 20
104.8498985787
 10
142.9678544517
 20
104.8426032277
 10
142.9671199834
 20
104.8354206511
 10
142.9666367056
 20
104.8283521848
 10
142.9664031445
 20
104.821396493
 10
142.9664197542
 20
104.8145892279
 10
142.9666877775
 20
104.8079313233
 10
142.9672059716
 20
104.8014218454
 10
142.967971063
 20
104.795093646
 10
142.9689841002
 20
104.7889479494
 10
142.9702440347
 20
104.7829835312
 10
142.971744447
 20
104.7772295696
 10
142.9734863771
 20
104.7716868564
 10
142.9754687851
 20
104.7663545998
 10
142.9776821314
 20
104.7612596019
 10
142.980126715
 20
104.7564035201
 10
142.982802237
 20
104.751784697
 10
142.9856982608
 20
104.7474249621
 10
142.9888189929
 20
104.7433224902
 10
142.9921602269
 20
104.7394791064
 10
142.9956989063
 20
104.7359221154
 10
142.9994177874
 20
104.7326618017
 10
143.003334114
 20
104.7296878808
 10
143.0074765609
 20
104.726996803
 10
143.0118287657
 20
104.7245773364
 10
143.0164070908
 20
104.722440713
 10
143.0212892982
 20
104.7206170789
 10
143.0264711781
 20
104.7190827303
 10
143.0319569403
 20
104.7178613709
 10
143.0378369754
 20
104.7170542581
 10
143.0441414138
 20
104.7166951443
 10
143.0508401252
 20
104.7167502771
 10
143.0579331096
 20
104.7172196565
  0
LWPOLYLINE
  5
48F
100
AcDbEntity
  8
RACCORDO
100
AcDbPolyline
 62
250
  6
CONTINUOUS
 90
56
 70
0
 10
143.0372681589
 20
105.183361172
 10
143.0252586867
 20
105.1759639233
 10
143.0136553605
 20
105.1680819382
 10
143.0024862344
 20
105.1598017337
 10
142.9918005709
 20
105.151228321
 10
142.9815868882
 20
105.1424188723
 10
142.9717768927
 20
105.1333692547
 10
142.9623898227
 20
105.1241452717
 10
142.9534238046
 20
105.1147926932
 10
142.9447826367
 20
105.1052477231
 10
142.9364657217
 20
105.0955364776
 10
142.9284876979
 20
105.0857028832
 10
142.9207836198
 20
105.0756872404
 10
142.9133502351
 20
105.0654980206
 10
142.9062074153
 20
105.0551753018
 10
142.8993317832
 20
105.044695617
 10
142.8927294343
 20
105.0340754346
 10
142.886411351
 20
105.0233397442
 10
142.8803659772
 20
105.0124733299
 10
142.8746007903
 20
105.0014916904
 10
142.8691267029
 20
104.9904176742
 10
142.8639409628
 20
104.9792451168
 10
142.8590502177
 20
104.9679854688
 10
142.8544673823
 20
104.9566653883
 10
142.8502006014
 20
104.9453012278
 10
142.8462572064
 20
104.933908591
 10
142.8426468824
 20
104.9225113299
 10
142.8393799776
 20
104.9111383488
 10
142.836462859
 20
104.8998099699
 10
142.8339010157
 20
104.8885456966
 10
142.8317010542
 20
104.8773729427
 10
142.8298669345
 20
104.8663128042
 10
142.8284013321
 20
104.8553829342
 10
142.8273069711
 20
104.844604994
 10
142.8265854253
 20
104.8339985673
 10
142.8262374085
 20
104.823580968
 10
142.8262631446
 20
104.8133698614
 10
142.8266622387
 20
104.8033829939
 10
142.8274336212
 20
104.7936372905
 10
142.8285756691
 20
104.7841486336
 10
142.8300860779
 20
104.7749338438
 10
142.8319620392
 20
104.7660081124
 10
142.8342006244
 20
104.7573844419
 10
142.8367980966
 20
104.7490776564
 10
142.8397499895
 20
104.741102324
 10
142.8430518863
 20
104.7334707103
 10
142.8466976535
 20
104.7261976867
 10
142.850681901
 20
104.7192945972
 10
142.8550014702
 20
104.7127686642
 10
142.8596541886
 20
104.7066272722
 10
142.8646293811
 20
104.700888285
 10
142.8699093589
 20
104.69557239
 10
142.8754605219
 20
104.6907073203
 10
142.8812940973
 20
104.6862774928
 10
142.8874662178
 20
104.682249294
 10
142.8889306267
 20
104.6813834066
  0
LINE
  5
490
100
AcDbEntity
  8
RACCORDO
100
AcDbLine
 62
250
  6
CONTINUOUS
 10
148.5577975546
 20
108.9774907224
 11
148.827185194
 21
109.1384612026
  0
LINE
  5
491
100
AcDbEntity
  8
RACCORDO
100
AcDbLine
 62
250
  6
CONTINUOUS
 10
148.7736318034
 20
108.6122421793
 11
149.0393172284
 21
108.7710004301
  0
LINE
  5
492
100
AcDbEntity
  8
RACCORDO
100
AcDbLine
 62
250
  6
CONTINUOUS
 10
148.5851087565
 20
109.1998921532
 11
149.1233042326
 21
109.52110185
  0
LINE
  5
493
100
AcDbEntity
  8
RACCORDO
100
AcDbLine
 62
7
  6
CONTINUOUS
 10
148.5230541373
 20
109.0626104979
 11
149.0612496139
 21
109.383820195
  0
LWPOLYLINE
  5
494
100
AcDbEntity
  8
RACCORDO
100
AcDbPolyline
 62
7
  6
CONTINUOUS
 90
9
 70
0
 10
149.0613952473
 20
109.3839072747
 10
149.0702605482
 20
109.3890521431
 10
149.0894970755
 20
109.3992122302
 10
149.1072222555
 20
109.407262411
 10
149.1232581651
 20
109.4133153632
 10
149.1370958594
 20
109.4174126714
 10
149.1479096685
 20
109.4196825611
 10
149.1552605056
 20
109.4205737681
 10
149.1563294949
 20
109.4206413817
  0
LINE
  5
495
100
AcDbEntity
  8
RACCORDO
100
AcDbLine
 62
250
  6
CONTINUOUS
 10
143.1386440247
 20
105.2418941323
 11
143.0372681589
 21
105.183361172
  0
LINE
  5
496
100
AcDbEntity
  8
RACCORDO
100
AcDbLine
 62
250
  6
CONTINUOUS
 10
143.1386440247
 20
105.078617193
 11
143.1079680675
 21
105.0609053384
  0
LWPOLYLINE
  5
497
100
AcDbEntity
  8
RACCORDO
100
AcDbPolyline
 62
250
  6
CONTINUOUS
 90
19
 70
0
 10
149.1233042326
 20
109.52110185
 10
149.1721164428
 20
109.5475758447
 10
149.2197760513
 20
109.568684559
 10
149.2662830581
 20
109.584427993
 10
149.3119419549
 20
109.5948238061
 10
149.3564482501
 20
109.5998543389
 10
149.3988884682
 20
109.5994666131
 10
149.4392090449
 20
109.5935896718
 10
149.4774635446
 20
109.582294472
 10
149.5128991852
 20
109.5657409059
 10
149.5454960325
 20
109.5438854945
 10
149.5752740208
 20
109.5167717168
 10
149.6015401704
 20
109.4846899024
 10
149.6242914854
 20
109.4473169822
 10
149.6435309618
 20
109.4049760253
 10
149.6585746083
 20
109.3589265686
 10
149.6691944277
 20
109.3095884576
 10
149.6756184172
 20
109.2565418468
 10
149.6778465767
 20
109.1997867362
  0
LWPOLYLINE
  5
498
100
AcDbEntity
  8
RACCORDO
100
AcDbPolyline
 62
250
  6
CONTINUOUS
 90
13
 70
0
 10
149.6778465767
 20
109.1997867362
 10
149.649481191
 20
109.1848666416
 10
149.618049475
 20
109.17215908
 10
149.5840656295
 20
109.1618719379
 10
149.5480856064
 20
109.1541735059
 10
149.5106980135
 20
109.1491897248
 10
149.4725144856
 20
109.1470021258
 10
149.4341596783
 20
109.1476464965
 10
149.3962610494
 20
109.1511122955
 10
149.3594385936
 20
109.1573428246
 10
149.3242947006
 20
109.1662361569
 10
149.2914042997
 20
109.1776468037
 10
149.2613054547
 20
109.1913880947
  0
LWPOLYLINE
  5
499
100
AcDbEntity
  8
RACCORDO
100
AcDbPolyline
 62
7
  6
CONTINUOUS
 90
3
 70
0
 10
151.9266615156
 20
107.9623695136
 10
151.9180231447
 20
107.9589427216
 10
151.9160691695
 20
107.9580019082
  0
LINE
  5
49A
100
AcDbEntity
  8
RACCORDO
100
AcDbLine
 62
250
  6
CONTINUOUS
 10
155.9541770835
 20
109.0017074516
 11
152.4177369311
 21
107.7154255207
  0
LINE
  5
49B
100
AcDbEntity
  8
RACCORDO
100
AcDbLine
 62
7
  6
CONTINUOUS
 10
151.9266595497
 20
107.9623685218
 11
155.5866083087
 21
109.1753912393
  0
LINE
  5
49C
100
AcDbEntity
  8
RACCORDO
100
AcDbLine
 62
250
  6
CONTINUOUS
 10
152.0150758099
 20
107.9479170055
 11
155.6771667906
 21
109.1616497229
  0
LWPOLYLINE
  5
49D
100
AcDbEntity
  8
RACCORDO
100
AcDbPolyline
 62
7
  6
CONTINUOUS
 90
15
 70
0
 10
148.6455149184
 20
130.7904291067
 10
148.6363736378
 20
130.8063428365
 10
148.6273598793
 20
130.8223156913
 10
148.6184736428
 20
130.838347671
 10
148.6096962807
 20
130.8543848117
 10
148.6010464406
 20
130.8704810774
 10
148.5925800656
 20
130.8867983596
 10
148.5842891137
 20
130.9033362575
 10
148.5761816269
 20
130.9200951719
 10
148.5683376742
 20
130.9372381959
 10
148.5607473618
 20
130.9547489993
 10
148.5534205836
 20
130.9726439123
 10
148.5464670895
 20
130.9911350185
 10
148.5398607093
 20
131.0102119415
 10
148.5371235911
 20
131.0185845594
  0
LINE
  5
49E
100
AcDbEntity
  8
RACCORDO
100
AcDbLine
 62
7
  6
CONTINUOUS
 10
148.2144817637
 20
133.5939056628
 11
148.0174768006
 21
133.9726026069
  0
LINE
  5
49F
100
AcDbEntity
  8
RACCORDO
100
AcDbLine
 62
250
  6
CONTINUOUS
 10
148.519509068
 20
131.2741204433
 11
148.5089871394
 21
131.294926542
  0
LINE
  5
4A0
100
AcDbEntity
  8
RACCORDO
100
AcDbLine
 62
250
  6
CONTINUOUS
 10
148.5339459535
 20
131.2442112381
 11
148.519509068
 21
131.2741204433
  0
LWPOLYLINE
  5
4A1
100
AcDbEntity
  8
ASSI
100
AcDbPolyline
 62
250
  6
CONTINUOUS
 90
3
 70
0
 10
145.6509411995
 20
145.1415383768
 10
145.6578966588
 20
145.1252354078
 10
145.6588763397
 20
145.1208261473
  0
LWPOLYLINE
  5
4A2
100
AcDbEntity
  8
ASSI
100
AcDbPolyline
 62
250
  6
CONTINUOUS
 90
8
 70
0
 10
148.4891955333
 20
138.1906978557
 10
148.4933742137
 20
138.178064874
 10
148.4959295098
 20
138.1664547901
 10
148.4968357803
 20
138.1559931823
 10
148.4960860194
 20
138.1467957215
 10
148.4936913761
 20
138.1389571683
 10
148.4896753264
 20
138.1325551807
 10
148.4885422196
 20
138.1313102427
  0
LINE
  5
4A3
100
AcDbEntity
  8
ASSI
100
AcDbLine
 62
250
  6
CONTINUOUS
 10
149.7880575865
 20
141.6560477775
 11
149.8037046004
 21
141.5338177275
  0
LWPOLYLINE
  5
4A4
100
AcDbEntity
  8
ASSI
100
AcDbPolyline
 62
250
  6
CONTINUOUS
 90
13
 70
0
 10
150.5540105407
 20
143.2151633592
 10
150.5513705208
 20
143.2365863856
 10
150.5465829316
 20
143.2586849317
 10
150.5397208522
 20
143.2811216733
 10
150.5308890276
 20
143.3035541246
 10
150.520222271
 20
143.3256398624
 10
150.5078834076
 20
143.3470417529
 10
150.4940607856
 20
143.367433104
 10
150.4789654011
 20
143.3865026516
 10
150.4628276789
 20
143.4039593067
 10
150.4458939549
 20
143.4195366009
 10
150.4284227152
 20
143.4329967535
 10
150.4106806508
 20
143.4441343013
  0
LWPOLYLINE
  5
4A5
100
AcDbEntity
  8
RACCORDO
100
AcDbPolyline
 62
7
  6
CONTINUOUS
 90
12
 70
0
 10
156.1265390785
 20
141.7319784094
 10
156.1264329845
 20
141.7393135654
 10
156.124437966
 20
141.7644630849
 10
156.1198954664
 20
141.7897637865
 10
156.1127893293
 20
141.8149994565
 10
156.1034686936
 20
141.8391318191
 10
156.0918655019
 20
141.8625298202
 10
156.0778544463
 20
141.8852456685
 10
156.0621444591
 20
141.9061099259
 10
156.0450113347
 20
141.9249595204
 10
156.0259699522
 20
141.9423030468
 10
156.0203682474
 20
141.9468012856
  0
LWPOLYLINE
  5
4A6
100
AcDbEntity
  8
RACCORDO
100
AcDbPolyline
 62
250
  6
CONTINUOUS
 90
25
 70
0
 10
156.0704070936
 20
141.6518466677
 10
156.0703038665
 20
141.661623057
 10
156.069785161
 20
141.6718687896
 10
156.0688195773
 20
141.6825753543
 10
156.0673729202
 20
141.6937509352
 10
156.0654165203
 20
141.7053587167
 10
156.0629361574
 20
141.7173140217
 10
156.0599123374
 20
141.7295879618
 10
156.0563266777
 20
141.7421503844
 10
156.0521843523
 20
141.7549057838
 10
156.0474794262
 20
141.7678135381
 10
156.0422073408
 20
141.7808326081
 10
156.036392743
 20
141.7938625907
 10
156.0300472246
 20
141.806849371
 10
156.0231771967
 20
141.8197533827
 10
156.0158130942
 20
141.8324960329
 10
156.0080241215
 20
141.8449503946
 10
155.9997848276
 20
141.8571505491
 10
155.9909704962
 20
141.8692427256
 10
155.981606142
 20
141.8811343318
 10
155.9716879125
 20
141.8927739236
 10
155.9610139868
 20
141.90431077
 10
155.9495157108
 20
141.9156902772
 10
155.9372833763
 20
141.92669207
 10
155.9243495979
 20
141.9371643841
  0
LWPOLYLINE
  5
4A7
100
AcDbEntity
  8
RACCORDO
100
AcDbPolyline
 62
250
  6
CONTINUOUS
 90
28
 70
0
 10
155.4340109905
 20
142.7863742058
 10
155.4339222137
 20
142.7962973836
 10
155.4334121062
 20
142.8066232221
 10
155.4324578746
 20
142.8173385891
 10
155.4310392891
 20
142.8284139315
 10
155.4291346321
 20
142.8398427589
 10
155.4267155105
 20
142.8516431125
 10
155.4237466955
 20
142.863834946
 10
155.4202148368
 20
142.8763434155
 10
155.4161335979
 20
142.8890382159
 10
155.4115035379
 20
142.9018639565
 10
155.4063159338
 20
142.9147959826
 10
155.4005908195
 20
142.9277454507
 10
155.3943322512
 20
142.9406721777
 10
155.3875513771
 20
142.9535239609
 10
155.3802942123
 20
142.9661949711
 10
155.3725981506
 20
142.9786124639
 10
155.3644696
 20
142.9907588797
 10
155.3559151117
 20
143.0026119808
 10
155.347006149
 20
143.0140649631
 10
155.3377241967
 20
143.0251343894
 10
155.3279252332
 20
143.035956145
 10
155.3176356636
 20
143.0464442824
 10
155.3068682679
 20
143.0565299957
 10
155.2954370238
 20
143.0663050638
 10
155.2832952992
 20
143.0756899253
 10
155.2705523731
 20
143.0844772642
 10
155.2572612192
 20
143.0925137897
  0
LWPOLYLINE
  5
4A8
100
AcDbEntity
  8
RACCORDO
100
AcDbPolyline
 62
7
  6
CONTINUOUS
 90
14
 70
0
 10
155.4901429859
 20
142.8665145374
 10
155.4901291628
 20
142.8692068404
 10
155.4887139919
 20
142.8932925994
 10
155.4849920744
 20
142.9173881533
 10
155.4789771825
 20
142.9413706181
 10
155.4709405761
 20
142.9644295856
 10
155.460843074
 20
142.9868847979
 10
155.4486169093
 20
143.0087609375
 10
155.4348425202
 20
143.0290536794
 10
155.4195766158
 20
143.0478359345
 10
155.4025754689
 20
143.065358467
 10
155.3843401475
 20
143.0810403871
 10
155.3649449647
 20
143.0948337988
 10
155.3547008238
 20
143.1010777675
  0
LINE
  5
4A9
100
AcDbEntity
  8
RACCORDO
100
AcDbLine
 62
250
  6
CONTINUOUS
 10
156.0704070936
 20
108.3574323574
 11
156.0704070936
 21
108.7453868696
  0
LINE
  5
4AA
100
AcDbEntity
  8
RACCORDO
100
AcDbLine
 62
250
  6
CONTINUOUS
 10
156.0704070936
 20
141.2633443185
 11
156.0704070936
 21
141.6518466677
  0
LINE
  5
4AB
100
AcDbEntity
  8
RACCORDO
100
AcDbLine
 62
7
  6
CONTINUOUS
 10
156.1265391335
 20
108.4376497648
 11
156.1265391335
 21
108.825604277
  0
LINE
  5
4AC
100
AcDbEntity
  8
RACCORDO
100
AcDbLine
 62
7
  6
CONTINUOUS
 10
156.1265391335
 20
141.3435617259
 11
156.1265391335
 21
141.7320640751
  0
LWPOLYLINE
  5
4AD
100
AcDbEntity
  8
RACCORDO
100
AcDbPolyline
 62
250
  6
CONTINUOUS
 90
9
 70
0
 10
156.0704070936
 20
108.7453868696
 10
156.0724539181
 20
108.7642209288
 10
156.0729090135
 20
108.7837245908
 10
156.0717674162
 20
108.8036850974
 10
156.0690415838
 20
108.8238846904
 10
156.0647612519
 20
108.8441030368
 10
156.0589730983
 20
108.864119631
 10
156.0517402455
 20
108.8837161386
 10
156.043141591
 20
108.9026787617
  0
LWPOLYLINE
  5
4AE
100
AcDbEntity
  8
RACCORDO
100
AcDbPolyline
 62
250
  6
CONTINUOUS
 90
7
 70
0
 10
148.558476714
 20
104.4448196882
 10
148.5585209035
 20
104.4448815429
 10
148.5587650867
 20
104.4471317988
 10
148.55903879
 20
104.4525945929
 10
148.5593390526
 20
104.4612109553
 10
148.5596626845
 20
104.4728898887
 10
148.5603655602
 20
104.5048872522
  0
LWPOLYLINE
  5
4AF
100
AcDbEntity
  8
RACCORDO
100
AcDbPolyline
 62
250
  6
CONTINUOUS
 90
13
 70
0
 10
156.0226989339
 20
108.2454848857
 10
156.0295476256
 20
108.2503773932
 10
156.0359780981
 20
108.2560177719
 10
156.041943606
 20
108.2623876252
 10
156.0473819862
 20
108.2694291126
 10
156.0523053729
 20
108.2771672826
 10
156.056755543
 20
108.2857309719
 10
156.0606703079
 20
108.2951124853
 10
156.0640033044
 20
108.3053326009
 10
156.0667477257
 20
108.3166262784
 10
156.0688115917
 20
108.3291041951
 10
156.0700672287
 20
108.3427063347
 10
156.0704070936
 20
108.3574323574
  0
LWPOLYLINE
  5
4B0
100
AcDbEntity
  8
RACCORDO
100
AcDbPolyline
 62
250
  6
CONTINUOUS
 90
5
 70
0
 10
155.3854165722
 20
107.8452892453
 10
155.3928784379
 20
107.8504859304
 10
155.399297657
 20
107.8560299746
 10
155.4052684487
 20
107.8623093231
 10
155.4103658647
 20
107.8688127131
  0
LWPOLYLINE
  5
4B1
100
AcDbEntity
  8
RACCORDO
100
AcDbPolyline
 62
7
  6
CONTINUOUS
 90
11
 70
0
 10
156.021328003
 20
108.2446244388
 10
156.0411054333
 20
108.2583534074
 10
156.058187689
 20
108.2731676368
 10
156.073665259
 20
108.2897016293
 10
156.0874368165
 20
108.3078749937
 10
156.0993183276
 20
108.3274845585
 10
156.1091487618
 20
108.3482800162
 10
156.1168683369
 20
108.3701624815
 10
156.122387716
 20
108.3929770269
 10
156.1256158754
 20
108.4164319935
 10
156.1265391122
 20
108.4375963893
  0
LWPOLYLINE
  5
4B2
100
AcDbEntity
  8
RACCORDO
100
AcDbPolyline
 62
7
  6
CONTINUOUS
 90
4
 70
0
 10
155.3852931851
 20
107.8452131181
 10
155.4018520289
 20
107.8565299401
 10
155.4213078773
 20
107.8730700893
 10
155.4266568063
 20
107.8788335073
  0
LWPOLYLINE
  5
4B3
100
AcDbEntity
  8
RACCORDO
100
AcDbPolyline
 62
250
  6
CONTINUOUS
 90
7
 70
0
 10
156.0704070936
 20
108.3574323574
 10
156.0871373087
 20
108.3688261811
 10
156.1011802845
 20
108.3813716085
 10
156.1123010441
 20
108.3948587208
 10
156.1203135074
 20
108.4090618423
 10
156.1250836042
 20
108.4237433166
 10
156.1265391122
 20
108.4375963893
  0
LWPOLYLINE
  5
4B4
100
AcDbEntity
  8
RACCORDO
100
AcDbPolyline
 62
250
  6
CONTINUOUS
 90
9
 70
0
 10
156.0704070936
 20
108.7453868696
 10
156.0838068482
 20
108.7542627668
 10
156.0956117428
 20
108.7639170993
 10
156.1056793322
 20
108.7742564165
 10
156.1138871129
 20
108.7851841248
 10
156.1201205924
 20
108.7965839146
 10
156.1242858211
 20
108.8083188011
 10
156.1263256284
 20
108.8202698767
 10
156.1265391283
 20
108.8255778639
  0
LWPOLYLINE
  5
4B5
100
AcDbEntity
  8
RACCORDO
100
AcDbPolyline
 62
250
  6
CONTINUOUS
 90
9
 70
0
 10
148.7076789535
 20
104.4828281415
 10
148.7167050365
 20
104.4885058544
 10
148.7309799165
 20
104.5005447519
 10
148.7433986684
 20
104.5152644292
 10
148.7538224382
 20
104.5325015775
 10
148.7621330207
 20
104.5520560379
 10
148.7682419438
 20
104.5737059401
 10
148.7720876531
 20
104.5972145264
 10
148.7736318034
 20
104.6223220784
  0
LINE
  5
4B6
100
AcDbEntity
  8
RACCORDO
100
AcDbLine
 62
250
  6
CONTINUOUS
 10
156.0213716887
 20
108.2446512472
 11
156.0226989339
 21
108.2454848857
  0
LINE
  5
4B7
100
AcDbEntity
  8
ASSI
100
AcDbLine
 62
7
  6
CONTINUOUS
 10
155.3854165751
 20
107.8452892471
 11
151.9878546578
 21
105.744185993
  0
LINE
  5
4B8
100
AcDbEntity
  8
RACCORDO
100
AcDbLine
 62
7
  6
CONTINUOUS
 10
155.3852909306
 20
107.8452117005
 11
155.3854165722
 21
107.8452892453
  0
LINE
  5
4B9
100
AcDbEntity
  8
RACCORDO
100
AcDbLine
 62
250
  6
CONTINUOUS
 10
156.0704070936
 20
108.3574323574
 11
151.9420799617
 21
105.8180385307
  0
LINE
  5
4BA
100
AcDbEntity
  8
ASSI
100
AcDbLine
 62
7
  6
CONTINUOUS
 10
156.0213716999
 20
108.2446512541
 11
151.9789496894
 21
105.7580989121
  0
LINE
  5
4BB
100
AcDbEntity
  8
RACCORDO
100
AcDbLine
 62
7
  6
CONTINUOUS
 10
156.0213251936
 20
108.2446226683
 11
156.0213716887
 21
108.2446512472
  0
LINE
  5
4BC
100
AcDbEntity
  8
RACCORDO
100
AcDbLine
 62
250
  6
CONTINUOUS
 10
148.9186044254
 20
104.0241077752
 11
148.5089871425
 21
103.77875634
  0
LINE
  5
4BD
100
AcDbEntity
  8
RACCORDO
100
AcDbLine
 62
250
  6
CONTINUOUS
 10
149.1233042326
 20
103.6655864967
 11
148.5851087565
 21
103.3432196484
  0
LINE
  5
4BE
100
AcDbEntity
  8
RACCORDO
100
AcDbLine
 62
250
  6
CONTINUOUS
 10
151.6604897447
 20
105.966896754
 11
151.5751291794
 21
105.9176104641
  0
LINE
  5
4BF
100
AcDbEntity
  8
RACCORDO
100
AcDbLine
 62
250
  6
CONTINUOUS
 10
151.8520984063
 20
105.8084438771
 11
151.9228505745
 21
105.8493000074
  0
LINE
  5
4C0
100
AcDbEntity
  8
RACCORDO
100
AcDbLine
 62
250
  6
CONTINUOUS
 10
151.5751291794
 20
105.8139102761
 11
151.7521136368
 21
105.913994267
  0
LINE
  5
4C1
100
AcDbEntity
  8
RACCORDO
100
AcDbLine
 62
250
  6
CONTINUOUS
 10
151.5751291794
 20
105.6518189057
 11
151.8520984063
 21
105.8084438771
  0
LINE
  5
4C2
100
AcDbEntity
  8
RACCORDO
100
AcDbLine
 62
250
  6
CONTINUOUS
 10
148.707528392
 20
104.4827440792
 11
148.7076789535
 21
104.4828281415
  0
LINE
  5
4C3
100
AcDbEntity
  8
RACCORDO
100
AcDbLine
 62
250
  6
CONTINUOUS
 10
149.0393172284
 20
104.7703706966
 11
148.7736318034
 21
104.6223220784
  0
LINE
  5
4C4
100
AcDbEntity
  8
RACCORDO
100
AcDbLine
 62
7
  6
CONTINUOUS
 10
148.9758546942
 20
104.6322642807
 11
148.707528392
 21
104.4827440792
  0
LWPOLYLINE
  5
4C5
100
AcDbEntity
  8
RACCORDO
100
AcDbPolyline
 62
250
  6
CONTINUOUS
 90
3
 70
0
 10
148.5851087565
 20
103.3432196484
 10
148.5356762578
 20
103.3163061099
 10
148.5089871425
 20
103.304466712
  0
LINE
  5
4C6
100
AcDbEntity
  8
RACCORDO
100
AcDbLine
 62
7
  6
CONTINUOUS
 10
154.5731601534
 20
109.4554247965
 11
151.5751291794
 21
107.8431807587
  0
LINE
  5
4C7
100
AcDbEntity
  8
RACCORDO
100
AcDbLine
 62
250
  6
CONTINUOUS
 10
154.6703534932
 20
109.4439738403
 11
151.9140640215
 21
107.9617305594
  0
LINE
  5
4C8
100
AcDbEntity
  8
RACCORDO
100
AcDbLine
 62
250
  6
CONTINUOUS
 10
151.5751291794
 20
107.2639167021
 11
152.4173837012
 21
107.7156294712
  0
LINE
  5
4C9
100
AcDbEntity
  8
RACCORDO
100
AcDbLine
 62
250
  6
CONTINUOUS
 10
151.5751291794
 20
106.9431666448
 11
152.5438186246
 21
107.462688215
  0
LWPOLYLINE
  5
4CA
100
AcDbEntity
  8
RACCORDO
100
AcDbPolyline
 62
250
  6
CONTINUOUS
 90
10
 70
0
 10
148.7736318034
 20
104.6223220784
 10
148.7543360537
 20
104.612113119
 10
148.733572703
 20
104.6029140204
 10
148.7114997731
 20
104.5947947934
 10
148.688285252
 20
104.5878172303
 10
148.6641058162
 20
104.5820344346
 10
148.6391454862
 20
104.5774904171
 10
148.6135942251
 20
104.5742197604
 10
148.5876464934
 20
104.5722473564
 10
148.5614997691
 20
104.5715882163
  0
LWPOLYLINE
  5
4CB
100
AcDbEntity
  8
RACCORDO
100
AcDbPolyline
 62
250
  6
CONTINUOUS
 90
13
 70
0
 10
149.6778465767
 20
104.6500258133
 10
149.6494792453
 20
104.6351048199
 10
149.6180456542
 20
104.6223968141
 10
149.5840601996
 20
104.6121096194
 10
149.5480790217
 20
104.604411445
 10
149.5106908175
 20
104.5994281194
 10
149.4725071988
 20
104.5972410564
 10
149.4341528586
 20
104.5978859415
 10
149.396255208
 20
104.6013521307
 10
149.3594340305
 20
104.6075828606
 10
149.3242915858
 20
104.6164761635
 10
149.2914027472
 20
104.6278865006
 10
149.2613054547
 20
104.6416271719
  0
LWPOLYLINE
  5
4CC
100
AcDbEntity
  8
RACCORDO
100
AcDbPolyline
 62
250
  6
CONTINUOUS
 90
8
 70
0
 10
154.6703534932
 20
109.4439738403
 10
154.6846435523
 20
109.4510990819
 10
154.6988354117
 20
109.4564853236
 10
154.7127780676
 20
109.460048322
 10
154.7263279264
 20
109.4617219294
 10
154.7393235861
 20
109.4614555615
 10
154.7515921229
 20
109.4592281413
 10
154.7627171633
 20
109.4551452574
  0
LINE
  5
4CD
100
AcDbEntity
  8
RACCORDO
100
AcDbLine
 62
7
  6
CONTINUOUS
 10
151.5751291794
 20
107.7881792226
 11
151.9160688769
 21
107.9580017625
  0
LINE
  5
4CE
100
AcDbEntity
  8
RACCORDO
100
AcDbLine
 62
250
  6
CONTINUOUS
 10
151.5751291794
 20
107.7283990791
 11
152.0154290398
 21
107.947713055
  0
LWPOLYLINE
  5
4CF
100
AcDbEntity
  8
RACCORDO
100
AcDbPolyline
 62
250
  6
CONTINUOUS
 90
4
 70
0
 10
151.7521136368
 20
105.913994267
 10
151.7666925859
 20
105.921246154
 10
151.7810966845
 20
105.9266642112
 10
151.7951715762
 20
105.9301877092
  0
LWPOLYLINE
  5
4D0
100
AcDbEntity
  8
RACCORDO
100
AcDbPolyline
 62
250
  6
CONTINUOUS
 90
7
 70
0
 10
151.6604897447
 20
105.966896754
 10
151.6787214738
 20
105.9756897008
 10
151.696606854
 20
105.9815797698
 10
151.7138466159
 20
105.9844683988
 10
151.7301522909
 20
105.9843072475
 10
151.7452510419
 20
105.9810990064
 10
151.7580132416
 20
105.9754124001
  0
LINE
  5
4D1
100
AcDbEntity
  8
RACCORDO
100
AcDbLine
 62
250
  6
CONTINUOUS
 10
156.0704070936
 20
108.7453868696
 11
152.5438186246
 21
107.462688215
  0
LWPOLYLINE
  5
4D2
100
AcDbEntity
  8
RACCORDO
100
AcDbPolyline
 62
250
  6
CONTINUOUS
 90
4
 70
0
 10
147.8694741602
 20
136.17087257
 10
147.8575820717
 20
136.1709431236
 10
147.8446711125
 20
136.1698989389
 10
147.8433461289
 20
136.1696776746
  0
LWPOLYLINE
  5
4D3
100
AcDbEntity
  8
RACCORDO
100
AcDbPolyline
 62
7
  6
CONTINUOUS
 90
11
 70
0
 10
147.4205526066
 20
136.0699997001
 10
147.4289064555
 20
136.0657241006
 10
147.4567254207
 20
136.0550607084
 10
147.4859612704
 20
136.0474761154
 10
147.5163437612
 20
136.043149947
 10
147.5474665942
 20
136.042220377
 10
147.578856386
 20
136.0447223186
 10
147.6102554054
 20
136.0506337322
 10
147.641407484
 20
136.0599040703
 10
147.6719826914
 20
136.0723857755
 10
147.7009099713
 20
136.0874365474
  0
LWPOLYLINE
  5
4D4
100
AcDbEntity
  8
RACCORDO
100
AcDbPolyline
 62
250
  6
CONTINUOUS
 90
6
 70
0
 10
147.9202062844
 20
136.156425381
 10
147.9110274591
 20
136.1611326716
 10
147.9013083243
 20
136.1649580619
 10
147.8910746143
 20
136.1678745128
 10
147.8804972135
 20
136.1698381628
 10
147.8694741602
 20
136.17087257
  0
LWPOLYLINE
  5
4D5
100
AcDbEntity
  8
RACCORDO
100
AcDbPolyline
 62
250
  6
CONTINUOUS
 90
13
 70
0
 10
147.9390389866
 20
136.0279422243
 10
147.9328363753
 20
136.0311372415
 10
147.9263077562
 20
136.0337132
 10
147.9194531293
 20
136.0356701
 10
147.9123590686
 20
136.037050322
 10
147.904939
 20
136.0378114854
 10
147.8969332019
 20
136.0378264482
 10
147.8882424432
 20
136.0371435178
 10
147.8789659549
 20
136.0357143868
 10
147.8691417087
 20
136.0332669901
 10
147.8587823618
 20
136.0297106395
 10
147.8478752571
 20
136.0251360232
 10
147.8364203944
 20
136.0195431414
  0
LINE
  5
4D6
100
AcDbEntity
  8
RACCORDO
100
AcDbLine
 62
7
  6
CONTINUOUS
 10
148.5089871425
 20
133.7639499613
 11
147.9690861416
 21
134.0756820327
  0
LINE
  5
4D7
100
AcDbEntity
  8
ASSI
100
AcDbLine
 62
7
  6
CONTINUOUS
 10
147.9702283769
 20
134.0776614521
 11
147.8795575159
 21
134.1300136709
  0
LINE
  5
4D8
100
AcDbEntity
  8
0
100
AcDbLine
 62
250
  6
CONTINUOUS
 10
145.407203187
 20
136.2301117399
 11
130.5389890186
 21
144.8148322583
  0
LINE
  5
4D9
100
AcDbEntity
  8
0
100
AcDbLine
 62
250
  6
CONTINUOUS
 10
145.7515016287
 20
136.8370005915
 11
130.8832874604
 21
145.4217211099
  0
LINE
  5
4DA
100
AcDbEntity
  8
RACCORDO
100
AcDbLine
 62
250
  6
CONTINUOUS
 10
148.3920193678
 20
135.7664462899
 11
147.9390389866
 21
136.0279422243
  0
LINE
  5
4DB
100
AcDbEntity
  8
RACCORDO
100
AcDbLine
 62
7
  6
CONTINUOUS
 10
148.3731839103
 20
135.8949310373
 11
147.8703000769
 21
136.1852405998
  0
LINE
  5
4DC
100
AcDbEntity
  8
RACCORDO
100
AcDbLine
 62
250
  6
CONTINUOUS
 10
148.3994140433
 20
135.7613039948
 11
148.3920193678
 21
135.7664462899
  0
LWPOLYLINE
  5
4DD
100
AcDbEntity
  8
ASSI
100
AcDbPolyline
 62
250
  6
CONTINUOUS
 90
7
 70
0
 10
142.8131916742
 20
143.7572412924
 10
142.8078401587
 20
143.7640678804
 10
142.7924822075
 20
143.7801769115
 10
142.7749592934
 20
143.7940900815
 10
142.7555424348
 20
143.8055922545
 10
142.7345319182
 20
143.8145055993
 10
142.7122526751
 20
143.8206923159
  0
LWPOLYLINE
  5
4DE
100
AcDbEntity
  8
RACCORDO
100
AcDbPolyline
 62
250
  6
CONTINUOUS
 90
4
 70
0
 10
148.4169069511
 20
135.7426855318
 10
148.4118828538
 20
135.7494506822
 10
148.4060352053
 20
135.7556387922
 10
148.3994140433
 20
135.7613039948
  0
LINE
  5
4DF
100
AcDbEntity
  8
RACCORDO
100
AcDbLine
 62
250
  6
CONTINUOUS
 10
150.4411787375
 20
137.2196103632
 11
150.1689588234
 21
137.6603118788
  0
LINE
  5
4E0
100
AcDbEntity
  8
RACCORDO
100
AcDbLine
 62
7
  6
CONTINUOUS
 10
150.4956015267
 20
137.2479637608
 11
150.2990566125
 21
137.5671871094
  0
LWPOLYLINE
  5
4E1
100
AcDbEntity
  8
ASSI
100
AcDbPolyline
 62
250
  6
CONTINUOUS
 90
4
 70
0
 10
145.6509413084
 20
145.1413337988
 10
145.6565577492
 20
145.1321085225
 10
145.660364831
 20
145.1226068437
 10
145.6604916346
 20
145.1219837706
  0
LWPOLYLINE
  5
4E2
100
AcDbEntity
  8
ASSI
100
AcDbPolyline
 62
250
  6
CONTINUOUS
 90
16
 70
0
 10
145.8395656431
 20
145.3432222265
 10
145.8486697775
 20
145.3262426524
 10
145.8554798323
 20
145.3090860629
 10
145.8599958073
 20
145.291752458
 10
145.8622285323
 20
145.274136407
 10
145.8621671776
 20
145.2563433407
 10
145.8597792546
 20
145.2386895504
 10
145.8550028752
 20
145.2211613493
 10
145.8478999275
 20
145.2037724244
 10
145.8386235871
 20
145.1868801274
 10
145.8271288176
 20
145.1705133638
 10
145.8134606554
 20
145.1546432281
 10
145.7979073851
 20
145.1395403564
 10
145.7805651015
 20
145.1252949607
 10
145.7613377099
 20
145.1118168289
 10
145.7402252101
 20
145.099105961
  0
LWPOLYLINE
  5
4E3
100
AcDbEntity
  8
ASSI
100
AcDbPolyline
 62
250
  6
CONTINUOUS
 90
4
 70
0
 10
148.0406586098
 20
141.6771316283
 10
148.0383925356
 20
141.6815088821
 10
148.0337936377
 20
141.689043298
 10
148.0288167145
 20
141.6957445457
  0
LWPOLYLINE
  5
4E4
100
AcDbEntity
  8
RACCORDO
100
AcDbPolyline
 62
250
  6
CONTINUOUS
 90
9
 70
0
 10
152.4487202381
 20
133.5960068716
 10
152.2151070459
 20
134.0570908234
 10
151.9763801551
 20
134.5161535631
 10
151.7326189743
 20
134.9730423729
 10
151.483905518
 20
135.4276035779
 10
151.2303216228
 20
135.8796876557
 10
150.9719487407
 20
136.3291491922
 10
150.7088716765
 20
136.7758402201
 10
150.4411787375
 20
137.2196103632
  0
LWPOLYLINE
  5
4E5
100
AcDbEntity
  8
RACCORDO
100
AcDbPolyline
 62
7
  6
CONTINUOUS
 90
9
 70
0
 10
152.498692884
 20
133.6323928109
 10
152.2655893891
 20
134.0924706573
 10
152.0273862255
 20
134.5505259538
 10
151.7841622788
 20
135.0064072937
 10
151.5359982712
 20
135.4599636261
 10
151.2829761368
 20
135.9110454014
 10
151.025178958
 20
136.3595045966
 10
150.7626917611
 20
136.8051932954
 10
150.4956015267
 20
137.2479637608
  0
LINE
  5
4E6
100
AcDbEntity
  8
ASSI
100
AcDbLine
 62
7
  6
CONTINUOUS
 10
148.0406768142
 20
141.6770942158
 11
148.0406586098
 21
141.6771316283
  0
LINE
  5
4E7
100
AcDbEntity
  8
RACCORDO
100
AcDbLine
 62
250
  6
CONTINUOUS
 10
152.4487202381
 20
133.5960068716
 11
152.4727088245
 21
133.5455652738
  0
LWPOLYLINE
  5
4E8
100
AcDbEntity
  8
ASSI
100
AcDbPolyline
 62
7
  6
CONTINUOUS
 90
6
 70
0
 10
148.0406955304
 20
141.6770558346
 10
148.0462279375
 20
141.6650735154
 10
148.0523111105
 20
141.6501240501
 10
148.0575745028
 20
141.6350178241
 10
148.0620113847
 20
141.6198138954
 10
148.065631386
 20
141.6045289822
  0
LINE
  5
4E9
100
AcDbEntity
  8
ASSI
100
AcDbLine
 62
7
  6
CONTINUOUS
 10
148.040863919
 20
141.6766928681
 11
148.040895987
 21
141.6766191525
  0
LWPOLYLINE
  5
4EA
100
AcDbEntity
  8
RACCORDO
100
AcDbPolyline
 62
250
  6
CONTINUOUS
 90
7
 70
0
 10
152.4727088245
 20
133.5455652738
 10
152.4947920633
 20
133.4936275229
 10
152.5147185034
 20
133.4404347282
 10
152.5322207419
 20
133.3862984901
 10
152.5470669245
 20
133.3314832008
 10
152.55904087
 20
133.2762087949
 10
152.5678889957
 20
133.2208099685
  0
LWPOLYLINE
  5
4EB
100
AcDbEntity
  8
RACCORDO
100
AcDbPolyline
 62
250
  6
CONTINUOUS
 90
8
 70
0
 10
152.498692884
 20
133.6323928109
 10
152.4988011274
 20
133.6320331934
 10
152.4979028632
 20
133.6297600348
 10
152.4947728771
 20
133.6264084042
 10
152.4894634974
 20
133.6220343629
 10
152.4820635453
 20
133.6167110978
 10
152.4726968299
 20
133.6105276791
 10
152.4615200591
 20
133.6035875621
  0
LINE
  5
4EC
100
AcDbEntity
  8
RACCORDO
100
AcDbLine
 62
250
  6
CONTINUOUS
 10
151.7953540636
 20
103.8398486735
 11
151.7860856078
 21
103.8321355746
  0
LWPOLYLINE
  5
4ED
100
AcDbEntity
  8
RACCORDO
100
AcDbPolyline
 62
250
  6
CONTINUOUS
 90
7
 70
0
 10
149.4208777419
 20
102.5665066269
 10
149.4313094574
 20
102.5744675645
 10
149.4414971858
 20
102.5862378004
 10
149.44953306
 20
102.6005799123
 10
149.4552796371
 20
102.6172485977
 10
149.4586386298
 20
102.6359587614
 10
149.4595525869
 20
102.656390391
  0
LWPOLYLINE
  5
4EE
100
AcDbEntity
  8
RACCORDO
100
AcDbPolyline
 62
7
  6
CONTINUOUS
 90
20
 70
0
 10
151.7921859996
 20
103.8361459144
 10
151.8007539619
 20
103.8426487649
 10
151.8155791881
 20
103.8562291214
 10
151.8288917932
 20
103.8717579827
 10
151.8403756774
 20
103.889001905
 10
151.8497960733
 20
103.9077293771
 10
151.8570127529
 20
103.9277994445
 10
151.8618892196
 20
103.9491126802
 10
151.8642454467
 20
103.971232973
 10
151.8640335083
 20
103.9937086613
 10
151.8611892174
 20
104.0168365092
 10
151.855654834
 20
104.0401441998
 10
151.8477885062
 20
104.0624185414
 10
151.8375690855
 20
104.0840131034
 10
151.8249113555
 20
104.1049151877
 10
151.8106915871
 20
104.1237446247
 10
151.7951736095
 20
104.1404646487
 10
151.7780645575
 20
104.1554467134
 10
151.759995739
 20
104.1681425151
 10
151.7541299015
 20
104.1716666257
  0
LINE
  5
4EF
100
AcDbEntity
  8
RACCORDO
100
AcDbLine
 62
7
  6
CONTINUOUS
 10
151.7921859995
 20
103.8361459145
 11
151.7919184173
 21
103.8359562929
  0
LWPOLYLINE
  5
4F0
100
AcDbEntity
  8
RACCORDO
100
AcDbPolyline
 62
250
  6
CONTINUOUS
 90
3
 70
0
 10
151.4426228767
 20
103.6006074565
 10
151.615527085
 20
103.714445173
 10
151.7860856078
 20
103.8321355746
  0
LINE
  5
4F1
100
AcDbEntity
  8
RACCORDO
100
AcDbLine
 62
250
  6
CONTINUOUS
 10
151.7919184173
 20
103.8359562929
 11
151.7860856077
 21
103.8321355748
  0
LWPOLYLINE
  5
4F2
100
AcDbEntity
  8
RACCORDO
100
AcDbPolyline
 62
7
  6
CONTINUOUS
 90
22
 70
0
 10
149.4208275773
 20
102.566475635
 10
149.47343899
 20
102.6005790684
 10
149.5516450165
 20
102.6571287523
 10
149.6282173438
 20
102.7194972316
 10
149.7027731722
 20
102.7872712901
 10
149.7750388041
 20
102.8600845094
 10
149.8447872659
 20
102.9376019417
 10
149.9117465901
 20
103.0194686922
 10
149.9756092424
 20
103.1052483758
 10
150.0360490985
 20
103.1944712674
 10
150.0927688845
 20
103.2866912774
 10
150.1455090725
 20
103.3814471726
 10
150.1939852142
 20
103.4782384641
 10
150.2379457146
 20
103.5765979425
 10
150.2771725885
 20
103.6760356722
 10
150.3114327955
 20
103.776033974
 10
150.3405191873
 20
103.8761043254
 10
150.3642741662
 20
103.9758202306
 10
150.3825310851
 20
104.0748053783
 10
150.3951229157
 20
104.1726339344
 10
150.4019019157
 20
104.2687733339
 10
150.403115141
 20
104.3285165832
  0
LINE
  5
4F3
100
AcDbEntity
  8
RACCORDO
100
AcDbLine
 62
250
  6
CONTINUOUS
 10
151.2674004248
 20
103.4906405177
 11
151.4426228767
 21
103.6006074565
  0
LINE
  5
4F4
100
AcDbEntity
  8
RACCORDO
100
AcDbLine
 62
250
  6
CONTINUOUS
 10
149.4595525869
 20
102.656390391
 11
148.5089871425
 21
102.0685464614
  0
LINE
  5
4F5
100
AcDbEntity
  8
RACCORDO
100
AcDbLine
 62
7
  6
CONTINUOUS
 10
149.4208777419
 20
102.5665066269
 11
148.5089871425
 21
102.0025798016
  0
LWPOLYLINE
  5
4F6
100
AcDbEntity
  8
RACCORDO
100
AcDbPolyline
 62
7
  6
CONTINUOUS
 90
10
 70
0
 10
151.2305891168
 20
103.4682090234
 10
151.2941467206
 20
103.507079633
 10
151.3574104034
 20
103.5464496391
 10
151.4203788245
 20
103.586318234
 10
151.4830505039
 20
103.6266845048
 10
151.5454242605
 20
103.6675477143
 10
151.6074992051
 20
103.7089073132
 10
151.6692741602
 20
103.7507625592
 10
151.7307476669
 20
103.7931125062
 10
151.7919184173
 20
103.8359562929
  0
LINE
  5
4F7
100
AcDbEntity
  8
RACCORDO
100
AcDbLine
 62
250
  6
CONTINUOUS
 10
151.7996760976
 20
104.1356133909
 11
152.5531777349
 21
104.5941388611
  0
LINE
  5
4F8
100
AcDbEntity
  8
RACCORDO
100
AcDbLine
 62
7
  6
CONTINUOUS
 10
151.8601453953
 20
103.9414910679
 11
152.5546946921
 21
104.3641430283
  0
LINE
  5
4F9
100
AcDbEntity
  8
RACCORDO
100
AcDbLine
 62
250
  6
CONTINUOUS
 10
148.8313605134
 20
102.0495930338
 11
148.5089871425
 21
101.8539675499
  0
LINE
  5
4FA
100
AcDbEntity
  8
ASSI
100
AcDbLine
 62
7
  6
CONTINUOUS
 10
151.2305891169
 20
103.4682090233
 11
148.5089871425
 21
101.8182367737
  0
LINE
  5
4FB
100
AcDbEntity
  8
RACCORDO
100
AcDbLine
 62
250
  6
CONTINUOUS
 10
151.6809616252
 20
104.1652947055
 11
150.0111874087
 21
103.1577697927
  0
LINE
  5
4FC
100
AcDbEntity
  8
RACCORDO
100
AcDbLine
 62
250
  6
CONTINUOUS
 10
151.7860856078
 20
103.8321355746
 11
148.8313605134
 21
102.0495930338
  0
LWPOLYLINE
  5
4FD
100
AcDbEntity
  8
RACCORDO
100
AcDbPolyline
 62
7
  6
CONTINUOUS
 90
4
 70
0
 10
151.5696168532
 20
104.2717844314
 10
151.5729720231
 20
104.2737725939
 10
151.5747871172
 20
104.2748306583
 10
151.5751291785
 20
104.2749916664
  0
LINE
  5
4FE
100
AcDbEntity
  8
RACCORDO
100
AcDbLine
 62
7
  6
CONTINUOUS
 10
150.1935058217
 20
103.4772812713
 11
151.5425900382
 21
104.2562452115
  0
LINE
  5
4FF
100
AcDbEntity
  8
RACCORDO
100
AcDbLine
 62
250
  6
CONTINUOUS
 10
152.623930062
 20
104.6349947162
 11
152.5531778938
 21
104.5941385859
  0
LINE
  5
500
100
AcDbEntity
  8
RACCORDO
100
AcDbLine
 62
7
  6
CONTINUOUS
 10
151.5425900382
 20
104.2562452115
 11
151.5696168532
 21
104.2717844314
  0
LINE
  5
501
100
AcDbEntity
  8
RACCORDO
100
AcDbLine
 62
250
  6
CONTINUOUS
 10
150.8571400257
 20
144.1487137471
 11
153.3113648731
 21
144.8359871266
  0
LINE
  5
502
100
AcDbEntity
  8
ASSI
100
AcDbLine
 62
7
  6
CONTINUOUS
 10
150.7666049204
 20
144.1624409151
 11
153.2208297678
 21
144.8497142947
  0
LWPOLYLINE
  5
503
100
AcDbEntity
  8
ASSI
100
AcDbPolyline
 62
250
  6
CONTINUOUS
 90
13
 70
0
 10
152.7730940489
 20
144.3287379753
 10
152.7773349501
 20
144.3298869214
 10
152.7815090443
 20
144.3310942853
 10
152.7856163314
 20
144.3323600671
 10
152.7896454075
 20
144.3336768449
 10
152.7936076765
 20
144.3350520405
 10
152.7975373503
 20
144.3365079196
 10
152.8014431532
 20
144.3380433066
 10
152.8053163608
 20
144.3396593771
 10
152.8091650122
 20
144.3413819227
 10
152.8129917871
 20
144.3432195407
 10
152.8167940059
 20
144.3451636338
 10
152.8205716685
 20
144.3472142021
  0
LINE
  5
504
100
AcDbEntity
  8
ASSI
100
AcDbLine
 62
250
  6
CONTINUOUS
 10
151.3492884516
 20
143.6816357693
 11
152.8798213996
 21
144.0841972958
  0
LINE
  5
505
100
AcDbEntity
  8
ASSI
100
AcDbLine
 62
250
  6
CONTINUOUS
 10
151.2425611009
 20
143.9261764487
 11
152.7730940489
 21
144.3287379753
  0
LWPOLYLINE
  5
506
100
AcDbEntity
  8
ASSI
100
AcDbPolyline
 62
7
  6
CONTINUOUS
 90
10
 70
0
 10
147.5511950312
 20
140.2059896225
 10
147.5316712971
 20
140.2062767971
 10
147.512639302
 20
140.2056032798
 10
147.4940990456
 20
140.2039690705
 10
147.4759143869
 20
140.2013391714
 10
147.458221467
 20
140.1977485803
 10
147.4414287101
 20
140.1933022911
 10
147.4256722574
 20
140.1880353018
 10
147.4108159677
 20
140.1819126144
 10
147.3968598409
 20
140.1749342289
  0
LINE
  5
507
100
AcDbEntity
  8
ASSI
100
AcDbLine
 62
7
  6
CONTINUOUS
 10
147.5918517358
 20
140.2051822826
 11
147.5511950312
 21
140.2059896225
  0
LWPOLYLINE
  5
508
100
AcDbEntity
  8
ASSI
100
AcDbPolyline
 62
250
  6
CONTINUOUS
 90
8
 70
0
 10
146.9137275923
 20
139.6975435348
 10
146.9024430105
 20
139.7017945349
 10
146.890254974
 20
139.7041193154
 10
146.8772940715
 20
139.7044929545
 10
146.8636991902
 20
139.7029114428
 10
146.8496159984
 20
139.6993917263
 10
146.8351953824
 20
139.6939715156
 10
146.8205918505
 20
139.6867088841
  0
LWPOLYLINE
  5
509
100
AcDbEntity
  8
ASSI
100
AcDbPolyline
 62
250
  6
CONTINUOUS
 90
9
 70
0
 10
148.4453324052
 20
138.8134285435
 10
148.4409313116
 20
138.8157552337
 10
148.4296467061
 20
138.8200062108
 10
148.4174586743
 20
138.8223309614
 10
148.4044977984
 20
138.8227045765
 10
148.3909029497
 20
138.8211230515
 10
148.3768197899
 20
138.8176033313
 10
148.3623992096
 20
138.8121831271
 10
148.3477957162
 20
138.8049205123
  0
LINE
  5
50A
100
AcDbEntity
  8
ASSI
100
AcDbLine
 62
250
  6
CONTINUOUS
 10
146.9181285395
 20
139.6952169153
 11
146.9137275923
 21
139.6975435348
  0
LINE
  5
50B
100
AcDbEntity
  8
ASSI
100
AcDbLine
 62
250
  6
CONTINUOUS
 10
137.7417857573
 20
144.9935222311
 11
137.7373848101
 21
144.9958488507
  0
LWPOLYLINE
  5
50C
100
AcDbEntity
  8
ASSI
100
AcDbPolyline
 62
250
  6
CONTINUOUS
 90
7
 70
0
 10
146.8205918505
 20
139.6867088841
 10
146.8062600589
 20
139.6943878125
 10
146.7919979458
 20
139.7002506478
 10
146.7779610774
 20
139.7042118697
 10
146.764287824
 20
139.7062066255
 10
146.7511528394
 20
139.7061826863
 10
146.7387564198
 20
139.704128473
  0
LWPOLYLINE
  5
50D
100
AcDbEntity
  8
ASSI
100
AcDbPolyline
 62
250
  6
CONTINUOUS
 90
7
 70
0
 10
137.6442490682
 20
144.9850141999
 10
137.6299172767
 20
144.9926931284
 10
137.6156551636
 20
144.9985559636
 10
137.6016182952
 20
145.0025171856
 10
137.5879450418
 20
145.0045119413
 10
137.5748100572
 20
145.0044880022
 10
137.5624136376
 20
145.0024337888
  0
LWPOLYLINE
  5
50E
100
AcDbEntity
  8
ASSI
100
AcDbPolyline
 62
250
  6
CONTINUOUS
 90
9
 70
0
 10
143.1431021048
 20
140.2042984683
 10
143.140892196
 20
140.2055192502
 10
143.1291893825
 20
140.2103543517
 10
143.1164631294
 20
140.2130585625
 10
143.102864724
 20
140.2135997191
 10
143.0885558357
 20
140.2119713811
 10
143.0737065679
 20
140.2081929066
 10
143.0584934321
 20
140.2023092102
 10
143.0430972728
 20
140.1943902328
  0
LWPOLYLINE
  5
50F
100
AcDbEntity
  8
RACCORDO
100
AcDbPolyline
 62
250
  6
CONTINUOUS
 90
31
 70
0
 10
147.3229294452
 20
137.3777516542
 10
147.3287395313
 20
137.3745076995
 10
147.3346195102
 20
137.3714224995
 10
147.3405448795
 20
137.3684906705
 10
147.3464104004
 20
137.3657435313
 10
147.352272398
 20
137.3631337792
 10
147.3583698481
 20
137.3605529125
 10
147.3647538474
 20
137.3579949157
 10
147.3713713755
 20
137.3554857552
 10
147.3783296515
 20
137.3529878104
 10
147.3856299565
 20
137.3505217723
 10
147.3932721879
 20
137.348101526
 10
147.4013711659
 20
137.3456955206
 10
147.409950573
 20
137.3433276899
 10
147.4189843633
 20
137.3410325442
 10
147.4285149012
 20
137.3388085571
 10
147.4385540192
 20
137.3366870848
 10
147.4490631695
 20
137.334711631
 10
147.4600020788
 20
137.3329031743
 10
147.4713304311
 20
137.3312963233
 10
147.4830219321
 20
137.3299311788
 10
147.495046135
 20
137.3288371572
 10
147.5073335025
 20
137.3280522404
 10
147.5198387453
 20
137.3276133162
 10
147.5325512044
 20
137.327554891
 10
147.5453764539
 20
137.3279119322
 10
147.5582262081
 20
137.328726711
 10
147.571069689
 20
137.3300572191
 10
147.5837984428
 20
137.3319511004
 10
147.5962360791
 20
137.3344326366
 10
147.6082187615
 20
137.337524668
  0
LINE
  5
510
100
AcDbEntity
  8
RACCORDO
100
AcDbLine
 62
250
  6
CONTINUOUS
 10
131.8759539538
 20
146.2966281404
 11
131.9330323991
 21
146.2636717615
  0
LINE
  5
511
100
AcDbEntity
  8
RACCORDO
100
AcDbLine
 62
250
  6
CONTINUOUS
 10
147.265851
 20
137.4106944666
 11
147.3229294452
 21
137.3777380877
  0
LINE
  5
512
100
AcDbEntity
  8
0
100
AcDbLine
 62
7
  6
CONTINUOUS
 10
147.06712037
 20
137.5966186177
 11
132.1317630291
 21
146.2201067623
  0
LINE
  5
513
100
AcDbEntity
  8
RACCORDO
100
AcDbLine
 62
250
  6
CONTINUOUS
 10
138.8826498605
 20
142.3434516728
 11
138.9105221851
 21
142.3273585419
  0
LINE
  5
514
100
AcDbEntity
  8
ASSI
100
AcDbLine
 62
250
  6
CONTINUOUS
 10
143.3529683444
 20
139.7879573855
 11
143.3311883921
 21
139.800532857
  0
LINE
  5
515
100
AcDbEntity
  8
RACCORDO
100
AcDbLine
 62
250
  6
CONTINUOUS
 10
143.5078709928
 20
139.8275769032
 11
147.4361604499
 21
137.5594678032
  0
LINE
  5
516
100
AcDbEntity
  8
ASSI
100
AcDbLine
 62
250
  6
CONTINUOUS
 10
143.0430972728
 20
140.1943902328
 11
139.1914444731
 21
142.4182862867
  0
LINE
  5
517
100
AcDbEntity
  8
ASSI
100
AcDbLine
 62
7
  6
CONTINUOUS
 10
143.1431021048
 20
140.2042984683
 11
139.2914493052
 21
142.4281945223
  0
LINE
  5
518
100
AcDbEntity
  8
RACCORDO
100
AcDbLine
 62
7
  6
CONTINUOUS
 10
148.3675873254
 20
138.1026391163
 11
144.4439838484
 21
140.3680785896
  0
LINE
  5
519
100
AcDbEntity
  8
RACCORDO
100
AcDbLine
 62
7
  6
CONTINUOUS
 10
136.8762198943
 20
144.7376106503
 11
132.9526164172
 21
147.0030501237
  0
LINE
  5
51A
100
AcDbEntity
  8
ASSI
100
AcDbLine
 62
250
  6
CONTINUOUS
 10
141.1838811925
 20
142.9320648643
 11
145.0641920585
 21
140.691622002
  0
LINE
  5
51B
100
AcDbEntity
  8
ASSI
100
AcDbLine
 62
250
  6
CONTINUOUS
 10
148.3477957162
 20
138.8049205123
 11
146.8205918505
 21
139.6867088841
  0
LINE
  5
51C
100
AcDbEntity
  8
ASSI
100
AcDbLine
 62
250
  6
CONTINUOUS
 10
139.171452934
 20
144.1032258282
 11
137.6442490682
 21
144.9850141999
  0
LINE
  5
51D
100
AcDbEntity
  8
ASSI
100
AcDbLine
 62
7
  6
CONTINUOUS
 10
148.4453324052
 20
138.8134285435
 11
146.9181285395
 21
139.6952169153
  0
LINE
  5
51E
100
AcDbEntity
  8
ASSI
100
AcDbLine
 62
7
  6
CONTINUOUS
 10
139.268989623
 20
144.1117338594
 11
137.7417857573
 21
144.9935222311
  0
LINE
  5
51F
100
AcDbEntity
  8
ASSI
100
AcDbLine
 62
250
  6
CONTINUOUS
 10
141.3230203775
 20
143.0748051382
 11
145.1700018478
 21
140.8536062513
  0
LINE
  5
520
100
AcDbEntity
  8
DRAFT
100
AcDbLine
 62
7
  6
CONTINUOUS
 10
147.4223851863
 20
140.0499526212
 11
147.2993692088
 21
140.1209805049
  0
LWPOLYLINE
  5
521
100
AcDbEntity
  8
RACCORDO
100
AcDbPolyline
 62
250
  6
CONTINUOUS
 90
30
 70
0
 10
147.4361604499
 20
137.5594678032
 10
147.4410061387
 20
137.5565533393
 10
147.4460277141
 20
137.5533944293
 10
147.4512378972
 20
137.5499629983
 10
147.4566080897
 20
137.5462615264
 10
147.4620696438
 20
137.5423313266
 10
147.4675610554
 20
137.5382089332
 10
147.4731264492
 20
137.5338557748
 10
147.4788531344
 20
137.5291992266
 10
147.484723687
 20
137.5242271534
 10
147.4907256844
 20
137.5189318824
 10
147.496944531
 20
137.5132303067
 10
147.503371135
 20
137.507088967
 10
147.5099619206
 20
137.5005115892
 10
147.5167391876
 20
137.493461314
 10
147.5236814315
 20
137.4859109082
 10
147.5307306488
 20
137.4778699183
 10
147.5378470204
 20
137.4693604072
 10
147.5449792887
 20
137.4603979589
 10
147.5520790148
 20
137.4509837059
 10
147.5591047291
 20
137.4411275674
 10
147.5659878298
 20
137.4308690123
 10
147.5726725599
 20
137.4202267047
 10
147.57912234
 20
137.4091899703
 10
147.5852579743
 20
137.397820669
 10
147.5909976106
 20
137.3861722062
 10
147.5962747203
 20
137.3742396562
 10
147.600992222
 20
137.3620904963
 10
147.6050388807
 20
137.3498633012
 10
147.6083111917
 20
137.3376866577
  0
LWPOLYLINE
  5
522
100
AcDbEntity
  8
ASSI
100
AcDbPolyline
 62
250
  6
CONTINUOUS
 90
16
 70
0
 10
139.171452934
 20
144.1032258282
 10
139.1861548743
 20
144.0941522478
 10
139.2007517886
 20
144.0833863937
 10
139.2150849306
 20
144.0710176091
 10
139.2290032142
 20
144.0571459166
 10
139.2423374924
 20
144.0419082853
 10
139.2549071778
 20
144.0254857001
 10
139.2665757204
 20
144.0080327927
 10
139.2771920094
 20
143.9897497799
 10
139.2865857867
 20
143.9709234767
 10
139.2946422077
 20
143.9518073
 10
139.3012999094
 20
143.9325738053
 10
139.3065000509
 20
143.9134008223
 10
139.3101858104
 20
143.8944887481
 10
139.3123116369
 20
143.8760584457
 10
139.3128527511
 20
143.8583141611
  0
LWPOLYLINE
  5
523
100
AcDbEntity
  8
RACCORDO
100
AcDbPolyline
 62
250
  6
CONTINUOUS
 90
25
 70
0
 10
135.9068466551
 20
144.2163130925
 10
135.9140110273
 20
144.2118504971
 10
135.9212656532
 20
144.2068843167
 10
135.9285891586
 20
144.2014078224
 10
135.9359259078
 20
144.1954440366
 10
135.9432843461
 20
144.1889670442
 10
135.9507324518
 20
144.1818838889
 10
135.9582772549
 20
144.1741384886
 10
135.9658374789
 20
144.1657622742
 10
135.9733413805
 20
144.1567887069
 10
135.9807457106
 20
144.1472258921
 10
135.9880053418
 20
144.1370857387
 10
135.9950472581
 20
144.1264243829
 10
136.0018221905
 20
144.1152738789
 10
136.0082844839
 20
144.1036634376
 10
136.0143706362
 20
144.0916589103
 10
136.0200056795
 20
144.0793708309
 10
136.0251758852
 20
144.066787264
 10
136.0298903029
 20
144.0537960486
 10
136.0340710375
 20
144.0404844727
 10
136.0376557529
 20
144.0268991751
 10
136.0406141741
 20
144.0128841474
 10
136.0428403548
 20
143.9984694186
 10
136.0441971832
 20
143.9838661081
 10
136.0445657985
 20
143.9692265034
  0
LWPOLYLINE
  5
524
100
AcDbEntity
  8
ASSI
100
AcDbPolyline
 62
250
  6
CONTINUOUS
 90
3
 70
0
 10
142.7731208679
 20
143.7170538252
 10
142.7940802068
 20
143.6986006224
 10
142.8182799299
 20
143.6806010004
  0
LWPOLYLINE
  5
525
100
AcDbEntity
  8
ASSI
100
AcDbPolyline
 62
250
  6
CONTINUOUS
 90
7
 70
0
 10
148.0288167145
 20
141.6957445457
 10
148.0235455612
 20
141.7016820713
 10
148.0180920121
 20
141.7068519615
 10
148.0125877959
 20
141.7111791343
 10
148.0071181205
 20
141.7146716494
 10
148.0017298784
 20
141.7174157209
 10
147.9964786876
 20
141.7194591988
  0
LWPOLYLINE
  5
526
100
AcDbEntity
  8
RACCORDO
100
AcDbPolyline
 62
7
  6
CONTINUOUS
 90
10
 70
0
 10
150.2990594241
 20
137.5671825816
 10
150.2925102512
 20
137.5765730097
 10
150.2834052177
 20
137.5872056552
 10
150.2724693943
 20
137.5978573739
 10
150.2597150022
 20
137.6085196395
 10
150.245149811
 20
137.6191932952
 10
150.2287772227
 20
137.6297292227
 10
150.2105922035
 20
137.6400634239
 10
150.1906328754
 20
137.6502507559
 10
150.1689588233
 20
137.6603118788
  0
LINE
  5
527
100
AcDbEntity
  8
RACCORDO
100
AcDbLine
 62
250
  6
CONTINUOUS
 10
152.6201842583
 20
139.1395868277
 11
152.6201588006
 21
139.1396238255
  0
LWPOLYLINE
  5
528
100
AcDbEntity
  8
RACCORDO
100
AcDbPolyline
 62
7
  6
CONTINUOUS
 90
12
 70
0
 10
152.5580961525
 20
139.2383149566
 10
152.5076550416
 20
139.3140439345
 10
152.4543673891
 20
139.3874071941
 10
152.3984371716
 20
139.4580590697
 10
152.3400819344
 20
139.5256694619
 10
152.2795253428
 20
139.5899298553
 10
152.216963887
 20
139.6505613048
 10
152.1525970644
 20
139.7072988418
 10
152.0866207766
 20
139.7598702845
 10
152.0192435828
 20
139.8080122018
 10
151.950717183
 20
139.8514451584
 10
151.9365846863
 20
139.8597205351
  0
LWPOLYLINE
  5
529
100
AcDbEntity
  8
RACCORDO
100
AcDbPolyline
 62
250
  6
CONTINUOUS
 90
11
 70
0
 10
152.4909157612
 20
139.192051824
 10
152.4462801387
 20
139.260425615
 10
152.3995349788
 20
139.3269379022
 10
152.3508364663
 20
139.3913572258
 10
152.3004640296
 20
139.4533195593
 10
152.2484790323
 20
139.5127592158
 10
152.1946887288
 20
139.5698481732
 10
152.1392549634
 20
139.6243172515
 10
152.0823411729
 20
139.6759133288
 10
152.0237221891
 20
139.7247076843
 10
151.9634411078
 20
139.7704664924
  0
LWPOLYLINE
  5
52A
100
AcDbEntity
  8
ASSI
100
AcDbPolyline
 62
7
  6
CONTINUOUS
 90
10
 70
0
 10
150.4916278317
 20
143.1472824423
 10
150.503330894
 20
143.128807822
 10
150.5136375642
 20
143.1099174686
 10
150.5225396901
 20
143.0906913317
 10
150.5300204964
 20
143.0712578914
 10
150.5361100737
 20
143.051652839
 10
150.540851503
 20
143.0318157429
 10
150.5442429809
 20
143.0117803928
 10
150.546271327
 20
142.9916773547
 10
150.5469443874
 20
142.9715904262
  0
LWPOLYLINE
  5
52B
100
AcDbEntity
  8
ASSI
100
AcDbPolyline
 62
250
  6
CONTINUOUS
 90
13
 70
0
 10
151.7069633777
 20
138.7497717104
 10
151.6623324786
 20
138.8203197935
 10
151.6154703687
 20
138.88884648
 10
151.5665422341
 20
138.9551047524
 10
151.5157179809
 20
139.018854282
 10
151.4631797366
 20
139.0798666972
 10
151.4091211967
 20
139.1379263891
 10
151.353734641
 20
139.1928230752
 10
151.2972147906
 20
139.2443597336
 10
151.2397660199
 20
139.2923570561
 10
151.1815930545
 20
139.336643338
 10
151.1229004424
 20
139.3770557621
 10
151.0638962093
 20
139.4134476846
  0
LINE
  5
52C
100
AcDbEntity
  8
RACCORDO
100
AcDbLine
 62
250
  6
CONTINUOUS
 10
152.5466995406
 20
139.1032714344
 11
152.4909157612
 21
139.192051824
  0
LINE
  5
52D
100
AcDbEntity
  8
RACCORDO
100
AcDbLine
 62
7
  6
CONTINUOUS
 10
152.6201842826
 20
139.1395867889
 11
152.5580961525
 21
139.2383149566
  0
LWPOLYLINE
  5
52E
100
AcDbEntity
  8
ASSI
100
AcDbPolyline
 62
250
  6
CONTINUOUS
 90
16
 70
0
 10
150.3262128088
 20
143.1981584591
 10
150.3160840348
 20
143.2149434569
 10
150.308237192
 20
143.2319517649
 10
150.3026722802
 20
143.2491833832
 10
150.2993720798
 20
143.2667434584
 10
150.2983538105
 20
143.2845268438
 10
150.2996691319
 20
143.3022180993
 10
150.3033790636
 20
143.3198321549
 10
150.309422586
 20
143.3373540805
 10
150.3176682997
 20
143.3544236451
 10
150.3281629671
 20
143.3710128721
 10
150.3408598257
 20
143.3871497381
 10
150.3554871889
 20
143.4025579422
 10
150.3719544942
 20
143.417145384
 10
150.390352304
 20
143.4310041639
 10
150.4106806184
 20
143.4441342819
  0
LWPOLYLINE
  5
52F
100
AcDbEntity
  8
RACCORDO
100
AcDbPolyline
 62
250
  6
CONTINUOUS
 90
13
 70
0
 10
152.5466994423
 20
139.1032715913
 10
152.5599835546
 20
139.0797622985
 10
152.5719327537
 20
139.0555223003
 10
152.581956836
 20
139.0309286819
 10
152.5891843874
 20
139.0062673149
 10
152.5935461664
 20
138.9820659851
 10
152.5956355041
 20
138.9589860123
 10
152.5950407941
 20
138.9371035601
 10
152.5914004722
 20
138.9169028855
 10
152.5854862349
 20
138.8992732649
 10
152.5774985744
 20
138.8843358939
 10
152.5668709901
 20
138.8717768496
 10
152.5544363657
 20
138.8623541375
  0
LWPOLYLINE
  5
530
100
AcDbEntity
  8
RACCORDO
100
AcDbPolyline
 62
250
  6
CONTINUOUS
 90
9
 70
0
 10
150.5086943847
 20
146.4049402715
 10
150.5163859953
 20
146.3864245636
 10
150.5227807077
 20
146.3672552718
 10
150.5278128918
 20
146.3476291315
 10
150.5314309049
 20
146.3277475527
 10
150.5335976141
 20
146.3078145799
 10
150.5342907829
 20
146.2880347813
 10
150.5335032973
 20
146.2686111497
 10
150.5312432386
 20
146.2497430243
  0
LWPOLYLINE
  5
531
100
AcDbEntity
  8
ASSI
100
AcDbPolyline
 62
250
  6
CONTINUOUS
 90
12
 70
0
 10
147.5170631003
 20
146.0772323028
 10
147.5100282668
 20
146.0752394211
 10
147.5029276917
 20
146.0730553105
 10
147.4957640979
 20
146.0706791666
 10
147.4885763959
 20
146.0681232899
 10
147.4813315821
 20
146.0653759249
 10
147.4739234681
 20
146.0623919116
 10
147.46634487
 20
146.0591578474
 10
147.4586074167
 20
146.0556689133
 10
147.4506319675
 20
146.0518781407
 10
147.4423940135
 20
146.0477568955
 10
147.4339243328
 20
146.0433019953
  0
LWPOLYLINE
  5
532
100
AcDbEntity
  8
ASSI
100
AcDbPolyline
 62
250
  6
CONTINUOUS
 90
13
 70
0
 10
147.9024841754
 20
145.8546950045
 10
147.8953436333
 20
145.8527393823
 10
147.8881598604
 20
145.850586876
 10
147.880935747
 20
145.848237484
 10
147.8737136868
 20
145.8457057894
 10
147.8664574777
 20
145.8429795311
 10
147.8590509254
 20
145.8400093337
 10
147.8514840041
 20
145.8367812619
 10
147.8437711266
 20
145.8332908315
 10
147.8358314424
 20
145.8294869639
 10
147.8276398379
 20
145.8253391978
 10
147.8192276281
 20
145.8208452126
 10
147.8105990093
 20
145.8159893824
  0
LINE
  5
533
100
AcDbEntity
  8
ASSI
100
AcDbLine
 62
250
  6
CONTINUOUS
 10
149.0295788377
 20
146.490196741
 11
147.5170631003
 21
146.0772323028
  0
LINE
  5
534
100
AcDbEntity
  8
ASSI
100
AcDbLine
 62
7
  6
CONTINUOUS
 10
148.9402981853
 20
146.5042708041
 11
147.4277824477
 21
146.091306366
  0
LWPOLYLINE
  5
535
100
AcDbEntity
  8
ASSI
100
AcDbPolyline
 62
250
  6
CONTINUOUS
 90
13
 70
0
 10
148.0071091782
 20
145.6028343482
 10
148.0027990027
 20
145.6016741175
 10
147.9984682506
 20
145.6003947769
 10
147.994116922
 20
145.5989963263
 10
147.9897672212
 20
145.5974903891
 10
147.9853969439
 20
145.595865342
 10
147.980939477
 20
145.5940863146
 10
147.9763875761
 20
145.5921568821
 10
147.9717484856
 20
145.5900734694
 10
147.9669773259
 20
145.5877904808
 10
147.9620591373
 20
145.5852927178
 10
147.9570088795
 20
145.5825953789
 10
147.9518265525
 20
145.5796984642
  0
LINE
  5
536
100
AcDbEntity
  8
ASSI
100
AcDbLine
 62
250
  6
CONTINUOUS
 10
149.0347390855
 20
146.4915406317
 11
149.0295788377
 21
146.490196741
  0
LINE
  5
537
100
AcDbEntity
  8
RACCORDO
100
AcDbLine
 62
250
  6
CONTINUOUS
 10
142.0832705361
 20
145.2875940484
 11
142.033894156
 21
145.2748656493
  0
LINE
  5
538
100
AcDbEntity
  8
RACCORDO
100
AcDbLine
 62
250
  6
CONTINUOUS
 10
150.5312432386
 20
146.2497430243
 11
148.0071091782
 21
145.6028343482
  0
LINE
  5
539
100
AcDbEntity
  8
RACCORDO
100
AcDbLine
 62
250
  6
CONTINUOUS
 10
150.4266182358
 20
146.5016036806
 11
147.9024841754
 21
145.8546950045
  0
LWPOLYLINE
  5
53A
100
AcDbEntity
  8
RACCORDO
100
AcDbPolyline
 62
250
  6
CONTINUOUS
 90
6
 70
0
 10
153.3113648731
 20
144.8359871266
 10
153.3257223502
 20
144.8388710287
 10
153.3395548127
 20
144.8396815153
 10
153.3526949245
 20
144.8383831945
 10
153.364969159
 20
144.8349691136
 10
153.3747671647
 20
144.8303256241
  0
LWPOLYLINE
  5
53B
100
AcDbEntity
  8
RACCORDO
100
AcDbPolyline
 62
250
  6
CONTINUOUS
 90
6
 70
0
 10
153.4948187939
 20
144.730063132
 10
153.5093678072
 20
144.7329720076
 10
153.5233483057
 20
144.7337508185
 10
153.5365911545
 20
144.7323759345
 10
153.5489429623
 20
144.7288456944
 10
153.5581918155
 20
144.7244185197
  0
LWPOLYLINE
  5
53C
100
AcDbEntity
  8
ASSI
100
AcDbPolyline
 62
250
  6
CONTINUOUS
 90
6
 70
0
 10
150.7666049204
 20
144.1624409151
 10
150.7830113057
 20
144.1656210791
 10
150.8013823642
 20
144.1660554579
 10
150.820060435
 20
144.1633451174
 10
150.8387461517
 20
144.1575334982
 10
150.8571400257
 20
144.1487137471
  0
LWPOLYLINE
  5
53D
100
AcDbEntity
  8
ASSI
100
AcDbPolyline
 62
250
  6
CONTINUOUS
 90
3
 70
0
 10
142.0950681853
 20
144.161732396
 10
142.1030323182
 20
144.1627374689
 10
142.1106139576
 20
144.1634542771
  0
LWPOLYLINE
  5
53E
100
AcDbEntity
  8
ASSI
100
AcDbPolyline
 62
250
  6
CONTINUOUS
 90
7
 70
0
 10
144.0618973581
 20
144.2682278581
 10
144.1049632539
 20
144.271944644
 10
144.1497691761
 20
144.2784590729
 10
144.1962540791
 20
144.2878868089
 10
144.244219845
 20
144.3003142511
 10
144.2937097203
 20
144.3158537172
 10
144.3450205755
 20
144.3347126072
  0
LWPOLYLINE
  5
53F
100
AcDbEntity
  8
ASSI
100
AcDbPolyline
 62
250
  6
CONTINUOUS
 90
9
 70
0
 10
147.4578836863
 20
142.3074279139
 10
147.4924829437
 20
142.3102582639
 10
147.527081869
 20
142.3147861231
 10
147.5616068934
 20
142.3209109547
 10
147.5955946061
 20
142.3284372499
 10
147.6293677311
 20
142.3373243152
 10
147.6640738313
 20
142.3478666069
 10
147.699811629
 20
142.360180112
 10
147.7364257292
 20
142.3742825908
  0
LWPOLYLINE
  5
540
100
AcDbEntity
  8
ASSI
100
AcDbPolyline
 62
7
  6
CONTINUOUS
 90
7
 70
0
 10
142.0471165376
 20
144.1811089155
 10
142.0306257995
 20
144.1798117623
 10
141.993799056
 20
144.1740631504
 10
141.9555797231
 20
144.164014511
 10
141.9177444819
 20
144.150009731
 10
141.8808631044
 20
144.1324454359
 10
141.871091259
 20
144.1271346272
  0
LINE
  5
541
100
AcDbEntity
  8
ASSI
100
AcDbLine
 62
250
  6
CONTINUOUS
 10
142.1106139576
 20
144.1634542771
 11
142.1178176862
 21
144.163911627
  0
LWPOLYLINE
  5
542
100
AcDbEntity
  8
ASSI
100
AcDbPolyline
 62
250
  6
CONTINUOUS
 90
16
 70
0
 10
145.9334055261
 20
141.760906632
 10
145.9262548828
 20
141.7604953017
 10
145.9192518448
 20
141.7598019596
 10
145.912396412
 20
141.7588266058
 10
145.9056803325
 20
141.7575416021
 10
145.8991118583
 20
141.7559745866
 10
145.8927157448
 20
141.7542084736
 10
145.8864942034
 20
141.7522462986
 10
145.8804450227
 20
141.7500850261
 10
145.8745863235
 20
141.7477984637
 10
145.8689198433
 20
141.7453892211
 10
145.8634438446
 20
141.7428546885
 10
145.8581712348
 20
141.7402608443
 10
145.8531063163
 20
141.7376296813
 10
145.8482447868
 20
141.7349392066
 10
145.8435866461
 20
141.7321894204
  0
LWPOLYLINE
  5
543
100
AcDbEntity
  8
ASSI
100
AcDbPolyline
 62
250
  6
CONTINUOUS
 90
16
 70
0
 10
145.8498428827
 20
142.0090870518
 10
145.8380651058
 20
142.0084263332
 10
145.8264657232
 20
142.0072069976
 10
145.815072798
 20
142.0054788206
 10
145.8039175119
 20
142.003290377
 10
145.7930172358
 20
142.0006896296
 10
145.782375278
 20
141.9977221208
 10
145.772007158
 20
141.9944303752
 10
145.7619315899
 20
141.9908567685
 10
145.7521532155
 20
141.9870424434
 10
145.7426823623
 20
141.9830249245
 10
145.7335317638
 20
141.9788415341
 10
145.7247071232
 20
141.97453033
 10
145.7162150508
 20
141.9701258705
 10
145.7080631707
 20
141.9656591139
 10
145.700256755
 20
141.9611603618
  0
LINE
  5
544
100
AcDbEntity
  8
ASSI
100
AcDbLine
 62
250
  6
CONTINUOUS
 10
145.9517809542
 20
142.2254977381
 11
147.4578836863
 21
142.3074279139
  0
LINE
  5
545
100
AcDbEntity
  8
ASSI
100
AcDbLine
 62
7
  6
CONTINUOUS
 10
145.8807170631
 20
142.2426746108
 11
147.3872527412
 21
142.3246291124
  0
LINE
  5
546
100
AcDbEntity
  8
ASSI
100
AcDbLine
 62
7
  6
CONTINUOUS
 10
147.3872527412
 20
142.3246291124
 11
147.3873930018
 21
142.3246366612
  0
LINE
  5
547
100
AcDbEntity
  8
ASSI
100
AcDbLine
 62
250
  6
CONTINUOUS
 10
142.1178176862
 20
144.163911627
 11
144.0619345096
 21
144.2682064073
  0
LINE
  5
548
100
AcDbEntity
  8
ASSI
100
AcDbLine
 62
7
  6
CONTINUOUS
 10
142.0471165375
 20
144.1811089155
 11
143.991448414
 21
144.2854154329
  0
LINE
  5
549
100
AcDbEntity
  8
ASSI
100
AcDbLine
 62
7
  6
CONTINUOUS
 10
143.991448414
 20
144.2854154329
 11
143.9915888214
 21
144.2854228837
  0
LWPOLYLINE
  5
54A
100
AcDbEntity
  8
ASSI
100
AcDbPolyline
 62
250
  6
CONTINUOUS
 90
16
 70
0
 10
142.9091058015
 20
143.9823002376
 10
142.8719234418
 20
143.9804254854
 10
142.8382174015
 20
143.9772383621
 10
142.8079876806
 20
143.9727388677
 10
142.7813155373
 20
143.9668870992
 10
142.7581197133
 20
143.9597229596
 10
142.738156434
 20
143.951366158
 10
142.7212940841
 20
143.9419010318
 10
142.707664279
 20
143.9312432437
 10
142.6974180896
 20
143.91925949
 10
142.6904224044
 20
143.9058517352
 10
142.6868103349
 20
143.8911180149
 10
142.6871322867
 20
143.8752191323
 10
142.6915717283
 20
143.8582086885
 10
142.6999451912
 20
143.8400330825
 10
142.7122526754
 20
143.8206923143
  0
LWPOLYLINE
  5
54B
100
AcDbEntity
  8
ASSI
100
AcDbPolyline
 62
250
  6
CONTINUOUS
 90
10
 70
0
 10
145.700187117
 20
143.6879369855
 10
145.6855030672
 20
143.6872171277
 10
145.6702870481
 20
143.6855418047
 10
145.6545524926
 20
143.6828565843
 10
145.6383961929
 20
143.6791337083
 10
145.6217626281
 20
143.674306752
 10
145.6044348051
 20
143.6682195915
 10
145.5863566389
 20
143.6607373203
 10
145.5676431184
 20
143.6517988808
 10
145.5483385723
 20
143.6413165867
  0
LWPOLYLINE
  5
54C
100
AcDbEntity
  8
ASSI
100
AcDbPolyline
 62
250
  6
CONTINUOUS
 90
10
 70
0
 10
145.6187268216
 20
143.9434373821
 10
145.5983142669
 20
143.9424455843
 10
145.5771859998
 20
143.9399777948
 10
145.5553420202
 20
143.9360340137
 10
145.5328614818
 20
143.9307537964
 10
145.5096652309
 20
143.9239975874
 10
145.4855158064
 20
143.9153467205
 10
145.4603340543
 20
143.90466164
 10
145.4341991286
 20
143.8920819015
 10
145.4071110291
 20
143.877607505
  0
LWPOLYLINE
  5
54D
100
AcDbEntity
  8
ASSI
100
AcDbPolyline
 62
7
  6
CONTINUOUS
 90
17
 70
0
 10
145.8807170631
 20
142.2426746108
 10
145.8637746994
 20
142.2419975476
 10
145.832740696
 20
142.2417969303
 10
145.7985568805
 20
142.2428500724
 10
145.7616515938
 20
142.2452273771
 10
145.7225830566
 20
142.2489400972
 10
145.6816264258
 20
142.2539843824
 10
145.6389908092
 20
142.2603611616
 10
145.5950199253
 20
142.2680434315
 10
145.5499981207
 20
142.2769942758
 10
145.5041735906
 20
142.2871789958
 10
145.457807979
 20
142.298555368
 10
145.4111999095
 20
142.311060548
 10
145.3646322349
 20
142.3246284391
 10
145.3183812478
 20
142.3391919683
 10
145.2728081382
 20
142.354644442
 10
145.2628826895
 20
142.3581602227
  0
LINE
  5
54E
100
AcDbEntity
  8
ASSI
100
AcDbLine
 62
250
  6
CONTINUOUS
 10
145.909504584
 20
142.2244309054
 11
145.9517809542
 21
142.2254977381
  0
LINE
  5
54F
100
AcDbEntity
  8
ASSI
100
AcDbLine
 62
250
  6
CONTINUOUS
 10
147.6513398484
 20
141.8037519175
 11
145.9334055261
 21
141.760906632
  0
LINE
  5
550
100
AcDbEntity
  8
ASSI
100
AcDbLine
 62
250
  6
CONTINUOUS
 10
147.8866144591
 20
142.059884139
 11
145.8498428827
 21
142.0090870518
  0
LINE
  5
551
100
AcDbEntity
  8
ASSI
100
AcDbLine
 62
250
  6
CONTINUOUS
 10
146.7148311765
 20
143.7125482483
 11
145.700187117
 21
143.6879369855
  0
LINE
  5
552
100
AcDbEntity
  8
ASSI
100
AcDbLine
 62
250
  6
CONTINUOUS
 10
144.5721255778
 20
143.7651622358
 11
142.9905660969
 21
143.726799841
  0
LINE
  5
553
100
AcDbEntity
  8
ASSI
100
AcDbLine
 62
250
  6
CONTINUOUS
 10
146.8986919497
 20
143.9744842875
 11
145.6187268216
 21
143.9434373821
  0
LINE
  5
554
100
AcDbEntity
  8
ASSI
100
AcDbLine
 62
250
  6
CONTINUOUS
 10
144.4906652823
 20
144.0206626324
 11
142.9091058015
 21
143.9823002376
  0
LWPOLYLINE
  5
555
100
AcDbEntity
  8
ASSI
100
AcDbPolyline
 62
250
  6
CONTINUOUS
 90
5
 70
0
 10
145.8811500093
 20
142.2426989366
 10
145.8938909265
 20
142.2427244583
 10
145.9136397168
 20
142.2401237583
 10
145.9330404682
 20
142.2343505478
 10
145.9517809542
 20
142.2254977381
  0
LWPOLYLINE
  5
556
100
AcDbEntity
  8
ASSI
100
AcDbPolyline
 62
250
  6
CONTINUOUS
 90
5
 70
0
 10
147.3873930018
 20
142.3246366612
 10
147.3999949045
 20
142.3246545715
 10
147.4197433367
 20
142.3220537442
 10
147.4391436645
 20
142.3162805456
 10
147.4578836863
 20
142.3074279139
  0
LWPOLYLINE
  5
557
100
AcDbEntity
  8
ASSI
100
AcDbPolyline
 62
250
  6
CONTINUOUS
 90
5
 70
0
 10
142.047336572
 20
144.1811209197
 10
142.0614978139
 20
144.1810548981
 10
142.0807135293
 20
144.1783202032
 10
142.0995829336
 20
144.1725765234
 10
142.1178176862
 20
144.163911627
  0
LWPOLYLINE
  5
558
100
AcDbEntity
  8
ASSI
100
AcDbPolyline
 62
250
  6
CONTINUOUS
 90
5
 70
0
 10
142.8971139895
 20
143.7400729157
 10
142.8800568128
 20
143.7405301126
 10
142.8652711809
 20
143.7398220912
 10
142.852821786
 20
143.7380853468
 10
142.8427120685
 20
143.7353729209
  0
LWPOLYLINE
  5
559
100
AcDbEntity
  8
ASSI
100
AcDbPolyline
 62
250
  6
CONTINUOUS
 90
3
 70
0
 10
145.8208500098
 20
142.2272200594
 10
145.8658609359
 20
142.2250050125
 10
145.909504584
 20
142.2244309054
  0
LWPOLYLINE
  5
55A
100
AcDbEntity
  8
ASSI
100
AcDbPolyline
 62
7
  6
CONTINUOUS
 90
10
 70
0
 10
149.977131831
 20
141.5657345302
 10
149.955618098
 20
141.5669806021
 10
149.9344874965
 20
141.566991501
 10
149.9137400266
 20
141.565767227
 10
149.8931384205
 20
141.5632582884
 10
149.872919946
 20
141.5595141768
 10
149.8537964062
 20
141.5546833671
 10
149.8360050688
 20
141.5488153507
 10
149.819308666
 20
141.5418606361
 10
149.803707198
 20
141.5338192233
  0
LWPOLYLINE
  5
55B
100
AcDbEntity
  8
RACCORDO
100
AcDbPolyline
 62
7
  6
CONTINUOUS
 90
9
 70
0
 10
150.7412940075
 20
140.4850419671
 10
150.7751647733
 20
140.4825931621
 10
150.8076288423
 20
140.4783086884
 10
150.8385167203
 20
140.4722609894
 10
150.8676571432
 20
140.4645331118
 10
150.8949738612
 20
140.4552898416
 10
150.9204494803
 20
140.4446794893
 10
150.9439802051
 20
140.432784592
 10
150.9487504302
 20
140.4300837216
  0
LWPOLYLINE
  5
55C
100
AcDbEntity
  8
ASSI
100
AcDbPolyline
 62
250
  6
CONTINUOUS
 90
24
 70
0
 10
149.9748905042
 20
142.9667710679
 10
150.002735904
 20
142.9635709254
 10
150.030736584
 20
142.9619212213
 10
150.0591488999
 20
142.9618339475
 10
150.0877164959
 20
142.9632971121
 10
150.1156703042
 20
142.9662747395
 10
150.1429887451
 20
142.9708061527
 10
150.1696933983
 20
142.9768520287
 10
150.1950799347
 20
142.9842584234
 10
150.2191213193
 20
142.9930644276
 10
150.2418445872
 20
143.0032309506
 10
150.2626265146
 20
143.0144867762
 10
150.281412971
 20
143.0268649254
 10
150.2982580869
 20
143.0403323772
 10
150.3127010303
 20
143.0545188525
 10
150.3246706175
 20
143.0694406893
 10
150.3342380321
 20
143.0850815497
 10
150.341155993
 20
143.1010221411
 10
150.3453538456
 20
143.1172694769
 10
150.3469022445
 20
143.1338165437
 10
150.3457658721
 20
143.1502230086
 10
150.3419329557
 20
143.166342094
 10
150.3354152679
 20
143.1823205775
 10
150.3262128088
 20
143.1981584591
  0
LWPOLYLINE
  5
55D
100
AcDbEntity
  8
ASSI
100
AcDbPolyline
 62
250
  6
CONTINUOUS
 90
16
 70
0
 10
145.7071912201
 20
141.6506274127
 10
145.6934281476
 20
141.6522902622
 10
145.678294317
 20
141.6546303494
 10
145.6619498356
 20
141.6576229181
 10
145.6445672911
 20
141.6612363809
 10
145.6263308783
 20
141.665432459
 10
145.607434594
 20
141.6701664836
 10
145.5880791579
 20
141.675388087
 10
145.5684686539
 20
141.6810421324
 10
145.5488093878
 20
141.6870691099
 10
145.5293015839
 20
141.6934078513
 10
145.5101595295
 20
141.699988944
 10
145.4916065028
 20
141.7067350016
 10
145.4738427367
 20
141.7135717178
 10
145.4570452065
 20
141.7204294187
 10
145.4413868419
 20
141.7272360925
  0
LWPOLYLINE
  5
55E
100
AcDbEntity
  8
ASSI
100
AcDbPolyline
 62
250
  6
CONTINUOUS
 90
13
 70
0
 10
145.435806226
 20
140.7769975715
 10
145.418396563
 20
140.7791806882
 10
145.3989096308
 20
140.7824112412
 10
145.3776668974
 20
140.786635938
 10
145.3550187956
 20
140.7917850859
 10
145.3313389435
 20
140.7977737418
 10
145.3070179808
 20
140.804503113
 10
145.2824571227
 20
140.8118621876
 10
145.2580615429
 20
140.8197295653
 10
145.2342336907
 20
140.8279754599
 10
145.2113666486
 20
140.836463841
 10
145.1898376479
 20
140.8450546784
 10
145.1700018478
 20
140.8536062513
  0
LWPOLYLINE
  5
55F
100
AcDbEntity
  8
ASSI
100
AcDbPolyline
 62
250
  6
CONTINUOUS
 90
4
 70
0
 10
145.2628530355
 20
142.3581704498
 10
145.2622397237
 20
142.3582568304
 10
145.2593161831
 20
142.3567269952
 10
145.2554078939
 20
142.3523063644
  0
LWPOLYLINE
  5
560
100
AcDbEntity
  8
ASSI
100
AcDbPolyline
 62
250
  6
CONTINUOUS
 90
24
 70
0
 10
149.8807197197
 20
142.6993172709
 10
149.9211504818
 20
142.6921826784
 10
149.962480594
 20
142.6870456652
 10
150.0044145736
 20
142.6839429586
 10
150.0466526212
 20
142.6828967418
 10
150.0888927619
 20
142.6839144958
 10
150.1308330045
 20
142.6869889451
 10
150.1721735089
 20
142.692098111
 10
150.2126187113
 20
142.6992054669
 10
150.2518794377
 20
142.7082601961
 10
150.2896749897
 20
142.7191975579
 10
150.3257351672
 20
142.7319393582
 10
150.3598021804
 20
142.7463945068
 10
150.3916324733
 20
142.7624596603
 10
150.4209984775
 20
142.7800199637
 10
150.4476902523
 20
142.7989498789
 10
150.4715169755
 20
142.819114081
 10
150.492308284
 20
142.8403684017
 10
150.5099155111
 20
142.8625608622
 10
150.5242127769
 20
142.8855327886
 10
150.5350978809
 20
142.9091199549
 10
150.5424930097
 20
142.9331537329
 10
150.546345295
 20
142.957462265
 10
150.5469443916
 20
142.9715904262
  0
LWPOLYLINE
  5
561
100
AcDbEntity
  8
ASSI
100
AcDbPolyline
 62
250
  6
CONTINUOUS
 90
27
 70
0
 10
147.9777338025
 20
141.8672582321
 10
147.9702292141
 20
141.868690871
 10
147.9627636247
 20
141.8699142652
 10
147.9553404092
 20
141.8709281677
 10
147.9480120694
 20
141.8717251614
 10
147.9407313901
 20
141.8723123829
 10
147.9333511904
 20
141.8727115135
 10
147.9258377994
 20
141.8729331761
 10
147.9182269335
 20
141.8729666904
 10
147.9104747069
 20
141.8728018156
 10
147.9025818422
 20
141.8724411715
 10
147.8945473192
 20
141.8718821445
 10
147.8863239454
 20
141.8711066611
 10
147.8779045973
 20
141.8701147956
 10
147.8692931532
 20
141.8689065806
 10
147.8604578934
 20
141.8674639351
 10
147.85138944
 20
141.8657835351
 10
147.8420901804
 20
141.8638691619
 10
147.8325448134
 20
141.8617135473
 10
147.8227468461
 20
141.8593122327
 10
147.8126917654
 20
141.8566710044
 10
147.8023663644
 20
141.8537982524
 10
147.7917676795
 20
141.8506910825
 10
147.7808844447
 20
141.8473552728
 10
147.7696910642
 20
141.8438125922
 10
147.7581894864
 20
141.8400645761
 10
147.7463619674
 20
141.8361147044
  0
LWPOLYLINE
  5
562
100
AcDbEntity
  8
ASSI
100
AcDbPolyline
 62
250
  6
CONTINUOUS
 90
5
 70
0
 10
142.9905660969
 20
143.726799841
 10
142.9634270124
 20
143.7321099831
 10
142.9387812253
 20
143.7359907986
 10
142.9166503794
 20
143.7385768067
 10
142.8971139895
 20
143.7400729157
  0
LWPOLYLINE
  5
563
100
AcDbEntity
  8
ASSI
100
AcDbPolyline
 62
250
  6
CONTINUOUS
 90
21
 70
0
 10
147.9929633715
 20
141.7204652032
 10
147.9894679734
 20
141.7211924889
 10
147.9859967859
 20
141.7216506282
 10
147.9825738407
 20
141.7218575311
 10
147.9791835816
 20
141.7218150178
 10
147.9757610343
 20
141.7215053429
 10
147.9722742734
 20
141.7209444123
 10
147.9687394033
 20
141.7201286309
 10
147.9651488798
 20
141.7190091737
 10
147.9614837377
 20
141.7176028018
 10
147.9577346258
 20
141.7159092694
 10
147.9538952261
 20
141.7138579059
 10
147.9499331166
 20
141.7114678193
 10
147.9458322258
 20
141.7087436888
 10
147.9415927183
 20
141.7056000235
 10
147.9371682822
 20
141.7020589676
 10
147.9325293977
 20
141.6981346874
 10
147.9276781692
 20
141.6937396145
 10
147.9225518096
 20
141.6889016886
 10
147.9171016809
 20
141.6836466694
 10
147.9051257617
 20
141.6716825568
  0
LWPOLYLINE
  5
564
100
AcDbEntity
  8
RACCORDO
100
AcDbPolyline
 62
250
  6
CONTINUOUS
 90
6
 70
0
 10
152.6201588006
 20
139.1396238255
 10
152.6187028597
 20
139.1399532501
 10
152.6154672327
 20
139.1390122371
 10
152.610293937
 20
139.1371083895
 10
152.6034203027
 20
139.1340941031
 10
152.5849973175
 20
139.1246056113
  0
LINE
  5
565
100
AcDbEntity
  8
ASSI
100
AcDbLine
 62
250
  6
CONTINUOUS
 10
145.2125366771
 20
142.3639842392
 11
145.2554078936
 21
142.3523063645
  0
LWPOLYLINE
  5
566
100
AcDbEntity
  8
ASSI
100
AcDbPolyline
 62
250
  6
CONTINUOUS
 90
3
 70
0
 10
145.0898565698
 20
142.3970039521
 10
145.1297755924
 20
142.3857704109
 10
145.2125366771
 20
142.3639842392
  0
LINE
  5
567
100
AcDbEntity
  8
ASSI
100
AcDbLine
 62
250
  6
CONTINUOUS
 10
147.9964786876
 20
141.7194591988
 11
147.9929633715
 21
141.7204652032
  0
LWPOLYLINE
  5
568
100
AcDbEntity
  8
ASSI
100
AcDbPolyline
 62
250
  6
CONTINUOUS
 90
11
 70
0
 10
145.3448852292
 20
142.3223251147
 10
145.3906733539
 20
142.3085073173
 10
145.437253003
 20
142.2954087855
 10
145.48453229
 20
142.2830921386
 10
145.5322355555
 20
142.2717452347
 10
145.5804915565
 20
142.2613263995
 10
145.629171536
 20
142.2518773072
 10
145.6776135641
 20
142.2437108389
 10
145.7259734396
 20
142.2368118498
 10
145.7740953637
 20
142.2311954847
 10
145.8208500098
 20
142.2272200594
  0
LINE
  5
569
100
AcDbEntity
  8
ASSI
100
AcDbLine
 62
250
  6
CONTINUOUS
 10
145.2997967425
 20
142.3369247971
 11
145.3448852292
 21
142.3223251147
  0
LWPOLYLINE
  5
56A
100
AcDbEntity
  8
ASSI
100
AcDbPolyline
 62
250
  6
CONTINUOUS
 90
3
 70
0
 10
145.0152331489
 20
142.4213052411
 10
145.0512941197
 20
142.4088906963
 10
145.0898565698
 20
142.3970039521
  0
LINE
  5
56B
100
AcDbEntity
  8
ASSI
100
AcDbLine
 62
7
  6
CONTINUOUS
 10
145.2628826895
 20
142.3581602227
 11
145.2628530355
 21
142.3581704498
  0
LINE
  5
56C
100
AcDbEntity
  8
ASSI
100
AcDbLine
 62
250
  6
CONTINUOUS
 10
145.2554078936
 20
142.3523063645
 11
145.2997967425
 21
142.3369247971
  0
LINE
  5
56D
100
AcDbEntity
  8
ASSI
100
AcDbLine
 62
7
  6
CONTINUOUS
 10
145.2628530362
 20
142.3581704496
 11
145.1964361377
 21
142.3814647187
  0
LWPOLYLINE
  5
56E
100
AcDbEntity
  8
ASSI
100
AcDbPolyline
 62
7
  6
CONTINUOUS
 90
8
 70
0
 10
145.1964361377
 20
142.3814647187
 10
145.1617068507
 20
142.3937677818
 10
145.1290014899
 20
142.4058633539
 10
145.0984364494
 20
142.4178774923
 10
145.0699341265
 20
142.4299737193
 10
145.0438604916
 20
142.4420794932
 10
145.0202873633
 20
142.4540935432
 10
145.0035085849
 20
142.4634080968
  0
LWPOLYLINE
  5
56F
100
AcDbEntity
  8
ASSI
100
AcDbPolyline
 62
250
  6
CONTINUOUS
 90
8
 70
0
 10
137.7373848101
 20
144.9958488507
 10
137.7261002283
 20
145.0000998508
 10
137.7139121918
 20
145.0024246312
 10
137.7009512893
 20
145.0027982704
 10
137.6873564079
 20
145.0012167586
 10
137.6732732162
 20
144.9976970422
 10
137.6588526002
 20
144.9922768315
 10
137.6442490682
 20
144.9850141999
  0
LWPOLYLINE
  5
570
100
AcDbEntity
  8
ASSI
100
AcDbPolyline
 62
250
  6
CONTINUOUS
 90
7
 70
0
 10
145.0034255216
 20
142.4634561363
 10
144.9962245299
 20
142.4670540329
 10
144.9834061035
 20
142.4711036918
 10
144.9695372234
 20
142.4727782355
 10
144.9548000253
 20
142.4720556649
 10
144.9393880552
 20
142.4689454617
 10
144.9235037194
 20
142.4634884653
  0
LWPOLYLINE
  5
571
100
AcDbEntity
  8
ASSI
100
AcDbPolyline
 62
250
  6
CONTINUOUS
 90
7
 70
0
 10
142.9256455482
 20
143.6631402508
 10
142.9184555983
 20
143.6667317571
 10
142.9056371396
 20
143.6707814067
 10
142.8917682305
 20
143.6724559458
 10
142.877031012
 20
143.6717333826
 10
142.8616190288
 20
143.6686232067
 10
142.8457346871
 20
143.663166264
  0
LWPOLYLINE
  5
572
100
AcDbEntity
  8
ASSI
100
AcDbPolyline
 62
250
  6
CONTINUOUS
 90
4
 70
0
 10
144.9235033454
 20
142.4634886813
 10
144.9514973217
 20
142.4483879224
 10
144.9820784123
 20
142.4343615682
 10
145.0152331489
 20
142.4213052411
  0
LWPOLYLINE
  5
573
100
AcDbEntity
  8
RACCORDO
100
AcDbPolyline
 62
7
  6
CONTINUOUS
 90
13
 70
0
 10
142.7357434229
 20
145.1721710343
 10
142.6731564769
 20
145.2060465368
 10
142.6032110537
 20
145.2385972727
 10
142.5336363392
 20
145.2654069609
 10
142.4645500648
 20
145.2864552282
 10
142.3962475925
 20
145.301684913
 10
142.3292385425
 20
145.3110393464
 10
142.263677957
 20
145.314582807
 10
142.1998352772
 20
145.3123803132
 10
142.1384187077
 20
145.3045928228
 10
142.0798270338
 20
145.2915223096
 10
142.0241371359
 20
145.273451394
 10
141.9977650003
 20
145.2627733103
  0
LWPOLYLINE
  5
574
100
AcDbEntity
  8
RACCORDO
100
AcDbPolyline
 62
250
  6
CONTINUOUS
 90
11
 70
0
 10
142.6382016324
 20
145.1636659489
 10
142.5799762826
 20
145.1953575776
 10
142.5218874082
 20
145.2229964797
 10
142.4641367453
 20
145.246473406
 10
142.4069946522
 20
145.2656719502
 10
142.3505915779
 20
145.2805435695
 10
142.2949276348
 20
145.2910541226
 10
142.2402190258
 20
145.2971032661
 10
142.1866716276
 20
145.2986077026
 10
142.1342987106
 20
145.2954781602
 10
142.0832705361
 20
145.2875940484
  0
LINE
  5
575
100
AcDbEntity
  8
ASSI
100
AcDbLine
 62
7
  6
CONTINUOUS
 10
148.6009236694
 20
139.7482567122
 11
147.7806545126
 21
140.2218698429
  0
LINE
  5
576
100
AcDbEntity
  8
ASSI
100
AcDbLine
 62
250
  6
CONTINUOUS
 10
141.7048326481
 20
143.884675654
 11
145.4413868419
 21
141.7272360925
  0
LINE
  5
577
100
AcDbEntity
  8
ASSI
100
AcDbLine
 62
250
  6
CONTINUOUS
 10
141.8273071352
 20
144.0370379156
 11
145.563861329
 21
141.8795983541
  0
LINE
  5
578
100
AcDbEntity
  8
ASSI
100
AcDbLine
 62
250
  6
CONTINUOUS
 10
148.108582157
 20
140.5678896527
 11
148.22614443
 21
140.5000106697
  0
LINE
  5
579
100
AcDbEntity
  8
ASSI
100
AcDbLine
 62
250
  6
CONTINUOUS
 10
145.700256755
 20
141.9611603618
 11
141.9685675752
 21
144.1157909251
  0
LINE
  5
57A
100
AcDbEntity
  8
ASSI
100
AcDbLine
 62
250
  6
CONTINUOUS
 10
142.8457346871
 20
143.663166264
 11
144.9235033454
 21
142.4634886813
  0
LINE
  5
57B
100
AcDbEntity
  8
ASSI
100
AcDbLine
 62
7
  6
CONTINUOUS
 10
142.9256567039
 20
143.6631338111
 11
145.0034255216
 21
142.4634561363
  0
LINE
  5
57C
100
AcDbEntity
  8
ASSI
100
AcDbLine
 62
250
  6
CONTINUOUS
 10
145.8498428827
 20
142.0090870518
 11
145.2554078936
 21
142.3523063645
  0
LINE
  5
57D
100
AcDbEntity
  8
ASSI
100
AcDbLine
 62
250
  6
CONTINUOUS
 10
142.7122526754
 20
143.8206923143
 11
142.1178176862
 21
144.163911627
  0
LINE
  5
57E
100
AcDbEntity
  8
ASSI
100
AcDbLine
 62
7
  6
CONTINUOUS
 10
141.8528587448
 20
144.7317852752
 11
142.7420303909
 21
144.2183887106
  0
LINE
  5
57F
100
AcDbEntity
  8
ASSI
100
AcDbLine
 62
7
  6
CONTINUOUS
 10
148.5958337529
 20
140.8384760149
 11
151.0638962093
 21
139.4134476846
  0
LINE
  5
580
100
AcDbEntity
  8
ASSI
100
AcDbLine
 62
250
  6
CONTINUOUS
 10
147.8866144591
 20
142.059884139
 11
147.4578836863
 21
142.3074279139
  0
LINE
  5
581
100
AcDbEntity
  8
ASSI
100
AcDbLine
 62
250
  6
CONTINUOUS
 10
144.4906652823
 20
144.0206626324
 11
144.0619345096
 21
144.2682064073
  0
LINE
  5
582
100
AcDbEntity
  8
RACCORDO
100
AcDbLine
 62
250
  6
CONTINUOUS
 10
151.8391245263
 20
139.8511683846
 11
150.7412940075
 21
140.4850419671
  0
LINE
  5
583
100
AcDbEntity
  8
RACCORDO
100
AcDbLine
 62
250
  6
CONTINUOUS
 10
143.7360321512
 20
144.5297923664
 11
142.6382016324
 21
145.1636659489
  0
LINE
  5
584
100
AcDbEntity
  8
RACCORDO
100
AcDbLine
 62
7
  6
CONTINUOUS
 10
151.936661215
 20
139.859676416
 11
150.9487525732
 21
140.4300824844
  0
LINE
  5
585
100
AcDbEntity
  8
RACCORDO
100
AcDbLine
 62
7
  6
CONTINUOUS
 10
143.7236469635
 20
144.6017679116
 11
142.7357383231
 21
145.1721739791
  0
LINE
  5
586
100
AcDbEntity
  8
ASSI
100
AcDbLine
 62
250
  6
CONTINUOUS
 10
147.6868861937
 20
142.4065459924
 11
145.5483385723
 21
143.6413165867
  0
LINE
  5
587
100
AcDbEntity
  8
ASSI
100
AcDbLine
 62
250
  6
CONTINUOUS
 10
147.8047792182
 20
142.472771883
 11
145.700187117
 21
143.6879369855
  0
LINE
  5
588
100
AcDbEntity
  8
ASSI
100
AcDbLine
 62
250
  6
CONTINUOUS
 10
148.3358208646
 20
142.2034055266
 11
147.9002355827
 21
142.4549070092
  0
LINE
  5
589
100
AcDbEntity
  8
ASSI
100
AcDbLine
 62
250
  6
CONTINUOUS
 10
144.9448221021
 20
144.1613257128
 11
144.5092368203
 21
144.4128271954
  0
LINE
  5
58A
100
AcDbEntity
  8
ASSI
100
AcDbLine
 62
7
  6
CONTINUOUS
 10
148.3380298268
 20
142.775333691
 11
146.7148311765
 21
143.7125482483
  0
LWPOLYLINE
  5
58B
100
AcDbEntity
  8
ASSI
100
AcDbPolyline
 62
7
  6
CONTINUOUS
 90
11
 70
0
 10
142.925645548
 20
143.6631402509
 10
142.9040555787
 20
143.6763020285
 10
142.8860667273
 20
143.6884611405
 10
142.8706419883
 20
143.6999505224
 10
142.857345313
 20
143.7108429293
 10
142.8460513856
 20
143.7209506217
 10
142.8366159184
 20
143.7301276468
 10
142.8286547581
 20
143.7385317562
 10
142.8219752866
 20
143.7461588413
 10
142.816633275
 20
143.7527254299
 10
142.8132062862
 20
143.7572215692
  0
LINE
  5
58C
100
AcDbEntity
  8
ASSI
100
AcDbLine
 62
250
  6
CONTINUOUS
 10
142.8182799299
 20
143.6806010004
 11
142.8457346871
 21
143.663166264
  0
LWPOLYLINE
  5
58D
100
AcDbEntity
  8
RACCORDO
100
AcDbPolyline
 62
250
  6
CONTINUOUS
 90
3
 70
0
 10
151.9634411078
 20
139.7704664924
 10
151.9018339763
 20
139.8127330264
 10
151.8391245263
 20
139.8511683846
  0
LWPOLYLINE
  5
58E
100
AcDbEntity
  8
RACCORDO
100
AcDbPolyline
 62
7
  6
CONTINUOUS
 90
7
 70
0
 10
143.723655471
 20
144.6017629994
 10
143.7240726969
 20
144.6014687006
 10
143.725901583
 20
144.5987212763
 10
143.7276599015
 20
144.5936070944
 10
143.7294451131
 20
144.5860472752
 10
143.7310802968
 20
144.5760057033
 10
143.7325769308
 20
144.5633549909
  0
LWPOLYLINE
  5
58F
100
AcDbEntity
  8
ASSI
100
AcDbPolyline
 62
250
  6
CONTINUOUS
 90
10
 70
0
 10
148.0809486608
 20
141.8221179295
 10
148.0707280543
 20
141.8297541753
 10
148.0599766341
 20
141.8367756412
 10
148.0487709916
 20
141.8431363163
 10
148.0370783502
 20
141.8487599873
 10
148.0250605064
 20
141.8536721302
 10
148.0130612379
 20
141.8579835655
 10
148.0012086833
 20
141.8617153373
 10
147.9894274741
 20
141.8648114662
 10
147.9777344198
 20
141.8672620318
  0
LWPOLYLINE
  5
590
100
AcDbEntity
  8
ASSI
100
AcDbPolyline
 62
250
  6
CONTINUOUS
 90
12
 70
0
 10
150.4916278317
 20
143.1472824423
 10
150.4874488624
 20
143.153041766
 10
150.4768350893
 20
143.1649718204
 10
150.4645710691
 20
143.1754763881
 10
150.4507911711
 20
143.1844403764
 10
150.4356463705
 20
143.1917655738
 10
150.4193025977
 20
143.197371724
 10
150.4019389176
 20
143.2011974051
 10
150.3837455671
 20
143.2032007024
 10
150.3649218746
 20
143.2033596662
 10
150.3456740772
 20
143.2016725541
 10
150.3262130575
 20
143.1981578493
  0
LWPOLYLINE
  5
591
100
AcDbEntity
  8
RACCORDO
100
AcDbPolyline
 62
250
  6
CONTINUOUS
 90
4
 70
0
 10
150.4786892268
 20
146.4547106812
 10
150.4897487773
 20
146.4392594261
 10
150.4997848274
 20
146.4226123508
 10
150.5086943847
 20
146.4049402715
  0
LINE
  5
592
100
AcDbEntity
  8
ASSI
100
AcDbLine
 62
7
  6
CONTINUOUS
 10
150.49166588
 20
143.147226422
 11
150.4916278317
 21
143.1472824423
  0
LWPOLYLINE
  5
593
100
AcDbEntity
  8
RACCORDO
100
AcDbPolyline
 62
250
  6
CONTINUOUS
 90
3
 70
0
 10
153.6179693263
 20
144.5989585091
 10
153.6085811672
 20
144.6205736466
 10
153.5970944152
 20
144.6412206047
  0
LINE
  5
594
100
AcDbEntity
  8
0
100
AcDbLine
 62
250
  6
CONTINUOUS
 10
146.1049338654
 20
94.073065719
 11
148.5089871425
 21
95.3194612658
  0
LINE
  5
595
100
AcDbEntity
  8
0
100
AcDbLine
 62
7
  6
CONTINUOUS
 10
145.990893245
 20
93.8385881261
 11
148.3988712551
 21
95.0870184738
  0
LWPOLYLINE
  5
596
100
AcDbEntity
  8
0
100
AcDbPolyline
 62
250
  6
CONTINUOUS
 90
16
 70
0
 10
146.1049338654
 20
94.073065719
 10
146.0657068926
 20
94.0536933508
 10
146.0232299241
 20
94.0367593827
 10
145.9779557006
 20
94.022444271
 10
145.9303613069
 20
94.0108994208
 10
145.8809590644
 20
94.0022496348
 10
145.8302928647
 20
93.9965884912
 10
145.7789145862
 20
93.993973456
 10
145.7273606262
 20
93.9944276949
 10
145.6761634012
 20
93.9979448067
 10
145.6257983635
 20
94.0044982488
 10
145.5768737513
 20
94.0140151095
 10
145.5300872095
 20
94.0263407219
 10
145.4859634436
 20
94.0412913358
 10
145.4448718456
 20
94.0586939778
 10
145.407203187
 20
94.0783394577
  0
LINE
  5
597
100
AcDbEntity
  8
ASSI
100
AcDbLine
 62
250
  6
CONTINUOUS
 10
148.9577787983
 20
146.5074293164
 11
148.9402981853
 21
146.5042708041
  0
LWPOLYLINE
  5
598
100
AcDbEntity
  8
ASSI
100
AcDbPolyline
 62
250
  6
CONTINUOUS
 90
5
 70
0
 10
146.4953044584
 20
145.5558298308
 10
146.4580593116
 20
145.5504233444
 10
146.4200352456
 20
145.5471799901
 10
146.3812659524
 20
145.5460070575
 10
146.342965977
 20
145.54690763
  0
LWPOLYLINE
  5
599
100
AcDbEntity
  8
ASSI
100
AcDbPolyline
 62
7
  6
CONTINUOUS
 90
6
 70
0
 10
149.035652959
 20
146.5211024104
 10
149.0252313415
 20
146.5200526554
 10
148.9996942854
 20
146.5167275075
 10
148.9746288176
 20
146.5123373529
 10
148.9500237982
 20
146.5068168223
 10
148.9402368705
 20
146.5042540425
  0
LWPOLYLINE
  5
59A
100
AcDbEntity
  8
ASSI
100
AcDbPolyline
 62
250
  6
CONTINUOUS
 90
12
 70
0
 10
149.0906654181
 20
146.5008153244
 10
149.0854116741
 20
146.5002981222
 10
149.0802183283
 20
146.4997233593
 10
149.0750853807
 20
146.4990910356
 10
149.0700348592
 20
146.4984064172
 10
149.0650447358
 20
146.4976642379
 10
149.0600489267
 20
146.4968487
 10
149.0550344287
 20
146.4959614486
 10
149.050014245
 20
146.4950008386
 10
149.0449613015
 20
146.4939461361
 10
149.0398665734
 20
146.4927904301
 10
149.0347390855
 20
146.4915406317
  0
LINE
  5
59B
100
AcDbEntity
  8
RACCORDO
100
AcDbLine
 62
250
  6
CONTINUOUS
 10
150.243164315
 20
146.6075276753
 11
149.0906654181
 21
146.5008153244
  0
LINE
  5
59C
100
AcDbEntity
  8
ASSI
100
AcDbLine
 62
7
  6
CONTINUOUS
 10
150.1881222199
 20
146.6278120248
 11
149.0356233245
 21
146.521099674
  0
LINE
  5
59D
100
AcDbEntity
  8
RACCORDO
100
AcDbLine
 62
250
  6
CONTINUOUS
 10
150.1881222199
 20
146.6278120248
 11
150.1919614147
 21
146.6280420892
  0
LWPOLYLINE
  5
59E
100
AcDbEntity
  8
ASSI
100
AcDbPolyline
 62
250
  6
CONTINUOUS
 90
7
 70
0
 10
146.2750292472
 20
145.5940537532
 10
146.2686159132
 20
145.5939261942
 10
146.2618023648
 20
145.5916603607
 10
146.2546632525
 20
145.5872810776
 10
146.2472767937
 20
145.5808363246
 10
146.239723916
 20
145.5723967118
 10
146.2320873704
 20
145.5620547051
  0
LWPOLYLINE
  5
59F
100
AcDbEntity
  8
ASSI
100
AcDbPolyline
 62
250
  6
CONTINUOUS
 90
6
 70
0
 10
143.9915888214
 20
144.2854228837
 10
144.001050575
 20
144.2855504877
 10
144.0166327593
 20
144.2841553966
 10
144.0320751433
 20
144.2807747073
 10
144.0472219065
 20
144.2754408163
 10
144.0619211391
 20
144.2682056901
  0
LWPOLYLINE
  5
5A0
100
AcDbEntity
  8
ASSI
100
AcDbPolyline
 62
250
  6
CONTINUOUS
 90
23
 70
0
 10
146.1770774834
 20
145.5711226469
 10
146.1491940873
 20
145.573337721
 10
146.1208045081
 20
145.5739996504
 10
146.0921656716
 20
145.5731152343
 10
146.064048355
 20
145.570704869
 10
146.0364717366
 20
145.5667288188
 10
146.0094166382
 20
145.5612268194
 10
145.983596302
 20
145.5543384754
 10
145.9590353779
 20
145.546024174
 10
145.9357092159
 20
145.536323528
 10
145.9142571084
 20
145.5254949795
 10
145.8947311472
 20
145.5135044328
 10
145.8770792405
 20
145.5003859837
 10
145.8617844042
 20
145.4865003612
 10
145.8489167866
 20
145.4718297967
 10
145.8384062395
 20
145.4563920587
 10
145.8305253345
 20
145.4406011826
 10
145.8253442582
 20
145.4244487308
 10
145.822792824
 20
145.4079431408
 10
145.8229330442
 20
145.3915237606
 10
145.8257855895
 20
145.3753370395
 10
145.8313297891
 20
145.3592365281
 10
145.8395656431
 20
145.3432222265
  0
LWPOLYLINE
  5
5A1
100
AcDbEntity
  8
ASSI
100
AcDbPolyline
 62
250
  6
CONTINUOUS
 90
3
 70
0
 10
146.342965977
 20
145.54690763
 10
146.3055401679
 20
145.5498827355
 10
146.2685836767
 20
145.5549313461
  0
LINE
  5
5A2
100
AcDbEntity
  8
ASSI
100
AcDbLine
 62
250
  6
CONTINUOUS
 10
146.2047116221
 20
145.5673612273
 11
146.1770774834
 21
145.5711226469
  0
LINE
  5
5A3
100
AcDbEntity
  8
ASSI
100
AcDbLine
 62
250
  6
CONTINUOUS
 10
146.2685836767
 20
145.5549313461
 11
146.2047116221
 21
145.5673612273
  0
LWPOLYLINE
  5
5A4
100
AcDbEntity
  8
ASSI
100
AcDbPolyline
 62
250
  6
CONTINUOUS
 90
5
 70
0
 10
147.3912265721
 20
146.0538637929
 10
147.3748760476
 20
146.057504408
 10
147.359294111
 20
146.0583622884
 10
147.3447186137
 20
146.0564243391
 10
147.3313720445
 20
146.0517201419
  0
LWPOLYLINE
  5
5A5
100
AcDbEntity
  8
ASSI
100
AcDbPolyline
 62
250
  6
CONTINUOUS
 90
6
 70
0
 10
147.5170631003
 20
146.0772323028
 10
147.499267323
 20
146.0859027582
 10
147.4811850688
 20
146.0917165685
 10
147.4630917784
 20
146.094585174
 10
147.4452630607
 20
146.0944648783
 10
147.4277828582
 20
146.0913064781
  0
LINE
  5
5A6
100
AcDbEntity
  8
ASSI
100
AcDbLine
 62
250
  6
CONTINUOUS
 10
150.7481652607
 20
144.1185699011
 11
150.7660124899
 21
144.1095706788
  0
LWPOLYLINE
  5
5A7
100
AcDbEntity
  8
ASSI
100
AcDbPolyline
 62
250
  6
CONTINUOUS
 90
3
 70
0
 10
147.4252271266
 20
146.0384982777
 10
147.4080961004
 20
146.0474960157
 10
147.3912265721
 20
146.0538637929
  0
LINE
  5
5A8
100
AcDbEntity
  8
ASSI
100
AcDbLine
 62
250
  6
CONTINUOUS
 10
151.1513843726
 20
143.8870617836
 11
150.7660124899
 21
144.1095706788
  0
LINE
  5
5A9
100
AcDbEntity
  8
ASSI
100
AcDbLine
 62
250
  6
CONTINUOUS
 10
147.8105990093
 20
145.8159893824
 11
147.4252271266
 21
146.0384982777
  0
LINE
  5
5AA
100
AcDbEntity
  8
ASSI
100
AcDbLine
 62
250
  6
CONTINUOUS
 10
151.2425611009
 20
143.9261764487
 11
150.8571400257
 21
144.1487137471
  0
LINE
  5
5AB
100
AcDbEntity
  8
ASSI
100
AcDbLine
 62
250
  6
CONTINUOUS
 10
147.9024841754
 20
145.8546950045
 11
147.5170631003
 21
146.0772323028
  0
LWPOLYLINE
  5
5AC
100
AcDbEntity
  8
ASSI
100
AcDbPolyline
 62
250
  6
CONTINUOUS
 90
13
 70
0
 10
151.1513843726
 20
143.8870617836
 10
151.169126436
 20
143.8759242367
 10
151.1865976743
 20
143.8624640857
 10
151.2035313966
 20
143.8468867939
 10
151.2196691168
 20
143.8294301421
 10
151.2347644995
 20
143.8103605985
 10
151.2485871202
 20
143.7899692517
 10
151.2609259824
 20
143.7685673669
 10
151.2715927387
 20
143.7464816346
 10
151.2804245654
 20
143.7240491842
 10
151.2872866487
 20
143.7016124375
 10
151.2920742416
 20
143.6795138818
 10
151.2947142637
 20
143.6580908422
  0
LWPOLYLINE
  5
5AD
100
AcDbEntity
  8
ASSI
100
AcDbPolyline
 62
250
  6
CONTINUOUS
 90
13
 70
0
 10
151.2425611009
 20
143.9261764487
 10
151.259606854
 20
143.9147298412
 10
151.2758354009
 20
143.9007330249
 10
151.2909995379
 20
143.8843992087
 10
151.3048682748
 20
143.8659772
 10
151.3172303538
 20
143.8457476149
 10
151.3278974678
 20
143.8240186037
 10
151.3367071281
 20
143.8011211571
 10
151.3435251402
 20
143.777404064
 10
151.3482476478
 20
143.7532285988
 10
151.3508027144
 20
143.728963018
 10
151.3511514195
 20
143.704976951
 10
151.3492884516
 20
143.6816357693
  0
LWPOLYLINE
  5
5AE
100
AcDbEntity
  8
ASSI
100
AcDbPolyline
 62
250
  6
CONTINUOUS
 90
6
 70
0
 10
149.0906654181
 20
146.5008153244
 10
149.0781905054
 20
146.5099614517
 10
149.0653788528
 20
146.5164836003
 10
149.0524092674
 20
146.520290743
 10
149.0394627605
 20
146.5213297451
 10
149.035652959
 20
146.5211024104
  0
LINE
  5
5AF
100
AcDbEntity
  8
RACCORDO
100
AcDbLine
 62
250
  6
CONTINUOUS
 10
155.9243495979
 20
141.9371643841
 11
155.5800684862
 21
142.2060430323
  0
LINE
  5
5B0
100
AcDbEntity
  8
RACCORDO
100
AcDbLine
 62
7
  6
CONTINUOUS
 10
156.0204305774
 20
141.9467526971
 11
155.6761494656
 21
142.2156313453
  0
LWPOLYLINE
  5
5B1
100
AcDbEntity
  8
RACCORDO
100
AcDbPolyline
 62
7
  6
CONTINUOUS
 90
18
 70
0
 10
155.676130242
 20
142.2156463501
 10
155.6696408412
 20
142.2208428762
 10
155.6525111718
 20
142.2357805852
 10
155.6345342851
 20
142.2534019338
 10
155.6161823812
 20
142.2735650702
 10
155.5981351805
 20
142.2957440003
 10
155.5807162616
 20
142.3196811321
 10
155.5642066813
 20
142.3451049339
 10
155.5490962349
 20
142.3712841397
 10
155.5355971786
 20
142.3977638632
 10
155.523795124
 20
142.4242355557
 10
155.5138397227
 20
142.4501374914
 10
155.5057463082
 20
142.4750865719
 10
155.4994585601
 20
142.4988044964
 10
155.4949115749
 20
142.5209117247
 10
155.4919664452
 20
142.5411924915
 10
155.4904588457
 20
142.5593655549
 10
155.4901430257
 20
142.5716032734
  0
LWPOLYLINE
  5
5B2
100
AcDbEntity
  8
RACCORDO
100
AcDbPolyline
 62
250
  6
CONTINUOUS
 90
16
 70
0
 10
155.5800682633
 20
142.2060429029
 10
155.5640205813
 20
142.2197448247
 10
155.5484086201
 20
142.2348852396
 10
155.5333682168
 20
142.2513193891
 10
155.5189873444
 20
142.2689454361
 10
155.5054310681
 20
142.2875544615
 10
155.4929147904
 20
142.3068035059
 10
155.4816155928
 20
142.3263069116
 10
155.4714632581
 20
142.3460644432
 10
155.4623248289
 20
142.3663218894
 10
155.4542794349
 20
142.3869964783
 10
155.4474570258
 20
142.4078477768
 10
155.4418995531
 20
142.4288964791
 10
155.4377199602
 20
142.4500107722
 10
155.4350551392
 20
142.4709089622
 10
155.4340107734
 20
142.4913606226
  0
LWPOLYLINE
  5
5B3
100
AcDbEntity
  8
RACCORDO
100
AcDbPolyline
 62
250
  6
CONTINUOUS
 90
5
 70
0
 10
153.5836693545
 20
144.6606112403
 10
153.5684933558
 20
144.6784748889
 10
153.5517782481
 20
144.694562194
 10
153.5337573299
 20
144.7086486204
 10
153.5146821029
 20
144.7205375772
  0
LINE
  5
5B4
100
AcDbEntity
  8
RACCORDO
100
AcDbLine
 62
250
  6
CONTINUOUS
 10
153.5970944152
 20
144.6412206047
 11
153.5836693545
 21
144.6606112403
  0
LWPOLYLINE
  5
5B5
100
AcDbEntity
  8
RACCORDO
100
AcDbPolyline
 62
250
  6
CONTINUOUS
 90
5
 70
0
 10
150.1919614147
 20
146.6280420892
 10
150.2049079849
 20
146.6270031271
 10
150.2178776287
 20
146.6231959992
 10
150.2306893419
 20
146.6166738396
 10
150.243164315
 20
146.6075276753
  0
LWPOLYLINE
  5
5B6
100
AcDbEntity
  8
ASSI
100
AcDbPolyline
 62
250
  6
CONTINUOUS
 90
3
 70
0
 10
148.9937008064
 20
146.5046810066
 10
148.975607516
 20
146.5075496121
 10
148.9577787983
 20
146.5074293164
  0
LWPOLYLINE
  5
5B7
100
AcDbEntity
  8
RACCORDO
100
AcDbPolyline
 62
250
  6
CONTINUOUS
 90
6
 70
0
 10
150.4898901686
 20
146.4960172497
 10
150.4802225205
 20
146.500585668
 10
150.4679482862
 20
146.5039997487
 10
150.4548081746
 20
146.5052980693
 10
150.4409757125
 20
146.5044875827
 10
150.4266182358
 20
146.5016036806
  0
LWPOLYLINE
  5
5B8
100
AcDbEntity
  8
RACCORDO
100
AcDbPolyline
 62
250
  6
CONTINUOUS
 90
6
 70
0
 10
150.3065666066
 20
146.6018661727
 10
150.2972884834
 20
146.6063102377
 10
150.2849366756
 20
146.6098404778
 10
150.2716938268
 20
146.6112153618
 10
150.2577133283
 20
146.6104365509
 10
150.243164315
 20
146.6075276753
  0
LWPOLYLINE
  5
5B9
100
AcDbEntity
  8
ASSI
100
AcDbPolyline
 62
250
  6
CONTINUOUS
 90
13
 70
0
 10
152.8205716685
 20
144.3472142021
 10
152.8404348987
 20
144.3376886907
 10
152.8595100588
 20
144.3257997926
 10
152.8775309243
 20
144.3117134365
 10
152.8942459852
 20
144.29562622
 10
152.9094219562
 20
144.277762666
 10
152.9228470323
 20
144.2583720889
 10
152.934333845
 20
144.2377251151
 10
152.9437220776
 20
144.2161099064
 10
152.9508807022
 20
144.1938281375
 10
152.9557098087
 20
144.1711907861
 10
152.9581419993
 20
144.1485137927
 10
152.9581433289
 20
144.1261136511
  0
LINE
  5
5BA
100
AcDbEntity
  8
RACCORDO
100
AcDbLine
 62
250
  6
CONTINUOUS
 10
153.5146821029
 20
144.7205375772
 11
153.4948187939
 21
144.730063132
  0
LWPOLYLINE
  5
5BB
100
AcDbEntity
  8
ASSI
100
AcDbPolyline
 62
250
  6
CONTINUOUS
 90
3
 70
0
 10
149.0295788377
 20
146.490196741
 10
149.0117830605
 20
146.4988671963
 10
148.9937008064
 20
146.5046810066
  0
LWPOLYLINE
  5
5BC
100
AcDbEntity
  8
RACCORDO
100
AcDbPolyline
 62
250
  6
CONTINUOUS
 90
8
 70
0
 10
153.3113648731
 20
144.8359871266
 10
153.2966827173
 20
144.8432797091
 10
153.2817756052
 20
144.8486618483
 10
153.266796522
 20
144.8520783108
 10
153.2518992006
 20
144.853494036
 10
153.2372365159
 20
144.8528944989
 10
153.2229589184
 20
144.8502858468
 10
153.2208297678
 20
144.8497142947
  0
LWPOLYLINE
  5
5BD
100
AcDbEntity
  8
RACCORDO
100
AcDbPolyline
 62
7
  6
CONTINUOUS
 90
10
 70
0
 10
148.5099187541
 20
147.0531691998
 10
148.4881315612
 20
147.064323193
 10
148.4627353017
 20
147.0740366869
 10
148.4366254971
 20
147.0806778066
 10
148.4102285361
 20
147.0841649381
 10
148.3838787336
 20
147.0845060484
 10
148.3578894936
 20
147.0817433373
 10
148.3326650039
 20
147.075977443
 10
148.3086214302
 20
147.0673942726
 10
148.290551742
 20
147.0587130296
  0
LWPOLYLINE
  5
5BE
100
AcDbEntity
  8
RACCORDO
100
AcDbPolyline
 62
250
  6
CONTINUOUS
 90
14
 70
0
 10
148.4124530949
 20
147.0446202151
 10
148.4042027175
 20
147.0492841796
 10
148.3957757116
 20
147.0535686628
 10
148.38719327
 20
147.0574298039
 10
148.3784726804
 20
147.0608251027
 10
148.3696473342
 20
147.0637061785
 10
148.3607661051
 20
147.0660233762
 10
148.3518474535
 20
147.0677371872
 10
148.3429389083
 20
147.0688025469
 10
148.334132548
 20
147.069179384
 10
148.3254707596
 20
147.0688430589
 10
148.3169805978
 20
147.0677708574
 10
148.3087264894
 20
147.0659492388
 10
148.3007388803
 20
147.063365704
  0
LINE
  5
5BF
100
AcDbEntity
  8
RACCORDO
100
AcDbLine
 62
250
  6
CONTINUOUS
 10
150.4900205274
 20
146.4959421781
 11
150.4898901686
 21
146.4960172497
  0
LINE
  5
5C0
100
AcDbEntity
  8
RACCORDO
100
AcDbLine
 62
250
  6
CONTINUOUS
 10
153.5581918155
 20
144.7244185197
 11
153.5582210855
 21
144.7244016294
  0
LINE
  5
5C1
100
AcDbEntity
  8
RACCORDO
100
AcDbLine
 62
250
  6
CONTINUOUS
 10
155.2572612192
 20
143.0925137897
 11
153.6395969542
 21
144.0265328623
  0
LINE
  5
5C2
100
AcDbEntity
  8
RACCORDO
100
AcDbLine
 62
250
  6
CONTINUOUS
 10
149.2799738338
 20
146.543724613
 11
148.4124530949
 21
147.0446202151
  0
LINE
  5
5C3
100
AcDbEntity
  8
RACCORDO
100
AcDbLine
 62
7
  6
CONTINUOUS
 10
155.3547979082
 20
143.1010218209
 11
153.6942553652
 21
144.0597982737
  0
LINE
  5
5C4
100
AcDbEntity
  8
RACCORDO
100
AcDbLine
 62
7
  6
CONTINUOUS
 10
149.376729752
 20
146.5526834515
 11
148.5099897839
 21
147.0531282463
  0
LINE
  5
5C5
100
AcDbEntity
  8
RACCORDO
100
AcDbLine
 62
250
  6
CONTINUOUS
 10
150.5389142896
 20
146.0763030439
 11
152.8453848082
 21
144.7445758733
  0
LINE
  5
5C6
100
AcDbEntity
  8
RACCORDO
100
AcDbLine
 62
7
  6
CONTINUOUS
 10
150.5996071366
 20
146.1089095268
 11
152.924283635
 21
144.7666704517
  0
LINE
  5
5C7
100
AcDbEntity
  8
RACCORDO
100
AcDbLine
 62
250
  6
CONTINUOUS
 10
153.4948187939
 20
144.730063132
 11
153.3113648731
 21
144.8359871266
  0
LINE
  5
5C8
100
AcDbEntity
  8
RACCORDO
100
AcDbLine
 62
250
  6
CONTINUOUS
 10
150.243164315
 20
146.6075276753
 11
150.4266182358
 21
146.5016036806
  0
LINE
  5
5C9
100
AcDbEntity
  8
RACCORDO
100
AcDbLine
 62
7
  6
CONTINUOUS
 10
153.5582210855
 20
144.7244016294
 11
153.3747671647
 21
144.8303256241
  0
LINE
  5
5CA
100
AcDbEntity
  8
RACCORDO
100
AcDbLine
 62
7
  6
CONTINUOUS
 10
150.3065666066
 20
146.6018661727
 11
150.4900205274
 21
146.4959421781
  0
LWPOLYLINE
  5
5CB
100
AcDbEntity
  8
RACCORDO
100
AcDbPolyline
 62
250
  6
CONTINUOUS
 90
5
 70
0
 10
150.4266182358
 20
146.5016036806
 10
150.4405498732
 20
146.4923750153
 10
150.4539628976
 20
146.4814054559
 10
150.466719657
 20
146.4688075789
 10
150.4786892268
 20
146.4547106812
  0
LWPOLYLINE
  5
5CC
100
AcDbEntity
  8
ASSI
100
AcDbPolyline
 62
250
  6
CONTINUOUS
 90
13
 70
0
 10
152.7730940489
 20
144.3287379753
 10
152.7901398021
 20
144.3172913676
 10
152.8063683492
 20
144.3032945512
 10
152.8215324862
 20
144.2869607349
 10
152.8354012231
 20
144.268538726
 10
152.8477633022
 20
144.2483091408
 10
152.8584304161
 20
144.2265801296
 10
152.8672400763
 20
144.203682683
 10
152.8740580884
 20
144.17996559
 10
152.8787805958
 20
144.1557901248
 10
152.8813356624
 20
144.1315245442
 10
152.8816843675
 20
144.1075384774
 10
152.8798213996
 20
144.0841972958
  0
ARC
  5
5CD
100
AcDbEntity
  8
0
100
AcDbCircle
 62
7
  6
CONTINUOUS
 10
145.7607565776
 20
94.2824767544
 40
0.5
100
AcDbArc
 50
239.9984015654
 51
297.4194204711
  0
ARC
  5
5CE
100
AcDbEntity
  8
0
100
AcDbCircle
 62
7
  6
CONTINUOUS
 10
130.8925424092
 20
102.8671972727
 40
0.5
100
AcDbArc
 50
179.9840060021
 51
239.998401565
  0
ARC
  5
5CF
100
AcDbEntity
  8
0
100
AcDbCircle
 62
7
  6
CONTINUOUS
 10
130.8925424092
 20
145.0189695549
 40
0.5
100
AcDbArc
 50
122.5992954222
 51
180.0013071313
  0
ARC
  5
5D0
100
AcDbEntity
  8
RACCORDO
100
AcDbCircle
 62
7
  6
CONTINUOUS
 10
148.5614997691
 20
104.7448044564
 40
0.3
100
AcDbArc
 50
269.4223262393
 51
299.1609169457
  0
ARC
  5
5D1
100
AcDbEntity
  8
RACCORDO
100
AcDbCircle
 62
7
  6
CONTINUOUS
 10
134.1695521406
 20
110.3656030827
 40
0.2
100
AcDbArc
 50
67.2906134946
 51
71.8946233554
  0
ARC
  5
5D2
100
AcDbEntity
  8
RACCORDO
100
AcDbCircle
 62
7
  6
CONTINUOUS
 10
142.0216648914
 20
145.0549713451
 40
0.2
100
AcDbArc
 50
113.7747151641
 51
118.7132886444
  0
ARC
  5
5D3
100
AcDbEntity
  8
RACCORDO
100
AcDbCircle
 62
7
  6
CONTINUOUS
 10
150.2065617746
 20
146.4286638819
 40
0.2
100
AcDbArc
 50
59.9906129199
 51
95.2900560707
  0
ARC
  5
5D4
100
AcDbEntity
  8
RACCORDO
100
AcDbCircle
 62
7
  6
CONTINUOUS
 10
150.3900156954
 20
146.3227398872
 40
0.2
100
AcDbArc
 50
2.5190144137
 51
60.0414965757
  0
ARC
  5
5D5
100
AcDbEntity
  8
RACCORDO
100
AcDbCircle
 62
7
  6
CONTINUOUS
 10
153.4582162535
 20
144.5511993385
 40
0.2
100
AcDbArc
 50
4.1591736034
 51
60.0080827487
  0
ARC
  5
5D6
100
AcDbEntity
  8
RACCORDO
100
AcDbCircle
 62
7
  6
CONTINUOUS
 10
153.2747623327
 20
144.6571233332
 40
0.2
100
AcDbArc
 50
59.9262313871
 51
105.644203948
  0
ARC
  5
5D7
100
AcDbEntity
  8
RACCORDO
100
AcDbCircle
 62
7
  6
CONTINUOUS
 10
155.9265391335
 20
141.3435617259
 40
0.2
100
AcDbArc
 50
309.9291469819
 51
0.0054037064
  0
ARC
  5
5D8
100
AcDbEntity
  8
RACCORDO
100
AcDbCircle
 62
7
  6
CONTINUOUS
 10
152.4507249813
 20
139.033362756
 40
0.2
100
AcDbArc
 50
301.2772965442
 51
32.0939609363
  0
ARC
  5
5D9
100
AcDbEntity
  8
RACCORDO
100
AcDbCircle
 62
7
  6
CONTINUOUS
 10
152.4507249813
 20
104.5349947161
 40
0.2
100
AcDbArc
 50
301.3220933774
 51
30.0000006178
  0
ARC
  5
5DA
100
AcDbEntity
  8
RACCORDO
100
AcDbCircle
 62
7
  6
CONTINUOUS
 10
151.7496454938
 20
105.7493000073
 40
0.2
100
AcDbArc
 50
30.0000014818
 51
60.0333980332
  0
ARC
  5
5DB
100
AcDbEntity
  8
RACCORDO
100
AcDbCircle
 62
7
  6
CONTINUOUS
 10
154.6678853502
 20
109.2792795806
 40
0.2
100
AcDbArc
 50
59.9867464189
 51
118.2699256376
  0
ARC
  5
5DC
100
AcDbEntity
  8
RACCORDO
100
AcDbCircle
 62
7
  6
CONTINUOUS
 10
155.6495288407
 20
108.9855465484
 40
0.2
100
AcDbArc
 50
59.9862819164
 51
108.3368281283
  0
ARC
  5
5DD
100
AcDbEntity
  8
RACCORDO
100
AcDbCircle
 62
7
  6
CONTINUOUS
 10
155.9265391335
 20
108.825604277
 40
0.2
100
AcDbArc
 50
359.9924332031
 51
60.0280559654
  0
ARC
  5
5DE
100
AcDbEntity
  8
RACCORDO
100
AcDbCircle
 62
7
  6
CONTINUOUS
 10
152.7250846496
 20
111.3920209325
 40
0.2
100
AcDbArc
 50
305.3820148551
 51
324.8192892092
  0
ARC
  5
5DF
100
AcDbEntity
  8
RACCORDO
100
AcDbCircle
 62
7
  6
CONTINUOUS
 10
147.4643508015
 20
123.1582700497
 40
0.2
100
AcDbArc
 50
257.3292403275
 51
287.0230299519
  0
ARC
  5
5E0
100
AcDbEntity
  8
ASSI
100
AcDbCircle
 62
7
  6
CONTINUOUS
 10
143.0430972728
 20
140.0310961774
 40
0.2
100
AcDbArc
 50
18.5045349448
 51
59.9984015652
  0
ARC
  5
5E1
100
AcDbEntity
  8
ASSI
100
AcDbCircle
 62
7
  6
CONTINUOUS
 10
141.8273071352
 20
143.8737438602
 40
0.2
100
AcDbArc
 50
119.0851067967
 51
154.7491248261
  0
ARC
  5
5E2
100
AcDbEntity
  8
ASSI
100
AcDbCircle
 62
7
  6
CONTINUOUS
 10
139.1914444731
 20
142.2549922314
 40
0.2
100
AcDbArc
 50
59.9984015652
 51
119.1557271591
  0
ARC
  5
5E3
100
AcDbEntity
  8
ASSI
100
AcDbCircle
 62
7
  6
CONTINUOUS
 10
137.6417809253
 20
144.8203199402
 40
0.2
100
AcDbArc
 50
59.9984015652
 51
118.2824903446
  0
ARC
  5
5E4
100
AcDbEntity
  8
ASSI
100
AcDbCircle
 62
7
  6
CONTINUOUS
 10
148.3453275732
 20
138.2709152631
 40
0.2
100
AcDbArc
 50
315.7312260513
 51
0.0244885745
  0
ARC
  5
5E5
100
AcDbEntity
  8
ASSI
100
AcDbCircle
 62
7
  6
CONTINUOUS
 10
148.3453275732
 20
138.6402262526
 40
0.2
100
AcDbArc
 50
359.9837886302
 51
59.9984015652
  0
ARC
  5
5E6
100
AcDbEntity
  8
ASSI
100
AcDbCircle
 62
7
  6
CONTINUOUS
 10
148.3453275732
 20
100.2396619906
 40
0.2
100
AcDbArc
 50
0.0061341609
 51
34.9794225703
  0
ARC
  5
5E7
100
AcDbEntity
  8
ASSI
100
AcDbCircle
 62
7
  6
CONTINUOUS
 10
148.3453275732
 20
99.870351001
 40
0.2
100
AcDbArc
 50
325.0024931981
 51
0.0011842193
  0
ARC
  5
5E8
100
AcDbEntity
  8
ASSI
100
AcDbCircle
 62
7
  6
CONTINUOUS
 10
139.168984791
 20
143.9385315685
 40
0.2
100
AcDbArc
 50
359.9895357921
 51
59.9984015652
  0
ARC
  5
5E9
100
AcDbEntity
  8
ASSI
100
AcDbCircle
 62
7
  6
CONTINUOUS
 10
139.168984791
 20
143.5692205789
 40
0.2
100
AcDbArc
 50
315.7300113378
 51
0.0272094186
  0
ARC
  5
5EA
100
AcDbEntity
  8
ASSI
100
AcDbCircle
 62
7
  6
CONTINUOUS
 10
146.8181237075
 20
139.5220146244
 40
0.2
100
AcDbArc
 50
59.9984015652
 51
118.2824903446
  0
ELLIPSE
  5
5EB
100
AcDbEntity
  8
0
100
AcDbEllipse
 62
7
  6
CONTINUOUS
 10
148.1553125564
 20
95.5239483711
 30
0.0
 11
-0.2501834304
 21
0.4333025529
 31
0.0
 40
0.5769361983
 41
-3.1677535987
 42
-2.3565853618
  0
ELLIPSE
  5
5EC
100
AcDbEntity
  8
RACCORDO
100
AcDbEllipse
 62
7
  6
CONTINUOUS
 10
148.4382522253
 20
116.3978721473
 30
0.0
 11
-0.0500176659
 21
0.0865945414
 31
0.0
 40
0.5775954524
 41
-2.3562050126
 42
-1.1310304851
  0
ELLIPSE
  5
5ED
100
AcDbEntity
  8
RACCORDO
100
AcDbEllipse
 62
7
  6
CONTINUOUS
 10
148.4193287435
 20
104.7200560855
 30
0.0
 11
0.2570456323
 21
0.428918115
 31
0.0
 40
0.5894576291
 41
-2.0962802676
 42
-1.8795851245
  0
ELLIPSE
  5
5EE
100
AcDbEntity
  8
RACCORDO
100
AcDbEllipse
 62
7
  6
CONTINUOUS
 10
133.0146549621
 20
105.9977475264
 30
0.0
 11
0.3254038621
 21
1.7382577199
 31
0.0
 40
0.2183918352
 41
-2.9565436216
 42
-1.6649999751
  0
ELLIPSE
  5
5EF
100
AcDbEntity
  8
RACCORDO
100
AcDbEllipse
 62
7
  6
CONTINUOUS
 10
143.6386440247
 20
99.8635893915
 30
0.0
 11
0.3254038621
 21
1.7382577199
 31
0.0
 40
0.2183918352
 41
-4.0037411729
 42
-3.4801423972
  0
ELLIPSE
  5
5F0
100
AcDbEntity
  8
DRAFT
100
AcDbEllipse
 62
7
  6
CONTINUOUS
 10
130.8925424092
 20
124.1017513508
 30
0.0
 11
0.4998610155
 21
-0.0215739
 31
0.0
 40
0.5464172455
 41
-3.1180137663
 42
-2.3326156034
  0
ELLIPSE
  5
5F1
100
AcDbEntity
  8
DRAFT
100
AcDbEllipse
 62
7
  6
CONTINUOUS
 10
145.7607565776
 20
115.5170308325
 30
0.0
 11
0.4998610155
 21
-0.0215739
 31
0.0
 40
0.5464172455
 41
-2.3326156034
 42
-0.7879992153
  0
ELLIPSE
  5
5F2
100
AcDbEntity
  8
0
100
AcDbEllipse
 62
7
  6
CONTINUOUS
 10
147.0668780206
 20
137.1883834689
 30
0.0
 11
-0.2500121049
 21
0.4330057129
 31
0.0
 40
0.5777274115
 41
-2.3559002616
 42
-0.7857891675
  0
ELLIPSE
  5
5F3
100
AcDbEntity
  8
ASSI
100
AcDbEllipse
 62
7
  6
CONTINUOUS
 10
145.7516196517
 20
114.9553638487
 30
0.0
 11
4.1091514676
 21
6.7488408307
 31
0.0
 40
0.5922410672
 41
-1.2951550528
 42
-0.7715562772
  0
ELLIPSE
  5
5F4
100
AcDbEntity
  8
DRAFT
100
AcDbEllipse
 62
7
  6
CONTINUOUS
 10
147.9240177482
 20
115.5349184781
 30
0.0
 11
0.8524930942
 21
1.5284679067
 31
0.0
 40
0.5671693725
 41
5.0776938706
 42
5.8313048814
  0
ELLIPSE
  5
5F5
100
AcDbEntity
  8
DRAFT
100
AcDbEllipse
 62
7
  6
CONTINUOUS
 10
145.1543422581
 20
115.3002243301
 30
0.0
 11
2.9715473571
 21
5.3278024176
 31
0.0
 40
0.5671693725
 41
-1.3173759133
 42
-1.2054914366
  0
ELLIPSE
  5
5F6
100
AcDbEntity
  8
0
100
AcDbEllipse
 62
7
  6
CONTINUOUS
 10
132.1320053785
 20
145.8115917545
 30
0.0
 11
-0.2501834304
 21
0.4333025529
 31
0.0
 40
0.5769361983
 41
-0.7851038024
 42
0.0261609458
  0
ELLIPSE
  5
5F7
100
AcDbEntity
  8
RACCORDO
100
AcDbEllipse
 62
7
  6
CONTINUOUS
 10
148.201131366
 20
134.4639645721
 30
0.0
 11
0.2340655899
 21
0.3844276423
 31
0.0
 40
0.5922410672
 41
-3.5998360866
 42
-1.5460578258
  0
ELLIPSE
  5
5F8
100
AcDbEntity
  8
ASSI
100
AcDbEllipse
 62
7
  6
CONTINUOUS
 10
145.7516196517
 20
114.9553638487
 30
0.0
 11
3.1728891079
 21
5.2111302617
 31
0.0
 40
0.5922410672
 41
-1.2951550528
 42
-1.1832705761
  0
ELLIPSE
  5
5F9
100
AcDbEntity
  8
ASSI
100
AcDbEllipse
 62
7
  6
CONTINUOUS
 10
148.6443138112
 20
115.1190285587
 30
0.0
 11
0.9102550719
 21
1.4949963866
 31
0.0
 40
0.5922410672
 41
-1.1832705761
 42
0.746880172
  0
ELLIPSE
  5
5FA
100
AcDbEntity
  8
ASSI
100
AcDbEllipse
 62
7
  6
CONTINUOUS
 10
150.1504754575
 20
114.5079400418
 30
0.0
 11
0.4681311799
 21
0.7688552845
 31
0.0
 40
0.5922410672
 41
-4.4367477064
 42
-1.2951550528
  0
ELLIPSE
  5
5FB
100
AcDbEntity
  8
RACCORDO
100
AcDbEllipse
 62
7
  6
CONTINUOUS
 10
147.5656772114
 20
123.018091346
 30
0.0
 11
0.1040291511
 21
0.1708567299
 31
0.0
 40
0.5922410672
 41
2.3700363764
 42
3.6971092904
  0
ELLIPSE
  5
5FC
100
AcDbEntity
  8
RACCORDO
100
AcDbEllipse
 62
7
  6
CONTINUOUS
 10
147.8760143227
 20
134.0543076005
 30
0.0
 11
-0.1499555689
 21
0.1417376379
 31
0.0
 40
0.2871998027
 41
-2.4500079414
 42
-1.1133093541
  0
ELLIPSE
  5
5FD
100
AcDbEntity
  8
RACCORDO
100
AcDbEllipse
 62
7
  6
CONTINUOUS
 10
136.8762629758
 20
144.5742668459
 30
0.0
 11
-0.1000352924
 21
0.1732550566
 31
0.0
 40
0.5771558487
 41
-2.3563950755
 42
-0.7852941622
  0
ELLIPSE
  5
5FE
100
AcDbEntity
  8
RACCORDO
100
AcDbEllipse
 62
7
  6
CONTINUOUS
 10
148.3675442438
 20
136.7260906281
 30
0.0
 11
-0.1000352924
 21
0.1732550566
 31
0.0
 40
0.5771558487
 41
-3.1241453804
 42
-2.3563950755
  0
ELLIPSE
  5
5FF
100
AcDbEntity
  8
RACCORDO
100
AcDbEllipse
 62
7
  6
CONTINUOUS
 10
148.3675442438
 20
137.9393450614
 30
0.0
 11
-0.1000048364
 21
0.1732022883
 31
0.0
 40
0.5775075436
 41
-2.3560905478
 42
-0.7855988075
  0
ELLIPSE
  5
600
100
AcDbEntity
  8
RACCORDO
100
AcDbEllipse
 62
7
  6
CONTINUOUS
 10
132.9526594988
 20
146.8397063193
 30
0.0
 11
-0.1000352924
 21
0.1732550566
 31
0.0
 40
0.5771558487
 41
-0.7852941622
 42
-0.0174472724
  0
ELLIPSE
  5
601
100
AcDbEntity
  8
RACCORDO
100
AcDbEllipse
 62
7
  6
CONTINUOUS
 10
144.4439407668
 20
140.2047845347
 30
0.0
 11
-0.1000048364
 21
0.1732022883
 31
0.0
 40
0.5775075436
 41
-0.7855988075
 42
0.0000008443
  0
ELLIPSE
  5
602
100
AcDbEntity
  8
RACCORDO
100
AcDbEllipse
 62
7
  6
CONTINUOUS
 10
134.2044315946
 20
115.8252316438
 30
0.0
 11
-0.0747980753
 21
0.1304963185
 31
0.0
 40
0.5764466743
 41
-3.1939951889
 42
-2.3533542958
  0
ELLIPSE
  5
603
100
AcDbEntity
  8
RACCORDO
100
AcDbEllipse
 62
7
  6
CONTINUOUS
 10
134.2044315946
 20
117.1327210972
 30
0.0
 11
-0.0746819116
 21
0.1302994005
 31
0.0
 40
0.57820294
 41
-2.3518112446
 42
-0.7825359958
  0
ELLIPSE
  5
604
100
AcDbEntity
  8
DRAFT
100
AcDbEllipse
 62
7
  6
CONTINUOUS
 10
144.8585737586
 20
115.4709973548
 30
0.0
 11
3.2478032004
 21
5.0501468509
 31
0.0
 40
0.6067084637
 41
5.0033060965
 42
5.2387059167
  0
ELLIPSE
  5
605
100
AcDbEntity
  8
RACCORDO
100
AcDbEllipse
 62
7
  6
CONTINUOUS
 10
149.4096905234
 20
111.2923891443
 30
0.0
 11
-0.1000048364
 21
0.1732022883
 31
0.0
 40
0.5775075436
 41
-3.1415918093
 42
-2.3560905478
  0
ELLIPSE
  5
606
100
AcDbEntity
  8
RACCORDO
100
AcDbEllipse
 62
7
  6
CONTINUOUS
 10
148.7564745159
 20
104.8520210691
 30
0.0
 11
0.2706129798
 21
-0.206110056
 31
0.0
 40
0.3991634155
 41
5.7745293624
 42
6.5783255269
  0
ELLIPSE
  5
607
100
AcDbEntity
  8
RACCORDO
100
AcDbEllipse
 62
7
  6
CONTINUOUS
 10
153.6502037246
 20
143.8542893114
 30
0.0
 11
0.0528833778
 21
0.1988141098
 31
0.0
 40
0.4377348049
 41
0.3909671288
 42
0.6503781016
  0
ELLIPSE
  5
608
100
AcDbEntity
  8
RACCORDO
100
AcDbEllipse
 62
7
  6
CONTINUOUS
 10
148.7564745159
 20
109.0159697323
 30
0.0
 11
0.2708035788
 21
-0.2011315484
 31
0.0
 40
0.4059136155
 41
6.5759999252
 42
7.4417664316
  0
ELLIPSE
  5
609
100
AcDbEntity
  8
ASSI
100
AcDbEllipse
 62
7
  6
CONTINUOUS
 10
147.0561797855
 20
143.9018818352
 30
0.0
 11
0.3652263551
 21
0.1644105368
 31
0.0
 40
0.3407407308
 41
1.8589059539
 42
3.382251992
  0
ELLIPSE
  5
60A
100
AcDbEntity
  8
ASSI
100
AcDbEllipse
 62
7
  6
CONTINUOUS
 10
148.5651648698
 20
140.0681464272
 30
0.0
 11
0.999867518
 21
-0.0292282715
 31
0.0
 40
0.5568983954
 41
5.6013315027
 42
7.0848613669
  0
ELLIPSE
  5
60B
100
AcDbEntity
  8
ASSI
100
AcDbEllipse
 62
7
  6
CONTINUOUS
 10
152.5731112136
 20
143.5373863044
 30
0.0
 11
0.5013109713
 21
-0.0090323087
 31
0.0
 40
0.5663187271
 41
-0.7565983455
 42
-0.4971873728
  0
ELLIPSE
  5
60C
100
AcDbEntity
  8
ASSI
100
AcDbEllipse
 62
7
  6
CONTINUOUS
 10
148.6005357773
 20
139.5849625249
 30
0.0
 11
-0.100004872
 21
0.1732022678
 31
0.0
 40
0.5789151826
 41
-2.3548735497
 42
-0.7868162787
  0
ELLIPSE
  5
60D
100
AcDbEntity
  8
DRAFT
100
AcDbEllipse
 62
7
  6
CONTINUOUS
 10
151.952590754
 20
112.8518902643
 30
0.0
 11
0.3514069066
 21
0.7202573435
 31
0.0
 40
0.5249699807
 41
-0.8219902265
 42
0.2252073247
  0
ELLIPSE
  5
60E
100
AcDbEntity
  8
DRAFT
100
AcDbEllipse
 62
7
  6
CONTINUOUS
 10
134.1666238934
 20
116.337496226
 30
0.0
 11
0.3079969422
 21
0.51496962
 31
0.0
 40
0.5873179545
 41
4.2759126724
 42
6.7378315071
  0
ELLIPSE
  5
60F
100
AcDbEntity
  8
RACCORDO
100
AcDbEllipse
 62
7
  6
CONTINUOUS
 10
148.827185194
 20
104.8928530746
 30
0.0
 11
-0.149984401
 21
0.2598430098
 31
0.0
 40
0.5773316645
 41
-3.150319777
 42
-2.3560905026
  0
ELLIPSE
  5
610
100
AcDbEntity
  8
RACCORDO
100
AcDbEllipse
 62
7
  6
CONTINUOUS
 10
148.827185194
 20
108.8934828081
 30
0.0
 11
-0.149984401
 21
0.2598430098
 31
0.0
 40
0.5773316645
 41
-2.3560905026
 42
-0.7852941758
  0
ENDSEC
  0
SECTION
  2
OBJECTS
  0
DICTIONARY
  5
C
100
AcDbDictionary
280
0
281
1
  3
ACAD_GROUP
350
D
  3
ACAD_MLINESTYLE
350
17
  3
ACAD_LAYOUT
350
1A
  3
ACAD_PLOTSETTINGS
350
19
  3
ACAD_PLOTSTYLENAME
350
E
  0
DICTIONARY
  5
D
102
{ACAD_REACTORS
330
C
102
}
100
AcDbDictionary
280
0
281
1
  0
ACDBDICTIONARYWDFLT
  5
E
102
{ACAD_REACTORS
330
C
102
}
100
AcDbDictionary
281
1
  3
Normal
350
F
100
AcDbDictionaryWithDefault
340
F
  0
DICTIONARY
  5
17
102
{ACAD_REACTORS
330
C
102
}
100
AcDbDictionary
280
0
281
1
  3
Standard
350
18
  0
DICTIONARY
  5
19
102
{ACAD_REACTORS
330
C
102
}
100
AcDbDictionary
281
1
  0
DICTIONARY
  5
1A
102
{ACAD_REACTORS
330
C
102
}
100
AcDbDictionary
281
1
  3
Model
350
611
  3
Layout1
350
612
  0
ACDBPLACEHOLDER
  5
F
102
{ACAD_REACTORS
330
E
102
}
  0
MLINESTYLE
  5
18
102
{ACAD_REACTORS
330
17
102
}
100
AcDbMlineStyle
  2
STANDARD
 70
0
  3

 62
256
 51
90.0
 52
90.0
 71
2
 49
0.5
 62
256
  6
BYLAYER
 49
-0.5
 62
256
  6
BYLAYER
  0
LAYOUT
  5
611
102
{ACAD_REACTORS
330
1A
102
}
100
AcDbPlotSettings
  1

  2
none_device
  4
ISO_A4_(297.00_x_210.00_MM)
  6

 40
0.0
 41
0.0
 42
0.0
 43
0.0
 44
297.0
 45
210.0
 46
0.0
 47
0.0
 48
0.0
 49
0.0
140
0.0
141
0.0
142
1.0
143
1.0
 70
1024
 72
1
 73
0
 74
0
  7

 75
0
147
1.0
148
0.0
149
0.0
100
AcDbLayout
  1
Model
 70
0
 71
0
 10
0.0
 20
0.0
 11
297.0
 21
210.0
 12
0.0
 22
0.0
 32
0.0
 14
0.0
 24
0.0
 34
0.0
 15
0.0
 25
0.0
 35
0.0
146
0.0
 13
0.0
 23
0.0
 33
0.0
 16
1.0
 26
0.0
 36
0.0
 17
0.0
 27
1.0
 37
0.0
 76
0
330
212
345
0
346
0
  0
LAYOUT
  5
612
102
{ACAD_REACTORS
330
1A
102
}
100
AcDbPlotSettings
  1

  2
none_device
  4
ISO_A4_(297.00_x_210.00_MM)
  6

 40
0.0
 41
0.0
 42
0.0
 43
0.0
 44
297.0
 45
210.0
 46
0.0
 47
0.0
 48
0.0
 49
0.0
140
0.0
141
0.0
142
1.0
143
1.0
 70
0
 72
1
 73
0
 74
0
  7

 75
0
147
1.0
148
0.0
149
0.0
100
AcDbLayout
  1
Layout1
 70
0
 71
1
 10
0.0
 20
0.0
 11
297.0
 21
210.0
 12
0.0
 22
0.0
 32
0.0
 14
0.0
 24
0.0
 34
0.0
 15
0.0
 25
0.0
 35
0.0
146
0.0
 13
0.0
 23
0.0
 33
0.0
 16
1.0
 26
0.0
 36
0.0
 17
0.0
 27
1.0
 37
0.0
 76
0
330
213
345
0
346
0
  0
ENDSEC
  0
EOF
