  0
SECTION
  2
HEADER
  9
$ACADVER
  1
AC1024
  9
$DWGCODEPAGE
  3
ANSI_1252
  9
$EXTMAX
 10
297.0
 20
210.0
 30
0.0
  9
$EXTMIN
 10
0.0
 20
0.0
 30
0.0
  9
$LIMMIN
 10
0.0
 20
0.0
  9
$LIMMAX
 10
297.0
 20
210.0
  9
$VIEWCTR
 10
148.5
 20
105.0
  9
$VIEWSIZE
 40
210.0
  9
$CLAYER
  8
0
  9
$LTSCALE
 40
16.335
  9
$CELTYPE
  6
BYLAYER
  9
$DIMSCALE
 40
1.0
  9
$DIMASZ
 40
3.0
  9
$DIMEXO
 40
0.5
  9
$DIMDLI
 40
11.286
  9
$DIMEXE
 40
1.5
  9
$DIMCEN
 40
2.673
  9
$DIMLFAC
 40
1.0
  9
$DIMBLK
  1
_FILLED
  9
$DIMALT
 70
0
  9
$DIMALTF
 40
0.0393700787
  9
$DIMTXT
 40
3.0
  9
$DIMTOL
 70
1
  9
$DIMLIM
 70
0
  9
$DIMTFAC
 40
1.0
  9
$DIMTP
 40
0.01
  9
$DIMTM
 40
0.01
  9
$DIMGAP
 40
0.625
  9
$DIMDSEP
 70
44
  9
$AUNITS
 70
0
  9
$PDMODE
 70
3
  9
$PDSIZE
 40
3.0
  9
$HANDSEED
  5
497
  9
$TILEMODE
 70
1
  9
$MEASUREMENT
 70
1
  9
$INSUNITS
 70
4
  0
ENDSEC
  0
SECTION
  2
CLASSES
  0
CLASS
  1
ACDBDICTIONARYWDFLT
  2
AcDbDictionaryWithDefault
  3
AutoCAD 2000
 90
0
 91
1
280
0
281
0
  0
CLASS
  1
ACDBPLACEHOLDER
  2
AcDbPlaceHolder
  3
AutoCAD 2000
 90
0
 91
1
280
0
281
0
  0
CLASS
  1
LAYOUT
  2
AcDbLayout
  3
AutoCAD 2000
 90
0
 91
0
280
0
281
0
  0
ENDSEC
  0
SECTION
  2
TABLES
  0
TABLE
  2
VPORT
  5
8
100
AcDbSymbolTable
 70
2
  0
VPORT
  5
1F4
100
AcDbSymbolTableRecord
100
AcDbViewportTableRecord
  2
*ACTIVE
 70
0
 10
0.0
 20
0.0
 11
1.0
 21
1.0
 12
148.5
 22
105.0
 13
0.0
 23
0.0
 14
1.0
 24
1.0
 15
0.0
 25
0.0
 16
0.0
 26
0.0
 36
1.0
 17
0.0
 27
0.0
 37
0.0
 40
210.0
 41
1.4142857143
 42
50.0
 43
0.0
 44
0.0
 50
0.0
 51
0.0
 71
0
 72
100
 73
1
 74
1
 75
0
 76
0
 77
0
 78
0
  0
ENDTAB
  0
TABLE
  2
LTYPE
  5
5
100
AcDbSymbolTable
 70
6
  0
LTYPE
  5
14
100
AcDbSymbolTableRecord
100
AcDbLinetypeTableRecord
  2
BYBLOCK
 70
0
  3

 72
65
 73
0
 40
0.0
  0
LTYPE
  5
15
100
AcDbSymbolTableRecord
100
AcDbLinetypeTableRecord
  2
BYLAYER
 70
0
  3

 72
65
 73
0
 40
0.0
  0
LTYPE
  5
16
100
AcDbSymbolTableRecord
100
AcDbLinetypeTableRecord
  2
CONTINUOUS
 70
64
  3
Solid line
 72
65
 73
0
 40
0.0
  0
LTYPE
  5
1F5
100
AcDbSymbolTableRecord
100
AcDbLinetypeTableRecord
  2
CENTER
 70
64
  3
____ _ ____ _ ____ _ ____ _ ____ _ ____ _ ____
 72
65
 73
4
 40
0.6
 49
0.375
 74
0
 49
-0.075
 74
0
 49
0.075
 74
0
 49
-0.075
 74
0
  0
LTYPE
  5
1F6
100
AcDbSymbolTableRecord
100
AcDbLinetypeTableRecord
  2
HIDDEN
 70
64
  3
- - - - - - - - - - - - - - - - - - - -
 72
65
 73
2
 40
0.2
 49
0.1
 74
0
 49
-0.1
 74
0
  0
LTYPE
  5
1F7
100
AcDbSymbolTableRecord
100
AcDbLinetypeTableRecord
  2
PHANTOM
 70
64
  3
_____ _ _ _____ _ _ _____ _ _ _____
 72
65
 73
6
 40
0.8
 49
0.45
 74
0
 49
-0.05
 74
0
 49
0.1
 74
0
 49
-0.05
 74
0
 49
0.1
 74
0
 49
-0.05
 74
0
  0
LTYPE
  5
1F8
100
AcDbSymbolTableRecord
100
AcDbLinetypeTableRecord
  2
DOT
 70
64
  3
. . . . . . . . . . . . . . . . . . . .
 72
65
 73
2
 40
0.2
 49
0.1
 74
0
 49
-0.1
 74
0
  0
LTYPE
  5
1F9
100
AcDbSymbolTableRecord
100
AcDbLinetypeTableRecord
  2
DASHED
 70
64
  3
- - - - - - - - - - - - - - - - - - - -
 72
65
 73
2
 40
0.2
 49
0.1
 74
0
 49
-0.1
 74
0
  0
ENDTAB
  0
TABLE
  2
LAYER
  5
2
100
AcDbSymbolTable
 70
36
  0
LAYER
  5
10
100
AcDbSymbolTableRecord
100
AcDbLayerTableRecord
  2
0
 70
0
 62
7
  6
CONTINUOUS
370
-3
390
F
  0
LAYER
  5
1FA
100
AcDbSymbolTableRecord
100
AcDbLayerTableRecord
  2
DEFAULT_1
 70
0
 62
7
  6
CENTER
370
-3
390
F
  0
LAYER
  5
1FB
100
AcDbSymbolTableRecord
100
AcDbLayerTableRecord
  2
DEFAULT_2
 70
0
 62
7
  6
HIDDEN
370
-3
390
F
  0
LAYER
  5
1FC
100
AcDbSymbolTableRecord
100
AcDbLayerTableRecord
  2
DEFAULT_3
 70
0
 62
7
  6
PHANTOM
370
-3
390
F
  0
LAYER
  5
1FD
100
AcDbSymbolTableRecord
100
AcDbLayerTableRecord
  2
ASSI
 70
0
 62
7
  6
CONTINUOUS
370
-3
390
F
  0
LAYER
  5
1FE
100
AcDbSymbolTableRecord
100
AcDbLayerTableRecord
  2
COORDINATE
 70
0
 62
7
  6
CONTINUOUS
370
-3
390
F
  0
LAYER
  5
1FF
100
AcDbSymbolTableRecord
100
AcDbLayerTableRecord
  2
COORD_ORIGINE
 70
0
 62
7
  6
CONTINUOUS
370
-3
390
F
  0
LAYER
  5
200
100
AcDbSymbolTableRecord
100
AcDbLayerTableRecord
  2
COPY_PUBLISH
 70
0
 62
7
  6
CONTINUOUS
370
-3
390
F
  0
LAYER
  5
201
100
AcDbSymbolTableRecord
100
AcDbLayerTableRecord
  2
COSMETICHE
 70
0
 62
7
  6
CONTINUOUS
370
-3
390
F
  0
LAYER
  5
202
100
AcDbSymbolTableRecord
100
AcDbLayerTableRecord
  2
COSMETICI
 70
0
 62
7
  6
CONTINUOUS
370
-3
390
F
  0
LAYER
  5
203
100
AcDbSymbolTableRecord
100
AcDbLayerTableRecord
  2
CURVE
 70
0
 62
7
  6
CONTINUOUS
370
-3
390
F
  0
LAYER
  5
204
100
AcDbSymbolTableRecord
100
AcDbLayerTableRecord
  2
DRAFT
 70
0
 62
7
  6
CONTINUOUS
370
-3
390
F
  0
LAYER
  5
205
100
AcDbSymbolTableRecord
100
AcDbLayerTableRecord
  2
IMPORT_IGES
 70
0
 62
7
  6
CONTINUOUS
370
-3
390
F
  0
LAYER
  5
206
100
AcDbSymbolTableRecord
100
AcDbLayerTableRecord
  2
INTF_1
 70
0
 62
7
  6
CONTINUOUS
370
-3
390
F
  0
LAYER
  5
207
100
AcDbSymbolTableRecord
100
AcDbLayerTableRecord
  2
INTF_10
 70
0
 62
7
  6
CONTINUOUS
370
-3
390
F
  0
LAYER
  5
208
100
AcDbSymbolTableRecord
100
AcDbLayerTableRecord
  2
INTF_11
 70
0
 62
7
  6
CONTINUOUS
370
-3
390
F
  0
LAYER
  5
209
100
AcDbSymbolTableRecord
100
AcDbLayerTableRecord
  2
INTF_13
 70
0
 62
7
  6
CONTINUOUS
370
-3
390
F
  0
LAYER
  5
20A
100
AcDbSymbolTableRecord
100
AcDbLayerTableRecord
  2
INTF_14
 70
0
 62
7
  6
CONTINUOUS
370
-3
390
F
  0
LAYER
  5
20B
100
AcDbSymbolTableRecord
100
AcDbLayerTableRecord
  2
INTF_2
 70
0
 62
7
  6
CONTINUOUS
370
-3
390
F
  0
LAYER
  5
20C
100
AcDbSymbolTableRecord
100
AcDbLayerTableRecord
  2
INTF_8
 70
0
 62
7
  6
CONTINUOUS
370
-3
390
F
  0
LAYER
  5
20D
100
AcDbSymbolTableRecord
100
AcDbLayerTableRecord
  2
INTF_9
 70
0
 62
7
  6
CONTINUOUS
370
-3
390
F
  0
LAYER
  5
20E
100
AcDbSymbolTableRecord
100
AcDbLayerTableRecord
  2
NOTE
 70
0
 62
7
  6
CONTINUOUS
370
-3
390
F
  0
LAYER
  5
20F
100
AcDbSymbolTableRecord
100
AcDbLayerTableRecord
  2
PIANI
 70
0
 62
7
  6
CONTINUOUS
370
-3
390
F
  0
LAYER
  5
210
100
AcDbSymbolTableRecord
100
AcDbLayerTableRecord
  2
PIANI_ORIGINE
 70
0
 62
7
  6
CONTINUOUS
370
-3
390
F
  0
LAYER
  5
211
100
AcDbSymbolTableRecord
100
AcDbLayerTableRecord
  2
PUNTI
 70
0
 62
7
  6
CONTINUOUS
370
-3
390
F
  0
LAYER
  5
212
100
AcDbSymbolTableRecord
100
AcDbLayerTableRecord
  2
RACCORDO
 70
0
 62
7
  6
CONTINUOUS
370
-3
390
F
  0
LAYER
  5
213
100
AcDbSymbolTableRecord
100
AcDbLayerTableRecord
  2
RGB__255__255__255__
 70
0
 62
7
  6
CONTINUOUS
370
-3
390
F
  0
LAYER
  5
214
100
AcDbSymbolTableRecord
100
AcDbLayerTableRecord
  2
RGB____0____0____0__
 70
0
 62
7
  6
CONTINUOUS
370
-3
390
F
  0
LAYER
  5
215
100
AcDbSymbolTableRecord
100
AcDbLayerTableRecord
  2
SIMBOLI
 70
0
 62
7
  6
CONTINUOUS
370
-3
390
F
  0
LAYER
  5
216
100
AcDbSymbolTableRecord
100
AcDbLayerTableRecord
  2
SMUSSO
 70
0
 62
7
  6
CONTINUOUS
370
-3
390
F
  0
LAYER
  5
217
100
AcDbSymbolTableRecord
100
AcDbLayerTableRecord
  2
SNAPLINE
 70
0
 62
7
  6
CONTINUOUS
370
-3
390
F
  0
LAYER
  5
218
100
AcDbSymbolTableRecord
100
AcDbLayerTableRecord
  2
SUPERFICI
 70
0
 62
7
  6
CONTINUOUS
370
-3
390
F
  0
LAYER
  5
219
100
AcDbSymbolTableRecord
100
AcDbLayerTableRecord
  2
TRASH
 70
0
 62
7
  6
CONTINUOUS
370
-3
390
F
  0
LAYER
  5
21A
100
AcDbSymbolTableRecord
100
AcDbLayerTableRecord
  2
XSEC_DATUMS
 70
0
 62
7
  6
CONTINUOUS
370
-3
390
F
  0
ENDTAB
  0
TABLE
  2
STYLE
  5
3
100
AcDbSymbolTable
 70
1
  0
STYLE
  5
11
100
AcDbSymbolTableRecord
100
AcDbTextStyleTableRecord
  2
STANDARD
 70
0
 40
0.0
 41
0.8
 50
0.0
 71
0
 42
0.2
  3
txt
  4

  0
STYLE
  5
21B
100
AcDbSymbolTableRecord
100
AcDbTextStyleTableRecord
  2
TEXTSTYLE_1
 70
0
 40
0.0
 41
0.8
 50
0.0
 71
0
 42
0.2
  3
gdt
  4

  0
ENDTAB
  0
TABLE
  2
VIEW
  5
6
100
AcDbSymbolTable
 70
0
  0
ENDTAB
  0
TABLE
  2
UCS
  5
7
100
AcDbSymbolTable
 70
0
  0
ENDTAB
  0
TABLE
  2
APPID
  5
9
100
AcDbSymbolTable
 70
1
  0
APPID
  5
21C
100
AcDbSymbolTableRecord
100
AcDbRegAppTableRecord
  2
ACAD
 70
0
  0
ENDTAB
  0
TABLE
  2
BLOCK_RECORD
  5
1
100
AcDbSymbolTable
 70
0
  0
BLOCK_RECORD
  5
21D
100
AcDbSymbolTableRecord
100
AcDbBlockTableRecord
  2
*Model_Space
  0
BLOCK_RECORD
  5
21E
100
AcDbSymbolTableRecord
100
AcDbBlockTableRecord
  2
*Paper_Space
  0
BLOCK_RECORD
  5
21F
100
AcDbSymbolTableRecord
100
AcDbBlockTableRecord
  2
_FILLED
  0
ENDTAB
  0
TABLE
  2
DIMSTYLE
  5
A
100
AcDbSymbolTable
 70
1
100
AcDbDimStyleTable
 71
0
  0
DIMSTYLE
105
220
100
AcDbSymbolTableRecord
100
AcDbDimStyleTableRecord
  2
STANDARD
 70
0
  3

  4

 40
1.0
 41
3.0
 42
0.5
 43
0.38
 44
1.5
 45
0.0
 46
0.0
 47
0.01
 48
0.01
140
3.0
141
0.09
142
0.0
143
25.4
144
1.0
145
0.0
146
1.0
147
0.625
 71
1
 72
0
 73
0
 74
0
 75
0
 76
0
 77
1
 78
8
 79
2
170
0
171
1
172
0
173
0
174
0
175
0
176
0
177
0
178
0
270
2
179
2
271
2
272
2
273
2
274
2
275
0
280
0
281
0
282
0
283
1
284
8
285
0
286
0
287
3
288
0
340
11
278
44
341
21F
342
21F
343
21F
344
21F
  0
ENDTAB
  0
ENDSEC
  0
SECTION
  2
BLOCKS
  0
BLOCK
  5
20
100
AcDbEntity
  8
0
100
AcDbBlockBegin
  2
*Model_Space
 70
0
 10
0.0
 20
0.0
 30
0.0
  3
*Model_Space
  1

  0
ENDBLK
  5
21
100
AcDbEntity
  8
0
100
AcDbBlockEnd
  0
BLOCK
  5
1C
100
AcDbEntity
  8
0
100
AcDbBlockBegin
  2
*Paper_Space
 70
0
 10
0.0
 20
0.0
 30
0.0
  3
*Paper_Space
  1

  0
ENDBLK
  5
1D
100
AcDbEntity
  8
0
100
AcDbBlockEnd
  0
BLOCK
  5
221
100
AcDbEntity
  8
0
100
AcDbBlockBegin
  2
_FILLED
 70
64
 10
0.0
 20
0.0
  3
_FILLED
  1

  0
SOLID
  5
222
100
AcDbEntity
  8
0
  6
BYBLOCK
 62
0
100
AcDbTrace
 10
0.0
 20
0.0
 11
-1.0
 21
0.3166666667
 12
-1.0
 22
-0.3166666667
 13
-1.0
 23
-0.3166666667
  0
ENDBLK
  5
223
100
AcDbEntity
  8
0
  6
BYBLOCK
 62
0
100
AcDbBlockEnd
  0
ENDSEC
  0
SECTION
  2
ENTITIES
  0
LINE
  5
224
100
AcDbEntity
  8
0
100
AcDbLine
 62
7
  6
CONTINUOUS
 10
-17.7870352845
 20
-17.1912484286
 11
-2.9188211162
 21
-25.7759689469
  0
LINE
  5
225
100
AcDbEntity
  8
0
100
AcDbLine
 62
250
  6
CONTINUOUS
 10
-17.890576595
 20
-16.962379998
 11
-3.0223624267
 21
-25.5471005163
  0
LWPOLYLINE
  5
226
100
AcDbEntity
  8
0
100
AcDbPolyline
 62
250
  6
CONTINUOUS
 90
9
 70
0
 10
-17.7870352845
 20
-17.1912484286
 10
-17.8026351869
 20
-17.1810396023
 10
-17.825214401
 20
-17.1611236149
 10
-17.8447404123
 20
-17.1369393596
 10
-17.861006355
 20
-17.1087430534
 10
-17.8738399016
 20
-17.0768334183
 10
-17.8831050889
 20
-17.0415485169
 10
-17.8887037581
 20
-17.0032621702
 10
-17.890576595
 20
-16.962379998
  0
LINE
  5
227
100
AcDbEntity
  8
0
100
AcDbLine
 62
7
  6
CONTINUOUS
 10
-17.8063971545
 20
25.8147630969
 11
-15.5213113777
 21
27.2760489599
  0
LINE
  5
228
100
AcDbEntity
  8
0
100
AcDbLine
 62
250
  6
CONTINUOUS
 10
-17.5462781533
 20
25.7962811358
 11
-15.2649167769
 21
27.2551852879
  0
LWPOLYLINE
  5
229
100
AcDbEntity
  8
0
100
AcDbPolyline
 62
250
  6
CONTINUOUS
 90
9
 70
0
 10
-17.8063971545
 20
25.8147630969
 10
-17.7858952072
 20
25.8259360799
 10
-17.7568977819
 20
25.8362145375
 10
-17.7254385017
 20
25.8416340424
 10
-17.6919032662
 20
25.8421167807
 10
-17.6568014634
 20
25.8376842406
 10
-17.620582456
 20
25.8284570746
 10
-17.5836063072
 20
25.8145883629
 10
-17.5462781533
 20
25.7962811358
  0
LWPOLYLINE
  5
22A
100
AcDbEntity
  8
0
100
AcDbPolyline
 62
250
  6
CONTINUOUS
 90
9
 70
0
 10
-18.0370232045
 20
-16.7582427013
 10
-18.0359085193
 20
-16.7775091321
 10
-18.0298204576
 20
-16.8070682027
 10
-18.0184735516
 20
-16.8361484334
 10
-18.0019935058
 20
-16.8643982079
 10
-17.9806473728
 20
-16.8914148361
 10
-17.954752651
 20
-16.9168951925
 10
-17.9246084358
 20
-16.9406255824
 10
-17.890576595
 20
-16.962379998
  0
LINE
  5
22B
100
AcDbEntity
  8
0
100
AcDbLine
 62
7
  6
CONTINUOUS
 10
-18.0370232045
 20
-16.7582427013
 11
-18.0370232045
 21
25.3935295809
  0
LINE
  5
22C
100
AcDbEntity
  8
0
100
AcDbLine
 62
250
  6
CONTINUOUS
 10
-17.890576595
 20
-16.962379998
 11
-17.890576595
 21
25.1893922842
  0
LWPOLYLINE
  5
22D
100
AcDbEntity
  8
0
100
AcDbPolyline
 62
250
  6
CONTINUOUS
 90
16
 70
0
 10
-17.890576595
 20
25.1893922842
 10
-17.8887037581
 20
25.2324371616
 10
-17.8831050889
 20
25.2771887111
 10
-17.8738399016
 20
25.3231728185
 10
-17.861006355
 20
25.3699023115
 10
-17.8447404123
 20
25.4168821207
 10
-17.825214401
 20
25.4636145244
 10
-17.8026351869
 20
25.5096044224
 10
-17.7772419822
 20
25.554364581
 10
-17.749303812
 20
25.5974207949
 10
-17.7191166631
 20
25.638316911
 10
-17.6870003494
 20
25.6766196606
 10
-17.653295123
 20
25.7119232503
 10
-17.6183580694
 20
25.7438536609
 10
-17.5825593245
 20
25.7720726101
 10
-17.5462781533
 20
25.7962811358
  0
LWPOLYLINE
  5
22E
100
AcDbEntity
  8
ASSI
100
AcDbPolyline
 62
250
  6
CONTINUOUS
 90
3
 70
0
 10
-9.4201914572
 20
23.5523060367
 10
-9.4442840733
 20
23.5256078086
 10
-9.4665946041
 20
23.4984293443
  0
LWPOLYLINE
  5
22F
100
AcDbEntity
  8
ASSI
100
AcDbPolyline
 62
250
  6
CONTINUOUS
 90
8
 70
0
 10
-9.1173691341
 20
23.8041725461
 10
-9.1161895747
 20
23.8054717779
 10
-9.112191437
 20
23.8118795111
 10
-9.1098104934
 20
23.8197257208
 10
-9.1090731715
 20
23.8289243057
 10
-9.1099874476
 20
23.8393746193
 10
-9.1125432995
 20
23.8509630247
 10
-9.1167128626
 20
23.8635631975
  0
LINE
  5
230
100
AcDbEntity
  8
DRAFT
100
AcDbLine
 62
7
  6
CONTINUOUS
 10
-10.256964546
 20
24.3636564342
 11
-10.7744252546
 21
23.8247896862
  0
LINE
  5
231
100
AcDbEntity
  8
ASSI
100
AcDbLine
 62
250
  6
CONTINUOUS
 10
-9.1167128626
 20
23.8635631975
 11
-9.4201914572
 21
23.5523060367
  0
LINE
  5
232
100
AcDbEntity
  8
ASSI
100
AcDbLine
 62
7
  6
CONTINUOUS
 10
-9.1173814531
 20
23.8041599025
 11
-9.4208600478
 21
23.4929027415
  0
LINE
  5
233
100
AcDbEntity
  8
ASSI
100
AcDbLine
 62
250
  6
CONTINUOUS
 10
-10.256964546
 20
23.9010593249
 11
-9.2581126797
 21
24.4777858542
  0
LINE
  5
234
100
AcDbEntity
  8
ASSI
100
AcDbLine
 62
250
  6
CONTINUOUS
 10
-10.1543026342
 20
23.6337808
 11
-9.1167128626
 21
24.2328741871
  0
LINE
  5
235
100
AcDbEntity
  8
DRAFT
100
AcDbLine
 62
7
  6
CONTINUOUS
 10
-1.3914367282
 20
28.4417597012
 11
-5.931318497
 21
25.882717202
  0
LINE
  5
236
100
AcDbEntity
  8
DRAFT
100
AcDbLine
 62
7
  6
CONTINUOUS
 10
-2.5702360885
 20
27.8810101636
 11
-9.0605808227
 21
24.2254957439
  0
LINE
  5
237
100
AcDbEntity
  8
RACCORDO
100
AcDbLine
 62
7
  6
CONTINUOUS
 10
0.0516764954
 20
29.3287578641
 11
-1.9816804972
 21
28.1856771352
  0
LINE
  5
238
100
AcDbEntity
  8
RACCORDO
100
AcDbLine
 62
250
  6
CONTINUOUS
 10
-1.3128211411
 20
28.3963680465
 11
0.3028596243
 21
29.304639476
  0
LINE
  5
239
100
AcDbEntity
  8
RACCORDO
100
AcDbLine
 62
250
  6
CONTINUOUS
 10
-7.2370497224
 20
25.195241938
 11
-9.0605808227
 21
24.1877858396
  0
LINE
  5
23A
100
AcDbEntity
  8
RACCORDO
100
AcDbLine
 62
250
  6
CONTINUOUS
 10
-6.5767068689
 20
25.1063453011
 11
-9.331181969
 21
23.5848793906
  0
LINE
  5
23B
100
AcDbEntity
  8
ASSI
100
AcDbLine
 62
250
  6
CONTINUOUS
 10
-6.3033262471
 20
25.7086692473
 11
-7.2370497224
 21
25.195241938
  0
LINE
  5
23C
100
AcDbEntity
  8
ASSI
100
AcDbLine
 62
250
  6
CONTINUOUS
 10
-5.6514994051
 20
25.6151290456
 11
-6.5767660732
 21
25.106379485
  0
LINE
  5
23D
100
AcDbEntity
  8
RACCORDO
100
AcDbLine
 62
7
  6
CONTINUOUS
 10
-6.4292128163
 20
25.6528499249
 11
-8.9669849372
 21
24.2622838376
  0
LINE
  5
23E
100
AcDbEntity
  8
RACCORDO
100
AcDbLine
 62
250
  6
CONTINUOUS
 10
-6.4244948205
 20
25.6551981286
 11
-6.4291130179
 21
25.6526677806
  0
LINE
  5
23F
100
AcDbEntity
  8
ASSI
100
AcDbLine
 62
7
  6
CONTINUOUS
 10
-10.8825098853
 20
25.3710251821
 11
-11.4619689269
 21
25.0594108615
  0
LINE
  5
240
100
AcDbEntity
  8
ASSI
100
AcDbLine
 62
250
  6
CONTINUOUS
 10
-10.7853165454
 20
25.3595742259
 11
-11.4048303381
 21
25.0264197565
  0
LWPOLYLINE
  5
241
100
AcDbEntity
  8
RACCORDO
100
AcDbPolyline
 62
250
  6
CONTINUOUS
 90
10
 70
0
 10
0.3028596243
 20
29.304639476
 10
0.3332475846
 20
29.3200589722
 10
0.3633785068
 20
29.3323162933
 10
0.3930282358
 20
29.3413159551
 10
0.4219783886
 20
29.3469868549
 10
0.4500096562
 20
29.3492810953
 10
0.4769044217
 20
29.3481776474
 10
0.5024616141
 20
29.3436829053
 10
0.5264902039
 20
29.3358285122
 10
0.5467013469
 20
29.325909554
  0
LINE
  5
242
100
AcDbEntity
  8
RACCORDO
100
AcDbLine
 62
7
  6
CONTINUOUS
 10
-6.4291958538
 20
25.6528201137
 11
-6.4244948205
 21
25.6551981286
  0
LWPOLYLINE
  5
243
100
AcDbEntity
  8
ASSI
100
AcDbPolyline
 62
250
  6
CONTINUOUS
 90
9
 70
0
 10
-9.2581126797
 20
24.4777858542
 10
-9.2435092972
 20
24.4850484204
 10
-9.2290888262
 20
24.4904686041
 10
-9.2150057702
 20
24.4939883336
 10
-9.2014110281
 20
24.4955698987
 10
-9.1884502448
 20
24.4951963594
 10
-9.176262256
 20
24.4928717113
 10
-9.1649776403
 20
24.4886208434
 10
-9.1605759906
 20
24.4862938854
  0
LINE
  5
244
100
AcDbEntity
  8
RACCORDO
100
AcDbLine
 62
7
  6
CONTINUOUS
 10
-8.9625062469
 20
24.2645241703
 11
-9.0605808227
 21
24.2180941048
  0
LINE
  5
245
100
AcDbEntity
  8
DRAFT
100
AcDbLine
 62
7
  6
CONTINUOUS
 10
-6.458183759
 20
25.6573723479
 11
-6.5229119405
 21
25.6270692747
  0
LINE
  5
246
100
AcDbEntity
  8
DRAFT
100
AcDbLine
 62
7
  6
CONTINUOUS
 10
-6.3932035374
 20
25.6872013878
 11
-6.458183759
 21
25.6573723479
  0
LINE
  5
247
100
AcDbEntity
  8
DRAFT
100
AcDbLine
 62
7
  6
CONTINUOUS
 10
-6.3279712759
 20
25.7165563944
 11
-6.3932035374
 21
25.6872013878
  0
LINE
  5
248
100
AcDbEntity
  8
RACCORDO
100
AcDbLine
 62
7
  6
CONTINUOUS
 10
-6.3842010616
 20
25.6732023244
 11
-6.4244948205
 21
25.6551981286
  0
LINE
  5
249
100
AcDbEntity
  8
DRAFT
100
AcDbLine
 62
7
  6
CONTINUOUS
 10
-6.2624857288
 20
25.745437906
 11
-6.3279712759
 21
25.7165563944
  0
LINE
  5
24A
100
AcDbEntity
  8
RACCORDO
100
AcDbLine
 62
7
  6
CONTINUOUS
 10
-6.3438115371
 20
25.6910260307
 11
-6.3842010616
 21
25.6732023244
  0
LINE
  5
24B
100
AcDbEntity
  8
RACCORDO
100
AcDbLine
 62
7
  6
CONTINUOUS
 10
-6.3033262471
 20
25.7086692473
 11
-6.3438115371
 21
25.6910260307
  0
LWPOLYLINE
  5
24C
100
AcDbEntity
  8
RACCORDO
100
AcDbPolyline
 62
7
  6
CONTINUOUS
 90
7
 70
0
 10
-1.3914367282
 20
28.4417597012
 10
-1.5942543972
 20
28.3591057316
 10
-1.7946816689
 20
28.2720455107
 10
-1.9927185432
 20
28.1805790385
 10
-2.1883993884
 20
28.0846884719
 10
-2.3816898363
 20
27.9843916539
 10
-2.5702354972
 20
27.8810104966
  0
LWPOLYLINE
  5
24D
100
AcDbEntity
  8
DRAFT
100
AcDbPolyline
 62
7
  6
CONTINUOUS
 90
6
 70
0
 10
-5.931318497
 20
25.882717202
 10
-5.9980480517
 20
25.8562128542
 10
-6.0645293031
 20
25.8292328584
 10
-6.1307622512
 20
25.8017772145
 10
-6.1967481417
 20
25.7738453843
 10
-6.2624857288
 20
25.745437906
  0
LWPOLYLINE
  5
24E
100
AcDbEntity
  8
ASSI
100
AcDbPolyline
 62
250
  6
CONTINUOUS
 90
13
 70
0
 10
-7.2370497224
 20
25.1952419381
 10
-7.1901337579
 20
25.2129424228
 10
-7.1411186013
 20
25.2261086731
 10
-7.0901771684
 20
25.2346951922
 10
-7.0374866119
 20
25.2386743777
 10
-6.9832357423
 20
25.2380321446
 10
-6.927624351
 20
25.2327679396
 10
-6.8708482039
 20
25.2229018893
 10
-6.8131090272
 20
25.208471065
 10
-6.7546220056
 20
25.1895256663
 10
-6.6955979784
 20
25.1661348447
 10
-6.6362425383
 20
25.1383856273
 10
-6.5767660732
 20
25.106379485
  0
LWPOLYLINE
  5
24F
100
AcDbEntity
  8
ASSI
100
AcDbPolyline
 62
7
  6
CONTINUOUS
 90
13
 70
0
 10
-6.3033262471
 20
25.7086692473
 10
-6.2575053683
 20
25.7257856006
 10
-6.2097655078
 20
25.7383514952
 10
-6.1601066655
 20
25.7463669312
 10
-6.1083056262
 20
25.7498401367
 10
-6.0545856052
 20
25.7487628835
 10
-5.9996162481
 20
25.7431104876
 10
-5.9433764716
 20
25.7327984139
 10
-5.8858873591
 20
25.7179111975
 10
-5.8278818066
 20
25.6986777603
 10
-5.7696041127
 20
25.6751744096
 10
-5.7108099789
 20
25.647324838
 10
-5.6514994051
 20
25.6151290456
  0
LWPOLYLINE
  5
250
100
AcDbEntity
  8
ASSI
100
AcDbPolyline
 62
250
  6
CONTINUOUS
 90
3
 70
0
 10
-10.8671519761
 20
25.3769938148
 10
-10.8786571634
 20
25.3729394475
 10
-10.8825098853
 20
25.3710251821
  0
LWPOLYLINE
  5
251
100
AcDbEntity
  8
0
100
AcDbPolyline
 62
7
  6
CONTINUOUS
 90
5
 70
0
 10
0.1835621672
 20
-18.2794586197
 10
0.1651540588
 20
-18.2792902664
 10
0.1463491087
 20
-18.2819736206
 10
0.1273915688
 20
-18.2876125128
 10
0.1085422255
 20
-18.2962852009
  0
LWPOLYLINE
  5
252
100
AcDbEntity
  8
0
100
AcDbPolyline
 62
7
  6
CONTINUOUS
 90
3
 70
0
 10
0.218304495
 20
-18.2878318941
 10
0.2013476335
 20
-18.2823534029
 10
0.1835621672
 20
-18.2794586197
  0
LINE
  5
253
100
AcDbEntity
  8
0
100
AcDbLine
 62
7
  6
CONTINUOUS
 10
0.7098114267
 20
-18.5442878492
 11
0.2276120361
 21
-18.2921452272
  0
LINE
  5
254
100
AcDbEntity
  8
DRAFT
100
AcDbLine
 62
7
  6
CONTINUOUS
 10
1.1038901389
 20
-18.7718239587
 11
0.6070572223
 21
-18.5112321222
  0
LINE
  5
255
100
AcDbEntity
  8
DRAFT
100
AcDbLine
 62
250
  6
CONTINUOUS
 10
0.4667359069
 20
-18.5273573824
 11
0.0869795923
 21
-18.3080908459
  0
LINE
  5
256
100
AcDbEntity
  8
DRAFT
100
AcDbLine
 62
250
  6
CONTINUOUS
 10
0.6070572223
 20
-18.5112321222
 11
0.2276120361
 21
-18.2921452272
  0
LINE
  5
257
100
AcDbEntity
  8
DRAFT
100
AcDbLine
 62
7
  6
CONTINUOUS
 10
0.7098114267
 20
-18.5442878492
 11
1.1038901389
 21
-18.7718239587
  0
LWPOLYLINE
  5
258
100
AcDbEntity
  8
0
100
AcDbPolyline
 62
250
  6
CONTINUOUS
 90
9
 70
0
 10
-18.0370232041
 20
25.3935181741
 10
-18.0359066682
 20
25.3742471771
 10
-18.0298152443
 20
25.3446865411
 10
-18.018465081
 20
25.3156063995
 10
-18.0019824566
 20
25.2873579416
 10
-17.9806352451
 20
25.2603439787
 10
-17.9547416904
 20
25.2348674693
 10
-17.9246013722
 20
25.2111416956
 10
-17.890576595
 20
25.1893922842
  0
LINE
  5
259
100
AcDbEntity
  8
0
100
AcDbLine
 62
7
  6
CONTINUOUS
 10
-13.9722492465
 20
-2.126831637
 11
-13.9722492465
 21
5.8290577174
  0
LINE
  5
25A
100
AcDbEntity
  8
RACCORDO
100
AcDbLine
 62
7
  6
CONTINUOUS
 10
-13.9722492465
 20
-2.126831637
 11
-13.9722492465
 21
5.8290577174
  0
LWPOLYLINE
  5
25B
100
AcDbEntity
  8
ASSI
100
AcDbPolyline
 62
7
  6
CONTINUOUS
 90
13
 70
0
 10
-7.1649735496
 20
23.5237221546
 10
-7.1751403066
 20
23.503389849
 10
-7.1874673288
 20
23.4813864601
 10
-7.2010582892
 20
23.4596301285
 10
-7.2157273219
 20
23.4384277406
 10
-7.2312637487
 20
23.4180776322
 10
-7.2474952821
 20
23.3987843382
 10
-7.2641913215
 20
23.3807826236
 10
-7.2810766034
 20
23.3643148297
 10
-7.2978357876
 20
23.3496043437
 10
-7.3141068672
 20
23.3368474904
 10
-7.3295427045
 20
23.3261670961
 10
-7.3430647731
 20
23.3180221824
  0
LWPOLYLINE
  5
25C
100
AcDbEntity
  8
ASSI
100
AcDbPolyline
 62
250
  6
CONTINUOUS
 90
6
 70
0
 10
-9.5058765358
 20
23.4423368411
 10
-9.5228479366
 20
23.4134228022
 10
-9.538015875
 20
23.3849131251
 10
-9.5512498423
 20
23.357185267
 10
-9.562680347
 20
23.3298617707
 10
-9.5726775374
 20
23.3026948624
  0
LWPOLYLINE
  5
25D
100
AcDbEntity
  8
ASSI
100
AcDbPolyline
 62
250
  6
CONTINUOUS
 90
6
 70
0
 10
-9.4208583186
 20
23.4929045152
 10
-9.4156496532
 20
23.5006679871
 10
-9.4129445871
 20
23.5106873713
 10
-9.4128055582
 20
23.5227756249
 10
-9.4152349311
 20
23.5367274835
 10
-9.4201914572
 20
23.5523060367
  0
LWPOLYLINE
  5
25E
100
AcDbEntity
  8
ASSI
100
AcDbPolyline
 62
250
  6
CONTINUOUS
 90
3
 70
0
 10
-9.4665946041
 20
23.4984293443
 10
-9.4871230497
 20
23.4707706438
 10
-9.5058765358
 20
23.4423368411
  0
LWPOLYLINE
  5
25F
100
AcDbEntity
  8
ASSI
100
AcDbPolyline
 62
7
  6
CONTINUOUS
 90
5
 70
0
 10
-4.6486325364
 20
25.0711786424
 10
-4.6541475259
 20
25.0638908701
 10
-4.659763479
 20
25.0566452699
 10
-4.6654810195
 20
25.049444993
 10
-4.6674913211
 20
25.0469751104
  0
LINE
  5
260
100
AcDbEntity
  8
ASSI
100
AcDbLine
 62
250
  6
CONTINUOUS
 10
-0.6189666043
 20
26.1905494084
 11
-3.4847435115
 21
24.5358857388
  0
LINE
  5
261
100
AcDbEntity
  8
ASSI
100
AcDbLine
 62
250
  6
CONTINUOUS
 10
-0.4777390612
 20
25.9542584901
 11
-3.3435159684
 21
24.2995948205
  0
LINE
  5
262
100
AcDbEntity
  8
ASSI
100
AcDbLine
 62
250
  6
CONTINUOUS
 10
-3.0224545846
 20
24.2521675309
 11
-4.4489094484
 21
23.4285503702
  0
LINE
  5
263
100
AcDbEntity
  8
ASSI
100
AcDbLine
 62
250
  6
CONTINUOUS
 10
-2.8812270414
 20
24.0158766126
 11
-4.1736749223
 21
23.2696334044
  0
LINE
  5
264
100
AcDbEntity
  8
0
100
AcDbLine
 62
7
  6
CONTINUOUS
 10
-1.530873664
 20
24.3490443135
 11
-1.3563457484
 21
24.4498145446
  0
LINE
  5
265
100
AcDbEntity
  8
0
100
AcDbLine
 62
7
  6
CONTINUOUS
 10
0.8374276662
 20
25.7164718197
 11
2.2507700321
 21
26.5325179885
  0
LWPOLYLINE
  5
266
100
AcDbEntity
  8
ASSI
100
AcDbPolyline
 62
250
  6
CONTINUOUS
 90
13
 70
0
 10
-7.2456847701
 20
23.3066250917
 10
-7.2330150371
 20
23.3139269709
 10
-7.2203648442
 20
23.3222232151
 10
-7.2078184353
 20
23.3314272513
 10
-7.1955643482
 20
23.3413482354
 10
-7.1835606799
 20
23.3519750507
 10
-7.1715688477
 20
23.3635558347
 10
-7.1595529863
 20
23.3762077991
 10
-7.1477789197
 20
23.389733171
 10
-7.1364824395
 20
23.403936258
 10
-7.1258002135
 20
23.4186697978
 10
-7.115788828
 20
23.4338550175
 10
-7.1065432215
 20
23.4493640009
  0
LWPOLYLINE
  5
267
100
AcDbEntity
  8
ASSI
100
AcDbPolyline
 62
250
  6
CONTINUOUS
 90
16
 70
0
 10
-3.4847435115
 20
24.5358857388
 10
-3.5171192269
 20
24.5178036852
 10
-3.5487224521
 20
24.5013052081
 10
-3.5795284699
 20
24.4863216962
 10
-3.6092734811
 20
24.4728912891
 10
-3.638185447
 20
24.4608198295
 10
-3.6669750612
 20
24.4497631465
 10
-3.695650757
 20
24.4397103062
 10
-3.7241632085
 20
24.4306791662
 10
-3.7531181521
 20
24.4225061809
 10
-3.7825465016
 20
24.4152408899
 10
-3.8123467704
 20
24.4089740406
 10
-3.842900215
 20
24.4037176004
 10
-3.8742899479
 20
24.3995781366
 10
-3.9063126692
 20
24.3967041428
 10
-3.9389003313
 20
24.3952226584
  0
LINE
  5
268
100
AcDbEntity
  8
ASSI
100
AcDbLine
 62
7
  6
CONTINUOUS
 10
-6.6996468127
 20
24.4229907843
 11
-6.558386333
 21
24.5017438159
  0
LINE
  5
269
100
AcDbEntity
  8
ASSI
100
AcDbLine
 62
250
  6
CONTINUOUS
 10
-6.6022584784
 20
24.4115979416
 11
-6.4609980384
 21
24.4903509511
  0
LINE
  5
26A
100
AcDbEntity
  8
ASSI
100
AcDbLine
 62
7
  6
CONTINUOUS
 10
-8.4950841287
 20
22.6757688298
 11
-7.3430727563
 21
23.3180177325
  0
LINE
  5
26B
100
AcDbEntity
  8
ASSI
100
AcDbLine
 62
250
  6
CONTINUOUS
 10
-8.4372044456
 20
22.6423498262
 11
-7.2456844211
 21
23.3066248903
  0
LINE
  5
26C
100
AcDbEntity
  8
ASSI
100
AcDbLine
 62
7
  6
CONTINUOUS
 10
-4.0177773998
 20
24.7987560945
 11
-2.7867287705
 21
25.4850588114
  0
LINE
  5
26D
100
AcDbEntity
  8
ASSI
100
AcDbLine
 62
250
  6
CONTINUOUS
 10
-3.9203287934
 20
24.7873872214
 11
-2.6893404036
 21
25.473665987
  0
LINE
  5
26E
100
AcDbEntity
  8
ASSI
100
AcDbLine
 62
7
  6
CONTINUOUS
 10
-2.7867287705
 20
25.4850588114
 11
-2.7866035318
 21
25.4851284496
  0
LINE
  5
26F
100
AcDbEntity
  8
ASSI
100
AcDbLine
 62
250
  6
CONTINUOUS
 10
-6.6996468127
 20
24.4229907843
 11
-6.6994800336
 21
24.42308344
  0
LWPOLYLINE
  5
270
100
AcDbEntity
  8
ASSI
100
AcDbPolyline
 62
250
  6
CONTINUOUS
 90
16
 70
0
 10
-3.3435159684
 20
24.2995948205
 10
-3.3802428737
 20
24.2792301059
 10
-3.4160393812
 20
24.2604994782
 10
-3.4509054909
 20
24.2434029373
 10
-3.484587835
 20
24.2280959259
 10
-3.5173397812
 20
24.2144230013
 10
-3.5499214328
 20
24.2019178364
 10
-3.5823791799
 20
24.1904602419
 10
-3.6146666325
 20
24.180170407
 10
-3.6474047237
 20
24.1709425722
 10
-3.6806929692
 20
24.162665328
 10
-3.7144318534
 20
24.1554500839
 10
-3.7489437635
 20
24.1495253084
 10
-3.7843361617
 20
24.1449671576
 10
-3.8205015859
 20
24.1416994754
 10
-3.8574400359
 20
24.1397222617
  0
LWPOLYLINE
  5
271
100
AcDbEntity
  8
ASSI
100
AcDbPolyline
 62
7
  6
CONTINUOUS
 90
16
 70
0
 10
-1.1017268213
 20
26.4244511463
 10
-1.8700264834
 20
25.9961280342
 10
-1.88230763
 20
25.9899190737
 10
-1.8969135633
 20
25.9836461058
 10
-1.913694743
 20
25.9775925413
 10
-1.9325993489
 20
25.9719644015
 10
-1.953358931
 20
25.9670039399
 10
-1.975790516
 20
25.9628940948
 10
-1.9996068262
 20
25.9598060208
 10
-2.0243144908
 20
25.9578865264
 10
-2.0496433728
 20
25.957217172
 10
-2.0751839993
 20
25.957850644
 10
-2.1001894513
 20
25.9597580969
 10
-2.1243271136
 20
25.9628655275
 10
-2.1472332275
 20
25.9670536545
 10
-2.1532853316
 20
25.9683770503
  0
LINE
  5
272
100
AcDbEntity
  8
ASSI
100
AcDbLine
 62
250
  6
CONTINUOUS
 10
-0.9956412809
 20
26.4178620213
 11
-1.771461994
 21
25.9853852421
  0
LWPOLYLINE
  5
273
100
AcDbEntity
  8
ASSI
100
AcDbPolyline
 62
7
  6
CONTINUOUS
 90
10
 70
0
 10
-4.0177773998
 20
24.7987560945
 10
-4.0300541572
 20
24.7919867868
 10
-4.0928796838
 20
24.7596262512
 10
-4.1542780047
 20
24.7317906788
 10
-4.2137656252
 20
24.7085869531
 10
-4.2711693943
 20
24.68994668
 10
-4.3265383318
 20
24.6757322678
 10
-4.3796379084
 20
24.6659165484
 10
-4.430057729
 20
24.6604688728
 10
-4.437974731
 20
24.6599887721
  0
LWPOLYLINE
  5
274
100
AcDbEntity
  8
ASSI
100
AcDbPolyline
 62
250
  6
CONTINUOUS
 90
13
 70
0
 10
-6.4609980384
 20
24.4903509511
 10
-6.4482607039
 20
24.4973090484
 10
-6.4359044882
 20
24.5035813452
 10
-6.4239422995
 20
24.5092025205
 10
-6.4123910946
 20
24.5142068415
 10
-6.401252731
 20
24.5186312969
 10
-6.3905143612
 20
24.5225135191
 10
-6.3801781783
 20
24.5258882054
 10
-6.3702496774
 20
24.5287885106
 10
-6.3607188177
 20
24.5312470737
 10
-6.3515839281
 20
24.5332966272
 10
-6.3428460211
 20
24.5349687017
 10
-6.3344974283
 20
24.536292422
  0
LINE
  5
275
100
AcDbEntity
  8
ASSI
100
AcDbLine
 62
7
  6
CONTINUOUS
 10
-0.3260074672
 20
27.3327145203
 11
-4.6235780479
 21
25.0216201368
  0
LINE
  5
276
100
AcDbEntity
  8
ASSI
100
AcDbLine
 62
250
  6
CONTINUOUS
 10
0.1242661319
 20
27.4952091041
 11
-4.5521548119
 21
24.9803812555
  0
LWPOLYLINE
  5
277
100
AcDbEntity
  8
ASSI
100
AcDbPolyline
 62
250
  6
CONTINUOUS
 90
9
 70
0
 10
0.3038503582
 20
24.4587023835
 10
0.3127394514
 20
24.4634821955
 10
0.3271643748
 20
24.4686521472
 10
0.342773455
 20
24.4713842936
 10
0.3593958585
 20
24.4716489934
 10
0.3768497796
 20
24.4694434819
 10
0.394944166
 20
24.464791946
 10
0.4134807622
 20
24.4577453952
 10
0.4322565741
 20
24.4483810573
  0
LWPOLYLINE
  5
278
100
AcDbEntity
  8
ASSI
100
AcDbPolyline
 62
250
  6
CONTINUOUS
 90
8
 70
0
 10
-6.558386333
 20
24.5017438159
 10
-6.5548546186
 20
24.5035721007
 10
-6.5415081289
 20
24.5082766496
 10
-6.5269325683
 20
24.510214926
 10
-6.5113504371
 20
24.509357288
 10
-6.4949995941
 20
24.5057167868
 10
-6.4781296208
 20
24.4993489526
 10
-6.4609980384
 20
24.4903509511
  0
LINE
  5
279
100
AcDbEntity
  8
ASSI
100
AcDbLine
 62
250
  6
CONTINUOUS
 10
-1.0981935692
 20
26.4262801679
 11
-1.1017268213
 21
26.4244511463
  0
LWPOLYLINE
  5
27A
100
AcDbEntity
  8
ASSI
100
AcDbPolyline
 62
250
  6
CONTINUOUS
 90
8
 70
0
 10
-7.343064773
 20
23.3180221824
 10
-7.3395392369
 20
23.3198468821
 10
-7.3261926547
 20
23.3245510179
 10
-7.3116171696
 20
23.3264889102
 10
-7.296035268
 20
23.3256309874
 10
-7.2796848
 20
23.3219903521
 10
-7.2628153499
 20
23.3156225839
 10
-7.2456844211
 20
23.3066248903
  0
LWPOLYLINE
  5
27B
100
AcDbEntity
  8
ASSI
100
AcDbPolyline
 62
250
  6
CONTINUOUS
 90
8
 70
0
 10
-1.8688216447
 20
25.9967940663
 10
-1.8653170764
 20
25.9986071062
 10
-1.8519705072
 20
26.0033113034
 10
-1.8373950099
 20
26.0052492528
 10
-1.8218130732
 20
26.0043913724
 10
-1.8054625487
 20
26.0007507573
 10
-1.7885930202
 20
25.9943829801
 10
-1.771461994
 20
25.9853852421
  0
LWPOLYLINE
  5
27C
100
AcDbEntity
  8
ASSI
100
AcDbPolyline
 62
250
  6
CONTINUOUS
 90
8
 70
0
 10
-2.7866035318
 20
25.4851284496
 10
-2.7831955279
 20
25.4868878285
 10
-2.7698489575
 20
25.4915920281
 10
-2.7552734584
 20
25.4935299791
 10
-2.7396915199
 20
25.4926720994
 10
-2.723340994
 20
25.4890314844
 10
-2.7064714643
 20
25.4826637068
 10
-2.6893404371
 20
25.4736659683
  0
LWPOLYLINE
  5
27D
100
AcDbEntity
  8
ASSI
100
AcDbPolyline
 62
250
  6
CONTINUOUS
 90
8
 70
0
 10
-4.0177212394
 20
24.7987874499
 10
-4.0141838751
 20
24.8006090859
 10
-4.0008373056
 20
24.8053132833
 10
-3.9862618079
 20
24.807251233
 10
-3.970679871
 20
24.8063933526
 10
-3.9543293468
 20
24.8027527375
 10
-3.9374598189
 20
24.7963849599
 10
-3.9203287934
 20
24.7873872214
  0
LWPOLYLINE
  5
27E
100
AcDbEntity
  8
ASSI
100
AcDbPolyline
 62
250
  6
CONTINUOUS
 90
8
 70
0
 10
-6.6994800336
 20
24.42308344
 10
-6.6960122397
 20
24.4248682425
 10
-6.6826253974
 20
24.429557529
 10
-6.6680044952
 20
24.4314684328
 10
-6.6524064115
 20
24.4305752381
 10
-6.6360860054
 20
24.4269111889
 10
-6.6192845144
 20
24.4205481847
 10
-6.6022584784
 20
24.4115979416
  0
LINE
  5
27F
100
AcDbEntity
  8
DRAFT
100
AcDbLine
 62
7
  6
CONTINUOUS
 10
-0.1680658446
 20
27.7354006854
 11
-4.6486325364
 21
25.4489351969
  0
LWPOLYLINE
  5
280
100
AcDbEntity
  8
ASSI
100
AcDbPolyline
 62
250
  6
CONTINUOUS
 90
6
 70
0
 10
-1.771461994
 20
25.9853852421
 10
-1.8001559703
 20
25.9708452483
 10
-1.8307086433
 20
25.9580944606
 10
-1.863120013
 20
25.9471328789
 10
-1.8977612358
 20
25.9378667648
 10
-1.9342611553
 20
25.9303898568
  0
LWPOLYLINE
  5
281
100
AcDbEntity
  8
ASSI
100
AcDbPolyline
 62
250
  6
CONTINUOUS
 90
4
 70
0
 10
-5.5868535451
 20
24.1099329469
 10
-5.5947101161
 20
24.1059605162
 10
-5.6001953642
 20
24.1008099737
 10
-5.6030814712
 20
24.0945950046
  0
LINE
  5
282
100
AcDbEntity
  8
RACCORDO
100
AcDbLine
 62
7
  6
CONTINUOUS
 10
-7.1247616361
 20
23.6891029391
 11
-8.8005225425
 21
22.8521251418
  0
LINE
  5
283
100
AcDbEntity
  8
ASSI
100
AcDbLine
 62
250
  6
CONTINUOUS
 10
-3.7353554722
 20
25.499277494
 11
-4.6486325364
 21
25.0711786424
  0
LINE
  5
284
100
AcDbEntity
  8
ASSI
100
AcDbLine
 62
7
  6
CONTINUOUS
 10
-7.1247616361
 20
23.6891029391
 11
-7.0769121387
 21
23.7105111759
  0
LWPOLYLINE
  5
285
100
AcDbEntity
  8
ASSI
100
AcDbPolyline
 62
250
  6
CONTINUOUS
 90
4
 70
0
 10
-4.0845450381
 20
24.7092726331
 10
-4.0313784272
 20
24.7316452582
 10
-3.9765966584
 20
24.7576409135
 10
-3.9203287934
 20
24.7873872214
  0
LWPOLYLINE
  5
286
100
AcDbEntity
  8
ASSI
100
AcDbPolyline
 62
250
  6
CONTINUOUS
 90
6
 70
0
 10
2.2390988389
 20
24.4954935091
 10
2.2528230642
 20
24.5008076006
 10
2.2678844426
 20
24.5032439384
 10
2.2840421412
 20
24.5027635653
 10
2.3010377967
 20
24.4993741626
 10
2.318599647
 20
24.4931299271
  0
LWPOLYLINE
  5
287
100
AcDbEntity
  8
ASSI
100
AcDbPolyline
 62
7
  6
CONTINUOUS
 90
10
 70
0
 10
-0.0854408862
 20
27.4341604354
 10
-0.1153953486
 20
27.4232539656
 10
-0.1445738786
 20
27.4123794731
 10
-0.1729378316
 20
27.401487738
 10
-0.2004254175
 20
27.3905495773
 10
-0.2270410411
 20
27.3795197055
 10
-0.2528403453
 20
27.3683224417
 10
-0.2777480325
 20
27.3569263898
 10
-0.301762193
 20
27.3452800596
 10
-0.326007623
 20
27.3327144365
  0
LWPOLYLINE
  5
288
100
AcDbEntity
  8
ASSI
100
AcDbPolyline
 62
7
  6
CONTINUOUS
 90
3
 70
0
 10
0.1094230291
 20
27.5030586132
 10
-0.0233116688
 20
27.4562206092
 10
-0.0854408862
 20
27.4341604354
  0
LWPOLYLINE
  5
289
100
AcDbEntity
  8
ASSI
100
AcDbPolyline
 62
7
  6
CONTINUOUS
 90
5
 70
0
 10
2.3370339478
 20
24.5369994402
 10
2.3084662753
 20
24.5278184416
 10
2.2802646489
 20
24.5164263995
 10
2.2526364697
 20
24.5029871683
 10
2.2364052245
 20
24.4940176653
  0
LWPOLYLINE
  5
28A
100
AcDbEntity
  8
ASSI
100
AcDbPolyline
 62
7
  6
CONTINUOUS
 90
5
 70
0
 10
-1.0017827555
 20
26.465866504
 10
-1.0260623136
 20
26.458406791
 10
-1.0527691313
 20
26.4482824203
 10
-1.0794842852
 20
26.436131773
 10
-1.1017453753
 20
26.4244407984
  0
LINE
  5
28B
100
AcDbEntity
  8
ASSI
100
AcDbLine
 62
250
  6
CONTINUOUS
 10
2.4192273256
 20
24.5208529821
 11
2.427574412
 21
24.523273773
  0
LINE
  5
28C
100
AcDbEntity
  8
DRAFT
100
AcDbLine
 62
7
  6
CONTINUOUS
 10
-10.256964546
 20
23.6930565012
 11
-10.256964546
 21
24.3636564342
  0
LWPOLYLINE
  5
28D
100
AcDbEntity
  8
ASSI
100
AcDbPolyline
 62
7
  6
CONTINUOUS
 90
12
 70
0
 10
-9.5388123877
 20
23.2784044455
 10
-9.5380200256
 20
23.2820659273
 10
-9.5322098474
 20
23.3031338015
 10
-9.5248183393
 20
23.3251935545
 10
-9.5158484148
 20
23.3479116011
 10
-9.5053408801
 20
23.3709466171
 10
-9.4935091564
 20
23.3937201173
 10
-9.4804968525
 20
23.4159224975
 10
-9.466505219
 20
23.4372141619
 10
-9.4519554273
 20
23.4570407988
 10
-9.4371008781
 20
23.4751949953
 10
-9.4208583186
 20
23.4929045152
  0
LWPOLYLINE
  5
28E
100
AcDbEntity
  8
ASSI
100
AcDbPolyline
 62
250
  6
CONTINUOUS
 90
9
 70
0
 10
-7.1649744845
 20
23.523720172
 10
-7.1659259215
 20
23.5209723044
 10
-7.1659624539
 20
23.5136801516
 10
-7.1629983722
 20
23.5051466747
 10
-7.1570825739
 20
23.4955126479
 10
-7.1483126502
 20
23.4849370011
 10
-7.1368332759
 20
23.4735941974
 10
-7.1228338229
 20
23.4616713559
 10
-7.1065452362
 20
23.4493651642
  0
LWPOLYLINE
  5
28F
100
AcDbEntity
  8
ASSI
100
AcDbPolyline
 62
250
  6
CONTINUOUS
 90
11
 70
0
 10
-6.7831622138
 20
24.3335906878
 10
-6.7837624595
 20
24.3320905077
 10
-6.7844939706
 20
24.3265504643
 10
-6.7832908052
 20
24.3201777648
 10
-6.7801686909
 20
24.3130482745
 10
-6.7751664957
 20
24.3052406051
 10
-6.7683416445
 20
24.2968380683
 10
-6.7597781811
 20
24.2879379502
 10
-6.7495775015
 20
24.2786386899
 10
-6.737852474
 20
24.2690373742
 10
-6.7247329656
 20
24.25923568
  0
LWPOLYLINE
  5
290
100
AcDbEntity
  8
ASSI
100
AcDbPolyline
 62
250
  6
CONTINUOUS
 90
10
 70
0
 10
-6.7247329656
 20
24.25923568
 10
-6.7156958299
 20
24.2803190268
 10
-6.7051246486
 20
24.3009694247
 10
-6.6931623786
 20
24.3209076127
 10
-6.6799707889
 20
24.3398639608
 10
-6.6657282729
 20
24.3575821168
 10
-6.6506274363
 20
24.3738224727
 10
-6.6348724919
 20
24.3883654054
 10
-6.6186764982
 20
24.4010142464
 10
-6.6022584784
 20
24.4115979416
  0
LINE
  5
291
100
AcDbEntity
  8
ASSI
100
AcDbLine
 62
7
  6
CONTINUOUS
 10
-7.1649744845
 20
23.523720172
 11
-6.7831622138
 21
24.3335906878
  0
LINE
  5
292
100
AcDbEntity
  8
ASSI
100
AcDbLine
 62
250
  6
CONTINUOUS
 10
-7.1065452362
 20
23.4493651642
 11
-6.7247329656
 21
24.25923568
  0
LWPOLYLINE
  5
293
100
AcDbEntity
  8
ASSI
100
AcDbPolyline
 62
7
  6
CONTINUOUS
 90
7
 70
0
 10
-2.7605989192
 20
25.5040503048
 10
-2.7602435409
 20
25.5046050949
 10
-2.7607814124
 20
25.5039813378
 10
-2.7635255096
 20
25.5011990271
 10
-2.768698642
 20
25.4968127871
 10
-2.7761514058
 20
25.4914716612
 10
-2.7866035281
 20
25.4851284431
  0
LINE
  5
294
100
AcDbEntity
  8
ASSI
100
AcDbLine
 62
7
  6
CONTINUOUS
 10
-0.231473484
 20
23.8003273971
 11
0.2385467754
 21
24.4002567773
  0
LINE
  5
295
100
AcDbEntity
  8
ASSI
100
AcDbLine
 62
250
  6
CONTINUOUS
 10
-0.1414878567
 20
23.7483708236
 11
0.3469534052
 21
24.3718125958
  0
LWPOLYLINE
  5
296
100
AcDbEntity
  8
ASSI
100
AcDbPolyline
 62
250
  6
CONTINUOUS
 90
10
 70
0
 10
-0.3486168863
 20
22.1966779265
 10
-0.3623617052
 20
22.1806600599
 10
-0.3739916448
 20
22.1639735204
 10
-0.3833500967
 20
22.1468429797
 10
-0.3903110368
 20
22.1294990865
 10
-0.3947807184
 20
22.112175374
 10
-0.39669894
 20
22.0951051145
 10
-0.3960398603
 20
22.0785181612
 10
-0.3928123407
 20
22.062637854
 10
-0.3887016947
 20
22.0512528941
  0
LWPOLYLINE
  5
297
100
AcDbEntity
  8
ASSI
100
AcDbPolyline
 62
250
  6
CONTINUOUS
 90
11
 70
0
 10
-0.5244398519
 20
22.0462425828
 10
-0.5383090847
 20
22.0324950131
 10
-0.5461185554
 20
22.0249419609
 10
-0.5546435984
 20
22.0170094338
 10
-0.5638986497
 20
22.0086739969
 10
-0.574040509
 20
21.9999854854
 10
-0.5851817772
 20
21.9910199898
 10
-0.5973066486
 20
21.9817884252
 10
-0.610525585
 20
21.9723353319
 10
-0.6250582292
 20
21.9627543151
 10
-0.6410737908
 20
21.953130561
  0
LWPOLYLINE
  5
298
100
AcDbEntity
  8
ASSI
100
AcDbPolyline
 62
250
  6
CONTINUOUS
 90
3
 70
0
 10
2.1011471866
 20
23.5712970884
 10
2.1121512057
 20
23.5809221267
 10
2.124444922
 20
23.5897233528
  0
LINE
  5
299
100
AcDbEntity
  8
ASSI
100
AcDbLine
 62
250
  6
CONTINUOUS
 10
2.0953979896
 20
23.5383159494
 11
2.1092635542
 21
23.5493333128
  0
LWPOLYLINE
  5
29A
100
AcDbEntity
  8
ASSI
100
AcDbPolyline
 62
250
  6
CONTINUOUS
 90
10
 70
0
 10
0.2385490386
 20
24.4002596651
 10
0.2432823134
 20
24.4039925845
 10
0.2500486974
 20
24.4059091311
 10
0.2588390603
 20
24.4060762997
 10
0.2695535592
 20
24.40449485
 10
0.2820732746
 20
24.4011845133
 10
0.296243659
 20
24.3961897928
 10
0.3118977176
 20
24.3895750359
 10
0.3288639627
 20
24.3814176551
 10
0.3469534052
 20
24.3718125958
  0
LWPOLYLINE
  5
29B
100
AcDbEntity
  8
ASSI
100
AcDbPolyline
 62
7
  6
CONTINUOUS
 90
7
 70
0
 10
-0.3152483384
 20
20.9458149098
 10
-0.326213157
 20
20.9376690739
 10
-0.3356605265
 20
20.9290234131
 10
-0.3436523738
 20
20.9198054392
 10
-0.3501267719
 20
20.9100876403
 10
-0.3548979403
 20
20.9000874805
 10
-0.3574949563
 20
20.8912666171
  0
LINE
  5
29C
100
AcDbEntity
  8
ASSI
100
AcDbLine
 62
7
  6
CONTINUOUS
 10
-1.5110496431
 20
20.0692274823
 11
-0.7843692251
 21
20.5816199129
  0
LINE
  5
29D
100
AcDbEntity
  8
ASSI
100
AcDbLine
 62
250
  6
CONTINUOUS
 10
-1.4478690415
 20
20.0330735558
 11
-0.6489111011
 21
20.5964298689
  0
LWPOLYLINE
  5
29E
100
AcDbEntity
  8
ASSI
100
AcDbPolyline
 62
250
  6
CONTINUOUS
 90
10
 70
0
 10
-2.8657042846
 20
22.2541583801
 10
-2.882122298
 20
22.2435746895
 10
-2.898318287
 20
22.2309258533
 10
-2.9140732289
 20
22.2163829249
 10
-2.929174065
 20
22.2001425717
 10
-2.9434165822
 20
22.1824244166
 10
-2.9566081744
 20
22.1634680674
 10
-2.9685704476
 20
22.1435298762
 10
-2.9791416325
 20
22.1228794729
 10
-2.9881787718
 20
22.1017961185
  0
LWPOLYLINE
  5
29F
100
AcDbEntity
  8
ASSI
100
AcDbPolyline
 62
7
  6
CONTINUOUS
 90
6
 70
0
 10
2.1633330793
 20
22.362697504
 10
2.1494556167
 20
22.3537740926
 10
2.1375013452
 20
22.3442483554
 10
2.1274702648
 20
22.3341202926
 10
2.1192790649
 20
22.3232560939
 10
2.1173787779
 20
22.3197797606
  0
LWPOLYLINE
  5
2A0
100
AcDbEntity
  8
ASSI
100
AcDbPolyline
 62
250
  6
CONTINUOUS
 90
10
 70
0
 10
0.4322565741
 20
24.4483810573
 10
0.4224114597
 20
24.4421809366
 10
0.4125783952
 20
24.4353508545
 10
0.4027885986
 20
24.4279069773
 10
0.3930644111
 20
24.4198597877
 10
0.3834470315
 20
24.4112367849
 10
0.3739949903
 20
24.4020875755
 10
0.3647470729
 20
24.3924506772
 10
0.3557236464
 20
24.3823483088
 10
0.3469534052
 20
24.3718125958
  0
LWPOLYLINE
  5
2A1
100
AcDbEntity
  8
ASSI
100
AcDbPolyline
 62
250
  6
CONTINUOUS
 90
35
 70
0
 10
-0.8271895433
 20
22.1485615112
 10
-0.8371121161
 20
22.1423754115
 10
-0.8471189463
 20
22.1360628688
 10
-0.8571875925
 20
22.1296324723
 10
-0.8672760175
 20
22.1230565588
 10
-0.8773369932
 20
22.1163731024
 10
-0.8874177478
 20
22.1095441289
 10
-0.8976179289
 20
22.1024280533
 10
-0.907897876
 20
22.0950751937
 10
-0.9182972496
 20
22.087435232
 10
-0.9290346783
 20
22.0792156279
 10
-0.9401528456
 20
22.0704236467
 10
-0.951609068
 20
22.0610520233
 10
-0.963493923
 20
22.0507864221
 10
-0.9758688768
 20
22.0396183198
 10
-0.9886724633
 20
22.0275562397
 10
-1.0018108614
 20
22.0143114166
 10
-1.0153144912
 20
21.9999072841
 10
-1.0291529327
 20
21.9843204086
 10
-1.0431411048
 20
21.9671917239
 10
-1.0573531646
 20
21.9485049119
 10
-1.0717149551
 20
21.9282762907
 10
-1.0858189235
 20
21.9061957477
 10
-1.0998402813
 20
21.8819120195
 10
-1.113603817
 20
21.8557763697
 10
-1.1261763432
 20
21.8285324764
 10
-1.1374638531
 20
21.7998759867
 10
-1.1475603535
 20
21.7701112536
 10
-1.1558146769
 20
21.7408950148
 10
-1.1619359473
 20
21.7124140274
 10
-1.1662150407
 20
21.6844815343
 10
-1.1688734175
 20
21.6581940023
 10
-1.1699848979
 20
21.6339169203
 10
-1.1694756617
 20
21.6112847994
 10
-1.1673457088
 20
21.5902976396
  0
LINE
  5
2A2
100
AcDbEntity
  8
ASSI
100
AcDbLine
 62
7
  6
CONTINUOUS
 10
0.3038503582
 20
24.4587023835
 11
1.0482582077
 21
24.919055364
  0
LINE
  5
2A3
100
AcDbEntity
  8
ASSI
100
AcDbLine
 62
250
  6
CONTINUOUS
 10
0.4322565741
 20
24.4483810573
 11
1.1754101157
 21
24.9079583549
  0
LINE
  5
2A4
100
AcDbEntity
  8
ASSI
100
AcDbLine
 62
250
  6
CONTINUOUS
 10
2.1092635542
 20
23.5493333128
 11
2.1256757968
 21
23.5594651764
  0
LINE
  5
2A5
100
AcDbEntity
  8
ASSI
100
AcDbLine
 62
7
  6
CONTINUOUS
 10
-0.3027660707
 20
20.9534609206
 11
-0.3152483384
 21
20.9458149098
  0
LINE
  5
2A6
100
AcDbEntity
  8
ASSI
100
AcDbLine
 62
250
  6
CONTINUOUS
 10
-0.807504559
 20
22.1606335803
 11
-0.8271895433
 21
22.1485615112
  0
LWPOLYLINE
  5
2A7
100
AcDbEntity
  8
ASSI
100
AcDbPolyline
 62
250
  6
CONTINUOUS
 90
3
 70
0
 10
-0.7782257653
 20
22.1783119434
 10
-0.7879488339
 20
22.1724835786
 10
-0.807504559
 20
22.1606335803
  0
LWPOLYLINE
  5
2A8
100
AcDbEntity
  8
ASSI
100
AcDbPolyline
 62
250
  6
CONTINUOUS
 90
10
 70
0
 10
-1.1673457072
 20
21.5902976377
 10
-1.1503753095
 20
21.6004670277
 10
-1.1317022197
 20
21.6096143912
 10
-1.1115780571
 20
21.6176164676
 10
-1.090273994
 20
21.6243654288
 10
-1.0680771022
 20
21.6297703326
 10
-1.0452864846
 20
21.6337583477
 10
-1.0222092443
 20
21.6362757356
 10
-0.9991563466
 20
21.6372885744
 10
-0.9764384291
 20
21.6367832158
  0
LINE
  5
2A9
100
AcDbEntity
  8
ASSI
100
AcDbLine
 62
250
  6
CONTINUOUS
 10
-2.7293088587
 20
22.3357203877
 11
-2.8657042846
 21
22.2541583801
  0
LINE
  5
2AA
100
AcDbEntity
  8
ASSI
100
AcDbLine
 62
250
  6
CONTINUOUS
 10
-2.5859789676
 20
22.1067494463
 11
-2.7223743936
 21
22.0251874387
  0
LINE
  5
2AB
100
AcDbEntity
  8
ASSI
100
AcDbLine
 62
250
  6
CONTINUOUS
 10
-3.3653735552
 20
21.066182028
 11
-3.9453136399
 21
20.7193883046
  0
LINE
  5
2AC
100
AcDbEntity
  8
ASSI
100
AcDbLine
 62
250
  6
CONTINUOUS
 10
-3.2220436641
 20
20.8372110866
 11
-3.6775853665
 21
20.564805355
  0
LINE
  5
2AD
100
AcDbEntity
  8
ASSI
100
AcDbLine
 62
250
  6
CONTINUOUS
 10
1.0948483565
 20
23.2887228179
 11
-0.0937447491
 21
22.5779655526
  0
LINE
  5
2AE
100
AcDbEntity
  8
ASSI
100
AcDbLine
 62
250
  6
CONTINUOUS
 10
1.9811150047
 20
23.8186943078
 11
2.721818759
 21
24.2616218095
  0
LINE
  5
2AF
100
AcDbEntity
  8
ASSI
100
AcDbLine
 62
250
  6
CONTINUOUS
 10
1.2381782477
 20
23.0597518766
 11
0.049585142
 21
22.3489946112
  0
LINE
  5
2B0
100
AcDbEntity
  8
ASSI
100
AcDbLine
 62
250
  6
CONTINUOUS
 10
2.124444928
 20
23.5897233857
 11
2.86514865
 21
24.0326508681
  0
LWPOLYLINE
  5
2B1
100
AcDbEntity
  8
ASSI
100
AcDbPolyline
 62
250
  6
CONTINUOUS
 90
7
 70
0
 10
-0.3271708842
 20
22.0927070495
 10
-0.342357494
 20
22.0836471034
 10
-0.3554080017
 20
22.0738242639
 10
-0.3661465714
 20
22.0633709025
 10
-0.3744285216
 20
22.0524278875
 10
-0.380142282
 20
22.041142678
 10
-0.381652964
 20
22.0354933401
  0
LWPOLYLINE
  5
2B2
100
AcDbEntity
  8
ASSI
100
AcDbPolyline
 62
250
  6
CONTINUOUS
 90
13
 70
0
 10
2.86514865
 20
24.0326508681
 10
2.8693824537
 20
24.0351314988
 10
2.8736489107
 20
24.0375158387
 10
2.8779480209
 20
24.0398038876
 10
2.8822639716
 20
24.0419926307
 10
2.8866125756
 20
24.0440850829
 10
2.8910412711
 20
24.046090289
 10
2.8955535523
 20
24.0480153988
 10
2.900145925
 20
24.0498532625
 10
2.9048553444
 20
24.0515914745
 10
2.9096941289
 20
24.0532258997
 10
2.9146499601
 20
24.0547606733
 10
2.9197228379
 20
24.0561957952
  0
LWPOLYLINE
  5
2B3
100
AcDbEntity
  8
ASSI
100
AcDbPolyline
 62
250
  6
CONTINUOUS
 90
10
 70
0
 10
1.2413346993
 20
23.0306451531
 10
1.2599071002
 20
23.0414333545
 10
1.2804686115
 20
23.0510024042
 10
1.3026914035
 20
23.0591997347
 10
1.3262211596
 20
23.0658946486
 10
1.3506827247
 20
23.070980403
 10
1.375686087
 20
23.0743759111
 10
1.4008325963
 20
23.0760270353
 10
1.4257213201
 20
23.07590745
 10
1.4499554361
 20
23.0740190618
  0
LINE
  5
2B4
100
AcDbEntity
  8
ASSI
100
AcDbLine
 62
7
  6
CONTINUOUS
 10
2.2364052245
 20
24.4940176653
 11
2.2364420442
 21
24.4940389403
  0
LINE
  5
2B5
100
AcDbEntity
  8
ASSI
100
AcDbLine
 62
7
  6
CONTINUOUS
 10
-0.6294033079
 20
22.8393356973
 11
2.2364420442
 21
24.4940389403
  0
LINE
  5
2B6
100
AcDbEntity
  8
ASSI
100
AcDbLine
 62
250
  6
CONTINUOUS
 10
-0.5293300309
 20
22.8294670351
 11
2.3364468763
 21
24.4841307047
  0
LINE
  5
2B7
100
AcDbEntity
  8
ASSI
100
AcDbLine
 62
250
  6
CONTINUOUS
 10
-0.7159746317
 20
19.6104868964
 11
0.1713580557
 21
20.1228167381
  0
LWPOLYLINE
  5
2B8
100
AcDbEntity
  8
ASSI
100
AcDbPolyline
 62
250
  6
CONTINUOUS
 90
13
 70
0
 10
2.721818759
 20
24.2616218095
 10
2.7289176301
 20
24.2657196491
 10
2.7360722729
 20
24.269670579
 10
2.7432795793
 20
24.2734692938
 10
2.7505061486
 20
24.2770960958
 10
2.7577788983
 20
24.2805615212
 10
2.7651844852
 20
24.2838988089
 10
2.7727225487
 20
24.2870976225
 10
2.7803843157
 20
24.2901430118
 10
2.7882419137
 20
24.2930478359
 10
2.7963143317
 20
24.2958001256
 10
2.8045682616
 20
24.298370045
 10
2.8129954872
 20
24.3007364747
  0
LWPOLYLINE
  5
2B9
100
AcDbEntity
  8
ASSI
100
AcDbPolyline
 62
250
  6
CONTINUOUS
 90
13
 70
0
 10
0.049585142
 20
22.3489946112
 10
0.0148764085
 20
22.3289619939
 10
-0.0195089427
 20
22.3103162945
 10
-0.0535709116
 20
22.2930575131
 10
-0.0872832795
 20
22.2772216749
 10
-0.1206722652
 20
22.2627727547
 10
-0.1538165245
 20
22.2496026763
 10
-0.1867082916
 20
22.2376955632
 10
-0.2193553322
 20
22.2270672919
 10
-0.2518596
 20
22.2176574162
 10
-0.2842550793
 20
22.2094457871
 10
-0.3165077856
 20
22.2024525534
 10
-0.348617719
 20
22.1966777153
  0
LINE
  5
2BA
100
AcDbEntity
  8
ASSI
100
AcDbLine
 62
7
  6
CONTINUOUS
 10
4.5045752338
 20
23.7104933568
 11
2.1633330793
 21
22.362697504
  0
LINE
  5
2BB
100
AcDbEntity
  8
ASSI
100
AcDbLine
 62
7
  6
CONTINUOUS
 10
1.3741415843
 20
21.9083792492
 11
0.1662681392
 21
21.2130360408
  0
LWPOLYLINE
  5
2BC
100
AcDbEntity
  8
ASSI
100
AcDbPolyline
 62
250
  6
CONTINUOUS
 90
10
 70
0
 10
-0.6410737908
 20
21.953130561
 10
-0.650801956
 20
21.9475681067
 10
-0.6606596532
 20
21.9421515141
 10
-0.6706485748
 20
21.9368673129
 10
-0.6807987712
 20
21.9316905277
 10
-0.6910909566
 20
21.9266198369
 10
-0.7014468277
 20
21.9216716012
 10
-0.7118753705
 20
21.9168179884
 10
-0.7223699518
 20
21.9120480785
 10
-0.7328087836
 20
21.9073914431
  0
LWPOLYLINE
  5
2BD
100
AcDbEntity
  8
ASSI
100
AcDbPolyline
 62
7
  6
CONTINUOUS
 90
10
 70
0
 10
-0.6294033077
 20
22.8393356974
 10
-0.6409480427
 20
22.832739834
 10
-0.7021182666
 20
22.8001138552
 10
-0.7620902333
 20
22.7720096899
 10
-0.8204411354
 20
22.7485222191
 10
-0.8769834427
 20
22.7296033821
 10
-0.9316579508
 20
22.7151724741
 10
-0.984201426
 20
22.705213578
 10
-1.0342250464
 20
22.6996871456
 10
-1.0421726118
 20
22.6991966872
  0
LWPOLYLINE
  5
2BE
100
AcDbEntity
  8
ASSI
100
AcDbPolyline
 62
250
  6
CONTINUOUS
 90
10
 70
0
 10
-0.0937447491
 20
22.5779655526
 10
-0.145737043
 20
22.5484238146
 10
-0.1972326817
 20
22.5224350718
 10
-0.2481117297
 20
22.49995179
 10
-0.2979411922
 20
22.4810297401
 10
-0.3469491796
 20
22.4654491863
 10
-0.3959907273
 20
22.4529116821
 10
-0.445251818
 20
22.4434586849
 10
-0.4942836595
 20
22.4372750795
 10
-0.5429534901
 20
22.4344455135
  0
LINE
  5
2BF
100
AcDbEntity
  8
ASSI
100
AcDbLine
 62
250
  6
CONTINUOUS
 10
4.3910060549
 20
24.721774228
 11
5.1426298756
 21
25.1485589552
  0
LINE
  5
2C0
100
AcDbEntity
  8
ASSI
100
AcDbLine
 62
250
  6
CONTINUOUS
 10
4.5285777152
 20
24.500673677
 11
5.2786855281
 21
24.9265975893
  0
LWPOLYLINE
  5
2C1
100
AcDbEntity
  8
ASSI
100
AcDbPolyline
 62
250
  6
CONTINUOUS
 90
7
 70
0
 10
2.3364468763
 20
24.4841307047
 10
2.3436589119
 20
24.4882123941
 10
2.3508996899
 20
24.4921445493
 10
2.3581660923
 20
24.4959228805
 10
2.3654206048
 20
24.4995262827
 10
2.372694368
 20
24.5029690546
 10
2.3800865112
 20
24.5062922339
  0
LINE
  5
2C2
100
AcDbEntity
  8
ASSI
100
AcDbLine
 62
7
  6
CONTINUOUS
 10
0.1662681392
 20
21.2130360408
 11
-0.3027653316
 21
20.9534613296
  0
LINE
  5
2C3
100
AcDbEntity
  8
ASSI
100
AcDbLine
 62
7
  6
CONTINUOUS
 10
-1.0327083594
 20
20.5494928239
 11
-2.3696291488
 21
19.8096078274
  0
LWPOLYLINE
  5
2C4
100
AcDbEntity
  8
ASSI
100
AcDbPolyline
 62
250
  6
CONTINUOUS
 90
8
 70
0
 10
-0.629334863
 20
22.8393752707
 10
-0.6266780686
 20
22.8408298394
 10
-0.6129538434
 20
22.8461439309
 10
-0.597892465
 20
22.8485802688
 10
-0.5817347663
 20
22.8480998957
 10
-0.5647391107
 20
22.844710493
 10
-0.5471772603
 20
22.8384662575
 10
-0.5293300309
 20
22.8294670351
  0
LWPOLYLINE
  5
2C5
100
AcDbEntity
  8
ASSI
100
AcDbPolyline
 62
250
  6
CONTINUOUS
 90
13
 70
0
 10
1.0948483565
 20
23.2887228179
 10
1.1226425119
 20
23.3038342927
 10
1.1524027823
 20
23.3171952564
 10
1.1841291677
 20
23.328805709
 10
1.2181869092
 20
23.3387668391
 10
1.2542107657
 20
23.3469774581
 10
1.291105014
 20
23.3531340004
 10
1.3289089504
 20
23.3571444939
 10
1.3675832786
 20
23.3591009108
 10
1.405914386
 20
23.3589756022
 10
1.4434977351
 20
23.3567593518
 10
1.4807378633
 20
23.352461376
 10
1.5453248905
 20
23.3413310938
  0
LINE
  5
2C6
100
AcDbEntity
  8
ASSI
100
AcDbLine
 62
7
  6
CONTINUOUS
 10
-1.706167103
 20
20.0727198662
 11
-2.2856261447
 21
19.7611055456
  0
LINE
  5
2C7
100
AcDbEntity
  8
ASSI
100
AcDbLine
 62
250
  6
CONTINUOUS
 10
-1.6089737632
 20
20.06126891
 11
-2.2284875559
 21
19.7281144406
  0
LWPOLYLINE
  5
2C8
100
AcDbEntity
  8
ASSI
100
AcDbPolyline
 62
250
  6
CONTINUOUS
 90
13
 70
0
 10
1.2381782477
 20
23.0597518756
 10
1.2518408135
 20
23.0664717931
 10
1.2667601556
 20
23.0723479926
 10
1.2828075634
 20
23.0773047243
 10
1.2998751472
 20
23.0812759974
 10
1.317793614
 20
23.0842071767
 10
1.3363250982
 20
23.0860521486
 10
1.3552612009
 20
23.0867969145
 10
1.3744778017
 20
23.0864344394
 10
1.3938535948
 20
23.0849358333
 10
1.4132294509
 20
23.0822881324
 10
1.4323964507
 20
23.0785237821
 10
1.4511541466
 20
23.0736748302
  0
LWPOLYLINE
  5
2C9
100
AcDbEntity
  8
ASSI
100
AcDbPolyline
 62
250
  6
CONTINUOUS
 90
27
 70
0
 10
-0.7737129743
 20
21.8894139367
 10
-0.7838270135
 20
21.8849058605
 10
-0.7940365833
 20
21.880230646
 10
-0.8044232474
 20
21.8753621608
 10
-0.8149445453
 20
21.8702847938
 10
-0.8255751888
 20
21.8648799711
 10
-0.8363813532
 20
21.859104741
 10
-0.8473428883
 20
21.8529447707
 10
-0.858307518
 20
21.8463037058
 10
-0.869268842
 20
21.8391501299
 10
-0.8802419354
 20
21.8314412098
 10
-0.8910944227
 20
21.8230418897
 10
-0.9018129973
 20
21.8139137138
 10
-0.9123700931
 20
21.8040241786
 10
-0.922592765
 20
21.7932339344
 10
-0.932479572
 20
21.7813828405
 10
-0.9419128611
 20
21.7686025346
 10
-0.9505051447
 20
21.7552032093
 10
-0.9580761695
 20
21.7410927166
 10
-0.9645959044
 20
21.7264431054
 10
-0.9699032272
 20
21.7119743946
 10
-0.9738222815
 20
21.6978046254
 10
-0.9764095397
 20
21.6839266777
 10
-0.9779225951
 20
21.6708343483
 10
-0.9784674522
 20
21.6586867273
 10
-0.9779646998
 20
21.6473381871
 10
-0.9764377994
 20
21.6367831296
  0
LINE
  5
2CA
100
AcDbEntity
  8
ASSI
100
AcDbLine
 62
250
  6
CONTINUOUS
 10
-0.7328087836
 20
21.9073914431
 11
-0.7737129743
 21
21.8894139367
  0
LWPOLYLINE
  5
2CB
100
AcDbEntity
  8
ASSI
100
AcDbPolyline
 62
250
  6
CONTINUOUS
 90
5
 70
0
 10
-0.6931398845
 20
22.7488426168
 10
-0.6548389604
 20
22.7651509507
 10
-0.6145989118
 20
22.7839663273
 10
-0.5727439291
 20
22.805349747
 10
-0.5293300309
 20
22.8294670351
  0
LWPOLYLINE
  5
2CC
100
AcDbEntity
  8
ASSI
100
AcDbPolyline
 62
250
  6
CONTINUOUS
 90
6
 70
0
 10
2.3800865112
 20
24.5062922339
 10
2.387599466
 20
24.5094860678
 10
2.3952217247
 20
24.5125351117
 10
2.4030294501
 20
24.5154568067
 10
2.4110428956
 20
24.5182400848
 10
2.4192273256
 20
24.5208529821
  0
LWPOLYLINE
  5
2CD
100
AcDbEntity
  8
ASSI
100
AcDbPolyline
 62
250
  6
CONTINUOUS
 90
13
 70
0
 10
4.4502557859
 20
24.4587573218
 10
4.4572479241
 20
24.4615796221
 10
4.4641409073
 20
24.4644989029
 10
4.470928751
 20
24.467514794
 10
4.4775766045
 20
24.4706119076
 10
4.4841085528
 20
24.4738040782
 10
4.4906004501
 20
24.4771370291
 10
4.4970438511
 20
24.4806139327
 10
4.5034203639
 20
24.4842346375
 10
4.5097778276
 20
24.4880438726
 10
4.5161152671
 20
24.4920591041
 10
4.5223895041
 20
24.4962683792
 10
4.5285777152
 20
24.500673677
  0
LINE
  5
2CE
100
AcDbEntity
  8
DRAFT
100
AcDbLine
 62
7
  6
CONTINUOUS
 10
-5.2819629387
 20
21.4911528576
 11
-6.1782311769
 21
21.1710048296
  0
LWPOLYLINE
  5
2CF
100
AcDbEntity
  8
ASSI
100
AcDbPolyline
 62
250
  6
CONTINUOUS
 90
3
 70
0
 10
-1.6908091939
 20
20.0786884989
 10
-1.7023143812
 20
20.0746341316
 10
-1.706167103
 20
20.0727198662
  0
LWPOLYLINE
  5
2D0
100
AcDbEntity
  8
ASSI
100
AcDbPolyline
 62
250
  6
CONTINUOUS
 90
3
 70
0
 10
-0.6954112118
 20
22.2065480322
 10
-0.7630863056
 20
22.183417001
 10
-0.7782257653
 20
22.1783119434
  0
LINE
  5
2D1
100
AcDbEntity
  8
0
100
AcDbLine
 62
7
  6
CONTINUOUS
 10
-7.0113573783
 20
-6.2275606517
 11
-13.9015816434
 21
-2.2492315158
  0
LINE
  5
2D2
100
AcDbEntity
  8
RACCORDO
100
AcDbLine
 62
7
  6
CONTINUOUS
 10
-7.0113573783
 20
-6.2275606517
 11
-13.9015816434
 21
-2.2492315158
  0
LINE
  5
2D3
100
AcDbEntity
  8
ASSI
100
AcDbLine
 62
250
  6
CONTINUOUS
 10
-9.1167128626
 20
24.2328741871
 11
-9.1167128626
 21
23.8635631975
  0
LINE
  5
2D4
100
AcDbEntity
  8
ASSI
100
AcDbLine
 62
7
  6
CONTINUOUS
 10
-9.0605808227
 20
24.3130915945
 11
-9.0605808227
 21
23.9437806049
  0
LINE
  5
2D5
100
AcDbEntity
  8
DRAFT
100
AcDbLine
 62
7
  6
CONTINUOUS
 10
-7.1247616361
 20
23.6891029391
 11
-7.1247616361
 21
23.6090165408
  0
LINE
  5
2D6
100
AcDbEntity
  8
0
100
AcDbLine
 62
7
  6
CONTINUOUS
 10
-6.9406897753
 20
1.7691234049
 11
-6.9406897753
 21
-6.1867659495
  0
LINE
  5
2D7
100
AcDbEntity
  8
RACCORDO
100
AcDbLine
 62
7
  6
CONTINUOUS
 10
-6.9406897753
 20
1.7691234049
 11
-6.9406897753
 21
-6.1867659495
  0
LWPOLYLINE
  5
2D8
100
AcDbEntity
  8
ASSI
100
AcDbPolyline
 62
250
  6
CONTINUOUS
 90
9
 70
0
 10
-9.0605808227
 20
23.9437806049
 10
-9.0607485782
 20
23.9390518729
 10
-9.0626771089
 20
23.9271049984
 10
-9.0667343122
 20
23.9153561866
 10
-9.0728738734
 20
23.9039195322
 10
-9.0810356134
 20
23.8929065177
 10
-9.0911381131
 20
23.8824328994
 10
-9.1030726431
 20
23.8726161687
 10
-9.1167128626
 20
23.8635631975
  0
LWPOLYLINE
  5
2D9
100
AcDbEntity
  8
ASSI
100
AcDbPolyline
 62
250
  6
CONTINUOUS
 90
9
 70
0
 10
-9.0605808327
 20
24.3130550675
 10
-9.0607487347
 20
24.3083606581
 10
-9.0626726188
 20
24.2964337627
 10
-9.0667290981
 20
24.2846790333
 10
-9.0728765391
 20
24.2732263372
 10
-9.0810475731
 20
24.2622034384
 10
-9.0911527688
 20
24.2517303963
 10
-9.103084067
 20
24.2419187298
 10
-9.1167128626
 20
24.2328741871
  0
LINE
  5
2DA
100
AcDbEntity
  8
ASSI
100
AcDbLine
 62
250
  6
CONTINUOUS
 10
-5.6030814712
 20
24.0945950046
 11
-5.6034065168
 21
24.0887368814
  0
LINE
  5
2DB
100
AcDbEntity
  8
ASSI
100
AcDbLine
 62
250
  6
CONTINUOUS
 10
-2.7775910905
 20
25.5333776031
 11
-2.7745024923
 21
25.5508881119
  0
LWPOLYLINE
  5
2DC
100
AcDbEntity
  8
ASSI
100
AcDbPolyline
 62
250
  6
CONTINUOUS
 90
13
 70
0
 10
-5.4389995168
 20
24.1013598669
 10
-5.4334096803
 20
24.1255177704
 10
-5.4301826136
 20
24.1504616748
 10
-5.4293702574
 20
24.1757901521
 10
-5.4309856904
 20
24.2010955736
 10
-5.4350029207
 20
24.2259706998
 10
-5.4413573124
 20
24.2500152315
 10
-5.4499466168
 20
24.2728422058
 10
-5.4606326146
 20
24.2940842453
 10
-5.4732433541
 20
24.313399495
 10
-5.4875759026
 20
24.3304770879
 10
-5.5033996062
 20
24.3450421545
 10
-5.5204598122
 20
24.3568602636
  0
LWPOLYLINE
  5
2DD
100
AcDbEntity
  8
ASSI
100
AcDbPolyline
 62
250
  6
CONTINUOUS
 90
13
 70
0
 10
-3.8574400359
 20
24.1397222617
 10
-3.8518501654
 20
24.1638803669
 10
-3.8486231054
 20
24.1888244601
 10
-3.8478107908
 20
24.2141531028
 10
-3.8494262946
 20
24.2394586678
 10
-3.8534436176
 20
24.2643338991
 10
-3.8597981069
 20
24.2883784664
 10
-3.8683874963
 20
24.3112054078
 10
-3.8790735523
 20
24.3324473571
 10
-3.8916842984
 20
24.3517624565
 10
-3.9060167833
 20
24.3688398577
 10
-3.9218403466
 20
24.383404725
 10
-3.9389003313
 20
24.3952226584
  0
LWPOLYLINE
  5
2DE
100
AcDbEntity
  8
ASSI
100
AcDbPolyline
 62
250
  6
CONTINUOUS
 90
13
 70
0
 10
-2.8108387921
 20
24.3179974081
 10
-2.8164288393
 20
24.2938383217
 10
-2.8196558683
 20
24.2688934068
 10
-2.8204680001
 20
24.2435641549
 10
-2.8188522247
 20
24.2182582391
 10
-2.8148346064
 20
24.1933829148
 10
-2.8084798509
 20
24.169338469
 10
-2.7998902776
 20
24.1465118481
 10
-2.7892041629
 20
24.125270372
 10
-2.7765934863
 20
24.1059558017
 10
-2.7622612019
 20
24.0888789262
 10
-2.7464379868
 20
24.0743145473
 10
-2.7293784966
 20
24.0624970114
  0
LWPOLYLINE
  5
2DF
100
AcDbEntity
  8
ASSI
100
AcDbPolyline
 62
250
  6
CONTINUOUS
 90
16
 70
0
 10
-3.2595644892
 20
21.2281666948
 10
-3.2635232128
 20
21.21319994
 10
-3.2681138149
 20
21.198763395
 10
-3.2732550132
 20
21.1849195968
 10
-3.2788590387
 20
21.1717369779
 10
-3.2848594499
 20
21.1592378204
 10
-3.2912179594
 20
21.1474036506
 10
-3.2978170674
 20
21.1363449872
 10
-3.304650515
 20
21.1259891351
 10
-3.3118830052
 20
21.116072034
 10
-3.3194526136
 20
21.1066593743
 10
-3.327357806
 20
21.0977743965
 10
-3.3358968042
 20
21.0891852825
 10
-3.3451590112
 20
21.0809223134
 10
-3.3550003805
 20
21.0732100473
 10
-3.3653734277
 20
21.0661819543
  0
LWPOLYLINE
  5
2E0
100
AcDbEntity
  8
ASSI
100
AcDbPolyline
 62
250
  6
CONTINUOUS
 90
14
 70
0
 10
-2.7745024923
 20
25.5508881119
 10
-2.7693924461
 20
25.5684380594
 10
-2.7623169443
 20
25.5858351608
 10
-2.7533535104
 20
25.602888814
 10
-2.7426003458
 20
25.6194121874
 10
-2.7301752612
 20
25.6352242509
 10
-2.7162143906
 20
25.6501517608
 10
-2.7008706921
 20
25.6640311684
 10
-2.6843122752
 20
25.6767104076
 10
-2.6667205564
 20
25.6880505629
 10
-2.6482882711
 20
25.697927391
 10
-2.6292173654
 20
25.706232679
 10
-2.6097167851
 20
25.7128754311
 10
-2.5900001821
 20
25.7177828668
  0
LINE
  5
2E1
100
AcDbEntity
  8
ASSI
100
AcDbLine
 62
250
  6
CONTINUOUS
 10
-2.9881787718
 20
22.1017961185
 11
-3.2595637659
 21
21.2281662772
  0
LINE
  5
2E2
100
AcDbEntity
  8
ASSI
100
AcDbLine
 62
250
  6
CONTINUOUS
 10
-2.7223743936
 20
22.0251874387
 11
-2.9937593877
 21
21.1515575974
  0
LWPOLYLINE
  5
2E3
100
AcDbEntity
  8
ASSI
100
AcDbPolyline
 62
250
  6
CONTINUOUS
 90
16
 70
0
 10
-2.9937593877
 20
21.1515575974
 10
-3.0037521743
 20
21.1225002852
 10
-3.0145869704
 20
21.0946547144
 10
-3.0262637761
 20
21.0680208849
 10
-3.0388979233
 20
21.0425647633
 10
-3.0523740801
 20
21.0183203831
 10
-3.0663462504
 20
20.995389845
 10
-3.0806441576
 20
20.9739318859
 10
-3.0954380784
 20
20.9537877689
 10
-3.1108928472
 20
20.9345833837
 10
-3.1269073078
 20
20.9162359579
 10
-3.1435826164
 20
20.898828264
 10
-3.1613870761
 20
20.8822345092
 10
-3.1804767877
 20
20.8664127626
 10
-3.2006956504
 20
20.851404955
 10
-3.2220436641
 20
20.8372110866
  0
LINE
  5
2E4
100
AcDbEntity
  8
ASSI
100
AcDbLine
 62
250
  6
CONTINUOUS
 10
-0.0808920557
 20
18.4211341383
 11
0.0596299196
 21
18.5652578816
  0
LINE
  5
2E5
100
AcDbEntity
  8
ASSI
100
AcDbLine
 62
7
  6
CONTINUOUS
 10
-0.0566846615
 20
18.3872444331
 11
0.0589613291
 21
18.5058545866
  0
LINE
  5
2E6
100
AcDbEntity
  8
ASSI
100
AcDbLine
 62
7
  6
CONTINUOUS
 10
5.3095606527
 20
24.5012850348
 11
4.5817219103
 21
23.7685991122
  0
LWPOLYLINE
  5
2E7
100
AcDbEntity
  8
0
100
AcDbPolyline
 62
250
  6
CONTINUOUS
 90
16
 70
0
 10
-2.6780639849
 20
17.2115606175
 10
-2.7143451561
 20
17.1873520917
 10
-2.750143901
 20
17.1591331426
 10
-2.7850809546
 20
17.127202732
 10
-2.8187861811
 20
17.0918991423
 10
-2.8509024948
 20
17.0535963926
 10
-2.8810896436
 20
17.0127002766
 10
-2.9090278139
 20
16.9696440627
 10
-2.9344210185
 20
16.9248839041
 10
-2.9570002327
 20
16.8788940061
 10
-2.976526244
 20
16.8321616024
 10
-2.9927921867
 20
16.7851817932
 10
-3.0056257333
 20
16.7384523002
 10
-3.0148909205
 20
16.6924681928
 10
-3.0204895898
 20
16.6477166432
 10
-3.0223624267
 20
16.6046717659
  0
LWPOLYLINE
  5
2E8
100
AcDbEntity
  8
ASSI
100
AcDbPolyline
 62
250
  6
CONTINUOUS
 90
9
 70
0
 10
0.0596299196
 20
18.9345688712
 10
0.0732848327
 20
18.9436326856
 10
0.0852321304
 20
18.9534638664
 10
0.095343971
 20
18.963955514
 10
0.1035082342
 20
18.9749869964
 10
0.1096449617
 20
18.9864449545
 10
0.1136949221
 20
18.9982268067
 10
0.1156063707
 20
19.0102321831
 10
0.1157619355
 20
19.0147296902
  0
LWPOLYLINE
  5
2E9
100
AcDbEntity
  8
ASSI
100
AcDbPolyline
 62
250
  6
CONTINUOUS
 90
7
 70
0
 10
0.0596299196
 20
18.5652578816
 10
0.0732362841
 20
18.5742858797
 10
0.0851513208
 20
18.5840784884
 10
0.0952470528
 20
18.594530533
 10
0.1034152491
 20
18.6055300779
 10
0.1095678532
 20
18.6169586862
 10
0.1136385151
 20
18.6286925832
  0
LINE
  5
2EA
100
AcDbEntity
  8
ASSI
100
AcDbLine
 62
7
  6
CONTINUOUS
 10
0.0711155256
 20
19.5342936514
 11
0.9016436992
 21
20.0690839789
  0
LINE
  5
2EB
100
AcDbEntity
  8
DRAFT
100
AcDbLine
 62
7
  6
CONTINUOUS
 10
7.2565553579
 20
23.4485174555
 11
3.2222349878
 21
20.9043949335
  0
LINE
  5
2EC
100
AcDbEntity
  8
RACCORDO
100
AcDbLine
 62
250
  6
CONTINUOUS
 10
1.9088601365
 20
17.9875334707
 11
4.3205961783
 21
19.4511172535
  0
LINE
  5
2ED
100
AcDbEntity
  8
RACCORDO
100
AcDbLine
 62
7
  6
CONTINUOUS
 10
2.0180532778
 20
17.8097461967
 11
4.3266084652
 21
19.2102005755
  0
LINE
  5
2EE
100
AcDbEntity
  8
ASSI
100
AcDbLine
 62
7
  6
CONTINUOUS
 10
3.751322669
 20
18.7647722643
 11
2.0607991568
 21
17.7401477473
  0
LINE
  5
2EF
100
AcDbEntity
  8
RACCORDO
100
AcDbLine
 62
250
  6
CONTINUOUS
 10
3.0684601717
 20
20.5803336727
 11
3.119492918
 21
20.6099678762
  0
LINE
  5
2F0
100
AcDbEntity
  8
ASSI
100
AcDbLine
 62
250
  6
CONTINUOUS
 10
-0.4335325138
 20
19.4474083573
 11
0.3125855989
 21
19.8782034582
  0
LINE
  5
2F1
100
AcDbEntity
  8
ASSI
100
AcDbLine
 62
250
  6
CONTINUOUS
 10
2.4482561697
 20
20.9384316904
 11
6.9642233814
 21
23.545903513
  0
LINE
  5
2F2
100
AcDbEntity
  8
RACCORDO
100
AcDbLine
 62
7
  6
CONTINUOUS
 10
-0.256447373
 20
19.3451616165
 11
0.0711155256
 21
19.5342936514
  0
LINE
  5
2F3
100
AcDbEntity
  8
ASSI
100
AcDbLine
 62
250
  6
CONTINUOUS
 10
-0.0817698975
 20
19.1794805383
 11
-0.6800274129
 21
18.8340529608
  0
LINE
  5
2F4
100
AcDbEntity
  8
ASSI
100
AcDbLine
 62
250
  6
CONTINUOUS
 10
2.8017383282
 20
20.7343355223
 11
4.5885767356
 21
21.7660371668
  0
LINE
  5
2F5
100
AcDbEntity
  8
ASSI
100
AcDbLine
 62
250
  6
CONTINUOUS
 10
0.0596299196
 20
18.9345688712
 11
-0.3972416861
 21
18.6707760263
  0
LINE
  5
2F6
100
AcDbEntity
  8
0
100
AcDbLine
 62
250
  6
CONTINUOUS
 10
-0.2740107079
 20
18.5996240039
 11
-2.6780639849
 21
17.2115606175
  0
LINE
  5
2F7
100
AcDbEntity
  8
0
100
AcDbLine
 62
250
  6
CONTINUOUS
 10
0.0794215288
 20
17.9874614136
 11
-2.3246317483
 21
16.5993980272
  0
LINE
  5
2F8
100
AcDbEntity
  8
DRAFT
100
AcDbLine
 62
7
  6
CONTINUOUS
 10
3.7531946548
 20
18.7616836831
 11
4.3774837181
 21
19.1220706963
  0
LINE
  5
2F9
100
AcDbEntity
  8
DRAFT
100
AcDbLine
 62
7
  6
CONTINUOUS
 10
8.4799262414
 20
22.7421584398
 11
3.968841211
 21
20.1664890648
  0
LINE
  5
2FA
100
AcDbEntity
  8
ASSI
100
AcDbLine
 62
250
  6
CONTINUOUS
 10
2.6343897999
 20
19.7879735267
 11
3.5476007629
 21
20.3036839004
  0
LINE
  5
2FB
100
AcDbEntity
  8
ASSI
100
AcDbLine
 62
250
  6
CONTINUOUS
 10
3.2773977646
 20
19.1243317367
 11
4.1994276049
 21
19.6445108036
  0
LINE
  5
2FC
100
AcDbEntity
  8
RACCORDO
100
AcDbLine
 62
250
  6
CONTINUOUS
 10
-0.0545027092
 20
18.38393817
 11
2.6343305956
 21
19.7880077105
  0
LINE
  5
2FD
100
AcDbEntity
  8
RACCORDO
100
AcDbLine
 62
250
  6
CONTINUOUS
 10
0.0794215288
 20
17.4630564769
 11
3.2773977646
 21
19.1243317367
  0
LWPOLYLINE
  5
2FE
100
AcDbEntity
  8
RACCORDO
100
AcDbPolyline
 62
250
  6
CONTINUOUS
 90
10
 70
0
 10
13.1619316346
 20
21.8799724593
 10
13.1923461411
 20
21.8954040951
 10
13.2224976016
 20
21.9076660163
 10
13.252161601
 20
21.9166642936
 10
13.281119798
 20
21.9223295313
 10
13.309153059
 20
21.9246156158
 10
13.3360440883
 20
21.9235033988
 10
13.3615901096
 20
21.9190018122
 10
13.3856037686
 20
21.9111444445
 10
13.4054734509
 20
21.9014152844
  0
LINE
  5
2FF
100
AcDbEntity
  8
DRAFT
100
AcDbLine
 62
7
  6
CONTINUOUS
 10
0.0794215288
 20
15.7558824824
 11
0.3317395813
 21
15.8822259409
  0
LWPOLYLINE
  5
300
100
AcDbEntity
  8
0
100
AcDbPolyline
 62
250
  6
CONTINUOUS
 90
16
 70
0
 10
-2.3246317483
 20
16.5993980272
 10
-2.3638559946
 20
16.5800268705
 10
-2.4063299716
 20
16.5630937272
 10
-2.4516010564
 20
16.5487790455
 10
-2.4991924791
 20
16.5372341916
 10
-2.548591843
 20
16.5285840461
 10
-2.5992547255
 20
16.5229222611
 10
-2.6506283154
 20
16.520306241
 10
-2.7021773232
 20
16.5207589342
 10
-2.7533718369
 20
16.5242741048
 10
-2.803737029
 20
16.5308256661
 10
-2.8526639214
 20
16.540341038
 10
-2.8994550794
 20
16.5526660277
 10
-2.943585508
 20
16.5676173155
 10
-2.9846851011
 20
16.5850222076
 10
-3.0223624267
 20
16.6046717659
  0
LINE
  5
301
100
AcDbEntity
  8
RACCORDO
100
AcDbLine
 62
250
  6
CONTINUOUS
 10
0.8232654262
 20
-17.2331279586
 11
0.8311345425
 21
-17.2467576679
  0
LINE
  5
302
100
AcDbEntity
  8
ASSI
100
AcDbLine
 62
7
  6
CONTINUOUS
 10
-5.6034065168
 20
24.0887368814
 11
-5.6034007013
 21
24.0886737216
  0
LINE
  5
303
100
AcDbEntity
  8
ASSI
100
AcDbLine
 62
250
  6
CONTINUOUS
 10
-5.4293102502
 20
23.9946215059
 11
-5.4389995168
 21
24.1013598669
  0
LWPOLYLINE
  5
304
100
AcDbEntity
  8
0
100
AcDbPolyline
 62
250
  6
CONTINUOUS
 90
9
 70
0
 10
-3.0223624267
 20
-25.5471005163
 10
-3.0204895898
 20
-25.5879826886
 10
-3.0148909205
 20
-25.6262690352
 10
-3.0056257333
 20
-25.6615539366
 10
-2.9927921867
 20
-25.6934635717
 10
-2.976526244
 20
-25.7216598779
 10
-2.9570002327
 20
-25.7458441332
 10
-2.9344210185
 20
-25.7657601207
 10
-2.9188211162
 20
-25.7759689469
  0
LINE
  5
305
100
AcDbEntity
  8
DRAFT
100
AcDbLine
 62
250
  6
CONTINUOUS
 10
-5.1991274914
 20
25.3539351722
 11
-5.1991274914
 21
25.4599592919
  0
LINE
  5
306
100
AcDbEntity
  8
DRAFT
100
AcDbLine
 62
250
  6
CONTINUOUS
 10
-4.6486325364
 20
25.0711786424
 11
-4.6486325364
 21
25.4489351969
  0
LINE
  5
307
100
AcDbEntity
  8
0
100
AcDbLine
 62
250
  6
CONTINUOUS
 10
-3.0223624267
 20
16.6046717659
 11
-3.0223624267
 21
-25.5471005163
  0
LINE
  5
308
100
AcDbEntity
  8
ASSI
100
AcDbLine
 62
7
  6
CONTINUOUS
 10
-2.8070638577
 20
25.6120744451
 11
-2.8070638577
 21
25.4798062385
  0
LINE
  5
309
100
AcDbEntity
  8
0
100
AcDbLine
 62
250
  6
CONTINUOUS
 10
-2.3246317483
 20
16.5993980272
 11
-2.3246317483
 21
-25.552374255
  0
LINE
  5
30A
100
AcDbEntity
  8
ASSI
100
AcDbLine
 62
250
  6
CONTINUOUS
 10
-2.7793877734
 20
25.4895075639
 11
-2.7786244142
 21
25.5160984028
  0
LWPOLYLINE
  5
30B
100
AcDbEntity
  8
ASSI
100
AcDbPolyline
 62
7
  6
CONTINUOUS
 90
22
 70
0
 10
-2.8070638535
 20
25.6120744451
 10
-2.8054265245
 20
25.6433794915
 10
-2.8003814438
 20
25.6751200939
 10
-2.7917607903
 20
25.7069494928
 10
-2.7794687394
 20
25.7384566431
 10
-2.7634389321
 20
25.7693112607
 10
-2.7435485875
 20
25.7993130614
 10
-2.7195669706
 20
25.8283348603
 10
-2.6916204619
 20
25.855823099
 10
-2.6601666025
 20
25.8811519792
 10
-2.6250212096
 20
25.9043436539
 10
-2.5864627323
 20
25.9250632966
 10
-2.5459827525
 20
25.9425932597
 10
-2.5042002519
 20
25.9569400641
 10
-2.4609942239
 20
25.9683426214
 10
-2.4170958985
 20
25.9767548838
 10
-2.3729945551
 20
25.9822546287
 10
-2.3287014529
 20
25.984965178
 10
-2.2843647454
 20
25.9849324446
 10
-2.2401920217
 20
25.9821668827
 10
-2.1964214142
 20
25.9766584868
 10
-2.1532847292
 20
25.9683769068
  0
LINE
  5
30C
100
AcDbEntity
  8
ASSI
100
AcDbLine
 62
250
  6
CONTINUOUS
 10
-2.7786243975
 20
25.5160983826
 11
-2.7775910905
 21
25.5333776031
  0
LWPOLYLINE
  5
30D
100
AcDbEntity
  8
ASSI
100
AcDbPolyline
 62
250
  6
CONTINUOUS
 90
13
 70
0
 10
-0.4224564354
 20
25.9773943741
 10
-0.4198608811
 20
26.0010739573
 10
-0.419570477
 20
26.0255439824
 10
-0.4215898778
 20
26.0504122518
 10
-0.4258867173
 20
26.0752801849
 10
-0.4323921273
 20
26.0997492063
 10
-0.4410018413
 20
26.1234271345
 10
-0.4515778657
 20
26.145934467
 10
-0.4639506914
 20
26.1669104634
 10
-0.4779220106
 20
26.1860189269
 10
-0.4932678956
 20
26.202953593
 10
-0.5097423874
 20
26.2174430383
 10
-0.5270814382
 20
26.2292550305
  0
LWPOLYLINE
  5
30E
100
AcDbEntity
  8
ASSI
100
AcDbPolyline
 62
250
  6
CONTINUOUS
 90
10
 70
0
 10
-0.4518313606
 20
22.2418182089
 10
-0.4552569987
 20
22.2236495378
 10
-0.4573046562
 20
22.2055527013
 10
-0.4579560496
 20
22.1876892694
 10
-0.4572053606
 20
22.1702187284
 10
-0.4550592911
 20
22.1532970574
 10
-0.4515370028
 20
22.1370753358
 10
-0.446669942
 20
22.121698393
 10
-0.4405015595
 20
22.1073035162
 10
-0.4330869261
 20
22.0940192247
  0
LWPOLYLINE
  5
30F
100
AcDbEntity
  8
ASSI
100
AcDbPolyline
 62
250
  6
CONTINUOUS
 90
13
 70
0
 10
-2.4961600876
 20
22.135466658
 10
-2.4913863758
 20
22.1592719099
 10
-2.4888757108
 20
22.1837170714
 10
-2.4886664848
 20
22.208428618
 10
-2.4907619242
 20
22.2330289503
 10
-2.495130038
 20
22.2571421535
 10
-2.501704103
 20
22.2803997425
 10
-2.5103836875
 20
22.3024463142
 10
-2.5210361812
 20
22.3229449565
 10
-2.5334988113
 20
22.3415823929
 10
-2.5475811443
 20
22.3580738005
 10
-2.563068001
 20
22.3721671574
 10
-2.5797227327
 20
22.3836470777
  0
LWPOLYLINE
  5
310
100
AcDbEntity
  8
ASSI
100
AcDbPolyline
 62
250
  6
CONTINUOUS
 90
5
 70
0
 10
2.0725109715
 20
23.5262822527
 10
2.0771506439
 20
23.5382921559
 10
2.0835353507
 20
23.5498928751
 10
2.0915690754
 20
23.5609308909
 10
2.1011471866
 20
23.5712970884
  0
LWPOLYLINE
  5
311
100
AcDbEntity
  8
ASSI
100
AcDbPolyline
 62
250
  6
CONTINUOUS
 90
4
 70
0
 10
2.0725123154
 20
23.5053458079
 10
2.076159449
 20
23.5143621197
 10
2.0843001403
 20
23.5265887313
 10
2.0953979896
 20
23.5383159494
  0
LINE
  5
312
100
AcDbEntity
  8
DRAFT
100
AcDbLine
 62
7
  6
CONTINUOUS
 10
0.6070572223
 20
12.8652167032
 11
1.1038901389
 21
13.7199235522
  0
LINE
  5
313
100
AcDbEntity
  8
DRAFT
100
AcDbLine
 62
7
  6
CONTINUOUS
 10
0.0794215288
 20
12.4740240888
 11
0.4667359069
 21
12.71354511
  0
LWPOLYLINE
  5
314
100
AcDbEntity
  8
RACCORDO
100
AcDbPolyline
 62
250
  6
CONTINUOUS
 90
11
 70
0
 10
14.4050533886
 20
19.7815406337
 10
14.4321065033
 20
19.7979206502
 10
14.4566416996
 20
19.8133154149
 10
14.4784742332
 20
19.827609382
 10
14.4974367438
 20
19.8406933982
 10
14.5133822969
 20
19.852466286
 10
14.5261901425
 20
19.8628388048
 10
14.5357649751
 20
19.8717336609
 10
14.5420347672
 20
19.8790839603
 10
14.5449522504
 20
19.8848343937
 10
14.5447360796
 20
19.888521169
  0
LWPOLYLINE
  5
315
100
AcDbEntity
  8
RACCORDO
100
AcDbPolyline
 62
250
  6
CONTINUOUS
 90
9
 70
0
 10
13.4992837856
 20
21.6462315041
 10
13.5215400612
 20
21.6596478465
 10
13.5410866184
 20
21.6716960401
 10
13.5577554507
 20
21.6821203775
 10
13.5713717461
 20
21.6909557018
 10
13.5818381146
 20
21.6981981184
 10
13.589145259
 20
21.7036029125
 10
13.5931727522
 20
21.7072460851
 10
13.593949516
 20
21.7090501542
  0
LINE
  5
316
100
AcDbEntity
  8
RACCORDO
100
AcDbLine
 62
250
  6
CONTINUOUS
 10
4.1698133014
 20
13.9342582393
 11
0.0794215288
 21
11.5174147896
  0
LINE
  5
317
100
AcDbEntity
  8
RACCORDO
100
AcDbLine
 62
250
  6
CONTINUOUS
 10
4.2480066473
 20
13.633075861
 11
0.0794215288
 21
11.170791459
  0
LINE
  5
318
100
AcDbEntity
  8
RACCORDO
100
AcDbLine
 62
250
  6
CONTINUOUS
 10
14.4050533886
 20
19.7815406337
 11
4.2094096693
 21
13.8263982348
  0
LINE
  5
319
100
AcDbEntity
  8
RACCORDO
100
AcDbLine
 62
250
  6
CONTINUOUS
 10
14.4533365781
 20
19.4641959297
 11
4.2867068769
 21
13.5270069835
  0
LWPOLYLINE
  5
31A
100
AcDbEntity
  8
RACCORDO
100
AcDbPolyline
 62
250
  6
CONTINUOUS
 90
3
 70
0
 10
13.4177979102
 20
21.5984261037
 10
13.4472758598
 20
21.6156278986
 10
13.4992837856
 20
21.6462315041
  0
LINE
  5
31B
100
AcDbEntity
  8
DRAFT
100
AcDbLine
 62
7
  6
CONTINUOUS
 10
0.0794215288
 20
14.8448785193
 11
1.1038901389
 21
15.4363958862
  0
LINE
  5
31C
100
AcDbEntity
  8
RACCORDO
100
AcDbLine
 62
250
  6
CONTINUOUS
 10
0.8311345425
 20
12.5098285873
 11
0.0794215288
 21
12.0758828021
  0
LINE
  5
31D
100
AcDbEntity
  8
RACCORDO
100
AcDbLine
 62
250
  6
CONTINUOUS
 10
0.7891030696
 20
12.2549336936
 11
0.0794215288
 21
11.8452516635
  0
LINE
  5
31E
100
AcDbEntity
  8
RACCORDO
100
AcDbLine
 62
250
  6
CONTINUOUS
 10
13.1619316346
 20
21.8799724593
 11
10.0389199305
 21
20.1550288272
  0
LINE
  5
31F
100
AcDbEntity
  8
RACCORDO
100
AcDbLine
 62
250
  6
CONTINUOUS
 10
13.4177979107
 20
21.5984261028
 11
10.2183030144
 21
19.8326955113
  0
LINE
  5
320
100
AcDbEntity
  8
0
100
AcDbLine
 62
7
  6
CONTINUOUS
 10
-13.9015816434
 20
5.8698524196
 11
-7.0113573783
 21
1.8915232837
  0
LINE
  5
321
100
AcDbEntity
  8
RACCORDO
100
AcDbLine
 62
7
  6
CONTINUOUS
 10
-13.9015816434
 20
5.8698524196
 11
-7.0113573783
 21
1.8915232837
  0
LINE
  5
322
100
AcDbEntity
  8
ASSI
100
AcDbLine
 62
250
  6
CONTINUOUS
 10
-0.9018340613
 20
20.8159258412
 11
-0.878370783
 21
20.5805496417
  0
LWPOLYLINE
  5
323
100
AcDbEntity
  8
ASSI
100
AcDbPolyline
 62
250
  6
CONTINUOUS
 90
13
 70
0
 10
-3.3435159684
 20
24.2995948205
 10
-3.3455792146
 20
24.3212975528
 10
-3.3498677884
 20
24.3438204118
 10
-3.356313081
 20
24.3668032328
 10
-3.3648119958
 20
24.3898784967
 10
-3.3752286052
 20
24.4126772303
 10
-3.3873963318
 20
24.4348349049
 10
-3.4011205912
 20
24.4559972227
 10
-3.4161819184
 20
24.4758258164
 10
-3.4323394967
 20
24.494003673
 10
-3.4493349722
 20
24.5102401527
 10
-3.4668965793
 20
24.5242756435
 10
-3.4847435115
 20
24.5358857388
  0
LWPOLYLINE
  5
324
100
AcDbEntity
  8
ASSI
100
AcDbPolyline
 62
250
  6
CONTINUOUS
 90
13
 70
0
 10
-3.0224545846
 20
24.2521675309
 10
-3.0203914115
 20
24.230465308
 10
-3.0161029861
 20
24.2079428786
 10
-3.0096578807
 20
24.1849603786
 10
-3.0011591533
 20
24.1618853007
 10
-2.9907426994
 20
24.1390866174
 10
-2.9785750791
 20
24.1169288822
 10
-2.9648508538
 20
24.0957663994
 10
-2.9497894754
 20
24.0759375592
 10
-2.9336317768
 20
24.0577594269
 10
-2.9166361212
 20
24.0415226725
 10
-2.8990742708
 20
24.0274869234
 10
-2.8812270414
 20
24.0158766126
  0
LWPOLYLINE
  5
325
100
AcDbEntity
  8
ASSI
100
AcDbPolyline
 62
250
  6
CONTINUOUS
 90
13
 70
0
 10
-0.4777390612
 20
25.9542584901
 10
-0.4798022343
 20
25.9759607131
 10
-0.4840906597
 20
25.9984831425
 10
-0.490535765
 20
26.0214656424
 10
-0.4990344924
 20
26.0445407204
 10
-0.5094509464
 20
26.0673394036
 10
-0.5216185667
 20
26.0894971388
 10
-0.5353427919
 20
26.1106596217
 10
-0.5504041703
 20
26.1304884618
 10
-0.566561869
 20
26.1486665942
 10
-0.5835575246
 20
26.1649033486
 10
-0.601119375
 20
26.1789390977
 10
-0.6189666043
 20
26.1905494084
  0
LINE
  5
326
100
AcDbEntity
  8
ASSI
100
AcDbLine
 62
250
  6
CONTINUOUS
 10
-0.9271627617
 20
21.08207819
 11
-0.9018340613
 21
20.8159258412
  0
LINE
  5
327
100
AcDbEntity
  8
ASSI
100
AcDbLine
 62
250
  6
CONTINUOUS
 10
-0.9546288508
 20
21.3851568234
 11
-0.9271627617
 21
21.08207819
  0
LINE
  5
328
100
AcDbEntity
  8
ASSI
100
AcDbLine
 62
250
  6
CONTINUOUS
 10
-0.9764384291
 20
21.6367832162
 11
-0.9546288508
 21
21.3851568234
  0
LWPOLYLINE
  5
329
100
AcDbEntity
  8
ASSI
100
AcDbPolyline
 62
250
  6
CONTINUOUS
 90
5
 70
0
 10
-2.8070638577
 20
25.6120744451
 10
-2.8052518933
 20
25.5875189685
 10
-2.7998782557
 20
25.5633066673
 10
-2.7909812393
 20
25.5394429394
 10
-2.7786244142
 20
25.5160984028
  0
LWPOLYLINE
  5
32A
100
AcDbEntity
  8
0
100
AcDbPolyline
 62
250
  6
CONTINUOUS
 90
16
 70
0
 10
-2.3246317483
 20
16.5993980272
 10
-2.3275216959
 20
16.6427749492
 10
-2.3341703968
 20
16.6879803448
 10
-2.3445045896
 20
16.7345163304
 10
-2.358412241
 20
16.7818759032
 10
-2.3757391243
 20
16.8295320135
 10
-2.3962866398
 20
16.8769432691
 10
-2.4198197667
 20
16.9235780192
 10
-2.4460809465
 20
16.9689351464
 10
-2.474788419
 20
17.0125314574
 10
-2.5056713255
 20
17.0539446036
 10
-2.5383504571
 20
17.0926558207
 10
-2.5723302737
 20
17.128106738
 10
-2.6071784546
 20
17.1599095346
 10
-2.6425514229
 20
17.1878117106
 10
-2.6780639897
 20
17.2115606147
  0
LWPOLYLINE
  5
32B
100
AcDbEntity
  8
ASSI
100
AcDbPolyline
 62
250
  6
CONTINUOUS
 90
10
 70
0
 10
-0.3271708828
 20
22.0927070503
 10
-0.3278273993
 20
22.1057259226
 10
-0.3289179729
 20
22.1183778483
 10
-0.3304426036
 20
22.1306628272
 10
-0.3324045458
 20
22.1425804558
 10
-0.3348005451
 20
22.1541311377
 10
-0.3376208383
 20
22.1653160836
 10
-0.3408621712
 20
22.1761356969
 10
-0.3445277981
 20
22.1865895741
 10
-0.348617719
 20
22.1966777153
  0
LWPOLYLINE
  5
32C
100
AcDbEntity
  8
ASSI
100
AcDbPolyline
 62
250
  6
CONTINUOUS
 90
16
 70
0
 10
0.0596299196
 20
18.9345688712
 10
0.0590914711
 20
18.952276963
 10
0.0569738081
 20
18.9706738137
 10
0.0533002559
 20
18.9895567283
 10
0.0481105511
 20
19.0087200283
 10
0.0414622399
 20
19.0279502133
 10
0.0334318068
 20
19.0470283348
 10
0.0241116894
 20
19.0657398825
 10
0.0136039107
 20
19.0838844153
 10
0.002020499
 20
19.1012698504
 10
-0.0105301726
 20
19.1177282015
 10
-0.0238936828
 20
19.1330520395
 10
-0.0378658897
 20
19.147019426
 10
-0.052267512
 20
19.1594782322
 10
-0.0669558036
 20
19.1703309977
 10
-0.0817698975
 20
19.1794805383
  0
LINE
  5
32D
100
AcDbEntity
  8
ASSI
100
AcDbLine
 62
250
  6
CONTINUOUS
 10
-0.317406423
 20
21.7533656564
 11
-0.3271708828
 21
22.0927070503
  0
LINE
  5
32E
100
AcDbEntity
  8
ASSI
100
AcDbLine
 62
250
  6
CONTINUOUS
 10
-0.3101403857
 20
21.4387105063
 11
-0.317406423
 21
21.7533656564
  0
LINE
  5
32F
100
AcDbEntity
  8
ASSI
100
AcDbLine
 62
250
  6
CONTINUOUS
 10
-0.3062032358
 20
21.2200918172
 11
-0.3101403857
 21
21.4387105063
  0
LWPOLYLINE
  5
330
100
AcDbEntity
  8
ASSI
100
AcDbPolyline
 62
250
  6
CONTINUOUS
 90
3
 70
0
 10
-0.3027653316
 20
20.9534613296
 10
-0.3034359823
 20
21.0174160162
 10
-0.3062032358
 20
21.2200918172
  0
LWPOLYLINE
  5
331
100
AcDbEntity
  8
ASSI
100
AcDbPolyline
 62
250
  6
CONTINUOUS
 90
16
 70
0
 10
-0.4518318112
 20
22.2418182581
 10
-0.4518695444
 20
22.2578167019
 10
-0.4528731045
 20
22.2737773181
 10
-0.4548359954
 20
22.2895979487
 10
-0.4577455787
 20
22.3051772921
 10
-0.4615831589
 20
22.3204156918
 10
-0.4663241313
 20
22.3352157628
 10
-0.4719381335
 20
22.3494828386
 10
-0.4783891733
 20
22.3631255577
 10
-0.4856358761
 20
22.3760565847
 10
-0.4936318591
 20
22.3881932347
 10
-0.5023258665
 20
22.3994577789
 10
-0.5116620132
 20
22.4097779672
 10
-0.5215804054
 20
22.4190877723
 10
-0.532017564
 20
22.4273277577
 10
-0.5429066354
 20
22.4344452753
  0
LINE
  5
332
100
AcDbEntity
  8
ASSI
100
AcDbLine
 62
7
  6
CONTINUOUS
 10
-0.3574949563
 20
21.9171893755
 11
-0.3574949563
 21
20.8484186887
  0
LINE
  5
333
100
AcDbEntity
  8
ASSI
100
AcDbLine
 62
7
  6
CONTINUOUS
 10
-0.2034211837
 20
20.8745706956
 11
-0.2034211837
 21
21.0084408356
  0
LINE
  5
334
100
AcDbEntity
  8
DRAFT
100
AcDbLine
 62
7
  6
CONTINUOUS
 10
-0.1680658446
 20
27.7354006854
 11
-0.1680658446
 21
27.4033585771
  0
LINE
  5
335
100
AcDbEntity
  8
ASSI
100
AcDbLine
 62
250
  6
CONTINUOUS
 10
0.0596299196
 20
18.5652578816
 11
0.0596299196
 21
18.9345688712
  0
LINE
  5
336
100
AcDbEntity
  8
RACCORDO
100
AcDbLine
 62
7
  6
CONTINUOUS
 10
0.0794215288
 20
11.170791459
 11
0.0794215288
 21
-17.4893087537
  0
LINE
  5
337
100
AcDbEntity
  8
0
100
AcDbLine
 62
7
  6
CONTINUOUS
 10
0.0794215288
 20
-24.3059787083
 11
0.0794215288
 21
17.9874614136
  0
LINE
  5
338
100
AcDbEntity
  8
ASSI
100
AcDbLine
 62
7
  6
CONTINUOUS
 10
0.1157619595
 20
18.645475289
 11
0.1157619595
 21
19.0147862786
  0
LINE
  5
339
100
AcDbEntity
  8
0
100
AcDbLine
 62
7
  6
CONTINUOUS
 10
0.2915535632
 20
-17.5506195936
 11
0.2915535632
 21
-17.6540107241
  0
LINE
  5
33A
100
AcDbEntity
  8
DRAFT
100
AcDbLine
 62
7
  6
CONTINUOUS
 10
0.3125855989
 20
19.68978008
 11
0.3125855989
 21
19.8782034582
  0
LINE
  5
33B
100
AcDbEntity
  8
0
100
AcDbLine
 62
7
  6
CONTINUOUS
 10
0.8374276662
 20
25.7164718197
 11
0.8374276662
 21
24.7886745947
  0
LINE
  5
33C
100
AcDbEntity
  8
DRAFT
100
AcDbLine
 62
250
  6
CONTINUOUS
 10
0.8427060373
 20
20.8224692762
 11
0.8427060373
 21
20.031133079
  0
LINE
  5
33D
100
AcDbEntity
  8
DRAFT
100
AcDbLine
 62
7
  6
CONTINUOUS
 10
1.1038901389
 20
15.4363958862
 11
1.1038901389
 21
13.7199235522
  0
LINE
  5
33E
100
AcDbEntity
  8
DRAFT
100
AcDbLine
 62
7
  6
CONTINUOUS
 10
1.1038901389
 20
-18.7718239587
 11
1.1038901389
 21
-20.4882962927
  0
LINE
  5
33F
100
AcDbEntity
  8
ASSI
100
AcDbLine
 62
250
  6
CONTINUOUS
 10
0.1157619355
 20
19.0147296902
 11
0.1157619595
 21
19.0147862786
  0
LWPOLYLINE
  5
340
100
AcDbEntity
  8
ASSI
100
AcDbPolyline
 62
7
  6
CONTINUOUS
 90
21
 70
0
 10
-0.3575493574
 20
20.8484198038
 10
-0.3575677109
 20
20.8459985953
 10
-0.359487239
 20
20.8237531553
 10
-0.3645648702
 20
20.80187398
 10
-0.3728792416
 20
20.7802228616
 10
-0.384351716
 20
20.7589380078
 10
-0.398746382
 20
20.7384340423
 10
-0.4160988089
 20
20.7187397265
 10
-0.4363734272
 20
20.6998262989
 10
-0.4592276179
 20
20.6820220992
 10
-0.4847444906
 20
20.6653259924
 10
-0.5128409356
 20
20.6497391134
 10
-0.5429250038
 20
20.6355932068
 10
-0.5750056381
 20
20.622933245
 10
-0.6090738956
 20
20.6117142556
 10
-0.6445109981
 20
20.6021330657
 10
-0.6813429535
 20
20.5942139406
 10
-0.719543754
 20
20.5879326151
 10
-0.7584165973
 20
20.58341312
 10
-0.7977292161
 20
20.580696799
 10
-0.8377138779
 20
20.5797423085
  0
LWPOLYLINE
  5
341
100
AcDbEntity
  8
ASSI
100
AcDbPolyline
 62
250
  6
CONTINUOUS
 90
16
 70
0
 10
1.4511540991
 20
23.0738773008
 10
1.4515183375
 20
23.0915427942
 10
1.4526070623
 20
23.1102079731
 10
1.454408345
 20
23.1296683379
 10
1.4569024505
 20
23.1497106766
 10
1.4600620527
 20
23.1701154012
 10
1.4638525345
 20
23.1906589537
 10
1.4682323664
 20
23.2111162545
 10
1.4731535622
 20
23.2312631693
 10
1.4785622042
 20
23.2508789645
 10
1.4843990343
 20
23.2697487254
 10
1.490600103
 20
23.2876657108
 10
1.4970974702
 20
23.3044336191
 10
1.5038199495
 20
23.3198687376
 10
1.5106938881
 20
23.3338019554
 10
1.5176439736
 20
23.3460806171
  0
LWPOLYLINE
  5
342
100
AcDbEntity
  8
ASSI
100
AcDbPolyline
 62
250
  6
CONTINUOUS
 90
22
 70
0
 10
-0.3574949563
 20
21.9171893755
 10
-0.3588075319
 20
21.8962846574
 10
-0.3638336254
 20
21.871366157
 10
-0.3725874902
 20
21.8467936729
 10
-0.3850030416
 20
21.8227527339
 10
-0.4009865222
 20
21.7994249068
 10
-0.4204172428
 20
21.7769863436
 10
-0.4431484922
 20
21.7556064764
 10
-0.4690086161
 20
21.7354467636
 10
-0.4978023044
 20
21.7166594611
 10
-0.5293120979
 20
21.6993864463
 10
-0.5633000706
 20
21.6837581354
 10
-0.5995095996
 20
21.6698925265
 10
-0.637667269
 20
21.6578943208
 10
-0.6774849302
 20
21.6478541257
 10
-0.7186619124
 20
21.6398477585
 10
-0.7608872858
 20
21.6339356784
 10
-0.8038421859
 20
21.6301625332
 10
-0.8472022233
 20
21.6285568171
 10
-0.8906399648
 20
21.6291306533
 10
-0.933827407
 20
21.6318797066
 10
-0.9764384291
 20
21.6367832162
  0
LWPOLYLINE
  5
343
100
AcDbEntity
  8
0
100
AcDbPolyline
 62
250
  6
CONTINUOUS
 90
9
 70
0
 10
-2.3246317483
 20
-25.552374255
 10
-2.327521376
 20
-25.594532056
 10
-2.3341692861
 20
-25.6339195672
 10
-2.3445022718
 20
-25.6701030501
 10
-2.3584084335
 20
-25.7026877476
 10
-2.3757335732
 20
-25.7313101807
 10
-2.3962788645
 20
-25.7556470779
 10
-2.4198087276
 20
-25.7754311041
 10
-2.438558709
 20
-25.7867928649
  0
LWPOLYLINE
  5
344
100
AcDbEntity
  8
ASSI
100
AcDbPolyline
 62
250
  6
CONTINUOUS
 90
3
 70
0
 10
2.0693641092
 20
23.5103156074
 10
2.0696698028
 20
23.5140060848
 10
2.0725109715
 20
23.5262822527
  0
LWPOLYLINE
  5
345
100
AcDbEntity
  8
ASSI
100
AcDbPolyline
 62
7
  6
CONTINUOUS
 90
20
 70
0
 10
2.1173590798
 20
22.2154290357
 10
2.1150956552
 20
22.1883755871
 10
2.1087814531
 20
22.1633210487
 10
2.0984872114
 20
22.1384987319
 10
2.0844507667
 20
22.1145252121
 10
2.0665796209
 20
22.0914291862
 10
2.044966272
 20
22.0691819573
 10
2.020126051
 20
22.0483140102
 10
1.9919813818
 20
22.0288584876
 10
1.9606098405
 20
22.0107822468
 10
1.9267594868
 20
21.9945163445
 10
1.8903707443
 20
21.9801042995
 10
1.8515031894
 20
21.9675025931
 10
1.8110836107
 20
21.9570117259
 10
1.7690602337
 20
21.9486837387
 10
1.725484833
 20
21.9424665907
 10
1.6814395198
 20
21.9385046606
 10
1.6372849981
 20
21.9368460746
 10
1.5926605639
 20
21.9374427065
 10
1.5475662173
 20
21.9402945562
  0
LWPOLYLINE
  5
346
100
AcDbEntity
  8
ASSI
100
AcDbPolyline
 62
250
  6
CONTINUOUS
 90
3
 70
0
 10
0.1136385151
 20
18.6286925832
 10
0.1155840045
 20
18.6406049874
 10
0.1157619595
 20
18.645475289
  0
LWPOLYLINE
  5
347
100
AcDbEntity
  8
RACCORDO
100
AcDbPolyline
 62
250
  6
CONTINUOUS
 90
10
 70
0
 10
14.4533365781
 20
19.4641959297
 10
14.4823373462
 20
19.4827818348
 10
14.5084496618
 20
19.5027535913
 10
14.5314747222
 20
19.5239622861
 10
14.5512377197
 20
19.5462508227
 10
14.5675856159
 20
19.5694511776
 10
14.5803903812
 20
19.5933851579
 10
14.5895543721
 20
19.6178727819
 10
14.5950073148
 20
19.6427298015
 10
14.5967112126
 20
19.6663272731
  0
LWPOLYLINE
  5
348
100
AcDbEntity
  8
ASSI
100
AcDbPolyline
 62
250
  6
CONTINUOUS
 90
7
 70
0
 10
-5.7173129383
 20
24.1952523402
 10
-5.7143770509
 20
24.1809367055
 10
-5.7087467769
 20
24.1648733528
 10
-5.7002491086
 20
24.1475302363
 10
-5.6887604315
 20
24.1292399419
 10
-5.674185931
 20
24.1104203004
 10
-5.6564447458
 20
24.0916138512
  0
LINE
  5
349
100
AcDbEntity
  8
ASSI
100
AcDbLine
 62
250
  6
CONTINUOUS
 10
-1.0566960562
 20
20.7212176715
 11
-1.0327083594
 21
20.5494928239
  0
LINE
  5
34A
100
AcDbEntity
  8
ASSI
100
AcDbLine
 62
250
  6
CONTINUOUS
 10
-1.0820367002
 20
20.9089758453
 11
-1.0566960562
 21
20.7212176715
  0
LINE
  5
34B
100
AcDbEntity
  8
ASSI
100
AcDbLine
 62
250
  6
CONTINUOUS
 10
-1.1089546058
 20
21.1156654226
 11
-1.0820367002
 21
20.9089758453
  0
LINE
  5
34C
100
AcDbEntity
  8
ASSI
100
AcDbLine
 62
250
  6
CONTINUOUS
 10
-1.137477346
 20
21.3429539492
 11
-1.1089546058
 21
21.1156654226
  0
LWPOLYLINE
  5
34D
100
AcDbEntity
  8
ASSI
100
AcDbPolyline
 62
250
  6
CONTINUOUS
 90
13
 70
0
 10
-2.7223743936
 20
22.0251874387
 10
-2.7250206314
 20
22.0466468825
 10
-2.7298207792
 20
22.0687807526
 10
-2.7367005494
 20
22.0912499532
 10
-2.7455530443
 20
22.1137085801
 10
-2.7562425909
 20
22.1358149367
 10
-2.7686083384
 20
22.1572363523
 10
-2.7824729207
 20
22.1776600327
 10
-2.7976153931
 20
22.1967555608
 10
-2.813769668
 20
22.2141953373
 10
-2.8306717729
 20
22.2297131257
 10
-2.8480718691
 20
22.2430973775
 10
-2.8657042846
 20
22.2541583801
  0
LWPOLYLINE
  5
34E
100
AcDbEntity
  8
ASSI
100
AcDbPolyline
 62
250
  6
CONTINUOUS
 90
13
 70
0
 10
-3.2220436641
 20
20.8372110866
 10
-3.2246836862
 20
20.8586341261
 10
-3.2294712791
 20
20.8807326816
 10
-3.2363333623
 20
20.9031694283
 10
-3.245165189
 20
20.9256018786
 10
-3.2558319452
 20
20.9476876109
 10
-3.2681708074
 20
20.9690894957
 10
-3.281993428
 20
20.9894808426
 10
-3.2970888108
 20
21.0085503862
 10
-3.313226531
 20
21.0260070381
 10
-3.3301602534
 20
21.04158433
 10
-3.3476314918
 20
21.0550444811
 10
-3.3653735552
 20
21.066182028
  0
LWPOLYLINE
  5
34F
100
AcDbEntity
  8
ASSI
100
AcDbPolyline
 62
250
  6
CONTINUOUS
 90
13
 70
0
 10
-2.5859789676
 20
22.1067494463
 10
-2.5886189896
 20
22.1281724858
 10
-2.5934065825
 20
22.1502710414
 10
-2.6002686657
 20
22.172707788
 10
-2.6091004925
 20
22.1951402383
 10
-2.6197672487
 20
22.2172259706
 10
-2.6321061108
 20
22.2386278555
 10
-2.6459287315
 20
22.2590192023
 10
-2.6610241142
 20
22.2780887459
 10
-2.6771618345
 20
22.2955453978
 10
-2.6940955568
 20
22.3111226897
 10
-2.7115667952
 20
22.3245828408
 10
-2.7293088587
 20
22.3357203877
  0
LWPOLYLINE
  5
350
100
AcDbEntity
  8
ASSI
100
AcDbPolyline
 62
250
  6
CONTINUOUS
 90
13
 70
0
 10
-0.7782257653
 20
22.1783119434
 10
-0.7756759218
 20
22.1575484708
 10
-0.7711027772
 20
22.1361394928
 10
-0.7645720552
 20
22.1143927003
 10
-0.7561776136
 20
22.0926206392
 10
-0.7460400964
 20
22.07113622
 10
-0.7343052
 20
22.0502482206
 10
-0.7211415781
 20
22.0302568459
 10
-0.706738419
 20
22.0114494153
 10
-0.6913027271
 20
21.9940962342
 10
-0.6750563463
 20
21.978446706
 10
-0.6582327707
 20
21.9647257481
 10
-0.6410737908
 20
21.953130561
  0
LINE
  5
351
100
AcDbEntity
  8
ASSI
100
AcDbLine
 62
250
  6
CONTINUOUS
 10
-1.1673457088
 20
21.5902976396
 11
-1.137477346
 21
21.3429539492
  0
LINE
  5
352
100
AcDbEntity
  8
ASSI
100
AcDbLine
 62
250
  6
CONTINUOUS
 10
1.2381782477
 20
23.0597518766
 11
1.2512309532
 21
22.9402473429
  0
LWPOLYLINE
  5
353
100
AcDbEntity
  8
RACCORDO
100
AcDbPolyline
 62
7
  6
CONTINUOUS
 90
6
 70
0
 10
4.2856890519
 20
13.5583367081
 10
4.282735269
 20
13.5903169413
 10
4.2778455281
 20
13.6229476829
 10
4.2709621366
 20
13.6564509545
 10
4.2621427872
 20
13.6906047346
 10
4.2515605579
 20
13.7247429591
  0
LINE
  5
354
100
AcDbEntity
  8
ASSI
100
AcDbLine
 62
250
  6
CONTINUOUS
 10
1.5183830292
 20
22.2628905311
 11
1.5475662939
 21
21.9402945562
  0
LINE
  5
355
100
AcDbEntity
  8
ASSI
100
AcDbLine
 62
250
  6
CONTINUOUS
 10
1.4861852536
 20
22.6391534644
 11
1.5183830292
 21
22.2628905311
  0
LWPOLYLINE
  5
356
100
AcDbEntity
  8
ASSI
100
AcDbPolyline
 62
250
  6
CONTINUOUS
 90
3
 70
0
 10
1.451154106
 20
23.0738772968
 10
1.4583499221
 20
22.9823666556
 10
1.4861852536
 20
22.6391534644
  0
LINE
  5
357
100
AcDbEntity
  8
ASSI
100
AcDbLine
 62
7
  6
CONTINUOUS
 10
2.2450849078
 20
26.6610568095
 11
2.2507700321
 21
26.5325179885
  0
LINE
  5
358
100
AcDbEntity
  8
ASSI
100
AcDbLine
 62
250
  6
CONTINUOUS
 10
2.1419395893
 20
23.1246378969
 11
2.124444928
 21
23.5897233857
  0
LINE
  5
359
100
AcDbEntity
  8
RACCORDO
100
AcDbLine
 62
7
  6
CONTINUOUS
 10
4.2867068769
 20
13.5270069835
 11
4.2856890519
 21
13.5583367081
  0
LINE
  5
35A
100
AcDbEntity
  8
ASSI
100
AcDbLine
 62
250
  6
CONTINUOUS
 10
2.1516231167
 20
22.8208982115
 11
2.1419395893
 21
23.1246378969
  0
LINE
  5
35B
100
AcDbEntity
  8
ASSI
100
AcDbLine
 62
250
  6
CONTINUOUS
 10
2.1592889545
 20
22.538376648
 11
2.1516231167
 21
22.8208982115
  0
LINE
  5
35C
100
AcDbEntity
  8
ASSI
100
AcDbLine
 62
250
  6
CONTINUOUS
 10
2.1633321638
 20
22.36269697
 11
2.1592889545
 21
22.538376648
  0
LINE
  5
35D
100
AcDbEntity
  8
ASSI
100
AcDbLine
 62
7
  6
CONTINUOUS
 10
2.1173787779
 20
23.3461504521
 11
2.1173787779
 21
22.2154288472
  0
LINE
  5
35E
100
AcDbEntity
  8
ASSI
100
AcDbLine
 62
7
  6
CONTINUOUS
 10
3.119492918
 20
20.7517220398
 11
3.119492918
 21
20.5508680046
  0
LINE
  5
35F
100
AcDbEntity
  8
DRAFT
100
AcDbLine
 62
250
  6
CONTINUOUS
 10
3.2366502055
 20
20.5892469749
 11
3.2366502055
 21
20.4832228551
  0
LINE
  5
360
100
AcDbEntity
  8
ASSI
100
AcDbLine
 62
7
  6
CONTINUOUS
 10
3.7531946548
 20
18.86234651
 11
3.7531946548
 21
18.7616836831
  0
LINE
  5
361
100
AcDbEntity
  8
RACCORDO
100
AcDbLine
 62
7
  6
CONTINUOUS
 10
4.2480066473
 20
13.633075861
 11
4.2480066473
 21
-14.9667805214
  0
LINE
  5
362
100
AcDbEntity
  8
RACCORDO
100
AcDbLine
 62
7
  6
CONTINUOUS
 10
4.2867068769
 20
13.5270069835
 11
4.2867068769
 21
-14.905401699
  0
LINE
  5
363
100
AcDbEntity
  8
RACCORDO
100
AcDbLine
 62
7
  6
CONTINUOUS
 10
4.2856890519
 20
-14.9355560648
 11
4.2867068769
 21
-14.905401699
  0
LWPOLYLINE
  5
364
100
AcDbEntity
  8
RACCORDO
100
AcDbPolyline
 62
7
  6
CONTINUOUS
 90
10
 70
0
 10
4.2480066473
 20
-14.9667805214
 10
4.2469762576
 20
-14.9971132189
 10
4.2439870439
 20
-15.0258391925
 10
4.2390390062
 20
-15.0529584421
 10
4.2320729659
 20
-15.0786289511
 10
4.2231481017
 20
-15.1026927361
 10
4.2124419495
 20
-15.1246758469
 10
4.200013688
 20
-15.1444203001
 10
4.1858041387
 20
-15.162084079
 10
4.1698133014
 20
-15.1776671838
  0
LWPOLYLINE
  5
365
100
AcDbEntity
  8
RACCORDO
100
AcDbPolyline
 62
7
  6
CONTINUOUS
 90
6
 70
0
 10
0.8578113599
 20
-17.2195671639
 10
0.8575665615
 20
-17.2215441589
 10
0.8547826086
 20
-17.2254196077
 10
0.8493646234
 20
-17.2309440604
 10
0.8414333279
 20
-17.2380848047
 10
0.8311345425
 20
-17.2467576679
  0
LWPOLYLINE
  5
366
100
AcDbEntity
  8
ASSI
100
AcDbPolyline
 62
7
  6
CONTINUOUS
 90
22
 70
0
 10
6.7366635366
 20
23.1206633512
 10
6.7383958255
 20
23.1287519373
 10
6.7436245909
 20
23.1499951574
 10
6.749434042
 20
23.1713361692
 10
6.7559095822
 20
23.1927458589
 10
6.7631149149
 20
23.2141681775
 10
6.7708529536
 20
23.2353496042
 10
6.7791303197
 20
23.256156797
 10
6.7880793032
 20
23.2767010784
 10
6.7976786244
 20
23.2971020191
 10
6.8079383574
 20
23.3173664528
 10
6.8189341004
 20
23.3374821346
 10
6.8307234799
 20
23.3575333287
 10
6.8433325551
 20
23.3775522033
 10
6.8567969673
 20
23.3975141814
 10
6.8711825345
 20
23.4174206919
 10
6.8864962375
 20
23.4372856322
 10
6.9027801809
 20
23.4571241899
 10
6.9201514988
 20
23.4769507676
 10
6.9386617465
 20
23.496789499
 10
6.9582954303
 20
23.5166679107
 10
6.9790664842
 20
23.536612579
  0
LINE
  5
367
100
AcDbEntity
  8
DRAFT
100
AcDbLine
 62
7
  6
CONTINUOUS
 10
-6.5229119405
 20
25.6270692747
 11
-6.5106505084
 21
25.6058318514
  0
LWPOLYLINE
  5
368
100
AcDbEntity
  8
RACCORDO
100
AcDbPolyline
 62
7
  6
CONTINUOUS
 90
3
 70
0
 10
0.8311345425
 20
12.5098285873
 10
0.7429487237
 20
12.682345636
 10
0.6289104496
 20
12.9028110381
  0
LWPOLYLINE
  5
369
100
AcDbEntity
  8
RACCORDO
100
AcDbPolyline
 62
7
  6
CONTINUOUS
 90
13
 70
0
 10
0.8311345425
 20
12.5098285873
 10
0.8414333279
 20
12.4866562895
 10
0.8493646234
 20
12.462576321
 10
0.8547826086
 20
12.437962513
 10
0.8575665615
 20
12.4131895636
 10
0.8576709046
 20
12.3886529582
 10
0.8551256132
 20
12.364762878
 10
0.8499611446
 20
12.3418942816
 10
0.842241888
 20
12.3204087261
 10
0.8321167505
 20
12.3006725254
 10
0.8197550982
 20
12.2830054967
 10
0.8053404471
 20
12.2676781491
 10
0.7891030696
 20
12.2549336936
  0
LWPOLYLINE
  5
36A
100
AcDbEntity
  8
ASSI
100
AcDbPolyline
 62
250
  6
CONTINUOUS
 90
8
 70
0
 10
0.0596299196
 20
18.5652578816
 10
0.0638086
 20
18.5526249
 10
0.0663638961
 20
18.5410148161
 10
0.0672701666
 20
18.5305532083
 10
0.0665204057
 20
18.5213557475
 10
0.0641257624
 20
18.5135171942
 10
0.0601097127
 20
18.5071152067
 10
0.058976606
 20
18.5058702687
  0
LWPOLYLINE
  5
36B
100
AcDbEntity
  8
ASSI
100
AcDbPolyline
 62
7
  6
CONTINUOUS
 90
4
 70
0
 10
-0.2175822163
 20
21.0006037703
 10
-0.2107062582
 20
20.9678845145
 10
-0.2053300437
 20
20.92275253
 10
-0.2034211837
 20
20.8745706956
  0
LWPOLYLINE
  5
36C
100
AcDbEntity
  8
ASSI
100
AcDbPolyline
 62
7
  6
CONTINUOUS
 90
5
 70
0
 10
-0.3639342679
 20
21.9790891998
 10
-0.3611166653
 20
21.9636966872
 10
-0.359102342
 20
21.9482129151
 10
-0.3578960017
 20
21.9326976511
 10
-0.3574949604
 20
21.9171893755
  0
LINE
  5
36D
100
AcDbEntity
  8
ASSI
100
AcDbLine
 62
250
  6
CONTINUOUS
 10
1.3422314063
 20
22.1604779117
 11
1.3741389867
 21
21.9083777535
  0
LWPOLYLINE
  5
36E
100
AcDbEntity
  8
ASSI
100
AcDbPolyline
 62
250
  6
CONTINUOUS
 90
13
 70
0
 10
0.049585142
 20
22.3489946112
 10
0.0469450338
 20
22.3704181548
 10
0.042157285
 20
22.3925171312
 10
0.0352950112
 20
22.4149541894
 10
0.026462997
 20
22.4373868186
 10
0.0157960871
 20
22.4594725981
 10
0.0034571212
 20
22.4808744221
 10
-0.0103655309
 20
22.5012656076
 10
-0.0254608603
 20
22.5203349116
 10
-0.0415984578
 20
22.537791295
 10
-0.0585319966
 20
22.5533683186
 10
-0.0760029876
 20
22.5668282171
 10
-0.0937447486
 20
22.5779655529
  0
LWPOLYLINE
  5
36F
100
AcDbEntity
  8
ASSI
100
AcDbPolyline
 62
250
  6
CONTINUOUS
 90
13
 70
0
 10
1.2381782476
 20
23.0597518765
 10
1.2355382256
 20
23.0811749156
 10
1.2307506328
 20
23.103273471
 10
1.2238885497
 20
23.1257102175
 10
1.215056723
 20
23.1481426678
 10
1.2043899668
 20
23.1702284002
 10
1.1920511047
 20
23.1916302852
 10
1.178228484
 20
23.2120216321
 10
1.1631331012
 20
23.2310911758
 10
1.1469953809
 20
23.2485478278
 10
1.1300616585
 20
23.2641251198
 10
1.11259042
 20
23.2775852709
 10
1.0948483565
 20
23.2887228179
  0
LWPOLYLINE
  5
370
100
AcDbEntity
  8
ASSI
100
AcDbPolyline
 62
250
  6
CONTINUOUS
 90
13
 70
0
 10
2.124444927
 20
23.5897233851
 10
2.1218049072
 20
23.6111464115
 10
2.1170173179
 20
23.6332449577
 10
2.1101552386
 20
23.6556816992
 10
2.1013234139
 20
23.6781141506
 10
2.0906566573
 20
23.7001998884
 10
2.0783177939
 20
23.7216017788
 10
2.064495172
 20
23.74199313
 10
2.0493997874
 20
23.7610626776
 10
2.0332620652
 20
23.7785193327
 10
2.0163283413
 20
23.7940966268
 10
1.9988571015
 20
23.8075567795
 10
1.9811150371
 20
23.8186943272
  0
LINE
  5
371
100
AcDbEntity
  8
ASSI
100
AcDbLine
 62
250
  6
CONTINUOUS
 10
1.3077570103
 20
22.4449901628
 11
1.3422314063
 21
22.1604779117
  0
LINE
  5
372
100
AcDbEntity
  8
ASSI
100
AcDbLine
 62
250
  6
CONTINUOUS
 10
1.280131583
 20
22.6824331744
 11
1.3077570103
 21
22.4449901628
  0
LINE
  5
373
100
AcDbEntity
  8
ASSI
100
AcDbLine
 62
250
  6
CONTINUOUS
 10
1.2512309532
 20
22.9402473429
 11
1.280131583
 21
22.6824331744
  0
LINE
  5
374
100
AcDbEntity
  8
ASSI
100
AcDbLine
 62
250
  6
CONTINUOUS
 10
4.5045752338
 20
23.7104933568
 11
4.4502557859
 21
24.4587573218
  0
LINE
  5
375
100
AcDbEntity
  8
ASSI
100
AcDbLine
 62
250
  6
CONTINUOUS
 10
4.5817219103
 20
23.7685991122
 11
4.5285777152
 21
24.500673677
  0
LINE
  5
376
100
AcDbEntity
  8
ASSI
100
AcDbLine
 62
7
  6
CONTINUOUS
 10
5.3095606527
 20
24.5012850348
 11
5.2786855281
 21
24.9265975893
  0
LINE
  5
377
100
AcDbEntity
  8
DRAFT
100
AcDbLine
 62
7
  6
CONTINUOUS
 10
6.9790664842
 20
23.536612579
 11
6.9790664842
 21
23.2735274625
  0
LWPOLYLINE
  5
378
100
AcDbEntity
  8
ASSI
100
AcDbPolyline
 62
250
  6
CONTINUOUS
 90
7
 70
0
 10
-5.6163739395
 20
24.1318013183
 10
-5.621725455
 20
24.1386279063
 10
-5.6370834062
 20
24.1547369375
 10
-5.6546063202
 20
24.1686501074
 10
-5.6740231789
 20
24.1801522804
 10
-5.6950336955
 20
24.1890656253
 10
-5.7173129385
 20
24.1952523419
  0
LINE
  5
379
100
AcDbEntity
  8
RACCORDO
100
AcDbLine
 62
7
  6
CONTINUOUS
 10
2.1790683544
 20
17.5475829216
 11
1.9088601365
 21
17.9875334707
  0
LWPOLYLINE
  5
37A
100
AcDbEntity
  8
ASSI
100
AcDbPolyline
 62
250
  6
CONTINUOUS
 90
4
 70
0
 10
-2.7786243053
 20
25.5158938247
 10
-2.7730078645
 20
25.5066685484
 10
-2.7692007826
 20
25.4971668696
 10
-2.7690739791
 20
25.4965437966
  0
LWPOLYLINE
  5
37B
100
AcDbEntity
  8
ASSI
100
AcDbPolyline
 62
250
  6
CONTINUOUS
 90
16
 70
0
 10
-2.5899999706
 20
25.7177822524
 10
-2.5808958362
 20
25.7008026784
 10
-2.5740857814
 20
25.6836460889
 10
-2.5695698063
 20
25.6663124839
 10
-2.5673370814
 20
25.648696433
 10
-2.5673984361
 20
25.6309033666
 10
-2.5697863591
 20
25.6132495763
 10
-2.5745627385
 20
25.5957213753
 10
-2.5816656862
 20
25.5783324503
 10
-2.5909420266
 20
25.5614401534
 10
-2.6024367961
 20
25.5450733897
 10
-2.6161049583
 20
25.5292032541
 10
-2.6316582286
 20
25.5141003824
 10
-2.6490005122
 20
25.4998549866
 10
-2.6682279038
 20
25.4863768548
 10
-2.6893404036
 20
25.473665987
  0
LWPOLYLINE
  5
37C
100
AcDbEntity
  8
ASSI
100
AcDbPolyline
 62
250
  6
CONTINUOUS
 90
4
 70
0
 10
-0.3889070041
 20
22.0516916549
 10
-0.391173078
 20
22.0560689081
 10
-0.395771976
 20
22.063603324
 10
-0.4007488992
 20
22.0703045717
  0
LWPOLYLINE
  5
37D
100
AcDbEntity
  8
RACCORDO
100
AcDbPolyline
 62
7
  6
CONTINUOUS
 90
9
 70
0
 10
4.1698133014
 20
13.9342582393
 10
3.9381073362
 20
14.3940985232
 10
3.701458626
 20
14.8516868393
 10
3.4598671708
 20
15.3070231877
 10
3.2132463285
 20
15.7602637342
 10
2.9616827411
 20
16.2112523129
 10
2.7054363356
 20
16.6595204257
 10
2.4445937541
 20
17.1049119066
 10
2.1790683544
 20
17.5475829216
  0
LINE
  5
37E
100
AcDbEntity
  8
ASSI
100
AcDbLine
 62
7
  6
CONTINUOUS
 10
-0.3888887995
 20
22.0516542417
 11
-0.3889070041
 21
22.0516916549
  0
LWPOLYLINE
  5
37F
100
AcDbEntity
  8
RACCORDO
100
AcDbPolyline
 62
7
  6
CONTINUOUS
 90
10
 70
0
 10
4.1698133014
 20
13.9342582393
 10
4.1858041387
 20
13.9002093164
 10
4.200013688
 20
13.8661367061
 10
4.2124419495
 20
13.8320404081
 10
4.2231481017
 20
13.7976941011
 10
4.2320729659
 20
13.7633241066
 10
4.2390390062
 20
13.7296093889
 10
4.2439870439
 20
13.6967762694
 10
4.2469762576
 20
13.6645984268
 10
4.2480066473
 20
13.633075861
  0
LINE
  5
380
100
AcDbEntity
  8
RACCORDO
100
AcDbLine
 62
7
  6
CONTINUOUS
 10
4.2252228453
 20
13.7925286985
 11
4.2094096693
 21
13.8263982348
  0
LWPOLYLINE
  5
381
100
AcDbEntity
  8
ASSI
100
AcDbPolyline
 62
7
  6
CONTINUOUS
 90
6
 70
0
 10
-0.3888700836
 20
22.0516158612
 10
-0.3833377314
 20
22.0396336679
 10
-0.3772545842
 20
22.0246842907
 10
-0.3719911945
 20
22.0095781116
 10
-0.3675542949
 20
21.9943741709
 10
-0.3639342679
 20
21.9790891998
  0
LINE
  5
382
100
AcDbEntity
  8
ASSI
100
AcDbLine
 62
7
  6
CONTINUOUS
 10
-0.3887016947
 20
22.0512528941
 11
-0.3886696267
 21
22.0511791785
  0
LWPOLYLINE
  5
383
100
AcDbEntity
  8
ASSI
100
AcDbPolyline
 62
250
  6
CONTINUOUS
 90
3
 70
0
 10
-2.7786244142
 20
25.5160984028
 10
-2.7716689549
 20
25.4997954337
 10
-2.770689274
 20
25.4953861733
  0
LWPOLYLINE
  5
384
100
AcDbEntity
  8
RACCORDO
100
AcDbPolyline
 62
7
  6
CONTINUOUS
 90
3
 70
0
 10
4.2515605579
 20
13.7247429591
 10
4.2392731415
 20
13.7586436066
 10
4.2252228453
 20
13.7925286985
  0
LWPOLYLINE
  5
385
100
AcDbEntity
  8
RACCORDO
100
AcDbPolyline
 62
7
  6
CONTINUOUS
 90
6
 70
0
 10
4.2515605579
 20
-15.0625515864
 10
4.2621427872
 20
-15.040633455
 10
4.2709621366
 20
-15.0166640385
 10
4.2778455281
 20
-14.9911095349
 10
4.282735269
 20
-14.9641253434
 10
4.2856890519
 20
-14.9355560648
  0
LINE
  5
386
100
AcDbEntity
  8
RACCORDO
100
AcDbLine
 62
250
  6
CONTINUOUS
 10
14.5967113535
 20
1.7678578942
 11
15.4064835104
 21
2.2692463452
  0
LINE
  5
387
100
AcDbEntity
  8
DRAFT
100
AcDbLine
 62
7
  6
CONTINUOUS
 10
0.0794215288
 20
15.9883367321
 11
0.3317395813
 21
15.8822259409
  0
LINE
  5
388
100
AcDbEntity
  8
0
100
AcDbLine
 62
250
  6
CONTINUOUS
 10
-3.0223624267
 20
16.6046717659
 11
-17.890576595
 21
25.1893922842
  0
LINE
  5
389
100
AcDbEntity
  8
0
100
AcDbLine
 62
250
  6
CONTINUOUS
 10
-2.6780639849
 20
17.2115606175
 11
-17.5462781533
 21
25.7962811358
  0
LINE
  5
38A
100
AcDbEntity
  8
DRAFT
100
AcDbLine
 62
7
  6
CONTINUOUS
 10
0.0794215288
 20
16.0279112221
 11
1.1038901389
 21
15.4363958862
  0
LINE
  5
38B
100
AcDbEntity
  8
DRAFT
100
AcDbLine
 62
7
  6
CONTINUOUS
 10
-10.7744252546
 20
23.8247896862
 11
-6.1782311769
 21
21.1710048296
  0
LINE
  5
38C
100
AcDbEntity
  8
DRAFT
100
AcDbLine
 62
7
  6
CONTINUOUS
 10
-10.256964546
 20
23.6930565012
 11
-5.9994978356
 21
21.2348485812
  0
LWPOLYLINE
  5
38D
100
AcDbEntity
  8
ASSI
100
AcDbPolyline
 62
250
  6
CONTINUOUS
 90
3
 70
0
 10
-5.6564447458
 20
24.0916138512
 10
-5.6354854069
 20
24.0731606483
 10
-5.6112856838
 20
24.0551610263
  0
LWPOLYLINE
  5
38E
100
AcDbEntity
  8
ASSI
100
AcDbPolyline
 62
250
  6
CONTINUOUS
 90
7
 70
0
 10
-0.4007488992
 20
22.0703045717
 10
-0.4060200525
 20
22.0762420972
 10
-0.4114736016
 20
22.0814119875
 10
-0.4169778178
 20
22.0857391602
 10
-0.4224474932
 20
22.0892316754
 10
-0.4278357353
 20
22.0919757468
 10
-0.4330869261
 20
22.0940192247
  0
LWPOLYLINE
  5
38F
100
AcDbEntity
  8
ASSI
100
AcDbPolyline
 62
250
  6
CONTINUOUS
 90
12
 70
0
 10
2.062062218
 20
23.5218424682
 10
2.0578832487
 20
23.527601792
 10
2.0472694756
 20
23.5395318463
 10
2.0350054555
 20
23.550036414
 10
2.0212255574
 20
23.5590004023
 10
2.0060807568
 20
23.5663255998
 10
1.9897369841
 20
23.5719317499
 10
1.972373304
 20
23.5757574311
 10
1.9541799534
 20
23.5777607283
 10
1.9353562609
 20
23.5779196922
 10
1.9161084635
 20
23.57623258
 10
1.8966474438
 20
23.5727178753
  0
LWPOLYLINE
  5
390
100
AcDbEntity
  8
RACCORDO
100
AcDbPolyline
 62
7
  6
CONTINUOUS
 90
17
 70
0
 10
14.5967113535
 20
4.8925236252
 10
14.6697411463
 20
4.7896524099
 10
14.7680601893
 20
4.640129045
 10
14.8611847985
 20
4.4869679303
 10
14.9488672366
 20
4.3305984632
 10
15.0308203223
 20
4.1715345867
 10
15.1067707254
 20
4.0102966312
 10
15.1764960452
 20
3.8473204804
 10
15.2397499649
 20
3.6831113451
 10
15.2962854217
 20
3.5182155621
 10
15.3458922219
 20
3.3531145489
 10
15.3883643263
 20
3.188302384
 10
15.4234924713
 20
3.0243355856
 10
15.4510895204
 20
2.8617530066
 10
15.4709882608
 20
2.7010610222
 10
15.483032593
 20
2.5427646173
 10
15.4870773999
 20
2.3873795369
  0
LINE
  5
391
100
AcDbEntity
  8
ASSI
100
AcDbLine
 62
7
  6
CONTINUOUS
 10
2.0621002663
 20
23.5217864479
 11
2.062062218
 21
23.5218424682
  0
LWPOLYLINE
  5
392
100
AcDbEntity
  8
RACCORDO
100
AcDbPolyline
 62
250
  6
CONTINUOUS
 90
16
 70
0
 10
14.5967113535
 20
4.6861398571
 10
14.649206971
 20
4.6070531235
 10
14.7478616981
 20
4.4462458173
 10
14.8407925855
 20
4.2819279132
 10
14.9276470135
 20
4.1147230091
 10
15.0080956934
 20
3.9452651377
 10
15.0818335843
 20
3.7741968942
 10
15.1485810023
 20
3.6021671487
 10
15.2080847383
 20
3.4298285222
 10
15.260119105
 20
3.2578346829
 10
15.3044867261
 20
3.0868380373
 10
15.3410192939
 20
2.9174872581
 10
15.3695782292
 20
2.7504247536
 10
15.3900552006
 20
2.5862842487
 10
15.4023725348
 20
2.4256883816
 10
15.4064835104
 20
2.2692463452
  0
LINE
  5
393
100
AcDbEntity
  8
DRAFT
100
AcDbLine
 62
7
  6
CONTINUOUS
 10
4.1020520172
 20
19.9591762213
 11
3.968841211
 21
20.1664890648
  0
LINE
  5
394
100
AcDbEntity
  8
DRAFT
100
AcDbLine
 62
7
  6
CONTINUOUS
 10
4.2342708557
 20
19.7511057466
 11
4.1020520172
 21
19.9591762213
  0
LWPOLYLINE
  5
395
100
AcDbEntity
  8
ASSI
100
AcDbPolyline
 62
7
  6
CONTINUOUS
 90
10
 70
0
 10
2.062062218
 20
23.5218424682
 10
2.0737651712
 20
23.5033680333
 10
2.08407179
 20
23.4844778134
 10
2.0929739103
 20
23.4652517502
 10
2.1004547517
 20
23.4458182947
 10
2.1065443802
 20
23.4262131558
 10
2.1112858482
 20
23.4063759703
 10
2.1146773491
 20
23.3863405531
 10
2.1167057088
 20
23.3662374475
 10
2.1173787737
 20
23.3461504521
  0
LWPOLYLINE
  5
396
100
AcDbEntity
  8
ASSI
100
AcDbPolyline
 62
250
  6
CONTINUOUS
 90
13
 70
0
 10
3.277397764
 20
19.1243317364
 10
3.2327668649
 20
19.1948798195
 10
3.185904755
 20
19.2634065059
 10
3.1369766205
 20
19.3296647784
 10
3.0861523672
 20
19.3934143079
 10
3.0336141229
 20
19.4544267232
 10
2.9795555831
 20
19.512486415
 10
2.9241690273
 20
19.5673831012
 10
2.8676491769
 20
19.6189197596
 10
2.8102004063
 20
19.6669170821
 10
2.7520274408
 20
19.711203364
 10
2.6933348288
 20
19.751615788
 10
2.6343305956
 20
19.7880077105
  0
LINE
  5
397
100
AcDbEntity
  8
DRAFT
100
AcDbLine
 62
7
  6
CONTINUOUS
 10
4.36549399
 20
19.5422835705
 11
4.2342708557
 21
19.7511057466
  0
LINE
  5
398
100
AcDbEntity
  8
RACCORDO
100
AcDbLine
 62
7
  6
CONTINUOUS
 10
4.3205961783
 20
19.4511172535
 11
4.1994276049
 21
19.6445108036
  0
LWPOLYLINE
  5
399
100
AcDbEntity
  8
DRAFT
100
AcDbPolyline
 62
7
  6
CONTINUOUS
 90
3
 70
0
 10
4.5604346546
 20
19.2276838576
 10
4.495706473
 20
19.3327334124
 10
4.36549399
 20
19.5422835705
  0
LWPOLYLINE
  5
39A
100
AcDbEntity
  8
ASSI
100
AcDbPolyline
 62
250
  6
CONTINUOUS
 90
16
 70
0
 10
1.8966471951
 20
23.572718485
 10
1.8865184211
 20
23.5895034828
 10
1.8786715783
 20
23.6065117908
 10
1.8731066666
 20
23.6237434091
 10
1.8698064661
 20
23.6413034843
 10
1.8687881968
 20
23.6590868698
 10
1.8701035182
 20
23.6767781252
 10
1.8738134499
 20
23.6943921808
 10
1.8798569724
 20
23.7119141064
 10
1.8881026861
 20
23.728983671
 10
1.8985973534
 20
23.745572898
 10
1.9112942121
 20
23.761709764
 10
1.9259215752
 20
23.7771179681
 10
1.9423888805
 20
23.79170541
 10
1.9607866904
 20
23.8055641899
 10
1.9811150047
 20
23.8186943078
  0
LWPOLYLINE
  5
39B
100
AcDbEntity
  8
RACCORDO
100
AcDbPolyline
 62
7
  6
CONTINUOUS
 90
16
 70
0
 10
4.3205961783
 20
19.4511172535
 10
4.3316445013
 20
19.4320586236
 10
4.3412716837
 20
19.4127802139
 10
4.3494777256
 20
19.3932820245
 10
4.3563424137
 20
19.3732445904
 10
4.3617859613
 20
19.3529873765
 10
4.365569008
 20
19.3334687774
 10
4.3676017339
 20
19.3148707545
 10
4.367973959
 20
19.2970113464
 10
4.3667157829
 20
19.2803030633
 10
4.3637772402
 20
19.2646927212
 10
4.3592082964
 20
19.2502335041
 10
4.3531889474
 20
19.2374974747
 10
4.3457791919
 20
19.2266753206
 10
4.3369190311
 20
19.2175763542
 10
4.3266084652
 20
19.2102005755
  0
LWPOLYLINE
  5
39C
100
AcDbEntity
  8
RACCORDO
100
AcDbPolyline
 62
250
  6
CONTINUOUS
 90
10
 70
0
 10
14.4533365781
 20
19.4641959304
 10
14.4524130457
 20
19.4954252457
 10
14.4494865531
 20
19.527618133
 10
14.4445735793
 20
19.5605933137
 10
14.4377017894
 20
19.5941651043
 10
14.4289098786
 20
19.6281444616
 10
14.4182473541
 20
19.6623400473
 10
14.4057742568
 20
19.6965593057
 10
14.3915608228
 20
19.7306095476
 10
14.3756870882
 20
19.764299036
  0
LINE
  5
39D
100
AcDbEntity
  8
RACCORDO
100
AcDbLine
 62
250
  6
CONTINUOUS
 10
14.4533365781
 20
-8.89570773
 11
14.4533365781
 21
19.4641959297
  0
LINE
  5
39E
100
AcDbEntity
  8
RACCORDO
100
AcDbLine
 62
7
  6
CONTINUOUS
 10
14.5967113535
 20
-8.6933596177
 11
14.5967113535
 21
19.666544042
  0
LINE
  5
39F
100
AcDbEntity
  8
RACCORDO
100
AcDbLine
 62
250
  6
CONTINUOUS
 10
15.4064835104
 20
2.2692463452
 11
15.4064835104
 21
0.8404233608
  0
LINE
  5
3A0
100
AcDbEntity
  8
RACCORDO
100
AcDbLine
 62
7
  6
CONTINUOUS
 10
15.4870773999
 20
2.3873795369
 11
15.4870773999
 21
0.9585565525
  0
LINE
  5
3A1
100
AcDbEntity
  8
RACCORDO
100
AcDbLine
 62
250
  6
CONTINUOUS
 10
14.5967112126
 20
19.6663272731
 11
14.5967113535
 21
19.666544042
  0
LWPOLYLINE
  5
3A2
100
AcDbEntity
  8
RACCORDO
100
AcDbPolyline
 62
7
  6
CONTINUOUS
 90
16
 70
0
 10
15.4870773999
 20
0.9585565525
 10
15.4837855578
 20
0.8219612565
 10
15.4739243467
 20
0.6891906169
 10
15.4575175747
 20
0.5605171277
 10
15.4345414152
 20
0.4359698078
 10
15.4050561842
 20
0.3160806516
 10
15.3693351929
 20
0.2017870056
 10
15.3275701699
 20
0.0933342293
 10
15.2799101362
 20
-0.0091830451
 10
15.2267740176
 20
-0.105201077
 10
15.1685662904
 20
-0.1944330276
 10
15.1054725456
 20
-0.2769905578
 10
15.0376719364
 20
-0.3529226291
 10
14.9654315507
 20
-0.4221517939
 10
14.8891225344
 20
-0.4845357341
 10
14.8090935077
 20
-0.5400048959
  0
LWPOLYLINE
  5
3A3
100
AcDbEntity
  8
RACCORDO
100
AcDbPolyline
 62
250
  6
CONTINUOUS
 90
14
 70
0
 10
15.4064835104
 20
0.8404233608
 10
15.4023725348
 20
0.6887285771
 10
15.390055201
 20
0.5423564611
 10
15.3695782304
 20
0.4018622529
 10
15.341019297
 20
0.2677788965
 10
15.3044867321
 20
0.1406150168
 10
15.2601191138
 20
0.0208529906
 10
15.2080847457
 20
-0.0910528728
 10
15.1485810063
 20
-0.1946780845
 10
15.0818335932
 20
-0.2896295797
 10
15.0080957304
 20
-0.3755471276
 10
14.9276470943
 20
-0.4521048498
 10
14.8407926984
 20
-0.5190124288
 10
14.8090935077
 20
-0.5400048959
  0
LWPOLYLINE
  5
3A4
100
AcDbEntity
  8
RACCORDO
100
AcDbPolyline
 62
250
  6
CONTINUOUS
 90
9
 70
0
 10
15.4870773999
 20
2.3873795369
 10
15.4869066273
 20
2.3815358048
 10
15.4843017521
 20
2.3638713957
 10
15.4785834226
 20
2.3464532367
 10
15.4698115391
 20
2.3294637847
 10
15.4580779878
 20
2.3130810058
 10
15.4435056788
 20
2.2974765114
 10
15.4262472584
 20
2.2828137599
 10
15.4064835104
 20
2.2692463452
  0
LWPOLYLINE
  5
3A5
100
AcDbEntity
  8
RACCORDO
100
AcDbPolyline
 62
250
  6
CONTINUOUS
 90
9
 70
0
 10
15.4870773999
 20
0.9585565525
 10
15.4869066273
 20
0.9527128204
 10
15.4843017521
 20
0.9350484113
 10
15.4785834226
 20
0.9176302523
 10
15.4698115391
 20
0.9006408003
 10
15.4580779878
 20
0.8842580215
 10
15.4435056788
 20
0.868653527
 10
15.4262472584
 20
0.8539907755
 10
15.4064835104
 20
0.8404233608
  0
LWPOLYLINE
  5
3A6
100
AcDbEntity
  8
RACCORDO
100
AcDbPolyline
 62
250
  6
CONTINUOUS
 90
4
 70
0
 10
14.4445735793
 20
-8.9816069256
 10
14.4494865531
 20
-8.9543898795
 10
14.4524130457
 20
-8.9257029691
 10
14.4533365781
 20
-8.8957077308
  0
LINE
  5
3A7
100
AcDbEntity
  8
DRAFT
100
AcDbLine
 62
7
  6
CONTINUOUS
 10
14.5967113535
 20
-0.67505359
 11
14.8090935077
 21
-0.5400048959
  0
LINE
  5
3A8
100
AcDbEntity
  8
RACCORDO
100
AcDbLine
 62
250
  6
CONTINUOUS
 10
14.5967113535
 20
0.3390349099
 11
15.4064835104
 21
0.8404233608
  0
LWPOLYLINE
  5
3A9
100
AcDbEntity
  8
ASSI
100
AcDbPolyline
 62
250
  6
CONTINUOUS
 90
8
 70
0
 10
-1.5158380214
 20
20.0721035608
 10
-1.5271226032
 20
20.0763545608
 10
-1.5393106397
 20
20.0786793413
 10
-1.5522715421
 20
20.0790529805
 10
-1.5658664235
 20
20.0774714687
 10
-1.5799496152
 20
20.0739517523
 10
-1.5943702313
 20
20.0685315416
 10
-1.6089737632
 20
20.06126891
  0
LWPOLYLINE
  5
3AA
100
AcDbEntity
  8
ASSI
100
AcDbPolyline
 62
250
  6
CONTINUOUS
 90
7
 70
0
 10
-3.4261400921
 20
22.8380161622
 10
-3.4333410838
 20
22.8416140589
 10
-3.4461595102
 20
22.8456637177
 10
-3.4600283903
 20
22.8473382615
 10
-3.4747655883
 20
22.8466156908
 10
-3.4901775585
 20
22.8435054876
 10
-3.5060618943
 20
22.8380484913
  0
LWPOLYLINE
  5
3AB
100
AcDbEntity
  8
ASSI
100
AcDbPolyline
 62
250
  6
CONTINUOUS
 90
7
 70
0
 10
-5.5039200655
 20
24.0377002767
 10
-5.5111100154
 20
24.0412917831
 10
-5.5239284741
 20
24.0453414326
 10
-5.5377973832
 20
24.0470159717
 10
-5.5525346016
 20
24.0462934086
 10
-5.5679465849
 20
24.0431832326
 10
-5.5838309266
 20
24.03772629
  0
LWPOLYLINE
  5
3AC
100
AcDbEntity
  8
ASSI
100
AcDbPolyline
 62
250
  6
CONTINUOUS
 90
9
 70
0
 10
0.0157667916
 20
19.1879885695
 10
0.0113656979
 20
19.1903152596
 10
0.0000810924
 20
19.1945662368
 10
-0.0121069394
 20
19.1968909874
 10
-0.0250678153
 20
19.1972646025
 10
-0.0386626639
 20
19.1956830774
 10
-0.0527458237
 20
19.1921633573
 10
-0.067166404
 20
19.186743153
 10
-0.0817698975
 20
19.1794805383
  0
LINE
  5
3AD
100
AcDbEntity
  8
ASSI
100
AcDbLine
 62
250
  6
CONTINUOUS
 10
-1.5114370742
 20
20.0697769412
 11
-1.5158380214
 21
20.0721035608
  0
LINE
  5
3AE
100
AcDbEntity
  8
ASSI
100
AcDbLine
 62
250
  6
CONTINUOUS
 10
-10.6877798564
 20
25.3680822571
 11
-10.6921808036
 21
25.3704088766
  0
LWPOLYLINE
  5
3AF
100
AcDbEntity
  8
ASSI
100
AcDbPolyline
 62
250
  6
CONTINUOUS
 90
7
 70
0
 10
-1.6089737632
 20
20.06126891
 10
-1.6233055548
 20
20.0689478385
 10
-1.6375676679
 20
20.0748106737
 10
-1.6516045363
 20
20.0787718957
 10
-1.6652777897
 20
20.0807666514
 10
-1.6784127743
 20
20.0807427123
 10
-1.6908091939
 20
20.0786884989
  0
LWPOLYLINE
  5
3B0
100
AcDbEntity
  8
ASSI
100
AcDbPolyline
 62
250
  6
CONTINUOUS
 90
7
 70
0
 10
-10.7853165454
 20
25.3595742259
 10
-10.799648337
 20
25.3672531543
 10
-10.8139104501
 20
25.3731159896
 10
-10.8279473185
 20
25.3770772115
 10
-10.8416205719
 20
25.3790719673
 10
-10.8547555565
 20
25.3790480281
 10
-10.8671519761
 20
25.3769938148
  0
LWPOLYLINE
  5
3B1
100
AcDbEntity
  8
ASSI
100
AcDbPolyline
 62
250
  6
CONTINUOUS
 90
4
 70
0
 10
-3.5060622683
 20
22.8380487072
 10
-3.478068292
 20
22.8229479484
 10
-3.4474872014
 20
22.8089215941
 10
-3.4143324648
 20
22.7958652671
  0
LINE
  5
3B2
100
AcDbEntity
  8
DRAFT
100
AcDbLine
 62
7
  6
CONTINUOUS
 10
-0.2740107079
 20
18.5996240039
 11
-5.2819629387
 21
21.4911528576
  0
LINE
  5
3B3
100
AcDbEntity
  8
DRAFT
100
AcDbLine
 62
7
  6
CONTINUOUS
 10
-10.256964546
 20
24.3636564342
 11
-15.2649167769
 21
27.2551852879
  0
LINE
  5
3B4
100
AcDbEntity
  8
ASSI
100
AcDbLine
 62
250
  6
CONTINUOUS
 10
-7.2456844211
 20
23.3066248903
 11
-3.3653735552
 21
21.066182028
  0
LINE
  5
3B5
100
AcDbEntity
  8
ASSI
100
AcDbLine
 62
250
  6
CONTINUOUS
 10
-0.0817698975
 20
19.1794805383
 11
-1.6089737632
 21
20.06126891
  0
LINE
  5
3B6
100
AcDbEntity
  8
ASSI
100
AcDbLine
 62
250
  6
CONTINUOUS
 10
-9.2581126797
 20
24.4777858542
 11
-10.7853165454
 21
25.3595742259
  0
LINE
  5
3B7
100
AcDbEntity
  8
ASSI
100
AcDbLine
 62
7
  6
CONTINUOUS
 10
0.0157667916
 20
19.1879885695
 11
-1.5114370742
 21
20.0697769412
  0
LINE
  5
3B8
100
AcDbEntity
  8
ASSI
100
AcDbLine
 62
7
  6
CONTINUOUS
 10
-9.1605759906
 20
24.4862938854
 11
-10.6877798564
 21
25.3680822571
  0
LINE
  5
3B9
100
AcDbEntity
  8
ASSI
100
AcDbLine
 62
250
  6
CONTINUOUS
 10
-7.1065452362
 20
23.4493651642
 11
-3.2595637659
 21
21.2281662772
  0
LINE
  5
3BA
100
AcDbEntity
  8
DRAFT
100
AcDbLine
 62
7
  6
CONTINUOUS
 10
-1.1127472941
 20
20.3500759868
 11
-1.249924198
 21
20.429280212
  0
LINE
  5
3BB
100
AcDbEntity
  8
ASSI
100
AcDbLine
 62
7
  6
CONTINUOUS
 10
0.1713580557
 20
20.1228167381
 11
-0.6489111011
 21
20.5964298689
  0
LINE
  5
3BC
100
AcDbEntity
  8
ASSI
100
AcDbLine
 62
250
  6
CONTINUOUS
 10
-6.7247329656
 20
24.25923568
 11
-2.9881787718
 21
22.1017961185
  0
LINE
  5
3BD
100
AcDbEntity
  8
ASSI
100
AcDbLine
 62
250
  6
CONTINUOUS
 10
-6.6022584784
 20
24.4115979416
 11
-2.8657042846
 21
22.2541583801
  0
LINE
  5
3BE
100
AcDbEntity
  8
ASSI
100
AcDbLine
 62
250
  6
CONTINUOUS
 10
-0.320983411
 20
20.9424496523
 11
-0.2034211837
 21
20.8745706956
  0
LINE
  5
3BF
100
AcDbEntity
  8
ASSI
100
AcDbLine
 62
250
  6
CONTINUOUS
 10
-2.7293088587
 20
22.3357203877
 11
-6.4609980384
 21
24.4903509511
  0
LINE
  5
3C0
100
AcDbEntity
  8
ASSI
100
AcDbLine
 62
250
  6
CONTINUOUS
 10
-5.5838309266
 20
24.03772629
 11
-3.5060622683
 21
22.8380487072
  0
LINE
  5
3C1
100
AcDbEntity
  8
ASSI
100
AcDbLine
 62
7
  6
CONTINUOUS
 10
-5.5039089098
 20
24.037693837
 11
-3.4261400921
 21
22.8380161622
  0
LINE
  5
3C2
100
AcDbEntity
  8
ASSI
100
AcDbLine
 62
250
  6
CONTINUOUS
 10
-2.5797227309
 20
22.3836470777
 11
-3.1741577201
 21
22.7268663904
  0
LINE
  5
3C3
100
AcDbEntity
  8
ASSI
100
AcDbLine
 62
250
  6
CONTINUOUS
 10
-5.7173129383
 20
24.1952523402
 11
-6.3117479274
 21
24.5384716529
  0
LINE
  5
3C4
100
AcDbEntity
  8
ASSI
100
AcDbLine
 62
7
  6
CONTINUOUS
 10
-6.5767068689
 20
25.1063453011
 11
-5.6875352228
 21
24.5929487366
  0
LINE
  5
3C5
100
AcDbEntity
  8
ASSI
100
AcDbLine
 62
7
  6
CONTINUOUS
 10
0.1662681392
 20
21.2130360408
 11
2.6343305956
 21
19.7880077105
  0
LINE
  5
3C6
100
AcDbEntity
  8
ASSI
100
AcDbLine
 62
250
  6
CONTINUOUS
 10
-0.5429511546
 20
22.434444165
 11
-0.9716819273
 21
22.6819879399
  0
LINE
  5
3C7
100
AcDbEntity
  8
ASSI
100
AcDbLine
 62
250
  6
CONTINUOUS
 10
-3.9389003313
 20
24.3952226584
 11
-4.3676311041
 21
24.6427664333
  0
LINE
  5
3C8
100
AcDbEntity
  8
ASSI
100
AcDbLine
 62
7
  6
CONTINUOUS
 10
3.5476007629
 20
20.3036839004
 11
2.4482561697
 21
20.9384316904
  0
LINE
  5
3C9
100
AcDbEntity
  8
ASSI
100
AcDbLine
 62
7
  6
CONTINUOUS
 10
-4.5521548119
 20
24.9803812555
 11
-5.6514994051
 21
25.6151290456
  0
LINE
  5
3CA
100
AcDbEntity
  8
ASSI
100
AcDbLine
 62
250
  6
CONTINUOUS
 10
-0.74267942
 20
22.7811060183
 11
-2.8812270414
 21
24.0158766126
  0
LWPOLYLINE
  5
3CB
100
AcDbEntity
  8
ASSI
100
AcDbPolyline
 62
7
  6
CONTINUOUS
 90
11
 70
0
 10
-5.5039200657
 20
24.0377002768
 10
-5.525510035
 20
24.0508620545
 10
-5.5434988864
 20
24.0630211664
 10
-5.5589236254
 20
24.0745105483
 10
-5.5722203007
 20
24.0854029553
 10
-5.5835142281
 20
24.0955106476
 10
-5.5929496953
 20
24.1046876727
 10
-5.6009108556
 20
24.1130917822
 10
-5.6075903271
 20
24.1207188673
 10
-5.6129323387
 20
24.1272854558
 10
-5.6163593275
 20
24.1317815951
  0
LWPOLYLINE
  5
3CC
100
AcDbEntity
  8
ASSI
100
AcDbPolyline
 62
7
  6
CONTINUOUS
 90
13
 70
0
 10
3.5476007629
 20
20.3036839004
 10
3.6069113369
 20
20.2673893285
 10
3.6657054705
 20
20.2273449083
 10
3.7239831636
 20
20.1835506397
 10
3.7819887145
 20
20.1358007205
 10
3.8394778249
 20
20.0843009529
 10
3.8957176004
 20
20.0296687435
 10
3.9506869586
 20
19.9718439026
 10
4.0044069818
 20
19.9108866199
 10
4.0562080228
 20
19.847594871
 10
4.1058668658
 20
19.782234648
 10
4.1536067265
 20
19.7145399589
 10
4.1994276049
 20
19.6445108036
  0
LWPOLYLINE
  5
3CD
100
AcDbEntity
  8
ASSI
100
AcDbPolyline
 62
250
  6
CONTINUOUS
 90
16
 70
0
 10
-9.2581126797
 20
24.4777858542
 10
-9.2434107394
 20
24.4687122738
 10
-9.228813825
 20
24.4579464196
 10
-9.2144806831
 20
24.4455776351
 10
-9.2005623995
 20
24.4317059425
 10
-9.1872281213
 20
24.4164683112
 10
-9.1746584358
 20
24.400045726
 10
-9.1629898933
 20
24.3825928186
 10
-9.1523736043
 20
24.3643098058
 10
-9.142979827
 20
24.3454835027
 10
-9.134923406
 20
24.326367326
 10
-9.1282657042
 20
24.3071338312
 10
-9.1230655628
 20
24.2879608482
 10
-9.1193798033
 20
24.269048774
 10
-9.1172539768
 20
24.2506184716
 10
-9.1167128626
 20
24.2328741871
  0
LINE
  5
3CE
100
AcDbEntity
  8
ASSI
100
AcDbLine
 62
250
  6
CONTINUOUS
 10
-5.6112856838
 20
24.0551610263
 11
-5.5838309266
 21
24.03772629
  0
LWPOLYLINE
  5
3CF
100
AcDbEntity
  8
ASSI
100
AcDbPolyline
 62
250
  6
CONTINUOUS
 90
10
 70
0
 10
-0.3486169529
 20
22.1966779555
 10
-0.3588375594
 20
22.2043142012
 10
-0.3695889796
 20
22.2113356671
 10
-0.3807946221
 20
22.2176963423
 10
-0.3924872635
 20
22.2233200133
 10
-0.4045051073
 20
22.2282321562
 10
-0.4165043758
 20
22.2325435915
 10
-0.4283569304
 20
22.2362753633
 10
-0.4401381396
 20
22.2393714921
 10
-0.4518311939
 20
22.2418220578
  0
LWPOLYLINE
  5
3D0
100
AcDbEntity
  8
RACCORDO
100
AcDbPolyline
 62
7
  6
CONTINUOUS
 90
10
 70
0
 10
10.2183030144
 20
19.8326955113
 10
10.0350209435
 20
20.1620349136
 10
9.8492453705
 20
20.4899010281
 10
9.6609762953
 20
20.8162938549
 10
9.4701793496
 20
21.1412709248
 10
9.2768889017
 20
21.464774707
 10
9.0812080564
 20
21.7866326088
 10
8.8831711821
 20
22.1067870995
 10
8.6827439104
 20
22.4252957098
 10
8.4799262414
 20
22.7421584398
  0
LWPOLYLINE
  5
3D1
100
AcDbEntity
  8
RACCORDO
100
AcDbPolyline
 62
250
  6
CONTINUOUS
 90
3
 70
0
 10
14.4289098786
 20
-9.0310275271
 10
14.4377017894
 20
-9.0072008481
 10
14.4445735793
 20
-8.9816069256
  0
LWPOLYLINE
  5
3D2
100
AcDbEntity
  8
RACCORDO
100
AcDbPolyline
 62
7
  6
CONTINUOUS
 90
4
 70
0
 10
4.2094096693
 20
-15.1155320725
 10
4.2252228453
 20
-15.0999231955
 10
4.2392731415
 20
-15.0822630334
 10
4.2515605579
 20
-15.0625515864
  0
LINE
  5
3D3
100
AcDbEntity
  8
RACCORDO
100
AcDbLine
 62
7
  6
CONTINUOUS
 10
0.7429487237
 20
-17.3174399434
 11
0.8311345425
 21
-17.2467576679
  0
LWPOLYLINE
  5
3D4
100
AcDbEntity
  8
RACCORDO
100
AcDbPolyline
 62
7
  6
CONTINUOUS
 90
6
 70
0
 10
0.2915535632
 20
-17.6540107241
 10
0.3832280708
 20
-17.5889419809
 10
0.4742048406
 20
-17.5227505312
 10
0.5644838727
 20
-17.4554363751
 10
0.6540651671
 20
-17.3869995125
 10
0.7429487237
 20
-17.3174399434
  0
LWPOLYLINE
  5
3D5
100
AcDbEntity
  8
ASSI
100
AcDbPolyline
 62
7
  6
CONTINUOUS
 90
10
 70
0
 10
-0.8783705825
 20
20.5805496485
 10
-0.8978943165
 20
20.5808368231
 10
-0.9169263117
 20
20.5801633058
 10
-0.935466568
 20
20.5785290965
 10
-0.9536512268
 20
20.5758991973
 10
-0.9713441467
 20
20.5723086062
 10
-0.9881369036
 20
20.567862317
 10
-1.0038933563
 20
20.5625953277
 10
-1.018749646
 20
20.5564726403
 10
-1.0327057727
 20
20.5494942548
  0
LINE
  5
3D6
100
AcDbEntity
  8
ASSI
100
AcDbLine
 62
7
  6
CONTINUOUS
 10
-0.8377138779
 20
20.5797423085
 11
-0.8783705825
 21
20.5805496485
  0
LWPOLYLINE
  5
3D7
100
AcDbEntity
  8
ASSI
100
AcDbPolyline
 62
250
  6
CONTINUOUS
 90
16
 70
0
 10
-2.7223743936
 20
22.0251874387
 10
-2.7361374661
 20
22.0268502881
 10
-2.7512712967
 20
22.0291903754
 10
-2.7676157781
 20
22.0321829441
 10
-2.7849983226
 20
22.0357964068
 10
-2.8032347354
 20
22.039992485
 10
-2.8221310197
 20
22.0447265096
 10
-2.8414864558
 20
22.049948113
 10
-2.8610969598
 20
22.0556021584
 10
-2.8807562259
 20
22.0616291359
 10
-2.9002640298
 20
22.0679678772
 10
-2.9194060842
 20
22.07454897
 10
-2.9379591109
 20
22.0812950275
 10
-2.955722877
 20
22.0881317438
 10
-2.9725204072
 20
22.0949894447
 10
-2.9881787718
 20
22.1017961185
  0
LWPOLYLINE
  5
3D8
100
AcDbEntity
  8
ASSI
100
AcDbPolyline
 62
250
  6
CONTINUOUS
 90
13
 70
0
 10
-2.9937593877
 20
21.1515575974
 10
-3.0111690507
 20
21.1537407142
 10
-3.0306559829
 20
21.1569712672
 10
-3.0518987163
 20
21.1611959639
 10
-3.074546818
 20
21.1663451119
 10
-3.0982266701
 20
21.1723337678
 10
-3.1225476328
 20
21.1790631389
 10
-3.147108491
 20
21.1864222135
 10
-3.1715040708
 20
21.1942895913
 10
-3.195331923
 20
21.2025354859
 10
-3.2181989651
 20
21.211023867
 10
-3.2397279657
 20
21.2196147044
 10
-3.2595637659
 20
21.2281662772
  0
LWPOLYLINE
  5
3D9
100
AcDbEntity
  8
ASSI
100
AcDbPolyline
 62
250
  6
CONTINUOUS
 90
27
 70
0
 10
-0.4518318112
 20
22.2418182581
 10
-0.4593363995
 20
22.243250897
 10
-0.466801989
 20
22.2444742911
 10
-0.4742252045
 20
22.2454881936
 10
-0.4815535442
 20
22.2462851874
 10
-0.4888342236
 20
22.2468724089
 10
-0.4962144233
 20
22.2472715394
 10
-0.5037278143
 20
22.2474932021
 10
-0.5113386801
 20
22.2475267164
 10
-0.5190909068
 20
22.2473618416
 10
-0.5269837715
 20
22.2470011975
 10
-0.5350182945
 20
22.2464421705
 10
-0.5432416683
 20
22.2456666871
 10
-0.5516610163
 20
22.2446748216
 10
-0.5602724605
 20
22.2434666066
 10
-0.5691077203
 20
22.242023961
 10
-0.5781761736
 20
22.2403435611
 10
-0.5874754333
 20
22.2384291878
 10
-0.5970208003
 20
22.2362735732
 10
-0.6068187676
 20
22.2338722587
 10
-0.6168738483
 20
22.2312310303
 10
-0.6271992493
 20
22.2283582783
 10
-0.6377979342
 20
22.2252511085
 10
-0.648681169
 20
22.2219152988
 10
-0.6598745495
 20
22.2183726182
 10
-0.6713761273
 20
22.2146246021
 10
-0.6954112118
 20
22.2065480322
  0
LWPOLYLINE
  5
3DA
100
AcDbEntity
  8
ASSI
100
AcDbPolyline
 62
250
  6
CONTINUOUS
 90
21
 70
0
 10
-0.4366022422
 20
22.0950252292
 10
-0.4400976403
 20
22.0957525149
 10
-0.4435688278
 20
22.0962106542
 10
-0.4469917729
 20
22.096417557
 10
-0.450382032
 20
22.0963750437
 10
-0.4538045793
 20
22.0960653688
 10
-0.4572913403
 20
22.0955044383
 10
-0.4608262104
 20
22.0946886568
 10
-0.4644167339
 20
22.0935691997
 10
-0.468081876
 20
22.0921628278
 10
-0.4718309879
 20
22.0904692953
 10
-0.4756703876
 20
22.0884179319
 10
-0.4796324971
 20
22.0860278453
 10
-0.4837333879
 20
22.0833037148
 10
-0.4879728954
 20
22.0801600494
 10
-0.4923973315
 20
22.0766189936
 10
-0.497036216
 20
22.0726947133
 10
-0.5018874445
 20
22.0682996404
 10
-0.5070138041
 20
22.0634617146
 10
-0.5124639328
 20
22.0582066954
 10
-0.5244398519
 20
22.0462425828
  0
LINE
  5
3DB
100
AcDbEntity
  8
DRAFT
100
AcDbLine
 62
7
  6
CONTINUOUS
 10
-10.7744252546
 20
23.8247896862
 11
-10.256964546
 21
23.6930565012
  0
LINE
  5
3DC
100
AcDbEntity
  8
ASSI
100
AcDbLine
 62
250
  6
CONTINUOUS
 10
-3.2170289366
 20
22.7385442651
 11
-3.1741577201
 21
22.7268663904
  0
LWPOLYLINE
  5
3DD
100
AcDbEntity
  8
ASSI
100
AcDbPolyline
 62
250
  6
CONTINUOUS
 90
3
 70
0
 10
-3.3397090439
 20
22.7715639781
 10
-3.2997900213
 20
22.7603304369
 10
-3.2170289366
 20
22.7385442651
  0
LINE
  5
3DE
100
AcDbEntity
  8
ASSI
100
AcDbLine
 62
250
  6
CONTINUOUS
 10
-0.4330869261
 20
22.0940192247
 11
-0.4366022422
 21
22.0950252292
  0
LWPOLYLINE
  5
3DF
100
AcDbEntity
  8
ASSI
100
AcDbPolyline
 62
250
  6
CONTINUOUS
 90
11
 70
0
 10
-3.0846803844
 20
22.6968851407
 10
-3.0388922597
 20
22.6830673433
 10
-2.9923126107
 20
22.6699688114
 10
-2.9450333237
 20
22.6576521646
 10
-2.8973300581
 20
22.6463052607
 10
-2.8490740572
 20
22.6358864254
 10
-2.8003940777
 20
22.6264373332
 10
-2.7519520496
 20
22.6182708649
 10
-2.7035921741
 20
22.6113718757
 10
-2.65547025
 20
22.6057555106
 10
-2.6087156039
 20
22.6017800853
  0
LINE
  5
3E0
100
AcDbEntity
  8
ASSI
100
AcDbLine
 62
250
  6
CONTINUOUS
 10
-3.1297688712
 20
22.7114848231
 11
-3.0846803844
 21
22.6968851407
  0
LWPOLYLINE
  5
3E1
100
AcDbEntity
  8
ASSI
100
AcDbPolyline
 62
250
  6
CONTINUOUS
 90
3
 70
0
 10
-3.4143324648
 20
22.7958652671
 10
-3.378271494
 20
22.7834507222
 10
-3.3397090439
 20
22.7715639781
  0
LINE
  5
3E2
100
AcDbEntity
  8
ASSI
100
AcDbLine
 62
7
  6
CONTINUOUS
 10
-3.1666829242
 20
22.7327202487
 11
-3.1667125782
 21
22.7327304758
  0
LINE
  5
3E3
100
AcDbEntity
  8
ASSI
100
AcDbLine
 62
250
  6
CONTINUOUS
 10
-3.1741577201
 20
22.7268663904
 11
-3.1297688712
 21
22.7114848231
  0
LINE
  5
3E4
100
AcDbEntity
  8
ASSI
100
AcDbLine
 62
7
  6
CONTINUOUS
 10
-3.1667125775
 20
22.7327304756
 11
-3.233129476
 21
22.7560247446
  0
LWPOLYLINE
  5
3E5
100
AcDbEntity
  8
ASSI
100
AcDbPolyline
 62
7
  6
CONTINUOUS
 90
8
 70
0
 10
-3.233129476
 20
22.7560247446
 10
-3.267858763
 20
22.7683278077
 10
-3.3005641238
 20
22.7804233799
 10
-3.3311291643
 20
22.7924375183
 10
-3.3596314872
 20
22.8045337452
 10
-3.3857051221
 20
22.8166395192
 10
-3.4092782504
 20
22.8286535692
 10
-3.4260570287
 20
22.8379681227
  0
LWPOLYLINE
  5
3E6
100
AcDbEntity
  8
ASSI
100
AcDbPolyline
 62
250
  6
CONTINUOUS
 90
8
 70
0
 10
-10.6921808036
 20
25.3704088766
 10
-10.7034653854
 20
25.3746598767
 10
-10.7156534219
 20
25.3769846572
 10
-10.7286143243
 20
25.3773582964
 10
-10.7422092057
 20
25.3757767846
 10
-10.7562923975
 20
25.3722570681
 10
-10.7707130135
 20
25.3668368574
 10
-10.7853165454
 20
25.3595742259
  0
LINE
  5
3E7
100
AcDbEntity
  8
ASSI
100
AcDbLine
 62
250
  6
CONTINUOUS
 10
2.318599647
 20
24.4931299271
 11
2.3364468763
 21
24.4841307047
  0
LWPOLYLINE
  5
3E8
100
AcDbEntity
  8
ASSI
100
AcDbPolyline
 62
250
  6
CONTINUOUS
 90
3
 70
0
 10
-1.004338487
 20
26.4130583036
 10
-1.0214695132
 20
26.4220560416
 10
-1.0383390416
 20
26.4284238189
  0
LINE
  5
3E9
100
AcDbEntity
  8
DRAFT
100
AcDbLine
 62
7
  6
CONTINUOUS
 10
3.968841211
 20
20.1664890648
 11
3.2366502055
 21
20.5892469749
  0
LINE
  5
3EA
100
AcDbEntity
  8
DRAFT
100
AcDbLine
 62
7
  6
CONTINUOUS
 10
-5.1991274914
 20
25.4599592919
 11
-5.931318497
 21
25.882717202
  0
LINE
  5
3EB
100
AcDbEntity
  8
ASSI
100
AcDbLine
 62
250
  6
CONTINUOUS
 10
-0.6247863955
 20
22.8473319089
 11
-2.7293784966
 21
24.0624970114
  0
LINE
  5
3EC
100
AcDbEntity
  8
ASSI
100
AcDbLine
 62
250
  6
CONTINUOUS
 10
-0.0937447491
 20
22.5779655526
 11
-0.5293300309
 21
22.8294670351
  0
LINE
  5
3ED
100
AcDbEntity
  8
ASSI
100
AcDbLine
 62
250
  6
CONTINUOUS
 10
-3.4847435115
 20
24.5358857388
 11
-3.9203287934
 21
24.7873872214
  0
LINE
  5
3EE
100
AcDbEntity
  8
ASSI
100
AcDbLine
 62
7
  6
CONTINUOUS
 10
-0.0915357869
 20
23.149893717
 11
-1.7147344372
 21
24.0871082742
  0
LINE
  5
3EF
100
AcDbEntity
  8
0
100
AcDbLine
 62
7
  6
CONTINUOUS
 10
-1.3563457484
 20
24.4498145446
 11
0.4017511652
 21
23.4347114208
  0
LINE
  5
3F0
100
AcDbEntity
  8
ASSI
100
AcDbLine
 62
250
  6
CONTINUOUS
 10
0.3469534052
 20
24.3718125958
 11
1.1858534248
 21
23.8874422384
  0
LINE
  5
3F1
100
AcDbEntity
  8
ASSI
100
AcDbLine
 62
250
  6
CONTINUOUS
 10
0.4322565741
 20
24.4483810573
 11
1.29481097
 21
23.9503529594
  0
LINE
  5
3F2
100
AcDbEntity
  8
ASSI
100
AcDbLine
 62
7
  6
CONTINUOUS
 10
2.0643677143
 20
24.3946853787
 11
1.1754101157
 21
24.9079583549
  0
LINE
  5
3F3
100
AcDbEntity
  8
ASSI
100
AcDbLine
 62
250
  6
CONTINUOUS
 10
2.721818759
 20
24.2616218095
 11
2.3364468763
 21
24.4841307047
  0
LINE
  5
3F4
100
AcDbEntity
  8
ASSI
100
AcDbLine
 62
250
  6
CONTINUOUS
 10
-0.6189666043
 20
26.1905494084
 11
-1.004338487
 21
26.4130583036
  0
LINE
  5
3F5
100
AcDbEntity
  8
ASSI
100
AcDbLine
 62
250
  6
CONTINUOUS
 10
2.8129954872
 20
24.3007364747
 11
2.427574412
 21
24.523273773
  0
LINE
  5
3F6
100
AcDbEntity
  8
ASSI
100
AcDbLine
 62
250
  6
CONTINUOUS
 10
-0.5270814382
 20
26.2292550305
 11
-0.9125025134
 21
26.4517923288
  0
LINE
  5
3F7
100
AcDbEntity
  8
0
100
AcDbLine
 62
7
  6
CONTINUOUS
 10
0.8374276662
 20
25.7164718197
 11
2.7028021013
 21
24.6394279996
  0
LWPOLYLINE
  5
3F8
100
AcDbEntity
  8
ASSI
100
AcDbPolyline
 62
250
  6
CONTINUOUS
 90
13
 70
0
 10
2.721818759
 20
24.2616218095
 10
2.7395608223
 20
24.2504842627
 10
2.7570320606
 20
24.2370241117
 10
2.7739657829
 20
24.2214468199
 10
2.7901035031
 20
24.203990168
 10
2.8051988859
 20
24.1849206245
 10
2.8190215065
 20
24.1645292777
 10
2.8313603687
 20
24.1431273928
 10
2.842027125
 20
24.1210416605
 10
2.8508589518
 20
24.0986092102
 10
2.857721035
 20
24.0761724634
 10
2.862508628
 20
24.0540739077
 10
2.86514865
 20
24.0326508681
  0
LWPOLYLINE
  5
3F9
100
AcDbEntity
  8
ASSI
100
AcDbPolyline
 62
250
  6
CONTINUOUS
 90
13
 70
0
 10
2.8129954872
 20
24.3007364747
 10
2.8300412403
 20
24.2892898671
 10
2.8462697872
 20
24.2752930509
 10
2.8614339242
 20
24.2589592347
 10
2.8753026611
 20
24.2405372259
 10
2.8876647402
 20
24.2203076408
 10
2.8983318541
 20
24.1985786297
 10
2.9071415144
 20
24.1756811831
 10
2.9139595266
 20
24.15196409
 10
2.9186820341
 20
24.1277886247
 10
2.9212371007
 20
24.103523044
 10
2.9215858059
 20
24.079536977
 10
2.9197228379
 20
24.0561957952
  0
LWPOLYLINE
  5
3FA
100
AcDbEntity
  8
ASSI
100
AcDbPolyline
 62
250
  6
CONTINUOUS
 90
13
 70
0
 10
4.3435284352
 20
24.7032980012
 10
4.3605741884
 20
24.6918513936
 10
4.3768027355
 20
24.6778545772
 10
4.3919668725
 20
24.6615207608
 10
4.4058356094
 20
24.643098752
 10
4.4181976885
 20
24.6228691668
 10
4.4288648024
 20
24.6011401556
 10
4.4376744626
 20
24.578242709
 10
4.4444924747
 20
24.5545256159
 10
4.4492149822
 20
24.5303501508
 10
4.4517700487
 20
24.5060845702
 10
4.4521187538
 20
24.4820985033
 10
4.4502557859
 20
24.4587573218
  0
LWPOLYLINE
  5
3FB
100
AcDbEntity
  8
ASSI
100
AcDbPolyline
 62
250
  6
CONTINUOUS
 90
6
 70
0
 10
0.6610998044
 20
26.8753753503
 10
0.6486248917
 20
26.8845214776
 10
0.6358132391
 20
26.8910436262
 10
0.6228436537
 20
26.894850769
 10
0.6098971468
 20
26.895889771
 10
0.6060873453
 20
26.8956624364
  0
LWPOLYLINE
  5
3FC
100
AcDbEntity
  8
RACCORDO
100
AcDbPolyline
 62
250
  6
CONTINUOUS
 90
10
 70
0
 10
13.4177979102
 20
21.5984261037
 10
13.3952613737
 20
21.6381119699
 10
13.3707289182
 20
21.6763821496
 10
13.3444049894
 20
21.7129177113
 10
13.3165089627
 20
21.7474141788
 10
13.2872733149
 20
21.7795840695
 10
13.2569416868
 20
21.8091592892
 10
13.2257668529
 20
21.8358933674
 10
13.1940086144
 20
21.8595635106
 10
13.1619316346
 20
21.8799724593
  0
LWPOLYLINE
  5
3FD
100
AcDbEntity
  8
RACCORDO
100
AcDbPolyline
 62
250
  6
CONTINUOUS
 90
10
 70
0
 10
14.375687088
 20
19.7642990365
 10
14.2733058749
 20
19.9697134262
 10
14.169895677
 20
20.1747538625
 10
14.0654633599
 20
20.3794067325
 10
13.9600158569
 20
20.5836584492
 10
13.8535601686
 20
20.7874954523
 10
13.7461033628
 20
20.9909042089
 10
13.6376525735
 20
21.1938712146
 10
13.528215001
 20
21.3963829941
 10
13.4177979107
 20
21.5984261028
  0
LWPOLYLINE
  5
3FE
100
AcDbEntity
  8
RACCORDO
100
AcDbPolyline
 62
7
  6
CONTINUOUS
 90
10
 70
0
 10
14.5447360796
 20
19.888521169
 10
14.4431060402
 20
20.0924284047
 10
14.340456915
 20
20.295959727
 10
14.2367954283
 20
20.4991019242
 10
14.1321284194
 20
20.701841709
 10
14.0264626858
 20
20.904166022
 10
13.9198049791
 20
21.1060620293
 10
13.8121622144
 20
21.3075167199
 10
13.7035414746
 20
21.5085169104
 10
13.5939498505
 20
21.7090495468
  0
LWPOLYLINE
  5
3FF
100
AcDbEntity
  8
RACCORDO
100
AcDbPolyline
 62
250
  6
CONTINUOUS
 90
5
 70
0
 10
14.3756870882
 20
-9.1061431518
 10
14.3915608228
 20
-9.0906166493
 10
14.4057742568
 20
-9.0728531881
 10
14.4182473541
 20
-9.0529527942
 10
14.4289098786
 20
-9.0310275271
  0
LINE
  5
400
100
AcDbEntity
  8
RACCORDO
100
AcDbLine
 62
250
  6
CONTINUOUS
 10
14.4233790631
 20
-9.0718938869
 11
14.4234371333
 21
-9.0718437792
  0
LWPOLYLINE
  5
401
100
AcDbEntity
  8
RACCORDO
100
AcDbPolyline
 62
250
  6
CONTINUOUS
 90
3
 70
0
 10
14.3756870882
 20
-9.1061431518
 10
14.4051360016
 20
-9.0865325321
 10
14.4233790631
 20
-9.0718938869
  0
LWPOLYLINE
  5
402
100
AcDbEntity
  8
RACCORDO
100
AcDbPolyline
 62
250
  6
CONTINUOUS
 90
10
 70
0
 10
13.3120802656
 20
-9.9033957619
 10
13.4359820888
 20
-9.8220037749
 10
13.5574281646
 20
-9.7394866455
 10
13.6764455068
 20
-9.6559113231
 10
13.791711351
 20
-9.5723384022
 10
13.9046300744
 20
-9.4878807741
 10
14.019199776
 20
-9.3994924317
 10
14.136634589
 20
-9.3059868047
 10
14.2554980023
 20
-9.2082480608
 10
14.375687088
 20
-9.106143152
  0
LWPOLYLINE
  5
403
100
AcDbEntity
  8
RACCORDO
100
AcDbPolyline
 62
7
  6
CONTINUOUS
 90
10
 70
0
 10
13.3232462756
 20
-9.8964879915
 10
13.450251798
 20
-9.8130690345
 10
13.5762647251
 20
-9.727471788
 10
13.7010538802
 20
-9.6398444773
 10
13.8246040308
 20
-9.5501964558
 10
13.9469064875
 20
-9.4585326944
 10
14.0679588035
 20
-9.3648532431
 10
14.1877521268
 20
-9.2691627077
 10
14.3062715037
 20
-9.171470785
 10
14.4235052597
 20
-9.071784964
  0
LWPOLYLINE
  5
404
100
AcDbEntity
  8
RACCORDO
100
AcDbPolyline
 62
250
  6
CONTINUOUS
 90
10
 70
0
 10
14.4533365781
 20
-8.89570773
 10
14.4823523383
 20
-8.8771113361
 10
14.5084736338
 20
-8.8571299769
 10
14.5315024289
 20
-8.835913205
 10
14.551264865
 20
-8.8136186373
 10
14.5676089365
 20
-8.7904147693
 10
14.5804077465
 20
-8.7664802169
 10
14.5895644826
 20
-8.7419967351
 10
14.5950111426
 20
-8.7171471422
 10
14.5967113535
 20
-8.6933596177
  0
LINE
  5
405
100
AcDbEntity
  8
DRAFT
100
AcDbLine
 62
7
  6
CONTINUOUS
 10
10.0666577599
 20
-11.8275660057
 11
10.1126686844
 21
-11.7983239006
  0
LINE
  5
406
100
AcDbEntity
  8
RACCORDO
100
AcDbLine
 62
7
  6
CONTINUOUS
 10
13.3151606206
 20
-9.9015495944
 11
13.3232406114
 21
-9.8964848424
  0
LWPOLYLINE
  5
407
100
AcDbEntity
  8
DRAFT
100
AcDbPolyline
 62
7
  6
CONTINUOUS
 90
3
 70
0
 10
10.0089179657
 20
-11.8637385421
 10
10.0204859953
 20
-11.8565378402
 10
10.0666577599
 20
-11.8275660057
  0
LINE
  5
408
100
AcDbEntity
  8
DRAFT
100
AcDbLine
 62
7
  6
CONTINUOUS
 10
0.0794215288
 20
-21.1218430485
 11
1.1038901389
 21
-20.4882962927
  0
LWPOLYLINE
  5
409
100
AcDbEntity
  8
RACCORDO
100
AcDbPolyline
 62
7
  6
CONTINUOUS
 90
7
 70
0
 10
2.903971427
 20
-16.0948187321
 10
2.9616827411
 20
-16.0595423693
 10
3.2132463285
 20
-15.8990531156
 10
3.4598671708
 20
-15.730604136
 10
3.701458626
 20
-15.5542515444
 10
3.9381073362
 20
-15.369939227
 10
4.1698133014
 20
-15.1776671838
  0
LINE
  5
40A
100
AcDbEntity
  8
ASSI
100
AcDbLine
 62
7
  6
CONTINUOUS
 10
2.9039362921
 20
-16.0948400328
 11
0.0794215288
 21
-17.8072032003
  0
LINE
  5
40B
100
AcDbEntity
  8
RACCORDO
100
AcDbLine
 62
250
  6
CONTINUOUS
 10
0.0794215288
 20
-17.4893087537
 11
4.2480066473
 21
-14.9667805214
  0
LINE
  5
40C
100
AcDbEntity
  8
RACCORDO
100
AcDbLine
 62
250
  6
CONTINUOUS
 10
0.0794215288
 20
-17.652806419
 11
4.1698133014
 21
-15.1776671838
  0
LINE
  5
40D
100
AcDbEntity
  8
DRAFT
100
AcDbLine
 62
7
  6
CONTINUOUS
 10
9.4031934443
 20
-12.2249936788
 11
9.6579060269
 21
-12.0734049793
  0
LINE
  5
40E
100
AcDbEntity
  8
RACCORDO
100
AcDbLine
 62
7
  6
CONTINUOUS
 10
13.3151791767
 20
-9.9015603085
 11
10.1126686844
 21
-11.7983239006
  0
LINE
  5
40F
100
AcDbEntity
  8
DRAFT
100
AcDbLine
 62
7
  6
CONTINUOUS
 10
9.4030770797
 20
-12.2248238562
 11
3.3396081865
 21
-15.8127444085
  0
LWPOLYLINE
  5
410
100
AcDbEntity
  8
DRAFT
100
AcDbPolyline
 62
7
  6
CONTINUOUS
 90
4
 70
0
 10
9.6579060269
 20
-12.0734049793
 10
9.7766402393
 20
-12.0031832988
 10
9.8938338173
 20
-11.9333123843
 10
10.0089179657
 20
-11.8637385421
  0
LINE
  5
411
100
AcDbEntity
  8
RACCORDO
100
AcDbLine
 62
250
  6
CONTINUOUS
 10
4.2867068769
 20
-14.905401699
 11
14.4533365781
 21
-8.89570773
  0
LINE
  5
412
100
AcDbEntity
  8
RACCORDO
100
AcDbLine
 62
250
  6
CONTINUOUS
 10
4.2199211583
 20
-15.1093186698
 11
14.375687088
 21
-9.106143152
  0
LWPOLYLINE
  5
413
100
AcDbEntity
  8
RACCORDO
100
AcDbPolyline
 62
7
  6
CONTINUOUS
 90
9
 70
0
 10
0.7891030696
 20
-17.2528516044
 10
0.8053404471
 20
-17.243320762
 10
0.8197550982
 20
-17.2351907385
 10
0.8321167505
 20
-17.2285944958
 10
0.842241888
 20
-17.223662163
 10
0.8499611446
 20
-17.2204673794
 10
0.8551256132
 20
-17.219023651
 10
0.8576709046
 20
-17.2193809793
 10
0.8578113599
 20
-17.2195671639
  0
LINE
  5
414
100
AcDbEntity
  8
DRAFT
100
AcDbLine
 62
7
  6
CONTINUOUS
 10
0.4667359069
 20
-18.5273573824
 11
0.0794215288
 21
-18.750988618
  0
LINE
  5
415
100
AcDbEntity
  8
0
100
AcDbLine
 62
7
  6
CONTINUOUS
 10
0.0794215288
 20
-18.3122408892
 11
0.0869795923
 21
-18.3080908459
  0
LINE
  5
416
100
AcDbEntity
  8
ASSI
100
AcDbLine
 62
250
  6
CONTINUOUS
 10
2.427574412
 20
24.523273773
 11
4.9851461442
 21
25.239488088
  0
LINE
  5
417
100
AcDbEntity
  8
ASSI
100
AcDbLine
 62
7
  6
CONTINUOUS
 10
2.3370393067
 20
24.5370009411
 11
4.9024681521
 21
25.2554155372
  0
LWPOLYLINE
  5
418
100
AcDbEntity
  8
ASSI
100
AcDbPolyline
 62
250
  6
CONTINUOUS
 90
13
 70
0
 10
4.3435284352
 20
24.7032980012
 10
4.3477693364
 20
24.7044469473
 10
4.3519434306
 20
24.7056543112
 10
4.3560507177
 20
24.706920093
 10
4.3600797938
 20
24.7082368708
 10
4.3640420629
 20
24.7096120665
 10
4.3679717367
 20
24.7110679455
 10
4.3718775395
 20
24.7126033326
 10
4.3757507471
 20
24.7142194031
 10
4.3795993985
 20
24.7159419487
 10
4.3834261735
 20
24.7177795667
 10
4.3872283922
 20
24.7197236598
 10
4.3910060549
 20
24.721774228
  0
LINE
  5
419
100
AcDbEntity
  8
ASSI
100
AcDbLine
 62
250
  6
CONTINUOUS
 10
2.9197228379
 20
24.0561957952
 11
4.4502557859
 21
24.4587573218
  0
LINE
  5
41A
100
AcDbEntity
  8
ASSI
100
AcDbLine
 62
250
  6
CONTINUOUS
 10
2.8129954872
 20
24.3007364747
 11
4.3435284352
 21
24.7032980012
  0
LWPOLYLINE
  5
41B
100
AcDbEntity
  8
ASSI
100
AcDbPolyline
 62
250
  6
CONTINUOUS
 90
6
 70
0
 10
2.3370393067
 20
24.5370009411
 10
2.353445692
 20
24.5401811051
 10
2.3718167506
 20
24.5406154838
 10
2.3904948213
 20
24.5379051434
 10
2.409180538
 20
24.5320935242
 10
2.427574412
 20
24.523273773
  0
LWPOLYLINE
  5
41C
100
AcDbEntity
  8
ASSI
100
AcDbPolyline
 62
250
  6
CONTINUOUS
 90
9
 70
0
 10
-0.9716819273
 20
22.6819879399
 10
-0.93708267
 20
22.6848182899
 10
-0.9024837447
 20
22.6893461491
 10
-0.8679587203
 20
22.6954709806
 10
-0.8339710076
 20
22.7029972759
 10
-0.8001978826
 20
22.7118843412
 10
-0.7654917824
 20
22.7224266328
 10
-0.7297539846
 20
22.7347401379
 10
-0.6931398845
 20
22.7488426168
  0
LINE
  5
41D
100
AcDbEntity
  8
ASSI
100
AcDbLine
 62
250
  6
CONTINUOUS
 10
-6.3189516561
 20
24.5380143031
 11
-6.3117479274
 21
24.5384716529
  0
LWPOLYLINE
  5
41E
100
AcDbEntity
  8
ASSI
100
AcDbPolyline
 62
250
  6
CONTINUOUS
 90
16
 70
0
 10
-2.4961600876
 20
22.135466658
 10
-2.5033107309
 20
22.1350553277
 10
-2.5103137689
 20
22.1343619856
 10
-2.5171692017
 20
22.1333866317
 10
-2.5238852811
 20
22.132101628
 10
-2.5304537554
 20
22.1305346125
 10
-2.5368498689
 20
22.1287684995
 10
-2.5430714102
 20
22.1268063246
 10
-2.5491205909
 20
22.1246450521
 10
-2.5549792902
 20
22.1223584897
 10
-2.5606457703
 20
22.119949247
 10
-2.5661217691
 20
22.1174147145
 10
-2.5713943789
 20
22.1148208703
 10
-2.5764592974
 20
22.1121897072
 10
-2.5813208269
 20
22.1094992326
 10
-2.5859789676
 20
22.1067494463
  0
LWPOLYLINE
  5
41F
100
AcDbEntity
  8
ASSI
100
AcDbPolyline
 62
250
  6
CONTINUOUS
 90
16
 70
0
 10
-2.5797227309
 20
22.3836470777
 10
-2.5915005079
 20
22.3829863592
 10
-2.6030998905
 20
22.3817670236
 10
-2.6144928157
 20
22.3800388466
 10
-2.6256481018
 20
22.3778504029
 10
-2.6365483779
 20
22.3752496556
 10
-2.6471903356
 20
22.3722821468
 10
-2.6575584557
 20
22.3689904012
 10
-2.6676340238
 20
22.3654167945
 10
-2.6774123982
 20
22.3616024694
 10
-2.6868832514
 20
22.3575849505
 10
-2.6960338499
 20
22.35340156
 10
-2.7048584904
 20
22.349090356
 10
-2.7133505629
 20
22.3446858965
 10
-2.721502443
 20
22.3402191399
 10
-2.7293088587
 20
22.3357203877
  0
LINE
  5
420
100
AcDbEntity
  8
ASSI
100
AcDbLine
 62
250
  6
CONTINUOUS
 10
-2.4777846595
 20
22.6000577641
 11
-0.9716819273
 21
22.6819879399
  0
LINE
  5
421
100
AcDbEntity
  8
ASSI
100
AcDbLine
 62
7
  6
CONTINUOUS
 10
-2.5488485505
 20
22.6172346367
 11
-1.0423128724
 21
22.6991891384
  0
LINE
  5
422
100
AcDbEntity
  8
ASSI
100
AcDbLine
 62
7
  6
CONTINUOUS
 10
-1.0423128724
 20
22.6991891384
 11
-1.0421726118
 21
22.6991966872
  0
LINE
  5
423
100
AcDbEntity
  8
ASSI
100
AcDbLine
 62
250
  6
CONTINUOUS
 10
-6.3117479274
 20
24.5384716529
 11
-4.3676311041
 21
24.6427664333
  0
LINE
  5
424
100
AcDbEntity
  8
ASSI
100
AcDbLine
 62
7
  6
CONTINUOUS
 10
-6.3824490762
 20
24.5556689414
 11
-4.4381171996
 21
24.6599754588
  0
LINE
  5
425
100
AcDbEntity
  8
ASSI
100
AcDbLine
 62
7
  6
CONTINUOUS
 10
-4.4381171996
 20
24.6599754588
 11
-4.4379767922
 21
24.6599829096
  0
LWPOLYLINE
  5
426
100
AcDbEntity
  8
ASSI
100
AcDbPolyline
 62
250
  6
CONTINUOUS
 90
16
 70
0
 10
-5.5204598122
 20
24.3568602636
 10
-5.5576421719
 20
24.3549855114
 10
-5.5913482121
 20
24.3517983881
 10
-5.6215779331
 20
24.3472988937
 10
-5.6482500764
 20
24.3414471252
 10
-5.6714459004
 20
24.3342829856
 10
-5.6914091797
 20
24.3259261839
 10
-5.7082715295
 20
24.3164610578
 10
-5.7219013346
 20
24.3058032696
 10
-5.7321475241
 20
24.2938195159
 10
-5.7391432093
 20
24.2804117611
 10
-5.7427552788
 20
24.2656780408
 10
-5.742433327
 20
24.2497791582
 10
-5.7379938854
 20
24.2327687145
 10
-5.7296204225
 20
24.2145931085
 10
-5.7173129383
 20
24.1952523402
  0
LWPOLYLINE
  5
427
100
AcDbEntity
  8
ASSI
100
AcDbPolyline
 62
250
  6
CONTINUOUS
 90
10
 70
0
 10
-2.7293784966
 20
24.0624970114
 10
-2.7440625465
 20
24.0617771537
 10
-2.7592785655
 20
24.0601018306
 10
-2.7750131211
 20
24.0574166103
 10
-2.7911694208
 20
24.0536937342
 10
-2.8078029855
 20
24.0488667779
 10
-2.8251308086
 20
24.0427796174
 10
-2.8432089748
 20
24.0352973463
 10
-2.8619224952
 20
24.0263589068
 10
-2.8812270414
 20
24.0158766126
  0
LWPOLYLINE
  5
428
100
AcDbEntity
  8
ASSI
100
AcDbPolyline
 62
250
  6
CONTINUOUS
 90
10
 70
0
 10
-2.8108387921
 20
24.3179974081
 10
-2.8312513467
 20
24.3170056102
 10
-2.8523796139
 20
24.3145378208
 10
-2.8742235935
 20
24.3105940396
 10
-2.8967041319
 20
24.3053138223
 10
-2.9199003827
 20
24.2985576134
 10
-2.9440498073
 20
24.2899067464
 10
-2.9692315593
 20
24.2792216659
 10
-2.9953664851
 20
24.2666419274
 10
-3.0224545846
 20
24.2521675309
  0
LWPOLYLINE
  5
429
100
AcDbEntity
  8
ASSI
100
AcDbPolyline
 62
7
  6
CONTINUOUS
 90
17
 70
0
 10
-2.5488485506
 20
22.6172346367
 10
-2.5657909143
 20
22.6165575735
 10
-2.5968249177
 20
22.6163569563
 10
-2.6310087332
 20
22.6174100983
 10
-2.6679140198
 20
22.6197874031
 10
-2.706982557
 20
22.6235001231
 10
-2.7479391879
 20
22.6285444084
 10
-2.7905748045
 20
22.6349211876
 10
-2.8345456883
 20
22.6426034575
 10
-2.8795674929
 20
22.6515543018
 10
-2.9253920231
 20
22.6617390218
 10
-2.9717576346
 20
22.673115394
 10
-3.0183657041
 20
22.685620574
 10
-3.0649333788
 20
22.699188465
 10
-3.1111843659
 20
22.7137519942
 10
-3.1567574755
 20
22.7292044679
 10
-3.1666829242
 20
22.7327202487
  0
LINE
  5
42A
100
AcDbEntity
  8
ASSI
100
AcDbLine
 62
250
  6
CONTINUOUS
 10
-2.5200610297
 20
22.5989909313
 11
-2.4777846595
 21
22.6000577641
  0
LINE
  5
42B
100
AcDbEntity
  8
ASSI
100
AcDbLine
 62
250
  6
CONTINUOUS
 10
-0.7782257653
 20
22.1783119434
 11
-2.4961600876
 21
22.135466658
  0
LINE
  5
42C
100
AcDbEntity
  8
ASSI
100
AcDbLine
 62
250
  6
CONTINUOUS
 10
-0.5429511546
 20
22.434444165
 11
-2.5797227309
 21
22.3836470777
  0
LINE
  5
42D
100
AcDbEntity
  8
ASSI
100
AcDbLine
 62
250
  6
CONTINUOUS
 10
-1.7147344372
 20
24.0871082742
 11
-2.7293784966
 21
24.0624970114
  0
LINE
  5
42E
100
AcDbEntity
  8
ASSI
100
AcDbLine
 62
250
  6
CONTINUOUS
 10
-3.8574400359
 20
24.1397222617
 11
-5.4389995168
 21
24.1013598669
  0
LINE
  5
42F
100
AcDbEntity
  8
ASSI
100
AcDbLine
 62
250
  6
CONTINUOUS
 10
-1.530873664
 20
24.3490443135
 11
-2.8108387921
 21
24.3179974081
  0
LINE
  5
430
100
AcDbEntity
  8
ASSI
100
AcDbLine
 62
250
  6
CONTINUOUS
 10
-3.9389003313
 20
24.3952226584
 11
-5.5204598122
 21
24.3568602636
  0
LWPOLYLINE
  5
431
100
AcDbEntity
  8
ASSI
100
AcDbPolyline
 62
250
  6
CONTINUOUS
 90
6
 70
0
 10
-4.4379767922
 20
24.6599829096
 10
-4.4285150387
 20
24.6601105137
 10
-4.4129328544
 20
24.6587154226
 10
-4.3974904704
 20
24.6553347333
 10
-4.3823437072
 20
24.6500008422
 10
-4.3676444746
 20
24.642765716
  0
LWPOLYLINE
  5
432
100
AcDbEntity
  8
ASSI
100
AcDbPolyline
 62
250
  6
CONTINUOUS
 90
5
 70
0
 10
-2.5484156043
 20
22.6172589626
 10
-2.5356746872
 20
22.6172844843
 10
-2.5159258969
 20
22.6146837843
 10
-2.4965251455
 20
22.6089105738
 10
-2.4777846595
 20
22.6000577641
  0
LWPOLYLINE
  5
433
100
AcDbEntity
  8
ASSI
100
AcDbPolyline
 62
250
  6
CONTINUOUS
 90
5
 70
0
 10
-1.0421726118
 20
22.6991966872
 10
-1.0295707092
 20
22.6992145974
 10
-1.009822277
 20
22.6966137702
 10
-0.9904219492
 20
22.6908405716
 10
-0.9716819273
 20
22.6819879399
  0
LWPOLYLINE
  5
434
100
AcDbEntity
  8
ASSI
100
AcDbPolyline
 62
250
  6
CONTINUOUS
 90
5
 70
0
 10
-6.3822290416
 20
24.5556809457
 10
-6.3680677998
 20
24.5556149241
 10
-6.3488520844
 20
24.5528802291
 10
-6.3299826801
 20
24.5471365493
 10
-6.3117479274
 20
24.5384716529
  0
LWPOLYLINE
  5
435
100
AcDbEntity
  8
ASSI
100
AcDbPolyline
 62
250
  6
CONTINUOUS
 90
5
 70
0
 10
-5.5324516241
 20
24.1146329416
 10
-5.5495088009
 20
24.1150901385
 10
-5.5642944328
 20
24.1143821171
 10
-5.5767438277
 20
24.1126453727
 10
-5.5868535451
 20
24.1099329469
  0
LWPOLYLINE
  5
436
100
AcDbEntity
  8
ASSI
100
AcDbPolyline
 62
250
  6
CONTINUOUS
 90
3
 70
0
 10
-2.6087156039
 20
22.6017800853
 10
-2.5637046778
 20
22.5995650384
 10
-2.5200610297
 20
22.5989909313
  0
LWPOLYLINE
  5
437
100
AcDbEntity
  8
ASSI
100
AcDbPolyline
 62
7
  6
CONTINUOUS
 90
10
 70
0
 10
1.5475662173
 20
21.9402945562
 10
1.5260524843
 20
21.9415406281
 10
1.5049218829
 20
21.941551527
 10
1.4841744129
 20
21.9403272529
 10
1.4635728069
 20
21.9378183143
 10
1.4433543324
 20
21.9340742028
 10
1.4242307925
 20
21.929243393
 10
1.4064394551
 20
21.9233753766
 10
1.3897430524
 20
21.916420662
 10
1.3741415843
 20
21.9083792492
  0
LWPOLYLINE
  5
438
100
AcDbEntity
  8
ASSI
100
AcDbPolyline
 62
250
  6
CONTINUOUS
 90
3
 70
0
 10
-2.0865996367
 20
25.921467656
 10
-2.1240254458
 20
25.9244427615
 10
-2.160981937
 20
25.9294913721
  0
LWPOLYLINE
  5
439
100
AcDbEntity
  8
ASSI
100
AcDbPolyline
 62
250
  6
CONTINUOUS
 90
24
 70
0
 10
1.5453248905
 20
23.3413310938
 10
1.5731702904
 20
23.3381309514
 10
1.6011709703
 20
23.3364812473
 10
1.6295832862
 20
23.3363939734
 10
1.6581508822
 20
23.337857138
 10
1.6861046905
 20
23.3408347655
 10
1.7134231314
 20
23.3453661786
 10
1.7401277846
 20
23.3514120546
 10
1.765514321
 20
23.3588184494
 10
1.7895557056
 20
23.3676244536
 10
1.8122789735
 20
23.3777909766
 10
1.8330609009
 20
23.3890468021
 10
1.8518473573
 20
23.4014249513
 10
1.8686924732
 20
23.4148924031
 10
1.8831354166
 20
23.4290788785
 10
1.8951050038
 20
23.4440007153
 10
1.9046724184
 20
23.4596415757
 10
1.9115903793
 20
23.4755821671
 10
1.915788232
 20
23.4918295029
 10
1.9173366309
 20
23.5083765697
 10
1.9162002584
 20
23.5247830346
 10
1.912367342
 20
23.54090212
 10
1.9058496542
 20
23.5568806034
 10
1.8966471951
 20
23.572718485
  0
LINE
  5
43A
100
AcDbEntity
  8
ASSI
100
AcDbLine
 62
250
  6
CONTINUOUS
 10
-2.2248539916
 20
25.9419212532
 11
-2.2524881303
 21
25.9456826729
  0
LWPOLYLINE
  5
43B
100
AcDbEntity
  8
ASSI
100
AcDbPolyline
 62
250
  6
CONTINUOUS
 90
4
 70
0
 10
-3.1667125782
 20
22.7327304758
 10
-3.16732589
 20
22.7328168563
 10
-3.1702494306
 20
22.7312870212
 10
-3.1741577198
 20
22.7268663904
  0
LWPOLYLINE
  5
43C
100
AcDbEntity
  8
ASSI
100
AcDbPolyline
 62
250
  6
CONTINUOUS
 90
24
 70
0
 10
1.451154106
 20
23.0738772968
 10
1.4915848681
 20
23.0667427044
 10
1.5329149803
 20
23.0616056912
 10
1.5748489599
 20
23.0585029845
 10
1.6170870075
 20
23.0574567677
 10
1.6593271482
 20
23.0584745217
 10
1.7012673909
 20
23.061548971
 10
1.7426078952
 20
23.066658137
 10
1.7830530976
 20
23.0737654928
 10
1.822313824
 20
23.082820222
 10
1.860109376
 20
23.0937575839
 10
1.8961695535
 20
23.1064993842
 10
1.9302365667
 20
23.1209545327
 10
1.9620668596
 20
23.1370196863
 10
1.9914328639
 20
23.1545799896
 10
2.0181246386
 20
23.1735099049
 10
2.0419513619
 20
23.193674107
 10
2.0627426704
 20
23.2149284277
 10
2.0803498974
 20
23.2371208882
 10
2.0946471633
 20
23.2600928145
 10
2.1055322672
 20
23.2836799808
 10
2.112927396
 20
23.3077137589
 10
2.1167796813
 20
23.3320222909
 10
2.1173787779
 20
23.3461504521
  0
LINE
  5
43D
100
AcDbEntity
  8
ASSI
100
AcDbLine
 62
250
  6
CONTINUOUS
 10
-2.160981937
 20
25.9294913721
 11
-2.2248539916
 21
25.9419212532
  0
LWPOLYLINE
  5
43E
100
AcDbEntity
  8
ASSI
100
AcDbPolyline
 62
250
  6
CONTINUOUS
 90
5
 70
0
 10
-5.4389995168
 20
24.1013598669
 10
-5.4661386012
 20
24.106670009
 10
-5.4907843884
 20
24.1105508245
 10
-5.5129152343
 20
24.1131368326
 10
-5.5324516241
 20
24.1146329416
  0
LWPOLYLINE
  5
43F
100
AcDbEntity
  8
ASSI
100
AcDbPolyline
 62
250
  6
CONTINUOUS
 90
5
 70
0
 10
-1.0383390416
 20
26.4284238189
 10
-1.054689566
 20
26.4320644339
 10
-1.0702715027
 20
26.4329223144
 10
-1.084847
 20
26.430984365
 10
-1.0981935692
 20
26.4262801679
  0
LWPOLYLINE
  5
440
100
AcDbEntity
  8
ASSI
100
AcDbPolyline
 62
250
  6
CONTINUOUS
 90
13
 70
0
 10
4.3910060549
 20
24.721774228
 10
4.4108692851
 20
24.7122487166
 10
4.4299444451
 20
24.7003598186
 10
4.4479653106
 20
24.6862734625
 10
4.4646803715
 20
24.670186246
 10
4.4798563425
 20
24.6523226919
 10
4.4932814186
 20
24.6329321148
 10
4.5047682313
 20
24.6122851411
 10
4.5141564639
 20
24.5906699324
 10
4.5213150885
 20
24.5683881635
 10
4.526144195
 20
24.5457508121
 10
4.5285763856
 20
24.5230738187
 10
4.5285777152
 20
24.500673677
  0
LWPOLYLINE
  5
441
100
AcDbEntity
  8
ASSI
100
AcDbPolyline
 62
250
  6
CONTINUOUS
 90
6
 70
0
 10
-0.9125025134
 20
26.4517923288
 10
-0.9302982906
 20
26.4604627841
 10
-0.9483805449
 20
26.4662765945
 10
-0.9664738352
 20
26.4691452
 10
-0.9843025529
 20
26.4690249042
 10
-1.0017827555
 20
26.465866504
  0
LWPOLYLINE
  5
442
100
AcDbEntity
  8
ASSI
100
AcDbPolyline
 62
250
  6
CONTINUOUS
 90
3
 70
0
 10
0.600013224
 20
26.8647567669
 10
0.5822174469
 20
26.8734272222
 10
0.5641351927
 20
26.8792410326
  0
LWPOLYLINE
  5
443
100
AcDbEntity
  8
RACCORDO
100
AcDbPolyline
 62
250
  6
CONTINUOUS
 90
10
 70
0
 10
0.3028596243
 20
29.304639476
 10
0.2704533866
 20
29.321462329
 10
0.2382657904
 20
29.3347137093
 10
0.2065650772
 20
29.344283184
 10
0.1756154308
 20
29.350091004
 10
0.145674776
 20
29.3520887689
 10
0.1169926288
 20
29.3502598299
 10
0.0898080175
 20
29.3446194287
 10
0.0643474899
 20
29.3352145708
 10
0.0516764954
 20
29.3287578641
  0
LINE
  5
444
100
AcDbEntity
  8
RACCORDO
100
AcDbLine
 62
250
  6
CONTINUOUS
 10
13.4054734509
 20
21.9014152844
 11
13.4057733572
 21
21.9012425372
  0
LINE
  5
445
100
AcDbEntity
  8
ASSI
100
AcDbLine
 62
7
  6
CONTINUOUS
 10
0.1242661319
 20
27.4952091041
 11
1.0857275045
 21
26.9400733575
  0
LINE
  5
446
100
AcDbEntity
  8
ASSI
100
AcDbLine
 62
7
  6
CONTINUOUS
 10
5.3095606527
 20
24.5012850348
 11
6.9642233814
 21
23.545903513
  0
LINE
  5
447
100
AcDbEntity
  8
DRAFT
100
AcDbLine
 62
7
  6
CONTINUOUS
 10
8.4799262414
 20
22.7421584398
 11
7.2565553579
 21
23.4485174555
  0
LINE
  5
448
100
AcDbEntity
  8
DRAFT
100
AcDbLine
 62
7
  6
CONTINUOUS
 10
-0.1680658446
 20
27.7354006854
 11
-1.3914367282
 21
28.4417597012
  0
LINE
  5
449
100
AcDbEntity
  8
ASSI
100
AcDbLine
 62
7
  6
CONTINUOUS
 10
2.2507700321
 20
26.5325179885
 11
4.6062847963
 21
25.1724732852
  0
LINE
  5
44A
100
AcDbEntity
  8
ASSI
100
AcDbLine
 62
7
  6
CONTINUOUS
 10
5.1426298756
 20
25.1485589552
 11
4.9851461442
 21
25.239488088
  0
LINE
  5
44B
100
AcDbEntity
  8
ASSI
100
AcDbLine
 62
7
  6
CONTINUOUS
 10
2.103343369
 20
26.9034048929
 11
1.9458596376
 21
26.9943340257
  0
LINE
  5
44C
100
AcDbEntity
  8
RACCORDO
100
AcDbLine
 62
250
  6
CONTINUOUS
 10
13.1619316346
 20
21.8799724593
 11
0.3028596243
 21
29.304639476
  0
LINE
  5
44D
100
AcDbEntity
  8
RACCORDO
100
AcDbLine
 62
7
  6
CONTINUOUS
 10
13.4057733572
 20
21.9012425372
 11
0.5467013469
 21
29.325909554
  0
LWPOLYLINE
  5
44E
100
AcDbEntity
  8
ASSI
100
AcDbPolyline
 62
250
  6
CONTINUOUS
 90
12
 70
0
 10
-0.9125025134
 20
26.4517923288
 10
-0.9195373469
 20
26.4497994471
 10
-0.926637922
 20
26.4476153365
 10
-0.9338015158
 20
26.4452391926
 10
-0.9409892178
 20
26.4426833158
 10
-0.9482340316
 20
26.4399359509
 10
-0.9556421456
 20
26.4369519375
 10
-0.9632207437
 20
26.4337178733
 10
-0.9709581969
 20
26.4302289393
 10
-0.9789336462
 20
26.4264381666
 10
-0.9871716001
 20
26.4223169214
 10
-0.9956412809
 20
26.4178620213
  0
LWPOLYLINE
  5
44F
100
AcDbEntity
  8
ASSI
100
AcDbPolyline
 62
250
  6
CONTINUOUS
 90
13
 70
0
 10
-0.5270814382
 20
26.2292550305
 10
-0.5342219804
 20
26.2272994082
 10
-0.5414057533
 20
26.2251469019
 10
-0.5486298667
 20
26.22279751
 10
-0.5558519268
 20
26.2202658154
 10
-0.563108136
 20
26.2175395571
 10
-0.5705146883
 20
26.2145693596
 10
-0.5780816096
 20
26.2113412879
 10
-0.5857944871
 20
26.2078508575
 10
-0.5937341713
 20
26.2040469899
 10
-0.6019257758
 20
26.1998992238
 10
-0.6103379855
 20
26.1954052386
 10
-0.6189666043
 20
26.1905494084
  0
LINE
  5
450
100
AcDbEntity
  8
ASSI
100
AcDbLine
 62
250
  6
CONTINUOUS
 10
0.600013224
 20
26.8647567669
 11
-0.9125025134
 21
26.4517923288
  0
LINE
  5
451
100
AcDbEntity
  8
ASSI
100
AcDbLine
 62
7
  6
CONTINUOUS
 10
0.5107325716
 20
26.8788308301
 11
-1.0017831659
 21
26.465866392
  0
LWPOLYLINE
  5
452
100
AcDbEntity
  8
ASSI
100
AcDbPolyline
 62
250
  6
CONTINUOUS
 90
13
 70
0
 10
-0.4224564354
 20
25.9773943741
 10
-0.426766611
 20
25.9762341435
 10
-0.4310973631
 20
25.9749548028
 10
-0.4354486917
 20
25.9735563522
 10
-0.4397983925
 20
25.9720504151
 10
-0.4441686698
 20
25.970425368
 10
-0.4486261366
 20
25.9686463406
 10
-0.4531780376
 20
25.9667169081
 10
-0.4578171281
 20
25.9646334953
 10
-0.4625882877
 20
25.9623505067
 10
-0.4675064764
 20
25.9598527437
 10
-0.4725567342
 20
25.9571554049
 10
-0.4777390612
 20
25.9542584901
  0
LINE
  5
453
100
AcDbEntity
  8
ASSI
100
AcDbLine
 62
250
  6
CONTINUOUS
 10
0.6051734718
 20
26.8661006577
 11
0.600013224
 21
26.8647567669
  0
LINE
  5
454
100
AcDbEntity
  8
ASSI
100
AcDbLine
 62
250
  6
CONTINUOUS
 10
2.2450849078
 20
26.6610568095
 11
-0.4224564354
 21
25.9773943741
  0
LINE
  5
455
100
AcDbEntity
  8
ASSI
100
AcDbLine
 62
250
  6
CONTINUOUS
 10
2.103343369
 20
26.9034048929
 11
-0.5270814382
 21
26.2292550305
  0
LINE
  5
456
100
AcDbEntity
  8
ASSI
100
AcDbLine
 62
250
  6
CONTINUOUS
 10
0.5282131846
 20
26.8819893424
 11
0.5107325716
 21
26.8788308301
  0
LWPOLYLINE
  5
457
100
AcDbEntity
  8
ASSI
100
AcDbPolyline
 62
250
  6
CONTINUOUS
 90
5
 70
0
 10
-1.9342611553
 20
25.9303898568
 10
-1.9715063021
 20
25.9249833703
 10
-2.009530368
 20
25.9217400161
 10
-2.0482996613
 20
25.9205670835
 10
-2.0865996367
 20
25.921467656
  0
LWPOLYLINE
  5
458
100
AcDbEntity
  8
ASSI
100
AcDbPolyline
 62
250
  6
CONTINUOUS
 90
3
 70
0
 10
-6.3344974283
 20
24.536292422
 10
-6.3265332954
 20
24.5372974949
 10
-6.3189516561
 20
24.5380143031
  0
LWPOLYLINE
  5
459
100
AcDbEntity
  8
ASSI
100
AcDbPolyline
 62
7
  6
CONTINUOUS
 90
6
 70
0
 10
0.6060873453
 20
26.8956624364
 10
0.5956657278
 20
26.8946126814
 10
0.5701286717
 20
26.8912875334
 10
0.5450632039
 20
26.8868973789
 10
0.5204581845
 20
26.8813768482
 10
0.5106712568
 20
26.8788140685
  0
LWPOLYLINE
  5
45A
100
AcDbEntity
  8
ASSI
100
AcDbPolyline
 62
250
  6
CONTINUOUS
 90
12
 70
0
 10
0.6610998044
 20
26.8753753503
 10
0.6558460605
 20
26.8748581482
 10
0.6506527147
 20
26.8742833853
 10
0.645519767
 20
26.8736510616
 10
0.6404692455
 20
26.8729664431
 10
0.6354791221
 20
26.8722242639
 10
0.6304833131
 20
26.8714087259
 10
0.6254688151
 20
26.8705214745
 10
0.6204486314
 20
26.8695608645
 10
0.6153956878
 20
26.8685061621
 10
0.6103009597
 20
26.8673504561
 10
0.6051734718
 20
26.8661006577
  0
LINE
  5
45B
100
AcDbEntity
  8
ASSI
100
AcDbLine
 62
250
  6
CONTINUOUS
 10
1.9458596376
 20
26.9943340257
 11
0.6610998044
 21
26.8753753503
  0
LINE
  5
45C
100
AcDbEntity
  8
ASSI
100
AcDbLine
 62
7
  6
CONTINUOUS
 10
1.8760916399
 20
27.0132548722
 11
0.6060577108
 21
26.8956596999
  0
LWPOLYLINE
  5
45D
100
AcDbEntity
  8
ASSI
100
AcDbPolyline
 62
250
  6
CONTINUOUS
 90
7
 70
0
 10
-4.3676682556
 20
24.6427878841
 10
-4.3246023598
 20
24.64650467
 10
-4.2797964376
 20
24.6530190989
 10
-4.2333115345
 20
24.6624468349
 10
-4.1853457687
 20
24.674874277
 10
-4.1358558933
 20
24.6904137431
 10
-4.0845450381
 20
24.7092726331
  0
LWPOLYLINE
  5
45E
100
AcDbEntity
  8
ASSI
100
AcDbPolyline
 62
7
  6
CONTINUOUS
 90
7
 70
0
 10
-6.3824490761
 20
24.5556689415
 10
-6.3989398141
 20
24.5543717883
 10
-6.4357665576
 20
24.5486231763
 10
-6.4739858906
 20
24.538574537
 10
-6.5118211317
 20
24.524569757
 10
-6.5487025093
 20
24.5070054619
 10
-6.5584743547
 20
24.5016946532
  0
LWPOLYLINE
  5
45F
100
AcDbEntity
  8
ASSI
100
AcDbPolyline
 62
250
  6
CONTINUOUS
 90
7
 70
0
 10
-2.1545363665
 20
25.9686137792
 10
-2.1609497005
 20
25.9684862201
 10
-2.1677632488
 20
25.9662203867
 10
-2.1749023612
 20
25.9618411035
 10
-2.18228882
 20
25.9553963506
 10
-2.1898416977
 20
25.9469567378
 10
-2.1974782433
 20
25.936614731
  0
LWPOLYLINE
  5
460
100
AcDbEntity
  8
ASSI
100
AcDbPolyline
 62
250
  6
CONTINUOUS
 90
23
 70
0
 10
-2.2524881303
 20
25.9456826729
 10
-2.2803715263
 20
25.9478977469
 10
-2.3087611055
 20
25.9485596764
 10
-2.3373999421
 20
25.9476752602
 10
-2.3655172587
 20
25.945264895
 10
-2.393093877
 20
25.9412888447
 10
-2.4201489754
 20
25.9357868454
 10
-2.4459693117
 20
25.9288985013
 10
-2.4705302358
 20
25.9205842
 10
-2.4938563977
 20
25.910883554
 10
-2.5153085053
 20
25.9000550054
 10
-2.5348344664
 20
25.8880644588
 10
-2.5524863732
 20
25.8749460097
 10
-2.5677812094
 20
25.8610603872
 10
-2.5806488271
 20
25.8463898226
 10
-2.5911593742
 20
25.8309520847
 10
-2.5990402792
 20
25.8151612086
 10
-2.6042213555
 20
25.7990087568
 10
-2.6067727897
 20
25.7825031668
 10
-2.6066325695
 20
25.7660837865
 10
-2.6037800242
 20
25.7498970654
 10
-2.5982358246
 20
25.733796554
 10
-2.5899999706
 20
25.7177822524
  0
LWPOLYLINE
  5
461
100
AcDbEntity
  8
ASSI
100
AcDbPolyline
 62
250
  6
CONTINUOUS
 90
3
 70
0
 10
0.5641351927
 20
26.8792410326
 10
0.5460419023
 20
26.8821096381
 10
0.5282131846
 20
26.8819893424
  0
LINE
  5
462
100
AcDbEntity
  8
0
100
AcDbLine
 62
250
  6
CONTINUOUS
 10
-2.3246317483
 20
-25.552374255
 11
0.0794215288
 21
-24.3059787083
  0
LINE
  5
463
100
AcDbEntity
  8
0
100
AcDbLine
 62
7
  6
CONTINUOUS
 10
-2.4386723687
 20
-25.7868518479
 11
-0.0306943586
 21
-24.5384215003
  0
LWPOLYLINE
  5
464
100
AcDbEntity
  8
0
100
AcDbPolyline
 62
250
  6
CONTINUOUS
 90
16
 70
0
 10
-2.3246317483
 20
-25.552374255
 10
-2.3638587211
 20
-25.5717466233
 10
-2.4063356896
 20
-25.5886805913
 10
-2.4516099131
 20
-25.602995703
 10
-2.4992043068
 20
-25.6145405532
 10
-2.5486065493
 20
-25.6231903392
 10
-2.599272749
 20
-25.6288514828
 10
-2.6506510274
 20
-25.6314665181
 10
-2.7022049875
 20
-25.6310122792
 10
-2.7534022124
 20
-25.6274951673
 10
-2.8037672502
 20
-25.6209417253
 10
-2.8526918624
 20
-25.6114248646
 10
-2.8994784042
 20
-25.5990992522
 10
-2.9436021701
 20
-25.5841486382
 10
-2.984693768
 20
-25.5667459962
 10
-3.0223624267
 20
-25.5471005163
  0
ARC
  5
465
100
AcDbEntity
  8
0
100
AcDbCircle
 62
7
  6
CONTINUOUS
 10
-2.6688090361
 20
-25.3429632197
 40
0.5
100
AcDbArc
 50
239.9984015654
 51
297.4194204711
  0
ARC
  5
466
100
AcDbEntity
  8
0
100
AcDbCircle
 62
7
  6
CONTINUOUS
 10
-17.5370232045
 20
-16.7582427013
 40
0.5
100
AcDbArc
 50
179.9840060021
 51
239.998401565
  0
ARC
  5
467
100
AcDbEntity
  8
0
100
AcDbCircle
 62
7
  6
CONTINUOUS
 10
-17.5370232045
 20
25.3935295809
 40
0.5
100
AcDbArc
 50
122.5992954237
 51
180.0013071233
  0
ARC
  5
468
100
AcDbEntity
  8
RACCORDO
100
AcDbCircle
 62
7
  6
CONTINUOUS
 10
14.0967113535
 20
-8.6933596177
 40
0.5
100
AcDbArc
 50
310.803876622
 51
0.0270733582
  0
ARC
  5
469
100
AcDbEntity
  8
RACCORDO
100
AcDbCircle
 62
7
  6
CONTINUOUS
 10
14.0967113535
 20
19.666544042
 40
0.5
100
AcDbArc
 50
359.9751601013
 51
26.358868871
  0
ARC
  5
46A
100
AcDbEntity
  8
RACCORDO
100
AcDbCircle
 62
7
  6
CONTINUOUS
 10
13.1557612771
 20
21.46823681
 40
0.5
100
AcDbArc
 50
28.7927609465
 51
60.0380617329
  0
ARC
  5
46B
100
AcDbEntity
  8
RACCORDO
100
AcDbCircle
 62
7
  6
CONTINUOUS
 10
0.2966892668
 20
28.8929038268
 40
0.5
100
AcDbArc
 50
59.9840142948
 51
119.3422604359
  0
ARC
  5
46C
100
AcDbEntity
  8
ASSI
100
AcDbCircle
 62
7
  6
CONTINUOUS
 10
0.4353417529
 20
24.2460759197
 40
0.25
100
AcDbArc
 50
121.733268332
 51
141.921904304
  0
ARC
  5
46D
100
AcDbEntity
  8
ASSI
100
AcDbCircle
 62
7
  6
CONTINUOUS
 10
-6.6022584784
 20
24.2483038862
 40
0.2
100
AcDbArc
 50
119.0851069668
 51
154.7491247991
  0
ARC
  5
46E
100
AcDbEntity
  8
ASSI
100
AcDbCircle
 62
7
  6
CONTINUOUS
 10
-10.7877846884
 20
25.1948799662
 40
0.2
100
AcDbArc
 50
59.9984015652
 51
118.2824903446
  0
ARC
  5
46F
100
AcDbEntity
  8
ASSI
100
AcDbCircle
 62
7
  6
CONTINUOUS
 10
-0.0842380405
 20
18.645475289
 40
0.2
100
AcDbArc
 50
315.7312260649
 51
0.024488456
  0
ARC
  5
470
100
AcDbEntity
  8
ASSI
100
AcDbCircle
 62
7
  6
CONTINUOUS
 10
-0.0842380405
 20
19.0147862786
 40
0.2
100
AcDbArc
 50
359.9837886302
 51
59.9984015652
  0
ARC
  5
471
100
AcDbEntity
  8
ASSI
100
AcDbCircle
 62
7
  6
CONTINUOUS
 10
-9.2605808227
 20
24.3130915945
 40
0.2
100
AcDbArc
 50
359.9895357921
 51
59.9984015652
  0
ARC
  5
472
100
AcDbEntity
  8
ASSI
100
AcDbCircle
 62
7
  6
CONTINUOUS
 10
-9.2605808227
 20
23.9437806049
 40
0.2
100
AcDbArc
 50
315.7300112917
 51
0.0272094449
  0
ARC
  5
473
100
AcDbEntity
  8
ASSI
100
AcDbCircle
 62
7
  6
CONTINUOUS
 10
-1.6114419062
 20
19.8965746503
 40
0.2
100
AcDbArc
 50
59.9984015652
 51
118.2824903446
  0
ELLIPSE
  5
474
100
AcDbEntity
  8
0
100
AcDbEllipse
 62
7
  6
CONTINUOUS
 10
-13.9014954671
 20
-2.1675844778
 30
0.0
 11
-0.0500024249
 21
0.0866011403
 31
0.0
 40
0.5780352736
 41
0.7859587116
 42
2.3555370632
  0
ELLIPSE
  5
475
100
AcDbEntity
  8
0
100
AcDbEllipse
 62
7
  6
CONTINUOUS
 10
-0.1289137376
 20
-18.4326157447
 30
0.0
 11
0.3037200246
 21
0.1710449014
 31
0.0
 40
0.0105151745
 41
0.6673087948
 42
0.7742146559
  0
ELLIPSE
  5
476
100
AcDbEntity
  8
0
100
AcDbEllipse
 62
7
  6
CONTINUOUS
 10
-0.2054487757
 20
-18.3884253729
 30
0.0
 11
0.4568380168
 21
0.0702030008
 31
0.0
 40
0.2209951355
 41
0.2918164413
 42
0.3503969549
  0
ELLIPSE
  5
477
100
AcDbEntity
  8
DRAFT
100
AcDbEllipse
 62
7
  6
CONTINUOUS
 10
0.4630983148
 20
12.956273963
 30
0.0
 11
0.1461416733
 21
0.2620230697
 31
0.0
 40
0.5671693725
 41
-2.347120172
 42
-1.6021379547
  0
ELLIPSE
  5
478
100
AcDbEntity
  8
0
100
AcDbEllipse
 62
7
  6
CONTINUOUS
 10
-7.0114435547
 20
-6.1458140994
 30
0.0
 11
-0.050063346
 21
0.0867066929
 31
0.0
 40
0.5766289216
 41
2.3567552738
 42
3.9263336254
  0
ELLIPSE
  5
479
100
AcDbEntity
  8
0
100
AcDbEllipse
 62
7
  6
CONTINUOUS
 10
-13.9014954671
 20
5.7881058673
 30
0.0
 11
-0.050063346
 21
0.0867066929
 31
0.0
 40
0.5766289216
 41
-0.7848373798
 42
0.7847409718
  0
ELLIPSE
  5
47A
100
AcDbEntity
  8
DRAFT
100
AcDbEllipse
 62
7
  6
CONTINUOUS
 10
0.4630983148
 20
-18.7744360841
 30
0.0
 11
0.1461416733
 21
0.2620230697
 31
0.0
 40
0.5671693725
 41
0.0145836793
 42
0.7595658966
  0
ELLIPSE
  5
47B
100
AcDbEntity
  8
0
100
AcDbEllipse
 62
7
  6
CONTINUOUS
 10
-7.0114435547
 20
1.8098762457
 30
0.0
 11
-0.0500024249
 21
0.0866011403
 31
0.0
 40
0.5780352736
 41
-2.355633942
 42
-0.7860555904
  0
ELLIPSE
  5
47C
100
AcDbEntity
  8
0
100
AcDbEllipse
 62
7
  6
CONTINUOUS
 10
-0.2742530572
 20
-24.1014916029
 30
0.0
 11
-0.2501834304
 21
0.4333025529
 31
0.0
 40
0.5769361983
 41
-3.1677535987
 42
-2.3565853618
  0
ELLIPSE
  5
47D
100
AcDbEntity
  8
0
100
AcDbEllipse
 62
7
  6
CONTINUOUS
 10
-0.2742530572
 20
18.191388855
 30
0.0
 11
-0.2500121049
 21
0.4330057129
 31
0.0
 40
0.5777274115
 41
-2.3559002616
 42
-0.7857891675
  0
ELLIPSE
  5
47E
100
AcDbEntity
  8
0
100
AcDbEllipse
 62
7
  6
CONTINUOUS
 10
-15.2646744275
 20
26.8466702801
 30
0.0
 11
-0.2501834304
 21
0.4333025529
 31
0.0
 40
0.5769361983
 41
-0.7851038024
 42
0.0261609458
  0
ELLIPSE
  5
47F
100
AcDbEntity
  8
RACCORDO
100
AcDbEllipse
 62
7
  6
CONTINUOUS
 10
-7.0114435547
 20
1.8098762457
 30
0.0
 11
-0.0500024249
 21
0.0866011403
 31
0.0
 40
0.5780352736
 41
-2.355633942
 42
-0.7860555904
  0
ELLIPSE
  5
480
100
AcDbEntity
  8
RACCORDO
100
AcDbEllipse
 62
7
  6
CONTINUOUS
 10
-7.0114435547
 20
-6.1458140994
 30
0.0
 11
-0.050063346
 21
0.0867066929
 31
0.0
 40
0.5766289216
 41
-3.9264300334
 42
-2.3568516818
  0
ELLIPSE
  5
481
100
AcDbEntity
  8
RACCORDO
100
AcDbEllipse
 62
7
  6
CONTINUOUS
 10
-13.9014954671
 20
5.7881058673
 30
0.0
 11
-0.050063346
 21
0.0867066929
 31
0.0
 40
0.5766289216
 41
5.4983479274
 42
7.067926279
  0
ELLIPSE
  5
482
100
AcDbEntity
  8
RACCORDO
100
AcDbEllipse
 62
7
  6
CONTINUOUS
 10
-13.9014954671
 20
-2.1675844778
 30
0.0
 11
-0.0500024249
 21
0.0866011403
 31
0.0
 40
0.5780352736
 41
0.7859587116
 42
2.3555370632
  0
ELLIPSE
  5
483
100
AcDbEntity
  8
ASSI
100
AcDbEllipse
 62
7
  6
CONTINUOUS
 10
1.1754639677
 20
24.7037785994
 30
0.0
 11
-0.1250441155
 21
0.2165688207
 31
0.0
 40
0.5771558487
 41
-0.7852941622
 42
0.0174472731
  0
ELLIPSE
  5
484
100
AcDbEntity
  8
DRAFT
100
AcDbEllipse
 62
7
  6
CONTINUOUS
 10
-4.916284779
 20
25.620419038
 30
0.0
 11
0.3999963222
 21
-0.0029970465
 31
0.0
 40
0.5723275643
 41
-2.3519062463
 42
-0.8334697971
  0
ELLIPSE
  5
485
100
AcDbEntity
  8
DRAFT
100
AcDbEllipse
 62
7
  6
CONTINUOUS
 10
3.519492918
 20
20.7497067209
 30
0.0
 11
0.3999963222
 21
-0.0029970465
 31
0.0
 40
0.5723275643
 41
2.4128426116
 42
3.9312790609
  0
ELLIPSE
  5
486
100
AcDbEntity
  8
DRAFT
100
AcDbEllipse
 62
7
  6
CONTINUOUS
 10
-841.3146621972
 20
-489.0910597073
 30
0.0
 11
1587.846741927
 21
916.8006670355
 31
0.0
 40
0.0182883491
 41
1.0066889963
 42
1.0080254307
  0
ELLIPSE
  5
487
100
AcDbEntity
  8
DRAFT
100
AcDbEllipse
 62
7
  6
CONTINUOUS
 10
-837.8668329686
 20
-491.0817930925
 30
0.0
 11
1549.2190481452
 21
939.2059823709
 31
0.0
 40
0.0002292639
 41
-0.9979176733
 42
-0.9960060466
  0
ELLIPSE
  5
488
100
AcDbEntity
  8
ASSI
100
AcDbEllipse
 62
7
  6
CONTINUOUS
 10
6.9641695294
 20
23.3417859445
 30
0.0
 11
-0.1250060456
 21
0.2165028604
 31
0.0
 40
0.5775075436
 41
-0.8696513018
 42
-0.7855988075
  0
ELLIPSE
  5
489
100
AcDbEntity
  8
ASSI
100
AcDbEllipse
 62
7
  6
CONTINUOUS
 10
5.1330471369
 20
24.9850374625
 30
0.0
 11
-0.0997443216
 21
0.1733547677
 31
0.0
 40
0.6165007174
 41
-2.2349887316
 42
-0.8165063841
  0
ELLIPSE
  5
48A
100
AcDbEntity
  8
ASSI
100
AcDbEllipse
 62
7
  6
CONTINUOUS
 10
2.1038573646
 20
26.7340536724
 30
0.0
 11
-0.0967169587
 21
0.179612414
 31
0.0
 40
0.5745579549
 41
-2.2695797439
 42
-0.7493576255
  0
ELLIPSE
  5
48B
100
AcDbEntity
  8
ASSI
100
AcDbEllipse
 62
7
  6
CONTINUOUS
 10
0.1243199838
 20
27.2910293486
 30
0.0
 11
-0.1250441155
 21
0.2165688207
 31
0.0
 40
0.5771558487
 41
-0.7852941622
 42
-0.7012416679
  0
ELLIPSE
  5
48C
100
AcDbEntity
  8
RACCORDO
100
AcDbEllipse
 62
7
  6
CONTINUOUS
 10
-111.0720608585
 20
-49.0874334446
 30
0.0
 11
402.8595621856
 21
232.6078586167
 31
0.0
 40
0.0628494143
 41
-1.3277255145
 42
-1.3258935879
  0
ELLIPSE
  5
48D
100
AcDbEntity
  8
ASSI
100
AcDbEllipse
 62
7
  6
CONTINUOUS
 10
1.9554423763
 20
26.8197466266
 30
0.0
 11
-0.1065746657
 21
0.1850801844
 31
0.0
 40
0.5406488238
 41
-0.7513003416
 42
-0.2431306586
  0
ELLIPSE
  5
48E
100
AcDbEntity
  8
ASSI
100
AcDbEllipse
 62
7
  6
CONTINUOUS
 10
4.9846321486
 20
25.0707304167
 30
0.0
 11
-0.0962895183
 21
0.1790040747
 31
0.0
 40
0.5787392407
 41
-0.752491962
 42
-0.1289872409
  0
ELLIPSE
  5
48F
100
AcDbEntity
  8
ASSI
100
AcDbEllipse
 62
7
  6
CONTINUOUS
 10
-1.3733858282
 20
24.2764418611
 30
0.0
 11
0.3652263551
 21
0.1644105368
 31
0.0
 40
0.3407407308
 41
1.8589059539
 42
3.382251992
  0
ELLIPSE
  5
490
100
AcDbEntity
  8
ASSI
100
AcDbEllipse
 62
7
  6
CONTINUOUS
 10
0.1355992561
 20
20.4427064532
 30
0.0
 11
0.999867518
 21
-0.0292282715
 31
0.0
 40
0.5568983954
 41
5.6013315027
 42
7.0848613669
  0
ELLIPSE
  5
491
100
AcDbEntity
  8
ASSI
100
AcDbEllipse
 62
7
  6
CONTINUOUS
 10
4.1435455999
 20
23.9119463303
 30
0.0
 11
0.5013109713
 21
-0.0090323087
 31
0.0
 40
0.5663187271
 41
-0.7565983455
 42
-0.4971873728
  0
ELLIPSE
  5
492
100
AcDbEntity
  8
ASSI
100
AcDbEllipse
 62
7
  6
CONTINUOUS
 10
0.1709701636
 20
19.9595225509
 30
0.0
 11
-0.100004872
 21
0.1732022678
 31
0.0
 40
0.5789151826
 41
-2.3548735497
 42
-0.7868162787
  0
ELLIPSE
  5
493
100
AcDbEntity
  8
RACCORDO
100
AcDbEllipse
 62
7
  6
CONTINUOUS
 10
-111.0720608585
 20
-61.0120761267
 30
0.0
 11
403.1242860915
 21
268.5419470062
 31
0.0
 40
0.0022336512
 41
-1.2929406363
 42
-1.2911087097
  0
ELLIPSE
  5
494
100
AcDbEntity
  8
0
100
AcDbEllipse
 62
7
  6
CONTINUOUS
 10
-988.5093153702
 20
-534.4495764116
 30
0.0
 11
1091.3872670356
 21
588.1465940607
 31
0.0
 40
0.0261556157
 41
-0.4518153808
 42
-0.4513581923
  0
ENDSEC
  0
SECTION
  2
OBJECTS
  0
DICTIONARY
  5
C
100
AcDbDictionary
280
0
281
1
  3
ACAD_GROUP
350
D
  3
ACAD_MLINESTYLE
350
17
  3
ACAD_LAYOUT
350
1A
  3
ACAD_PLOTSETTINGS
350
19
  3
ACAD_PLOTSTYLENAME
350
E
  0
DICTIONARY
  5
D
102
{ACAD_REACTORS
330
C
102
}
100
AcDbDictionary
280
0
281
1
  0
ACDBDICTIONARYWDFLT
  5
E
102
{ACAD_REACTORS
330
C
102
}
100
AcDbDictionary
281
1
  3
Normal
350
F
100
AcDbDictionaryWithDefault
340
F
  0
DICTIONARY
  5
17
102
{ACAD_REACTORS
330
C
102
}
100
AcDbDictionary
280
0
281
1
  3
Standard
350
18
  0
DICTIONARY
  5
19
102
{ACAD_REACTORS
330
C
102
}
100
AcDbDictionary
281
1
  0
DICTIONARY
  5
1A
102
{ACAD_REACTORS
330
C
102
}
100
AcDbDictionary
281
1
  3
Model
350
495
  3
Layout1
350
496
  0
ACDBPLACEHOLDER
  5
F
102
{ACAD_REACTORS
330
E
102
}
  0
MLINESTYLE
  5
18
102
{ACAD_REACTORS
330
17
102
}
100
AcDbMlineStyle
  2
STANDARD
 70
0
  3

 62
256
 51
90.0
 52
90.0
 71
2
 49
0.5
 62
256
  6
BYLAYER
 49
-0.5
 62
256
  6
BYLAYER
  0
LAYOUT
  5
495
102
{ACAD_REACTORS
330
1A
102
}
100
AcDbPlotSettings
  1

  2
none_device
  4
ISO_A4_(297.00_x_210.00_MM)
  6

 40
0.0
 41
0.0
 42
0.0
 43
0.0
 44
297.0
 45
210.0
 46
0.0
 47
0.0
 48
0.0
 49
0.0
140
0.0
141
0.0
142
1.0
143
1.0
 70
1024
 72
1
 73
0
 74
0
  7

 75
0
147
1.0
148
0.0
149
0.0
100
AcDbLayout
  1
Model
 70
0
 71
0
 10
0.0
 20
0.0
 11
297.0
 21
210.0
 12
0.0
 22
0.0
 32
0.0
 14
0.0
 24
0.0
 34
0.0
 15
0.0
 25
0.0
 35
0.0
146
0.0
 13
0.0
 23
0.0
 33
0.0
 16
1.0
 26
0.0
 36
0.0
 17
0.0
 27
1.0
 37
0.0
 76
0
330
21D
345
0
346
0
  0
LAYOUT
  5
496
102
{ACAD_REACTORS
330
1A
102
}
100
AcDbPlotSettings
  1

  2
none_device
  4
ISO_A4_(297.00_x_210.00_MM)
  6

 40
0.0
 41
0.0
 42
0.0
 43
0.0
 44
297.0
 45
210.0
 46
0.0
 47
0.0
 48
0.0
 49
0.0
140
0.0
141
0.0
142
1.0
143
1.0
 70
0
 72
1
 73
0
 74
0
  7

 75
0
147
1.0
148
0.0
149
0.0
100
AcDbLayout
  1
Layout1
 70
0
 71
1
 10
0.0
 20
0.0
 11
297.0
 21
210.0
 12
0.0
 22
0.0
 32
0.0
 14
0.0
 24
0.0
 34
0.0
 15
0.0
 25
0.0
 35
0.0
146
0.0
 13
0.0
 23
0.0
 33
0.0
 16
1.0
 26
0.0
 36
0.0
 17
0.0
 27
1.0
 37
0.0
 76
0
330
21E
345
0
346
0
  0
ENDSEC
  0
EOF
