  0
SECTION
  2
HEADER
  9
$ACADVER
  1
AC1024
  9
$DWGCODEPAGE
  3
ANSI_1252
  9
$EXTMAX
 10
297.0
 20
210.0
 30
0.0
  9
$EXTMIN
 10
0.0
 20
0.0
 30
0.0
  9
$LIMMIN
 10
0.0
 20
0.0
  9
$LIMMAX
 10
297.0
 20
210.0
  9
$VIEWCTR
 10
148.5
 20
105.0
  9
$VIEWSIZE
 40
210.0
  9
$CLAYER
  8
0
  9
$LTSCALE
 40
16.335
  9
$CELTYPE
  6
BYLAYER
  9
$DIMSCALE
 40
1.0
  9
$DIMASZ
 40
3.0
  9
$DIMEXO
 40
0.5
  9
$DIMDLI
 40
11.286
  9
$DIMEXE
 40
1.5
  9
$DIMCEN
 40
2.673
  9
$DIMLFAC
 40
1.0
  9
$DIMBLK
  1
_FILLED
  9
$DIMALT
 70
0
  9
$DIMALTF
 40
0.0393700787
  9
$DIMTXT
 40
3.0
  9
$DIMTOL
 70
1
  9
$DIMLIM
 70
0
  9
$DIMTFAC
 40
1.0
  9
$DIMTP
 40
0.01
  9
$DIMTM
 40
0.01
  9
$DIMGAP
 40
0.625
  9
$DIMDSEP
 70
44
  9
$AUNITS
 70
0
  9
$PDMODE
 70
3
  9
$PDSIZE
 40
3.0
  9
$HANDSEED
  5
4D1
  9
$TILEMODE
 70
1
  9
$MEASUREMENT
 70
1
  9
$INSUNITS
 70
4
  0
ENDSEC
  0
SECTION
  2
CLASSES
  0
CLASS
  1
ACDBDICTIONARYWDFLT
  2
AcDbDictionaryWithDefault
  3
AutoCAD 2000
 90
0
 91
1
280
0
281
0
  0
CLASS
  1
ACDBPLACEHOLDER
  2
AcDbPlaceHolder
  3
AutoCAD 2000
 90
0
 91
1
280
0
281
0
  0
CLASS
  1
LAYOUT
  2
AcDbLayout
  3
AutoCAD 2000
 90
0
 91
0
280
0
281
0
  0
ENDSEC
  0
SECTION
  2
TABLES
  0
TABLE
  2
VPORT
  5
8
100
AcDbSymbolTable
 70
2
  0
VPORT
  5
1F4
100
AcDbSymbolTableRecord
100
AcDbViewportTableRecord
  2
*ACTIVE
 70
0
 10
0.0
 20
0.0
 11
1.0
 21
1.0
 12
148.5
 22
105.0
 13
0.0
 23
0.0
 14
1.0
 24
1.0
 15
0.0
 25
0.0
 16
0.0
 26
0.0
 36
1.0
 17
0.0
 27
0.0
 37
0.0
 40
210.0
 41
1.4142857143
 42
50.0
 43
0.0
 44
0.0
 50
0.0
 51
0.0
 71
0
 72
100
 73
1
 74
1
 75
0
 76
0
 77
0
 78
0
  0
ENDTAB
  0
TABLE
  2
LTYPE
  5
5
100
AcDbSymbolTable
 70
6
  0
LTYPE
  5
14
100
AcDbSymbolTableRecord
100
AcDbLinetypeTableRecord
  2
BYBLOCK
 70
0
  3

 72
65
 73
0
 40
0.0
  0
LTYPE
  5
15
100
AcDbSymbolTableRecord
100
AcDbLinetypeTableRecord
  2
BYLAYER
 70
0
  3

 72
65
 73
0
 40
0.0
  0
LTYPE
  5
16
100
AcDbSymbolTableRecord
100
AcDbLinetypeTableRecord
  2
CONTINUOUS
 70
64
  3
Solid line
 72
65
 73
0
 40
0.0
  0
LTYPE
  5
1F5
100
AcDbSymbolTableRecord
100
AcDbLinetypeTableRecord
  2
CENTER
 70
64
  3
____ _ ____ _ ____ _ ____ _ ____ _ ____ _ ____
 72
65
 73
4
 40
0.6
 49
0.375
 74
0
 49
-0.075
 74
0
 49
0.075
 74
0
 49
-0.075
 74
0
  0
LTYPE
  5
1F6
100
AcDbSymbolTableRecord
100
AcDbLinetypeTableRecord
  2
HIDDEN
 70
64
  3
- - - - - - - - - - - - - - - - - - - -
 72
65
 73
2
 40
0.2
 49
0.1
 74
0
 49
-0.1
 74
0
  0
LTYPE
  5
1F7
100
AcDbSymbolTableRecord
100
AcDbLinetypeTableRecord
  2
PHANTOM
 70
64
  3
_____ _ _ _____ _ _ _____ _ _ _____
 72
65
 73
6
 40
0.8
 49
0.45
 74
0
 49
-0.05
 74
0
 49
0.1
 74
0
 49
-0.05
 74
0
 49
0.1
 74
0
 49
-0.05
 74
0
  0
LTYPE
  5
1F8
100
AcDbSymbolTableRecord
100
AcDbLinetypeTableRecord
  2
DOT
 70
64
  3
. . . . . . . . . . . . . . . . . . . .
 72
65
 73
2
 40
0.2
 49
0.1
 74
0
 49
-0.1
 74
0
  0
LTYPE
  5
1F9
100
AcDbSymbolTableRecord
100
AcDbLinetypeTableRecord
  2
DASHED
 70
64
  3
- - - - - - - - - - - - - - - - - - - -
 72
65
 73
2
 40
0.2
 49
0.1
 74
0
 49
-0.1
 74
0
  0
ENDTAB
  0
TABLE
  2
LAYER
  5
2
100
AcDbSymbolTable
 70
36
  0
LAYER
  5
10
100
AcDbSymbolTableRecord
100
AcDbLayerTableRecord
  2
0
 70
0
 62
7
  6
CONTINUOUS
370
-3
390
F
  0
LAYER
  5
1FA
100
AcDbSymbolTableRecord
100
AcDbLayerTableRecord
  2
DEFAULT_1
 70
0
 62
7
  6
CENTER
370
-3
390
F
  0
LAYER
  5
1FB
100
AcDbSymbolTableRecord
100
AcDbLayerTableRecord
  2
DEFAULT_2
 70
0
 62
7
  6
HIDDEN
370
-3
390
F
  0
LAYER
  5
1FC
100
AcDbSymbolTableRecord
100
AcDbLayerTableRecord
  2
DEFAULT_3
 70
0
 62
7
  6
PHANTOM
370
-3
390
F
  0
LAYER
  5
1FD
100
AcDbSymbolTableRecord
100
AcDbLayerTableRecord
  2
ASSI
 70
0
 62
7
  6
CONTINUOUS
370
-3
390
F
  0
LAYER
  5
1FE
100
AcDbSymbolTableRecord
100
AcDbLayerTableRecord
  2
COORDINATE
 70
0
 62
7
  6
CONTINUOUS
370
-3
390
F
  0
LAYER
  5
1FF
100
AcDbSymbolTableRecord
100
AcDbLayerTableRecord
  2
COORD_ORIGINE
 70
0
 62
7
  6
CONTINUOUS
370
-3
390
F
  0
LAYER
  5
200
100
AcDbSymbolTableRecord
100
AcDbLayerTableRecord
  2
COPY_PUBLISH
 70
0
 62
7
  6
CONTINUOUS
370
-3
390
F
  0
LAYER
  5
201
100
AcDbSymbolTableRecord
100
AcDbLayerTableRecord
  2
COSMETICHE
 70
0
 62
7
  6
CONTINUOUS
370
-3
390
F
  0
LAYER
  5
202
100
AcDbSymbolTableRecord
100
AcDbLayerTableRecord
  2
COSMETICI
 70
0
 62
7
  6
CONTINUOUS
370
-3
390
F
  0
LAYER
  5
203
100
AcDbSymbolTableRecord
100
AcDbLayerTableRecord
  2
CURVE
 70
0
 62
7
  6
CONTINUOUS
370
-3
390
F
  0
LAYER
  5
204
100
AcDbSymbolTableRecord
100
AcDbLayerTableRecord
  2
DRAFT
 70
0
 62
7
  6
CONTINUOUS
370
-3
390
F
  0
LAYER
  5
205
100
AcDbSymbolTableRecord
100
AcDbLayerTableRecord
  2
IMPORT_IGES
 70
0
 62
7
  6
CONTINUOUS
370
-3
390
F
  0
LAYER
  5
206
100
AcDbSymbolTableRecord
100
AcDbLayerTableRecord
  2
INTF_1
 70
0
 62
7
  6
CONTINUOUS
370
-3
390
F
  0
LAYER
  5
207
100
AcDbSymbolTableRecord
100
AcDbLayerTableRecord
  2
INTF_10
 70
0
 62
7
  6
CONTINUOUS
370
-3
390
F
  0
LAYER
  5
208
100
AcDbSymbolTableRecord
100
AcDbLayerTableRecord
  2
INTF_11
 70
0
 62
7
  6
CONTINUOUS
370
-3
390
F
  0
LAYER
  5
209
100
AcDbSymbolTableRecord
100
AcDbLayerTableRecord
  2
INTF_12
 70
0
 62
7
  6
CONTINUOUS
370
-3
390
F
  0
LAYER
  5
20A
100
AcDbSymbolTableRecord
100
AcDbLayerTableRecord
  2
INTF_13
 70
0
 62
7
  6
CONTINUOUS
370
-3
390
F
  0
LAYER
  5
20B
100
AcDbSymbolTableRecord
100
AcDbLayerTableRecord
  2
INTF_14
 70
0
 62
7
  6
CONTINUOUS
370
-3
390
F
  0
LAYER
  5
20C
100
AcDbSymbolTableRecord
100
AcDbLayerTableRecord
  2
INTF_2
 70
0
 62
7
  6
CONTINUOUS
370
-3
390
F
  0
LAYER
  5
20D
100
AcDbSymbolTableRecord
100
AcDbLayerTableRecord
  2
INTF_8
 70
0
 62
7
  6
CONTINUOUS
370
-3
390
F
  0
LAYER
  5
20E
100
AcDbSymbolTableRecord
100
AcDbLayerTableRecord
  2
INTF_9
 70
0
 62
7
  6
CONTINUOUS
370
-3
390
F
  0
LAYER
  5
20F
100
AcDbSymbolTableRecord
100
AcDbLayerTableRecord
  2
NOTE
 70
0
 62
7
  6
CONTINUOUS
370
-3
390
F
  0
LAYER
  5
210
100
AcDbSymbolTableRecord
100
AcDbLayerTableRecord
  2
PIANI
 70
0
 62
7
  6
CONTINUOUS
370
-3
390
F
  0
LAYER
  5
211
100
AcDbSymbolTableRecord
100
AcDbLayerTableRecord
  2
PIANI_ORIGINE
 70
0
 62
7
  6
CONTINUOUS
370
-3
390
F
  0
LAYER
  5
212
100
AcDbSymbolTableRecord
100
AcDbLayerTableRecord
  2
PUNTI
 70
0
 62
7
  6
CONTINUOUS
370
-3
390
F
  0
LAYER
  5
213
100
AcDbSymbolTableRecord
100
AcDbLayerTableRecord
  2
RACCORDO
 70
0
 62
7
  6
CONTINUOUS
370
-3
390
F
  0
LAYER
  5
214
100
AcDbSymbolTableRecord
100
AcDbLayerTableRecord
  2
RGB__255__255__255__
 70
0
 62
7
  6
CONTINUOUS
370
-3
390
F
  0
LAYER
  5
215
100
AcDbSymbolTableRecord
100
AcDbLayerTableRecord
  2
RGB____0____0____0__
 70
0
 62
7
  6
CONTINUOUS
370
-3
390
F
  0
LAYER
  5
216
100
AcDbSymbolTableRecord
100
AcDbLayerTableRecord
  2
SIMBOLI
 70
0
 62
7
  6
CONTINUOUS
370
-3
390
F
  0
LAYER
  5
217
100
AcDbSymbolTableRecord
100
AcDbLayerTableRecord
  2
SMUSSO
 70
0
 62
7
  6
CONTINUOUS
370
-3
390
F
  0
LAYER
  5
218
100
AcDbSymbolTableRecord
100
AcDbLayerTableRecord
  2
SNAPLINE
 70
0
 62
7
  6
CONTINUOUS
370
-3
390
F
  0
LAYER
  5
219
100
AcDbSymbolTableRecord
100
AcDbLayerTableRecord
  2
SUPERFICI
 70
0
 62
7
  6
CONTINUOUS
370
-3
390
F
  0
LAYER
  5
21A
100
AcDbSymbolTableRecord
100
AcDbLayerTableRecord
  2
TRASH
 70
0
 62
7
  6
CONTINUOUS
370
-3
390
F
  0
LAYER
  5
21B
100
AcDbSymbolTableRecord
100
AcDbLayerTableRecord
  2
XSEC_DATUMS
 70
0
 62
7
  6
CONTINUOUS
370
-3
390
F
  0
ENDTAB
  0
TABLE
  2
STYLE
  5
3
100
AcDbSymbolTable
 70
1
  0
STYLE
  5
11
100
AcDbSymbolTableRecord
100
AcDbTextStyleTableRecord
  2
STANDARD
 70
0
 40
0.0
 41
0.8
 50
0.0
 71
0
 42
0.2
  3
txt
  4

  0
STYLE
  5
21C
100
AcDbSymbolTableRecord
100
AcDbTextStyleTableRecord
  2
TEXTSTYLE_1
 70
0
 40
0.0
 41
0.8
 50
0.0
 71
0
 42
0.2
  3
gdt
  4

  0
ENDTAB
  0
TABLE
  2
VIEW
  5
6
100
AcDbSymbolTable
 70
0
  0
ENDTAB
  0
TABLE
  2
UCS
  5
7
100
AcDbSymbolTable
 70
0
  0
ENDTAB
  0
TABLE
  2
APPID
  5
9
100
AcDbSymbolTable
 70
1
  0
APPID
  5
21D
100
AcDbSymbolTableRecord
100
AcDbRegAppTableRecord
  2
ACAD
 70
0
  0
ENDTAB
  0
TABLE
  2
BLOCK_RECORD
  5
1
100
AcDbSymbolTable
 70
0
  0
BLOCK_RECORD
  5
21E
100
AcDbSymbolTableRecord
100
AcDbBlockTableRecord
  2
*Model_Space
  0
BLOCK_RECORD
  5
21F
100
AcDbSymbolTableRecord
100
AcDbBlockTableRecord
  2
*Paper_Space
  0
BLOCK_RECORD
  5
220
100
AcDbSymbolTableRecord
100
AcDbBlockTableRecord
  2
_FILLED
  0
ENDTAB
  0
TABLE
  2
DIMSTYLE
  5
A
100
AcDbSymbolTable
 70
1
100
AcDbDimStyleTable
 71
0
  0
DIMSTYLE
105
221
100
AcDbSymbolTableRecord
100
AcDbDimStyleTableRecord
  2
STANDARD
 70
0
  3

  4

 40
1.0
 41
3.0
 42
0.5
 43
0.38
 44
1.5
 45
0.0
 46
0.0
 47
0.01
 48
0.01
140
3.0
141
0.09
142
0.0
143
25.4
144
1.0
145
0.0
146
1.0
147
0.625
 71
1
 72
0
 73
0
 74
0
 75
0
 76
0
 77
1
 78
8
 79
2
170
0
171
1
172
0
173
0
174
0
175
0
176
0
177
0
178
0
270
2
179
2
271
2
272
2
273
2
274
2
275
0
280
0
281
0
282
0
283
1
284
8
285
0
286
0
287
3
288
0
340
11
278
44
341
220
342
220
343
220
344
220
  0
ENDTAB
  0
ENDSEC
  0
SECTION
  2
BLOCKS
  0
BLOCK
  5
20
100
AcDbEntity
  8
0
100
AcDbBlockBegin
  2
*Model_Space
 70
0
 10
0.0
 20
0.0
 30
0.0
  3
*Model_Space
  1

  0
ENDBLK
  5
21
100
AcDbEntity
  8
0
100
AcDbBlockEnd
  0
BLOCK
  5
1C
100
AcDbEntity
  8
0
100
AcDbBlockBegin
  2
*Paper_Space
 70
0
 10
0.0
 20
0.0
 30
0.0
  3
*Paper_Space
  1

  0
ENDBLK
  5
1D
100
AcDbEntity
  8
0
100
AcDbBlockEnd
  0
BLOCK
  5
222
100
AcDbEntity
  8
0
100
AcDbBlockBegin
  2
_FILLED
 70
64
 10
0.0
 20
0.0
  3
_FILLED
  1

  0
SOLID
  5
223
100
AcDbEntity
  8
0
  6
BYBLOCK
 62
0
100
AcDbTrace
 10
0.0
 20
0.0
 11
-1.0
 21
0.3166666667
 12
-1.0
 22
-0.3166666667
 13
-1.0
 23
-0.3166666667
  0
ENDBLK
  5
224
100
AcDbEntity
  8
0
  6
BYBLOCK
 62
0
100
AcDbBlockEnd
  0
ENDSEC
  0
SECTION
  2
ENTITIES
  0
LINE
  5
225
100
AcDbEntity
  8
0
100
AcDbLine
 62
7
  6
CONTINUOUS
 10
-14.202764817
 20
-17.821023478
 11
0.6654493514
 21
-26.4057439963
  0
LINE
  5
226
100
AcDbEntity
  8
0
100
AcDbLine
 62
250
  6
CONTINUOUS
 10
-14.3063061275
 20
-17.5921550474
 11
0.5619080408
 21
-26.1768755658
  0
LWPOLYLINE
  5
227
100
AcDbEntity
  8
0
100
AcDbPolyline
 62
250
  6
CONTINUOUS
 90
9
 70
0
 10
-14.202764817
 20
-17.821023478
 10
-14.2183647193
 20
-17.8108146518
 10
-14.2409439335
 20
-17.7908986644
 10
-14.2604699448
 20
-17.7667144091
 10
-14.2767358875
 20
-17.7385181028
 10
-14.2895694341
 20
-17.7066084677
 10
-14.2988346214
 20
-17.6713235663
 10
-14.3044332906
 20
-17.6330372197
 10
-14.3063061275
 20
-17.5921550474
  0
LINE
  5
228
100
AcDbEntity
  8
0
100
AcDbLine
 62
7
  6
CONTINUOUS
 10
-14.222126687
 20
25.1849880475
 11
-11.9370409102
 21
26.6462739105
  0
LINE
  5
229
100
AcDbEntity
  8
0
100
AcDbLine
 62
250
  6
CONTINUOUS
 10
-13.9620076858
 20
25.1665060864
 11
-11.6806463093
 21
26.6254102385
  0
LWPOLYLINE
  5
22A
100
AcDbEntity
  8
0
100
AcDbPolyline
 62
250
  6
CONTINUOUS
 90
9
 70
0
 10
-14.222126687
 20
25.1849880475
 10
-14.2016247397
 20
25.1961610305
 10
-14.1726273144
 20
25.206439488
 10
-14.1411680342
 20
25.2118589929
 10
-14.1076327986
 20
25.2123417313
 10
-14.0725309959
 20
25.2079091912
 10
-14.0363119885
 20
25.1986820252
 10
-13.9993358397
 20
25.1848133134
 10
-13.9620076858
 20
25.1665060864
  0
LWPOLYLINE
  5
22B
100
AcDbEntity
  8
0
100
AcDbPolyline
 62
250
  6
CONTINUOUS
 90
9
 70
0
 10
-14.4527527369
 20
-17.3880177508
 10
-14.4516380518
 20
-17.4072841815
 10
-14.4455499901
 20
-17.4368432521
 10
-14.434203084
 20
-17.4659234829
 10
-14.4177230383
 20
-17.4941732573
 10
-14.3963769053
 20
-17.5211898855
 10
-14.3704821834
 20
-17.5466702419
 10
-14.3403379683
 20
-17.5704006319
 10
-14.3063061275
 20
-17.5921550474
  0
LINE
  5
22C
100
AcDbEntity
  8
0
100
AcDbLine
 62
7
  6
CONTINUOUS
 10
-14.4527527369
 20
-17.3880177508
 11
-14.4527527369
 21
24.7637545314
  0
LINE
  5
22D
100
AcDbEntity
  8
0
100
AcDbLine
 62
250
  6
CONTINUOUS
 10
-14.3063061275
 20
-17.5921550474
 11
-14.3063061275
 21
24.5596172348
  0
LWPOLYLINE
  5
22E
100
AcDbEntity
  8
0
100
AcDbPolyline
 62
250
  6
CONTINUOUS
 90
16
 70
0
 10
-14.3063061275
 20
24.5596172348
 10
-14.3044332906
 20
24.6026621121
 10
-14.2988346214
 20
24.6474136616
 10
-14.2895694341
 20
24.6933977691
 10
-14.2767358875
 20
24.7401272621
 10
-14.2604699448
 20
24.7871070712
 10
-14.2409439335
 20
24.833839475
 10
-14.2183647193
 20
24.8798293729
 10
-14.1929715147
 20
24.9245895315
 10
-14.1650333444
 20
24.9676457455
 10
-14.1348461956
 20
25.0085418615
 10
-14.1027298819
 20
25.0468446112
 10
-14.0690246555
 20
25.0821482009
 10
-14.0340876019
 20
25.1140786115
 10
-13.998288857
 20
25.1422975606
 10
-13.9620076858
 20
25.1665060864
  0
LWPOLYLINE
  5
22F
100
AcDbEntity
  8
ASSI
100
AcDbPolyline
 62
250
  6
CONTINUOUS
 90
3
 70
0
 10
-5.8359209896
 20
22.9225309873
 10
-5.8600136057
 20
22.8958327591
 10
-5.8823241366
 20
22.8686542948
  0
LWPOLYLINE
  5
230
100
AcDbEntity
  8
ASSI
100
AcDbPolyline
 62
250
  6
CONTINUOUS
 90
8
 70
0
 10
-5.5330986665
 20
23.1743974967
 10
-5.5319191072
 20
23.1756967284
 10
-5.5279209694
 20
23.1821044617
 10
-5.5255400258
 20
23.1899506714
 10
-5.524802704
 20
23.1991492563
 10
-5.5257169801
 20
23.2095995698
 10
-5.528272832
 20
23.2211879753
 10
-5.5324423951
 20
23.2337881481
  0
LINE
  5
231
100
AcDbEntity
  8
DRAFT
100
AcDbLine
 62
7
  6
CONTINUOUS
 10
-6.6727590047
 20
23.7339188724
 11
-7.1903970949
 21
23.1948674048
  0
LINE
  5
232
100
AcDbEntity
  8
ASSI
100
AcDbLine
 62
250
  6
CONTINUOUS
 10
-5.5324423951
 20
23.2337881481
 11
-5.8359209896
 21
22.9225309873
  0
LINE
  5
233
100
AcDbEntity
  8
ASSI
100
AcDbLine
 62
7
  6
CONTINUOUS
 10
-5.5331109856
 20
23.174384853
 11
-5.8365895803
 21
22.8631276921
  0
LINE
  5
234
100
AcDbEntity
  8
ASSI
100
AcDbLine
 62
250
  6
CONTINUOUS
 10
-6.6727590047
 20
23.2712467877
 11
-5.6738422122
 21
23.8480108047
  0
LINE
  5
235
100
AcDbEntity
  8
ASSI
100
AcDbLine
 62
250
  6
CONTINUOUS
 10
-6.5702312325
 20
23.003890812
 11
-5.5324423951
 21
23.6030991376
  0
LINE
  5
236
100
AcDbEntity
  8
RACCORDO
100
AcDbLine
 62
7
  6
CONTINUOUS
 10
3.7615686601
 20
28.7473620236
 11
0.9497735857
 21
27.1238612133
  0
LINE
  5
237
100
AcDbEntity
  8
DRAFT
100
AcDbLine
 62
7
  6
CONTINUOUS
 10
0.9869260764
 20
27.1322398933
 11
-2.3470480294
 21
25.2529421526
  0
LINE
  5
238
100
AcDbEntity
  8
DRAFT
100
AcDbLine
 62
7
  6
CONTINUOUS
 10
0.3320816275
 20
26.8671433257
 11
-5.4763103551
 21
23.5957206945
  0
LINE
  5
239
100
AcDbEntity
  8
RACCORDO
100
AcDbLine
 62
7
  6
CONTINUOUS
 10
3.7338825497
 20
28.7633476368
 11
0.6668621116
 21
27.0385588191
  0
LINE
  5
23A
100
AcDbEntity
  8
RACCORDO
100
AcDbLine
 62
250
  6
CONTINUOUS
 10
-3.6527792549
 20
24.5654668886
 11
-5.4763103551
 21
23.5580107901
  0
LINE
  5
23B
100
AcDbEntity
  8
RACCORDO
100
AcDbLine
 62
250
  6
CONTINUOUS
 10
-2.9924364014
 20
24.4765702517
 11
-5.7469115015
 21
22.9551043412
  0
LINE
  5
23C
100
AcDbEntity
  8
ASSI
100
AcDbLine
 62
250
  6
CONTINUOUS
 10
-2.7190557795
 20
25.0788941979
 11
-3.6527792549
 21
24.5654668886
  0
LINE
  5
23D
100
AcDbEntity
  8
ASSI
100
AcDbLine
 62
250
  6
CONTINUOUS
 10
-2.0672289376
 20
24.9853539961
 11
-2.9924956057
 21
24.4766044355
  0
LINE
  5
23E
100
AcDbEntity
  8
RACCORDO
100
AcDbLine
 62
7
  6
CONTINUOUS
 10
-2.8449423487
 20
25.0230748755
 11
-5.3827144697
 21
23.6325087882
  0
LINE
  5
23F
100
AcDbEntity
  8
RACCORDO
100
AcDbLine
 62
250
  6
CONTINUOUS
 10
-2.840224353
 20
25.0254230791
 11
-2.8448425504
 21
25.0228927312
  0
LWPOLYLINE
  5
240
100
AcDbEntity
  8
DRAFT
100
AcDbPolyline
 62
7
  6
CONTINUOUS
 90
3
 70
0
 10
0.4868014813
 20
26.9487143969
 10
0.5969516899
 20
27.0084429905
 10
0.6638420151
 20
27.0439291563
  0
LINE
  5
241
100
AcDbEntity
  8
ASSI
100
AcDbLine
 62
7
  6
CONTINUOUS
 10
-7.2982394177
 20
24.7412501326
 11
-7.8776984594
 21
24.4296358121
  0
LINE
  5
242
100
AcDbEntity
  8
ASSI
100
AcDbLine
 62
250
  6
CONTINUOUS
 10
-7.2010460779
 20
24.7297991765
 11
-7.8205598706
 21
24.396644707
  0
LWPOLYLINE
  5
243
100
AcDbEntity
  8
DRAFT
100
AcDbPolyline
 62
7
  6
CONTINUOUS
 90
3
 70
0
 10
0.4072008138
 20
26.9070492523
 10
0.4432294267
 20
26.9255938392
 10
0.4868014813
 20
26.9487143969
  0
LINE
  5
244
100
AcDbEntity
  8
RACCORDO
100
AcDbLine
 62
7
  6
CONTINUOUS
 10
-2.8449253862
 20
25.0230450643
 11
-2.840224353
 21
25.0254230791
  0
LWPOLYLINE
  5
245
100
AcDbEntity
  8
ASSI
100
AcDbPolyline
 62
250
  6
CONTINUOUS
 90
9
 70
0
 10
-5.6738422122
 20
23.8480108047
 10
-5.6592388297
 20
23.855273371
 10
-5.6448183587
 20
23.8606935546
 10
-5.6307353027
 20
23.8642132841
 10
-5.6171405606
 20
23.8657948493
 10
-5.6041797772
 20
23.8654213099
 10
-5.5919917885
 20
23.8630966618
 10
-5.5807071728
 20
23.858845794
 10
-5.5763055231
 20
23.8565188359
  0
LWPOLYLINE
  5
246
100
AcDbEntity
  8
RACCORDO
100
AcDbPolyline
 62
7
  6
CONTINUOUS
 90
7
 70
0
 10
3.7339011058
 20
28.7633369227
 10
3.7671209566
 20
28.7791138696
 10
3.8014413367
 20
28.7906205102
 10
3.8365830982
 20
28.7976950841
 10
3.8722642638
 20
28.800204815
 10
3.9082025589
 20
28.7980481235
 10
3.9441180543
 20
28.7911566272
  0
LINE
  5
247
100
AcDbEntity
  8
RACCORDO
100
AcDbLine
 62
7
  6
CONTINUOUS
 10
-5.3782357794
 20
23.6347491208
 11
-5.4763103551
 21
23.5883190553
  0
LINE
  5
248
100
AcDbEntity
  8
DRAFT
100
AcDbLine
 62
7
  6
CONTINUOUS
 10
-2.8739132914
 20
25.0275972985
 11
-2.938641473
 21
24.9972942252
  0
LINE
  5
249
100
AcDbEntity
  8
DRAFT
100
AcDbLine
 62
7
  6
CONTINUOUS
 10
-2.8089330699
 20
25.0574263384
 11
-2.8739132914
 21
25.0275972985
  0
LINE
  5
24A
100
AcDbEntity
  8
DRAFT
100
AcDbLine
 62
7
  6
CONTINUOUS
 10
-2.7437008084
 20
25.086781345
 11
-2.8089330699
 21
25.0574263384
  0
LINE
  5
24B
100
AcDbEntity
  8
RACCORDO
100
AcDbLine
 62
7
  6
CONTINUOUS
 10
-2.799930594
 20
25.043427275
 11
-2.840224353
 21
25.0254230791
  0
LINE
  5
24C
100
AcDbEntity
  8
DRAFT
100
AcDbLine
 62
7
  6
CONTINUOUS
 10
-2.6782152612
 20
25.1156628566
 11
-2.7437008084
 21
25.086781345
  0
LINE
  5
24D
100
AcDbEntity
  8
RACCORDO
100
AcDbLine
 62
7
  6
CONTINUOUS
 10
-2.7595410696
 20
25.0612509812
 11
-2.799930594
 21
25.043427275
  0
LINE
  5
24E
100
AcDbEntity
  8
RACCORDO
100
AcDbLine
 62
7
  6
CONTINUOUS
 10
-2.7190557796
 20
25.0788941979
 11
-2.7595410696
 21
25.0612509812
  0
LWPOLYLINE
  5
24F
100
AcDbEntity
  8
DRAFT
100
AcDbPolyline
 62
7
  6
CONTINUOUS
 90
5
 70
0
 10
0.3778400214
 20
26.8851537184
 10
0.3589321422
 20
26.8770442854
 10
0.344840441
 20
26.8713731708
 10
0.3358799814
 20
26.8679418143
 10
0.3323629017
 20
26.8666793101
  0
LWPOLYLINE
  5
250
100
AcDbEntity
  8
DRAFT
100
AcDbPolyline
 62
7
  6
CONTINUOUS
 90
3
 70
0
 10
0.4601948136
 20
26.9196153469
 10
0.4287951235
 20
26.9063532222
 10
0.3778400214
 20
26.8851537184
  0
LINE
  5
251
100
AcDbEntity
  8
DRAFT
100
AcDbLine
 62
7
  6
CONTINUOUS
 10
0.5768931352
 20
26.9678196476
 11
0.4601948136
 21
26.9196153469
  0
LINE
  5
252
100
AcDbEntity
  8
DRAFT
100
AcDbLine
 62
7
  6
CONTINUOUS
 10
0.7827720433
 20
27.0510930445
 11
0.5768931352
 21
26.9678196476
  0
LWPOLYLINE
  5
253
100
AcDbEntity
  8
DRAFT
100
AcDbPolyline
 62
7
  6
CONTINUOUS
 90
6
 70
0
 10
-2.3470480294
 20
25.2529421526
 10
-2.4137775842
 20
25.2264378048
 10
-2.4802588356
 20
25.199457809
 10
-2.5464917837
 20
25.1720021651
 10
-2.6124776741
 20
25.1440703348
 10
-2.6782152612
 20
25.1156628566
  0
LINE
  5
254
100
AcDbEntity
  8
DRAFT
100
AcDbLine
 62
7
  6
CONTINUOUS
 10
0.9869260764
 20
27.1322398933
 11
0.7827720433
 21
27.0510930445
  0
LWPOLYLINE
  5
255
100
AcDbEntity
  8
ASSI
100
AcDbPolyline
 62
250
  6
CONTINUOUS
 90
13
 70
0
 10
-3.6527792549
 20
24.5654668886
 10
-3.6058632904
 20
24.5831673734
 10
-3.5568481338
 20
24.5963336237
 10
-3.5059067009
 20
24.6049201427
 10
-3.4532161444
 20
24.6088993283
 10
-3.3989652747
 20
24.6082570952
 10
-3.3433538835
 20
24.6029928901
 10
-3.2865777364
 20
24.5931268398
 10
-3.2288385597
 20
24.5786960156
 10
-3.170351538
 20
24.5597506169
 10
-3.1113275109
 20
24.5363597952
 10
-3.0519720707
 20
24.5086105779
 10
-2.9924956057
 20
24.4766044355
  0
LWPOLYLINE
  5
256
100
AcDbEntity
  8
ASSI
100
AcDbPolyline
 62
7
  6
CONTINUOUS
 90
13
 70
0
 10
-2.7190557796
 20
25.0788941979
 10
-2.6732349008
 20
25.0960105511
 10
-2.6254950403
 20
25.1085764458
 10
-2.575836198
 20
25.1165918818
 10
-2.5240351587
 20
25.1200650872
 10
-2.4703151377
 20
25.118987834
 10
-2.4153457806
 20
25.1133354382
 10
-2.3591060041
 20
25.1030233644
 10
-2.3016168916
 20
25.0881361481
 10
-2.2436113391
 20
25.0689027109
 10
-2.1853336452
 20
25.0453993601
 10
-2.1265395114
 20
25.0175497885
 10
-2.0672289376
 20
24.9853539961
  0
LWPOLYLINE
  5
257
100
AcDbEntity
  8
ASSI
100
AcDbPolyline
 62
250
  6
CONTINUOUS
 90
3
 70
0
 10
-7.2828815085
 20
24.7472187653
 10
-7.2943866959
 20
24.743164398
 10
-7.2982394177
 20
24.7412501326
  0
LWPOLYLINE
  5
258
100
AcDbEntity
  8
0
100
AcDbPolyline
 62
7
  6
CONTINUOUS
 90
5
 70
0
 10
3.7678326347
 20
-18.9092336692
 10
3.7494245264
 20
-18.9090653158
 10
3.7306195763
 20
-18.91174867
 10
3.7116620363
 20
-18.9173875622
 10
3.6928126931
 20
-18.9260602504
  0
LWPOLYLINE
  5
259
100
AcDbEntity
  8
0
100
AcDbPolyline
 62
7
  6
CONTINUOUS
 90
3
 70
0
 10
3.8025749625
 20
-18.9176069435
 10
3.785618101
 20
-18.9121284524
 10
3.7678326347
 20
-18.9092336692
  0
LINE
  5
25A
100
AcDbEntity
  8
0
100
AcDbLine
 62
7
  6
CONTINUOUS
 10
4.2940818942
 20
-19.1740628987
 11
3.8118825036
 21
-18.9219202767
  0
LINE
  5
25B
100
AcDbEntity
  8
DRAFT
100
AcDbLine
 62
7
  6
CONTINUOUS
 10
4.6881606064
 20
-19.4015990081
 11
4.1913276898
 21
-19.1410071716
  0
LINE
  5
25C
100
AcDbEntity
  8
0
100
AcDbLine
 62
7
  6
CONTINUOUS
 10
-3.4270869108
 20
-19.104389853
 11
-10.3173111759
 21
-15.1260607172
  0
LINE
  5
25D
100
AcDbEntity
  8
RACCORDO
100
AcDbLine
 62
7
  6
CONTINUOUS
 10
-3.4270869108
 20
-19.104389853
 11
-10.3173111759
 21
-15.1260607172
  0
LINE
  5
25E
100
AcDbEntity
  8
DRAFT
100
AcDbLine
 62
250
  6
CONTINUOUS
 10
4.0510063744
 20
-19.1571324318
 11
3.6712500599
 21
-18.9378658953
  0
LINE
  5
25F
100
AcDbEntity
  8
DRAFT
100
AcDbLine
 62
250
  6
CONTINUOUS
 10
4.1913276898
 20
-19.1410071716
 11
3.8118825036
 21
-18.9219202767
  0
LINE
  5
260
100
AcDbEntity
  8
DRAFT
100
AcDbLine
 62
7
  6
CONTINUOUS
 10
4.2940818942
 20
-19.1740628987
 11
4.6881606064
 21
-19.4015990081
  0
LWPOLYLINE
  5
261
100
AcDbEntity
  8
0
100
AcDbPolyline
 62
250
  6
CONTINUOUS
 90
9
 70
0
 10
-14.4527527365
 20
24.7637431246
 10
-14.4516362007
 20
24.7444721277
 10
-14.4455447767
 20
24.7149114916
 10
-14.4341946134
 20
24.6858313501
 10
-14.4177119891
 20
24.6575828921
 10
-14.3963647776
 20
24.6305689292
 10
-14.3704712229
 20
24.6050924198
 10
-14.3403309047
 20
24.5813666462
 10
-14.3063061275
 20
24.5596172348
  0
LINE
  5
262
100
AcDbEntity
  8
0
100
AcDbLine
 62
7
  6
CONTINUOUS
 10
-10.3879787789
 20
-15.0036608383
 11
-10.3879787789
 21
-7.0477714839
  0
LINE
  5
263
100
AcDbEntity
  8
RACCORDO
100
AcDbLine
 62
7
  6
CONTINUOUS
 10
-10.3879787789
 20
-15.0036608383
 11
-10.3879787789
 21
-7.0477714839
  0
LINE
  5
264
100
AcDbEntity
  8
0
100
AcDbLine
 62
7
  6
CONTINUOUS
 10
-10.3879787789
 20
9.4904474655
 11
-10.3879787789
 21
17.4463368198
  0
LINE
  5
265
100
AcDbEntity
  8
RACCORDO
100
AcDbLine
 62
7
  6
CONTINUOUS
 10
-10.3879787789
 20
9.4904474655
 11
-10.3879787789
 21
17.4463368198
  0
LWPOLYLINE
  5
266
100
AcDbEntity
  8
ASSI
100
AcDbPolyline
 62
7
  6
CONTINUOUS
 90
13
 70
0
 10
-3.5807030821
 20
22.8939471051
 10
-3.5908698391
 20
22.8736147995
 10
-3.6031968613
 20
22.8516114107
 10
-3.6167878217
 20
22.829855079
 10
-3.6314568544
 20
22.8086526912
 10
-3.6469932811
 20
22.7883025827
 10
-3.6632248146
 20
22.7690092888
 10
-3.679920854
 20
22.7510075742
 10
-3.6968061359
 20
22.7345397803
 10
-3.7135653201
 20
22.7198292943
 10
-3.7298363997
 20
22.707072441
 10
-3.7452722369
 20
22.6963920467
 10
-3.7587943055
 20
22.6882471329
  0
LWPOLYLINE
  5
267
100
AcDbEntity
  8
ASSI
100
AcDbPolyline
 62
250
  6
CONTINUOUS
 90
6
 70
0
 10
-5.9216060683
 20
22.8125617916
 10
-5.9385774691
 20
22.7836477528
 10
-5.9537454074
 20
22.7551380757
 10
-5.9669793747
 20
22.7274102176
 10
-5.9784098795
 20
22.7000867213
 10
-5.9884070699
 20
22.672919813
  0
LWPOLYLINE
  5
268
100
AcDbEntity
  8
ASSI
100
AcDbPolyline
 62
250
  6
CONTINUOUS
 90
6
 70
0
 10
-5.8365878511
 20
22.8631294657
 10
-5.8313791857
 20
22.8708929376
 10
-5.8286741196
 20
22.8809123219
 10
-5.8285350907
 20
22.8930005755
 10
-5.8309644636
 20
22.906952434
 10
-5.8359209896
 20
22.9225309873
  0
LWPOLYLINE
  5
269
100
AcDbEntity
  8
ASSI
100
AcDbPolyline
 62
250
  6
CONTINUOUS
 90
3
 70
0
 10
-5.8823241366
 20
22.8686542948
 10
-5.9028525822
 20
22.8409955943
 10
-5.9216060683
 20
22.8125617916
  0
LWPOLYLINE
  5
26A
100
AcDbEntity
  8
ASSI
100
AcDbPolyline
 62
7
  6
CONTINUOUS
 90
5
 70
0
 10
-1.0643620689
 20
24.441403593
 10
-1.0698770583
 20
24.4341158206
 10
-1.0754930115
 20
24.4268702204
 10
-1.0812105519
 20
24.4196699435
 10
-1.0832208536
 20
24.417200061
  0
LWPOLYLINE
  5
26B
100
AcDbEntity
  8
DRAFT
100
AcDbPolyline
 62
7
  6
CONTINUOUS
 90
3
 70
0
 10
0.3323211488
 20
26.8667180571
 10
0.3345936031
 20
26.8685256667
 10
0.3369349304
 20
26.8700110196
  0
LINE
  5
26C
100
AcDbEntity
  8
DRAFT
100
AcDbLine
 62
7
  6
CONTINUOUS
 10
1.6828223942
 20
26.730438081
 11
4.1028880999
 21
28.1279659902
  0
LINE
  5
26D
100
AcDbEntity
  8
ASSI
100
AcDbLine
 62
250
  6
CONTINUOUS
 10
2.9653038632
 20
25.560774359
 11
0.099526956
 21
23.9061106894
  0
LINE
  5
26E
100
AcDbEntity
  8
ASSI
100
AcDbLine
 62
250
  6
CONTINUOUS
 10
3.1065314064
 20
25.3244834407
 11
0.2407544992
 21
23.6698197711
  0
LINE
  5
26F
100
AcDbEntity
  8
ASSI
100
AcDbLine
 62
250
  6
CONTINUOUS
 10
0.5618158829
 20
23.6223924815
 11
-0.8646389809
 21
22.7987753208
  0
LINE
  5
270
100
AcDbEntity
  8
ASSI
100
AcDbLine
 62
250
  6
CONTINUOUS
 10
0.7030434261
 20
23.3861015632
 11
-0.5894044548
 21
22.6398583549
  0
LINE
  5
271
100
AcDbEntity
  8
0
100
AcDbLine
 62
7
  6
CONTINUOUS
 10
2.0533968036
 20
23.719269264
 11
2.2279247191
 21
23.8200394951
  0
LINE
  5
272
100
AcDbEntity
  8
0
100
AcDbLine
 62
7
  6
CONTINUOUS
 10
4.4216981338
 20
25.0866967703
 11
5.8350404997
 21
25.902742939
  0
LWPOLYLINE
  5
273
100
AcDbEntity
  8
ASSI
100
AcDbPolyline
 62
250
  6
CONTINUOUS
 90
13
 70
0
 10
-3.6614143026
 20
22.6768500423
 10
-3.6487445696
 20
22.6841519214
 10
-3.6360943767
 20
22.6924481657
 10
-3.6235479678
 20
22.7016522019
 10
-3.6112938807
 20
22.711573186
 10
-3.5992902124
 20
22.7222000013
 10
-3.5872983802
 20
22.7337807852
 10
-3.5752825188
 20
22.7464327497
 10
-3.5635084522
 20
22.7599581215
 10
-3.5522119719
 20
22.7741612086
 10
-3.541529746
 20
22.7888947484
 10
-3.5315183604
 20
22.8040799681
 10
-3.522272754
 20
22.8195889515
  0
LWPOLYLINE
  5
274
100
AcDbEntity
  8
ASSI
100
AcDbPolyline
 62
250
  6
CONTINUOUS
 90
16
 70
0
 10
0.099526956
 20
23.9061106894
 10
0.0671512407
 20
23.8880286357
 10
0.0355480154
 20
23.8715301587
 10
0.0047419977
 20
23.8565466468
 10
-0.0250030136
 20
23.8431162396
 10
-0.0539149795
 20
23.8310447801
 10
-0.0827045936
 20
23.8199880971
 10
-0.1113802894
 20
23.8099352567
 10
-0.139892741
 20
23.8009041168
 10
-0.1688476846
 20
23.7927311315
 10
-0.198276034
 20
23.7854658404
 10
-0.2280763029
 20
23.7791989912
 10
-0.2586297475
 20
23.7739425509
 10
-0.2900194804
 20
23.7698030872
 10
-0.3220422017
 20
23.7669290934
 10
-0.3546298638
 20
23.7654476089
  0
LINE
  5
275
100
AcDbEntity
  8
ASSI
100
AcDbLine
 62
7
  6
CONTINUOUS
 10
-3.1153763452
 20
23.7932157348
 11
-2.9741158655
 21
23.8719687665
  0
LINE
  5
276
100
AcDbEntity
  8
ASSI
100
AcDbLine
 62
250
  6
CONTINUOUS
 10
-3.0179880109
 20
23.7818228921
 11
-2.8767275709
 21
23.8605759016
  0
LINE
  5
277
100
AcDbEntity
  8
ASSI
100
AcDbLine
 62
7
  6
CONTINUOUS
 10
-4.9110162153
 20
22.0458808559
 11
-3.7588022888
 21
22.688242683
  0
LINE
  5
278
100
AcDbEntity
  8
ASSI
100
AcDbLine
 62
250
  6
CONTINUOUS
 10
-4.8531365322
 20
22.0124618523
 11
-3.6614139536
 21
22.6768498408
  0
LINE
  5
279
100
AcDbEntity
  8
ASSI
100
AcDbLine
 62
7
  6
CONTINUOUS
 10
-0.4335069323
 20
24.168981045
 11
0.797541697
 21
24.855283762
  0
LINE
  5
27A
100
AcDbEntity
  8
ASSI
100
AcDbLine
 62
250
  6
CONTINUOUS
 10
-0.3360583258
 20
24.1576121719
 11
0.894930064
 21
24.8438909375
  0
LINE
  5
27B
100
AcDbEntity
  8
ASSI
100
AcDbLine
 62
7
  6
CONTINUOUS
 10
0.797541697
 20
24.855283762
 11
0.7976669357
 21
24.8553534001
  0
LINE
  5
27C
100
AcDbEntity
  8
ASSI
100
AcDbLine
 62
250
  6
CONTINUOUS
 10
-3.1153763452
 20
23.7932157348
 11
-3.115209566
 21
23.7933083906
  0
LWPOLYLINE
  5
27D
100
AcDbEntity
  8
ASSI
100
AcDbPolyline
 62
250
  6
CONTINUOUS
 90
16
 70
0
 10
0.2407544992
 20
23.6698197711
 10
0.2040275938
 20
23.6494550565
 10
0.1682310863
 20
23.6307244287
 10
0.1333649766
 20
23.6136278879
 10
0.0996826326
 20
23.5983208764
 10
0.0669306863
 20
23.5846479518
 10
0.0343490347
 20
23.5721427869
 10
0.0018912876
 20
23.5606851924
 10
-0.0303961649
 20
23.5503953576
 10
-0.0631342562
 20
23.5411675228
 10
-0.0964225017
 20
23.5328902786
 10
-0.1301613859
 20
23.5256750345
 10
-0.1646732959
 20
23.5197502589
 10
-0.2000656942
 20
23.5151921081
 10
-0.2362311184
 20
23.5119244259
 10
-0.2731695684
 20
23.5099472123
  0
LWPOLYLINE
  5
27E
100
AcDbEntity
  8
ASSI
100
AcDbPolyline
 62
7
  6
CONTINUOUS
 90
16
 70
0
 10
2.4825436462
 20
25.7946760969
 10
1.7142439841
 20
25.3663529848
 10
1.7019628376
 20
25.3601440243
 10
1.6873569042
 20
25.3538710564
 10
1.6705757245
 20
25.3478174919
 10
1.6516711186
 20
25.3421893521
 10
1.6309115365
 20
25.3372288905
 10
1.6084799516
 20
25.3331190454
 10
1.5846636413
 20
25.3300309714
 10
1.5599559767
 20
25.328111477
 10
1.5346270948
 20
25.3274421225
 10
1.5090864682
 20
25.3280755946
 10
1.4840810162
 20
25.3299830475
 10
1.459943354
 20
25.3330904781
 10
1.4370372401
 20
25.3372786051
 10
1.430985136
 20
25.3386020008
  0
LINE
  5
27F
100
AcDbEntity
  8
ASSI
100
AcDbLine
 62
250
  6
CONTINUOUS
 10
2.5886291867
 20
25.7880869718
 11
1.8128084735
 21
25.3556101926
  0
LWPOLYLINE
  5
280
100
AcDbEntity
  8
ASSI
100
AcDbPolyline
 62
7
  6
CONTINUOUS
 90
10
 70
0
 10
-0.4335069323
 20
24.168981045
 10
-0.4457836897
 20
24.1622117373
 10
-0.5086092162
 20
24.1298512018
 10
-0.5700075372
 20
24.1020156293
 10
-0.6294951577
 20
24.0788119037
 10
-0.6868989267
 20
24.0601716305
 10
-0.7422678642
 20
24.0459572183
 10
-0.7953674408
 20
24.0361414989
 10
-0.8457872615
 20
24.0306938233
 10
-0.8537042635
 20
24.0302137227
  0
LWPOLYLINE
  5
281
100
AcDbEntity
  8
ASSI
100
AcDbPolyline
 62
250
  6
CONTINUOUS
 90
13
 70
0
 10
-2.8767275709
 20
23.8605759016
 10
-2.8639902364
 20
23.8675339989
 10
-2.8516340207
 20
23.8738062957
 10
-2.839671832
 20
23.879427471
 10
-2.8281206271
 20
23.8844317921
 10
-2.8169822635
 20
23.8888562475
 10
-2.8062438936
 20
23.8927384697
 10
-2.7959077108
 20
23.8961131559
 10
-2.7859792098
 20
23.8990134611
 10
-2.7764483502
 20
23.9014720243
 10
-2.7673134606
 20
23.9035215777
 10
-2.7585755536
 20
23.9051936523
 10
-2.7502269608
 20
23.9065173725
  0
LINE
  5
282
100
AcDbEntity
  8
ASSI
100
AcDbLine
 62
7
  6
CONTINUOUS
 10
3.2582630004
 20
26.7029394709
 11
-1.0393075804
 21
24.3918450874
  0
LINE
  5
283
100
AcDbEntity
  8
ASSI
100
AcDbLine
 62
250
  6
CONTINUOUS
 10
3.7085365994
 20
26.8654340547
 11
-0.9678843444
 21
24.350606206
  0
LINE
  5
284
100
AcDbEntity
  8
DRAFT
100
AcDbLine
 62
7
  6
CONTINUOUS
 10
5.7402243898
 20
26.2309906152
 11
7.3257152237
 21
27.0836162772
  0
LWPOLYLINE
  5
285
100
AcDbEntity
  8
ASSI
100
AcDbPolyline
 62
250
  6
CONTINUOUS
 90
9
 70
0
 10
3.8881208257
 20
23.8289273341
 10
3.897009919
 20
23.8337071461
 10
3.9114348423
 20
23.8388770978
 10
3.9270439225
 20
23.8416092441
 10
3.9436663261
 20
23.841873944
 10
3.9611202471
 20
23.8396684325
 10
3.9792146336
 20
23.8350168966
 10
3.9977512298
 20
23.8279703457
 10
4.0165270417
 20
23.8186060078
  0
LWPOLYLINE
  5
286
100
AcDbEntity
  8
ASSI
100
AcDbPolyline
 62
250
  6
CONTINUOUS
 90
8
 70
0
 10
-2.9741158655
 20
23.8719687665
 10
-2.9705841511
 20
23.8737970513
 10
-2.9572376613
 20
23.8785016001
 10
-2.9426621008
 20
23.8804398765
 10
-2.9270799695
 20
23.8795822386
 10
-2.9107291266
 20
23.8759417374
 10
-2.8938591532
 20
23.8695739032
 10
-2.8767275709
 20
23.8605759016
  0
LINE
  5
287
100
AcDbEntity
  8
ASSI
100
AcDbLine
 62
250
  6
CONTINUOUS
 10
2.4860768984
 20
25.7965051184
 11
2.4825436462
 21
25.7946760969
  0
LWPOLYLINE
  5
288
100
AcDbEntity
  8
ASSI
100
AcDbPolyline
 62
250
  6
CONTINUOUS
 90
8
 70
0
 10
-3.7587943054
 20
22.688247133
 10
-3.7552687694
 20
22.6900718326
 10
-3.7419221872
 20
22.6947759684
 10
-3.7273467021
 20
22.6967138607
 10
-3.7117648005
 20
22.695855938
 10
-3.6954143325
 20
22.6922153027
 10
-3.6785448824
 20
22.6858475345
 10
-3.6614139536
 20
22.6768498408
  0
LWPOLYLINE
  5
289
100
AcDbEntity
  8
ASSI
100
AcDbPolyline
 62
250
  6
CONTINUOUS
 90
8
 70
0
 10
1.7154488228
 20
25.3670190169
 10
1.7189533911
 20
25.3688320568
 10
1.7322999603
 20
25.373536254
 10
1.7468754577
 20
25.3754742034
 10
1.7624573944
 20
25.3746163229
 10
1.7788079188
 20
25.3709757079
 10
1.7956774473
 20
25.3646079307
 10
1.8128084736
 20
25.3556101926
  0
LWPOLYLINE
  5
28A
100
AcDbEntity
  8
ASSI
100
AcDbPolyline
 62
250
  6
CONTINUOUS
 90
8
 70
0
 10
0.7976669357
 20
24.8553534001
 10
0.8010749397
 20
24.857112779
 10
0.8144215101
 20
24.8618169787
 10
0.8289970091
 20
24.8637549296
 10
0.8445789476
 20
24.8628970499
 10
0.8609294736
 20
24.859256435
 10
0.8777990033
 20
24.8528886574
 10
0.8949300304
 20
24.8438909188
  0
LWPOLYLINE
  5
28B
100
AcDbEntity
  8
ASSI
100
AcDbPolyline
 62
250
  6
CONTINUOUS
 90
8
 70
0
 10
-0.4334507719
 20
24.1690124005
 10
-0.4299134075
 20
24.1708340364
 10
-0.416566838
 20
24.1755382339
 10
-0.4019913403
 20
24.1774761835
 10
-0.3864094035
 20
24.1766183032
 10
-0.3700588793
 20
24.172977688
 10
-0.3531893514
 20
24.1666099105
 10
-0.3360583258
 20
24.1576121719
  0
LWPOLYLINE
  5
28C
100
AcDbEntity
  8
ASSI
100
AcDbPolyline
 62
250
  6
CONTINUOUS
 90
8
 70
0
 10
-3.115209566
 20
23.7933083906
 10
-3.1117417722
 20
23.7950931931
 10
-3.0983549299
 20
23.7997824796
 10
-3.0837340277
 20
23.8016933833
 10
-3.068135944
 20
23.8008001886
 10
-3.0518155379
 20
23.7971361394
 10
-3.0350140468
 20
23.7907731353
 10
-3.0179880109
 20
23.7818228921
  0
LINE
  5
28D
100
AcDbEntity
  8
DRAFT
100
AcDbLine
 62
7
  6
CONTINUOUS
 10
2.1511246715
 20
26.4600462153
 11
-1.0643620689
 21
24.8191601475
  0
LWPOLYLINE
  5
28E
100
AcDbEntity
  8
ASSI
100
AcDbPolyline
 62
250
  6
CONTINUOUS
 90
6
 70
0
 10
1.8128084735
 20
25.3556101926
 10
1.7841144972
 20
25.3410701989
 10
1.7535618242
 20
25.3283194111
 10
1.7211504545
 20
25.3173578295
 10
1.6865092317
 20
25.3080917154
 10
1.6500093122
 20
25.3006148073
  0
LWPOLYLINE
  5
28F
100
AcDbEntity
  8
ASSI
100
AcDbPolyline
 62
250
  6
CONTINUOUS
 90
4
 70
0
 10
-2.0025830776
 20
23.4801578974
 10
-2.0104396486
 20
23.4761854668
 10
-2.0159248966
 20
23.4710349243
 10
-2.0188110037
 20
23.4648199551
  0
LINE
  5
290
100
AcDbEntity
  8
RACCORDO
100
AcDbLine
 62
7
  6
CONTINUOUS
 10
-3.5404911686
 20
23.0593278896
 11
-5.2164655465
 21
22.2222434716
  0
LINE
  5
291
100
AcDbEntity
  8
0
100
AcDbLine
 62
250
  6
CONTINUOUS
 10
-0.1510850047
 20
24.8695024446
 11
-1.0643620689
 21
24.441403593
  0
LINE
  5
292
100
AcDbEntity
  8
ASSI
100
AcDbLine
 62
7
  6
CONTINUOUS
 10
-3.5404911686
 20
23.0593278896
 11
-3.4926416712
 21
23.0807361265
  0
LWPOLYLINE
  5
293
100
AcDbEntity
  8
ASSI
100
AcDbPolyline
 62
250
  6
CONTINUOUS
 90
4
 70
0
 10
-0.5002745706
 20
24.0794975837
 10
-0.4471079597
 20
24.1018702087
 10
-0.3923261908
 20
24.1278658641
 10
-0.3360583258
 20
24.1576121719
  0
LWPOLYLINE
  5
294
100
AcDbEntity
  8
ASSI
100
AcDbPolyline
 62
250
  6
CONTINUOUS
 90
6
 70
0
 10
5.8233693065
 20
23.8657184597
 10
5.8370935317
 20
23.8710325511
 10
5.8521549101
 20
23.8734688889
 10
5.8683126087
 20
23.8729885159
 10
5.8853082643
 20
23.8695991131
 10
5.9028701145
 20
23.8633548776
  0
LWPOLYLINE
  5
295
100
AcDbEntity
  8
ASSI
100
AcDbPolyline
 62
7
  6
CONTINUOUS
 90
10
 70
0
 10
3.4988295814
 20
26.8043853859
 10
3.4688751189
 20
26.7934789162
 10
3.4396965889
 20
26.7826044237
 10
3.4113326359
 20
26.7717126885
 10
3.38384505
 20
26.7607745278
 10
3.3572294264
 20
26.749744656
 10
3.3314301222
 20
26.7385473922
 10
3.306522435
 20
26.7271513403
 10
3.2825082745
 20
26.7155050101
 10
3.2582628445
 20
26.702939387
  0
LWPOLYLINE
  5
296
100
AcDbEntity
  8
ASSI
100
AcDbPolyline
 62
7
  6
CONTINUOUS
 90
3
 70
0
 10
3.6936934966
 20
26.8732835637
 10
3.5609587987
 20
26.8264455597
 10
3.4988295814
 20
26.8043853859
  0
LWPOLYLINE
  5
297
100
AcDbEntity
  8
ASSI
100
AcDbPolyline
 62
7
  6
CONTINUOUS
 90
5
 70
0
 10
5.9213044154
 20
23.9072243908
 10
5.8927367428
 20
23.8980433921
 10
5.8645351164
 20
23.8866513501
 10
5.8369069373
 20
23.8732121189
 10
5.820675692
 20
23.8642426159
  0
LWPOLYLINE
  5
298
100
AcDbEntity
  8
ASSI
100
AcDbPolyline
 62
7
  6
CONTINUOUS
 90
5
 70
0
 10
2.5824877121
 20
25.8360914546
 10
2.5582081539
 20
25.8286317415
 10
2.5315013362
 20
25.8185073709
 10
2.5047861823
 20
25.8063567235
 10
2.4825250923
 20
25.794665749
  0
LINE
  5
299
100
AcDbEntity
  8
ASSI
100
AcDbLine
 62
250
  6
CONTINUOUS
 10
6.0034977932
 20
23.8910779326
 11
6.0118448796
 21
23.8934987236
  0
LINE
  5
29A
100
AcDbEntity
  8
0
100
AcDbLine
 62
7
  6
CONTINUOUS
 10
-10.3173111759
 20
-7.0069767818
 11
-3.4270869108
 21
-10.9853059176
  0
LINE
  5
29B
100
AcDbEntity
  8
RACCORDO
100
AcDbLine
 62
7
  6
CONTINUOUS
 10
-10.3173111759
 20
-7.0069767818
 11
-3.4270869108
 21
-10.9853059176
  0
LINE
  5
29C
100
AcDbEntity
  8
DRAFT
100
AcDbLine
 62
7
  6
CONTINUOUS
 10
-6.6727590047
 20
23.0630890627
 11
-6.6727590047
 21
23.7339188724
  0
LWPOLYLINE
  5
29D
100
AcDbEntity
  8
ASSI
100
AcDbPolyline
 62
7
  6
CONTINUOUS
 90
12
 70
0
 10
-5.9545861411
 20
22.6484250521
 10
-5.953749558
 20
22.6522908778
 10
-5.9479393798
 20
22.6733587521
 10
-5.9405478717
 20
22.695418505
 10
-5.9315779472
 20
22.7181365517
 10
-5.9210704126
 20
22.7411715676
 10
-5.9092386889
 20
22.7639450679
 10
-5.896226385
 20
22.7861474481
 10
-5.8822347514
 20
22.8074391124
 10
-5.8676849597
 20
22.8272657493
 10
-5.8528304106
 20
22.8454199459
 10
-5.8365878511
 20
22.8631294657
  0
LWPOLYLINE
  5
29E
100
AcDbEntity
  8
ASSI
100
AcDbPolyline
 62
250
  6
CONTINUOUS
 90
9
 70
0
 10
-3.5807040169
 20
22.8939451226
 10
-3.581655454
 20
22.8911972549
 10
-3.5816919864
 20
22.8839051021
 10
-3.5787279047
 20
22.8753716252
 10
-3.5728121064
 20
22.8657375985
 10
-3.5640421826
 20
22.8551619516
 10
-3.5525628084
 20
22.843819148
 10
-3.5385633554
 20
22.8318963065
 10
-3.5222747687
 20
22.8195901148
  0
LWPOLYLINE
  5
29F
100
AcDbEntity
  8
ASSI
100
AcDbPolyline
 62
250
  6
CONTINUOUS
 90
11
 70
0
 10
-3.1988917463
 20
23.7038156383
 10
-3.199491992
 20
23.7023154583
 10
-3.200223503
 20
23.6967754149
 10
-3.1990203376
 20
23.6904027154
 10
-3.1958982234
 20
23.6832732251
 10
-3.1908960281
 20
23.6754655556
 10
-3.1840711769
 20
23.6670630189
 10
-3.1755077136
 20
23.6581629008
 10
-3.165307034
 20
23.6488636404
 10
-3.1535820065
 20
23.6392623248
 10
-3.140462498
 20
23.6294606305
  0
LWPOLYLINE
  5
2A0
100
AcDbEntity
  8
ASSI
100
AcDbPolyline
 62
250
  6
CONTINUOUS
 90
10
 70
0
 10
-3.140462498
 20
23.6294606305
 10
-3.1314253623
 20
23.6505439773
 10
-3.1208541811
 20
23.6711943753
 10
-3.1088919111
 20
23.6911325632
 10
-3.0957003214
 20
23.7100889114
 10
-3.0814578054
 20
23.7278070674
 10
-3.0663569688
 20
23.7440474233
 10
-3.0506020244
 20
23.758590356
 10
-3.0344060307
 20
23.7712391969
 10
-3.0179880109
 20
23.7818228921
  0
LINE
  5
2A1
100
AcDbEntity
  8
ASSI
100
AcDbLine
 62
7
  6
CONTINUOUS
 10
-3.5807040169
 20
22.8939451226
 11
-3.1988917463
 21
23.7038156383
  0
LINE
  5
2A2
100
AcDbEntity
  8
ASSI
100
AcDbLine
 62
250
  6
CONTINUOUS
 10
-3.5222747687
 20
22.8195901148
 11
-3.140462498
 21
23.6294606305
  0
LWPOLYLINE
  5
2A3
100
AcDbEntity
  8
ASSI
100
AcDbPolyline
 62
7
  6
CONTINUOUS
 90
7
 70
0
 10
0.8236715484
 20
24.8742752554
 10
0.8240269267
 20
24.8748300455
 10
0.8234890551
 20
24.8742062884
 10
0.8207449579
 20
24.8714239777
 10
0.8155718255
 20
24.8670377376
 10
0.8081190618
 20
24.8616966118
 10
0.7976669395
 20
24.8553533936
  0
LINE
  5
2A4
100
AcDbEntity
  8
ASSI
100
AcDbLine
 62
7
  6
CONTINUOUS
 10
3.3527969835
 20
23.1705523476
 11
3.822817243
 21
23.7704817279
  0
LINE
  5
2A5
100
AcDbEntity
  8
ASSI
100
AcDbLine
 62
250
  6
CONTINUOUS
 10
3.4427826109
 20
23.1185957742
 11
3.9312238728
 21
23.7420375464
  0
LWPOLYLINE
  5
2A6
100
AcDbEntity
  8
ASSI
100
AcDbPolyline
 62
250
  6
CONTINUOUS
 90
10
 70
0
 10
3.2356535813
 20
21.566902877
 10
3.2219087623
 20
21.5508850105
 10
3.2102788227
 20
21.5341984709
 10
3.2009203708
 20
21.5170679302
 10
3.1939594307
 20
21.4997240371
 10
3.1894897492
 20
21.4824003246
 10
3.1875715275
 20
21.4653300651
 10
3.1882306073
 20
21.4487431118
 10
3.1914581269
 20
21.4328628046
 10
3.1955687729
 20
21.4214778447
  0
LWPOLYLINE
  5
2A7
100
AcDbEntity
  8
ASSI
100
AcDbPolyline
 62
250
  6
CONTINUOUS
 90
11
 70
0
 10
3.0598306156
 20
21.4164675334
 10
3.0459613829
 20
21.4027199637
 10
3.0381519121
 20
21.3951669115
 10
3.0296268692
 20
21.3872343844
 10
3.0203718178
 20
21.3788989475
 10
3.0102299586
 20
21.3702104359
 10
2.9990886904
 20
21.3612449403
 10
2.9869638189
 20
21.3520133758
 10
2.9737448825
 20
21.3425602825
 10
2.9592122383
 20
21.3329792656
 10
2.9431966768
 20
21.3233555116
  0
LWPOLYLINE
  5
2A8
100
AcDbEntity
  8
ASSI
100
AcDbPolyline
 62
250
  6
CONTINUOUS
 90
3
 70
0
 10
5.6854176541
 20
22.941522039
 10
5.6964216732
 20
22.9511470772
 10
5.7087153895
 20
22.9599483033
  0
LINE
  5
2A9
100
AcDbEntity
  8
ASSI
100
AcDbLine
 62
250
  6
CONTINUOUS
 10
5.6796684572
 20
22.9085409
 11
5.6935340218
 21
22.9195582634
  0
LWPOLYLINE
  5
2AA
100
AcDbEntity
  8
ASSI
100
AcDbPolyline
 62
250
  6
CONTINUOUS
 90
10
 70
0
 10
3.8228195062
 20
23.7704846157
 10
3.8275527809
 20
23.7742175351
 10
3.8343191649
 20
23.7761340817
 10
3.8431095279
 20
23.7763012502
 10
3.8538240267
 20
23.7747198006
 10
3.8663437422
 20
23.7714094639
 10
3.8805141265
 20
23.7664147433
 10
3.8961681851
 20
23.7597999864
 10
3.9131344303
 20
23.7516426056
 10
3.9312238728
 20
23.7420375464
  0
LWPOLYLINE
  5
2AB
100
AcDbEntity
  8
ASSI
100
AcDbPolyline
 62
7
  6
CONTINUOUS
 90
7
 70
0
 10
3.2690221291
 20
20.3160398603
 10
3.2580573105
 20
20.3078940245
 10
3.248609941
 20
20.2992483636
 10
3.2406180937
 20
20.2900303897
 10
3.2341436956
 20
20.2803125908
 10
3.2293725273
 20
20.270312431
 10
3.2267755113
 20
20.2614915677
  0
LINE
  5
2AC
100
AcDbEntity
  8
ASSI
100
AcDbLine
 62
7
  6
CONTINUOUS
 10
2.0732208245
 20
19.4394524328
 11
2.7999012425
 21
19.9518448635
  0
LINE
  5
2AD
100
AcDbEntity
  8
ASSI
100
AcDbLine
 62
250
  6
CONTINUOUS
 10
2.136401426
 20
19.4032985064
 11
2.9353593664
 21
19.9666548194
  0
LWPOLYLINE
  5
2AE
100
AcDbEntity
  8
ASSI
100
AcDbPolyline
 62
250
  6
CONTINUOUS
 90
10
 70
0
 10
0.7185661829
 20
21.6243833306
 10
0.7021481696
 20
21.6137996401
 10
0.6859521805
 20
21.6011508039
 10
0.6701972387
 20
21.5866078754
 10
0.6550964025
 20
21.5703675223
 10
0.6408538853
 20
21.5526493671
 10
0.6276622931
 20
21.5336930179
 10
0.6157000199
 20
21.5137548268
 10
0.605128835
 20
21.4931044234
 10
0.5960916958
 20
21.4720210691
  0
LWPOLYLINE
  5
2AF
100
AcDbEntity
  8
ASSI
100
AcDbPolyline
 62
7
  6
CONTINUOUS
 90
6
 70
0
 10
5.7476035468
 20
21.7329224546
 10
5.7337260842
 20
21.7239990431
 10
5.7217718127
 20
21.714473306
 10
5.7117407324
 20
21.7043452432
 10
5.7035495324
 20
21.6934810444
 10
5.7016492454
 20
21.6900047111
  0
LWPOLYLINE
  5
2B0
100
AcDbEntity
  8
ASSI
100
AcDbPolyline
 62
250
  6
CONTINUOUS
 90
10
 70
0
 10
4.0165270417
 20
23.8186060078
 10
4.0066819273
 20
23.8124058872
 10
3.9968488627
 20
23.805575805
 10
3.9870590661
 20
23.7981319278
 10
3.9773348787
 20
23.7900847383
 10
3.9677174991
 20
23.7814617355
 10
3.9582654578
 20
23.7723125261
 10
3.9490175405
 20
23.7626756278
 10
3.939994114
 20
23.7525732594
 10
3.9312238728
 20
23.7420375464
  0
LWPOLYLINE
  5
2B1
100
AcDbEntity
  8
ASSI
100
AcDbPolyline
 62
250
  6
CONTINUOUS
 90
35
 70
0
 10
2.7570809242
 20
21.5187864618
 10
2.7471583514
 20
21.5126003621
 10
2.7371515213
 20
21.5062878194
 10
2.7270828751
 20
21.4998574228
 10
2.71699445
 20
21.4932815094
 10
2.7069334743
 20
21.4865980529
 10
2.6968527197
 20
21.4797690795
 10
2.6866525387
 20
21.4726530039
 10
2.6763725915
 20
21.4653001443
 10
2.6659732179
 20
21.4576601825
 10
2.6552357892
 20
21.4494405785
 10
2.6441176219
 20
21.4406485973
 10
2.6326613996
 20
21.4312769738
 10
2.6207765446
 20
21.4210113727
 10
2.6084015907
 20
21.4098432703
 10
2.5955980042
 20
21.3977811902
 10
2.5824596061
 20
21.3845363671
 10
2.5689559763
 20
21.3701322347
 10
2.5551175348
 20
21.3545453592
 10
2.5411293628
 20
21.3374166744
 10
2.5269173029
 20
21.3187298625
 10
2.5125555124
 20
21.2985012412
 10
2.4984515441
 20
21.2764206983
 10
2.4844301862
 20
21.2521369701
 10
2.4706666505
 20
21.2260013202
 10
2.4580941244
 20
21.198757427
 10
2.4468066144
 20
21.1701009373
 10
2.436710114
 20
21.1403362042
 10
2.4284557906
 20
21.1111199654
 10
2.4223345202
 20
21.082638978
 10
2.4180554268
 20
21.0547064849
 10
2.41539705
 20
21.0284189529
 10
2.4142855696
 20
21.0041418709
 10
2.4147948059
 20
20.98150975
 10
2.4169247587
 20
20.9605225902
  0
LINE
  5
2B2
100
AcDbEntity
  8
ASSI
100
AcDbLine
 62
7
  6
CONTINUOUS
 10
3.8881208257
 20
23.8289273341
 11
4.6325286752
 21
24.2892803146
  0
LINE
  5
2B3
100
AcDbEntity
  8
ASSI
100
AcDbLine
 62
250
  6
CONTINUOUS
 10
4.0165270417
 20
23.8186060078
 11
4.7596805832
 21
24.2781833055
  0
LINE
  5
2B4
100
AcDbEntity
  8
ASSI
100
AcDbLine
 62
250
  6
CONTINUOUS
 10
5.6935340218
 20
22.9195582634
 11
5.7099462643
 21
22.9296901269
  0
LINE
  5
2B5
100
AcDbEntity
  8
ASSI
100
AcDbLine
 62
7
  6
CONTINUOUS
 10
3.2815043969
 20
20.3236858712
 11
3.2690221291
 21
20.3160398603
  0
LINE
  5
2B6
100
AcDbEntity
  8
ASSI
100
AcDbLine
 62
250
  6
CONTINUOUS
 10
2.7767659085
 20
21.5308585308
 11
2.7570809242
 21
21.5187864618
  0
LWPOLYLINE
  5
2B7
100
AcDbEntity
  8
ASSI
100
AcDbPolyline
 62
250
  6
CONTINUOUS
 90
3
 70
0
 10
2.8060447022
 20
21.548536894
 10
2.7963216336
 20
21.5427085291
 10
2.7767659085
 20
21.5308585308
  0
LWPOLYLINE
  5
2B8
100
AcDbEntity
  8
ASSI
100
AcDbPolyline
 62
250
  6
CONTINUOUS
 90
10
 70
0
 10
2.4169247603
 20
20.9605225883
 10
2.433895158
 20
20.9706919783
 10
2.4525682478
 20
20.9798393418
 10
2.4726924104
 20
20.9878414181
 10
2.4939964735
 20
20.9945903794
 10
2.5161933653
 20
20.9999952831
 10
2.5389839829
 20
21.0039832983
 10
2.5620612233
 20
21.0065006862
 10
2.5851141209
 20
21.0075135249
 10
2.6078320384
 20
21.0070081664
  0
LINE
  5
2B9
100
AcDbEntity
  8
ASSI
100
AcDbLine
 62
250
  6
CONTINUOUS
 10
0.8549616089
 20
21.7059453383
 11
0.7185661829
 21
21.6243833306
  0
LINE
  5
2BA
100
AcDbEntity
  8
ASSI
100
AcDbLine
 62
250
  6
CONTINUOUS
 10
0.9982914999
 20
21.4769743969
 11
0.861896074
 21
21.3954123893
  0
LINE
  5
2BB
100
AcDbEntity
  8
ASSI
100
AcDbLine
 62
250
  6
CONTINUOUS
 10
0.2188969123
 20
20.4364069785
 11
-0.3610431724
 21
20.0896132552
  0
LINE
  5
2BC
100
AcDbEntity
  8
ASSI
100
AcDbLine
 62
250
  6
CONTINUOUS
 10
0.3622268034
 20
20.2074360372
 11
-0.0933148989
 21
19.9350303055
  0
LINE
  5
2BD
100
AcDbEntity
  8
ASSI
100
AcDbLine
 62
250
  6
CONTINUOUS
 10
4.6791188241
 20
22.6589477684
 11
3.4905257184
 21
21.9481905031
  0
LINE
  5
2BE
100
AcDbEntity
  8
ASSI
100
AcDbLine
 62
250
  6
CONTINUOUS
 10
5.5653854722
 20
23.1889192584
 11
6.3060892265
 21
23.6318467601
  0
LINE
  5
2BF
100
AcDbEntity
  8
ASSI
100
AcDbLine
 62
250
  6
CONTINUOUS
 10
4.8224487152
 20
22.4299768271
 11
3.6338556095
 21
21.7192195617
  0
LINE
  5
2C0
100
AcDbEntity
  8
ASSI
100
AcDbLine
 62
250
  6
CONTINUOUS
 10
5.7087153955
 20
22.9599483363
 11
6.4494191176
 21
23.4028758187
  0
LWPOLYLINE
  5
2C1
100
AcDbEntity
  8
ASSI
100
AcDbPolyline
 62
250
  6
CONTINUOUS
 90
7
 70
0
 10
3.2570995833
 20
21.462932
 10
3.2419129735
 20
21.453872054
 10
3.2288624659
 20
21.4440492145
 10
3.2181238961
 20
21.4335958531
 10
3.2098419459
 20
21.4226528381
 10
3.2041281855
 20
21.4113676285
 10
3.2026175035
 20
21.4057182906
  0
LWPOLYLINE
  5
2C2
100
AcDbEntity
  8
ASSI
100
AcDbPolyline
 62
250
  6
CONTINUOUS
 90
13
 70
0
 10
6.4494191176
 20
23.4028758187
 10
6.4536529213
 20
23.4053564494
 10
6.4579193782
 20
23.4077407892
 10
6.4622184885
 20
23.4100288381
 10
6.4665344392
 20
23.4122175813
 10
6.4708830431
 20
23.4143100335
 10
6.4753117386
 20
23.4163152395
 10
6.4798240198
 20
23.4182403494
 10
6.4844163925
 20
23.4200782131
 10
6.4891258119
 20
23.4218164251
 10
6.4939645964
 20
23.4234508503
 10
6.4989204276
 20
23.4249856239
 10
6.5039933054
 20
23.4264207458
  0
LWPOLYLINE
  5
2C3
100
AcDbEntity
  8
ASSI
100
AcDbPolyline
 62
250
  6
CONTINUOUS
 90
10
 70
0
 10
4.8256051669
 20
22.4008701037
 10
4.8441775678
 20
22.4116583051
 10
4.864739079
 20
22.4212273548
 10
4.8869618711
 20
22.4294246853
 10
4.9104916271
 20
22.4361195992
 10
4.9349531923
 20
22.4412053536
 10
4.9599565545
 20
22.4446008617
 10
4.9851030638
 20
22.4462519858
 10
5.0099917876
 20
22.4461324005
 10
5.0342259037
 20
22.4442440123
  0
LINE
  5
2C4
100
AcDbEntity
  8
ASSI
100
AcDbLine
 62
7
  6
CONTINUOUS
 10
5.820675692
 20
23.8642426159
 11
5.8207125118
 21
23.8642638908
  0
LINE
  5
2C5
100
AcDbEntity
  8
ASSI
100
AcDbLine
 62
7
  6
CONTINUOUS
 10
2.9548671597
 20
22.2095606479
 11
5.8207125118
 21
23.8642638908
  0
LINE
  5
2C6
100
AcDbEntity
  8
ASSI
100
AcDbLine
 62
250
  6
CONTINUOUS
 10
3.0549404366
 20
22.1996919857
 11
5.9207173438
 21
23.8543556553
  0
LINE
  5
2C7
100
AcDbEntity
  8
ASSI
100
AcDbLine
 62
250
  6
CONTINUOUS
 10
2.8682958358
 20
18.980711847
 11
3.7556285232
 21
19.4930416887
  0
LWPOLYLINE
  5
2C8
100
AcDbEntity
  8
ASSI
100
AcDbPolyline
 62
250
  6
CONTINUOUS
 90
13
 70
0
 10
6.3060892265
 20
23.6318467601
 10
6.3131880977
 20
23.6359445997
 10
6.3203427405
 20
23.6398955296
 10
6.3275500468
 20
23.6436942444
 10
6.3347766161
 20
23.6473210463
 10
6.3420493658
 20
23.6507864718
 10
6.3494549527
 20
23.6541237594
 10
6.3569930162
 20
23.657322573
 10
6.3646547832
 20
23.6603679623
 10
6.3725123812
 20
23.6632727865
 10
6.3805847993
 20
23.6660250761
 10
6.3888387291
 20
23.6685949956
 10
6.3972659548
 20
23.6709614252
  0
LWPOLYLINE
  5
2C9
100
AcDbEntity
  8
ASSI
100
AcDbPolyline
 62
250
  6
CONTINUOUS
 90
13
 70
0
 10
3.6338556095
 20
21.7192195617
 10
3.599146876
 20
21.6991869445
 10
3.5647615249
 20
21.6805412451
 10
3.530699556
 20
21.6632824636
 10
3.496987188
 20
21.6474466255
 10
3.4635982023
 20
21.6329977053
 10
3.430453943
 20
21.6198276269
 10
3.397562176
 20
21.6079205138
 10
3.3649151353
 20
21.5972922425
 10
3.3324108675
 20
21.5878823667
 10
3.3000153883
 20
21.5796707376
 10
3.2677626819
 20
21.572677504
 10
3.2356527485
 20
21.5669026659
  0
LINE
  5
2CA
100
AcDbEntity
  8
ASSI
100
AcDbLine
 62
7
  6
CONTINUOUS
 10
8.0888457013
 20
23.0807183074
 11
5.7476035468
 21
21.7329224546
  0
LINE
  5
2CB
100
AcDbEntity
  8
ASSI
100
AcDbLine
 62
7
  6
CONTINUOUS
 10
4.9584120518
 20
21.2786041998
 11
3.7505386067
 21
20.5832609914
  0
LWPOLYLINE
  5
2CC
100
AcDbEntity
  8
ASSI
100
AcDbPolyline
 62
250
  6
CONTINUOUS
 90
10
 70
0
 10
2.9431966768
 20
21.3233555116
 10
2.9334685115
 20
21.3177930572
 10
2.9236108144
 20
21.3123764646
 10
2.9136218927
 20
21.3070922635
 10
2.9034716963
 20
21.3019154783
 10
2.893179511
 20
21.2968447874
 10
2.8828236399
 20
21.2918965518
 10
2.872395097
 20
21.2870429389
 10
2.8619005158
 20
21.2822730291
 10
2.8514616839
 20
21.2776163936
  0
LWPOLYLINE
  5
2CD
100
AcDbEntity
  8
ASSI
100
AcDbPolyline
 62
7
  6
CONTINUOUS
 90
10
 70
0
 10
2.9548671598
 20
22.209560648
 10
2.9433224248
 20
22.2029647846
 10
2.8821522009
 20
22.1703388058
 10
2.8221802343
 20
22.1422346404
 10
2.7638293321
 20
22.1187471696
 10
2.7072870248
 20
22.0998283327
 10
2.6526125167
 20
22.0853974247
 10
2.6000690416
 20
22.0754385286
 10
2.5500454212
 20
22.0699120961
 10
2.5420978558
 20
22.0694216377
  0
LWPOLYLINE
  5
2CE
100
AcDbEntity
  8
ASSI
100
AcDbPolyline
 62
250
  6
CONTINUOUS
 90
10
 70
0
 10
3.4905257184
 20
21.9481905031
 10
3.4385334245
 20
21.9186487652
 10
3.3870377858
 20
21.8926600224
 10
3.3361587378
 20
21.8701767405
 10
3.2863292753
 20
21.8512546906
 10
3.237321288
 20
21.8356741369
 10
3.1882797403
 20
21.8231366327
 10
3.1390186495
 20
21.8136836354
 10
3.0899868081
 20
21.8075000301
 10
3.0413169774
 20
21.804670464
  0
LINE
  5
2CF
100
AcDbEntity
  8
ASSI
100
AcDbLine
 62
250
  6
CONTINUOUS
 10
7.9752765224
 20
24.0919991786
 11
8.7269003432
 21
24.5187839058
  0
LINE
  5
2D0
100
AcDbEntity
  8
ASSI
100
AcDbLine
 62
250
  6
CONTINUOUS
 10
8.1128481827
 20
23.8708986276
 11
8.8629559957
 21
24.2968225399
  0
LWPOLYLINE
  5
2D1
100
AcDbEntity
  8
ASSI
100
AcDbPolyline
 62
250
  6
CONTINUOUS
 90
7
 70
0
 10
5.9207173438
 20
23.8543556553
 10
5.9279293795
 20
23.8584373447
 10
5.9351701574
 20
23.8623694999
 10
5.9424365598
 20
23.866147831
 10
5.9496910724
 20
23.8697512333
 10
5.9569648355
 20
23.8731940052
 10
5.9643569788
 20
23.8765171845
  0
LINE
  5
2D2
100
AcDbEntity
  8
ASSI
100
AcDbLine
 62
7
  6
CONTINUOUS
 10
3.7505386067
 20
20.5832609914
 11
3.2815051359
 21
20.3236862802
  0
LINE
  5
2D3
100
AcDbEntity
  8
ASSI
100
AcDbLine
 62
7
  6
CONTINUOUS
 10
2.5515621082
 20
19.9197177744
 11
1.2146413187
 21
19.179832778
  0
LWPOLYLINE
  5
2D4
100
AcDbEntity
  8
ASSI
100
AcDbPolyline
 62
250
  6
CONTINUOUS
 90
8
 70
0
 10
2.9549356046
 20
22.2096002212
 10
2.9575923989
 20
22.2110547899
 10
2.9713166242
 20
22.2163688814
 10
2.9863780026
 20
22.2188052193
 10
3.0025357012
 20
22.2183248463
 10
3.0195313568
 20
22.2149354436
 10
3.0370932072
 20
22.2086912081
 10
3.0549404366
 20
22.1996919857
  0
LWPOLYLINE
  5
2D5
100
AcDbEntity
  8
ASSI
100
AcDbPolyline
 62
250
  6
CONTINUOUS
 90
13
 70
0
 10
4.6791188241
 20
22.6589477684
 10
4.7069129794
 20
22.6740592432
 10
4.7366732498
 20
22.6874202069
 10
4.7683996352
 20
22.6990306596
 10
4.8024573767
 20
22.7089917896
 10
4.8384812332
 20
22.7172024086
 10
4.8753754815
 20
22.723358951
 10
4.9131794179
 20
22.7273694445
 10
4.9518537461
 20
22.7293258614
 10
4.9901848535
 20
22.7292005528
 10
5.0277682026
 20
22.7269843024
 10
5.0650083309
 20
22.7226863266
 10
5.1295953581
 20
22.7115560444
  0
LINE
  5
2D6
100
AcDbEntity
  8
ASSI
100
AcDbLine
 62
7
  6
CONTINUOUS
 10
1.8781033645
 20
19.4429448168
 11
1.2986443228
 21
19.1313304962
  0
LINE
  5
2D7
100
AcDbEntity
  8
ASSI
100
AcDbLine
 62
250
  6
CONTINUOUS
 10
1.9752967043
 20
19.4314938606
 11
1.3557829117
 21
19.0983393911
  0
LWPOLYLINE
  5
2D8
100
AcDbEntity
  8
ASSI
100
AcDbPolyline
 62
250
  6
CONTINUOUS
 90
13
 70
0
 10
4.8224487152
 20
22.4299768262
 10
4.836111281
 20
22.4366967436
 10
4.8510306232
 20
22.4425729432
 10
4.8670780309
 20
22.4475296749
 10
4.8841456147
 20
22.451500948
 10
4.9020640815
 20
22.4544321273
 10
4.9205955657
 20
22.4562770991
 10
4.9395316684
 20
22.457021865
 10
4.9587482693
 20
22.45665939
 10
4.9781240624
 20
22.4551607838
 10
4.9974999185
 20
22.4525130829
 10
5.0166669182
 20
22.4487487326
 10
5.0354246141
 20
22.4438997808
  0
LWPOLYLINE
  5
2D9
100
AcDbEntity
  8
ASSI
100
AcDbPolyline
 62
250
  6
CONTINUOUS
 90
27
 70
0
 10
2.8105574932
 20
21.2596388872
 10
2.800443454
 20
21.255130811
 10
2.7902338842
 20
21.2504555965
 10
2.7798472201
 20
21.2455871113
 10
2.7693259222
 20
21.2405097443
 10
2.7586952787
 20
21.2351049216
 10
2.7478891144
 20
21.2293296915
 10
2.7369275792
 20
21.2231697213
 10
2.7259629496
 20
21.2165286564
 10
2.7150016255
 20
21.2093750805
 10
2.7040285322
 20
21.2016661604
 10
2.6931760449
 20
21.1932668402
 10
2.6824574703
 20
21.1841386644
 10
2.6719003744
 20
21.1742491292
 10
2.6616777025
 20
21.1634588849
 10
2.6517908955
 20
21.1516077911
 10
2.6423576064
 20
21.1388274852
 10
2.6337653228
 20
21.1254281599
 10
2.626194298
 20
21.1113176672
 10
2.6196745631
 20
21.096668056
 10
2.6143672403
 20
21.0821993451
 10
2.610448186
 20
21.068029576
 10
2.6078609279
 20
21.0541516283
 10
2.6063478725
 20
21.0410592988
 10
2.6058030154
 20
21.0289116779
 10
2.6063057678
 20
21.0175631377
 10
2.6078326681
 20
21.0070080802
  0
LINE
  5
2DA
100
AcDbEntity
  8
ASSI
100
AcDbLine
 62
250
  6
CONTINUOUS
 10
2.8514616839
 20
21.2776163936
 11
2.8105574932
 21
21.2596388872
  0
LWPOLYLINE
  5
2DB
100
AcDbEntity
  8
ASSI
100
AcDbPolyline
 62
250
  6
CONTINUOUS
 90
5
 70
0
 10
2.8911305831
 20
22.1190675673
 10
2.9294315071
 20
22.1353759013
 10
2.9696715557
 20
22.1541912779
 10
3.0115265384
 20
22.1755746976
 10
3.0549404366
 20
22.1996919857
  0
LWPOLYLINE
  5
2DC
100
AcDbEntity
  8
ASSI
100
AcDbPolyline
 62
250
  6
CONTINUOUS
 90
6
 70
0
 10
5.9643569788
 20
23.8765171845
 10
5.9718699335
 20
23.8797110184
 10
5.9794921922
 20
23.8827600623
 10
5.9872999177
 20
23.8856817573
 10
5.9953133631
 20
23.8884650354
 10
6.0034977932
 20
23.8910779326
  0
LWPOLYLINE
  5
2DD
100
AcDbEntity
  8
ASSI
100
AcDbPolyline
 62
250
  6
CONTINUOUS
 90
13
 70
0
 10
8.0345262534
 20
23.8289822723
 10
8.0415183916
 20
23.8318045727
 10
8.0484113748
 20
23.8347238534
 10
8.0551992185
 20
23.8377397445
 10
8.061847072
 20
23.8408368582
 10
8.0683790204
 20
23.8440290287
 10
8.0748709176
 20
23.8473619797
 10
8.0813143186
 20
23.8508388832
 10
8.0876908315
 20
23.854459588
 10
8.0940482951
 20
23.8582688232
 10
8.1003857346
 20
23.8622840547
 10
8.1066599717
 20
23.8664933298
 10
8.1128481827
 20
23.8708986276
  0
LINE
  5
2DE
100
AcDbEntity
  8
DRAFT
100
AcDbLine
 62
7
  6
CONTINUOUS
 10
-1.697627545
 20
20.8613403206
 11
-2.5942030172
 21
20.5410825482
  0
LWPOLYLINE
  5
2DF
100
AcDbEntity
  8
ASSI
100
AcDbPolyline
 62
250
  6
CONTINUOUS
 90
3
 70
0
 10
1.8934612737
 20
19.4489134495
 10
1.8819560863
 20
19.4448590822
 10
1.8781033645
 20
19.4429448168
  0
LWPOLYLINE
  5
2E0
100
AcDbEntity
  8
ASSI
100
AcDbPolyline
 62
250
  6
CONTINUOUS
 90
3
 70
0
 10
2.8888592557
 20
21.5767729828
 10
2.8211841619
 20
21.5536419515
 10
2.8060447022
 20
21.548536894
  0
LINE
  5
2E1
100
AcDbEntity
  8
ASSI
100
AcDbLine
 62
250
  6
CONTINUOUS
 10
-5.5324423951
 20
23.6030991376
 11
-5.5324423951
 21
23.2337881481
  0
LINE
  5
2E2
100
AcDbEntity
  8
ASSI
100
AcDbLine
 62
7
  6
CONTINUOUS
 10
-5.4763103551
 20
23.683316545
 11
-5.4763103551
 21
23.3140055555
  0
LINE
  5
2E3
100
AcDbEntity
  8
DRAFT
100
AcDbLine
 62
7
  6
CONTINUOUS
 10
-3.5404911686
 20
23.0593278896
 11
-3.5404911686
 21
22.9792414914
  0
LINE
  5
2E4
100
AcDbEntity
  8
0
100
AcDbLine
 62
7
  6
CONTINUOUS
 10
-3.3564193077
 20
13.3864025073
 11
-3.3564193077
 21
5.4305131529
  0
LINE
  5
2E5
100
AcDbEntity
  8
RACCORDO
100
AcDbLine
 62
7
  6
CONTINUOUS
 10
-3.3564193077
 20
13.3864025073
 11
-3.3564193077
 21
5.4305131529
  0
LINE
  5
2E6
100
AcDbEntity
  8
0
100
AcDbLine
 62
7
  6
CONTINUOUS
 10
-3.3564193077
 20
-11.1077057965
 11
-3.3564193077
 21
-19.0635951508
  0
LINE
  5
2E7
100
AcDbEntity
  8
RACCORDO
100
AcDbLine
 62
7
  6
CONTINUOUS
 10
-3.3564193077
 20
-11.1077057965
 11
-3.3564193077
 21
-19.0635951508
  0
LWPOLYLINE
  5
2E8
100
AcDbEntity
  8
ASSI
100
AcDbPolyline
 62
250
  6
CONTINUOUS
 90
9
 70
0
 10
-5.4763103551
 20
23.3140055555
 10
-5.4764781107
 20
23.3092768235
 10
-5.4784066414
 20
23.297329949
 10
-5.4824638447
 20
23.2855811372
 10
-5.4886034058
 20
23.2741444828
 10
-5.4967651459
 20
23.2631314682
 10
-5.5068676455
 20
23.25265785
 10
-5.5188021756
 20
23.2428411193
 10
-5.5324423951
 20
23.2337881481
  0
LWPOLYLINE
  5
2E9
100
AcDbEntity
  8
ASSI
100
AcDbPolyline
 62
250
  6
CONTINUOUS
 90
9
 70
0
 10
-5.4763103652
 20
23.683280018
 10
-5.4764782672
 20
23.6785856086
 10
-5.4784021512
 20
23.6666587132
 10
-5.4824586305
 20
23.6549039838
 10
-5.4886060716
 20
23.6434512877
 10
-5.4967771056
 20
23.632428389
 10
-5.5068823012
 20
23.6219553468
 10
-5.5188135995
 20
23.6121436804
 10
-5.5324423951
 20
23.6030991376
  0
LINE
  5
2EA
100
AcDbEntity
  8
ASSI
100
AcDbLine
 62
250
  6
CONTINUOUS
 10
-2.0188110037
 20
23.4648199551
 11
-2.0191360493
 21
23.4589618319
  0
LINE
  5
2EB
100
AcDbEntity
  8
ASSI
100
AcDbLine
 62
250
  6
CONTINUOUS
 10
0.806679377
 20
24.9036025537
 11
0.8097679753
 21
24.9211130625
  0
LWPOLYLINE
  5
2EC
100
AcDbEntity
  8
ASSI
100
AcDbPolyline
 62
250
  6
CONTINUOUS
 90
13
 70
0
 10
-1.8547290492
 20
23.4715848175
 10
-1.8491392127
 20
23.4957427209
 10
-1.8459121461
 20
23.5206866254
 10
-1.8450997899
 20
23.5460151027
 10
-1.8467152229
 20
23.5713205242
 10
-1.8507324531
 20
23.5961956503
 10
-1.8570868449
 20
23.6202401821
 10
-1.8656761493
 20
23.6430671563
 10
-1.8763621471
 20
23.6643091959
 10
-1.8889728866
 20
23.6836244455
 10
-1.9033054351
 20
23.7007020384
 10
-1.9191291387
 20
23.7152671051
 10
-1.9361893447
 20
23.7270852141
  0
LWPOLYLINE
  5
2ED
100
AcDbEntity
  8
ASSI
100
AcDbPolyline
 62
250
  6
CONTINUOUS
 90
13
 70
0
 10
-0.2731695684
 20
23.5099472123
 10
-0.2675796978
 20
23.5341053175
 10
-0.2643526379
 20
23.5590494107
 10
-0.2635403233
 20
23.5843780534
 10
-0.265155827
 20
23.6096836184
 10
-0.26917315
 20
23.6345588497
 10
-0.2755276393
 20
23.658603417
 10
-0.2841170288
 20
23.6814303584
 10
-0.2948030848
 20
23.7026723077
 10
-0.3074138309
 20
23.721987407
 10
-0.3217463158
 20
23.7390648082
 10
-0.3375698791
 20
23.7536296756
 10
-0.3546298638
 20
23.7654476089
  0
LWPOLYLINE
  5
2EE
100
AcDbEntity
  8
ASSI
100
AcDbPolyline
 62
250
  6
CONTINUOUS
 90
13
 70
0
 10
0.7734316754
 20
23.6882223586
 10
0.7678416282
 20
23.6640632723
 10
0.7646145992
 20
23.6391183574
 10
0.7638024674
 20
23.6137891055
 10
0.7654182429
 20
23.5884831896
 10
0.7694358611
 20
23.5636078654
 10
0.7757906166
 20
23.5395634196
 10
0.7843801899
 20
23.5167367987
 10
0.7950663047
 20
23.4954953225
 10
0.8076769812
 20
23.4761807522
 10
0.8220092656
 20
23.4591038768
 10
0.8378324807
 20
23.4445394978
 10
0.8548919709
 20
23.432721962
  0
LWPOLYLINE
  5
2EF
100
AcDbEntity
  8
ASSI
100
AcDbPolyline
 62
250
  6
CONTINUOUS
 90
16
 70
0
 10
0.3247059784
 20
20.5983916454
 10
0.3207472547
 20
20.5834248906
 10
0.3161566526
 20
20.5689883456
 10
0.3110154544
 20
20.5551445474
 10
0.3054114288
 20
20.5419619284
 10
0.2994110177
 20
20.529462771
 10
0.2930525082
 20
20.5176286012
 10
0.2864534001
 20
20.5065699378
 10
0.2796199525
 20
20.4962140856
 10
0.2723874624
 20
20.4862969846
 10
0.2648178539
 20
20.4768843248
 10
0.2569126615
 20
20.4679993471
 10
0.2483736633
 20
20.4594102331
 10
0.2391114564
 20
20.451147264
 10
0.2292700871
 20
20.4434349978
 10
0.2188970399
 20
20.4364069049
  0
LWPOLYLINE
  5
2F0
100
AcDbEntity
  8
ASSI
100
AcDbPolyline
 62
250
  6
CONTINUOUS
 90
14
 70
0
 10
0.8097679753
 20
24.9211130625
 10
0.8148780214
 20
24.93866301
 10
0.8219535232
 20
24.9560601113
 10
0.8309169571
 20
24.9731137646
 10
0.8416701218
 20
24.989637138
 10
0.8540952063
 20
25.0054492015
 10
0.8680560769
 20
25.0203767113
 10
0.8833997754
 20
25.034256119
 10
0.8999581923
 20
25.0469353582
 10
0.9175499111
 20
25.0582755135
 10
0.9359821965
 20
25.0681523416
 10
0.9550531021
 20
25.0764576296
 10
0.9745536825
 20
25.0831003816
 10
0.9942702854
 20
25.0880078174
  0
LINE
  5
2F1
100
AcDbEntity
  8
ASSI
100
AcDbLine
 62
250
  6
CONTINUOUS
 10
0.5960916958
 20
21.4720210691
 11
0.3247067017
 21
20.5983912278
  0
LINE
  5
2F2
100
AcDbEntity
  8
ASSI
100
AcDbLine
 62
250
  6
CONTINUOUS
 10
0.861896074
 20
21.3954123893
 11
0.5905110799
 21
20.521782548
  0
LWPOLYLINE
  5
2F3
100
AcDbEntity
  8
ASSI
100
AcDbPolyline
 62
250
  6
CONTINUOUS
 90
16
 70
0
 10
0.5905110799
 20
20.521782548
 10
0.5805182933
 20
20.4927252358
 10
0.5696834971
 20
20.4648796649
 10
0.5580066914
 20
20.4382458355
 10
0.5453725442
 20
20.4127897139
 10
0.5318963875
 20
20.3885453337
 10
0.5179242171
 20
20.3656147956
 10
0.5036263099
 20
20.3441568365
 10
0.4888323891
 20
20.3240127194
 10
0.4733776203
 20
20.3048083343
 10
0.4573631597
 20
20.2864609085
 10
0.4406878511
 20
20.2690532146
 10
0.4228833915
 20
20.2524594597
 10
0.4037936798
 20
20.2366377131
 10
0.3835748171
 20
20.2216299056
 10
0.3622268034
 20
20.2074360372
  0
LINE
  5
2F4
100
AcDbEntity
  8
ASSI
100
AcDbLine
 62
250
  6
CONTINUOUS
 10
3.5033784118
 20
17.7913590889
 11
3.6439003871
 21
17.9354828322
  0
LINE
  5
2F5
100
AcDbEntity
  8
ASSI
100
AcDbLine
 62
7
  6
CONTINUOUS
 10
3.5275858061
 20
17.7574693836
 11
3.6432317967
 21
17.8760795372
  0
LINE
  5
2F6
100
AcDbEntity
  8
ASSI
100
AcDbLine
 62
7
  6
CONTINUOUS
 10
8.8938311203
 20
23.8715099853
 11
8.1659923779
 21
23.1388240628
  0
LWPOLYLINE
  5
2F7
100
AcDbEntity
  8
0
100
AcDbPolyline
 62
250
  6
CONTINUOUS
 90
16
 70
0
 10
0.9062064826
 20
16.5817855681
 10
0.8699253114
 20
16.5575770423
 10
0.8341265665
 20
16.5293580932
 10
0.7991895129
 20
16.4974276826
 10
0.7654842865
 20
16.4621240928
 10
0.7333679728
 20
16.4238213432
 10
0.7031808239
 20
16.3829252271
 10
0.6752426536
 20
16.3398690132
 10
0.649849449
 20
16.2951088546
 10
0.6272702349
 20
16.2491189567
 10
0.6077442235
 20
16.2023865529
 10
0.5914782809
 20
16.1554067438
 10
0.5786447343
 20
16.1086772508
 10
0.569379547
 20
16.0626931433
 10
0.5637808777
 20
16.0179415938
 10
0.5619080408
 20
15.9748967165
  0
LWPOLYLINE
  5
2F8
100
AcDbEntity
  8
ASSI
100
AcDbPolyline
 62
250
  6
CONTINUOUS
 90
9
 70
0
 10
3.6439003871
 20
18.3047938218
 10
3.6575553003
 20
18.3138576362
 10
3.669502598
 20
18.323688817
 10
3.6796144385
 20
18.3341804646
 10
3.6877787018
 20
18.3452119469
 10
3.6939154292
 20
18.356669905
 10
3.6979653896
 20
18.3684517573
 10
3.6998768382
 20
18.3804571337
 10
3.7000324031
 20
18.3849546408
  0
LWPOLYLINE
  5
2F9
100
AcDbEntity
  8
ASSI
100
AcDbPolyline
 62
250
  6
CONTINUOUS
 90
7
 70
0
 10
3.6439003871
 20
17.9354828322
 10
3.6575067517
 20
17.9445108302
 10
3.6694217883
 20
17.954303439
 10
3.6795175203
 20
17.9647554836
 10
3.6876857166
 20
17.9757550284
 10
3.6938383207
 20
17.9871836368
 10
3.6979089826
 20
17.9989175338
  0
LINE
  5
2FA
100
AcDbEntity
  8
ASSI
100
AcDbLine
 62
7
  6
CONTINUOUS
 10
3.6553859931
 20
18.904518602
 11
4.4859141668
 21
19.4393089294
  0
LINE
  5
2FB
100
AcDbEntity
  8
DRAFT
100
AcDbLine
 62
7
  6
CONTINUOUS
 10
9.7017427208
 20
22.1004139852
 11
6.8065054553
 21
20.2746198841
  0
LINE
  5
2FC
100
AcDbEntity
  8
RACCORDO
100
AcDbLine
 62
250
  6
CONTINUOUS
 10
5.493130604
 20
17.3577584213
 11
7.9048666459
 21
18.821342204
  0
LINE
  5
2FD
100
AcDbEntity
  8
RACCORDO
100
AcDbLine
 62
7
  6
CONTINUOUS
 10
5.6023237453
 20
17.1799711473
 11
7.9108789327
 21
18.5804255261
  0
LINE
  5
2FE
100
AcDbEntity
  8
ASSI
100
AcDbLine
 62
7
  6
CONTINUOUS
 10
7.3355931365
 20
18.1349972149
 11
5.6450696244
 21
17.1103726979
  0
LINE
  5
2FF
100
AcDbEntity
  8
RACCORDO
100
AcDbLine
 62
250
  6
CONTINUOUS
 10
6.6527306392
 20
19.9505586232
 11
6.7037633855
 21
19.9801928268
  0
LINE
  5
300
100
AcDbEntity
  8
RACCORDO
100
AcDbLine
 62
250
  6
CONTINUOUS
 10
10.0292896018
 20
21.9112925212
 11
10.3055741738
 21
22.0717281991
  0
LINE
  5
301
100
AcDbEntity
  8
ASSI
100
AcDbLine
 62
250
  6
CONTINUOUS
 10
3.1507379538
 20
18.8176333079
 11
3.8968560664
 21
19.2484284087
  0
LINE
  5
302
100
AcDbEntity
  8
ASSI
100
AcDbLine
 62
250
  6
CONTINUOUS
 10
6.0325266373
 20
20.308656641
 11
10.5484938489
 21
22.9161284636
  0
LINE
  5
303
100
AcDbEntity
  8
RACCORDO
100
AcDbLine
 62
7
  6
CONTINUOUS
 10
3.3278230945
 20
18.715386567
 11
3.6553859931
 21
18.904518602
  0
LINE
  5
304
100
AcDbEntity
  8
ASSI
100
AcDbLine
 62
250
  6
CONTINUOUS
 10
3.5025005701
 20
18.5497054889
 11
2.9042430546
 21
18.2042779113
  0
LINE
  5
305
100
AcDbEntity
  8
ASSI
100
AcDbLine
 62
250
  6
CONTINUOUS
 10
6.3860087958
 20
20.1045604729
 11
8.1728472031
 21
21.1362621173
  0
LINE
  5
306
100
AcDbEntity
  8
ASSI
100
AcDbLine
 62
250
  6
CONTINUOUS
 10
9.7722184337
 20
22.0597221918
 11
10.3055741738
 21
22.367676169
  0
LINE
  5
307
100
AcDbEntity
  8
ASSI
100
AcDbLine
 62
250
  6
CONTINUOUS
 10
3.6439003871
 20
18.3047938218
 11
3.1870287814
 21
18.0410009768
  0
LINE
  5
308
100
AcDbEntity
  8
0
100
AcDbLine
 62
250
  6
CONTINUOUS
 10
3.3102597597
 20
17.9698489545
 11
0.9062064826
 21
16.5817855681
  0
LINE
  5
309
100
AcDbEntity
  8
0
100
AcDbLine
 62
250
  6
CONTINUOUS
 10
3.6636919963
 20
17.3576863641
 11
1.2596387193
 21
15.9696229777
  0
LINE
  5
30A
100
AcDbEntity
  8
DRAFT
100
AcDbLine
 62
7
  6
CONTINUOUS
 10
14.0023830365
 20
23.2285919604
 11
10.8713308388
 21
21.4207554555
  0
LINE
  5
30B
100
AcDbEntity
  8
DRAFT
100
AcDbLine
 62
7
  6
CONTINUOUS
 10
11.2961490073
 20
20.8493386668
 11
14.0023830365
 21
22.4121216836
  0
LINE
  5
30C
100
AcDbEntity
  8
DRAFT
100
AcDbLine
 62
7
  6
CONTINUOUS
 10
7.3374651223
 20
18.1319086337
 11
7.9617541856
 21
18.4922956469
  0
LINE
  5
30D
100
AcDbEntity
  8
DRAFT
100
AcDbLine
 62
7
  6
CONTINUOUS
 10
10.8659413158
 20
21.4282203072
 11
7.5531116786
 21
19.5367140153
  0
LINE
  5
30E
100
AcDbEntity
  8
ASSI
100
AcDbLine
 62
250
  6
CONTINUOUS
 10
6.2186602675
 20
19.1581984773
 11
7.1318712305
 21
19.6739088509
  0
LINE
  5
30F
100
AcDbEntity
  8
ASSI
100
AcDbLine
 62
250
  6
CONTINUOUS
 10
6.8616682322
 20
18.4945566873
 11
7.7836980724
 21
19.0147357542
  0
LINE
  5
310
100
AcDbEntity
  8
RACCORDO
100
AcDbLine
 62
250
  6
CONTINUOUS
 10
3.5297677583
 20
17.7541631205
 11
6.2186010631
 21
19.1582326611
  0
LINE
  5
311
100
AcDbEntity
  8
RACCORDO
100
AcDbLine
 62
250
  6
CONTINUOUS
 10
3.6636919963
 20
16.8332814275
 11
6.8616682322
 21
18.4945566873
  0
LINE
  5
312
100
AcDbEntity
  8
DRAFT
100
AcDbLine
 62
7
  6
CONTINUOUS
 10
3.6636919963
 20
15.126107433
 11
3.9160100488
 21
15.2524508914
  0
LWPOLYLINE
  5
313
100
AcDbEntity
  8
0
100
AcDbPolyline
 62
250
  6
CONTINUOUS
 90
16
 70
0
 10
1.2596387193
 20
15.9696229777
 10
1.2204144729
 20
15.9502518211
 10
1.177940496
 20
15.9333186778
 10
1.1326694112
 20
15.9190039961
 10
1.0850779884
 20
15.9074591422
 10
1.0356786245
 20
15.8988089967
 10
0.9850157421
 20
15.8931472116
 10
0.9336421522
 20
15.8905311916
 10
0.8820931443
 20
15.8909838848
 10
0.8308986306
 20
15.8944990553
 10
0.7805334385
 20
15.9010506167
 10
0.7316065462
 20
15.9105659885
 10
0.6848153882
 20
15.9228909782
 10
0.6406849595
 20
15.9378422661
 10
0.5995853664
 20
15.9552471581
 10
0.5619080408
 20
15.9748967165
  0
LWPOLYLINE
  5
314
100
AcDbEntity
  8
DRAFT
100
AcDbPolyline
 62
7
  6
CONTINUOUS
 90
29
 70
0
 10
11.3371854699
 20
20.8013955318
 10
11.3932125797
 20
20.8192766548
 10
11.5300092041
 20
20.8560527031
 10
11.6702718881
 20
20.8872041086
 10
11.814010716
 20
20.9126813209
 10
11.9612156035
 20
20.9325338904
 10
12.110154645
 20
20.9465193118
 10
12.2611268929
 20
20.9545661922
 10
12.4138332948
 20
20.9567459244
 10
12.5656447875
 20
20.9530301817
 10
12.7162140471
 20
20.9433562181
 10
12.8658883976
 20
20.9277867796
 10
13.0130807479
 20
20.9064817772
 10
13.1581208203
 20
20.8792944944
 10
13.3006788926
 20
20.8463716478
 10
13.4381787062
 20
20.8083132986
 10
13.5701846403
 20
20.7651591697
 10
13.6971323159
 20
20.7168695382
 10
13.8177523377
 20
20.6639252974
 10
13.932284723
 20
20.6061038508
 10
14.0404894546
 20
20.543627795
 10
14.1403770852
 20
20.4776458116
 10
14.2315595069
 20
20.4082979761
 10
14.3144248276
 20
20.3354442131
 10
14.3881479237
 20
20.2598129784
 10
14.4527910764
 20
20.1811565122
 10
14.5082920045
 20
20.0997225743
 10
14.5536387404
 20
20.0169829
 10
14.5828770322
 20
19.9468107236
  0
LINE
  5
315
100
AcDbEntity
  8
RACCORDO
100
AcDbLine
 62
250
  6
CONTINUOUS
 10
4.4075358937
 20
-17.8629030081
 11
4.41540501
 21
-17.8765327174
  0
LINE
  5
316
100
AcDbEntity
  8
ASSI
100
AcDbLine
 62
7
  6
CONTINUOUS
 10
-2.0191360493
 20
23.4589618319
 11
-2.0191302338
 21
23.4588986721
  0
LINE
  5
317
100
AcDbEntity
  8
ASSI
100
AcDbLine
 62
250
  6
CONTINUOUS
 10
-1.8450397826
 20
23.3648464564
 11
-1.8547290492
 21
23.4715848175
  0
LWPOLYLINE
  5
318
100
AcDbEntity
  8
0
100
AcDbPolyline
 62
250
  6
CONTINUOUS
 90
9
 70
0
 10
0.5619080408
 20
-26.1768755658
 10
0.5637808777
 20
-26.217757738
 10
0.569379547
 20
-26.2560440846
 10
0.5786447343
 20
-26.291328986
 10
0.5914782809
 20
-26.3232386211
 10
0.6077442235
 20
-26.3514349274
 10
0.6272702349
 20
-26.3756191827
 10
0.649849449
 20
-26.3955351701
 10
0.6654493514
 20
-26.4057439963
  0
LINE
  5
319
100
AcDbEntity
  8
DRAFT
100
AcDbLine
 62
250
  6
CONTINUOUS
 10
-1.6148570239
 20
24.7241601227
 11
-1.6148570239
 21
24.8301842425
  0
LINE
  5
31A
100
AcDbEntity
  8
DRAFT
100
AcDbLine
 62
250
  6
CONTINUOUS
 10
-1.0643620689
 20
24.441403593
 11
-1.0643620689
 21
24.8191601475
  0
LINE
  5
31B
100
AcDbEntity
  8
0
100
AcDbLine
 62
250
  6
CONTINUOUS
 10
0.5619080408
 20
15.9748967165
 11
0.5619080408
 21
-26.1768755658
  0
LINE
  5
31C
100
AcDbEntity
  8
DRAFT
100
AcDbLine
 62
7
  6
CONTINUOUS
 10
0.6638420151
 20
27.0439291563
 11
0.6638420151
 21
27.003151128
  0
LINE
  5
31D
100
AcDbEntity
  8
ASSI
100
AcDbLine
 62
7
  6
CONTINUOUS
 10
0.7772066098
 20
24.9822993956
 11
0.7772066098
 21
24.8500311891
  0
LINE
  5
31E
100
AcDbEntity
  8
0
100
AcDbLine
 62
250
  6
CONTINUOUS
 10
1.2596387193
 20
15.9696229777
 11
1.2596387193
 21
-26.1821493045
  0
LINE
  5
31F
100
AcDbEntity
  8
ASSI
100
AcDbLine
 62
250
  6
CONTINUOUS
 10
0.8048826942
 20
24.8597325145
 11
0.8056460533
 21
24.8863233534
  0
LWPOLYLINE
  5
320
100
AcDbEntity
  8
ASSI
100
AcDbPolyline
 62
7
  6
CONTINUOUS
 90
22
 70
0
 10
0.777206614
 20
24.9822993956
 10
0.778843943
 20
25.0136044421
 10
0.7838890237
 20
25.0453450444
 10
0.7925096773
 20
25.0771744434
 10
0.8048017281
 20
25.1086815936
 10
0.8208315355
 20
25.1395362113
 10
0.84072188
 20
25.169538012
 10
0.8647034969
 20
25.1985598109
 10
0.8926500056
 20
25.2260480495
 10
0.924103865
 20
25.2513769298
 10
0.959249258
 20
25.2745686044
 10
0.9978077352
 20
25.2952882471
 10
1.0382877151
 20
25.3128182103
 10
1.0800702157
 20
25.3271650147
 10
1.1232762436
 20
25.3385675719
 10
1.167174569
 20
25.3469798344
 10
1.2112759125
 20
25.3524795792
 10
1.2555690147
 20
25.3551901285
 10
1.2999057221
 20
25.3551573952
 10
1.3440784458
 20
25.3523918333
 10
1.3878490534
 20
25.3468834374
 10
1.4309857383
 20
25.3386018574
  0
LINE
  5
321
100
AcDbEntity
  8
ASSI
100
AcDbLine
 62
250
  6
CONTINUOUS
 10
0.8056460701
 20
24.8863233332
 11
0.806679377
 21
24.9036025537
  0
LWPOLYLINE
  5
322
100
AcDbEntity
  8
ASSI
100
AcDbPolyline
 62
250
  6
CONTINUOUS
 90
13
 70
0
 10
3.1618140321
 20
25.3476193247
 10
3.1644095865
 20
25.3712989078
 10
3.1646999906
 20
25.3957689329
 10
3.1626805898
 20
25.4206372023
 10
3.1583837502
 20
25.4455051354
 10
3.1518783402
 20
25.4699741569
 10
3.1432686262
 20
25.493652085
 10
3.1326926018
 20
25.5161594175
 10
3.1203197762
 20
25.5371354139
 10
3.1063484569
 20
25.5562438774
 10
3.0910025719
 20
25.5731785436
 10
3.0745280801
 20
25.5876679889
 10
3.0571890293
 20
25.599479981
  0
LWPOLYLINE
  5
323
100
AcDbEntity
  8
ASSI
100
AcDbPolyline
 62
250
  6
CONTINUOUS
 90
10
 70
0
 10
3.1324391069
 20
21.6120431595
 10
3.1290134688
 20
21.5938744883
 10
3.1269658114
 20
21.5757776518
 10
3.1263144179
 20
21.55791422
 10
3.1270651069
 20
21.540443679
 10
3.1292111764
 20
21.523522008
 10
3.1327334647
 20
21.5073002863
 10
3.1376005255
 20
21.4919233436
 10
3.143768908
 20
21.4775284667
 10
3.1511835414
 20
21.4642441753
  0
LWPOLYLINE
  5
324
100
AcDbEntity
  8
ASSI
100
AcDbPolyline
 62
250
  6
CONTINUOUS
 90
13
 70
0
 10
1.0881103799
 20
21.5056916085
 10
1.0928840918
 20
21.5294968605
 10
1.0953947568
 20
21.553942022
 10
1.0956039827
 20
21.5786535686
 10
1.0935085433
 20
21.6032539009
 10
1.0891404295
 20
21.627367104
 10
1.0825663646
 20
21.6506246931
 10
1.07388678
 20
21.6726712647
 10
1.0632342864
 20
21.693169907
 10
1.0507716562
 20
21.7118073435
 10
1.0366893232
 20
21.7282987511
 10
1.0212024665
 20
21.742392108
 10
1.0045477348
 20
21.7538720282
  0
LWPOLYLINE
  5
325
100
AcDbEntity
  8
ASSI
100
AcDbPolyline
 62
250
  6
CONTINUOUS
 90
5
 70
0
 10
5.656781439
 20
22.8965072032
 10
5.6614211114
 20
22.9085171064
 10
5.6678058182
 20
22.9201178257
 10
5.6758395429
 20
22.9311558415
 10
5.6854176541
 20
22.941522039
  0
LWPOLYLINE
  5
326
100
AcDbEntity
  8
ASSI
100
AcDbPolyline
 62
250
  6
CONTINUOUS
 90
4
 70
0
 10
5.6567827829
 20
22.8755707585
 10
5.6604299165
 20
22.8845870703
 10
5.6685706078
 20
22.8968136819
 10
5.6796684572
 20
22.9085409
  0
LINE
  5
327
100
AcDbEntity
  8
DRAFT
100
AcDbLine
 62
7
  6
CONTINUOUS
 10
4.1913276898
 20
12.2354416538
 11
4.6881606064
 21
13.0901485028
  0
LINE
  5
328
100
AcDbEntity
  8
DRAFT
100
AcDbLine
 62
7
  6
CONTINUOUS
 10
3.6636919963
 20
11.8442490394
 11
4.0510063744
 21
12.0837700606
  0
LWPOLYLINE
  5
329
100
AcDbEntity
  8
RACCORDO
100
AcDbPolyline
 62
250
  6
CONTINUOUS
 90
11
 70
0
 10
17.9893238202
 20
19.1517655628
 10
18.0163769143
 20
19.1681455659
 10
18.0409121032
 20
19.1835403245
 10
18.0627446425
 20
19.1978342935
 10
18.081707166
 20
19.2109183166
 10
18.0976527309
 20
19.2226912107
 10
18.1104605856
 20
19.2330637344
 10
18.1200354266
 20
19.2419585951
 10
18.1263052263
 20
19.2493088988
 10
18.1292227158
 20
19.2550593362
 10
18.129006547
 20
19.2587461195
  0
LWPOLYLINE
  5
32A
100
AcDbEntity
  8
RACCORDO
100
AcDbPolyline
 62
7
  6
CONTINUOUS
 90
7
 70
0
 10
16.8963507302
 20
21.1600031014
 10
16.9150033827
 20
21.1710839471
 10
16.9321056121
 20
21.182972265
 10
16.9476574183
 20
21.195668055
 10
16.9616588013
 20
21.2091713171
 10
16.9741097612
 20
21.2234820514
 10
16.9850102979
 20
21.2386002578
  0
LINE
  5
32B
100
AcDbEntity
  8
DRAFT
100
AcDbLine
 62
7
  6
CONTINUOUS
 10
12.997501508
 20
19.958821381
 11
12.6646125979
 21
19.7611558143
  0
LINE
  5
32C
100
AcDbEntity
  8
RACCORDO
100
AcDbLine
 62
250
  6
CONTINUOUS
 10
7.7540837689
 20
13.3044831898
 11
3.6636919963
 21
10.8876397401
  0
LINE
  5
32D
100
AcDbEntity
  8
RACCORDO
100
AcDbLine
 62
250
  6
CONTINUOUS
 10
7.8322771148
 20
13.0033008116
 11
3.6636919963
 21
10.5410164096
  0
LINE
  5
32E
100
AcDbEntity
  8
RACCORDO
100
AcDbLine
 62
250
  6
CONTINUOUS
 10
17.9893238202
 20
19.1517655628
 11
7.7936801368
 21
13.1966231854
  0
LINE
  5
32F
100
AcDbEntity
  8
RACCORDO
100
AcDbLine
 62
250
  6
CONTINUOUS
 10
18.0376070456
 20
18.8344208802
 11
7.8709773444
 21
12.8972319341
  0
LINE
  5
330
100
AcDbEntity
  8
DRAFT
100
AcDbLine
 62
7
  6
CONTINUOUS
 10
3.6636919963
 20
14.2151034699
 11
4.6881606064
 21
14.8066208368
  0
LINE
  5
331
100
AcDbEntity
  8
RACCORDO
100
AcDbLine
 62
250
  6
CONTINUOUS
 10
4.41540501
 20
11.8800535379
 11
3.6636919963
 21
11.4461077526
  0
LINE
  5
332
100
AcDbEntity
  8
RACCORDO
100
AcDbLine
 62
250
  6
CONTINUOUS
 10
4.3733735371
 20
11.6251586441
 11
3.6636919963
 21
11.2154766141
  0
LINE
  5
333
100
AcDbEntity
  8
RACCORDO
100
AcDbLine
 62
7
  6
CONTINUOUS
 10
16.8963507302
 20
21.1600031014
 11
13.696939152
 21
19.3934632064
  0
LINE
  5
334
100
AcDbEntity
  8
RACCORDO
100
AcDbLine
 62
7
  6
CONTINUOUS
 10
13.9600644981
 20
19.6118822977
 11
16.9850102979
 21
21.2386002578
  0
LINE
  5
335
100
AcDbEntity
  8
ASSI
100
AcDbLine
 62
250
  6
CONTINUOUS
 10
2.6824364063
 20
20.1861507918
 11
2.7058996846
 21
19.9507745923
  0
LWPOLYLINE
  5
336
100
AcDbEntity
  8
ASSI
100
AcDbPolyline
 62
250
  6
CONTINUOUS
 90
13
 70
0
 10
0.2407544992
 20
23.6698197711
 10
0.2386912529
 20
23.6915225033
 10
0.2344026791
 20
23.7140453624
 10
0.2279573865
 20
23.7370281833
 10
0.2194584718
 20
23.7601034472
 10
0.2090418624
 20
23.7829021809
 10
0.1968741357
 20
23.8050598555
 10
0.1831498764
 20
23.8262221733
 10
0.1680885491
 20
23.8460507669
 10
0.1519309708
 20
23.8642286235
 10
0.1349354954
 20
23.8804651032
 10
0.1173738882
 20
23.894500594
 10
0.099526956
 20
23.9061106894
  0
LWPOLYLINE
  5
337
100
AcDbEntity
  8
ASSI
100
AcDbPolyline
 62
250
  6
CONTINUOUS
 90
13
 70
0
 10
0.5618158829
 20
23.6223924815
 10
0.5638790561
 20
23.6006902585
 10
0.5681674815
 20
23.5781678291
 10
0.5746125868
 20
23.5551853292
 10
0.5831113142
 20
23.5321102512
 10
0.5935277681
 20
23.509311568
 10
0.6056953884
 20
23.4871538328
 10
0.6194196137
 20
23.46599135
 10
0.6344809921
 20
23.4461625098
 10
0.6506386907
 20
23.4279843774
 10
0.6676343464
 20
23.4117476231
 10
0.6851961967
 20
23.397711874
 10
0.7030434261
 20
23.3861015632
  0
LWPOLYLINE
  5
338
100
AcDbEntity
  8
ASSI
100
AcDbPolyline
 62
250
  6
CONTINUOUS
 90
13
 70
0
 10
3.1065314064
 20
25.3244834407
 10
3.1044682332
 20
25.3461856636
 10
3.1001798078
 20
25.368708093
 10
3.0937347025
 20
25.391690593
 10
3.0852359751
 20
25.414765671
 10
3.0748195212
 20
25.4375643542
 10
3.0626519009
 20
25.4597220894
 10
3.0489276756
 20
25.4808845722
 10
3.0338662972
 20
25.5007134124
 10
3.0177085986
 20
25.5188915447
 10
3.0007129429
 20
25.5351282991
 10
2.9831510926
 20
25.5491640482
 10
2.9653038632
 20
25.560774359
  0
LINE
  5
339
100
AcDbEntity
  8
ASSI
100
AcDbLine
 62
250
  6
CONTINUOUS
 10
2.6571077059
 20
20.4523031406
 11
2.6824364063
 21
20.1861507918
  0
LINE
  5
33A
100
AcDbEntity
  8
ASSI
100
AcDbLine
 62
250
  6
CONTINUOUS
 10
2.6296416167
 20
20.755381774
 11
2.6571077059
 21
20.4523031406
  0
LINE
  5
33B
100
AcDbEntity
  8
ASSI
100
AcDbLine
 62
250
  6
CONTINUOUS
 10
2.6078320384
 20
21.0070081667
 11
2.6296416167
 21
20.755381774
  0
LWPOLYLINE
  5
33C
100
AcDbEntity
  8
ASSI
100
AcDbPolyline
 62
250
  6
CONTINUOUS
 90
5
 70
0
 10
0.7772066098
 20
24.9822993956
 10
0.7790185743
 20
24.957743919
 10
0.7843922119
 20
24.9335316179
 10
0.7932892282
 20
24.90966789
 10
0.8056460533
 20
24.8863233534
  0
LWPOLYLINE
  5
33D
100
AcDbEntity
  8
0
100
AcDbPolyline
 62
250
  6
CONTINUOUS
 90
16
 70
0
 10
1.2596387193
 20
15.9696229777
 10
1.2567487716
 20
16.0129998998
 10
1.2501000707
 20
16.0582052954
 10
1.239765878
 20
16.104741281
 10
1.2258582265
 20
16.1521008538
 10
1.2085313433
 20
16.1997569641
 10
1.1879838278
 20
16.2471682197
 10
1.1644507009
 20
16.2938029698
 10
1.1381895211
 20
16.339160097
 10
1.1094820485
 20
16.382756408
 10
1.078599142
 20
16.4241695542
 10
1.0459200105
 20
16.4628807713
 10
1.0119401938
 20
16.4983316886
 10
0.9770920129
 20
16.5301344852
 10
0.9417190446
 20
16.5580366612
 10
0.9062064778
 20
16.5817855653
  0
LWPOLYLINE
  5
33E
100
AcDbEntity
  8
ASSI
100
AcDbPolyline
 62
250
  6
CONTINUOUS
 90
10
 70
0
 10
3.2570995847
 20
21.4629320009
 10
3.2564430682
 20
21.4759508732
 10
3.2553524946
 20
21.4886027988
 10
3.2538278639
 20
21.5008877777
 10
3.2518659217
 20
21.5128054064
 10
3.2494699225
 20
21.5243560883
 10
3.2466496292
 20
21.5355410341
 10
3.2434082963
 20
21.5463606474
 10
3.2397426694
 20
21.5568145247
 10
3.2356527485
 20
21.5669026659
  0
LWPOLYLINE
  5
33F
100
AcDbEntity
  8
ASSI
100
AcDbPolyline
 62
250
  6
CONTINUOUS
 90
16
 70
0
 10
3.6439003871
 20
18.3047938218
 10
3.6433619386
 20
18.3225019136
 10
3.6412442756
 20
18.3408987643
 10
3.6375707235
 20
18.3597816788
 10
3.6323810186
 20
18.3789449789
 10
3.6257327074
 20
18.3981751639
 10
3.6177022743
 20
18.4172532854
 10
3.6083821569
 20
18.435964833
 10
3.5978743783
 20
18.4541093659
 10
3.5862909665
 20
18.471494801
 10
3.573740295
 20
18.4879531521
 10
3.5603767847
 20
18.5032769901
 10
3.5464045778
 20
18.5172443766
 10
3.5320029556
 20
18.5297031827
 10
3.517314664
 20
18.5405559483
 10
3.5025005701
 20
18.5497054889
  0
LINE
  5
340
100
AcDbEntity
  8
ASSI
100
AcDbLine
 62
250
  6
CONTINUOUS
 10
3.2668640445
 20
21.1235906069
 11
3.2570995847
 21
21.4629320009
  0
LWPOLYLINE
  5
341
100
AcDbEntity
  8
RACCORDO
100
AcDbPolyline
 62
7
  6
CONTINUOUS
 90
16
 70
0
 10
4.1028880999
 20
28.3781240007
 10
4.1017016646
 20
28.422932898
 10
4.0989190213
 20
28.4652536725
 10
4.0945401701
 20
28.5050863241
 10
4.0884483041
 20
28.5424431235
 10
4.0807602301
 20
28.5773118
 10
4.0718263689
 20
28.609655542
 10
4.0616757911
 20
28.6394285474
 10
4.0502794261
 20
28.6666766182
 10
4.0379004823
 20
28.6915003493
 10
4.0246066974
 20
28.7138805524
 10
4.0103303337
 20
28.7338364158
 10
3.9951313872
 20
28.7515260994
 10
3.9790298564
 20
28.7670023231
 10
3.9620057427
 20
28.7802123669
 10
3.9440590462
 20
28.791156231
  0
LINE
  5
342
100
AcDbEntity
  8
ASSI
100
AcDbLine
 62
250
  6
CONTINUOUS
 10
3.2741300818
 20
20.8089354569
 11
3.2668640445
 21
21.1235906069
  0
LINE
  5
343
100
AcDbEntity
  8
ASSI
100
AcDbLine
 62
250
  6
CONTINUOUS
 10
3.2780672317
 20
20.5903167678
 11
3.2741300818
 21
20.8089354569
  0
LWPOLYLINE
  5
344
100
AcDbEntity
  8
ASSI
100
AcDbPolyline
 62
250
  6
CONTINUOUS
 90
3
 70
0
 10
3.2815051359
 20
20.3236862802
 10
3.2808344852
 20
20.3876409668
 10
3.2780672317
 20
20.5903167678
  0
LWPOLYLINE
  5
345
100
AcDbEntity
  8
ASSI
100
AcDbPolyline
 62
250
  6
CONTINUOUS
 90
16
 70
0
 10
3.1324386563
 20
21.6120432086
 10
3.1324009231
 20
21.6280416524
 10
3.1313973631
 20
21.6440022687
 10
3.1294344721
 20
21.6598228993
 10
3.1265248889
 20
21.6754022427
 10
3.1226873086
 20
21.6906406424
 10
3.1179463363
 20
21.7054407134
 10
3.1123323341
 20
21.7197077892
 10
3.1058812943
 20
21.7333505083
 10
3.0986345915
 20
21.7462815352
 10
3.0906386085
 20
21.7584181852
 10
3.0819446011
 20
21.7696827295
 10
3.0726084544
 20
21.7800029177
 10
3.0626900621
 20
21.7893127229
 10
3.0522529035
 20
21.7975527082
 10
3.0413638322
 20
21.8046702258
  0
LINE
  5
346
100
AcDbEntity
  8
DRAFT
100
AcDbLine
 62
7
  6
CONTINUOUS
 10
2.1511246715
 20
26.107556306
 11
2.1511246715
 21
26.4600462153
  0
LINE
  5
347
100
AcDbEntity
  8
ASSI
100
AcDbLine
 62
7
  6
CONTINUOUS
 10
3.2267755113
 20
21.287414326
 11
3.2267755113
 21
20.2186436393
  0
LINE
  5
348
100
AcDbEntity
  8
ASSI
100
AcDbLine
 62
7
  6
CONTINUOUS
 10
3.3808492839
 20
20.2447956462
 11
3.3808492839
 21
20.3786657862
  0
LINE
  5
349
100
AcDbEntity
  8
ASSI
100
AcDbLine
 62
250
  6
CONTINUOUS
 10
3.6439003871
 20
17.9354828322
 11
3.6439003871
 21
18.3047938218
  0
LINE
  5
34A
100
AcDbEntity
  8
RACCORDO
100
AcDbLine
 62
7
  6
CONTINUOUS
 10
3.6636919963
 20
10.5410164096
 11
3.6636919963
 21
-18.1190838032
  0
LINE
  5
34B
100
AcDbEntity
  8
0
100
AcDbLine
 62
7
  6
CONTINUOUS
 10
3.6636919963
 20
-24.9357537577
 11
3.6636919963
 21
17.3576863641
  0
LINE
  5
34C
100
AcDbEntity
  8
ASSI
100
AcDbLine
 62
7
  6
CONTINUOUS
 10
3.7000324271
 20
18.0157002396
 11
3.7000324271
 21
18.3850112292
  0
LINE
  5
34D
100
AcDbEntity
  8
0
100
AcDbLine
 62
7
  6
CONTINUOUS
 10
3.8758240307
 20
-18.180394643
 11
3.8758240307
 21
-18.2837857735
  0
LINE
  5
34E
100
AcDbEntity
  8
DRAFT
100
AcDbLine
 62
7
  6
CONTINUOUS
 10
3.8968560664
 20
19.0600050306
 11
3.8968560664
 21
19.2484284087
  0
LINE
  5
34F
100
AcDbEntity
  8
RACCORDO
100
AcDbLine
 62
7
  6
CONTINUOUS
 10
4.1028880999
 20
28.3781240007
 11
4.1028880999
 21
28.1279659902
  0
LINE
  5
350
100
AcDbEntity
  8
0
100
AcDbLine
 62
7
  6
CONTINUOUS
 10
4.4216981338
 20
25.0866967703
 11
4.4216981338
 21
24.1588995452
  0
LINE
  5
351
100
AcDbEntity
  8
DRAFT
100
AcDbLine
 62
250
  6
CONTINUOUS
 10
4.4269765048
 20
20.1926942268
 11
4.4269765048
 21
19.4013580296
  0
LINE
  5
352
100
AcDbEntity
  8
DRAFT
100
AcDbLine
 62
7
  6
CONTINUOUS
 10
4.6881606064
 20
14.8066208368
 11
4.6881606064
 21
13.0901485028
  0
LINE
  5
353
100
AcDbEntity
  8
DRAFT
100
AcDbLine
 62
7
  6
CONTINUOUS
 10
4.6881606064
 20
-19.4015990081
 11
4.6881606064
 21
-21.1180713421
  0
LINE
  5
354
100
AcDbEntity
  8
ASSI
100
AcDbLine
 62
250
  6
CONTINUOUS
 10
3.7000324031
 20
18.3849546408
 11
3.7000324271
 21
18.3850112292
  0
LWPOLYLINE
  5
355
100
AcDbEntity
  8
ASSI
100
AcDbPolyline
 62
7
  6
CONTINUOUS
 90
21
 70
0
 10
3.2267211101
 20
20.2186447544
 10
3.2267027566
 20
20.2162235458
 10
3.2247832285
 20
20.1939781059
 10
3.2197055973
 20
20.1720989306
 10
3.2113912259
 20
20.1504478121
 10
3.1999187515
 20
20.1291629584
 10
3.1855240855
 20
20.1086589929
 10
3.1681716587
 20
20.088964677
 10
3.1478970403
 20
20.0700512495
 10
3.1250428497
 20
20.0522470498
 10
3.0995259769
 20
20.0355509429
 10
3.0714295319
 20
20.019964064
 10
3.0413454638
 20
20.0058181574
 10
3.0092648294
 20
19.9931581956
 10
2.9751965719
 20
19.9819392062
 10
2.9397594694
 20
19.9723580163
 10
2.902927514
 20
19.9644388912
 10
2.8647267135
 20
19.9581575656
 10
2.8258538702
 20
19.9536380706
 10
2.7865412514
 20
19.9509217496
 10
2.7465565897
 20
19.9499672591
  0
LWPOLYLINE
  5
356
100
AcDbEntity
  8
ASSI
100
AcDbPolyline
 62
250
  6
CONTINUOUS
 90
16
 70
0
 10
5.0354245667
 20
22.4441022513
 10
5.0357888051
 20
22.4617677447
 10
5.0368775298
 20
22.4804329237
 10
5.0386788126
 20
22.4998932885
 10
5.041172918
 20
22.5199356272
 10
5.0443325203
 20
22.5403403518
 10
5.048123002
 20
22.5608839042
 10
5.0525028339
 20
22.5813412051
 10
5.0574240297
 20
22.6014881199
 10
5.0628326718
 20
22.6211039151
 10
5.0686695019
 20
22.6399736759
 10
5.0748705705
 20
22.6578906614
 10
5.0813679377
 20
22.6746585697
 10
5.0880904171
 20
22.6900936882
 10
5.0949643556
 20
22.704026906
 10
5.1019144411
 20
22.7163055677
  0
LWPOLYLINE
  5
357
100
AcDbEntity
  8
ASSI
100
AcDbPolyline
 62
250
  6
CONTINUOUS
 90
22
 70
0
 10
3.2267755113
 20
21.287414326
 10
3.2254629356
 20
21.2665096079
 10
3.2204368421
 20
21.2415911076
 10
3.2116829773
 20
21.2170186234
 10
3.1992674259
 20
21.1929776844
 10
3.1832839454
 20
21.1696498574
 10
3.1638532247
 20
21.1472112941
 10
3.1411219753
 20
21.125831427
 10
3.1152618515
 20
21.1056717142
 10
3.0864681631
 20
21.0868844117
 10
3.0549583696
 20
21.0696113968
 10
3.0209703969
 20
21.0539830859
 10
2.9847608679
 20
21.0401174771
 10
2.9466031985
 20
21.0281192714
 10
2.9067855373
 20
21.0180790763
 10
2.8656085551
 20
21.0100727091
 10
2.8233831818
 20
21.004160629
 10
2.7804282816
 20
21.0003874837
 10
2.7370682442
 20
20.9987817676
 10
2.6936305028
 20
20.9993556039
 10
2.6504430605
 20
21.0021046572
 10
2.6078320384
 20
21.0070081667
  0
LWPOLYLINE
  5
358
100
AcDbEntity
  8
0
100
AcDbPolyline
 62
250
  6
CONTINUOUS
 90
9
 70
0
 10
1.2596387193
 20
-26.1821493045
 10
1.2567490915
 20
-26.2243071054
 10
1.2501011815
 20
-26.2636946166
 10
1.2397681957
 20
-26.2998780996
 10
1.225862034
 20
-26.3324627971
 10
1.2085368943
 20
-26.3610852301
 10
1.187991603
 20
-26.3854221273
 10
1.1644617399
 20
-26.4052061535
 10
1.1457117585
 20
-26.4165679144
  0
LWPOLYLINE
  5
359
100
AcDbEntity
  8
ASSI
100
AcDbPolyline
 62
250
  6
CONTINUOUS
 90
3
 70
0
 10
5.6536345767
 20
22.8805405579
 10
5.6539402704
 20
22.8842310353
 10
5.656781439
 20
22.8965072032
  0
LWPOLYLINE
  5
35A
100
AcDbEntity
  8
ASSI
100
AcDbPolyline
 62
7
  6
CONTINUOUS
 90
20
 70
0
 10
5.7016295473
 20
21.5856539863
 10
5.6993661227
 20
21.5586005377
 10
5.6930519206
 20
21.5335459993
 10
5.682757679
 20
21.5087236825
 10
5.6687212342
 20
21.4847501626
 10
5.6508500884
 20
21.4616541367
 10
5.6292367395
 20
21.4394069079
 10
5.6043965185
 20
21.4185389608
 10
5.5762518493
 20
21.3990834382
 10
5.544880308
 20
21.3810071974
 10
5.5110299543
 20
21.3647412951
 10
5.4746412118
 20
21.3503292501
 10
5.4357736569
 20
21.3377275437
 10
5.3953540782
 20
21.3272366765
 10
5.3533307013
 20
21.3189086892
 10
5.3097553005
 20
21.3126915413
 10
5.2657099874
 20
21.3087296112
 10
5.2215554656
 20
21.3070710252
 10
5.1769310314
 20
21.307667657
 10
5.1318366849
 20
21.3105195068
  0
LWPOLYLINE
  5
35B
100
AcDbEntity
  8
ASSI
100
AcDbPolyline
 62
250
  6
CONTINUOUS
 90
3
 70
0
 10
3.6979089826
 20
17.9989175338
 10
3.699854472
 20
18.0108299379
 10
3.7000324271
 20
18.0157002396
  0
LWPOLYLINE
  5
35C
100
AcDbEntity
  8
RACCORDO
100
AcDbPolyline
 62
250
  6
CONTINUOUS
 90
10
 70
0
 10
18.0376070456
 20
18.8344208802
 10
18.0666078137
 20
18.8530067853
 10
18.0927201293
 20
18.8729785419
 10
18.1157451897
 20
18.8941872367
 10
18.1355081872
 20
18.9164757733
 10
18.1518560834
 20
18.9396761282
 10
18.1646608487
 20
18.9636101084
 10
18.1738248397
 20
18.9880977325
 10
18.1792777824
 20
19.012954752
 10
18.1809816801
 20
19.0365522236
  0
LINE
  5
35D
100
AcDbEntity
  8
0
100
AcDbLine
 62
7
  6
CONTINUOUS
 10
-3.4270869108
 20
5.3897184508
 11
-10.3173111759
 21
9.3680475866
  0
LINE
  5
35E
100
AcDbEntity
  8
RACCORDO
100
AcDbLine
 62
7
  6
CONTINUOUS
 10
-3.4270869108
 20
5.3897184508
 11
-10.3173111759
 21
9.3680475866
  0
LWPOLYLINE
  5
35F
100
AcDbEntity
  8
ASSI
100
AcDbPolyline
 62
250
  6
CONTINUOUS
 90
7
 70
0
 10
-2.1330424708
 20
23.5654772908
 10
-2.1301065834
 20
23.551161656
 10
-2.1244763094
 20
23.5350983033
 10
-2.1159786411
 20
23.5177551869
 10
-2.104489964
 20
23.4994648925
 10
-2.0899154635
 20
23.480645251
 10
-2.0721742783
 20
23.4618388018
  0
LINE
  5
360
100
AcDbEntity
  8
ASSI
100
AcDbLine
 62
250
  6
CONTINUOUS
 10
2.5275744113
 20
20.091442622
 11
2.5515621082
 21
19.9197177744
  0
LINE
  5
361
100
AcDbEntity
  8
ASSI
100
AcDbLine
 62
250
  6
CONTINUOUS
 10
2.5022337673
 20
20.2792007958
 11
2.5275744113
 21
20.091442622
  0
LINE
  5
362
100
AcDbEntity
  8
ASSI
100
AcDbLine
 62
250
  6
CONTINUOUS
 10
2.4753158618
 20
20.4858903732
 11
2.5022337673
 21
20.2792007958
  0
LINE
  5
363
100
AcDbEntity
  8
ASSI
100
AcDbLine
 62
250
  6
CONTINUOUS
 10
2.4467931215
 20
20.7131788997
 11
2.4753158618
 21
20.4858903732
  0
LWPOLYLINE
  5
364
100
AcDbEntity
  8
ASSI
100
AcDbPolyline
 62
250
  6
CONTINUOUS
 90
13
 70
0
 10
0.861896074
 20
21.3954123893
 10
0.8592498362
 20
21.416871833
 10
0.8544496883
 20
21.4390057032
 10
0.8475699181
 20
21.4614749038
 10
0.8387174232
 20
21.4839335306
 10
0.8280278766
 20
21.5060398873
 10
0.8156621292
 20
21.5274613028
 10
0.8017975468
 20
21.5478849833
 10
0.7866550745
 20
21.5669805113
 10
0.7705007995
 20
21.5844202878
 10
0.7535986946
 20
21.5999380763
 10
0.7361985984
 20
21.6133223281
 10
0.7185661829
 20
21.6243833306
  0
LWPOLYLINE
  5
365
100
AcDbEntity
  8
ASSI
100
AcDbPolyline
 62
250
  6
CONTINUOUS
 90
13
 70
0
 10
0.3622268034
 20
20.2074360372
 10
0.3595867814
 20
20.2288590766
 10
0.3547991884
 20
20.2509576322
 10
0.3479371052
 20
20.2733943788
 10
0.3391052785
 20
20.2958268292
 10
0.3284385223
 20
20.3179125614
 10
0.3160996602
 20
20.3393144463
 10
0.3022770395
 20
20.3597057931
 10
0.2871816567
 20
20.3787753367
 10
0.2710439365
 20
20.3962319887
 10
0.2541102141
 20
20.4118092805
 10
0.2366389757
 20
20.4252694317
 10
0.2188969123
 20
20.4364069785
  0
LWPOLYLINE
  5
366
100
AcDbEntity
  8
ASSI
100
AcDbPolyline
 62
250
  6
CONTINUOUS
 90
13
 70
0
 10
0.9982914999
 20
21.4769743969
 10
0.9956514779
 20
21.4983974364
 10
0.990863885
 20
21.5204959919
 10
0.9840018018
 20
21.5429327386
 10
0.9751699751
 20
21.5653651889
 10
0.9645032189
 20
21.5874509212
 10
0.9521643567
 20
21.608852806
 10
0.938341736
 20
21.6292441529
 10
0.9232463533
 20
21.6483136965
 10
0.907108633
 20
21.6657703484
 10
0.8901749107
 20
21.6813476403
 10
0.8727036723
 20
21.6948077914
 10
0.8549616089
 20
21.7059453383
  0
LWPOLYLINE
  5
367
100
AcDbEntity
  8
ASSI
100
AcDbPolyline
 62
250
  6
CONTINUOUS
 90
13
 70
0
 10
2.8060447022
 20
21.548536894
 10
2.8085945458
 20
21.5277734213
 10
2.8131676903
 20
21.5063644434
 10
2.8196984123
 20
21.4846176509
 10
2.8280928539
 20
21.4628455898
 10
2.8382303712
 20
21.4413611705
 10
2.8499652676
 20
21.4204731711
 10
2.8631288894
 20
21.4004817964
 10
2.8775320486
 20
21.3816743659
 10
2.8929677404
 20
21.3643211848
 10
2.9092141213
 20
21.3486716566
 10
2.9260376969
 20
21.3349506987
 10
2.9431966768
 20
21.3233555116
  0
LINE
  5
368
100
AcDbEntity
  8
ASSI
100
AcDbLine
 62
250
  6
CONTINUOUS
 10
2.4169247587
 20
20.9605225902
 11
2.4467931215
 21
20.7131788997
  0
LINE
  5
369
100
AcDbEntity
  8
ASSI
100
AcDbLine
 62
250
  6
CONTINUOUS
 10
4.8224487152
 20
22.4299768271
 11
4.8355014207
 21
22.3104722935
  0
LWPOLYLINE
  5
36A
100
AcDbEntity
  8
RACCORDO
100
AcDbPolyline
 62
7
  6
CONTINUOUS
 90
6
 70
0
 10
7.8699595194
 20
12.9285616587
 10
7.8670057365
 20
12.9605418918
 10
7.8621159956
 20
12.9931726335
 10
7.8552326041
 20
13.0266759051
 10
7.8464132547
 20
13.0608296852
 10
7.8358310254
 20
13.0949679097
  0
LINE
  5
36B
100
AcDbEntity
  8
ASSI
100
AcDbLine
 62
250
  6
CONTINUOUS
 10
5.1026534968
 20
21.6331154816
 11
5.1318367615
 21
21.3105195068
  0
LINE
  5
36C
100
AcDbEntity
  8
ASSI
100
AcDbLine
 62
250
  6
CONTINUOUS
 10
5.0704557212
 20
22.0093784149
 11
5.1026534968
 21
21.6331154816
  0
LWPOLYLINE
  5
36D
100
AcDbEntity
  8
ASSI
100
AcDbPolyline
 62
250
  6
CONTINUOUS
 90
3
 70
0
 10
5.0354245736
 20
22.4441022474
 10
5.0426203897
 20
22.3525916062
 10
5.0704557212
 20
22.0093784149
  0
LINE
  5
36E
100
AcDbEntity
  8
ASSI
100
AcDbLine
 62
7
  6
CONTINUOUS
 10
5.8293553754
 20
26.03128176
 11
5.8350404997
 21
25.902742939
  0
LINE
  5
36F
100
AcDbEntity
  8
ASSI
100
AcDbLine
 62
250
  6
CONTINUOUS
 10
5.7262100568
 20
22.4948628475
 11
5.7087153955
 21
22.9599483363
  0
LINE
  5
370
100
AcDbEntity
  8
RACCORDO
100
AcDbLine
 62
7
  6
CONTINUOUS
 10
7.8709773444
 20
12.8972319341
 11
7.8699595194
 21
12.9285616587
  0
LINE
  5
371
100
AcDbEntity
  8
ASSI
100
AcDbLine
 62
250
  6
CONTINUOUS
 10
5.7358935842
 20
22.191123162
 11
5.7262100568
 21
22.4948628475
  0
LINE
  5
372
100
AcDbEntity
  8
ASSI
100
AcDbLine
 62
250
  6
CONTINUOUS
 10
5.743559422
 20
21.9086015985
 11
5.7358935842
 21
22.191123162
  0
LINE
  5
373
100
AcDbEntity
  8
ASSI
100
AcDbLine
 62
250
  6
CONTINUOUS
 10
5.7476026313
 20
21.7329219206
 11
5.743559422
 21
21.9086015985
  0
LINE
  5
374
100
AcDbEntity
  8
ASSI
100
AcDbLine
 62
7
  6
CONTINUOUS
 10
5.7016492454
 20
22.7163754027
 11
5.7016492454
 21
21.5856537978
  0
LINE
  5
375
100
AcDbEntity
  8
ASSI
100
AcDbLine
 62
7
  6
CONTINUOUS
 10
6.7037633855
 20
20.1219469903
 11
6.7037633855
 21
19.9210929551
  0
LINE
  5
376
100
AcDbEntity
  8
DRAFT
100
AcDbLine
 62
250
  6
CONTINUOUS
 10
6.820920673
 20
19.9594719254
 11
6.820920673
 21
19.8534478056
  0
LINE
  5
377
100
AcDbEntity
  8
ASSI
100
AcDbLine
 62
7
  6
CONTINUOUS
 10
7.3374651223
 20
18.2325714605
 11
7.3374651223
 21
18.1319086337
  0
LINE
  5
378
100
AcDbEntity
  8
RACCORDO
100
AcDbLine
 62
7
  6
CONTINUOUS
 10
7.8322771148
 20
13.0033008116
 11
7.8322771148
 21
-15.5965555708
  0
LINE
  5
379
100
AcDbEntity
  8
RACCORDO
100
AcDbLine
 62
7
  6
CONTINUOUS
 10
7.8709773444
 20
12.8972319341
 11
7.8709773444
 21
-15.5351767484
  0
LINE
  5
37A
100
AcDbEntity
  8
RACCORDO
100
AcDbLine
 62
7
  6
CONTINUOUS
 10
7.8699595194
 20
-15.5653311142
 11
7.8709773444
 21
-15.5351767484
  0
LWPOLYLINE
  5
37B
100
AcDbEntity
  8
RACCORDO
100
AcDbPolyline
 62
7
  6
CONTINUOUS
 90
10
 70
0
 10
7.8322771148
 20
-15.5965555708
 10
7.8312467251
 20
-15.6268882684
 10
7.8282575114
 20
-15.655614242
 10
7.8233094738
 20
-15.6827334916
 10
7.8163434335
 20
-15.7084040006
 10
7.8074185692
 20
-15.7324677855
 10
7.796712417
 20
-15.7544508963
 10
7.7842841556
 20
-15.7741953495
 10
7.7700746062
 20
-15.7918591285
 10
7.7540837689
 20
-15.8074422332
  0
LWPOLYLINE
  5
37C
100
AcDbEntity
  8
RACCORDO
100
AcDbPolyline
 62
7
  6
CONTINUOUS
 90
6
 70
0
 10
4.4420818274
 20
-17.8493422133
 10
4.4418370291
 20
-17.8513192084
 10
4.4390530761
 20
-17.8551946571
 10
4.4336350909
 20
-17.8607191098
 10
4.4257037955
 20
-17.8678598541
 10
4.41540501
 20
-17.8765327174
  0
LWPOLYLINE
  5
37D
100
AcDbEntity
  8
RACCORDO
100
AcDbPolyline
 62
7
  6
CONTINUOUS
 90
3
 70
0
 10
10.2929310922
 20
21.9532882686
 10
10.2858552075
 20
21.9135053218
 10
10.2820861399
 20
21.893205109
  0
LWPOLYLINE
  5
37E
100
AcDbEntity
  8
RACCORDO
100
AcDbPolyline
 62
7
  6
CONTINUOUS
 90
3
 70
0
 10
10.2820861399
 20
21.893205109
 10
10.2661265653
 20
21.810679047
 10
10.259992376
 20
21.7780876307
  0
LINE
  5
37F
100
AcDbEntity
  8
RACCORDO
100
AcDbLine
 62
250
  6
CONTINUOUS
 10
18.1809818211
 20
11.0990202217
 11
18.9907539779
 21
11.6004086726
  0
LINE
  5
380
100
AcDbEntity
  8
DRAFT
100
AcDbLine
 62
7
  6
CONTINUOUS
 10
-2.938641473
 20
24.9972942252
 11
-2.9263800409
 21
24.976056802
  0
LWPOLYLINE
  5
381
100
AcDbEntity
  8
RACCORDO
100
AcDbPolyline
 62
7
  6
CONTINUOUS
 90
3
 70
0
 10
4.41540501
 20
11.8800535379
 10
4.3272191912
 20
12.0525705865
 10
4.2131809171
 20
12.2730359886
  0
LWPOLYLINE
  5
382
100
AcDbEntity
  8
RACCORDO
100
AcDbPolyline
 62
7
  6
CONTINUOUS
 90
13
 70
0
 10
4.41540501
 20
11.8800535379
 10
4.4257037955
 20
11.8568812401
 10
4.4336350909
 20
11.8328012716
 10
4.4390530761
 20
11.8081874635
 10
4.4418370291
 20
11.7834145142
 10
4.4419413721
 20
11.7588779087
 10
4.4393960808
 20
11.7349878285
 10
4.4342316121
 20
11.7121192321
 10
4.4265123556
 20
11.6906336767
 10
4.416387218
 20
11.6708974759
 10
4.4040255658
 20
11.6532304473
 10
4.3896109147
 20
11.6379030996
 10
4.3733735371
 20
11.6251586441
  0
LWPOLYLINE
  5
383
100
AcDbEntity
  8
ASSI
100
AcDbPolyline
 62
250
  6
CONTINUOUS
 90
8
 70
0
 10
3.6439003871
 20
17.9354828322
 10
3.6480790675
 20
17.9228498505
 10
3.6506343637
 20
17.9112397666
 10
3.6515406341
 20
17.9007781588
 10
3.6507908733
 20
17.8915806981
 10
3.6483962299
 20
17.8837421448
 10
3.6443801802
 20
17.8773401573
 10
3.6432470735
 20
17.8760952192
  0
LWPOLYLINE
  5
384
100
AcDbEntity
  8
ASSI
100
AcDbPolyline
 62
7
  6
CONTINUOUS
 90
4
 70
0
 10
3.3666882513
 20
20.3708287208
 10
3.3735642094
 20
20.3381094651
 10
3.3789404239
 20
20.2929774805
 10
3.3808492839
 20
20.2447956462
  0
LWPOLYLINE
  5
385
100
AcDbEntity
  8
ASSI
100
AcDbPolyline
 62
7
  6
CONTINUOUS
 90
5
 70
0
 10
3.2203361996
 20
21.3493141504
 10
3.2231538023
 20
21.3339216377
 10
3.2251681255
 20
21.3184378657
 10
3.2263744658
 20
21.3029226017
 10
3.2267755071
 20
21.287414326
  0
LINE
  5
386
100
AcDbEntity
  8
ASSI
100
AcDbLine
 62
250
  6
CONTINUOUS
 10
4.9265018738
 20
21.5307028622
 11
4.9584094542
 21
21.278602704
  0
LWPOLYLINE
  5
387
100
AcDbEntity
  8
ASSI
100
AcDbPolyline
 62
250
  6
CONTINUOUS
 90
13
 70
0
 10
3.6338556095
 20
21.7192195617
 10
3.6312155014
 20
21.7406431054
 10
3.6264277525
 20
21.7627420818
 10
3.6195654787
 20
21.78517914
 10
3.6107334645
 20
21.8076117692
 10
3.6000665546
 20
21.8296975486
 10
3.5877275887
 20
21.8510993727
 10
3.5739049366
 20
21.8714905582
 10
3.5588096072
 20
21.8905598622
 10
3.5426720098
 20
21.9080162455
 10
3.5257384709
 20
21.9235932692
 10
3.5082674799
 20
21.9370531677
 10
3.490525719
 20
21.9481905034
  0
LWPOLYLINE
  5
388
100
AcDbEntity
  8
ASSI
100
AcDbPolyline
 62
250
  6
CONTINUOUS
 90
13
 70
0
 10
4.8224487152
 20
22.4299768271
 10
4.8198086932
 20
22.4513998662
 10
4.8150211004
 20
22.4734984215
 10
4.8081590172
 20
22.495935168
 10
4.7993271906
 20
22.5183676184
 10
4.7886604344
 20
22.5404533508
 10
4.7763215722
 20
22.5618552358
 10
4.7624989515
 20
22.5822465827
 10
4.7474035687
 20
22.6013161264
 10
4.7312658484
 20
22.6187727784
 10
4.714332126
 20
22.6343500703
 10
4.6968608875
 20
22.6478102215
 10
4.6791188241
 20
22.6589477684
  0
LWPOLYLINE
  5
389
100
AcDbEntity
  8
ASSI
100
AcDbPolyline
 62
250
  6
CONTINUOUS
 90
13
 70
0
 10
5.7087153945
 20
22.9599483357
 10
5.7060753747
 20
22.9813713621
 10
5.7012877855
 20
23.0034699082
 10
5.6944257061
 20
23.0259066498
 10
5.6855938814
 20
23.0483391011
 10
5.6749271249
 20
23.070424839
 10
5.6625882614
 20
23.0918267294
 10
5.6487656395
 20
23.1122180805
 10
5.6336702549
 20
23.1312876282
 10
5.6175325328
 20
23.1487442833
 10
5.6005988088
 20
23.1643215774
 10
5.583127569
 20
23.17778173
 10
5.5653855046
 20
23.1889192778
  0
LINE
  5
38A
100
AcDbEntity
  8
ASSI
100
AcDbLine
 62
250
  6
CONTINUOUS
 10
4.8920274778
 20
21.8152151134
 11
4.9265018738
 21
21.5307028622
  0
LINE
  5
38B
100
AcDbEntity
  8
ASSI
100
AcDbLine
 62
250
  6
CONTINUOUS
 10
4.8644020505
 20
22.052658125
 11
4.8920274778
 21
21.8152151134
  0
LINE
  5
38C
100
AcDbEntity
  8
ASSI
100
AcDbLine
 62
250
  6
CONTINUOUS
 10
4.8355014207
 20
22.3104722935
 11
4.8644020505
 21
22.052658125
  0
LINE
  5
38D
100
AcDbEntity
  8
ASSI
100
AcDbLine
 62
250
  6
CONTINUOUS
 10
8.0888457013
 20
23.0807183074
 11
8.0345262534
 21
23.8289822723
  0
LINE
  5
38E
100
AcDbEntity
  8
ASSI
100
AcDbLine
 62
250
  6
CONTINUOUS
 10
8.1659923779
 20
23.1388240628
 11
8.1128481827
 21
23.8708986276
  0
LINE
  5
38F
100
AcDbEntity
  8
ASSI
100
AcDbLine
 62
7
  6
CONTINUOUS
 10
8.8938311203
 20
23.8715099853
 11
8.8629559957
 21
24.2968225399
  0
LINE
  5
390
100
AcDbEntity
  8
RACCORDO
100
AcDbLine
 62
7
  6
CONTINUOUS
 10
10.3055741738
 20
22.367676169
 11
10.3055741738
 21
22.0717281991
  0
LINE
  5
391
100
AcDbEntity
  8
DRAFT
100
AcDbLine
 62
7
  6
CONTINUOUS
 10
10.5633369517
 20
22.9068375296
 11
10.5633369517
 21
21.7510300056
  0
LINE
  5
392
100
AcDbEntity
  8
DRAFT
100
AcDbLine
 62
7
  6
CONTINUOUS
 10
12.997501508
 20
19.958821381
 11
12.997501508
 21
19.636694185
  0
LWPOLYLINE
  5
393
100
AcDbEntity
  8
RACCORDO
100
AcDbPolyline
 62
7
  6
CONTINUOUS
 90
8
 70
0
 10
10.3055741738
 20
22.0717281991
 10
10.3052197132
 20
22.0576752577
 10
10.3043843186
 20
22.0425451993
 10
10.3030597126
 20
22.0264003185
 10
10.3011604092
 20
22.0092391982
 10
10.2987476848
 20
21.9911892571
 10
10.2960200068
 20
21.9725084958
 10
10.2929310922
 20
21.9532882686
  0
LWPOLYLINE
  5
394
100
AcDbEntity
  8
ASSI
100
AcDbPolyline
 62
7
  6
CONTINUOUS
 90
28
 70
0
 10
10.3055741738
 20
22.367676169
 10
10.3059747968
 20
22.3833286333
 10
10.3070099692
 20
22.400199466
 10
10.3087113134
 20
22.4181963211
 10
10.3111865409
 20
22.4373585262
 10
10.3143946445
 20
22.4574719335
 10
10.3181870901
 20
22.4780621213
 10
10.3226662931
 20
22.4989768879
 10
10.3278950584
 20
22.520220108
 10
10.3337045096
 20
22.5415611198
 10
10.3401800497
 20
22.5629708095
 10
10.3473853824
 20
22.5843931281
 10
10.3551234211
 20
22.6055745548
 10
10.3634007873
 20
22.6263817476
 10
10.3723497707
 20
22.646926029
 10
10.3819490919
 20
22.6673269696
 10
10.3922088249
 20
22.6875914033
 10
10.4032045679
 20
22.7077070851
 10
10.4149939475
 20
22.7277582793
 10
10.4276030226
 20
22.7477771538
 10
10.4410674348
 20
22.7677391319
 10
10.455453002
 20
22.7876456424
 10
10.4707667051
 20
22.8075105827
 10
10.4870506485
 20
22.8273491404
 10
10.5044219663
 20
22.8471757182
 10
10.5229322141
 20
22.8670144495
 10
10.5425658979
 20
22.8868928612
 10
10.5633369517
 20
22.9068375296
  0
LINE
  5
395
100
AcDbEntity
  8
DRAFT
100
AcDbLine
 62
7
  6
CONTINUOUS
 10
18.1809818211
 20
8.6561087374
 11
18.3933639752
 21
8.7911574315
  0
LINE
  5
396
100
AcDbEntity
  8
RACCORDO
100
AcDbLine
 62
250
  6
CONTINUOUS
 10
18.1809818211
 20
9.6701972373
 11
18.9907539779
 21
10.1715856883
  0
LINE
  5
397
100
AcDbEntity
  8
0
100
AcDbLine
 62
7
  6
CONTINUOUS
 10
-10.3173111759
 20
17.487131522
 11
-3.4270869108
 21
13.5088023862
  0
LINE
  5
398
100
AcDbEntity
  8
RACCORDO
100
AcDbLine
 62
7
  6
CONTINUOUS
 10
-10.3173111759
 20
17.487131522
 11
-3.4270869108
 21
13.5088023862
  0
LWPOLYLINE
  5
399
100
AcDbEntity
  8
ASSI
100
AcDbPolyline
 62
250
  6
CONTINUOUS
 90
7
 70
0
 10
-2.0321034719
 20
23.5020262689
 10
-2.0374549875
 20
23.5088528569
 10
-2.0528129387
 20
23.5249618881
 10
-2.0703358527
 20
23.538875058
 10
-2.0897527114
 20
23.550377231
 10
-2.110763228
 20
23.5592905758
 10
-2.133042471
 20
23.5654772924
  0
LINE
  5
39A
100
AcDbEntity
  8
RACCORDO
100
AcDbLine
 62
7
  6
CONTINUOUS
 10
5.7633388219
 20
16.9178078722
 11
5.493130604
 21
17.3577584213
  0
LWPOLYLINE
  5
39B
100
AcDbEntity
  8
ASSI
100
AcDbPolyline
 62
250
  6
CONTINUOUS
 90
4
 70
0
 10
0.8056461622
 20
24.8861187753
 10
0.8112626031
 20
24.876893499
 10
0.8150696849
 20
24.8673918202
 10
0.8151964885
 20
24.8667687471
  0
LWPOLYLINE
  5
39C
100
AcDbEntity
  8
ASSI
100
AcDbPolyline
 62
250
  6
CONTINUOUS
 90
16
 70
0
 10
0.9942704969
 20
25.088007203
 10
1.0033746314
 20
25.071027629
 10
1.0101846861
 20
25.0538710395
 10
1.0147006612
 20
25.0365374345
 10
1.0169333862
 20
25.0189213836
 10
1.0168720315
 20
25.0011283172
 10
1.0144841084
 20
24.9834745269
 10
1.009707729
 20
24.9659463259
 10
1.0026047813
 20
24.9485574009
 10
0.9933284409
 20
24.931665104
 10
0.9818336714
 20
24.9152983403
 10
0.9681655092
 20
24.8994282047
 10
0.9526122389
 20
24.8843253329
 10
0.9352699554
 20
24.8700799372
 10
0.9160425637
 20
24.8566018054
 10
0.894930064
 20
24.8438909375
  0
LWPOLYLINE
  5
39D
100
AcDbEntity
  8
ASSI
100
AcDbPolyline
 62
250
  6
CONTINUOUS
 90
4
 70
0
 10
3.1953634634
 20
21.4219166054
 10
3.1930973895
 20
21.4262938587
 10
3.1884984916
 20
21.4338282746
 10
3.1835215683
 20
21.4405295223
  0
LWPOLYLINE
  5
39E
100
AcDbEntity
  8
RACCORDO
100
AcDbPolyline
 62
7
  6
CONTINUOUS
 90
9
 70
0
 10
7.7540837689
 20
13.3044831898
 10
7.5223778037
 20
13.7643234738
 10
7.2857290935
 20
14.2219117899
 10
7.0441376384
 20
14.6772481382
 10
6.797516796
 20
15.1304886847
 10
6.5459532087
 20
15.5814772635
 10
6.2897068031
 20
16.0297453763
 10
6.0288642216
 20
16.4751368572
 10
5.7633388219
 20
16.9178078722
  0
LINE
  5
39F
100
AcDbEntity
  8
ASSI
100
AcDbLine
 62
7
  6
CONTINUOUS
 10
3.195381668
 20
21.4218791923
 11
3.1953634634
 21
21.4219166054
  0
LWPOLYLINE
  5
3A0
100
AcDbEntity
  8
RACCORDO
100
AcDbPolyline
 62
7
  6
CONTINUOUS
 90
10
 70
0
 10
7.7540837689
 20
13.3044831898
 10
7.7700746062
 20
13.270434267
 10
7.7842841556
 20
13.2363616566
 10
7.796712417
 20
13.2022653587
 10
7.8074185692
 20
13.1679190517
 10
7.8163434335
 20
13.1335490571
 10
7.8233094738
 20
13.0998343394
 10
7.8282575114
 20
13.06700122
 10
7.8312467251
 20
13.0348233774
 10
7.8322771148
 20
13.0033008116
  0
LINE
  5
3A1
100
AcDbEntity
  8
RACCORDO
100
AcDbLine
 62
7
  6
CONTINUOUS
 10
7.8094933129
 20
13.1627536491
 11
7.7936801368
 21
13.1966231854
  0
LWPOLYLINE
  5
3A2
100
AcDbEntity
  8
ASSI
100
AcDbPolyline
 62
7
  6
CONTINUOUS
 90
6
 70
0
 10
3.1954003839
 20
21.4218408118
 10
3.2009327361
 20
21.4098586184
 10
3.2070158833
 20
21.3949092413
 10
3.212279273
 20
21.3798030621
 10
3.2167161726
 20
21.3645991214
 10
3.2203361996
 20
21.3493141504
  0
LINE
  5
3A3
100
AcDbEntity
  8
ASSI
100
AcDbLine
 62
7
  6
CONTINUOUS
 10
3.1955687729
 20
21.4214778447
 11
3.1956008409
 21
21.421404129
  0
LWPOLYLINE
  5
3A4
100
AcDbEntity
  8
ASSI
100
AcDbPolyline
 62
250
  6
CONTINUOUS
 90
3
 70
0
 10
0.8056460533
 20
24.8863233534
 10
0.8126015126
 20
24.8700203843
 10
0.8135811936
 20
24.8656111238
  0
LWPOLYLINE
  5
3A5
100
AcDbEntity
  8
RACCORDO
100
AcDbPolyline
 62
7
  6
CONTINUOUS
 90
3
 70
0
 10
7.8358310254
 20
13.0949679097
 10
7.8235436091
 20
13.1288685572
 10
7.8094933129
 20
13.1627536491
  0
LINE
  5
3A6
100
AcDbEntity
  8
DRAFT
100
AcDbLine
 62
7
  6
CONTINUOUS
 10
14.0023830365
 20
23.2285919604
 11
14.0023830365
 21
22.4121216836
  0
LWPOLYLINE
  5
3A7
100
AcDbEntity
  8
RACCORDO
100
AcDbPolyline
 62
7
  6
CONTINUOUS
 90
6
 70
0
 10
7.8358310254
 20
-15.6923266358
 10
7.8464132547
 20
-15.6704085044
 10
7.8552326041
 20
-15.646439088
 10
7.8621159956
 20
-15.6208845843
 10
7.8670057365
 20
-15.5939003929
 10
7.8699595194
 20
-15.5653311142
  0
LINE
  5
3A8
100
AcDbEntity
  8
RACCORDO
100
AcDbLine
 62
250
  6
CONTINUOUS
 10
18.1809818211
 20
1.1380828448
 11
18.9907539779
 21
1.6394712958
  0
LINE
  5
3A9
100
AcDbEntity
  8
DRAFT
100
AcDbLine
 62
7
  6
CONTINUOUS
 10
3.6636919963
 20
15.3585616827
 11
3.9160100488
 21
15.2524508914
  0
LINE
  5
3AA
100
AcDbEntity
  8
0
100
AcDbLine
 62
250
  6
CONTINUOUS
 10
0.5619080408
 20
15.9748967165
 11
-14.3063061275
 21
24.5596172348
  0
LINE
  5
3AB
100
AcDbEntity
  8
0
100
AcDbLine
 62
250
  6
CONTINUOUS
 10
0.9062064826
 20
16.5817855681
 11
-13.9620076858
 21
25.1665060864
  0
LINE
  5
3AC
100
AcDbEntity
  8
DRAFT
100
AcDbLine
 62
7
  6
CONTINUOUS
 10
3.6636919963
 20
15.3981361726
 11
4.6881606064
 21
14.8066208368
  0
LINE
  5
3AD
100
AcDbEntity
  8
DRAFT
100
AcDbLine
 62
7
  6
CONTINUOUS
 10
-7.1903970949
 20
23.1948674048
 11
-2.5942030172
 21
20.5410825482
  0
LINE
  5
3AE
100
AcDbEntity
  8
DRAFT
100
AcDbLine
 62
7
  6
CONTINUOUS
 10
-6.6727590047
 20
23.0630890627
 11
-2.4154084074
 21
20.604948185
  0
LWPOLYLINE
  5
3AF
100
AcDbEntity
  8
ASSI
100
AcDbPolyline
 62
250
  6
CONTINUOUS
 90
3
 70
0
 10
-2.0721742783
 20
23.4618388018
 10
-2.0512149394
 20
23.4433855989
 10
-2.0270152162
 20
23.4253859769
  0
LWPOLYLINE
  5
3B0
100
AcDbEntity
  8
ASSI
100
AcDbPolyline
 62
250
  6
CONTINUOUS
 90
7
 70
0
 10
3.1835215683
 20
21.4405295223
 10
3.1782504151
 20
21.4464670478
 10
3.1727968659
 20
21.4516369381
 10
3.1672926497
 20
21.4559641108
 10
3.1618229744
 20
21.4594566259
 10
3.1564347322
 20
21.4622006974
 10
3.1511835414
 20
21.4642441753
  0
LWPOLYLINE
  5
3B1
100
AcDbEntity
  8
ASSI
100
AcDbPolyline
 62
250
  6
CONTINUOUS
 90
12
 70
0
 10
5.6463326855
 20
22.8920674188
 10
5.6421537163
 20
22.8978267426
 10
5.6315399432
 20
22.9097567969
 10
5.619275923
 20
22.9202613646
 10
5.6054960249
 20
22.9292253529
 10
5.5903512243
 20
22.9365505504
 10
5.5740074516
 20
22.9421567005
 10
5.5566437715
 20
22.9459823816
 10
5.5384504209
 20
22.9479856789
 10
5.5196267285
 20
22.9481446427
 10
5.500378931
 20
22.9464575306
 10
5.4809179114
 20
22.9429428258
  0
LWPOLYLINE
  5
3B2
100
AcDbEntity
  8
RACCORDO
100
AcDbPolyline
 62
7
  6
CONTINUOUS
 90
17
 70
0
 10
18.1809818211
 20
4.2627485757
 10
18.2540116138
 20
4.1598773605
 10
18.3523306568
 20
4.0103539955
 10
18.445455266
 20
3.8571928809
 10
18.5331377041
 20
3.7008234138
 10
18.6150907898
 20
3.5417595373
 10
18.6910411929
 20
3.3805215818
 10
18.7607665127
 20
3.217545431
 10
18.8240204324
 20
3.0533362956
 10
18.8805558893
 20
2.8884405127
 10
18.9301626895
 20
2.7233394995
 10
18.9726347938
 20
2.5585273346
 10
19.0077629388
 20
2.3945605361
 10
19.0353599879
 20
2.2319779572
 10
19.0552587283
 20
2.0712859727
 10
19.0673030605
 20
1.9129895678
 10
19.0713478674
 20
1.7576044875
  0
LINE
  5
3B3
100
AcDbEntity
  8
ASSI
100
AcDbLine
 62
7
  6
CONTINUOUS
 10
5.6463707339
 20
22.8920113985
 11
5.6463326855
 21
22.8920674188
  0
LWPOLYLINE
  5
3B4
100
AcDbEntity
  8
RACCORDO
100
AcDbPolyline
 62
250
  6
CONTINUOUS
 90
16
 70
0
 10
18.1809818211
 20
4.0563648076
 10
18.2334774385
 20
3.9772780741
 10
18.3321321657
 20
3.8164707679
 10
18.425063053
 20
3.6521528638
 10
18.5119174811
 20
3.4849479597
 10
18.592366161
 20
3.3154900883
 10
18.6661040518
 20
3.1444218448
 10
18.7328514698
 20
2.9723920993
 10
18.7923552058
 20
2.8000534727
 10
18.8443895726
 20
2.6280596335
 10
18.8887571937
 20
2.4570629879
 10
18.9252897614
 20
2.2877122087
 10
18.9538486967
 20
2.1206497041
 10
18.9743256681
 20
1.9565091993
 10
18.9866430023
 20
1.7959133322
 10
18.9907539779
 20
1.6394712958
  0
LINE
  5
3B5
100
AcDbEntity
  8
DRAFT
100
AcDbLine
 62
7
  6
CONTINUOUS
 10
7.6863224847
 20
19.3294011718
 11
7.5531116786
 21
19.5367140153
  0
LINE
  5
3B6
100
AcDbEntity
  8
DRAFT
100
AcDbLine
 62
7
  6
CONTINUOUS
 10
7.8185413232
 20
19.1213306971
 11
7.6863224847
 21
19.3294011718
  0
LWPOLYLINE
  5
3B7
100
AcDbEntity
  8
ASSI
100
AcDbPolyline
 62
7
  6
CONTINUOUS
 90
10
 70
0
 10
5.6463326855
 20
22.8920674188
 10
5.6580356388
 20
22.8735929838
 10
5.6683422576
 20
22.8547027639
 10
5.6772443778
 20
22.8354767007
 10
5.6847252192
 20
22.8160432453
 10
5.6908148477
 20
22.7964381064
 10
5.6955563158
 20
22.7766009208
 10
5.6989478167
 20
22.7565655036
 10
5.7009761763
 20
22.736462398
 10
5.7016492413
 20
22.7163754027
  0
LWPOLYLINE
  5
3B8
100
AcDbEntity
  8
ASSI
100
AcDbPolyline
 62
250
  6
CONTINUOUS
 90
13
 70
0
 10
6.8616682315
 20
18.4945566869
 10
6.8170373324
 20
18.56510477
 10
6.7701752226
 20
18.6336314565
 10
6.721247088
 20
18.6998897289
 10
6.6704228347
 20
18.7636392585
 10
6.6178845905
 20
18.8246516738
 10
6.5638260506
 20
18.8827113656
 10
6.5084394949
 20
18.9376080517
 10
6.4519196445
 20
18.9891447101
 10
6.3944708738
 20
19.0371420326
 10
6.3362979083
 20
19.0814283145
 10
6.2776052963
 20
19.1218407386
 10
6.2186010632
 20
19.1582326611
  0
LINE
  5
3B9
100
AcDbEntity
  8
DRAFT
100
AcDbLine
 62
7
  6
CONTINUOUS
 10
7.9497644575
 20
18.9125085211
 11
7.8185413232
 21
19.1213306971
  0
LINE
  5
3BA
100
AcDbEntity
  8
RACCORDO
100
AcDbLine
 62
7
  6
CONTINUOUS
 10
7.9048666459
 20
18.821342204
 11
7.7836980724
 21
19.0147357542
  0
LWPOLYLINE
  5
3BB
100
AcDbEntity
  8
DRAFT
100
AcDbPolyline
 62
7
  6
CONTINUOUS
 90
3
 70
0
 10
8.1447051221
 20
18.5979088082
 10
8.0799769406
 20
18.702958363
 10
7.9497644575
 20
18.9125085211
  0
LWPOLYLINE
  5
3BC
100
AcDbEntity
  8
ASSI
100
AcDbPolyline
 62
250
  6
CONTINUOUS
 90
16
 70
0
 10
5.4809176627
 20
22.9429434356
 10
5.4707888887
 20
22.9597284334
 10
5.4629420458
 20
22.9767367414
 10
5.4573771341
 20
22.9939683597
 10
5.4540769337
 20
23.0115284349
 10
5.4530586644
 20
23.0293118204
 10
5.4543739857
 20
23.0470030758
 10
5.4580839175
 20
23.0646171314
 10
5.4641274399
 20
23.082139057
 10
5.4723731536
 20
23.0992086216
 10
5.482867821
 20
23.1157978486
 10
5.4955646796
 20
23.1319347146
 10
5.5101920427
 20
23.1473429187
 10
5.5266593481
 20
23.1619303605
 10
5.5450571579
 20
23.1757891404
 10
5.5653854722
 20
23.1889192584
  0
LWPOLYLINE
  5
3BD
100
AcDbEntity
  8
RACCORDO
100
AcDbPolyline
 62
7
  6
CONTINUOUS
 90
16
 70
0
 10
7.9048666459
 20
18.821342204
 10
7.9159149688
 20
18.8022835741
 10
7.9255421512
 20
18.7830051645
 10
7.9337481931
 20
18.763506975
 10
7.9406128812
 20
18.7434695409
 10
7.9460564288
 20
18.723212327
 10
7.9498394755
 20
18.7036937279
 10
7.9518722015
 20
18.685095705
 10
7.9522444265
 20
18.667236297
 10
7.9509862504
 20
18.6505280139
 10
7.9480477078
 20
18.6349176718
 10
7.943478764
 20
18.6204584547
 10
7.9374594149
 20
18.6077224253
 10
7.9300496594
 20
18.5969002712
 10
7.9211894987
 20
18.5878013048
 10
7.9108789327
 20
18.5804255261
  0
LWPOLYLINE
  5
3BE
100
AcDbEntity
  8
RACCORDO
100
AcDbPolyline
 62
250
  6
CONTINUOUS
 90
10
 70
0
 10
18.0376070456
 20
18.834420881
 10
18.0366835132
 20
18.8656501963
 10
18.0337570206
 20
18.8978430836
 10
18.0288440468
 20
18.9308182643
 10
18.021972257
 20
18.9643900549
 10
18.0131803461
 20
18.9983694122
 10
18.0025178216
 20
19.0325649979
 10
17.9900447243
 20
19.0667842562
 10
17.9758312903
 20
19.1008344982
 10
17.9599575558
 20
19.1345239865
  0
LINE
  5
3BF
100
AcDbEntity
  8
RACCORDO
100
AcDbLine
 62
250
  6
CONTINUOUS
 10
18.0376070456
 20
-9.5254827795
 11
18.0376070456
 21
18.8344208802
  0
LINE
  5
3C0
100
AcDbEntity
  8
RACCORDO
100
AcDbLine
 62
7
  6
CONTINUOUS
 10
18.1809818211
 20
-9.3231346671
 11
18.1809818211
 21
19.0367689926
  0
LINE
  5
3C1
100
AcDbEntity
  8
RACCORDO
100
AcDbLine
 62
250
  6
CONTINUOUS
 10
18.9907539779
 20
11.6004086726
 11
18.9907539779
 21
10.1715856883
  0
LINE
  5
3C2
100
AcDbEntity
  8
RACCORDO
100
AcDbLine
 62
250
  6
CONTINUOUS
 10
18.9907539779
 20
1.6394712958
 11
18.9907539779
 21
0.2106483114
  0
LINE
  5
3C3
100
AcDbEntity
  8
RACCORDO
100
AcDbLine
 62
7
  6
CONTINUOUS
 10
19.0713478674
 20
11.7185418643
 11
19.0713478674
 21
10.28971888
  0
LINE
  5
3C4
100
AcDbEntity
  8
RACCORDO
100
AcDbLine
 62
7
  6
CONTINUOUS
 10
19.0713478674
 20
1.7576044875
 11
19.0713478674
 21
0.3287815031
  0
LINE
  5
3C5
100
AcDbEntity
  8
RACCORDO
100
AcDbLine
 62
250
  6
CONTINUOUS
 10
18.1809816801
 20
19.0365522236
 11
18.1809818211
 21
19.0367689926
  0
LWPOLYLINE
  5
3C6
100
AcDbEntity
  8
RACCORDO
100
AcDbPolyline
 62
7
  6
CONTINUOUS
 90
16
 70
0
 10
19.0713478674
 20
10.28971888
 10
19.0680560254
 20
10.1531235839
 10
19.0581948142
 20
10.0203529444
 10
19.0417880422
 20
9.8916794552
 10
19.0188118827
 20
9.7671321352
 10
18.9893266517
 20
9.647242979
 10
18.9536056605
 20
9.532949333
 10
18.9118406375
 20
9.4244965568
 10
18.8641806037
 20
9.3219792824
 10
18.8110444852
 20
9.2259612504
 10
18.752836758
 20
9.1367292998
 10
18.6897430131
 20
9.0541717697
 10
18.6219424039
 20
8.9782396983
 10
18.5497020182
 20
8.9090105335
 10
18.4733930019
 20
8.8466265933
 10
18.3933639752
 20
8.7911574315
  0
LWPOLYLINE
  5
3C7
100
AcDbEntity
  8
RACCORDO
100
AcDbPolyline
 62
7
  6
CONTINUOUS
 90
16
 70
0
 10
19.0713478674
 20
0.3287815031
 10
19.0680560254
 20
0.192186207
 10
19.0581948142
 20
0.0594155675
 10
19.0417880422
 20
-0.0692579217
 10
19.0188118827
 20
-0.1938052416
 10
18.9893266517
 20
-0.3136943978
 10
18.9536056605
 20
-0.4279880439
 10
18.9118406375
 20
-0.5364408201
 10
18.8641806037
 20
-0.6389580945
 10
18.8110444852
 20
-0.7349761265
 10
18.752836758
 20
-0.8242080771
 10
18.6897430131
 20
-0.9067656072
 10
18.6219424039
 20
-0.9826976785
 10
18.5497020182
 20
-1.0519268434
 10
18.4733930019
 20
-1.1143107835
 10
18.3933639752
 20
-1.1697799453
  0
LWPOLYLINE
  5
3C8
100
AcDbEntity
  8
RACCORDO
100
AcDbPolyline
 62
250
  6
CONTINUOUS
 90
14
 70
0
 10
18.9907539779
 20
10.1715856883
 10
18.9866430024
 20
10.0198909046
 10
18.9743256685
 20
9.8735187885
 10
18.9538486979
 20
9.7330245804
 10
18.9252897645
 20
9.5989412239
 10
18.8887571996
 20
9.4717773442
 10
18.8443895813
 20
9.352015318
 10
18.7923552132
 20
9.2401094546
 10
18.7328514738
 20
9.1364842429
 10
18.6661040607
 20
9.0415327477
 10
18.592366198
 20
8.9556151999
 10
18.5119175618
 20
8.8790574777
 10
18.4250631659
 20
8.8121498987
 10
18.3933639752
 20
8.7911574315
  0
LWPOLYLINE
  5
3C9
100
AcDbEntity
  8
RACCORDO
100
AcDbPolyline
 62
250
  6
CONTINUOUS
 90
14
 70
0
 10
18.9907539779
 20
0.2106483114
 10
18.9866430024
 20
0.0589535277
 10
18.9743256685
 20
-0.0874185884
 10
18.9538486979
 20
-0.2279127965
 10
18.9252897645
 20
-0.3619961529
 10
18.8887571996
 20
-0.4891600326
 10
18.8443895813
 20
-0.6089220588
 10
18.7923552132
 20
-0.7208279223
 10
18.7328514738
 20
-0.824453134
 10
18.6661040607
 20
-0.9194046292
 10
18.592366198
 20
-1.005322177
 10
18.5119175618
 20
-1.0818798992
 10
18.4250631659
 20
-1.1487874782
 10
18.3933639752
 20
-1.1697799453
  0
LWPOLYLINE
  5
3CA
100
AcDbEntity
  8
RACCORDO
100
AcDbPolyline
 62
250
  6
CONTINUOUS
 90
9
 70
0
 10
19.0713478674
 20
11.7185418643
 10
19.0711770948
 20
11.7126981323
 10
19.0685722196
 20
11.6950337232
 10
19.0628538902
 20
11.6776155641
 10
19.0540820066
 20
11.6606261121
 10
19.0423484553
 20
11.6442433333
 10
19.0277761463
 20
11.6286388388
 10
19.0105177259
 20
11.6139760874
 10
18.9907539779
 20
11.6004086726
  0
LWPOLYLINE
  5
3CB
100
AcDbEntity
  8
RACCORDO
100
AcDbPolyline
 62
250
  6
CONTINUOUS
 90
9
 70
0
 10
19.0713478674
 20
10.28971888
 10
19.0711770948
 20
10.2838751479
 10
19.0685722196
 20
10.2662107388
 10
19.0628538902
 20
10.2487925798
 10
19.0540820066
 20
10.2318031277
 10
19.0423484553
 20
10.2154203489
 10
19.0277761463
 20
10.1998158544
 10
19.0105177259
 20
10.185153103
 10
18.9907539779
 20
10.1715856883
  0
LWPOLYLINE
  5
3CC
100
AcDbEntity
  8
RACCORDO
100
AcDbPolyline
 62
250
  6
CONTINUOUS
 90
9
 70
0
 10
19.0713478674
 20
1.7576044875
 10
19.0711770948
 20
1.7517607554
 10
19.0685722196
 20
1.7340963463
 10
19.0628538902
 20
1.7166781873
 10
19.0540820066
 20
1.6996887353
 10
19.0423484553
 20
1.6833059564
 10
19.0277761463
 20
1.667701462
 10
19.0105177259
 20
1.6530387105
 10
18.9907539779
 20
1.6394712958
  0
LWPOLYLINE
  5
3CD
100
AcDbEntity
  8
RACCORDO
100
AcDbPolyline
 62
250
  6
CONTINUOUS
 90
9
 70
0
 10
19.0713478674
 20
0.3287815031
 10
19.0711770948
 20
0.322937771
 10
19.0685722196
 20
0.3052733619
 10
19.0628538902
 20
0.2878552029
 10
19.0540820066
 20
0.2708657509
 10
19.0423484553
 20
0.254482972
 10
19.0277761463
 20
0.2388784776
 10
19.0105177259
 20
0.2242157261
 10
18.9907539779
 20
0.2106483114
  0
LWPOLYLINE
  5
3CE
100
AcDbEntity
  8
RACCORDO
100
AcDbPolyline
 62
250
  6
CONTINUOUS
 90
4
 70
0
 10
18.0288440468
 20
-9.6113819751
 10
18.0337570206
 20
-9.5841649289
 10
18.0366835132
 20
-9.5554780185
 10
18.0376070456
 20
-9.5254827802
  0
LINE
  5
3CF
100
AcDbEntity
  8
DRAFT
100
AcDbLine
 62
7
  6
CONTINUOUS
 10
18.1809818211
 20
-1.3048286395
 11
18.3933639752
 21
-1.1697799453
  0
LINE
  5
3D0
100
AcDbEntity
  8
RACCORDO
100
AcDbLine
 62
250
  6
CONTINUOUS
 10
18.1809818211
 20
-0.2907401396
 11
18.9907539779
 21
0.2106483114
  0
LWPOLYLINE
  5
3D1
100
AcDbEntity
  8
ASSI
100
AcDbPolyline
 62
250
  6
CONTINUOUS
 90
8
 70
0
 10
2.0684324462
 20
19.4423285113
 10
2.0571478643
 20
19.4465795114
 10
2.0449598278
 20
19.4489042919
 10
2.0319989254
 20
19.4492779311
 10
2.018404044
 20
19.4476964193
 10
2.0043208523
 20
19.4441767028
 10
1.9899002362
 20
19.4387564921
 10
1.9752967043
 20
19.4314938606
  0
LWPOLYLINE
  5
3D2
100
AcDbEntity
  8
ASSI
100
AcDbPolyline
 62
250
  6
CONTINUOUS
 90
7
 70
0
 10
0.1581303754
 20
22.2082411128
 10
0.1509293838
 20
22.2118390094
 10
0.1381109574
 20
22.2158886683
 10
0.1242420772
 20
22.217563212
 10
0.1095048792
 20
22.2168406414
 10
0.0940929091
 20
22.2137304382
 10
0.0782085732
 20
22.2082734418
  0
LWPOLYLINE
  5
3D3
100
AcDbEntity
  8
ASSI
100
AcDbPolyline
 62
250
  6
CONTINUOUS
 90
7
 70
0
 10
-1.9196495979
 20
23.4079252273
 10
-1.9268395479
 20
23.4115167336
 10
-1.9396580065
 20
23.4155663832
 10
-1.9535269156
 20
23.4172409223
 10
-1.9682641341
 20
23.4165183591
 10
-1.9836761174
 20
23.4134081832
 10
-1.9995604591
 20
23.4079512405
  0
LWPOLYLINE
  5
3D4
100
AcDbEntity
  8
ASSI
100
AcDbPolyline
 62
250
  6
CONTINUOUS
 90
9
 70
0
 10
3.6000372591
 20
18.55821352
 10
3.5956361654
 20
18.5605402102
 10
3.5843515599
 20
18.5647911874
 10
3.5721635281
 20
18.5671159379
 10
3.5592026522
 20
18.567489553
 10
3.5456078036
 20
18.565908028
 10
3.5315246438
 20
18.5623883078
 10
3.5171040635
 20
18.5569681036
 10
3.5025005701
 20
18.5497054889
  0
LINE
  5
3D5
100
AcDbEntity
  8
ASSI
100
AcDbLine
 62
250
  6
CONTINUOUS
 10
2.0728333933
 20
19.4400018918
 11
2.0684324462
 21
19.4423285113
  0
LINE
  5
3D6
100
AcDbEntity
  8
ASSI
100
AcDbLine
 62
250
  6
CONTINUOUS
 10
-7.1035093889
 20
24.7383072076
 11
-7.1079103361
 21
24.7406338272
  0
LWPOLYLINE
  5
3D7
100
AcDbEntity
  8
ASSI
100
AcDbPolyline
 62
250
  6
CONTINUOUS
 90
7
 70
0
 10
1.9752967043
 20
19.4314938606
 10
1.9609649127
 20
19.439172789
 10
1.9467027996
 20
19.4450356243
 10
1.9326659313
 20
19.4489968462
 10
1.9189926778
 20
19.450991602
 10
1.9058576933
 20
19.4509676628
 10
1.8934612737
 20
19.4489134495
  0
LWPOLYLINE
  5
3D8
100
AcDbEntity
  8
ASSI
100
AcDbPolyline
 62
250
  6
CONTINUOUS
 90
7
 70
0
 10
-7.2010460779
 20
24.7297991765
 10
-7.2153778695
 20
24.7374781049
 10
-7.2296399826
 20
24.7433409402
 10
-7.243676851
 20
24.7473021621
 10
-7.2573501044
 20
24.7492969179
 10
-7.270485089
 20
24.7492729787
 10
-7.2828815085
 20
24.7472187653
  0
LWPOLYLINE
  5
3D9
100
AcDbEntity
  8
ASSI
100
AcDbPolyline
 62
250
  6
CONTINUOUS
 90
4
 70
0
 10
0.0782081992
 20
22.2082736578
 10
0.1062021755
 20
22.1931728989
 10
0.1367832661
 20
22.1791465447
 10
0.1699380028
 20
22.1660902176
  0
LINE
  5
3DA
100
AcDbEntity
  8
DRAFT
100
AcDbLine
 62
7
  6
CONTINUOUS
 10
3.3102597597
 20
17.9698489545
 11
-1.697627545
 21
20.8613403206
  0
LINE
  5
3DB
100
AcDbEntity
  8
DRAFT
100
AcDbLine
 62
7
  6
CONTINUOUS
 10
-6.6727590047
 20
23.7339188724
 11
-11.6806463093
 21
26.6254102385
  0
LINE
  5
3DC
100
AcDbEntity
  8
ASSI
100
AcDbLine
 62
250
  6
CONTINUOUS
 10
-3.6614139536
 20
22.6768498408
 11
0.2188969123
 21
20.4364069785
  0
LINE
  5
3DD
100
AcDbEntity
  8
ASSI
100
AcDbLine
 62
250
  6
CONTINUOUS
 10
3.5025005701
 20
18.5497054889
 11
1.9752967043
 21
19.4314938606
  0
LINE
  5
3DE
100
AcDbEntity
  8
ASSI
100
AcDbLine
 62
250
  6
CONTINUOUS
 10
-5.6738422122
 20
23.8480108047
 11
-7.2010460779
 21
24.7297991765
  0
LINE
  5
3DF
100
AcDbEntity
  8
ASSI
100
AcDbLine
 62
7
  6
CONTINUOUS
 10
3.6000372591
 20
18.55821352
 11
2.0728333933
 21
19.4400018918
  0
LINE
  5
3E0
100
AcDbEntity
  8
ASSI
100
AcDbLine
 62
7
  6
CONTINUOUS
 10
-5.5763055231
 20
23.8565188359
 11
-7.1035093889
 21
24.7383072076
  0
LINE
  5
3E1
100
AcDbEntity
  8
ASSI
100
AcDbLine
 62
250
  6
CONTINUOUS
 10
-3.5222747687
 20
22.8195901148
 11
0.3247067017
 21
20.5983912278
  0
LINE
  5
3E2
100
AcDbEntity
  8
DRAFT
100
AcDbLine
 62
7
  6
CONTINUOUS
 10
2.4715231734
 20
19.7203009374
 11
2.3343462695
 21
19.7995051625
  0
LINE
  5
3E3
100
AcDbEntity
  8
ASSI
100
AcDbLine
 62
7
  6
CONTINUOUS
 10
3.7556285232
 20
19.4930416887
 11
2.9353593664
 21
19.9666548194
  0
LINE
  5
3E4
100
AcDbEntity
  8
ASSI
100
AcDbLine
 62
250
  6
CONTINUOUS
 10
-3.140462498
 20
23.6294606305
 11
0.5960916958
 21
21.4720210691
  0
LINE
  5
3E5
100
AcDbEntity
  8
ASSI
100
AcDbLine
 62
250
  6
CONTINUOUS
 10
-3.0179880109
 20
23.7818228921
 11
0.7185661829
 21
21.6243833306
  0
LINE
  5
3E6
100
AcDbEntity
  8
ASSI
100
AcDbLine
 62
250
  6
CONTINUOUS
 10
3.2632870566
 20
20.3126746028
 11
3.3808492839
 21
20.2447956462
  0
LINE
  5
3E7
100
AcDbEntity
  8
ASSI
100
AcDbLine
 62
250
  6
CONTINUOUS
 10
0.8549616089
 20
21.7059453383
 11
-2.8767275709
 21
23.8605759016
  0
LINE
  5
3E8
100
AcDbEntity
  8
ASSI
100
AcDbLine
 62
250
  6
CONTINUOUS
 10
-1.9995604591
 20
23.4079512405
 11
0.0782081992
 21
22.2082736578
  0
LINE
  5
3E9
100
AcDbEntity
  8
ASSI
100
AcDbLine
 62
7
  6
CONTINUOUS
 10
-1.9196384423
 20
23.4079187876
 11
0.1581303754
 21
22.2082411128
  0
LINE
  5
3EA
100
AcDbEntity
  8
ASSI
100
AcDbLine
 62
250
  6
CONTINUOUS
 10
1.0045477366
 20
21.7538720283
 11
0.4101127475
 21
22.097091341
  0
LINE
  5
3EB
100
AcDbEntity
  8
ASSI
100
AcDbLine
 62
250
  6
CONTINUOUS
 10
-2.1330424708
 20
23.5654772908
 11
-2.7274774599
 21
23.9086966035
  0
LINE
  5
3EC
100
AcDbEntity
  8
ASSI
100
AcDbLine
 62
7
  6
CONTINUOUS
 10
-2.9924364014
 20
24.4765702517
 11
-2.1032647552
 21
23.9631736872
  0
LINE
  5
3ED
100
AcDbEntity
  8
ASSI
100
AcDbLine
 62
7
  6
CONTINUOUS
 10
3.7505386067
 20
20.5832609914
 11
6.2186010631
 21
19.1582326611
  0
LINE
  5
3EE
100
AcDbEntity
  8
ASSI
100
AcDbLine
 62
250
  6
CONTINUOUS
 10
3.0413193129
 20
21.8046691155
 11
2.6125885402
 21
22.0522128904
  0
LINE
  5
3EF
100
AcDbEntity
  8
ASSI
100
AcDbLine
 62
250
  6
CONTINUOUS
 10
-0.3546298638
 20
23.7654476089
 11
-0.7833606366
 21
24.0129913839
  0
LINE
  5
3F0
100
AcDbEntity
  8
ASSI
100
AcDbLine
 62
7
  6
CONTINUOUS
 10
7.1318712305
 20
19.6739088509
 11
6.0325266373
 21
20.308656641
  0
LINE
  5
3F1
100
AcDbEntity
  8
ASSI
100
AcDbLine
 62
7
  6
CONTINUOUS
 10
-0.9678843444
 20
24.350606206
 11
-2.0672289376
 21
24.9853539961
  0
LINE
  5
3F2
100
AcDbEntity
  8
ASSI
100
AcDbLine
 62
250
  6
CONTINUOUS
 10
2.8415910476
 20
22.1513309689
 11
0.7030434261
 21
23.3861015632
  0
LWPOLYLINE
  5
3F3
100
AcDbEntity
  8
ASSI
100
AcDbPolyline
 62
7
  6
CONTINUOUS
 90
11
 70
0
 10
-1.9196495981
 20
23.4079252274
 10
-1.9412395675
 20
23.4210870051
 10
-1.9592284189
 20
23.433246117
 10
-1.9746531579
 20
23.4447354989
 10
-1.9879498331
 20
23.4556279059
 10
-1.9992437606
 20
23.4657355982
 10
-2.0086792278
 20
23.4749126233
 10
-2.016640388
 20
23.4833167328
 10
-2.0233198596
 20
23.4909438178
 10
-2.0286618712
 20
23.4975104064
 10
-2.03208886
 20
23.5020065457
  0
LWPOLYLINE
  5
3F4
100
AcDbEntity
  8
ASSI
100
AcDbPolyline
 62
7
  6
CONTINUOUS
 90
13
 70
0
 10
7.1318712305
 20
19.6739088509
 10
7.1911818044
 20
19.6376142791
 10
7.249975938
 20
19.5975698588
 10
7.3082536311
 20
19.5537755902
 10
7.366259182
 20
19.5060256711
 10
7.4237482924
 20
19.4545259035
 10
7.4799880679
 20
19.3998936941
 10
7.5349574261
 20
19.3420688532
 10
7.5886774494
 20
19.2811115704
 10
7.6404784904
 20
19.2178198216
 10
7.6901373333
 20
19.1524595986
 10
7.737877194
 20
19.0847649094
 10
7.7836980724
 20
19.0147357542
  0
LWPOLYLINE
  5
3F5
100
AcDbEntity
  8
ASSI
100
AcDbPolyline
 62
250
  6
CONTINUOUS
 90
16
 70
0
 10
-5.6738422122
 20
23.8480108047
 10
-5.6591402719
 20
23.8389372243
 10
-5.6445433575
 20
23.8281713702
 10
-5.6302102156
 20
23.8158025856
 10
-5.6162919319
 20
23.8019308931
 10
-5.6029576537
 20
23.7866932618
 10
-5.5903879683
 20
23.7702706766
 10
-5.5787194258
 20
23.7528177692
 10
-5.5681031368
 20
23.7345347564
 10
-5.5587093594
 20
23.7157084532
 10
-5.5506529384
 20
23.6965922765
 10
-5.5439952367
 20
23.6773587818
 10
-5.5387950952
 20
23.6581857988
 10
-5.5351093358
 20
23.6392737246
 10
-5.5329835092
 20
23.6208434222
 10
-5.5324423951
 20
23.6030991376
  0
LINE
  5
3F6
100
AcDbEntity
  8
ASSI
100
AcDbLine
 62
250
  6
CONTINUOUS
 10
-2.0270152162
 20
23.4253859769
 11
-1.9995604591
 21
23.4079512405
  0
LWPOLYLINE
  5
3F7
100
AcDbEntity
  8
ASSI
100
AcDbPolyline
 62
250
  6
CONTINUOUS
 90
10
 70
0
 10
3.2356535147
 20
21.566902906
 10
3.2254329081
 20
21.5745391518
 10
3.2146814879
 20
21.5815606177
 10
3.2034758454
 20
21.5879212928
 10
3.1917832041
 20
21.5935449638
 10
3.1797653603
 20
21.5984571067
 10
3.1677660918
 20
21.6027685421
 10
3.1559135372
 20
21.6065003139
 10
3.144132328
 20
21.6095964427
 10
3.1324392737
 20
21.6120470083
  0
LINE
  5
3F8
100
AcDbEntity
  8
DRAFT
100
AcDbLine
 62
7
  6
CONTINUOUS
 10
0.3323629017
 20
26.8666793101
 11
0.3323211488
 21
26.8667180571
  0
LINE
  5
3F9
100
AcDbEntity
  8
DRAFT
100
AcDbLine
 62
7
  6
CONTINUOUS
 10
10.8761811644
 20
21.4123550151
 11
10.8659413159
 21
21.4282203072
  0
LINE
  5
3FA
100
AcDbEntity
  8
DRAFT
100
AcDbLine
 62
7
  6
CONTINUOUS
 10
13.696939152
 20
19.3934632064
 11
13.5931884332
 21
19.5786865772
  0
LWPOLYLINE
  5
3FB
100
AcDbEntity
  8
DRAFT
100
AcDbPolyline
 62
7
  6
CONTINUOUS
 90
4
 70
0
 10
12.8293307853
 20
20.4306417281
 10
12.8667667737
 20
20.3343191436
 10
12.9345541176
 20
20.1468633491
 10
12.997501508
 20
19.958821381
  0
LWPOLYLINE
  5
3FC
100
AcDbEntity
  8
RACCORDO
100
AcDbPolyline
 62
250
  6
CONTINUOUS
 90
3
 70
0
 10
18.0131803461
 20
-9.6608025765
 10
18.021972257
 20
-9.6369758975
 10
18.0288440468
 20
-9.6113819751
  0
LWPOLYLINE
  5
3FD
100
AcDbEntity
  8
RACCORDO
100
AcDbPolyline
 62
7
  6
CONTINUOUS
 90
4
 70
0
 10
7.7936801368
 20
-15.7453071219
 10
7.8094933129
 20
-15.7296982449
 10
7.8235436091
 20
-15.7120380829
 10
7.8358310254
 20
-15.6923266358
  0
LINE
  5
3FE
100
AcDbEntity
  8
RACCORDO
100
AcDbLine
 62
7
  6
CONTINUOUS
 10
4.3272191912
 20
-17.9472149929
 11
4.41540501
 21
-17.8765327174
  0
LWPOLYLINE
  5
3FF
100
AcDbEntity
  8
RACCORDO
100
AcDbPolyline
 62
7
  6
CONTINUOUS
 90
6
 70
0
 10
3.8758240307
 20
-18.2837857735
 10
3.9674985383
 20
-18.2187170303
 10
4.0584753081
 20
-18.1525255806
 10
4.1487543402
 20
-18.0852114245
 10
4.2383356346
 20
-18.0167745619
 10
4.3272191912
 20
-17.9472149929
  0
LWPOLYLINE
  5
400
100
AcDbEntity
  8
DRAFT
100
AcDbPolyline
 62
7
  6
CONTINUOUS
 90
28
 70
0
 10
13.5931884332
 20
19.5786865772
 10
13.4781162038
 20
19.5711284846
 10
13.3609335384
 20
19.5729648574
 10
13.2422089554
 20
19.5841421641
 10
13.1222307632
 20
19.6051567844
 10
13.0017573073
 20
19.6353602933
 10
12.8820594007
 20
19.672877111
 10
12.764128514
 20
19.7172702776
 10
12.6478928915
 20
19.7685290398
 10
12.5329842021
 20
19.8253922746
 10
12.4194951545
 20
19.8877208704
 10
12.3079774248
 20
19.9553364378
 10
12.198689928
 20
20.0269786662
 10
12.0918917841
 20
20.1023907116
 10
11.9877914358
 20
20.1814697535
 10
11.8865300789
 20
20.2631879498
 10
11.788531461
 20
20.3470613691
 10
11.6936718627
 20
20.4332024536
 10
11.6012716042
 20
20.5215467151
 10
11.5114496546
 20
20.6119380393
 10
11.4243501052
 20
20.7043027374
 10
11.3393927301
 20
20.7988167771
 10
11.2567383952
 20
20.8953823114
 10
11.1765204245
 20
20.9939614807
 10
11.0982145028
 20
21.0949224432
 10
11.0218072757
 20
21.1983918043
 10
10.9477286799
 20
21.3041959494
 10
10.8761811644
 20
21.4122960929
  0
LWPOLYLINE
  5
401
100
AcDbEntity
  8
ASSI
100
AcDbPolyline
 62
7
  6
CONTINUOUS
 90
10
 70
0
 10
2.7058998851
 20
19.9507745991
 10
2.686376151
 20
19.9510617737
 10
2.6673441558
 20
19.9503882563
 10
2.6488038995
 20
19.948754047
 10
2.6306192407
 20
19.9461241479
 10
2.6129263208
 20
19.9425335568
 10
2.5961335639
 20
19.9380872676
 10
2.5803771113
 20
19.9328202783
 10
2.5655208216
 20
19.9266975909
 10
2.5515646948
 20
19.9197192054
  0
LINE
  5
402
100
AcDbEntity
  8
ASSI
100
AcDbLine
 62
7
  6
CONTINUOUS
 10
2.7465565897
 20
19.9499672591
 11
2.7058998851
 21
19.9507745991
  0
LWPOLYLINE
  5
403
100
AcDbEntity
  8
ASSI
100
AcDbPolyline
 62
250
  6
CONTINUOUS
 90
16
 70
0
 10
0.861896074
 20
21.3954123893
 10
0.8481330014
 20
21.3970752387
 10
0.8329991708
 20
21.3994153259
 10
0.8166546895
 20
21.4024078946
 10
0.7992721449
 20
21.4060213574
 10
0.7810357321
 20
21.4102174355
 10
0.7621394478
 20
21.4149514601
 10
0.7427840118
 20
21.4201730635
 10
0.7231735078
 20
21.425827109
 10
0.7035142416
 20
21.4318540864
 10
0.6840064377
 20
21.4381928278
 10
0.6648643834
 20
21.4447739205
 10
0.6463113566
 20
21.4515199781
 10
0.6285475906
 20
21.4583566943
 10
0.6117500604
 20
21.4652143952
 10
0.5960916958
 20
21.4720210691
  0
LWPOLYLINE
  5
404
100
AcDbEntity
  8
ASSI
100
AcDbPolyline
 62
250
  6
CONTINUOUS
 90
13
 70
0
 10
0.5905110799
 20
20.521782548
 10
0.5731014168
 20
20.5239656647
 10
0.5536144846
 20
20.5271962177
 10
0.5323717512
 20
20.5314209145
 10
0.5097236495
 20
20.5365700624
 10
0.4860437974
 20
20.5425587183
 10
0.4617228347
 20
20.5492880895
 10
0.4371619766
 20
20.5566471641
 10
0.4127663968
 20
20.5645145418
 10
0.3889385445
 20
20.5727604364
 10
0.3660715024
 20
20.5812488176
 10
0.3445425018
 20
20.5898396549
 10
0.3247067017
 20
20.5983912278
  0
LWPOLYLINE
  5
405
100
AcDbEntity
  8
ASSI
100
AcDbPolyline
 62
250
  6
CONTINUOUS
 90
27
 70
0
 10
3.1324386563
 20
21.6120432086
 10
3.124934068
 20
21.6134758475
 10
3.1174684786
 20
21.6146992417
 10
3.1100452631
 20
21.6157131442
 10
3.1027169233
 20
21.6165101379
 10
3.0954362439
 20
21.6170973595
 10
3.0880560442
 20
21.61749649
 10
3.0805426532
 20
21.6177181526
 10
3.0729317874
 20
21.6177516669
 10
3.0651795607
 20
21.6175867921
 10
3.0572866961
 20
21.617226148
 10
3.0492521731
 20
21.616667121
 10
3.0410287992
 20
21.6158916376
 10
3.0326094512
 20
21.6148997721
 10
3.023998007
 20
21.6136915571
 10
3.0151627473
 20
21.6122489116
 10
3.0060942939
 20
21.6105685116
 10
2.9967950343
 20
21.6086541384
 10
2.9872496672
 20
21.6064985238
 10
2.9774517
 20
21.6040972092
 10
2.9673966192
 20
21.6014559809
 10
2.9570712183
 20
21.5985832289
 10
2.9464725333
 20
21.5954760591
 10
2.9355892986
 20
21.5921402494
 10
2.924395918
 20
21.5885975687
 10
2.9128943402
 20
21.5848495526
 10
2.8888592557
 20
21.5767729828
  0
LWPOLYLINE
  5
406
100
AcDbEntity
  8
ASSI
100
AcDbPolyline
 62
250
  6
CONTINUOUS
 90
21
 70
0
 10
3.1476682253
 20
21.4652501797
 10
3.1441728273
 20
21.4659774654
 10
3.1407016397
 20
21.4664356047
 10
3.1372786946
 20
21.4666425076
 10
3.1338884355
 20
21.4665999943
 10
3.1304658882
 20
21.4662903194
 10
3.1269791272
 20
21.4657293888
 10
3.1234442572
 20
21.4649136074
 10
3.1198537337
 20
21.4637941503
 10
3.1161885916
 20
21.4623877783
 10
3.1124394796
 20
21.4606942459
 10
3.1086000799
 20
21.4586428824
 10
3.1046379704
 20
21.4562527958
 10
3.1005370796
 20
21.4535286654
 10
3.0962975721
 20
21.450385
 10
3.0918731361
 20
21.4468439441
 10
3.0872342516
 20
21.4429196639
 10
3.082383023
 20
21.438524591
 10
3.0772566635
 20
21.4336866651
 10
3.0718065347
 20
21.4284316459
 10
3.0598306156
 20
21.4164675334
  0
LINE
  5
407
100
AcDbEntity
  8
DRAFT
100
AcDbLine
 62
7
  6
CONTINUOUS
 10
-7.1903970949
 20
23.1948674048
 11
-6.6727590047
 21
23.0630890627
  0
LINE
  5
408
100
AcDbEntity
  8
ASSI
100
AcDbLine
 62
250
  6
CONTINUOUS
 10
0.3672415309
 20
22.1087692157
 11
0.4101127475
 21
22.097091341
  0
LWPOLYLINE
  5
409
100
AcDbEntity
  8
ASSI
100
AcDbPolyline
 62
250
  6
CONTINUOUS
 90
3
 70
0
 10
0.2445614236
 20
22.1417889287
 10
0.2844804463
 20
22.1305553874
 10
0.3672415309
 20
22.1087692157
  0
LINE
  5
40A
100
AcDbEntity
  8
ASSI
100
AcDbLine
 62
250
  6
CONTINUOUS
 10
3.1511835414
 20
21.4642441753
 11
3.1476682253
 21
21.4652501797
  0
LWPOLYLINE
  5
40B
100
AcDbEntity
  8
ASSI
100
AcDbPolyline
 62
250
  6
CONTINUOUS
 90
11
 70
0
 10
0.4995900831
 20
22.0671100913
 10
0.5453782078
 20
22.0532922938
 10
0.5919578569
 20
22.040193762
 10
0.6392371438
 20
22.0278771151
 10
0.6869404094
 20
22.0165302113
 10
0.7351964103
 20
22.006111376
 10
0.7838763899
 20
21.9966622837
 10
0.8323184179
 20
21.9884958155
 10
0.8806782935
 20
21.9815968263
 10
0.9288002175
 20
21.9759804612
 10
0.9755548637
 20
21.9720050359
  0
LINE
  5
40C
100
AcDbEntity
  8
ASSI
100
AcDbLine
 62
250
  6
CONTINUOUS
 10
0.4545015963
 20
22.0817097737
 11
0.4995900831
 21
22.0671100913
  0
LWPOLYLINE
  5
40D
100
AcDbEntity
  8
ASSI
100
AcDbPolyline
 62
250
  6
CONTINUOUS
 90
3
 70
0
 10
0.1699380028
 20
22.1660902176
 10
0.2059989735
 20
22.1536756728
 10
0.2445614236
 20
22.1417889287
  0
LINE
  5
40E
100
AcDbEntity
  8
ASSI
100
AcDbLine
 62
7
  6
CONTINUOUS
 10
0.4175875433
 20
22.1029451992
 11
0.4175578893
 21
22.1029554264
  0
LINE
  5
40F
100
AcDbEntity
  8
ASSI
100
AcDbLine
 62
250
  6
CONTINUOUS
 10
0.4101127475
 20
22.097091341
 11
0.4545015963
 21
22.0817097737
  0
LINE
  5
410
100
AcDbEntity
  8
ASSI
100
AcDbLine
 62
7
  6
CONTINUOUS
 10
0.41755789
 20
22.1029554261
 11
0.3511409916
 21
22.1262496952
  0
LWPOLYLINE
  5
411
100
AcDbEntity
  8
ASSI
100
AcDbPolyline
 62
7
  6
CONTINUOUS
 90
8
 70
0
 10
0.3511409916
 20
22.1262496952
 10
0.3164117045
 20
22.1385527583
 10
0.2837063438
 20
22.1506483304
 10
0.2531413032
 20
22.1626624688
 10
0.2246389804
 20
22.1747586958
 10
0.1985653454
 20
22.1868644698
 10
0.1749922171
 20
22.1988785198
 10
0.1582134388
 20
22.2081930733
  0
LWPOLYLINE
  5
412
100
AcDbEntity
  8
ASSI
100
AcDbPolyline
 62
250
  6
CONTINUOUS
 90
8
 70
0
 10
-7.1079103361
 20
24.7406338272
 10
-7.1191949179
 20
24.7448848273
 10
-7.1313829544
 20
24.7472096078
 10
-7.1443438568
 20
24.7475832469
 10
-7.1579387382
 20
24.7460017351
 10
-7.1720219299
 20
24.7424820187
 10
-7.186442546
 20
24.737061808
 10
-7.2010460779
 20
24.7297991765
  0
LINE
  5
413
100
AcDbEntity
  8
ASSI
100
AcDbLine
 62
250
  6
CONTINUOUS
 10
5.9028701145
 20
23.8633548776
 11
5.9207173438
 21
23.8543556553
  0
LWPOLYLINE
  5
414
100
AcDbEntity
  8
ASSI
100
AcDbPolyline
 62
250
  6
CONTINUOUS
 90
3
 70
0
 10
2.5799319805
 20
25.7832832542
 10
2.5628009543
 20
25.7922809922
 10
2.5459314259
 20
25.7986487694
  0
LINE
  5
415
100
AcDbEntity
  8
DRAFT
100
AcDbLine
 62
7
  6
CONTINUOUS
 10
7.5531116786
 20
19.5367140153
 11
6.820920673
 21
19.9594719254
  0
LINE
  5
416
100
AcDbEntity
  8
DRAFT
100
AcDbLine
 62
7
  6
CONTINUOUS
 10
-1.6148570239
 20
24.8301842425
 11
-2.3470480294
 21
25.2529421526
  0
LINE
  5
417
100
AcDbEntity
  8
ASSI
100
AcDbLine
 62
250
  6
CONTINUOUS
 10
2.959484072
 20
22.2175568595
 11
0.8548919709
 21
23.432721962
  0
LINE
  5
418
100
AcDbEntity
  8
ASSI
100
AcDbLine
 62
250
  6
CONTINUOUS
 10
3.4905257184
 20
21.9481905031
 11
3.0549404366
 21
22.1996919857
  0
LINE
  5
419
100
AcDbEntity
  8
ASSI
100
AcDbLine
 62
250
  6
CONTINUOUS
 10
0.099526956
 20
23.9061106894
 11
-0.3360583258
 21
24.1576121719
  0
LINE
  5
41A
100
AcDbEntity
  8
ASSI
100
AcDbLine
 62
7
  6
CONTINUOUS
 10
3.4927346806
 20
22.5201186676
 11
1.8695360304
 21
23.4573332248
  0
LINE
  5
41B
100
AcDbEntity
  8
0
100
AcDbLine
 62
7
  6
CONTINUOUS
 10
2.2279247191
 20
23.8200394951
 11
3.9860216327
 21
22.8049363713
  0
LINE
  5
41C
100
AcDbEntity
  8
ASSI
100
AcDbLine
 62
250
  6
CONTINUOUS
 10
3.9312238728
 20
23.7420375464
 11
4.7701238923
 21
23.2576671889
  0
LINE
  5
41D
100
AcDbEntity
  8
ASSI
100
AcDbLine
 62
250
  6
CONTINUOUS
 10
4.0165270417
 20
23.8186060078
 11
4.8790814375
 21
23.32057791
  0
LINE
  5
41E
100
AcDbEntity
  8
ASSI
100
AcDbLine
 62
7
  6
CONTINUOUS
 10
5.6486381818
 20
23.7649103293
 11
4.7596805832
 21
24.2781833055
  0
LINE
  5
41F
100
AcDbEntity
  8
ASSI
100
AcDbLine
 62
250
  6
CONTINUOUS
 10
6.3060892265
 20
23.6318467601
 11
5.9207173438
 21
23.8543556553
  0
LINE
  5
420
100
AcDbEntity
  8
ASSI
100
AcDbLine
 62
250
  6
CONTINUOUS
 10
2.9653038632
 20
25.560774359
 11
2.5799319805
 21
25.7832832542
  0
LINE
  5
421
100
AcDbEntity
  8
ASSI
100
AcDbLine
 62
250
  6
CONTINUOUS
 10
6.3972659548
 20
23.6709614252
 11
6.0118448796
 21
23.8934987236
  0
LINE
  5
422
100
AcDbEntity
  8
ASSI
100
AcDbLine
 62
250
  6
CONTINUOUS
 10
3.0571890293
 20
25.599479981
 11
2.6717679541
 21
25.8220172794
  0
LINE
  5
423
100
AcDbEntity
  8
0
100
AcDbLine
 62
7
  6
CONTINUOUS
 10
4.4216981338
 20
25.0866967703
 11
6.2870725689
 21
24.0096529501
  0
LINE
  5
424
100
AcDbEntity
  8
DRAFT
100
AcDbLine
 62
7
  6
CONTINUOUS
 10
0.9869260764
 20
27.1322398933
 11
2.1511246715
 21
26.4600462153
  0
LINE
  5
425
100
AcDbEntity
  8
DRAFT
100
AcDbLine
 62
7
  6
CONTINUOUS
 10
10.8659413158
 20
21.4282203072
 11
9.7017427208
 21
22.1004139852
  0
LWPOLYLINE
  5
426
100
AcDbEntity
  8
ASSI
100
AcDbPolyline
 62
250
  6
CONTINUOUS
 90
13
 70
0
 10
6.3060892265
 20
23.6318467601
 10
6.3238312898
 20
23.6207092132
 10
6.3413025281
 20
23.6072490622
 10
6.3582362504
 20
23.5916717704
 10
6.3743739707
 20
23.5742151186
 10
6.3894693534
 20
23.555145575
 10
6.4032919741
 20
23.5347542282
 10
6.4156308363
 20
23.5133523434
 10
6.4262975925
 20
23.4912666111
 10
6.4351294193
 20
23.4688341607
 10
6.4419915026
 20
23.446397414
 10
6.4467790955
 20
23.4242988583
 10
6.4494191176
 20
23.4028758187
  0
LWPOLYLINE
  5
427
100
AcDbEntity
  8
ASSI
100
AcDbPolyline
 62
250
  6
CONTINUOUS
 90
13
 70
0
 10
6.3972659548
 20
23.6709614252
 10
6.4143117078
 20
23.6595148177
 10
6.4305402548
 20
23.6455180014
 10
6.4457043917
 20
23.6291841852
 10
6.4595731286
 20
23.6107621765
 10
6.4719352077
 20
23.5905325914
 10
6.4826023216
 20
23.5688035802
 10
6.4914119819
 20
23.5459061336
 10
6.4982299941
 20
23.5221890405
 10
6.5029525016
 20
23.4980135753
 10
6.5055075682
 20
23.4737479945
 10
6.5058562734
 20
23.4497619275
 10
6.5039933054
 20
23.4264207458
  0
LWPOLYLINE
  5
428
100
AcDbEntity
  8
ASSI
100
AcDbPolyline
 62
250
  6
CONTINUOUS
 90
13
 70
0
 10
7.9277989027
 20
24.0735229518
 10
7.9448446559
 20
24.0620763441
 10
7.961073203
 20
24.0480795277
 10
7.9762373401
 20
24.0317457114
 10
7.990106077
 20
24.0133237025
 10
8.002468156
 20
23.9930941173
 10
8.0131352699
 20
23.9713651061
 10
8.0219449302
 20
23.9484676595
 10
8.0287629422
 20
23.9247505665
 10
8.0334854497
 20
23.9005751014
 10
8.0360405162
 20
23.8763095207
 10
8.0363892214
 20
23.8523234539
 10
8.0345262534
 20
23.8289822723
  0
LWPOLYLINE
  5
429
100
AcDbEntity
  8
ASSI
100
AcDbPolyline
 62
250
  6
CONTINUOUS
 90
6
 70
0
 10
4.245370272
 20
26.2456003009
 10
4.2328953592
 20
26.2547464282
 10
4.2200837066
 20
26.2612685768
 10
4.2071141212
 20
26.2650757196
 10
4.1941676143
 20
26.2661147216
 10
4.1903578129
 20
26.2658873869
  0
LWPOLYLINE
  5
42A
100
AcDbEntity
  8
RACCORDO
100
AcDbPolyline
 62
7
  6
CONTINUOUS
 90
17
 70
0
 10
18.1809818211
 20
14.2236859526
 10
18.2540116138
 20
14.1208147373
 10
18.3523306568
 20
13.9712913724
 10
18.445455266
 20
13.8181302577
 10
18.5331377041
 20
13.6617607907
 10
18.6150907898
 20
13.5026969142
 10
18.6910411929
 20
13.3414589586
 10
18.7607665127
 20
13.1784828078
 10
18.8240204324
 20
13.0142736725
 10
18.8805558893
 20
12.8493778896
 10
18.9301626895
 20
12.6842768764
 10
18.9726347938
 20
12.5194647115
 10
19.0077629388
 20
12.355497913
 10
19.0353599879
 20
12.1929153341
 10
19.0552587283
 20
12.0322233496
 10
19.0673030605
 20
11.8739269447
 10
19.0713478674
 20
11.7185418643
  0
LWPOLYLINE
  5
42B
100
AcDbEntity
  8
RACCORDO
100
AcDbPolyline
 62
250
  6
CONTINUOUS
 90
16
 70
0
 10
18.1809818211
 20
14.0173021845
 10
18.2334774385
 20
13.938215451
 10
18.3321321657
 20
13.7774081448
 10
18.425063053
 20
13.6130902406
 10
18.5119174811
 20
13.4458853366
 10
18.592366161
 20
13.2764274651
 10
18.6661040518
 20
13.1053592217
 10
18.7328514698
 20
12.9333294762
 10
18.7923552058
 20
12.7609908496
 10
18.8443895726
 20
12.5889970104
 10
18.8887571937
 20
12.4180003647
 10
18.9252897614
 20
12.2486495855
 10
18.9538486967
 20
12.081587081
 10
18.9743256681
 20
11.9174465762
 10
18.9866430023
 20
11.756850709
 10
18.9907539779
 20
11.6004086726
  0
LWPOLYLINE
  5
42C
100
AcDbEntity
  8
RACCORDO
100
AcDbPolyline
 62
7
  6
CONTINUOUS
 90
9
 70
0
 10
18.129006547
 20
19.2587461195
 10
18.0154653953
 20
19.4863939283
 10
17.9006547244
 20
19.7135712185
 10
17.7845839088
 20
19.9402596054
 10
17.6672624951
 20
20.166440601
 10
17.5486999786
 20
20.3920960436
 10
17.4289057964
 20
20.6172080936
 10
17.3078896261
 20
20.8417586658
 10
17.1591436642
 20
21.1139533277
  0
LWPOLYLINE
  5
42D
100
AcDbEntity
  8
RACCORDO
100
AcDbPolyline
 62
250
  6
CONTINUOUS
 90
10
 70
0
 10
17.9599575555
 20
19.1345239871
 10
17.8528631221
 20
19.3493364389
 10
17.7438119478
 20
19.5653768015
 10
17.6327861634
 20
19.7826194966
 10
17.5207485604
 20
19.9991550206
 10
17.406721274
 20
20.2168478176
 10
17.287686431
 20
20.4412941521
 10
17.1625251857
 20
20.6742935318
 10
17.0321172795
 20
20.9138905344
 10
16.8963507298
 20
21.1600031012
  0
LWPOLYLINE
  5
42E
100
AcDbEntity
  8
RACCORDO
100
AcDbPolyline
 62
250
  6
CONTINUOUS
 90
5
 70
0
 10
17.9599575558
 20
-9.7359182012
 10
17.9758312903
 20
-9.7203916988
 10
17.9900447243
 20
-9.7026282375
 10
18.0025178216
 20
-9.6827278437
 10
18.0131803461
 20
-9.6608025765
  0
LINE
  5
42F
100
AcDbEntity
  8
RACCORDO
100
AcDbLine
 62
250
  6
CONTINUOUS
 10
18.0076495307
 20
-9.7016689363
 11
18.0077076008
 21
-9.7016188287
  0
LWPOLYLINE
  5
430
100
AcDbEntity
  8
RACCORDO
100
AcDbPolyline
 62
250
  6
CONTINUOUS
 90
3
 70
0
 10
17.9599575558
 20
-9.7359182012
 10
17.9894064692
 20
-9.7163075815
 10
18.0076495307
 20
-9.7016689363
  0
LWPOLYLINE
  5
431
100
AcDbEntity
  8
RACCORDO
100
AcDbPolyline
 62
250
  6
CONTINUOUS
 90
10
 70
0
 10
16.8963507332
 20
-10.5331708113
 10
17.0202525563
 20
-10.4517788243
 10
17.1416986322
 20
-10.3692616949
 10
17.2607159743
 20
-10.2856863726
 10
17.3759818186
 20
-10.2021134516
 10
17.4889005419
 20
-10.1176558236
 10
17.6034702435
 20
-10.0292674812
 10
17.7209050565
 20
-9.9357618541
 10
17.8397684698
 20
-9.8380231103
 10
17.9599575555
 20
-9.7359182014
  0
LWPOLYLINE
  5
432
100
AcDbEntity
  8
RACCORDO
100
AcDbPolyline
 62
7
  6
CONTINUOUS
 90
10
 70
0
 10
16.9075167431
 20
-10.5262630409
 10
17.0345222655
 20
-10.4428440839
 10
17.1605351926
 20
-10.3572468374
 10
17.2853243477
 20
-10.2696195267
 10
17.4088744983
 20
-10.1799715053
 10
17.531176955
 20
-10.0883077438
 10
17.652229271
 20
-9.9946282925
 10
17.7720225944
 20
-9.8989377571
 10
17.8905419713
 20
-9.8012458344
 10
18.0077757272
 20
-9.7015600135
  0
LWPOLYLINE
  5
433
100
AcDbEntity
  8
RACCORDO
100
AcDbPolyline
 62
250
  6
CONTINUOUS
 90
10
 70
0
 10
18.0376070456
 20
-9.5254827795
 10
18.0666228058
 20
-9.5068863855
 10
18.0927441013
 20
-9.4869050263
 10
18.1157728964
 20
-9.4656882544
 10
18.1355353325
 20
-9.4433936867
 10
18.151879404
 20
-9.4201898188
 10
18.164678214
 20
-9.3962552664
 10
18.1738349501
 20
-9.3717717846
 10
18.1792816101
 20
-9.3469221916
 10
18.1809818211
 20
-9.3231346671
  0
LINE
  5
434
100
AcDbEntity
  8
DRAFT
100
AcDbLine
 62
7
  6
CONTINUOUS
 10
13.6509282275
 20
-12.4573410551
 11
13.696939152
 21
-12.4280989501
  0
LINE
  5
435
100
AcDbEntity
  8
RACCORDO
100
AcDbLine
 62
7
  6
CONTINUOUS
 10
16.8994310881
 20
-10.5313246438
 11
16.907511079
 21
-10.5262598918
  0
LWPOLYLINE
  5
436
100
AcDbEntity
  8
DRAFT
100
AcDbPolyline
 62
7
  6
CONTINUOUS
 90
3
 70
0
 10
13.5931884332
 20
-12.4935135915
 10
13.6047564629
 20
-12.4863128896
 10
13.6509282275
 20
-12.4573410551
  0
LINE
  5
437
100
AcDbEntity
  8
DRAFT
100
AcDbLine
 62
7
  6
CONTINUOUS
 10
3.6636919963
 20
-21.7516180979
 11
4.6881606064
 21
-21.1180713421
  0
LWPOLYLINE
  5
438
100
AcDbEntity
  8
RACCORDO
100
AcDbPolyline
 62
7
  6
CONTINUOUS
 90
7
 70
0
 10
6.4882418945
 20
-16.7245937815
 10
6.5459532087
 20
-16.6893174187
 10
6.797516796
 20
-16.528828165
 10
7.0441376384
 20
-16.3603791855
 10
7.2857290935
 20
-16.1840265939
 10
7.5223778037
 20
-15.9997142765
 10
7.7540837689
 20
-15.8074422332
  0
LINE
  5
439
100
AcDbEntity
  8
ASSI
100
AcDbLine
 62
7
  6
CONTINUOUS
 10
6.4882067596
 20
-16.7246150822
 11
3.6636919963
 21
-18.4369782498
  0
LINE
  5
43A
100
AcDbEntity
  8
RACCORDO
100
AcDbLine
 62
250
  6
CONTINUOUS
 10
3.6636919963
 20
-18.1190838032
 11
7.8322771148
 21
-15.5965555708
  0
LINE
  5
43B
100
AcDbEntity
  8
RACCORDO
100
AcDbLine
 62
250
  6
CONTINUOUS
 10
3.6636919963
 20
-18.2825814684
 11
7.7540837689
 21
-15.8074422332
  0
LINE
  5
43C
100
AcDbEntity
  8
DRAFT
100
AcDbLine
 62
7
  6
CONTINUOUS
 10
12.9874639118
 20
-12.8547687283
 11
13.2421764944
 21
-12.7031800288
  0
LINE
  5
43D
100
AcDbEntity
  8
RACCORDO
100
AcDbLine
 62
7
  6
CONTINUOUS
 10
16.8994496443
 20
-10.5313353579
 11
13.696939152
 21
-12.4280989501
  0
LINE
  5
43E
100
AcDbEntity
  8
DRAFT
100
AcDbLine
 62
7
  6
CONTINUOUS
 10
12.9873475472
 20
-12.8545989056
 11
6.923878654
 21
-16.442519458
  0
LWPOLYLINE
  5
43F
100
AcDbEntity
  8
DRAFT
100
AcDbPolyline
 62
7
  6
CONTINUOUS
 90
4
 70
0
 10
13.2421764944
 20
-12.7031800288
 10
13.3609107068
 20
-12.6329583482
 10
13.4781042848
 20
-12.5630874337
 10
13.5931884332
 20
-12.4935135915
  0
LINE
  5
440
100
AcDbEntity
  8
RACCORDO
100
AcDbLine
 62
250
  6
CONTINUOUS
 10
7.8709773444
 20
-15.5351767484
 11
18.0376070456
 21
-9.5254827795
  0
LINE
  5
441
100
AcDbEntity
  8
RACCORDO
100
AcDbLine
 62
250
  6
CONTINUOUS
 10
7.8041916258
 20
-15.7390937192
 11
17.9599575555
 21
-9.7359182014
  0
LWPOLYLINE
  5
442
100
AcDbEntity
  8
RACCORDO
100
AcDbPolyline
 62
7
  6
CONTINUOUS
 90
9
 70
0
 10
4.3733735371
 20
-17.8826266539
 10
4.3896109147
 20
-17.8730958114
 10
4.4040255658
 20
-17.864965788
 10
4.416387218
 20
-17.8583695453
 10
4.4265123556
 20
-17.8534372125
 10
4.4342316121
 20
-17.8502424288
 10
4.4393960808
 20
-17.8487987004
 10
4.4419413721
 20
-17.8491560287
 10
4.4420818274
 20
-17.8493422133
  0
LINE
  5
443
100
AcDbEntity
  8
DRAFT
100
AcDbLine
 62
7
  6
CONTINUOUS
 10
4.0510063744
 20
-19.1571324318
 11
3.6636919963
 21
-19.3807636674
  0
LINE
  5
444
100
AcDbEntity
  8
0
100
AcDbLine
 62
7
  6
CONTINUOUS
 10
3.6636919963
 20
-18.9420159387
 11
3.6712500599
 21
-18.9378658953
  0
LINE
  5
445
100
AcDbEntity
  8
ASSI
100
AcDbLine
 62
250
  6
CONTINUOUS
 10
6.0118448796
 20
23.8934987236
 11
8.5694166118
 21
24.6097130386
  0
LINE
  5
446
100
AcDbEntity
  8
ASSI
100
AcDbLine
 62
7
  6
CONTINUOUS
 10
5.9213097743
 20
23.9072258916
 11
8.4867386197
 21
24.6256404878
  0
LWPOLYLINE
  5
447
100
AcDbEntity
  8
ASSI
100
AcDbPolyline
 62
250
  6
CONTINUOUS
 90
13
 70
0
 10
7.9277989027
 20
24.0735229518
 10
7.932039804
 20
24.0746718979
 10
7.9362138981
 20
24.0758792618
 10
7.9403211852
 20
24.0771450436
 10
7.9443502613
 20
24.0784618214
 10
7.9483125304
 20
24.079837017
 10
7.9522422042
 20
24.0812928961
 10
7.956148007
 20
24.0828282832
 10
7.9600212146
 20
24.0844443536
 10
7.963869866
 20
24.0861668992
 10
7.967696641
 20
24.0880045172
 10
7.9714988598
 20
24.0899486103
 10
7.9752765224
 20
24.0919991786
  0
LINE
  5
448
100
AcDbEntity
  8
ASSI
100
AcDbLine
 62
250
  6
CONTINUOUS
 10
6.5039933054
 20
23.4264207458
 11
8.0345262534
 21
23.8289822723
  0
LINE
  5
449
100
AcDbEntity
  8
ASSI
100
AcDbLine
 62
250
  6
CONTINUOUS
 10
6.3972659548
 20
23.6709614252
 11
7.9277989027
 21
24.0735229518
  0
LWPOLYLINE
  5
44A
100
AcDbEntity
  8
ASSI
100
AcDbPolyline
 62
250
  6
CONTINUOUS
 90
6
 70
0
 10
5.9213097743
 20
23.9072258916
 10
5.9377161595
 20
23.9104060556
 10
5.9560872181
 20
23.9108404344
 10
5.9747652888
 20
23.9081300939
 10
5.9934510055
 20
23.9023184747
 10
6.0118448796
 20
23.8934987236
  0
LWPOLYLINE
  5
44B
100
AcDbEntity
  8
ASSI
100
AcDbPolyline
 62
250
  6
CONTINUOUS
 90
9
 70
0
 10
2.6125885402
 20
22.0522128904
 10
2.6471877976
 20
22.0550432404
 10
2.6817867228
 20
22.0595710996
 10
2.7163117473
 20
22.0656959312
 10
2.7502994599
 20
22.0732222264
 10
2.784072585
 20
22.0821092917
 10
2.8187786851
 20
22.0926515834
 10
2.8545164829
 20
22.1049650885
 10
2.8911305831
 20
22.1190675673
  0
LINE
  5
44C
100
AcDbEntity
  8
ASSI
100
AcDbLine
 62
250
  6
CONTINUOUS
 10
-2.7346811886
 20
23.9082392536
 11
-2.7274774599
 21
23.9086966035
  0
LWPOLYLINE
  5
44D
100
AcDbEntity
  8
ASSI
100
AcDbPolyline
 62
250
  6
CONTINUOUS
 90
16
 70
0
 10
1.0881103799
 20
21.5056916085
 10
1.0809597367
 20
21.5052802782
 10
1.0739566986
 20
21.5045869361
 10
1.0671012658
 20
21.5036115823
 10
1.0603851864
 20
21.5023265786
 10
1.0538167122
 20
21.5007595631
 10
1.0474205986
 20
21.4989934501
 10
1.0411990573
 20
21.4970312751
 10
1.0351498766
 20
21.4948700026
 10
1.0292911773
 20
21.4925834402
 10
1.0236246972
 20
21.4901741976
 10
1.0181486985
 20
21.487639665
 10
1.0128760886
 20
21.4850458208
 10
1.0078111702
 20
21.4824146578
 10
1.0029496406
 20
21.4797241832
 10
0.9982914999
 20
21.4769743969
  0
LWPOLYLINE
  5
44E
100
AcDbEntity
  8
ASSI
100
AcDbPolyline
 62
250
  6
CONTINUOUS
 90
16
 70
0
 10
1.0045477366
 20
21.7538720283
 10
0.9927699596
 20
21.7532113098
 10
0.9811705771
 20
21.7519919741
 10
0.9697776518
 20
21.7502637971
 10
0.9586223657
 20
21.7480753535
 10
0.9477220896
 20
21.7454746061
 10
0.9370801319
 20
21.7425070974
 10
0.9267120119
 20
21.7392153518
 10
0.9166364437
 20
21.735641745
 10
0.9068580693
 20
21.73182742
 10
0.8973872161
 20
21.727809901
 10
0.8882366177
 20
21.7236265106
 10
0.8794119771
 20
21.7193153065
 10
0.8709199046
 20
21.714910847
 10
0.8627680246
 20
21.7104440905
 10
0.8549616089
 20
21.7059453383
  0
LINE
  5
44F
100
AcDbEntity
  8
ASSI
100
AcDbLine
 62
250
  6
CONTINUOUS
 10
1.106485808
 20
21.9702827146
 11
2.6125885402
 21
22.0522128904
  0
LINE
  5
450
100
AcDbEntity
  8
ASSI
100
AcDbLine
 62
7
  6
CONTINUOUS
 10
1.035421917
 20
21.9874595873
 11
2.5419575951
 21
22.0694140889
  0
LINE
  5
451
100
AcDbEntity
  8
ASSI
100
AcDbLine
 62
7
  6
CONTINUOUS
 10
2.5419575951
 20
22.0694140889
 11
2.5420978557
 21
22.0694216377
  0
LINE
  5
452
100
AcDbEntity
  8
ASSI
100
AcDbLine
 62
250
  6
CONTINUOUS
 10
-2.7274774599
 20
23.9086966035
 11
-0.7833606366
 21
24.0129913839
  0
LINE
  5
453
100
AcDbEntity
  8
ASSI
100
AcDbLine
 62
7
  6
CONTINUOUS
 10
-2.7981786087
 20
23.925893892
 11
-0.8538467321
 21
24.0302004094
  0
LINE
  5
454
100
AcDbEntity
  8
ASSI
100
AcDbLine
 62
7
  6
CONTINUOUS
 10
-0.8538467321
 20
24.0302004094
 11
-0.8537063247
 21
24.0302078602
  0
LWPOLYLINE
  5
455
100
AcDbEntity
  8
ASSI
100
AcDbPolyline
 62
250
  6
CONTINUOUS
 90
16
 70
0
 10
-1.9361893447
 20
23.7270852141
 10
-1.9733717043
 20
23.7252104619
 10
-2.0070777446
 20
23.7220233386
 10
-2.0373074655
 20
23.7175238443
 10
-2.0639796089
 20
23.7116720757
 10
-2.0871754329
 20
23.7045079361
 10
-2.1071387122
 20
23.6961511345
 10
-2.124001062
 20
23.6866860084
 10
-2.1376308671
 20
23.6760282202
 10
-2.1478770565
 20
23.6640444665
 10
-2.1548727417
 20
23.6506367117
 10
-2.1584848113
 20
23.6359029914
 10
-2.1581628595
 20
23.6200041088
 10
-2.1537234179
 20
23.6029936651
 10
-2.145349955
 20
23.5848180591
 10
-2.1330424708
 20
23.5654772908
  0
LWPOLYLINE
  5
456
100
AcDbEntity
  8
ASSI
100
AcDbPolyline
 62
250
  6
CONTINUOUS
 90
10
 70
0
 10
0.8548919709
 20
23.432721962
 10
0.8402079211
 20
23.4320021043
 10
0.824991902
 20
23.4303267812
 10
0.8092573464
 20
23.4276415608
 10
0.7931010467
 20
23.4239186848
 10
0.776467482
 20
23.4190917285
 10
0.7591396589
 20
23.413004568
 10
0.7410614927
 20
23.4055222968
 10
0.7223479723
 20
23.3965838573
 10
0.7030434261
 20
23.3861015632
  0
LWPOLYLINE
  5
457
100
AcDbEntity
  8
ASSI
100
AcDbPolyline
 62
250
  6
CONTINUOUS
 90
10
 70
0
 10
0.7734316754
 20
23.6882223586
 10
0.7530191208
 20
23.6872305608
 10
0.7318908536
 20
23.6847627713
 10
0.710046874
 20
23.6808189902
 10
0.6875663357
 20
23.6755387729
 10
0.6643700848
 20
23.6687825639
 10
0.6402206602
 20
23.660131697
 10
0.6150389082
 20
23.6494466165
 10
0.5889039824
 20
23.636866878
 10
0.5618158829
 20
23.6223924815
  0
LWPOLYLINE
  5
458
100
AcDbEntity
  8
ASSI
100
AcDbPolyline
 62
7
  6
CONTINUOUS
 90
17
 70
0
 10
1.0354219169
 20
21.9874595873
 10
1.0184795533
 20
21.9867825241
 10
0.9874455499
 20
21.9865819068
 10
0.9532617343
 20
21.9876350489
 10
0.9163564477
 20
21.9900123536
 10
0.8772879105
 20
21.9937250737
 10
0.8363312797
 20
21.9987693589
 10
0.793695663
 20
22.0051461382
 10
0.7497247792
 20
22.0128284081
 10
0.7047029746
 20
22.0217792524
 10
0.6588784445
 20
22.0319639723
 10
0.6125128329
 20
22.0433403446
 10
0.5659047634
 20
22.0558455245
 10
0.5193370888
 20
22.0694134156
 10
0.4730861016
 20
22.0839769448
 10
0.4275129921
 20
22.0994294185
 10
0.4175875433
 20
22.1029451992
  0
LINE
  5
459
100
AcDbEntity
  8
ASSI
100
AcDbLine
 62
250
  6
CONTINUOUS
 10
1.0642094378
 20
21.9692158819
 11
1.106485808
 21
21.9702827146
  0
LINE
  5
45A
100
AcDbEntity
  8
ASSI
100
AcDbLine
 62
250
  6
CONTINUOUS
 10
2.8060447022
 20
21.548536894
 11
1.0881103799
 21
21.5056916085
  0
LINE
  5
45B
100
AcDbEntity
  8
ASSI
100
AcDbLine
 62
250
  6
CONTINUOUS
 10
3.0413193129
 20
21.8046691155
 11
1.0045477366
 21
21.7538720283
  0
LINE
  5
45C
100
AcDbEntity
  8
ASSI
100
AcDbLine
 62
250
  6
CONTINUOUS
 10
1.8695360304
 20
23.4573332248
 11
0.8548919709
 21
23.432721962
  0
LINE
  5
45D
100
AcDbEntity
  8
ASSI
100
AcDbLine
 62
250
  6
CONTINUOUS
 10
-0.2731695684
 20
23.5099472123
 11
-1.8547290492
 21
23.4715848175
  0
LINE
  5
45E
100
AcDbEntity
  8
ASSI
100
AcDbLine
 62
250
  6
CONTINUOUS
 10
2.0533968036
 20
23.719269264
 11
0.7734316754
 21
23.6882223586
  0
LINE
  5
45F
100
AcDbEntity
  8
ASSI
100
AcDbLine
 62
250
  6
CONTINUOUS
 10
-0.3546298638
 20
23.7654476089
 11
-1.9361893447
 21
23.7270852141
  0
LWPOLYLINE
  5
460
100
AcDbEntity
  8
ASSI
100
AcDbPolyline
 62
250
  6
CONTINUOUS
 90
6
 70
0
 10
-0.8537063247
 20
24.0302078602
 10
-0.8442445712
 20
24.0303354642
 10
-0.8286623869
 20
24.0289403731
 10
-0.8132200029
 20
24.0255596838
 10
-0.7980732397
 20
24.0202257928
 10
-0.783374007
 20
24.0129906666
  0
LWPOLYLINE
  5
461
100
AcDbEntity
  8
ASSI
100
AcDbPolyline
 62
250
  6
CONTINUOUS
 90
5
 70
0
 10
1.0358548632
 20
21.9874839131
 10
1.0485957804
 20
21.9875094348
 10
1.0683445706
 20
21.9849087349
 10
1.0877453221
 20
21.9791355244
 10
1.106485808
 20
21.9702827146
  0
LWPOLYLINE
  5
462
100
AcDbEntity
  8
ASSI
100
AcDbPolyline
 62
250
  6
CONTINUOUS
 90
5
 70
0
 10
2.5420978557
 20
22.0694216377
 10
2.5546997583
 20
22.069439548
 10
2.5744481905
 20
22.0668387207
 10
2.5938485184
 20
22.0610655221
 10
2.6125885402
 20
22.0522128904
  0
LWPOLYLINE
  5
463
100
AcDbEntity
  8
ASSI
100
AcDbPolyline
 62
250
  6
CONTINUOUS
 90
5
 70
0
 10
-2.7979585741
 20
23.9259058963
 10
-2.7837973323
 20
23.9258398747
 10
-2.7645816168
 20
23.9231051797
 10
-2.7457122125
 20
23.9173614999
 10
-2.7274774599
 20
23.9086966035
  0
LWPOLYLINE
  5
464
100
AcDbEntity
  8
ASSI
100
AcDbPolyline
 62
250
  6
CONTINUOUS
 90
5
 70
0
 10
-1.9481811566
 20
23.4848578922
 10
-1.9652383334
 20
23.4853150891
 10
-1.9800239652
 20
23.4846070677
 10
-1.9924733601
 20
23.4828703233
 10
-2.0025830776
 20
23.4801578974
  0
LWPOLYLINE
  5
465
100
AcDbEntity
  8
ASSI
100
AcDbPolyline
 62
250
  6
CONTINUOUS
 90
3
 70
0
 10
0.9755548637
 20
21.9720050359
 10
1.0205657897
 20
21.969789989
 10
1.0642094378
 20
21.9692158819
  0
LWPOLYLINE
  5
466
100
AcDbEntity
  8
ASSI
100
AcDbPolyline
 62
7
  6
CONTINUOUS
 90
10
 70
0
 10
5.1318366849
 20
21.3105195068
 10
5.1103229518
 20
21.3117655786
 10
5.0891923504
 20
21.3117764775
 10
5.0684448805
 20
21.3105522035
 10
5.0478432744
 20
21.3080432649
 10
5.0276247999
 20
21.3042991533
 10
5.0085012601
 20
21.2994683436
 10
4.9907099226
 20
21.2936003272
 10
4.9740135199
 20
21.2866456126
 10
4.9584120518
 20
21.2786041998
  0
LWPOLYLINE
  5
467
100
AcDbEntity
  8
ASSI
100
AcDbPolyline
 62
250
  6
CONTINUOUS
 90
3
 70
0
 10
1.4976708308
 20
25.2916926065
 10
1.4602450218
 20
25.294667712
 10
1.4232885306
 20
25.2997163227
  0
LWPOLYLINE
  5
468
100
AcDbEntity
  8
RACCORDO
100
AcDbPolyline
 62
7
  6
CONTINUOUS
 90
11
 70
0
 10
16.9850102979
 20
21.2386002578
 10
17.0067182638
 20
21.2363206892
 10
17.027731383
 20
21.2314325751
 10
17.0480496555
 20
21.2239359153
 10
17.0677802665
 20
21.213779779
 10
17.0868160309
 20
21.2010150971
 10
17.1048353929
 20
21.1857946622
 10
17.1217541622
 20
21.168218259
 10
17.137656529
 20
21.1481861027
 10
17.1524735082
 20
21.1255516325
 10
17.159120245
 20
21.1139275712
  0
LWPOLYLINE
  5
469
100
AcDbEntity
  8
ASSI
100
AcDbPolyline
 62
250
  6
CONTINUOUS
 90
24
 70
0
 10
5.1295953581
 20
22.7115560444
 10
5.1574407579
 20
22.7083559019
 10
5.1854414378
 20
22.7067061978
 10
5.2138537537
 20
22.706618924
 10
5.2424213498
 20
22.7080820886
 10
5.270375158
 20
22.711059716
 10
5.2976935989
 20
22.7155911292
 10
5.3243982521
 20
22.7216370052
 10
5.3497847885
 20
22.7290433999
 10
5.3738261732
 20
22.7378494041
 10
5.396549441
 20
22.7480159271
 10
5.4173313685
 20
22.7592717527
 10
5.4361178248
 20
22.7716499019
 10
5.4529629408
 20
22.7851173537
 10
5.4674058841
 20
22.799303829
 10
5.4793754713
 20
22.8142256659
 10
5.488942886
 20
22.8298665262
 10
5.4958608469
 20
22.8458071176
 10
5.5000586995
 20
22.8620544534
 10
5.5016070984
 20
22.8786015202
 10
5.5004707259
 20
22.8950079852
 10
5.4966378095
 20
22.9111270705
 10
5.4901201218
 20
22.927105554
 10
5.4809176627
 20
22.9429434356
  0
LINE
  5
46A
100
AcDbEntity
  8
ASSI
100
AcDbLine
 62
250
  6
CONTINUOUS
 10
1.3594164759
 20
25.3121462038
 11
1.3317823372
 21
25.3159076235
  0
LWPOLYLINE
  5
46B
100
AcDbEntity
  8
ASSI
100
AcDbPolyline
 62
250
  6
CONTINUOUS
 90
4
 70
0
 10
0.4175578893
 20
22.1029554264
 10
0.4169445775
 20
22.1030418069
 10
0.414021037
 20
22.1015119717
 10
0.4101127477
 20
22.0970913409
  0
LWPOLYLINE
  5
46C
100
AcDbEntity
  8
ASSI
100
AcDbPolyline
 62
250
  6
CONTINUOUS
 90
24
 70
0
 10
5.0354245736
 20
22.4441022474
 10
5.0758553357
 20
22.4369676549
 10
5.1171854478
 20
22.4318306418
 10
5.1591194274
 20
22.4287279351
 10
5.201357475
 20
22.4276817183
 10
5.2435976158
 20
22.4286994723
 10
5.2855378584
 20
22.4317739216
 10
5.3268783627
 20
22.4368830875
 10
5.3673235652
 20
22.4439904434
 10
5.4065842915
 20
22.4530451726
 10
5.4443798435
 20
22.4639825344
 10
5.480440021
 20
22.4767243347
 10
5.5145070343
 20
22.4911794833
 10
5.5463373271
 20
22.5072446368
 10
5.5757033314
 20
22.5248049402
 10
5.6023951061
 20
22.5437348554
 10
5.6262218294
 20
22.5638990575
 10
5.6470131379
 20
22.5851533782
 10
5.6646203649
 20
22.6073458388
 10
5.6789176308
 20
22.6303177651
 10
5.6898027347
 20
22.6539049314
 10
5.6971978635
 20
22.6779387095
 10
5.7010501488
 20
22.7022472415
 10
5.7016492454
 20
22.7163754027
  0
LINE
  5
46D
100
AcDbEntity
  8
ASSI
100
AcDbLine
 62
250
  6
CONTINUOUS
 10
1.4232885306
 20
25.2997163227
 11
1.3594164759
 21
25.3121462038
  0
LWPOLYLINE
  5
46E
100
AcDbEntity
  8
ASSI
100
AcDbPolyline
 62
250
  6
CONTINUOUS
 90
5
 70
0
 10
-1.8547290492
 20
23.4715848175
 10
-1.8818681337
 20
23.4768949596
 10
-1.9065139208
 20
23.4807757751
 10
-1.9286447667
 20
23.4833617832
 10
-1.9481811566
 20
23.4848578922
  0
LWPOLYLINE
  5
46F
100
AcDbEntity
  8
ASSI
100
AcDbPolyline
 62
250
  6
CONTINUOUS
 90
5
 70
0
 10
2.5459314259
 20
25.7986487694
 10
2.5295809015
 20
25.8022893845
 10
2.5139989648
 20
25.8031472649
 10
2.4994234675
 20
25.8012093156
 10
2.4860768984
 20
25.7965051184
  0
LWPOLYLINE
  5
470
100
AcDbEntity
  8
ASSI
100
AcDbPolyline
 62
250
  6
CONTINUOUS
 90
13
 70
0
 10
7.9752765224
 20
24.0919991786
 10
7.9951397526
 20
24.0824736672
 10
8.0142149126
 20
24.0705847691
 10
8.0322357781
 20
24.0564984131
 10
8.0489508391
 20
24.0404111966
 10
8.06412681
 20
24.0225476425
 10
8.0775518861
 20
24.0031570654
 10
8.0890386989
 20
23.9825100917
 10
8.0984269314
 20
23.9608948829
 10
8.105585556
 20
23.938613114
 10
8.1104146626
 20
23.9159757626
 10
8.1128468532
 20
23.8932987693
 10
8.1128481827
 20
23.8708986276
  0
LWPOLYLINE
  5
471
100
AcDbEntity
  8
ASSI
100
AcDbPolyline
 62
250
  6
CONTINUOUS
 90
6
 70
0
 10
2.6717679541
 20
25.8220172794
 10
2.6539721769
 20
25.8306877347
 10
2.6358899227
 20
25.836501545
 10
2.6177966323
 20
25.8393701505
 10
2.5999679146
 20
25.8392498548
 10
2.5824877121
 20
25.8360914546
  0
LWPOLYLINE
  5
472
100
AcDbEntity
  8
ASSI
100
AcDbPolyline
 62
250
  6
CONTINUOUS
 90
3
 70
0
 10
4.1842836916
 20
26.2349817175
 10
4.1664879144
 20
26.2436521728
 10
4.1484056602
 20
26.2494659831
  0
LINE
  5
473
100
AcDbEntity
  8
ASSI
100
AcDbLine
 62
7
  6
CONTINUOUS
 10
3.7085365994
 20
26.8654340547
 11
4.669997972
 21
26.3102983081
  0
LINE
  5
474
100
AcDbEntity
  8
ASSI
100
AcDbLine
 62
7
  6
CONTINUOUS
 10
8.8938311203
 20
23.8715099853
 11
10.5484938489
 21
22.9161284636
  0
LINE
  5
475
100
AcDbEntity
  8
ASSI
100
AcDbLine
 62
7
  6
CONTINUOUS
 10
5.8350404997
 20
25.902742939
 11
8.1905552639
 21
24.5426982357
  0
LINE
  5
476
100
AcDbEntity
  8
ASSI
100
AcDbLine
 62
7
  6
CONTINUOUS
 10
8.7269003432
 20
24.5187839058
 11
8.5694166118
 21
24.6097130386
  0
LINE
  5
477
100
AcDbEntity
  8
ASSI
100
AcDbLine
 62
7
  6
CONTINUOUS
 10
5.6876138365
 20
26.2736298435
 11
5.5301301052
 21
26.3645589763
  0
LINE
  5
478
100
AcDbEntity
  8
DRAFT
100
AcDbLine
 62
7
  6
CONTINUOUS
 10
16.4930516717
 20
20.974040829
 11
14.0023830365
 21
22.4121216836
  0
LINE
  5
479
100
AcDbEntity
  8
DRAFT
100
AcDbLine
 62
7
  6
CONTINUOUS
 10
6.5935567351
 20
26.6898851356
 11
4.1028880999
 21
28.1279659902
  0
LINE
  5
47A
100
AcDbEntity
  8
RACCORDO
100
AcDbLine
 62
250
  6
CONTINUOUS
 10
3.7615686601
 20
28.7473620236
 11
3.7338825497
 21
28.7633476368
  0
LINE
  5
47B
100
AcDbEntity
  8
DRAFT
100
AcDbLine
 62
7
  6
CONTINUOUS
 10
7.3257152237
 20
27.0836162772
 11
14.0023830365
 21
23.2285919604
  0
LWPOLYLINE
  5
47C
100
AcDbEntity
  8
ASSI
100
AcDbPolyline
 62
250
  6
CONTINUOUS
 90
12
 70
0
 10
2.6717679541
 20
25.8220172794
 10
2.6647331206
 20
25.8200243976
 10
2.6576325455
 20
25.8178402871
 10
2.6504689518
 20
25.8154641432
 10
2.6432812497
 20
25.8129082664
 10
2.636036436
 20
25.8101609014
 10
2.628628322
 20
25.8071768881
 10
2.6210497238
 20
25.8039428239
 10
2.6133122706
 20
25.8004538899
 10
2.6053368213
 20
25.7966631172
 10
2.5970988674
 20
25.792541872
 10
2.5886291867
 20
25.7880869718
  0
LWPOLYLINE
  5
47D
100
AcDbEntity
  8
ASSI
100
AcDbPolyline
 62
250
  6
CONTINUOUS
 90
13
 70
0
 10
3.0571890293
 20
25.599479981
 10
3.0500484872
 20
25.5975243588
 10
3.0428647142
 20
25.5953718525
 10
3.0356406008
 20
25.5930224605
 10
3.0284185407
 20
25.5904907659
 10
3.0211623315
 20
25.5877645076
 10
3.0137557793
 20
25.5847943102
 10
3.006188858
 20
25.5815662385
 10
2.9984759804
 20
25.5780758081
 10
2.9905362962
 20
25.5742719405
 10
2.9823446917
 20
25.5701241743
 10
2.973932482
 20
25.5656301891
 10
2.9653038632
 20
25.560774359
  0
LINE
  5
47E
100
AcDbEntity
  8
ASSI
100
AcDbLine
 62
250
  6
CONTINUOUS
 10
4.1842836916
 20
26.2349817175
 11
2.6717679541
 21
25.8220172794
  0
LINE
  5
47F
100
AcDbEntity
  8
ASSI
100
AcDbLine
 62
7
  6
CONTINUOUS
 10
4.0950030391
 20
26.2490557806
 11
2.5824873016
 21
25.8360913425
  0
LWPOLYLINE
  5
480
100
AcDbEntity
  8
ASSI
100
AcDbPolyline
 62
250
  6
CONTINUOUS
 90
13
 70
0
 10
3.1618140321
 20
25.3476193247
 10
3.1575038565
 20
25.346459094
 10
3.1531731044
 20
25.3451797534
 10
3.1488217758
 20
25.3437813028
 10
3.1444720751
 20
25.3422753656
 10
3.1401017978
 20
25.3406503185
 10
3.1356443309
 20
25.3388712912
 10
3.13109243
 20
25.3369418586
 10
3.1264533394
 20
25.3348584459
 10
3.1216821798
 20
25.3325754573
 10
3.1167639911
 20
25.3300776943
 10
3.1117137333
 20
25.3273803554
 10
3.1065314064
 20
25.3244834407
  0
LINE
  5
481
100
AcDbEntity
  8
ASSI
100
AcDbLine
 62
250
  6
CONTINUOUS
 10
4.1894439393
 20
26.2363256082
 11
4.1842836916
 21
26.2349817175
  0
LINE
  5
482
100
AcDbEntity
  8
ASSI
100
AcDbLine
 62
250
  6
CONTINUOUS
 10
5.8293553754
 20
26.03128176
 11
3.1618140321
 21
25.3476193247
  0
LINE
  5
483
100
AcDbEntity
  8
ASSI
100
AcDbLine
 62
250
  6
CONTINUOUS
 10
5.6876138365
 20
26.2736298435
 11
3.0571890293
 21
25.599479981
  0
LINE
  5
484
100
AcDbEntity
  8
ASSI
100
AcDbLine
 62
250
  6
CONTINUOUS
 10
4.1124836522
 20
26.2522142929
 11
4.0950030391
 21
26.2490557806
  0
LWPOLYLINE
  5
485
100
AcDbEntity
  8
DRAFT
100
AcDbPolyline
 62
7
  6
CONTINUOUS
 90
10
 70
0
 10
1.8722908038
 20
26.6210413959
 10
1.9145157794
 20
26.6285256275
 10
2.0617206669
 20
26.648378197
 10
2.2106597083
 20
26.6623636184
 10
2.3616319563
 20
26.6704104988
 10
2.5143383582
 20
26.672590231
 10
2.6661498509
 20
26.6688744883
 10
2.8167191105
 20
26.6592005247
 10
2.966393461
 20
26.6436310861
 10
3.1094676654
 20
26.6229221549
  0
LWPOLYLINE
  5
486
100
AcDbEntity
  8
ASSI
100
AcDbPolyline
 62
250
  6
CONTINUOUS
 90
5
 70
0
 10
1.6500093122
 20
25.3006148073
 10
1.6127641655
 20
25.2952083209
 10
1.5747400995
 20
25.2919649667
 10
1.5359708062
 20
25.290792034
 10
1.4976708308
 20
25.2916926065
  0
LWPOLYLINE
  5
487
100
AcDbEntity
  8
ASSI
100
AcDbPolyline
 62
250
  6
CONTINUOUS
 90
3
 70
0
 10
-2.7502269608
 20
23.9065173725
 10
-2.7422628279
 20
23.9075224455
 10
-2.7346811886
 20
23.9082392536
  0
LWPOLYLINE
  5
488
100
AcDbEntity
  8
ASSI
100
AcDbPolyline
 62
7
  6
CONTINUOUS
 90
6
 70
0
 10
4.1903578129
 20
26.2658873869
 10
4.1799361953
 20
26.264837632
 10
4.1543991393
 20
26.261512484
 10
4.1293336715
 20
26.2571223294
 10
4.104728652
 20
26.2516017988
 10
4.0949417244
 20
26.249039019
  0
LWPOLYLINE
  5
489
100
AcDbEntity
  8
ASSI
100
AcDbPolyline
 62
250
  6
CONTINUOUS
 90
12
 70
0
 10
4.245370272
 20
26.2456003009
 10
4.240116528
 20
26.2450830988
 10
4.2349231822
 20
26.2445083358
 10
4.2297902345
 20
26.2438760122
 10
4.224739713
 20
26.2431913937
 10
4.2197495897
 20
26.2424492144
 10
4.2147537806
 20
26.2416336765
 10
4.2097392826
 20
26.2407464251
 10
4.2047190989
 20
26.2397858151
 10
4.1996661554
 20
26.2387311126
 10
4.1945714273
 20
26.2375754066
 10
4.1894439393
 20
26.2363256082
  0
LINE
  5
48A
100
AcDbEntity
  8
ASSI
100
AcDbLine
 62
250
  6
CONTINUOUS
 10
5.5301301052
 20
26.3645589763
 11
4.245370272
 21
26.2456003009
  0
LINE
  5
48B
100
AcDbEntity
  8
ASSI
100
AcDbLine
 62
7
  6
CONTINUOUS
 10
5.4603621074
 20
26.3834798228
 11
4.1903281783
 21
26.2658846505
  0
LWPOLYLINE
  5
48C
100
AcDbEntity
  8
ASSI
100
AcDbPolyline
 62
250
  6
CONTINUOUS
 90
7
 70
0
 10
-0.7833977881
 20
24.0130128347
 10
-0.7403318923
 20
24.0167296205
 10
-0.6955259701
 20
24.0232440495
 10
-0.649041067
 20
24.0326717855
 10
-0.6010753011
 20
24.0450992276
 10
-0.5515854258
 20
24.0606386937
 10
-0.5002745706
 20
24.0794975837
  0
LWPOLYLINE
  5
48D
100
AcDbEntity
  8
ASSI
100
AcDbPolyline
 62
7
  6
CONTINUOUS
 90
7
 70
0
 10
-2.7981786085
 20
23.925893892
 10
-2.8146693466
 20
23.9245967389
 10
-2.8514960901
 20
23.9188481269
 10
-2.8897154231
 20
23.9087994876
 10
-2.9275506642
 20
23.8947947076
 10
-2.9644320418
 20
23.8772304124
 10
-2.9742038872
 20
23.8719196037
  0
LWPOLYLINE
  5
48E
100
AcDbEntity
  8
ASSI
100
AcDbPolyline
 62
250
  6
CONTINUOUS
 90
7
 70
0
 10
1.429734101
 20
25.3388387297
 10
1.4233207671
 20
25.3387111707
 10
1.4165072187
 20
25.3364453372
 10
1.4093681064
 20
25.3320660541
 10
1.4019816475
 20
25.3256213012
 10
1.3944287698
 20
25.3171816884
 10
1.3867922243
 20
25.3068396816
  0
LWPOLYLINE
  5
48F
100
AcDbEntity
  8
ASSI
100
AcDbPolyline
 62
250
  6
CONTINUOUS
 90
23
 70
0
 10
1.3317823372
 20
25.3159076235
 10
1.3038989412
 20
25.3181226975
 10
1.275509362
 20
25.318784627
 10
1.2468705255
 20
25.3179002108
 10
1.2187532088
 20
25.3154898456
 10
1.1911765905
 20
25.3115137953
 10
1.1641214921
 20
25.3060117959
 10
1.1383011558
 20
25.2991234519
 10
1.1137402317
 20
25.2908091506
 10
1.0904140698
 20
25.2811085045
 10
1.0689619622
 20
25.270279956
 10
1.0494360011
 20
25.2582894094
 10
1.0317840943
 20
25.2451709602
 10
1.0164892581
 20
25.2312853377
 10
1.0036216405
 20
25.2166147732
 10
0.9931110933
 20
25.2011770353
 10
0.9852301884
 20
25.1853861592
 10
0.980049112
 20
25.1692337073
 10
0.9774976779
 20
25.1527281173
 10
0.977637898
 20
25.1363087371
 10
0.9804904433
 20
25.120122016
 10
0.986034643
 20
25.1040215046
 10
0.9942704969
 20
25.088007203
  0
LWPOLYLINE
  5
490
100
AcDbEntity
  8
RACCORDO
100
AcDbPolyline
 62
7
  6
CONTINUOUS
 90
10
 70
0
 10
3.9440590462
 20
28.791156231
 10
3.9255287675
 20
28.7931831565
 10
3.9065254216
 20
28.7934806493
 10
3.8870490084
 20
28.7920487096
 10
3.8670509153
 20
28.7888790766
 10
3.8465797549
 20
28.7839800111
 10
3.8257813654
 20
28.7773762948
 10
3.8047043595
 20
28.7690761884
 10
3.7833001244
 20
28.7590714313
 10
3.7615686601
 20
28.7473620236
  0
LWPOLYLINE
  5
491
100
AcDbEntity
  8
ASSI
100
AcDbPolyline
 62
250
  6
CONTINUOUS
 90
3
 70
0
 10
4.1484056602
 20
26.2494659831
 10
4.1303123698
 20
26.2523345887
 10
4.1124836522
 20
26.2522142929
  0
LINE
  5
492
100
AcDbEntity
  8
0
100
AcDbLine
 62
250
  6
CONTINUOUS
 10
1.2596387193
 20
-26.1821493045
 11
3.6636919963
 21
-24.9357537577
  0
LINE
  5
493
100
AcDbEntity
  8
0
100
AcDbLine
 62
7
  6
CONTINUOUS
 10
1.1455980989
 20
-26.4166268974
 11
3.553576109
 21
-25.1681965497
  0
LWPOLYLINE
  5
494
100
AcDbEntity
  8
0
100
AcDbPolyline
 62
250
  6
CONTINUOUS
 90
16
 70
0
 10
1.2596387193
 20
-26.1821493045
 10
1.2204117464
 20
-26.2015216727
 10
1.1779347779
 20
-26.2184556407
 10
1.1326605544
 20
-26.2327707525
 10
1.0850661607
 20
-26.2443156027
 10
1.0356639183
 20
-26.2529653887
 10
0.9849977185
 20
-26.2586265323
 10
0.9336194401
 20
-26.2612415675
 10
0.8820654801
 20
-26.2607873286
 10
0.8308682551
 20
-26.2572702168
 10
0.7805032174
 20
-26.2507167747
 10
0.7315786051
 20
-26.241199914
 10
0.6847920633
 20
-26.2288743016
 10
0.6406682974
 20
-26.2139236876
 10
0.5995766995
 20
-26.1965210457
 10
0.5619080408
 20
-26.1768755658
  0
ARC
  5
495
100
AcDbEntity
  8
0
100
AcDbCircle
 62
7
  6
CONTINUOUS
 10
0.9154614314
 20
-25.9727382691
 40
0.5
100
AcDbArc
 50
239.9984015654
 51
297.4194204711
  0
ARC
  5
496
100
AcDbEntity
  8
0
100
AcDbCircle
 62
7
  6
CONTINUOUS
 10
-13.9527527369
 20
-17.3880177508
 40
0.5
100
AcDbArc
 50
179.9840060021
 51
239.998401565
  0
ARC
  5
497
100
AcDbEntity
  8
0
100
AcDbCircle
 62
7
  6
CONTINUOUS
 10
-13.9527527369
 20
24.7637545314
 40
0.5
100
AcDbArc
 50
122.5992954237
 51
180.0013071233
  0
ARC
  5
498
100
AcDbEntity
  8
RACCORDO
100
AcDbCircle
 62
7
  6
CONTINUOUS
 10
17.6809818211
 20
-9.3231346671
 40
0.5
100
AcDbArc
 50
310.803876622
 51
0.0270733582
  0
ARC
  5
499
100
AcDbEntity
  8
RACCORDO
100
AcDbCircle
 62
7
  6
CONTINUOUS
 10
17.6809818211
 20
19.0367689926
 40
0.5
100
AcDbArc
 50
359.9751601013
 51
26.3588688698
  0
ARC
  5
49A
100
AcDbEntity
  8
ASSI
100
AcDbCircle
 62
7
  6
CONTINUOUS
 10
4.0196122204
 20
23.6163008703
 40
0.25
100
AcDbArc
 50
121.733268332
 51
141.921904304
  0
ARC
  5
49B
100
AcDbEntity
  8
ASSI
100
AcDbCircle
 62
7
  6
CONTINUOUS
 10
-3.0179880109
 20
23.6185288368
 40
0.2
100
AcDbArc
 50
119.0851069668
 51
154.7491247991
  0
ARC
  5
49C
100
AcDbEntity
  8
ASSI
100
AcDbCircle
 62
7
  6
CONTINUOUS
 10
-7.2035142209
 20
24.5651049167
 40
0.2
100
AcDbArc
 50
59.9984015652
 51
118.2824903446
  0
ARC
  5
49D
100
AcDbEntity
  8
ASSI
100
AcDbCircle
 62
7
  6
CONTINUOUS
 10
3.5000324271
 20
18.0157002396
 40
0.2
100
AcDbArc
 50
315.7312260649
 51
0.024488456
  0
ARC
  5
49E
100
AcDbEntity
  8
ASSI
100
AcDbCircle
 62
7
  6
CONTINUOUS
 10
3.5000324271
 20
18.3850112292
 40
0.2
100
AcDbArc
 50
359.9837886302
 51
59.9984015652
  0
ARC
  5
49F
100
AcDbEntity
  8
ASSI
100
AcDbCircle
 62
7
  6
CONTINUOUS
 10
-5.6763103551
 20
23.683316545
 40
0.2
100
AcDbArc
 50
359.9895357921
 51
59.9984015652
  0
ARC
  5
4A0
100
AcDbEntity
  8
ASSI
100
AcDbCircle
 62
7
  6
CONTINUOUS
 10
-5.6763103551
 20
23.3140055555
 40
0.2
100
AcDbArc
 50
315.7300112917
 51
0.0272094449
  0
ARC
  5
4A1
100
AcDbEntity
  8
ASSI
100
AcDbCircle
 62
7
  6
CONTINUOUS
 10
1.9728285613
 20
19.2667996009
 40
0.2
100
AcDbArc
 50
59.9984015652
 51
118.2824903446
  0
ELLIPSE
  5
4A2
100
AcDbEntity
  8
0
100
AcDbEllipse
 62
7
  6
CONTINUOUS
 10
-10.3172249995
 20
-15.0444136791
 30
0.0
 11
-0.0500024249
 21
0.0866011403
 31
0.0
 40
0.5780352736
 41
0.7859587116
 42
2.3555370632
  0
ELLIPSE
  5
4A3
100
AcDbEntity
  8
0
100
AcDbEllipse
 62
7
  6
CONTINUOUS
 10
-10.3172249995
 20
9.4496946246
 30
0.0
 11
-0.0500024249
 21
0.0866011403
 31
0.0
 40
0.5780352736
 41
0.7859587116
 42
2.3555370632
  0
ELLIPSE
  5
4A4
100
AcDbEntity
  8
0
100
AcDbEllipse
 62
7
  6
CONTINUOUS
 10
3.4553567299
 20
-19.0623907942
 30
0.0
 11
0.3037200246
 21
0.1710449014
 31
0.0
 40
0.0105151745
 41
0.6673087948
 42
0.7742146559
  0
ELLIPSE
  5
4A5
100
AcDbEntity
  8
0
100
AcDbEllipse
 62
7
  6
CONTINUOUS
 10
3.3788216918
 20
-19.0182004224
 30
0.0
 11
0.4568380168
 21
0.0702030008
 31
0.0
 40
0.2209951355
 41
0.2918164413
 42
0.3503969549
  0
ELLIPSE
  5
4A6
100
AcDbEntity
  8
DRAFT
100
AcDbEllipse
 62
7
  6
CONTINUOUS
 10
4.0473687823
 20
12.3264989135
 30
0.0
 11
0.1461416733
 21
0.2620230697
 31
0.0
 40
0.5671693725
 41
-2.347120172
 42
-1.6021379547
  0
ELLIPSE
  5
4A7
100
AcDbEntity
  8
0
100
AcDbEllipse
 62
7
  6
CONTINUOUS
 10
-3.4271730871
 20
13.4271553481
 30
0.0
 11
-0.0500024249
 21
0.0866011403
 31
0.0
 40
0.5780352736
 41
-2.355633942
 42
-0.7860555904
  0
ELLIPSE
  5
4A8
100
AcDbEntity
  8
0
100
AcDbEllipse
 62
7
  6
CONTINUOUS
 10
-3.4271730871
 20
5.4714650031
 30
0.0
 11
-0.050063346
 21
0.0867066929
 31
0.0
 40
0.5766289216
 41
2.3567552738
 42
3.9263336254
  0
ELLIPSE
  5
4A9
100
AcDbEntity
  8
0
100
AcDbEllipse
 62
7
  6
CONTINUOUS
 10
-3.4271730871
 20
-19.0226433007
 30
0.0
 11
-0.050063346
 21
0.0867066929
 31
0.0
 40
0.5766289216
 41
2.3567552738
 42
3.9263336254
  0
ELLIPSE
  5
4AA
100
AcDbEntity
  8
0
100
AcDbEllipse
 62
7
  6
CONTINUOUS
 10
-10.3172249995
 20
-7.0887233341
 30
0.0
 11
-0.050063346
 21
0.0867066929
 31
0.0
 40
0.5766289216
 41
-0.7848373798
 42
0.7847409718
  0
ELLIPSE
  5
4AB
100
AcDbEntity
  8
0
100
AcDbEllipse
 62
7
  6
CONTINUOUS
 10
-3.4271730871
 20
-11.0669529556
 30
0.0
 11
-0.0500024249
 21
0.0866011403
 31
0.0
 40
0.5780352736
 41
-2.355633942
 42
-0.7860555904
  0
ELLIPSE
  5
4AC
100
AcDbEntity
  8
DRAFT
100
AcDbEllipse
 62
7
  6
CONTINUOUS
 10
4.0473687823
 20
-19.4042111336
 30
0.0
 11
0.1461416733
 21
0.2620230697
 31
0.0
 40
0.5671693725
 41
0.0145836793
 42
0.7595658966
  0
ELLIPSE
  5
4AD
100
AcDbEntity
  8
0
100
AcDbEllipse
 62
7
  6
CONTINUOUS
 10
-10.3172249995
 20
17.4053849697
 30
0.0
 11
-0.050063346
 21
0.0867066929
 31
0.0
 40
0.5766289216
 41
-0.7848373798
 42
0.7847409718
  0
ELLIPSE
  5
4AE
100
AcDbEntity
  8
0
100
AcDbEllipse
 62
7
  6
CONTINUOUS
 10
3.3100174103
 20
-24.7312666524
 30
0.0
 11
-0.2501834304
 21
0.4333025529
 31
0.0
 40
0.5769361983
 41
-3.1677535987
 42
-2.3565853618
  0
ELLIPSE
  5
4AF
100
AcDbEntity
  8
0
100
AcDbEllipse
 62
7
  6
CONTINUOUS
 10
3.3100174103
 20
17.5616138056
 30
0.0
 11
-0.2500121049
 21
0.4330057129
 31
0.0
 40
0.5777274115
 41
-2.3559002616
 42
-0.7857891675
  0
ELLIPSE
  5
4B0
100
AcDbEntity
  8
0
100
AcDbEllipse
 62
7
  6
CONTINUOUS
 10
-11.68040396
 20
26.2168952307
 30
0.0
 11
-0.2501834304
 21
0.4333025529
 31
0.0
 40
0.5769361983
 41
-0.7851038024
 42
0.0261609458
  0
ELLIPSE
  5
4B1
100
AcDbEntity
  8
RACCORDO
100
AcDbEllipse
 62
7
  6
CONTINUOUS
 10
-3.4271730871
 20
13.4271553481
 30
0.0
 11
-0.0500024249
 21
0.0866011403
 31
0.0
 40
0.5780352736
 41
-2.355633942
 42
-0.7860555904
  0
ELLIPSE
  5
4B2
100
AcDbEntity
  8
RACCORDO
100
AcDbEllipse
 62
7
  6
CONTINUOUS
 10
-3.4271730871
 20
-11.0669529556
 30
0.0
 11
-0.0500024249
 21
0.0866011403
 31
0.0
 40
0.5780352736
 41
-2.355633942
 42
-0.7860555904
  0
ELLIPSE
  5
4B3
100
AcDbEntity
  8
RACCORDO
100
AcDbEllipse
 62
7
  6
CONTINUOUS
 10
-3.4271730871
 20
-19.0226433007
 30
0.0
 11
-0.050063346
 21
0.0867066929
 31
0.0
 40
0.5766289216
 41
-3.9264300334
 42
-2.3568516818
  0
ELLIPSE
  5
4B4
100
AcDbEntity
  8
RACCORDO
100
AcDbEllipse
 62
7
  6
CONTINUOUS
 10
-10.3172249995
 20
17.4053849697
 30
0.0
 11
-0.050063346
 21
0.0867066929
 31
0.0
 40
0.5766289216
 41
5.4983479274
 42
7.067926279
  0
ELLIPSE
  5
4B5
100
AcDbEntity
  8
RACCORDO
100
AcDbEllipse
 62
7
  6
CONTINUOUS
 10
-10.3172249995
 20
9.4496946246
 30
0.0
 11
-0.0500024249
 21
0.0866011403
 31
0.0
 40
0.5780352736
 41
0.7859587116
 42
2.3555370632
  0
ELLIPSE
  5
4B6
100
AcDbEntity
  8
RACCORDO
100
AcDbEllipse
 62
7
  6
CONTINUOUS
 10
-10.3172249995
 20
-7.0887233341
 30
0.0
 11
-0.050063346
 21
0.0867066929
 31
0.0
 40
0.5766289216
 41
5.4983479274
 42
7.067926279
  0
ELLIPSE
  5
4B7
100
AcDbEntity
  8
RACCORDO
100
AcDbEllipse
 62
7
  6
CONTINUOUS
 10
-10.3172249995
 20
-15.0444136791
 30
0.0
 11
-0.0500024249
 21
0.0866011403
 31
0.0
 40
0.5780352736
 41
0.7859587116
 42
2.3555370632
  0
ELLIPSE
  5
4B8
100
AcDbEntity
  8
RACCORDO
100
AcDbEllipse
 62
7
  6
CONTINUOUS
 10
-3.4271730871
 20
5.4714650031
 30
0.0
 11
-0.050063346
 21
0.0867066929
 31
0.0
 40
0.5766289216
 41
-3.9264300334
 42
-2.3568516818
  0
ELLIPSE
  5
4B9
100
AcDbEntity
  8
ASSI
100
AcDbEllipse
 62
7
  6
CONTINUOUS
 10
4.7597344352
 20
24.07400355
 30
0.0
 11
-0.1250441155
 21
0.2165688207
 31
0.0
 40
0.5771558487
 41
-0.7852941622
 42
0.0174472731
  0
ELLIPSE
  5
4BA
100
AcDbEntity
  8
DRAFT
100
AcDbEllipse
 62
7
  6
CONTINUOUS
 10
12.4318160831
 20
20.5250782332
 30
0.0
 11
2.1999218644
 21
-0.0326882419
 31
0.0
 40
0.5672251703
 41
5.308667772
 42
5.4887619481
  0
ELLIPSE
  5
4BB
100
AcDbEntity
  8
RACCORDO
100
AcDbEllipse
 62
7
  6
CONTINUOUS
 10
2.5323211464
 20
24.9235821036
 30
0.0
 11
2.1999218644
 21
-0.0326882419
 31
0.0
 40
0.5672251703
 41
1.7051802709
 42
1.753386919
  0
ELLIPSE
  5
4BC
100
AcDbEntity
  8
RACCORDO
100
AcDbEllipse
 62
7
  6
CONTINUOUS
 10
12.4318160831
 20
19.207737797
 30
0.0
 11
2.1999218644
 21
-0.0326882419
 31
0.0
 40
0.5672251703
 41
0.5331054335
 42
1.9026824226
  0
ELLIPSE
  5
4BD
100
AcDbEntity
  8
DRAFT
100
AcDbEllipse
 62
7
  6
CONTINUOUS
 10
-1.3320143114
 20
24.9906439886
 30
0.0
 11
0.3999963222
 21
-0.0029970465
 31
0.0
 40
0.5723275643
 41
-2.3519062463
 42
-0.8334697971
  0
ELLIPSE
  5
4BE
100
AcDbEntity
  8
DRAFT
100
AcDbEllipse
 62
7
  6
CONTINUOUS
 10
-834.282562501
 20
-491.7115681419
 30
0.0
 11
1549.2190481453
 21
939.2059823709
 31
0.0
 40
0.0002292639
 41
-0.9979176733
 42
-0.9960060466
  0
ELLIPSE
  5
4BF
100
AcDbEntity
  8
DRAFT
100
AcDbEllipse
 62
7
  6
CONTINUOUS
 10
-837.7303917297
 20
-489.7208347567
 30
0.0
 11
1587.846741927
 21
916.8006670355
 31
0.0
 40
0.0182883491
 41
1.0066889963
 42
1.0080254307
  0
ELLIPSE
  5
4C0
100
AcDbEntity
  8
DRAFT
100
AcDbEllipse
 62
7
  6
CONTINUOUS
 10
7.1037633855
 20
20.1199316715
 30
0.0
 11
0.3999963222
 21
-0.0029970465
 31
0.0
 40
0.5723275643
 41
2.4128426116
 42
3.9312790609
  0
ELLIPSE
  5
4C1
100
AcDbEntity
  8
ASSI
100
AcDbEllipse
 62
7
  6
CONTINUOUS
 10
10.5484399969
 20
22.712010895
 30
0.0
 11
-0.1250060456
 21
0.2165028604
 31
0.0
 40
0.5775075436
 41
-0.8696513018
 42
-0.7855988075
  0
ELLIPSE
  5
4C2
100
AcDbEntity
  8
ASSI
100
AcDbEllipse
 62
7
  6
CONTINUOUS
 10
8.7173176045
 20
24.3552624131
 30
0.0
 11
-0.0997443216
 21
0.1733547677
 31
0.0
 40
0.6165007174
 41
-2.2349887316
 42
-0.8165063841
  0
ELLIPSE
  5
4C3
100
AcDbEntity
  8
ASSI
100
AcDbEllipse
 62
7
  6
CONTINUOUS
 10
5.6881278322
 20
26.104278623
 30
0.0
 11
-0.0967169587
 21
0.179612414
 31
0.0
 40
0.5745579549
 41
-2.2695797439
 42
-0.7493576255
  0
ELLIPSE
  5
4C4
100
AcDbEntity
  8
ASSI
100
AcDbEllipse
 62
7
  6
CONTINUOUS
 10
3.7085904514
 20
26.6612542992
 30
0.0
 11
-0.1250441155
 21
0.2165688207
 31
0.0
 40
0.5771558487
 41
-0.7852941622
 42
-0.7012416679
  0
ELLIPSE
  5
4C5
100
AcDbEntity
  8
RACCORDO
100
AcDbEllipse
 62
7
  6
CONTINUOUS
 10
-107.487790391
 20
-49.7172084941
 30
0.0
 11
402.8595621856
 21
232.6078586167
 31
0.0
 40
0.0628494143
 41
-1.3277255145
 42
-1.3258935879
  0
ELLIPSE
  5
4C6
100
AcDbEntity
  8
DRAFT
100
AcDbEllipse
 62
7
  6
CONTINUOUS
 10
12.4318160831
 20
21.1018628631
 30
0.0
 11
2.1990703413
 21
0.1053955392
 31
0.0
 40
0.6067642562
 41
2.5563983046
 42
2.6377331584
  0
ELLIPSE
  5
4C7
100
AcDbEntity
  8
ASSI
100
AcDbEllipse
 62
7
  6
CONTINUOUS
 10
5.5397128438
 20
26.1899715771
 30
0.0
 11
-0.1065746657
 21
0.1850801844
 31
0.0
 40
0.5406488238
 41
-0.7513003416
 42
-0.2431306586
  0
ELLIPSE
  5
4C8
100
AcDbEntity
  8
ASSI
100
AcDbEllipse
 62
7
  6
CONTINUOUS
 10
8.5689026161
 20
24.4409553673
 30
0.0
 11
-0.0962895183
 21
0.1790040747
 31
0.0
 40
0.5787392407
 41
-0.752491962
 42
-0.1289872409
  0
ELLIPSE
  5
4C9
100
AcDbEntity
  8
ASSI
100
AcDbEllipse
 62
7
  6
CONTINUOUS
 10
2.2108846393
 20
23.6466668117
 30
0.0
 11
0.3652263551
 21
0.1644105368
 31
0.0
 40
0.3407407308
 41
1.8589059539
 42
3.382251992
  0
ELLIPSE
  5
4CA
100
AcDbEntity
  8
ASSI
100
AcDbEllipse
 62
7
  6
CONTINUOUS
 10
3.7198697236
 20
19.8129314038
 30
0.0
 11
0.999867518
 21
-0.0292282715
 31
0.0
 40
0.5568983954
 41
5.6013315027
 42
7.0848613669
  0
ELLIPSE
  5
4CB
100
AcDbEntity
  8
ASSI
100
AcDbEllipse
 62
7
  6
CONTINUOUS
 10
7.7278160675
 20
23.2821712809
 30
0.0
 11
0.5013109713
 21
-0.0090323087
 31
0.0
 40
0.5663187271
 41
-0.7565983455
 42
-0.4971873728
  0
ELLIPSE
  5
4CC
100
AcDbEntity
  8
ASSI
100
AcDbEllipse
 62
7
  6
CONTINUOUS
 10
3.7552406311
 20
19.3297475014
 30
0.0
 11
-0.100004872
 21
0.1732022678
 31
0.0
 40
0.5789151826
 41
-2.3548735497
 42
-0.7868162787
  0
ELLIPSE
  5
4CD
100
AcDbEntity
  8
RACCORDO
100
AcDbEllipse
 62
7
  6
CONTINUOUS
 10
-107.487790391
 20
-61.6418511761
 30
0.0
 11
403.1242860915
 21
268.5419470062
 31
0.0
 40
0.0022336512
 41
-1.2929406363
 42
-1.2911087097
  0
ELLIPSE
  5
4CE
100
AcDbEntity
  8
0
100
AcDbEllipse
 62
7
  6
CONTINUOUS
 10
-984.9250449027
 20
-535.079351461
 30
0.0
 11
1091.3872670356
 21
588.1465940607
 31
0.0
 40
0.0261556157
 41
-0.4518153808
 42
-0.4513581923
  0
ENDSEC
  0
SECTION
  2
OBJECTS
  0
DICTIONARY
  5
C
100
AcDbDictionary
280
0
281
1
  3
ACAD_GROUP
350
D
  3
ACAD_MLINESTYLE
350
17
  3
ACAD_LAYOUT
350
1A
  3
ACAD_PLOTSETTINGS
350
19
  3
ACAD_PLOTSTYLENAME
350
E
  0
DICTIONARY
  5
D
102
{ACAD_REACTORS
330
C
102
}
100
AcDbDictionary
280
0
281
1
  0
ACDBDICTIONARYWDFLT
  5
E
102
{ACAD_REACTORS
330
C
102
}
100
AcDbDictionary
281
1
  3
Normal
350
F
100
AcDbDictionaryWithDefault
340
F
  0
DICTIONARY
  5
17
102
{ACAD_REACTORS
330
C
102
}
100
AcDbDictionary
280
0
281
1
  3
Standard
350
18
  0
DICTIONARY
  5
19
102
{ACAD_REACTORS
330
C
102
}
100
AcDbDictionary
281
1
  0
DICTIONARY
  5
1A
102
{ACAD_REACTORS
330
C
102
}
100
AcDbDictionary
281
1
  3
Model
350
4CF
  3
Layout1
350
4D0
  0
ACDBPLACEHOLDER
  5
F
102
{ACAD_REACTORS
330
E
102
}
  0
MLINESTYLE
  5
18
102
{ACAD_REACTORS
330
17
102
}
100
AcDbMlineStyle
  2
STANDARD
 70
0
  3

 62
256
 51
90.0
 52
90.0
 71
2
 49
0.5
 62
256
  6
BYLAYER
 49
-0.5
 62
256
  6
BYLAYER
  0
LAYOUT
  5
4CF
102
{ACAD_REACTORS
330
1A
102
}
100
AcDbPlotSettings
  1

  2
none_device
  4
ISO_A4_(297.00_x_210.00_MM)
  6

 40
0.0
 41
0.0
 42
0.0
 43
0.0
 44
297.0
 45
210.0
 46
0.0
 47
0.0
 48
0.0
 49
0.0
140
0.0
141
0.0
142
1.0
143
1.0
 70
1024
 72
1
 73
0
 74
0
  7

 75
0
147
1.0
148
0.0
149
0.0
100
AcDbLayout
  1
Model
 70
0
 71
0
 10
0.0
 20
0.0
 11
297.0
 21
210.0
 12
0.0
 22
0.0
 32
0.0
 14
0.0
 24
0.0
 34
0.0
 15
0.0
 25
0.0
 35
0.0
146
0.0
 13
0.0
 23
0.0
 33
0.0
 16
1.0
 26
0.0
 36
0.0
 17
0.0
 27
1.0
 37
0.0
 76
0
330
21E
345
0
346
0
  0
LAYOUT
  5
4D0
102
{ACAD_REACTORS
330
1A
102
}
100
AcDbPlotSettings
  1

  2
none_device
  4
ISO_A4_(297.00_x_210.00_MM)
  6

 40
0.0
 41
0.0
 42
0.0
 43
0.0
 44
297.0
 45
210.0
 46
0.0
 47
0.0
 48
0.0
 49
0.0
140
0.0
141
0.0
142
1.0
143
1.0
 70
0
 72
1
 73
0
 74
0
  7

 75
0
147
1.0
148
0.0
149
0.0
100
AcDbLayout
  1
Layout1
 70
0
 71
1
 10
0.0
 20
0.0
 11
297.0
 21
210.0
 12
0.0
 22
0.0
 32
0.0
 14
0.0
 24
0.0
 34
0.0
 15
0.0
 25
0.0
 35
0.0
146
0.0
 13
0.0
 23
0.0
 33
0.0
 16
1.0
 26
0.0
 36
0.0
 17
0.0
 27
1.0
 37
0.0
 76
0
330
21F
345
0
346
0
  0
ENDSEC
  0
EOF
