  0
SECTION
  2
HEADER
  9
$ACADVER
  1
AC1024
  9
$DWGCODEPAGE
  3
ANSI_1252
  9
$EXTMAX
 10
297.0
 20
210.0
 30
0.0
  9
$EXTMIN
 10
0.0
 20
0.0
 30
0.0
  9
$LIMMIN
 10
0.0
 20
0.0
  9
$LIMMAX
 10
297.0
 20
210.0
  9
$VIEWCTR
 10
148.5
 20
105.0
  9
$VIEWSIZE
 40
210.0
  9
$CLAYER
  8
0
  9
$LTSCALE
 40
16.335
  9
$CELTYPE
  6
BYLAYER
  9
$DIMSCALE
 40
1.0
  9
$DIMASZ
 40
3.0
  9
$DIMEXO
 40
0.5
  9
$DIMDLI
 40
11.286
  9
$DIMEXE
 40
1.5
  9
$DIMCEN
 40
2.673
  9
$DIMLFAC
 40
1.0
  9
$DIMBLK
  1
_FILLED
  9
$DIMALT
 70
0
  9
$DIMALTF
 40
0.0393700787
  9
$DIMTXT
 40
3.0
  9
$DIMTOL
 70
1
  9
$DIMLIM
 70
0
  9
$DIMTFAC
 40
1.0
  9
$DIMTP
 40
0.01
  9
$DIMTM
 40
0.01
  9
$DIMGAP
 40
0.625
  9
$DIMDSEP
 70
44
  9
$AUNITS
 70
0
  9
$PDMODE
 70
3
  9
$PDSIZE
 40
3.0
  9
$HANDSEED
  5
61E
  9
$TILEMODE
 70
1
  9
$MEASUREMENT
 70
1
  9
$INSUNITS
 70
4
  0
ENDSEC
  0
SECTION
  2
CLASSES
  0
CLASS
  1
ACDBDICTIONARYWDFLT
  2
AcDbDictionaryWithDefault
  3
AutoCAD 2000
 90
0
 91
1
280
0
281
0
  0
CLASS
  1
ACDBPLACEHOLDER
  2
AcDbPlaceHolder
  3
AutoCAD 2000
 90
0
 91
1
280
0
281
0
  0
CLASS
  1
LAYOUT
  2
AcDbLayout
  3
AutoCAD 2000
 90
0
 91
0
280
0
281
0
  0
ENDSEC
  0
SECTION
  2
TABLES
  0
TABLE
  2
VPORT
  5
8
100
AcDbSymbolTable
 70
2
  0
VPORT
  5
1F4
100
AcDbSymbolTableRecord
100
AcDbViewportTableRecord
  2
*ACTIVE
 70
0
 10
0.0
 20
0.0
 11
1.0
 21
1.0
 12
148.5
 22
105.0
 13
0.0
 23
0.0
 14
1.0
 24
1.0
 15
0.0
 25
0.0
 16
0.0
 26
0.0
 36
1.0
 17
0.0
 27
0.0
 37
0.0
 40
210.0
 41
1.4142857143
 42
50.0
 43
0.0
 44
0.0
 50
0.0
 51
0.0
 71
0
 72
100
 73
1
 74
1
 75
0
 76
0
 77
0
 78
0
  0
ENDTAB
  0
TABLE
  2
LTYPE
  5
5
100
AcDbSymbolTable
 70
6
  0
LTYPE
  5
14
100
AcDbSymbolTableRecord
100
AcDbLinetypeTableRecord
  2
BYBLOCK
 70
0
  3

 72
65
 73
0
 40
0.0
  0
LTYPE
  5
15
100
AcDbSymbolTableRecord
100
AcDbLinetypeTableRecord
  2
BYLAYER
 70
0
  3

 72
65
 73
0
 40
0.0
  0
LTYPE
  5
16
100
AcDbSymbolTableRecord
100
AcDbLinetypeTableRecord
  2
CONTINUOUS
 70
64
  3
Solid line
 72
65
 73
0
 40
0.0
  0
LTYPE
  5
1F5
100
AcDbSymbolTableRecord
100
AcDbLinetypeTableRecord
  2
CENTER
 70
64
  3
____ _ ____ _ ____ _ ____ _ ____ _ ____ _ ____
 72
65
 73
4
 40
0.6
 49
0.375
 74
0
 49
-0.075
 74
0
 49
0.075
 74
0
 49
-0.075
 74
0
  0
LTYPE
  5
1F6
100
AcDbSymbolTableRecord
100
AcDbLinetypeTableRecord
  2
HIDDEN
 70
64
  3
- - - - - - - - - - - - - - - - - - - -
 72
65
 73
2
 40
0.2
 49
0.1
 74
0
 49
-0.1
 74
0
  0
LTYPE
  5
1F7
100
AcDbSymbolTableRecord
100
AcDbLinetypeTableRecord
  2
PHANTOM
 70
64
  3
_____ _ _ _____ _ _ _____ _ _ _____
 72
65
 73
6
 40
0.8
 49
0.45
 74
0
 49
-0.05
 74
0
 49
0.1
 74
0
 49
-0.05
 74
0
 49
0.1
 74
0
 49
-0.05
 74
0
  0
LTYPE
  5
1F8
100
AcDbSymbolTableRecord
100
AcDbLinetypeTableRecord
  2
DOT
 70
64
  3
. . . . . . . . . . . . . . . . . . . .
 72
65
 73
2
 40
0.2
 49
0.1
 74
0
 49
-0.1
 74
0
  0
LTYPE
  5
1F9
100
AcDbSymbolTableRecord
100
AcDbLinetypeTableRecord
  2
DASHED
 70
64
  3
- - - - - - - - - - - - - - - - - - - -
 72
65
 73
2
 40
0.2
 49
0.1
 74
0
 49
-0.1
 74
0
  0
ENDTAB
  0
TABLE
  2
LAYER
  5
2
100
AcDbSymbolTable
 70
36
  0
LAYER
  5
10
100
AcDbSymbolTableRecord
100
AcDbLayerTableRecord
  2
0
 70
0
 62
7
  6
CONTINUOUS
370
-3
390
F
  0
LAYER
  5
1FA
100
AcDbSymbolTableRecord
100
AcDbLayerTableRecord
  2
DEFAULT_1
 70
0
 62
7
  6
CENTER
370
-3
390
F
  0
LAYER
  5
1FB
100
AcDbSymbolTableRecord
100
AcDbLayerTableRecord
  2
DEFAULT_2
 70
0
 62
7
  6
HIDDEN
370
-3
390
F
  0
LAYER
  5
1FC
100
AcDbSymbolTableRecord
100
AcDbLayerTableRecord
  2
DEFAULT_3
 70
0
 62
7
  6
PHANTOM
370
-3
390
F
  0
LAYER
  5
1FD
100
AcDbSymbolTableRecord
100
AcDbLayerTableRecord
  2
ASSI
 70
0
 62
7
  6
CONTINUOUS
370
-3
390
F
  0
LAYER
  5
1FE
100
AcDbSymbolTableRecord
100
AcDbLayerTableRecord
  2
COORDINATE
 70
0
 62
7
  6
CONTINUOUS
370
-3
390
F
  0
LAYER
  5
1FF
100
AcDbSymbolTableRecord
100
AcDbLayerTableRecord
  2
COORD_ORIGINE
 70
0
 62
7
  6
CONTINUOUS
370
-3
390
F
  0
LAYER
  5
200
100
AcDbSymbolTableRecord
100
AcDbLayerTableRecord
  2
COPY_PUBLISH
 70
0
 62
7
  6
CONTINUOUS
370
-3
390
F
  0
LAYER
  5
201
100
AcDbSymbolTableRecord
100
AcDbLayerTableRecord
  2
COSMETICHE
 70
0
 62
7
  6
CONTINUOUS
370
-3
390
F
  0
LAYER
  5
202
100
AcDbSymbolTableRecord
100
AcDbLayerTableRecord
  2
COSMETICI
 70
0
 62
7
  6
CONTINUOUS
370
-3
390
F
  0
LAYER
  5
203
100
AcDbSymbolTableRecord
100
AcDbLayerTableRecord
  2
CURVE
 70
0
 62
7
  6
CONTINUOUS
370
-3
390
F
  0
LAYER
  5
204
100
AcDbSymbolTableRecord
100
AcDbLayerTableRecord
  2
DRAFT
 70
0
 62
7
  6
CONTINUOUS
370
-3
390
F
  0
LAYER
  5
205
100
AcDbSymbolTableRecord
100
AcDbLayerTableRecord
  2
IMPORT_IGES
 70
0
 62
7
  6
CONTINUOUS
370
-3
390
F
  0
LAYER
  5
206
100
AcDbSymbolTableRecord
100
AcDbLayerTableRecord
  2
INTF_1
 70
0
 62
7
  6
CONTINUOUS
370
-3
390
F
  0
LAYER
  5
207
100
AcDbSymbolTableRecord
100
AcDbLayerTableRecord
  2
INTF_10
 70
0
 62
7
  6
CONTINUOUS
370
-3
390
F
  0
LAYER
  5
208
100
AcDbSymbolTableRecord
100
AcDbLayerTableRecord
  2
INTF_11
 70
0
 62
7
  6
CONTINUOUS
370
-3
390
F
  0
LAYER
  5
209
100
AcDbSymbolTableRecord
100
AcDbLayerTableRecord
  2
INTF_12
 70
0
 62
7
  6
CONTINUOUS
370
-3
390
F
  0
LAYER
  5
20A
100
AcDbSymbolTableRecord
100
AcDbLayerTableRecord
  2
INTF_13
 70
0
 62
7
  6
CONTINUOUS
370
-3
390
F
  0
LAYER
  5
20B
100
AcDbSymbolTableRecord
100
AcDbLayerTableRecord
  2
INTF_14
 70
0
 62
7
  6
CONTINUOUS
370
-3
390
F
  0
LAYER
  5
20C
100
AcDbSymbolTableRecord
100
AcDbLayerTableRecord
  2
INTF_2
 70
0
 62
7
  6
CONTINUOUS
370
-3
390
F
  0
LAYER
  5
20D
100
AcDbSymbolTableRecord
100
AcDbLayerTableRecord
  2
INTF_8
 70
0
 62
7
  6
CONTINUOUS
370
-3
390
F
  0
LAYER
  5
20E
100
AcDbSymbolTableRecord
100
AcDbLayerTableRecord
  2
INTF_9
 70
0
 62
7
  6
CONTINUOUS
370
-3
390
F
  0
LAYER
  5
20F
100
AcDbSymbolTableRecord
100
AcDbLayerTableRecord
  2
NOTE
 70
0
 62
7
  6
CONTINUOUS
370
-3
390
F
  0
LAYER
  5
210
100
AcDbSymbolTableRecord
100
AcDbLayerTableRecord
  2
PIANI
 70
0
 62
7
  6
CONTINUOUS
370
-3
390
F
  0
LAYER
  5
211
100
AcDbSymbolTableRecord
100
AcDbLayerTableRecord
  2
PIANI_ORIGINE
 70
0
 62
7
  6
CONTINUOUS
370
-3
390
F
  0
LAYER
  5
212
100
AcDbSymbolTableRecord
100
AcDbLayerTableRecord
  2
PUNTI
 70
0
 62
7
  6
CONTINUOUS
370
-3
390
F
  0
LAYER
  5
213
100
AcDbSymbolTableRecord
100
AcDbLayerTableRecord
  2
RACCORDO
 70
0
 62
7
  6
CONTINUOUS
370
-3
390
F
  0
LAYER
  5
214
100
AcDbSymbolTableRecord
100
AcDbLayerTableRecord
  2
RGB__255__255__255__
 70
0
 62
7
  6
CONTINUOUS
370
-3
390
F
  0
LAYER
  5
215
100
AcDbSymbolTableRecord
100
AcDbLayerTableRecord
  2
RGB____0____0____0__
 70
0
 62
7
  6
CONTINUOUS
370
-3
390
F
  0
LAYER
  5
216
100
AcDbSymbolTableRecord
100
AcDbLayerTableRecord
  2
SIMBOLI
 70
0
 62
7
  6
CONTINUOUS
370
-3
390
F
  0
LAYER
  5
217
100
AcDbSymbolTableRecord
100
AcDbLayerTableRecord
  2
SMUSSO
 70
0
 62
7
  6
CONTINUOUS
370
-3
390
F
  0
LAYER
  5
218
100
AcDbSymbolTableRecord
100
AcDbLayerTableRecord
  2
SNAPLINE
 70
0
 62
7
  6
CONTINUOUS
370
-3
390
F
  0
LAYER
  5
219
100
AcDbSymbolTableRecord
100
AcDbLayerTableRecord
  2
SUPERFICI
 70
0
 62
7
  6
CONTINUOUS
370
-3
390
F
  0
LAYER
  5
21A
100
AcDbSymbolTableRecord
100
AcDbLayerTableRecord
  2
TRASH
 70
0
 62
7
  6
CONTINUOUS
370
-3
390
F
  0
LAYER
  5
21B
100
AcDbSymbolTableRecord
100
AcDbLayerTableRecord
  2
XSEC_DATUMS
 70
0
 62
7
  6
CONTINUOUS
370
-3
390
F
  0
ENDTAB
  0
TABLE
  2
STYLE
  5
3
100
AcDbSymbolTable
 70
1
  0
STYLE
  5
11
100
AcDbSymbolTableRecord
100
AcDbTextStyleTableRecord
  2
STANDARD
 70
0
 40
0.0
 41
0.8
 50
0.0
 71
0
 42
0.2
  3
txt
  4

  0
STYLE
  5
21C
100
AcDbSymbolTableRecord
100
AcDbTextStyleTableRecord
  2
TEXTSTYLE_1
 70
0
 40
0.0
 41
0.8
 50
0.0
 71
0
 42
0.2
  3
gdt
  4

  0
ENDTAB
  0
TABLE
  2
VIEW
  5
6
100
AcDbSymbolTable
 70
0
  0
ENDTAB
  0
TABLE
  2
UCS
  5
7
100
AcDbSymbolTable
 70
0
  0
ENDTAB
  0
TABLE
  2
APPID
  5
9
100
AcDbSymbolTable
 70
1
  0
APPID
  5
21D
100
AcDbSymbolTableRecord
100
AcDbRegAppTableRecord
  2
ACAD
 70
0
  0
ENDTAB
  0
TABLE
  2
BLOCK_RECORD
  5
1
100
AcDbSymbolTable
 70
0
  0
BLOCK_RECORD
  5
21E
100
AcDbSymbolTableRecord
100
AcDbBlockTableRecord
  2
*Model_Space
  0
BLOCK_RECORD
  5
21F
100
AcDbSymbolTableRecord
100
AcDbBlockTableRecord
  2
*Paper_Space
  0
BLOCK_RECORD
  5
220
100
AcDbSymbolTableRecord
100
AcDbBlockTableRecord
  2
_FILLED
  0
ENDTAB
  0
TABLE
  2
DIMSTYLE
  5
A
100
AcDbSymbolTable
 70
1
100
AcDbDimStyleTable
 71
0
  0
DIMSTYLE
105
221
100
AcDbSymbolTableRecord
100
AcDbDimStyleTableRecord
  2
STANDARD
 70
0
  3

  4

 40
1.0
 41
3.0
 42
0.5
 43
0.38
 44
1.5
 45
0.0
 46
0.0
 47
0.01
 48
0.01
140
3.0
141
0.09
142
0.0
143
25.4
144
1.0
145
0.0
146
1.0
147
0.625
 71
1
 72
0
 73
0
 74
0
 75
0
 76
0
 77
1
 78
8
 79
2
170
0
171
1
172
0
173
0
174
0
175
0
176
0
177
0
178
0
270
2
179
2
271
2
272
2
273
2
274
2
275
0
280
0
281
0
282
0
283
1
284
8
285
0
286
0
287
3
288
0
340
11
278
44
341
220
342
220
343
220
344
220
  0
ENDTAB
  0
ENDSEC
  0
SECTION
  2
BLOCKS
  0
BLOCK
  5
20
100
AcDbEntity
  8
0
100
AcDbBlockBegin
  2
*Model_Space
 70
0
 10
0.0
 20
0.0
 30
0.0
  3
*Model_Space
  1

  0
ENDBLK
  5
21
100
AcDbEntity
  8
0
100
AcDbBlockEnd
  0
BLOCK
  5
1C
100
AcDbEntity
  8
0
100
AcDbBlockBegin
  2
*Paper_Space
 70
0
 10
0.0
 20
0.0
 30
0.0
  3
*Paper_Space
  1

  0
ENDBLK
  5
1D
100
AcDbEntity
  8
0
100
AcDbBlockEnd
  0
BLOCK
  5
222
100
AcDbEntity
  8
0
100
AcDbBlockBegin
  2
_FILLED
 70
64
 10
0.0
 20
0.0
  3
_FILLED
  1

  0
SOLID
  5
223
100
AcDbEntity
  8
0
  6
BYBLOCK
 62
0
100
AcDbTrace
 10
0.0
 20
0.0
 11
-1.0
 21
0.3166666667
 12
-1.0
 22
-0.3166666667
 13
-1.0
 23
-0.3166666667
  0
ENDBLK
  5
224
100
AcDbEntity
  8
0
  6
BYBLOCK
 62
0
100
AcDbBlockEnd
  0
ENDSEC
  0
SECTION
  2
ENTITIES
  0
LINE
  5
225
100
AcDbEntity
  8
0
100
AcDbLine
 62
7
  6
CONTINUOUS
 10
-18.7604096412
 20
-20.6087664175
 11
-3.8921954729
 21
-29.1934869358
  0
LINE
  5
226
100
AcDbEntity
  8
0
100
AcDbLine
 62
250
  6
CONTINUOUS
 10
-18.8639509517
 20
-20.3798979869
 11
-3.9957367834
 21
-28.9646185052
  0
LWPOLYLINE
  5
227
100
AcDbEntity
  8
0
100
AcDbPolyline
 62
250
  6
CONTINUOUS
 90
9
 70
0
 10
-18.7604096412
 20
-20.6087664175
 10
-18.7760095435
 20
-20.5985575912
 10
-18.7985887577
 20
-20.5786416038
 10
-18.818114769
 20
-20.5544573485
 10
-18.8343807117
 20
-20.5262610422
 10
-18.8472142583
 20
-20.4943514072
 10
-18.8564794456
 20
-20.4590665058
 10
-18.8620781148
 20
-20.4207801591
 10
-18.8639509517
 20
-20.3798979869
  0
LINE
  5
228
100
AcDbEntity
  8
0
100
AcDbLine
 62
7
  6
CONTINUOUS
 10
-18.7797715112
 20
22.397245108
 11
-16.4946857344
 21
23.858530971
  0
LINE
  5
229
100
AcDbEntity
  8
0
100
AcDbLine
 62
250
  6
CONTINUOUS
 10
-18.51965251
 20
22.3787631469
 11
-16.2382911335
 21
23.8376672991
  0
LWPOLYLINE
  5
22A
100
AcDbEntity
  8
0
100
AcDbPolyline
 62
250
  6
CONTINUOUS
 90
9
 70
0
 10
-18.7797715112
 20
22.397245108
 10
-18.7592695639
 20
22.408418091
 10
-18.7302721386
 20
22.4186965486
 10
-18.6988128584
 20
22.4241160535
 10
-18.6652776229
 20
22.4245987918
 10
-18.6301758201
 20
22.4201662517
 10
-18.5939568127
 20
22.4109390857
 10
-18.5569806639
 20
22.397070374
 10
-18.51965251
 20
22.3787631469
  0
LWPOLYLINE
  5
22B
100
AcDbEntity
  8
0
100
AcDbPolyline
 62
250
  6
CONTINUOUS
 90
9
 70
0
 10
-19.0103975611
 20
-20.1757606902
 10
-19.009282876
 20
-20.195027121
 10
-19.0031948143
 20
-20.2245861916
 10
-18.9918479082
 20
-20.2536664223
 10
-18.9753678625
 20
-20.2819161967
 10
-18.9540217295
 20
-20.3089328249
 10
-18.9281270077
 20
-20.3344131814
 10
-18.8979827925
 20
-20.3581435713
 10
-18.8639509517
 20
-20.3798979869
  0
LINE
  5
22C
100
AcDbEntity
  8
0
100
AcDbLine
 62
7
  6
CONTINUOUS
 10
-19.0103975611
 20
-20.1757606902
 11
-19.0103975611
 21
21.976011592
  0
LINE
  5
22D
100
AcDbEntity
  8
0
100
AcDbLine
 62
250
  6
CONTINUOUS
 10
-18.8639509517
 20
-20.3798979869
 11
-18.8639509517
 21
21.7718742953
  0
LWPOLYLINE
  5
22E
100
AcDbEntity
  8
0
100
AcDbPolyline
 62
250
  6
CONTINUOUS
 90
16
 70
0
 10
-18.8639509517
 20
21.7718742953
 10
-18.8620781148
 20
21.8149191727
 10
-18.8564794456
 20
21.8596707222
 10
-18.8472142583
 20
21.9056548296
 10
-18.8343807117
 20
21.9523843226
 10
-18.818114769
 20
21.9993641318
 10
-18.7985887577
 20
22.0460965355
 10
-18.7760095435
 20
22.0920864335
 10
-18.7506163389
 20
22.1368465921
 10
-18.7226781687
 20
22.179902806
 10
-18.6924910198
 20
22.2207989221
 10
-18.6603747061
 20
22.2591016717
 10
-18.6266694797
 20
22.2944052614
 10
-18.5917324261
 20
22.3263356721
 10
-18.5559336812
 20
22.3545546212
 10
-18.51965251
 20
22.3787631469
  0
LWPOLYLINE
  5
22F
100
AcDbEntity
  8
ASSI
100
AcDbPolyline
 62
250
  6
CONTINUOUS
 90
3
 70
0
 10
-10.3935658139
 20
20.1347880478
 10
-10.41765843
 20
20.1080898197
 10
-10.4399689608
 20
20.0809113554
  0
LWPOLYLINE
  5
230
100
AcDbEntity
  8
ASSI
100
AcDbPolyline
 62
250
  6
CONTINUOUS
 90
8
 70
0
 10
-10.0907434907
 20
20.3866545572
 10
-10.0895639314
 20
20.387953789
 10
-10.0855657936
 20
20.3943615222
 10
-10.0831848501
 20
20.4022077319
 10
-10.0824475282
 20
20.4114063168
 10
-10.0833618043
 20
20.4218566304
 10
-10.0859176562
 20
20.4334450358
 10
-10.0900872193
 20
20.4460452086
  0
LINE
  5
231
100
AcDbEntity
  8
DRAFT
100
AcDbLine
 62
7
  6
CONTINUOUS
 10
-11.2303389027
 20
20.9461384453
 11
-11.7477996113
 21
20.4072716973
  0
LINE
  5
232
100
AcDbEntity
  8
ASSI
100
AcDbLine
 62
250
  6
CONTINUOUS
 10
-10.0900872193
 20
20.4460452086
 11
-10.3935658139
 21
20.1347880478
  0
LINE
  5
233
100
AcDbEntity
  8
ASSI
100
AcDbLine
 62
7
  6
CONTINUOUS
 10
-10.0907558098
 20
20.3866419136
 11
-10.3942344045
 21
20.0753847526
  0
LINE
  5
234
100
AcDbEntity
  8
ASSI
100
AcDbLine
 62
250
  6
CONTINUOUS
 10
-11.2303389027
 20
20.483541336
 11
-10.2314870364
 21
21.0602678653
  0
LINE
  5
235
100
AcDbEntity
  8
ASSI
100
AcDbLine
 62
250
  6
CONTINUOUS
 10
-11.1276769909
 20
20.2162628111
 11
-10.0900872193
 21
20.8153561982
  0
LINE
  5
236
100
AcDbEntity
  8
RACCORDO
100
AcDbLine
 62
7
  6
CONTINUOUS
 10
-0.7960761641
 20
25.9596190841
 11
-3.6078712385
 21
24.3361182738
  0
LINE
  5
237
100
AcDbEntity
  8
DRAFT
100
AcDbLine
 62
7
  6
CONTINUOUS
 10
-3.5707187478
 20
24.3444969538
 11
-6.9046928537
 21
22.4651992131
  0
LINE
  5
238
100
AcDbEntity
  8
DRAFT
100
AcDbLine
 62
7
  6
CONTINUOUS
 10
-4.225562291
 20
24.0794008964
 11
-10.0339551794
 21
20.807977755
  0
LINE
  5
239
100
AcDbEntity
  8
RACCORDO
100
AcDbLine
 62
7
  6
CONTINUOUS
 10
-0.8237622746
 20
25.9756046973
 11
-3.8907827127
 21
24.2508158796
  0
LINE
  5
23A
100
AcDbEntity
  8
RACCORDO
100
AcDbLine
 62
250
  6
CONTINUOUS
 10
-8.2104240791
 20
21.7777239491
 11
-10.0339551794
 21
20.7702678507
  0
LINE
  5
23B
100
AcDbEntity
  8
RACCORDO
100
AcDbLine
 62
250
  6
CONTINUOUS
 10
-7.5500812256
 20
21.6888273122
 11
-10.3045563257
 21
20.1673614017
  0
LINE
  5
23C
100
AcDbEntity
  8
ASSI
100
AcDbLine
 62
250
  6
CONTINUOUS
 10
-7.2767006038
 20
22.2911512584
 11
-8.2104240791
 21
21.7777239491
  0
LINE
  5
23D
100
AcDbEntity
  8
ASSI
100
AcDbLine
 62
250
  6
CONTINUOUS
 10
-6.6248737618
 20
22.1976110567
 11
-7.5501404299
 21
21.6888614961
  0
LINE
  5
23E
100
AcDbEntity
  8
RACCORDO
100
AcDbLine
 62
7
  6
CONTINUOUS
 10
-7.402587173
 20
22.235331936
 11
-9.9403592939
 21
20.8447658487
  0
LINE
  5
23F
100
AcDbEntity
  8
RACCORDO
100
AcDbLine
 62
250
  6
CONTINUOUS
 10
-7.3978691772
 20
22.2376801397
 11
-7.4024873746
 21
22.2351497917
  0
LWPOLYLINE
  5
240
100
AcDbEntity
  8
DRAFT
100
AcDbPolyline
 62
7
  6
CONTINUOUS
 90
3
 70
0
 10
-4.0706393022
 20
24.161079585
 10
-3.9605965265
 20
24.2207460588
 10
-3.8938028091
 20
24.2561862168
  0
LINE
  5
241
100
AcDbEntity
  8
ASSI
100
AcDbLine
 62
7
  6
CONTINUOUS
 10
-11.8558842419
 20
21.9535071932
 11
-12.4353432836
 21
21.6418928726
  0
LINE
  5
242
100
AcDbEntity
  8
ASSI
100
AcDbLine
 62
250
  6
CONTINUOUS
 10
-11.7586909021
 20
21.942056237
 11
-12.3782046948
 21
21.6089017676
  0
LWPOLYLINE
  5
243
100
AcDbEntity
  8
DRAFT
100
AcDbPolyline
 62
7
  6
CONTINUOUS
 90
3
 70
0
 10
-4.1502283996
 20
24.1194181818
 10
-4.1141949789
 20
24.1379681506
 10
-4.0706393022
 20
24.161079585
  0
LINE
  5
244
100
AcDbEntity
  8
RACCORDO
100
AcDbLine
 62
7
  6
CONTINUOUS
 10
-7.4025702105
 20
22.2353021248
 11
-7.3978691772
 21
22.2376801397
  0
LWPOLYLINE
  5
245
100
AcDbEntity
  8
ASSI
100
AcDbPolyline
 62
250
  6
CONTINUOUS
 90
9
 70
0
 10
-10.2314870364
 20
21.0602678653
 10
-10.2168836539
 20
21.0675304315
 10
-10.2024631829
 20
21.0729506152
 10
-10.1883801269
 20
21.0764703447
 10
-10.1747853848
 20
21.0780519098
 10
-10.1618246015
 20
21.0776783705
 10
-10.1496366127
 20
21.0753537224
 10
-10.138351997
 20
21.0711028545
 10
-10.1339503473
 20
21.0687758965
  0
LWPOLYLINE
  5
246
100
AcDbEntity
  8
RACCORDO
100
AcDbPolyline
 62
7
  6
CONTINUOUS
 90
7
 70
0
 10
-0.8237437184
 20
25.9755939832
 10
-0.7905238676
 20
25.9913709301
 10
-0.7562034875
 20
26.0028775708
 10
-0.721061726
 20
26.0099521447
 10
-0.6853805604
 20
26.0124618755
 10
-0.6494422653
 20
26.010305184
 10
-0.6135267699
 20
26.0034136878
  0
LINE
  5
247
100
AcDbEntity
  8
RACCORDO
100
AcDbLine
 62
7
  6
CONTINUOUS
 10
-9.9358806036
 20
20.8470061814
 11
-10.0339551794
 21
20.8005761159
  0
LINE
  5
248
100
AcDbEntity
  8
DRAFT
100
AcDbLine
 62
7
  6
CONTINUOUS
 10
-7.4315581157
 20
22.239854359
 11
-7.4962862972
 21
22.2095512858
  0
LINE
  5
249
100
AcDbEntity
  8
DRAFT
100
AcDbLine
 62
7
  6
CONTINUOUS
 10
-7.3665778941
 20
22.2696833989
 11
-7.4315581157
 21
22.239854359
  0
LINE
  5
24A
100
AcDbEntity
  8
DRAFT
100
AcDbLine
 62
7
  6
CONTINUOUS
 10
-7.3013456326
 20
22.2990384055
 11
-7.3665778941
 21
22.2696833989
  0
LINE
  5
24B
100
AcDbEntity
  8
RACCORDO
100
AcDbLine
 62
7
  6
CONTINUOUS
 10
-7.3575754183
 20
22.2556843355
 11
-7.3978691772
 21
22.2376801397
  0
LINE
  5
24C
100
AcDbEntity
  8
DRAFT
100
AcDbLine
 62
7
  6
CONTINUOUS
 10
-7.2358600855
 20
22.3279199171
 11
-7.3013456326
 21
22.2990384055
  0
LINE
  5
24D
100
AcDbEntity
  8
RACCORDO
100
AcDbLine
 62
7
  6
CONTINUOUS
 10
-7.3171858938
 20
22.2735080418
 11
-7.3575754183
 21
22.2556843355
  0
LINE
  5
24E
100
AcDbEntity
  8
RACCORDO
100
AcDbLine
 62
7
  6
CONTINUOUS
 10
-7.2767006038
 20
22.2911512584
 11
-7.3171858938
 21
22.2735080418
  0
LWPOLYLINE
  5
24F
100
AcDbEntity
  8
DRAFT
100
AcDbPolyline
 62
7
  6
CONTINUOUS
 90
5
 70
0
 10
-4.1800380965
 20
24.0973130232
 10
-4.1988952056
 20
24.0892257435
 10
-4.2129308491
 20
24.0835789548
 10
-4.2218321216
 20
24.0801744899
 10
-4.2252888425
 20
24.0789405796
  0
LWPOLYLINE
  5
250
100
AcDbEntity
  8
DRAFT
100
AcDbPolyline
 62
7
  6
CONTINUOUS
 90
3
 70
0
 10
-4.0977809647
 20
24.1317347774
 10
-4.1291592115
 20
24.1184809483
 10
-4.1800380965
 20
24.0973130232
  0
LINE
  5
251
100
AcDbEntity
  8
DRAFT
100
AcDbLine
 62
7
  6
CONTINUOUS
 10
-3.981072469
 20
24.1799455856
 11
-4.0977809647
 21
24.1317347774
  0
LINE
  5
252
100
AcDbEntity
  8
DRAFT
100
AcDbLine
 62
7
  6
CONTINUOUS
 10
-3.7750318561
 20
24.2632864015
 11
-3.981072469
 21
24.1799455856
  0
LWPOLYLINE
  5
253
100
AcDbEntity
  8
DRAFT
100
AcDbPolyline
 62
7
  6
CONTINUOUS
 90
6
 70
0
 10
-6.9046928537
 20
22.4651992131
 10
-6.9714224084
 20
22.4386948654
 10
-7.0379036598
 20
22.4117148695
 10
-7.1041366079
 20
22.3842592256
 10
-7.1701224983
 20
22.3563273954
 10
-7.2358600855
 20
22.3279199171
  0
LINE
  5
254
100
AcDbEntity
  8
DRAFT
100
AcDbLine
 62
7
  6
CONTINUOUS
 10
-3.5707187478
 20
24.3444969539
 11
-3.7750318561
 21
24.2632864015
  0
LWPOLYLINE
  5
255
100
AcDbEntity
  8
ASSI
100
AcDbPolyline
 62
250
  6
CONTINUOUS
 90
13
 70
0
 10
-8.2104240791
 20
21.7777239492
 10
-8.1635081146
 20
21.7954244339
 10
-8.114492958
 20
21.8085906842
 10
-8.0635515251
 20
21.8171772033
 10
-8.0108609686
 20
21.8211563888
 10
-7.9566100989
 20
21.8205141557
 10
-7.9009987077
 20
21.8152499507
 10
-7.8442225606
 20
21.8053839004
 10
-7.7864833839
 20
21.7909530761
 10
-7.7279963622
 20
21.7720076774
 10
-7.6689723351
 20
21.7486168558
 10
-7.609616895
 20
21.7208676384
 10
-7.5501404299
 20
21.6888614961
  0
LWPOLYLINE
  5
256
100
AcDbEntity
  8
ASSI
100
AcDbPolyline
 62
7
  6
CONTINUOUS
 90
13
 70
0
 10
-7.2767006038
 20
22.2911512584
 10
-7.230879725
 20
22.3082676117
 10
-7.1831398645
 20
22.3208335063
 10
-7.1334810222
 20
22.3288489423
 10
-7.0816799829
 20
22.3323221478
 10
-7.0279599619
 20
22.3312448946
 10
-6.9729906048
 20
22.3255924987
 10
-6.9167508283
 20
22.315280425
 10
-6.8592617158
 20
22.3003932086
 10
-6.8012561633
 20
22.2811597714
 10
-6.7429784694
 20
22.2576564207
 10
-6.6841843356
 20
22.2298068491
 10
-6.6248737618
 20
22.1976110567
  0
LWPOLYLINE
  5
257
100
AcDbEntity
  8
ASSI
100
AcDbPolyline
 62
250
  6
CONTINUOUS
 90
3
 70
0
 10
-11.8405263328
 20
21.9594758259
 10
-11.8520315201
 20
21.9554214586
 10
-11.8558842419
 20
21.9535071932
  0
LWPOLYLINE
  5
258
100
AcDbEntity
  8
0
100
AcDbPolyline
 62
7
  6
CONTINUOUS
 90
5
 70
0
 10
-0.7898121895
 20
-21.6969766086
 10
-0.8082202978
 20
-21.6968082553
 10
-0.827025248
 20
-21.6994916095
 10
-0.8459827879
 20
-21.7051305017
 10
-0.8648321312
 20
-21.7138031898
  0
LWPOLYLINE
  5
259
100
AcDbEntity
  8
DRAFT
100
AcDbPolyline
 62
7
  6
CONTINUOUS
 90
4
 70
0
 10
-9.6998899629
 20
-19.8908707607
 10
-9.6910787455
 20
-19.8929582785
 10
-9.6825350672
 20
-19.8935451648
 10
-9.6798415336
 20
-19.8934287585
  0
LWPOLYLINE
  5
25A
100
AcDbEntity
  8
0
100
AcDbPolyline
 62
7
  6
CONTINUOUS
 90
3
 70
0
 10
-0.7550698617
 20
-21.705349883
 10
-0.7720267232
 20
-21.6998713918
 10
-0.7898121895
 20
-21.6969766086
  0
LWPOLYLINE
  5
25B
100
AcDbEntity
  8
DRAFT
100
AcDbPolyline
 62
7
  6
CONTINUOUS
 90
4
 70
0
 10
-10.7008859661
 20
-19.2852574373
 10
-10.6913878291
 20
-19.289936058
 10
-10.6823556135
 20
-19.2930735978
 10
-10.6738082287
 20
-19.294666533
  0
LWPOLYLINE
  5
25C
100
AcDbEntity
  8
0
100
AcDbPolyline
 62
7
  6
CONTINUOUS
 90
4
 70
0
 10
-10.7008859661
 20
-19.2852574373
 10
-10.6914082966
 20
-19.2899340372
 10
-10.6823883616
 20
-19.2930703647
 10
-10.6738261611
 20
-19.2946664197
  0
LWPOLYLINE
  5
25D
100
AcDbEntity
  8
0
100
AcDbPolyline
 62
7
  6
CONTINUOUS
 90
6
 70
0
 10
-11.9793186756
 20
-17.6323275712
 10
-11.9549747749
 20
-17.6446675683
 10
-11.9315165398
 20
-17.653588184
 10
-11.9089439704
 20
-17.6590894183
 10
-11.8869952831
 20
-17.6611544386
 10
-11.872996239
 20
-17.6607297144
  0
LINE
  5
25E
100
AcDbEntity
  8
0
100
AcDbLine
 62
7
  6
CONTINUOUS
 10
-0.26356293
 20
-21.9618058381
 11
-0.7457623206
 21
-21.7096632161
  0
LINE
  5
25F
100
AcDbEntity
  8
DRAFT
100
AcDbLine
 62
7
  6
CONTINUOUS
 10
0.1305157822
 20
-22.1893419476
 11
-0.3663171344
 21
-21.9287501111
  0
LWPOLYLINE
  5
260
100
AcDbEntity
  8
DRAFT
100
AcDbPolyline
 62
7
  6
CONTINUOUS
 90
11
 70
0
 10
-11.9793186756
 20
-17.6323275712
 10
-11.9673067675
 20
-17.6388639383
 10
-11.9554079756
 20
-17.6445698817
 10
-11.9436223
 20
-17.6494454013
 10
-11.9319131105
 20
-17.6535006841
 10
-11.9203170372
 20
-17.6567255433
 10
-11.9089439704
 20
-17.6590894183
 10
-11.89779603
 20
-17.6605841243
 10
-11.8868710961
 20
-17.6612178463
 10
-11.8762726987
 20
-17.6609845788
 10
-11.8729541421
 20
-17.6607258589
  0
LWPOLYLINE
  5
261
100
AcDbEntity
  8
DRAFT
100
AcDbPolyline
 62
7
  6
CONTINUOUS
 90
4
 70
0
 10
-9.0307518216
 20
-17.0779397666
 10
-9.0217301853
 20
-17.0829138936
 10
-9.0126272933
 20
-17.0865550604
 10
-9.0034633733
 20
-17.0888521145
  0
LINE
  5
262
100
AcDbEntity
  8
DRAFT
100
AcDbLine
 62
7
  6
CONTINUOUS
 10
-10.9837286785
 20
-19.1219476
 11
-10.7008859661
 21
-19.2852574373
  0
LINE
  5
263
100
AcDbEntity
  8
0
100
AcDbLine
 62
7
  6
CONTINUOUS
 10
-10.7008859661
 20
-19.2852574373
 11
-10.9837286785
 21
-19.1219476
  0
LINE
  5
264
100
AcDbEntity
  8
DRAFT
100
AcDbLine
 62
7
  6
CONTINUOUS
 10
-13.5219081183
 20
-16.7416557602
 11
-11.9793186756
 21
-17.6323275712
  0
LINE
  5
265
100
AcDbEntity
  8
0
100
AcDbLine
 62
7
  6
CONTINUOUS
 10
-11.9793186756
 20
-17.6323275712
 11
-13.5219081183
 21
-16.7416557602
  0
LINE
  5
266
100
AcDbEntity
  8
0
100
AcDbLine
 62
7
  6
CONTINUOUS
 10
-13.3516541609
 20
-16.3500760953
 11
-12.1495726329
 21
-17.044142904
  0
LINE
  5
267
100
AcDbEntity
  8
DRAFT
100
AcDbLine
 62
7
  6
CONTINUOUS
 10
-12.1495726329
 20
-17.044142904
 11
-13.3516541609
 21
-16.3500760953
  0
LINE
  5
268
100
AcDbEntity
  8
DRAFT
100
AcDbLine
 62
250
  6
CONTINUOUS
 10
-0.5066384498
 20
-21.9448753713
 11
-0.8863947643
 21
-21.7256088348
  0
LINE
  5
269
100
AcDbEntity
  8
DRAFT
100
AcDbLine
 62
250
  6
CONTINUOUS
 10
-0.3663171344
 20
-21.9287501111
 11
-0.7457623206
 21
-21.7096632161
  0
LINE
  5
26A
100
AcDbEntity
  8
DRAFT
100
AcDbLine
 62
7
  6
CONTINUOUS
 10
-0.26356293
 20
-21.9618058381
 11
0.1305157822
 21
-22.1893419476
  0
LWPOLYLINE
  5
26B
100
AcDbEntity
  8
DRAFT
100
AcDbPolyline
 62
7
  6
CONTINUOUS
 90
4
 70
0
 10
-12.8566410164
 20
-15.2279465176
 10
-12.7861131628
 20
-15.2752386875
 10
-12.715113631
 20
-15.3162329274
 10
-12.6445857774
 20
-15.3503845549
  0
LWPOLYLINE
  5
26C
100
AcDbEntity
  8
DRAFT
100
AcDbPolyline
 62
7
  6
CONTINUOUS
 90
4
 70
0
 10
-9.7275122691
 20
-19.8756269258
 10
-9.7180372945
 20
-19.8822088356
 10
-9.7088298591
 20
-19.8872901139
 10
-9.6999099626
 20
-19.8908627504
  0
LWPOLYLINE
  5
26D
100
AcDbEntity
  8
DRAFT
100
AcDbPolyline
 62
7
  6
CONTINUOUS
 90
11
 70
0
 10
-9.6046552126
 20
-17.2612973245
 10
-9.6141301872
 20
-17.2547154147
 10
-9.6233376226
 20
-17.2496341364
 10
-9.6322775188
 20
-17.2460534896
 10
-9.6410887362
 20
-17.2439659718
 10
-9.6496324145
 20
-17.2433790855
 10
-9.6574919717
 20
-17.2443153382
 10
-9.6646351843
 20
-17.2468464733
 10
-9.671094276
 20
-17.2509007473
 10
-9.6765493361
 20
-17.2562854374
 10
-9.6781582873
 20
-17.2584147957
  0
LWPOLYLINE
  5
26E
100
AcDbEntity
  8
0
100
AcDbPolyline
 62
7
  6
CONTINUOUS
 90
7
 70
0
 10
-9.7275122691
 20
-19.8756269258
 10
-9.7180589245
 20
-19.882201891
 10
-9.708864467
 20
-19.8872790026
 10
-9.6999288969
 20
-19.8908582605
 10
-9.6911098214
 20
-19.8929495358
 10
-9.6825496332
 20
-19.8935429575
 10
-9.6798420986
 20
-19.8934288094
  0
LWPOLYLINE
  5
26F
100
AcDbEntity
  8
0
100
AcDbPolyline
 62
7
  6
CONTINUOUS
 90
4
 70
0
 10
-9.6046552126
 20
-17.2612973245
 10
-9.6141085572
 20
-17.2547223593
 10
-9.6233030147
 20
-17.2496452477
 10
-9.6322385848
 20
-17.2460659898
  0
LWPOLYLINE
  5
270
100
AcDbEntity
  8
0
100
AcDbPolyline
 62
7
  6
CONTINUOUS
 90
13
 70
0
 10
-11.7379605426
 20
-16.2203027504
 10
-11.7597537011
 20
-16.2046800572
 10
-11.781262077
 20
-16.1917194904
 10
-11.8024856705
 20
-16.1814210498
 10
-11.8236369105
 20
-16.1737335753
 10
-11.844503368
 20
-16.1687082272
 10
-11.8644477554
 20
-16.1664984857
 10
-11.8834416218
 20
-16.1671912275
 10
-11.901513418
 20
-16.1706995759
 10
-11.9181112089
 20
-16.1769163817
 10
-11.9331895135
 20
-16.1859252153
 10
-11.9467938128
 20
-16.1976425063
 10
-11.9583502143
 20
-16.2114856069
  0
LWPOLYLINE
  5
271
100
AcDbEntity
  8
DRAFT
100
AcDbPolyline
 62
7
  6
CONTINUOUS
 90
21
 70
0
 10
-11.7379605426
 20
-16.2203027504
 10
-11.751427554
 20
-16.2103092949
 10
-11.7648736462
 20
-16.2013164141
 10
-11.7782988191
 20
-16.1933241081
 10
-11.7917536851
 20
-16.1863100976
 10
-11.8051876319
 20
-16.1802966618
 10
-11.8184488221
 20
-16.1753506382
 10
-11.8315397273
 20
-16.1714824049
 10
-11.8444578758
 20
-16.1686815837
 10
-11.8570440153
 20
-16.1669838779
 10
-11.8692929738
 20
-16.1664032893
 10
-11.8812099232
 20
-16.166925816
 10
-11.8926511275
 20
-16.1685451557
 10
-11.9036108253
 20
-16.1712745908
 10
-11.9140947781
 20
-16.1751008387
 10
-11.9239765336
 20
-16.1799777494
 10
-11.9332487994
 20
-16.1859180464
 10
-11.9419188679
 20
-16.1929090061
 10
-11.9498821654
 20
-16.200866307
 10
-11.9571301328
 20
-16.2098016519
 10
-11.958358968
 20
-16.2114980009
  0
LWPOLYLINE
  5
272
100
AcDbEntity
  8
DRAFT
100
AcDbPolyline
 62
7
  6
CONTINUOUS
 90
4
 70
0
 10
-14.3227227602
 20
-15.3329160391
 10
-14.3138028637
 20
-15.3396438756
 10
-14.3045954283
 20
-15.3451951128
 10
-14.2951204537
 20
-15.3495546662
  0
LINE
  5
273
100
AcDbEntity
  8
DRAFT
100
AcDbLine
 62
7
  6
CONTINUOUS
 10
-10.0060579653
 20
-19.6580867016
 11
-9.7275122691
 21
-19.8756269258
  0
LINE
  5
274
100
AcDbEntity
  8
0
100
AcDbLine
 62
7
  6
CONTINUOUS
 10
-9.7275122691
 20
-19.8756269258
 11
-10.0060579652
 21
-19.6580867016
  0
LINE
  5
275
100
AcDbEntity
  8
DRAFT
100
AcDbLine
 62
7
  6
CONTINUOUS
 10
-11.6116461039
 20
-16.8163919174
 11
-11.3181959206
 21
-17.0455723339
  0
LINE
  5
276
100
AcDbEntity
  8
0
100
AcDbLine
 62
7
  6
CONTINUOUS
 10
-11.3181959207
 20
-17.0455723338
 11
-11.6116461039
 21
-16.8163919174
  0
LINE
  5
277
100
AcDbEntity
  8
0
100
AcDbLine
 62
7
  6
CONTINUOUS
 10
-11.7379605426
 20
-16.2203027504
 11
-11.2445232383
 21
-16.6056702621
  0
LINE
  5
278
100
AcDbEntity
  8
DRAFT
100
AcDbLine
 62
7
  6
CONTINUOUS
 10
-11.2445232382
 20
-16.6056702622
 11
-11.7379605426
 21
-16.2203027504
  0
LINE
  5
279
100
AcDbEntity
  8
0
100
AcDbLine
 62
7
  6
CONTINUOUS
 10
-9.6046552126
 20
-17.2612973245
 11
-9.3261095165
 21
-17.4788375488
  0
LINE
  5
27A
100
AcDbEntity
  8
DRAFT
100
AcDbLine
 62
7
  6
CONTINUOUS
 10
-9.3261095164
 20
-17.4788375488
 11
-9.6046552126
 21
-17.2612973245
  0
LWPOLYLINE
  5
27B
100
AcDbEntity
  8
DRAFT
100
AcDbPolyline
 62
7
  6
CONTINUOUS
 90
8
 70
0
 10
-9.7129187848
 20
-16.5451817223
 10
-9.7039889802
 20
-16.5528266253
 10
-9.6947079492
 20
-16.5593540564
 10
-9.6855308714
 20
-16.564449507
 10
-9.6764626431
 20
-16.5680455275
 10
-9.667498368
 20
-16.5702095675
 10
-9.6590785362
 20
-16.5708294677
 10
-9.6561704811
 20
-16.5706616125
  0
LWPOLYLINE
  5
27C
100
AcDbEntity
  8
DRAFT
100
AcDbPolyline
 62
7
  6
CONTINUOUS
 90
3
 70
0
 10
-11.2819998428
 20
-17.0763870129
 10
-11.2999136054
 20
-17.060501472
 10
-11.3181959206
 20
-17.0455723339
  0
LWPOLYLINE
  5
27D
100
AcDbEntity
  8
DRAFT
100
AcDbPolyline
 62
7
  6
CONTINUOUS
 90
4
 70
0
 10
-13.0644511514
 20
-15.0488271094
 10
-12.9968161806
 20
-15.1138319834
 10
-12.9269644376
 20
-15.1740382155
 10
-12.8568913007
 20
-15.2277546555
  0
LWPOLYLINE
  5
27E
100
AcDbEntity
  8
DRAFT
100
AcDbPolyline
 62
7
  6
CONTINUOUS
 90
4
 70
0
 10
-11.0108061613
 20
-19.1000882498
 10
-11.0022590311
 20
-19.1083653739
 10
-10.9932268155
 20
-19.1156580101
 10
-10.9837286785
 20
-19.1219476
  0
LWPOLYLINE
  5
27F
100
AcDbEntity
  8
DRAFT
100
AcDbPolyline
 62
7
  6
CONTINUOUS
 90
4
 70
0
 10
-10.0317878886
 20
-19.6316708137
 10
-10.0238732249
 20
-19.6412457292
 10
-10.0152906685
 20
-19.6500581813
 10
-10.0060579653
 20
-19.6580867016
  0
LWPOLYLINE
  5
280
100
AcDbEntity
  8
DRAFT
100
AcDbPolyline
 62
7
  6
CONTINUOUS
 90
4
 70
0
 10
-13.2523103377
 20
-14.8265199251
 10
-13.1924870661
 20
-14.904728798
 10
-13.1295774948
 20
-14.9791772746
 10
-13.0644511514
 20
-15.0488271094
  0
LWPOLYLINE
  5
281
100
AcDbEntity
  8
DRAFT
100
AcDbPolyline
 62
7
  6
CONTINUOUS
 90
4
 70
0
 10
-13.4123928268
 20
-14.5703691743
 10
-13.3629782287
 20
-14.6581497237
 10
-13.309187433
 20
-14.7442150225
 10
-13.2525000552
 20
-14.8262453914
  0
LWPOLYLINE
  5
282
100
AcDbEntity
  8
DRAFT
100
AcDbPolyline
 62
7
  6
CONTINUOUS
 90
7
 70
0
 10
-14.3670145772
 20
-15.2715450216
 10
-14.3615595171
 20
-15.2832290784
 10
-14.3551004254
 20
-15.2947421495
 10
-14.3479572128
 20
-15.3055220875
 10
-14.3400976556
 20
-15.3155343599
 10
-14.3315539773
 20
-15.3248134991
 10
-14.3227427599
 20
-15.3329009544
  0
LINE
  5
283
100
AcDbEntity
  8
0
100
AcDbLine
 62
7
  6
CONTINUOUS
 10
-14.4271179209
 20
-14.8745702807
 11
-14.4261507797
 21
-14.8860441264
  0
LWPOLYLINE
  5
284
100
AcDbEntity
  8
0
100
AcDbPolyline
 62
250
  6
CONTINUOUS
 90
9
 70
0
 10
-19.0103975608
 20
21.9760001852
 10
-19.0092810249
 20
21.9567291882
 10
-19.003189601
 20
21.9271685522
 10
-18.9918394376
 20
21.8980884106
 10
-18.9753568133
 20
21.8698399527
 10
-18.9540096018
 20
21.8428259898
 10
-18.9281160471
 20
21.8173494804
 10
-18.8979757289
 20
21.7936237067
 10
-18.8639509517
 20
21.7718742953
  0
LWPOLYLINE
  5
285
100
AcDbEntity
  8
ASSI
100
AcDbPolyline
 62
7
  6
CONTINUOUS
 90
13
 70
0
 10
-8.1383479063
 20
20.1062041657
 10
-8.1485146633
 20
20.0858718601
 10
-8.1608416855
 20
20.0638684712
 10
-8.1744326459
 20
20.0421121396
 10
-8.1891016786
 20
20.0209097517
 10
-8.2046381053
 20
20.0005596433
 10
-8.2208696388
 20
19.9812663493
 10
-8.2375656782
 20
19.9632646347
 10
-8.2544509601
 20
19.9467968408
 10
-8.2712101443
 20
19.9320863548
 10
-8.2874812239
 20
19.9193295015
 10
-8.3029170611
 20
19.9086491072
 10
-8.3164391298
 20
19.9005041935
  0
LWPOLYLINE
  5
286
100
AcDbEntity
  8
DRAFT
100
AcDbPolyline
 62
7
  6
CONTINUOUS
 90
4
 70
0
 10
-12.400953222
 20
11.2401907871
 10
-12.4358796473
 20
11.1717271879
 10
-12.4650804659
 20
11.0962730846
 10
-12.4878711778
 20
11.0155019681
  0
LWPOLYLINE
  5
287
100
AcDbEntity
  8
ASSI
100
AcDbPolyline
 62
250
  6
CONTINUOUS
 90
6
 70
0
 10
-10.4792508925
 20
20.0248188522
 10
-10.4962222933
 20
19.9959048133
 10
-10.5113902317
 20
19.9673951362
 10
-10.524624199
 20
19.9396672781
 10
-10.5360547037
 20
19.9123437818
 10
-10.5460518941
 20
19.8851768735
  0
LINE
  5
288
100
AcDbEntity
  8
DRAFT
100
AcDbLine
 62
7
  6
CONTINUOUS
 10
-12.3707261686
 20
11.2872432987
 11
-12.400953222
 21
11.2401907871
  0
LWPOLYLINE
  5
289
100
AcDbEntity
  8
0
100
AcDbPolyline
 62
7
  6
CONTINUOUS
 90
8
 70
0
 10
-12.3707256567
 20
11.2872440231
 10
-12.4010494779
 20
11.2400409521
 10
-12.4360090234
 20
11.1715427741
 10
-12.4651200832
 20
11.0962657485
 10
-12.487859895
 20
11.0155616631
 10
-12.5040542048
 20
10.9298811139
 10
-12.5138772666
 20
10.838773505
 10
-12.5173290806
 20
10.7422388362
  0
LWPOLYLINE
  5
28A
100
AcDbEntity
  8
ASSI
100
AcDbPolyline
 62
250
  6
CONTINUOUS
 90
6
 70
0
 10
-10.3942326753
 20
20.0753865263
 10
-10.3890240099
 20
20.0831499982
 10
-10.3863189438
 20
20.0931693824
 10
-10.3861799149
 20
20.105257636
 10
-10.3886092878
 20
20.1192094946
 10
-10.3935658139
 20
20.1347880478
  0
LWPOLYLINE
  5
28B
100
AcDbEntity
  8
ASSI
100
AcDbPolyline
 62
250
  6
CONTINUOUS
 90
3
 70
0
 10
-10.4399689608
 20
20.0809113554
 10
-10.4604974064
 20
20.0532526549
 10
-10.4792508925
 20
20.0248188522
  0
LWPOLYLINE
  5
28C
100
AcDbEntity
  8
ASSI
100
AcDbPolyline
 62
7
  6
CONTINUOUS
 90
5
 70
0
 10
-5.6220068931
 20
21.6536606535
 10
-5.6275218826
 20
21.6463728812
 10
-5.6331378357
 20
21.639127281
 10
-5.6388553762
 20
21.6319270041
 10
-5.6408656778
 20
21.6294571215
  0
LWPOLYLINE
  5
28D
100
AcDbEntity
  8
DRAFT
100
AcDbPolyline
 62
7
  6
CONTINUOUS
 90
3
 70
0
 10
-4.2253236755
 20
24.0789772359
 10
-4.2229990237
 20
24.0808138668
 10
-4.2207099663
 20
24.0822660641
  0
LINE
  5
28E
100
AcDbEntity
  8
DRAFT
100
AcDbLine
 62
7
  6
CONTINUOUS
 10
-2.87482243
 20
23.9426951416
 11
-0.4547567244
 21
25.3402230508
  0
LINE
  5
28F
100
AcDbEntity
  8
ASSI
100
AcDbLine
 62
250
  6
CONTINUOUS
 10
-1.592340961
 20
22.7730314195
 11
-4.4581178682
 21
21.1183677499
  0
LINE
  5
290
100
AcDbEntity
  8
ASSI
100
AcDbLine
 62
250
  6
CONTINUOUS
 10
-1.4511134178
 20
22.5367405013
 11
-4.3168903251
 21
20.8820768317
  0
LINE
  5
291
100
AcDbEntity
  8
ASSI
100
AcDbLine
 62
250
  6
CONTINUOUS
 10
-3.9958289413
 20
20.834649542
 11
-5.4222838051
 21
20.0110323813
  0
LINE
  5
292
100
AcDbEntity
  8
ASSI
100
AcDbLine
 62
250
  6
CONTINUOUS
 10
-3.8546013981
 20
20.5983586238
 11
-5.147049279
 21
19.8521154155
  0
LINE
  5
293
100
AcDbEntity
  8
0
100
AcDbLine
 62
7
  6
CONTINUOUS
 10
-2.5042480207
 20
20.9315263246
 11
-2.3297201051
 21
21.0322965557
  0
LINE
  5
294
100
AcDbEntity
  8
0
100
AcDbLine
 62
7
  6
CONTINUOUS
 10
-0.1359466904
 20
22.2989538309
 11
1.2773956754
 21
23.1149999996
  0
LWPOLYLINE
  5
295
100
AcDbEntity
  8
ASSI
100
AcDbPolyline
 62
250
  6
CONTINUOUS
 90
13
 70
0
 10
-8.2190591268
 20
19.8891071028
 10
-8.2063893938
 20
19.896408982
 10
-8.1937392009
 20
19.9047052262
 10
-8.181192792
 20
19.9139092624
 10
-8.1689387049
 20
19.9238302465
 10
-8.1569350366
 20
19.9344570618
 10
-8.1449432044
 20
19.9460378458
 10
-8.132927343
 20
19.9586898103
 10
-8.1211532764
 20
19.9722151821
 10
-8.1098567961
 20
19.9864182691
 10
-8.0991745702
 20
20.0011518089
 10
-8.0891631847
 20
20.0163370287
 10
-8.0799175782
 20
20.031846012
  0
LWPOLYLINE
  5
296
100
AcDbEntity
  8
ASSI
100
AcDbPolyline
 62
250
  6
CONTINUOUS
 90
16
 70
0
 10
-4.4581178682
 20
21.1183677499
 10
-4.4904935836
 20
21.1002856963
 10
-4.5220968088
 20
21.0837872192
 10
-4.5529028265
 20
21.0688037073
 10
-4.5826478378
 20
21.0553733002
 10
-4.6115598037
 20
21.0433018406
 10
-4.6403494178
 20
21.0322451576
 10
-4.6690251137
 20
21.0221923173
 10
-4.6975375652
 20
21.0131611773
 10
-4.7264925088
 20
21.004988192
 10
-4.7559208583
 20
20.997722901
 10
-4.7857211271
 20
20.9914560517
 10
-4.8162745717
 20
20.9861996115
 10
-4.8476643046
 20
20.9820601477
 10
-4.8796870259
 20
20.9791861539
 10
-4.912274688
 20
20.9777046695
  0
LINE
  5
297
100
AcDbEntity
  8
ASSI
100
AcDbLine
 62
7
  6
CONTINUOUS
 10
-7.6730211694
 20
21.0054727954
 11
-7.5317606897
 21
21.084225827
  0
LINE
  5
298
100
AcDbEntity
  8
ASSI
100
AcDbLine
 62
250
  6
CONTINUOUS
 10
-7.5756328351
 20
20.9940799527
 11
-7.4343723951
 21
21.0728329622
  0
LINE
  5
299
100
AcDbEntity
  8
ASSI
100
AcDbLine
 62
7
  6
CONTINUOUS
 10
-9.4684584854
 20
19.2582508409
 11
-8.316447113
 21
19.9004997436
  0
LINE
  5
29A
100
AcDbEntity
  8
ASSI
100
AcDbLine
 62
250
  6
CONTINUOUS
 10
-9.4105788023
 20
19.2248318373
 11
-8.2190587778
 21
19.8891069014
  0
LINE
  5
29B
100
AcDbEntity
  8
ASSI
100
AcDbLine
 62
7
  6
CONTINUOUS
 10
-4.9911517565
 20
21.3812381056
 11
-3.7601031272
 21
22.0675408225
  0
LINE
  5
29C
100
AcDbEntity
  8
ASSI
100
AcDbLine
 62
250
  6
CONTINUOUS
 10
-4.8937031501
 20
21.3698692325
 11
-3.6627147602
 21
22.0561479981
  0
LINE
  5
29D
100
AcDbEntity
  8
ASSI
100
AcDbLine
 62
7
  6
CONTINUOUS
 10
-3.7601031272
 20
22.0675408225
 11
-3.7599778885
 21
22.0676104607
  0
LINE
  5
29E
100
AcDbEntity
  8
ASSI
100
AcDbLine
 62
250
  6
CONTINUOUS
 10
-7.6730211694
 20
21.0054727954
 11
-7.6728543903
 21
21.0055654512
  0
LWPOLYLINE
  5
29F
100
AcDbEntity
  8
ASSI
100
AcDbPolyline
 62
250
  6
CONTINUOUS
 90
16
 70
0
 10
-4.3168903251
 20
20.8820768317
 10
-4.3536172304
 20
20.861712117
 10
-4.3894137379
 20
20.8429814893
 10
-4.4242798476
 20
20.8258849484
 10
-4.4579621916
 20
20.810577937
 10
-4.4907141379
 20
20.7969050124
 10
-4.5232957895
 20
20.7843998475
 10
-4.5557535366
 20
20.772942253
 10
-4.5880409891
 20
20.7626524181
 10
-4.6207790804
 20
20.7534245833
 10
-4.6540673259
 20
20.7451473392
 10
-4.6878062101
 20
20.737932095
 10
-4.7223181201
 20
20.7320073195
 10
-4.7577105184
 20
20.7274491687
 10
-4.7938759426
 20
20.7241814865
 10
-4.8308143926
 20
20.7222042728
  0
LWPOLYLINE
  5
2A0
100
AcDbEntity
  8
ASSI
100
AcDbPolyline
 62
7
  6
CONTINUOUS
 90
16
 70
0
 10
-2.075101178
 20
23.0069331574
 10
-2.8434008401
 20
22.5786100453
 10
-2.8556819867
 20
22.5724010848
 10
-2.87028792
 20
22.5661281169
 10
-2.8870690997
 20
22.5600745524
 10
-2.9059737056
 20
22.5544464126
 10
-2.9267332877
 20
22.5494859511
 10
-2.9491648727
 20
22.5453761059
 10
-2.9729811829
 20
22.542288032
 10
-2.9976888475
 20
22.5403685375
 10
-3.0230177295
 20
22.5396991831
 10
-3.048558356
 20
22.5403326552
 10
-3.073563808
 20
22.5422401081
 10
-3.0977014703
 20
22.5453475386
 10
-3.1206075842
 20
22.5495356656
 10
-3.1266596883
 20
22.5508590614
  0
LINE
  5
2A1
100
AcDbEntity
  8
ASSI
100
AcDbLine
 62
250
  6
CONTINUOUS
 10
-1.9690156376
 20
23.0003440324
 11
-2.7448363507
 21
22.5678672532
  0
LWPOLYLINE
  5
2A2
100
AcDbEntity
  8
ASSI
100
AcDbPolyline
 62
7
  6
CONTINUOUS
 90
10
 70
0
 10
-4.9911517565
 20
21.3812381056
 10
-5.0034285139
 20
21.3744687979
 10
-5.0662540404
 20
21.3421082623
 10
-5.1276523614
 20
21.3142726899
 10
-5.1871399819
 20
21.2910689643
 10
-5.2445437509
 20
21.2724286911
 10
-5.2999126885
 20
21.2582142789
 10
-5.3530122651
 20
21.2483985595
 10
-5.4034320857
 20
21.2429508839
 10
-5.4113490877
 20
21.2424707832
  0
LWPOLYLINE
  5
2A3
100
AcDbEntity
  8
ASSI
100
AcDbPolyline
 62
250
  6
CONTINUOUS
 90
13
 70
0
 10
-7.4343723951
 20
21.0728329622
 10
-7.4216350606
 20
21.0797910595
 10
-7.4092788449
 20
21.0860633563
 10
-7.3973166562
 20
21.0916845316
 10
-7.3857654513
 20
21.0966888526
 10
-7.3746270877
 20
21.101113308
 10
-7.3638887179
 20
21.1049955302
 10
-7.353552535
 20
21.1083702165
 10
-7.3436240341
 20
21.1112705217
 10
-7.3340931744
 20
21.1137290848
 10
-7.3249582848
 20
21.1157786383
 10
-7.3162203778
 20
21.1174507128
 10
-7.307871785
 20
21.1187744331
  0
LINE
  5
2A4
100
AcDbEntity
  8
ASSI
100
AcDbLine
 62
7
  6
CONTINUOUS
 10
-1.2993818239
 20
23.9151965314
 11
-5.5969524046
 21
21.6041021479
  0
LINE
  5
2A5
100
AcDbEntity
  8
ASSI
100
AcDbLine
 62
250
  6
CONTINUOUS
 10
-0.8491082248
 20
24.0776911152
 11
-5.5255291686
 21
21.5628632666
  0
LINE
  5
2A6
100
AcDbEntity
  8
DRAFT
100
AcDbLine
 62
7
  6
CONTINUOUS
 10
1.1825795656
 20
23.4432476758
 11
2.7680703995
 21
24.2958733377
  0
LWPOLYLINE
  5
2A7
100
AcDbEntity
  8
ASSI
100
AcDbPolyline
 62
250
  6
CONTINUOUS
 90
9
 70
0
 10
-0.6695239985
 20
21.0411843946
 10
-0.6606349053
 20
21.0459642066
 10
-0.6462099819
 20
21.0511341583
 10
-0.6306009017
 20
21.0538663047
 10
-0.6139784981
 20
21.0541310046
 10
-0.5965245771
 20
21.051925493
 10
-0.5784301907
 20
21.0472739571
 10
-0.5598935944
 20
21.0402274063
 10
-0.5411177826
 20
21.0308630684
  0
LWPOLYLINE
  5
2A8
100
AcDbEntity
  8
ASSI
100
AcDbPolyline
 62
250
  6
CONTINUOUS
 90
8
 70
0
 10
-7.5317606897
 20
21.084225827
 10
-7.5282289753
 20
21.0860541118
 10
-7.5148824856
 20
21.0907586607
 10
-7.500306925
 20
21.0926969371
 10
-7.4847247938
 20
21.0918392991
 10
-7.4683739508
 20
21.0881987979
 10
-7.4515039774
 20
21.0818309637
 10
-7.4343723951
 20
21.0728329622
  0
LINE
  5
2A9
100
AcDbEntity
  8
ASSI
100
AcDbLine
 62
250
  6
CONTINUOUS
 10
-2.0715679259
 20
23.008762179
 11
-2.075101178
 21
23.0069331574
  0
LWPOLYLINE
  5
2AA
100
AcDbEntity
  8
ASSI
100
AcDbPolyline
 62
250
  6
CONTINUOUS
 90
8
 70
0
 10
-8.3164391297
 20
19.9005041935
 10
-8.3129135936
 20
19.9023288932
 10
-8.2995670114
 20
19.907033029
 10
-8.2849915263
 20
19.9089709213
 10
-8.2694096247
 20
19.9081129985
 10
-8.2530591567
 20
19.9044723632
 10
-8.2361897066
 20
19.8981045951
 10
-8.2190587778
 20
19.8891069014
  0
LWPOLYLINE
  5
2AB
100
AcDbEntity
  8
ASSI
100
AcDbPolyline
 62
250
  6
CONTINUOUS
 90
8
 70
0
 10
-2.8421960014
 20
22.5792760774
 10
-2.8386914331
 20
22.5810891173
 10
-2.8253448639
 20
22.5857933145
 10
-2.8107693666
 20
22.5877312639
 10
-2.7951874298
 20
22.5868733835
 10
-2.7788369054
 20
22.5832327684
 10
-2.7619673769
 20
22.5768649912
 10
-2.7448363507
 20
22.5678672532
  0
LWPOLYLINE
  5
2AC
100
AcDbEntity
  8
ASSI
100
AcDbPolyline
 62
250
  6
CONTINUOUS
 90
8
 70
0
 10
-3.7599778885
 20
22.0676104607
 10
-3.7565698845
 20
22.0693698396
 10
-3.7432233141
 20
22.0740740392
 10
-3.7286478151
 20
22.0760119902
 10
-3.7130658766
 20
22.0751541105
 10
-3.6967153506
 20
22.0715134955
 10
-3.679845821
 20
22.0651457179
 10
-3.6627147938
 20
22.0561479794
  0
LWPOLYLINE
  5
2AD
100
AcDbEntity
  8
ASSI
100
AcDbPolyline
 62
250
  6
CONTINUOUS
 90
8
 70
0
 10
-4.9910955961
 20
21.381269461
 10
-4.9875582318
 20
21.383091097
 10
-4.9742116622
 20
21.3877952944
 10
-4.9596361646
 20
21.3897332441
 10
-4.9440542277
 20
21.3888753637
 10
-4.9277037035
 20
21.3852347486
 10
-4.9108341756
 20
21.378866971
 10
-4.8937031501
 20
21.3698692325
  0
LWPOLYLINE
  5
2AE
100
AcDbEntity
  8
ASSI
100
AcDbPolyline
 62
250
  6
CONTINUOUS
 90
8
 70
0
 10
-7.6728543903
 20
21.0055654512
 10
-7.6693865964
 20
21.0073502536
 10
-7.6559997541
 20
21.0120395401
 10
-7.6413788519
 20
21.0139504439
 10
-7.6257807682
 20
21.0130572492
 10
-7.6094603621
 20
21.0093932
 10
-7.5926588711
 20
21.0030301958
 10
-7.5756328351
 20
20.9940799527
  0
LINE
  5
2AF
100
AcDbEntity
  8
DRAFT
100
AcDbLine
 62
7
  6
CONTINUOUS
 10
-2.4065201527
 20
23.6723032759
 11
-5.6220068931
 21
22.031417208
  0
LWPOLYLINE
  5
2B0
100
AcDbEntity
  8
ASSI
100
AcDbPolyline
 62
250
  6
CONTINUOUS
 90
6
 70
0
 10
-2.7448363507
 20
22.5678672532
 10
-2.773530327
 20
22.5533272594
 10
-2.804083
 20
22.5405764717
 10
-2.8364943697
 20
22.52961489
 10
-2.8711355925
 20
22.5203487759
 10
-2.907635512
 20
22.5128718679
  0
LWPOLYLINE
  5
2B1
100
AcDbEntity
  8
ASSI
100
AcDbPolyline
 62
250
  6
CONTINUOUS
 90
4
 70
0
 10
-6.5602279018
 20
20.692414958
 10
-6.5680844728
 20
20.6884425273
 10
-6.5735697208
 20
20.6832919848
 10
-6.5764558279
 20
20.6770770157
  0
LINE
  5
2B2
100
AcDbEntity
  8
RACCORDO
100
AcDbLine
 62
7
  6
CONTINUOUS
 10
-8.0981359928
 20
20.2715849502
 11
-9.7738968992
 21
19.4346071529
  0
LINE
  5
2B3
100
AcDbEntity
  8
ASSI
100
AcDbLine
 62
250
  6
CONTINUOUS
 10
-4.7087298289
 20
22.0817595051
 11
-5.6220068931
 21
21.6536606535
  0
LINE
  5
2B4
100
AcDbEntity
  8
ASSI
100
AcDbLine
 62
7
  6
CONTINUOUS
 10
-8.0981359928
 20
20.2715849502
 11
-8.0502864954
 21
20.292993187
  0
LWPOLYLINE
  5
2B5
100
AcDbEntity
  8
ASSI
100
AcDbPolyline
 62
250
  6
CONTINUOUS
 90
4
 70
0
 10
-5.0579193948
 20
21.2917546442
 10
-5.0047527839
 20
21.3141272693
 10
-4.9499710151
 20
21.3401229246
 10
-4.8937031501
 20
21.3698692325
  0
LWPOLYLINE
  5
2B6
100
AcDbEntity
  8
ASSI
100
AcDbPolyline
 62
250
  6
CONTINUOUS
 90
6
 70
0
 10
1.2657244822
 20
21.0779755202
 10
1.2794487075
 20
21.0832896117
 10
1.2945100859
 20
21.0857259495
 10
1.3106677845
 20
21.0852455764
 10
1.32766344
 20
21.0818561737
 10
1.3452252903
 20
21.0756119382
  0
LWPOLYLINE
  5
2B7
100
AcDbEntity
  8
ASSI
100
AcDbPolyline
 62
7
  6
CONTINUOUS
 90
10
 70
0
 10
-1.0588152429
 20
24.0166424465
 10
-1.0887697053
 20
24.0057359768
 10
-1.1179482353
 20
23.9948614842
 10
-1.1463121883
 20
23.9839697491
 10
-1.1737997742
 20
23.9730315884
 10
-1.2004153978
 20
23.9620017166
 10
-1.226214702
 20
23.9508044528
 10
-1.2511223892
 20
23.9394084009
 10
-1.2751365497
 20
23.9277620707
 10
-1.2993819797
 20
23.9151964476
  0
LWPOLYLINE
  5
2B8
100
AcDbEntity
  8
ASSI
100
AcDbPolyline
 62
7
  6
CONTINUOUS
 90
3
 70
0
 10
-0.8639513276
 20
24.0855406243
 10
-0.9966860255
 20
24.0387026203
 10
-1.0588152429
 20
24.0166424465
  0
LWPOLYLINE
  5
2B9
100
AcDbEntity
  8
ASSI
100
AcDbPolyline
 62
7
  6
CONTINUOUS
 90
5
 70
0
 10
1.3636595911
 20
21.1194814513
 10
1.3350919186
 20
21.1103004527
 10
1.3068902922
 20
21.0989084106
 10
1.279262113
 20
21.0854691795
 10
1.2630308678
 20
21.0764996764
  0
LWPOLYLINE
  5
2BA
100
AcDbEntity
  8
ASSI
100
AcDbPolyline
 62
7
  6
CONTINUOUS
 90
5
 70
0
 10
-1.9751571122
 20
23.0483485151
 10
-1.9994366703
 20
23.0408888021
 10
-2.026143488
 20
23.0307644314
 10
-2.0528586419
 20
23.0186137841
 10
-2.0751197319
 20
23.0069228095
  0
LINE
  5
2BB
100
AcDbEntity
  8
ASSI
100
AcDbLine
 62
250
  6
CONTINUOUS
 10
1.4458529689
 20
21.1033349932
 11
1.4542000554
 21
21.1057557841
  0
LWPOLYLINE
  5
2BC
100
AcDbEntity
  8
DRAFT
100
AcDbPolyline
 62
7
  6
CONTINUOUS
 90
7
 70
0
 10
-9.6798415336
 20
-19.8934287585
 10
-9.67467551
 20
-19.8926089121
 10
-9.6675322974
 20
-19.890077777
 10
-9.6610732057
 20
-19.886023503
 10
-9.6556181456
 20
-19.8806388129
 10
-9.6512737538
 20
-19.8739879479
 10
-9.6479333935
 20
-19.8660066669
  0
LINE
  5
2BD
100
AcDbEntity
  8
0
100
AcDbLine
 62
7
  6
CONTINUOUS
 10
-9.6798420986
 20
-19.8934288094
 11
-9.67467551
 21
-19.8926089121
  0
LINE
  5
2BE
100
AcDbEntity
  8
0
100
AcDbLine
 62
7
  6
CONTINUOUS
 10
-10.6738261611
 20
-19.2946664197
 11
-10.6653898053
 21
-19.2947197204
  0
LINE
  5
2BF
100
AcDbEntity
  8
DRAFT
100
AcDbLine
 62
7
  6
CONTINUOUS
 10
-10.6738082287
 20
-19.294666533
 11
-10.6653890645
 21
-19.2947196516
  0
LWPOLYLINE
  5
2C0
100
AcDbEntity
  8
DRAFT
100
AcDbPolyline
 62
7
  6
CONTINUOUS
 90
3
 70
0
 10
-8.7376781636
 20
-17.1306134511
 10
-8.7289914251
 20
-17.1311211707
 10
-8.7266433978
 20
-17.1310605731
  0
LWPOLYLINE
  5
2C1
100
AcDbEntity
  8
0
100
AcDbPolyline
 62
7
  6
CONTINUOUS
 90
3
 70
0
 10
-8.7376781636
 20
-17.1306134511
 10
-8.7290077563
 20
-17.1311290304
 10
-8.7266439341
 20
-17.1310606192
  0
LINE
  5
2C2
100
AcDbEntity
  8
DRAFT
100
AcDbLine
 62
7
  6
CONTINUOUS
 10
-9.0034633733
 20
-17.0888521145
 11
-8.7376781636
 21
-17.1306134511
  0
LINE
  5
2C3
100
AcDbEntity
  8
0
100
AcDbLine
 62
7
  6
CONTINUOUS
 10
-8.7376781636
 20
-17.1306134511
 11
-9.0034633733
 21
-17.0888521145
  0
LWPOLYLINE
  5
2C4
100
AcDbEntity
  8
DRAFT
100
AcDbPolyline
 62
7
  6
CONTINUOUS
 90
4
 70
0
 10
-8.3130939588
 20
-16.7823164615
 10
-8.3042827413
 20
-16.7844039793
 10
-8.295739063
 20
-16.7849908656
 10
-8.2930455294
 20
-16.7848744593
  0
LWPOLYLINE
  5
2C5
100
AcDbEntity
  8
0
100
AcDbPolyline
 62
7
  6
CONTINUOUS
 90
4
 70
0
 10
-9.6322575191
 20
-17.2460614999
 10
-9.6410576603
 20
-17.2439747145
 10
-9.6496178485
 20
-17.2433812928
 10
-9.6574919717
 20
-17.2443153382
  0
LWPOLYLINE
  5
2C6
100
AcDbEntity
  8
0
100
AcDbPolyline
 62
7
  6
CONTINUOUS
 90
4
 70
0
 10
-10.105192914
 20
-14.8979232728
 10
-10.1139930551
 20
-14.8958364874
 10
-10.1225532433
 20
-14.8952430657
 10
-10.1304273666
 20
-14.8961771111
  0
LWPOLYLINE
  5
2C7
100
AcDbEntity
  8
DRAFT
100
AcDbPolyline
 62
7
  6
CONTINUOUS
 90
8
 70
0
 10
-14.3687931361
 20
-14.8245772276
 10
-14.3780258393
 20
-14.8219440536
 10
-14.3866083957
 20
-14.8208455847
 10
-14.3945408052
 20
-14.8212818208
 10
-14.4019320275
 20
-14.8233129797
 10
-14.4086731028
 20
-14.8268788436
 10
-14.4144371522
 20
-14.8317987594
 10
-14.4177338615
 20
-14.8358671243
  0
LWPOLYLINE
  5
2C8
100
AcDbEntity
  8
0
100
AcDbPolyline
 62
7
  6
CONTINUOUS
 90
4
 70
0
 10
-14.3687931361
 20
-14.8245772275
 10
-14.3780071561
 20
-14.8219410891
 10
-14.3865785025
 20
-14.8208408415
 10
-14.3945071753
 20
-14.8212764847
  0
LINE
  5
2C9
100
AcDbEntity
  8
DRAFT
100
AcDbLine
 62
7
  6
CONTINUOUS
 10
-14.2951204537
 20
-15.3495546662
 11
-13.8895806899
 21
-15.5011410367
  0
LINE
  5
2CA
100
AcDbEntity
  8
0
100
AcDbLine
 62
7
  6
CONTINUOUS
 10
-13.8895806899
 20
-15.5011410367
 11
-14.2951204537
 21
-15.3495546663
  0
LINE
  5
2CB
100
AcDbEntity
  8
0
100
AcDbLine
 62
7
  6
CONTINUOUS
 10
-14.3687931361
 20
-14.8245772275
 11
-13.7632662512
 21
-15.0509166173
  0
LINE
  5
2CC
100
AcDbEntity
  8
DRAFT
100
AcDbLine
 62
7
  6
CONTINUOUS
 10
-13.7632662512
 20
-15.0509166173
 11
-14.3687931361
 21
-14.8245772276
  0
LWPOLYLINE
  5
2CD
100
AcDbEntity
  8
DRAFT
100
AcDbPolyline
 62
7
  6
CONTINUOUS
 90
4
 70
0
 10
-12.6445857774
 20
-15.3503845549
 10
-12.5742623563
 20
-15.3776839769
 10
-12.5044106133
 20
-15.3981407866
 10
-12.4369834896
 20
-15.4111988297
  0
LWPOLYLINE
  5
2CE
100
AcDbEntity
  8
0
100
AcDbPolyline
 62
7
  6
CONTINUOUS
 90
4
 70
0
 10
-12.8571514794
 20
-13.2013308628
 10
-12.9272462655
 20
-13.1740699974
 10
-12.9966530955
 20
-13.1537484748
 10
-13.0640360382
 20
-13.1407574401
  0
LWPOLYLINE
  5
2CF
100
AcDbEntity
  8
0
100
AcDbPolyline
 62
7
  6
CONTINUOUS
 90
4
 70
0
 10
-8.7327760009
 20
-15.115782217
 10
-8.7418588405
 20
-15.1121838193
 10
-8.7508374315
 20
-15.1100214712
 10
-8.7592456258
 20
-15.1094044075
  0
LWPOLYLINE
  5
2D0
100
AcDbEntity
  8
DRAFT
100
AcDbPolyline
 62
7
  6
CONTINUOUS
 90
4
 70
0
 10
-13.3277225203
 20
-12.4006900182
 10
-13.318976123
 20
-12.4050024477
 10
-13.310213059
 20
-12.4080214347
 10
-13.3014517468
 20
-12.409737898
  0
LWPOLYLINE
  5
2D1
100
AcDbEntity
  8
DRAFT
100
AcDbPolyline
 62
7
  6
CONTINUOUS
 90
6
 70
0
 10
-12.1734858552
 20
-13.067133356
 10
-12.1645823875
 20
-13.0716809648
 10
-12.1556771681
 20
-13.0749280728
 10
-12.147180898
 20
-13.076729987
 10
-12.1391117263
 20
-13.0770225695
 10
-12.1374273417
 20
-13.0769358042
  0
LWPOLYLINE
  5
2D2
100
AcDbEntity
  8
0
100
AcDbPolyline
 62
7
  6
CONTINUOUS
 90
4
 70
0
 10
-12.7506133969
 20
-11.988931998
 10
-12.8821335307
 20
-11.9181085576
 10
-13.0136536645
 20
-11.8573806965
 10
-13.1434397602
 20
-11.8075490863
  0
LWPOLYLINE
  5
2D3
100
AcDbEntity
  8
0
100
AcDbPolyline
 62
7
  6
CONTINUOUS
 90
4
 70
0
 10
-9.3875746663
 20
-14.6022780834
 10
-9.3966121032
 20
-14.5972955845
 10
-9.405701714
 20
-14.59366276
 10
-9.4148434987
 20
-14.5913796096
  0
LWPOLYLINE
  5
2D4
100
AcDbEntity
  8
0
100
AcDbPolyline
 62
7
  6
CONTINUOUS
 90
4
 70
0
 10
-12.6440753145
 20
-13.3243583699
 10
-12.714871384
 20
-13.2769394813
 10
-12.7863554098
 20
-13.2356655007
 10
-12.8568913007
 20
-13.2014570441
  0
LWPOLYLINE
  5
2D5
100
AcDbEntity
  8
DRAFT
100
AcDbPolyline
 62
7
  6
CONTINUOUS
 90
4
 70
0
 10
-8.3407162649
 20
-16.7670726266
 10
-8.3312412903
 20
-16.7736545364
 10
-8.3220338549
 20
-16.7787358147
 10
-8.3131139584
 20
-16.7823084512
  0
LWPOLYLINE
  5
2D6
100
AcDbEntity
  8
DRAFT
100
AcDbPolyline
 62
7
  6
CONTINUOUS
 90
11
 70
0
 10
-10.0775906074
 20
-14.9131590974
 10
-10.0870655821
 20
-14.9065771876
 10
-10.0962730174
 20
-14.9014959093
 10
-10.1052129136
 20
-14.8979152625
 10
-10.1140241311
 20
-14.8958277447
 10
-10.1225678093
 20
-14.8952408585
 10
-10.1304273666
 20
-14.8961771111
 10
-10.1375705792
 20
-14.8987082462
 10
-10.1440296708
 20
-14.9027625203
 10
-10.1494847309
 20
-14.9081472103
 10
-10.1510936821
 20
-14.9102765686
  0
LWPOLYLINE
  5
2D7
100
AcDbEntity
  8
0
100
AcDbPolyline
 62
7
  6
CONTINUOUS
 90
7
 70
0
 10
-8.340716265
 20
-16.7670726266
 10
-8.3312629203
 20
-16.7736475918
 10
-8.3220684628
 20
-16.7787247034
 10
-8.3131328927
 20
-16.7823039613
 10
-8.3043138172
 20
-16.7843952367
 10
-8.295753629
 20
-16.7849886583
 10
-8.2930460943
 20
-16.7848745102
  0
LWPOLYLINE
  5
2D8
100
AcDbEntity
  8
0
100
AcDbPolyline
 62
7
  6
CONTINUOUS
 90
4
 70
0
 10
-10.0775906074
 20
-14.9131590975
 10
-10.0870439521
 20
-14.9065841322
 10
-10.0962384095
 20
-14.9015070206
 10
-10.1051739797
 20
-14.8979277628
  0
LWPOLYLINE
  5
2D9
100
AcDbEntity
  8
DRAFT
100
AcDbPolyline
 62
7
  6
CONTINUOUS
 90
7
 70
0
 10
-12.4699766471
 20
-12.7959306359
 10
-12.5627492563
 20
-12.7248543132
 10
-12.6566813266
 20
-12.6600222423
 10
-12.7506133969
 20
-12.6022273209
 10
-12.8445454672
 20
-12.551551842
 10
-12.9384775375
 20
-12.5079135126
 10
-13.0312501467
 20
-12.4718583515
  0
LWPOLYLINE
  5
2DA
100
AcDbEntity
  8
0
100
AcDbPolyline
 62
7
  6
CONTINUOUS
 90
4
 70
0
 10
-12.3577870335
 20
-12.2611751242
 10
-12.4875731293
 20
-12.1611330042
 10
-12.6190932631
 20
-12.0699847114
 10
-12.7506133969
 20
-11.988931998
  0
LINE
  5
2DB
100
AcDbEntity
  8
DRAFT
100
AcDbLine
 62
7
  6
CONTINUOUS
 10
-10.1512632897
 20
-15.3530611692
 11
-9.6078312508
 21
-15.7774738571
  0
LINE
  5
2DC
100
AcDbEntity
  8
DRAFT
100
AcDbLine
 62
7
  6
CONTINUOUS
 10
-8.8841483039
 20
-16.3426599386
 11
-8.3407162649
 21
-16.7670726266
  0
LINE
  5
2DD
100
AcDbEntity
  8
0
100
AcDbLine
 62
7
  6
CONTINUOUS
 10
-8.340716265
 20
-16.7670726266
 11
-8.8841483039
 21
-16.3426599386
  0
LINE
  5
2DE
100
AcDbEntity
  8
0
100
AcDbLine
 62
7
  6
CONTINUOUS
 10
-9.6078312508
 20
-15.7774738571
 11
-10.1512632897
 21
-15.3530611692
  0
LINE
  5
2DF
100
AcDbEntity
  8
0
100
AcDbLine
 62
7
  6
CONTINUOUS
 10
-10.0775906074
 20
-14.9131590975
 11
-9.5341585684
 21
-15.3375717853
  0
LINE
  5
2E0
100
AcDbEntity
  8
0
100
AcDbLine
 62
7
  6
CONTINUOUS
 10
-8.8104756215
 20
-15.9027578669
 11
-8.2670435826
 21
-16.3271705548
  0
LINE
  5
2E1
100
AcDbEntity
  8
DRAFT
100
AcDbLine
 62
7
  6
CONTINUOUS
 10
-8.2670435826
 20
-16.3271705548
 11
-8.8104756215
 21
-15.9027578669
  0
LINE
  5
2E2
100
AcDbEntity
  8
DRAFT
100
AcDbLine
 62
7
  6
CONTINUOUS
 10
-9.5341585684
 20
-15.3375717853
 11
-10.0775906074
 21
-14.9131590974
  0
LWPOLYLINE
  5
2E3
100
AcDbEntity
  8
0
100
AcDbPolyline
 62
7
  6
CONTINUOUS
 90
4
 70
0
 10
-8.7053692356
 20
-15.1350693696
 10
-8.7142869956
 20
-15.1274329115
 10
-8.7235836225
 20
-15.1208895395
 10
-8.7327760009
 20
-15.115782217
  0
LWPOLYLINE
  5
2E4
100
AcDbEntity
  8
DRAFT
100
AcDbPolyline
 62
7
  6
CONTINUOUS
 90
4
 70
0
 10
-12.199775047
 20
-13.0458322172
 10
-12.1910137348
 20
-13.0542330977
 10
-12.1822506708
 20
-13.0613334773
 10
-12.1735042734
 20
-13.0671211682
  0
LWPOLYLINE
  5
2E5
100
AcDbEntity
  8
0
100
AcDbPolyline
 62
7
  6
CONTINUOUS
 90
9
 70
0
 10
-12.1997750471
 20
-13.0458322171
 10
-12.1910339737
 20
-13.0542212138
 10
-12.182283053
 20
-13.0613144632
 10
-12.1735222851
 20
-13.0671119652
 10
-12.1646117062
 20
-13.0716648247
 10
-12.1556912802
 20
-13.0749219369
 10
-12.147180898
 20
-13.076729987
 10
-12.1391001684
 20
-13.0770196793
 10
-12.137426532
 20
-13.0769357294
  0
LWPOLYLINE
  5
2E6
100
AcDbEntity
  8
0
100
AcDbPolyline
 62
7
  6
CONTINUOUS
 90
4
 70
0
 10
-12.4371907557
 20
-13.50269005
 10
-12.5045736984
 20
-13.4378689514
 10
-12.5739805283
 20
-13.3780412066
 10
-12.6440753145
 20
-13.3243583699
  0
LWPOLYLINE
  5
2E7
100
AcDbEntity
  8
0
100
AcDbPolyline
 62
7
  6
CONTINUOUS
 90
13
 70
0
 10
-12.1997750471
 20
-13.0458322171
 10
-12.2886285371
 20
-12.956331124
 10
-12.3786631878
 20
-12.8730568085
 10
-12.4698789991
 20
-12.7960092704
 10
-12.5626696913
 20
-12.7249167373
 10
-12.6566415441
 20
-12.6600509817
 10
-12.7506133969
 20
-12.6022273209
 10
-12.8445852497
 20
-12.5515346416
 10
-12.9385571025
 20
-12.507884057
 10
-13.0313477947
 20
-12.4718242246
 10
-13.1225636061
 20
-12.4435380302
 10
-13.2125982568
 20
-12.422842588
 10
-13.3014517469
 20
-12.4097378979
  0
LWPOLYLINE
  5
2E8
100
AcDbEntity
  8
DRAFT
100
AcDbPolyline
 62
7
  6
CONTINUOUS
 90
4
 70
0
 10
-12.199775047
 20
-13.0458322172
 10
-12.2886827859
 20
-12.9562874382
 10
-12.378749986
 20
-12.8729869111
 10
-12.4699279831
 20
-12.7959717408
  0
LWPOLYLINE
  5
2E9
100
AcDbEntity
  8
0
100
AcDbPolyline
 62
7
  6
CONTINUOUS
 90
4
 70
0
 10
-11.9805670124
 20
-12.6134626954
 10
-12.1045729814
 20
-12.4871396778
 10
-12.2303129885
 20
-12.3697104874
 10
-12.3577870335
 20
-12.2611751242
  0
LWPOLYLINE
  5
2EA
100
AcDbEntity
  8
0
100
AcDbPolyline
 62
7
  6
CONTINUOUS
 90
4
 70
0
 10
-9.3607753989
 20
-14.6253236253
 10
-9.3693540959
 20
-14.6165519908
 10
-9.3784382942
 20
-14.6087402
 10
-9.3875550508
 20
-14.6022919573
  0
LWPOLYLINE
  5
2EB
100
AcDbEntity
  8
DRAFT
100
AcDbPolyline
 62
7
  6
CONTINUOUS
 90
24
 70
0
 10
-11.9805670122
 20
-12.6134626955
 10
-12.0418208344
 20
-12.5496373215
 10
-12.1037211291
 20
-12.4878562589
 10
-12.1662678964
 20
-12.428119508
 10
-12.2295317633
 20
-12.3703655039
 10
-12.2934421028
 20
-12.3146558114
 10
-12.3577870336
 20
-12.2611751242
 10
-12.422567998
 20
-12.2099308403
 10
-12.4877835538
 20
-12.1609155616
 10
-12.5532174924
 20
-12.1142917881
 10
-12.6188705387
 20
-12.0700674569
 10
-12.6847419678
 20
-12.028234631
 10
-12.7506133969
 20
-11.988931998
 10
-12.816484826
 20
-11.9521679557
 10
-12.8823562552
 20
-11.9179341065
 10
-12.9480093014
 20
-11.8863439454
 10
-13.01344324
 20
-11.8574062468
 10
-13.0786587958
 20
-11.8311122364
 10
-13.1434397603
 20
-11.8075490863
 10
-13.207784691
 20
-11.7867258603
 10
-13.2716950305
 20
-11.7686334948
 10
-13.3349588974
 20
-11.753331971
 10
-13.3975056647
 20
-11.740841283
 10
-13.4594059594
 20
-11.7311414368
  0
LWPOLYLINE
  5
2EC
100
AcDbEntity
  8
0
100
AcDbPolyline
 62
7
  6
CONTINUOUS
 90
4
 70
0
 10
-9.3003954772
 20
-17.5052307339
 10
-9.30832415
 20
-17.4956392581
 10
-9.3168954964
 20
-17.4868415297
 10
-9.3261095165
 20
-17.4788375488
  0
LWPOLYLINE
  5
2ED
100
AcDbEntity
  8
0
100
AcDbPolyline
 62
7
  6
CONTINUOUS
 90
4
 70
0
 10
-8.2413295433
 20
-16.35356374
 10
-8.2492582162
 20
-16.3439722641
 10
-8.2578295626
 20
-16.3351745357
 10
-8.2670435826
 20
-16.3271705548
  0
LWPOLYLINE
  5
2EE
100
AcDbEntity
  8
DRAFT
100
AcDbPolyline
 62
7
  6
CONTINUOUS
 90
4
 70
0
 10
-10.1769932131
 20
-15.3266452813
 10
-10.1690785494
 20
-15.3362201968
 10
-10.160495993
 20
-15.3450326489
 10
-10.1512632897
 20
-15.3530611692
  0
LWPOLYLINE
  5
2EF
100
AcDbEntity
  8
0
100
AcDbPolyline
 62
7
  6
CONTINUOUS
 90
4
 70
0
 10
-12.2485211815
 20
-13.7259619139
 10
-12.3085749457
 20
-13.6475057721
 10
-12.3718709071
 20
-13.5726012342
 10
-12.4369834896
 20
-13.5029118848
  0
LWPOLYLINE
  5
2F0
100
AcDbEntity
  8
DRAFT
100
AcDbPolyline
 62
7
  6
CONTINUOUS
 90
4
 70
0
 10
-9.7371456608
 20
-16.5158566902
 10
-9.7294212619
 20
-16.5267491728
 10
-9.7213456365
 20
-16.5365241835
 10
-9.7129376367
 20
-16.5451623543
  0
LWPOLYLINE
  5
2F1
100
AcDbEntity
  8
DRAFT
100
AcDbPolyline
 62
7
  6
CONTINUOUS
 90
13
 70
0
 10
-8.6811612115
 20
-15.1643750338
 10
-8.6888856105
 20
-15.1534825511
 10
-8.6969612358
 20
-15.1437075404
 10
-8.7053880875
 20
-15.1350500017
 10
-8.7143178921
 20
-15.1274050987
 10
-8.7235989231
 20
-15.1208776676
 10
-8.7327760009
 20
-15.115782217
 10
-8.7418442292
 20
-15.1121861965
 10
-8.7508085043
 20
-15.1100221564
 10
-8.7592283361
 20
-15.1094022563
 10
-8.7669568945
 20
-15.1103638825
 10
-8.7741410096
 20
-15.1128696486
 10
-8.7807806813
 20
-15.1169195545
  0
LWPOLYLINE
  5
2F2
100
AcDbEntity
  8
0
100
AcDbPolyline
 62
7
  6
CONTINUOUS
 90
11
 70
0
 10
-9.7371456607
 20
-16.5158566904
 10
-9.7294423947
 20
-16.5267292849
 10
-9.7213794492
 20
-16.5364923627
 10
-9.7129568241
 20
-16.5451459238
 10
-9.7040198767
 20
-16.5527988125
 10
-9.6947232498
 20
-16.5593421845
 10
-9.6855308714
 20
-16.564449507
 10
-9.6764480318
 20
-16.5680479047
 10
-9.6674694408
 20
-16.5702102528
 10
-9.6590431555
 20
-16.5708286441
 10
-9.6561712907
 20
-16.5706616882
  0
LWPOLYLINE
  5
2F3
100
AcDbEntity
  8
0
100
AcDbPolyline
 62
7
  6
CONTINUOUS
 90
4
 70
0
 10
-8.6811612117
 20
-15.1643750336
 10
-8.6888644776
 20
-15.1535024391
 10
-8.6969274232
 20
-15.1437393613
 10
-8.7053500483
 20
-15.1350858002
  0
LWPOLYLINE
  5
2F4
100
AcDbEntity
  8
DRAFT
100
AcDbPolyline
 62
7
  6
CONTINUOUS
 90
7
 70
0
 10
-13.3766703099
 20
-12.350365044
 10
-13.3697752899
 20
-12.3608773242
 10
-13.3621150675
 20
-12.3708757682
 10
-13.3540458958
 20
-12.3799012628
 10
-13.3455496257
 20
-12.3879106284
 10
-13.3366444063
 20
-12.3949470446
 10
-13.3277409386
 20
-12.4006809371
  0
LINE
  5
2F5
100
AcDbEntity
  8
DRAFT
100
AcDbLine
 62
7
  6
CONTINUOUS
 10
-9.953815749
 20
-16.1808273058
 11
-9.7371456608
 21
-16.5158566902
  0
LINE
  5
2F6
100
AcDbEntity
  8
0
100
AcDbLine
 62
7
  6
CONTINUOUS
 10
-9.7371456607
 20
-16.5158566904
 11
-9.9538157488
 21
-16.1808273062
  0
LINE
  5
2F7
100
AcDbEntity
  8
0
100
AcDbLine
 62
7
  6
CONTINUOUS
 10
-8.6811612117
 20
-15.1643750336
 11
-8.4644911234
 21
-15.4994044182
  0
LINE
  5
2F8
100
AcDbEntity
  8
DRAFT
100
AcDbLine
 62
7
  6
CONTINUOUS
 10
-8.4644911234
 20
-15.4994044182
 11
-8.6811612115
 21
-15.1643750338
  0
LWPOLYLINE
  5
2F9
100
AcDbEntity
  8
0
100
AcDbPolyline
 62
7
  6
CONTINUOUS
 90
4
 70
0
 10
-11.9572708856
 20
-12.6453273902
 10
-11.9641367416
 20
-12.6342189898
 10
-11.9719021172
 20
-12.6235974249
 10
-11.9805670124
 20
-12.6134626954
  0
LWPOLYLINE
  5
2FA
100
AcDbEntity
  8
DRAFT
100
AcDbPolyline
 62
7
  6
CONTINUOUS
 90
7
 70
0
 10
-9.079754278
 20
-17.023273468
 10
-9.0730986202
 20
-17.0344273106
 10
-9.0655670813
 20
-17.0451462666
 10
-9.0575314735
 20
-17.0549080986
 10
-9.048968054
 20
-17.063667724
 10
-9.0399005656
 20
-17.0714702253
 10
-9.0307720493
 20
-17.077928614
  0
LWPOLYLINE
  5
2FB
100
AcDbEntity
  8
0
100
AcDbPolyline
 62
7
  6
CONTINUOUS
 90
4
 70
0
 10
-9.3385399415
 20
-14.6569837919
 10
-9.3451858138
 20
-14.6458438438
 10
-9.3527278557
 20
-14.6351038127
 10
-9.3607753989
 20
-14.6253236253
  0
LWPOLYLINE
  5
2FC
100
AcDbEntity
  8
0
100
AcDbPolyline
 62
7
  6
CONTINUOUS
 90
4
 70
0
 10
-12.0890313819
 20
-13.9811982126
 10
-12.1382658611
 20
-13.8936666133
 10
-12.1917724227
 20
-13.8080384617
 10
-12.2485211815
 20
-13.7259619139
  0
LWPOLYLINE
  5
2FD
100
AcDbEntity
  8
0
100
AcDbPolyline
 62
7
  6
CONTINUOUS
 90
4
 70
0
 10
-9.2804655003
 20
-17.5387676463
 10
-9.2862413999
 20
-17.5271731274
 10
-9.2929971017
 20
-17.5158050569
 10
-9.3003795931
 20
-17.5052534367
  0
LWPOLYLINE
  5
2FE
100
AcDbEntity
  8
0
100
AcDbPolyline
 62
7
  6
CONTINUOUS
 90
4
 70
0
 10
-8.2213995665
 20
-16.3871006524
 10
-8.227175466
 20
-16.3755061335
 10
-8.2339311679
 20
-16.364138063
 10
-8.2413136592
 20
-16.3535864427
  0
LWPOLYLINE
  5
2FF
100
AcDbEntity
  8
DRAFT
100
AcDbPolyline
 62
7
  6
CONTINUOUS
 90
4
 70
0
 10
-9.9710928353
 20
-16.1459859937
 10
-9.9664058719
 20
-16.1575961068
 10
-9.9606433402
 20
-16.1692185547
 10
-9.953815749
 20
-16.1808273058
  0
LWPOLYLINE
  5
300
100
AcDbEntity
  8
0
100
AcDbPolyline
 62
7
  6
CONTINUOUS
 90
4
 70
0
 10
-11.9679903243
 20
-14.25356554
 10
-12.0035441895
 20
-14.1620455016
 10
-12.0441517445
 20
-14.0706701333
 10
-12.0889361539
 20
-13.9813880589
  0
LWPOLYLINE
  5
301
100
AcDbEntity
  8
DRAFT
100
AcDbPolyline
 62
7
  6
CONTINUOUS
 90
4
 70
0
 10
-13.5330895378
 20
-14.2987811692
 10
-13.4976469166
 20
-14.3900763962
 10
-13.4572079705
 20
-14.4810804105
 10
-13.4123928268
 20
-14.5703691743
  0
LWPOLYLINE
  5
302
100
AcDbEntity
  8
DRAFT
100
AcDbPolyline
 62
7
  6
CONTINUOUS
 90
4
 70
0
 10
-13.3924079017
 20
-12.3162042995
 10
-13.3879272402
 20
-12.3281050505
 10
-13.3826813763
 20
-12.3394919653
 10
-13.3766829415
 20
-12.3503421954
  0
LWPOLYLINE
  5
303
100
AcDbEntity
  8
0
100
AcDbPolyline
 62
7
  6
CONTINUOUS
 90
13
 70
0
 10
-13.3924079017
 20
-12.3162042995
 10
-13.3879420059
 20
-12.3280805415
 10
-13.3827050014
 20
-12.339452751
 10
-13.3766968881
 20
-12.3503209279
 10
-13.3697973111
 20
-12.3608422458
 10
-13.3621266254
 20
-12.3708595312
 10
-13.3540458958
 20
-12.3799012628
 10
-13.3455355136
 20
-12.3879207887
 10
-13.3366150875
 20
-12.394964761
 10
-13.3277045087
 20
-12.4007016145
 10
-13.3189437409
 20
-12.4050208277
 10
-13.3101928203
 20
-12.4080329222
 10
-13.3014517469
 20
-12.4097378979
  0
LWPOLYLINE
  5
304
100
AcDbEntity
  8
DRAFT
100
AcDbPolyline
 62
7
  6
CONTINUOUS
 90
7
 70
0
 10
-11.0490415543
 20
-19.0338772408
 10
-11.0449528411
 20
-19.0457364975
 10
-11.039762453
 20
-19.057693865
 10
-11.0337286785
 20
-19.0691643659
 10
-11.0268117922
 20
-19.0801250676
 10
-11.0190515194
 20
-19.0905989026
 10
-11.0108253251
 20
-19.1000696914
  0
LWPOLYLINE
  5
305
100
AcDbEntity
  8
0
100
AcDbPolyline
 62
7
  6
CONTINUOUS
 90
4
 70
0
 10
-11.9420704353
 20
-12.6815736043
 10
-11.9460582485
 20
-12.6694326858
 10
-11.9512148072
 20
-12.6571366202
 10
-11.9572572615
 20
-12.6453539568
  0
LINE
  5
306
100
AcDbEntity
  8
DRAFT
100
AcDbLine
 62
7
  6
CONTINUOUS
 10
-13.5572548334
 20
-11.8128324913
 11
-13.3924079017
 21
-12.3162042995
  0
LINE
  5
307
100
AcDbEntity
  8
0
100
AcDbLine
 62
7
  6
CONTINUOUS
 10
-13.3924079017
 20
-12.3162042995
 11
-13.5572548335
 21
-11.8128324911
  0
LINE
  5
308
100
AcDbEntity
  8
0
100
AcDbLine
 62
7
  6
CONTINUOUS
 10
-13.5607009223
 20
-11.8003259965
 11
-13.5572548335
 21
-11.8128324911
  0
LWPOLYLINE
  5
309
100
AcDbEntity
  8
DRAFT
100
AcDbPolyline
 62
7
  6
CONTINUOUS
 90
4
 70
0
 10
-13.6088193249
 20
-14.0245722497
 10
-13.5889504893
 20
-14.1149409002
 10
-13.563518176
 20
-14.207006641
 10
-13.5331568092
 20
-14.2985782747
  0
LWPOLYLINE
  5
30A
100
AcDbEntity
  8
0
100
AcDbPolyline
 62
7
  6
CONTINUOUS
 90
4
 70
0
 10
-11.8924324749
 20
-14.5272348971
 10
-11.9122394647
 20
-14.4370452316
 10
-11.9375880496
 20
-14.3452330508
 10
-11.9679903243
 20
-14.25356554
  0
LWPOLYLINE
  5
30B
100
AcDbEntity
  8
0
100
AcDbPolyline
 62
7
  6
CONTINUOUS
 90
13
 70
0
 10
-13.7290117763
 20
-16.4301505742
 10
-13.7222919852
 20
-16.4611018298
 10
-13.7133050946
 20
-16.491734267
 10
-13.7020511046
 20
-16.5220478858
 10
-13.6883313208
 20
-16.5524161585
 10
-13.6723444375
 20
-16.5824656127
 10
-13.6546865378
 20
-16.6110758318
 10
-13.6352945325
 20
-16.6381924775
 10
-13.6142315108
 20
-16.663869888
 10
-13.5922828234
 20
-16.6871506618
 10
-13.569710254
 20
-16.7077156647
 10
-13.546252019
 20
-16.7258840309
 10
-13.5219081183
 20
-16.7416557602
  0
LWPOLYLINE
  5
30C
100
AcDbEntity
  8
0
100
AcDbPolyline
 62
7
  6
CONTINUOUS
 90
16
 70
0
 10
-13.519326252
 20
-15.3799694395
 10
-13.5252340635
 20
-15.3521468561
 10
-13.5330313726
 20
-15.3244929249
 10
-13.5427181793
 20
-15.297007646
 10
-13.554432981
 20
-15.269411799
 10
-13.5680372803
 20
-15.2419846043
 10
-13.5831155849
 20
-15.2155637224
 10
-13.5997133758
 20
-15.1901802037
 10
-13.617785172
 20
-15.165802998
 10
-13.6367790384
 20
-15.1431766154
 10
-13.6567234258
 20
-15.1223550783
 10
-13.6775898833
 20
-15.1032843643
 10
-13.6987411233
 20
-15.0865469169
 10
-13.7199647167
 20
-15.0723368839
 10
-13.7414730927
 20
-15.0604601173
 10
-13.7632662512
 20
-15.0509166173
  0
LWPOLYLINE
  5
30D
100
AcDbEntity
  8
DRAFT
100
AcDbPolyline
 62
7
  6
CONTINUOUS
 90
25
 70
0
 10
-13.5193262519
 20
-15.3799694398
 10
-13.522698479
 20
-15.3628257509
 10
-13.5268563737
 20
-15.3456217051
 10
-13.531799936
 20
-15.3283573022
 10
-13.5375554647
 20
-15.3109623635
 10
-13.544096661
 20
-15.2935070679
 10
-13.5513446283
 20
-15.276201952
 10
-13.5593079258
 20
-15.2590488347
 10
-13.5679779944
 20
-15.2420458972
 10
-13.5772502601
 20
-15.2253982201
 10
-13.5871320157
 20
-15.2091101058
 10
-13.5976159684
 20
-15.193177252
 10
-13.6085756662
 20
-15.1777918326
 10
-13.6200168706
 20
-15.162960477
 10
-13.63193382
 20
-15.1486765558
 10
-13.6441827784
 20
-15.1351123543
 10
-13.6567689179
 20
-15.1222759016
 10
-13.6696870665
 20
-15.1101591686
 10
-13.6827779717
 20
-15.0989103528
 10
-13.6960391618
 20
-15.0885426864
 10
-13.7094731086
 20
-15.0790429371
 10
-13.7229279747
 20
-15.0705196055
 10
-13.7363531476
 20
-15.0630088585
 10
-13.7497992398
 20
-15.056474529
 10
-13.7632662512
 20
-15.0509166173
  0
LWPOLYLINE
  5
30E
100
AcDbEntity
  8
DRAFT
100
AcDbPolyline
 62
7
  6
CONTINUOUS
 90
4
 70
0
 10
-14.3770356581
 20
-15.2360290855
 10
-14.3746993293
 20
-15.2480387165
 10
-14.371358969
 20
-15.2598773619
 10
-14.3670242961
 20
-15.2715189197
  0
LWPOLYLINE
  5
30F
100
AcDbEntity
  8
0
100
AcDbPolyline
 62
7
  6
CONTINUOUS
 90
13
 70
0
 10
-14.3770356581
 20
-15.2360290855
 10
-14.3747112393
 20
-15.248010267
 10
-14.3713780249
 20
-15.2598318426
 10
-14.3670360151
 20
-15.2714938125
 10
-14.361577633
 20
-15.2831880468
 10
-14.3551104554
 20
-15.2947226754
 10
-14.3479572128
 20
-15.3055220875
 10
-14.3400830896
 20
-15.315548973
 10
-14.3315229014
 20
-15.3248406421
 10
-14.3227038259
 20
-15.332933414
 10
-14.3137682558
 20
-15.3396727286
 10
-14.3045737984
 20
-15.345213146
 10
-14.2951204537
 20
-15.3495546663
  0
LWPOLYLINE
  5
310
100
AcDbEntity
  8
DRAFT
100
AcDbPolyline
 62
7
  6
CONTINUOUS
 90
25
 70
0
 10
-13.7290117764
 20
-16.4301505741
 10
-13.7260744257
 20
-16.4453011123
 10
-13.7225146371
 20
-16.4605179227
 10
-13.7183324108
 20
-16.4758010053
 10
-13.7135105489
 20
-16.4911992097
 10
-13.7080662492
 20
-16.5066636862
 10
-13.7020511046
 20
-16.5220478858
 10
-13.6954596883
 20
-16.5373510453
 10
-13.6882974271
 20
-16.5525739278
 10
-13.6806321941
 20
-16.5675722737
 10
-13.6724592078
 20
-16.5823439483
 10
-13.6637832498
 20
-16.5968910864
 10
-13.6546865378
 20
-16.6110758318
 10
-13.6451650718
 20
-16.6248947395
 10
-13.6352228518
 20
-16.6383512547
 10
-13.6249540952
 20
-16.6513178565
 10
-13.6143556978
 20
-16.6637898877
 10
-13.6034307638
 20
-16.6757720057
 10
-13.5922828235
 20
-16.6871506618
 10
-13.5809097566
 20
-16.6979201192
 10
-13.5693136834
 20
-16.7080861148
 10
-13.5576044939
 20
-16.7175523105
 10
-13.5458188182
 20
-16.7262865937
 10
-13.5339200264
 20
-16.7343210769
 10
-13.5219081183
 20
-16.7416557602
  0
LINE
  5
311
100
AcDbEntity
  8
0
100
AcDbLine
 62
7
  6
CONTINUOUS
 10
-13.562895344
 20
-11.7884924976
 11
-13.5607009223
 21
-11.8003259965
  0
LINE
  5
312
100
AcDbEntity
  8
DRAFT
100
AcDbLine
 62
7
  6
CONTINUOUS
 10
-13.8895806899
 20
-15.5011410367
 11
-13.7290117764
 21
-16.4301505741
  0
LINE
  5
313
100
AcDbEntity
  8
0
100
AcDbLine
 62
7
  6
CONTINUOUS
 10
-13.7290117763
 20
-16.4301505742
 11
-13.8895806899
 21
-15.5011410367
  0
LINE
  5
314
100
AcDbEntity
  8
0
100
AcDbLine
 62
7
  6
CONTINUOUS
 10
-13.519326252
 20
-15.3799694395
 11
-13.3516541609
 21
-16.3500760953
  0
LINE
  5
315
100
AcDbEntity
  8
DRAFT
100
AcDbLine
 62
7
  6
CONTINUOUS
 10
-13.3516541609
 20
-16.3500760953
 11
-13.5193262519
 21
-15.3799694398
  0
LINE
  5
316
100
AcDbEntity
  8
DRAFT
100
AcDbLine
 62
7
  6
CONTINUOUS
 10
-14.4261507797
 20
-14.8860441264
 11
-14.3770356581
 21
-15.2360290855
  0
LINE
  5
317
100
AcDbEntity
  8
0
100
AcDbLine
 62
7
  6
CONTINUOUS
 10
-14.3770356581
 20
-15.2360290855
 11
-14.4261507797
 21
-14.8860441264
  0
LWPOLYLINE
  5
318
100
AcDbEntity
  8
DRAFT
100
AcDbPolyline
 62
7
  6
CONTINUOUS
 90
4
 70
0
 10
-13.5638373413
 20
-11.7773080102
 10
-13.5628966394
 20
-11.7884478682
 10
-13.5607017319
 20
-11.8002981032
 10
-13.5572548334
 20
-11.8128324913
  0
LWPOLYLINE
  5
319
100
AcDbEntity
  8
DRAFT
100
AcDbPolyline
 62
7
  6
CONTINUOUS
 90
22
 70
0
 10
-12.5168587808
 20
6.8535909312
 10
-12.5155000949
 20
6.8368778981
 10
-12.513253023
 20
6.8198559637
 10
-12.5101003835
 20
6.8024498074
 10
-12.5060593579
 20
6.7847347499
 10
-12.5011814909
 20
6.7669367527
 10
-12.4954560628
 20
6.7490547536
 10
-12.4888937934
 20
6.7310898149
 10
-12.4815783866
 20
6.7132710858
 10
-12.4735001949
 20
6.695600439
 10
-12.4646688659
 20
6.6780760017
 10
-12.4551970462
 20
6.6609213043
 10
-12.4450765313
 20
6.6441410829
 10
-12.4343155258
 20
6.6277306013
 10
-12.42305129
 20
6.6118991809
 10
-12.4112773776
 20
6.5966542394
 10
-12.3990002349
 20
6.5819883592
 10
-12.3863764612
 20
6.5680886085
 10
-12.3734016162
 20
6.5549648015
 10
-12.3600801401
 20
6.5426071241
 10
-12.3465819531
 20
6.5311732028
 10
-12.3329636951
 20
6.5207155797
  0
LWPOLYLINE
  5
31A
100
AcDbEntity
  8
DRAFT
100
AcDbPolyline
 62
7
  6
CONTINUOUS
 90
22
 70
0
 10
-11.0549945153
 20
-17.5389415217
 10
-11.0566108788
 20
-17.5166757101
 10
-11.0592884473
 20
-17.4940132317
 10
-11.0630434256
 20
-17.4708748983
 10
-11.0678596088
 20
-17.447339898
 10
-11.0736883819
 20
-17.4236457951
 10
-11.0805400007
 20
-17.3997909782
 10
-11.0884042094
 20
-17.3757770588
 10
-11.0972016259
 20
-17.3518464354
 10
-11.1069417021
 20
-17.3279999516
 10
-11.1176149863
 20
-17.3042367639
 10
-11.1291137413
 20
-17.2807967398
 10
-11.1414463276
 20
-17.2576831525
 10
-11.1546043849
 20
-17.2348927288
 10
-11.1684550944
 20
-17.2126555174
 10
-11.1830054715
 20
-17.1909771211
 10
-11.198248501
 20
-17.1698519371
 10
-11.2140303183
 20
-17.1494932047
 10
-11.2303563803
 20
-17.1299086867
 10
-11.2472212303
 20
-17.1110906202
 10
-11.2644546328
 20
-17.0932289566
 10
-11.2819998428
 20
-17.0763870129
  0
LWPOLYLINE
  5
31B
100
AcDbEntity
  8
DRAFT
100
AcDbPolyline
 62
7
  6
CONTINUOUS
 90
4
 70
0
 10
-11.0544393567
 20
-18.999473113
 10
-11.053741764
 20
-19.0108430448
 10
-11.0519424966
 20
-19.0223110874
 10
-11.0490480441
 20
-19.0338513659
  0
LWPOLYLINE
  5
31C
100
AcDbEntity
  8
0
100
AcDbPolyline
 62
7
  6
CONTINUOUS
 90
13
 70
0
 10
-11.0544393567
 20
-18.999473113
 10
-11.0537502487
 20
-19.0108145127
 10
-11.0519560721
 20
-19.0222654361
 10
-11.0490568268
 20
-19.0338258831
 10
-11.0449660842
 20
-19.0456951116
 10
-11.0397702728
 20
-19.0576738638
 10
-11.0337286785
 20
-19.0691643659
 10
-11.0267983803
 20
-19.0801418407
 10
-11.0190222992
 20
-19.0906310653
 10
-11.0107884835
 20
-19.1001085978
 10
-11.002226283
 20
-19.1083999574
 10
-10.993206348
 20
-19.1156796248
 10
-10.9837286785
 20
-19.1219476
  0
LWPOLYLINE
  5
31D
100
AcDbEntity
  8
0
100
AcDbPolyline
 62
7
  6
CONTINUOUS
 90
16
 70
0
 10
-12.5173290806
 20
6.869995063
 10
-12.5160625483
 20
6.8432102242
 10
-12.5126017214
 20
6.8159816671
 10
-12.5069465998
 20
6.7883093914
 10
-12.4989879448
 20
6.7598827726
 10
-12.4888349952
 20
6.7310124352
 10
-12.476815467
 20
6.702630254
 10
-12.4628684558
 20
6.674752157
 10
-12.447054866
 20
6.647362216
 10
-12.4298851275
 20
6.6213445217
 10
-12.4113149906
 20
6.5967438488
 10
-12.391388705
 20
6.5735154225
 10
-12.3707494499
 20
6.5524090082
 10
-12.3496116182
 20
6.5336745275
 10
-12.327760817
 20
6.5170620588
 10
-12.3051970462
 20
6.502571602
  0
LWPOLYLINE
  5
31E
100
AcDbEntity
  8
0
100
AcDbPolyline
 62
7
  6
CONTINUOUS
 90
16
 70
0
 10
-11.0544393567
 20
-17.5608106664
 10
-11.0559196379
 20
-17.5252196358
 10
-11.06004116
 20
-17.488978086
 10
-11.0668039231
 20
-17.4520860167
 10
-11.0763116186
 20
-17.4142146423
 10
-11.0884605551
 20
-17.3756927485
 10
-11.1029396576
 20
-17.3375066929
 10
-11.1198091038
 20
-17.2996651485
 10
-11.1390087161
 20
-17.2621594423
 10
-11.1600468861
 20
-17.2259499121
 10
-11.1829710955
 20
-17.1910700324
 10
-11.2077338627
 20
-17.1574863286
 10
-11.2337011342
 20
-17.1260587154
 10
-11.2606615588
 20
-17.097073831
 10
-11.2888264876
 20
-17.0702450371
 10
-11.3181959207
 20
-17.0455723338
  0
LWPOLYLINE
  5
31F
100
AcDbEntity
  8
0
100
AcDbPolyline
 62
7
  6
CONTINUOUS
 90
27
 70
0
 10
-13.6344778125
 20
-13.7656371433
 10
-13.6314582431
 20
-13.8503702008
 10
-13.6228970786
 20
-13.9367257736
 10
-13.608794319
 20
-14.0247038619
 10
-13.5889873292
 20
-14.1148935273
 10
-13.5636387443
 20
-14.2067057081
 10
-13.5332364696
 20
-14.298373219
 10
-13.4976826044
 20
-14.3898932573
 10
-13.4570750494
 20
-14.4812686257
 10
-13.4121954119
 20
-14.5707405464
 10
-13.3629609328
 20
-14.6582721456
 10
-13.3094543711
 20
-14.7439002972
 10
-13.2527056123
 20
-14.825976845
 10
-13.1926518481
 20
-14.9044329868
 10
-13.1293558867
 20
-14.9793375248
 10
-13.0640360382
 20
-15.0492487089
 10
-12.9966530955
 20
-15.1140698075
 10
-12.9272462655
 20
-15.1738975523
 10
-12.8571514794
 20
-15.227580389
 10
-12.7863554098
 20
-15.2749992777
 10
-12.714871384
 20
-15.3162732583
 10
-12.6440753145
 20
-15.3506078961
 10
-12.5739805283
 20
-15.3778687615
 10
-12.5045736984
 20
-15.3981902841
 10
-12.4371907557
 20
-15.4111813188
 10
-12.3718709071
 20
-15.4166998585
 10
-12.3076207683
 20
-15.4148756562
  0
LWPOLYLINE
  5
320
100
AcDbEntity
  8
0
100
AcDbPolyline
 62
7
  6
CONTINUOUS
 90
4
 70
0
 10
-11.8667489813
 20
-14.7863016156
 10
-11.8697685507
 20
-14.7015685582
 10
-11.8783297153
 20
-14.6152129853
 10
-11.8924218965
 20
-14.527300889
  0
LWPOLYLINE
  5
321
100
AcDbEntity
  8
DRAFT
100
AcDbPolyline
 62
7
  6
CONTINUOUS
 90
4
 70
0
 10
-13.6344778125
 20
-13.7656371433
 10
-13.6314884611
 20
-13.8502517551
 10
-13.6229356319
 20
-13.9365634572
 10
-13.6088193249
 20
-14.0245722497
  0
LWPOLYLINE
  5
322
100
AcDbEntity
  8
DRAFT
100
AcDbPolyline
 62
7
  6
CONTINUOUS
 90
34
 70
0
 10
-11.8667489813
 20
-14.7863016156
 10
-11.8697383328
 20
-14.7016870038
 10
-11.878291162
 20
-14.6153753017
 10
-11.8924074689
 20
-14.5273665092
 10
-11.9122763045
 20
-14.4369978587
 10
-11.9377086179
 20
-14.3449321179
 10
-11.9681372561
 20
-14.2531575897
 10
-12.0035798773
 20
-14.1618623627
 10
-12.0440188234
 20
-14.0708583484
 10
-12.088833967
 20
-13.9815695846
 10
-12.1382485651
 20
-13.8937890352
 10
-12.1920393608
 20
-13.8077237364
 10
-12.2489164562
 20
-13.7254188338
 10
-12.3087397278
 20
-13.6472099609
 10
-12.371649299
 20
-13.5727614843
 10
-12.4367756424
 20
-13.5031116495
 10
-12.5044106133
 20
-13.4381067756
 10
-12.5742623563
 20
-13.3779005434
 10
-12.6445857774
 20
-13.3239922413
 10
-12.715113631
 20
-13.2767000714
 10
-12.7861131628
 20
-13.2357058316
 10
-12.8566410164
 20
-13.201554204
 10
-12.9269644376
 20
-13.174254782
 10
-12.9968161806
 20
-13.1537979723
 10
-13.0644511514
 20
-13.1406996772
 10
-13.1295774948
 20
-13.1351432432
 10
-13.1924870661
 20
-13.1369453238
 10
-13.2523103377
 20
-13.1460717821
 10
-13.309187433
 20
-13.1626964406
 10
-13.3629782287
 20
-13.1866454769
 10
-13.4123928268
 20
-13.217363287
 10
-13.4572079705
 20
-13.2549006463
 10
-13.4976469166
 20
-13.2992067793
 10
-13.5153153211
 20
-13.3226658838
  0
LWPOLYLINE
  5
323
100
AcDbEntity
  8
0
100
AcDbPolyline
 62
7
  6
CONTINUOUS
 90
19
 70
0
 10
-10.6301752879
 20
-17.8057754224
 10
-10.6325219577
 20
-17.7372454724
 10
-10.639201852
 20
-17.6673994041
 10
-10.6502149709
 20
-17.5962372175
 10
-10.6656791956
 20
-17.523316882
 10
-10.6854766448
 20
-17.4490804281
 10
-10.7092536752
 20
-17.3748539481
 10
-10.7370818
 20
-17.3006376212
 10
-10.7688895059
 20
-17.2264312681
 10
-10.804108609
 20
-17.1535604433
 10
-10.8428004125
 20
-17.0820491464
 10
-10.8849036133
 20
-17.0118733779
 10
-10.9296661183
 20
-16.9442866934
 10
-10.9771357154
 20
-16.8793356191
 10
-11.0272646167
 20
-16.8169736288
 10
-11.0791573653
 20
-16.7583147002
 10
-11.1325154757
 20
-16.7037301592
 10
-11.1876374333
 20
-16.6528486798
 10
-11.2445232383
 20
-16.6056702621
  0
LWPOLYLINE
  5
324
100
AcDbEntity
  8
0
100
AcDbPolyline
 62
7
  6
CONTINUOUS
 90
4
 70
0
 10
-11.9373894525
 20
-12.716398637
 10
-11.9377252487
 20
-12.705373513
 10
-11.9393134692
 20
-12.6935511321
 10
-11.9420704353
 20
-12.6815736043
  0
LINE
  5
325
100
AcDbEntity
  8
DRAFT
100
AcDbLine
 62
7
  6
CONTINUOUS
 10
-12.5173290806
 20
6.869995063
 11
-12.5168587808
 21
6.8535909312
  0
LINE
  5
326
100
AcDbEntity
  8
DRAFT
100
AcDbLine
 62
7
  6
CONTINUOUS
 10
-11.0544393567
 20
-17.5608106663
 11
-11.0549945153
 21
-17.5389415217
  0
LWPOLYLINE
  5
327
100
AcDbEntity
  8
DRAFT
100
AcDbPolyline
 62
7
  6
CONTINUOUS
 90
25
 70
0
 10
-10.6301752879
 20
-17.8057754223
 10
-10.6314683764
 20
-17.7548372997
 10
-10.6352332481
 20
-17.7029752514
 10
-10.6414699031
 20
-17.6501892772
 10
-10.6502160863
 20
-17.5962949305
 10
-10.6614340527
 20
-17.541476658
 10
-10.6750105673
 20
-17.4862878
 10
-10.6909695177
 20
-17.4307246033
 10
-10.7092870163
 20
-17.3747908212
 10
-10.7297781645
 20
-17.3190510541
 10
-10.7524649775
 20
-17.263507267
 10
-10.7773254403
 20
-17.208157495
 10
-10.804108609
 20
-17.1535604433
 10
-10.8328339573
 20
-17.0997237358
 10
-10.8634820116
 20
-17.0466397486
 10
-10.8957434078
 20
-16.9948443163
 10
-10.9296344861
 20
-16.9443504893
 10
-10.9651389064
 20
-16.8951452172
 10
-11.0018982839
 20
-16.847725182
 10
-11.0399253291
 20
-16.8021084651
 10
-11.0792073315
 20
-16.7582769852
 10
-11.1193477752
 20
-16.7166731811
 10
-11.1602144882
 20
-16.6774445324
 10
-11.2019396425
 20
-16.6404435594
 10
-11.2445232382
 20
-16.6056702622
  0
LINE
  5
328
100
AcDbEntity
  8
DRAFT
100
AcDbLine
 62
7
  6
CONTINUOUS
 10
-12.5173290805
 20
10.7422388363
 11
-12.5173290806
 21
6.869995063
  0
LINE
  5
329
100
AcDbEntity
  8
0
100
AcDbLine
 62
7
  6
CONTINUOUS
 10
-12.5173290806
 20
6.869995063
 11
-12.5173290806
 21
10.7422388362
  0
LINE
  5
32A
100
AcDbEntity
  8
DRAFT
100
AcDbLine
 62
7
  6
CONTINUOUS
 10
-11.2303389027
 20
20.2755385123
 11
-11.2303389027
 21
20.9461384453
  0
LINE
  5
32B
100
AcDbEntity
  8
DRAFT
100
AcDbLine
 62
7
  6
CONTINUOUS
 10
-11.0544393567
 20
-17.5608106663
 11
-11.0544393567
 21
-18.999473113
  0
LINE
  5
32C
100
AcDbEntity
  8
0
100
AcDbLine
 62
7
  6
CONTINUOUS
 10
-11.0544393567
 20
-18.999473113
 11
-11.0544393567
 21
-17.5608106664
  0
LWPOLYLINE
  5
32D
100
AcDbEntity
  8
0
100
AcDbPolyline
 62
7
  6
CONTINUOUS
 90
4
 70
0
 10
-11.9435710796
 20
10.5165285559
 10
-11.9497798573
 20
10.4646137376
 10
-11.9515561584
 20
10.4092287936
 10
-11.9488656745
 20
10.3520347733
  0
LWPOLYLINE
  5
32E
100
AcDbEntity
  8
DRAFT
100
AcDbPolyline
 62
7
  6
CONTINUOUS
 90
4
 70
0
 10
-14.4255433288
 20
-14.8545234895
 10
-14.4269096145
 20
-14.8640340908
 10
-14.4271131193
 20
-14.8745480778
 10
-14.4261507797
 20
-14.8860441264
  0
LWPOLYLINE
  5
32F
100
AcDbEntity
  8
DRAFT
100
AcDbPolyline
 62
7
  6
CONTINUOUS
 90
4
 70
0
 10
-12.487886593
 20
11.0154473358
 10
-12.504095447
 20
10.9297494815
 10
-12.5139096095
 20
10.8386799817
 10
-12.5173290805
 20
10.7422388363
  0
LWPOLYLINE
  5
330
100
AcDbEntity
  8
ASSI
100
AcDbPolyline
 62
7
  6
CONTINUOUS
 90
12
 70
0
 10
-10.5121867444
 20
19.8608864566
 10
-10.5113943823
 20
19.8645479384
 10
-10.5055842041
 20
19.8856158126
 10
-10.498192696
 20
19.9076755656
 10
-10.4892227714
 20
19.9303936122
 10
-10.4787152368
 20
19.9534286282
 10
-10.4668835131
 20
19.9762021284
 10
-10.4538712092
 20
19.9984045086
 10
-10.4398795757
 20
20.019696173
 10
-10.4253297839
 20
20.0395228099
 10
-10.4104752348
 20
20.0576770064
 10
-10.3942326753
 20
20.0753865263
  0
LWPOLYLINE
  5
331
100
AcDbEntity
  8
0
100
AcDbPolyline
 62
7
  6
CONTINUOUS
 90
4
 70
0
 10
-10.3532109294
 20
9.5776408408
 10
-10.3497688577
 20
9.5918525449
 10
-10.3482746247
 20
9.6079130386
 10
-10.3487282306
 20
9.6258223221
  0
LWPOLYLINE
  5
332
100
AcDbEntity
  8
ASSI
100
AcDbPolyline
 62
250
  6
CONTINUOUS
 90
9
 70
0
 10
-8.1383488412
 20
20.1062021831
 10
-8.1393002782
 20
20.1034543155
 10
-8.1393368106
 20
20.0961621627
 10
-8.1363727289
 20
20.0876286858
 10
-8.1304569306
 20
20.0779946591
 10
-8.1216870068
 20
20.0674190122
 10
-8.1102076326
 20
20.0560762086
 10
-8.0962081796
 20
20.0441533671
 10
-8.0799195929
 20
20.0318471753
  0
LWPOLYLINE
  5
333
100
AcDbEntity
  8
ASSI
100
AcDbPolyline
 62
250
  6
CONTINUOUS
 90
11
 70
0
 10
-7.7565365705
 20
20.9160726989
 10
-7.7571368162
 20
20.9145725188
 10
-7.7578683273
 20
20.9090324754
 10
-7.7566651618
 20
20.9026597759
 10
-7.7535430476
 20
20.8955302856
 10
-7.7485408524
 20
20.8877226162
 10
-7.7417160012
 20
20.8793200794
 10
-7.7331525378
 20
20.8704199613
 10
-7.7229518582
 20
20.861120701
 10
-7.7112268307
 20
20.8515193853
 10
-7.6981073223
 20
20.8417176911
  0
LWPOLYLINE
  5
334
100
AcDbEntity
  8
ASSI
100
AcDbPolyline
 62
250
  6
CONTINUOUS
 90
10
 70
0
 10
-7.6981073223
 20
20.8417176911
 10
-7.6890701866
 20
20.8628010379
 10
-7.6784990053
 20
20.8834514358
 10
-7.6665367353
 20
20.9033896238
 10
-7.6533451456
 20
20.9223459719
 10
-7.6391026296
 20
20.9400641279
 10
-7.624001793
 20
20.9563044839
 10
-7.6082468486
 20
20.9708474165
 10
-7.5920508549
 20
20.9834962575
 10
-7.5756328351
 20
20.9940799527
  0
LINE
  5
335
100
AcDbEntity
  8
ASSI
100
AcDbLine
 62
7
  6
CONTINUOUS
 10
-8.1383488412
 20
20.1062021831
 11
-7.7565365705
 21
20.9160726989
  0
LINE
  5
336
100
AcDbEntity
  8
ASSI
100
AcDbLine
 62
250
  6
CONTINUOUS
 10
-8.0799195929
 20
20.0318471753
 11
-7.6981073223
 21
20.8417176911
  0
LWPOLYLINE
  5
337
100
AcDbEntity
  8
0
100
AcDbPolyline
 62
7
  6
CONTINUOUS
 90
4
 70
0
 10
-11.8983954718
 20
10.6500309236
 10
-11.917626632
 20
10.6097681723
 10
-11.9328150941
 20
10.5648834269
 10
-11.9435710796
 20
10.5165285559
  0
LWPOLYLINE
  5
338
100
AcDbEntity
  8
ASSI
100
AcDbPolyline
 62
7
  6
CONTINUOUS
 90
7
 70
0
 10
-3.7339732758
 20
22.086532316
 10
-3.7336178975
 20
22.087087106
 10
-3.7341557691
 20
22.0864633489
 10
-3.7368998663
 20
22.0836810383
 10
-3.7420729987
 20
22.0792947982
 10
-3.7495257624
 20
22.0739536724
 10
-3.7599778848
 20
22.0676104542
  0
LINE
  5
339
100
AcDbEntity
  8
ASSI
100
AcDbLine
 62
7
  6
CONTINUOUS
 10
-1.2048478407
 20
20.3828094082
 11
-0.7348275813
 21
20.9827387884
  0
LINE
  5
33A
100
AcDbEntity
  8
ASSI
100
AcDbLine
 62
250
  6
CONTINUOUS
 10
-1.1148622133
 20
20.3308528347
 11
-0.6264209515
 21
20.9542946069
  0
LWPOLYLINE
  5
33B
100
AcDbEntity
  8
ASSI
100
AcDbPolyline
 62
250
  6
CONTINUOUS
 90
10
 70
0
 10
-1.3219912429
 20
18.7791599376
 10
-1.3357360619
 20
18.763142071
 10
-1.3473660015
 20
18.7464555315
 10
-1.3567244534
 20
18.7293249908
 10
-1.3636853935
 20
18.7119810977
 10
-1.3681550751
 20
18.6946573852
 10
-1.3700732967
 20
18.6775871256
 10
-1.369414217
 20
18.6610001723
 10
-1.3661866974
 20
18.6451198652
 10
-1.3620760514
 20
18.6337349052
  0
LWPOLYLINE
  5
33C
100
AcDbEntity
  8
ASSI
100
AcDbPolyline
 62
250
  6
CONTINUOUS
 90
11
 70
0
 10
-1.4978142086
 20
18.6287245939
 10
-1.5116834413
 20
18.6149770242
 10
-1.5194929121
 20
18.607423972
 10
-1.5280179551
 20
18.599491445
 10
-1.5372730064
 20
18.591156008
 10
-1.5474148657
 20
18.5824674965
 10
-1.5585561338
 20
18.5735020009
 10
-1.5706810053
 20
18.5642704363
 10
-1.5838999417
 20
18.554817343
 10
-1.5984325859
 20
18.5452363262
 10
-1.6144481474
 20
18.5356125721
  0
LWPOLYLINE
  5
33D
100
AcDbEntity
  8
0
100
AcDbPolyline
 62
7
  6
CONTINUOUS
 90
4
 70
0
 10
-10.3752241772
 20
9.5460984666
 10
-10.3662217203
 20
9.5543581083
 10
-10.3587424055
 20
9.5650750797
 10
-10.3532109294
 20
9.5776408408
  0
LWPOLYLINE
  5
33E
100
AcDbEntity
  8
0
100
AcDbPolyline
 62
7
  6
CONTINUOUS
 90
4
 70
0
 10
-12.2616026883
 20
11.4035106127
 10
-12.3133736159
 20
11.3564558368
 10
-12.3601357898
 20
11.3016378183
 10
-12.3707256567
 20
11.2872440231
  0
LWPOLYLINE
  5
33F
100
AcDbEntity
  8
ASSI
100
AcDbPolyline
 62
250
  6
CONTINUOUS
 90
3
 70
0
 10
1.1277728299
 20
20.1537790995
 10
1.138776849
 20
20.1634041378
 10
1.1510705653
 20
20.1722053639
  0
LWPOLYLINE
  5
340
100
AcDbEntity
  8
0
100
AcDbPolyline
 62
7
  6
CONTINUOUS
 90
4
 70
0
 10
-11.8168355809
 20
10.7419353447
 10
-11.8475957728
 20
10.7164511705
 10
-11.8750169713
 20
10.6855520441
 10
-11.8982832157
 20
10.6502014846
  0
LINE
  5
341
100
AcDbEntity
  8
ASSI
100
AcDbLine
 62
250
  6
CONTINUOUS
 10
1.1220236329
 20
20.1207979605
 11
1.1358891976
 21
20.1318153239
  0
LWPOLYLINE
  5
342
100
AcDbEntity
  8
ASSI
100
AcDbPolyline
 62
250
  6
CONTINUOUS
 90
10
 70
0
 10
-0.7348253181
 20
20.9827416762
 10
-0.7300920433
 20
20.9864745956
 10
-0.7233256593
 20
20.9883911422
 10
-0.7145352964
 20
20.9885583108
 10
-0.7038207975
 20
20.9869768611
 10
-0.6913010821
 20
20.9836665244
 10
-0.6771306977
 20
20.9786718039
 10
-0.6614766391
 20
20.972057047
 10
-0.6445103939
 20
20.9638996662
 10
-0.6264209515
 20
20.9542946069
  0
LWPOLYLINE
  5
343
100
AcDbEntity
  8
ASSI
100
AcDbPolyline
 62
7
  6
CONTINUOUS
 90
7
 70
0
 10
-1.2886226951
 20
17.5282969209
 10
-1.2995875137
 20
17.520151085
 10
-1.3090348832
 20
17.5115054242
 10
-1.3170267305
 20
17.5022874503
 10
-1.3235011286
 20
17.4925696514
 10
-1.328272297
 20
17.4825694916
 10
-1.3308693129
 20
17.4737486282
  0
LINE
  5
344
100
AcDbEntity
  8
ASSI
100
AcDbLine
 62
7
  6
CONTINUOUS
 10
-2.4844239997
 20
16.6517094934
 11
-1.7577435817
 21
17.164101924
  0
LINE
  5
345
100
AcDbEntity
  8
ASSI
100
AcDbLine
 62
250
  6
CONTINUOUS
 10
-2.4212433982
 20
16.6155555669
 11
-1.6222854578
 21
17.17891188
  0
LWPOLYLINE
  5
346
100
AcDbEntity
  8
ASSI
100
AcDbPolyline
 62
250
  6
CONTINUOUS
 90
10
 70
0
 10
-3.8390786413
 20
18.8366403912
 10
-3.8554966546
 20
18.8260567006
 10
-3.8716926437
 20
18.8134078644
 10
-3.8874475855
 20
18.798864936
 10
-3.9025484217
 20
18.7826245828
 10
-3.9167909389
 20
18.7649064277
 10
-3.9299825311
 20
18.7459500785
 10
-3.9419448043
 20
18.7260118873
 10
-3.9525159892
 20
18.705361484
 10
-3.9615531285
 20
18.6842781296
  0
LWPOLYLINE
  5
347
100
AcDbEntity
  8
ASSI
100
AcDbPolyline
 62
7
  6
CONTINUOUS
 90
6
 70
0
 10
1.1899587226
 20
18.9451795151
 10
1.17608126
 20
18.9362561037
 10
1.1641269885
 20
18.9267303665
 10
1.1540959081
 20
18.9166023038
 10
1.1459047082
 20
18.905738105
 10
1.1440044212
 20
18.9022617717
  0
LWPOLYLINE
  5
348
100
AcDbEntity
  8
ASSI
100
AcDbPolyline
 62
250
  6
CONTINUOUS
 90
10
 70
0
 10
-0.5411177826
 20
21.0308630684
 10
-0.550962897
 20
21.0246629477
 10
-0.5607959615
 20
21.0178328656
 10
-0.5705857581
 20
21.0103889884
 10
-0.5803099456
 20
21.0023417989
 10
-0.5899273252
 20
20.993718796
 10
-0.5993793664
 20
20.9845695866
 10
-0.6086272838
 20
20.9749326883
 10
-0.6176507102
 20
20.9648303199
 10
-0.6264209515
 20
20.9542946069
  0
LWPOLYLINE
  5
349
100
AcDbEntity
  8
ASSI
100
AcDbPolyline
 62
250
  6
CONTINUOUS
 90
35
 70
0
 10
-1.8005639
 20
18.7310435224
 10
-1.8104864728
 20
18.7248574226
 10
-1.820493303
 20
18.7185448799
 10
-1.8305619491
 20
18.7121144834
 10
-1.8406503742
 20
18.7055385699
 10
-1.8507113499
 20
18.6988551135
 10
-1.8607921045
 20
18.69202614
 10
-1.8709922856
 20
18.6849100644
 10
-1.8812722327
 20
18.6775572048
 10
-1.8916716063
 20
18.6699172431
 10
-1.902409035
 20
18.661697639
 10
-1.9135272023
 20
18.6529056578
 10
-1.9249834247
 20
18.6435340344
 10
-1.9368682797
 20
18.6332684332
 10
-1.9492432335
 20
18.6221003309
 10
-1.96204682
 20
18.6100382508
 10
-1.9751852181
 20
18.5967934277
 10
-1.9886888479
 20
18.5823892952
 10
-2.0025272894
 20
18.5668024197
 10
-2.0165154615
 20
18.549673735
 10
-2.0307275213
 20
18.530986923
 10
-2.0450893118
 20
18.5107583018
 10
-2.0591932802
 20
18.4886777588
 10
-2.073214638
 20
18.4643940306
 10
-2.0869781737
 20
18.4382583808
 10
-2.0995506999
 20
18.4110144875
 10
-2.1108382098
 20
18.3823579978
 10
-2.1209347102
 20
18.3525932647
 10
-2.1291890336
 20
18.323377026
 10
-2.135310304
 20
18.2948960385
 10
-2.1395893974
 20
18.2669635454
 10
-2.1422477742
 20
18.2406760134
 10
-2.1433592546
 20
18.2163989314
 10
-2.1428500184
 20
18.1937668106
 10
-2.1407200655
 20
18.1727796507
  0
LINE
  5
34A
100
AcDbEntity
  8
ASSI
100
AcDbLine
 62
7
  6
CONTINUOUS
 10
-0.6695239985
 20
21.0411843946
 11
0.074883851
 21
21.5015373751
  0
LINE
  5
34B
100
AcDbEntity
  8
ASSI
100
AcDbLine
 62
250
  6
CONTINUOUS
 10
-0.5411177826
 20
21.0308630684
 11
0.202035759
 21
21.490440366
  0
LINE
  5
34C
100
AcDbEntity
  8
ASSI
100
AcDbLine
 62
250
  6
CONTINUOUS
 10
1.1358891976
 20
20.1318153239
 11
1.1523014401
 21
20.1419471875
  0
LINE
  5
34D
100
AcDbEntity
  8
ASSI
100
AcDbLine
 62
7
  6
CONTINUOUS
 10
-1.2761404274
 20
17.5359429317
 11
-1.2886226951
 21
17.5282969209
  0
LINE
  5
34E
100
AcDbEntity
  8
ASSI
100
AcDbLine
 62
250
  6
CONTINUOUS
 10
-1.7808789157
 20
18.7431155914
 11
-1.8005639
 21
18.7310435224
  0
LWPOLYLINE
  5
34F
100
AcDbEntity
  8
ASSI
100
AcDbPolyline
 62
250
  6
CONTINUOUS
 90
3
 70
0
 10
-1.751600122
 20
18.7607939545
 10
-1.7613231906
 20
18.7549655897
 10
-1.7808789157
 20
18.7431155914
  0
LWPOLYLINE
  5
350
100
AcDbEntity
  8
ASSI
100
AcDbPolyline
 62
250
  6
CONTINUOUS
 90
10
 70
0
 10
-2.1407200639
 20
18.1727796488
 10
-2.1237496662
 20
18.1829490388
 10
-2.1050765764
 20
18.1920964024
 10
-2.0849524138
 20
18.2000984787
 10
-2.0636483507
 20
18.2068474399
 10
-2.0414514589
 20
18.2122523437
 10
-2.0186608413
 20
18.2162403588
 10
-1.995583601
 20
18.2187577467
 10
-1.9725307033
 20
18.2197705855
 10
-1.9498127858
 20
18.2192652269
  0
LINE
  5
351
100
AcDbEntity
  8
ASSI
100
AcDbLine
 62
250
  6
CONTINUOUS
 10
-3.7026832154
 20
18.9182023988
 11
-3.8390786413
 21
18.8366403912
  0
LINE
  5
352
100
AcDbEntity
  8
ASSI
100
AcDbLine
 62
250
  6
CONTINUOUS
 10
-3.5593533243
 20
18.6892314574
 11
-3.6957487502
 21
18.6076694498
  0
LINE
  5
353
100
AcDbEntity
  8
ASSI
100
AcDbLine
 62
250
  6
CONTINUOUS
 10
-4.3387479119
 20
17.6486640391
 11
-4.9186879966
 21
17.3018703157
  0
LINE
  5
354
100
AcDbEntity
  8
ASSI
100
AcDbLine
 62
250
  6
CONTINUOUS
 10
-4.1954180208
 20
17.4196930977
 11
-4.6509597231
 21
17.1472873661
  0
LINE
  5
355
100
AcDbEntity
  8
ASSI
100
AcDbLine
 62
250
  6
CONTINUOUS
 10
0.1214739998
 20
19.871204829
 11
-1.0671191058
 21
19.1604475637
  0
LINE
  5
356
100
AcDbEntity
  8
ASSI
100
AcDbLine
 62
250
  6
CONTINUOUS
 10
1.007740648
 20
20.401176319
 11
1.7484444023
 21
20.8441038206
  0
LINE
  5
357
100
AcDbEntity
  8
ASSI
100
AcDbLine
 62
250
  6
CONTINUOUS
 10
0.264803891
 20
19.6422338877
 11
-0.9237892147
 21
18.9314766223
  0
LINE
  5
358
100
AcDbEntity
  8
ASSI
100
AcDbLine
 62
250
  6
CONTINUOUS
 10
1.1510705713
 20
20.1722053968
 11
1.8917742933
 21
20.6151328792
  0
LWPOLYLINE
  5
359
100
AcDbEntity
  8
ASSI
100
AcDbPolyline
 62
250
  6
CONTINUOUS
 90
7
 70
0
 10
-1.3005452409
 20
18.6751890606
 10
-1.3157318507
 20
18.6661291145
 10
-1.3287823584
 20
18.656306275
 10
-1.3395209281
 20
18.6458529136
 10
-1.3478028783
 20
18.6349098986
 10
-1.3535166387
 20
18.6236246891
 10
-1.3550273207
 20
18.6179753512
  0
LWPOLYLINE
  5
35A
100
AcDbEntity
  8
ASSI
100
AcDbPolyline
 62
250
  6
CONTINUOUS
 90
13
 70
0
 10
1.8917742933
 20
20.6151328792
 10
1.8960080971
 20
20.6176135099
 10
1.900274554
 20
20.6199978498
 10
1.9045736642
 20
20.6222858987
 10
1.908889615
 20
20.6244746418
 10
1.9132382189
 20
20.626567094
 10
1.9176669144
 20
20.6285723001
 10
1.9221791956
 20
20.6304974099
 10
1.9267715683
 20
20.6323352736
 10
1.9314809877
 20
20.6340734856
 10
1.9363197722
 20
20.6357079108
 10
1.9412756034
 20
20.6372426844
 10
1.9463484812
 20
20.6386778063
  0
LWPOLYLINE
  5
35B
100
AcDbEntity
  8
ASSI
100
AcDbPolyline
 62
250
  6
CONTINUOUS
 90
10
 70
0
 10
0.2679603427
 20
19.6131271642
 10
0.2865327436
 20
19.6239153656
 10
0.3070942548
 20
19.6334844154
 10
0.3293170468
 20
19.6416817458
 10
0.3528468029
 20
19.6483766597
 10
0.3773083681
 20
19.6534624141
 10
0.4023117303
 20
19.6568579222
 10
0.4274582396
 20
19.6585090464
 10
0.4523469634
 20
19.6583894611
 10
0.4765810794
 20
19.6565010729
  0
LINE
  5
35C
100
AcDbEntity
  8
ASSI
100
AcDbLine
 62
7
  6
CONTINUOUS
 10
1.2630308678
 20
21.0764996764
 11
1.2630676876
 21
21.0765209514
  0
LINE
  5
35D
100
AcDbEntity
  8
ASSI
100
AcDbLine
 62
7
  6
CONTINUOUS
 10
-1.6027776646
 20
19.4218177084
 11
1.2630676876
 21
21.0765209514
  0
LINE
  5
35E
100
AcDbEntity
  8
ASSI
100
AcDbLine
 62
250
  6
CONTINUOUS
 10
-1.5027043876
 20
19.4119490462
 11
1.3630725196
 21
21.0666127158
  0
LINE
  5
35F
100
AcDbEntity
  8
ASSI
100
AcDbLine
 62
250
  6
CONTINUOUS
 10
-1.6893489884
 20
16.1929689075
 11
-0.802016301
 21
16.7052987492
  0
LWPOLYLINE
  5
360
100
AcDbEntity
  8
ASSI
100
AcDbPolyline
 62
250
  6
CONTINUOUS
 90
13
 70
0
 10
1.7484444023
 20
20.8441038206
 10
1.7555432734
 20
20.8482016602
 10
1.7626979163
 20
20.8521525901
 10
1.7699052226
 20
20.8559513049
 10
1.7771317919
 20
20.8595781069
 10
1.7844045416
 20
20.8630435324
 10
1.7918101285
 20
20.86638082
 10
1.799348192
 20
20.8695796336
 10
1.807009959
 20
20.8726250229
 10
1.814867557
 20
20.875529847
 10
1.822939975
 20
20.8782821367
 10
1.8311939049
 20
20.8808520561
 10
1.8396211305
 20
20.8832184858
  0
LWPOLYLINE
  5
361
100
AcDbEntity
  8
ASSI
100
AcDbPolyline
 62
250
  6
CONTINUOUS
 90
13
 70
0
 10
-0.9237892147
 20
18.9314766223
 10
-0.9584979482
 20
18.911444005
 10
-0.9928832994
 20
18.8927983056
 10
-1.0269452682
 20
18.8755395242
 10
-1.0606576362
 20
18.859703686
 10
-1.0940466219
 20
18.8452547658
 10
-1.1271908812
 20
18.8320846874
 10
-1.1600826482
 20
18.8201775743
 10
-1.1927296889
 20
18.809549303
 10
-1.2252339567
 20
18.8001394273
 10
-1.257629436
 20
18.7919277982
 10
-1.2898821423
 20
18.7849345645
 10
-1.3219920757
 20
18.7791597264
  0
LINE
  5
362
100
AcDbEntity
  8
ASSI
100
AcDbLine
 62
7
  6
CONTINUOUS
 10
3.5312008771
 20
20.2929753679
 11
1.1899587226
 21
18.9451795151
  0
LINE
  5
363
100
AcDbEntity
  8
ASSI
100
AcDbLine
 62
7
  6
CONTINUOUS
 10
0.4007672276
 20
18.4908612603
 11
-0.8071062175
 21
17.7955180519
  0
LWPOLYLINE
  5
364
100
AcDbEntity
  8
ASSI
100
AcDbPolyline
 62
250
  6
CONTINUOUS
 90
10
 70
0
 10
-1.6144481474
 20
18.5356125721
 10
-1.6241763127
 20
18.5300501178
 10
-1.6340340098
 20
18.5246335252
 10
-1.6440229315
 20
18.519349324
 10
-1.6541731279
 20
18.5141725388
 10
-1.6644653133
 20
18.509101848
 10
-1.6748211844
 20
18.5041536123
 10
-1.6852497272
 20
18.4992999995
 10
-1.6957443084
 20
18.4945300896
 10
-1.7061831403
 20
18.4898734542
  0
LWPOLYLINE
  5
365
100
AcDbEntity
  8
ASSI
100
AcDbPolyline
 62
7
  6
CONTINUOUS
 90
10
 70
0
 10
-1.6027776644
 20
19.4218177085
 10
-1.6143223994
 20
19.4152218451
 10
-1.6754926233
 20
19.3825958663
 10
-1.73546459
 20
19.354491701
 10
-1.7938154921
 20
19.3310042302
 10
-1.8503577994
 20
19.3120853932
 10
-1.9050323075
 20
19.2976544852
 10
-1.9575757827
 20
19.2876955891
 10
-2.007599403
 20
19.2821691567
 10
-2.0155469685
 20
19.2816786983
  0
LWPOLYLINE
  5
366
100
AcDbEntity
  8
ASSI
100
AcDbPolyline
 62
250
  6
CONTINUOUS
 90
10
 70
0
 10
-1.0671191058
 20
19.1604475637
 10
-1.1191113997
 20
19.1309058258
 10
-1.1706070384
 20
19.1049170829
 10
-1.2214860864
 20
19.0824338011
 10
-1.2713155489
 20
19.0635117512
 10
-1.3203235362
 20
19.0479311975
 10
-1.3693650839
 20
19.0353936932
 10
-1.4186261747
 20
19.025940696
 10
-1.4676580161
 20
19.0197570906
 10
-1.5163278468
 20
19.0169275246
  0
LINE
  5
367
100
AcDbEntity
  8
ASSI
100
AcDbLine
 62
250
  6
CONTINUOUS
 10
3.4176316982
 20
21.3042562391
 11
4.1692555189
 21
21.7310409663
  0
LINE
  5
368
100
AcDbEntity
  8
ASSI
100
AcDbLine
 62
250
  6
CONTINUOUS
 10
3.5552033585
 20
21.0831556881
 11
4.3053111714
 21
21.5090796004
  0
LWPOLYLINE
  5
369
100
AcDbEntity
  8
ASSI
100
AcDbPolyline
 62
250
  6
CONTINUOUS
 90
7
 70
0
 10
1.3630725196
 20
21.0666127158
 10
1.3702845552
 20
21.0706944052
 10
1.3775253332
 20
21.0746265604
 10
1.3847917356
 20
21.0784048916
 10
1.3920462482
 20
21.0820082938
 10
1.3993200113
 20
21.0854510657
 10
1.4067121545
 20
21.088774245
  0
LINE
  5
36A
100
AcDbEntity
  8
ASSI
100
AcDbLine
 62
7
  6
CONTINUOUS
 10
-0.8071062175
 20
17.7955180519
 11
-1.2761396883
 21
17.5359433407
  0
LINE
  5
36B
100
AcDbEntity
  8
ASSI
100
AcDbLine
 62
7
  6
CONTINUOUS
 10
-2.0060827161
 20
17.131974835
 11
-3.3430035055
 21
16.3920898385
  0
LWPOLYLINE
  5
36C
100
AcDbEntity
  8
ASSI
100
AcDbPolyline
 62
250
  6
CONTINUOUS
 90
8
 70
0
 10
-1.6027092197
 20
19.4218572818
 10
-1.6000524253
 20
19.4233118505
 10
-1.5863282001
 20
19.428625942
 10
-1.5712668216
 20
19.4310622799
 10
-1.555109123
 20
19.4305819068
 10
-1.5381134674
 20
19.4271925041
 10
-1.520551617
 20
19.4209482686
 10
-1.5027043876
 20
19.4119490462
  0
LWPOLYLINE
  5
36D
100
AcDbEntity
  8
ASSI
100
AcDbPolyline
 62
250
  6
CONTINUOUS
 90
13
 70
0
 10
0.1214739998
 20
19.871204829
 10
0.1492681552
 20
19.8863163038
 10
0.1790284256
 20
19.8996772675
 10
0.210754811
 20
19.9112877201
 10
0.2448125525
 20
19.9212488502
 10
0.280836409
 20
19.9294594692
 10
0.3177306573
 20
19.9356160115
 10
0.3555345937
 20
19.939626505
 10
0.3942089219
 20
19.9415829219
 10
0.4325400293
 20
19.9414576133
 10
0.4701233784
 20
19.9392413629
 10
0.5073635066
 20
19.9349433871
 10
0.5719505339
 20
19.9238131049
  0
LINE
  5
36E
100
AcDbEntity
  8
ASSI
100
AcDbLine
 62
7
  6
CONTINUOUS
 10
-2.6795414597
 20
16.6552018773
 11
-3.2590005014
 21
16.3435875568
  0
LINE
  5
36F
100
AcDbEntity
  8
ASSI
100
AcDbLine
 62
250
  6
CONTINUOUS
 10
-2.5823481199
 20
16.6437509211
 11
-3.2018619126
 21
16.3105964517
  0
LWPOLYLINE
  5
370
100
AcDbEntity
  8
ASSI
100
AcDbPolyline
 62
250
  6
CONTINUOUS
 90
13
 70
0
 10
0.264803891
 20
19.6422338868
 10
0.2784664568
 20
19.6489538042
 10
0.293385799
 20
19.6548300037
 10
0.3094332067
 20
19.6597867354
 10
0.3265007905
 20
19.6637580085
 10
0.3444192573
 20
19.6666891878
 10
0.3629507415
 20
19.6685341597
 10
0.3818868442
 20
19.6692789256
 10
0.401103445
 20
19.6689164505
 10
0.4204792381
 20
19.6674178444
 10
0.4398550942
 20
19.6647701435
 10
0.459022094
 20
19.6610057932
 10
0.4777797899
 20
19.6561568414
  0
LWPOLYLINE
  5
371
100
AcDbEntity
  8
ASSI
100
AcDbPolyline
 62
250
  6
CONTINUOUS
 90
27
 70
0
 10
-1.747087331
 20
18.4718959478
 10
-1.7572013702
 20
18.4673878716
 10
-1.76741094
 20
18.4627126571
 10
-1.7777976041
 20
18.4578441719
 10
-1.788318902
 20
18.4527668049
 10
-1.7989495455
 20
18.4473619822
 10
-1.8097557098
 20
18.4415867521
 10
-1.820717245
 20
18.4354267818
 10
-1.8316818747
 20
18.4287857169
 10
-1.8426431987
 20
18.421632141
 10
-1.853616292
 20
18.413923221
 10
-1.8644687793
 20
18.4055239008
 10
-1.875187354
 20
18.3963957249
 10
-1.8857444498
 20
18.3865061897
 10
-1.8959671217
 20
18.3757159455
 10
-1.9058539287
 20
18.3638648516
 10
-1.9152872178
 20
18.3510845457
 10
-1.9238795014
 20
18.3376852204
 10
-1.9314505262
 20
18.3235747277
 10
-1.9379702611
 20
18.3089251166
 10
-1.9432775839
 20
18.2944564057
 10
-1.9471966382
 20
18.2802866365
 10
-1.9497838964
 20
18.2664086888
 10
-1.9512969518
 20
18.2533163594
 10
-1.9518418089
 20
18.2411687384
 10
-1.9513390564
 20
18.2298201982
 10
-1.9498121561
 20
18.2192651407
  0
LINE
  5
372
100
AcDbEntity
  8
ASSI
100
AcDbLine
 62
250
  6
CONTINUOUS
 10
-1.7061831403
 20
18.4898734542
 11
-1.747087331
 21
18.4718959478
  0
LWPOLYLINE
  5
373
100
AcDbEntity
  8
ASSI
100
AcDbPolyline
 62
250
  6
CONTINUOUS
 90
5
 70
0
 10
-1.6665142412
 20
19.3313246279
 10
-1.6282133171
 20
19.3476329618
 10
-1.5879732685
 20
19.3664483384
 10
-1.5461182858
 20
19.3878317582
 10
-1.5027043876
 20
19.4119490462
  0
LWPOLYLINE
  5
374
100
AcDbEntity
  8
ASSI
100
AcDbPolyline
 62
250
  6
CONTINUOUS
 90
6
 70
0
 10
1.4067121545
 20
21.088774245
 10
1.4142251093
 20
21.0919680789
 10
1.421847368
 20
21.0950171228
 10
1.4296550934
 20
21.0979388179
 10
1.4376685389
 20
21.1007220959
 10
1.4458529689
 20
21.1033349932
  0
LWPOLYLINE
  5
375
100
AcDbEntity
  8
ASSI
100
AcDbPolyline
 62
250
  6
CONTINUOUS
 90
13
 70
0
 10
3.4768814292
 20
21.0412393329
 10
3.4838735674
 20
21.0440616332
 10
3.4907665506
 20
21.046980914
 10
3.4975543943
 20
21.0499968051
 10
3.5042022478
 20
21.0530939187
 10
3.5107341961
 20
21.0562860893
 10
3.5172260934
 20
21.0596190402
 10
3.5236694944
 20
21.0630959438
 10
3.5300460072
 20
21.0667166486
 10
3.5364034709
 20
21.0705258837
 10
3.5427409104
 20
21.0745411152
 10
3.5490151474
 20
21.0787503903
 10
3.5552033585
 20
21.0831556881
  0
LINE
  5
376
100
AcDbEntity
  8
DRAFT
100
AcDbLine
 62
7
  6
CONTINUOUS
 10
-6.2553372954
 20
18.0736348687
 11
-7.1516055335
 21
17.7534868407
  0
LWPOLYLINE
  5
377
100
AcDbEntity
  8
ASSI
100
AcDbPolyline
 62
250
  6
CONTINUOUS
 90
3
 70
0
 10
-2.6641835505
 20
16.66117051
 10
-2.6756887379
 20
16.6571161427
 10
-2.6795414597
 20
16.6552018773
  0
LWPOLYLINE
  5
378
100
AcDbEntity
  8
ASSI
100
AcDbPolyline
 62
250
  6
CONTINUOUS
 90
3
 70
0
 10
-1.6687855685
 20
18.7890300434
 10
-1.7364606623
 20
18.7658990121
 10
-1.751600122
 20
18.7607939545
  0
LWPOLYLINE
  5
379
100
AcDbEntity
  8
0
100
AcDbPolyline
 62
7
  6
CONTINUOUS
 90
3
 70
0
 10
-10.6653898053
 20
-19.2947197204
 10
-10.6578162643
 20
-19.29318749
 10
-10.6508859661
 20
-19.2902129499
  0
LWPOLYLINE
  5
37A
100
AcDbEntity
  8
DRAFT
100
AcDbPolyline
 62
7
  6
CONTINUOUS
 90
3
 70
0
 10
-10.6653890645
 20
-19.2947196516
 10
-10.6578028524
 20
-19.2931862046
 10
-10.6508859661
 20
-19.2902129499
  0
LWPOLYLINE
  5
37B
100
AcDbEntity
  8
DRAFT
100
AcDbPolyline
 62
7
  6
CONTINUOUS
 90
9
 70
0
 10
-8.7266433978
 20
-17.1310605731
 10
-8.7211193045
 20
-17.1301471922
 10
-8.7140618018
 20
-17.1276915156
 10
-8.7077301301
 20
-17.1236622995
 10
-8.7022130763
 20
-17.1181513853
 10
-8.6977770016
 20
-17.1114342974
 10
-8.6944728228
 20
-17.1034542223
 10
-8.692249623
 20
-17.0942679737
 10
-8.6912210135
 20
-17.0843215168
  0
LWPOLYLINE
  5
37C
100
AcDbEntity
  8
DRAFT
100
AcDbPolyline
 62
7
  6
CONTINUOUS
 90
4
 70
0
 10
-9.6561704811
 20
-16.5706616125
 10
-9.6513499778
 20
-16.5698678415
 10
-9.6441658628
 20
-16.5673620754
 10
-9.637526191
 20
-16.5633121695
  0
LWPOLYLINE
  5
37D
100
AcDbEntity
  8
0
100
AcDbPolyline
 62
7
  6
CONTINUOUS
 90
3
 70
0
 10
-8.7266439341
 20
-17.1310606192
 10
-8.7211454345
 20
-17.1301597677
 10
-8.7140911981
 20
-17.127705663
  0
LWPOLYLINE
  5
37E
100
AcDbEntity
  8
0
100
AcDbPolyline
 62
7
  6
CONTINUOUS
 90
4
 70
0
 10
-9.6561712907
 20
-16.5706616882
 10
-9.6513185283
 20
-16.5698671094
 10
-9.6441462068
 20
-16.5673616179
 10
-9.637526191
 20
-16.5633121694
  0
LWPOLYLINE
  5
37F
100
AcDbEntity
  8
DRAFT
100
AcDbPolyline
 62
7
  6
CONTINUOUS
 90
7
 70
0
 10
-8.2930455294
 20
-16.7848744593
 10
-8.2878795058
 20
-16.7840546129
 10
-8.2807362932
 20
-16.7815234778
 10
-8.2742772015
 20
-16.7774692038
 10
-8.2688221414
 20
-16.7720845138
 10
-8.2644777496
 20
-16.7654336487
 10
-8.2611373893
 20
-16.7574523677
  0
LINE
  5
380
100
AcDbEntity
  8
0
100
AcDbLine
 62
7
  6
CONTINUOUS
 10
-8.2930460943
 20
-16.7848745102
 11
-8.2878795058
 21
-16.7840546129
  0
LWPOLYLINE
  5
381
100
AcDbEntity
  8
0
100
AcDbPolyline
 62
7
  6
CONTINUOUS
 90
3
 70
0
 10
-11.872996239
 20
-17.6607297144
 10
-11.8659322614
 20
-17.6598000775
 10
-11.8465402561
 20
-17.6550768335
  0
LWPOLYLINE
  5
382
100
AcDbEntity
  8
0
100
AcDbPolyline
 62
7
  6
CONTINUOUS
 90
4
 70
0
 10
-8.7592637168
 20
-15.1094030799
 10
-8.766988344
 20
-15.1103646145
 10
-8.7741606654
 20
-15.1128701061
 10
-8.7807806811
 20
-15.1169195545
  0
LWPOLYLINE
  5
383
100
AcDbEntity
  8
DRAFT
100
AcDbPolyline
 62
7
  6
CONTINUOUS
 90
16
 70
0
 10
-11.8729541421
 20
-17.6607258589
 10
-11.8660039421
 20
-17.6598760796
 10
-11.8560617221
 20
-17.6579005909
 10
-11.8465402561
 20
-17.6550768335
 10
-11.8374435441
 20
-17.6513967431
 10
-11.828767586
 20
-17.6468683839
 10
-11.8205945998
 20
-17.6415346689
 10
-11.8129293668
 20
-17.635387942
 10
-11.8057671056
 20
-17.6284358592
 10
-11.7991756893
 20
-17.6207443021
 10
-11.7931605446
 20
-17.6123062407
 10
-11.7877162449
 20
-17.603128705
 10
-11.7828943831
 20
-17.5932986657
 10
-11.7787121567
 20
-17.5828451134
 10
-11.7751523681
 20
-17.5717390575
 10
-11.7722150174
 20
-17.5599804983
  0
LINE
  5
384
100
AcDbEntity
  8
DRAFT
100
AcDbLine
 62
250
  6
CONTINUOUS
 10
-8.7376781636
 20
-17.1306134511
 11
-8.7267926648
 21
-17.1295428617
  0
LWPOLYLINE
  5
385
100
AcDbEntity
  8
DRAFT
100
AcDbPolyline
 62
7
  6
CONTINUOUS
 90
7
 70
0
 10
-9.6806287088
 20
-14.549618273
 10
-9.6893154473
 20
-14.5491105534
 10
-9.6971875679
 20
-14.5500845319
 10
-9.7042450705
 20
-14.5525402084
 10
-9.7105767422
 20
-14.5565694246
 10
-9.716093796
 20
-14.5620803388
 10
-9.7175952915
 20
-14.5640019465
  0
LWPOLYLINE
  5
386
100
AcDbEntity
  8
0
100
AcDbPolyline
 62
7
  6
CONTINUOUS
 90
4
 70
0
 10
-9.6806287087
 20
-14.549618273
 10
-9.689299116
 20
-14.5491026937
 10
-9.6971614378
 20
-14.5500719564
 10
-9.7042156742
 20
-14.552526061
  0
LWPOLYLINE
  5
387
100
AcDbEntity
  8
0
100
AcDbPolyline
 62
7
  6
CONTINUOUS
 90
4
 70
0
 10
-13.0640360382
 20
-13.1407574401
 10
-13.1293558867
 20
-13.1352389004
 10
-13.1926518481
 20
-13.1370508488
 10
-13.2525000552
 20
-13.1461272348
  0
LWPOLYLINE
  5
388
100
AcDbEntity
  8
DRAFT
100
AcDbPolyline
 62
7
  6
CONTINUOUS
 90
3
 70
0
 10
-12.4367756424
 20
-15.4112390817
 10
-12.371649299
 20
-15.4167955158
 10
-12.3076204917
 20
-15.4148756309
  0
LINE
  5
389
100
AcDbEntity
  8
DRAFT
100
AcDbLine
 62
7
  6
CONTINUOUS
 10
-13.4594059594
 20
-11.7311414368
 11
-13.5206597815
 21
-11.7242324324
  0
LINE
  5
38A
100
AcDbEntity
  8
0
100
AcDbLine
 62
7
  6
CONTINUOUS
 10
-9.6806287087
 20
-14.549618273
 11
-9.4148434987
 21
-14.5913796096
  0
LINE
  5
38B
100
AcDbEntity
  8
DRAFT
100
AcDbLine
 62
7
  6
CONTINUOUS
 10
-9.414843499
 20
-14.5913796095
 11
-9.6806287088
 21
-14.549618273
  0
LWPOLYLINE
  5
38C
100
AcDbEntity
  8
0
100
AcDbPolyline
 62
7
  6
CONTINUOUS
 90
4
 70
0
 10
-13.1434397602
 20
-11.8075490863
 10
-13.2709138053
 20
-11.7688806175
 10
-13.3966538123
 20
-11.7411083995
 10
-13.5206597813
 20
-11.7242324324
  0
LWPOLYLINE
  5
38D
100
AcDbEntity
  8
DRAFT
100
AcDbPolyline
 62
7
  6
CONTINUOUS
 90
4
 70
0
 10
-13.0312501467
 20
-12.4718583515
 10
-13.1224768078
 20
-12.4435683653
 10
-13.2125440078
 20
-12.4228615474
 10
-13.3014517468
 20
-12.409737898
  0
LWPOLYLINE
  5
38E
100
AcDbEntity
  8
0
100
AcDbPolyline
 62
7
  6
CONTINUOUS
 90
4
 70
0
 10
-8.4472219336
 20
-15.534220282
 10
-8.4519173608
 20
-15.5225898573
 10
-8.4576737574
 20
-15.5109845694
 10
-8.4644911234
 20
-15.4994044182
  0
LWPOLYLINE
  5
38F
100
AcDbEntity
  8
DRAFT
100
AcDbPolyline
 62
7
  6
CONTINUOUS
 90
4
 70
0
 10
-9.094094152
 20
-16.9877248574
 10
-9.0901900752
 20
-17.0000092809
 10
-9.0854101172
 20
-17.0118588178
 10
-9.0797669308
 20
-17.0232479321
  0
LWPOLYLINE
  5
390
100
AcDbEntity
  8
DRAFT
100
AcDbPolyline
 62
7
  6
CONTINUOUS
 90
13
 70
0
 10
-9.3242127203
 20
-14.6925068666
 10
-9.3281167971
 20
-14.680222443
 10
-9.3328967551
 20
-14.6683729062
 10
-9.3385525943
 20
-14.656958256
 10
-9.3452082521
 20
-14.6458044133
 10
-9.3527397911
 20
-14.6350854574
 10
-9.3607753989
 20
-14.6253236253
 10
-9.3693388184
 20
-14.616564
 10
-9.3784063067
 20
-14.6087614986
 10
-9.387534823
 20
-14.60230311
 10
-9.396576687
 20
-14.5973178304
 10
-9.405679579
 20
-14.5936766636
 10
-9.414843499
 20
-14.5913796095
  0
LWPOLYLINE
  5
391
100
AcDbEntity
  8
0
100
AcDbPolyline
 62
7
  6
CONTINUOUS
 90
13
 70
0
 10
-9.094094152
 20
-16.9877248574
 10
-9.0902050485
 20
-16.9999817784
 10
-9.0854340745
 20
-17.0118148138
 10
-9.07978123
 20
-17.0232239635
 10
-9.0731210586
 20
-17.0343878802
 10
-9.0655790166
 20
-17.0451279113
 10
-9.0575314735
 20
-17.0549080986
 10
-9.0489527764
 20
-17.0636797332
 10
-9.0398685782
 20
-17.071491524
 10
-9.030732206
 20
-17.0779536406
 10
-9.0216947691
 20
-17.0829361395
 10
-9.0126051581
 20
-17.0865689641
 10
-9.0034633733
 20
-17.0888521145
  0
LWPOLYLINE
  5
392
100
AcDbEntity
  8
0
100
AcDbPolyline
 62
7
  6
CONTINUOUS
 90
4
 70
0
 10
-9.3242127203
 20
-14.6925068666
 10
-9.3281018238
 20
-14.6802499456
 10
-9.3328727978
 20
-14.6684169102
 10
-9.3385256423
 20
-14.6570077605
  0
LINE
  5
393
100
AcDbEntity
  8
DRAFT
100
AcDbLine
 62
7
  6
CONTINUOUS
 10
-9.7228905349
 20
-14.6298648617
 11
-9.5341585684
 21
-15.3375717853
  0
LINE
  5
394
100
AcDbEntity
  8
DRAFT
100
AcDbLine
 62
7
  6
CONTINUOUS
 10
-9.2828261186
 20
-16.2800179337
 11
-9.094094152
 21
-16.9877248574
  0
LINE
  5
395
100
AcDbEntity
  8
0
100
AcDbLine
 62
7
  6
CONTINUOUS
 10
-9.094094152
 20
-16.9877248574
 11
-9.2828261186
 21
-16.2800179337
  0
LINE
  5
396
100
AcDbEntity
  8
0
100
AcDbLine
 62
7
  6
CONTINUOUS
 10
-9.5341585684
 20
-15.3375717853
 11
-9.7228905349
 21
-14.6298648618
  0
LINE
  5
397
100
AcDbEntity
  8
0
100
AcDbLine
 62
7
  6
CONTINUOUS
 10
-9.3242127203
 20
-14.6925068666
 11
-9.1354807538
 21
-15.4002137903
  0
LINE
  5
398
100
AcDbEntity
  8
0
100
AcDbLine
 62
7
  6
CONTINUOUS
 10
-8.8841483039
 20
-16.3426599386
 11
-8.6954163374
 21
-17.0503668623
  0
LINE
  5
399
100
AcDbEntity
  8
DRAFT
100
AcDbLine
 62
7
  6
CONTINUOUS
 10
-8.6954163374
 20
-17.0503668623
 11
-8.8841483039
 21
-16.3426599386
  0
LINE
  5
39A
100
AcDbEntity
  8
DRAFT
100
AcDbLine
 62
7
  6
CONTINUOUS
 10
-9.1354807538
 20
-15.4002137903
 11
-9.3242127203
 21
-14.6925068666
  0
LWPOLYLINE
  5
39B
100
AcDbEntity
  8
DRAFT
100
AcDbPolyline
 62
7
  6
CONTINUOUS
 90
7
 70
0
 10
-10.0628050946
 20
-19.5626316012
 10
-10.0602069618
 20
-19.5743057203
 10
-10.0564429846
 20
-19.5863440656
 10
-10.0517019814
 20
-19.5981566041
 10
-10.045937932
 20
-19.6097326997
 10
-10.0391968566
 20
-19.6210829884
 10
-10.0318056344
 20
-19.6316493455
  0
LWPOLYLINE
  5
39C
100
AcDbEntity
  8
DRAFT
100
AcDbPolyline
 62
7
  6
CONTINUOUS
 90
7
 70
0
 10
-10.2080104191
 20
-15.2576060688
 10
-10.2054122862
 20
-15.2692801879
 10
-10.201648309
 20
-15.2813185332
 10
-10.1969073059
 20
-15.2931310717
 10
-10.1911432565
 20
-15.3047071672
 10
-10.1844021811
 20
-15.316057456
 10
-10.1770109589
 20
-15.326623813
  0
LWPOLYLINE
  5
39D
100
AcDbEntity
  8
0
100
AcDbPolyline
 62
7
  6
CONTINUOUS
 90
4
 70
0
 10
-9.2693593237
 20
-17.5743175108
 10
-9.2719525521
 20
-17.5626590128
 10
-9.2757191251
 20
-17.5506001053
 10
-9.2804655003
 20
-17.5387676463
  0
LWPOLYLINE
  5
39E
100
AcDbEntity
  8
0
100
AcDbPolyline
 62
7
  6
CONTINUOUS
 90
4
 70
0
 10
-8.2102933898
 20
-16.4226505169
 10
-8.2128866183
 20
-16.4109920189
 10
-8.2166531912
 20
-16.3989331114
 10
-8.2213995665
 20
-16.3871006524
  0
LINE
  5
39F
100
AcDbEntity
  8
0
100
AcDbLine
 62
7
  6
CONTINUOUS
 10
-9.7254845392
 20
-14.6178114324
 11
-9.7228905349
 21
-14.6298648618
  0
LINE
  5
3A0
100
AcDbEntity
  8
DRAFT
100
AcDbLine
 62
7
  6
CONTINUOUS
 10
-8.6928233059
 20
-17.0624452887
 11
-8.6954163374
 21
-17.0503668623
  0
LWPOLYLINE
  5
3A1
100
AcDbEntity
  8
0
100
AcDbPolyline
 62
7
  6
CONTINUOUS
 90
7
 70
0
 10
-9.9788054039
 20
-16.1109693477
 10
-9.9773799494
 20
-16.1222800091
 10
-9.9747629288
 20
-16.1341582939
 10
-9.9710849387
 20
-16.146011442
 10
-9.9663895115
 20
-16.1576418667
 10
-9.9606331148
 20
-16.1692471548
 10
-9.9538157488
 20
-16.1808273062
  0
LINE
  5
3A2
100
AcDbEntity
  8
0
100
AcDbLine
 62
7
  6
CONTINUOUS
 10
-9.7268835641
 20
-14.6065082125
 11
-9.7254845392
 21
-14.6178114324
  0
LWPOLYLINE
  5
3A3
100
AcDbEntity
  8
0
100
AcDbPolyline
 62
7
  6
CONTINUOUS
 90
16
 70
0
 10
-10.3423586546
 20
7.7678089616
 10
-10.3450418344
 20
7.8422259527
 10
-10.3526399791
 20
7.9180658141
 10
-10.3651530888
 20
7.9953285459
 10
-10.3827286487
 20
8.07454294
 10
-10.4052191734
 20
8.1551802044
 10
-10.4321822073
 20
8.2356539633
 10
-10.4637063186
 20
8.3159609786
 10
-10.499702939
 20
8.3961044883
 10
-10.5394639074
 20
8.47450783
 10
-10.5830637686
 20
8.5511365434
 10
-10.6304279777
 20
8.6260250888
 10
-10.6806247393
 20
8.6977001848
 10
-10.7333434547
 20
8.7656707374
 10
-10.7888947226
 20
8.8304278405
 10
-10.8472785429
 20
8.8919714941
  0
LWPOLYLINE
  5
3A4
100
AcDbEntity
  8
DRAFT
100
AcDbPolyline
 62
7
  6
CONTINUOUS
 90
25
 70
0
 10
-10.3423586546
 20
7.7678089617
 10
-10.3433741014
 20
7.8136742514
 10
-10.3463511454
 20
7.8603235283
 10
-10.3512897864
 20
7.9077567923
 10
-10.3582129442
 20
7.9561007769
 10
-10.367097699
 20
8.0052287487
 10
-10.3778752921
 20
8.0547605073
 10
-10.3905604098
 20
8.1046991858
 10
-10.4051383658
 20
8.1550416512
 10
-10.4214963414
 20
8.2053983043
 10
-10.4396481479
 20
8.2557692552
 10
-10.4595799741
 20
8.3061543938
 10
-10.481137568
 20
8.3561637906
 10
-10.5043335441
 20
8.4057945302
 10
-10.5291552879
 20
8.4550495281
 10
-10.5554107045
 20
8.5035476009
 10
-10.5831109178
 20
8.5512828757
 10
-10.6122448039
 20
8.5982612253
 10
-10.6425868964
 20
8.6441190855
 10
-10.6741465698
 20
8.6888477624
 10
-10.7069144494
 20
8.7324559498
 10
-10.7406369455
 20
8.7746061649
 10
-10.7752295282
 20
8.8151859135
 10
-10.8107767273
 20
8.8543076899
 10
-10.8472785428
 20
8.891971494
  0
LWPOLYLINE
  5
3A5
100
AcDbEntity
  8
0
100
AcDbPolyline
 62
7
  6
CONTINUOUS
 90
4
 70
0
 10
-8.6912192626
 20
-17.0842765222
 10
-8.6914233082
 20
-17.0737235116
 10
-8.6928223332
 20
-17.0624202917
 10
-8.6954163374
 20
-17.0503668623
  0
LWPOLYLINE
  5
3A6
100
AcDbEntity
  8
DRAFT
100
AcDbPolyline
 62
7
  6
CONTINUOUS
 90
4
 70
0
 10
-9.7270854028
 20
-14.5959338268
 10
-9.7268820078
 20
-14.6064682172
 10
-9.7254835665
 20
-14.6177864354
 10
-9.7228905349
 20
-14.6298648617
  0
LWPOLYLINE
  5
3A7
100
AcDbEntity
  8
DRAFT
100
AcDbPolyline
 62
7
  6
CONTINUOUS
 90
3
 70
0
 10
-8.6912210135
 20
-17.0843215168
 10
-8.6914248645
 20
-17.0737635068
 10
-8.6928233059
 20
-17.0624452887
  0
LINE
  5
3A8
100
AcDbEntity
  8
0
100
AcDbLine
 62
7
  6
CONTINUOUS
 10
-9.9789788238
 20
-16.1002551149
 11
-9.9788054039
 21
-16.1109693477
  0
LINE
  5
3A9
100
AcDbEntity
  8
0
100
AcDbLine
 62
7
  6
CONTINUOUS
 10
-10.6301752879
 20
-17.8057754224
 11
-10.6301752879
 21
-19.244437869
  0
LINE
  5
3AA
100
AcDbEntity
  8
DRAFT
100
AcDbLine
 62
7
  6
CONTINUOUS
 10
-10.6301752879
 20
-19.244437869
 11
-10.6301752879
 21
-17.8057754223
  0
LINE
  5
3AB
100
AcDbEntity
  8
0
100
AcDbLine
 62
7
  6
CONTINUOUS
 10
-10.3423586546
 20
7.7678089616
 11
-10.3423586546
 21
5.6141943978
  0
LINE
  5
3AC
100
AcDbEntity
  8
DRAFT
100
AcDbLine
 62
7
  6
CONTINUOUS
 10
-10.3423586546
 20
5.6141943978
 11
-10.3423586546
 21
7.7678089617
  0
LINE
  5
3AD
100
AcDbEntity
  8
ASSI
100
AcDbLine
 62
250
  6
CONTINUOUS
 10
-10.0900872193
 20
20.8153561982
 11
-10.0900872193
 21
20.4460452086
  0
LINE
  5
3AE
100
AcDbEntity
  8
ASSI
100
AcDbLine
 62
7
  6
CONTINUOUS
 10
-10.0339551794
 20
20.8955736056
 11
-10.0339551794
 21
20.526262616
  0
LINE
  5
3AF
100
AcDbEntity
  8
DRAFT
100
AcDbLine
 62
7
  6
CONTINUOUS
 10
-8.0981359928
 20
20.2715849502
 11
-8.0981359928
 21
20.1914985519
  0
LWPOLYLINE
  5
3B0
100
AcDbEntity
  8
ASSI
100
AcDbPolyline
 62
250
  6
CONTINUOUS
 90
9
 70
0
 10
-10.0339551794
 20
20.526262616
 10
-10.0341229349
 20
20.521533884
 10
-10.0360514656
 20
20.5095870096
 10
-10.0401086689
 20
20.4978381977
 10
-10.0462482301
 20
20.4864015433
 10
-10.0544099701
 20
20.4753885288
 10
-10.0645124698
 20
20.4649149105
 10
-10.0764469998
 20
20.4550981798
 10
-10.0900872193
 20
20.4460452086
  0
LWPOLYLINE
  5
3B1
100
AcDbEntity
  8
ASSI
100
AcDbPolyline
 62
250
  6
CONTINUOUS
 90
9
 70
0
 10
-10.0339551894
 20
20.8955370786
 10
-10.0341230914
 20
20.8908426692
 10
-10.0360469754
 20
20.8789157738
 10
-10.0401034548
 20
20.8671610444
 10
-10.0462508958
 20
20.8557083483
 10
-10.0544219298
 20
20.8446854495
 10
-10.0645271255
 20
20.8342124074
 10
-10.0764584237
 20
20.8244007409
 10
-10.0900872193
 20
20.8153561982
  0
LINE
  5
3B2
100
AcDbEntity
  8
ASSI
100
AcDbLine
 62
250
  6
CONTINUOUS
 10
-6.5764558279
 20
20.6770770157
 11
-6.5767808735
 21
20.6712188925
  0
LINE
  5
3B3
100
AcDbEntity
  8
DRAFT
100
AcDbLine
 62
7
  6
CONTINUOUS
 10
-10.6308728806
 20
-19.2550022383
 11
-10.6301752879
 21
-19.244437869
  0
LWPOLYLINE
  5
3B4
100
AcDbEntity
  8
DRAFT
100
AcDbPolyline
 62
7
  6
CONTINUOUS
 90
4
 70
0
 10
-10.2086209334
 20
-15.2253591012
 10
-10.209583273
 20
-15.2357438642
 10
-10.2093797682
 20
-15.2464928534
 10
-10.2080134825
 20
-15.2575812072
  0
LWPOLYLINE
  5
3B5
100
AcDbEntity
  8
DRAFT
100
AcDbPolyline
 62
7
  6
CONTINUOUS
 90
4
 70
0
 10
-10.0634156089
 20
-19.5303846336
 10
-10.0643779485
 20
-19.5407693967
 10
-10.0641744437
 20
-19.5515183859
 10
-10.062808158
 20
-19.5626067396
  0
LWPOLYLINE
  5
3B6
100
AcDbEntity
  8
DRAFT
100
AcDbPolyline
 62
7
  6
CONTINUOUS
 90
13
 70
0
 10
-9.2687518728
 20
-17.6065396168
 10
-9.2677895333
 20
-17.5961548537
 10
-9.267993038
 20
-17.5854058645
 10
-9.2693623871
 20
-17.5742926492
 10
-9.27196052
 20
-17.5626185301
 10
-9.2757244971
 20
-17.5505801848
 10
-9.2804655003
 20
-17.5387676463
 10
-9.2862295497
 20
-17.5271915507
 10
-9.2929706251
 20
-17.515841262
 10
-9.3003618473
 20
-17.5052749049
 10
-9.3082942568
 20
-17.4956785212
 10
-9.3168768132
 20
-17.4868660691
 10
-9.3261095164
 20
-17.4788375488
  0
LWPOLYLINE
  5
3B7
100
AcDbEntity
  8
0
100
AcDbPolyline
 62
7
  6
CONTINUOUS
 90
13
 70
0
 10
-10.2086209334
 20
-15.2253591008
 10
-10.2095880746
 20
-15.2357161163
 10
-10.2093874508
 20
-15.246448457
 10
-10.2080190621
 20
-15.2575561229
 10
-10.2054202541
 20
-15.2692397052
 10
-10.2016536811
 20
-15.2812986127
 10
-10.1969073059
 20
-15.2931310717
 10
-10.1911314063
 20
-15.3047255906
 10
-10.1843757045
 20
-15.3160936611
 10
-10.176977329
 20
-15.3266679841
 10
-10.1690486562
 20
-15.3362594599
 10
-10.1604773097
 20
-15.3450571883
 10
-10.1512632897
 20
-15.3530611692
  0
LWPOLYLINE
  5
3B8
100
AcDbEntity
  8
0
100
AcDbPolyline
 62
7
  6
CONTINUOUS
 90
13
 70
0
 10
-10.0634156089
 20
-19.5303846336
 10
-10.0643827501
 20
-19.5407416489
 10
-10.0641821263
 20
-19.5514739895
 10
-10.0628137376
 20
-19.5625816553
 10
-10.0602149296
 20
-19.5742652376
 10
-10.0564483567
 20
-19.5863241451
 10
-10.0517019814
 20
-19.5981566041
 10
-10.0459260818
 20
-19.609751123
 10
-10.03917038
 20
-19.6211191935
 10
-10.0317720045
 20
-19.6316935165
 10
-10.0238433317
 20
-19.6412849923
 10
-10.0152719853
 20
-19.6500827207
 10
-10.0060579652
 20
-19.6580867016
  0
LWPOLYLINE
  5
3B9
100
AcDbEntity
  8
0
100
AcDbPolyline
 62
7
  6
CONTINUOUS
 90
4
 70
0
 10
-9.2687518728
 20
-17.6065396167
 10
-9.2677847316
 20
-17.5961826014
 10
-9.2679853554
 20
-17.5854502609
 10
-9.2693537441
 20
-17.5743425951
  0
LINE
  5
3BA
100
AcDbEntity
  8
DRAFT
100
AcDbLine
 62
7
  6
CONTINUOUS
 10
-10.1595058118
 20
-14.9320910533
 11
-10.2086209334
 21
-15.2253591012
  0
LINE
  5
3BB
100
AcDbEntity
  8
0
100
AcDbLine
 62
7
  6
CONTINUOUS
 10
-10.2086209334
 20
-15.2253591008
 11
-10.1595058118
 21
-14.9320910534
  0
LINE
  5
3BC
100
AcDbEntity
  8
ASSI
100
AcDbLine
 62
250
  6
CONTINUOUS
 10
-3.7509654472
 20
22.1158596142
 11
-3.747876849
 21
22.133370123
  0
LWPOLYLINE
  5
3BD
100
AcDbEntity
  8
0
100
AcDbPolyline
 62
7
  6
CONTINUOUS
 90
4
 70
0
 10
-11.8924324749
 20
-15.0157096796
 10
-11.8783297153
 20
-14.9440171046
 10
-11.8697685507
 20
-14.86754775
 10
-11.8667489813
 20
-14.7863016156
  0
LWPOLYLINE
  5
3BE
100
AcDbEntity
  8
DRAFT
100
AcDbPolyline
 62
7
  6
CONTINUOUS
 90
4
 70
0
 10
-13.6088193249
 20
-13.5363318153
 10
-13.6229356319
 20
-13.6080394503
 10
-13.6314884611
 20
-13.6844745597
 10
-13.6344778125
 20
-13.7656371433
  0
LINE
  5
3BF
100
AcDbEntity
  8
DRAFT
100
AcDbLine
 62
7
  6
CONTINUOUS
 10
-11.9819005419
 20
-16.2676597762
 11
-12.1495726329
 21
-17.044142904
  0
LINE
  5
3C0
100
AcDbEntity
  8
0
100
AcDbLine
 62
7
  6
CONTINUOUS
 10
-12.1495726329
 20
-17.044142904
 11
-11.981900542
 21
-16.2676597764
  0
LINE
  5
3C1
100
AcDbEntity
  8
0
100
AcDbLine
 62
7
  6
CONTINUOUS
 10
-11.6116461039
 20
-16.8163919174
 11
-11.7722150174
 21
-17.559980498
  0
LINE
  5
3C2
100
AcDbEntity
  8
DRAFT
100
AcDbLine
 62
7
  6
CONTINUOUS
 10
-11.7722150174
 20
-17.5599804983
 11
-11.6116461039
 21
-16.8163919174
  0
LWPOLYLINE
  5
3C3
100
AcDbEntity
  8
ASSI
100
AcDbPolyline
 62
250
  6
CONTINUOUS
 90
13
 70
0
 10
-6.4123738735
 20
20.683841878
 10
-6.4067840369
 20
20.7079997815
 10
-6.4035569703
 20
20.7329436859
 10
-6.4027446141
 20
20.7582721632
 10
-6.4043600471
 20
20.7835775848
 10
-6.4083772773
 20
20.8084527109
 10
-6.4147316691
 20
20.8324972427
 10
-6.4233209735
 20
20.8553242169
 10
-6.4340069713
 20
20.8765662564
 10
-6.4466177108
 20
20.8958815061
 10
-6.4609502593
 20
20.912959099
 10
-6.4767739629
 20
20.9275241656
 10
-6.4938341689
 20
20.9393422747
  0
LWPOLYLINE
  5
3C4
100
AcDbEntity
  8
ASSI
100
AcDbPolyline
 62
250
  6
CONTINUOUS
 90
13
 70
0
 10
-4.8308143926
 20
20.7222042728
 10
-4.825224522
 20
20.746362378
 10
-4.8219974621
 20
20.7713064712
 10
-4.8211851475
 20
20.7966351139
 10
-4.8228006513
 20
20.8219406789
 10
-4.8268179743
 20
20.8468159102
 10
-4.8331724636
 20
20.8708604775
 10
-4.841761853
 20
20.8936874189
 10
-4.852447909
 20
20.9149293682
 10
-4.8650586551
 20
20.9342444676
 10
-4.87939114
 20
20.9513218688
 10
-4.8952147033
 20
20.9658867361
 10
-4.912274688
 20
20.9777046695
  0
LWPOLYLINE
  5
3C5
100
AcDbEntity
  8
ASSI
100
AcDbPolyline
 62
250
  6
CONTINUOUS
 90
13
 70
0
 10
-3.7842131488
 20
20.9004794192
 10
-3.789803196
 20
20.8763203328
 10
-3.793030225
 20
20.8513754179
 10
-3.7938423568
 20
20.826046166
 10
-3.7922265813
 20
20.8007402502
 10
-3.7882089631
 20
20.7758649259
 10
-3.7818542076
 20
20.7518204801
 10
-3.7732646343
 20
20.7289938592
 10
-3.7625785196
 20
20.7077523831
 10
-3.749967843
 20
20.6884378128
 10
-3.7356355586
 20
20.6713609373
 10
-3.7198123435
 20
20.6567965584
 10
-3.7027528533
 20
20.6449790225
  0
LWPOLYLINE
  5
3C6
100
AcDbEntity
  8
ASSI
100
AcDbPolyline
 62
250
  6
CONTINUOUS
 90
16
 70
0
 10
-4.2329388458
 20
17.810648706
 10
-4.2368975695
 20
17.7956819511
 10
-4.2414881716
 20
17.7812454062
 10
-4.2466293699
 20
17.7674016079
 10
-4.2522333954
 20
17.754218989
 10
-4.2582338065
 20
17.7417198315
 10
-4.264592316
 20
17.7298856617
 10
-4.2711914241
 20
17.7188269983
 10
-4.2780248717
 20
17.7084711462
 10
-4.2852573618
 20
17.6985540451
 10
-4.2928269703
 20
17.6891413854
 10
-4.3007321627
 20
17.6802564076
 10
-4.3092711609
 20
17.6716672936
 10
-4.3185333679
 20
17.6634043245
 10
-4.3283747371
 20
17.6556920584
 10
-4.3387477843
 20
17.6486639654
  0
LWPOLYLINE
  5
3C7
100
AcDbEntity
  8
ASSI
100
AcDbPolyline
 62
250
  6
CONTINUOUS
 90
14
 70
0
 10
-3.747876849
 20
22.133370123
 10
-3.7427668028
 20
22.1509200705
 10
-3.735691301
 20
22.1683171719
 10
-3.7267278671
 20
22.1853708252
 10
-3.7159747024
 20
22.2018941985
 10
-3.7035496179
 20
22.217706262
 10
-3.6895887473
 20
22.2326337719
 10
-3.6742450488
 20
22.2465131796
 10
-3.6576866319
 20
22.2591924187
 10
-3.6400949131
 20
22.270532574
 10
-3.6216626278
 20
22.2804094021
 10
-3.6025917221
 20
22.2887146901
 10
-3.5830911417
 20
22.2953574422
 10
-3.5633745388
 20
22.300264878
  0
LINE
  5
3C8
100
AcDbEntity
  8
ASSI
100
AcDbLine
 62
250
  6
CONTINUOUS
 10
-3.9615531285
 20
18.6842781296
 11
-4.2329381226
 21
17.8106482883
  0
LINE
  5
3C9
100
AcDbEntity
  8
ASSI
100
AcDbLine
 62
250
  6
CONTINUOUS
 10
-3.6957487502
 20
18.6076694498
 11
-3.9671337443
 21
17.7340396085
  0
LWPOLYLINE
  5
3CA
100
AcDbEntity
  8
ASSI
100
AcDbPolyline
 62
250
  6
CONTINUOUS
 90
16
 70
0
 10
-3.9671337443
 20
17.7340396085
 10
-3.9771265309
 20
17.7049822963
 10
-3.9879613271
 20
17.6771367255
 10
-3.9996381328
 20
17.650502896
 10
-4.01227228
 20
17.6250467744
 10
-4.0257484368
 20
17.6008023942
 10
-4.0397206071
 20
17.5778718561
 10
-4.0540185143
 20
17.556413897
 10
-4.0688124351
 20
17.53626978
 10
-4.0842672039
 20
17.5170653948
 10
-4.1002816645
 20
17.498717969
 10
-4.1169569731
 20
17.4813102751
 10
-4.1347614328
 20
17.4647165203
 10
-4.1538511444
 20
17.4488947737
 10
-4.1740700071
 20
17.4338869661
 10
-4.1954180208
 20
17.4196930977
  0
LINE
  5
3CB
100
AcDbEntity
  8
ASSI
100
AcDbLine
 62
250
  6
CONTINUOUS
 10
-1.0542664124
 20
15.0036161494
 11
-0.9137444371
 21
15.1477398927
  0
LINE
  5
3CC
100
AcDbEntity
  8
ASSI
100
AcDbLine
 62
7
  6
CONTINUOUS
 10
-1.0300590182
 20
14.9697264442
 11
-0.9144130276
 21
15.0883365977
  0
LINE
  5
3CD
100
AcDbEntity
  8
ASSI
100
AcDbLine
 62
7
  6
CONTINUOUS
 10
4.336186296
 20
21.0837670459
 11
3.6083475536
 21
20.3510811234
  0
LWPOLYLINE
  5
3CE
100
AcDbEntity
  8
0
100
AcDbPolyline
 62
250
  6
CONTINUOUS
 90
16
 70
0
 10
-3.6514383416
 20
13.7940426286
 10
-3.6877195128
 20
13.7698341029
 10
-3.7235182577
 20
13.7416151537
 10
-3.7584553113
 20
13.7096847431
 10
-3.7921605378
 20
13.6743811534
 10
-3.8242768515
 20
13.6360784037
 10
-3.8544640003
 20
13.5951822877
 10
-3.8824021706
 20
13.5521260738
 10
-3.9077953752
 20
13.5073659152
 10
-3.9303745894
 20
13.4613760172
 10
-3.9499006007
 20
13.4146436135
 10
-3.9661665434
 20
13.3676638043
 10
-3.97900009
 20
13.3209343113
 10
-3.9882652772
 20
13.2749502039
 10
-3.9938639465
 20
13.2301986544
 10
-3.9957367834
 20
13.187153777
  0
LWPOLYLINE
  5
3CF
100
AcDbEntity
  8
ASSI
100
AcDbPolyline
 62
250
  6
CONTINUOUS
 90
9
 70
0
 10
-0.9137444371
 20
15.5170508823
 10
-0.9000895239
 20
15.5261146967
 10
-0.8881422263
 20
15.5359458775
 10
-0.8780303857
 20
15.5464375252
 10
-0.8698661224
 20
15.5574690075
 10
-0.863729395
 20
15.5689269656
 10
-0.8596794346
 20
15.5807088178
 10
-0.857767986
 20
15.5927141942
 10
-0.8576124212
 20
15.5972117014
  0
LWPOLYLINE
  5
3D0
100
AcDbEntity
  8
ASSI
100
AcDbPolyline
 62
250
  6
CONTINUOUS
 90
7
 70
0
 10
-0.9137444371
 20
15.1477398927
 10
-0.9001380725
 20
15.1567678908
 10
-0.8882230359
 20
15.1665604996
 10
-0.8781273039
 20
15.1770125441
 10
-0.8699591076
 20
15.188012089
 10
-0.8638065035
 20
15.1994406973
 10
-0.8597358416
 20
15.2111745943
  0
LINE
  5
3D1
100
AcDbEntity
  8
ASSI
100
AcDbLine
 62
7
  6
CONTINUOUS
 10
-0.9022588311
 20
16.1167756625
 11
-0.0717306575
 21
16.65156599
  0
LINE
  5
3D2
100
AcDbEntity
  8
DRAFT
100
AcDbLine
 62
7
  6
CONTINUOUS
 10
5.1440978965
 20
19.3126710457
 11
2.2488606311
 21
17.4868769447
  0
LINE
  5
3D3
100
AcDbEntity
  8
RACCORDO
100
AcDbLine
 62
250
  6
CONTINUOUS
 10
0.9354857798
 20
14.5700154818
 11
3.3472218216
 21
16.0335992646
  0
LINE
  5
3D4
100
AcDbEntity
  8
RACCORDO
100
AcDbLine
 62
7
  6
CONTINUOUS
 10
1.0446789211
 20
14.3922282078
 11
3.3532341085
 21
15.7926825866
  0
LINE
  5
3D5
100
AcDbEntity
  8
ASSI
100
AcDbLine
 62
7
  6
CONTINUOUS
 10
2.7779483123
 20
15.3472542754
 11
1.0874248002
 21
14.3226297584
  0
LINE
  5
3D6
100
AcDbEntity
  8
RACCORDO
100
AcDbLine
 62
250
  6
CONTINUOUS
 10
2.095085815
 20
17.1628156838
 11
2.1461185613
 21
17.1924498873
  0
LINE
  5
3D7
100
AcDbEntity
  8
RACCORDO
100
AcDbLine
 62
250
  6
CONTINUOUS
 10
5.4716447775
 20
19.1235495818
 11
5.7479293496
 21
19.2839852596
  0
LINE
  5
3D8
100
AcDbEntity
  8
ASSI
100
AcDbLine
 62
250
  6
CONTINUOUS
 10
-1.4069068705
 20
16.0298903684
 11
-0.6607887578
 21
16.4606854693
  0
LINE
  5
3D9
100
AcDbEntity
  8
ASSI
100
AcDbLine
 62
250
  6
CONTINUOUS
 10
1.474881813
 20
17.5209137016
 11
5.9908490247
 21
20.1283855242
  0
LINE
  5
3DA
100
AcDbEntity
  8
RACCORDO
100
AcDbLine
 62
7
  6
CONTINUOUS
 10
-1.2298217297
 20
15.9276436276
 11
-0.9022588311
 21
16.1167756625
  0
LINE
  5
3DB
100
AcDbEntity
  8
ASSI
100
AcDbLine
 62
250
  6
CONTINUOUS
 10
-1.0551442542
 20
15.7619625494
 11
-1.6534017696
 21
15.4165349719
  0
LINE
  5
3DC
100
AcDbEntity
  8
ASSI
100
AcDbLine
 62
250
  6
CONTINUOUS
 10
1.8283639715
 20
17.3168175334
 11
3.6152023789
 21
18.3485191779
  0
LINE
  5
3DD
100
AcDbEntity
  8
ASSI
100
AcDbLine
 62
250
  6
CONTINUOUS
 10
5.2145736094
 20
19.2719792523
 11
5.7479293496
 21
19.5799332296
  0
LINE
  5
3DE
100
AcDbEntity
  8
ASSI
100
AcDbLine
 62
250
  6
CONTINUOUS
 10
-0.9137444371
 20
15.5170508823
 11
-1.3706160428
 21
15.2532580374
  0
LINE
  5
3DF
100
AcDbEntity
  8
0
100
AcDbLine
 62
250
  6
CONTINUOUS
 10
-1.2473850646
 20
15.182106015
 11
-3.6514383416
 21
13.7940426286
  0
LINE
  5
3E0
100
AcDbEntity
  8
0
100
AcDbLine
 62
250
  6
CONTINUOUS
 10
-0.8939528279
 20
14.5699434247
 11
-3.2980061049
 21
13.1818800383
  0
LINE
  5
3E1
100
AcDbEntity
  8
DRAFT
100
AcDbLine
 62
7
  6
CONTINUOUS
 10
9.4447382122
 20
20.440849021
 11
6.3136860146
 21
18.633012516
  0
LINE
  5
3E2
100
AcDbEntity
  8
DRAFT
100
AcDbLine
 62
7
  6
CONTINUOUS
 10
6.7385039266
 20
18.0615955792
 11
9.4447382122
 21
19.6243787442
  0
LINE
  5
3E3
100
AcDbEntity
  8
DRAFT
100
AcDbLine
 62
7
  6
CONTINUOUS
 10
2.7798202981
 20
15.3441656942
 11
3.4041093614
 21
15.7045527074
  0
LINE
  5
3E4
100
AcDbEntity
  8
DRAFT
100
AcDbLine
 62
7
  6
CONTINUOUS
 10
6.3082964916
 20
18.6404773678
 11
2.9954668543
 21
16.7489710759
  0
LINE
  5
3E5
100
AcDbEntity
  8
ASSI
100
AcDbLine
 62
250
  6
CONTINUOUS
 10
1.6610154432
 20
16.3704555378
 11
2.5742264062
 21
16.8861659115
  0
LINE
  5
3E6
100
AcDbEntity
  8
ASSI
100
AcDbLine
 62
250
  6
CONTINUOUS
 10
2.3040234079
 20
15.7068137478
 11
3.2260532482
 21
16.2269928147
  0
LINE
  5
3E7
100
AcDbEntity
  8
RACCORDO
100
AcDbLine
 62
250
  6
CONTINUOUS
 10
-1.0278770659
 20
14.9664201811
 11
1.6609562389
 21
16.3704897216
  0
LINE
  5
3E8
100
AcDbEntity
  8
RACCORDO
100
AcDbLine
 62
250
  6
CONTINUOUS
 10
-0.8939528279
 20
14.045538488
 11
2.3040234079
 21
15.7068137478
  0
LINE
  5
3E9
100
AcDbEntity
  8
DRAFT
100
AcDbLine
 62
7
  6
CONTINUOUS
 10
-0.8939528279
 20
12.3383644935
 11
-0.6416347754
 21
12.464707952
  0
LWPOLYLINE
  5
3EA
100
AcDbEntity
  8
0
100
AcDbPolyline
 62
250
  6
CONTINUOUS
 90
16
 70
0
 10
-3.2980061049
 20
13.1818800383
 10
-3.3372303513
 20
13.1625088816
 10
-3.3797043283
 20
13.1455757383
 10
-3.424975413
 20
13.1312610566
 10
-3.4725668358
 20
13.1197162027
 10
-3.5219661997
 20
13.1110660572
 10
-3.5726290822
 20
13.1054042722
 10
-3.6240026721
 20
13.1027882521
 10
-3.6755516799
 20
13.1032409453
 10
-3.7267461936
 20
13.1067561159
 10
-3.7771113857
 20
13.1133076772
 10
-3.8260382781
 20
13.1228230491
 10
-3.8728294361
 20
13.1351480388
 10
-3.9169598647
 20
13.1500993266
 10
-3.9580594578
 20
13.1675042187
 10
-3.9957367834
 20
13.187153777
  0
LWPOLYLINE
  5
3EB
100
AcDbEntity
  8
0
100
AcDbPolyline
 62
7
  6
CONTINUOUS
 90
4
 70
0
 10
-12.0770771156
 20
11.4971110895
 10
-12.1428535993
 20
11.4740499406
 10
-12.2047325207
 20
11.442661898
 10
-12.2616026883
 20
11.4035106127
  0
LWPOLYLINE
  5
3EC
100
AcDbEntity
  8
0
100
AcDbPolyline
 62
7
  6
CONTINUOUS
 90
4
 70
0
 10
-14.3945230594
 20
-14.8212808449
 10
-14.4019055508
 20
-14.8233073492
 10
-14.4086612527
 20
-14.8268741045
 10
-14.4144371522
 20
-14.8317987594
  0
LWPOLYLINE
  5
3ED
100
AcDbEntity
  8
0
100
AcDbPolyline
 62
7
  6
CONTINUOUS
 90
3
 70
0
 10
-12.137426532
 20
-13.0769357294
 10
-12.1314294827
 20
-13.0758603096
 10
-12.1245438523
 20
-13.0733116125
  0
LWPOLYLINE
  5
3EE
100
AcDbEntity
  8
DRAFT
100
AcDbPolyline
 62
7
  6
CONTINUOUS
 90
6
 70
0
 10
-12.1374273417
 20
-13.0769358042
 10
-12.1314515039
 20
-13.0758699584
 10
-12.1245564839
 20
-13.0733198744
 10
-12.1185454175
 20
-13.0693882246
 10
-12.1132995535
 20
-13.064059102
 10
-12.1088188921
 20
-13.0573325065
  0
LINE
  5
3EF
100
AcDbEntity
  8
0
100
AcDbLine
 62
7
  6
CONTINUOUS
 10
-12.3076207683
 20
-15.4148756562
 11
-12.2487300676
 21
-15.4058124971
  0
LWPOLYLINE
  5
3F0
100
AcDbEntity
  8
DRAFT
100
AcDbPolyline
 62
7
  6
CONTINUOUS
 90
14
 70
0
 10
-12.3076204917
 20
-15.4148756309
 10
-12.2489164562
 20
-15.4058669768
 10
-12.1920393608
 20
-15.3892423183
 10
-12.1382485651
 20
-15.365293282
 10
-12.088833967
 20
-15.3345754719
 10
-12.0440188234
 20
-15.2970381126
 10
-12.0035798773
 20
-15.2527319796
 10
-11.9681372561
 20
-15.2023650032
 10
-11.9377086179
 20
-15.1457287037
 10
-11.9122763045
 20
-15.0830315608
 10
-11.8924074689
 20
-15.0156069437
 10
-11.878291162
 20
-14.9438993086
 10
-11.8697383328
 20
-14.8674641993
 10
-11.8667489813
 20
-14.7863016156
  0
LWPOLYLINE
  5
3F1
100
AcDbEntity
  8
DRAFT
100
AcDbPolyline
 62
7
  6
CONTINUOUS
 90
6
 70
0
 10
-13.5206597815
 20
-11.7242324324
 10
-13.5293412081
 20
-11.7243713285
 10
-13.5371165024
 20
-11.7260317346
 10
-13.5439856647
 20
-11.7292136507
 10
-13.5500350765
 20
-11.7340272647
 10
-13.5543352339
 20
-11.7390471175
  0
LWPOLYLINE
  5
3F2
100
AcDbEntity
  8
0
100
AcDbPolyline
 62
7
  6
CONTINUOUS
 90
4
 70
0
 10
-13.5206597813
 20
-11.7242324324
 10
-13.5293246766
 20
-11.7243611581
 10
-13.5370900522
 20
-11.7260154619
 10
-13.5439559082
 20
-11.729195344
  0
LINE
  5
3F3
100
AcDbEntity
  8
RACCORDO
100
AcDbLine
 62
250
  6
CONTINUOUS
 10
-0.1501089305
 20
-20.6506459475
 11
-0.1422398142
 21
-20.6642756568
  0
LWPOLYLINE
  5
3F4
100
AcDbEntity
  8
DRAFT
100
AcDbPolyline
 62
7
  6
CONTINUOUS
 90
4
 70
0
 10
-10.9598006401
 20
10.1045545735
 10
-10.9829783405
 20
10.1672238492
 10
-11.0102376421
 20
10.2300345069
 10
-11.0407139521
 20
10.2910554775
  0
LWPOLYLINE
  5
3F5
100
AcDbEntity
  8
0
100
AcDbPolyline
 62
7
  6
CONTINUOUS
 90
4
 70
0
 10
-11.9138351629
 20
10.1686224225
 10
-11.8936014523
 20
10.106089214
 10
-11.8691918287
 20
10.0430876398
 10
-11.8413054546
 20
9.9813954241
  0
LWPOLYLINE
  5
3F6
100
AcDbEntity
  8
0
100
AcDbPolyline
 62
7
  6
CONTINUOUS
 90
4
 70
0
 10
-10.4051998487
 20
9.9433882989
 10
-10.436589118
 20
10.0519585543
 10
-10.474148673
 20
10.1615582517
 10
-10.5172040376
 20
10.2702192536
  0
LWPOLYLINE
  5
3F7
100
AcDbEntity
  8
DRAFT
100
AcDbPolyline
 62
7
  6
CONTINUOUS
 90
4
 70
0
 10
-10.9155434516
 20
9.919169356
 10
-10.9126083886
 20
9.9032416822
 10
-10.9084360586
 20
9.8874301561
 10
-10.9030360062
 20
9.8717624714
  0
LWPOLYLINE
  5
3F8
100
AcDbEntity
  8
0
100
AcDbPolyline
 62
7
  6
CONTINUOUS
 90
13
 70
0
 10
-10.9155434511
 20
9.9191693543
 10
-10.9126200984
 20
9.9032720462
 10
-10.9084547945
 20
9.8874787397
 10
-10.9030475393
 20
9.8717894349
 10
-10.8962918595
 20
9.8559952461
 10
-10.8882942284
 20
9.840305059
 10
-10.8793740667
 20
9.8253455305
 10
-10.869494032
 20
9.8111462364
 10
-10.8586914668
 20
9.7976776009
 10
-10.8473978191
 20
9.7854775532
 10
-10.8357569048
 20
9.7747254031
 10
-10.8236249079
 20
9.7652418408
 10
-10.8110018285
 20
9.7570268663
  0
LWPOLYLINE
  5
3F9
100
AcDbEntity
  8
0
100
AcDbPolyline
 62
7
  6
CONTINUOUS
 90
22
 70
0
 10
-10.9155434511
 20
9.9191693543
 10
-10.9262523121
 20
9.9809157764
 10
-10.9410164374
 20
10.0427457123
 10
-10.959835827
 20
10.1046591621
 10
-10.9829428342
 20
10.1671917607
 10
-11.0101051057
 20
10.2298078732
 10
-11.0406255816
 20
10.2909005948
 10
-11.0745911863
 20
10.3504304939
 10
-11.1119149954
 20
10.4084370021
 10
-11.1516391753
 20
10.4634315098
 10
-11.1938258577
 20
10.5153360539
 10
-11.2384129108
 20
10.5642285975
 10
-11.2842561061
 20
10.6088544209
 10
-11.3313879576
 20
10.6491030835
 10
-11.3797759511
 20
10.6850850259
 10
-11.4281783152
 20
10.7158768508
 10
-11.4765954218
 20
10.7413442158
 10
-11.5250268988
 20
10.7616214632
 10
-11.5722298589
 20
10.776188222
 10
-11.6181725029
 20
10.7848966806
 10
-11.66288663
 20
10.7878946505
 10
-11.6913244173
 20
10.7867094077
  0
LWPOLYLINE
  5
3FA
100
AcDbEntity
  8
DRAFT
100
AcDbPolyline
 62
7
  6
CONTINUOUS
 90
4
 70
0
 10
-10.9155434516
 20
9.919169356
 10
-10.9262142464
 20
9.9808230464
 10
-10.9409666426
 20
10.0426181189
 10
-10.9598006401
 20
10.1045545735
  0
LWPOLYLINE
  5
3FB
100
AcDbEntity
  8
0
100
AcDbPolyline
 62
7
  6
CONTINUOUS
 90
4
 70
0
 10
-8.4395014685
 20
-15.5692623763
 10
-8.440926923
 20
-15.5579517149
 10
-8.4435439436
 20
-15.5460734301
 10
-8.4472140371
 20
-15.5342457303
  0
LWPOLYLINE
  5
3FC
100
AcDbEntity
  8
0
100
AcDbPolyline
 62
7
  6
CONTINUOUS
 90
4
 70
0
 10
-11.9488543979
 20
10.3517950568
 10
-11.9415586649
 20
10.2922594958
 10
-11.9297848703
 20
10.230675142
 10
-11.9138351629
 20
10.1686224225
  0
LWPOLYLINE
  5
3FD
100
AcDbEntity
  8
0
100
AcDbPolyline
 62
7
  6
CONTINUOUS
 90
4
 70
0
 10
-10.3487282306
 20
9.6258223221
 10
-10.3613818176
 20
9.7306482057
 10
-10.3802056903
 20
9.8365035313
 10
-10.4051824348
 20
9.9433138305
  0
LWPOLYLINE
  5
3FE
100
AcDbEntity
  8
DRAFT
100
AcDbPolyline
 62
7
  6
CONTINUOUS
 90
7
 70
0
 10
-10.3487282306
 20
9.6258223221
 10
-10.3613391628
 20
9.7305160729
 10
-10.3801501404
 20
9.8363220694
 10
-10.4051611633
 20
9.9432403116
 10
-10.4366313309
 20
10.0520080174
 10
-10.4743015439
 20
10.161887969
 10
-10.5173945046
 20
10.2706685127
  0
LINE
  5
3FF
100
AcDbEntity
  8
ASSI
100
AcDbLine
 62
7
  6
CONTINUOUS
 10
-6.5767808735
 20
20.6712188925
 11
-6.576775058
 21
20.6711557327
  0
LINE
  5
400
100
AcDbEntity
  8
ASSI
100
AcDbLine
 62
250
  6
CONTINUOUS
 10
-6.4026846069
 20
20.577103517
 11
-6.4123738735
 21
20.683841878
  0
LWPOLYLINE
  5
401
100
AcDbEntity
  8
0
100
AcDbPolyline
 62
250
  6
CONTINUOUS
 90
9
 70
0
 10
-3.9957367834
 20
-28.9646185052
 10
-3.9938639465
 20
-29.0055006775
 10
-3.9882652772
 20
-29.0437870241
 10
-3.97900009
 20
-29.0790719255
 10
-3.9661665434
 20
-29.1109815606
 10
-3.9499006007
 20
-29.1391778668
 10
-3.9303745894
 20
-29.1633621221
 10
-3.9077953752
 20
-29.1832781095
 10
-3.8921954729
 20
-29.1934869358
  0
LINE
  5
402
100
AcDbEntity
  8
DRAFT
100
AcDbLine
 62
250
  6
CONTINUOUS
 10
-6.1725018481
 20
21.9364171833
 11
-6.1725018481
 21
22.0424413031
  0
LINE
  5
403
100
AcDbEntity
  8
DRAFT
100
AcDbLine
 62
250
  6
CONTINUOUS
 10
-5.6220068931
 20
21.6536606535
 11
-5.6220068931
 21
22.031417208
  0
LINE
  5
404
100
AcDbEntity
  8
0
100
AcDbLine
 62
250
  6
CONTINUOUS
 10
-3.9957367834
 20
13.187153777
 11
-3.9957367834
 21
-28.9646185052
  0
LINE
  5
405
100
AcDbEntity
  8
DRAFT
100
AcDbLine
 62
7
  6
CONTINUOUS
 10
-3.8938028091
 20
24.2561862168
 11
-3.8938028091
 21
24.2154079343
  0
LINE
  5
406
100
AcDbEntity
  8
ASSI
100
AcDbLine
 62
7
  6
CONTINUOUS
 10
-3.7804382144
 20
22.1945564562
 11
-3.7804382144
 21
22.0622882497
  0
LINE
  5
407
100
AcDbEntity
  8
0
100
AcDbLine
 62
250
  6
CONTINUOUS
 10
-3.2980061049
 20
13.1818800383
 11
-3.2980061049
 21
-28.9698922439
  0
LINE
  5
408
100
AcDbEntity
  8
ASSI
100
AcDbLine
 62
250
  6
CONTINUOUS
 10
-3.7527621301
 20
22.071989575
 11
-3.7519987709
 21
22.098580414
  0
LWPOLYLINE
  5
409
100
AcDbEntity
  8
ASSI
100
AcDbPolyline
 62
7
  6
CONTINUOUS
 90
22
 70
0
 10
-3.7804382102
 20
22.1945564562
 10
-3.7788008812
 20
22.2258615026
 10
-3.7737558005
 20
22.257602105
 10
-3.765135147
 20
22.2894315039
 10
-3.7528430961
 20
22.3209386542
 10
-3.7368132888
 20
22.3517932718
 10
-3.7169229442
 20
22.3817950726
 10
-3.6929413273
 20
22.4108168714
 10
-3.6649948186
 20
22.4383051101
 10
-3.6335409592
 20
22.4636339903
 10
-3.5983955663
 20
22.486825665
 10
-3.559837089
 20
22.5075453077
 10
-3.5193571091
 20
22.5250752708
 10
-3.4775746086
 20
22.5394220752
 10
-3.4343685806
 20
22.5508246325
 10
-3.3904702552
 20
22.5592368949
 10
-3.3463689118
 20
22.5647366398
 10
-3.3020758095
 20
22.5674471891
 10
-3.2577391021
 20
22.5674144558
 10
-3.2135663784
 20
22.5646488939
 10
-3.1697957709
 20
22.5591404979
 10
-3.1266590859
 20
22.550858918
  0
LINE
  5
40A
100
AcDbEntity
  8
ASSI
100
AcDbLine
 62
250
  6
CONTINUOUS
 10
-3.7519987541
 20
22.0985803937
 11
-3.7509654472
 21
22.1158596142
  0
LWPOLYLINE
  5
40B
100
AcDbEntity
  8
DRAFT
100
AcDbPolyline
 62
7
  6
CONTINUOUS
 90
13
 70
0
 10
-8.2096859389
 20
-16.4548726229
 10
-8.2087235994
 20
-16.4444878598
 10
-8.2089271042
 20
-16.4337388706
 10
-8.2102964532
 20
-16.4226256553
 10
-8.2128945861
 20
-16.4109515361
 10
-8.2166585633
 20
-16.3989131909
 10
-8.2213995665
 20
-16.3871006524
 10
-8.2271636158
 20
-16.3755245568
 10
-8.2339046912
 20
-16.3641742681
 10
-8.2412959135
 20
-16.353607911
 10
-8.249228323
 20
-16.3440115273
 10
-8.2578108793
 20
-16.3351990752
 10
-8.2670435826
 20
-16.3271705548
  0
LWPOLYLINE
  5
40C
100
AcDbEntity
  8
0
100
AcDbPolyline
 62
7
  6
CONTINUOUS
 90
4
 70
0
 10
-8.209685939
 20
-16.4548726233
 10
-8.2087187977
 20
-16.4445156078
 10
-8.2089194215
 20
-16.4337832671
 10
-8.2102878103
 20
-16.4226756012
  0
LWPOLYLINE
  5
40D
100
AcDbEntity
  8
ASSI
100
AcDbPolyline
 62
250
  6
CONTINUOUS
 90
13
 70
0
 10
-1.3958307921
 20
22.5598763852
 10
-1.3932352377
 20
22.5835559684
 10
-1.3929448336
 20
22.6080259935
 10
-1.3949642344
 20
22.6328942629
 10
-1.399261074
 20
22.657762196
 10
-1.405766484
 20
22.6822312175
 10
-1.414376198
 20
22.7059091456
 10
-1.4249522224
 20
22.7284164781
 10
-1.437325048
 20
22.7493924745
 10
-1.4512963673
 20
22.768500938
 10
-1.4666422523
 20
22.7854356042
 10
-1.4831167441
 20
22.7999250495
 10
-1.5004557949
 20
22.8117370416
  0
LINE
  5
40E
100
AcDbEntity
  8
DRAFT
100
AcDbLine
 62
7
  6
CONTINUOUS
 10
-9.686570417
 20
-17.2802292804
 11
-10.0634156089
 21
-19.5303846336
  0
LINE
  5
40F
100
AcDbEntity
  8
0
100
AcDbLine
 62
7
  6
CONTINUOUS
 10
-10.0634156089
 20
-19.5303846336
 11
-9.686570417
 21
-17.2802292804
  0
LINE
  5
410
100
AcDbEntity
  8
0
100
AcDbLine
 62
7
  6
CONTINUOUS
 10
-9.2687518728
 20
-17.6065396167
 11
-9.6455970647
 21
-19.8566949699
  0
LINE
  5
411
100
AcDbEntity
  8
DRAFT
100
AcDbLine
 62
7
  6
CONTINUOUS
 10
-9.6455970647
 20
-19.8566949699
 11
-9.2687518728
 21
-17.6065396168
  0
LINE
  5
412
100
AcDbEntity
  8
0
100
AcDbLine
 62
7
  6
CONTINUOUS
 10
-8.209685939
 20
-16.4548726233
 11
-8.2588010605
 21
-16.7481406707
  0
LINE
  5
413
100
AcDbEntity
  8
DRAFT
100
AcDbLine
 62
7
  6
CONTINUOUS
 10
-8.2588010605
 20
-16.7481406707
 11
-8.2096859389
 21
-16.4548726229
  0
LWPOLYLINE
  5
414
100
AcDbEntity
  8
ASSI
100
AcDbPolyline
 62
250
  6
CONTINUOUS
 90
10
 70
0
 10
-1.4252057173
 20
18.82430022
 10
-1.4286313554
 20
18.8061315489
 10
-1.4306790129
 20
18.7880347124
 10
-1.4313304063
 20
18.7701712806
 10
-1.4305797173
 20
18.7527007396
 10
-1.4284336478
 20
18.7357790685
 10
-1.4249113595
 20
18.7195573469
 10
-1.4200442987
 20
18.7041804041
 10
-1.4138759162
 20
18.6897855273
 10
-1.4064612828
 20
18.6765012358
  0
LWPOLYLINE
  5
415
100
AcDbEntity
  8
ASSI
100
AcDbPolyline
 62
250
  6
CONTINUOUS
 90
13
 70
0
 10
-3.4695344443
 20
18.7179486691
 10
-3.4647607325
 20
18.741753921
 10
-3.4622500674
 20
18.7661990825
 10
-3.4620408415
 20
18.7909106291
 10
-3.4641362809
 20
18.8155109614
 10
-3.4685043947
 20
18.8396241646
 10
-3.4750784597
 20
18.8628817536
 10
-3.4837580442
 20
18.8849283253
 10
-3.4944105379
 20
18.9054269676
 10
-3.506873168
 20
18.924064404
 10
-3.520955501
 20
18.9405558116
 10
-3.5364423577
 20
18.9546491685
 10
-3.5530970894
 20
18.9661290888
  0
LWPOLYLINE
  5
416
100
AcDbEntity
  8
DRAFT
100
AcDbPolyline
 62
7
  6
CONTINUOUS
 90
7
 70
0
 10
-9.9758137555
 20
-16.0810728685
 10
-9.9779693152
 20
-16.0901391933
 10
-9.9789814544
 20
-16.100271263
 10
-9.9788054039
 20
-16.1109693477
 10
-9.9773851969
 20
-16.1222601081
 10
-9.9747768002
 20
-16.1341168835
 10
-9.9711033441
 20
-16.1459599622
  0
LWPOLYLINE
  5
417
100
AcDbEntity
  8
0
100
AcDbPolyline
 62
7
  6
CONTINUOUS
 90
4
 70
0
 10
-8.4425004637
 20
-15.5991763811
 10
-8.4403461948
 20
-15.5901232185
 10
-8.4393280486
 20
-15.5799766091
 10
-8.4395014685
 20
-15.5692623763
  0
LINE
  5
418
100
AcDbEntity
  8
DRAFT
100
AcDbLine
 62
7
  6
CONTINUOUS
 10
-9.6479333935
 20
-19.8660066669
 11
-9.6455970647
 21
-19.8566949699
  0
LINE
  5
419
100
AcDbEntity
  8
DRAFT
100
AcDbLine
 62
7
  6
CONTINUOUS
 10
-8.2611373893
 20
-16.7574523677
 11
-8.2588010605
 21
-16.7481406707
  0
LWPOLYLINE
  5
41A
100
AcDbEntity
  8
DRAFT
100
AcDbPolyline
 62
7
  6
CONTINUOUS
 90
3
 70
0
 10
-11.9743704201
 20
-16.2420076374
 10
-11.9785283148
 20
-16.2544102507
 10
-11.9819005419
 20
-16.2676597762
  0
LWPOLYLINE
  5
41B
100
AcDbEntity
  8
ASSI
100
AcDbPolyline
 62
250
  6
CONTINUOUS
 90
5
 70
0
 10
1.0991366148
 20
20.1087642638
 10
1.1037762872
 20
20.120774167
 10
1.110160994
 20
20.1323748862
 10
1.1181947187
 20
20.143412902
 10
1.1277728299
 20
20.1537790995
  0
LWPOLYLINE
  5
41C
100
AcDbEntity
  8
DRAFT
100
AcDbPolyline
 62
7
  6
CONTINUOUS
 90
13
 70
0
 10
-11.9439719603
 20
-12.744321803
 10
-11.9405250618
 20
-12.735767807
 10
-11.9383301544
 20
-12.7264521961
 10
-11.937387238
 20
-12.7163749703
 10
-11.9377252173
 20
-12.7053338204
 10
-11.9393151876
 20
-12.6935310557
 10
-11.9420704353
 20
-12.6815736043
 10
-11.9460484376
 20
-12.6694538365
 10
-11.9511917173
 20
-12.6571793821
 10
-11.9572411291
 20
-12.645380059
 10
-11.9641102913
 20
-12.6342658065
 10
-11.9718855857
 20
-12.6236266854
 10
-11.9805670122
 20
-12.6134626955
  0
LWPOLYLINE
  5
41D
100
AcDbEntity
  8
0
100
AcDbPolyline
 62
7
  6
CONTINUOUS
 90
4
 70
0
 10
-11.9439719603
 20
-12.7443218029
 10
-11.9405258714
 20
-12.7357947654
 10
-11.9383314498
 20
-12.7264953296
 10
-11.9373886954
 20
-12.7164234956
  0
LWPOLYLINE
  5
41E
100
AcDbEntity
  8
ASSI
100
AcDbPolyline
 62
250
  6
CONTINUOUS
 90
4
 70
0
 10
1.0991379587
 20
20.0878278191
 10
1.1027850923
 20
20.0968441308
 10
1.1109257836
 20
20.1090707424
 10
1.1220236329
 20
20.1207979605
  0
LINE
  5
41F
100
AcDbEntity
  8
0
100
AcDbLine
 62
7
  6
CONTINUOUS
 10
-11.9439719603
 20
-12.7443218029
 11
-12.1088188921
 21
-13.0573325065
  0
LINE
  5
420
100
AcDbEntity
  8
DRAFT
100
AcDbLine
 62
7
  6
CONTINUOUS
 10
-12.1088188921
 20
-13.0573325065
 11
-11.9439719603
 21
-12.744321803
  0
LWPOLYLINE
  5
421
100
AcDbEntity
  8
DRAFT
100
AcDbPolyline
 62
7
  6
CONTINUOUS
 90
4
 70
0
 10
-13.533134878
 20
-13.3496581467
 10
-13.563518176
 20
-13.4062100552
 10
-13.5889504893
 20
-13.4689071981
 10
-13.6088048974
 20
-13.5362828556
  0
LINE
  5
422
100
AcDbEntity
  8
DRAFT
100
AcDbLine
 62
7
  6
CONTINUOUS
 10
-0.3663171344
 20
9.4476987144
 11
0.1305157822
 21
10.3024055633
  0
LWPOLYLINE
  5
423
100
AcDbEntity
  8
0
100
AcDbPolyline
 62
7
  6
CONTINUOUS
 90
7
 70
0
 10
-13.5543346301
 20
-11.7390462642
 10
-13.5551685453
 20
-11.7403525673
 10
-13.5591563584
 20
-11.7478884592
 10
-13.5619133246
 20
-11.7566823116
 10
-13.5635015451
 20
-11.7666706552
 10
-13.5638380984
 20
-11.7773319945
 10
-13.562895344
 20
-11.7884924976
  0
LWPOLYLINE
  5
424
100
AcDbEntity
  8
DRAFT
100
AcDbPolyline
 62
7
  6
CONTINUOUS
 90
6
 70
0
 10
-13.5543352339
 20
-11.7390471175
 10
-13.5551783562
 20
-11.7403623887
 10
-13.5591563584
 20
-11.7478884592
 10
-13.5619116062
 20
-11.7566642195
 10
-13.5635015765
 20
-11.7666309264
 10
-13.5638395558
 20
-11.7772817863
  0
LINE
  5
425
100
AcDbEntity
  8
DRAFT
100
AcDbLine
 62
7
  6
CONTINUOUS
 10
-0.8939528279
 20
9.0565060999
 11
-0.5066384498
 21
9.2960271211
  0
LWPOLYLINE
  5
426
100
AcDbEntity
  8
RACCORDO
100
AcDbPolyline
 62
250
  6
CONTINUOUS
 90
11
 70
0
 10
13.4316789954
 20
16.3640226231
 10
13.4587320892
 20
16.3804026259
 10
13.4832672781
 20
16.3957973845
 10
13.5050998175
 20
16.4100913535
 10
13.5240623411
 20
16.4231753766
 10
13.5400079062
 20
16.4349482709
 10
13.5528157611
 20
16.4453207947
 10
13.5623906021
 20
16.4542156554
 10
13.5686604019
 20
16.4615659592
 10
13.5715778916
 20
16.4673163966
 10
13.5713617228
 20
16.4710031801
  0
LWPOLYLINE
  5
427
100
AcDbEntity
  8
RACCORDO
100
AcDbPolyline
 62
7
  6
CONTINUOUS
 90
7
 70
0
 10
12.3387059059
 20
18.372260162
 10
12.3573585585
 20
18.3833410077
 10
12.3744607879
 20
18.3952293255
 10
12.3900125941
 20
18.4079251155
 10
12.4040139771
 20
18.4214283776
 10
12.416464937
 20
18.4357391119
 10
12.4273654737
 20
18.4508573183
  0
LINE
  5
428
100
AcDbEntity
  8
DRAFT
100
AcDbLine
 62
7
  6
CONTINUOUS
 10
8.4398566838
 20
17.1710784415
 11
8.1069864384
 21
16.9734239578
  0
LINE
  5
429
100
AcDbEntity
  8
RACCORDO
100
AcDbLine
 62
250
  6
CONTINUOUS
 10
3.1964389447
 20
10.5167402504
 11
-0.8939528279
 21
8.0998968007
  0
LINE
  5
42A
100
AcDbEntity
  8
RACCORDO
100
AcDbLine
 62
250
  6
CONTINUOUS
 10
3.2746322906
 20
10.2155578721
 11
-0.8939528279
 21
7.7532734701
  0
LINE
  5
42B
100
AcDbEntity
  8
RACCORDO
100
AcDbLine
 62
250
  6
CONTINUOUS
 10
13.4316789954
 20
16.3640226231
 11
3.2360353126
 21
10.4088802459
  0
LINE
  5
42C
100
AcDbEntity
  8
RACCORDO
100
AcDbLine
 62
250
  6
CONTINUOUS
 10
13.4799622214
 20
16.0466779408
 11
3.3133325202
 21
10.1094889946
  0
LINE
  5
42D
100
AcDbEntity
  8
DRAFT
100
AcDbLine
 62
7
  6
CONTINUOUS
 10
-0.8939528279
 20
11.4273605305
 11
0.1305157822
 21
12.0188778973
  0
LINE
  5
42E
100
AcDbEntity
  8
RACCORDO
100
AcDbLine
 62
250
  6
CONTINUOUS
 10
-0.1422398142
 20
9.0923105984
 11
-0.8939528279
 21
8.6583648132
  0
LINE
  5
42F
100
AcDbEntity
  8
RACCORDO
100
AcDbLine
 62
250
  6
CONTINUOUS
 10
-0.1842712871
 20
8.8374157047
 11
-0.8939528279
 21
8.4277336746
  0
LINE
  5
430
100
AcDbEntity
  8
RACCORDO
100
AcDbLine
 62
7
  6
CONTINUOUS
 10
12.3387059059
 20
18.372260162
 11
9.1392943277
 21
16.605720267
  0
LINE
  5
431
100
AcDbEntity
  8
RACCORDO
100
AcDbLine
 62
7
  6
CONTINUOUS
 10
9.4024196738
 20
16.8241393583
 11
12.4273654737
 21
18.4508573183
  0
LWPOLYLINE
  5
432
100
AcDbEntity
  8
0
100
AcDbPolyline
 62
7
  6
CONTINUOUS
 90
4
 70
0
 10
-11.7366848182
 20
9.8041824529
 10
-11.6965406273
 20
9.7505172038
 10
-11.6537489898
 20
9.6995280042
 10
-11.6083099057
 20
9.651214854
  0
LWPOLYLINE
  5
433
100
AcDbEntity
  8
0
100
AcDbPolyline
 62
7
  6
CONTINUOUS
 90
4
 70
0
 10
-10.6786705128
 20
10.5886019487
 10
-10.7419454565
 20
10.6896050894
 10
-10.8097438776
 20
10.7877522715
 10
-10.8808482855
 20
10.8812810161
  0
LWPOLYLINE
  5
434
100
AcDbEntity
  8
DRAFT
100
AcDbPolyline
 62
7
  6
CONTINUOUS
 90
4
 70
0
 10
-11.0407922405
 20
10.2912122299
 10
-11.0746433484
 20
10.3505816742
 10
-11.1117897529
 20
10.4083181838
 10
-11.1514415108
 20
10.4631734733
  0
LWPOLYLINE
  5
435
100
AcDbEntity
  8
0
100
AcDbPolyline
 62
7
  6
CONTINUOUS
 90
4
 70
0
 10
-11.8412327116
 20
9.9812344969
 10
-11.809632225
 20
9.9205595116
 10
-11.7744822449
 20
9.8610329575
 10
-11.7366848182
 20
9.8041824529
  0
LWPOLYLINE
  5
436
100
AcDbEntity
  8
DRAFT
100
AcDbPolyline
 62
7
  6
CONTINUOUS
 90
6
 70
0
 10
-10.5659091944
 20
10.378130401
 10
-10.619846632
 20
10.4844928814
 10
-10.6784325756
 20
10.5882020434
 10
-10.7419166487
 20
10.6894685047
 10
-10.8100492278
 20
10.7880816475
 10
-10.8813072007
 20
10.8818557077
  0
LWPOLYLINE
  5
437
100
AcDbEntity
  8
0
100
AcDbPolyline
 62
7
  6
CONTINUOUS
 90
3
 70
0
 10
-10.5658544971
 20
10.3779246018
 10
-10.6200007662
 20
10.4846912546
 10
-10.6785548059
 20
10.5883970188
  0
LINE
  5
438
100
AcDbEntity
  8
0
100
AcDbLine
 62
7
  6
CONTINUOUS
 10
-10.5172040376
 20
10.2702192536
 11
-10.5658544971
 21
10.3779246018
  0
LINE
  5
439
100
AcDbEntity
  8
DRAFT
100
AcDbLine
 62
7
  6
CONTINUOUS
 10
-10.5173945046
 20
10.2706685127
 11
-10.5659091944
 21
10.378130401
  0
LWPOLYLINE
  5
43A
100
AcDbEntity
  8
DRAFT
100
AcDbPolyline
 62
7
  6
CONTINUOUS
 90
7
 70
0
 10
-10.9030264613
 20
9.871734778
 10
-10.8962739903
 20
9.8559512607
 10
-10.8882842521
 20
9.8402838913
 10
-10.8793740667
 20
9.8253455305
 10
-10.8695088693
 20
9.8111635541
 10
-10.8587232246
 20
9.7977105862
 10
-10.8474376468
 20
9.7855173601
  0
LINE
  5
43B
100
AcDbEntity
  8
ASSI
100
AcDbLine
 62
250
  6
CONTINUOUS
 10
-1.8752084179
 20
17.3984078524
 11
-1.8517451397
 21
17.1630316528
  0
LWPOLYLINE
  5
43C
100
AcDbEntity
  8
ASSI
100
AcDbPolyline
 62
250
  6
CONTINUOUS
 90
13
 70
0
 10
-4.3168903251
 20
20.8820768317
 10
-4.3189535713
 20
20.9037795639
 10
-4.3232421451
 20
20.9263024229
 10
-4.3296874377
 20
20.9492852439
 10
-4.3381863525
 20
20.9723605078
 10
-4.3486029619
 20
20.9951592414
 10
-4.3607706885
 20
21.017316916
 10
-4.3744949479
 20
21.0384792338
 10
-4.3895562751
 20
21.0583078275
 10
-4.4057138534
 20
21.0764856841
 10
-4.4227093289
 20
21.0927221638
 10
-4.440270936
 20
21.1067576546
 10
-4.4581178682
 20
21.1183677499
  0
LWPOLYLINE
  5
43D
100
AcDbEntity
  8
ASSI
100
AcDbPolyline
 62
250
  6
CONTINUOUS
 90
13
 70
0
 10
-3.9958289413
 20
20.834649542
 10
-3.9937657682
 20
20.8129473191
 10
-3.9894773428
 20
20.7904248897
 10
-3.9830322374
 20
20.7674423898
 10
-3.97453351
 20
20.7443673118
 10
-3.9641170561
 20
20.7215686285
 10
-3.9519494358
 20
20.6994108933
 10
-3.9382252105
 20
20.6782484105
 10
-3.9231638321
 20
20.6584195703
 10
-3.9070061335
 20
20.640241438
 10
-3.8900104779
 20
20.6240046836
 10
-3.8724486275
 20
20.6099689345
 10
-3.8546013981
 20
20.5983586238
  0
LWPOLYLINE
  5
43E
100
AcDbEntity
  8
ASSI
100
AcDbPolyline
 62
250
  6
CONTINUOUS
 90
13
 70
0
 10
-1.4511134178
 20
22.5367405013
 10
-1.453176591
 20
22.5584427242
 10
-1.4574650164
 20
22.5809651536
 10
-1.4639101217
 20
22.6039476535
 10
-1.4724088491
 20
22.6270227315
 10
-1.482825303
 20
22.6498214147
 10
-1.4949929234
 20
22.67197915
 10
-1.5087171486
 20
22.6931416328
 10
-1.523778527
 20
22.7129704729
 10
-1.5399362257
 20
22.7311486053
 10
-1.5569318813
 20
22.7473853597
 10
-1.5744937317
 20
22.7614211088
 10
-1.592340961
 20
22.7730314195
  0
LINE
  5
43F
100
AcDbEntity
  8
ASSI
100
AcDbLine
 62
250
  6
CONTINUOUS
 10
-1.9005371184
 20
17.6645602011
 11
-1.8752084179
 21
17.3984078524
  0
LINE
  5
440
100
AcDbEntity
  8
ASSI
100
AcDbLine
 62
250
  6
CONTINUOUS
 10
-1.9280032075
 20
17.9676388345
 11
-1.9005371184
 21
17.6645602011
  0
LINE
  5
441
100
AcDbEntity
  8
ASSI
100
AcDbLine
 62
250
  6
CONTINUOUS
 10
-1.9498127858
 20
18.2192652273
 11
-1.9280032075
 21
17.9676388345
  0
LWPOLYLINE
  5
442
100
AcDbEntity
  8
ASSI
100
AcDbPolyline
 62
250
  6
CONTINUOUS
 90
5
 70
0
 10
-3.7804382144
 20
22.1945564562
 10
-3.7786262499
 20
22.1700009796
 10
-3.7732526123
 20
22.1457886784
 10
-3.764355596
 20
22.1219249505
 10
-3.7519987709
 20
22.098580414
  0
LWPOLYLINE
  5
443
100
AcDbEntity
  8
0
100
AcDbPolyline
 62
250
  6
CONTINUOUS
 90
16
 70
0
 10
-3.2980061049
 20
13.1818800383
 10
-3.3008960526
 20
13.2252569603
 10
-3.3075447535
 20
13.2704623559
 10
-3.3178789463
 20
13.3169983415
 10
-3.3317865977
 20
13.3643579143
 10
-3.3491134809
 20
13.4120140246
 10
-3.3696609965
 20
13.4594252802
 10
-3.3931941234
 20
13.5060600303
 10
-3.4194553031
 20
13.5514171575
 10
-3.4481627757
 20
13.5950134685
 10
-3.4790456822
 20
13.6364266147
 10
-3.5117248138
 20
13.6751378318
 10
-3.5457046304
 20
13.7105887491
 10
-3.5805528113
 20
13.7423915457
 10
-3.6159257796
 20
13.7702937217
 10
-3.6514383464
 20
13.7940426258
  0
LWPOLYLINE
  5
444
100
AcDbEntity
  8
ASSI
100
AcDbPolyline
 62
250
  6
CONTINUOUS
 90
10
 70
0
 10
-1.3005452395
 20
18.6751890614
 10
-1.301201756
 20
18.6882079338
 10
-1.3022923296
 20
18.7008598594
 10
-1.3038169603
 20
18.7131448383
 10
-1.3057789025
 20
18.7250624669
 10
-1.3081749018
 20
18.7366131488
 10
-1.310995195
 20
18.7477980947
 10
-1.3142365279
 20
18.758617708
 10
-1.3179021548
 20
18.7690715852
 10
-1.3219920757
 20
18.7791597264
  0
LWPOLYLINE
  5
445
100
AcDbEntity
  8
ASSI
100
AcDbPolyline
 62
250
  6
CONTINUOUS
 90
16
 70
0
 10
-0.9137444371
 20
15.5170508823
 10
-0.9142828856
 20
15.5347589741
 10
-0.9164005486
 20
15.5531558249
 10
-0.9200741008
 20
15.5720387394
 10
-0.9252638056
 20
15.5912020394
 10
-0.9319121168
 20
15.6104322245
 10
-0.9399425499
 20
15.629510346
 10
-0.9492626673
 20
15.6482218936
 10
-0.959770446
 20
15.6663664264
 10
-0.9713538577
 20
15.6837518615
 10
-0.9839045293
 20
15.7002102126
 10
-0.9972680395
 20
15.7155340506
 10
-1.0112402464
 20
15.7295014372
 10
-1.0256418687
 20
15.7419602433
 10
-1.0403301602
 20
15.7528130088
 10
-1.0551442542
 20
15.7619625494
  0
LINE
  5
446
100
AcDbEntity
  8
ASSI
100
AcDbLine
 62
250
  6
CONTINUOUS
 10
-1.2907807797
 20
18.3358476675
 11
-1.3005452395
 21
18.6751890614
  0
LWPOLYLINE
  5
447
100
AcDbEntity
  8
RACCORDO
100
AcDbPolyline
 62
7
  6
CONTINUOUS
 90
16
 70
0
 10
-0.4547567244
 20
25.5903810612
 10
-0.4559431597
 20
25.6351899585
 10
-0.4587258029
 20
25.677510733
 10
-0.4631046541
 20
25.7173433846
 10
-0.4691965201
 20
25.754700184
 10
-0.4768845941
 20
25.7895688606
 10
-0.4858184554
 20
25.8219126026
 10
-0.4959690331
 20
25.8516856079
 10
-0.5073653982
 20
25.8789336787
 10
-0.5197443419
 20
25.9037574098
 10
-0.5330381269
 20
25.9261376129
 10
-0.5473144905
 20
25.9460934763
 10
-0.5625134371
 20
25.9637831599
 10
-0.5786149678
 20
25.9792593836
 10
-0.5956390815
 20
25.9924694275
 10
-0.613585778
 20
26.0034132915
  0
LINE
  5
448
100
AcDbEntity
  8
ASSI
100
AcDbLine
 62
250
  6
CONTINUOUS
 10
-1.2835147424
 20
18.0211925174
 11
-1.2907807797
 21
18.3358476675
  0
LINE
  5
449
100
AcDbEntity
  8
ASSI
100
AcDbLine
 62
250
  6
CONTINUOUS
 10
-1.2795775925
 20
17.8025738283
 11
-1.2835147424
 21
18.0211925174
  0
LWPOLYLINE
  5
44A
100
AcDbEntity
  8
ASSI
100
AcDbPolyline
 62
250
  6
CONTINUOUS
 90
3
 70
0
 10
-1.2761396883
 20
17.5359433407
 10
-1.276810339
 20
17.5998980273
 10
-1.2795775925
 20
17.8025738283
  0
LWPOLYLINE
  5
44B
100
AcDbEntity
  8
ASSI
100
AcDbPolyline
 62
250
  6
CONTINUOUS
 90
16
 70
0
 10
-1.4252061679
 20
18.8243002692
 10
-1.4252439011
 20
18.840298713
 10
-1.4262474612
 20
18.8562593292
 10
-1.4282103521
 20
18.8720799598
 10
-1.4311199354
 20
18.8876593032
 10
-1.4349575156
 20
18.902897703
 10
-1.439698488
 20
18.9176977739
 10
-1.4453124901
 20
18.9319648497
 10
-1.45176353
 20
18.9456075688
 10
-1.4590102328
 20
18.9585385958
 10
-1.4670062158
 20
18.9706752458
 10
-1.4757002231
 20
18.98193979
 10
-1.4850363699
 20
18.9922599783
 10
-1.4949547621
 20
19.0015697834
 10
-1.5053919207
 20
19.0098097688
 10
-1.5162809921
 20
19.0169272864
  0
LINE
  5
44C
100
AcDbEntity
  8
DRAFT
100
AcDbLine
 62
7
  6
CONTINUOUS
 10
-2.4065201527
 20
23.3198133666
 11
-2.4065201527
 21
23.6723032759
  0
LINE
  5
44D
100
AcDbEntity
  8
ASSI
100
AcDbLine
 62
7
  6
CONTINUOUS
 10
-1.3308693129
 20
18.4996713866
 11
-1.3308693129
 21
17.4309006998
  0
LINE
  5
44E
100
AcDbEntity
  8
ASSI
100
AcDbLine
 62
7
  6
CONTINUOUS
 10
-1.1767955404
 20
17.4570527067
 11
-1.1767955404
 21
17.5909228467
  0
LINE
  5
44F
100
AcDbEntity
  8
ASSI
100
AcDbLine
 62
250
  6
CONTINUOUS
 10
-0.9137444371
 20
15.1477398927
 11
-0.9137444371
 21
15.5170508823
  0
LINE
  5
450
100
AcDbEntity
  8
RACCORDO
100
AcDbLine
 62
7
  6
CONTINUOUS
 10
-0.8939528279
 20
7.7532734701
 11
-0.8939528279
 21
-20.9068267426
  0
LINE
  5
451
100
AcDbEntity
  8
0
100
AcDbLine
 62
7
  6
CONTINUOUS
 10
-0.8939528279
 20
-27.7234966972
 11
-0.8939528279
 21
14.5699434247
  0
LINE
  5
452
100
AcDbEntity
  8
ASSI
100
AcDbLine
 62
7
  6
CONTINUOUS
 10
-0.8576123972
 20
15.2279573001
 11
-0.8576123972
 21
15.5972682897
  0
LINE
  5
453
100
AcDbEntity
  8
0
100
AcDbLine
 62
7
  6
CONTINUOUS
 10
-0.6818207935
 20
-20.9681375825
 11
-0.6818207935
 21
-21.071528713
  0
LINE
  5
454
100
AcDbEntity
  8
DRAFT
100
AcDbLine
 62
7
  6
CONTINUOUS
 10
-0.6607887578
 20
16.2722620911
 11
-0.6607887578
 21
16.4606854693
  0
LINE
  5
455
100
AcDbEntity
  8
RACCORDO
100
AcDbLine
 62
7
  6
CONTINUOUS
 10
-0.4547567244
 20
25.3402230508
 11
-0.4547567244
 21
25.5903810612
  0
LINE
  5
456
100
AcDbEntity
  8
0
100
AcDbLine
 62
7
  6
CONTINUOUS
 10
-0.1359466904
 20
22.2989538309
 11
-0.1359466904
 21
21.3711566058
  0
LINE
  5
457
100
AcDbEntity
  8
DRAFT
100
AcDbLine
 62
250
  6
CONTINUOUS
 10
-0.1306683194
 20
17.4049512873
 11
-0.1306683194
 21
16.6136150901
  0
LINE
  5
458
100
AcDbEntity
  8
DRAFT
100
AcDbLine
 62
7
  6
CONTINUOUS
 10
0.1305157822
 20
12.0188778973
 11
0.1305157822
 21
10.3024055633
  0
LINE
  5
459
100
AcDbEntity
  8
DRAFT
100
AcDbLine
 62
7
  6
CONTINUOUS
 10
0.1305157822
 20
-22.1893419476
 11
0.1305157822
 21
-23.9058142816
  0
LINE
  5
45A
100
AcDbEntity
  8
ASSI
100
AcDbLine
 62
250
  6
CONTINUOUS
 10
-0.8576124212
 20
15.5972117014
 11
-0.8576123972
 21
15.5972682897
  0
LWPOLYLINE
  5
45B
100
AcDbEntity
  8
ASSI
100
AcDbPolyline
 62
7
  6
CONTINUOUS
 90
21
 70
0
 10
-1.3309237141
 20
17.4309018149
 10
-1.3309420676
 20
17.4284806064
 10
-1.3328615957
 20
17.4062351664
 10
-1.3379392269
 20
17.3843559911
 10
-1.3462535983
 20
17.3627048727
 10
-1.3577260727
 20
17.3414200189
 10
-1.3721207387
 20
17.3209160534
 10
-1.3894731656
 20
17.3012217376
 10
-1.4097477839
 20
17.28230831
 10
-1.4326019745
 20
17.2645041103
 10
-1.4581188473
 20
17.2478080035
 10
-1.4862152923
 20
17.2322211245
 10
-1.5162993605
 20
17.2180752179
 10
-1.5483799948
 20
17.2054152561
 10
-1.5824482523
 20
17.1941962667
 10
-1.6178853548
 20
17.1846150768
 10
-1.6547173102
 20
17.1766959517
 10
-1.6929181107
 20
17.1704146262
 10
-1.731790954
 20
17.1658951311
 10
-1.7711035728
 20
17.1631788101
 10
-1.8110882345
 20
17.1622243196
  0
LWPOLYLINE
  5
45C
100
AcDbEntity
  8
ASSI
100
AcDbPolyline
 62
250
  6
CONTINUOUS
 90
16
 70
0
 10
0.4777797424
 20
19.6563593119
 10
0.4781439809
 20
19.6740248053
 10
0.4792327056
 20
19.6926899842
 10
0.4810339883
 20
19.712150349
 10
0.4835280938
 20
19.7321926877
 10
0.4866876961
 20
19.7525974123
 10
0.4904781778
 20
19.7731409648
 10
0.4948580097
 20
19.7935982656
 10
0.4997792055
 20
19.8137451804
 10
0.5051878476
 20
19.8333609756
 10
0.5110246776
 20
19.8522307365
 10
0.5172257463
 20
19.8701477219
 10
0.5237231135
 20
19.8869156302
 10
0.5304455929
 20
19.9023507487
 10
0.5373195314
 20
19.9162839665
 10
0.5442696169
 20
19.9285626282
  0
LWPOLYLINE
  5
45D
100
AcDbEntity
  8
ASSI
100
AcDbPolyline
 62
250
  6
CONTINUOUS
 90
22
 70
0
 10
-1.3308693129
 20
18.4996713866
 10
-1.3321818886
 20
18.4787666685
 10
-1.3372079821
 20
18.4538481681
 10
-1.3459618469
 20
18.429275684
 10
-1.3583773983
 20
18.405234745
 10
-1.3743608789
 20
18.3819069179
 10
-1.3937915995
 20
18.3594683547
 10
-1.4165228489
 20
18.3380884875
 10
-1.4423829728
 20
18.3179287748
 10
-1.4711766611
 20
18.2991414722
 10
-1.5026864546
 20
18.2818684574
 10
-1.5366744273
 20
18.2662401465
 10
-1.5728839563
 20
18.2523745376
 10
-1.6110416257
 20
18.2403763319
 10
-1.6508592869
 20
18.2303361368
 10
-1.6920362691
 20
18.2223297696
 10
-1.7342616425
 20
18.2164176895
 10
-1.7772165426
 20
18.2126445443
 10
-1.82057658
 20
18.2110388282
 10
-1.8640143215
 20
18.2116126645
 10
-1.9072017637
 20
18.2143617177
 10
-1.9498127858
 20
18.2192652273
  0
LWPOLYLINE
  5
45E
100
AcDbEntity
  8
0
100
AcDbPolyline
 62
250
  6
CONTINUOUS
 90
9
 70
0
 10
-3.2980061049
 20
-28.9698922439
 10
-3.3008957327
 20
-29.0120500449
 10
-3.3075436427
 20
-29.0514375561
 10
-3.3178766285
 20
-29.087621039
 10
-3.3317827902
 20
-29.1202057365
 10
-3.3491079299
 20
-29.1488281696
 10
-3.3696532212
 20
-29.1731650668
 10
-3.3931830843
 20
-29.192949093
 10
-3.4119330657
 20
-29.2043108538
  0
LWPOLYLINE
  5
45F
100
AcDbEntity
  8
ASSI
100
AcDbPolyline
 62
250
  6
CONTINUOUS
 90
3
 70
0
 10
1.0959897525
 20
20.0927976185
 10
1.0962954461
 20
20.0964880959
 10
1.0991366148
 20
20.1087642638
  0
LWPOLYLINE
  5
460
100
AcDbEntity
  8
ASSI
100
AcDbPolyline
 62
7
  6
CONTINUOUS
 90
20
 70
0
 10
1.1439847231
 20
18.7979110468
 10
1.1417212985
 20
18.7708575982
 10
1.1354070964
 20
18.7458030598
 10
1.1251128547
 20
18.720980743
 10
1.11107641
 20
18.6970072232
 10
1.0932052642
 20
18.6739111973
 10
1.0715919153
 20
18.6516639684
 10
1.0467516943
 20
18.6307960213
 10
1.0186070251
 20
18.6113404987
 10
0.9872354838
 20
18.5932642579
 10
0.9533851301
 20
18.5769983557
 10
0.9169963876
 20
18.5625863107
 10
0.8781288327
 20
18.5499846042
 10
0.837709254
 20
18.539493737
 10
0.7956858771
 20
18.5311657498
 10
0.7521104763
 20
18.5249486018
 10
0.7080651631
 20
18.5209866717
 10
0.6639106414
 20
18.5193280857
 10
0.6192862072
 20
18.5199247176
 10
0.5741918607
 20
18.5227765673
  0
LWPOLYLINE
  5
461
100
AcDbEntity
  8
ASSI
100
AcDbPolyline
 62
250
  6
CONTINUOUS
 90
3
 70
0
 10
-0.8597358416
 20
15.2111745943
 10
-0.8577903522
 20
15.2230869985
 10
-0.8576123972
 20
15.2279573001
  0
LWPOLYLINE
  5
462
100
AcDbEntity
  8
0
100
AcDbPolyline
 62
7
  6
CONTINUOUS
 90
4
 70
0
 10
-10.6355578178
 20
-19.2725750285
 10
-10.6326585725
 20
-19.2643625573
 10
-10.6308643959
 20
-19.2549835041
 10
-10.6301752879
 20
-19.244437869
  0
LWPOLYLINE
  5
463
100
AcDbEntity
  8
0
100
AcDbPolyline
 62
7
  6
CONTINUOUS
 90
4
 70
0
 10
-8.6977770016
 20
-17.1114342974
 10
-8.6944700616
 20
-17.1034381762
 10
-8.6922471725
 20
-17.0942324539
 10
-8.6912214695
 20
-17.0842978972
  0
LWPOLYLINE
  5
464
100
AcDbEntity
  8
DRAFT
100
AcDbPolyline
 62
7
  6
CONTINUOUS
 90
3
 70
0
 10
-11.9636713291
 20
-16.219703338
 10
-11.9694268578
 20
-16.2304519364
 10
-11.9743704201
 20
-16.2420076374
  0
LWPOLYLINE
  5
465
100
AcDbEntity
  8
0
100
AcDbPolyline
 62
7
  6
CONTINUOUS
 90
4
 70
0
 10
-11.9679903243
 20
-15.2021267262
 10
-11.9375880496
 20
-15.1455670001
 10
-11.9122394647
 20
-15.0830267297
 10
-11.8924324749
 20
-15.0157096796
  0
LWPOLYLINE
  5
466
100
AcDbEntity
  8
0
100
AcDbPolyline
 62
7
  6
CONTINUOUS
 90
4
 70
0
 10
-11.9583502143
 20
-16.2114856069
 10
-11.9681954212
 20
-16.2280095914
 10
-11.9759927304
 20
-16.2466593856
 10
-11.981900542
 20
-16.2676597764
  0
LWPOLYLINE
  5
467
100
AcDbEntity
  8
DRAFT
100
AcDbPolyline
 62
7
  6
CONTINUOUS
 90
4
 70
0
 10
-10.1510936821
 20
-14.9102765686
 10
-10.1538291227
 20
-14.9147980753
 10
-10.157169483
 20
-14.9227793563
 10
-10.1595058118
 20
-14.9320910533
  0
LWPOLYLINE
  5
468
100
AcDbEntity
  8
0
100
AcDbPolyline
 62
7
  6
CONTINUOUS
 90
4
 70
0
 10
-10.1510932068
 20
-14.9102758933
 10
-10.1538481787
 20
-14.9148215892
 10
-10.157181393
 20
-14.9227940525
 10
-10.1595058118
 20
-14.9320910534
  0
LWPOLYLINE
  5
469
100
AcDbEntity
  8
0
100
AcDbPolyline
 62
7
  6
CONTINUOUS
 90
6
 70
0
 10
-14.4177341885
 20
-14.8358675887
 10
-14.4191835275
 20
-14.8381502232
 10
-14.4229501004
 20
-14.8458595867
 10
-14.4255489084
 20
-14.8545421307
 10
-14.4269172971
 20
-14.8640696154
 10
-14.4271179209
 20
-14.8745702807
  0
LWPOLYLINE
  5
46A
100
AcDbEntity
  8
DRAFT
100
AcDbPolyline
 62
7
  6
CONTINUOUS
 90
4
 70
0
 10
-14.4177338615
 20
-14.8358671243
 10
-14.4191781554
 20
-14.8381365062
 10
-14.4229421326
 20
-14.845828305
 10
-14.4255402654
 20
-14.8545021654
  0
LINE
  5
46B
100
AcDbEntity
  8
DRAFT
100
AcDbLine
 62
7
  6
CONTINUOUS
 10
-11.958358968
 20
-16.2114980009
 11
-11.9636713291
 21
-16.219703338
  0
LINE
  5
46C
100
AcDbEntity
  8
DRAFT
100
AcDbLine
 62
7
  6
CONTINUOUS
 10
-13.5153153211
 20
-13.3226658838
 11
-13.533134878
 21
-13.3496581467
  0
LWPOLYLINE
  5
46D
100
AcDbEntity
  8
0
100
AcDbPolyline
 62
7
  6
CONTINUOUS
 90
8
 70
0
 10
-13.5153147072
 20
-13.3226650152
 10
-13.5332364696
 20
-13.3498120328
 10
-13.5636387443
 20
-13.4063717589
 10
-13.5889873292
 20
-13.4689120293
 10
-13.608794319
 20
-13.5362290793
 10
-13.6228970786
 20
-13.6079216543
 10
-13.6314582431
 20
-13.6843910089
 10
-13.6344778125
 20
-13.7656371433
  0
LINE
  5
46E
100
AcDbEntity
  8
0
100
AcDbLine
 62
7
  6
CONTINUOUS
 10
-14.4144371522
 20
-14.8317987594
 11
-14.4177341885
 21
-14.8358675887
  0
LWPOLYLINE
  5
46F
100
AcDbEntity
  8
RACCORDO
100
AcDbPolyline
 62
250
  6
CONTINUOUS
 90
10
 70
0
 10
13.4799622214
 20
16.0466779408
 10
13.5089629895
 20
16.0652638459
 10
13.5350753051
 20
16.0852356024
 10
13.5581003655
 20
16.1064442972
 10
13.577863363
 20
16.1287328338
 10
13.5942112592
 20
16.1519331887
 10
13.6070160245
 20
16.175867169
 10
13.6161800154
 20
16.2003547931
 10
13.6216329581
 20
16.2252118126
 10
13.6233368559
 20
16.2488092842
  0
LWPOLYLINE
  5
470
100
AcDbEntity
  8
0
100
AcDbPolyline
 62
7
  6
CONTINUOUS
 90
6
 70
0
 10
-10.5544906889
 20
5.4917356928
 10
-10.5319269181
 20
5.4801700727
 10
-10.5100761169
 20
5.4715497839
 10
-10.4889382852
 20
5.4658748264
 10
-10.4682990301
 20
5.4631475462
 10
-10.4482091897
 20
5.4633298146
  0
LINE
  5
471
100
AcDbEntity
  8
DRAFT
100
AcDbLine
 62
7
  6
CONTINUOUS
 10
-10.5544906889
 20
5.4917356928
 11
-10.540519009
 21
5.4842116578
  0
LINE
  5
472
100
AcDbEntity
  8
DRAFT
100
AcDbLine
 62
7
  6
CONTINUOUS
 10
-12.3051970462
 20
6.502571602
 11
-10.5544906889
 21
5.4917356928
  0
LINE
  5
473
100
AcDbEntity
  8
0
100
AcDbLine
 62
7
  6
CONTINUOUS
 10
-10.5544906889
 20
5.4917356928
 11
-12.3051970462
 21
6.502571602
  0
LWPOLYLINE
  5
474
100
AcDbEntity
  8
DRAFT
100
AcDbPolyline
 62
7
  6
CONTINUOUS
 90
3
 70
0
 10
-12.3329636951
 20
6.5207155797
 10
-12.3191687261
 20
6.5111817128
 10
-12.3051970462
 20
6.502571602
  0
LWPOLYLINE
  5
475
100
AcDbEntity
  8
DRAFT
100
AcDbPolyline
 62
7
  6
CONTINUOUS
 90
4
 70
0
 10
-11.2846389611
 20
10.6092037362
 10
-11.3315646029
 20
10.6493203446
 10
-11.3795995123
 20
10.6850407751
 10
-11.4278198211
 20
10.7156683973
  0
LWPOLYLINE
  5
476
100
AcDbEntity
  8
DRAFT
100
AcDbPolyline
 62
7
  6
CONTINUOUS
 90
4
 70
0
 10
-10.8474170993
 20
9.7854983808
 10
-10.8357923071
 20
9.774760787
 10
-10.8236470344
 20
9.7652639557
 10
-10.8110018285
 20
9.7570268663
  0
LINE
  5
477
100
AcDbEntity
  8
0
100
AcDbLine
 62
7
  6
CONTINUOUS
 10
-11.6083099057
 20
9.651214854
 11
-10.8472785429
 21
8.8919714941
  0
LINE
  5
478
100
AcDbEntity
  8
DRAFT
100
AcDbLine
 62
7
  6
CONTINUOUS
 10
-10.8472785428
 20
8.891971494
 11
-11.6083099059
 21
9.6512148542
  0
LWPOLYLINE
  5
479
100
AcDbEntity
  8
0
100
AcDbPolyline
 62
7
  6
CONTINUOUS
 90
4
 70
0
 10
-10.8808482855
 20
10.8812810161
 10
-10.955318405
 20
10.9701078881
 10
-11.0330945112
 20
11.0543163227
 10
-11.1125448775
 20
11.1321638266
  0
LWPOLYLINE
  5
47A
100
AcDbEntity
  8
DRAFT
100
AcDbPolyline
 62
7
  6
CONTINUOUS
 90
22
 70
0
 10
-10.8813072007
 20
10.8818557077
 10
-10.9555154145
 20
10.9704253332
 10
-11.032849022
 20
11.0541558761
 10
-11.1123103698
 20
11.1319576282
 10
-11.1942199671
 20
11.2039792658
 10
-11.2782573048
 20
11.2700721126
 10
-11.3624632016
 20
11.3287004323
 10
-11.4465325655
 20
11.3795314501
 10
-11.5307704886
 20
11.4228979407
 10
-11.614133066
 20
11.458262492
 10
-11.6969089437
 20
11.4855979912
 10
-11.7788094758
 20
11.504931551
 10
-11.8579248195
 20
11.5158070972
 10
-11.9339329376
 20
11.5180425171
 10
-12.0071558672
 20
11.5118199234
 10
-12.0766498775
 20
11.4972295809
 10
-12.1425643647
 20
11.4740732187
 10
-12.2047499325
 20
11.4425491076
 10
-12.2618146602
 20
11.403342325
 10
-12.3135166098
 20
11.356410428
 10
-12.3600977192
 20
11.3017958596
 10
-12.3707261686
 20
11.2872432987
  0
LWPOLYLINE
  5
47B
100
AcDbEntity
  8
DRAFT
100
AcDbPolyline
 62
7
  6
CONTINUOUS
 90
4
 70
0
 10
-11.1514415108
 20
10.4631734733
 10
-11.1938006695
 20
10.5152364337
 10
-11.2386651814
 20
10.5644181739
 10
-11.2844528246
 20
10.6090224105
  0
LWPOLYLINE
  5
47C
100
AcDbEntity
  8
ASSI
100
AcDbPolyline
 62
250
  6
CONTINUOUS
 90
7
 70
0
 10
-6.690687295
 20
20.7777343514
 10
-6.6877514076
 20
20.7634187166
 10
-6.6821211336
 20
20.7473553639
 10
-6.6736234653
 20
20.7300122475
 10
-6.6621347882
 20
20.7117219531
 10
-6.6475602877
 20
20.6929023115
 10
-6.6298191025
 20
20.6740958623
  0
LINE
  5
47D
100
AcDbEntity
  8
ASSI
100
AcDbLine
 62
250
  6
CONTINUOUS
 10
-2.0300704129
 20
17.3036996826
 11
-2.0060827161
 21
17.131974835
  0
LINE
  5
47E
100
AcDbEntity
  8
ASSI
100
AcDbLine
 62
250
  6
CONTINUOUS
 10
-2.0554110569
 20
17.4914578564
 11
-2.0300704129
 21
17.3036996826
  0
LINE
  5
47F
100
AcDbEntity
  8
ASSI
100
AcDbLine
 62
250
  6
CONTINUOUS
 10
-2.0823289624
 20
17.6981474337
 11
-2.0554110569
 21
17.4914578564
  0
LINE
  5
480
100
AcDbEntity
  8
ASSI
100
AcDbLine
 62
250
  6
CONTINUOUS
 10
-2.1108517027
 20
17.9254359603
 11
-2.0823289624
 21
17.6981474337
  0
LWPOLYLINE
  5
481
100
AcDbEntity
  8
ASSI
100
AcDbPolyline
 62
250
  6
CONTINUOUS
 90
13
 70
0
 10
-3.6957487502
 20
18.6076694498
 10
-3.6983949881
 20
18.6291288936
 10
-3.7031951359
 20
18.6512627638
 10
-3.7100749061
 20
18.6737319643
 10
-3.718927401
 20
18.6961905912
 10
-3.7296169476
 20
18.7182969478
 10
-3.7419826951
 20
18.7397183634
 10
-3.7558472774
 20
18.7601420438
 10
-3.7709897498
 20
18.7792375719
 10
-3.7871440247
 20
18.7966773484
 10
-3.8040461296
 20
18.8121951368
 10
-3.8214462258
 20
18.8255793886
 10
-3.8390786413
 20
18.8366403912
  0
LWPOLYLINE
  5
482
100
AcDbEntity
  8
ASSI
100
AcDbPolyline
 62
250
  6
CONTINUOUS
 90
13
 70
0
 10
-4.1954180208
 20
17.4196930977
 10
-4.1980580429
 20
17.4411161372
 10
-4.2028456358
 20
17.4632146927
 10
-4.209707719
 20
17.4856514394
 10
-4.2185395457
 20
17.5080838897
 10
-4.2292063019
 20
17.530169622
 10
-4.2415451641
 20
17.5515715068
 10
-4.2553677847
 20
17.5719628537
 10
-4.2704631675
 20
17.5910323973
 10
-4.2866008877
 20
17.6084890492
 10
-4.3035346101
 20
17.6240663411
 10
-4.3210058485
 20
17.6375264922
 10
-4.3387479119
 20
17.6486640391
  0
LWPOLYLINE
  5
483
100
AcDbEntity
  8
ASSI
100
AcDbPolyline
 62
250
  6
CONTINUOUS
 90
13
 70
0
 10
-3.5593533243
 20
18.6892314574
 10
-3.5619933463
 20
18.7106544969
 10
-3.5667809392
 20
18.7327530525
 10
-3.5736430224
 20
18.7551897991
 10
-3.5824748492
 20
18.7776222495
 10
-3.5931416054
 20
18.7997079817
 10
-3.6054804675
 20
18.8211098666
 10
-3.6193030882
 20
18.8415012134
 10
-3.6343984709
 20
18.860570757
 10
-3.6505361912
 20
18.8780274089
 10
-3.6674699135
 20
18.8936047008
 10
-3.6849411519
 20
18.9070648519
 10
-3.7026832154
 20
18.9182023988
  0
LWPOLYLINE
  5
484
100
AcDbEntity
  8
ASSI
100
AcDbPolyline
 62
250
  6
CONTINUOUS
 90
13
 70
0
 10
-1.751600122
 20
18.7607939545
 10
-1.7490502785
 20
18.7400304819
 10
-1.7444771339
 20
18.7186215039
 10
-1.7379464119
 20
18.6968747115
 10
-1.7295519703
 20
18.6751026503
 10
-1.719414453
 20
18.6536182311
 10
-1.7076795566
 20
18.6327302317
 10
-1.6945159348
 20
18.612738857
 10
-1.6801127757
 20
18.5939314264
 10
-1.6646770838
 20
18.5765782453
 10
-1.648430703
 20
18.5609287171
 10
-1.6316071274
 20
18.5472077592
 10
-1.6144481474
 20
18.5356125721
  0
LINE
  5
485
100
AcDbEntity
  8
ASSI
100
AcDbLine
 62
250
  6
CONTINUOUS
 10
-2.1407200655
 20
18.1727796507
 11
-2.1108517027
 21
17.9254359603
  0
LINE
  5
486
100
AcDbEntity
  8
ASSI
100
AcDbLine
 62
250
  6
CONTINUOUS
 10
0.264803891
 20
19.6422338877
 11
0.2778565965
 21
19.522729354
  0
LWPOLYLINE
  5
487
100
AcDbEntity
  8
RACCORDO
100
AcDbPolyline
 62
7
  6
CONTINUOUS
 90
6
 70
0
 10
3.3123146952
 20
10.1408187192
 10
3.3093609123
 20
10.1727989524
 10
3.3044711714
 20
10.205429694
 10
3.2975877799
 20
10.2389329656
 10
3.2887684305
 20
10.2730867457
 10
3.2781862012
 20
10.3072249702
  0
LINE
  5
488
100
AcDbEntity
  8
ASSI
100
AcDbLine
 62
250
  6
CONTINUOUS
 10
0.5450086725
 20
18.8453725422
 11
0.5741919372
 21
18.5227765673
  0
LINE
  5
489
100
AcDbEntity
  8
ASSI
100
AcDbLine
 62
250
  6
CONTINUOUS
 10
0.512810897
 20
19.2216354755
 11
0.5450086725
 21
18.8453725422
  0
LWPOLYLINE
  5
48A
100
AcDbEntity
  8
ASSI
100
AcDbPolyline
 62
250
  6
CONTINUOUS
 90
3
 70
0
 10
0.4777797493
 20
19.6563593079
 10
0.4849755654
 20
19.5648486667
 10
0.512810897
 20
19.2216354755
  0
LINE
  5
48B
100
AcDbEntity
  8
ASSI
100
AcDbLine
 62
7
  6
CONTINUOUS
 10
1.2717105511
 20
23.2435388206
 11
1.2773956754
 21
23.1149999996
  0
LINE
  5
48C
100
AcDbEntity
  8
ASSI
100
AcDbLine
 62
250
  6
CONTINUOUS
 10
1.1685652326
 20
19.707119908
 11
1.1510705713
 21
20.1722053968
  0
LINE
  5
48D
100
AcDbEntity
  8
RACCORDO
100
AcDbLine
 62
7
  6
CONTINUOUS
 10
3.3133325202
 20
10.1094889946
 11
3.3123146952
 21
10.1408187192
  0
LINE
  5
48E
100
AcDbEntity
  8
ASSI
100
AcDbLine
 62
250
  6
CONTINUOUS
 10
1.17824876
 20
19.4033802226
 11
1.1685652326
 21
19.707119908
  0
LINE
  5
48F
100
AcDbEntity
  8
ASSI
100
AcDbLine
 62
250
  6
CONTINUOUS
 10
1.1859145978
 20
19.1208586591
 11
1.17824876
 21
19.4033802226
  0
LINE
  5
490
100
AcDbEntity
  8
ASSI
100
AcDbLine
 62
250
  6
CONTINUOUS
 10
1.1899578071
 20
18.9451789811
 11
1.1859145978
 21
19.1208586591
  0
LINE
  5
491
100
AcDbEntity
  8
ASSI
100
AcDbLine
 62
7
  6
CONTINUOUS
 10
1.1440044212
 20
19.9286324632
 11
1.1440044212
 21
18.7979108583
  0
LINE
  5
492
100
AcDbEntity
  8
ASSI
100
AcDbLine
 62
7
  6
CONTINUOUS
 10
2.1461185613
 20
17.3342040509
 11
2.1461185613
 21
17.1333500157
  0
LINE
  5
493
100
AcDbEntity
  8
DRAFT
100
AcDbLine
 62
250
  6
CONTINUOUS
 10
2.2632758488
 20
17.171728986
 11
2.2632758488
 21
17.0657048662
  0
LINE
  5
494
100
AcDbEntity
  8
ASSI
100
AcDbLine
 62
7
  6
CONTINUOUS
 10
2.7798202981
 20
15.4448285211
 11
2.7798202981
 21
15.3441656942
  0
LINE
  5
495
100
AcDbEntity
  8
RACCORDO
100
AcDbLine
 62
7
  6
CONTINUOUS
 10
3.2746322906
 20
10.2155578721
 11
3.2746322906
 21
-18.3842985102
  0
LINE
  5
496
100
AcDbEntity
  8
RACCORDO
100
AcDbLine
 62
7
  6
CONTINUOUS
 10
3.3133325202
 20
10.1094889946
 11
3.3133325202
 21
-18.3229196879
  0
LINE
  5
497
100
AcDbEntity
  8
RACCORDO
100
AcDbLine
 62
7
  6
CONTINUOUS
 10
3.3123146952
 20
-18.3530740537
 11
3.3133325202
 21
-18.3229196879
  0
LWPOLYLINE
  5
498
100
AcDbEntity
  8
RACCORDO
100
AcDbPolyline
 62
7
  6
CONTINUOUS
 90
10
 70
0
 10
3.2746322906
 20
-18.3842985102
 10
3.2736019009
 20
-18.4146312078
 10
3.2706126872
 20
-18.4433571814
 10
3.2656646495
 20
-18.470476431
 10
3.2586986092
 20
-18.49614694
 10
3.249773745
 20
-18.520210725
 10
3.2390675928
 20
-18.5421938358
 10
3.2266393314
 20
-18.561938289
 10
3.212429782
 20
-18.5796020679
 10
3.1964389447
 20
-18.5951851727
  0
LWPOLYLINE
  5
499
100
AcDbEntity
  8
RACCORDO
100
AcDbPolyline
 62
7
  6
CONTINUOUS
 90
6
 70
0
 10
-0.1155629968
 20
-20.6370851528
 10
-0.1158077951
 20
-20.6390621478
 10
-0.1185917481
 20
-20.6429375966
 10
-0.1240097333
 20
-20.6484620493
 10
-0.1319410287
 20
-20.6556027936
 10
-0.1422398142
 20
-20.6642756568
  0
LWPOLYLINE
  5
49A
100
AcDbEntity
  8
RACCORDO
100
AcDbPolyline
 62
7
  6
CONTINUOUS
 90
3
 70
0
 10
5.735286268
 20
19.1655453291
 10
5.7282103833
 20
19.1257623823
 10
5.7244413157
 20
19.1054621695
  0
LWPOLYLINE
  5
49B
100
AcDbEntity
  8
RACCORDO
100
AcDbPolyline
 62
7
  6
CONTINUOUS
 90
3
 70
0
 10
5.7244413157
 20
19.1054621695
 10
5.7084817411
 20
19.0229361075
 10
5.7023475518
 20
18.9903446913
  0
LWPOLYLINE
  5
49C
100
AcDbEntity
  8
DRAFT
100
AcDbPolyline
 62
7
  6
CONTINUOUS
 90
3
 70
0
 10
-9.969414354
 20
-16.0680809874
 10
-9.9725296985
 20
-16.0732388651
 10
-9.9758064086
 20
-16.0810553428
  0
LWPOLYLINE
  5
49D
100
AcDbEntity
  8
DRAFT
100
AcDbPolyline
 62
7
  6
CONTINUOUS
 90
4
 70
0
 10
-9.6781582873
 20
-17.2584147957
 10
-9.6808937279
 20
-17.2629363024
 10
-9.6842340882
 20
-17.2709175834
 10
-9.686570417
 20
-17.2802292804
  0
LWPOLYLINE
  5
49E
100
AcDbEntity
  8
0
100
AcDbPolyline
 62
7
  6
CONTINUOUS
 90
5
 70
0
 10
-9.9694140287
 20
-16.0680805326
 10
-9.9725190479
 20
-16.0732059724
 10
-9.9758017735
 20
-16.0810358642
 10
-9.9779606775
 20
-16.0901085055
 10
-9.9789788238
 20
-16.1002551149
  0
LWPOLYLINE
  5
49F
100
AcDbEntity
  8
0
100
AcDbPolyline
 62
7
  6
CONTINUOUS
 90
4
 70
0
 10
-9.678157812
 20
-17.2584141204
 10
-9.6809127838
 20
-17.2629598163
 10
-9.6842459982
 20
-17.2709322796
 10
-9.686570417
 20
-17.2802292804
  0
LWPOLYLINE
  5
4A0
100
AcDbEntity
  8
DRAFT
100
AcDbPolyline
 62
7
  6
CONTINUOUS
 90
5
 70
0
 10
-9.7175952915
 20
-14.5640019465
 10
-9.7205298707
 20
-14.5687974266
 10
-9.7238340496
 20
-14.5767775017
 10
-9.7260572493
 20
-14.5859637504
 10
-9.7270858589
 20
-14.5959102073
  0
LWPOLYLINE
  5
4A1
100
AcDbEntity
  8
0
100
AcDbPolyline
 62
7
  6
CONTINUOUS
 90
6
 70
0
 10
-9.7175949518
 20
-14.5640014671
 10
-9.7205298707
 20
-14.5687974266
 10
-9.7238368107
 20
-14.5767935479
 10
-9.7260596999
 20
-14.5859992702
 10
-9.7270876097
 20
-14.5959552019
 10
-9.7268835641
 20
-14.6065082125
  0
LWPOLYLINE
  5
4A2
100
AcDbEntity
  8
0
100
AcDbPolyline
 62
7
  6
CONTINUOUS
 90
4
 70
0
 10
-11.7991756892
 20
-17.6207443021
 10
-11.7879216992
 20
-17.6034265088
 10
-11.7789348085
 20
-17.5831719074
 10
-11.7722150174
 20
-17.559980498
  0
LWPOLYLINE
  5
4A3
100
AcDbEntity
  8
0
100
AcDbPolyline
 62
7
  6
CONTINUOUS
 90
4
 70
0
 10
-8.2688007035
 20
-16.7720580606
 10
-8.2644586937
 20
-16.7654101348
 10
-8.2611254793
 20
-16.7574376715
 10
-8.2588010605
 20
-16.7481406707
  0
LWPOLYLINE
  5
4A4
100
AcDbEntity
  8
0
100
AcDbPolyline
 62
7
  6
CONTINUOUS
 90
4
 70
0
 10
-9.6555967077
 20
-19.8806123598
 10
-9.6512546979
 20
-19.873964434
 10
-9.6479214836
 20
-19.8659919707
 10
-9.6455970647
 20
-19.8566949699
  0
LINE
  5
4A5
100
AcDbEntity
  8
COPY_PUBLISH
100
AcDbLine
 62
7
  6
CONTINUOUS
 10
-9.9636778936
 20
-16.0599582432
 11
-9.9695490511
 21
-16.0682705208
  0
LWPOLYLINE
  5
4A6
100
AcDbEntity
  8
0
100
AcDbPolyline
 62
7
  6
CONTINUOUS
 90
4
 70
0
 10
-13.4121954119
 20
-13.2172198848
 10
-13.4570750494
 20
-13.2548659251
 10
-13.4976826044
 20
-13.2993487068
 10
-13.5153147072
 20
-13.3226650152
  0
LWPOLYLINE
  5
4A7
100
AcDbEntity
  8
0
100
AcDbPolyline
 62
7
  6
CONTINUOUS
 90
3
 70
0
 10
-13.5439695323
 20
-11.7292061779
 10
-13.5500119866
 20
-11.7340111665
 10
-13.5543346301
 20
-11.7390462642
  0
LINE
  5
4A8
100
AcDbEntity
  8
RACCORDO
100
AcDbLine
 62
250
  6
CONTINUOUS
 10
13.6233369968
 20
8.3112772822
 11
14.4331091537
 21
8.8126657332
  0
LWPOLYLINE
  5
4A9
100
AcDbEntity
  8
DRAFT
100
AcDbPolyline
 62
7
  6
CONTINUOUS
 90
3
 70
0
 10
-10.499607595
 20
5.4683935937
 10
-10.4862861189
 20
5.4653679645
 10
-10.4733112739
 20
5.4635087457
  0
LINE
  5
4AA
100
AcDbEntity
  8
DRAFT
100
AcDbLine
 62
7
  6
CONTINUOUS
 10
-10.513105782
 20
5.4725470404
 11
-10.499607595
 21
5.4683935937
  0
LWPOLYLINE
  5
4AB
100
AcDbEntity
  8
DRAFT
100
AcDbPolyline
 62
7
  6
CONTINUOUS
 90
3
 70
0
 10
-10.540519009
 20
5.4842116578
 10
-10.52672404
 20
5.4778154404
 10
-10.513105782
 20
5.4725470404
  0
LWPOLYLINE
  5
4AC
100
AcDbEntity
  8
0
100
AcDbPolyline
 62
7
  6
CONTINUOUS
 90
5
 70
0
 10
-10.454173002
 20
9.550998374
 10
-10.4389299279
 20
9.5435837446
 10
-10.4245208285
 20
9.5388083065
 10
-10.4109457038
 20
9.5366720596
 10
-10.4008898071
 20
9.5368085772
  0
LWPOLYLINE
  5
4AD
100
AcDbEntity
  8
DRAFT
100
AcDbPolyline
 62
7
  6
CONTINUOUS
 90
9
 70
0
 10
-10.454173002
 20
9.550998374
 10
-10.4466990314
 20
9.5469947301
 10
-10.4393328291
 20
9.5436374562
 10
-10.4320743952
 20
9.5409265522
 10
-10.4248893836
 20
9.5388551021
 10
-10.4178121403
 20
9.537430022
 10
-10.4109457038
 20
9.5366720596
 10
-10.4042931581
 20
9.5365909751
 10
-10.4009964214
 20
9.5367987086
  0
LINE
  5
4AE
100
AcDbEntity
  8
DRAFT
100
AcDbLine
 62
7
  6
CONTINUOUS
 10
-10.8110018285
 20
9.7570268663
 11
-10.454173002
 21
9.550998374
  0
LINE
  5
4AF
100
AcDbEntity
  8
0
100
AcDbLine
 62
7
  6
CONTINUOUS
 10
-10.454173002
 20
9.550998374
 11
-10.8110018285
 21
9.7570268663
  0
LWPOLYLINE
  5
4B0
100
AcDbEntity
  8
0
100
AcDbPolyline
 62
7
  6
CONTINUOUS
 90
4
 70
0
 10
-11.3618954874
 20
11.328331775
 10
-11.446259798
 20
11.379284504
 10
-11.5310332858
 20
11.4229267084
 10
-11.6144076654
 20
11.4583531743
  0
LWPOLYLINE
  5
4B1
100
AcDbEntity
  8
0
100
AcDbPolyline
 62
7
  6
CONTINUOUS
 90
4
 70
0
 10
-11.1127799391
 20
11.132394146
 10
-11.1944091817
 20
11.2042306046
 10
-11.277947746
 20
11.2699364521
 10
-11.3618954874
 20
11.328331775
  0
LINE
  5
4B2
100
AcDbEntity
  8
DRAFT
100
AcDbLine
 62
7
  6
CONTINUOUS
 10
-7.4962862972
 20
22.2095512858
 11
-7.4840248651
 21
22.1883138625
  0
LWPOLYLINE
  5
4B3
100
AcDbEntity
  8
RACCORDO
100
AcDbPolyline
 62
7
  6
CONTINUOUS
 90
3
 70
0
 10
-0.1422398142
 20
9.0923105984
 10
-0.230425633
 20
9.2648276471
 10
-0.3444639071
 20
9.4852930492
  0
LWPOLYLINE
  5
4B4
100
AcDbEntity
  8
RACCORDO
100
AcDbPolyline
 62
7
  6
CONTINUOUS
 90
13
 70
0
 10
-0.1422398142
 20
9.0923105984
 10
-0.1319410288
 20
9.0691383006
 10
-0.1240097333
 20
9.0450583321
 10
-0.1185917481
 20
9.0204445241
 10
-0.1158077951
 20
8.9956715747
 10
-0.1157034521
 20
8.9711349693
 10
-0.1182487435
 20
8.9472448891
 10
-0.1234132121
 20
8.9243762927
 10
-0.1311324687
 20
8.9028907372
 10
-0.1412576062
 20
8.8831545365
 10
-0.1536192584
 20
8.8654875079
 10
-0.1680339096
 20
8.8501601602
 10
-0.1842712871
 20
8.8374157047
  0
LWPOLYLINE
  5
4B5
100
AcDbEntity
  8
ASSI
100
AcDbPolyline
 62
250
  6
CONTINUOUS
 90
8
 70
0
 10
-0.9137444371
 20
15.1477398927
 10
-0.9095657567
 20
15.1351069111
 10
-0.9070104606
 20
15.1234968272
 10
-0.9061041901
 20
15.1130352194
 10
-0.906853951
 20
15.1038377586
 10
-0.9092485943
 20
15.0959992053
 10
-0.913264644
 20
15.0895972178
 10
-0.9143977507
 20
15.0883522798
  0
LWPOLYLINE
  5
4B6
100
AcDbEntity
  8
ASSI
100
AcDbPolyline
 62
7
  6
CONTINUOUS
 90
4
 70
0
 10
-1.190956573
 20
17.5830857814
 10
-1.1840806149
 20
17.5503665257
 10
-1.1787044004
 20
17.5052345411
 10
-1.1767955404
 20
17.4570527067
  0
LWPOLYLINE
  5
4B7
100
AcDbEntity
  8
ASSI
100
AcDbPolyline
 62
7
  6
CONTINUOUS
 90
5
 70
0
 10
-1.3373086246
 20
18.5615712109
 10
-1.334491022
 20
18.5461786983
 10
-1.3324766987
 20
18.5306949262
 10
-1.3312703584
 20
18.5151796622
 10
-1.3308693171
 20
18.4996713866
  0
LINE
  5
4B8
100
AcDbEntity
  8
ASSI
100
AcDbLine
 62
250
  6
CONTINUOUS
 10
0.3688570496
 20
18.7429599228
 11
0.40076463
 21
18.4908597646
  0
LWPOLYLINE
  5
4B9
100
AcDbEntity
  8
ASSI
100
AcDbPolyline
 62
250
  6
CONTINUOUS
 90
13
 70
0
 10
-0.9237892147
 20
18.9314766223
 10
-0.9264293229
 20
18.9529001659
 10
-0.9312170717
 20
18.9749991423
 10
-0.9380793455
 20
18.9974362005
 10
-0.9469113597
 20
19.0198688298
 10
-0.9575782696
 20
19.0419546092
 10
-0.9699172355
 20
19.0633564333
 10
-0.9837398876
 20
19.0837476187
 10
-0.998835217
 20
19.1028169227
 10
-1.0149728144
 20
19.1202733061
 10
-1.0319063533
 20
19.1358503297
 10
-1.0493773443
 20
19.1493102282
 10
-1.0671191053
 20
19.160447564
  0
LWPOLYLINE
  5
4BA
100
AcDbEntity
  8
ASSI
100
AcDbPolyline
 62
250
  6
CONTINUOUS
 90
13
 70
0
 10
0.2648038909
 20
19.6422338876
 10
0.262163869
 20
19.6636569268
 10
0.2573762761
 20
19.6857554821
 10
0.250514193
 20
19.7081922286
 10
0.2416823663
 20
19.7306246789
 10
0.2310156102
 20
19.7527104113
 10
0.218676748
 20
19.7741122963
 10
0.2048541273
 20
19.7945036432
 10
0.1897587445
 20
19.8135731869
 10
0.1736210242
 20
19.8310298389
 10
0.1566873018
 20
19.8466071309
 10
0.1392160633
 20
19.8600672821
 10
0.1214739998
 20
19.871204829
  0
LWPOLYLINE
  5
4BB
100
AcDbEntity
  8
ASSI
100
AcDbPolyline
 62
250
  6
CONTINUOUS
 90
13
 70
0
 10
1.1510705703
 20
20.1722053962
 10
1.1484305505
 20
20.1936284226
 10
1.1436429613
 20
20.2157269688
 10
1.1367808819
 20
20.2381637103
 10
1.1279490572
 20
20.2605961617
 10
1.1172823007
 20
20.2826818995
 10
1.1049434372
 20
20.3040837899
 10
1.0911208153
 20
20.3244751411
 10
1.0760254307
 20
20.3435446887
 10
1.0598877085
 20
20.3610013438
 10
1.0429539846
 20
20.3765786379
 10
1.0254827448
 20
20.3900387906
 10
1.0077406804
 20
20.4011763383
  0
LINE
  5
4BC
100
AcDbEntity
  8
ASSI
100
AcDbLine
 62
250
  6
CONTINUOUS
 10
0.3343826536
 20
19.0274721739
 11
0.3688570496
 21
18.7429599228
  0
LINE
  5
4BD
100
AcDbEntity
  8
ASSI
100
AcDbLine
 62
250
  6
CONTINUOUS
 10
0.3067572263
 20
19.2649151855
 11
0.3343826536
 21
19.0274721739
  0
LINE
  5
4BE
100
AcDbEntity
  8
ASSI
100
AcDbLine
 62
250
  6
CONTINUOUS
 10
0.2778565965
 20
19.522729354
 11
0.3067572263
 21
19.2649151855
  0
LINE
  5
4BF
100
AcDbEntity
  8
ASSI
100
AcDbLine
 62
250
  6
CONTINUOUS
 10
3.5312008771
 20
20.2929753679
 11
3.4768814292
 21
21.0412393329
  0
LINE
  5
4C0
100
AcDbEntity
  8
ASSI
100
AcDbLine
 62
250
  6
CONTINUOUS
 10
3.6083475536
 20
20.3510811234
 11
3.5552033585
 21
21.0831556881
  0
LINE
  5
4C1
100
AcDbEntity
  8
ASSI
100
AcDbLine
 62
7
  6
CONTINUOUS
 10
4.336186296
 20
21.0837670459
 11
4.3053111714
 21
21.5090796004
  0
LINE
  5
4C2
100
AcDbEntity
  8
RACCORDO
100
AcDbLine
 62
7
  6
CONTINUOUS
 10
5.7479293496
 20
19.5799332296
 11
5.7479293496
 21
19.2839852596
  0
LINE
  5
4C3
100
AcDbEntity
  8
DRAFT
100
AcDbLine
 62
7
  6
CONTINUOUS
 10
6.0056921275
 20
20.1190945901
 11
6.0056921275
 21
18.9632870662
  0
LINE
  5
4C4
100
AcDbEntity
  8
DRAFT
100
AcDbLine
 62
7
  6
CONTINUOUS
 10
8.4398566838
 20
17.1710784415
 11
8.4398566838
 21
16.8489287598
  0
LWPOLYLINE
  5
4C5
100
AcDbEntity
  8
RACCORDO
100
AcDbPolyline
 62
7
  6
CONTINUOUS
 90
8
 70
0
 10
5.7479293496
 20
19.2839852596
 10
5.7475748889
 20
19.2699323182
 10
5.7467394944
 20
19.2548022599
 10
5.7454148884
 20
19.2386573791
 10
5.743515585
 20
19.2214962588
 10
5.7411028606
 20
19.2034463177
 10
5.7383751826
 20
19.1847655564
 10
5.735286268
 20
19.1655453291
  0
LWPOLYLINE
  5
4C6
100
AcDbEntity
  8
ASSI
100
AcDbPolyline
 62
7
  6
CONTINUOUS
 90
28
 70
0
 10
5.7479293496
 20
19.5799332296
 10
5.7483299726
 20
19.5955856938
 10
5.749365145
 20
19.6124565266
 10
5.7510664891
 20
19.6304533816
 10
5.7535417167
 20
19.6496155867
 10
5.7567498202
 20
19.6697289941
 10
5.7605422659
 20
19.6903191819
 10
5.7650214688
 20
19.7112339484
 10
5.7702502342
 20
19.7324771685
 10
5.7760596854
 20
19.7538181803
 10
5.7825352255
 20
19.77522787
 10
5.7897405582
 20
19.7966501886
 10
5.7974785969
 20
19.8178316153
 10
5.805755963
 20
19.8386388081
 10
5.8147049465
 20
19.8591830896
 10
5.8243042677
 20
19.8795840302
 10
5.8345640007
 20
19.8998484639
 10
5.8455597437
 20
19.9199641457
 10
5.8573491233
 20
19.9400153398
 10
5.8699581984
 20
19.9600342144
 10
5.8834226106
 20
19.9799961925
 10
5.8978081778
 20
19.999902703
 10
5.9131218808
 20
20.0197676433
 10
5.9294058242
 20
20.039606201
 10
5.9467771421
 20
20.0594327787
 10
5.9652873898
 20
20.0792715101
 10
5.9849210736
 20
20.0991499218
 10
6.0056921275
 20
20.1190945901
  0
LWPOLYLINE
  5
4C7
100
AcDbEntity
  8
DRAFT
100
AcDbPolyline
 62
7
  6
CONTINUOUS
 90
3
 70
0
 10
-9.9625313232
 20
-16.0607680928
 10
-9.9681022211
 20
-16.0664706065
 10
-9.969414354
 20
-16.0680809874
  0
LWPOLYLINE
  5
4C8
100
AcDbEntity
  8
DRAFT
100
AcDbPolyline
 62
7
  6
CONTINUOUS
 90
13
 70
0
 10
-8.4557755491
 20
-15.6194636312
 10
-8.4502046513
 20
-15.6137611175
 10
-8.4457771738
 20
-15.6069928589
 10
-8.4424931169
 20
-15.5991588555
 10
-8.4403375572
 20
-15.5900925307
 10
-8.4393254179
 20
-15.579960461
 10
-8.4395014685
 20
-15.5692623763
 10
-8.4409216754
 20
-15.5579716159
 10
-8.4435300721
 20
-15.5461148404
 10
-8.4472035283
 20
-15.5342717618
 10
-8.4519010005
 20
-15.5226356172
 10
-8.4576635322
 20
-15.5110131693
 10
-8.4644911234
 20
-15.4994044182
  0
LWPOLYLINE
  5
4C9
100
AcDbEntity
  8
0
100
AcDbPolyline
 62
7
  6
CONTINUOUS
 90
3
 70
0
 10
-9.9625313234
 20
-16.0607680929
 10
-9.9680955645
 20
-16.0664500486
 10
-9.9694140287
 20
-16.0680805326
  0
LWPOLYLINE
  5
4CA
100
AcDbEntity
  8
0
100
AcDbPolyline
 62
7
  6
CONTINUOUS
 90
4
 70
0
 10
-8.4557755491
 20
-15.6194636312
 10
-8.4502113079
 20
-15.6137816754
 10
-8.4457878245
 20
-15.6070257516
 10
-8.4425050988
 20
-15.5991958598
  0
LWPOLYLINE
  5
4CB
100
AcDbEntity
  8
0
100
AcDbPolyline
 62
7
  6
CONTINUOUS
 90
4
 70
0
 10
-12.0890313819
 20
-15.3347188742
 10
-12.0441517445
 20
-15.2970728338
 10
-12.0035441895
 20
-15.2525900521
 10
-11.9680699847
 20
-15.202239792
  0
LWPOLYLINE
  5
4CC
100
AcDbEntity
  8
0
100
AcDbPolyline
 62
7
  6
CONTINUOUS
 90
4
 70
0
 10
-12.1245299057
 20
-13.0733064502
 10
-12.1185217924
 20
-13.069376292
 10
-12.1132847879
 20
-13.064051644
 10
-12.1088188921
 20
-13.0573325065
  0
LINE
  5
4CD
100
AcDbEntity
  8
DRAFT
100
AcDbLine
 62
7
  6
CONTINUOUS
 10
13.6233369968
 20
5.868365798
 11
13.835719151
 21
6.0034144921
  0
LINE
  5
4CE
100
AcDbEntity
  8
RACCORDO
100
AcDbLine
 62
250
  6
CONTINUOUS
 10
13.6233369968
 20
6.8824542978
 11
14.4331091537
 21
7.3838427488
  0
LWPOLYLINE
  5
4CF
100
AcDbEntity
  8
DRAFT
100
AcDbPolyline
 62
7
  6
CONTINUOUS
 90
3
 70
0
 10
-10.4733112739
 20
5.4635087457
 10
-10.4606875002
 20
5.4628308789
 10
-10.4481549955
 20
5.4633347621
  0
LWPOLYLINE
  5
4D0
100
AcDbEntity
  8
0
100
AcDbPolyline
 62
7
  6
CONTINUOUS
 90
4
 70
0
 10
-11.61469363
 20
11.4584746831
 10
-11.6972207211
 20
11.4857822004
 10
-11.7786346687
 20
11.504995488
 10
-11.8574734811
 20
11.5157695229
  0
LWPOLYLINE
  5
4D1
100
AcDbEntity
  8
DRAFT
100
AcDbPolyline
 62
7
  6
CONTINUOUS
 90
4
 70
0
 10
-11.4278198211
 20
10.7156683973
 10
-11.4764485002
 20
10.741190808
 10
-11.5252625786
 20
10.7616204103
 10
-11.5724504607
 20
10.7762300372
  0
LWPOLYLINE
  5
4D2
100
AcDbEntity
  8
ASSI
100
AcDbPolyline
 62
250
  6
CONTINUOUS
 90
7
 70
0
 10
-6.5897482962
 20
20.7142833294
 10
-6.5950998117
 20
20.7211099174
 10
-6.6104577629
 20
20.7372189486
 10
-6.6279806769
 20
20.7511321185
 10
-6.6473975356
 20
20.7626342915
 10
-6.6684080522
 20
20.7715476364
 10
-6.6906872952
 20
20.777734353
  0
LINE
  5
4D3
100
AcDbEntity
  8
RACCORDO
100
AcDbLine
 62
7
  6
CONTINUOUS
 10
1.2056939977
 20
14.1300649327
 11
0.9354857798
 21
14.5700154818
  0
LWPOLYLINE
  5
4D4
100
AcDbEntity
  8
ASSI
100
AcDbPolyline
 62
250
  6
CONTINUOUS
 90
4
 70
0
 10
-3.751998662
 20
22.0983758358
 10
-3.7463822211
 20
22.0891505595
 10
-3.7425751393
 20
22.0796488807
 10
-3.7424483358
 20
22.0790258077
  0
LWPOLYLINE
  5
4D5
100
AcDbEntity
  8
ASSI
100
AcDbPolyline
 62
250
  6
CONTINUOUS
 90
16
 70
0
 10
-3.5633743273
 20
22.3002642636
 10
-3.5542701929
 20
22.2832846895
 10
-3.5474601381
 20
22.2661281
 10
-3.542944163
 20
22.248794495
 10
-3.5407114381
 20
22.2311784441
 10
-3.5407727928
 20
22.2133853777
 10
-3.5431607158
 20
22.1957315874
 10
-3.5479370952
 20
22.1782033864
 10
-3.5550400429
 20
22.1608144615
 10
-3.5643163833
 20
22.1439221645
 10
-3.5758111528
 20
22.1275554009
 10
-3.589479315
 20
22.1116852652
 10
-3.6050325853
 20
22.0965823935
 10
-3.6223748688
 20
22.0823369977
 10
-3.6416022605
 20
22.0688588659
 10
-3.6627147602
 20
22.0561479981
  0
LWPOLYLINE
  5
4D6
100
AcDbEntity
  8
ASSI
100
AcDbPolyline
 62
250
  6
CONTINUOUS
 90
4
 70
0
 10
-1.3622813608
 20
18.634173666
 10
-1.3645474347
 20
18.6385509192
 10
-1.3691463326
 20
18.6460853351
 10
-1.3741232559
 20
18.6527865828
  0
LWPOLYLINE
  5
4D7
100
AcDbEntity
  8
RACCORDO
100
AcDbPolyline
 62
7
  6
CONTINUOUS
 90
9
 70
0
 10
3.1964389447
 20
10.5167402504
 10
2.9647329795
 20
10.9765805343
 10
2.7280842693
 20
11.4341688505
 10
2.4864928142
 20
11.8895051988
 10
2.2398719718
 20
12.3427457453
 10
1.9883083844
 20
12.793734324
 10
1.7320619789
 20
13.2420024368
 10
1.4712193974
 20
13.6873939177
 10
1.2056939977
 20
14.1300649327
  0
LINE
  5
4D8
100
AcDbEntity
  8
ASSI
100
AcDbLine
 62
7
  6
CONTINUOUS
 10
-1.3622631562
 20
18.6341362529
 11
-1.3622813608
 21
18.634173666
  0
LWPOLYLINE
  5
4D9
100
AcDbEntity
  8
RACCORDO
100
AcDbPolyline
 62
7
  6
CONTINUOUS
 90
10
 70
0
 10
3.1964389447
 20
10.5167402504
 10
3.212429782
 20
10.4826913275
 10
3.2266393314
 20
10.4486187172
 10
3.2390675928
 20
10.4145224192
 10
3.249773745
 20
10.3801761122
 10
3.2586986092
 20
10.3458061177
 10
3.2656646495
 20
10.3120914
 10
3.2706126872
 20
10.2792582805
 10
3.2736019009
 20
10.2470804379
 10
3.2746322906
 20
10.2155578721
  0
LINE
  5
4DA
100
AcDbEntity
  8
RACCORDO
100
AcDbLine
 62
7
  6
CONTINUOUS
 10
3.2518484886
 20
10.3750107096
 11
3.2360353126
 21
10.4088802459
  0
LWPOLYLINE
  5
4DB
100
AcDbEntity
  8
ASSI
100
AcDbPolyline
 62
7
  6
CONTINUOUS
 90
6
 70
0
 10
-1.3622444403
 20
18.6340978724
 10
-1.3567120881
 20
18.622115679
 10
-1.3506289409
 20
18.6071663018
 10
-1.3453655512
 20
18.5920601227
 10
-1.3409286516
 20
18.576856182
 10
-1.3373086246
 20
18.5615712109
  0
LINE
  5
4DC
100
AcDbEntity
  8
ASSI
100
AcDbLine
 62
7
  6
CONTINUOUS
 10
-1.3620760514
 20
18.6337349052
 11
-1.3620439834
 21
18.6336611896
  0
LWPOLYLINE
  5
4DD
100
AcDbEntity
  8
ASSI
100
AcDbPolyline
 62
250
  6
CONTINUOUS
 90
3
 70
0
 10
-3.7519987709
 20
22.0985804139
 10
-3.7450433116
 20
22.0822774448
 10
-3.7440636306
 20
22.0778681844
  0
LWPOLYLINE
  5
4DE
100
AcDbEntity
  8
RACCORDO
100
AcDbPolyline
 62
7
  6
CONTINUOUS
 90
3
 70
0
 10
3.2781862012
 20
10.3072249702
 10
3.2658987848
 20
10.3411256177
 10
3.2518484886
 20
10.3750107096
  0
LINE
  5
4DF
100
AcDbEntity
  8
DRAFT
100
AcDbLine
 62
7
  6
CONTINUOUS
 10
9.4447382122
 20
19.6243787442
 11
9.4447382122
 21
20.440849021
  0
LWPOLYLINE
  5
4E0
100
AcDbEntity
  8
RACCORDO
100
AcDbPolyline
 62
7
  6
CONTINUOUS
 90
6
 70
0
 10
3.2781862012
 20
-18.4800695753
 10
3.2887684305
 20
-18.4581514439
 10
3.2975877799
 20
-18.4341820274
 10
3.3044711714
 20
-18.4086275238
 10
3.3093609123
 20
-18.3816433323
 10
3.3123146952
 20
-18.3530740537
  0
LINE
  5
4E1
100
AcDbEntity
  8
0
100
AcDbLine
 62
7
  6
CONTINUOUS
 10
-9.9625313234
 20
-16.0607680929
 11
-9.6078312508
 21
-15.7774738571
  0
LINE
  5
4E2
100
AcDbEntity
  8
0
100
AcDbLine
 62
7
  6
CONTINUOUS
 10
-9.1354807538
 20
-15.4002137903
 11
-8.7807806811
 21
-15.1169195545
  0
LINE
  5
4E3
100
AcDbEntity
  8
DRAFT
100
AcDbLine
 62
7
  6
CONTINUOUS
 10
-8.7807806813
 20
-15.1169195545
 11
-9.1354807538
 21
-15.4002137903
  0
LINE
  5
4E4
100
AcDbEntity
  8
DRAFT
100
AcDbLine
 62
7
  6
CONTINUOUS
 10
-9.6078312508
 20
-15.7774738571
 11
-9.9625313232
 21
-16.0607680928
  0
LINE
  5
4E5
100
AcDbEntity
  8
DRAFT
100
AcDbLine
 62
7
  6
CONTINUOUS
 10
-9.637526191
 20
-16.5633121695
 11
-9.2828261186
 21
-16.2800179337
  0
LINE
  5
4E6
100
AcDbEntity
  8
DRAFT
100
AcDbLine
 62
7
  6
CONTINUOUS
 10
-8.8104756215
 20
-15.9027578669
 11
-8.4557755491
 21
-15.6194636312
  0
LINE
  5
4E7
100
AcDbEntity
  8
0
100
AcDbLine
 62
7
  6
CONTINUOUS
 10
-8.4557755491
 20
-15.6194636312
 11
-8.8104756215
 21
-15.9027578669
  0
LINE
  5
4E8
100
AcDbEntity
  8
0
100
AcDbLine
 62
7
  6
CONTINUOUS
 10
-9.2828261186
 20
-16.2800179337
 11
-9.637526191
 21
-16.5633121694
  0
LWPOLYLINE
  5
4E9
100
AcDbEntity
  8
0
100
AcDbPolyline
 62
7
  6
CONTINUOUS
 90
4
 70
0
 10
-10.6508859661
 20
-19.2902129499
 10
-10.6448443718
 20
-19.2856991295
 10
-10.6396485604
 20
-19.27972037
 10
-10.6355666005
 20
-19.2725903693
  0
LWPOLYLINE
  5
4EA
100
AcDbEntity
  8
DRAFT
100
AcDbPolyline
 62
7
  6
CONTINUOUS
 90
6
 70
0
 10
-10.6508859661
 20
-19.2902129499
 10
-10.6448521916
 20
-19.2857101006
 10
-10.6396618035
 20
-19.2797464631
 10
-10.6355730903
 20
-19.27260875
 10
-10.632672148
 20
-19.264392532
 10
-10.6308728806
 20
-19.2550022383
  0
LWPOLYLINE
  5
4EB
100
AcDbEntity
  8
0
100
AcDbPolyline
 62
7
  6
CONTINUOUS
 90
4
 70
0
 10
-9.704229282
 20
-14.5525347148
 10
-9.7105538136
 20
-14.5565567546
 10
-9.7160838676
 20
-14.5620722901
 10
-9.7175949518
 20
-14.5640014671
  0
LINE
  5
4EC
100
AcDbEntity
  8
RACCORDO
100
AcDbLine
 62
250
  6
CONTINUOUS
 10
13.6233369968
 20
-1.6496600946
 11
14.4331091537
 21
-1.1482716437
  0
LWPOLYLINE
  5
4ED
100
AcDbEntity
  8
0
100
AcDbPolyline
 62
7
  6
CONTINUOUS
 90
11
 70
0
 10
-10.4482091897
 20
5.4633298146
 10
-10.4298026076
 20
5.4665219416
 10
-10.4126328691
 20
5.4727124523
 10
-10.3968192793
 20
5.4818412562
 10
-10.3828722681
 20
5.4936136942
 10
-10.3708527399
 20
5.5081160256
 10
-10.3606997903
 20
5.5252619912
 10
-10.3527411353
 20
5.5444981548
 10
-10.3470860137
 20
5.5656400378
 10
-10.3436251868
 20
5.5888721188
 10
-10.3423586546
 20
5.6141943978
  0
LWPOLYLINE
  5
4EE
100
AcDbEntity
  8
DRAFT
100
AcDbPolyline
 62
7
  6
CONTINUOUS
 90
17
 70
0
 10
-10.4481549955
 20
5.4633347621
 10
-10.4366364452
 20
5.4649681452
 10
-10.4253722093
 20
5.4677919084
 10
-10.4146112038
 20
5.4717758505
 10
-10.4044906889
 20
5.4768691549
 10
-10.3950188692
 20
5.4830860325
 10
-10.3861875402
 20
5.4904122724
 10
-10.3781093486
 20
5.4987544259
 10
-10.3707939418
 20
5.5081255067
 10
-10.3642316723
 20
5.518512501
 10
-10.3585062442
 20
5.5297829193
 10
-10.3536283772
 20
5.5419480779
 10
-10.3495873516
 20
5.5549966604
 10
-10.3464347121
 20
5.5687622276
 10
-10.3441876402
 20
5.5831892997
 10
-10.3428289544
 20
5.5983333564
 10
-10.3423586546
 20
5.6141943978
  0
LWPOLYLINE
  5
4EF
100
AcDbEntity
  8
DRAFT
100
AcDbPolyline
 62
7
  6
CONTINUOUS
 90
4
 70
0
 10
-11.5726692743
 20
10.7762977831
 10
-11.6184057837
 20
10.7850222622
 10
-11.6627349105
 20
10.7879945117
 10
-11.6913265411
 20
10.7867092139
  0
LINE
  5
4F0
100
AcDbEntity
  8
DRAFT
100
AcDbLine
 62
7
  6
CONTINUOUS
 10
-0.8939528279
 20
12.5708187432
 11
-0.6416347754
 21
12.464707952
  0
LINE
  5
4F1
100
AcDbEntity
  8
0
100
AcDbLine
 62
250
  6
CONTINUOUS
 10
-3.9957367834
 20
13.187153777
 11
-18.8639509517
 21
21.7718742953
  0
LINE
  5
4F2
100
AcDbEntity
  8
0
100
AcDbLine
 62
250
  6
CONTINUOUS
 10
-3.6514383416
 20
13.7940426286
 11
-18.51965251
 21
22.3787631469
  0
LINE
  5
4F3
100
AcDbEntity
  8
DRAFT
100
AcDbLine
 62
7
  6
CONTINUOUS
 10
-0.8939528279
 20
12.6103932332
 11
0.1305157822
 21
12.0188778973
  0
LINE
  5
4F4
100
AcDbEntity
  8
DRAFT
100
AcDbLine
 62
7
  6
CONTINUOUS
 10
-11.7477996113
 20
20.4072716973
 11
-7.1516055335
 21
17.7534868407
  0
LINE
  5
4F5
100
AcDbEntity
  8
DRAFT
100
AcDbLine
 62
7
  6
CONTINUOUS
 10
-11.2303389027
 20
20.2755385123
 11
-6.9728721922
 21
17.8173305923
  0
LWPOLYLINE
  5
4F6
100
AcDbEntity
  8
ASSI
100
AcDbPolyline
 62
250
  6
CONTINUOUS
 90
3
 70
0
 10
-6.6298191025
 20
20.6740958623
 10
-6.6088597636
 20
20.6556426594
 10
-6.5846600405
 20
20.6376430374
  0
LWPOLYLINE
  5
4F7
100
AcDbEntity
  8
ASSI
100
AcDbPolyline
 62
250
  6
CONTINUOUS
 90
7
 70
0
 10
-1.3741232559
 20
18.6527865828
 10
-1.3793944092
 20
18.6587241083
 10
-1.3848479583
 20
18.6638939986
 10
-1.3903521745
 20
18.6682211713
 10
-1.3958218499
 20
18.6717136865
 10
-1.401210092
 20
18.6744577579
 10
-1.4064612828
 20
18.6765012358
  0
LWPOLYLINE
  5
4F8
100
AcDbEntity
  8
ASSI
100
AcDbPolyline
 62
250
  6
CONTINUOUS
 90
12
 70
0
 10
1.0886878613
 20
20.1043244794
 10
1.084508892
 20
20.1100838031
 10
1.0738951189
 20
20.1220138574
 10
1.0616310988
 20
20.1325184252
 10
1.0478512007
 20
20.1414824134
 10
1.0327064001
 20
20.1488076109
 10
1.0163626274
 20
20.154413761
 10
0.9989989473
 20
20.1582394422
 10
0.9808055967
 20
20.1602427394
 10
0.9619819042
 20
20.1604017033
 10
0.9427341068
 20
20.1587145911
 10
0.9232730872
 20
20.1551998864
  0
LWPOLYLINE
  5
4F9
100
AcDbEntity
  8
RACCORDO
100
AcDbPolyline
 62
7
  6
CONTINUOUS
 90
17
 70
0
 10
13.6183117437
 20
1.4820843076
 10
13.6963667896
 20
1.372134421
 10
13.7946858326
 20
1.2226110561
 10
13.8878104418
 20
1.0694499414
 10
13.9754928799
 20
0.9130804743
 10
14.0574459656
 20
0.7540165978
 10
14.1333963687
 20
0.5927786423
 10
14.2031216885
 20
0.4298024915
 10
14.2663756082
 20
0.2655933562
 10
14.322911065
 20
0.1006975732
 10
14.3725178652
 20
-0.06440344
 10
14.4149899696
 20
-0.2292156049
 10
14.4501181146
 20
-0.3931824033
 10
14.4777151637
 20
-0.5557649823
 10
14.4976139041
 20
-0.7164569667
 10
14.5096582363
 20
-0.8747533716
 10
14.5137030432
 20
-1.030138452
  0
LINE
  5
4FA
100
AcDbEntity
  8
ASSI
100
AcDbLine
 62
7
  6
CONTINUOUS
 10
1.0887259097
 20
20.104268459
 11
1.0886878613
 21
20.1043244794
  0
LWPOLYLINE
  5
4FB
100
AcDbEntity
  8
RACCORDO
100
AcDbPolyline
 62
250
  6
CONTINUOUS
 90
16
 70
0
 10
13.6220208092
 20
1.2706047572
 10
13.6758326143
 20
1.1895351346
 10
13.7744873414
 20
1.0287278284
 10
13.8674182288
 20
0.8644099243
 10
13.9542726569
 20
0.6972050202
 10
14.0347213368
 20
0.5277471488
 10
14.1084592276
 20
0.3566789053
 10
14.1752066456
 20
0.1846491599
 10
14.2347103816
 20
0.0123105333
 10
14.2867447484
 20
-0.159683306
 10
14.3311123695
 20
-0.3306799516
 10
14.3676449372
 20
-0.5000307308
 10
14.3962038725
 20
-0.6670932353
 10
14.4166808439
 20
-0.8312337402
 10
14.4289981781
 20
-0.9918296073
 10
14.4331091537
 20
-1.1482716437
  0
LINE
  5
4FC
100
AcDbEntity
  8
DRAFT
100
AcDbLine
 62
7
  6
CONTINUOUS
 10
3.1286776605
 20
16.5416582324
 11
2.9954668543
 21
16.7489710759
  0
LINE
  5
4FD
100
AcDbEntity
  8
DRAFT
100
AcDbLine
 62
7
  6
CONTINUOUS
 10
3.260896499
 20
16.3335877577
 11
3.1286776605
 21
16.5416582324
  0
LWPOLYLINE
  5
4FE
100
AcDbEntity
  8
ASSI
100
AcDbPolyline
 62
7
  6
CONTINUOUS
 90
10
 70
0
 10
1.0886878613
 20
20.1043244794
 10
1.1003908145
 20
20.0858500444
 10
1.1106974333
 20
20.0669598245
 10
1.1195995536
 20
20.0477337613
 10
1.127080395
 20
20.0283003058
 10
1.1331700235
 20
20.0086951669
 10
1.1379114916
 20
19.9888579814
 10
1.1413029924
 20
19.9688225642
 10
1.1433313521
 20
19.9487194586
 10
1.144004417
 20
19.9286324632
  0
LWPOLYLINE
  5
4FF
100
AcDbEntity
  8
ASSI
100
AcDbPolyline
 62
250
  6
CONTINUOUS
 90
13
 70
0
 10
2.3040234073
 20
15.7068137475
 10
2.2593925082
 20
15.7773618306
 10
2.2125303984
 20
15.845888517
 10
2.1636022638
 20
15.9121467895
 10
2.1127780105
 20
15.9758963191
 10
2.0602397662
 20
16.0369087343
 10
2.0061812264
 20
16.0949684261
 10
1.9507946706
 20
16.1498651123
 10
1.8942748202
 20
16.2014017707
 10
1.8368260496
 20
16.2493990932
 10
1.7786530841
 20
16.2936853751
 10
1.7199604721
 20
16.3340977992
 10
1.6609562389
 20
16.3704897217
  0
LINE
  5
500
100
AcDbEntity
  8
DRAFT
100
AcDbLine
 62
7
  6
CONTINUOUS
 10
3.3921196333
 20
16.1247655816
 11
3.260896499
 21
16.3335877577
  0
LINE
  5
501
100
AcDbEntity
  8
RACCORDO
100
AcDbLine
 62
7
  6
CONTINUOUS
 10
3.3472218216
 20
16.0335992646
 11
3.2260532482
 21
16.2269928147
  0
LWPOLYLINE
  5
502
100
AcDbEntity
  8
DRAFT
100
AcDbPolyline
 62
7
  6
CONTINUOUS
 90
3
 70
0
 10
3.5870602979
 20
15.8101658688
 10
3.5223321163
 20
15.9152154235
 10
3.3921196333
 20
16.1247655816
  0
LWPOLYLINE
  5
503
100
AcDbEntity
  8
ASSI
100
AcDbPolyline
 62
250
  6
CONTINUOUS
 90
16
 70
0
 10
0.9232728384
 20
20.1552004961
 10
0.9131440645
 20
20.1719854939
 10
0.9052972216
 20
20.188993802
 10
0.8997323099
 20
20.2062254202
 10
0.8964321094
 20
20.2237854955
 10
0.8954138401
 20
20.2415688809
 10
0.8967291615
 20
20.2592601363
 10
0.9004390933
 20
20.2768741919
 10
0.9064826157
 20
20.2943961175
 10
0.9147283294
 20
20.3114656821
 10
0.9252229967
 20
20.3280549091
 10
0.9379198554
 20
20.3441917751
 10
0.9525472185
 20
20.3595999792
 10
0.9690145239
 20
20.3741874211
 10
0.9874123337
 20
20.388046201
 10
1.007740648
 20
20.401176319
  0
LWPOLYLINE
  5
504
100
AcDbEntity
  8
RACCORDO
100
AcDbPolyline
 62
7
  6
CONTINUOUS
 90
16
 70
0
 10
3.3472218216
 20
16.0335992646
 10
3.3582701446
 20
16.0145406347
 10
3.367897327
 20
15.995262225
 10
3.3761033689
 20
15.9757640356
 10
3.382968057
 20
15.9557266015
 10
3.3884116046
 20
15.9354693876
 10
3.3921946513
 20
15.9159507885
 10
3.3942273772
 20
15.8973527656
 10
3.3945996023
 20
15.8794933575
 10
3.3933414262
 20
15.8627850745
 10
3.3904028836
 20
15.8471747323
 10
3.3858339397
 20
15.8327155152
 10
3.3798145907
 20
15.8199794858
 10
3.3724048352
 20
15.8091573317
 10
3.3635446744
 20
15.8000583653
 10
3.3532341085
 20
15.7926825866
  0
LWPOLYLINE
  5
505
100
AcDbEntity
  8
RACCORDO
100
AcDbPolyline
 62
250
  6
CONTINUOUS
 90
10
 70
0
 10
13.4799622214
 20
16.0466779415
 10
13.479038689
 20
16.0779072569
 10
13.4761121964
 20
16.1101001441
 10
13.4711992226
 20
16.1430753248
 10
13.4643274327
 20
16.1766471154
 10
13.4555355219
 20
16.2106264727
 10
13.4448729974
 20
16.2448220584
 10
13.4323999001
 20
16.2790413168
 10
13.4181864661
 20
16.3130915587
 10
13.4023127315
 20
16.3467810471
  0
LWPOLYLINE
  5
506
100
AcDbEntity
  8
0
100
AcDbPolyline
 62
7
  6
CONTINUOUS
 90
3
 70
0
 10
13.6233368803
 20
1.2524068715
 10
13.6232773752
 20
1.2564004706
 10
13.6213236622
 20
1.2784853432
  0
LINE
  5
507
100
AcDbEntity
  8
RACCORDO
100
AcDbLine
 62
250
  6
CONTINUOUS
 10
13.4799622214
 20
-12.3132257189
 11
13.4799622214
 21
16.0466779408
  0
LINE
  5
508
100
AcDbEntity
  8
0
100
AcDbLine
 62
7
  6
CONTINUOUS
 10
13.6183117437
 20
1.2117764872
 11
13.6183117437
 21
2.8447170408
  0
LINE
  5
509
100
AcDbEntity
  8
RACCORDO
100
AcDbLine
 62
7
  6
CONTINUOUS
 10
13.6233369968
 20
-12.1108776065
 11
13.6233369968
 21
1.2117764872
  0
LINE
  5
50A
100
AcDbEntity
  8
RACCORDO
100
AcDbLine
 62
7
  6
CONTINUOUS
 10
13.6233369968
 20
2.8855445001
 11
13.6233369968
 21
16.2490260531
  0
LINE
  5
50B
100
AcDbEntity
  8
RACCORDO
100
AcDbLine
 62
250
  6
CONTINUOUS
 10
14.4331091537
 20
8.8126657332
 11
14.4331091537
 21
7.3838427488
  0
LINE
  5
50C
100
AcDbEntity
  8
RACCORDO
100
AcDbLine
 62
250
  6
CONTINUOUS
 10
14.4331091537
 20
-1.1482716437
 11
14.4331091537
 21
-2.5770946281
  0
LINE
  5
50D
100
AcDbEntity
  8
RACCORDO
100
AcDbLine
 62
7
  6
CONTINUOUS
 10
14.5137030432
 20
8.9307989249
 11
14.5137030432
 21
7.5019759405
  0
LINE
  5
50E
100
AcDbEntity
  8
RACCORDO
100
AcDbLine
 62
7
  6
CONTINUOUS
 10
14.5137030432
 20
-1.030138452
 11
14.5137030432
 21
-2.4589614364
  0
LINE
  5
50F
100
AcDbEntity
  8
RACCORDO
100
AcDbLine
 62
250
  6
CONTINUOUS
 10
13.6233368559
 20
16.2488092842
 11
13.6233369968
 21
16.2490260531
  0
LWPOLYLINE
  5
510
100
AcDbEntity
  8
RACCORDO
100
AcDbPolyline
 62
7
  6
CONTINUOUS
 90
16
 70
0
 10
14.5137030432
 20
7.5019759405
 10
14.5104112011
 20
7.3653806445
 10
14.50054999
 20
7.2326100049
 10
14.484143218
 20
7.1039365157
 10
14.4611670585
 20
6.9793891958
 10
14.4316818275
 20
6.8595000396
 10
14.3959608362
 20
6.7452063935
 10
14.3541958132
 20
6.6367536173
 10
14.3065357795
 20
6.5342363429
 10
14.253399661
 20
6.438218311
 10
14.1951919337
 20
6.3489863604
 10
14.1320981889
 20
6.2664288302
 10
14.0642975797
 20
6.1904967589
 10
13.992057194
 20
6.1212675941
 10
13.9157481777
 20
6.0588836539
 10
13.835719151
 20
6.0034144921
  0
LWPOLYLINE
  5
511
100
AcDbEntity
  8
RACCORDO
100
AcDbPolyline
 62
7
  6
CONTINUOUS
 90
16
 70
0
 10
14.5137030432
 20
-2.4589614364
 10
14.5104112011
 20
-2.5955567324
 10
14.50054999
 20
-2.728327372
 10
14.484143218
 20
-2.8570008612
 10
14.4611670585
 20
-2.9815481811
 10
14.4316818275
 20
-3.1014373373
 10
14.3959608362
 20
-3.2157309833
 10
14.3541958132
 20
-3.3241837596
 10
14.3065357795
 20
-3.426701034
 10
14.253399661
 20
-3.5227190659
 10
14.1951919337
 20
-3.6119510165
 10
14.1320981889
 20
-3.6945085467
 10
14.0642975797
 20
-3.770440618
 10
13.992057194
 20
-3.8396697828
 10
13.9157481777
 20
-3.902053723
 10
13.835719151
 20
-3.9575228848
  0
LWPOLYLINE
  5
512
100
AcDbEntity
  8
RACCORDO
100
AcDbPolyline
 62
250
  6
CONTINUOUS
 90
14
 70
0
 10
14.4331091537
 20
7.3838427488
 10
14.4289981782
 20
7.2321479651
 10
14.4166808443
 20
7.0857758491
 10
14.3962038737
 20
6.9452816409
 10
14.3676449403
 20
6.8111982845
 10
14.3311123754
 20
6.6840344048
 10
14.2867447571
 20
6.5642723786
 10
14.234710389
 20
6.4523665151
 10
14.1752066496
 20
6.3487413034
 10
14.1084592365
 20
6.2537898082
 10
14.0347213738
 20
6.1678722604
 10
13.9542727376
 20
6.0913145382
 10
13.8674183417
 20
6.0244069592
 10
13.835719151
 20
6.0034144921
  0
LWPOLYLINE
  5
513
100
AcDbEntity
  8
RACCORDO
100
AcDbPolyline
 62
250
  6
CONTINUOUS
 90
14
 70
0
 10
14.4331091537
 20
-2.5770946281
 10
14.4289981782
 20
-2.7287894118
 10
14.4166808443
 20
-2.8751615278
 10
14.3962038737
 20
-3.015655736
 10
14.3676449403
 20
-3.1497390924
 10
14.3311123754
 20
-3.2769029721
 10
14.2867447571
 20
-3.3966649983
 10
14.234710389
 20
-3.5085708617
 10
14.1752066496
 20
-3.6121960734
 10
14.1084592365
 20
-3.7071475686
 10
14.0347213738
 20
-3.7930651165
 10
13.9542727376
 20
-3.8696228387
 10
13.8674183417
 20
-3.9365304177
 10
13.835719151
 20
-3.9575228848
  0
LWPOLYLINE
  5
514
100
AcDbEntity
  8
RACCORDO
100
AcDbPolyline
 62
250
  6
CONTINUOUS
 90
9
 70
0
 10
14.5137030432
 20
8.9307989249
 10
14.5135322706
 20
8.9249551928
 10
14.5109273954
 20
8.9072907837
 10
14.5052090659
 20
8.8898726247
 10
14.4964371824
 20
8.8728831727
 10
14.4847036311
 20
8.8565003938
 10
14.4701313221
 20
8.8408958994
 10
14.4528729017
 20
8.8262331479
 10
14.4331091537
 20
8.8126657332
  0
LWPOLYLINE
  5
515
100
AcDbEntity
  8
RACCORDO
100
AcDbPolyline
 62
250
  6
CONTINUOUS
 90
9
 70
0
 10
14.5137030432
 20
7.5019759405
 10
14.5135322706
 20
7.4961322084
 10
14.5109273954
 20
7.4784677993
 10
14.505209066
 20
7.4610496403
 10
14.4964371824
 20
7.4440601883
 10
14.4847036311
 20
7.4276774094
 10
14.4701313221
 20
7.412072915
 10
14.4528729017
 20
7.3974101635
 10
14.4331091537
 20
7.3838427488
  0
LWPOLYLINE
  5
516
100
AcDbEntity
  8
RACCORDO
100
AcDbPolyline
 62
250
  6
CONTINUOUS
 90
9
 70
0
 10
14.5137030432
 20
-1.030138452
 10
14.5135322706
 20
-1.0359821841
 10
14.5109273954
 20
-1.0536465932
 10
14.5052090659
 20
-1.0710647522
 10
14.4964371824
 20
-1.0880542042
 10
14.4847036311
 20
-1.104436983
 10
14.4701313221
 20
-1.1200414775
 10
14.4528729017
 20
-1.134704229
 10
14.4331091537
 20
-1.1482716437
  0
LWPOLYLINE
  5
517
100
AcDbEntity
  8
RACCORDO
100
AcDbPolyline
 62
250
  6
CONTINUOUS
 90
9
 70
0
 10
14.5137030432
 20
-2.4589614364
 10
14.5135322706
 20
-2.4648051684
 10
14.5109273954
 20
-2.4824695775
 10
14.505209066
 20
-2.4998877366
 10
14.4964371824
 20
-2.5168771886
 10
14.4847036311
 20
-2.5332599674
 10
14.4701313221
 20
-2.5488644619
 10
14.4528729017
 20
-2.5635272133
 10
14.4331091537
 20
-2.5770946281
  0
LWPOLYLINE
  5
518
100
AcDbEntity
  8
0
100
AcDbPolyline
 62
7
  6
CONTINUOUS
 90
3
 70
0
 10
13.6183117437
 20
2.8447170408
 10
13.6222734023
 20
2.8671047389
 10
13.6233368803
 20
2.8853474251
  0
LWPOLYLINE
  5
519
100
AcDbEntity
  8
0
100
AcDbPolyline
 62
7
  6
CONTINUOUS
 90
3
 70
0
 10
13.6183117437
 20
1.2117764872
 10
13.6222734023
 20
1.2341641853
 10
13.6233368803
 20
1.2524068715
  0
LWPOLYLINE
  5
51A
100
AcDbEntity
  8
RACCORDO
100
AcDbPolyline
 62
250
  6
CONTINUOUS
 90
4
 70
0
 10
13.4711992226
 20
-12.3991249145
 10
13.4761121964
 20
-12.3719078684
 10
13.479038689
 20
-12.343220958
 10
13.4799622214
 20
-12.3132257197
  0
LWPOLYLINE
  5
51B
100
AcDbEntity
  8
0
100
AcDbPolyline
 62
7
  6
CONTINUOUS
 90
4
 70
0
 10
-8.7140775903
 20
-17.1276970093
 10
-8.7077530587
 20
-17.1236749695
 10
-8.7022230048
 20
-17.118159434
 10
-8.6977770016
 20
-17.1114342974
  0
LINE
  5
51C
100
AcDbEntity
  8
DRAFT
100
AcDbLine
 62
7
  6
CONTINUOUS
 10
13.6233369968
 20
-4.0925715789
 11
13.835719151
 21
-3.9575228848
  0
LINE
  5
51D
100
AcDbEntity
  8
RACCORDO
100
AcDbLine
 62
250
  6
CONTINUOUS
 10
13.6233369968
 20
-3.078483079
 11
14.4331091537
 21
-2.5770946281
  0
LWPOLYLINE
  5
51E
100
AcDbEntity
  8
0
100
AcDbPolyline
 62
7
  6
CONTINUOUS
 90
4
 70
0
 10
-11.8465402561
 20
-17.6550768335
 10
-11.8288823564
 20
-17.6468575143
 10
-11.8128954731
 20
-17.6352693122
 10
-11.7991756892
 20
-17.6207443021
  0
LWPOLYLINE
  5
51F
100
AcDbEntity
  8
0
100
AcDbPolyline
 62
7
  6
CONTINUOUS
 90
5
 70
0
 10
-10.1304273666
 20
-14.8961771111
 10
-10.1375806091
 20
-14.898716138
 10
-10.1440477867
 20
-14.902782632
 10
-10.1495061689
 20
-14.9081736635
 10
-10.1510932068
 20
-14.9102758933
  0
LWPOLYLINE
  5
520
100
AcDbEntity
  8
0
100
AcDbPolyline
 62
7
  6
CONTINUOUS
 90
4
 70
0
 10
-13.2527056123
 20
-13.146158409
 10
-13.3094543711
 20
-13.1627029125
 10
-13.3629609328
 20
-13.186543028
 10
-13.4121954119
 20
-13.2172198848
  0
LWPOLYLINE
  5
521
100
AcDbEntity
  8
0
100
AcDbPolyline
 62
7
  6
CONTINUOUS
 90
4
 70
0
 10
-12.2485211815
 20
-15.40578035
 10
-12.1917724227
 20
-15.3892358464
 10
-12.1382658611
 20
-15.365395731
 10
-12.0890313819
 20
-15.3347188742
  0
LWPOLYLINE
  5
522
100
AcDbEntity
  8
0
100
AcDbPolyline
 62
7
  6
CONTINUOUS
 90
4
 70
0
 10
-11.7052247503
 20
10.7851051956
 10
-11.7451253628
 20
10.7763785126
 10
-11.7826499685
 20
10.7618644048
 10
-11.8168355809
 20
10.7419353447
  0
LWPOLYLINE
  5
523
100
AcDbEntity
  8
0
100
AcDbPolyline
 62
7
  6
CONTINUOUS
 90
4
 70
0
 10
-10.4008898071
 20
9.5368085772
 10
-10.3979748311
 20
9.5372356246
 10
-10.3858379331
 20
9.5404383807
 10
-10.3752241772
 20
9.5460984666
  0
LWPOLYLINE
  5
524
100
AcDbEntity
  8
DRAFT
100
AcDbPolyline
 62
7
  6
CONTINUOUS
 90
18
 70
0
 10
-10.4009964214
 20
9.5367987086
 10
-10.3978514192
 20
9.5371770085
 10
-10.3917142731
 20
9.5384216275
 10
-10.3858861759
 20
9.5403344674
 10
-10.3803626715
 20
9.542905893
 10
-10.3752241772
 20
9.5460984666
 10
-10.3704763257
 20
9.5499212757
 10
-10.3661134843
 20
9.5543652328
 10
-10.362199172
 20
9.5593656379
 10
-10.3587395148
 20
9.5649352941
 10
-10.3557283866
 20
9.5710613983
 10
-10.3532109294
 20
9.5776408408
 10
-10.3511960914
 20
9.5846618094
 10
-10.3496749242
 20
9.5921361165
 10
-10.3486657248
 20
9.5999960886
 10
-10.3481745922
 20
9.608219168
 10
-10.3481954275
 20
9.6168279125
 10
-10.3487282306
 20
9.6258223221
  0
LINE
  5
525
100
AcDbEntity
  8
0
100
AcDbLine
 62
7
  6
CONTINUOUS
 10
-11.6913244173
 20
10.7867094077
 11
-11.7049372623
 21
10.785138374
  0
LWPOLYLINE
  5
526
100
AcDbEntity
  8
DRAFT
100
AcDbPolyline
 62
7
  6
CONTINUOUS
 90
26
 70
0
 10
-11.6913265411
 20
10.7867092139
 10
-11.7048522839
 20
10.7851571028
 10
-11.7449085471
 20
10.776328918
 10
-11.782753057
 20
10.7616910747
 10
-11.8171295128
 20
10.7417294964
 10
-11.8477825826
 20
10.7164200923
 10
-11.8749675983
 20
10.6857869531
 10
-11.8981942558
 20
10.6503882739
 10
-11.9174677371
 20
10.6099197366
 10
-11.9327828601
 20
10.5646856592
 10
-11.943633774
 20
10.5161571913
 10
-11.9498604313
 20
10.464470077
 10
-11.9516228795
 20
10.4094885722
 10
-11.9488954098
 20
10.3522765933
 10
-11.9415510955
 20
10.2925495755
 10
-11.9297168633
 20
10.2305920836
 10
-11.9137477855
 20
10.1683217282
 10
-11.8935841608
 20
10.1059286414
 10
-11.8692856905
 20
10.0432226911
 10
-11.8413865498
 20
9.9815510908
 10
-11.8097365034
 20
9.9207970752
 10
-11.7744857867
 20
9.8610774096
 10
-11.7366192804
 20
9.8040896037
 10
-11.6964652784
 20
9.7503994942
 10
-11.6536954868
 20
9.6994412443
 10
-11.6083099059
 20
9.6512148542
  0
LWPOLYLINE
  5
527
100
AcDbEntity
  8
0
100
AcDbPolyline
 62
7
  6
CONTINUOUS
 90
4
 70
0
 10
-11.8574734811
 20
11.5157695229
 10
-11.9336906369
 20
11.5179518447
 10
-12.0073326574
 20
11.5116949139
 10
-12.0768548932
 20
11.497157557
  0
LWPOLYLINE
  5
528
100
AcDbEntity
  8
ASSI
100
AcDbPolyline
 62
250
  6
CONTINUOUS
 90
8
 70
0
 10
-2.4892123781
 20
16.6545855719
 10
-2.5004969599
 20
16.658836572
 10
-2.5126849964
 20
16.6611613524
 10
-2.5256458988
 20
16.6615349916
 10
-2.5392407802
 20
16.6599534798
 10
-2.5533239719
 20
16.6564337634
 10
-2.567744588
 20
16.6510135527
 10
-2.5823481199
 20
16.6437509211
  0
LWPOLYLINE
  5
529
100
AcDbEntity
  8
ASSI
100
AcDbPolyline
 62
250
  6
CONTINUOUS
 90
7
 70
0
 10
-4.3995144488
 20
19.4204981733
 10
-4.4067154405
 20
19.42409607
 10
-4.4195338669
 20
19.4281457288
 10
-4.433402747
 20
19.4298202726
 10
-4.448139945
 20
19.4290977019
 10
-4.4635519151
 20
19.4259874987
 10
-4.479436251
 20
19.4205305024
  0
LWPOLYLINE
  5
52A
100
AcDbEntity
  8
ASSI
100
AcDbPolyline
 62
250
  6
CONTINUOUS
 90
7
 70
0
 10
-6.4772944222
 20
20.6201822878
 10
-6.4844843721
 20
20.6237737942
 10
-6.4973028308
 20
20.6278234437
 10
-6.5111717399
 20
20.6294979828
 10
-6.5259089583
 20
20.6287754197
 10
-6.5413209416
 20
20.6256652437
 10
-6.5572052833
 20
20.6202083011
  0
LWPOLYLINE
  5
52B
100
AcDbEntity
  8
ASSI
100
AcDbPolyline
 62
250
  6
CONTINUOUS
 90
9
 70
0
 10
-0.9576075651
 20
15.7704705806
 10
-0.9620086588
 20
15.7727972707
 10
-0.9732932643
 20
15.7770482479
 10
-0.9854812961
 20
15.7793729985
 10
-0.998442172
 20
15.7797466136
 10
-1.0120370206
 20
15.7781650885
 10
-1.0261201804
 20
15.7746453684
 10
-1.0405407607
 20
15.7692251642
 10
-1.0551442542
 20
15.7619625494
  0
LINE
  5
52C
100
AcDbEntity
  8
ASSI
100
AcDbLine
 62
250
  6
CONTINUOUS
 10
-2.4848114309
 20
16.6522589523
 11
-2.4892123781
 21
16.6545855719
  0
LINE
  5
52D
100
AcDbEntity
  8
ASSI
100
AcDbLine
 62
250
  6
CONTINUOUS
 10
-11.6611542131
 20
21.9505642682
 11
-11.6655551603
 21
21.9528908877
  0
LWPOLYLINE
  5
52E
100
AcDbEntity
  8
ASSI
100
AcDbPolyline
 62
250
  6
CONTINUOUS
 90
7
 70
0
 10
-2.5823481199
 20
16.6437509211
 10
-2.5966799115
 20
16.6514298496
 10
-2.6109420246
 20
16.6572926848
 10
-2.624978893
 20
16.6612539068
 10
-2.6386521464
 20
16.6632486625
 10
-2.651787131
 20
16.6632247234
 10
-2.6641835505
 20
16.66117051
  0
LWPOLYLINE
  5
52F
100
AcDbEntity
  8
ASSI
100
AcDbPolyline
 62
250
  6
CONTINUOUS
 90
7
 70
0
 10
-11.7586909021
 20
21.942056237
 10
-11.7730226937
 20
21.9497351654
 10
-11.7872848068
 20
21.9555980007
 10
-11.8013216752
 20
21.9595592226
 10
-11.8149949286
 20
21.9615539784
 10
-11.8281299132
 20
21.9615300392
 10
-11.8405263328
 20
21.9594758259
  0
LWPOLYLINE
  5
530
100
AcDbEntity
  8
ASSI
100
AcDbPolyline
 62
250
  6
CONTINUOUS
 90
4
 70
0
 10
-4.479436625
 20
19.4205307183
 10
-4.4514426487
 20
19.4054299595
 10
-4.4208615581
 20
19.3914036053
 10
-4.3877068214
 20
19.3783472782
  0
LINE
  5
531
100
AcDbEntity
  8
DRAFT
100
AcDbLine
 62
7
  6
CONTINUOUS
 10
-1.2473850646
 20
15.182106015
 11
-6.2553372954
 21
18.0736348687
  0
LINE
  5
532
100
AcDbEntity
  8
DRAFT
100
AcDbLine
 62
7
  6
CONTINUOUS
 10
-11.2303389027
 20
20.9461384453
 11
-16.2382911335
 21
23.8376672991
  0
LINE
  5
533
100
AcDbEntity
  8
ASSI
100
AcDbLine
 62
250
  6
CONTINUOUS
 10
-8.2190587778
 20
19.8891069014
 11
-4.3387479119
 21
17.6486640391
  0
LINE
  5
534
100
AcDbEntity
  8
ASSI
100
AcDbLine
 62
250
  6
CONTINUOUS
 10
-1.0551442542
 20
15.7619625494
 11
-2.5823481199
 21
16.6437509211
  0
LINE
  5
535
100
AcDbEntity
  8
ASSI
100
AcDbLine
 62
250
  6
CONTINUOUS
 10
-10.2314870364
 20
21.0602678653
 11
-11.7586909021
 21
21.942056237
  0
LINE
  5
536
100
AcDbEntity
  8
ASSI
100
AcDbLine
 62
7
  6
CONTINUOUS
 10
-0.9576075651
 20
15.7704705806
 11
-2.4848114309
 21
16.6522589523
  0
LINE
  5
537
100
AcDbEntity
  8
ASSI
100
AcDbLine
 62
7
  6
CONTINUOUS
 10
-10.1339503473
 20
21.0687758965
 11
-11.6611542131
 21
21.9505642682
  0
LINE
  5
538
100
AcDbEntity
  8
ASSI
100
AcDbLine
 62
250
  6
CONTINUOUS
 10
-8.0799195929
 20
20.0318471753
 11
-4.2329381226
 21
17.8106482883
  0
LINE
  5
539
100
AcDbEntity
  8
DRAFT
100
AcDbLine
 62
7
  6
CONTINUOUS
 10
-2.0861216508
 20
16.932557998
 11
-2.2232985547
 21
17.0117622231
  0
LINE
  5
53A
100
AcDbEntity
  8
ASSI
100
AcDbLine
 62
7
  6
CONTINUOUS
 10
-0.802016301
 20
16.7052987492
 11
-1.6222854578
 21
17.17891188
  0
LINE
  5
53B
100
AcDbEntity
  8
ASSI
100
AcDbLine
 62
250
  6
CONTINUOUS
 10
-7.6981073223
 20
20.8417176911
 11
-3.9615531285
 21
18.6842781296
  0
LINE
  5
53C
100
AcDbEntity
  8
ASSI
100
AcDbLine
 62
250
  6
CONTINUOUS
 10
-7.5756328351
 20
20.9940799527
 11
-3.8390786413
 21
18.8366403912
  0
LINE
  5
53D
100
AcDbEntity
  8
ASSI
100
AcDbLine
 62
250
  6
CONTINUOUS
 10
-1.2943577677
 20
17.5249316634
 11
-1.1767955404
 21
17.4570527067
  0
LINE
  5
53E
100
AcDbEntity
  8
ASSI
100
AcDbLine
 62
250
  6
CONTINUOUS
 10
-3.7026832154
 20
18.9182023988
 11
-7.4343723951
 21
21.0728329622
  0
LINE
  5
53F
100
AcDbEntity
  8
ASSI
100
AcDbLine
 62
250
  6
CONTINUOUS
 10
-6.5572052833
 20
20.6202083011
 11
-4.479436625
 21
19.4205307183
  0
LINE
  5
540
100
AcDbEntity
  8
ASSI
100
AcDbLine
 62
7
  6
CONTINUOUS
 10
-6.4772832665
 20
20.6201758481
 11
-4.3995144488
 21
19.4204981733
  0
LINE
  5
541
100
AcDbEntity
  8
ASSI
100
AcDbLine
 62
250
  6
CONTINUOUS
 10
-3.5530970876
 20
18.9661290889
 11
-4.1475320767
 21
19.3093484016
  0
LINE
  5
542
100
AcDbEntity
  8
ASSI
100
AcDbLine
 62
250
  6
CONTINUOUS
 10
-6.690687295
 20
20.7777343514
 11
-7.2851222841
 21
21.1209536641
  0
LINE
  5
543
100
AcDbEntity
  8
ASSI
100
AcDbLine
 62
7
  6
CONTINUOUS
 10
-7.5500812256
 20
21.6888273122
 11
-6.6609095794
 21
21.1754307477
  0
LINE
  5
544
100
AcDbEntity
  8
ASSI
100
AcDbLine
 62
7
  6
CONTINUOUS
 10
-0.8071062175
 20
17.7955180519
 11
1.6609562389
 21
16.3704897216
  0
LINE
  5
545
100
AcDbEntity
  8
ASSI
100
AcDbLine
 62
250
  6
CONTINUOUS
 10
-1.5163255113
 20
19.0169261761
 11
-1.945056284
 21
19.264469951
  0
LINE
  5
546
100
AcDbEntity
  8
ASSI
100
AcDbLine
 62
250
  6
CONTINUOUS
 10
-4.912274688
 20
20.9777046695
 11
-5.3410054608
 21
21.2252484444
  0
LINE
  5
547
100
AcDbEntity
  8
ASSI
100
AcDbLine
 62
7
  6
CONTINUOUS
 10
2.5742264062
 20
16.8861659115
 11
1.474881813
 21
17.5209137016
  0
LINE
  5
548
100
AcDbEntity
  8
ASSI
100
AcDbLine
 62
7
  6
CONTINUOUS
 10
-5.5255291686
 20
21.5628632666
 11
-6.6248737618
 21
22.1976110567
  0
LINE
  5
549
100
AcDbEntity
  8
ASSI
100
AcDbLine
 62
250
  6
CONTINUOUS
 10
-1.7160537766
 20
19.3635880294
 11
-3.8546013981
 21
20.5983586238
  0
LWPOLYLINE
  5
54A
100
AcDbEntity
  8
ASSI
100
AcDbPolyline
 62
7
  6
CONTINUOUS
 90
11
 70
0
 10
-6.4772944224
 20
20.6201822879
 10
-6.4988843917
 20
20.6333440656
 10
-6.5168732431
 20
20.6455031775
 10
-6.5322979821
 20
20.6569925594
 10
-6.5455946574
 20
20.6678849664
 10
-6.5568885848
 20
20.6779926587
 10
-6.566324052
 20
20.6871696838
 10
-6.5742852122
 20
20.6955737933
 10
-6.5809646838
 20
20.7032008784
 10
-6.5863066954
 20
20.7097674669
 10
-6.5897336842
 20
20.7142636062
  0
LWPOLYLINE
  5
54B
100
AcDbEntity
  8
ASSI
100
AcDbPolyline
 62
7
  6
CONTINUOUS
 90
13
 70
0
 10
2.5742264062
 20
16.8861659115
 10
2.6335369802
 20
16.8498713396
 10
2.6923311138
 20
16.8098269194
 10
2.7506088069
 20
16.7660326508
 10
2.8086143578
 20
16.7182827316
 10
2.8661034682
 20
16.666782964
 10
2.9223432437
 20
16.6121507546
 10
2.9773126019
 20
16.5543259137
 10
3.0310326252
 20
16.493368631
 10
3.0828336661
 20
16.4300768821
 10
3.1324925091
 20
16.3647166591
 10
3.1802323698
 20
16.29702197
 10
3.2260532482
 20
16.2269928147
  0
LWPOLYLINE
  5
54C
100
AcDbEntity
  8
ASSI
100
AcDbPolyline
 62
250
  6
CONTINUOUS
 90
16
 70
0
 10
-10.2314870364
 20
21.0602678653
 10
-10.2167850961
 20
21.0511942849
 10
-10.2021881817
 20
21.0404284307
 10
-10.1878550398
 20
21.0280596462
 10
-10.1739367562
 20
21.0141879537
 10
-10.160602478
 20
20.9989503223
 10
-10.1480327925
 20
20.9825277371
 10
-10.13636425
 20
20.9650748297
 10
-10.125747961
 20
20.946791817
 10
-10.1163541837
 20
20.9279655138
 10
-10.1082977626
 20
20.9088493371
 10
-10.1016400609
 20
20.8896158423
 10
-10.0964399194
 20
20.8704428593
 10
-10.09275416
 20
20.8515307851
 10
-10.0906283335
 20
20.8331004828
 10
-10.0900872193
 20
20.8153561982
  0
LINE
  5
54D
100
AcDbEntity
  8
ASSI
100
AcDbLine
 62
250
  6
CONTINUOUS
 10
-6.5846600405
 20
20.6376430374
 11
-6.5572052833
 21
20.6202083011
  0
LWPOLYLINE
  5
54E
100
AcDbEntity
  8
ASSI
100
AcDbPolyline
 62
250
  6
CONTINUOUS
 90
10
 70
0
 10
-1.3219913095
 20
18.7791599666
 10
-1.3322119161
 20
18.7867962123
 10
-1.3429633363
 20
18.7938176783
 10
-1.3541689788
 20
18.8001783534
 10
-1.3658616202
 20
18.8058020244
 10
-1.377879464
 20
18.8107141673
 10
-1.3898787325
 20
18.8150256026
 10
-1.401731287
 20
18.8187573744
 10
-1.4135124962
 20
18.8218535032
 10
-1.4252055506
 20
18.8243040689
  0
LINE
  5
54F
100
AcDbEntity
  8
DRAFT
100
AcDbLine
 62
7
  6
CONTINUOUS
 10
-4.2252888425
 20
24.0789405796
 11
-4.2253236755
 21
24.0789772359
  0
LINE
  5
550
100
AcDbEntity
  8
DRAFT
100
AcDbLine
 62
7
  6
CONTINUOUS
 10
6.3185363402
 20
18.6246120756
 11
6.3082964917
 21
18.6404773677
  0
LINE
  5
551
100
AcDbEntity
  8
DRAFT
100
AcDbLine
 62
7
  6
CONTINUOUS
 10
9.1392943277
 20
16.605720267
 11
9.035543609
 21
16.7909436378
  0
LWPOLYLINE
  5
552
100
AcDbEntity
  8
DRAFT
100
AcDbPolyline
 62
7
  6
CONTINUOUS
 90
29
 70
0
 10
10.025232208
 20
17.1590677841
 10
9.9959939162
 20
17.2292399606
 10
9.9506471803
 20
17.3119796348
 10
9.8951462522
 20
17.3934135727
 10
9.8305030995
 20
17.4720700389
 10
9.7567800034
 20
17.5477012736
 10
9.6739146827
 20
17.6205550366
 10
9.582732261
 20
17.6899028721
 10
9.4828446304
 20
17.7558848555
 10
9.3746398988
 20
17.8183609114
 10
9.2601075135
 20
17.8761823579
 10
9.1394874917
 20
17.9291265988
 10
9.0125398161
 20
17.9774162302
 10
8.880533882
 20
18.0205703592
 10
8.7430340683
 20
18.0586287083
 10
8.6004759961
 20
18.0915515549
 10
8.4554359237
 20
18.1187388378
 10
8.3082435734
 20
18.1400438401
 10
8.1585692229
 20
18.1556132787
 10
8.0079999633
 20
18.1652872423
 10
7.8561884705
 20
18.169002985
 10
7.7034820687
 20
18.1668232528
 10
7.5525098207
 20
18.1587763724
 10
7.4035707793
 20
18.144790951
 10
7.2563658918
 20
18.1249383814
 10
7.1126270639
 20
18.0994611692
 10
6.9723643799
 20
18.0683097636
 10
6.8355677555
 20
18.0315337153
 10
6.7795314804
 20
18.0136496672
  0
LWPOLYLINE
  5
553
100
AcDbEntity
  8
DRAFT
100
AcDbPolyline
 62
7
  6
CONTINUOUS
 90
4
 70
0
 10
8.2716859611
 20
17.6428987887
 10
8.3091219495
 20
17.5465762042
 10
8.3769092933
 20
17.3591204096
 10
8.4398566838
 20
17.1710784415
  0
LINE
  5
554
100
AcDbEntity
  8
0
100
AcDbLine
 62
7
  6
CONTINUOUS
 10
13.6213236622
 20
1.2784853432
 11
13.6163659688
 21
1.3005487343
  0
LWPOLYLINE
  5
555
100
AcDbEntity
  8
RACCORDO
100
AcDbPolyline
 62
250
  6
CONTINUOUS
 90
3
 70
0
 10
13.4555355219
 20
-12.448545516
 10
13.4643274327
 20
-12.424718837
 10
13.4711992226
 20
-12.3991249145
  0
LWPOLYLINE
  5
556
100
AcDbEntity
  8
RACCORDO
100
AcDbPolyline
 62
7
  6
CONTINUOUS
 90
4
 70
0
 10
3.2360353126
 20
-18.5330500613
 10
3.2518484886
 20
-18.5174411844
 10
3.2658987848
 20
-18.4997810223
 10
3.2781862012
 20
-18.4800695753
  0
LINE
  5
557
100
AcDbEntity
  8
RACCORDO
100
AcDbLine
 62
7
  6
CONTINUOUS
 10
-0.230425633
 20
-20.7349579323
 11
-0.1422398142
 21
-20.6642756568
  0
LWPOLYLINE
  5
558
100
AcDbEntity
  8
RACCORDO
100
AcDbPolyline
 62
7
  6
CONTINUOUS
 90
6
 70
0
 10
-0.6818207935
 20
-21.071528713
 10
-0.5901462859
 20
-21.0064599698
 10
-0.4991695161
 20
-20.9402685201
 10
-0.408890484
 20
-20.872954364
 10
-0.3193091896
 20
-20.8045175014
 10
-0.230425633
 20
-20.7349579323
  0
LWPOLYLINE
  5
559
100
AcDbEntity
  8
0
100
AcDbPolyline
 62
7
  6
CONTINUOUS
 90
5
 70
0
 10
-9.6574919717
 20
-17.2443153382
 10
-9.6646452143
 20
-17.2468543651
 10
-9.6711123919
 20
-17.250920859
 10
-9.676570774
 20
-17.2563118905
 10
-9.678157812
 20
-17.2584141204
  0
LWPOLYLINE
  5
55A
100
AcDbEntity
  8
0
100
AcDbPolyline
 62
7
  6
CONTINUOUS
 90
4
 70
0
 10
-8.2878795058
 20
-16.7840546129
 10
-8.2807262632
 20
-16.7815155861
 10
-8.2742590856
 20
-16.7774490921
 10
-8.2688124225
 20
-16.772069635
  0
LWPOLYLINE
  5
55B
100
AcDbEntity
  8
0
100
AcDbPolyline
 62
7
  6
CONTINUOUS
 90
4
 70
0
 10
-9.67467551
 20
-19.8926089121
 10
-9.6675222674
 20
-19.8900698852
 10
-9.6610550898
 20
-19.8860033913
 10
-9.6556084267
 20
-19.8806239342
  0
LWPOLYLINE
  5
55C
100
AcDbEntity
  8
DRAFT
100
AcDbPolyline
 62
7
  6
CONTINUOUS
 90
28
 70
0
 10
9.035543609
 20
16.7909436378
 10
8.9202920713
 20
16.7833869459
 10
8.8029359588
 20
16.7852477292
 10
8.6840472483
 20
16.7964709707
 10
8.5639164681
 20
16.8175550523
 10
8.4433053271
 20
16.8478462442
 10
8.323489277
 20
16.8854560315
 10
8.2054637294
 20
16.9299431395
 10
8.0891560542
 20
16.9812966326
 10
7.9741947037
 20
17.038248749
 10
7.8606725587
 20
17.1006577151
 10
7.7491417471
 20
17.1683444839
 10
7.6398579132
 20
17.2400458591
 10
7.5330783615
 20
17.3155040446
 10
7.4290125328
 20
17.3946147881
 10
7.3278022679
 20
17.4763469006
 10
7.2298721197
 20
17.5602131977
 10
7.1350956002
 20
17.6463270553
 10
7.0427882621
 20
17.7346271806
 10
6.9530695648
 20
17.8249548666
 10
6.8660808662
 20
17.9172376495
 10
6.7812329251
 20
18.0116613127
 10
6.6986859928
 20
18.1081278966
 10
6.6185726112
 20
18.2065997406
 10
6.5403603435
 20
18.3074564078
 10
6.4640334614
 20
18.4108289434
 10
6.3900245749
 20
18.5165406176
 10
6.3185363402
 20
18.6245532385
  0
LWPOLYLINE
  5
55D
100
AcDbEntity
  8
ASSI
100
AcDbPolyline
 62
7
  6
CONTINUOUS
 90
10
 70
0
 10
-1.8517449391
 20
17.1630316596
 10
-1.8712686732
 20
17.1633188342
 10
-1.8903006684
 20
17.1626453169
 10
-1.9088409247
 20
17.1610111076
 10
-1.9270255835
 20
17.1583812084
 10
-1.9447185034
 20
17.1547906173
 10
-1.9615112603
 20
17.1503443281
 10
-1.977267713
 20
17.1450773388
 10
-1.9921240027
 20
17.1389546514
 10
-2.0060801294
 20
17.1319762659
  0
LINE
  5
55E
100
AcDbEntity
  8
ASSI
100
AcDbLine
 62
7
  6
CONTINUOUS
 10
-1.8110882345
 20
17.1622243196
 11
-1.8517449391
 21
17.1630316596
  0
LWPOLYLINE
  5
55F
100
AcDbEntity
  8
ASSI
100
AcDbPolyline
 62
250
  6
CONTINUOUS
 90
16
 70
0
 10
-3.6957487502
 20
18.6076694498
 10
-3.7095118228
 20
18.6093322992
 10
-3.7246456534
 20
18.6116723865
 10
-3.7409901347
 20
18.6146649552
 10
-3.7583726793
 20
18.6182784179
 10
-3.7766090921
 20
18.6224744961
 10
-3.7955053764
 20
18.6272085207
 10
-3.8148608125
 20
18.6324301241
 10
-3.8344713165
 20
18.6380841695
 10
-3.8541305826
 20
18.644111147
 10
-3.8736383865
 20
18.6504498883
 10
-3.8927804409
 20
18.6570309811
 10
-3.9113334676
 20
18.6637770386
 10
-3.9290972336
 20
18.6706137549
 10
-3.9458947639
 20
18.6774714558
 10
-3.9615531285
 20
18.6842781296
  0
LWPOLYLINE
  5
560
100
AcDbEntity
  8
ASSI
100
AcDbPolyline
 62
250
  6
CONTINUOUS
 90
13
 70
0
 10
-3.9671337443
 20
17.7340396085
 10
-3.9845434074
 20
17.7362227253
 10
-4.0040303396
 20
17.7394532783
 10
-4.025273073
 20
17.743677975
 10
-4.0479211747
 20
17.748827123
 10
-4.0716010268
 20
17.7548157789
 10
-4.0959219895
 20
17.7615451501
 10
-4.1204828476
 20
17.7689042246
 10
-4.1448784274
 20
17.7767716024
 10
-4.1687062797
 20
17.785017497
 10
-4.1915733218
 20
17.7935058781
 10
-4.2131023224
 20
17.8020967155
 10
-4.2329381226
 20
17.8106482883
  0
LWPOLYLINE
  5
561
100
AcDbEntity
  8
ASSI
100
AcDbPolyline
 62
250
  6
CONTINUOUS
 90
27
 70
0
 10
-1.4252061679
 20
18.8243002692
 10
-1.4327107562
 20
18.8257329081
 10
-1.4401763457
 20
18.8269563022
 10
-1.4475995611
 20
18.8279702048
 10
-1.4549279009
 20
18.8287671985
 10
-1.4622085803
 20
18.82935442
 10
-1.46958878
 20
18.8297535505
 10
-1.477102171
 20
18.8299752132
 10
-1.4847130368
 20
18.8300087275
 10
-1.4924652635
 20
18.8298438527
 10
-1.5003581282
 20
18.8294832086
 10
-1.5083926512
 20
18.8289241816
 10
-1.516616025
 20
18.8281486982
 10
-1.525035373
 20
18.8271568327
 10
-1.5336468172
 20
18.8259486177
 10
-1.542482077
 20
18.8245059721
 10
-1.5515505303
 20
18.8228255722
 10
-1.56084979
 20
18.820911199
 10
-1.570395157
 20
18.8187555843
 10
-1.5801931243
 20
18.8163542698
 10
-1.590248205
 20
18.8137130414
 10
-1.600573606
 20
18.8108402895
 10
-1.6111722909
 20
18.8077331196
 10
-1.6220555257
 20
18.8043973099
 10
-1.6332489062
 20
18.8008546293
 10
-1.644750484
 20
18.7971066132
 10
-1.6687855685
 20
18.7890300434
  0
LWPOLYLINE
  5
562
100
AcDbEntity
  8
ASSI
100
AcDbPolyline
 62
250
  6
CONTINUOUS
 90
21
 70
0
 10
-1.4099765989
 20
18.6775072403
 10
-1.4134719969
 20
18.678234526
 10
-1.4169431845
 20
18.6786926653
 10
-1.4203661296
 20
18.6788995681
 10
-1.4237563887
 20
18.6788570548
 10
-1.427178936
 20
18.6785473799
 10
-1.430665697
 20
18.6779864494
 10
-1.434200567
 20
18.6771706679
 10
-1.4377910906
 20
18.6760512108
 10
-1.4414562327
 20
18.6746448389
 10
-1.4452053446
 20
18.6729513064
 10
-1.4490447443
 20
18.670899943
 10
-1.4530068538
 20
18.6685098564
 10
-1.4571077446
 20
18.6657857259
 10
-1.4613472521
 20
18.6626420605
 10
-1.4657716882
 20
18.6591010047
 10
-1.4704105727
 20
18.6551767244
 10
-1.4752618012
 20
18.6507816515
 10
-1.4803881608
 20
18.6459437257
 10
-1.4858382895
 20
18.6406887065
 10
-1.4978142086
 20
18.6287245939
  0
LINE
  5
563
100
AcDbEntity
  8
DRAFT
100
AcDbLine
 62
7
  6
CONTINUOUS
 10
-11.7477996113
 20
20.4072716973
 11
-11.2303389027
 21
20.2755385123
  0
LINE
  5
564
100
AcDbEntity
  8
ASSI
100
AcDbLine
 62
250
  6
CONTINUOUS
 10
-4.1904032933
 20
19.3210262762
 11
-4.1475320767
 21
19.3093484016
  0
LWPOLYLINE
  5
565
100
AcDbEntity
  8
ASSI
100
AcDbPolyline
 62
250
  6
CONTINUOUS
 90
3
 70
0
 10
-4.3130834006
 20
19.3540459892
 10
-4.2731643779
 20
19.342812448
 10
-4.1904032933
 20
19.3210262762
  0
LINE
  5
566
100
AcDbEntity
  8
ASSI
100
AcDbLine
 62
250
  6
CONTINUOUS
 10
-1.4064612828
 20
18.6765012358
 11
-1.4099765989
 21
18.6775072403
  0
LWPOLYLINE
  5
567
100
AcDbEntity
  8
ASSI
100
AcDbPolyline
 62
250
  6
CONTINUOUS
 90
11
 70
0
 10
-4.0580547411
 20
19.2793671518
 10
-4.0122666164
 20
19.2655493544
 10
-3.9656869674
 20
19.2524508225
 10
-3.9184076804
 20
19.2401341757
 10
-3.8707044148
 20
19.2287872718
 10
-3.8224484139
 20
19.2183684365
 10
-3.7737684344
 20
19.2089193443
 10
-3.7253264063
 20
19.200752876
 10
-3.6769665308
 20
19.1938538869
 10
-3.6288446067
 20
19.1882375217
 10
-3.5820899605
 20
19.1842620964
  0
LINE
  5
568
100
AcDbEntity
  8
ASSI
100
AcDbLine
 62
250
  6
CONTINUOUS
 10
-4.1031432279
 20
19.2939668342
 11
-4.0580547411
 21
19.2793671518
  0
LWPOLYLINE
  5
569
100
AcDbEntity
  8
ASSI
100
AcDbPolyline
 62
250
  6
CONTINUOUS
 90
3
 70
0
 10
-4.3877068214
 20
19.3783472782
 10
-4.3516458507
 20
19.3659327333
 10
-4.3130834006
 20
19.3540459892
  0
LINE
  5
56A
100
AcDbEntity
  8
ASSI
100
AcDbLine
 62
7
  6
CONTINUOUS
 10
-4.1400572809
 20
19.3152022598
 11
-4.1400869349
 21
19.3152124869
  0
LINE
  5
56B
100
AcDbEntity
  8
ASSI
100
AcDbLine
 62
250
  6
CONTINUOUS
 10
-4.1475320767
 20
19.3093484016
 11
-4.1031432279
 21
19.2939668342
  0
LINE
  5
56C
100
AcDbEntity
  8
ASSI
100
AcDbLine
 62
7
  6
CONTINUOUS
 10
-4.1400869342
 20
19.3152124867
 11
-4.2065038326
 21
19.3385067557
  0
LWPOLYLINE
  5
56D
100
AcDbEntity
  8
ASSI
100
AcDbPolyline
 62
7
  6
CONTINUOUS
 90
8
 70
0
 10
-4.2065038326
 20
19.3385067557
 10
-4.2412331197
 20
19.3508098188
 10
-4.2739384805
 20
19.362905391
 10
-4.304503521
 20
19.3749195294
 10
-4.3330058439
 20
19.3870157563
 10
-4.3590794788
 20
19.3991215303
 10
-4.3826526071
 20
19.4111355803
 10
-4.3994313854
 20
19.4204501338
  0
LWPOLYLINE
  5
56E
100
AcDbEntity
  8
ASSI
100
AcDbPolyline
 62
250
  6
CONTINUOUS
 90
8
 70
0
 10
-11.6655551603
 20
21.9528908877
 10
-11.6768397421
 20
21.9571418878
 10
-11.6890277786
 20
21.9594666683
 10
-11.701988681
 20
21.9598403075
 10
-11.7155835624
 20
21.9582587957
 10
-11.7296667542
 20
21.9547390793
 10
-11.7440873702
 20
21.9493188686
 10
-11.7586909021
 20
21.942056237
  0
LINE
  5
56F
100
AcDbEntity
  8
ASSI
100
AcDbLine
 62
250
  6
CONTINUOUS
 10
1.3452252903
 20
21.0756119382
 11
1.3630725196
 21
21.0666127158
  0
LWPOLYLINE
  5
570
100
AcDbEntity
  8
ASSI
100
AcDbPolyline
 62
250
  6
CONTINUOUS
 90
3
 70
0
 10
-1.9777128437
 20
22.9955403147
 10
-1.9948438699
 20
23.0045380527
 10
-2.0117133983
 20
23.01090583
  0
LINE
  5
571
100
AcDbEntity
  8
DRAFT
100
AcDbLine
 62
7
  6
CONTINUOUS
 10
2.9954668543
 20
16.7489710759
 11
2.2632758488
 21
17.171728986
  0
LINE
  5
572
100
AcDbEntity
  8
DRAFT
100
AcDbLine
 62
7
  6
CONTINUOUS
 10
-6.1725018481
 20
22.0424413031
 11
-6.9046928537
 21
22.4651992131
  0
LINE
  5
573
100
AcDbEntity
  8
ASSI
100
AcDbLine
 62
250
  6
CONTINUOUS
 10
-1.5981607522
 20
19.4298139201
 11
-3.7027528533
 21
20.6449790225
  0
LINE
  5
574
100
AcDbEntity
  8
ASSI
100
AcDbLine
 62
250
  6
CONTINUOUS
 10
-1.0671191058
 20
19.1604475637
 11
-1.5027043876
 21
19.4119490462
  0
LINE
  5
575
100
AcDbEntity
  8
ASSI
100
AcDbLine
 62
250
  6
CONTINUOUS
 10
-4.4581178682
 20
21.1183677499
 11
-4.8937031501
 21
21.3698692325
  0
LINE
  5
576
100
AcDbEntity
  8
ASSI
100
AcDbLine
 62
7
  6
CONTINUOUS
 10
-1.0649101436
 20
19.7323757281
 11
-2.6881087939
 21
20.6695902853
  0
LINE
  5
577
100
AcDbEntity
  8
0
100
AcDbLine
 62
7
  6
CONTINUOUS
 10
-2.3297201051
 20
21.0322965557
 11
-0.5716231915
 21
20.0171934319
  0
LINE
  5
578
100
AcDbEntity
  8
ASSI
100
AcDbLine
 62
250
  6
CONTINUOUS
 10
-0.6264209515
 20
20.9542946069
 11
0.2124790681
 21
20.4699242495
  0
LINE
  5
579
100
AcDbEntity
  8
ASSI
100
AcDbLine
 62
250
  6
CONTINUOUS
 10
-0.5411177826
 20
21.0308630684
 11
0.3214366133
 21
20.5328349705
  0
LINE
  5
57A
100
AcDbEntity
  8
ASSI
100
AcDbLine
 62
7
  6
CONTINUOUS
 10
0.202035759
 20
21.490440366
 11
1.0909933576
 21
20.9771673899
  0
LINE
  5
57B
100
AcDbEntity
  8
ASSI
100
AcDbLine
 62
250
  6
CONTINUOUS
 10
1.7484444023
 20
20.8441038206
 11
1.3630725196
 21
21.0666127158
  0
LINE
  5
57C
100
AcDbEntity
  8
ASSI
100
AcDbLine
 62
250
  6
CONTINUOUS
 10
-1.592340961
 20
22.7730314195
 11
-1.9777128437
 21
22.9955403147
  0
LINE
  5
57D
100
AcDbEntity
  8
ASSI
100
AcDbLine
 62
250
  6
CONTINUOUS
 10
1.8396211305
 20
20.8832184858
 11
1.4542000554
 21
21.1057557841
  0
LINE
  5
57E
100
AcDbEntity
  8
ASSI
100
AcDbLine
 62
250
  6
CONTINUOUS
 10
-1.5004557949
 20
22.8117370416
 11
-1.8858768701
 21
23.0342743399
  0
LINE
  5
57F
100
AcDbEntity
  8
0
100
AcDbLine
 62
7
  6
CONTINUOUS
 10
-0.1359466904
 20
22.2989538309
 11
1.7294277447
 21
21.2219100107
  0
LINE
  5
580
100
AcDbEntity
  8
DRAFT
100
AcDbLine
 62
7
  6
CONTINUOUS
 10
-3.5707187478
 20
24.3444969538
 11
-2.4065201527
 21
23.6723032759
  0
LINE
  5
581
100
AcDbEntity
  8
DRAFT
100
AcDbLine
 62
7
  6
CONTINUOUS
 10
6.3082964916
 20
18.6404773678
 11
5.1440978965
 21
19.3126710457
  0
LWPOLYLINE
  5
582
100
AcDbEntity
  8
ASSI
100
AcDbPolyline
 62
250
  6
CONTINUOUS
 90
13
 70
0
 10
1.7484444023
 20
20.8441038206
 10
1.7661864656
 20
20.8329662738
 10
1.7836577039
 20
20.8195061228
 10
1.8005914262
 20
20.803928831
 10
1.8167291464
 20
20.7864721791
 10
1.8318245292
 20
20.7674026356
 10
1.8456471499
 20
20.7470112888
 10
1.857986012
 20
20.7256094039
 10
1.8686527683
 20
20.7035236717
 10
1.8774845951
 20
20.6810912213
 10
1.8843466783
 20
20.6586544745
 10
1.8891342713
 20
20.6365559188
 10
1.8917742933
 20
20.6151328792
  0
LWPOLYLINE
  5
583
100
AcDbEntity
  8
ASSI
100
AcDbPolyline
 62
250
  6
CONTINUOUS
 90
13
 70
0
 10
1.8396211305
 20
20.8832184858
 10
1.8566668836
 20
20.8717718782
 10
1.8728954305
 20
20.857775062
 10
1.8880595675
 20
20.8414412458
 10
1.9019283044
 20
20.8230192371
 10
1.9142903835
 20
20.8027896519
 10
1.9249574974
 20
20.7810606408
 10
1.9337671577
 20
20.7581631942
 10
1.9405851699
 20
20.7344461011
 10
1.9453076774
 20
20.7102706359
 10
1.947862744
 20
20.6860050551
 10
1.9482114492
 20
20.6620189881
 10
1.9463484812
 20
20.6386778063
  0
LWPOLYLINE
  5
584
100
AcDbEntity
  8
ASSI
100
AcDbPolyline
 62
250
  6
CONTINUOUS
 90
13
 70
0
 10
3.3701540785
 20
21.2857800123
 10
3.3871998317
 20
21.2743334047
 10
3.4034283788
 20
21.2603365883
 10
3.4185925158
 20
21.2440027719
 10
3.4324612527
 20
21.2255807631
 10
3.4448233318
 20
21.2053511779
 10
3.4554904457
 20
21.1836221667
 10
3.4643001059
 20
21.1607247201
 10
3.471118118
 20
21.137007627
 10
3.4758406255
 20
21.1128321619
 10
3.478395692
 20
21.0885665813
 10
3.4787443971
 20
21.0645805144
 10
3.4768814292
 20
21.0412393329
  0
LWPOLYLINE
  5
585
100
AcDbEntity
  8
ASSI
100
AcDbPolyline
 62
250
  6
CONTINUOUS
 90
6
 70
0
 10
-0.3122745523
 20
23.4578573614
 10
-0.324749465
 20
23.4670034887
 10
-0.3375611176
 20
23.4735256373
 10
-0.350530703
 20
23.4773327801
 10
-0.3634772099
 20
23.4783717821
 10
-0.3672870114
 20
23.4781444475
  0
LWPOLYLINE
  5
586
100
AcDbEntity
  8
RACCORDO
100
AcDbPolyline
 62
7
  6
CONTINUOUS
 90
17
 70
0
 10
13.6233369968
 20
11.4359430132
 10
13.6963667896
 20
11.3330717979
 10
13.7946858326
 20
11.183548433
 10
13.8878104418
 20
11.0303873183
 10
13.9754928799
 20
10.8740178512
 10
14.0574459656
 20
10.7149539747
 10
14.1333963687
 20
10.5537160192
 10
14.2031216885
 20
10.3907398684
 10
14.2663756082
 20
10.226530733
 10
14.322911065
 20
10.0616349501
 10
14.3725178652
 20
9.8965339369
 10
14.4149899696
 20
9.731721772
 10
14.4501181146
 20
9.5677549735
 10
14.4777151637
 20
9.4051723946
 10
14.4976139041
 20
9.2444804102
 10
14.5096582363
 20
9.0861840053
 10
14.5137030432
 20
8.9307989249
  0
LWPOLYLINE
  5
587
100
AcDbEntity
  8
RACCORDO
100
AcDbPolyline
 62
250
  6
CONTINUOUS
 90
16
 70
0
 10
13.6233369968
 20
11.2295592451
 10
13.6758326143
 20
11.1504725115
 10
13.7744873414
 20
10.9896652053
 10
13.8674182288
 20
10.8253473012
 10
13.9542726569
 20
10.6581423971
 10
14.0347213368
 20
10.4886845257
 10
14.1084592276
 20
10.3176162822
 10
14.1752066456
 20
10.1455865367
 10
14.2347103816
 20
9.9732479101
 10
14.2867447484
 20
9.8012540709
 10
14.3311123695
 20
9.6302574253
 10
14.3676449372
 20
9.4609066461
 10
14.3962038725
 20
9.2938441416
 10
14.4166808439
 20
9.1297036367
 10
14.4289981781
 20
8.9691077696
 10
14.4331091537
 20
8.8126657332
  0
LWPOLYLINE
  5
588
100
AcDbEntity
  8
RACCORDO
100
AcDbPolyline
 62
7
  6
CONTINUOUS
 90
9
 70
0
 10
13.5713617228
 20
16.4710031801
 10
13.4578205711
 20
16.6986509889
 10
13.3430099001
 20
16.925828279
 10
13.2269390846
 20
17.152516666
 10
13.1096176709
 20
17.3786976616
 10
12.9910551544
 20
17.6043531042
 10
12.8712609722
 20
17.8294651542
 10
12.7502448018
 20
18.0540157264
 10
12.60149884
 20
18.3262103882
  0
LWPOLYLINE
  5
589
100
AcDbEntity
  8
RACCORDO
100
AcDbPolyline
 62
250
  6
CONTINUOUS
 90
10
 70
0
 10
13.4023127313
 20
16.3467810476
 10
13.2952263128
 20
16.5615775221
 10
13.1861788476
 20
16.7776107789
 10
13.0751523271
 20
16.9948551898
 10
12.9631060693
 20
17.2114075995
 10
12.8490653384
 20
17.4291259617
 10
12.73002232
 20
17.6535873511
 10
12.6048617665
 20
17.8865849848
 10
12.4744602284
 20
18.1261699107
 10
12.3387059055
 20
18.3722601618
  0
LWPOLYLINE
  5
58A
100
AcDbEntity
  8
RACCORDO
100
AcDbPolyline
 62
250
  6
CONTINUOUS
 90
5
 70
0
 10
13.4023127315
 20
-12.5236611406
 10
13.4181864661
 20
-12.5081346382
 10
13.4323999001
 20
-12.490371177
 10
13.4448729974
 20
-12.4704707831
 10
13.4555355219
 20
-12.448545516
  0
LINE
  5
58B
100
AcDbEntity
  8
RACCORDO
100
AcDbLine
 62
250
  6
CONTINUOUS
 10
13.4500047064
 20
-12.4894118758
 11
13.4500627766
 21
-12.4893617681
  0
LWPOLYLINE
  5
58C
100
AcDbEntity
  8
RACCORDO
100
AcDbPolyline
 62
250
  6
CONTINUOUS
 90
12
 70
0
 10
12.4326713396
 20
-13.2594426142
 10
12.5248080432
 20
-13.1976031632
 10
12.6151369197
 20
-13.1354396185
 10
12.7031517533
 20
-13.073371785
 10
12.7894083362
 20
-13.0110786301
 10
12.8754859373
 20
-12.9474365306
 10
12.9614257249
 20
-12.8823899111
 10
13.0471578625
 20
-12.8159661635
 10
13.1340282203
 20
-12.7470605605
 10
13.2224389297
 20
-12.6752392548
 10
13.3118839328
 20
-12.6007949178
 10
13.4023127313
 20
-12.5236611409
  0
LWPOLYLINE
  5
58D
100
AcDbEntity
  8
RACCORDO
100
AcDbPolyline
 62
250
  6
CONTINUOUS
 90
3
 70
0
 10
13.4023127315
 20
-12.5236611406
 10
13.4317616449
 20
-12.504050521
 10
13.4500047064
 20
-12.4894118758
  0
LWPOLYLINE
  5
58E
100
AcDbEntity
  8
RACCORDO
100
AcDbPolyline
 62
7
  6
CONTINUOUS
 90
10
 70
0
 10
12.3498719189
 20
-13.3140059804
 10
12.4768774413
 20
-13.2305870234
 10
12.6028903684
 20
-13.1449897769
 10
12.7276795235
 20
-13.0573624662
 10
12.8512296741
 20
-12.9677144447
 10
12.9735321308
 20
-12.8760506833
 10
13.0945844468
 20
-12.782371232
 10
13.2143777702
 20
-12.6866806966
 10
13.332897147
 20
-12.5889887739
 10
13.450130903
 20
-12.4893029529
  0
LINE
  5
58F
100
AcDbEntity
  8
RACCORDO
100
AcDbLine
 62
250
  6
CONTINUOUS
 10
12.3387059089
 20
-13.3209137508
 11
12.3498719189
 21
-13.3140059804
  0
LWPOLYLINE
  5
590
100
AcDbEntity
  8
RACCORDO
100
AcDbPolyline
 62
250
  6
CONTINUOUS
 90
10
 70
0
 10
13.4799622214
 20
-12.3132257189
 10
13.5089779816
 20
-12.294629325
 10
13.5350992771
 20
-12.2746479658
 10
13.5581280722
 20
-12.2534311939
 10
13.5778905083
 20
-12.2311366262
 10
13.5942345798
 20
-12.2079327582
 10
13.6070333898
 20
-12.1839982058
 10
13.6161901259
 20
-12.159514724
 10
13.6216367859
 20
-12.1346651311
 10
13.6233369968
 20
-12.1108776065
  0
LINE
  5
591
100
AcDbEntity
  8
DRAFT
100
AcDbLine
 62
7
  6
CONTINUOUS
 10
9.0932834032
 20
-15.2450839946
 11
9.1392943277
 21
-15.2158418895
  0
LINE
  5
592
100
AcDbEntity
  8
RACCORDO
100
AcDbLine
 62
7
  6
CONTINUOUS
 10
12.3417862639
 20
-13.3190675833
 11
12.3498662548
 21
-13.3140028313
  0
LWPOLYLINE
  5
593
100
AcDbEntity
  8
DRAFT
100
AcDbPolyline
 62
7
  6
CONTINUOUS
 90
3
 70
0
 10
9.035543609
 20
-15.281256531
 10
9.0471116386
 20
-15.2740558291
 10
9.0932834032
 20
-15.2450839946
  0
LINE
  5
594
100
AcDbEntity
  8
DRAFT
100
AcDbLine
 62
7
  6
CONTINUOUS
 10
-0.8939528279
 20
-24.5393610374
 11
0.1305157822
 21
-23.9058142816
  0
LWPOLYLINE
  5
595
100
AcDbEntity
  8
RACCORDO
100
AcDbPolyline
 62
7
  6
CONTINUOUS
 90
7
 70
0
 10
1.9305970703
 20
-19.512336721
 10
1.9883083844
 20
-19.4770603582
 10
2.2398719718
 20
-19.3165711045
 10
2.4864928142
 20
-19.1481221249
 10
2.7280842693
 20
-18.9717695333
 10
2.9647329795
 20
-18.7874572159
 10
3.1964389447
 20
-18.5951851727
  0
LINE
  5
596
100
AcDbEntity
  8
ASSI
100
AcDbLine
 62
7
  6
CONTINUOUS
 10
1.9305619354
 20
-19.5123580216
 11
-0.8939528279
 21
-21.2247211892
  0
LINE
  5
597
100
AcDbEntity
  8
RACCORDO
100
AcDbLine
 62
250
  6
CONTINUOUS
 10
-0.8939528279
 20
-20.9068267426
 11
3.2746322906
 21
-18.3842985102
  0
LINE
  5
598
100
AcDbEntity
  8
RACCORDO
100
AcDbLine
 62
250
  6
CONTINUOUS
 10
-0.8939528279
 20
-21.0703244079
 11
3.1964389447
 21
-18.5951851727
  0
LINE
  5
599
100
AcDbEntity
  8
DRAFT
100
AcDbLine
 62
7
  6
CONTINUOUS
 10
8.4298190935
 20
-15.6425116559
 11
8.6840164906
 21
-15.4912301094
  0
LINE
  5
59A
100
AcDbEntity
  8
RACCORDO
100
AcDbLine
 62
7
  6
CONTINUOUS
 10
12.3418048201
 20
-13.3190782974
 11
9.1392943277
 21
-15.2158418895
  0
LINE
  5
59B
100
AcDbEntity
  8
DRAFT
100
AcDbLine
 62
7
  6
CONTINUOUS
 10
8.429702723
 20
-15.6423418451
 11
2.3662338298
 21
-19.2302623974
  0
LWPOLYLINE
  5
59C
100
AcDbEntity
  8
DRAFT
100
AcDbPolyline
 62
7
  6
CONTINUOUS
 90
4
 70
0
 10
8.6840164906
 20
-15.4912301094
 10
8.802914296
 20
-15.4209161326
 10
8.9202807496
 20
-15.350943331
 10
9.035543609
 20
-15.281256531
  0
LINE
  5
59D
100
AcDbEntity
  8
RACCORDO
100
AcDbLine
 62
250
  6
CONTINUOUS
 10
3.3133325202
 20
-18.3229196879
 11
13.4799622214
 21
-12.3132257189
  0
LINE
  5
59E
100
AcDbEntity
  8
RACCORDO
100
AcDbLine
 62
250
  6
CONTINUOUS
 10
3.2465468016
 20
-18.5268366587
 11
13.4023127313
 21
-12.5236611409
  0
LWPOLYLINE
  5
59F
100
AcDbEntity
  8
RACCORDO
100
AcDbPolyline
 62
7
  6
CONTINUOUS
 90
9
 70
0
 10
-0.1842712871
 20
-20.6703695933
 10
-0.1680339096
 20
-20.6608387509
 10
-0.1536192584
 20
-20.6527087274
 10
-0.1412576062
 20
-20.6461124847
 10
-0.1311324687
 20
-20.6411801519
 10
-0.1234132121
 20
-20.6379853683
 10
-0.1182487435
 20
-20.6365416399
 10
-0.1157034521
 20
-20.6368989682
 10
-0.1155629968
 20
-20.6370851528
  0
LINE
  5
5A0
100
AcDbEntity
  8
DRAFT
100
AcDbLine
 62
7
  6
CONTINUOUS
 10
-0.5066384498
 20
-21.9448753713
 11
-0.8939528279
 21
-22.1685066069
  0
LINE
  5
5A1
100
AcDbEntity
  8
0
100
AcDbLine
 62
7
  6
CONTINUOUS
 10
-0.8939528279
 20
-21.7297588781
 11
-0.8863947643
 21
-21.7256088348
  0
LINE
  5
5A2
100
AcDbEntity
  8
ASSI
100
AcDbLine
 62
250
  6
CONTINUOUS
 10
1.4542000554
 20
21.1057557841
 11
4.0117717876
 21
21.8219700991
  0
LINE
  5
5A3
100
AcDbEntity
  8
ASSI
100
AcDbLine
 62
7
  6
CONTINUOUS
 10
1.36366495
 20
21.1194829522
 11
3.9290937955
 21
21.8378975483
  0
LWPOLYLINE
  5
5A4
100
AcDbEntity
  8
ASSI
100
AcDbPolyline
 62
250
  6
CONTINUOUS
 90
13
 70
0
 10
3.3701540785
 20
21.2857800123
 10
3.3743949797
 20
21.2869289584
 10
3.3785690739
 20
21.2881363223
 10
3.382676361
 20
21.2894021041
 10
3.3867054371
 20
21.2907188819
 10
3.3906677062
 20
21.2920940776
 10
3.39459738
 20
21.2935499566
 10
3.3985031828
 20
21.2950853437
 10
3.4023763904
 20
21.2967014142
 10
3.4062250418
 20
21.2984239598
 10
3.4100518168
 20
21.3002615778
 10
3.4138540356
 20
21.3022056709
 10
3.4176316982
 20
21.3042562391
  0
LINE
  5
5A5
100
AcDbEntity
  8
ASSI
100
AcDbLine
 62
250
  6
CONTINUOUS
 10
1.9463484812
 20
20.6386778063
 11
3.4768814292
 21
21.0412393329
  0
LINE
  5
5A6
100
AcDbEntity
  8
ASSI
100
AcDbLine
 62
250
  6
CONTINUOUS
 10
1.8396211305
 20
20.8832184858
 11
3.3701540785
 21
21.2857800123
  0
LWPOLYLINE
  5
5A7
100
AcDbEntity
  8
ASSI
100
AcDbPolyline
 62
250
  6
CONTINUOUS
 90
6
 70
0
 10
1.36366495
 20
21.1194829522
 10
1.3800713353
 20
21.1226631162
 10
1.3984423939
 20
21.1230974949
 10
1.4171204646
 20
21.1203871545
 10
1.4358061813
 20
21.1145755353
 10
1.4542000554
 20
21.1057557841
  0
LWPOLYLINE
  5
5A8
100
AcDbEntity
  8
ASSI
100
AcDbPolyline
 62
250
  6
CONTINUOUS
 90
9
 70
0
 10
-1.945056284
 20
19.264469951
 10
-1.9104570267
 20
19.267300301
 10
-1.8758581014
 20
19.2718281602
 10
-1.841333077
 20
19.2779529917
 10
-1.8073453643
 20
19.285479287
 10
-1.7735722393
 20
19.2943663523
 10
-1.7388661391
 20
19.304908644
 10
-1.7031283413
 20
19.317222149
 10
-1.6665142412
 20
19.3313246279
  0
LINE
  5
5A9
100
AcDbEntity
  8
ASSI
100
AcDbLine
 62
250
  6
CONTINUOUS
 10
-7.2923260128
 20
21.1204963142
 11
-7.2851222841
 21
21.1209536641
  0
LWPOLYLINE
  5
5AA
100
AcDbEntity
  8
ASSI
100
AcDbPolyline
 62
250
  6
CONTINUOUS
 90
16
 70
0
 10
-3.4695344443
 20
18.7179486691
 10
-3.4766850875
 20
18.7175373388
 10
-3.4836881256
 20
18.7168439967
 10
-3.4905435584
 20
18.7158686428
 10
-3.4972596378
 20
18.7145836391
 10
-3.503828112
 20
18.7130166236
 10
-3.5102242256
 20
18.7112505106
 10
-3.5164457669
 20
18.7092883357
 10
-3.5224949476
 20
18.7071270632
 10
-3.5283536469
 20
18.7048405008
 10
-3.534020127
 20
18.7024312581
 10
-3.5394961258
 20
18.6998967256
 10
-3.5447687356
 20
18.6973028814
 10
-3.549833654
 20
18.6946717184
 10
-3.5546951836
 20
18.6919812437
 10
-3.5593533243
 20
18.6892314574
  0
LWPOLYLINE
  5
5AB
100
AcDbEntity
  8
ASSI
100
AcDbPolyline
 62
250
  6
CONTINUOUS
 90
16
 70
0
 10
-3.5530970876
 20
18.9661290889
 10
-3.5648748646
 20
18.9654683703
 10
-3.5764742472
 20
18.9642490347
 10
-3.5878671724
 20
18.9625208577
 10
-3.5990224585
 20
18.960332414
 10
-3.6099227346
 20
18.9577316667
 10
-3.6205646923
 20
18.9547641579
 10
-3.6309328124
 20
18.9514724123
 10
-3.6410083805
 20
18.9478988056
 10
-3.6507867549
 20
18.9440844805
 10
-3.6602576081
 20
18.9400669616
 10
-3.6694082066
 20
18.9358835712
 10
-3.6782328471
 20
18.9315723671
 10
-3.6867249196
 20
18.9271679076
 10
-3.6948767997
 20
18.922701151
 10
-3.7026832154
 20
18.9182023988
  0
LINE
  5
5AC
100
AcDbEntity
  8
ASSI
100
AcDbLine
 62
250
  6
CONTINUOUS
 10
-3.4511590162
 20
19.1825397752
 11
-1.945056284
 21
19.264469951
  0
LINE
  5
5AD
100
AcDbEntity
  8
ASSI
100
AcDbLine
 62
7
  6
CONTINUOUS
 10
-3.5222229072
 20
19.1997166478
 11
-2.0156872291
 21
19.2816711495
  0
LINE
  5
5AE
100
AcDbEntity
  8
ASSI
100
AcDbLine
 62
7
  6
CONTINUOUS
 10
-2.0156872291
 20
19.2816711495
 11
-2.0155469685
 21
19.2816786983
  0
LINE
  5
5AF
100
AcDbEntity
  8
ASSI
100
AcDbLine
 62
250
  6
CONTINUOUS
 10
-7.2851222841
 20
21.1209536641
 11
-5.3410054608
 21
21.2252484444
  0
LINE
  5
5B0
100
AcDbEntity
  8
ASSI
100
AcDbLine
 62
7
  6
CONTINUOUS
 10
-7.3558234329
 20
21.1381509526
 11
-5.4114915563
 21
21.2424574699
  0
LINE
  5
5B1
100
AcDbEntity
  8
ASSI
100
AcDbLine
 62
7
  6
CONTINUOUS
 10
-5.4114915563
 20
21.2424574699
 11
-5.4113511489
 21
21.2424649207
  0
LWPOLYLINE
  5
5B2
100
AcDbEntity
  8
ASSI
100
AcDbPolyline
 62
250
  6
CONTINUOUS
 90
16
 70
0
 10
-6.4938341689
 20
20.9393422747
 10
-6.5310165285
 20
20.9374675225
 10
-6.5647225688
 20
20.9342803992
 10
-6.5949522898
 20
20.9297809048
 10
-6.6216244331
 20
20.9239291363
 10
-6.6448202571
 20
20.9167649967
 10
-6.6647835364
 20
20.9084081951
 10
-6.6816458862
 20
20.8989430689
 10
-6.6952756913
 20
20.8882852807
 10
-6.7055218807
 20
20.876301527
 10
-6.712517566
 20
20.8628937722
 10
-6.7161296355
 20
20.8481600519
 10
-6.7158076837
 20
20.8322611693
 10
-6.7113682421
 20
20.8152507256
 10
-6.7029947792
 20
20.7970751196
 10
-6.690687295
 20
20.7777343514
  0
LWPOLYLINE
  5
5B3
100
AcDbEntity
  8
ASSI
100
AcDbPolyline
 62
250
  6
CONTINUOUS
 90
10
 70
0
 10
-3.7027528533
 20
20.6449790225
 10
-3.7174369031
 20
20.6442591648
 10
-3.7326529222
 20
20.6425838417
 10
-3.7483874778
 20
20.6398986214
 10
-3.7645437775
 20
20.6361757453
 10
-3.7811773422
 20
20.631348789
 10
-3.7985051653
 20
20.6252616286
 10
-3.8165833315
 20
20.6177793574
 10
-3.8352968519
 20
20.6088409179
 10
-3.8546013981
 20
20.5983586238
  0
LWPOLYLINE
  5
5B4
100
AcDbEntity
  8
ASSI
100
AcDbPolyline
 62
250
  6
CONTINUOUS
 90
10
 70
0
 10
-3.7842131488
 20
20.9004794192
 10
-3.8046257034
 20
20.8994876213
 10
-3.8257539706
 20
20.8970198319
 10
-3.8475979502
 20
20.8930760507
 10
-3.8700784886
 20
20.8877958334
 10
-3.8932747394
 20
20.8810396245
 10
-3.917424164
 20
20.8723887575
 10
-3.942605916
 20
20.861703677
 10
-3.9687408418
 20
20.8491239385
 10
-3.9958289413
 20
20.834649542
  0
LWPOLYLINE
  5
5B5
100
AcDbEntity
  8
ASSI
100
AcDbPolyline
 62
7
  6
CONTINUOUS
 90
17
 70
0
 10
-3.5222229073
 20
19.1997166478
 10
-3.5391652709
 20
19.1990395846
 10
-3.5701992744
 20
19.1988389674
 10
-3.6043830899
 20
19.1998921094
 10
-3.6412883765
 20
19.2022694142
 10
-3.6803569137
 20
19.2059821342
 10
-3.7213135446
 20
19.2110264195
 10
-3.7639491612
 20
19.2174031987
 10
-3.807920045
 20
19.2250854686
 10
-3.8529418496
 20
19.2340363129
 10
-3.8987663798
 20
19.2442210329
 10
-3.9451319913
 20
19.2555974051
 10
-3.9917400608
 20
19.2681025851
 10
-4.0383077355
 20
19.2816704761
 10
-4.0845587226
 20
19.2962340053
 10
-4.1301318322
 20
19.311686479
 10
-4.1400572809
 20
19.3152022598
  0
LINE
  5
5B6
100
AcDbEntity
  8
ASSI
100
AcDbLine
 62
250
  6
CONTINUOUS
 10
-3.4934353864
 20
19.1814729424
 11
-3.4511590162
 21
19.1825397752
  0
LINE
  5
5B7
100
AcDbEntity
  8
ASSI
100
AcDbLine
 62
250
  6
CONTINUOUS
 10
-1.751600122
 20
18.7607939545
 11
-3.4695344443
 21
18.7179486691
  0
LINE
  5
5B8
100
AcDbEntity
  8
ASSI
100
AcDbLine
 62
250
  6
CONTINUOUS
 10
-1.5163255113
 20
19.0169261761
 11
-3.5530970876
 21
18.9661290889
  0
LINE
  5
5B9
100
AcDbEntity
  8
ASSI
100
AcDbLine
 62
250
  6
CONTINUOUS
 10
-2.6881087939
 20
20.6695902853
 11
-3.7027528533
 21
20.6449790225
  0
LINE
  5
5BA
100
AcDbEntity
  8
ASSI
100
AcDbLine
 62
250
  6
CONTINUOUS
 10
-4.8308143926
 20
20.7222042728
 11
-6.4123738735
 21
20.683841878
  0
LINE
  5
5BB
100
AcDbEntity
  8
ASSI
100
AcDbLine
 62
250
  6
CONTINUOUS
 10
-2.5042480207
 20
20.9315263246
 11
-3.7842131488
 21
20.9004794192
  0
LINE
  5
5BC
100
AcDbEntity
  8
ASSI
100
AcDbLine
 62
250
  6
CONTINUOUS
 10
-4.912274688
 20
20.9777046695
 11
-6.4938341689
 21
20.9393422747
  0
LWPOLYLINE
  5
5BD
100
AcDbEntity
  8
ASSI
100
AcDbPolyline
 62
250
  6
CONTINUOUS
 90
6
 70
0
 10
-5.4113511489
 20
21.2424649207
 10
-5.4018893954
 20
21.2425925248
 10
-5.3863072111
 20
21.2411974337
 10
-5.3708648271
 20
21.2378167444
 10
-5.3557180639
 20
21.2324828534
 10
-5.3410188312
 20
21.2252477271
  0
LWPOLYLINE
  5
5BE
100
AcDbEntity
  8
ASSI
100
AcDbPolyline
 62
250
  6
CONTINUOUS
 90
5
 70
0
 10
-3.521789961
 20
19.1997409737
 10
-3.5090490439
 20
19.1997664954
 10
-3.4893002536
 20
19.1971657954
 10
-3.4698995022
 20
19.1913925849
 10
-3.4511590162
 20
19.1825397752
  0
LWPOLYLINE
  5
5BF
100
AcDbEntity
  8
ASSI
100
AcDbPolyline
 62
250
  6
CONTINUOUS
 90
5
 70
0
 10
-2.0155469685
 20
19.2816786983
 10
-2.0029450659
 20
19.2816966085
 10
-1.9831966337
 20
19.2790957813
 10
-1.9637963058
 20
19.2733225827
 10
-1.945056284
 20
19.264469951
  0
LWPOLYLINE
  5
5C0
100
AcDbEntity
  8
ASSI
100
AcDbPolyline
 62
250
  6
CONTINUOUS
 90
5
 70
0
 10
-7.3556033983
 20
21.1381629568
 10
-7.3414421565
 20
21.1380969352
 10
-7.3222264411
 20
21.1353622403
 10
-7.3033570367
 20
21.1296185604
 10
-7.2851222841
 20
21.1209536641
  0
LWPOLYLINE
  5
5C1
100
AcDbEntity
  8
ASSI
100
AcDbPolyline
 62
250
  6
CONTINUOUS
 90
5
 70
0
 10
-6.5058259808
 20
20.6971149527
 10
-6.5228831576
 20
20.6975721497
 10
-6.5376687894
 20
20.6968641282
 10
-6.5501181844
 20
20.6951273838
 10
-6.5602279018
 20
20.692414958
  0
LWPOLYLINE
  5
5C2
100
AcDbEntity
  8
ASSI
100
AcDbPolyline
 62
250
  6
CONTINUOUS
 90
3
 70
0
 10
-3.5820899605
 20
19.1842620964
 10
-3.5370790345
 20
19.1820470495
 10
-3.4934353864
 20
19.1814729424
  0
LWPOLYLINE
  5
5C3
100
AcDbEntity
  8
ASSI
100
AcDbPolyline
 62
7
  6
CONTINUOUS
 90
10
 70
0
 10
0.5741918607
 20
18.5227765673
 10
0.5526781276
 20
18.5240226392
 10
0.5315475262
 20
18.5240335381
 10
0.5108000562
 20
18.522809264
 10
0.4901984502
 20
18.5203003254
 10
0.4699799757
 20
18.5165562139
 10
0.4508564358
 20
18.5117254041
 10
0.4330650984
 20
18.5058573877
 10
0.4163686957
 20
18.4989026732
 10
0.4007672276
 20
18.4908612603
  0
LWPOLYLINE
  5
5C4
100
AcDbEntity
  8
ASSI
100
AcDbPolyline
 62
250
  6
CONTINUOUS
 90
3
 70
0
 10
-3.0599739934
 20
22.5039496671
 10
-3.0973998025
 20
22.5069247726
 10
-3.1343562937
 20
22.5119733832
  0
LWPOLYLINE
  5
5C5
100
AcDbEntity
  8
RACCORDO
100
AcDbPolyline
 62
7
  6
CONTINUOUS
 90
11
 70
0
 10
12.4273654737
 20
18.4508573183
 10
12.4490734395
 20
18.4485777498
 10
12.4700865587
 20
18.4436896356
 10
12.4904048312
 20
18.4361929758
 10
12.5101354423
 20
18.4260368395
 10
12.5291712067
 20
18.4132721576
 10
12.5471905686
 20
18.3980517228
 10
12.5641093379
 20
18.3804753195
 10
12.5800117048
 20
18.3604431633
 10
12.594828684
 20
18.3378086931
 10
12.6014754208
 20
18.3261846318
  0
LWPOLYLINE
  5
5C6
100
AcDbEntity
  8
ASSI
100
AcDbPolyline
 62
250
  6
CONTINUOUS
 90
24
 70
0
 10
0.5719505339
 20
19.9238131049
 10
0.5997959337
 20
19.9206129625
 10
0.6277966136
 20
19.9189632584
 10
0.6562089295
 20
19.9188759846
 10
0.6847765255
 20
19.9203391491
 10
0.7127303338
 20
19.9233167766
 10
0.7400487747
 20
19.9278481897
 10
0.7667534279
 20
19.9338940657
 10
0.7921399643
 20
19.9413004605
 10
0.8161813489
 20
19.9501064647
 10
0.8389046168
 20
19.9602729877
 10
0.8596865442
 20
19.9715288132
 10
0.8784730006
 20
19.9839069624
 10
0.8953181165
 20
19.9973744142
 10
0.9097610599
 20
20.0115608896
 10
0.9217306471
 20
20.0264827264
 10
0.9312980617
 20
20.0421235868
 10
0.9382160227
 20
20.0580641782
 10
0.9424138753
 20
20.074311514
 10
0.9439622742
 20
20.0908585808
 10
0.9428259017
 20
20.1072650457
 10
0.9389929853
 20
20.1233841311
 10
0.9324752976
 20
20.1393626145
 10
0.9232728384
 20
20.1552004961
  0
LINE
  5
5C7
100
AcDbEntity
  8
ASSI
100
AcDbLine
 62
250
  6
CONTINUOUS
 10
-3.1982283483
 20
22.5244032643
 11
-3.225862487
 21
22.528164684
  0
LWPOLYLINE
  5
5C8
100
AcDbEntity
  8
ASSI
100
AcDbPolyline
 62
250
  6
CONTINUOUS
 90
4
 70
0
 10
-4.1400869349
 20
19.3152124869
 10
-4.1407002467
 20
19.3152988674
 10
-4.1436237873
 20
19.3137690323
 10
-4.1475320765
 20
19.3093484015
  0
LWPOLYLINE
  5
5C9
100
AcDbEntity
  8
ASSI
100
AcDbPolyline
 62
250
  6
CONTINUOUS
 90
24
 70
0
 10
0.4777797493
 20
19.6563593079
 10
0.5182105114
 20
19.6492247155
 10
0.5595406236
 20
19.6440877023
 10
0.6014746032
 20
19.6409849956
 10
0.6437126508
 20
19.6399387789
 10
0.6859527915
 20
19.6409565328
 10
0.7278930342
 20
19.6440309821
 10
0.7692335385
 20
19.6491401481
 10
0.809678741
 20
19.6562475039
 10
0.8489394673
 20
19.6653022331
 10
0.8867350193
 20
19.676239595
 10
0.9227951968
 20
19.6889813953
 10
0.95686221
 20
19.7034365438
 10
0.9886925029
 20
19.7195016974
 10
1.0180585072
 20
19.7370620008
 10
1.0447502819
 20
19.755991916
 10
1.0685770052
 20
19.7761561181
 10
1.0893683137
 20
19.7974104388
 10
1.1069755407
 20
19.8196028993
 10
1.1212728066
 20
19.8425748256
 10
1.1321579105
 20
19.8661619919
 10
1.1395530393
 20
19.89019577
 10
1.1434053246
 20
19.914504302
 10
1.1440044212
 20
19.9286324632
  0
LINE
  5
5CA
100
AcDbEntity
  8
ASSI
100
AcDbLine
 62
250
  6
CONTINUOUS
 10
-3.1343562937
 20
22.5119733832
 11
-3.1982283483
 21
22.5244032643
  0
LWPOLYLINE
  5
5CB
100
AcDbEntity
  8
ASSI
100
AcDbPolyline
 62
250
  6
CONTINUOUS
 90
5
 70
0
 10
-6.4123738735
 20
20.683841878
 10
-6.4395129579
 20
20.6891520202
 10
-6.4641587451
 20
20.6930328356
 10
-6.486289591
 20
20.6956188437
 10
-6.5058259808
 20
20.6971149527
  0
LWPOLYLINE
  5
5CC
100
AcDbEntity
  8
ASSI
100
AcDbPolyline
 62
250
  6
CONTINUOUS
 90
5
 70
0
 10
-2.0117133983
 20
23.01090583
 10
-2.0280639227
 20
23.014546445
 10
-2.0436458594
 20
23.0154043255
 10
-2.0582213567
 20
23.0134663761
 10
-2.0715679259
 20
23.008762179
  0
LWPOLYLINE
  5
5CD
100
AcDbEntity
  8
ASSI
100
AcDbPolyline
 62
250
  6
CONTINUOUS
 90
13
 70
0
 10
3.4176316982
 20
21.3042562391
 10
3.4374949284
 20
21.2947307277
 10
3.4565700884
 20
21.2828418297
 10
3.4745909539
 20
21.2687554736
 10
3.4913060148
 20
21.2526682571
 10
3.5064819858
 20
21.2348047031
 10
3.5199070619
 20
21.2154141259
 10
3.5313938746
 20
21.1947671522
 10
3.5407821072
 20
21.1731519435
 10
3.5479407318
 20
21.1508701746
 10
3.5527698383
 20
21.1282328232
 10
3.5552020289
 20
21.1055558298
 10
3.5552033585
 20
21.0831556881
  0
LWPOLYLINE
  5
5CE
100
AcDbEntity
  8
ASSI
100
AcDbPolyline
 62
250
  6
CONTINUOUS
 90
6
 70
0
 10
-1.8858768701
 20
23.0342743399
 10
-1.9036726473
 20
23.0429447952
 10
-1.9217549015
 20
23.0487586056
 10
-1.9398481919
 20
23.0516272111
 10
-1.9576769096
 20
23.0515069153
 10
-1.9751571122
 20
23.0483485151
  0
LWPOLYLINE
  5
5CF
100
AcDbEntity
  8
ASSI
100
AcDbPolyline
 62
250
  6
CONTINUOUS
 90
3
 70
0
 10
-0.3733611326
 20
23.447238778
 10
-0.3911569098
 20
23.4559092333
 10
-0.409239164
 20
23.4617230437
  0
LINE
  5
5D0
100
AcDbEntity
  8
ASSI
100
AcDbLine
 62
7
  6
CONTINUOUS
 10
-0.8491082248
 20
24.0776911152
 11
0.1123531478
 21
23.5225553686
  0
LINE
  5
5D1
100
AcDbEntity
  8
ASSI
100
AcDbLine
 62
7
  6
CONTINUOUS
 10
4.336186296
 20
21.0837670459
 11
5.9908490247
 21
20.1283855242
  0
LINE
  5
5D2
100
AcDbEntity
  8
ASSI
100
AcDbLine
 62
7
  6
CONTINUOUS
 10
1.2773956754
 20
23.1149999996
 11
3.6329104396
 21
21.7549552963
  0
LINE
  5
5D3
100
AcDbEntity
  8
ASSI
100
AcDbLine
 62
7
  6
CONTINUOUS
 10
4.1692555189
 20
21.7310409663
 11
4.0117717876
 21
21.8219700991
  0
LINE
  5
5D4
100
AcDbEntity
  8
ASSI
100
AcDbLine
 62
7
  6
CONTINUOUS
 10
1.1299690123
 20
23.4858869041
 11
0.9724852809
 21
23.5768160368
  0
LINE
  5
5D5
100
AcDbEntity
  8
DRAFT
100
AcDbLine
 62
7
  6
CONTINUOUS
 10
11.9354068475
 20
18.1862978896
 11
9.4447382122
 21
19.6243787442
  0
LINE
  5
5D6
100
AcDbEntity
  8
DRAFT
100
AcDbLine
 62
7
  6
CONTINUOUS
 10
2.0359119109
 20
23.9021421962
 11
-0.4547567244
 21
25.3402230508
  0
LINE
  5
5D7
100
AcDbEntity
  8
RACCORDO
100
AcDbLine
 62
250
  6
CONTINUOUS
 10
-0.7960761641
 20
25.9596190841
 11
-0.8237622746
 21
25.9756046973
  0
LINE
  5
5D8
100
AcDbEntity
  8
DRAFT
100
AcDbLine
 62
7
  6
CONTINUOUS
 10
2.7680703995
 20
24.2958733377
 11
9.4447382122
 21
20.440849021
  0
LWPOLYLINE
  5
5D9
100
AcDbEntity
  8
ASSI
100
AcDbPolyline
 62
250
  6
CONTINUOUS
 90
12
 70
0
 10
-1.8858768701
 20
23.0342743399
 10
-1.8929117036
 20
23.0322814582
 10
-1.9000122787
 20
23.0300973476
 10
-1.9071758724
 20
23.0277212037
 10
-1.9143635745
 20
23.0251653269
 10
-1.9216083883
 20
23.022417962
 10
-1.9290165023
 20
23.0194339486
 10
-1.9365951004
 20
23.0161998845
 10
-1.9443325536
 20
23.0127109504
 10
-1.9523080029
 20
23.0089201777
 10
-1.9605459568
 20
23.0047989326
 10
-1.9690156376
 20
23.0003440324
  0
LWPOLYLINE
  5
5DA
100
AcDbEntity
  8
ASSI
100
AcDbPolyline
 62
250
  6
CONTINUOUS
 90
13
 70
0
 10
-1.5004557949
 20
22.8117370416
 10
-1.5075963371
 20
22.8097814193
 10
-1.51478011
 20
22.807628913
 10
-1.5220042234
 20
22.8052795211
 10
-1.5292262835
 20
22.8027478265
 10
-1.5364824927
 20
22.8000215682
 10
-1.543889045
 20
22.7970513707
 10
-1.5514559663
 20
22.793823299
 10
-1.5591688438
 20
22.7903328686
 10
-1.567108528
 20
22.786529001
 10
-1.5753001325
 20
22.7823812349
 10
-1.5837123422
 20
22.7778872497
 10
-1.592340961
 20
22.7730314195
  0
LINE
  5
5DB
100
AcDbEntity
  8
ASSI
100
AcDbLine
 62
250
  6
CONTINUOUS
 10
-0.3733611326
 20
23.447238778
 11
-1.8858768701
 21
23.0342743399
  0
LINE
  5
5DC
100
AcDbEntity
  8
ASSI
100
AcDbLine
 62
7
  6
CONTINUOUS
 10
-0.4626417851
 20
23.4613128412
 11
-1.9751575226
 21
23.0483484031
  0
LWPOLYLINE
  5
5DD
100
AcDbEntity
  8
ASSI
100
AcDbPolyline
 62
250
  6
CONTINUOUS
 90
13
 70
0
 10
-1.3958307921
 20
22.5598763852
 10
-1.4001409677
 20
22.5587161546
 10
-1.4044717198
 20
22.5574368139
 10
-1.4088230484
 20
22.5560383633
 10
-1.4131727492
 20
22.5545324262
 10
-1.4175430264
 20
22.5529073791
 10
-1.4220004933
 20
22.5511283517
 10
-1.4265523943
 20
22.5491989192
 10
-1.4311914848
 20
22.5471155064
 10
-1.4359626444
 20
22.5448325178
 10
-1.4408808331
 20
22.5423347548
 10
-1.4459310909
 20
22.539637416
 10
-1.4511134178
 20
22.5367405013
  0
LINE
  5
5DE
100
AcDbEntity
  8
ASSI
100
AcDbLine
 62
250
  6
CONTINUOUS
 10
-0.3682008849
 20
23.4485826688
 11
-0.3733611326
 21
23.447238778
  0
LINE
  5
5DF
100
AcDbEntity
  8
ASSI
100
AcDbLine
 62
250
  6
CONTINUOUS
 10
1.2717105511
 20
23.2435388206
 11
-1.3958307921
 21
22.5598763852
  0
LINE
  5
5E0
100
AcDbEntity
  8
ASSI
100
AcDbLine
 62
250
  6
CONTINUOUS
 10
1.1299690123
 20
23.4858869041
 11
-1.5004557949
 21
22.8117370416
  0
LINE
  5
5E1
100
AcDbEntity
  8
ASSI
100
AcDbLine
 62
250
  6
CONTINUOUS
 10
-0.445161172
 20
23.4644713535
 11
-0.4626417851
 21
23.4613128412
  0
LWPOLYLINE
  5
5E2
100
AcDbEntity
  8
ASSI
100
AcDbPolyline
 62
250
  6
CONTINUOUS
 90
5
 70
0
 10
-2.907635512
 20
22.5128718679
 10
-2.9448806587
 20
22.5074653814
 10
-2.9829047247
 20
22.5042220272
 10
-3.021674018
 20
22.5030490946
 10
-3.0599739934
 20
22.5039496671
  0
LWPOLYLINE
  5
5E3
100
AcDbEntity
  8
ASSI
100
AcDbPolyline
 62
250
  6
CONTINUOUS
 90
3
 70
0
 10
-7.307871785
 20
21.1187744331
 10
-7.2999076521
 20
21.119779506
 10
-7.2923260128
 20
21.1204963142
  0
LWPOLYLINE
  5
5E4
100
AcDbEntity
  8
ASSI
100
AcDbPolyline
 62
7
  6
CONTINUOUS
 90
6
 70
0
 10
-0.3672870113
 20
23.4781444475
 10
-0.3777086289
 20
23.4770946925
 10
-0.403245685
 20
23.4737695445
 10
-0.4283111528
 20
23.46937939
 10
-0.4529161722
 20
23.4638588593
 10
-0.4627030998
 20
23.4612960796
  0
LWPOLYLINE
  5
5E5
100
AcDbEntity
  8
ASSI
100
AcDbPolyline
 62
250
  6
CONTINUOUS
 90
12
 70
0
 10
-0.3122745523
 20
23.4578573614
 10
-0.3175282962
 20
23.4573401593
 10
-0.322721642
 20
23.4567653964
 10
-0.3278545897
 20
23.4561330727
 10
-0.3329051112
 20
23.4554484542
 10
-0.3378952346
 20
23.454706275
 10
-0.3428910436
 20
23.453890737
 10
-0.3479055416
 20
23.4530034857
 10
-0.3529257253
 20
23.4520428756
 10
-0.3579786689
 20
23.4509881732
 10
-0.3630733969
 20
23.4498324672
 10
-0.3682008849
 20
23.4485826688
  0
LINE
  5
5E6
100
AcDbEntity
  8
ASSI
100
AcDbLine
 62
250
  6
CONTINUOUS
 10
0.9724852809
 20
23.5768160368
 11
-0.3122745523
 21
23.4578573614
  0
LINE
  5
5E7
100
AcDbEntity
  8
ASSI
100
AcDbLine
 62
7
  6
CONTINUOUS
 10
0.9027172832
 20
23.5957368833
 11
-0.3673166459
 21
23.478141711
  0
LWPOLYLINE
  5
5E8
100
AcDbEntity
  8
ASSI
100
AcDbPolyline
 62
250
  6
CONTINUOUS
 90
7
 70
0
 10
-5.3410426123
 20
21.2252698952
 10
-5.2979767165
 20
21.2289866811
 10
-5.2531707943
 20
21.23550111
 10
-5.2066858912
 20
21.244928846
 10
-5.1587201253
 20
21.2573562881
 10
-5.10923025
 20
21.2728957542
 10
-5.0579193948
 20
21.2917546442
  0
LWPOLYLINE
  5
5E9
100
AcDbEntity
  8
ASSI
100
AcDbPolyline
 62
7
  6
CONTINUOUS
 90
7
 70
0
 10
-7.3558234328
 20
21.1381509526
 10
-7.3723141708
 20
21.1368537994
 10
-7.4091409143
 20
21.1311051874
 10
-7.4473602473
 20
21.1210565481
 10
-7.4851954884
 20
21.1070517681
 10
-7.522076866
 20
21.089487473
 10
-7.5318487114
 20
21.0841766643
  0
LWPOLYLINE
  5
5EA
100
AcDbEntity
  8
ASSI
100
AcDbPolyline
 62
250
  6
CONTINUOUS
 90
7
 70
0
 10
-3.1279107232
 20
22.5510957903
 10
-3.1343240572
 20
22.5509682312
 10
-3.1411376055
 20
22.5487023978
 10
-3.1482767179
 20
22.5443231146
 10
-3.1556631767
 20
22.5378783617
 10
-3.1632160544
 20
22.5294387489
 10
-3.1708526
 20
22.5190967421
  0
LWPOLYLINE
  5
5EB
100
AcDbEntity
  8
ASSI
100
AcDbPolyline
 62
250
  6
CONTINUOUS
 90
23
 70
0
 10
-3.225862487
 20
22.528164684
 10
-3.253745883
 20
22.530379758
 10
-3.2821354622
 20
22.5310416875
 10
-3.3107742988
 20
22.5301572713
 10
-3.3388916154
 20
22.5277469061
 10
-3.3664682337
 20
22.5237708558
 10
-3.3935233321
 20
22.5182688565
 10
-3.4193436684
 20
22.5113805124
 10
-3.4439045925
 20
22.5030662111
 10
-3.4672307544
 20
22.4933655651
 10
-3.488682862
 20
22.4825370166
 10
-3.5082088231
 20
22.4705464699
 10
-3.5258607299
 20
22.4574280208
 10
-3.5411555661
 20
22.4435423983
 10
-3.5540231838
 20
22.4288718337
 10
-3.5645337309
 20
22.4134340958
 10
-3.5724146359
 20
22.3976432197
 10
-3.5775957122
 20
22.3814907679
 10
-3.5801471464
 20
22.3649851779
 10
-3.5800069262
 20
22.3485657977
 10
-3.5771543809
 20
22.3323790765
 10
-3.5716101813
 20
22.3162785652
 10
-3.5633743273
 20
22.3002642636
  0
LWPOLYLINE
  5
5EC
100
AcDbEntity
  8
RACCORDO
100
AcDbPolyline
 62
7
  6
CONTINUOUS
 90
10
 70
0
 10
-0.613585778
 20
26.0034132915
 10
-0.6321160567
 20
26.005440217
 10
-0.6511194027
 20
26.0057377099
 10
-0.6705958158
 20
26.0043057702
 10
-0.690593909
 20
26.0011361372
 10
-0.7110650693
 20
25.9962370716
 10
-0.7318634588
 20
25.9896333553
 10
-0.7529404648
 20
25.981333249
 10
-0.7743446999
 20
25.9713284919
 10
-0.7960761641
 20
25.9596190841
  0
LWPOLYLINE
  5
5ED
100
AcDbEntity
  8
DRAFT
100
AcDbPolyline
 62
7
  6
CONTINUOUS
 90
10
 70
0
 10
-1.4481771589
 20
23.8351792155
 10
-1.5912513632
 20
23.8558881467
 10
-1.7409257137
 20
23.8714575852
 10
-1.8914949733
 20
23.8811315489
 10
-2.0433064661
 20
23.8848472916
 10
-2.196012868
 20
23.8826675594
 10
-2.3469851159
 20
23.874620679
 10
-2.4959241573
 20
23.8606352576
 10
-2.6431290448
 20
23.840782688
 10
-2.6853540204
 20
23.8332984565
  0
LWPOLYLINE
  5
5EE
100
AcDbEntity
  8
ASSI
100
AcDbPolyline
 62
250
  6
CONTINUOUS
 90
3
 70
0
 10
-0.409239164
 20
23.4617230437
 10
-0.4273324544
 20
23.4645916492
 10
-0.445161172
 20
23.4644713535
  0
LINE
  5
5EF
100
AcDbEntity
  8
0
100
AcDbLine
 62
250
  6
CONTINUOUS
 10
-3.2980061049
 20
-28.9698922439
 11
-0.8939528279
 21
-27.7234966972
  0
LINE
  5
5F0
100
AcDbEntity
  8
0
100
AcDbLine
 62
7
  6
CONTINUOUS
 10
-3.4120467253
 20
-29.2043698368
 11
-1.0040687152
 21
-27.9559394891
  0
LWPOLYLINE
  5
5F1
100
AcDbEntity
  8
0
100
AcDbPolyline
 62
250
  6
CONTINUOUS
 90
16
 70
0
 10
-3.2980061049
 20
-28.9698922439
 10
-3.3372330778
 20
-28.9892646122
 10
-3.3797100463
 20
-29.0061985802
 10
-3.4249842698
 20
-29.0205136919
 10
-3.4725786635
 20
-29.0320585421
 10
-3.5219809059
 20
-29.0407083281
 10
-3.5726471057
 20
-29.0463694717
 10
-3.6240253841
 20
-29.048984507
 10
-3.6755793442
 20
-29.0485302681
 10
-3.7267765691
 20
-29.0450131562
 10
-3.7771416069
 20
-29.0384597142
 10
-3.8260662191
 20
-29.0289428535
 10
-3.8728527609
 20
-29.0166172411
 10
-3.9169765268
 20
-29.0016666271
 10
-3.9580681247
 20
-28.9842639851
 10
-3.9957367834
 20
-28.9646185052
  0
ARC
  5
5F2
100
AcDbEntity
  8
0
100
AcDbCircle
 62
7
  6
CONTINUOUS
 10
-3.6421833928
 20
-28.7604812086
 40
0.5
100
AcDbArc
 50
239.9984015654
 51
297.4194204711
  0
ARC
  5
5F3
100
AcDbEntity
  8
0
100
AcDbCircle
 62
7
  6
CONTINUOUS
 10
-18.5103975611
 20
-20.1757606902
 40
0.5
100
AcDbArc
 50
179.9840060021
 51
239.998401565
  0
ARC
  5
5F4
100
AcDbEntity
  8
0
100
AcDbCircle
 62
7
  6
CONTINUOUS
 10
-18.5103975611
 20
21.976011592
 40
0.5
100
AcDbArc
 50
122.5992954233
 51
180.0013071257
  0
ARC
  5
5F5
100
AcDbEntity
  8
RACCORDO
100
AcDbCircle
 62
7
  6
CONTINUOUS
 10
13.1233369968
 20
-12.1108776065
 40
0.5
100
AcDbArc
 50
310.803876622
 51
0.0270733582
  0
ARC
  5
5F6
100
AcDbEntity
  8
RACCORDO
100
AcDbCircle
 62
7
  6
CONTINUOUS
 10
13.1233369968
 20
16.2490260531
 40
0.5
100
AcDbArc
 50
359.9751601013
 51
26.3588688698
  0
ARC
  5
5F7
100
AcDbEntity
  8
ASSI
100
AcDbCircle
 62
7
  6
CONTINUOUS
 10
-0.5380326038
 20
20.8285579308
 40
0.25
100
AcDbArc
 50
121.733268332
 51
141.921904304
  0
ARC
  5
5F8
100
AcDbEntity
  8
ASSI
100
AcDbCircle
 62
7
  6
CONTINUOUS
 10
-7.5756328351
 20
20.8307858973
 40
0.2
100
AcDbArc
 50
119.0851069668
 51
154.7491247991
  0
ARC
  5
5F9
100
AcDbEntity
  8
ASSI
100
AcDbCircle
 62
7
  6
CONTINUOUS
 10
-11.7611590451
 20
21.7773619773
 40
0.2
100
AcDbArc
 50
59.9984015652
 51
118.2824903446
  0
ARC
  5
5FA
100
AcDbEntity
  8
ASSI
100
AcDbCircle
 62
7
  6
CONTINUOUS
 10
-1.0576123972
 20
15.2279573001
 40
0.2
100
AcDbArc
 50
315.7312260649
 51
0.024488456
  0
ARC
  5
5FB
100
AcDbEntity
  8
ASSI
100
AcDbCircle
 62
7
  6
CONTINUOUS
 10
-1.0576123972
 20
15.5972682897
 40
0.2
100
AcDbArc
 50
359.9837886302
 51
59.9984015652
  0
ARC
  5
5FC
100
AcDbEntity
  8
ASSI
100
AcDbCircle
 62
7
  6
CONTINUOUS
 10
-10.2339551794
 20
20.8955736056
 40
0.2
100
AcDbArc
 50
359.9895357921
 51
59.9984015652
  0
ARC
  5
5FD
100
AcDbEntity
  8
ASSI
100
AcDbCircle
 62
7
  6
CONTINUOUS
 10
-10.2339551794
 20
20.526262616
 40
0.2
100
AcDbArc
 50
315.7300112917
 51
0.0272094449
  0
ARC
  5
5FE
100
AcDbEntity
  8
ASSI
100
AcDbCircle
 62
7
  6
CONTINUOUS
 10
-2.5848162629
 20
16.4790566614
 40
0.2
100
AcDbArc
 50
59.9984015652
 51
118.2824903446
  0
ELLIPSE
  5
5FF
100
AcDbEntity
  8
0
100
AcDbEllipse
 62
7
  6
CONTINUOUS
 10
-1.1022880943
 20
-21.8501337336
 30
0.0
 11
0.3037200246
 21
0.1710449014
 31
0.0
 40
0.0105151745
 41
0.6673087948
 42
0.7742146559
  0
ELLIPSE
  5
600
100
AcDbEntity
  8
0
100
AcDbEllipse
 62
7
  6
CONTINUOUS
 10
-1.1788231324
 20
-21.8059433618
 30
0.0
 11
0.4568380168
 21
0.0702030008
 31
0.0
 40
0.2209951355
 41
0.2918164413
 42
0.3503969549
  0
ELLIPSE
  5
601
100
AcDbEntity
  8
DRAFT
100
AcDbEllipse
 62
7
  6
CONTINUOUS
 10
-0.5102760419
 20
9.5387559741
 30
0.0
 11
0.1461416733
 21
0.2620230697
 31
0.0
 40
0.5671693725
 41
-2.347120172
 42
-1.6021379547
  0
ELLIPSE
  5
602
100
AcDbEntity
  8
DRAFT
100
AcDbEllipse
 62
7
  6
CONTINUOUS
 10
-0.5102760419
 20
-22.191954073
 30
0.0
 11
0.1461416733
 21
0.2620230697
 31
0.0
 40
0.5671693725
 41
0.0145836793
 42
0.7595658966
  0
ELLIPSE
  5
603
100
AcDbEntity
  8
0
100
AcDbEllipse
 62
7
  6
CONTINUOUS
 10
-1.2476274139
 20
-27.5190095918
 30
0.0
 11
-0.2501834304
 21
0.4333025529
 31
0.0
 40
0.5769361983
 41
-3.1677535987
 42
-2.3565853618
  0
ELLIPSE
  5
604
100
AcDbEntity
  8
0
100
AcDbEllipse
 62
7
  6
CONTINUOUS
 10
-1.2476274139
 20
14.7738708661
 30
0.0
 11
-0.2500121049
 21
0.4330057129
 31
0.0
 40
0.5777274115
 41
-2.3559002616
 42
-0.7857891675
  0
ELLIPSE
  5
605
100
AcDbEntity
  8
0
100
AcDbEllipse
 62
7
  6
CONTINUOUS
 10
-16.2380487842
 20
23.4291522912
 30
0.0
 11
-0.2501834304
 21
0.4333025529
 31
0.0
 40
0.5769361983
 41
-0.7851038024
 42
0.0261609458
  0
ELLIPSE
  5
606
100
AcDbEntity
  8
RACCORDO
100
AcDbEllipse
 62
7
  6
CONTINUOUS
 10
-2.0253236778
 20
22.1358391641
 30
0.0
 11
2.1999218644
 21
-0.0326882419
 31
0.0
 40
0.5672251703
 41
1.7051802709
 42
1.753386919
  0
ELLIPSE
  5
607
100
AcDbEntity
  8
RACCORDO
100
AcDbEllipse
 62
7
  6
CONTINUOUS
 10
7.8741712588
 20
16.4199948575
 30
0.0
 11
2.1999218644
 21
-0.0326882419
 31
0.0
 40
0.5672251703
 41
0.5331054335
 42
1.9026818526
  0
ELLIPSE
  5
608
100
AcDbEntity
  8
ASSI
100
AcDbEllipse
 62
7
  6
CONTINUOUS
 10
0.202089611
 20
21.2862606105
 30
0.0
 11
-0.1250441155
 21
0.2165688207
 31
0.0
 40
0.5771558487
 41
-0.7852941622
 42
0.0174472731
  0
ELLIPSE
  5
609
100
AcDbEntity
  8
DRAFT
100
AcDbEllipse
 62
7
  6
CONTINUOUS
 10
7.8741712588
 20
17.7373352937
 30
0.0
 11
2.1999218644
 21
-0.0326882419
 31
0.0
 40
0.5672251703
 41
-0.9745175352
 42
-0.7944233591
  0
ELLIPSE
  5
60A
100
AcDbEntity
  8
DRAFT
100
AcDbEllipse
 62
7
  6
CONTINUOUS
 10
-5.8896591357
 20
22.2029010491
 30
0.0
 11
0.3999963222
 21
-0.0029970465
 31
0.0
 40
0.5723275643
 41
-2.3519062463
 42
-0.8334697971
  0
ELLIPSE
  5
60B
100
AcDbEntity
  8
DRAFT
100
AcDbEllipse
 62
7
  6
CONTINUOUS
 10
-842.2880365539
 20
-492.5085776962
 30
0.0
 11
1587.846741927
 21
916.8006670355
 31
0.0
 40
0.0182883491
 41
1.0066889963
 42
1.0080254307
  0
ELLIPSE
  5
60C
100
AcDbEntity
  8
DRAFT
100
AcDbEllipse
 62
7
  6
CONTINUOUS
 10
-838.8402073251
 20
-494.4993110813
 30
0.0
 11
1549.2190481454
 21
939.205982371
 31
0.0
 40
0.0002292639
 41
-0.9979176733
 42
-0.9960060466
  0
ELLIPSE
  5
60D
100
AcDbEntity
  8
DRAFT
100
AcDbEllipse
 62
7
  6
CONTINUOUS
 10
2.5461185613
 20
17.332188732
 30
0.0
 11
0.3999963222
 21
-0.0029970465
 31
0.0
 40
0.5723275643
 41
2.4128426116
 42
3.9312790609
  0
ELLIPSE
  5
60E
100
AcDbEntity
  8
ASSI
100
AcDbEllipse
 62
7
  6
CONTINUOUS
 10
5.9907951727
 20
19.9242679556
 30
0.0
 11
-0.1250060456
 21
0.2165028604
 31
0.0
 40
0.5775075436
 41
-0.8696513018
 42
-0.7855988075
  0
ELLIPSE
  5
60F
100
AcDbEntity
  8
ASSI
100
AcDbEllipse
 62
7
  6
CONTINUOUS
 10
4.1596727802
 20
21.5675194736
 30
0.0
 11
-0.0997443216
 21
0.1733547677
 31
0.0
 40
0.6165007174
 41
-2.2349887316
 42
-0.8165063841
  0
ELLIPSE
  5
610
100
AcDbEntity
  8
ASSI
100
AcDbEllipse
 62
7
  6
CONTINUOUS
 10
1.130483008
 20
23.3165356835
 30
0.0
 11
-0.0967169587
 21
0.179612414
 31
0.0
 40
0.5745579549
 41
-2.2695797439
 42
-0.7493576255
  0
ELLIPSE
  5
611
100
AcDbEntity
  8
ASSI
100
AcDbEllipse
 62
7
  6
CONTINUOUS
 10
-0.8490543728
 20
23.8735113597
 30
0.0
 11
-0.1250441155
 21
0.2165688207
 31
0.0
 40
0.5771558487
 41
-0.7852941622
 42
-0.7012416679
  0
ELLIPSE
  5
612
100
AcDbEntity
  8
RACCORDO
100
AcDbEllipse
 62
7
  6
CONTINUOUS
 10
-112.0454352152
 20
-52.5049514335
 30
0.0
 11
402.8595621856
 21
232.6078586167
 31
0.0
 40
0.0628494143
 41
-1.3277255145
 42
-1.3258935879
  0
ELLIPSE
  5
613
100
AcDbEntity
  8
DRAFT
100
AcDbEllipse
 62
7
  6
CONTINUOUS
 10
7.8741712588
 20
18.3141199236
 30
0.0
 11
2.1990703413
 21
0.1053955392
 31
0.0
 40
0.6067642562
 41
2.5563983046
 42
2.6377331584
  0
ELLIPSE
  5
614
100
AcDbEntity
  8
ASSI
100
AcDbEllipse
 62
7
  6
CONTINUOUS
 10
0.9820680196
 20
23.4022286377
 30
0.0
 11
-0.1065746657
 21
0.1850801844
 31
0.0
 40
0.5406488238
 41
-0.7513003416
 42
-0.2431306586
  0
ELLIPSE
  5
615
100
AcDbEntity
  8
ASSI
100
AcDbEllipse
 62
7
  6
CONTINUOUS
 10
4.0112577919
 20
21.6532124278
 30
0.0
 11
-0.0962895183
 21
0.1790040747
 31
0.0
 40
0.5787392407
 41
-0.752491962
 42
-0.1289872409
  0
ELLIPSE
  5
616
100
AcDbEntity
  8
ASSI
100
AcDbEllipse
 62
7
  6
CONTINUOUS
 10
-2.3467601849
 20
20.8589238722
 30
0.0
 11
0.3652263551
 21
0.1644105368
 31
0.0
 40
0.3407407308
 41
1.8589059539
 42
3.382251992
  0
ELLIPSE
  5
617
100
AcDbEntity
  8
ASSI
100
AcDbEllipse
 62
7
  6
CONTINUOUS
 10
-0.8377751006
 20
17.0251884643
 30
0.0
 11
0.999867518
 21
-0.0292282715
 31
0.0
 40
0.5568983954
 41
5.6013315027
 42
7.0848613669
  0
ELLIPSE
  5
618
100
AcDbEntity
  8
ASSI
100
AcDbEllipse
 62
7
  6
CONTINUOUS
 10
3.1701712432
 20
20.4944283414
 30
0.0
 11
0.5013109713
 21
-0.0090323087
 31
0.0
 40
0.5663187271
 41
-0.7565983455
 42
-0.4971873728
  0
ELLIPSE
  5
619
100
AcDbEntity
  8
ASSI
100
AcDbEllipse
 62
7
  6
CONTINUOUS
 10
-0.8024041931
 20
16.542004562
 30
0.0
 11
-0.100004872
 21
0.1732022678
 31
0.0
 40
0.5789151826
 41
-2.3548735497
 42
-0.7868162787
  0
ELLIPSE
  5
61A
100
AcDbEntity
  8
RACCORDO
100
AcDbEllipse
 62
7
  6
CONTINUOUS
 10
-112.0454352152
 20
-64.4295941156
 30
0.0
 11
403.1242860915
 21
268.5419470062
 31
0.0
 40
0.0022336512
 41
-1.2929406363
 42
-1.2911087097
  0
ELLIPSE
  5
61B
100
AcDbEntity
  8
0
100
AcDbEllipse
 62
7
  6
CONTINUOUS
 10
-989.4826897269
 20
-537.8670944004
 30
0.0
 11
1091.3872670356
 21
588.1465940607
 31
0.0
 40
0.0261556157
 41
-0.4518153808
 42
-0.4513581923
  0
ENDSEC
  0
SECTION
  2
OBJECTS
  0
DICTIONARY
  5
C
100
AcDbDictionary
280
0
281
1
  3
ACAD_GROUP
350
D
  3
ACAD_MLINESTYLE
350
17
  3
ACAD_LAYOUT
350
1A
  3
ACAD_PLOTSETTINGS
350
19
  3
ACAD_PLOTSTYLENAME
350
E
  0
DICTIONARY
  5
D
102
{ACAD_REACTORS
330
C
102
}
100
AcDbDictionary
280
0
281
1
  0
ACDBDICTIONARYWDFLT
  5
E
102
{ACAD_REACTORS
330
C
102
}
100
AcDbDictionary
281
1
  3
Normal
350
F
100
AcDbDictionaryWithDefault
340
F
  0
DICTIONARY
  5
17
102
{ACAD_REACTORS
330
C
102
}
100
AcDbDictionary
280
0
281
1
  3
Standard
350
18
  0
DICTIONARY
  5
19
102
{ACAD_REACTORS
330
C
102
}
100
AcDbDictionary
281
1
  0
DICTIONARY
  5
1A
102
{ACAD_REACTORS
330
C
102
}
100
AcDbDictionary
281
1
  3
Model
350
61C
  3
Layout1
350
61D
  0
ACDBPLACEHOLDER
  5
F
102
{ACAD_REACTORS
330
E
102
}
  0
MLINESTYLE
  5
18
102
{ACAD_REACTORS
330
17
102
}
100
AcDbMlineStyle
  2
STANDARD
 70
0
  3

 62
256
 51
90.0
 52
90.0
 71
2
 49
0.5
 62
256
  6
BYLAYER
 49
-0.5
 62
256
  6
BYLAYER
  0
LAYOUT
  5
61C
102
{ACAD_REACTORS
330
1A
102
}
100
AcDbPlotSettings
  1

  2
none_device
  4
ISO_A4_(297.00_x_210.00_MM)
  6

 40
0.0
 41
0.0
 42
0.0
 43
0.0
 44
297.0
 45
210.0
 46
0.0
 47
0.0
 48
0.0
 49
0.0
140
0.0
141
0.0
142
1.0
143
1.0
 70
1024
 72
1
 73
0
 74
0
  7

 75
0
147
1.0
148
0.0
149
0.0
100
AcDbLayout
  1
Model
 70
0
 71
0
 10
0.0
 20
0.0
 11
297.0
 21
210.0
 12
0.0
 22
0.0
 32
0.0
 14
0.0
 24
0.0
 34
0.0
 15
0.0
 25
0.0
 35
0.0
146
0.0
 13
0.0
 23
0.0
 33
0.0
 16
1.0
 26
0.0
 36
0.0
 17
0.0
 27
1.0
 37
0.0
 76
0
330
21E
345
0
346
0
  0
LAYOUT
  5
61D
102
{ACAD_REACTORS
330
1A
102
}
100
AcDbPlotSettings
  1

  2
none_device
  4
ISO_A4_(297.00_x_210.00_MM)
  6

 40
0.0
 41
0.0
 42
0.0
 43
0.0
 44
297.0
 45
210.0
 46
0.0
 47
0.0
 48
0.0
 49
0.0
140
0.0
141
0.0
142
1.0
143
1.0
 70
0
 72
1
 73
0
 74
0
  7

 75
0
147
1.0
148
0.0
149
0.0
100
AcDbLayout
  1
Layout1
 70
0
 71
1
 10
0.0
 20
0.0
 11
297.0
 21
210.0
 12
0.0
 22
0.0
 32
0.0
 14
0.0
 24
0.0
 34
0.0
 15
0.0
 25
0.0
 35
0.0
146
0.0
 13
0.0
 23
0.0
 33
0.0
 16
1.0
 26
0.0
 36
0.0
 17
0.0
 27
1.0
 37
0.0
 76
0
330
21F
345
0
346
0
  0
ENDSEC
  0
EOF
