  0
SECTION
  2
HEADER
  9
$ACADVER
  1
AC1024
  9
$DWGCODEPAGE
  3
ANSI_1252
  9
$EXTMAX
 10
297.0
 20
210.0
 30
0.0
  9
$EXTMIN
 10
0.0
 20
0.0
 30
0.0
  9
$LIMMIN
 10
0.0
 20
0.0
  9
$LIMMAX
 10
297.0
 20
210.0
  9
$VIEWCTR
 10
148.5
 20
105.0
  9
$VIEWSIZE
 40
210.0
  9
$CLAYER
  8
0
  9
$LTSCALE
 40
16.335
  9
$CELTYPE
  6
BYLAYER
  9
$DIMSCALE
 40
1.0
  9
$DIMASZ
 40
3.0
  9
$DIMEXO
 40
0.5
  9
$DIMDLI
 40
11.286
  9
$DIMEXE
 40
1.5
  9
$DIMCEN
 40
2.673
  9
$DIMLFAC
 40
1.0
  9
$DIMBLK
  1
_FILLED
  9
$DIMALT
 70
0
  9
$DIMALTF
 40
0.0393700787
  9
$DIMTXT
 40
3.0
  9
$DIMTOL
 70
1
  9
$DIMLIM
 70
0
  9
$DIMTFAC
 40
1.0
  9
$DIMTP
 40
0.01
  9
$DIMTM
 40
0.01
  9
$DIMGAP
 40
0.625
  9
$DIMDSEP
 70
44
  9
$AUNITS
 70
0
  9
$PDMODE
 70
3
  9
$PDSIZE
 40
3.0
  9
$HANDSEED
  5
403
  9
$TILEMODE
 70
1
  9
$MEASUREMENT
 70
1
  9
$INSUNITS
 70
4
  0
ENDSEC
  0
SECTION
  2
CLASSES
  0
CLASS
  1
ACDBDICTIONARYWDFLT
  2
AcDbDictionaryWithDefault
  3
AutoCAD 2000
 90
0
 91
1
280
0
281
0
  0
CLASS
  1
ACDBPLACEHOLDER
  2
AcDbPlaceHolder
  3
AutoCAD 2000
 90
0
 91
1
280
0
281
0
  0
CLASS
  1
LAYOUT
  2
AcDbLayout
  3
AutoCAD 2000
 90
0
 91
0
280
0
281
0
  0
ENDSEC
  0
SECTION
  2
TABLES
  0
TABLE
  2
VPORT
  5
8
100
AcDbSymbolTable
 70
2
  0
VPORT
  5
1F4
100
AcDbSymbolTableRecord
100
AcDbViewportTableRecord
  2
*ACTIVE
 70
0
 10
0.0
 20
0.0
 11
1.0
 21
1.0
 12
148.5
 22
105.0
 13
0.0
 23
0.0
 14
1.0
 24
1.0
 15
0.0
 25
0.0
 16
0.0
 26
0.0
 36
1.0
 17
0.0
 27
0.0
 37
0.0
 40
210.0
 41
1.4142857143
 42
50.0
 43
0.0
 44
0.0
 50
0.0
 51
0.0
 71
0
 72
100
 73
1
 74
1
 75
0
 76
0
 77
0
 78
0
  0
ENDTAB
  0
TABLE
  2
LTYPE
  5
5
100
AcDbSymbolTable
 70
6
  0
LTYPE
  5
14
100
AcDbSymbolTableRecord
100
AcDbLinetypeTableRecord
  2
BYBLOCK
 70
0
  3

 72
65
 73
0
 40
0.0
  0
LTYPE
  5
15
100
AcDbSymbolTableRecord
100
AcDbLinetypeTableRecord
  2
BYLAYER
 70
0
  3

 72
65
 73
0
 40
0.0
  0
LTYPE
  5
16
100
AcDbSymbolTableRecord
100
AcDbLinetypeTableRecord
  2
CONTINUOUS
 70
64
  3
Solid line
 72
65
 73
0
 40
0.0
  0
LTYPE
  5
1F5
100
AcDbSymbolTableRecord
100
AcDbLinetypeTableRecord
  2
CENTER
 70
64
  3
____ _ ____ _ ____ _ ____ _ ____ _ ____ _ ____
 72
65
 73
4
 40
0.6
 49
0.375
 74
0
 49
-0.075
 74
0
 49
0.075
 74
0
 49
-0.075
 74
0
  0
LTYPE
  5
1F6
100
AcDbSymbolTableRecord
100
AcDbLinetypeTableRecord
  2
HIDDEN
 70
64
  3
- - - - - - - - - - - - - - - - - - - -
 72
65
 73
2
 40
0.2
 49
0.1
 74
0
 49
-0.1
 74
0
  0
LTYPE
  5
1F7
100
AcDbSymbolTableRecord
100
AcDbLinetypeTableRecord
  2
PHANTOM
 70
64
  3
_____ _ _ _____ _ _ _____ _ _ _____
 72
65
 73
6
 40
0.8
 49
0.45
 74
0
 49
-0.05
 74
0
 49
0.1
 74
0
 49
-0.05
 74
0
 49
0.1
 74
0
 49
-0.05
 74
0
  0
LTYPE
  5
1F8
100
AcDbSymbolTableRecord
100
AcDbLinetypeTableRecord
  2
DOT
 70
64
  3
. . . . . . . . . . . . . . . . . . . .
 72
65
 73
2
 40
0.2
 49
0.1
 74
0
 49
-0.1
 74
0
  0
LTYPE
  5
1F9
100
AcDbSymbolTableRecord
100
AcDbLinetypeTableRecord
  2
DASHED
 70
64
  3
- - - - - - - - - - - - - - - - - - - -
 72
65
 73
2
 40
0.2
 49
0.1
 74
0
 49
-0.1
 74
0
  0
ENDTAB
  0
TABLE
  2
LAYER
  5
2
100
AcDbSymbolTable
 70
36
  0
LAYER
  5
10
100
AcDbSymbolTableRecord
100
AcDbLayerTableRecord
  2
0
 70
0
 62
7
  6
CONTINUOUS
370
-3
390
F
  0
LAYER
  5
1FA
100
AcDbSymbolTableRecord
100
AcDbLayerTableRecord
  2
DEFAULT_1
 70
0
 62
7
  6
CENTER
370
-3
390
F
  0
LAYER
  5
1FB
100
AcDbSymbolTableRecord
100
AcDbLayerTableRecord
  2
DEFAULT_2
 70
0
 62
7
  6
HIDDEN
370
-3
390
F
  0
LAYER
  5
1FC
100
AcDbSymbolTableRecord
100
AcDbLayerTableRecord
  2
DEFAULT_3
 70
0
 62
7
  6
PHANTOM
370
-3
390
F
  0
LAYER
  5
1FD
100
AcDbSymbolTableRecord
100
AcDbLayerTableRecord
  2
ASSI
 70
0
 62
7
  6
CONTINUOUS
370
-3
390
F
  0
LAYER
  5
1FE
100
AcDbSymbolTableRecord
100
AcDbLayerTableRecord
  2
COORDINATE
 70
0
 62
7
  6
CONTINUOUS
370
-3
390
F
  0
LAYER
  5
1FF
100
AcDbSymbolTableRecord
100
AcDbLayerTableRecord
  2
COPY_PUBLISH
 70
0
 62
7
  6
CONTINUOUS
370
-3
390
F
  0
LAYER
  5
200
100
AcDbSymbolTableRecord
100
AcDbLayerTableRecord
  2
CORPI
 70
0
 62
7
  6
CONTINUOUS
370
-3
390
F
  0
LAYER
  5
201
100
AcDbSymbolTableRecord
100
AcDbLayerTableRecord
  2
COSMETICI
 70
0
 62
7
  6
CONTINUOUS
370
-3
390
F
  0
LAYER
  5
202
100
AcDbSymbolTableRecord
100
AcDbLayerTableRecord
  2
CURVE
 70
0
 62
7
  6
CONTINUOUS
370
-3
390
F
  0
LAYER
  5
203
100
AcDbSymbolTableRecord
100
AcDbLayerTableRecord
  2
DIMENSIONI
 70
0
 62
7
  6
CONTINUOUS
370
-3
390
F
  0
LAYER
  5
204
100
AcDbSymbolTableRecord
100
AcDbLayerTableRecord
  2
DRAFT
 70
0
 62
7
  6
CONTINUOUS
370
-3
390
F
  0
LAYER
  5
205
100
AcDbSymbolTableRecord
100
AcDbLayerTableRecord
  2
ICONE
 70
0
 62
7
  6
CONTINUOUS
370
-3
390
F
  0
LAYER
  5
206
100
AcDbSymbolTableRecord
100
AcDbLayerTableRecord
  2
IMPORT_IGES
 70
0
 62
7
  6
CONTINUOUS
370
-3
390
F
  0
LAYER
  5
207
100
AcDbSymbolTableRecord
100
AcDbLayerTableRecord
  2
INTFCLR_4
 70
0
 62
7
  6
CONTINUOUS
370
-3
390
F
  0
LAYER
  5
208
100
AcDbSymbolTableRecord
100
AcDbLayerTableRecord
  2
INTFCLR_5
 70
0
 62
7
  6
CONTINUOUS
370
-3
390
F
  0
LAYER
  5
209
100
AcDbSymbolTableRecord
100
AcDbLayerTableRecord
  2
INTFCLR_6
 70
0
 62
7
  6
CONTINUOUS
370
-3
390
F
  0
LAYER
  5
20A
100
AcDbSymbolTableRecord
100
AcDbLayerTableRecord
  2
INTF_1
 70
0
 62
7
  6
CONTINUOUS
370
-3
390
F
  0
LAYER
  5
20B
100
AcDbSymbolTableRecord
100
AcDbLayerTableRecord
  2
INTF_10
 70
0
 62
7
  6
CONTINUOUS
370
-3
390
F
  0
LAYER
  5
20C
100
AcDbSymbolTableRecord
100
AcDbLayerTableRecord
  2
INTF_11
 70
0
 62
7
  6
CONTINUOUS
370
-3
390
F
  0
LAYER
  5
20D
100
AcDbSymbolTableRecord
100
AcDbLayerTableRecord
  2
INTF_2
 70
0
 62
7
  6
CONTINUOUS
370
-3
390
F
  0
LAYER
  5
20E
100
AcDbSymbolTableRecord
100
AcDbLayerTableRecord
  2
INTF_3
 70
0
 62
7
  6
CONTINUOUS
370
-3
390
F
  0
LAYER
  5
20F
100
AcDbSymbolTableRecord
100
AcDbLayerTableRecord
  2
INTF_7
 70
0
 62
7
  6
CONTINUOUS
370
-3
390
F
  0
LAYER
  5
210
100
AcDbSymbolTableRecord
100
AcDbLayerTableRecord
  2
INTF_8
 70
0
 62
7
  6
CONTINUOUS
370
-3
390
F
  0
LAYER
  5
211
100
AcDbSymbolTableRecord
100
AcDbLayerTableRecord
  2
INTF_9
 70
0
 62
7
  6
CONTINUOUS
370
-3
390
F
  0
LAYER
  5
212
100
AcDbSymbolTableRecord
100
AcDbLayerTableRecord
  2
INTF_BLANK
 70
0
 62
7
  6
CONTINUOUS
370
-3
390
F
  0
LAYER
  5
213
100
AcDbSymbolTableRecord
100
AcDbLayerTableRecord
  2
INTF_CYAN
 70
0
 62
7
  6
CONTINUOUS
370
-3
390
F
  0
LAYER
  5
214
100
AcDbSymbolTableRecord
100
AcDbLayerTableRecord
  2
INTF_RED
 70
0
 62
7
  6
CONTINUOUS
370
-3
390
F
  0
LAYER
  5
215
100
AcDbSymbolTableRecord
100
AcDbLayerTableRecord
  2
INTF_YELLOW
 70
0
 62
7
  6
CONTINUOUS
370
-3
390
F
  0
LAYER
  5
216
100
AcDbSymbolTableRecord
100
AcDbLayerTableRecord
  2
NOTE
 70
0
 62
7
  6
CONTINUOUS
370
-3
390
F
  0
LAYER
  5
217
100
AcDbSymbolTableRecord
100
AcDbLayerTableRecord
  2
PIANI
 70
0
 62
7
  6
CONTINUOUS
370
-3
390
F
  0
LAYER
  5
218
100
AcDbSymbolTableRecord
100
AcDbLayerTableRecord
  2
PUNTI
 70
0
 62
7
  6
CONTINUOUS
370
-3
390
F
  0
LAYER
  5
219
100
AcDbSymbolTableRecord
100
AcDbLayerTableRecord
  2
RACCORDO
 70
0
 62
7
  6
CONTINUOUS
370
-3
390
F
  0
LAYER
  5
21A
100
AcDbSymbolTableRecord
100
AcDbLayerTableRecord
  2
RGB__255__255__255__
 70
0
 62
7
  6
CONTINUOUS
370
-3
390
F
  0
LAYER
  5
21B
100
AcDbSymbolTableRecord
100
AcDbLayerTableRecord
  2
RGB____0____0____0__
 70
0
 62
7
  6
CONTINUOUS
370
-3
390
F
  0
LAYER
  5
21C
100
AcDbSymbolTableRecord
100
AcDbLayerTableRecord
  2
SIMBOLI
 70
0
 62
7
  6
CONTINUOUS
370
-3
390
F
  0
LAYER
  5
21D
100
AcDbSymbolTableRecord
100
AcDbLayerTableRecord
  2
SMUSSO
 70
0
 62
7
  6
CONTINUOUS
370
-3
390
F
  0
LAYER
  5
21E
100
AcDbSymbolTableRecord
100
AcDbLayerTableRecord
  2
SNAPLINE
 70
0
 62
7
  6
CONTINUOUS
370
-3
390
F
  0
LAYER
  5
21F
100
AcDbSymbolTableRecord
100
AcDbLayerTableRecord
  2
SUPERFICI
 70
0
 62
7
  6
CONTINUOUS
370
-3
390
F
  0
LAYER
  5
220
100
AcDbSymbolTableRecord
100
AcDbLayerTableRecord
  2
TRASH
 70
0
 62
7
  6
CONTINUOUS
370
-3
390
F
  0
LAYER
  5
221
100
AcDbSymbolTableRecord
100
AcDbLayerTableRecord
  2
WHITE
 70
0
 62
7
  6
CONTINUOUS
370
-3
390
F
  0
LAYER
  5
222
100
AcDbSymbolTableRecord
100
AcDbLayerTableRecord
  2
_BLACK_HOLE
 70
0
 62
7
  6
CONTINUOUS
370
-3
390
F
  0
ENDTAB
  0
TABLE
  2
STYLE
  5
3
100
AcDbSymbolTable
 70
1
  0
STYLE
  5
11
100
AcDbSymbolTableRecord
100
AcDbTextStyleTableRecord
  2
STANDARD
 70
0
 40
0.0
 41
0.8
 50
0.0
 71
0
 42
0.2
  3
txt
  4

  0
STYLE
  5
223
100
AcDbSymbolTableRecord
100
AcDbTextStyleTableRecord
  2
TEXTSTYLE_1
 70
0
 40
0.0
 41
0.8
 50
0.0
 71
0
 42
0.2
  3
gdt
  4

  0
ENDTAB
  0
TABLE
  2
VIEW
  5
6
100
AcDbSymbolTable
 70
0
  0
ENDTAB
  0
TABLE
  2
UCS
  5
7
100
AcDbSymbolTable
 70
0
  0
ENDTAB
  0
TABLE
  2
APPID
  5
9
100
AcDbSymbolTable
 70
1
  0
APPID
  5
224
100
AcDbSymbolTableRecord
100
AcDbRegAppTableRecord
  2
ACAD
 70
0
  0
ENDTAB
  0
TABLE
  2
BLOCK_RECORD
  5
1
100
AcDbSymbolTable
 70
0
  0
BLOCK_RECORD
  5
225
100
AcDbSymbolTableRecord
100
AcDbBlockTableRecord
  2
*Model_Space
  0
BLOCK_RECORD
  5
226
100
AcDbSymbolTableRecord
100
AcDbBlockTableRecord
  2
*Paper_Space
  0
BLOCK_RECORD
  5
227
100
AcDbSymbolTableRecord
100
AcDbBlockTableRecord
  2
_FILLED
  0
ENDTAB
  0
TABLE
  2
DIMSTYLE
  5
A
100
AcDbSymbolTable
 70
1
100
AcDbDimStyleTable
 71
0
  0
DIMSTYLE
105
228
100
AcDbSymbolTableRecord
100
AcDbDimStyleTableRecord
  2
STANDARD
 70
0
  3

  4

 40
1.0
 41
3.0
 42
0.5
 43
0.38
 44
1.5
 45
0.0
 46
0.0
 47
0.01
 48
0.01
140
3.0
141
0.0
142
0.0
143
25.4
144
1.0
145
0.0
146
1.0
147
0.625
 71
1
 72
0
 73
0
 74
0
 75
0
 76
0
 77
1
 78
8
 79
2
170
0
171
1
172
0
173
0
174
0
175
0
176
0
177
0
178
0
270
2
179
2
271
2
272
2
273
2
274
2
275
0
280
0
281
0
282
0
283
1
284
8
285
0
286
0
287
3
288
0
340
11
278
44
341
227
342
227
343
227
344
227
  0
ENDTAB
  0
ENDSEC
  0
SECTION
  2
BLOCKS
  0
BLOCK
  5
20
100
AcDbEntity
  8
0
100
AcDbBlockBegin
  2
*Model_Space
 70
0
 10
0.0
 20
0.0
 30
0.0
  3
*Model_Space
  1

  0
ENDBLK
  5
21
100
AcDbEntity
  8
0
100
AcDbBlockEnd
  0
BLOCK
  5
1C
100
AcDbEntity
  8
0
100
AcDbBlockBegin
  2
*Paper_Space
 70
0
 10
0.0
 20
0.0
 30
0.0
  3
*Paper_Space
  1

  0
ENDBLK
  5
1D
100
AcDbEntity
  8
0
100
AcDbBlockEnd
  0
BLOCK
  5
229
100
AcDbEntity
  8
0
100
AcDbBlockBegin
  2
_FILLED
 70
64
 10
0.0
 20
0.0
 30
0.0
  3
_FILLED
  1

  0
SOLID
  5
22A
100
AcDbEntity
  8
0
  6
BYBLOCK
 62
0
100
AcDbTrace
 10
0.0
 20
0.0
 30
0.0
 11
-1.0
 21
0.3166666667
 31
0.0
 12
-1.0
 22
-0.3166666667
 32
0.0
 13
-1.0
 23
-0.3166666667
 33
0.0
  0
ENDBLK
  5
22B
100
AcDbEntity
  8
0
  6
BYBLOCK
 62
0
100
AcDbBlockEnd
  0
ENDSEC
  0
SECTION
  2
ENTITIES
  0
LINE
  5
22C
100
AcDbEntity
  8
ASSI
100
AcDbLine
 62
7
  6
CONTINUOUS
 10
-28.4396158015
 20
27.4948259666
 30
0.0
 11
-26.1545300246
 21
28.9561118296
 31
0.0
  0
LINE
  5
22D
100
AcDbEntity
  8
ASSI
100
AcDbLine
 62
250
  6
CONTINUOUS
 10
-28.1794968002
 20
27.4763440055
 30
0.0
 11
-25.8981354238
 21
28.9352481576
 31
0.0
  0
LINE
  5
22E
100
AcDbEntity
  8
ASSI
100
AcDbLine
 62
7
  6
CONTINUOUS
 10
-21.3864872126
 20
25.5177078549
 30
0.0
 11
-20.8845142753
 21
26.0404461419
 31
0.0
  0
LINE
  5
22F
100
AcDbEntity
  8
RACCORDO
100
AcDbLine
 62
7
  6
CONTINUOUS
 10
-13.9180613199
 20
28.0564409537
 30
0.0
 11
-13.5645079293
 21
28.2605782504
 31
0.0
  0
LINE
  5
230
100
AcDbEntity
  8
ASSI
100
AcDbLine
 62
7
  6
CONTINUOUS
 10
-28.6702418514
 20
-15.0781798317
 30
0.0
 11
-28.6702418514
 21
-13.800402214
 31
0.0
  0
LINE
  5
231
100
AcDbEntity
  8
ASSI
100
AcDbLine
 62
7
  6
CONTINUOUS
 10
-28.6702418514
 20
3.8954863719
 30
0.0
 11
-28.6702418514
 21
27.0735924506
 31
0.0
  0
LINE
  5
232
100
AcDbEntity
  8
ASSI
100
AcDbLine
 62
250
  6
CONTINUOUS
 10
-28.523795242
 20
-15.2823171283
 30
0.0
 11
-28.523795242
 21
-14.0138611285
 31
0.0
  0
LINE
  5
233
100
AcDbEntity
  8
ASSI
100
AcDbLine
 62
250
  6
CONTINUOUS
 10
-28.523795242
 20
4.0023911602
 30
0.0
 11
-28.523795242
 21
26.8694551539
 31
0.0
  0
LINE
  5
234
100
AcDbEntity
  8
RACCORDO
100
AcDbLine
 62
250
  6
CONTINUOUS
 10
-12.7197707216
 20
27.6085673782
 30
0.0
 11
-12.366217331
 21
27.8127046749
 31
0.0
  0
LINE
  5
235
100
AcDbEntity
  8
ASSI
100
AcDbLine
 62
250
  6
CONTINUOUS
 10
-13.3224717243
 20
26.3892326172
 30
0.0
 11
-12.9689183337
 21
26.5933699138
 31
0.0
  0
LINE
  5
236
100
AcDbEntity
  8
ASSI
100
AcDbLine
 62
7
  6
CONTINUOUS
 10
-28.4202539315
 20
-15.5111855589
 30
0.0
 11
-26.3634070059
 21
-16.6987831954
 31
0.0
  0
LINE
  5
237
100
AcDbEntity
  8
ASSI
100
AcDbLine
 62
7
  6
CONTINUOUS
 10
-18.9568319162
 20
-20.975246826
 30
0.0
 11
2.3578628136
 21
-33.2820844271
 31
0.0
  0
LINE
  5
238
100
AcDbEntity
  8
ASSI
100
AcDbLine
 62
250
  6
CONTINUOUS
 10
-28.523795242
 20
-15.2823171283
 30
0.0
 11
-26.7042328446
 21
-16.3329096521
 31
0.0
  0
LINE
  5
239
100
AcDbEntity
  8
ASSI
100
AcDbLine
 62
250
  6
CONTINUOUS
 10
-18.6179606818
 20
-21.0018218541
 30
0.0
 11
2.2543215031
 21
-33.0532159965
 31
0.0
  0
LINE
  5
23A
100
AcDbEntity
  8
ASSI
100
AcDbLine
 62
250
  6
CONTINUOUS
 10
-11.7203307692
 20
24.6015383864
 30
0.0
 11
-11.3667773786
 21
24.805675683
 31
0.0
  0
LINE
  5
23B
100
AcDbEntity
  8
RACCORDO
100
AcDbLine
 62
7
  6
CONTINUOUS
 10
-8.4962239401
 20
23.4945048086
 30
0.0
 11
-8.8497773307
 21
23.2903675119
 31
0.0
  0
LINE
  5
23C
100
AcDbEntity
  8
0
100
AcDbLine
 62
7
  6
CONTINUOUS
 10
-0.1214190513
 20
28.0935885159
 30
0.0
 11
7.0910701168
 21
32.2579893678
 31
0.0
  0
LINE
  5
23D
100
AcDbEntity
  8
ASSI
100
AcDbLine
 62
7
  6
CONTINUOUS
 10
-16.7902931349
 20
22.8639229983
 30
0.0
 11
-15.9208505034
 21
23.1744888893
 31
0.0
  0
LINE
  5
23E
100
AcDbEntity
  8
RACCORDO
100
AcDbLine
 62
250
  6
CONTINUOUS
 10
-23.6333027249
 20
-1.2365524769
 30
0.0
 11
-23.6333022846
 21
0.1288013818
 31
0.0
  0
LINE
  5
23F
100
AcDbEntity
  8
RACCORDO
100
AcDbLine
 62
250
  6
CONTINUOUS
 10
-23.0008467525
 20
-0.2363705158
 30
0.0
 11
-23.0008470755
 21
-1.601695678
 31
0.0
  0
LINE
  5
240
100
AcDbEntity
  8
RACCORDO
100
AcDbLine
 62
250
  6
CONTINUOUS
 10
-23.557028021
 20
-1.2533745808
 30
0.0
 11
-23.5570163186
 21
0.1194524348
 31
0.0
  0
LINE
  5
241
100
AcDbEntity
  8
RACCORDO
100
AcDbLine
 62
7
  6
CONTINUOUS
 10
-23.0300060866
 20
-0.1563431548
 30
0.0
 11
-23.0301360744
 21
-1.5608661502
 31
0.0
  0
LINE
  5
242
100
AcDbEntity
  8
RACCORDO
100
AcDbLine
 62
250
  6
CONTINUOUS
 10
-23.0006014945
 20
-0.1887084103
 30
0.0
 11
-23.0006755529
 21
-0.1961834219
 31
0.0
  0
LINE
  5
243
100
AcDbEntity
  8
RACCORDO
100
AcDbLine
 62
7
  6
CONTINUOUS
 10
-23.0301366338
 20
-1.5608842071
 30
0.0
 11
-23.0301784178
 21
-1.5649214423
 31
0.0
  0
LINE
  5
244
100
AcDbEntity
  8
RACCORDO
100
AcDbLine
 62
250
  6
CONTINUOUS
 10
-23.000224177
 20
-0.1885032432
 30
0.0
 11
-23.0003388838
 21
-0.1959990375
 31
0.0
  0
LINE
  5
245
100
AcDbEntity
  8
RACCORDO
100
AcDbLine
 62
7
  6
CONTINUOUS
 10
-23.0301784178
 20
-1.5649214423
 30
0.0
 11
-23.0306482861
 21
-1.5747562923
 31
0.0
  0
LINE
  5
246
100
AcDbEntity
  8
RACCORDO
100
AcDbLine
 62
7
  6
CONTINUOUS
 10
-23.0306471571
 20
-1.5747465613
 30
0.0
 11
-23.0306763298
 21
-1.5751236726
 31
0.0
  0
LWPOLYLINE
  5
247
100
AcDbEntity
  8
RACCORDO
100
AcDbPolyline
 62
7
  6
CONTINUOUS
 90
6
 70
0
 10
-23.00820619
 20
0.2454854398
 10
-23.0103900917
 20
0.2227664699
 10
-23.0184128981
 20
0.126542963
 10
-23.0243597812
 20
0.0312370885
 10
-23.0282258979
 20
-0.0630834354
 10
-23.0300060866
 20
-0.1563431548
  0
LINE
  5
248
100
AcDbEntity
  8
0
100
AcDbLine
 62
7
  6
CONTINUOUS
 10
-0.0714166353
 20
28.0069873704
 30
0.0
 11
-6.435377666
 21
24.3325160305
 31
0.0
  0
LINE
  5
249
100
AcDbEntity
  8
RACCORDO
100
AcDbLine
 62
7
  6
CONTINUOUS
 10
-8.97541352
 20
20.1874033705
 30
0.0
 11
-9.8614067282
 21
19.6758419962
 31
0.0
  0
LINE
  5
24A
100
AcDbEntity
  8
RACCORDO
100
AcDbLine
 62
250
  6
CONTINUOUS
 10
-8.7510357475
 20
19.9370391012
 30
0.0
 11
-9.5324099932
 21
19.4858834047
 31
0.0
  0
LINE
  5
24B
100
AcDbEntity
  8
CURVE
100
AcDbLine
 62
250
  6
CONTINUOUS
 10
-8.8933380366
 20
-22.0700219654
 30
0.0
 11
-9.7890719697
 21
-21.5528364187
 31
0.0
  0
LINE
  5
24C
100
AcDbEntity
  8
CURVE
100
AcDbLine
 62
250
  6
CONTINUOUS
 10
-10.2114822607
 20
-21.3089420107
 30
0.0
 11
-10.4302391472
 21
-21.1826345261
 31
0.0
  0
LINE
  5
24D
100
AcDbEntity
  8
CURVE
100
AcDbLine
 62
250
  6
CONTINUOUS
 10
-10.9208587124
 20
-20.8993569381
 30
0.0
 11
-11.1707969814
 21
-20.755045714
 31
0.0
  0
LINE
  5
24E
100
AcDbEntity
  8
CURVE
100
AcDbLine
 62
250
  6
CONTINUOUS
 10
-11.6614165466
 20
-20.4717681259
 30
0.0
 11
-11.8645827419
 21
-20.354462511
 31
0.0
  0
LINE
  5
24F
100
AcDbEntity
  8
CURVE
100
AcDbLine
 62
250
  6
CONTINUOUS
 10
-4.0555952636
 20
-24.7743891384
 30
0.0
 11
-3.8434156999
 21
-24.8968989592
 31
0.0
  0
LINE
  5
250
100
AcDbEntity
  8
CURVE
100
AcDbLine
 62
250
  6
CONTINUOUS
 10
-9.564955783
 20
-21.4754965818
 30
0.0
 11
-8.8933380366
 21
-21.8632802512
 31
0.0
  0
LINE
  5
251
100
AcDbEntity
  8
CURVE
100
AcDbLine
 62
250
  6
CONTINUOUS
 10
-4.8334245941
 20
-23.4271492197
 30
0.0
 11
-4.0555952636
 21
-23.8762581267
 31
0.0
  0
LINE
  5
252
100
AcDbEntity
  8
CURVE
100
AcDbLine
 62
250
  6
CONTINUOUS
 10
-3.8434156999
 20
-23.9987679475
 30
0.0
 11
-3.0655863694
 21
-24.4478768545
 31
0.0
  0
LINE
  5
253
100
AcDbEntity
  8
CURVE
100
AcDbLine
 62
250
  6
CONTINUOUS
 10
-8.9462002241
 20
-21.0077603984
 30
0.0
 11
-9.564955783
 21
-20.6504986935
 31
0.0
  0
LINE
  5
254
100
AcDbEntity
  8
CURVE
100
AcDbLine
 62
250
  6
CONTINUOUS
 10
-3.0655863694
 20
-24.202880891
 30
0.0
 11
-3.8434156999
 21
-23.7537719841
 31
0.0
  0
LINE
  5
255
100
AcDbEntity
  8
CURVE
100
AcDbLine
 62
250
  6
CONTINUOUS
 10
-4.0555952636
 20
-23.6312621633
 30
0.0
 11
-4.8334245941
 21
-23.1821532563
 31
0.0
  0
LINE
  5
256
100
AcDbEntity
  8
CURVE
100
AcDbLine
 62
250
  6
CONTINUOUS
 10
-9.564955783
 20
-20.4429131355
 30
0.0
 11
-8.9462002241
 21
-20.8001748404
 31
0.0
  0
LINE
  5
257
100
AcDbEntity
  8
CURVE
100
AcDbLine
 62
250
  6
CONTINUOUS
 10
-8.9111211688
 20
-20.0663140324
 30
0.0
 11
-9.564955783
 21
-19.6887981207
 31
0.0
  0
LINE
  5
258
100
AcDbEntity
  8
CURVE
100
AcDbLine
 62
250
  6
CONTINUOUS
 10
-3.8434156999
 20
-22.8556409724
 30
0.0
 11
-4.0555952636
 21
-22.7331311516
 31
0.0
  0
LINE
  5
259
100
AcDbEntity
  8
CURVE
100
AcDbLine
 62
250
  6
CONTINUOUS
 10
-10.5802995505
 20
-18.8952470778
 30
0.0
 11
-10.2114822607
 21
-19.1081975586
 31
0.0
  0
LINE
  5
25A
100
AcDbEntity
  8
CURVE
100
AcDbLine
 62
250
  6
CONTINUOUS
 10
-9.7890719697
 20
-19.3520919666
 30
0.0
 11
-8.9111211688
 21
-19.8590097557
 31
0.0
  0
LINE
  5
25B
100
AcDbEntity
  8
ASSI
100
AcDbLine
 62
7
  6
CONTINUOUS
 10
-20.8845142753
 20
25.3553462338
 30
0.0
 11
-20.8845142753
 21
26.0404461419
 31
0.0
  0
LWPOLYLINE
  5
25C
100
AcDbEntity
  8
RACCORDO
100
AcDbPolyline
 62
7
  6
CONTINUOUS
 90
22
 70
0
 10
-8.6019825056
 20
22.494329526
 10
-8.6249116257
 20
22.4657776748
 10
-8.6745357597
 20
22.3964008926
 10
-8.7186476302
 20
22.3232132087
 10
-8.7569606256
 20
22.2465914312
 10
-8.7892279479
 20
22.1669450602
 10
-8.8152495853
 20
22.0846331468
 10
-8.8348587929
 20
22.0000747914
 10
-8.8479388058
 20
21.9137358747
 10
-8.8544088193
 20
21.8260265397
 10
-8.8542300005
 20
21.7373875956
 10
-8.8474159147
 20
21.6482252868
 10
-8.8339742653
 20
21.5588432331
 10
-8.8139354917
 20
21.469593062
 10
-8.787379179
 20
21.3808706614
 10
-8.754364095
 20
21.2929978385
 10
-8.7149692098
 20
21.2063106775
 10
-8.6692889378
 20
21.1211259185
 10
-8.6173741559
 20
21.0377176482
 10
-8.5593314373
 20
20.956420882
 10
-8.4953382914
 20
20.877641081
 10
-8.4758219826
 20
20.8554715489
  0
LINE
  5
25D
100
AcDbEntity
  8
RACCORDO
100
AcDbLine
 62
7
  6
CONTINUOUS
 10
-8.6019347395
 20
22.4943880971
 30
0.0
 11
-8.6019997067
 21
22.4943099083
 31
0.0
  0
LINE
  5
25E
100
AcDbEntity
  8
0
100
AcDbLine
 62
7
  6
CONTINUOUS
 10
-20.0849536774
 20
10.2709604882
 30
0.0
 11
-20.1196014508
 21
10.2434235631
 31
0.0
  0
LINE
  5
25F
100
AcDbEntity
  8
ASSI
100
AcDbLine
 62
7
  6
CONTINUOUS
 10
-20.0849536774
 20
10.2709604882
 30
0.0
 11
-20.1196014508
 21
10.2434235631
 31
0.0
  0
LINE
  5
260
100
AcDbEntity
  8
0
100
AcDbLine
 62
7
  6
CONTINUOUS
 10
-19.9532974744
 20
10.258782166
 30
0.0
 11
-29.7226187804
 21
3.1272600994
 31
0.0
  0
LINE
  5
261
100
AcDbEntity
  8
RACCORDO
100
AcDbLine
 62
7
  6
CONTINUOUS
 10
1.5730841792
 20
22.2196845326
 30
0.0
 11
1.5460185475
 21
22.2038632151
 31
0.0
  0
LWPOLYLINE
  5
262
100
AcDbEntity
  8
RACCORDO
100
AcDbPolyline
 62
7
  6
CONTINUOUS
 90
3
 70
0
 10
0.9883236609
 20
21.8820787569
 10
0.9052053477
 20
21.8336093448
 10
0.865977398
 20
21.8114493942
  0
LINE
  5
263
100
AcDbEntity
  8
RACCORDO
100
AcDbLine
 62
250
  6
CONTINUOUS
 10
1.8804446645
 20
24.2672880319
 30
0.0
 11
8.2444056952
 21
27.9417593719
 31
0.0
  0
LINE
  5
264
100
AcDbEntity
  8
RACCORDO
100
AcDbLine
 62
250
  6
CONTINUOUS
 10
2.2801909604
 20
23.6317437335
 30
0.0
 11
8.6441519911
 21
27.3062150734
 31
0.0
  0
LINE
  5
265
100
AcDbEntity
  8
RACCORDO
100
AcDbLine
 62
250
  6
CONTINUOUS
 10
-5.8340674998
 20
18.5787821549
 30
0.0
 11
-4.773407328
 21
19.1911940449
 31
0.0
  0
LINE
  5
266
100
AcDbEntity
  8
RACCORDO
100
AcDbLine
 62
7
  6
CONTINUOUS
 10
-5.8736995865
 20
18.5471176129
 30
0.0
 11
-4.8130394147
 21
19.1595295029
 31
0.0
  0
LINE
  5
267
100
AcDbEntity
  8
RACCORDO
100
AcDbLine
 62
7
  6
CONTINUOUS
 10
0.865977398
 20
21.8114493942
 30
0.0
 11
8.6441519911
 21
26.3024304658
 31
0.0
  0
LINE
  5
268
100
AcDbEntity
  8
ASSI
100
AcDbLine
 62
7
  6
CONTINUOUS
 10
5.9864953565
 20
-26.0504033294
 30
0.0
 11
5.5042959658
 21
-25.7982607074
 31
0.0
  0
LINE
  5
269
100
AcDbEntity
  8
ASSI
100
AcDbLine
 62
7
  6
CONTINUOUS
 10
6.2440462927
 20
-26.2063298038
 30
0.0
 11
5.8837411521
 21
-26.0173476024
 31
0.0
  0
LINE
  5
26A
100
AcDbEntity
  8
ASSI
100
AcDbLine
 62
250
  6
CONTINUOUS
 10
5.7434198366
 20
-26.0334728626
 30
0.0
 11
5.3636635221
 21
-25.8142063261
 31
0.0
  0
LINE
  5
26B
100
AcDbEntity
  8
ASSI
100
AcDbLine
 62
250
  6
CONTINUOUS
 10
5.8837411521
 20
-26.0173476024
 30
0.0
 11
5.5042959658
 21
-25.7982607074
 31
0.0
  0
LINE
  5
26C
100
AcDbEntity
  8
ASSI
100
AcDbLine
 62
7
  6
CONTINUOUS
 10
5.9864953565
 20
-26.0504033294
 30
0.0
 11
6.2415996889
 21
-26.1976973738
 31
0.0
  0
LINE
  5
26D
100
AcDbEntity
  8
ASSI
100
AcDbLine
 62
7
  6
CONTINUOUS
 10
-5.4765846359
 20
16.331529505
 30
0.0
 11
-4.9746116986
 21
16.854267792
 31
0.0
  0
LINE
  5
26E
100
AcDbEntity
  8
RACCORDO
100
AcDbLine
 62
250
  6
CONTINUOUS
 10
-22.7155623347
 20
2.8351486556
 30
0.0
 11
-15.2657269588
 21
7.8897724028
 31
0.0
  0
LWPOLYLINE
  5
26F
100
AcDbEntity
  8
RACCORDO
100
AcDbPolyline
 62
7
  6
CONTINUOUS
 90
22
 70
0
 10
5.3537977029
 20
22.1459839196
 10
5.3340102344
 20
22.1343512532
 10
5.2521661546
 20
22.0816733388
 10
5.1727869826
 20
22.0233018646
 10
5.0960241504
 20
21.959571008
 10
5.0220123111
 20
21.8907936797
 10
4.9509762877
 20
21.8173485405
 10
4.8830667057
 20
21.739519711
 10
4.8184780859
 20
21.6576260328
 10
4.7575856454
 20
21.5721949609
 10
4.7005789324
 20
21.483567922
 10
4.6476673364
 20
21.3920698783
 10
4.5991995001
 20
21.2982993712
 10
4.5553604262
 20
21.2025916368
 10
4.5163571002
 20
21.1052813125
 10
4.4824721415
 20
21.006961369
 10
4.4538976046
 20
20.9079611309
 10
4.4308143699
 20
20.8085532274
 10
4.413456399
 20
20.7091366988
 10
4.4020441947
 20
20.6099935669
 10
4.3968093124
 20
20.5114206831
 10
4.3964862169
 20
20.4804350488
  0
LINE
  5
270
100
AcDbEntity
  8
RACCORDO
100
AcDbLine
 62
7
  6
CONTINUOUS
 10
11.7175417826
 20
25.820330212
 30
0.0
 11
5.3535807499
 21
22.1458588709
 31
0.0
  0
LINE
  5
271
100
AcDbEntity
  8
RACCORDO
100
AcDbLine
 62
250
  6
CONTINUOUS
 10
12.013746768
 20
25.7653890774
 30
0.0
 11
5.6497857373
 21
22.0909177374
 31
0.0
  0
LINE
  5
272
100
AcDbEntity
  8
0
100
AcDbLine
 62
7
  6
CONTINUOUS
 10
-19.9760741242
 20
10.3237133027
 30
0.0
 11
-19.9977499864
 21
10.3152843638
 31
0.0
  0
LINE
  5
273
100
AcDbEntity
  8
ASSI
100
AcDbLine
 62
7
  6
CONTINUOUS
 10
-19.9760741242
 20
10.3237133027
 30
0.0
 11
-19.9977499864
 21
10.3152843638
 31
0.0
  0
LINE
  5
274
100
AcDbEntity
  8
0
100
AcDbLine
 62
7
  6
CONTINUOUS
 10
-19.9756722221
 20
10.3229252056
 30
0.0
 11
-19.9977169118
 21
10.3152197526
 31
0.0
  0
LINE
  5
275
100
AcDbEntity
  8
ASSI
100
AcDbLine
 62
7
  6
CONTINUOUS
 10
-19.9756722221
 20
10.3229252056
 30
0.0
 11
-19.9977169118
 21
10.3152197526
 31
0.0
  0
LINE
  5
276
100
AcDbEntity
  8
RACCORDO
100
AcDbLine
 62
250
  6
CONTINUOUS
 10
-14.5723130824
 20
-7.5459364314
 30
0.0
 11
-14.582590627
 21
-7.5217156576
 31
0.0
  0
LINE
  5
277
100
AcDbEntity
  8
RACCORDO
100
AcDbLine
 62
250
  6
CONTINUOUS
 10
-14.5723212039
 20
-7.5459375044
 30
0.0
 11
-14.5822185842
 21
-7.5216653377
 31
0.0
  0
LINE
  5
278
100
AcDbEntity
  8
CURVE
100
AcDbLine
 62
250
  6
CONTINUOUS
 10
-11.1707969814
 20
-20.755045714
 30
0.0
 11
-11.6289974493
 21
-18.6140577102
 31
0.0
  0
LINE
  5
279
100
AcDbEntity
  8
CURVE
100
AcDbLine
 62
250
  6
CONTINUOUS
 10
-12.4974673648
 20
-19.2433662842
 30
0.0
 11
-12.4974673648
 21
-18.9984404472
 31
0.0
  0
LINE
  5
27A
100
AcDbEntity
  8
CURVE
100
AcDbLine
 62
250
  6
CONTINUOUS
 10
-12.272863969
 20
-18.8990315137
 30
0.0
 11
-12.272863969
 21
-19.3910514696
 31
0.0
  0
LINE
  5
27B
100
AcDbEntity
  8
0
100
AcDbLine
 62
7
  6
CONTINUOUS
 10
-4.9746116986
 20
16.6508005878
 30
0.0
 11
-4.1809392202
 21
18.1578227577
 31
0.0
  0
LINE
  5
27C
100
AcDbEntity
  8
RACCORDO
100
AcDbLine
 62
7
  6
CONTINUOUS
 10
-14.7458349308
 20
7.5895774052
 30
0.0
 11
-22.1961355287
 21
2.5352381278
 31
0.0
  0
LINE
  5
27D
100
AcDbEntity
  8
RACCORDO
100
AcDbLine
 62
250
  6
CONTINUOUS
 10
-14.6936953845
 20
7.5833449204
 30
0.0
 11
-14.7265052685
 21
7.5610856875
 31
0.0
  0
LINE
  5
27E
100
AcDbEntity
  8
ASSI
100
AcDbLine
 62
7
  6
CONTINUOUS
 10
-0.8803905582
 20
13.6777446484
 30
0.0
 11
-0.0109479267
 21
13.9883105395
 31
0.0
  0
LINE
  5
27F
100
AcDbEntity
  8
CURVE
100
AcDbLine
 62
250
  6
CONTINUOUS
 10
-11.459265113
 20
-18.5389345783
 30
0.0
 11
-11.0363272694
 21
-20.5708140023
 31
0.0
  0
LINE
  5
280
100
AcDbEntity
  8
CURVE
100
AcDbLine
 62
250
  6
CONTINUOUS
 10
-11.8645827419
 20
-20.354462511
 30
0.0
 11
-11.8645827419
 21
-18.7183272053
 31
0.0
  0
LINE
  5
281
100
AcDbEntity
  8
CURVE
100
AcDbLine
 62
250
  6
CONTINUOUS
 10
-11.6614165466
 20
-18.6284063262
 30
0.0
 11
-11.6614165466
 21
-20.4717681259
 31
0.0
  0
LINE
  5
282
100
AcDbEntity
  8
CURVE
100
AcDbLine
 62
250
  6
CONTINUOUS
 10
-10.4302391472
 20
-21.1826345261
 30
0.0
 11
-10.4302391472
 21
-19.1734426011
 31
0.0
  0
LINE
  5
283
100
AcDbEntity
  8
CURVE
100
AcDbLine
 62
250
  6
CONTINUOUS
 10
-10.2114822607
 20
-19.1081975586
 30
0.0
 11
-10.2114822607
 21
-21.3089420107
 31
0.0
  0
LINE
  5
284
100
AcDbEntity
  8
CURVE
100
AcDbLine
 62
250
  6
CONTINUOUS
 10
-9.7890719697
 20
-21.5528364187
 30
0.0
 11
-9.7890719697
 21
-19.3520919666
 31
0.0
  0
LINE
  5
285
100
AcDbEntity
  8
CURVE
100
AcDbLine
 62
250
  6
CONTINUOUS
 10
-9.564955783
 20
-19.6887981207
 30
0.0
 11
-9.564955783
 21
-20.4429131355
 31
0.0
  0
LINE
  5
286
100
AcDbEntity
  8
CURVE
100
AcDbLine
 62
250
  6
CONTINUOUS
 10
-9.564955783
 20
-20.6504986935
 30
0.0
 11
-9.564955783
 21
-21.4754965818
 31
0.0
  0
LINE
  5
287
100
AcDbEntity
  8
CURVE
100
AcDbLine
 62
250
  6
CONTINUOUS
 10
-8.9462002241
 20
-20.8001748404
 30
0.0
 11
-8.9462002241
 21
-21.0077603984
 31
0.0
  0
LINE
  5
288
100
AcDbEntity
  8
CURVE
100
AcDbLine
 62
250
  6
CONTINUOUS
 10
-8.9111211688
 20
-19.8590097557
 30
0.0
 11
-8.9111211688
 21
-20.0663140324
 31
0.0
  0
LINE
  5
289
100
AcDbEntity
  8
CURVE
100
AcDbLine
 62
250
  6
CONTINUOUS
 10
-8.8933380366
 20
-21.8632802512
 30
0.0
 11
-8.8933380366
 21
-22.0700219654
 31
0.0
  0
LINE
  5
28A
100
AcDbEntity
  8
ASSI
100
AcDbLine
 62
250
  6
CONTINUOUS
 10
5.0026732219
 20
11.0935085237
 30
0.0
 11
2.5986199448
 21
9.7054451373
 31
0.0
  0
LINE
  5
28B
100
AcDbEntity
  8
ASSI
100
AcDbLine
 62
250
  6
CONTINUOUS
 10
5.3561054586
 20
10.4813459334
 30
0.0
 11
2.9520521815
 21
9.093282547
 31
0.0
  0
LINE
  5
28C
100
AcDbEntity
  8
ASSI
100
AcDbLine
 62
7
  6
CONTINUOUS
 10
-4.9746116986
 20
16.1691678839
 30
0.0
 11
-4.9746116986
 21
16.854267792
 31
0.0
  0
LINE
  5
28D
100
AcDbEntity
  8
CURVE
100
AcDbLine
 62
250
  6
CONTINUOUS
 10
-4.8334245941
 20
-23.1821532563
 30
0.0
 11
-4.8334245941
 21
-23.4271492197
 31
0.0
  0
LINE
  5
28E
100
AcDbEntity
  8
CURVE
100
AcDbLine
 62
250
  6
CONTINUOUS
 10
-4.0555952636
 20
-22.7331311516
 30
0.0
 11
-4.0555952636
 21
-23.6312621633
 31
0.0
  0
LINE
  5
28F
100
AcDbEntity
  8
CURVE
100
AcDbLine
 62
250
  6
CONTINUOUS
 10
-4.0555952636
 20
-23.8762581267
 30
0.0
 11
-4.0555952636
 21
-24.7743891384
 31
0.0
  0
LINE
  5
290
100
AcDbEntity
  8
CURVE
100
AcDbLine
 62
250
  6
CONTINUOUS
 10
-3.8434156999
 20
-24.8968989592
 30
0.0
 11
-3.8434156999
 21
-23.9987679475
 31
0.0
  0
LINE
  5
291
100
AcDbEntity
  8
CURVE
100
AcDbLine
 62
250
  6
CONTINUOUS
 10
-3.8434156999
 20
-23.7537719841
 30
0.0
 11
-3.8434156999
 21
-22.8556409724
 31
0.0
  0
LINE
  5
292
100
AcDbEntity
  8
CURVE
100
AcDbLine
 62
250
  6
CONTINUOUS
 10
-3.0655863694
 20
-24.4478768545
 30
0.0
 11
-3.0655863694
 21
-24.202880891
 31
0.0
  0
LINE
  5
293
100
AcDbEntity
  8
CURVE
100
AcDbLine
 62
250
  6
CONTINUOUS
 10
-11.0363272694
 20
-20.5708140023
 30
0.0
 11
-10.5802995505
 21
-18.8952470778
 31
0.0
  0
LINE
  5
294
100
AcDbEntity
  8
CURVE
100
AcDbLine
 62
250
  6
CONTINUOUS
 10
-10.4302391472
 20
-19.1734426011
 30
0.0
 11
-10.9208587124
 21
-20.8993569381
 31
0.0
  0
LINE
  5
295
100
AcDbEntity
  8
ASSI
100
AcDbLine
 62
250
  6
CONTINUOUS
 10
6.1026464757
 20
7.8746618699
 30
0.0
 11
5.3561054586
 21
7.443616963
 31
0.0
  0
LINE
  5
296
100
AcDbEntity
  8
ASSI
100
AcDbLine
 62
250
  6
CONTINUOUS
 10
6.2440462927
 20
7.6297502028
 30
0.0
 11
5.3561054586
 21
7.1170625333
 31
0.0
  0
LINE
  5
297
100
AcDbEntity
  8
ASSI
100
AcDbLine
 62
7
  6
CONTINUOUS
 10
5.3561054586
 20
4.9679086086
 30
0.0
 11
5.7434198366
 21
5.2074296299
 31
0.0
  0
LINE
  5
298
100
AcDbEntity
  8
0
100
AcDbLine
 62
7
  6
CONTINUOUS
 10
5.5859151624
 20
4.1039592861
 30
0.0
 11
5.3737831281
 21
3.9814769081
 31
0.0
  0
LINE
  5
299
100
AcDbEntity
  8
RACCORDO
100
AcDbLine
 62
250
  6
CONTINUOUS
 10
0.865977398
 20
21.8114493942
 30
0.0
 11
0.865977398
 21
22.3995609649
 31
0.0
  0
LINE
  5
29A
100
AcDbEntity
  8
RACCORDO
100
AcDbLine
 62
250
  6
CONTINUOUS
 10
1.5730841792
 20
22.2196845326
 30
0.0
 11
1.5730841792
 21
22.3995609576
 31
0.0
  0
LINE
  5
29B
100
AcDbEntity
  8
ASSI
100
AcDbLine
 62
250
  6
CONTINUOUS
 10
2.2543215031
 20
9.0985562857
 30
0.0
 11
2.2543215031
 21
-33.0532159965
 31
0.0
  0
LINE
  5
29C
100
AcDbEntity
  8
ASSI
100
AcDbLine
 62
250
  6
CONTINUOUS
 10
2.9520521815
 20
9.093282547
 30
0.0
 11
2.9520521815
 21
-33.0584897352
 31
0.0
  0
LINE
  5
29D
100
AcDbEntity
  8
ASSI
100
AcDbLine
 62
7
  6
CONTINUOUS
 10
5.8837411521
 20
5.3591012231
 30
0.0
 11
6.2440462927
 21
5.978937915
 31
0.0
  0
LINE
  5
29E
100
AcDbEntity
  8
RACCORDO
100
AcDbLine
 62
7
  6
CONTINUOUS
 10
4.3964860508
 20
20.4806703684
 30
0.0
 11
4.3964860508
 21
20.1812246402
 31
0.0
  0
LINE
  5
29F
100
AcDbEntity
  8
RACCORDO
100
AcDbLine
 62
250
  6
CONTINUOUS
 10
4.5429326602
 20
20.2765330886
 30
0.0
 11
4.5429326602
 21
19.6884215089
 31
0.0
  0
LINE
  5
2A0
100
AcDbEntity
  8
ASSI
100
AcDbLine
 62
7
  6
CONTINUOUS
 10
5.3561054586
 20
-31.8120941885
 30
0.0
 11
5.3561054586
 21
10.4813459334
 31
0.0
  0
LINE
  5
2A1
100
AcDbEntity
  8
ASSI
100
AcDbLine
 62
250
  6
CONTINUOUS
 10
6.2440462927
 20
-26.2063298038
 30
0.0
 11
6.2440462927
 21
-27.8571420916
 31
0.0
  0
LINE
  5
2A2
100
AcDbEntity
  8
ASSI
100
AcDbLine
 62
250
  6
CONTINUOUS
 10
6.2440462927
 20
5.978937915
 30
0.0
 11
6.2440462927
 21
7.6297502028
 31
0.0
  0
LINE
  5
2A3
100
AcDbEntity
  8
ASSI
100
AcDbLine
 62
7
  6
CONTINUOUS
 10
6.3001783327
 20
-26.2336721374
 30
0.0
 11
6.3001783327
 21
-27.7769246842
 31
0.0
  0
LINE
  5
2A4
100
AcDbEntity
  8
ASSI
100
AcDbLine
 62
7
  6
CONTINUOUS
 10
6.3001783327
 20
6.1667150634
 30
0.0
 11
6.3001783327
 21
7.7099676102
 31
0.0
  0
LINE
  5
2A5
100
AcDbEntity
  8
CURVE
100
AcDbLine
 62
7
  6
CONTINUOUS
 10
-13.2752882397
 20
-19.3771645933
 30
0.0
 11
-13.2134613381
 21
-19.3153376917
 31
0.0
  0
LINE
  5
2A6
100
AcDbEntity
  8
CURVE
100
AcDbLine
 62
7
  6
CONTINUOUS
 10
-13.1049518437
 20
-19.6268496253
 30
0.0
 11
-12.9866897854
 21
-19.508587567
 31
0.0
  0
LINE
  5
2A7
100
AcDbEntity
  8
CURVE
100
AcDbLine
 62
7
  6
CONTINUOUS
 10
-12.4974673648
 20
-19.0193651463
 30
0.0
 11
-12.4599276973
 21
-18.9818254788
 31
0.0
  0
LINE
  5
2A8
100
AcDbEntity
  8
CURVE
100
AcDbLine
 62
7
  6
CONTINUOUS
 10
-12.8724881444
 20
-19.8144073541
 30
0.0
 11
-12.7347034741
 21
-19.6766226838
 31
0.0
  0
LINE
  5
2A9
100
AcDbEntity
  8
CURVE
100
AcDbLine
 62
7
  6
CONTINUOUS
 10
-12.5061792705
 20
-19.4480984801
 30
0.0
 11
-12.272863969
 21
-19.2147831786
 31
0.0
  0
LINE
  5
2AA
100
AcDbEntity
  8
CURVE
100
AcDbLine
 62
7
  6
CONTINUOUS
 10
-11.8645827419
 20
-18.8065019516
 30
0.0
 11
-11.7063940564
 21
-18.648313266
 31
0.0
  0
LINE
  5
2AB
100
AcDbEntity
  8
CURVE
100
AcDbLine
 62
7
  6
CONTINUOUS
 10
-12.5782693427
 20
-19.9402099804
 30
0.0
 11
-12.2905745801
 21
-19.6525152177
 31
0.0
  0
LINE
  5
2AC
100
AcDbEntity
  8
CURVE
100
AcDbLine
 62
7
  6
CONTINUOUS
 10
-11.8645827419
 20
-19.2265233796
 30
0.0
 11
-11.6614165466
 21
-19.0233571843
 31
0.0
  0
LINE
  5
2AD
100
AcDbEntity
  8
CURVE
100
AcDbLine
 62
7
  6
CONTINUOUS
 10
-11.5625587255
 20
-18.9244993632
 30
0.0
 11
-11.4106329144
 21
-18.772573552
 31
0.0
  0
LINE
  5
2AE
100
AcDbEntity
  8
CURVE
100
AcDbLine
 62
7
  6
CONTINUOUS
 10
-11.8645827419
 20
-19.6465448076
 30
0.0
 11
-11.6614165466
 21
-19.4433786123
 31
0.0
  0
LINE
  5
2AF
100
AcDbEntity
  8
CURVE
100
AcDbLine
 62
7
  6
CONTINUOUS
 10
-11.4885148395
 20
-19.2704769052
 30
0.0
 11
-11.3382678714
 21
-19.1202299371
 31
0.0
  0
LINE
  5
2B0
100
AcDbEntity
  8
CURVE
100
AcDbLine
 62
7
  6
CONTINUOUS
 10
-11.8645827419
 20
-20.0665662356
 30
0.0
 11
-11.6614165466
 21
-19.8634000403
 31
0.0
  0
LINE
  5
2B1
100
AcDbEntity
  8
CURVE
100
AcDbLine
 62
7
  6
CONTINUOUS
 10
-11.4144709536
 20
-19.6164544472
 30
0.0
 11
-11.2659028285
 21
-19.4678863221
 31
0.0
  0
LINE
  5
2B2
100
AcDbEntity
  8
CURVE
100
AcDbLine
 62
7
  6
CONTINUOUS
 10
-11.780820727
 20
-20.4028256487
 30
0.0
 11
-11.6614165466
 21
-20.2834214683
 31
0.0
  0
LINE
  5
2B3
100
AcDbEntity
  8
CURVE
100
AcDbLine
 62
7
  6
CONTINUOUS
 10
-11.3404270676
 20
-19.9624319893
 30
0.0
 11
-11.1935377855
 21
-19.8155427072
 31
0.0
  0
LINE
  5
2B4
100
AcDbEntity
  8
CURVE
100
AcDbLine
 62
7
  6
CONTINUOUS
 10
-10.6951188876
 20
-19.3171238093
 30
0.0
 11
-10.3856375535
 21
-19.0076424752
 31
0.0
  0
LINE
  5
2B5
100
AcDbEntity
  8
CURVE
100
AcDbLine
 62
7
  6
CONTINUOUS
 10
-11.2663831816
 20
-20.3084095313
 30
0.0
 11
-11.1211727426
 21
-20.1631990923
 31
0.0
  0
LINE
  5
2B6
100
AcDbEntity
  8
CURVE
100
AcDbLine
 62
7
  6
CONTINUOUS
 10
-10.8521793682
 20
-19.8942057179
 30
0.0
 11
-10.5489220418
 21
-19.5909483916
 31
0.0
  0
LINE
  5
2B7
100
AcDbEntity
  8
CURVE
100
AcDbLine
 62
7
  6
CONTINUOUS
 10
-10.4302391472
 20
-19.4722654969
 30
0.0
 11
-10.2114822607
 21
-19.2535086104
 31
0.0
  0
LINE
  5
2B8
100
AcDbEntity
  8
0
100
AcDbLine
 62
7
  6
CONTINUOUS
 10
7.8688497925
 20
0.3749337474
 30
0.0
 11
6.8081896207
 21
-0.2374781426
 31
0.0
  0
LINE
  5
2B9
100
AcDbEntity
  8
0
100
AcDbLine
 62
7
  6
CONTINUOUS
 10
5.5859151624
 20
4.1039592861
 30
0.0
 11
5.3675871613
 21
4.1612592186
 31
0.0
  0
LINE
  5
2BA
100
AcDbEntity
  8
RACCORDO
100
AcDbLine
 62
7
  6
CONTINUOUS
 10
8.6441519911
 20
27.3062150734
 30
0.0
 11
8.6441519911
 21
26.3024304658
 31
0.0
  0
LINE
  5
2BB
100
AcDbEntity
  8
CURVE
100
AcDbLine
 62
7
  6
CONTINUOUS
 10
-11.1923392956
 20
-20.6543870734
 30
0.0
 11
-11.0488076996
 21
-20.5108554774
 31
0.0
  0
LINE
  5
2BC
100
AcDbEntity
  8
CURVE
100
AcDbLine
 62
7
  6
CONTINUOUS
 10
-11.0092398488
 20
-20.4712876265
 30
0.0
 11
-10.7157411162
 21
-20.177788894
 31
0.0
  0
LINE
  5
2BD
100
AcDbEntity
  8
CURVE
100
AcDbLine
 62
7
  6
CONTINUOUS
 10
-10.4302391472
 20
-19.892286925
 30
0.0
 11
-10.2114822607
 21
-19.6735300384
 31
0.0
  0
LINE
  5
2BE
100
AcDbEntity
  8
CURVE
100
AcDbLine
 62
7
  6
CONTINUOUS
 10
-10.9819908197
 20
-20.8640600255
 30
0.0
 11
-10.8825601905
 21
-20.7646293963
 31
0.0
  0
LINE
  5
2BF
100
AcDbEntity
  8
CURVE
100
AcDbLine
 62
7
  6
CONTINUOUS
 10
-10.4302391472
 20
-20.312308353
 30
0.0
 11
-10.2114822607
 21
-20.0935514664
 31
0.0
  0
LINE
  5
2C0
100
AcDbEntity
  8
CURVE
100
AcDbLine
 62
7
  6
CONTINUOUS
 10
-9.7890719697
 20
-19.6711411755
 30
0.0
 11
-9.5868076462
 21
-19.468876852
 31
0.0
  0
LINE
  5
2C1
100
AcDbEntity
  8
CURVE
100
AcDbLine
 62
7
  6
CONTINUOUS
 10
-10.4302391472
 20
-20.732329781
 30
0.0
 11
-10.2114822607
 21
-20.5135728945
 31
0.0
  0
LINE
  5
2C2
100
AcDbEntity
  8
CURVE
100
AcDbLine
 62
7
  6
CONTINUOUS
 10
-9.7890719697
 20
-20.0911626035
 30
0.0
 11
-9.564955783
 21
-19.8670464168
 31
0.0
  0
LINE
  5
2C3
100
AcDbEntity
  8
CURVE
100
AcDbLine
 62
7
  6
CONTINUOUS
 10
-9.4519535563
 20
-19.7540441901
 30
0.0
 11
-9.3205310104
 21
-19.6226216442
 31
0.0
  0
LINE
  5
2C4
100
AcDbEntity
  8
CURVE
100
AcDbLine
 62
7
  6
CONTINUOUS
 10
-10.4302391472
 20
-21.152351209
 30
0.0
 11
-10.2114822607
 21
-20.9335943225
 31
0.0
  0
LINE
  5
2C5
100
AcDbEntity
  8
CURVE
100
AcDbLine
 62
7
  6
CONTINUOUS
 10
-9.7890719697
 20
-20.5111840315
 30
0.0
 11
-9.564955783
 21
-20.2870678448
 31
0.0
  0
LINE
  5
2C6
100
AcDbEntity
  8
CURVE
100
AcDbLine
 62
7
  6
CONTINUOUS
 10
-9.1856769205
 20
-19.9077889824
 30
0.0
 11
-9.0542543747
 21
-19.7763664365
 31
0.0
  0
LINE
  5
2C7
100
AcDbEntity
  8
CURVE
100
AcDbLine
 62
7
  6
CONTINUOUS
 10
-9.7890719697
 20
-20.9312054595
 30
0.0
 11
-9.564955783
 21
-20.7070892729
 31
0.0
  0
LINE
  5
2C8
100
AcDbEntity
  8
CURVE
100
AcDbLine
 62
7
  6
CONTINUOUS
 10
-9.5290796393
 20
-20.6712131292
 30
0.0
 11
-9.3974787725
 21
-20.5396122624
 31
0.0
  0
LINE
  5
2C9
100
AcDbEntity
  8
CURVE
100
AcDbLine
 62
7
  6
CONTINUOUS
 10
-8.9194002848
 20
-20.0615337746
 30
0.0
 11
-8.9111211688
 21
-20.0532546587
 31
0.0
  0
LINE
  5
2CA
100
AcDbEntity
  8
CURVE
100
AcDbLine
 62
7
  6
CONTINUOUS
 10
-9.7890719697
 20
-21.3512268876
 30
0.0
 11
-9.564955783
 21
-21.1271107009
 31
0.0
  0
LINE
  5
2CB
100
AcDbEntity
  8
CURVE
100
AcDbLine
 62
7
  6
CONTINUOUS
 10
-9.2628030036
 20
-20.8249579215
 30
0.0
 11
-9.1312021368
 21
-20.6933570546
 31
0.0
  0
LINE
  5
2CC
100
AcDbEntity
  8
CURVE
100
AcDbLine
 62
7
  6
CONTINUOUS
 10
-9.6506076409
 20
-21.6327839868
 30
0.0
 11
-9.5195417369
 21
-21.5017180828
 31
0.0
  0
LINE
  5
2CD
100
AcDbEntity
  8
CURVE
100
AcDbLine
 62
7
  6
CONTINUOUS
 10
-8.9965263678
 20
-20.9787027137
 30
0.0
 11
-8.9462002241
 21
-20.92837657
 31
0.0
  0
LINE
  5
2CE
100
AcDbEntity
  8
CURVE
100
AcDbLine
 62
7
  6
CONTINUOUS
 10
-9.3843310051
 20
-21.786528779
 30
0.0
 11
-9.2532651012
 21
-21.6554628751
 31
0.0
  0
LINE
  5
2CF
100
AcDbEntity
  8
CURVE
100
AcDbLine
 62
7
  6
CONTINUOUS
 10
-9.1180543693
 20
-21.9402735713
 30
0.0
 11
-8.9869884654
 21
-21.8092076673
 31
0.0
  0
LINE
  5
2D0
100
AcDbEntity
  8
0
100
AcDbLine
 62
7
  6
CONTINUOUS
 10
-4.9552951274
 20
-15.73901902
 30
0.0
 11
-4.9369962478
 21
-15.723264283
 31
0.0
  0
LINE
  5
2D1
100
AcDbEntity
  8
ASSI
100
AcDbLine
 62
7
  6
CONTINUOUS
 10
-4.9552951274
 20
-15.73901902
 30
0.0
 11
-4.9369962478
 21
-15.723264283
 31
0.0
  0
LINE
  5
2D2
100
AcDbEntity
  8
0
100
AcDbLine
 62
7
  6
CONTINUOUS
 10
-4.9552555712
 20
-15.7390801832
 30
0.0
 11
-4.9365004806
 21
-15.7240281941
 31
0.0
  0
LINE
  5
2D3
100
AcDbEntity
  8
ASSI
100
AcDbLine
 62
7
  6
CONTINUOUS
 10
-4.9552555712
 20
-15.7390801832
 30
0.0
 11
-4.9365004806
 21
-15.7240281941
 31
0.0
  0
LINE
  5
2D4
100
AcDbEntity
  8
ASSI
100
AcDbLine
 62
250
  6
CONTINUOUS
 10
2.2543215031
 20
9.0985562857
 30
0.0
 11
-28.523795242
 21
26.8694551539
 31
0.0
  0
LINE
  5
2D5
100
AcDbEntity
  8
RACCORDO
100
AcDbLine
 62
7
  6
CONTINUOUS
 10
-9.1565601316
 20
20.3895296263
 30
0.0
 11
-7.0752113215
 21
18.0671276876
 31
0.0
  0
LINE
  5
2D6
100
AcDbEntity
  8
RACCORDO
100
AcDbLine
 62
7
  6
CONTINUOUS
 10
-9.7462860469
 20
21.5880802995
 30
0.0
 11
-13.6162794378
 21
25.9062801658
 31
0.0
  0
LINE
  5
2D7
100
AcDbEntity
  8
RACCORDO
100
AcDbLine
 62
7
  6
CONTINUOUS
 10
-8.4758268353
 20
20.8554769626
 30
0.0
 11
-6.4960605019
 21
18.6464223591
 31
0.0
  0
LINE
  5
2D8
100
AcDbEntity
  8
ASSI
100
AcDbLine
 62
7
  6
CONTINUOUS
 10
-13.3224717243
 20
26.3892326172
 30
0.0
 11
-11.7203307692
 21
24.6015383864
 31
0.0
  0
LINE
  5
2D9
100
AcDbEntity
  8
RACCORDO
100
AcDbLine
 62
250
  6
CONTINUOUS
 10
-8.457031403
 20
20.985040661
 30
0.0
 11
-6.4772650572
 21
18.7759860435
 31
0.0
  0
LINE
  5
2DA
100
AcDbEntity
  8
ASSI
100
AcDbLine
 62
7
  6
CONTINUOUS
 10
-12.9689183337
 20
26.5933699138
 30
0.0
 11
-11.3667773786
 21
24.805675683
 31
0.0
  0
LINE
  5
2DB
100
AcDbEntity
  8
ASSI
100
AcDbLine
 62
7
  6
CONTINUOUS
 10
-11.3617272827
 20
25.2824532713
 30
0.0
 11
-12.9638682379
 21
27.0701475021
 31
0.0
  0
LINE
  5
2DC
100
AcDbEntity
  8
RACCORDO
100
AcDbLine
 62
7
  6
CONTINUOUS
 10
-12.7197707216
 20
27.6085673782
 30
0.0
 11
-8.8497773307
 21
23.2903675119
 31
0.0
  0
LINE
  5
2DD
100
AcDbEntity
  8
RACCORDO
100
AcDbLine
 62
7
  6
CONTINUOUS
 10
-4.1809392202
 20
18.1578227577
 30
0.0
 11
-4.9880918416
 21
19.0584564255
 31
0.0
  0
LINE
  5
2DE
100
AcDbEntity
  8
RACCORDO
100
AcDbLine
 62
7
  6
CONTINUOUS
 10
-12.366217331
 20
27.8127046749
 30
0.0
 11
-8.4962239401
 21
23.4945048086
 31
0.0
  0
LINE
  5
2DF
100
AcDbEntity
  8
0
100
AcDbLine
 62
7
  6
CONTINUOUS
 10
-4.7686334352
 20
-15.56641155
 30
0.0
 11
-4.7886449248
 21
-15.5767760617
 31
0.0
  0
LINE
  5
2E0
100
AcDbEntity
  8
0
100
AcDbLine
 62
7
  6
CONTINUOUS
 10
-4.8858854937
 20
-15.6271396797
 30
0.0
 11
-4.9058660899
 21
-15.6374881909
 31
0.0
  0
LINE
  5
2E1
100
AcDbEntity
  8
0
100
AcDbLine
 62
7
  6
CONTINUOUS
 10
-4.7663607046
 20
-15.5705357123
 30
0.0
 11
-4.7865556885
 21
-15.5805807657
 31
0.0
  0
LINE
  5
2E2
100
AcDbEntity
  8
0
100
AcDbLine
 62
7
  6
CONTINUOUS
 10
-4.885358962
 20
-15.6281153651
 30
0.0
 11
-4.9057956386
 21
-15.6376192101
 31
0.0
  0
LINE
  5
2E3
100
AcDbEntity
  8
0
100
AcDbLine
 62
7
  6
CONTINUOUS
 10
-4.9813022931
 20
-15.6718035074
 30
0.0
 11
-16.0417691009
 21
-20.5671400392
 31
0.0
  0
LINE
  5
2E4
100
AcDbEntity
  8
ASSI
100
AcDbLine
 62
250
  6
CONTINUOUS
 10
2.5986199448
 20
9.7054451373
 30
0.0
 11
-28.1794968002
 21
27.4763440055
 31
0.0
  0
LINE
  5
2E5
100
AcDbEntity
  8
ASSI
100
AcDbLine
 62
250
  6
CONTINUOUS
 10
6.1026464757
 20
7.8746618699
 30
0.0
 11
5.3561054586
 21
8.3057052969
 31
0.0
  0
LINE
  5
2E6
100
AcDbEntity
  8
ASSI
100
AcDbLine
 62
7
  6
CONTINUOUS
 10
6.2001831647
 20
7.8831699011
 30
0.0
 11
5.3561054586
 21
8.3705297899
 31
0.0
  0
LINE
  5
2E7
100
AcDbEntity
  8
ASSI
100
AcDbLine
 62
7
  6
CONTINUOUS
 10
-21.3864872126
 20
25.5177078549
 30
0.0
 11
-16.7902931349
 21
22.8639229983
 31
0.0
  0
LINE
  5
2E8
100
AcDbEntity
  8
ASSI
100
AcDbLine
 62
7
  6
CONTINUOUS
 10
-5.4765846359
 20
16.331529505
 30
0.0
 11
-0.8803905582
 21
13.6777446484
 31
0.0
  0
LINE
  5
2E9
100
AcDbEntity
  8
ASSI
100
AcDbLine
 62
7
  6
CONTINUOUS
 10
-20.8845142753
 20
25.3553462338
 30
0.0
 11
-16.6539002215
 21
22.9126427012
 31
0.0
  0
LINE
  5
2EA
100
AcDbEntity
  8
ASSI
100
AcDbLine
 62
7
  6
CONTINUOUS
 10
-4.9746116986
 20
16.1691678839
 30
0.0
 11
-0.7439976448
 21
13.7264643513
 31
0.0
  0
LINE
  5
2EB
100
AcDbEntity
  8
ASSI
100
AcDbLine
 62
7
  6
CONTINUOUS
 10
5.0026732219
 20
11.0935085237
 30
0.0
 11
-0.0109479267
 21
13.9883105395
 31
0.0
  0
LINE
  5
2EC
100
AcDbEntity
  8
ASSI
100
AcDbLine
 62
7
  6
CONTINUOUS
 10
-4.9746116986
 20
16.854267792
 30
0.0
 11
-15.9208505034
 21
23.1744888893
 31
0.0
  0
LINE
  5
2ED
100
AcDbEntity
  8
ASSI
100
AcDbLine
 62
7
  6
CONTINUOUS
 10
-20.8845142753
 20
26.0404461419
 30
0.0
 11
-25.8981354238
 21
28.9352481576
 31
0.0
  0
LINE
  5
2EE
100
AcDbEntity
  8
CURVE
100
AcDbLine
 62
7
  6
CONTINUOUS
 10
-4.7644532279
 20
-23.4669724222
 30
0.0
 11
-4.6091356737
 21
-23.311654868
 31
0.0
  0
LINE
  5
2EF
100
AcDbEntity
  8
CURVE
100
AcDbLine
 62
7
  6
CONTINUOUS
 10
-4.0555952636
 20
-22.7581144579
 30
0.0
 11
-4.0397568555
 21
-22.7422760499
 31
0.0
  0
LINE
  5
2F0
100
AcDbEntity
  8
CURVE
100
AcDbLine
 62
7
  6
CONTINUOUS
 10
-4.4981765921
 20
-23.6207172144
 30
0.0
 11
-4.3428590379
 21
-23.4653996602
 31
0.0
  0
LINE
  5
2F1
100
AcDbEntity
  8
CURVE
100
AcDbLine
 62
7
  6
CONTINUOUS
 10
-4.0555952636
 20
-23.1781358859
 30
0.0
 11
-3.8434156999
 21
-22.9659563222
 31
0.0
  0
LINE
  5
2F2
100
AcDbEntity
  8
CURVE
100
AcDbLine
 62
7
  6
CONTINUOUS
 10
-4.2318999563
 20
-23.7744620067
 30
0.0
 11
-4.0765824021
 21
-23.6191444525
 31
0.0
  0
LINE
  5
2F3
100
AcDbEntity
  8
CURVE
100
AcDbLine
 62
7
  6
CONTINUOUS
 10
-4.0555952636
 20
-23.5981573139
 30
0.0
 11
-3.8434156999
 21
-23.3859777502
 31
0.0
  0
LINE
  5
2F4
100
AcDbEntity
  8
CURVE
100
AcDbLine
 62
7
  6
CONTINUOUS
 10
-4.0555952636
 20
-24.0181787419
 30
0.0
 11
-3.8103057664
 21
-23.7728892447
 31
0.0
  0
LINE
  5
2F5
100
AcDbEntity
  8
CURVE
100
AcDbLine
 62
7
  6
CONTINUOUS
 10
-4.0555952636
 20
-24.43820017
 30
0.0
 11
-3.8434156999
 21
-24.2260206063
 31
0.0
  0
LINE
  5
2F6
100
AcDbEntity
  8
CURVE
100
AcDbLine
 62
7
  6
CONTINUOUS
 10
-3.6993466848
 20
-24.0819515912
 30
0.0
 11
-3.5440291306
 21
-23.926634037
 31
0.0
  0
LINE
  5
2F7
100
AcDbEntity
  8
CURVE
100
AcDbLine
 62
7
  6
CONTINUOUS
 10
-4.0024488672
 20
-24.8050752016
 30
0.0
 11
-3.8434156999
 21
-24.6460420343
 31
0.0
  0
LINE
  5
2F8
100
AcDbEntity
  8
CURVE
100
AcDbLine
 62
7
  6
CONTINUOUS
 10
-3.433070049
 20
-24.2356963835
 30
0.0
 11
-3.2777524948
 21
-24.0803788293
 31
0.0
  0
LINE
  5
2F9
100
AcDbEntity
  8
CURVE
100
AcDbLine
 62
7
  6
CONTINUOUS
 10
-3.1667934133
 20
-24.3894411757
 30
0.0
 11
-3.0655863694
 21
-24.2882341318
 31
0.0
  0
LINE
  5
2FA
100
AcDbEntity
  8
ASSI
100
AcDbLine
 62
7
  6
CONTINUOUS
 10
-5.4765846359
 20
16.331529505
 30
0.0
 11
-4.9746116986
 21
16.1691678839
 31
0.0
  0
LINE
  5
2FB
100
AcDbEntity
  8
0
100
AcDbLine
 62
7
  6
CONTINUOUS
 10
20.3295690984
 20
-7.3262799721
 30
0.0
 11
13.9656080677
 21
-11.000751312
 31
0.0
  0
LINE
  5
2FC
100
AcDbEntity
  8
0
100
AcDbLine
 62
7
  6
CONTINUOUS
 10
27.5920606825
 20
-3.2484802656
 30
0.0
 11
20.3762824499
 21
-7.4147789612
 31
0.0
  0
LINE
  5
2FD
100
AcDbEntity
  8
0
100
AcDbLine
 62
7
  6
CONTINUOUS
 10
20.3795715143
 20
-7.4128811172
 30
0.0
 11
20.376210796
 21
-7.4146548077
 31
0.0
  0
LINE
  5
2FE
100
AcDbEntity
  8
ASSI
100
AcDbLine
 62
7
  6
CONTINUOUS
 10
-21.3864872126
 20
25.5177078549
 30
0.0
 11
-20.8845142753
 21
25.3553462338
 31
0.0
  0
LINE
  5
2FF
100
AcDbEntity
  8
RACCORDO
100
AcDbLine
 62
250
  6
CONTINUOUS
 10
4.5429326602
 20
19.6884215089
 30
0.0
 11
0.865977398
 21
21.8114493942
 31
0.0
  0
LINE
  5
300
100
AcDbEntity
  8
RACCORDO
100
AcDbLine
 62
250
  6
CONTINUOUS
 10
4.4008222332
 20
20.5869840201
 30
0.0
 11
1.5730841792
 21
22.2196845326
 31
0.0
  0
LINE
  5
301
100
AcDbEntity
  8
ASSI
100
AcDbLine
 62
250
  6
CONTINUOUS
 10
6.2440462927
 20
-27.8571420916
 30
0.0
 11
5.3561054586
 21
-28.4062580228
 31
0.0
  0
LINE
  5
302
100
AcDbEntity
  8
ASSI
100
AcDbLine
 62
7
  6
CONTINUOUS
 10
6.2053714484
 20
-27.9470258553
 30
0.0
 11
5.3561054586
 21
-28.4722246827
 31
0.0
  0
LINE
  5
303
100
AcDbEntity
  8
ASSI
100
AcDbLine
 62
7
  6
CONTINUOUS
 10
5.3561054586
 20
-26.2571040981
 30
0.0
 11
5.7434198366
 21
-26.0334728626
 31
0.0
  0
LINE
  5
304
100
AcDbEntity
  8
ASSI
100
AcDbLine
 62
7
  6
CONTINUOUS
 10
5.3561054586
 20
-25.8183563694
 30
0.0
 11
5.3636635221
 21
-25.8142063261
 31
0.0
  0
LINE
  5
305
100
AcDbEntity
  8
0
100
AcDbLine
 62
7
  6
CONTINUOUS
 10
8.6441519911
 20
26.3024304658
 30
0.0
 11
10.5983310559
 21
25.1741119654
 31
0.0
  0
LINE
  5
306
100
AcDbEntity
  8
ASSI
100
AcDbLine
 62
250
  6
CONTINUOUS
 10
2.8381252207
 20
-33.2929083451
 30
0.0
 11
2.8380115611
 21
-33.2929673281
 31
0.0
  0
LINE
  5
307
100
AcDbEntity
  8
ASSI
100
AcDbLine
 62
250
  6
CONTINUOUS
 10
2.9520521815
 20
-33.0584897352
 30
0.0
 11
5.3561054586
 21
-31.8120941885
 31
0.0
  0
LINE
  5
308
100
AcDbEntity
  8
ASSI
100
AcDbLine
 62
7
  6
CONTINUOUS
 10
2.8380115611
 20
-33.2929673281
 30
0.0
 11
5.2459895712
 21
-32.0445369804
 31
0.0
  0
LINE
  5
309
100
AcDbEntity
  8
RACCORDO
100
AcDbLine
 62
7
  6
CONTINUOUS
 10
32.0493864483
 20
11.1566661562
 30
0.0
 11
32.0493864483
 21
9.8125344658
 31
0.0
  0
LINE
  5
30A
100
AcDbEntity
  8
RACCORDO
100
AcDbLine
 62
7
  6
CONTINUOUS
 10
20.6307950781
 20
29.5884367184
 30
0.0
 11
21.7963381211
 21
28.915466773
 31
0.0
  0
LINE
  5
30B
100
AcDbEntity
  8
RACCORDO
100
AcDbLine
 62
7
  6
CONTINUOUS
 10
22.0183418394
 20
28.4206026411
 30
0.0
 11
22.0384468144
 21
28.4023837016
 31
0.0
  0
LINE
  5
30C
100
AcDbEntity
  8
RACCORDO
100
AcDbLine
 62
7
  6
CONTINUOUS
 10
22.0183386654
 20
28.4206093511
 30
0.0
 11
22.0383242728
 21
28.4020381053
 31
0.0
  0
LINE
  5
30D
100
AcDbEntity
  8
RACCORDO
100
AcDbLine
 62
7
  6
CONTINUOUS
 10
26.9250177776
 20
23.5013007948
 30
0.0
 11
29.9250177776
 21
18.3051483775
 31
0.0
  0
ARC
  5
30E
100
AcDbEntity
  8
RACCORDO
100
AcDbCircle
 62
250
  6
CONTINUOUS
 10
-36.0804736481
 20
-16.3427287788
 30
0.0
 40
23.2383776008
100
AcDbArc
 50
24.4889071575
 51
37.2068321299
  0
ARC
  5
30F
100
AcDbEntity
  8
RACCORDO
100
AcDbCircle
 62
250
  6
CONTINUOUS
 10
-35.554086343
 20
-16.0950389565
 30
0.0
 40
22.6566727771
100
AcDbArc
 50
23.506238252
 51
24.470670188
  0
ARC
  5
310
100
AcDbEntity
  8
RACCORDO
100
AcDbCircle
 62
250
  6
CONTINUOUS
 10
-35.375756029
 20
-16.0173174305
 30
0.0
 40
22.4621417635
100
AcDbArc
 50
22.8683747099
 51
23.5058681821
  0
ARC
  5
311
100
AcDbEntity
  8
RACCORDO
100
AcDbCircle
 62
250
  6
CONTINUOUS
 10
-35.2786877247
 20
-15.9762143488
 30
0.0
 40
22.356729732
100
AcDbArc
 50
22.7364529192
 51
22.8679899294
  0
ARC
  5
312
100
AcDbEntity
  8
RACCORDO
100
AcDbCircle
 62
250
  6
CONTINUOUS
 10
-35.238194222
 20
-15.9592510346
 30
0.0
 40
22.3128266824
100
AcDbArc
 50
22.5652494368
 51
22.7364665698
  0
ARC
  5
313
100
AcDbEntity
  8
RACCORDO
100
AcDbCircle
 62
250
  6
CONTINUOUS
 10
-35.3147035277
 20
-15.7908355746
 30
0.0
 40
22.294759824
100
AcDbArc
 50
37.2672176089
 51
37.5473948167
  0
ARC
  5
314
100
AcDbEntity
  8
RACCORDO
100
AcDbCircle
 62
250
  6
CONTINUOUS
 10
-35.1661224928
 20
-15.9293463569
 30
0.0
 40
22.2347970586
100
AcDbArc
 50
22.2180021288
 51
22.5653555995
  0
ARC
  5
315
100
AcDbEntity
  8
RACCORDO
100
AcDbCircle
 62
250
  6
CONTINUOUS
 10
-35.2506124125
 20
-15.7415704458
 30
0.0
 40
22.2139221845
100
AcDbArc
 50
37.5473907233
 51
37.8276200261
  0
ARC
  5
316
100
AcDbEntity
  8
RACCORDO
100
AcDbCircle
 62
250
  6
CONTINUOUS
 10
-35.0321473779
 20
-15.5710721044
 30
0.0
 40
21.9368009533
100
AcDbArc
 50
37.8258236713
 51
39.5669833671
  0
ARC
  5
317
100
AcDbEntity
  8
RACCORDO
100
AcDbCircle
 62
250
  6
CONTINUOUS
 10
-34.7749003508
 20
-15.7724018394
 30
0.0
 40
21.8132739322
100
AcDbArc
 50
20.4315422056
 51
22.1560901842
  0
ARC
  5
318
100
AcDbEntity
  8
RACCORDO
100
AcDbCircle
 62
250
  6
CONTINUOUS
 10
-34.4350077632
 20
-15.0782000228
 30
0.0
 40
21.1625281171
100
AcDbArc
 50
39.5681217706
 51
42.1631185651
  0
ARC
  5
319
100
AcDbEntity
  8
CURVE
100
AcDbCircle
 62
250
  6
CONTINUOUS
 10
-12.2450877146
 20
-19.0003608725
 30
0.0
 40
0.91460714
100
AcDbArc
 50
197.3508538323
 51
198.0835585291
  0
ARC
  5
31A
100
AcDbEntity
  8
ASSI
100
AcDbCircle
 62
7
  6
CONTINUOUS
 10
-28.1702418514
 20
-15.0781798317
 30
0.0
 40
0.5
100
AcDbArc
 50
179.9840060023
 51
239.9984015651
  0
ARC
  5
31B
100
AcDbEntity
  8
RACCORDO
100
AcDbCircle
 62
250
  6
CONTINUOUS
 10
-11.5826359172
 20
-1.8040291805
 30
0.0
 40
20.8185329894
100
AcDbArc
 50
198.0774943943
 51
198.6364364546
  0
ARC
  5
31C
100
AcDbEntity
  8
RACCORDO
100
AcDbCircle
 62
250
  6
CONTINUOUS
 10
-11.2450308782
 20
-2.3928197667
 30
0.0
 40
20.8164840759
100
AcDbArc
 50
221.3670715584
 51
221.686100357
  0
ARC
  5
31D
100
AcDbEntity
  8
RACCORDO
100
AcDbCircle
 62
250
  6
CONTINUOUS
 10
-17.5612802788
 20
-0.3573789526
 30
0.0
 40
5.4469131466
100
AcDbArc
 50
169.4440306778
 51
170.506480238
  0
ARC
  5
31E
100
AcDbEntity
  8
0
100
AcDbCircle
 62
7
  6
CONTINUOUS
 10
-17.1136042536
 20
5.8634729198
 30
0.0
 40
5.359670643
100
AcDbArc
 50
130.8977395264
 51
138.9374087327
  0
ARC
  5
31F
100
AcDbEntity
  8
ASSI
100
AcDbCircle
 62
7
  6
CONTINUOUS
 10
-17.1136042536
 20
5.8634729198
 30
0.0
 40
5.359670643
100
AcDbArc
 50
130.8977395264
 51
138.9374087327
  0
ARC
  5
320
100
AcDbEntity
  8
RACCORDO
100
AcDbCircle
 62
250
  6
CONTINUOUS
 10
-17.7794066052
 20
-0.3212390245
 30
0.0
 40
5.2258134545
100
AcDbArc
 50
170.502840954
 51
172.8020213175
  0
ARC
  5
321
100
AcDbEntity
  8
0
100
AcDbCircle
 62
7
  6
CONTINUOUS
 10
-16.8885372412
 20
6.2137669541
 30
0.0
 40
5.1650661302
100
AcDbArc
 50
128.7233790048
 51
129.7067236959
  0
ARC
  5
322
100
AcDbEntity
  8
ASSI
100
AcDbCircle
 62
7
  6
CONTINUOUS
 10
-16.8885372412
 20
6.2137669541
 30
0.0
 40
5.1650661302
100
AcDbArc
 50
128.7233790048
 51
129.7067236959
  0
ARC
  5
323
100
AcDbEntity
  8
RACCORDO
100
AcDbCircle
 62
7
  6
CONTINUOUS
 10
-17.9086197638
 20
-0.2627307745
 30
0.0
 40
5.1248485083
100
AcDbArc
 50
170.1483271337
 51
174.3016649242
  0
ARC
  5
324
100
AcDbEntity
  8
0
100
AcDbCircle
 62
7
  6
CONTINUOUS
 10
-17.2857268836
 20
6.0657666183
 30
0.0
 40
5.0939577677
100
AcDbArc
 50
125.709181088
 51
126.898871911
  0
ARC
  5
325
100
AcDbEntity
  8
ASSI
100
AcDbCircle
 62
7
  6
CONTINUOUS
 10
-17.2857268836
 20
6.0657666183
 30
0.0
 40
5.0939577677
100
AcDbArc
 50
125.709181088
 51
126.898871911
  0
ARC
  5
326
100
AcDbEntity
  8
0
100
AcDbCircle
 62
7
  6
CONTINUOUS
 10
-18.1470375929
 20
5.5848529048
 30
0.0
 40
5.0795785408
100
AcDbArc
 50
111.3671979039
 51
119.9775328236
  0
ARC
  5
327
100
AcDbEntity
  8
ASSI
100
AcDbCircle
 62
7
  6
CONTINUOUS
 10
-18.1470375929
 20
5.5848529048
 30
0.0
 40
5.0795785408
100
AcDbArc
 50
111.3671979039
 51
119.9775328236
  0
ARC
  5
328
100
AcDbEntity
  8
0
100
AcDbCircle
 62
7
  6
CONTINUOUS
 10
-16.9810263193
 20
6.1875929196
 30
0.0
 40
5.0407105289
100
AcDbArc
 50
123.6878435136
 51
126.1322430526
  0
ARC
  5
329
100
AcDbEntity
  8
0
100
AcDbCircle
 62
7
  6
CONTINUOUS
 10
-16.9944481571
 20
6.2074626151
 30
0.0
 40
5.0167328548
100
AcDbArc
 50
122.9830194924
 51
123.6861663401
  0
ARC
  5
32A
100
AcDbEntity
  8
RACCORDO
100
AcDbCircle
 62
250
  6
CONTINUOUS
 10
-18.0632941983
 20
-0.2840718097
 30
0.0
 40
4.9395063306
100
AcDbArc
 50
172.8171434721
 51
174.0744417059
  0
ARC
  5
32B
100
AcDbEntity
  8
RACCORDO
100
AcDbCircle
 62
250
  6
CONTINUOUS
 10
-18.3940948737
 20
-0.2511671688
 30
0.0
 40
4.6070764359
100
AcDbArc
 50
174.0567596412
 51
178.2689216543
  0
ARC
  5
32C
100
AcDbEntity
  8
RACCORDO
100
AcDbCircle
 62
250
  6
CONTINUOUS
 10
-18.7927018858
 20
-0.2344108775
 30
0.0
 40
4.2081477912
100
AcDbArc
 50
178.3330143855
 51
179.3777286137
  0
ARC
  5
32D
100
AcDbEntity
  8
RACCORDO
100
AcDbCircle
 62
250
  6
CONTINUOUS
 10
-18.9044089386
 20
-0.2330992675
 30
0.0
 40
4.096432955
100
AcDbArc
 50
179.4836603453
 51
179.9386952165
  0
ARC
  5
32E
100
AcDbEntity
  8
RACCORDO
100
AcDbCircle
 62
250
  6
CONTINUOUS
 10
-21.4644949122
 20
0.1305858882
 30
0.0
 40
2.1688081065
100
AcDbArc
 50
179.8449308809
 51
180.0471432649
  0
ARC
  5
32F
100
AcDbEntity
  8
ASSI
100
AcDbCircle
 62
7
  6
CONTINUOUS
 10
-28.1702418514
 20
27.0735924506
 30
0.0
 40
0.5
100
AcDbArc
 50
122.5992953905
 51
180.0013072929
  0
ARC
  5
330
100
AcDbEntity
  8
RACCORDO
100
AcDbCircle
 62
250
  6
CONTINUOUS
 10
-22.6209320598
 20
2.3949215182
 30
0.0
 40
0.4463437715
100
AcDbArc
 50
154.0204712999
 51
154.9531494641
  0
ARC
  5
331
100
AcDbEntity
  8
RACCORDO
100
AcDbCircle
 62
250
  6
CONTINUOUS
 10
-22.6074907419
 20
2.3843870302
 30
0.0
 40
0.3823291866
100
AcDbArc
 50
153.8514251772
 51
154.7108896498
  0
ARC
  5
332
100
AcDbEntity
  8
RACCORDO
100
AcDbCircle
 62
250
  6
CONTINUOUS
 10
-23.2921509909
 20
-1.6017484039
 30
0.0
 40
0.2913039201
100
AcDbArc
 50
357.5687558513
 51
0.0103705139
  0
ARC
  5
333
100
AcDbEntity
  8
RACCORDO
100
AcDbCircle
 62
250
  6
CONTINUOUS
 10
-23.2385226572
 20
-1.5589612188
 30
0.0
 40
0.208473434
100
AcDbArc
 50
352.6552755194
 51
355.5515512906
  0
ARC
  5
334
100
AcDbEntity
  8
RACCORDO
100
AcDbCircle
 62
250
  6
CONTINUOUS
 10
-23.17585162
 20
-1.5714840298
 30
0.0
 40
0.1444644289
100
AcDbArc
 50
339.4835332878
 51
344.9658934564
  0
ARC
  5
335
100
AcDbEntity
  8
0
100
AcDbCircle
 62
7
  6
CONTINUOUS
 10
-7.3864207278
 20
-10.947836446
 30
0.0
 40
5.4291338497
100
AcDbArc
 50
281.1081234798
 51
289.0137575034
  0
ARC
  5
336
100
AcDbEntity
  8
ASSI
100
AcDbCircle
 62
7
  6
CONTINUOUS
 10
-7.3864207278
 20
-10.947836446
 30
0.0
 40
5.4291338497
100
AcDbArc
 50
281.1081234798
 51
289.0137575034
  0
ARC
  5
337
100
AcDbEntity
  8
0
100
AcDbCircle
 62
7
  6
CONTINUOUS
 10
-7.3062439234
 20
-11.1984238891
 30
0.0
 40
5.1661004458
100
AcDbArc
 50
289.0785028447
 51
292.9354937976
  0
ARC
  5
338
100
AcDbEntity
  8
ASSI
100
AcDbCircle
 62
7
  6
CONTINUOUS
 10
-7.3062439234
 20
-11.1984238891
 30
0.0
 40
5.1661004458
100
AcDbArc
 50
289.0785028447
 51
292.9354937976
  0
ARC
  5
339
100
AcDbEntity
  8
0
100
AcDbCircle
 62
7
  6
CONTINUOUS
 10
-8.1143453216
 20
-11.7880071622
 30
0.0
 40
5.0587375963
100
AcDbArc
 50
300.0079057562
 51
308.6441658142
  0
ARC
  5
33A
100
AcDbEntity
  8
ASSI
100
AcDbCircle
 62
7
  6
CONTINUOUS
 10
-8.1143453216
 20
-11.7880071622
 30
0.0
 40
5.0587375963
100
AcDbArc
 50
300.0079057562
 51
308.6441658142
  0
ARC
  5
33B
100
AcDbEntity
  8
0
100
AcDbCircle
 62
7
  6
CONTINUOUS
 10
-7.0262491271
 20
-11.0510468053
 30
0.0
 40
5.0530158739
100
AcDbArc
 50
293.8720883993
 51
294.8119350673
  0
ARC
  5
33C
100
AcDbEntity
  8
0
100
AcDbCircle
 62
7
  6
CONTINUOUS
 10
-7.0167320117
 20
-11.0714882001
 30
0.0
 40
5.0304673936
100
AcDbArc
 50
295.0679528766
 51
296.3167861999
  0
ARC
  5
33D
100
AcDbEntity
  8
ASSI
100
AcDbCircle
 62
7
  6
CONTINUOUS
 10
2.6078748936
 20
-32.8490786998
 30
0.0
 40
0.5
100
AcDbArc
 50
239.9984015652
 51
297.4194204712
  0
ARC
  5
33E
100
AcDbEntity
  8
ASSI
100
AcDbCircle
 62
7
  6
CONTINUOUS
 10
6.1001783327
 20
-27.7769246842
 30
0.0
 40
0.2
100
AcDbArc
 50
301.7332683128
 51
0.0118325387
  0
ARC
  5
33F
100
AcDbEntity
  8
ASSI
100
AcDbCircle
 62
250
  6
CONTINUOUS
 10
6.2329030152
 20
-27.7769228241
 30
0.0
 40
0.0672660792
100
AcDbArc
 50
354.5904603927
 51
359.9984154871
  0
ARC
  5
340
100
AcDbEntity
  8
ASSI
100
AcDbCircle
 62
250
  6
CONTINUOUS
 10
6.1700656397
 20
-27.8899179807
 30
0.0
 40
0.0671311223
100
AcDbArc
 50
301.7256051104
 51
306.4275362129
  0
ARC
  5
341
100
AcDbEntity
  8
RACCORDO
100
AcDbCircle
 62
250
  6
CONTINUOUS
 10
-2.9635026679
 20
2.7808686078
 30
0.0
 40
35.2819469748
100
AcDbArc
 50
23.5148940827
 51
36.4855285374
  0
ARC
  5
342
100
AcDbEntity
  8
RACCORDO
100
AcDbCircle
 62
250
  6
CONTINUOUS
 10
-4.2896398795
 20
2.0151495146
 30
0.0
 40
12.1175415062
100
AcDbArc
 50
28.2733545701
 51
29.218968118
  0
ARC
  5
343
100
AcDbEntity
  8
RACCORDO
100
AcDbCircle
 62
250
  6
CONTINUOUS
 10
-4.2029699921
 20
2.065837613
 30
0.0
 40
12.01715628
100
AcDbArc
 50
29.2097624584
 51
37.295992405
  0
ARC
  5
344
100
AcDbEntity
  8
0
100
AcDbCircle
 62
7
  6
CONTINUOUS
 10
3.3372919776
 20
22.1110447569
 30
0.0
 40
6.9103915816
100
AcDbArc
 50
120.0336602846
 51
129.5898147519
  0
ARC
  5
345
100
AcDbEntity
  8
0
100
AcDbCircle
 62
7
  6
CONTINUOUS
 10
16.941936971
 20
-1.457027129
 30
0.0
 40
6.8767387447
100
AcDbArc
 50
290.3888573248
 51
299.9612946238
  0
ARC
  5
346
100
AcDbEntity
  8
0
100
AcDbCircle
 62
7
  6
CONTINUOUS
 10
0.1299895644
 20
4.097378394
 30
0.0
 40
5.7129403605
100
AcDbArc
 50
10.3980426437
 51
11.1795688119
  0
ARC
  5
347
100
AcDbEntity
  8
0
100
AcDbCircle
 62
7
  6
CONTINUOUS
 10
0.9875418477
 20
3.9313214608
 30
0.0
 40
4.3865280278
100
AcDbArc
 50
0.6551327271
 51
5.0323640589
  0
ARC
  5
348
100
AcDbEntity
  8
RACCORDO
100
AcDbCircle
 62
250
  6
CONTINUOUS
 10
-5.9744014145
 20
19.1401516968
 30
0.0
 40
0.6209058909
100
AcDbArc
 50
219.9008065949
 51
223.8732611834
  0
ARC
  5
349
100
AcDbEntity
  8
RACCORDO
100
AcDbCircle
 62
250
  6
CONTINUOUS
 10
-5.9847491129
 20
19.1315829485
 30
0.0
 40
0.607471081
100
AcDbArc
 50
215.8293144027
 51
219.9068497098
  0
ARC
  5
34A
100
AcDbEntity
  8
RACCORDO
100
AcDbCircle
 62
7
  6
CONTINUOUS
 10
-6.1237116666
 20
18.9801233402
 30
0.0
 40
0.5
100
AcDbArc
 50
221.8668622939
 51
300.0108084467
  0
ARC
  5
34B
100
AcDbEntity
  8
ASSI
100
AcDbCircle
 62
7
  6
CONTINUOUS
 10
6.1001783327
 20
7.7099676102
 30
0.0
 40
0.2
100
AcDbArc
 50
0.0007993018
 51
59.9992007511
  0
SPLINE
  5
34C
100
AcDbEntity
  8
RACCORDO
100
AcDbSpline
 62
7
  6
CONTINUOUS
 70
0
 71
3
 72
16
 73
12
 74
0
 42
0.0000001
 43
0.0000001
 44
0.0000000001
 40
0.0
 40
0.0
 40
0.0
 40
0.0
 40
0.1520748156
 40
0.2975284454
 40
0.4349787814
 40
0.5635903195
 40
0.683229684
 40
0.7946067972
 40
0.8993321472
 40
0.9500093568
 40
1.0
 40
1.0
 40
1.0
 40
1.0
 10
-26.8686965589
 20
-16.1487982531
 30
0.0
 10
-26.4520352933
 20
-16.6220066656
 30
0.0
 10
-25.5946152552
 20
-17.5118621577
 30
0.0
 10
-24.2188663006
 20
-18.6827076604
 30
0.0
 10
-22.802894393
 20
-19.6415287685
 30
0.0
 10
-21.3727188139
 20
-20.3676220376
 30
0.0
 10
-19.9529496759
 20
-20.8433696629
 30
0.0
 10
-18.568881551
 20
-21.0530328866
 30
0.0
 10
-17.4544974124
 20
-20.9921082506
 30
0.0
 10
-16.6240583679
 20
-20.7959980506
 30
0.0
 10
-16.2312964176
 20
-20.6510243827
 30
0.0
 10
-16.0417691009
 20
-20.5671400392
 30
0.0
  0
SPLINE
  5
34D
100
AcDbEntity
  8
RACCORDO
100
AcDbSpline
 62
7
  6
CONTINUOUS
 70
0
 71
3
 72
16
 73
12
 74
0
 42
0.0000001
 43
0.0000001
 44
0.0000000001
 40
0.0
 40
0.0
 40
0.0
 40
0.0
 40
0.0499908263
 40
0.1006676045
 40
0.2053930227
 40
0.3167704606
 40
0.4364101409
 40
0.5650218792
 40
0.702472226
 40
0.8479256231
 40
1.0
 40
1.0
 40
1.0
 40
1.0
 10
-29.7226187804
 20
3.1272600994
 30
0.0
 10
-29.8900213042
 20
3.0050576705
 30
0.0
 10
-30.2119362097
 20
2.7373874176
 30
0.0
 10
-30.7969536426
 20
2.1162322928
 30
0.0
 10
-31.4068545297
 20
1.181582366
 30
0.0
 10
-31.9172441816
 20
-0.1219102632
 30
0.0
 10
-32.2150393916
 20
-1.589351775
 30
0.0
 10
-32.3012259356
 20
-3.1909649558
 30
0.0
 10
-32.1787575421
 20
-4.896627289
 30
0.0
 10
-31.8525578702
 20
-6.6734539667
 30
0.0
 10
-31.5105698358
 20
-7.8609019297
 30
0.0
 10
-31.3090604505
 20
-8.4583299189
 30
0.0
  0
SPLINE
  5
34E
100
AcDbEntity
  8
0
100
AcDbSpline
 62
7
  6
CONTINUOUS
 70
0
 71
3
 72
11
 73
7
 74
0
 42
0.0000001
 43
0.0000001
 44
0.0000000001
 40
0.0
 40
0.0
 40
0.0
 40
0.0
 40
0.2484829694
 40
0.5000003495
 40
0.7515175541
 40
1.0
 40
1.0
 40
1.0
 40
1.0
 10
-31.3095674595
 20
-8.4568402909
 30
0.0
 10
-31.0730299946
 20
-9.1582552068
 30
0.0
 10
-30.5231187198
 20
-10.545717375
 30
0.0
 10
-29.4968154525
 20
-12.5391425427
 30
0.0
 10
-28.2835054219
 20
-14.4245905094
 30
0.0
 10
-27.3568195015
 20
-15.5945052993
 30
0.0
 10
-26.8676151319
 20
-16.1500317456
 30
0.0
  0
SPLINE
  5
34F
100
AcDbEntity
  8
RACCORDO
100
AcDbSpline
 62
250
  6
CONTINUOUS
 70
0
 71
3
 72
12
 73
8
 74
0
 42
0.0000001
 43
0.0000001
 44
0.0000000001
 40
0.0
 40
0.0
 40
0.0
 40
0.0
 40
0.2307189269
 40
0.3530640391
 40
0.4827924953
 40
0.7535517531
 40
1.0
 40
1.0
 40
1.0
 40
1.0
 10
-23.317075999
 20
-1.6747021502
 30
0.0
 10
-23.3547505184
 20
-1.652949523
 30
0.0
 10
-23.4107806737
 20
-1.6166557325
 30
0.0
 10
-23.4818853968
 20
-1.5596184862
 30
0.0
 10
-23.5504741794
 20
-1.4882852898
 30
0.0
 10
-23.6118886703
 20
-1.3805549143
 30
0.0
 10
-23.6333019731
 20
-1.2830217368
 30
0.0
 10
-23.6333027249
 20
-1.2365524769
 30
0.0
  0
SPLINE
  5
350
100
AcDbEntity
  8
RACCORDO
100
AcDbSpline
 62
250
  6
CONTINUOUS
 70
0
 71
3
 72
15
 73
11
 74
0
 42
0.0000001
 43
0.0000001
 44
0.0000000001
 40
0.0
 40
0.0
 40
0.0
 40
0.0
 40
0.1344044439
 40
0.2510891235
 40
0.3561941015
 40
0.4628449939
 40
0.5826982463
 40
0.7151080097
 40
0.8549659054
 40
1.0
 40
1.0
 40
1.0
 40
1.0
 10
-23.0011092891
 20
-1.6141056567
 30
0.0
 10
-23.0019103249
 20
-1.6328478693
 30
0.0
 10
-23.0068607101
 20
-1.6679314129
 30
0.0
 10
-23.0279146828
 20
-1.7140495834
 30
0.0
 10
-23.0635083482
 20
-1.7456364143
 30
0.0
 10
-23.1103494773
 20
-1.7561480665
 30
0.0
 10
-23.1603614489
 20
-1.74744604
 30
0.0
 10
-23.2117975438
 20
-1.7285519957
 30
0.0
 10
-23.264597433
 20
-1.7038347005
 30
0.0
 10
-23.2995453074
 20
-1.6848239863
 30
0.0
 10
-23.317075999
 20
-1.6747021502
 30
0.0
  0
SPLINE
  5
351
100
AcDbEntity
  8
RACCORDO
100
AcDbSpline
 62
250
  6
CONTINUOUS
 70
0
 71
3
 72
16
 73
12
 74
0
 42
0.0000001
 43
0.0000001
 44
0.0000000001
 40
0.0
 40
0.0
 40
0.0
 40
0.0
 40
0.1486961095
 40
0.2892693399
 40
0.4218053309
 40
0.4852727776
 40
0.5469959241
 40
0.6657045801
 40
0.7794708605
 40
0.8901795269
 40
1.0
 40
1.0
 40
1.0
 40
1.0
 10
-22.772206303
 20
2.8911209876
 30
0.0
 10
-23.0922372472
 20
3.0639269072
 30
0.0
 10
-23.730229438
 20
3.3727948548
 30
0.0
 10
-24.7012219192
 20
3.7268933909
 30
0.0
 10
-25.5038842469
 20
3.9197417919
 30
0.0
 10
-26.1286996322
 20
4.0066377252
 30
0.0
 10
-26.72416059
 20
4.0486266292
 30
0.0
 10
-27.4462045512
 20
4.022658637
 30
0.0
 10
-28.2735157948
 20
3.8595871367
 30
0.0
 10
-29.0409550789
 20
3.5660190508
 30
0.0
 10
-29.5056503111
 20
3.2856240972
 30
0.0
 10
-29.7226097971
 20
3.1272457516
 30
0.0
  0
SPLINE
  5
352
100
AcDbEntity
  8
RACCORDO
100
AcDbSpline
 62
250
  6
CONTINUOUS
 70
0
 71
3
 72
9
 73
5
 74
0
 42
0.0000001
 43
0.0000001
 44
0.0000000001
 40
0.0
 40
0.0
 40
0.0
 40
0.0
 40
0.4745497089
 40
1.0
 40
1.0
 40
1.0
 40
1.0
 10
-23.0413109605
 20
-1.461817943
 30
0.0
 10
-23.0517267588
 20
-1.4309489982
 30
0.0
 10
-23.0887000181
 20
-1.3705048967
 30
0.0
 10
-23.1444158957
 20
-1.3282504733
 30
0.0
 10
-23.1756557549
 20
-1.3102129589
 30
0.0
  0
SPLINE
  5
353
100
AcDbEntity
  8
RACCORDO
100
AcDbSpline
 62
250
  6
CONTINUOUS
 70
0
 71
3
 72
9
 73
5
 74
0
 42
0.0000001
 43
0.0000001
 44
0.0000000001
 40
0.0
 40
0.0
 40
0.0
 40
0.0
 40
0.2565471783
 40
1.0
 40
1.0
 40
1.0
 40
1.0
 10
-23.0317597572
 20
-1.5856122192
 30
0.0
 10
-23.0320207577
 20
-1.5876305557
 30
0.0
 10
-23.0331589989
 20
-1.5954813261
 30
0.0
 10
-23.0347951648
 20
-1.6032633086
 30
0.0
 10
-23.0363319792
 20
-1.608957234
 30
0.0
  0
SPLINE
  5
354
100
AcDbEntity
  8
RACCORDO
100
AcDbSpline
 62
250
  6
CONTINUOUS
 70
0
 71
3
 72
14
 73
10
 74
0
 42
0.0000001
 43
0.0000001
 44
0.0000000001
 40
0.0
 40
0.0
 40
0.0
 40
0.0
 40
0.2246966887
 40
0.3310367815
 40
0.4477856346
 40
0.5764611542
 40
0.7122524178
 40
0.853621333
 40
1.0
 40
1.0
 40
1.0
 40
1.0
 10
-23.0405503529
 20
-1.6221154266
 30
0.0
 10
-23.0481896253
 20
-1.6424501952
 30
0.0
 10
-23.0690711533
 20
-1.6726331504
 30
0.0
 10
-23.1141793889
 20
-1.68041489
 30
0.0
 10
-23.1464490328
 20
-1.6668539787
 30
0.0
 10
-23.1772954828
 20
-1.6470091485
 30
0.0
 10
-23.210515496
 20
-1.626036605
 30
0.0
 10
-23.2454667628
 20
-1.6047325883
 30
0.0
 10
-23.2694655914
 20
-1.5906559789
 30
0.0
 10
-23.2817205359
 20
-1.5835800896
 30
0.0
  0
LINE
  5
355
100
AcDbEntity
  8
RACCORDO
100
AcDbLine
 62
250
  6
CONTINUOUS
 10
-22.772206303
 20
2.8911209876
 30
0.0
 11
-15.3218323218
 21
7.9460428527
 31
0.0
  0
SPLINE
  5
356
100
AcDbEntity
  8
RACCORDO
100
AcDbSpline
 62
250
  6
CONTINUOUS
 70
0
 71
3
 72
25
 73
21
 74
0
 42
0.0000001
 43
0.0000001
 44
0.0000000001
 40
0.0
 40
0.0
 40
0.0
 40
0.0
 40
0.0214851242
 40
0.0430106637
 40
0.0648113538
 40
0.0871070855
 40
0.1338648788
 40
0.1845358345
 40
0.239738221
 40
0.2995981949
 40
0.3638475493
 40
0.4319174165
 40
0.5030171712
 40
0.5762002593
 40
0.6504211489
 40
0.724587202
 40
0.7976081709
 40
0.868446155
 40
0.9361671472
 40
1.0
 40
1.0
 40
1.0
 40
1.0
 10
-16.0417705022
 20
-20.5671373983
 30
0.0
 10
-15.861879925
 20
-20.4875264409
 30
0.0
 10
-15.5115728057
 20
-20.3047879876
 30
0.0
 10
-15.0240296935
 20
-19.9637542759
 30
0.0
 10
-14.5784202814
 20
-19.5582797737
 30
0.0
 10
-14.035256179
 20
-18.9258267677
 30
0.0
 10
-13.4747315718
 20
-17.9724667543
 30
0.0
 10
-13.0196244426
 20
-16.6431662956
 30
0.0
 10
-12.7750841909
 20
-15.1393348572
 30
0.0
 10
-12.7441554977
 20
-13.4931443137
 30
0.0
 10
-12.9260852331
 20
-11.739125908
 30
0.0
 10
-13.3164998234
 20
-9.9146973681
 30
0.0
 10
-13.9067558403
 20
-8.0591710695
 30
0.0
 10
-14.6839668571
 20
-6.2128512208
 30
0.0
 10
-15.6311580265
 20
-4.4160149841
 30
0.0
 10
-16.7276340247
 20
-2.7079307357
 30
0.0
 10
-17.9494044236
 20
-1.1259450082
 30
0.0
 10
-19.2699365786
 20
0.2954849506
 30
0.0
 10
-20.6602512455
 20
1.5252165114
 30
0.0
 10
-21.6464439309
 20
2.2224883901
 30
0.0
 10
-22.1443307233
 20
2.528593497
 30
0.0
  0
SPLINE
  5
357
100
AcDbEntity
  8
RACCORDO
100
AcDbSpline
 62
250
  6
CONTINUOUS
 70
0
 71
3
 72
9
 73
5
 74
0
 42
0.0000001
 43
0.0000001
 44
0.0000000001
 40
0.0
 40
0.0
 40
0.0
 40
0.0
 40
0.5147419996
 40
1.0
 40
1.0
 40
1.0
 40
1.0
 10
-26.790771643
 20
-16.2368059468
 30
0.0
 10
-26.3053351486
 20
-16.7819108417
 30
0.0
 10
-25.3059855799
 20
-17.7924408795
 30
0.0
 10
-24.1938059086
 20
-18.6792338338
 30
0.0
 10
-23.6270852758
 20
-19.0695265138
 30
0.0
  0
SPLINE
  5
358
100
AcDbEntity
  8
RACCORDO
100
AcDbSpline
 62
250
  6
CONTINUOUS
 70
0
 71
3
 72
23
 73
19
 74
0
 42
0.0000001
 43
0.0000001
 44
0.0000000001
 40
0.0
 40
0.0
 40
0.0
 40
0.0
 40
0.0707623384
 40
0.1367284538
 40
0.1978310416
 40
0.2543856025
 40
0.3071612776
 40
0.3574032237
 40
0.4067430335
 40
0.4569657237
 40
0.5097060234
 40
0.5662140218
 40
0.6272641162
 40
0.6931764863
 40
0.7638876491
 40
0.8390284273
 40
0.917993477
 40
1.0
 40
1.0
 40
1.0
 40
1.0
 10
-23.6270852758
 20
-19.0695265138
 30
0.0
 10
-23.2113196383
 20
-19.3558585715
 30
0.0
 10
-22.3784929324
 20
-19.8683280263
 30
0.0
 10
-21.0923374535
 20
-20.4587242398
 30
0.0
 10
-19.8321002639
 20
-20.8344182487
 30
0.0
 10
-18.6193267489
 20
-20.986688903
 30
0.0
 10
-17.4754817549
 20
-20.909394541
 30
0.0
 10
-16.4236757375
 20
-20.59972901
 30
0.0
 10
-15.488679592
 20
-20.061501502
 30
0.0
 10
-14.6930180989
 20
-19.3076550339
 30
0.0
 10
-14.0524535557
 20
-18.3576995912
 30
0.0
 10
-13.57616546
 20
-17.2330355563
 30
0.0
 10
-13.2695896948
 20
-15.9553641229
 30
0.0
 10
-13.1359947633
 20
-14.5474786624
 30
0.0
 10
-13.1765588244
 20
-13.0340561347
 30
0.0
 10
-13.3900130355
 20
-11.4417207388
 30
0.0
 10
-13.7722490969
 20
-9.7989276968
 30
0.0
 10
-14.1296902427
 20
-8.705893418
 30
0.0
 10
-14.3339005023
 20
-8.1576500487
 30
0.0
  0
SPLINE
  5
359
100
AcDbEntity
  8
RACCORDO
100
AcDbSpline
 62
250
  6
CONTINUOUS
 70
0
 71
3
 72
10
 73
6
 74
0
 42
0.0000001
 43
0.0000001
 44
0.0000000001
 40
0.0
 40
0.0
 40
0.0
 40
0.0
 40
0.6523093074
 40
0.8661756954
 40
1.0
 40
1.0
 40
1.0
 40
1.0
 10
-22.3956424611
 20
2.2203274909
 30
0.0
 10
-22.4038247065
 20
2.2259230298
 30
0.0
 10
-22.4146394931
 20
2.2337291777
 30
0.0
 10
-22.4250973036
 20
2.2445778772
 30
0.0
 10
-22.4280617198
 20
2.249266721
 30
0.0
 10
-22.4283470871
 20
2.251280211
 30
0.0
  0
SPLINE
  5
35A
100
AcDbEntity
  8
RACCORDO
100
AcDbSpline
 62
250
  6
CONTINUOUS
 70
0
 71
3
 72
9
 73
5
 74
0
 42
0.0000001
 43
0.0000001
 44
0.0000000001
 40
0.0
 40
0.0
 40
0.0
 40
0.0
 40
0.5699487431
 40
1.0
 40
1.0
 40
1.0
 40
1.0
 10
-22.144330403
 20
2.5285932675
 30
0.0
 10
-22.1531066421
 20
2.5340427581
 30
0.0
 10
-22.1698768166
 20
2.5421819126
 30
0.0
 10
-22.1896820608
 20
2.5396092825
 30
0.0
 10
-22.1961357933
 20
2.5352379537
 30
0.0
  0
SPLINE
  5
35B
100
AcDbEntity
  8
RACCORDO
100
AcDbSpline
 62
250
  6
CONTINUOUS
 70
0
 71
3
 72
9
 73
5
 74
0
 42
0.0000001
 43
0.0000001
 44
0.0000000001
 40
0.0
 40
0.0
 40
0.0
 40
0.0
 40
0.5686194528
 40
1.0
 40
1.0
 40
1.0
 40
1.0
 10
-14.6936953672
 20
7.5833445908
 30
0.0
 10
-14.7025414272
 20
7.5887330428
 30
0.0
 10
-14.7194859558
 20
7.5967366819
 30
0.0
 10
-14.7393364894
 20
7.5939959254
 30
0.0
 10
-14.7458347147
 20
7.5895775519
 30
0.0
  0
SPLINE
  5
35C
100
AcDbEntity
  8
RACCORDO
100
AcDbSpline
 62
250
  6
CONTINUOUS
 70
0
 71
3
 72
9
 73
5
 74
0
 42
0.0000001
 43
0.0000001
 44
0.0000000001
 40
0.0
 40
0.0
 40
0.0
 40
0.0
 40
0.2269202934
 40
1.0
 40
1.0
 40
1.0
 40
1.0
 10
-15.3218332507
 20
7.9460516933
 30
0.0
 10
-15.3165245923
 20
7.9431561824
 30
0.0
 10
-15.2943186536
 20
7.9282610574
 30
0.0
 10
-15.2765613916
 20
7.907316568
 30
0.0
 10
-15.2657248107
 20
7.8897959945
 30
0.0
  0
SPLINE
  5
35D
100
AcDbEntity
  8
RACCORDO
100
AcDbSpline
 62
250
  6
CONTINUOUS
 70
0
 71
3
 72
9
 73
5
 74
0
 42
0.0000001
 43
0.0000001
 44
0.0000000001
 40
0.0
 40
0.0
 40
0.0
 40
0.0
 40
0.2271390309
 40
1.0
 40
1.0
 40
1.0
 40
1.0
 10
-22.772206303
 20
2.8911209876
 30
0.0
 10
-22.76685668
 20
2.8882596912
 30
0.0
 10
-22.7444826294
 20
2.8735051199
 30
0.0
 10
-22.7265314692
 20
2.8526357344
 30
0.0
 10
-22.7155623348
 20
2.8351486556
 30
0.0
  0
SPLINE
  5
35E
100
AcDbEntity
  8
RACCORDO
100
AcDbSpline
 62
250
  6
CONTINUOUS
 70
0
 71
3
 72
9
 73
5
 74
0
 42
0.0000001
 43
0.0000001
 44
0.0000000001
 40
0.0
 40
0.0
 40
0.0
 40
0.0
 40
0.2271010426
 40
1.0
 40
1.0
 40
1.0
 40
1.0
 10
-23.0221730678
 20
2.5904424016
 30
0.0
 10
-23.01693701
 20
2.5872848212
 30
0.0
 10
-22.9936110472
 20
2.5738318183
 30
0.0
 10
-22.9695587122
 20
2.5616553706
 30
0.0
 10
-22.9506901714
 20
2.5528796369
 30
0.0
  0
SPLINE
  5
35F
100
AcDbEntity
  8
RACCORDO
100
AcDbSpline
 62
250
  6
CONTINUOUS
 70
0
 71
3
 72
9
 73
5
 74
0
 42
0.0000001
 43
0.0000001
 44
0.0000000001
 40
0.0
 40
0.0
 40
0.0
 40
0.0
 40
0.2269979958
 40
1.0
 40
1.0
 40
1.0
 40
1.0
 10
-23.0253025159
 20
2.5838852623
 30
0.0
 10
-23.0200281765
 20
2.5808064557
 30
0.0
 10
-22.9965182001
 20
2.5677177341
 30
0.0
 10
-22.9722710499
 20
2.5559724881
 30
0.0
 10
-22.9532514696
 20
2.5475600735
 30
0.0
  0
SPLINE
  5
360
100
AcDbEntity
  8
RACCORDO
100
AcDbSpline
 62
250
  6
CONTINUOUS
 70
0
 71
3
 72
9
 73
5
 74
0
 42
0.0000001
 43
0.0000001
 44
0.0000000001
 40
0.0
 40
0.0
 40
0.0
 40
0.0
 40
0.2289432657
 40
1.0
 40
1.0
 40
1.0
 40
1.0
 10
-23.6332950755
 20
0.136455688
 30
0.0
 10
-23.6280984704
 20
0.1334429994
 30
0.0
 10
-23.6041647649
 20
0.1224541681
 30
0.0
 10
-23.5772374417
 20
0.1188503039
 30
0.0
 10
-23.5570163186
 20
0.1194524348
 30
0.0
  0
SPLINE
  5
361
100
AcDbEntity
  8
RACCORDO
100
AcDbSpline
 62
250
  6
CONTINUOUS
 70
0
 71
3
 72
9
 73
5
 74
0
 42
0.0000001
 43
0.0000001
 44
0.0000000001
 40
0.0
 40
0.0
 40
0.0
 40
0.0
 40
0.2288561741
 40
1.0
 40
1.0
 40
1.0
 40
1.0
 10
-23.6333022846
 20
0.1288013818
 30
0.0
 10
-23.6281051274
 20
0.1258006084
 30
0.0
 10
-23.6041621568
 20
0.114864394
 30
0.0
 10
-23.5772385453
 20
0.1113292165
 30
0.0
 10
-23.5570274309
 20
0.1119795435
 30
0.0
  0
SPLINE
  5
362
100
AcDbEntity
  8
RACCORDO
100
AcDbSpline
 62
250
  6
CONTINUOUS
 70
0
 71
3
 72
9
 73
5
 74
0
 42
0.0000001
 43
0.0000001
 44
0.0000000001
 40
0.0
 40
0.0
 40
0.0
 40
0.0
 40
0.2288559116
 40
1.0
 40
1.0
 40
1.0
 40
1.0
 10
-23.6333027249
 20
-1.2365524769
 30
0.0
 10
-23.6281055966
 20
-1.2395532754
 30
0.0
 10
-23.604162705
 20
-1.2504896088
 30
0.0
 10
-23.5772391262
 20
-1.254024885
 30
0.0
 10
-23.557028021
 20
-1.2533746393
 30
0.0
  0
LINE
  5
363
100
AcDbEntity
  8
RACCORDO
100
AcDbLine
 62
250
  6
CONTINUOUS
 10
-14.7265052685
 20
7.5610856875
 30
0.0
 11
-22.1443307233
 21
2.528593497
 31
0.0
  0
SPLINE
  5
364
100
AcDbEntity
  8
RACCORDO
100
AcDbSpline
 62
250
  6
CONTINUOUS
 70
0
 71
3
 72
14
 73
10
 74
0
 42
0.0000001
 43
0.0000001
 44
0.0000000001
 40
0.0
 40
0.0
 40
0.0
 40
0.0
 40
0.2715057415
 40
0.3991504044
 40
0.5168558379
 40
0.6264874983
 40
0.7384596276
 40
0.8618148582
 40
1.0
 40
1.0
 40
1.0
 40
1.0
 10
-14.7870152144
 20
7.9199648132
 30
0.0
 10
-14.7516722574
 20
7.8995578927
 30
0.0
 10
-14.70114462
 20
7.8665934202
 30
0.0
 10
-14.643008873
 20
7.8148100164
 30
0.0
 10
-14.611359046
 20
7.7706570729
 30
0.0
 10
-14.6005044917
 20
7.7190260855
 30
0.0
 10
-14.6134557652
 20
7.6672672976
 30
0.0
 10
-14.6459748354
 20
7.6204301511
 30
0.0
 10
-14.6765060175
 20
7.595005623
 30
0.0
 10
-14.6936953845
 20
7.5833449204
 30
0.0
  0
SPLINE
  5
365
100
AcDbEntity
  8
RACCORDO
100
AcDbSpline
 62
250
  6
CONTINUOUS
 70
0
 71
3
 72
9
 73
5
 74
0
 42
0.0000001
 43
0.0000001
 44
0.0000000001
 40
0.0
 40
0.0
 40
0.0
 40
0.0
 40
0.5506848849
 40
1.0
 40
1.0
 40
1.0
 40
1.0
 10
-23.0008470755
 20
-1.601695678
 30
0.0
 10
-23.0091119829
 20
-1.5969229769
 30
0.0
 10
-23.0233188197
 20
-1.5860503742
 30
0.0
 10
-23.0301222017
 20
-1.568682043
 30
0.0
 10
-23.0301345492
 20
-1.5608949312
 30
0.0
  0
SPLINE
  5
366
100
AcDbEntity
  8
RACCORDO
100
AcDbSpline
 62
250
  6
CONTINUOUS
 70
0
 71
3
 72
9
 73
5
 74
0
 42
0.0000001
 43
0.0000001
 44
0.0000000001
 40
0.0
 40
0.0
 40
0.0
 40
0.0
 40
0.5506908816
 40
1.0
 40
1.0
 40
1.0
 40
1.0
 10
-23.0008467525
 20
-0.2363705158
 30
0.0
 10
-23.0091162088
 20
-0.2315958354
 30
0.0
 10
-23.0233318076
 20
-0.2207175456
 30
0.0
 10
-23.0301289673
 20
-0.2033340089
 30
0.0
 10
-23.030134585
 20
-0.1955430565
 30
0.0
  0
SPLINE
  5
367
100
AcDbEntity
  8
RACCORDO
100
AcDbSpline
 62
250
  6
CONTINUOUS
 70
0
 71
3
 72
9
 73
5
 74
0
 42
0.0000001
 43
0.0000001
 44
0.0000000001
 40
0.0
 40
0.0
 40
0.0
 40
0.0
 40
0.5511846168
 40
1.0
 40
1.0
 40
1.0
 40
1.0
 10
-23.0008395488
 20
-0.2287162066
 30
0.0
 10
-23.0091053147
 20
-0.2239631128
 30
0.0
 10
-23.0233135783
 20
-0.2131475242
 30
0.0
 10
-23.0301291685
 20
-0.1958095593
 30
0.0
 10
-23.030133844
 20
-0.1880455181
 30
0.0
  0
SPLINE
  5
368
100
AcDbEntity
  8
RACCORDO
100
AcDbSpline
 62
250
  6
CONTINUOUS
 70
0
 71
3
 72
13
 73
9
 74
0
 42
0.0000001
 43
0.0000001
 44
0.0000000001
 40
0.0
 40
0.0
 40
0.0
 40
0.0
 40
0.2321123335
 40
0.3541164735
 40
0.4812141446
 40
0.6157869662
 40
0.752229682
 40
1.0
 40
1.0
 40
1.0
 40
1.0
 10
-23.2817205354
 20
-1.5835800891
 30
0.0
 10
-23.3126725108
 20
-1.565709089
 30
0.0
 10
-23.3603771671
 20
-1.5391578684
 30
0.0
 10
-23.4260787401
 20
-1.5052084482
 30
0.0
 10
-23.4767594032
 20
-1.4736775988
 30
0.0
 10
-23.5152046299
 20
-1.4244249159
 30
0.0
 10
-23.548595536
 20
-1.351703968
 30
0.0
 10
-23.5592872476
 20
-1.2914589595
 30
0.0
 10
-23.5570285704
 20
-1.2533741618
 30
0.0
  0
SPLINE
  5
369
100
AcDbEntity
  8
RACCORDO
100
AcDbSpline
 62
250
  6
CONTINUOUS
 70
0
 71
3
 72
14
 73
10
 74
0
 42
0.0000001
 43
0.0000001
 44
0.0000000001
 40
0.0
 40
0.0
 40
0.0
 40
0.0
 40
0.2525431662
 40
0.3885377739
 40
0.521637573
 40
0.585509321
 40
0.6478015889
 40
0.7690671508
 40
1.0
 40
1.0
 40
1.0
 40
1.0
 10
-15.2657237733
 20
7.8897967509
 30
0.0
 10
-15.2349840005
 20
7.91338653
 30
0.0
 10
-15.1789721036
 20
7.9390686369
 30
0.0
 10
-15.0998604357
 20
7.9524239433
 30
0.0
 10
-15.0479305085
 20
7.9488505691
 30
0.0
 10
-15.0103420798
 20
7.935259131
 30
0.0
 10
-14.9766303586
 20
7.9177139679
 30
0.0
 10
-14.9221986685
 20
7.8848064743
 30
0.0
 10
-14.8756226994
 20
7.857407283
 30
0.0
 10
-14.8449379787
 20
7.8396900819
 30
0.0
  0
SPLINE
  5
36A
100
AcDbEntity
  8
RACCORDO
100
AcDbSpline
 62
250
  6
CONTINUOUS
 70
0
 71
3
 72
16
 73
12
 74
0
 42
0.0000001
 43
0.0000001
 44
0.0000000001
 40
0.0
 40
0.0
 40
0.0
 40
0.0
 40
0.1368913416
 40
0.2681482295
 40
0.3927983553
 40
0.5079684203
 40
0.5625903084
 40
0.6171373333
 40
0.7309355822
 40
0.8579063015
 40
1.0
 40
1.0
 40
1.0
 40
1.0
 10
-14.8449379785
 20
7.8396900827
 30
0.0
 10
-14.8303971061
 20
7.8312944199
 30
0.0
 10
-14.8018591247
 20
7.8149873675
 30
0.0
 10
-14.7597748121
 20
7.7913384474
 30
0.0
 10
-14.7200085714
 20
7.7698464886
 30
0.0
 10
-14.6894487483
 20
7.7486717381
 30
0.0
 10
-14.6759161565
 20
7.7240864417
 30
0.0
 10
-14.6707229642
 20
7.6968576682
 30
0.0
 10
-14.6788256628
 20
7.6600929043
 30
0.0
 10
-14.705808007
 20
7.6207821571
 30
0.0
 10
-14.7314028893
 20
7.5993686938
 30
0.0
 10
-14.7458261003
 20
7.5895844967
 30
0.0
  0
SPLINE
  5
36B
100
AcDbEntity
  8
RACCORDO
100
AcDbSpline
 62
250
  6
CONTINUOUS
 70
0
 71
3
 72
13
 73
9
 74
0
 42
0.0000001
 43
0.0000001
 44
0.0000000001
 40
0.0
 40
0.0
 40
0.0
 40
0.0
 40
0.3126565036
 40
0.5954722966
 40
0.7171027576
 40
0.8233362
 40
0.9159155058
 40
1.0
 40
1.0
 40
1.0
 40
1.0
 10
-22.7155623347
 20
2.8351486556
 30
0.0
 10
-22.6798406062
 20
2.7774311279
 30
0.0
 10
-22.6000784624
 20
2.6744369803
 30
0.0
 10
-22.4786124893
 20
2.5737905846
 30
0.0
 10
-22.3782512865
 20
2.5253711047
 30
0.0
 10
-22.3101430527
 20
2.5083247492
 30
0.0
 10
-22.2477715223
 20
2.5100050568
 30
0.0
 10
-22.2112494212
 20
2.5250007607
 30
0.0
 10
-22.1961355287
 20
2.5352381278
 30
0.0
  0
SPLINE
  5
36C
100
AcDbEntity
  8
RACCORDO
100
AcDbSpline
 62
250
  6
CONTINUOUS
 70
0
 71
3
 72
13
 73
9
 74
0
 42
0.0000001
 43
0.0000001
 44
0.0000000001
 40
0.0
 40
0.0
 40
0.0
 40
0.0
 40
0.251725961
 40
0.3874917068
 40
0.5221368079
 40
0.6502335983
 40
0.7710900014
 40
1.0
 40
1.0
 40
1.0
 40
1.0
 10
-15.3218323218
 20
7.9460428527
 30
0.0
 10
-15.2825435819
 20
7.972698698
 30
0.0
 10
-15.2130838155
 20
8.0012447054
 30
0.0
 10
-15.1156095671
 20
8.0165649469
 30
0.0
 10
-15.0399936133
 20
8.0156891955
 30
0.0
 10
-14.9686714639
 20
8.0015462062
 30
0.0
 10
-14.883647553
 20
7.9711623327
 30
0.0
 10
-14.8244048917
 20
7.9415529526
 30
0.0
 10
-14.787015214
 20
7.9199648134
 30
0.0
  0
SPLINE
  5
36D
100
AcDbEntity
  8
RACCORDO
100
AcDbSpline
 62
250
  6
CONTINUOUS
 70
0
 71
3
 72
11
 73
7
 74
0
 42
0.0000001
 43
0.0000001
 44
0.0000000001
 40
0.0
 40
0.0
 40
0.0
 40
0.0
 40
0.2788034572
 40
0.5302793796
 40
0.7643614058
 40
1.0
 40
1.0
 40
1.0
 40
1.0
 10
-15.0187064006
 20
7.5988659813
 30
0.0
 10
-14.9955173162
 20
7.5854771553
 30
0.0
 10
-14.9489431221
 20
7.563836207
 30
0.0
 10
-14.8760975238
 20
7.5492722369
 30
0.0
 10
-14.8059943023
 20
7.5567430979
 30
0.0
 10
-14.7645537968
 20
7.5768584501
 30
0.0
 10
-14.7458349308
 20
7.5895774052
 30
0.0
  0
SPLINE
  5
36E
100
AcDbEntity
  8
RACCORDO
100
AcDbSpline
 62
250
  6
CONTINUOUS
 70
0
 71
3
 72
9
 73
5
 74
0
 42
0.0000001
 43
0.0000001
 44
0.0000000001
 40
0.0
 40
0.0
 40
0.0
 40
0.0
 40
0.5249121122
 40
1.0
 40
1.0
 40
1.0
 40
1.0
 10
-15.2657269588
 20
7.8897724028
 30
0.0
 10
-15.2401485653
 20
7.8271793744
 30
0.0
 10
-15.1706146225
 20
7.7159579989
 30
0.0
 10
-15.0717055517
 20
7.6294675664
 30
0.0
 10
-15.0187064006
 20
7.5988659813
 30
0.0
  0
SPLINE
  5
36F
100
AcDbEntity
  8
RACCORDO
100
AcDbSpline
 62
250
  6
CONTINUOUS
 70
0
 71
3
 72
15
 73
11
 74
0
 42
0.0000001
 43
0.0000001
 44
0.0000000001
 40
0.0
 40
0.0
 40
0.0
 40
0.0
 40
0.3399769999
 40
0.5028728919
 40
0.6518206768
 40
0.7805018366
 40
0.8836264361
 40
0.9572917329
 40
0.9824407682
 40
1.0
 40
1.0
 40
1.0
 40
1.0
 10
-22.9506901714
 20
2.5528796369
 30
0.0
 10
-22.8877846191
 20
2.5250918391
 30
0.0
 10
-22.7957227048
 20
2.4817082448
 30
0.0
 10
-22.6785730715
 20
2.4211800263
 30
0.0
 10
-22.6005850321
 20
2.3780631067
 30
0.0
 10
-22.5344559212
 20
2.3384893253
 30
0.0
 10
-22.4831194796
 20
2.3041644225
 30
0.0
 10
-22.4507240758
 20
2.2789560205
 30
0.0
 10
-22.4345207144
 20
2.2619002721
 30
0.0
 10
-22.4296024278
 20
2.254610258
 30
0.0
 10
-22.4283495715
 20
2.251286721
 30
0.0
  0
SPLINE
  5
370
100
AcDbEntity
  8
RACCORDO
100
AcDbSpline
 62
250
  6
CONTINUOUS
 70
0
 71
3
 72
9
 73
5
 74
0
 42
0.0000001
 43
0.0000001
 44
0.0000000001
 40
0.0
 40
0.0
 40
0.0
 40
0.0
 40
0.4803224067
 40
1.0
 40
1.0
 40
1.0
 40
1.0
 10
-22.1961357911
 20
2.53523795
 30
0.0
 10
-22.2451473102
 20
2.5019876724
 30
0.0
 10
-22.3351931398
 20
2.4149182052
 30
0.0
 10
-22.4011023615
 20
2.3092837549
 30
0.0
 10
-22.4283495715
 20
2.251286721
 30
0.0
  0
SPLINE
  5
371
100
AcDbEntity
  8
RACCORDO
100
AcDbSpline
 62
250
  6
CONTINUOUS
 70
0
 71
3
 72
10
 73
6
 74
0
 42
0.0000001
 43
0.0000001
 44
0.0000000001
 40
0.0
 40
0.0
 40
0.0
 40
0.0
 40
0.2301688636
 40
0.4758951809
 40
1.0
 40
1.0
 40
1.0
 40
1.0
 10
-23.6332950755
 20
0.136455688
 30
0.0
 10
-23.632767703
 20
0.3312174941
 30
0.0
 10
-23.6029909192
 20
0.7341834513
 30
0.0
 10
-23.4411783466
 20
1.5659914738
 30
0.0
 10
-23.2146300807
 20
2.1828463202
 30
0.0
 10
-23.0253025311
 20
2.5838852705
 30
0.0
  0
SPLINE
  5
372
100
AcDbEntity
  8
RACCORDO
100
AcDbSpline
 62
250
  6
CONTINUOUS
 70
0
 71
3
 72
9
 73
5
 74
0
 42
0.0000001
 43
0.0000001
 44
0.0000000001
 40
0.0
 40
0.0
 40
0.0
 40
0.0
 40
0.5193380678
 40
1.0
 40
1.0
 40
1.0
 40
1.0
 10
-22.9506901714
 20
2.5528796369
 30
0.0
 10
-22.9225638745
 20
2.6104867118
 30
0.0
 10
-22.8552942198
 20
2.715349035
 30
0.0
 10
-22.7647167635
 20
2.8019192777
 30
0.0
 10
-22.7155620186
 20
2.8351481448
 30
0.0
  0
SPLINE
  5
373
100
AcDbEntity
  8
RACCORDO
100
AcDbSpline
 62
250
  6
CONTINUOUS
 70
0
 71
3
 72
11
 73
7
 74
0
 42
0.0000001
 43
0.0000001
 44
0.0000000001
 40
0.0
 40
0.0
 40
0.0
 40
0.0
 40
0.2961869203
 40
0.4384254342
 40
0.5731033497
 40
1.0
 40
1.0
 40
1.0
 40
1.0
 10
-23.5570163186
 20
0.1194524348
 30
0.0
 10
-23.4992092983
 20
0.1213117287
 30
0.0
 10
-23.4131172015
 20
0.1156713208
 30
0.0
 10
-23.3035424712
 20
0.0904072732
 30
0.0
 10
-23.1753287926
 20
0.0451250556
 30
0.0
 10
-23.0724294325
 20
-0.0269489502
 30
0.0
 10
-23.0417761172
 20
-0.1044692743
 30
0.0
  0
SPLINE
  5
374
100
AcDbEntity
  8
RACCORDO
100
AcDbSpline
 62
250
  6
CONTINUOUS
 70
0
 71
3
 72
9
 73
5
 74
0
 42
0.0000001
 43
0.0000001
 44
0.0000000001
 40
0.0
 40
0.0
 40
0.0
 40
0.0
 40
0.2550678124
 40
1.0
 40
1.0
 40
1.0
 40
1.0
 10
-23.0417761172
 20
-0.1044692743
 30
0.0
 10
-23.0401481625
 20
-0.1085862704
 30
0.0
 10
-23.0343269545
 20
-0.124941655
 30
0.0
 10
-23.0308609573
 20
-0.1421486891
 30
0.0
 10
-23.0297898955
 20
-0.1550339356
 30
0.0
  0
SPLINE
  5
375
100
AcDbEntity
  8
RACCORDO
100
AcDbSpline
 62
250
  6
CONTINUOUS
 70
0
 71
3
 72
9
 73
5
 74
0
 42
0.0000001
 43
0.0000001
 44
0.0000000001
 40
0.0
 40
0.0
 40
0.0
 40
0.0
 40
0.5123777711
 40
1.0
 40
1.0
 40
1.0
 40
1.0
 10
-22.4283471044
 20
2.2512801727
 30
0.0
 10
-22.5539802315
 20
1.9848863715
 30
0.0
 10
-22.7678911667
 20
1.4495466189
 30
0.0
 10
-22.9100343843
 20
0.8903066732
 30
0.0
 10
-22.9578972167
 20
0.6141212291
 30
0.0
  0
SPLINE
  5
376
100
AcDbEntity
  8
RACCORDO
100
AcDbSpline
 62
250
  6
CONTINUOUS
 70
0
 71
3
 72
30
 73
26
 74
0
 42
0.0000001
 43
0.0000001
 44
0.0000000001
 40
0.0
 40
0.0
 40
0.0
 40
0.0
 40
0.0589782405
 40
0.0861098328
 40
0.1117692114
 40
0.1361488215
 40
0.1595224831
 40
0.18224444
 40
0.2047253303
 40
0.227397802
 40
0.250676667
 40
0.2749234997
 40
0.3004243805
 40
0.3273798193
 40
0.3559088969
 40
0.3860560852
 40
0.417800363
 40
0.4856897977
 40
0.5585380926
 40
0.6347587355
 40
0.712476515
 40
0.789696479
 40
0.8644631231
 40
0.9350219917
 40
1.0
 40
1.0
 40
1.0
 40
1.0
 10
-23.6333022846
 20
0.1288013818
 30
0.0
 10
-24.1134548126
 20
0.3833336998
 30
0.0
 10
-24.8493625779
 20
0.6984233703
 30
0.0
 10
-25.8527318658
 20
0.9391516015
 30
0.0
 10
-26.5614606629
 20
1.018603867
 30
0.0
 10
-27.2400337544
 20
1.0006903508
 30
0.0
 10
-27.88175912
 20
0.884772254
 30
0.0
 10
-28.4796963886
 20
0.6714081426
 30
0.0
 10
-29.0271189022
 20
0.3626093467
 30
0.0
 10
-29.5177452649
 20
-0.0382487092
 30
0.0
 10
-29.9464038577
 20
-0.5263166235
 30
0.0
 10
-30.309087804
 20
-1.0959725935
 30
0.0
 10
-30.6026715405
 20
-1.741151412
 30
0.0
 10
-30.8249507652
 20
-2.4553261548
 30
0.0
 10
-30.9741959324
 20
-3.2316073977
 30
0.0
 10
-31.0492740642
 20
-4.062649315
 30
0.0
 10
-31.0497668252
 20
-5.2598187946
 30
0.0
 10
-30.8534231776
 20
-6.8436226727
 30
0.0
 10
-30.3389855095
 20
-8.780736419
 30
0.0
 10
-29.5597615458
 20
-10.7249614112
 30
0.0
 10
-28.5451406957
 20
-12.602875374
 30
0.0
 10
-27.3334097547
 20
-14.3438431231
 30
0.0
 10
-25.9699138601
 20
-15.8824459679
 30
0.0
 10
-24.5062372924
 20
-17.1606441733
 30
0.0
 10
-23.4497368656
 20
-17.8390001178
 30
0.0
 10
-22.9180273262
 20
-18.1142491363
 30
0.0
  0
LINE
  5
377
100
AcDbEntity
  8
RACCORDO
100
AcDbLine
 62
250
  6
CONTINUOUS
 10
-23.0008395488
 20
-0.2287162066
 30
0.0
 11
-23.0008467525
 21
-0.2363705158
 31
0.0
  0
SPLINE
  5
378
100
AcDbEntity
  8
RACCORDO
100
AcDbSpline
 62
250
  6
CONTINUOUS
 70
0
 71
3
 72
11
 73
7
 74
0
 42
0.0000001
 43
0.0000001
 44
0.0000000001
 40
0.0
 40
0.0
 40
0.0
 40
0.0
 40
0.2299725181
 40
0.475531754
 40
0.7335115499
 40
1.0
 40
1.0
 40
1.0
 40
1.0
 10
-23.5570163186
 20
0.1194524348
 30
0.0
 10
-23.5564502452
 20
0.3126570717
 30
0.0
 10
-23.5268079456
 20
0.7123687384
 30
0.0
 10
-23.4088334937
 20
1.3184173259
 30
0.0
 10
-23.2186464406
 20
1.9378660186
 30
0.0
 10
-23.0489387692
 20
2.345342206
 30
0.0
 10
-22.9531789357
 20
2.5477127158
 30
0.0
  0
SPLINE
  5
379
100
AcDbEntity
  8
RACCORDO
100
AcDbSpline
 62
250
  6
CONTINUOUS
 70
0
 71
3
 72
9
 73
5
 74
0
 42
0.0000001
 43
0.0000001
 44
0.0000000001
 40
0.0
 40
0.0
 40
0.0
 40
0.0
 40
0.2305953525
 40
1.0
 40
1.0
 40
1.0
 40
1.0
 10
-23.1756557549
 20
-1.3102129589
 30
0.0
 10
-23.201615032
 20
-1.295224913
 30
0.0
 10
-23.3209584677
 20
-1.2424405501
 30
0.0
 10
-23.458821077
 20
-1.2344379419
 30
0.0
 10
-23.557028021
 20
-1.2533745808
 30
0.0
  0
SPLINE
  5
37A
100
AcDbEntity
  8
RACCORDO
100
AcDbSpline
 62
250
  6
CONTINUOUS
 70
0
 71
3
 72
9
 73
5
 74
0
 42
0.0000001
 43
0.0000001
 44
0.0000000001
 40
0.0
 40
0.0
 40
0.0
 40
0.0
 40
0.24435423
 40
1.0
 40
1.0
 40
1.0
 40
1.0
 10
-22.1443304044
 20
2.528593301
 30
0.0
 10
-22.148567662
 20
2.5257153378
 30
0.0
 10
-22.1657363765
 20
2.5136855107
 30
0.0
 10
-22.1822235605
 20
2.5006898365
 30
0.0
 10
-22.1942876603
 20
2.4904251555
 30
0.0
  0
SPLINE
  5
37B
100
AcDbEntity
  8
RACCORDO
100
AcDbSpline
 62
250
  6
CONTINUOUS
 70
0
 71
3
 72
9
 73
5
 74
0
 42
0.0000001
 43
0.0000001
 44
0.0000000001
 40
0.0
 40
0.0
 40
0.0
 40
0.0
 40
0.2392899044
 40
1.0
 40
1.0
 40
1.0
 40
1.0
 10
-22.1942876603
 20
2.4904251555
 30
0.0
 10
-22.2148410705
 20
2.4729373859
 30
0.0
 10
-22.2960603686
 20
2.3944262994
 30
0.0
 10
-22.3590246526
 20
2.297908375
 30
0.0
 10
-22.3956266835
 20
2.22031772
 30
0.0
  0
SPLINE
  5
37C
100
AcDbEntity
  8
RACCORDO
100
AcDbSpline
 62
250
  6
CONTINUOUS
 70
0
 71
3
 72
23
 73
19
 74
0
 42
0.0000001
 43
0.0000001
 44
0.0000000001
 40
0.0
 40
0.0
 40
0.0
 40
0.0
 40
0.072264387
 40
0.1405858751
 40
0.2050063507
 40
0.2658266587
 40
0.3235354437
 40
0.3788437639
 40
0.4326648038
 40
0.4860498017
 40
0.5400934503
 40
0.5958258499
 40
0.6541219956
 40
0.7156490965
 40
0.7808542883
 40
0.8499745514
 40
0.9230590938
 40
1.0
 40
1.0
 40
1.0
 40
1.0
 10
-23.0253025159
 20
2.5838852623
 30
0.0
 10
-23.3402494146
 20
2.7537386397
 30
0.0
 10
-23.9680778027
 20
3.0573233567
 30
0.0
 10
-24.9236568265
 20
3.4053826639
 30
0.0
 10
-25.8579209231
 20
3.6296028747
 30
0.0
 10
-26.7613425058
 20
3.7271448569
 30
0.0
 10
-27.6248428506
 20
3.696187613
 30
0.0
 10
-28.43911604
 20
3.5360351983
 30
0.0
 10
-29.1947144471
 20
3.2475058109
 30
0.0
 10
-29.8823687065
 20
2.8335107842
 30
0.0
 10
-30.4937561664
 20
2.2992079131
 30
0.0
 10
-31.0220501155
 20
1.6514223958
 30
0.0
 10
-31.4620996874
 20
0.89806911
 30
0.0
 10
-31.8101616741
 20
0.047669874
 30
0.0
 10
-32.0633903866
 20
-0.8907950505
 30
0.0
 10
-32.2197453522
 20
-1.9077560501
 30
0.0
 10
-32.2780782225
 20
-2.9928478394
 30
0.0
 10
-32.2519844604
 20
-3.7363006429
 30
0.0
 10
-32.223656789
 20
-4.1162317915
 30
0.0
  0
SPLINE
  5
37D
100
AcDbEntity
  8
RACCORDO
100
AcDbSpline
 62
250
  6
CONTINUOUS
 70
0
 71
3
 72
9
 73
5
 74
0
 42
0.0000001
 43
0.0000001
 44
0.0000000001
 40
0.0
 40
0.0
 40
0.0
 40
0.0
 40
0.4850864123
 40
1.0
 40
1.0
 40
1.0
 40
1.0
 10
-32.223656789
 20
-4.1162317915
 30
0.0
 10
-32.1726606857
 20
-4.8001922832
 30
0.0
 10
-31.9679802332
 20
-6.2036695833
 30
0.0
 10
-31.5994221935
 20
-7.5719873183
 30
0.0
 10
-31.3735180491
 20
-8.2640833808
 30
0.0
  0
SPLINE
  5
37E
100
AcDbEntity
  8
RACCORDO
100
AcDbSpline
 62
250
  6
CONTINUOUS
 70
0
 71
3
 72
9
 73
5
 74
0
 42
0.0000001
 43
0.0000001
 44
0.0000000001
 40
0.0
 40
0.0
 40
0.0
 40
0.0
 40
0.5193540477
 40
1.0
 40
1.0
 40
1.0
 40
1.0
 10
-23.0221730678
 20
2.5904424016
 30
0.0
 10
-22.9922832849
 20
2.6517815264
 30
0.0
 10
-22.9208028077
 20
2.7634672486
 30
0.0
 10
-22.8244795499
 20
2.8556913226
 30
0.0
 10
-22.7722066221
 20
2.8911211599
 30
0.0
  0
SPLINE
  5
37F
100
AcDbEntity
  8
RACCORDO
100
AcDbSpline
 62
250
  6
CONTINUOUS
 70
0
 71
3
 72
9
 73
5
 74
0
 42
0.0000001
 43
0.0000001
 44
0.0000000001
 40
0.0
 40
0.0
 40
0.0
 40
0.0
 40
0.5115913111
 40
1.0
 40
1.0
 40
1.0
 40
1.0
 10
-22.3956426432
 20
2.2203275427
 30
0.0
 10
-22.516771211
 20
1.9632065445
 30
0.0
 10
-22.7245625471
 20
1.4463742327
 30
0.0
 10
-22.8663147417
 20
0.9072280028
 30
0.0
 10
-22.9160121653
 20
0.6404733665
 30
0.0
  0
SPLINE
  5
380
100
AcDbEntity
  8
RACCORDO
100
AcDbSpline
 62
250
  6
CONTINUOUS
 70
0
 71
3
 72
29
 73
25
 74
0
 42
0.0000001
 43
0.0000001
 44
0.0000000001
 40
0.0
 40
0.0
 40
0.0
 40
0.0
 40
0.0587610908
 40
0.0858647137
 40
0.1115444784
 40
0.1359789694
 40
0.1594239905
 40
0.1822055295
 40
0.2047038443
 40
0.2273235696
 40
0.2504586626
 40
0.2744596749
 40
0.2996124482
 40
0.3261260669
 40
0.354134291
 40
0.4147656408
 40
0.4814057793
 40
0.5531534352
 40
0.6286201239
 40
0.7061109462
 40
0.7837773812
 40
0.859758926
 40
0.932317037
 40
1.0
 40
1.0
 40
1.0
 40
1.0
 10
-22.9180273262
 20
-18.1142491363
 30
0.0
 10
-22.4531409673
 20
-18.3549059319
 30
0.0
 10
-21.7415397432
 20
-18.6527665697
 30
0.0
 10
-20.7727444075
 20
-18.8817474501
 30
0.0
 10
-20.0872785747
 20
-18.95900029
 30
0.0
 10
-19.4299875956
 20
-18.9451202027
 30
0.0
 10
-18.80689699
 20
-18.8397329522
 30
0.0
 10
-18.2242407244
 20
-18.6431576082
 30
0.0
 10
-17.6880892634
 20
-18.3571249683
 30
0.0
 10
-17.2041199845
 20
-17.9845230104
 30
0.0
 10
-16.7772222107
 20
-17.5294359197
 30
0.0
 10
-16.4111697656
 20
-16.996837251
 30
0.0
 10
-16.1090347371
 20
-16.3920630155
 30
0.0
 10
-15.8729892789
 20
-15.7208836676
 30
0.0
 10
-15.6427830795
 20
-14.7193402489
 30
0.0
 10
-15.5422545083
 20
-13.3310863177
 30
0.0
 10
-15.7011375912
 20
-11.5592158448
 30
0.0
 10
-16.1292383769
 20
-9.6973305522
 30
0.0
 10
-16.8112990875
 20
-7.8105684554
 30
0.0
 10
-17.7232810513
 20
-5.9648731148
 30
0.0
 10
-18.8329436972
 20
-4.225466442
 30
0.0
 10
-20.1012746749
 20
-2.6536748524
 30
0.0
 10
-21.4831289885
 20
-1.3051160018
 30
0.0
 10
-22.4894565782
 20
-0.5558194512
 30
0.0
 10
-23.0008467525
 20
-0.2363705158
 30
0.0
  0
SPLINE
  5
381
100
AcDbEntity
  8
RACCORDO
100
AcDbSpline
 62
250
  6
CONTINUOUS
 70
0
 71
3
 72
9
 73
5
 74
0
 42
0.0000001
 43
0.0000001
 44
0.0000000001
 40
0.0
 40
0.0
 40
0.0
 40
0.0
 40
0.5180341159
 40
1.0
 40
1.0
 40
1.0
 40
1.0
 10
-18.7485624861
 20
-0.8729886243
 30
0.0
 10
-19.3043851485
 20
-0.2595223771
 30
0.0
 10
-20.4494016773
 20
0.8619594149
 30
0.0
 10
-21.7397218456
 20
1.8166284261
 30
0.0
 10
-22.3956266835
 20
2.22031772
 30
0.0
  0
SPLINE
  5
382
100
AcDbEntity
  8
RACCORDO
100
AcDbSpline
 62
7
  6
CONTINUOUS
 70
0
 71
3
 72
15
 73
11
 74
0
 42
0.0000001
 43
0.0000001
 44
0.0000000001
 40
0.0
 40
0.0
 40
0.0
 40
0.0
 40
0.1418181392
 40
0.2777062577
 40
0.4078955076
 40
0.5329528757
 40
0.6536556049
 40
0.7709975826
 40
0.8860608288
 40
1.0
 40
1.0
 40
1.0
 40
1.0
 10
32.2765942422
 20
6.7475372779
 30
0.0
 10
32.2765942422
 20
6.2011086413
 30
0.0
 10
32.2314755098
 20
5.1303492699
 30
0.0
 10
32.0161265836
 20
3.5709802904
 30
0.0
 10
31.6523481749
 20
2.1052290892
 30
0.0
 10
31.1384504718
 20
0.7468809585
 30
0.0
 10
30.4734501842
 20
-0.4890891885
 30
0.0
 10
29.6586295198
 20
-1.5852546295
 30
0.0
 10
28.700487164
 20
-2.5221112464
 30
0.0
 10
27.972248644
 20
-3.0289645015
 30
0.0
 10
27.5920606825
 20
-3.2484802656
 30
0.0
  0
SPLINE
  5
383
100
AcDbEntity
  8
RACCORDO
100
AcDbSpline
 62
7
  6
CONTINUOUS
 70
0
 71
3
 72
17
 73
13
 74
0
 42
0.0000001
 43
0.0000001
 44
0.0000000001
 40
0.0
 40
0.0
 40
0.0
 40
0.0
 40
0.0539014822
 40
0.1080116193
 40
0.1626317304
 40
0.2179753863
 40
0.3316547112
 40
0.4509178674
 40
0.5770230554
 40
0.7106357213
 40
0.8517996662
 40
1.0
 40
1.0
 40
1.0
 40
1.0
 10
7.0910701168
 20
32.2579893678
 30
0.0
 10
7.3469559849
 20
32.4057346611
 30
0.0
 10
7.8769976383
 20
32.6729620728
 30
0.0
 10
8.714753671
 20
32.9829038799
 30
0.0
 10
9.5891375467
 20
33.201234564
 30
0.0
 10
10.8051888165
 20
33.3714020024
 30
0.0
 10
12.3959080004
 20
33.3503823283
 30
0.0
 10
14.3368709899
 20
32.9761329929
 30
0.0
 10
16.2999782822
 20
32.27523798
 30
0.0
 10
18.2596532353
 20
31.2687325989
 30
0.0
 10
20.191157534
 20
29.9781834882
 30
0.0
 10
21.4160699212
 20
28.9658237149
 30
0.0
 10
22.0183418394
 20
28.4206026411
 30
0.0
  0
SPLINE
  5
384
100
AcDbEntity
  8
RACCORDO
100
AcDbSpline
 62
7
  6
CONTINUOUS
 70
0
 71
3
 72
15
 73
11
 74
0
 42
0.0000001
 43
0.0000001
 44
0.0000000001
 40
0.0
 40
0.0
 40
0.0
 40
0.0
 40
0.1208222891
 40
0.2451715826
 40
0.371963637
 40
0.5000039324
 40
0.6280436327
 40
0.754833975
 40
0.8791802553
 40
1.0
 40
1.0
 40
1.0
 40
1.0
 10
22.0384468144
 20
28.4023837016
 30
0.0
 10
22.6250510297
 20
27.870270504
 30
0.0
 10
23.7684077341
 20
26.7377358981
 30
0.0
 10
25.3591751743
 20
24.8868768127
 30
0.0
 10
26.8326700243
 20
22.8822746213
 30
0.0
 10
28.167192846
 20
20.7541287795
 30
0.0
 10
29.3429420529
 20
18.5343282543
 30
0.0
 10
30.3421993309
 20
16.2559677045
 30
0.0
 10
31.1496803222
 20
13.9529337312
 30
0.0
 10
31.5587631603
 20
12.3965169363
 30
0.0
 10
31.726272992
 20
11.6224607379
 30
0.0
  0
SPLINE
  5
385
100
AcDbEntity
  8
RACCORDO
100
AcDbSpline
 62
7
  6
CONTINUOUS
 70
0
 71
3
 72
9
 73
5
 74
0
 42
0.0000001
 43
0.0000001
 44
0.0000000001
 40
0.0
 40
0.0
 40
0.0
 40
0.0
 40
0.5125980741
 40
1.0
 40
1.0
 40
1.0
 40
1.0
 10
31.726272992
 20
11.6224607379
 30
0.0
 10
31.9038203342
 20
10.8020216065
 30
0.0
 10
32.1760015027
 20
9.184224102
 30
0.0
 10
32.2765942422
 20
7.545706493
 30
0.0
 10
32.2765942422
 20
6.7475372779
 30
0.0
  0
SPLINE
  5
386
100
AcDbEntity
  8
RACCORDO
100
AcDbSpline
 62
7
  6
CONTINUOUS
 70
0
 71
3
 72
9
 73
5
 74
0
 42
0.0000001
 43
0.0000001
 44
0.0000000001
 40
0.0
 40
0.0
 40
0.0
 40
0.0
 40
0.506481746
 40
1.0
 40
1.0
 40
1.0
 40
1.0
 10
5.3564194884
 20
-0.6313985703
 30
0.0
 10
5.6123298024
 20
-0.6252651328
 30
0.0
 10
6.1185927052
 20
-0.5569719017
 30
0.0
 10
6.5921787797
 20
-0.362200095
 30
0.0
 10
6.8081896207
 20
-0.2374781426
 30
0.0
  0
SPLINE
  5
387
100
AcDbEntity
  8
RACCORDO
100
AcDbSpline
 62
7
  6
CONTINUOUS
 70
0
 71
3
 72
33
 73
29
 74
0
 42
0.0000001
 43
0.0000001
 44
0.0000000001
 40
0.0
 40
0.0
 40
0.0
 40
0.0
 40
0.0214067338
 40
0.0433465063
 40
0.066259719
 40
0.0905194517
 40
0.1163693953
 40
0.1439528151
 40
0.1733227825
 40
0.2044601758
 40
0.2372876732
 40
0.2716811848
 40
0.3444500665
 40
0.4211952275
 40
0.4999992016
 40
0.5788032345
 40
0.6555485494
 40
0.7283176845
 40
0.7627113464
 40
0.7955390035
 40
0.8266765557
 40
0.8560466793
 40
0.8836302457
 40
0.9094803272
 40
0.9337401588
 40
0.9566534125
 40
0.9785932856
 40
1.0
 40
1.0
 40
1.0
 40
1.0
 10
10.7333792778
 20
-7.0356680602
 30
0.0
 10
10.9705795602
 20
-6.89871159
 30
0.0
 10
11.4277544817
 20
-6.5790933313
 30
0.0
 10
12.0333934431
 20
-5.9806031992
 30
0.0
 10
12.557442251
 20
-5.2639549882
 30
0.0
 10
12.9946593629
 20
-4.4348632998
 30
0.0
 10
13.3398286872
 20
-3.499895676
 30
0.0
 10
13.5884316465
 20
-2.467787928
 30
0.0
 10
13.7368846456
 20
-1.3486359135
 30
0.0
 10
13.7827832097
 20
-0.1537412833
 30
0.0
 10
13.7249969366
 20
1.1048145338
 30
0.0
 10
13.5055358482
 20
2.8839574538
 30
0.0
 10
12.966948999
 20
5.1824534274
 30
0.0
 10
11.953526184
 20
7.9292672222
 30
0.0
 10
10.5984279407
 20
10.6113168208
 30
0.0
 10
8.9531186967
 20
13.1258050892
 30
0.0
 10
7.0808940685
 20
15.3767652198
 30
0.0
 10
5.3595407559
 20
16.9923567135
 30
0.0
 10
3.928424846
 20
18.0719149253
 30
0.0
 10
2.8673349963
 20
18.7511832614
 30
0.0
 10
1.8095411423
 20
19.308827046
 30
0.0
 10
0.7660717862
 20
19.7397847522
 30
0.0
 10
-0.252082653
 20
20.0404894916
 30
0.0
 10
-1.2343871097
 20
20.2089954451
 30
0.0
 10
-2.1710156397
 20
20.2448482301
 30
0.0
 10
-3.0536735651
 20
20.1492848879
 30
0.0
 10
-3.8747894732
 20
19.9239841365
 30
0.0
 10
-4.3801623711
 20
19.6878399381
 30
0.0
 10
-4.6173624384
 20
19.550883592
 30
0.0
  0
SPLINE
  5
388
100
AcDbEntity
  8
RACCORDO
100
AcDbSpline
 62
7
  6
CONTINUOUS
 70
0
 71
3
 72
14
 73
10
 74
0
 42
0.0000001
 43
0.0000001
 44
0.0000000001
 40
0.0
 40
0.0
 40
0.0
 40
0.0
 40
0.269340002
 40
0.3977625924
 40
0.522625457
 40
0.6445611908
 40
0.7642886122
 40
0.8824905566
 40
1.0
 40
1.0
 40
1.0
 40
1.0
 10
5.3561638648
 20
-11.1978332244
 30
0.0
 10
6.1009946192
 20
-11.4885872702
 30
0.0
 10
7.239107556
 20
-11.8333322063
 30
0.0
 10
8.7760036921
 20
-12.0606052288
 30
0.0
 10
9.891259218
 20
-12.1069436169
 30
0.0
 10
10.9789741635
 20
-12.0279210415
 30
0.0
 10
12.029885249
 20
-11.8206472138
 30
0.0
 10
13.0331622351
 20
-11.4846679763
 30
0.0
 10
13.6635074897
 20
-11.1751803993
 30
0.0
 10
13.9656080676
 20
-11.0007513118
 30
0.0
  0
SPLINE
  5
389
100
AcDbEntity
  8
RACCORDO
100
AcDbSpline
 62
7
  6
CONTINUOUS
 70
0
 71
3
 72
9
 73
5
 74
0
 42
0.0000001
 43
0.0000001
 44
0.0000000001
 40
0.0
 40
0.0
 40
0.0
 40
0.0
 40
0.4971080041
 40
1.0
 40
1.0
 40
1.0
 40
1.0
 10
-6.435377666
 20
24.3325160305
 30
0.0
 10
-6.8447092681
 20
24.0961730935
 30
0.0
 10
-7.6261979148
 20
23.5442076688
 30
0.0
 10
-8.2963264791
 20
22.86215203
 30
0.0
 10
-8.6019298979
 20
22.4943939237
 30
0.0
  0
SPLINE
  5
38A
100
AcDbEntity
  8
ASSI
100
AcDbSpline
 62
7
  6
CONTINUOUS
 70
0
 71
3
 72
12
 73
8
 74
0
 42
0.0000001
 43
0.0000001
 44
0.0000000001
 40
0.0
 40
0.0
 40
0.0
 40
0.0
 40
0.306227018
 40
0.57506484
 40
0.8018059404
 40
0.9030484013
 40
1.0
 40
1.0
 40
1.0
 40
1.0
 10
-12.9638682379
 20
27.0701475021
 30
0.0
 10
-13.0012209715
 20
27.1118262734
 30
0.0
 10
-13.078735824
 20
27.1840962046
 30
0.0
 10
-13.2066338269
 20
27.2584271463
 30
0.0
 10
-13.3161548841
 20
27.2823763536
 30
0.0
 10
-13.3938636189
 20
27.2720871918
 30
0.0
 10
-13.4278345247
 20
27.2581485669
 30
0.0
 10
-13.4431814349
 20
27.2492916103
 30
0.0
  0
SPLINE
  5
38B
100
AcDbEntity
  8
RACCORDO
100
AcDbSpline
 62
7
  6
CONTINUOUS
 70
0
 71
3
 72
11
 73
7
 74
0
 42
0.0000001
 43
0.0000001
 44
0.0000000001
 40
0.0
 40
0.0
 40
0.0
 40
0.0
 40
0.2390661299
 40
0.491235087
 40
0.7479096903
 40
1.0
 40
1.0
 40
1.0
 40
1.0
 10
-9.7462860469
 20
21.5880802995
 30
0.0
 10
-9.7287795347
 20
21.4817989551
 30
0.0
 10
-9.6740200691
 20
21.2662691232
 30
0.0
 10
-9.5450723824
 20
20.953877865
 30
0.0
 10
-9.37297414
 20
20.6562485786
 30
0.0
 10
-9.2323647724
 20
20.474113644
 30
0.0
 10
-9.1565601316
 20
20.3895296263
 30
0.0
  0
SPLINE
  5
38C
100
AcDbEntity
  8
RACCORDO
100
AcDbSpline
 62
7
  6
CONTINUOUS
 70
0
 71
3
 72
16
 73
12
 74
0
 42
0.0000001
 43
0.0000001
 44
0.0000000001
 40
0.0
 40
0.0
 40
0.0
 40
0.0
 40
0.1467709604
 40
0.2961082991
 40
0.4423621527
 40
0.5802062114
 40
0.7054254181
 40
0.8157681154
 40
0.9121014541
 40
0.956654361
 40
1.0
 40
1.0
 40
1.0
 40
1.0
 10
-13.6162794378
 20
25.9062801658
 30
0.0
 10
-13.6947868019
 20
25.993879925
 30
0.0
 10
-13.8399137742
 20
26.182870033
 30
0.0
 10
-14.0157751578
 20
26.49190574
 30
0.0
 10
-14.1449275076
 20
26.8156675602
 30
0.0
 10
-14.2202200265
 20
27.1363747459
 30
0.0
 10
-14.2373102699
 20
27.4370288188
 30
0.0
 10
-14.1947707351
 20
27.7021645101
 30
0.0
 10
-14.1055532663
 20
27.8874017861
 30
0.0
 10
-14.0055984119
 20
27.9972707065
 30
0.0
 10
-13.9481474322
 20
28.0390718752
 30
0.0
 10
-13.9180601786
 20
28.0564389632
 30
0.0
  0
SPLINE
  5
38D
100
AcDbEntity
  8
ASSI
100
AcDbSpline
 62
7
  6
CONTINUOUS
 70
0
 71
3
 72
9
 73
5
 74
0
 42
0.0000001
 43
0.0000001
 44
0.0000000001
 40
0.0
 40
0.0
 40
0.0
 40
0.0
 40
0.5310374981
 40
1.0
 40
1.0
 40
1.0
 40
1.0
 10
-11.3667773786
 20
24.805675683
 30
0.0
 10
-11.3305653836
 20
24.765269766
 30
0.0
 10
-11.255610091
 20
24.6948857863
 30
0.0
 10
-11.1666032425
 20
24.6420290694
 30
0.0
 10
-11.1220689162
 20
24.6243483237
 30
0.0
  0
SPLINE
  5
38E
100
AcDbEntity
  8
RACCORDO
100
AcDbSpline
 62
7
  6
CONTINUOUS
 70
0
 71
3
 72
10
 73
6
 74
0
 42
0.0000001
 43
0.0000001
 44
0.0000000001
 40
0.0
 40
0.0
 40
0.0
 40
0.0
 40
0.2193015352
 40
0.5853968262
 40
1.0
 40
1.0
 40
1.0
 40
1.0
 10
-8.4962239401
 20
23.4945048086
 30
0.0
 10
-8.4468071265
 20
23.4964777826
 30
0.0
 10
-8.3140642983
 20
23.4861404629
 30
0.0
 10
-8.0977532511
 20
23.414131205
 30
0.0
 10
-7.945655544
 20
23.3230797234
 30
0.0
 10
-7.8696371489
 20
23.268642134
 30
0.0
  0
SPLINE
  5
38F
100
AcDbEntity
  8
RACCORDO
100
AcDbSpline
 62
7
  6
CONTINUOUS
 70
0
 71
3
 72
13
 73
9
 74
0
 42
0.0000001
 43
0.0000001
 44
0.0000000001
 40
0.0
 40
0.0
 40
0.0
 40
0.0
 40
0.3059030304
 40
0.5744843678
 40
0.6931667646
 40
0.802009569
 40
0.9031479131
 40
1.0
 40
1.0
 40
1.0
 40
1.0
 10
-12.366217331
 20
27.8127046749
 30
0.0
 10
-12.4595968819
 20
27.9168990555
 30
0.0
 10
-12.6529806311
 20
28.0974831871
 30
0.0
 10
-12.9310539446
 20
28.2586046846
 30
0.0
 10
-13.1500221191
 20
28.3221589346
 30
0.0
 10
-13.3007894045
 20
28.336158498
 30
0.0
 10
-13.4412026864
 20
28.3175456534
 30
0.0
 10
-13.5261410231
 20
28.2827219043
 30
0.0
 10
-13.564506788
 20
28.2605762599
 30
0.0
  0
SPLINE
  5
390
100
AcDbEntity
  8
ASSI
100
AcDbSpline
 62
7
  6
CONTINUOUS
 70
0
 71
3
 72
14
 73
10
 74
0
 42
0.0000001
 43
0.0000001
 44
0.0000000001
 40
0.0
 40
0.0
 40
0.0
 40
0.0
 40
0.0875553526
 40
0.1840011182
 40
0.294472225
 40
0.4198360149
 40
0.5578454002
 40
0.7042596771
 40
1.0
 40
1.0
 40
1.0
 40
1.0
 10
-11.2410175722
 20
24.4223942782
 30
0.0
 10
-11.2167353819
 20
24.4364079332
 30
0.0
 10
-11.1718408367
 20
24.4774924664
 30
0.0
 10
-11.1304242812
 20
24.5640597603
 30
0.0
 10
-11.1132911139
 20
24.6701716457
 30
0.0
 10
-11.1201576667
 20
24.7904041927
 30
0.0
 10
-11.1502796099
 20
24.9187317098
 30
0.0
 10
-11.2192694706
 20
25.0916364145
 30
0.0
 10
-11.298525605
 20
25.2119318392
 30
0.0
 10
-11.3617272827
 20
25.2824532713
 30
0.0
  0
SPLINE
  5
391
100
AcDbEntity
  8
ASSI
100
AcDbSpline
 62
7
  6
CONTINUOUS
 70
0
 71
3
 72
11
 73
7
 74
0
 42
0.0000001
 43
0.0000001
 44
0.0000000001
 40
0.0
 40
0.0
 40
0.0
 40
0.0
 40
0.2193482609
 40
0.4691797179
 40
0.7353254278
 40
1.0
 40
1.0
 40
1.0
 40
1.0
 10
-13.2088178298
 20
27.2513201228
 30
0.0
 10
-13.2164282432
 20
27.1993056711
 30
0.0
 10
-13.2133674363
 20
27.0851614807
 30
0.0
 10
-13.1681543151
 20
26.9137274963
 30
0.0
 10
-13.086662476
 20
26.7441717037
 30
0.0
 10
-13.0112523114
 20
26.640606836
 30
0.0
 10
-12.9689183337
 20
26.5933699138
 30
0.0
  0
SPLINE
  5
392
100
AcDbEntity
  8
RACCORDO
100
AcDbSpline
 62
250
  6
CONTINUOUS
 70
0
 71
3
 72
15
 73
11
 74
0
 42
0.0000001
 43
0.0000001
 44
0.0000000001
 40
0.0
 40
0.0
 40
0.0
 40
0.0
 40
0.1486019842
 40
0.2895017221
 40
0.422721572
 40
0.5486423178
 40
0.6680000624
 40
0.781937993
 40
0.8919871462
 40
1.0
 40
1.0
 40
1.0
 40
1.0
 10
31.837254414
 20
6.1351253879
 30
0.0
 10
31.837254414
 20
5.6012387091
 30
0.0
 10
31.7942530301
 20
4.5604175413
 30
0.0
 10
31.5893267353
 20
3.0531691733
 30
0.0
 10
31.247091872
 20
1.6542262689
 30
0.0
 10
30.7701903286
 20
0.3770211759
 30
0.0
 10
30.1622347042
 20
-0.7660385931
 30
0.0
 10
29.4279908598
 20
-1.7632932802
 30
0.0
 10
28.5742557105
 20
-2.6035492951
 30
0.0
 10
27.9281258616
 20
-3.0544403758
 30
0.0
 10
27.5920606825
 20
-3.2484802655
 30
0.0
  0
SPLINE
  5
393
100
AcDbEntity
  8
RACCORDO
100
AcDbSpline
 62
250
  6
CONTINUOUS
 70
0
 71
3
 72
20
 73
16
 74
0
 42
0.0000001
 43
0.0000001
 44
0.0000000001
 40
0.0
 40
0.0
 40
0.0
 40
0.0
 40
0.0466280243
 40
0.0939333577
 40
0.1425456889
 40
0.1930093132
 40
0.2457602036
 40
0.3011173448
 40
0.3592854937
 40
0.4203643973
 40
0.4843604779
 40
0.5511987086
 40
0.6926904842
 40
0.8431167666
 40
1.0
 40
1.0
 40
1.0
 40
1.0
 10
7.0910701168
 20
32.2579893677
 30
0.0
 10
7.3851695117
 20
32.4277987312
 30
0.0
 10
8.0042581437
 20
32.7259115503
 30
0.0
 10
8.9990276902
 20
33.0348663669
 30
0.0
 10
10.0548789725
 20
33.2052119198
 30
0.0
 10
11.1631847763
 20
33.2361242233
 30
0.0
 10
12.31562628
 20
33.128066615
 30
0.0
 10
13.503743384
 20
32.8824017976
 30
0.0
 10
14.7190008598
 20
32.5013561928
 30
0.0
 10
15.9526895859
 20
31.9879810121
 30
0.0
 10
17.1960217689
 20
31.346169675
 30
0.0
 10
18.8864966592
 20
30.3058209884
 30
0.0
 10
20.9622583354
 20
28.7055321653
 30
0.0
 10
23.300077175
 20
26.4120345061
 30
0.0
 10
24.7233503298
 20
24.678392665
 30
0.0
 10
25.4034322188
 20
23.7602105294
 30
0.0
  0
SPLINE
  5
394
100
AcDbEntity
  8
RACCORDO
100
AcDbSpline
 62
250
  6
CONTINUOUS
 70
0
 71
3
 72
11
 73
7
 74
0
 42
0.0000001
 43
0.0000001
 44
0.0000000001
 40
0.0
 40
0.0
 40
0.0
 40
0.0
 40
0.2662996495
 40
0.5237810807
 40
0.7692098809
 40
1.0
 40
1.0
 40
1.0
 40
1.0
 10
29.3885040012
 20
16.8579225188
 30
0.0
 10
29.7798794446
 20
15.9566864159
 30
0.0
 10
30.473911777
 20
14.1498578751
 30
0.0
 10
31.2464522611
 20
11.4145686194
 30
0.0
 10
31.7217527673
 20
8.74489778
 30
0.0
 10
31.837254414
 20
6.9866565487
 30
0.0
 10
31.837254414
 20
6.1351253879
 30
0.0
  0
SPLINE
  5
395
100
AcDbEntity
  8
0
100
AcDbSpline
 62
7
  6
CONTINUOUS
 70
0
 71
3
 72
25
 73
21
 74
0
 42
0.0000001
 43
0.0000001
 44
0.0000000001
 40
0.0
 40
0.0
 40
0.0
 40
0.0
 40
0.0213315402
 40
0.0428914558
 40
0.064896431
 40
0.0875407543
 40
0.1353154001
 40
0.187216165
 40
0.2436539788
 40
0.3046023084
 40
0.3696907733
 40
0.4382889942
 40
0.5095765022
 40
0.5826017198
 40
0.6563339458
 40
0.7297114734
 40
0.8016878621
 40
0.8712805813
 40
0.9376167915
 40
1.0
 40
1.0
 40
1.0
 40
1.0
 10
-0.1214190514
 20
28.093588516
 30
0.0
 10
0.130430678
 20
28.239003325
 30
0.0
 10
0.6561918688
 20
28.4991941354
 30
0.0
 10
1.4944276243
 20
28.7890063509
 30
0.0
 10
2.3793985532
 20
28.9777412332
 30
0.0
 10
3.6363475324
 20
29.0957195586
 30
0.0
 10
5.3122723849
 20
28.9726748073
 30
0.0
 10
7.3786218714
 20
28.4234405212
 30
0.0
 10
9.4969633477
 20
27.4873024114
 30
0.0
 10
11.6243416708
 20
26.1857429856
 30
0.0
 10
13.7177805928
 20
24.5468376458
 30
0.0
 10
15.7337382674
 20
22.6053014258
 30
0.0
 10
17.6298049354
 20
20.4022943567
 30
0.0
 10
19.3657465195
 20
17.9846536495
 30
0.0
 10
20.9045875443
 20
15.4039093039
 30
0.0
 10
22.2134940259
 20
12.7151038584
 30
0.0
 10
23.264572286
 20
9.9756100805
 30
0.0
 10
24.0353895598
 20
7.2435138173
 30
0.0
 10
24.509551534
 20
4.5772247195
 30
0.0
 10
24.6247652459
 20
2.8212029501
 30
0.0
 10
24.6247652459
 20
1.970724536
 30
0.0
  0
SPLINE
  5
396
100
AcDbEntity
  8
RACCORDO
100
AcDbSpline
 62
250
  6
CONTINUOUS
 70
0
 71
3
 72
9
 73
5
 74
0
 42
0.0000001
 43
0.0000001
 44
0.0000000001
 40
0.0
 40
0.0
 40
0.0
 40
0.0
 40
0.4963376287
 40
1.0
 40
1.0
 40
1.0
 40
1.0
 10
-4.6173627826
 20
19.5508841881
 30
0.0
 10
-4.8411171472
 20
19.4216937216
 30
0.0
 10
-5.2726893587
 20
19.1266141892
 30
0.0
 10
-5.655239513
 20
18.7705153075
 30
0.0
 10
-5.8340674998
 20
18.5787821549
 30
0.0
  0
SPLINE
  5
397
100
AcDbEntity
  8
RACCORDO
100
AcDbSpline
 62
7
  6
CONTINUOUS
 70
0
 71
3
 72
9
 73
5
 74
0
 42
0.0000001
 43
0.0000001
 44
0.0000000001
 40
0.0
 40
0.0
 40
0.0
 40
0.0
 40
0.4926849236
 40
1.0
 40
1.0
 40
1.0
 40
1.0
 10
4.3964786989
 20
20.1812260452
 30
0.0
 10
4.3964625216
 20
20.0961156854
 30
0.0
 10
4.4282984605
 20
19.9232841644
 30
0.0
 10
4.4991138143
 20
19.7643179762
 30
0.0
 10
4.5429326602
 20
19.6884215089
 30
0.0
  0
SPLINE
  5
398
100
AcDbEntity
  8
RACCORDO
100
AcDbSpline
 62
250
  6
CONTINUOUS
 70
0
 71
3
 72
9
 73
5
 74
0
 42
0.0000001
 43
0.0000001
 44
0.0000000001
 40
0.0
 40
0.0
 40
0.0
 40
0.0
 40
0.2620052704
 40
1.0
 40
1.0
 40
1.0
 40
1.0
 10
3.0580084197
 20
12.3811348418
 30
0.0
 10
2.9570281955
 20
12.4394395577
 30
0.0
 10
2.5662554897
 20
12.6523335789
 30
0.0
 10
2.1528423163
 20
12.8254163434
 30
0.0
 10
1.8386542777
 20
12.9211171907
 30
0.0
  0
SPLINE
  5
399
100
AcDbEntity
  8
RACCORDO
100
AcDbSpline
 62
250
  6
CONTINUOUS
 70
0
 71
3
 72
13
 73
9
 74
0
 42
0.0000001
 43
0.0000001
 44
0.0000000001
 40
0.0
 40
0.0
 40
0.0
 40
0.0
 40
0.2760980545
 40
0.5309969585
 40
0.6521022765
 40
0.7699582278
 40
0.8855573937
 40
1.0
 40
1.0
 40
1.0
 40
1.0
 10
5.3565482638
 20
-7.3181088633
 30
0.0
 10
5.8414108631
 20
-7.4767548718
 30
0.0
 10
6.7989383072
 20
-7.7131782963
 30
0.0
 10
8.0105096818
 20
-7.7836248942
 30
0.0
 10
8.9196971141
 20
-7.6876674465
 30
0.0
 10
9.560702967
 20
-7.5450894458
 30
0.0
 10
10.168494414
 20
-7.3312177576
 30
0.0
 10
10.5502535761
 20
-7.1414051624
 30
0.0
 10
10.733377687
 20
-7.0356653051
 30
0.0
  0
SPLINE
  5
39A
100
AcDbEntity
  8
RACCORDO
100
AcDbSpline
 62
7
  6
CONTINUOUS
 70
0
 71
3
 72
11
 73
7
 74
0
 42
0.0000001
 43
0.0000001
 44
0.0000000001
 40
0.0
 40
0.0
 40
0.0
 40
0.0
 40
0.2107651833
 40
0.4411774472
 40
0.7034286836
 40
1.0
 40
1.0
 40
1.0
 40
1.0
 10
11.7175443753
 20
25.8203257846
 30
0.0
 10
11.7368389998
 20
25.8314763072
 30
0.0
 10
11.7825066902
 20
25.8464284675
 30
0.0
 10
11.8580286227
 20
25.8424993131
 30
0.0
 10
11.9376473035
 20
25.8149017499
 30
0.0
 10
11.9884143531
 20
25.7838704
 30
0.0
 10
12.013746768
 20
25.7653890774
 30
0.0
  0
SPLINE
  5
39B
100
AcDbEntity
  8
RACCORDO
100
AcDbSpline
 62
7
  6
CONTINUOUS
 70
0
 71
3
 72
13
 73
9
 74
0
 42
0.0000001
 43
0.0000001
 44
0.0000000001
 40
0.0
 40
0.0
 40
0.0
 40
0.0
 40
0.2803616583
 40
0.5375555106
 40
0.6586095966
 40
0.7754181121
 40
0.8888672351
 40
1.0
 40
1.0
 40
1.0
 40
1.0
 10
5.3563042788
 20
-6.2956497764
 30
0.0
 10
5.8732427176
 20
-6.5256254059
 30
0.0
 10
6.8972800023
 20
-6.8984095463
 30
0.0
 10
8.2144654267
 20
-7.1326161433
 30
0.0
 10
9.215120867
 20
-7.1513426545
 30
0.0
 10
9.9226596298
 20
-7.0856486174
 30
0.0
 10
10.5978483299
 20
-6.9407201862
 30
0.0
 10
11.0269774926
 20
-6.7904644887
 30
0.0
 10
11.2333972721
 20
-6.702777508
 30
0.0
  0
SPLINE
  5
39C
100
AcDbEntity
  8
RACCORDO
100
AcDbSpline
 62
7
  6
CONTINUOUS
 70
0
 71
3
 72
9
 73
5
 74
0
 42
0.0000001
 43
0.0000001
 44
0.0000000001
 40
0.0
 40
0.0
 40
0.0
 40
0.0
 40
0.2480413701
 40
1.0
 40
1.0
 40
1.0
 40
1.0
 10
-4.0748860505
 20
19.8206494432
 30
0.0
 10
-4.1370755493
 20
19.7739016868
 30
0.0
 10
-4.3835449674
 20
19.5798268761
 30
0.0
 10
-4.6125360562
 20
19.3636746318
 30
0.0
 10
-4.773407328
 20
19.1911940449
 30
0.0
  0
SPLINE
  5
39D
100
AcDbEntity
  8
RACCORDO
100
AcDbSpline
 62
250
  6
CONTINUOUS
 70
0
 71
3
 72
13
 73
9
 74
0
 42
0.0000001
 43
0.0000001
 44
0.0000000001
 40
0.0
 40
0.0
 40
0.0
 40
0.0
 40
0.1142986285
 40
0.2291927707
 40
0.3464815044
 40
0.4676316938
 40
0.7239051823
 40
1.0
 40
1.0
 40
1.0
 40
1.0
 10
-8.6019958486
 20
22.4943160596
 30
0.0
 10
-8.6420074111
 20
22.4461544026
 30
0.0
 10
-8.712489728
 20
22.3409627009
 30
0.0
 10
-8.7837387589
 20
22.1636576643
 30
0.0
 10
-8.8186187973
 20
21.9719634161
 30
0.0
 10
-8.8158082081
 20
21.6995483552
 30
0.0
 10
-8.7155441467
 20
21.3487464427
 30
0.0
 10
-8.5545525063
 20
21.1006487781
 30
0.0
 10
-8.4570313908
 20
20.9850406474
 30
0.0
  0
SPLINE
  5
39E
100
AcDbEntity
  8
0
100
AcDbSpline
 62
7
  6
CONTINUOUS
 70
0
 71
3
 72
12
 73
8
 74
0
 42
0.0000001
 43
0.0000001
 44
0.0000000001
 40
0.0
 40
0.0
 40
0.0
 40
0.0
 40
0.1078702351
 40
0.2189038865
 40
0.4545915037
 40
0.7141139287
 40
1.0
 40
1.0
 40
1.0
 40
1.0
 10
0.7565771369
 20
13.5469607891
 30
0.0
 10
0.8750528663
 20
13.590703644
 30
0.0
 10
1.1224057504
 20
13.6617315931
 30
0.0
 10
1.6508350562
 20
13.7362052679
 30
0.0
 10
2.36705354
 20
13.6934453736
 30
0.0
 10
3.2518338462
 20
13.4420405418
 30
0.0
 10
3.8288044603
 20
13.1609106483
 30
0.0
 10
4.1186685915
 20
12.9935467318
 30
0.0
  0
SPLINE
  5
39F
100
AcDbEntity
  8
RACCORDO
100
AcDbSpline
 62
250
  6
CONTINUOUS
 70
0
 71
3
 72
19
 73
15
 74
0
 42
0.0000001
 43
0.0000001
 44
0.0000000001
 40
0.0
 40
0.0
 40
0.0
 40
0.0
 40
0.0433537817
 40
0.0879009113
 40
0.1346802682
 40
0.1844758731
 40
0.2377845946
 40
0.2948324199
 40
0.3556120263
 40
0.4199242518
 40
0.5575001438
 40
0.7035835693
 40
0.8529527893
 40
1.0
 40
1.0
 40
1.0
 40
1.0
 10
6.8081856092
 20
-0.237471195
 30
0.0
 10
6.957666679
 20
-0.151162667
 30
0.0
 10
7.2432358308
 20
0.0561844043
 30
0.0
 10
7.6068641353
 20
0.4546854112
 30
0.0
 10
7.9035398135
 20
0.9353211063
 30
0.0
 10
8.1296589598
 20
1.490135203
 30
0.0
 10
8.2830469782
 20
2.111034898
 30
0.0
 10
8.362204153
 20
2.7893559299
 30
0.0
 10
8.3664553698
 20
3.5158359523
 30
0.0
 10
8.2701389374
 20
4.5585483169
 30
0.0
 10
7.9580731677
 20
5.9153138875
 30
0.0
 10
7.3250972999
 20
7.5249082431
 30
0.0
 10
6.4596500279
 20
9.0653955621
 30
0.0
 10
5.7441923967
 20
10.0098233184
 30
0.0
 10
5.356738884
 20
10.4487260111
 30
0.0
  0
SPLINE
  5
3A0
100
AcDbEntity
  8
RACCORDO
100
AcDbSpline
 62
250
  6
CONTINUOUS
 70
0
 71
3
 72
9
 73
5
 74
0
 42
0.0000001
 43
0.0000001
 44
0.0000000001
 40
0.0
 40
0.0
 40
0.0
 40
0.0
 40
0.2594310428
 40
1.0
 40
1.0
 40
1.0
 40
1.0
 10
4.2773625607
 20
11.5130375925
 30
0.0
 10
4.1786731664
 20
11.5969411023
 30
0.0
 10
3.7917887794
 20
11.9125610004
 30
0.0
 10
3.378233508
 20
12.1962408892
 30
0.0
 10
3.0580084197
 20
12.3811348418
 30
0.0
  0
SPLINE
  5
3A1
100
AcDbEntity
  8
RACCORDO
100
AcDbSpline
 62
7
  6
CONTINUOUS
 70
0
 71
3
 72
25
 73
21
 74
0
 42
0.0000001
 43
0.0000001
 44
0.0000000001
 40
0.0
 40
0.0
 40
0.0
 40
0.0
 40
0.0213208474
 40
0.0428455744
 40
0.0647685363
 40
0.0872664758
 40
0.1345148315
 40
0.1855500459
 40
0.2408230806
 40
0.3003993
 40
0.3640330874
 40
0.431237839
 40
0.5013453821
 40
0.5735561151
 40
0.646982535
 40
0.7206888295
 40
0.7937280033
 40
0.8651802382
 40
0.9341867024
 40
1.0
 40
1.0
 40
1.0
 40
1.0
 10
20.3295659533
 20
-7.3262745335
 30
0.0
 10
20.566207581
 20
-7.1896321316
 30
0.0
 10
21.0256257304
 20
-6.8859736382
 30
0.0
 10
21.6598464924
 20
-6.3475628371
 30
0.0
 10
22.2376339333
 20
-5.7281161805
 30
0.0
 10
22.9399979726
 20
-4.7837116045
 30
0.0
 10
23.6594569271
 20
-3.4005715255
 30
0.0
 10
24.2405072756
 20
-1.5111573949
 30
0.0
 10
24.548398529
 20
0.599768589
 30
0.0
 10
24.5794617711
 20
2.8927105683
 30
0.0
 10
24.3345501485
 20
5.3255162231
 30
0.0
 10
23.8187587946
 20
7.8527931791
 30
0.0
 10
23.0420529197
 20
10.4270085721
 30
0.0
 10
22.0192265353
 20
12.9994097967
 30
0.0
 10
20.7697561473
 20
15.5210897018
 30
0.0
 10
19.31743881
 20
17.9440090648
 30
0.0
 10
17.6899853866
 20
20.2219843984
 30
0.0
 10
15.9182740939
 20
22.3116732145
 30
0.0
 10
14.0362767862
 20
24.1731575254
 30
0.0
 10
12.6951734114
 20
25.2682526735
 30
0.0
 10
12.013746768
 20
25.7653890774
 30
0.0
  0
SPLINE
  5
3A2
100
AcDbEntity
  8
RACCORDO
100
AcDbSpline
 62
250
  6
CONTINUOUS
 70
0
 71
3
 72
11
 73
7
 74
0
 42
0.0000001
 43
0.0000001
 44
0.0000000001
 40
0.0
 40
0.0
 40
0.0
 40
0.0
 40
0.2370039187
 40
0.4995714748
 40
0.7625447358
 40
1.0
 40
1.0
 40
1.0
 40
1.0
 10
1.5730841792
 20
22.3995609576
 30
0.0
 10
1.5730889144
 20
22.5158941301
 30
0.0
 10
1.6160819763
 20
22.7612871513
 30
0.0
 10
1.7669225873
 20
23.1068723984
 30
0.0
 10
1.9885596881
 20
23.4122035141
 30
0.0
 10
2.1792560562
 20
23.5734586862
 30
0.0
 10
2.2801909604
 20
23.6317437335
 30
0.0
  0
SPLINE
  5
3A3
100
AcDbEntity
  8
ASSI
100
AcDbSpline
 62
7
  6
CONTINUOUS
 70
0
 71
3
 72
12
 73
8
 74
0
 42
0.0000001
 43
0.0000001
 44
0.0000000001
 40
0.0
 40
0.0
 40
0.0
 40
0.0
 40
0.306227018
 40
0.57506484
 40
0.8018059404
 40
0.9030484013
 40
1.0
 40
1.0
 40
1.0
 40
1.0
 10
-11.7203307692
 20
24.6015383864
 30
0.0
 10
-11.6829780356
 20
24.5598596151
 30
0.0
 10
-11.605463183
 20
24.4875896839
 30
0.0
 10
-11.4775651802
 20
24.4132587422
 30
0.0
 10
-11.368044123
 20
24.3893095349
 30
0.0
 10
-11.2903353882
 20
24.3995986968
 30
0.0
 10
-11.2563644823
 20
24.4135373216
 30
0.0
 10
-11.2410175722
 20
24.4223942782
 30
0.0
  0
SPLINE
  5
3A4
100
AcDbEntity
  8
RACCORDO
100
AcDbSpline
 62
7
  6
CONTINUOUS
 70
0
 71
3
 72
10
 73
6
 74
0
 42
0.0000001
 43
0.0000001
 44
0.0000000001
 40
0.0
 40
0.0
 40
0.0
 40
0.0
 40
0.2853026924
 40
0.547752546
 40
1.0
 40
1.0
 40
1.0
 40
1.0
 10
-8.1426051711
 20
23.0031473739
 30
0.0
 10
-8.2000442853
 20
23.0495149345
 30
0.0
 10
-8.3160362193
 20
23.1321346052
 30
0.0
 10
-8.5458220435
 20
23.2509248715
 30
0.0
 10
-8.7328567741
 20
23.2950355834
 30
0.0
 10
-8.8497773307
 20
23.2903675119
 30
0.0
  0
SPLINE
  5
3A5
100
AcDbEntity
  8
RACCORDO
100
AcDbSpline
 62
250
  6
CONTINUOUS
 70
0
 71
3
 72
20
 73
16
 74
0
 42
0.0000001
 43
0.0000001
 44
0.0000000001
 40
0.0
 40
0.0
 40
0.0
 40
0.0
 40
0.0481616254
 40
0.0952175975
 40
0.1422471652
 40
0.1903330378
 40
0.2404420093
 40
0.2933421518
 40
0.3495680148
 40
0.4094223102
 40
0.4729999052
 40
0.5402202035
 40
0.6844499693
 40
0.8391470173
 40
1.0
 40
1.0
 40
1.0
 40
1.0
 10
5.3568684681
 20
-0.3034259061
 30
0.0
 10
5.5053051271
 20
-0.2803549891
 30
0.0
 10
5.7956760044
 20
-0.2096562246
 30
0.0
 10
6.2023608792
 20
-0.0260513869
 30
0.0
 10
6.5669629651
 20
0.2310076172
 30
0.0
 10
6.8842997917
 20
0.5576538477
 30
0.0
 10
7.1506442326
 20
0.94904773
 30
0.0
 10
7.3632891009
 20
1.399884646
 30
0.0
 10
7.5202921193
 20
1.9045835373
 30
0.0
 10
7.6202829281
 20
2.4572013731
 30
0.0
 10
7.6624480138
 20
3.051408724
 30
0.0
 10
7.6405211702
 20
3.9100420246
 30
0.0
 10
7.460518156
 20
5.0432870878
 30
0.0
 10
7.0330373149
 20
6.4163114942
 30
0.0
 10
6.6198992491
 20
7.313115399
 30
0.0
 10
6.3822514574
 20
7.754970718
 30
0.0
  0
SPLINE
  5
3A6
100
AcDbEntity
  8
0
100
AcDbSpline
 62
7
  6
CONTINUOUS
 70
0
 71
3
 72
9
 73
5
 74
0
 42
0.0000001
 43
0.0000001
 44
0.0000000001
 40
0.0
 40
0.0
 40
0.0
 40
0.0
 40
0.2403040946
 40
1.0
 40
1.0
 40
1.0
 40
1.0
 10
5.8334025359
 20
4.2468553938
 30
0.0
 10
5.8334025359
 20
4.3178525916
 30
0.0
 10
5.8258223135
 20
4.6132825458
 30
0.0
 10
5.7896145775
 20
4.9077164493
 30
0.0
 10
5.7491099455
 20
5.1284815432
 30
0.0
  0
SPLINE
  5
3A7
100
AcDbEntity
  8
RACCORDO
100
AcDbSpline
 62
250
  6
CONTINUOUS
 70
0
 71
3
 72
19
 73
15
 74
0
 42
0.0000001
 43
0.0000001
 44
0.0000000001
 40
0.0
 40
0.0
 40
0.0
 40
0.0
 40
0.1375550233
 40
0.2652492714
 40
0.3261537064
 40
0.3855427891
 40
0.4438634874
 40
0.5016063181
 40
0.5592876101
 40
0.6174264359
 40
0.6765212762
 40
0.7370308083
 40
0.8636910376
 40
1.0
 40
1.0
 40
1.0
 40
1.0
 10
5.356573136
 20
-8.0513389936
 30
0.0
 10
5.8263615706
 20
-8.190468461
 30
0.0
 10
6.7537737083
 20
-8.3937401584
 30
0.0
 10
7.9222269498
 20
-8.4393647672
 30
0.0
 10
8.8011057091
 20
-8.3372345559
 30
0.0
 10
9.4228072885
 20
-8.1961241241
 30
0.0
 10
10.0141754657
 20
-7.9898819922
 30
0.0
 10
10.5723272539
 20
-7.719331773
 30
0.0
 10
11.0945465037
 20
-7.3858352856
 30
0.0
 10
11.5782503328
 20
-6.9909879159
 30
0.0
 10
12.021198405
 20
-6.5367829144
 30
0.0
 10
12.5627862117
 20
-5.8448548274
 30
0.0
 10
13.1261851499
 20
-4.8308615446
 30
0.0
 10
13.4287281985
 20
-3.9393515595
 30
0.0
 10
13.5505565123
 20
-3.4693658753
 30
0.0
  0
SPLINE
  5
3A8
100
AcDbEntity
  8
RACCORDO
100
AcDbSpline
 62
250
  6
CONTINUOUS
 70
0
 71
3
 72
12
 73
8
 74
0
 42
0.0000001
 43
0.0000001
 44
0.0000000001
 40
0.0
 40
0.0
 40
0.0
 40
0.0
 40
0.2396314565
 40
0.5022043522
 40
0.7635025284
 40
0.8861699709
 40
1.0
 40
1.0
 40
1.0
 40
1.0
 10
0.865977398
 20
22.3995609576
 30
0.0
 10
0.8591371783
 20
22.5760715294
 30
0.0
 10
0.9104212346
 20
22.9490536365
 30
0.0
 10
1.1226987926
 20
23.4747669009
 30
0.0
 10
1.3989758124
 20
23.8696833704
 30
0.0
 10
1.6646640326
 20
24.1241384035
 30
0.0
 10
1.8077788709
 20
24.2253304715
 30
0.0
 10
1.8804446645
 20
24.2672880319
 30
0.0
  0
SPLINE
  5
3A9
100
AcDbEntity
  8
RACCORDO
100
AcDbSpline
 62
250
  6
CONTINUOUS
 70
0
 71
3
 72
30
 73
26
 74
0
 42
0.0000001
 43
0.0000001
 44
0.0000000001
 40
0.0
 40
0.0
 40
0.0
 40
0.0
 40
0.0278270886
 40
0.0542815094
 40
0.0794840829
 40
0.1036078951
 40
0.1268859245
 40
0.1496047582
 40
0.1720895361
 40
0.1946828303
 40
0.2177190791
 40
0.2415010389
 40
0.2921698948
 40
0.3194792597
 40
0.348200134
 40
0.3783608651
 40
0.4099448604
 40
0.477089359
 40
0.5488734186
 40
0.624116916
 40
0.7013984442
 40
0.7791654942
 40
0.8558353339
 40
0.9298930496
 40
1.0
 40
1.0
 40
1.0
 40
1.0
 10
5.3565603727
 20
-10.6021915759
 30
0.0
 10
5.7295397366
 20
-10.7303470522
 30
0.0
 10
6.4691786174
 20
-10.9472073226
 30
0.0
 10
7.5793748006
 20
-11.150525482
 30
0.0
 10
8.6536582551
 20
-11.2216687571
 30
0.0
 10
9.6837562196
 20
-11.1594319809
 30
0.0
 10
10.6614789793
 20
-10.9636278396
 30
0.0
 10
11.5786368538
 20
-10.6352426524
 30
0.0
 10
12.4272425792
 20
-10.1766379775
 30
0.0
 10
13.1998560839
 20
-9.5917790817
 30
0.0
 10
13.8900555119
 20
-8.885848932
 30
0.0
 10
14.7100788602
 20
-7.7691325927
 30
0.0
 10
15.3227026521
 20
-6.4453270923
 30
0.0
 10
15.7341207943
 20
-4.9887800677
 30
0.0
 10
15.9508059859
 20
-3.78454516
 30
0.0
 10
16.0658285265
 20
-2.5061171977
 30
0.0
 10
16.0832132063
 20
-0.677850975
 30
0.0
 10
15.8358295305
 20
1.7344059681
 30
0.0
 10
15.1508780565
 20
4.6982714519
 30
0.0
 10
14.0923960936
 20
7.7024925945
 30
0.0
 10
12.6922130612
 20
10.6569452559
 30
0.0
 10
10.9922863501
 20
13.4732237622
 30
0.0
 10
9.0434849694
 20
16.0669457192
 30
0.0
 10
6.9046748314
 20
18.3599853142
 30
0.0
 10
5.3424860314
 20
19.6866588142
 30
0.0
 10
4.5429326602
 20
20.2765330886
 30
0.0
  0
SPLINE
  5
3AA
100
AcDbEntity
  8
RACCORDO
100
AcDbSpline
 62
250
  6
CONTINUOUS
 70
0
 71
3
 72
13
 73
9
 74
0
 42
0.0000001
 43
0.0000001
 44
0.0000000001
 40
0.0
 40
0.0
 40
0.0
 40
0.0
 40
0.1148601354
 40
0.2389939064
 40
0.5029527937
 40
0.7652596
 40
0.8875095247
 40
1.0
 40
1.0
 40
1.0
 40
1.0
 10
5.6497857373
 20
22.0909177373
 30
0.0
 10
5.5768870296
 20
22.0488258455
 30
0.0
 10
5.4324977283
 20
21.9482932397
 30
0.0
 10
5.1604711454
 20
21.6983705022
 30
0.0
 10
4.8694853303
 20
21.315699011
 30
0.0
 10
4.6635898064
 20
20.8827584892
 30
0.0
 10
4.5682099898
 20
20.5303492693
 30
0.0
 10
4.5462767277
 20
20.3589066365
 30
0.0
 10
4.5429326602
 20
20.2765330721
 30
0.0
  0
SPLINE
  5
3AB
100
AcDbEntity
  8
RACCORDO
100
AcDbSpline
 62
250
  6
CONTINUOUS
 70
0
 71
3
 72
25
 73
21
 74
0
 42
0.0000001
 43
0.0000001
 44
0.0000000001
 40
0.0
 40
0.0
 40
0.0
 40
0.0
 40
0.0658135607
 40
0.134819946
 40
0.2062719701
 40
0.2793112413
 40
0.3530175085
 40
0.4264439334
 40
0.498654663
 40
0.5687621875
 40
0.6359668581
 40
0.6996006245
 40
0.7591769267
 40
0.8144500268
 40
0.8654852099
 40
0.9127335576
 40
0.9352314504
 40
0.9571544551
 40
0.978679163
 40
1.0
 40
1.0
 40
1.0
 40
1.0
 10
5.6497857373
 20
22.0909177374
 30
0.0
 10
6.331215189
 20
21.5937792848
 30
0.0
 10
7.672319366
 20
20.4986809975
 30
0.0
 10
9.5543167198
 20
18.6371968704
 30
0.0
 10
11.3260281042
 20
16.5475111845
 30
0.0
 10
12.9534875959
 20
14.2695417563
 30
0.0
 10
14.4057996706
 20
11.8466174443
 30
0.0
 10
15.6552674287
 20
9.3249364236
 30
0.0
 10
16.6780942471
 20
6.7525353222
 30
0.0
 10
17.4548006457
 20
4.1783209161
 30
0.0
 10
17.9705845509
 20
1.6510436488
 30
0.0
 10
18.2154953023
 20
-0.7817618838
 30
0.0
 10
18.184439244
 20
-3.0747053383
 30
0.0
 10
17.8765557246
 20
-5.185635397
 30
0.0
 10
17.2954968433
 20
-7.075046079
 30
0.0
 10
16.5760464746
 20
-8.4581921698
 30
0.0
 10
15.8736657585
 20
-9.4025825819
 30
0.0
 10
15.2958971007
 20
-10.0220480225
 30
0.0
 10
14.6616551746
 20
-10.5604326653
 30
0.0
 10
14.2022546458
 20
-10.8641176827
 30
0.0
 10
13.9656076417
 20
-11.0007505742
 30
0.0
  0
SPLINE
  5
3AC
100
AcDbEntity
  8
0
100
AcDbSpline
 62
7
  6
CONTINUOUS
 70
0
 71
3
 72
15
 73
11
 74
0
 42
0.0000001
 43
0.0000001
 44
0.0000000001
 40
0.0
 40
0.0
 40
0.0
 40
0.0
 40
0.1485931153
 40
0.2895052587
 40
0.4227207502
 40
0.5486424152
 40
0.6680004921
 40
0.7819378041
 40
0.8919870857
 40
1.0
 40
1.0
 40
1.0
 40
1.0
 10
24.6247652459
 20
1.970724536
 30
0.0
 10
24.6247652459
 20
1.4368699103
 30
0.0
 10
24.5817399453
 20
0.3960384486
 30
0.0
 10
24.3768513191
 20
-1.1112119786
 30
0.0
 10
24.0345892262
 20
-2.5101809961
 30
0.0
 10
23.5577123991
 20
-3.7873822172
 30
0.0
 10
22.9497473885
 20
-4.9304409916
 30
0.0
 10
22.2154898028
 20
-5.9276832666
 30
0.0
 10
21.3617631347
 20
-6.7679434047
 30
0.0
 10
20.7156368309
 20
-7.218841307
 30
0.0
 10
20.3795715145
 20
-7.4128811176
 30
0.0
  0
SPLINE
  5
3AD
100
AcDbEntity
  8
RACCORDO
100
AcDbSpline
 62
250
  6
CONTINUOUS
 70
0
 71
3
 72
11
 73
7
 74
0
 42
0.0000001
 43
0.0000001
 44
0.0000000001
 40
0.0
 40
0.0
 40
0.0
 40
0.0
 40
0.3426434638
 40
0.617959793
 40
0.8301033665
 40
1.0
 40
1.0
 40
1.0
 40
1.0
 10
-6.4772650572
 20
18.7759860435
 30
0.0
 10
-6.4845740695
 20
18.7621077198
 30
0.0
 10
-6.496596254
 20
18.73639616
 30
0.0
 10
-6.5072621338
 20
18.6997346332
 30
0.0
 10
-6.5086205843
 20
18.6691476654
 30
0.0
 10
-6.5012454663
 20
18.6522193043
 30
0.0
 10
-6.4960546022
 20
18.6464276465
 30
0.0
  0
SPLINE
  5
3AE
100
AcDbEntity
  8
RACCORDO
100
AcDbSpline
 62
250
  6
CONTINUOUS
 70
0
 71
3
 72
11
 73
7
 74
0
 42
0.0000001
 43
0.0000001
 44
0.0000000001
 40
0.0
 40
0.0
 40
0.0
 40
0.0
 40
0.342357812
 40
0.6179154996
 40
0.8301279783
 40
1.0
 40
1.0
 40
1.0
 40
1.0
 10
-8.4570313908
 20
20.9850406474
 30
0.0
 10
-8.4643343239
 20
20.9711738664
 30
0.0
 10
-8.4763404971
 20
20.9454595331
 30
0.0
 10
-8.4870330431
 20
20.9088009823
 30
0.0
 10
-8.4883808417
 20
20.8782056958
 30
0.0
 10
-8.48102195
 20
20.8612633111
 30
0.0
 10
-8.4758250324
 20
20.8554785787
 30
0.0
  0
SPLINE
  5
3AF
100
AcDbEntity
  8
RACCORDO
100
AcDbSpline
 62
250
  6
CONTINUOUS
 70
0
 71
3
 72
9
 73
5
 74
0
 42
0.0000001
 43
0.0000001
 44
0.0000000001
 40
0.0
 40
0.0
 40
0.0
 40
0.0
 40
0.5487230909
 40
1.0
 40
1.0
 40
1.0
 40
1.0
 10
-9.5513256882
 20
19.4972195133
 30
0.0
 10
-9.5914163157
 20
19.5396464778
 30
0.0
 10
-9.6733427352
 20
19.6092727693
 30
0.0
 10
-9.7758485063
 20
19.6497901958
 30
0.0
 10
-9.8236380907
 20
19.6543432911
 30
0.0
  0
SPLINE
  5
3B0
100
AcDbEntity
  8
RACCORDO
100
AcDbSpline
 62
250
  6
CONTINUOUS
 70
0
 71
3
 72
11
 73
7
 74
0
 42
0.0000001
 43
0.0000001
 44
0.0000000001
 40
0.0
 40
0.0
 40
0.0
 40
0.0
 40
0.2965377637
 40
0.5587952747
 40
0.7892340025
 40
1.0
 40
1.0
 40
1.0
 40
1.0
 10
5.6497857373
 20
22.0909177374
 30
0.0
 10
5.6244758815
 20
22.109382602
 30
0.0
 10
5.5737536163
 20
22.1403913322
 30
0.0
 10
5.4942075426
 20
22.1679918323
 30
0.0
 10
5.4187478138
 20
22.1719726328
 30
0.0
 10
5.3730966302
 20
22.1570924838
 30
0.0
 10
5.3538002175
 20
22.1459795607
 30
0.0
  0
SPLINE
  5
3B1
100
AcDbEntity
  8
RACCORDO
100
AcDbSpline
 62
250
  6
CONTINUOUS
 70
0
 71
3
 72
11
 73
7
 74
0
 42
0.0000001
 43
0.0000001
 44
0.0000000001
 40
0.0
 40
0.0
 40
0.0
 40
0.0
 40
0.2895033608
 40
0.5490812919
 40
0.7822485008
 40
1.0
 40
1.0
 40
1.0
 40
1.0
 10
4.5429326602
 20
20.2765330721
 30
0.0
 10
4.5210273923
 20
20.289180899
 30
0.0
 10
4.4812719372
 20
20.3165894542
 30
0.0
 10
4.4337015277
 20
20.3665002215
 30
0.0
 10
4.4035717685
 20
20.4217527059
 30
0.0
 10
4.3965361409
 20
20.4614097363
 30
0.0
 10
4.3965094449
 20
20.4804350596
 30
0.0
  0
SPLINE
  5
3B2
100
AcDbEntity
  8
RACCORDO
100
AcDbSpline
 62
250
  6
CONTINUOUS
 70
0
 71
3
 72
11
 73
7
 74
0
 42
0.0000001
 43
0.0000001
 44
0.0000000001
 40
0.0
 40
0.0
 40
0.0
 40
0.0
 40
0.2286846224
 40
0.4911165424
 40
0.7584655372
 40
1.0
 40
1.0
 40
1.0
 40
1.0
 10
1.8804446645
 20
24.2672880319
 30
0.0
 10
1.9354385848
 20
24.2439033753
 30
0.0
 10
2.0421512142
 20
24.1673083933
 30
0.0
 10
2.1672813163
 20
24.0114545209
 30
0.0
 10
2.2545670027
 20
23.8278835381
 30
0.0
 10
2.2801909604
 20
23.6948609176
 30
0.0
 10
2.2801909604
 20
23.6317437335
 30
0.0
  0
SPLINE
  5
3B3
100
AcDbEntity
  8
RACCORDO
100
AcDbSpline
 62
7
  6
CONTINUOUS
 70
0
 71
3
 72
11
 73
7
 74
0
 42
0.0000001
 43
0.0000001
 44
0.0000000001
 40
0.0
 40
0.0
 40
0.0
 40
0.0
 40
0.2286846221
 40
0.4911165422
 40
0.7584655371
 40
1.0
 40
1.0
 40
1.0
 40
1.0
 10
8.2444056952
 20
27.9417593719
 30
0.0
 10
8.2993996151
 20
27.9183747147
 30
0.0
 10
8.406112244
 20
27.8417797326
 30
0.0
 10
8.5312423466
 20
27.6859258607
 30
0.0
 10
8.6185280332
 20
27.502354878
 30
0.0
 10
8.6441519911
 20
27.3693322575
 30
0.0
 10
8.6441519911
 20
27.3062150734
 30
0.0
  0
SPLINE
  5
3B4
100
AcDbEntity
  8
RACCORDO
100
AcDbSpline
 62
250
  6
CONTINUOUS
 70
0
 71
3
 72
11
 73
7
 74
0
 42
0.0000001
 43
0.0000001
 44
0.0000000001
 40
0.0
 40
0.0
 40
0.0
 40
0.0
 40
0.2372480803
 40
0.5000000195
 40
0.7627519481
 40
1.0
 40
1.0
 40
1.0
 40
1.0
 10
0.865977398
 20
22.3995609576
 30
0.0
 10
0.9161730058
 20
22.3705786497
 30
0.0
 10
1.0328975837
 20
22.3282761543
 30
0.0
 10
1.2195308004
 20
22.3080507168
 30
0.0
 10
1.4061640095
 20
22.3282761602
 30
0.0
 10
1.5228885772
 20
22.3705786536
 30
0.0
 10
1.5730841792
 20
22.3995609576
 30
0.0
  0
SPLINE
  5
3B5
100
AcDbEntity
  8
RACCORDO
100
AcDbSpline
 62
250
  6
CONTINUOUS
 70
0
 71
3
 72
9
 73
5
 74
0
 42
0.0000001
 43
0.0000001
 44
0.0000000001
 40
0.0
 40
0.0
 40
0.0
 40
0.0
 40
0.2531253158
 40
1.0
 40
1.0
 40
1.0
 40
1.0
 10
-5.8340674998
 20
18.5787821549
 30
0.0
 10
-5.8369881441
 20
18.5756507416
 30
0.0
 10
-5.8489618959
 20
18.563694018
 30
0.0
 10
-5.8627018308
 20
18.5534989801
 30
0.0
 10
-5.8736387346
 20
18.5471729495
 30
0.0
  0
SPLINE
  5
3B6
100
AcDbEntity
  8
RACCORDO
100
AcDbSpline
 62
7
  6
CONTINUOUS
 70
0
 71
3
 72
9
 73
5
 74
0
 42
0.0000001
 43
0.0000001
 44
0.0000000001
 40
0.0
 40
0.0
 40
0.0
 40
0.0
 40
0.253129267
 40
1.0
 40
1.0
 40
1.0
 40
1.0
 10
-4.773407328
 20
19.1911940449
 30
0.0
 10
-4.7763326237
 20
19.1880576445
 30
0.0
 10
-4.7883259127
 20
19.1760827017
 30
0.0
 10
-4.80209097
 20
19.1658751925
 30
0.0
 10
-4.8130480854
 20
19.1595444477
 30
0.0
  0
SPLINE
  5
3B7
100
AcDbEntity
  8
RACCORDO
100
AcDbSpline
 62
250
  6
CONTINUOUS
 70
0
 71
3
 72
9
 73
5
 74
0
 42
0.0000001
 43
0.0000001
 44
0.0000000001
 40
0.0
 40
0.0
 40
0.0
 40
0.0
 40
0.2472774611
 40
1.0
 40
1.0
 40
1.0
 40
1.0
 10
-5.8340674998
 20
18.5787821549
 30
0.0
 10
-5.8392210245
 20
18.5758065743
 30
0.0
 10
-5.8603799221
 20
18.5643297343
 30
0.0
 10
-5.8827394877
 20
18.5550875181
 30
0.0
 10
-5.8999436887
 20
18.5494167357
 30
0.0
  0
SPLINE
  5
3B8
100
AcDbEntity
  8
RACCORDO
100
AcDbSpline
 62
250
  6
CONTINUOUS
 70
0
 71
3
 72
9
 73
5
 74
0
 42
0.0000001
 43
0.0000001
 44
0.0000000001
 40
0.0
 40
0.0
 40
0.0
 40
0.0
 40
0.2469199918
 40
1.0
 40
1.0
 40
1.0
 40
1.0
 10
-5.8999436887
 20
18.5494167357
 30
0.0
 10
-5.9057898885
 20
18.5474897339
 30
0.0
 10
-5.9296583565
 20
18.5402763381
 30
0.0
 10
-5.9542379123
 20
18.5354510878
 30
0.0
 10
-5.9728659253
 20
18.5331149651
 30
0.0
  0
SPLINE
  5
3B9
100
AcDbEntity
  8
RACCORDO
100
AcDbSpline
 62
250
  6
CONTINUOUS
 70
0
 71
3
 72
9
 73
5
 74
0
 42
0.0000001
 43
0.0000001
 44
0.0000000001
 40
0.0
 40
0.0
 40
0.0
 40
0.0
 40
0.4808758543
 40
1.0
 40
1.0
 40
1.0
 40
1.0
 10
-5.9728659253
 20
18.5331149651
 30
0.0
 10
-6.0516593009
 20
18.5232335572
 30
0.0
 10
-6.2224397391
 20
18.5509980239
 30
0.0
 10
-6.3625858432
 20
18.6480217146
 30
0.0
 10
-6.421996719
 20
18.709823254
 30
0.0
  0
SPLINE
  5
3BA
100
AcDbEntity
  8
RACCORDO
100
AcDbSpline
 62
250
  6
CONTINUOUS
 70
0
 71
3
 72
15
 73
11
 74
0
 42
0.0000001
 43
0.0000001
 44
0.0000000001
 40
0.0
 40
0.0
 40
0.0
 40
0.0
 40
0.1460569073
 40
0.283443948
 40
0.412862493
 40
0.5355397919
 40
0.6532430156
 40
0.7682058866
 40
0.8829436313
 40
1.0
 40
1.0
 40
1.0
 40
1.0
 10
0.865977398
 20
22.3995609649
 30
0.0
 10
0.4110121525
 20
22.5892906686
 30
0.0
 10
-0.4919064478
 20
22.9123853983
 30
0.0
 10
-1.8541320063
 20
23.2223563233
 30
0.0
 10
-3.1680851647
 20
23.3384132315
 30
0.0
 10
-4.4189216809
 20
23.2576301148
 30
0.0
 10
-5.5917354111
 20
22.9791839288
 30
0.0
 10
-6.6713482192
 20
22.5049045067
 30
0.0
 10
-7.6427364193
 20
21.840751779
 30
0.0
 10
-8.2011077791
 20
21.2860039694
 30
0.0
 10
-8.457031403
 20
20.985040661
 30
0.0
  0
SPLINE
  5
3BB
100
AcDbEntity
  8
RACCORDO
100
AcDbSpline
 62
7
  6
CONTINUOUS
 70
0
 71
3
 72
14
 73
10
 74
0
 42
0.0000001
 43
0.0000001
 44
0.0000000001
 40
0.0
 40
0.0
 40
0.0
 40
0.0
 40
0.2813815142
 40
0.4125875224
 40
0.5379908579
 40
0.6583414353
 40
0.7746237582
 40
0.8880493809
 40
1.0
 40
1.0
 40
1.0
 40
1.0
 10
8.2444056952
 20
27.9417593719
 30
0.0
 10
7.5005608969
 20
28.2580589849
 30
0.0
 10
6.369368191
 20
28.6394620362
 30
0.0
 10
4.845446193
 20
28.9095230421
 30
0.0
 10
3.7627033111
 20
28.9830354277
 30
0.0
 10
2.7214395865
 20
28.9312520261
 30
0.0
 10
1.7286293787
 20
28.7539275696
 30
0.0
 10
0.7916830437
 20
28.4519051051
 30
0.0
 10
0.2070837839
 20
28.1677927613
 30
0.0
 10
-0.0714134902
 20
28.0069819318
 30
0.0
  0
SPLINE
  5
3BC
100
AcDbEntity
  8
RACCORDO
100
AcDbSpline
 62
7
  6
CONTINUOUS
 70
0
 71
3
 72
13
 73
9
 74
0
 42
0.0000001
 43
0.0000001
 44
0.0000000001
 40
0.0
 40
0.0
 40
0.0
 40
0.0
 40
0.0968520869
 40
0.197990431
 40
0.3068332354
 40
0.4255156322
 40
0.6940969696
 40
1.0
 40
1.0
 40
1.0
 40
1.0
 10
-13.9180601786
 20
28.0564389632
 30
0.0
 10
-13.8796944137
 20
28.0785846077
 30
0.0
 10
-13.794756077
 20
28.1134083568
 30
0.0
 10
-13.654342795
 20
28.1320212013
 30
0.0
 10
-13.5035755096
 20
28.1180216379
 30
0.0
 10
-13.2846073352
 20
28.0544673879
 30
0.0
 10
-13.0065340216
 20
27.8933458904
 30
0.0
 10
-12.8131502725
 20
27.7127617588
 30
0.0
 10
-12.7197707216
 20
27.6085673782
 30
0.0
  0
SPLINE
  5
3BD
100
AcDbEntity
  8
0
100
AcDbSpline
 62
7
  6
CONTINUOUS
 70
0
 71
3
 72
11
 73
7
 74
0
 42
0.0000001
 43
0.0000001
 44
0.0000000001
 40
0.0
 40
0.0
 40
0.0
 40
0.0
 40
0.2220297404
 40
0.461045155
 40
0.7200975246
 40
1.0
 40
1.0
 40
1.0
 40
1.0
 10
5.357198214
 20
2.6058853517
 30
0.0
 10
5.436840917
 20
2.7069074628
 30
0.0
 10
5.5785495711
 20
2.9360371433
 30
0.0
 10
5.7266265417
 20
3.3282777387
 30
0.0
 10
5.8152757558
 20
3.7719475125
 30
0.0
 10
5.8334025359
 20
4.0846841123
 30
0.0
 10
5.8334025359
 20
4.2468553938
 30
0.0
  0
SPLINE
  5
3BE
100
AcDbEntity
  8
RACCORDO
100
AcDbSpline
 62
250
  6
CONTINUOUS
 70
0
 71
3
 72
14
 73
10
 74
0
 42
0.0000001
 43
0.0000001
 44
0.0000000001
 40
0.0
 40
0.0
 40
0.0
 40
0.0
 40
0.2813714638
 40
0.4125797791
 40
0.5379822816
 40
0.6583283601
 40
0.7746095256
 40
0.8880387215
 40
1.0
 40
1.0
 40
1.0
 40
1.0
 10
1.8804446645
 20
24.2672880319
 30
0.0
 10
1.1366260678
 20
24.5835765035
 30
0.0
 10
0.0054549781
 20
24.9649759075
 30
0.0
 10
-1.5184417463
 20
25.235035589
 30
0.0
 10
-2.6011740369
 20
25.3085847639
 30
0.0
 10
-3.6424209992
 20
25.2567961797
 30
0.0
 10
-4.6352231108
 20
25.0794746801
 30
0.0
 10
-5.5722238013
 20
24.777488373
 30
0.0
 10
-6.1568465206
 20
24.4933297522
 30
0.0
 10
-6.4353764124
 20
24.3325138593
 30
0.0
  0
SPLINE
  5
3BF
100
AcDbEntity
  8
0
100
AcDbSpline
 62
7
  6
CONTINUOUS
 70
0
 71
3
 72
9
 73
5
 74
0
 42
0.0000001
 43
0.0000001
 44
0.0000000001
 40
0.0
 40
0.0
 40
0.0
 40
0.0
 40
0.2602447036
 40
1.0
 40
1.0
 40
1.0
 40
1.0
 10
5.4798165731
 20
5.0433441046
 30
0.0
 10
5.4964046838
 20
4.9629608705
 30
0.0
 10
5.5535024855
 20
4.6528002008
 30
0.0
 10
5.5833556138
 20
4.3372521133
 30
0.0
 10
5.5859151624
 20
4.1039592861
 30
0.0
  0
SPLINE
  5
3C0
100
AcDbEntity
  8
0
100
AcDbSpline
 62
7
  6
CONTINUOUS
 70
0
 71
3
 72
23
 73
19
 74
0
 42
0.0000001
 43
0.0000001
 44
0.0000000001
 40
0.0
 40
0.0
 40
0.0
 40
0.0
 40
0.0623923257
 40
0.1287468243
 40
0.1983496682
 40
0.2703393849
 40
0.3437286507
 40
0.4174725472
 40
0.4905088796
 40
0.5618070425
 40
0.6304153757
 40
0.6955132728
 40
0.7564702987
 40
0.8129161376
 40
0.8648243887
 40
0.9126061429
 40
0.9571868756
 40
1.0
 40
1.0
 40
1.0
 40
1.0
 10
4.1186685915
 20
12.9935467318
 30
0.0
 10
4.3881138814
 20
12.8379723984
 30
0.0
 10
4.9234047565
 20
12.4802199063
 30
0.0
 10
5.6814583906
 20
11.8422777113
 30
0.0
 10
6.4060701709
 20
11.0982611177
 30
0.0
 10
7.081772103
 20
10.2641605521
 30
0.0
 10
7.6942422015
 20
9.3576282937
 30
0.0
 10
8.2304243353
 20
8.3980315943
 30
0.0
 10
8.6788767104
 20
7.4058239733
 30
0.0
 10
9.0300418465
 20
6.4021488965
 30
0.0
 10
9.2764368918
 20
5.4083158193
 30
0.0
 10
9.4127806538
 20
4.4452947009
 30
0.0
 10
9.4360219692
 20
3.5332100764
 30
0.0
 10
9.34518534
 20
2.6908793193
 30
0.0
 10
9.1411325407
 20
1.9356158972
 30
0.0
 10
8.8259808917
 20
1.2833372993
 30
0.0
 10
8.4042127314
 20
0.7499801813
 30
0.0
 10
8.0537435503
 20
0.4816833039
 30
0.0
 10
7.868845461
 20
0.3749412735
 30
0.0
  0
SPLINE
  5
3C1
100
AcDbEntity
  8
ASSI
100
AcDbSpline
 62
7
  6
CONTINUOUS
 70
0
 71
3
 72
14
 73
10
 74
0
 42
0.0000001
 43
0.0000001
 44
0.0000000001
 40
0.0
 40
0.0
 40
0.0
 40
0.0
 40
0.0875553526
 40
0.1840011182
 40
0.294472225
 40
0.4198360149
 40
0.5578454002
 40
0.7042596771
 40
1.0
 40
1.0
 40
1.0
 40
1.0
 10
-13.4431814349
 20
27.2492916103
 30
0.0
 10
-13.4674636252
 20
27.2352779554
 30
0.0
 10
-13.5123581703
 20
27.1941934222
 30
0.0
 10
-13.5537747258
 20
27.1076261282
 30
0.0
 10
-13.5709078932
 20
27.0015142428
 30
0.0
 10
-13.5640413404
 20
26.8812816958
 30
0.0
 10
-13.5339193971
 20
26.7529541787
 30
0.0
 10
-13.4649295365
 20
26.580049474
 30
0.0
 10
-13.3856734021
 20
26.4597540493
 30
0.0
 10
-13.3224717243
 20
26.3892326172
 30
0.0
  0
SPLINE
  5
3C2
100
AcDbEntity
  8
RACCORDO
100
AcDbSpline
 62
250
  6
CONTINUOUS
 70
0
 71
3
 72
28
 73
24
 74
0
 42
0.0000001
 43
0.0000001
 44
0.0000000001
 40
0.0
 40
0.0
 40
0.0
 40
0.0
 40
0.0566430067
 40
0.0870774622
 40
0.1188561954
 40
0.18607783
 40
0.2574292055
 40
0.3316801096
 40
0.4074073808
 40
0.4830955269
 40
0.5572314772
 40
0.6283994889
 40
0.6953818864
 40
0.7572759746
 40
0.813634072
 40
0.8398006424
 40
0.8647163296
 40
0.8885325412
 40
0.9114579959
 40
0.933754264
 40
0.9557242005
 40
0.9776997366
 40
1.0
 40
1.0
 40
1.0
 40
1.0
 10
13.5505565123
 20
-3.4693658753
 30
0.0
 10
13.722585276
 20
-2.805718373
 30
0.0
 10
13.8812941355
 20
-1.7562241652
 30
0.0
 10
13.9258341104
 20
-0.3177166686
 30
0.0
 10
13.8572498922
 20
1.2488488799
 30
0.0
 10
13.5516474609
 20
3.2941818745
 30
0.0
 10
12.8704547048
 20
5.7837992351
 30
0.0
 10
11.8880177852
 20
8.2813012596
 30
0.0
 10
10.6334888801
 20
10.7126407781
 30
0.0
 10
9.1440181319
 20
13.0059504932
 30
0.0
 10
7.4636464005
 20
15.0932816122
 30
0.0
 10
5.6420039366
 20
16.9130367085
 30
0.0
 10
3.7318515037
 20
18.4117889372
 30
0.0
 10
1.7885536416
 20
19.5453302237
 30
0.0
 10
0.1451806864
 20
20.1722820355
 30
0.0
 10
-1.1286668537
 20
20.4447675905
 30
0.0
 10
-2.0328016317
 20
20.5349962698
 30
0.0
 10
-2.9022383059
 20
20.5150536028
 30
0.0
 10
-3.7302907443
 20
20.3845257148
 30
0.0
 10
-4.5101764868
 20
20.1439042392
 30
0.0
 10
-5.2353642586
 20
19.7947846258
 30
0.0
 10
-5.8993355754
 20
19.3400970947
 30
0.0
 10
-6.2931666013
 20
18.9733700099
 30
0.0
 10
-6.4772650572
 20
18.7759860435
 30
0.0
  0
SPLINE
  5
3C3
100
AcDbEntity
  8
0
100
AcDbSpline
 62
7
  6
CONTINUOUS
 70
0
 71
3
 72
11
 73
7
 74
0
 42
0.0000001
 43
0.0000001
 44
0.0000000001
 40
0.0
 40
0.0
 40
0.0
 40
0.0
 40
0.2295478715
 40
0.475190541
 40
0.7334513976
 40
1.0
 40
1.0
 40
1.0
 40
1.0
 10
-2.4574244736
 20
-9.2568267806
 30
0.0
 10
-2.4574244736
 20
-8.5417637961
 30
0.0
 10
-2.5681853143
 20
-7.0603465554
 30
0.0
 10
-3.0182205275
 20
-4.815534136
 30
0.0
 10
-3.7455525258
 20
-2.5238312831
 30
0.0
 10
-4.3961086001
 20
-1.020629354
 30
0.0
 10
-4.762105393
 20
-0.2753214965
 30
0.0
  0
SPLINE
  5
3C4
100
AcDbEntity
  8
0
100
AcDbSpline
 62
7
  6
CONTINUOUS
 70
0
 71
3
 72
20
 73
16
 74
0
 42
0.0000001
 43
0.0000001
 44
0.0000000001
 40
0.0
 40
0.0
 40
0.0
 40
0.0
 40
0.1504740979
 40
0.2992831297
 40
0.4425928787
 40
0.5111471782
 40
0.5771266618
 40
0.6402476584
 40
0.7003078763
 40
0.7572046149
 40
0.8109537589
 40
0.8617102182
 40
0.9097870874
 40
0.95566773
 40
1.0
 40
1.0
 40
1.0
 40
1.0
 10
-4.762105393
 20
-0.2753214965
 30
0.0
 10
-5.2041670044
 20
0.6248830924
 30
0.0
 10
-6.188142978
 20
2.3660131052
 30
0.0
 10
-7.9269865351
 20
4.7563364145
 30
0.0
 10
-9.5685897932
 20
6.5222453066
 30
0.0
 10
-10.9613256981
 20
7.7446356758
 30
0.0
 10
-12.0123243876
 20
8.5409518019
 30
0.0
 10
-13.0746921509
 20
9.2223695566
 30
0.0
 10
-14.1381921929
 20
9.78214707
 30
0.0
 10
-15.1925690635
 20
10.2146791518
 30
0.0
 10
-16.2277598126
 20
10.5154735454
 30
0.0
 10
-17.2338578209
 20
10.681119036
 30
0.0
 10
-18.2012241506
 20
10.7091822399
 30
0.0
 10
-19.1197916964
 20
10.5985376662
 30
0.0
 10
-19.7004528434
 20
10.4301771054
 30
0.0
 10
-19.9760741242
 20
10.3237133027
 30
0.0
  0
SPLINE
  5
3C5
100
AcDbEntity
  8
0
100
AcDbSpline
 62
7
  6
CONTINUOUS
 70
0
 71
3
 72
14
 73
10
 74
0
 42
0.0000001
 43
0.0000001
 44
0.0000000001
 40
0.0
 40
0.0
 40
0.0
 40
0.0
 40
0.107764029
 40
0.2186142205
 40
0.3338029264
 40
0.4543254952
 40
0.5808958663
 40
0.7139648989
 40
1.0
 40
1.0
 40
1.0
 40
1.0
 10
-4.9365004806
 20
-15.7240281941
 30
0.0
 10
-4.7364933456
 20
-15.5627430727
 30
0.0
 10
-4.3548327923
 20
-15.2045444879
 30
0.0
 10
-3.8562063889
 20
-14.5811895622
 30
0.0
 10
-3.4288904546
 20
-13.8713186908
 30
0.0
 10
-3.075900469
 20
-13.0808758973
 30
0.0
 10
-2.7993838107
 20
-12.215863491
 30
0.0
 10
-2.5287211917
 20
-10.9416700491
 30
0.0
 10
-2.4574244736
 20
-9.9388030673
 30
0.0
 10
-2.4574244736
 20
-9.2568267806
 30
0.0
  0
SPLINE
  5
3C6
100
AcDbEntity
  8
0
100
AcDbSpline
 62
7
  6
CONTINUOUS
 70
0
 71
3
 72
9
 73
5
 74
0
 42
0.0000001
 43
0.0000001
 44
0.0000000001
 40
0.0
 40
0.0
 40
0.0
 40
0.0
 40
0.2225062421
 40
1.0
 40
1.0
 40
1.0
 40
1.0
 10
-20.0683928963
 20
10.2844819872
 30
0.0
 10
-20.0695974158
 20
10.2834505842
 30
0.0
 10
-20.0750443686
 20
10.2788543574
 30
0.0
 10
-20.0806009772
 20
10.2743894165
 30
0.0
 10
-20.0849536774
 20
10.2709604882
 30
0.0
  0
SPLINE
  5
3C7
100
AcDbEntity
  8
0
100
AcDbSpline
 62
7
  6
CONTINUOUS
 70
0
 71
3
 72
9
 73
5
 74
0
 42
0.0000001
 43
0.0000001
 44
0.0000000001
 40
0.0
 40
0.0
 40
0.0
 40
0.0
 40
0.2095453605
 40
1.0
 40
1.0
 40
1.0
 40
1.0
 10
-20.1882815892
 20
10.1873793367
 30
0.0
 10
-20.1920774883
 20
10.1842272176
 30
0.0
 10
-20.2103848842
 20
10.1694167218
 30
0.0
 10
-20.2292486669
 20
10.1553056009
 30
0.0
 10
-20.2443150911
 20
10.1443775468
 30
0.0
  0
SPLINE
  5
3C8
100
AcDbEntity
  8
0
100
AcDbSpline
 62
7
  6
CONTINUOUS
 70
0
 71
3
 72
9
 73
5
 74
0
 42
0.0000001
 43
0.0000001
 44
0.0000000001
 40
0.0
 40
0.0
 40
0.0
 40
0.0
 40
0.2453820329
 40
1.0
 40
1.0
 40
1.0
 40
1.0
 10
-20.2443150911
 20
10.1443775468
 30
0.0
 10
-20.2542989112
 20
10.1371360325
 30
0.0
 10
-20.2953266165
 20
10.1081087117
 30
0.0
 10
-20.3373867069
 20
10.080450532
 30
0.0
 10
-20.3701832759
 20
10.0613980039
 30
0.0
  0
LINE
  5
3C9
100
AcDbEntity
  8
0
100
AcDbLine
 62
7
  6
CONTINUOUS
 10
-20.3701832759
 20
10.0613980039
 30
0.0
 11
-20.622639541
 21
9.914737013
 31
0.0
  0
LINE
  5
3CA
100
AcDbEntity
  8
0
100
AcDbLine
 62
7
  6
CONTINUOUS
 10
-5.2930428139
 20
-15.9561139913
 30
0.0
 11
-5.0945320552
 21
-15.8419504389
 31
0.0
  0
SPLINE
  5
3CB
100
AcDbEntity
  8
0
100
AcDbSpline
 62
7
  6
CONTINUOUS
 70
0
 71
3
 72
9
 73
5
 74
0
 42
0.0000001
 43
0.0000001
 44
0.0000000001
 40
0.0
 40
0.0
 40
0.0
 40
0.0
 40
0.4931785542
 40
1.0
 40
1.0
 40
1.0
 40
1.0
 10
-20.6851016876
 20
9.9848925413
 30
0.0
 10
-20.9868298679
 20
9.8106785535
 30
0.0
 10
-21.5630616185
 20
9.392123397
 30
0.0
 10
-22.0421652223
 20
8.8661566515
 30
0.0
 10
-22.258196441
 20
8.5806222285
 30
0.0
  0
LINE
  5
3CC
100
AcDbEntity
  8
0
100
AcDbLine
 62
7
  6
CONTINUOUS
 10
-20.3441619499
 20
10.139386714
 30
0.0
 11
-20.1644145739
 21
10.2426687435
 31
0.0
  0
SPLINE
  5
3CD
100
AcDbEntity
  8
0
100
AcDbSpline
 62
7
  6
CONTINUOUS
 70
0
 71
3
 72
9
 73
5
 74
0
 42
0.0000001
 43
0.0000001
 44
0.0000000001
 40
0.0
 40
0.0
 40
0.0
 40
0.0
 40
0.5068213099
 40
1.0
 40
1.0
 40
1.0
 40
1.0
 10
-7.5870200381
 20
-16.8289708791
 30
0.0
 10
-7.2317262077
 20
-16.7846304314
 30
0.0
 10
-6.5366812528
 20
-16.6326576793
 30
0.0
 10
-5.886100851
 20
-16.3428677295
 30
0.0
 10
-5.5843720513
 20
-16.1686533839
 30
0.0
  0
SPLINE
  5
3CE
100
AcDbEntity
  8
ASSI
100
AcDbSpline
 62
7
  6
CONTINUOUS
 70
0
 71
3
 72
11
 73
7
 74
0
 42
0.0000001
 43
0.0000001
 44
0.0000000001
 40
0.0
 40
0.0
 40
0.0
 40
0.0
 40
0.2295478715
 40
0.475190541
 40
0.7334513976
 40
1.0
 40
1.0
 40
1.0
 40
1.0
 10
-2.4574244736
 20
-9.2568267806
 30
0.0
 10
-2.4574244736
 20
-8.5417637961
 30
0.0
 10
-2.5681853143
 20
-7.0603465554
 30
0.0
 10
-3.0182205275
 20
-4.815534136
 30
0.0
 10
-3.7455525258
 20
-2.5238312831
 30
0.0
 10
-4.3961086001
 20
-1.020629354
 30
0.0
 10
-4.762105393
 20
-0.2753214965
 30
0.0
  0
SPLINE
  5
3CF
100
AcDbEntity
  8
ASSI
100
AcDbSpline
 62
7
  6
CONTINUOUS
 70
0
 71
3
 72
20
 73
16
 74
0
 42
0.0000001
 43
0.0000001
 44
0.0000000001
 40
0.0
 40
0.0
 40
0.0
 40
0.0
 40
0.1504740979
 40
0.2992831297
 40
0.4425928787
 40
0.5111471782
 40
0.5771266618
 40
0.6402476584
 40
0.7003078763
 40
0.7572046149
 40
0.8109537589
 40
0.8617102182
 40
0.9097870874
 40
0.95566773
 40
1.0
 40
1.0
 40
1.0
 40
1.0
 10
-4.762105393
 20
-0.2753214965
 30
0.0
 10
-5.2041670044
 20
0.6248830924
 30
0.0
 10
-6.188142978
 20
2.3660131052
 30
0.0
 10
-7.9269865351
 20
4.7563364145
 30
0.0
 10
-9.5685897932
 20
6.5222453066
 30
0.0
 10
-10.9613256981
 20
7.7446356758
 30
0.0
 10
-12.0123243876
 20
8.5409518019
 30
0.0
 10
-13.0746921509
 20
9.2223695566
 30
0.0
 10
-14.1381921929
 20
9.78214707
 30
0.0
 10
-15.1925690635
 20
10.2146791518
 30
0.0
 10
-16.2277598126
 20
10.5154735454
 30
0.0
 10
-17.2338578209
 20
10.681119036
 30
0.0
 10
-18.2012241506
 20
10.7091822399
 30
0.0
 10
-19.1197916964
 20
10.5985376662
 30
0.0
 10
-19.7004528434
 20
10.4301771054
 30
0.0
 10
-19.9760741242
 20
10.3237133027
 30
0.0
  0
SPLINE
  5
3D0
100
AcDbEntity
  8
ASSI
100
AcDbSpline
 62
7
  6
CONTINUOUS
 70
0
 71
3
 72
8
 73
4
 74
0
 42
0.0000001
 43
0.0000001
 44
0.0000000001
 40
0.0
 40
0.0
 40
0.0
 40
0.0
 40
1.0
 40
1.0
 40
1.0
 40
1.0
 10
5.4949884247
 20
-25.7939473743
 30
0.0
 10
5.4841674935
 20
-25.7894820365
 30
0.0
 10
5.4725308186
 20
-25.7866718796
 30
0.0
 10
5.4608722751
 20
-25.7856182395
 30
0.0
  0
SPLINE
  5
3D1
100
AcDbEntity
  8
ASSI
100
AcDbSpline
 62
7
  6
CONTINUOUS
 70
0
 71
3
 72
9
 73
5
 74
0
 42
0.0000001
 43
0.0000001
 44
0.0000000001
 40
0.0
 40
0.0
 40
0.0
 40
0.0
 40
0.2407269183
 40
1.0
 40
1.0
 40
1.0
 40
1.0
 10
5.4608722751
 20
-25.7856182395
 30
0.0
 10
5.4546277384
 20
-25.78505389
 30
0.0
 10
5.4285079074
 20
-25.7847278395
 30
0.0
 10
5.4025855506
 20
-25.7929273365
 30
0.0
 10
5.3852261553
 20
-25.8024006811
 30
0.0
  0
SPLINE
  5
3D2
100
AcDbEntity
  8
ASSI
100
AcDbSpline
 62
7
  6
CONTINUOUS
 70
0
 71
3
 72
14
 73
10
 74
0
 42
0.0000001
 43
0.0000001
 44
0.0000000001
 40
0.0
 40
0.0
 40
0.0
 40
0.0
 40
0.107764029
 40
0.2186142205
 40
0.3338029264
 40
0.4543254952
 40
0.5808958663
 40
0.7139648989
 40
1.0
 40
1.0
 40
1.0
 40
1.0
 10
-4.9365004806
 20
-15.7240281941
 30
0.0
 10
-4.7364933456
 20
-15.5627430727
 30
0.0
 10
-4.3548327923
 20
-15.2045444879
 30
0.0
 10
-3.8562063889
 20
-14.5811895622
 30
0.0
 10
-3.4288904546
 20
-13.8713186908
 30
0.0
 10
-3.075900469
 20
-13.0808758973
 30
0.0
 10
-2.7993838107
 20
-12.215863491
 30
0.0
 10
-2.5287211917
 20
-10.9416700491
 30
0.0
 10
-2.4574244736
 20
-9.9388030673
 30
0.0
 10
-2.4574244736
 20
-9.2568267806
 30
0.0
  0
SPLINE
  5
3D3
100
AcDbEntity
  8
ASSI
100
AcDbSpline
 62
7
  6
CONTINUOUS
 70
0
 71
3
 72
9
 73
5
 74
0
 42
0.0000001
 43
0.0000001
 44
0.0000000001
 40
0.0
 40
0.0
 40
0.0
 40
0.0
 40
0.2225062421
 40
1.0
 40
1.0
 40
1.0
 40
1.0
 10
-20.0683928963
 20
10.2844819872
 30
0.0
 10
-20.0695974158
 20
10.2834505842
 30
0.0
 10
-20.0750443686
 20
10.2788543574
 30
0.0
 10
-20.0806009772
 20
10.2743894165
 30
0.0
 10
-20.0849536774
 20
10.2709604882
 30
0.0
  0
SPLINE
  5
3D4
100
AcDbEntity
  8
ASSI
100
AcDbSpline
 62
7
  6
CONTINUOUS
 70
0
 71
3
 72
9
 73
5
 74
0
 42
0.0000001
 43
0.0000001
 44
0.0000000001
 40
0.0
 40
0.0
 40
0.0
 40
0.0
 40
0.2095453605
 40
1.0
 40
1.0
 40
1.0
 40
1.0
 10
-20.1882815892
 20
10.1873793367
 30
0.0
 10
-20.1920774883
 20
10.1842272176
 30
0.0
 10
-20.2103848842
 20
10.1694167218
 30
0.0
 10
-20.2292486669
 20
10.1553056009
 30
0.0
 10
-20.2443150911
 20
10.1443775468
 30
0.0
  0
SPLINE
  5
3D5
100
AcDbEntity
  8
ASSI
100
AcDbSpline
 62
7
  6
CONTINUOUS
 70
0
 71
3
 72
9
 73
5
 74
0
 42
0.0000001
 43
0.0000001
 44
0.0000000001
 40
0.0
 40
0.0
 40
0.0
 40
0.0
 40
0.2453820329
 40
1.0
 40
1.0
 40
1.0
 40
1.0
 10
-20.2443150911
 20
10.1443775468
 30
0.0
 10
-20.2542989112
 20
10.1371360325
 30
0.0
 10
-20.2953266165
 20
10.1081087117
 30
0.0
 10
-20.3373867069
 20
10.080450532
 30
0.0
 10
-20.3701832759
 20
10.0613980039
 30
0.0
  0
LINE
  5
3D6
100
AcDbEntity
  8
ASSI
100
AcDbLine
 62
7
  6
CONTINUOUS
 10
-20.3701832759
 20
10.0613980039
 30
0.0
 11
-20.622639541
 21
9.914737013
 31
0.0
  0
LINE
  5
3D7
100
AcDbEntity
  8
ASSI
100
AcDbLine
 62
7
  6
CONTINUOUS
 10
-5.2930428139
 20
-15.9561139913
 30
0.0
 11
-5.0945320552
 21
-15.8419504389
 31
0.0
  0
SPLINE
  5
3D8
100
AcDbEntity
  8
ASSI
100
AcDbSpline
 62
250
  6
CONTINUOUS
 70
0
 71
3
 72
9
 73
5
 74
0
 42
0.0000001
 43
0.0000001
 44
0.0000000001
 40
0.0
 40
0.0
 40
0.0
 40
0.0
 40
0.5477363372
 40
1.0
 40
1.0
 40
1.0
 40
1.0
 10
6.2440462927
 20
-27.8571420916
 30
0.0
 10
6.2443086561
 20
-27.8746544282
 30
0.0
 10
6.2406569104
 20
-27.9072544329
 30
0.0
 10
6.2215644316
 20
-27.9353450975
 30
0.0
 10
6.2099284793
 20
-27.9439322529
 30
0.0
  0
SPLINE
  5
3D9
100
AcDbEntity
  8
ASSI
100
AcDbSpline
 62
250
  6
CONTINUOUS
 70
0
 71
3
 72
11
 73
7
 74
0
 42
0.0000001
 43
0.0000001
 44
0.0000000001
 40
0.0
 40
0.0
 40
0.0
 40
0.0
 40
0.2377558573
 40
0.4999940227
 40
0.7622354535
 40
1.0
 40
1.0
 40
1.0
 40
1.0
 10
6.2440462927
 20
7.6297502028
 30
0.0
 10
6.244388978
 20
7.6530336785
 30
0.0
 10
6.2362560476
 20
7.7021757734
 30
0.0
 10
6.2061332174
 20
7.7711337523
 30
0.0
 10
6.1614746691
 20
7.8317004935
 30
0.0
 10
6.1229823269
 20
7.8633159253
 30
0.0
 10
6.1026464757
 20
7.8746618699
 30
0.0
  0
SPLINE
  5
3DA
100
AcDbEntity
  8
ASSI
100
AcDbSpline
 62
7
  6
CONTINUOUS
 70
0
 71
3
 72
9
 73
5
 74
0
 42
0.0000001
 43
0.0000001
 44
0.0000000001
 40
0.0
 40
0.0
 40
0.0
 40
0.0
 40
0.5068213099
 40
1.0
 40
1.0
 40
1.0
 40
1.0
 10
-7.5870200381
 20
-16.8289708791
 30
0.0
 10
-7.2317262077
 20
-16.7846304314
 30
0.0
 10
-6.5366812528
 20
-16.6326576793
 30
0.0
 10
-5.886100851
 20
-16.3428677295
 30
0.0
 10
-5.5843720513
 20
-16.1686533839
 30
0.0
  0
SPLINE
  5
3DB
100
AcDbEntity
  8
ASSI
100
AcDbSpline
 62
250
  6
CONTINUOUS
 70
0
 71
3
 72
9
 73
5
 74
0
 42
0.0000001
 43
0.0000001
 44
0.0000000001
 40
0.0
 40
0.0
 40
0.0
 40
0.0
 40
0.4526094679
 40
1.0
 40
1.0
 40
1.0
 40
1.0
 10
6.2998695103
 20
-27.7832642712
 30
0.0
 10
6.2985162121
 20
-27.7975595297
 30
0.0
 10
6.2845483737
 20
-27.8281675815
 30
0.0
 10
6.2589514034
 20
-27.8482302928
 30
0.0
 10
6.2440462927
 20
-27.8571420916
 30
0.0
  0
SPLINE
  5
3DC
100
AcDbEntity
  8
ASSI
100
AcDbSpline
 62
250
  6
CONTINUOUS
 70
0
 71
3
 72
10
 73
6
 74
0
 42
0.0000001
 43
0.0000001
 44
0.0000000001
 40
0.0
 40
0.0
 40
0.0
 40
0.0
 40
0.5463378537
 40
0.7806036198
 40
1.0
 40
1.0
 40
1.0
 40
1.0
 10
6.2440462927
 20
7.6297502028
 30
0.0
 10
6.2599604764
 20
7.6392653287
 30
0.0
 10
6.281381602
 20
7.6566770621
 30
0.0
 10
6.2975042432
 20
7.6870172435
 30
0.0
 10
6.3001694883
 20
7.7025216555
 30
0.0
 10
6.3001690944
 20
7.7099676101
 30
0.0
  0
SPLINE
  5
3DD
100
AcDbEntity
  8
ASSI
100
AcDbSpline
 62
250
  6
CONTINUOUS
 70
0
 71
3
 72
9
 73
5
 74
0
 42
0.0000001
 43
0.0000001
 44
0.0000000001
 40
0.0
 40
0.0
 40
0.0
 40
0.0
 40
0.5492439223
 40
1.0
 40
1.0
 40
1.0
 40
1.0
 10
6.1026464757
 20
7.8746618699
 30
0.0
 10
6.1188416897
 20
7.8836863735
 30
0.0
 10
6.1512151712
 20
7.8965309725
 30
0.0
 10
6.1870026565
 20
7.8907769381
 30
0.0
 10
6.2001807144
 20
7.8831712364
 30
0.0
  0
SPLINE
  5
3DE
100
AcDbEntity
  8
ASSI
100
AcDbSpline
 62
250
  6
CONTINUOUS
 70
0
 71
3
 72
11
 73
7
 74
0
 42
0.0000001
 43
0.0000001
 44
0.0000000001
 40
0.0
 40
0.0
 40
0.0
 40
0.0
 40
0.236473979
 40
0.4983651084
 40
0.7611427487
 40
1.0
 40
1.0
 40
1.0
 40
1.0
 10
-28.523795242
 20
26.8694551539
 30
0.0
 10
-28.523795242
 20
26.9263886171
 30
0.0
 10
-28.5028047008
 20
27.0464623741
 30
0.0
 10
-28.4292481529
 20
27.2157441424
 30
0.0
 10
-28.3212812605
 20
27.3661535371
 30
0.0
 10
-28.2286428082
 20
27.4464817414
 30
0.0
 10
-28.1794968002
 20
27.4763440055
 30
0.0
  0
SPLINE
  5
3DF
100
AcDbEntity
  8
ASSI
100
AcDbSpline
 62
250
  6
CONTINUOUS
 70
0
 71
3
 72
11
 73
7
 74
0
 42
0.0000001
 43
0.0000001
 44
0.0000000001
 40
0.0
 40
0.0
 40
0.0
 40
0.0
 40
0.2388572513
 40
0.5016348916
 40
0.763526021
 40
1.0
 40
1.0
 40
1.0
 40
1.0
 10
2.5986199448
 20
9.7054451373
 30
0.0
 10
2.5494739368
 20
9.6755828732
 30
0.0
 10
2.4568354845
 20
9.5952546689
 30
0.0
 10
2.3488685922
 20
9.4448452742
 30
0.0
 10
2.2753120443
 20
9.2755635059
 30
0.0
 10
2.2543215031
 20
9.1554897489
 30
0.0
 10
2.2543215031
 20
9.0985562857
 30
0.0
  0
SPLINE
  5
3E0
100
AcDbEntity
  8
ASSI
100
AcDbSpline
 62
250
  6
CONTINUOUS
 70
0
 71
3
 72
11
 73
7
 74
0
 42
0.0000001
 43
0.0000001
 44
0.0000000001
 40
0.0
 40
0.0
 40
0.0
 40
0.0
 40
0.289555546
 40
0.5491054959
 40
0.78224375
 40
1.0
 40
1.0
 40
1.0
 40
1.0
 10
2.2543215031
 20
-33.0532159965
 30
0.0
 10
2.2543215031
 20
-33.0785340514
 30
0.0
 10
2.2581822865
 20
-33.1267070592
 30
0.0
 10
2.2776604607
 20
-33.192903317
 30
0.0
 10
2.310504878
 20
-33.2466400473
 30
0.0
 10
2.3413858796
 20
-33.2725431304
 30
0.0
 10
2.3578735644
 20
-33.2820658092
 30
0.0
  0
SPLINE
  5
3E1
100
AcDbEntity
  8
ASSI
100
AcDbSpline
 62
250
  6
CONTINUOUS
 70
0
 71
3
 72
11
 73
7
 74
0
 42
0.0000001
 43
0.0000001
 44
0.0000000001
 40
0.0
 40
0.0
 40
0.0
 40
0.0
 40
0.2912136774
 40
0.5511560704
 40
0.7836866647
 40
1.0
 40
1.0
 40
1.0
 40
1.0
 10
2.9520521815
 20
-33.0584897352
 30
0.0
 10
2.9514446431
 20
-33.0849462092
 30
0.0
 10
2.9462701422
 20
-33.1350986079
 30
0.0
 10
2.9242362276
 20
-33.2035020485
 30
0.0
 10
2.8885390486
 20
-33.2582167007
 30
0.0
 10
2.8555708338
 20
-33.283850225
 30
0.0
 10
2.838124854
 20
-33.2929076381
 30
0.0
  0
SPLINE
  5
3E2
100
AcDbEntity
  8
ASSI
100
AcDbSpline
 62
250
  6
CONTINUOUS
 70
0
 71
3
 72
11
 73
7
 74
0
 42
0.0000001
 43
0.0000001
 44
0.0000000001
 40
0.0
 40
0.0
 40
0.0
 40
0.0
 40
0.2177706871
 40
0.4509225472
 40
0.7104564026
 40
1.0
 40
1.0
 40
1.0
 40
1.0
 10
-28.6702206377
 20
-15.0781798306
 30
0.0
 10
-28.6702178014
 20
-15.0972237715
 30
0.0
 10
-28.6632252807
 20
-15.1369272016
 30
0.0
 10
-28.6331053691
 20
-15.1922477743
 30
0.0
 10
-28.5855159521
 20
-15.2422247408
 30
0.0
 10
-28.5457230395
 20
-15.2696562929
 30
0.0
 10
-28.523795242
 20
-15.2823171283
 30
0.0
  0
SPLINE
  5
3E3
100
AcDbEntity
  8
ASSI
100
AcDbSpline
 62
250
  6
CONTINUOUS
 70
0
 71
3
 72
11
 73
7
 74
0
 42
0.0000001
 43
0.0000001
 44
0.0000000001
 40
0.0
 40
0.0
 40
0.0
 40
0.0
 40
0.2388602044
 40
0.501639921
 40
0.7635361167
 40
1.0
 40
1.0
 40
1.0
 40
1.0
 10
2.9520521815
 20
-33.0584897352
 30
0.0
 10
2.9016182219
 20
-33.0861235228
 30
0.0
 10
2.7857316482
 20
-33.1261911408
 30
0.0
 10
2.6014858933
 20
-33.1444898072
 30
0.0
 10
2.4181050782
 20
-33.1235450372
 30
0.0
 10
2.3036247558
 20
-33.0816830768
 30
0.0
 10
2.2543215031
 20
-33.0532159965
 30
0.0
  0
SPLINE
  5
3E4
100
AcDbEntity
  8
ASSI
100
AcDbSpline
 62
250
  6
CONTINUOUS
 70
0
 71
3
 72
11
 73
7
 74
0
 42
0.0000001
 43
0.0000001
 44
0.0000000001
 40
0.0
 40
0.0
 40
0.0
 40
0.0
 40
0.2177708052
 40
0.4509238438
 40
0.7104577978
 40
1.0
 40
1.0
 40
1.0
 40
1.0
 10
-28.6702206291
 20
27.0735810438
 30
0.0
 10
-28.6702164877
 20
27.0545379115
 30
0.0
 10
-28.6632218916
 20
27.0148366015
 30
0.0
 10
-28.6331012784
 20
26.9595195101
 30
0.0
 10
-28.5855131935
 20
26.9095455012
 30
0.0
 10
-28.5457219912
 20
26.8821153841
 30
0.0
 10
-28.523795242
 20
26.8694551539
 30
0.0
  0
SPLINE
  5
3E5
100
AcDbEntity
  8
ASSI
100
AcDbSpline
 62
250
  6
CONTINUOUS
 70
0
 71
3
 72
11
 73
7
 74
0
 42
0.0000001
 43
0.0000001
 44
0.0000000001
 40
0.0
 40
0.0
 40
0.0
 40
0.0
 40
0.2388600828
 40
0.5016396571
 40
0.7635358149
 40
1.0
 40
1.0
 40
1.0
 40
1.0
 10
2.9520521815
 20
9.093282547
 30
0.0
 10
2.9016182475
 20
9.0656487734
 30
0.0
 10
2.7857317378
 20
9.0255811727
 30
0.0
 10
2.601486061
 20
9.0072824713
 30
0.0
 10
2.4181052122
 20
9.0282272031
 30
0.0
 10
2.3036248189
 20
9.0700891691
 30
0.0
 10
2.2543215031
 20
9.0985562857
 30
0.0
  0
SPLINE
  5
3E6
100
AcDbEntity
  8
ASSI
100
AcDbSpline
 62
250
  6
CONTINUOUS
 70
0
 71
3
 72
11
 73
7
 74
0
 42
0.0000001
 43
0.0000001
 44
0.0000000001
 40
0.0
 40
0.0
 40
0.0
 40
0.0
 40
0.2364935839
 40
0.5000019197
 40
0.7635140865
 40
1.0
 40
1.0
 40
1.0
 40
1.0
 10
2.9520521815
 20
9.093282547
 30
0.0
 10
2.9506968488
 20
9.1508179904
 30
0.0
 10
2.9268121608
 20
9.2719978038
 30
0.0
 10
2.8503218827
 20
9.4426594396
 30
0.0
 10
2.7407683472
 20
9.5942295942
 30
0.0
 10
2.6477670067
 20
9.675503268
 30
0.0
 10
2.5986199433
 20
9.7054451365
 30
0.0
  0
SPLINE
  5
3E7
100
AcDbEntity
  8
ASSI
100
AcDbSpline
 62
250
  6
CONTINUOUS
 70
0
 71
3
 72
11
 73
7
 74
0
 42
0.0000001
 43
0.0000001
 44
0.0000000001
 40
0.0
 40
0.0
 40
0.0
 40
0.0
 40
0.2163115499
 40
0.4488333056
 40
0.7087690594
 40
1.0
 40
1.0
 40
1.0
 40
1.0
 10
-28.4396152381
 20
27.4948250857
 30
0.0
 10
-28.4230473917
 20
27.5054254505
 30
0.0
 10
-28.384350786
 20
27.5211969741
 30
0.0
 10
-28.3190796254
 20
27.5247805249
 30
0.0
 10
-28.2487771872
 20
27.5096636919
 30
0.0
 10
-28.2027276467
 20
27.489055202
 30
0.0
 10
-28.1794968002
 20
27.4763440055
 30
0.0
  0
SPLINE
  5
3E8
100
AcDbEntity
  8
ASSI
100
AcDbSpline
 62
250
  6
CONTINUOUS
 70
0
 71
3
 72
11
 73
7
 74
0
 42
0.0000001
 43
0.0000001
 44
0.0000000001
 40
0.0
 40
0.0
 40
0.0
 40
0.0
 40
0.21775625
 40
0.4508945041
 40
0.710444454
 40
1.0
 40
1.0
 40
1.0
 40
1.0
 10
-28.4202431807
 20
-15.5111669411
 30
0.0
 10
-28.4367308655
 20
-15.5016442622
 30
0.0
 10
-28.467611867
 20
-15.4757411791
 30
0.0
 10
-28.5004562844
 20
-15.4220044488
 30
0.0
 10
-28.5199344585
 20
-15.355808191
 30
0.0
 10
-28.523795242
 20
-15.3076351832
 30
0.0
 10
-28.523795242
 20
-15.2823171283
 30
0.0
  0
LINE
  5
3E9
100
AcDbEntity
  8
ASSI
100
AcDbLine
 62
7
  6
CONTINUOUS
 10
-20.3441619499
 20
10.139386714
 30
0.0
 11
-20.1644145739
 21
10.2426687435
 31
0.0
  0
SPLINE
  5
3EA
100
AcDbEntity
  8
ASSI
100
AcDbSpline
 62
7
  6
CONTINUOUS
 70
0
 71
3
 72
9
 73
5
 74
0
 42
0.0000001
 43
0.0000001
 44
0.0000000001
 40
0.0
 40
0.0
 40
0.0
 40
0.0
 40
0.4931785542
 40
1.0
 40
1.0
 40
1.0
 40
1.0
 10
-20.6851016876
 20
9.9848925413
 30
0.0
 10
-20.9868298679
 20
9.8106785535
 30
0.0
 10
-21.5630616185
 20
9.392123397
 30
0.0
 10
-22.0421652223
 20
8.8661566515
 30
0.0
 10
-22.258196441
 20
8.5806222285
 30
0.0
  0
SPLINE
  5
3EB
100
AcDbEntity
  8
CURVE
100
AcDbSpline
 62
250
  6
CONTINUOUS
 70
0
 71
3
 72
9
 73
5
 74
0
 42
0.0000001
 43
0.0000001
 44
0.0000000001
 40
0.0
 40
0.0
 40
0.0
 40
0.0
 40
0.7291525934
 40
1.0
 40
1.0
 40
1.0
 40
1.0
 10
-12.299416865
 20
-19.7017251219
 30
0.0
 10
-12.2849338925
 20
-19.6321996621
 30
0.0
 10
-12.2747949814
 20
-19.5287265527
 30
0.0
 10
-12.272863969
 20
-19.4206426105
 30
0.0
 10
-12.272863969
 20
-19.3910514696
 30
0.0
  0
SPLINE
  5
3EC
100
AcDbEntity
  8
CURVE
100
AcDbSpline
 62
250
  6
CONTINUOUS
 70
0
 71
3
 72
14
 73
10
 74
0
 42
0.0000001
 43
0.0000001
 44
0.0000000001
 40
0.0
 40
0.0
 40
0.0
 40
0.0
 40
0.249056261
 40
0.3681899177
 40
0.4274672474
 40
0.4869754187
 40
0.6077732534
 40
0.7325815869
 40
1.0
 40
1.0
 40
1.0
 40
1.0
 10
-12.5629969889
 20
-19.9424871595
 30
0.0
 10
-12.5286668143
 20
-19.9455691941
 30
0.0
 10
-12.4797843515
 20
-19.9426087773
 30
0.0
 10
-12.4313126096
 20
-19.9220789822
 30
0.0
 10
-12.4070139669
 20
-19.9060165512
 30
0.0
 10
-12.3845739099
 20
-19.8866594162
 30
0.0
 10
-12.3592661011
 20
-19.8572272159
 30
0.0
 10
-12.3247643538
 20
-19.7977874288
 30
0.0
 10
-12.307596146
 20
-19.7422288092
 30
0.0
 10
-12.299416865
 20
-19.7017251219
 30
0.0
  0
SPLINE
  5
3ED
100
AcDbEntity
  8
CURVE
100
AcDbSpline
 62
250
  6
CONTINUOUS
 70
0
 71
3
 72
21
 73
17
 74
0
 42
0.0000001
 43
0.0000001
 44
0.0000000001
 40
0.0
 40
0.0
 40
0.0
 40
0.0
 40
0.111432069
 40
0.2326882527
 40
0.297575585
 40
0.3655331489
 40
0.4367203924
 40
0.4735717632
 40
0.5112821936
 40
0.5467761442
 40
0.5815317033
 40
0.6488832615
 40
0.7134644914
 40
0.7754120518
 40
0.8919813449
 40
1.0
 40
1.0
 40
1.0
 40
1.0
 10
-13.1128124599
 20
-19.6185611287
 30
0.0
 10
-13.0938378836
 20
-19.6395220344
 30
0.0
 10
-13.0528107299
 20
-19.6806452524
 30
0.0
 10
-12.9984246162
 20
-19.7265764445
 30
0.0
 10
-12.9513801232
 20
-19.7619682442
 30
0.0
 10
-12.9133709889
 20
-19.7884112424
 30
0.0
 10
-12.8804710255
 20
-19.8096177549
 30
0.0
 10
-12.8531971728
 20
-19.8262571172
 30
0.0
 10
-12.832594926
 20
-19.8383694288
 30
0.0
 10
-12.812385082
 20
-19.8498362411
 30
0.0
 10
-12.7866351
 20
-19.8639019568
 30
0.0
 10
-12.755470912
 20
-19.8799100047
 30
0.0
 10
-12.7193335817
 20
-19.8967506822
 30
0.0
 10
-12.6742634416
 20
-19.9154121205
 30
0.0
 10
-12.6217212274
 20
-19.9327737335
 30
0.0
 10
-12.581723043
 20
-19.9404840509
 30
0.0
 10
-12.5629969889
 20
-19.9424871595
 30
0.0
  0
SPLINE
  5
3EE
100
AcDbEntity
  8
CURVE
100
AcDbSpline
 62
250
  6
CONTINUOUS
 70
0
 71
3
 72
11
 73
7
 74
0
 42
0.0000001
 43
0.0000001
 44
0.0000000001
 40
0.0
 40
0.0
 40
0.0
 40
0.0
 40
0.0337510767
 40
0.2695242786
 40
0.5058294582
 40
1.0
 40
1.0
 40
1.0
 40
1.0
 10
-13.2884485056
 20
-19.3485241276
 30
0.0
 10
-13.287008567
 20
-19.3518555983
 30
0.0
 10
-13.2753465231
 20
-19.3784305258
 30
0.0
 10
-13.250903666
 20
-19.42780164
 30
0.0
 10
-13.196397799
 20
-19.5181313547
 30
0.0
 10
-13.1474378846
 20
-19.5803109855
 30
0.0
 10
-13.1128124599
 20
-19.6185611287
 30
0.0
  0
SPLINE
  5
3EF
100
AcDbEntity
  8
CURVE
100
AcDbSpline
 62
250
  6
CONTINUOUS
 70
0
 71
3
 72
9
 73
5
 74
0
 42
0.0000001
 43
0.0000001
 44
0.0000000001
 40
0.0
 40
0.0
 40
0.0
 40
0.0
 40
0.4978249264
 40
1.0
 40
1.0
 40
1.0
 40
1.0
 10
-13.0131781987
 20
-19.4766603005
 30
0.0
 10
-13.03483249
 20
-19.4479463779
 30
0.0
 10
-13.0748216111
 20
-19.3853594475
 30
0.0
 10
-13.1033023886
 20
-19.317860482
 30
0.0
 10
-13.1145176918
 20
-19.2842582752
 30
0.0
  0
SPLINE
  5
3F0
100
AcDbEntity
  8
CURVE
100
AcDbSpline
 62
250
  6
CONTINUOUS
 70
0
 71
3
 72
21
 73
17
 74
0
 42
0.0000001
 43
0.0000001
 44
0.0000000001
 40
0.0
 40
0.0
 40
0.0
 40
0.0
 40
0.1085582402
 40
0.2256544832
 40
0.2884195904
 40
0.3544098993
 40
0.4239122883
 40
0.4600641918
 40
0.4971867247
 40
0.5346933651
 40
0.5712659564
 40
0.6416840211
 40
0.7086290358
 40
0.7723159429
 40
0.8908793161
 40
1.0
 40
1.0
 40
1.0
 40
1.0
 10
-12.6509382317
 20
-19.6858131175
 30
0.0
 10
-12.6623936927
 20
-19.6878001724
 30
0.0
 10
-12.687763197
 20
-19.6883638445
 30
0.0
 10
-12.7224908796
 20
-19.6810994342
 30
0.0
 10
-12.7528166998
 20
-19.6708091409
 30
0.0
 10
-12.7775534282
 20
-19.660481247
 30
0.0
 10
-12.7991052108
 20
-19.6499797241
 30
0.0
 10
-12.8170655921
 20
-19.6403952984
 30
0.0
 10
-12.8310103493
 20
-19.6325376327
 30
0.0
 10
-12.8450080349
 20
-19.6242611
 30
0.0
 10
-12.8631851025
 20
-19.6129800959
 30
0.0
 10
-12.8850257636
 20
-19.5984256542
 30
0.0
 10
-12.9101173325
 20
-19.5799853952
 30
0.0
 10
-12.9408730167
 20
-19.5550150233
 30
0.0
 10
-12.9760093044
 20
-19.5220081096
 30
0.0
 10
-13.001653276
 20
-19.4919425249
 30
0.0
 10
-13.0131781987
 20
-19.4766603005
 30
0.0
  0
SPLINE
  5
3F1
100
AcDbEntity
  8
CURVE
100
AcDbSpline
 62
250
  6
CONTINUOUS
 70
0
 71
3
 72
9
 73
5
 74
0
 42
0.0000001
 43
0.0000001
 44
0.0000000001
 40
0.0
 40
0.0
 40
0.0
 40
0.0
 40
0.4990344594
 40
1.0
 40
1.0
 40
1.0
 40
1.0
 10
-12.5495987386
 20
-19.6115605236
 30
0.0
 10
-12.5606389053
 20
-19.6320521391
 30
0.0
 10
-12.5891360946
 20
-19.666367399
 30
0.0
 10
-12.6291754812
 20
-19.6822635443
 30
0.0
 10
-12.6509382317
 20
-19.6858131175
 30
0.0
  0
SPLINE
  5
3F2
100
AcDbEntity
  8
CURVE
100
AcDbSpline
 62
250
  6
CONTINUOUS
 70
0
 71
3
 72
9
 73
5
 74
0
 42
0.0000001
 43
0.0000001
 44
0.0000000001
 40
0.0
 40
0.0
 40
0.0
 40
0.0
 40
0.761610884
 40
1.0
 40
1.0
 40
1.0
 40
1.0
 10
-12.5064807331
 20
-19.4513732611
 30
0.0
 10
-12.5107889532
 20
-19.4974372961
 30
0.0
 10
-12.5221275198
 20
-19.5545956031
 30
0.0
 10
-12.5438055625
 20
-19.6011712879
 30
0.0
 10
-12.5495987386
 20
-19.6115605236
 30
0.0
  0
SPLINE
  5
3F3
100
AcDbEntity
  8
CURVE
100
AcDbSpline
 62
250
  6
CONTINUOUS
 70
0
 71
3
 72
9
 73
5
 74
0
 42
0.0000001
 43
0.0000001
 44
0.0000000001
 40
0.0
 40
0.0
 40
0.0
 40
0.0
 40
0.7543934884
 40
1.0
 40
1.0
 40
1.0
 40
1.0
 10
-12.4974673648
 20
-19.2433662842
 30
0.0
 10
-12.4974673648
 20
-19.2970616648
 30
0.0
 10
-12.4991962537
 20
-19.3673100748
 30
0.0
 10
-12.5048289541
 20
-19.4349498233
 30
0.0
 10
-12.5064807331
 20
-19.4513732611
 30
0.0
  0
ELLIPSE
  5
3F4
100
AcDbEntity
  8
RACCORDO
100
AcDbEllipse
 62
7
  6
CONTINUOUS
 10
26.1867766246
 20
23.0750496054
 30
0.0
 11
-0.4999357615
 21
0.866062489
 31
0.0
 40
0.8524611862
 41
-1.5707093137
 42
-0.3541454691
  0
ELLIPSE
  5
3F5
100
AcDbEntity
  8
RACCORDO
100
AcDbEllipse
 62
7
  6
CONTINUOUS
 10
29.1867766246
 20
17.878897188
 30
0.0
 11
-0.4999357615
 21
0.866062489
 31
0.0
 40
0.8524611862
 41
-2.7887797088
 42
-1.5707093137
  0
ELLIPSE
  5
3F6
100
AcDbEntity
  8
RACCORDO
100
AcDbEllipse
 62
7
  6
CONTINUOUS
 10
31.3111452953
 20
10.7304149668
 30
0.0
 11
0.5439934163
 21
0.8660502101
 31
0.0
 40
0.5762602363
 41
5.5408289753
 42
6.5253885099
  0
ELLIPSE
  5
3F7
100
AcDbEntity
  8
RACCORDO
100
AcDbEllipse
 62
7
  6
CONTINUOUS
 10
21.0580969681
 20
28.4892155836
 30
0.0
 11
1.0220169846
 21
0.038066069
 31
0.0
 40
0.5763181679
 41
-0.2397997487
 42
0.7423981387
  0
ELLIPSE
  5
3F8
100
AcDbEntity
  8
ASSI
100
AcDbEllipse
 62
7
  6
CONTINUOUS
 10
5.0024308725
 20
-31.6076070831
 30
0.0
 11
-0.2501834304
 21
0.4333025529
 31
0.0
 40
0.5769361983
 41
-3.16775339
 42
-2.3565853618
  0
ELLIPSE
  5
3F9
100
AcDbEntity
  8
ASSI
100
AcDbEllipse
 62
7
  6
CONTINUOUS
 10
5.0024308725
 20
10.6852733749
 30
0.0
 11
-0.2500121049
 21
0.4330057129
 31
0.0
 40
0.5777274115
 41
-2.3559002616
 42
-0.7857891675
  0
ELLIPSE
  5
3FA
100
AcDbEntity
  8
ASSI
100
AcDbEllipse
 62
7
  6
CONTINUOUS
 10
5.1477701921
 20
-25.9387312249
 30
0.0
 11
0.3037200246
 21
0.1710449014
 31
0.0
 40
0.0105151745
 41
0.6673087948
 42
0.7742146559
  0
ELLIPSE
  5
3FB
100
AcDbEntity
  8
ASSI
100
AcDbEllipse
 62
7
  6
CONTINUOUS
 10
5.071235154
 20
-25.8945408531
 30
0.0
 11
0.4568380168
 21
0.0702030008
 31
0.0
 40
0.2209951355
 41
0.2918164413
 42
0.3503969549
  0
ELLIPSE
  5
3FC
100
AcDbEntity
  8
ASSI
100
AcDbEllipse
 62
7
  6
CONTINUOUS
 10
5.7397822445
 20
5.4501584828
 30
0.0
 11
0.1461416733
 21
0.2620230697
 31
0.0
 40
0.5671693725
 41
-2.347120172
 42
-1.6021379547
  0
ELLIPSE
  5
3FD
100
AcDbEntity
  8
ASSI
100
AcDbEllipse
 62
7
  6
CONTINUOUS
 10
6.1001783327
 20
6.0564334136
 30
0.0
 11
0.143107575
 21
0.2366201515
 31
0.0
 40
0.5904602253
 41
-1.5413474331
 42
-0.7734026452
  0
ELLIPSE
  5
3FE
100
AcDbEntity
  8
ASSI
100
AcDbEllipse
 62
7
  6
CONTINUOUS
 10
-25.8978930744
 20
28.5267331498
 30
0.0
 11
-0.2501834304
 21
0.4333025529
 31
0.0
 40
0.5769361983
 41
-0.7851038024
 42
0.0261607363
  0
ELLIPSE
  5
3FF
100
AcDbEntity
  8
ASSI
100
AcDbEllipse
 62
7
  6
CONTINUOUS
 10
6.1001783327
 20
-26.1233904876
 30
0.0
 11
0.1999879242
 21
-0.1103320873
 31
0.0
 40
0.0199195284
 41
5.5262294732
 42
6.2941742614
  0
ELLIPSE
  5
400
100
AcDbEntity
  8
ASSI
100
AcDbEllipse
 62
7
  6
CONTINUOUS
 10
5.7397822445
 20
-26.2805515643
 30
0.0
 11
0.1461416733
 21
0.2620230697
 31
0.0
 40
0.5671693725
 41
0.0145836793
 42
0.7595658966
  0
ENDSEC
  0
SECTION
  2
OBJECTS
  0
DICTIONARY
  5
C
100
AcDbDictionary
280
0
281
1
  3
ACAD_GROUP
350
D
  3
ACAD_MLINESTYLE
350
17
  3
ACAD_LAYOUT
350
1A
  3
ACAD_PLOTSETTINGS
350
19
  3
ACAD_PLOTSTYLENAME
350
E
  0
DICTIONARY
  5
D
102
{ACAD_REACTORS
330
C
102
}
100
AcDbDictionary
280
0
281
1
  0
ACDBDICTIONARYWDFLT
  5
E
102
{ACAD_REACTORS
330
C
102
}
100
AcDbDictionary
281
1
  3
Normal
350
F
100
AcDbDictionaryWithDefault
340
F
  0
DICTIONARY
  5
17
102
{ACAD_REACTORS
330
C
102
}
100
AcDbDictionary
280
0
281
1
  3
Standard
350
18
  0
DICTIONARY
  5
19
102
{ACAD_REACTORS
330
C
102
}
100
AcDbDictionary
281
1
  0
DICTIONARY
  5
1A
102
{ACAD_REACTORS
330
C
102
}
100
AcDbDictionary
281
1
  3
Model
350
401
  3
Layout1
350
402
  0
ACDBPLACEHOLDER
  5
F
102
{ACAD_REACTORS
330
E
102
}
  0
MLINESTYLE
  5
18
102
{ACAD_REACTORS
330
17
102
}
100
AcDbMlineStyle
  2
STANDARD
 70
0
  3

 62
256
 51
90.0
 52
90.0
 71
2
 49
0.5
 62
256
  6
BYLAYER
 49
-0.5
 62
256
  6
BYLAYER
  0
LAYOUT
  5
401
102
{ACAD_REACTORS
330
1A
102
}
100
AcDbPlotSettings
  1

  2
none_device
  4
ISO_A4_(297.00_x_210.00_MM)
  6

 40
0.0
 41
0.0
 42
0.0
 43
0.0
 44
297.0
 45
210.0
 46
0.0
 47
0.0
 48
0.0
 49
0.0
140
0.0
141
0.0
142
1.0
143
1.0
 70
1024
 72
1
 73
0
 74
0
  7

 75
0
147
1.0
148
0.0
149
0.0
100
AcDbLayout
  1
Model
 70
0
 71
0
 10
0.0
 20
0.0
 11
297.0
 21
210.0
 12
0.0
 22
0.0
 32
0.0
 14
0.0
 24
0.0
 34
0.0
 15
0.0
 25
0.0
 35
0.0
146
0.0
 13
0.0
 23
0.0
 33
0.0
 16
1.0
 26
0.0
 36
0.0
 17
0.0
 27
1.0
 37
0.0
 76
0
330
225
345
0
346
0
  0
LAYOUT
  5
402
102
{ACAD_REACTORS
330
1A
102
}
100
AcDbPlotSettings
  1

  2
none_device
  4
ISO_A4_(297.00_x_210.00_MM)
  6

 40
0.0
 41
0.0
 42
0.0
 43
0.0
 44
297.0
 45
210.0
 46
0.0
 47
0.0
 48
0.0
 49
0.0
140
0.0
141
0.0
142
1.0
143
1.0
 70
0
 72
1
 73
0
 74
0
  7

 75
0
147
1.0
148
0.0
149
0.0
100
AcDbLayout
  1
Layout1
 70
0
 71
1
 10
0.0
 20
0.0
 11
297.0
 21
210.0
 12
0.0
 22
0.0
 32
0.0
 14
0.0
 24
0.0
 34
0.0
 15
0.0
 25
0.0
 35
0.0
146
0.0
 13
0.0
 23
0.0
 33
0.0
 16
1.0
 26
0.0
 36
0.0
 17
0.0
 27
1.0
 37
0.0
 76
0
330
226
345
0
346
0
  0
ENDSEC
  0
EOF
