  0
SECTION
  2
HEADER
  9
$ACADVER
  1
AC1024
  9
$DWGCODEPAGE
  3
ANSI_1252
  9
$EXTMAX
 10
297.0
 20
210.0
 30
0.0
  9
$EXTMIN
 10
0.0
 20
0.0
 30
0.0
  9
$LIMMIN
 10
0.0
 20
0.0
  9
$LIMMAX
 10
297.0
 20
210.0
  9
$VIEWCTR
 10
148.5
 20
105.0
  9
$VIEWSIZE
 40
210.0
  9
$CLAYER
  8
0
  9
$LTSCALE
 40
16.335
  9
$CELTYPE
  6
BYLAYER
  9
$DIMSCALE
 40
1.0
  9
$DIMASZ
 40
3.0
  9
$DIMEXO
 40
0.5
  9
$DIMDLI
 40
11.286
  9
$DIMEXE
 40
1.5
  9
$DIMCEN
 40
2.673
  9
$DIMLFAC
 40
1.0
  9
$DIMBLK
  1
_FILLED
  9
$DIMALT
 70
0
  9
$DIMALTF
 40
0.0393700787
  9
$DIMTXT
 40
3.0
  9
$DIMTOL
 70
1
  9
$DIMLIM
 70
0
  9
$DIMTFAC
 40
1.0
  9
$DIMTP
 40
0.01
  9
$DIMTM
 40
0.01
  9
$DIMGAP
 40
0.625
  9
$DIMDSEP
 70
44
  9
$AUNITS
 70
0
  9
$PDMODE
 70
3
  9
$PDSIZE
 40
3.0
  9
$HANDSEED
  5
6A5
  9
$TILEMODE
 70
1
  9
$MEASUREMENT
 70
1
  9
$INSUNITS
 70
4
  0
ENDSEC
  0
SECTION
  2
CLASSES
  0
CLASS
  1
ACDBDICTIONARYWDFLT
  2
AcDbDictionaryWithDefault
  3
AutoCAD 2000
 90
0
 91
1
280
0
281
0
  0
CLASS
  1
ACDBPLACEHOLDER
  2
AcDbPlaceHolder
  3
AutoCAD 2000
 90
0
 91
1
280
0
281
0
  0
CLASS
  1
LAYOUT
  2
AcDbLayout
  3
AutoCAD 2000
 90
0
 91
0
280
0
281
0
  0
ENDSEC
  0
SECTION
  2
TABLES
  0
TABLE
  2
VPORT
  5
8
100
AcDbSymbolTable
 70
2
  0
VPORT
  5
1F4
100
AcDbSymbolTableRecord
100
AcDbViewportTableRecord
  2
*ACTIVE
 70
0
 10
0.0
 20
0.0
 11
1.0
 21
1.0
 12
148.5
 22
105.0
 13
0.0
 23
0.0
 14
1.0
 24
1.0
 15
0.0
 25
0.0
 16
0.0
 26
0.0
 36
1.0
 17
0.0
 27
0.0
 37
0.0
 40
210.0
 41
1.4142857143
 42
50.0
 43
0.0
 44
0.0
 50
0.0
 51
0.0
 71
0
 72
100
 73
1
 74
1
 75
0
 76
0
 77
0
 78
0
  0
ENDTAB
  0
TABLE
  2
LTYPE
  5
5
100
AcDbSymbolTable
 70
6
  0
LTYPE
  5
14
100
AcDbSymbolTableRecord
100
AcDbLinetypeTableRecord
  2
BYBLOCK
 70
0
  3

 72
65
 73
0
 40
0.0
  0
LTYPE
  5
15
100
AcDbSymbolTableRecord
100
AcDbLinetypeTableRecord
  2
BYLAYER
 70
0
  3

 72
65
 73
0
 40
0.0
  0
LTYPE
  5
16
100
AcDbSymbolTableRecord
100
AcDbLinetypeTableRecord
  2
CONTINUOUS
 70
64
  3
Solid line
 72
65
 73
0
 40
0.0
  0
LTYPE
  5
1F5
100
AcDbSymbolTableRecord
100
AcDbLinetypeTableRecord
  2
CENTER
 70
64
  3
____ _ ____ _ ____ _ ____ _ ____ _ ____ _ ____
 72
65
 73
4
 40
0.6
 49
0.375
 74
0
 49
-0.075
 74
0
 49
0.075
 74
0
 49
-0.075
 74
0
  0
LTYPE
  5
1F6
100
AcDbSymbolTableRecord
100
AcDbLinetypeTableRecord
  2
HIDDEN
 70
64
  3
- - - - - - - - - - - - - - - - - - - -
 72
65
 73
2
 40
0.2
 49
0.1
 74
0
 49
-0.1
 74
0
  0
LTYPE
  5
1F7
100
AcDbSymbolTableRecord
100
AcDbLinetypeTableRecord
  2
PHANTOM
 70
64
  3
_____ _ _ _____ _ _ _____ _ _ _____
 72
65
 73
6
 40
0.8
 49
0.45
 74
0
 49
-0.05
 74
0
 49
0.1
 74
0
 49
-0.05
 74
0
 49
0.1
 74
0
 49
-0.05
 74
0
  0
LTYPE
  5
1F8
100
AcDbSymbolTableRecord
100
AcDbLinetypeTableRecord
  2
DOT
 70
64
  3
. . . . . . . . . . . . . . . . . . . .
 72
65
 73
2
 40
0.2
 49
0.1
 74
0
 49
-0.1
 74
0
  0
LTYPE
  5
1F9
100
AcDbSymbolTableRecord
100
AcDbLinetypeTableRecord
  2
DASHED
 70
64
  3
- - - - - - - - - - - - - - - - - - - -
 72
65
 73
2
 40
0.2
 49
0.1
 74
0
 49
-0.1
 74
0
  0
ENDTAB
  0
TABLE
  2
LAYER
  5
2
100
AcDbSymbolTable
 70
36
  0
LAYER
  5
10
100
AcDbSymbolTableRecord
100
AcDbLayerTableRecord
  2
0
 70
0
 62
7
  6
CONTINUOUS
370
-3
390
F
  0
LAYER
  5
1FA
100
AcDbSymbolTableRecord
100
AcDbLayerTableRecord
  2
DEFAULT_1
 70
0
 62
7
  6
CENTER
370
-3
390
F
  0
LAYER
  5
1FB
100
AcDbSymbolTableRecord
100
AcDbLayerTableRecord
  2
DEFAULT_2
 70
0
 62
7
  6
HIDDEN
370
-3
390
F
  0
LAYER
  5
1FC
100
AcDbSymbolTableRecord
100
AcDbLayerTableRecord
  2
DEFAULT_3
 70
0
 62
7
  6
PHANTOM
370
-3
390
F
  0
LAYER
  5
1FD
100
AcDbSymbolTableRecord
100
AcDbLayerTableRecord
  2
ASSI
 70
0
 62
7
  6
CONTINUOUS
370
-3
390
F
  0
LAYER
  5
1FE
100
AcDbSymbolTableRecord
100
AcDbLayerTableRecord
  2
BIDONE
 70
0
 62
7
  6
CONTINUOUS
370
-3
390
F
  0
LAYER
  5
1FF
100
AcDbSymbolTableRecord
100
AcDbLayerTableRecord
  2
COLORE_MATERIALE
 70
0
 62
7
  6
CONTINUOUS
370
-3
390
F
  0
LAYER
  5
200
100
AcDbSymbolTableRecord
100
AcDbLayerTableRecord
  2
COORDINATE
 70
0
 62
7
  6
CONTINUOUS
370
-3
390
F
  0
LAYER
  5
201
100
AcDbSymbolTableRecord
100
AcDbLayerTableRecord
  2
COORD_ORIGINE
 70
0
 62
7
  6
CONTINUOUS
370
-3
390
F
  0
LAYER
  5
202
100
AcDbSymbolTableRecord
100
AcDbLayerTableRecord
  2
COPY_PUBLISH
 70
0
 62
7
  6
CONTINUOUS
370
-3
390
F
  0
LAYER
  5
203
100
AcDbSymbolTableRecord
100
AcDbLayerTableRecord
  2
COSMETIC
 70
0
 62
7
  6
CONTINUOUS
370
-3
390
F
  0
LAYER
  5
204
100
AcDbSymbolTableRecord
100
AcDbLayerTableRecord
  2
COSMETICI
 70
0
 62
7
  6
CONTINUOUS
370
-3
390
F
  0
LAYER
  5
205
100
AcDbSymbolTableRecord
100
AcDbLayerTableRecord
  2
CURVE
 70
0
 62
7
  6
CONTINUOUS
370
-3
390
F
  0
LAYER
  5
206
100
AcDbSymbolTableRecord
100
AcDbLayerTableRecord
  2
DRAFT
 70
0
 62
7
  6
CONTINUOUS
370
-3
390
F
  0
LAYER
  5
207
100
AcDbSymbolTableRecord
100
AcDbLayerTableRecord
  2
IGES_SCRITTE
 70
0
 62
7
  6
CONTINUOUS
370
-3
390
F
  0
LAYER
  5
208
100
AcDbSymbolTableRecord
100
AcDbLayerTableRecord
  2
IMPORT_IGES
 70
0
 62
7
  6
CONTINUOUS
370
-3
390
F
  0
LAYER
  5
209
100
AcDbSymbolTableRecord
100
AcDbLayerTableRecord
  2
INTFCLR_1
 70
0
 62
7
  6
CONTINUOUS
370
-3
390
F
  0
LAYER
  5
20A
100
AcDbSymbolTableRecord
100
AcDbLayerTableRecord
  2
INTFCLR_2849
 70
0
 62
7
  6
CONTINUOUS
370
-3
390
F
  0
LAYER
  5
20B
100
AcDbSymbolTableRecord
100
AcDbLayerTableRecord
  2
INTFCLR_3437
 70
0
 62
7
  6
CONTINUOUS
370
-3
390
F
  0
LAYER
  5
20C
100
AcDbSymbolTableRecord
100
AcDbLayerTableRecord
  2
INTF_1
 70
0
 62
7
  6
CONTINUOUS
370
-3
390
F
  0
LAYER
  5
20D
100
AcDbSymbolTableRecord
100
AcDbLayerTableRecord
  2
INTF_15
 70
0
 62
7
  6
CONTINUOUS
370
-3
390
F
  0
LAYER
  5
20E
100
AcDbSymbolTableRecord
100
AcDbLayerTableRecord
  2
INTF_16
 70
0
 62
7
  6
CONTINUOUS
370
-3
390
F
  0
LAYER
  5
20F
100
AcDbSymbolTableRecord
100
AcDbLayerTableRecord
  2
INTF_2
 70
0
 62
7
  6
CONTINUOUS
370
-3
390
F
  0
LAYER
  5
210
100
AcDbSymbolTableRecord
100
AcDbLayerTableRecord
  2
INTF_22
 70
0
 62
7
  6
CONTINUOUS
370
-3
390
F
  0
LAYER
  5
211
100
AcDbSymbolTableRecord
100
AcDbLayerTableRecord
  2
INTF_24
 70
0
 62
7
  6
CONTINUOUS
370
-3
390
F
  0
LAYER
  5
212
100
AcDbSymbolTableRecord
100
AcDbLayerTableRecord
  2
INTF_3
 70
0
 62
7
  6
CONTINUOUS
370
-3
390
F
  0
LAYER
  5
213
100
AcDbSymbolTableRecord
100
AcDbLayerTableRecord
  2
INTF_4
 70
0
 62
7
  6
CONTINUOUS
370
-3
390
F
  0
LAYER
  5
214
100
AcDbSymbolTableRecord
100
AcDbLayerTableRecord
  2
INTF_5
 70
0
 62
7
  6
CONTINUOUS
370
-3
390
F
  0
LAYER
  5
215
100
AcDbSymbolTableRecord
100
AcDbLayerTableRecord
  2
INTF_6
 70
0
 62
7
  6
CONTINUOUS
370
-3
390
F
  0
LAYER
  5
216
100
AcDbSymbolTableRecord
100
AcDbLayerTableRecord
  2
INTF_8
 70
0
 62
7
  6
CONTINUOUS
370
-3
390
F
  0
LAYER
  5
217
100
AcDbSymbolTableRecord
100
AcDbLayerTableRecord
  2
INTF_9
 70
0
 62
7
  6
CONTINUOUS
370
-3
390
F
  0
LAYER
  5
218
100
AcDbSymbolTableRecord
100
AcDbLayerTableRecord
  2
INTF_CYAN
 70
0
 62
7
  6
CONTINUOUS
370
-3
390
F
  0
LAYER
  5
219
100
AcDbSymbolTableRecord
100
AcDbLayerTableRecord
  2
NOTE
 70
0
 62
7
  6
CONTINUOUS
370
-3
390
F
  0
LAYER
  5
21A
100
AcDbSymbolTableRecord
100
AcDbLayerTableRecord
  2
PIANI
 70
0
 62
7
  6
CONTINUOUS
370
-3
390
F
  0
LAYER
  5
21B
100
AcDbSymbolTableRecord
100
AcDbLayerTableRecord
  2
PIANI_DI_RIFERIMENTO
 70
0
 62
7
  6
CONTINUOUS
370
-3
390
F
  0
LAYER
  5
21C
100
AcDbSymbolTableRecord
100
AcDbLayerTableRecord
  2
PIANI_ORIGINE
 70
0
 62
7
  6
CONTINUOUS
370
-3
390
F
  0
LAYER
  5
21D
100
AcDbSymbolTableRecord
100
AcDbLayerTableRecord
  2
PUNTI
 70
0
 62
7
  6
CONTINUOUS
370
-3
390
F
  0
LAYER
  5
21E
100
AcDbSymbolTableRecord
100
AcDbLayerTableRecord
  2
RACCORDO
 70
0
 62
7
  6
CONTINUOUS
370
-3
390
F
  0
LAYER
  5
21F
100
AcDbSymbolTableRecord
100
AcDbLayerTableRecord
  2
RGB__255__255__255__
 70
0
 62
7
  6
CONTINUOUS
370
-3
390
F
  0
LAYER
  5
220
100
AcDbSymbolTableRecord
100
AcDbLayerTableRecord
  2
SIMBOLI
 70
0
 62
7
  6
CONTINUOUS
370
-3
390
F
  0
LAYER
  5
221
100
AcDbSymbolTableRecord
100
AcDbLayerTableRecord
  2
SMUSSO
 70
0
 62
7
  6
CONTINUOUS
370
-3
390
F
  0
LAYER
  5
222
100
AcDbSymbolTableRecord
100
AcDbLayerTableRecord
  2
SNAPLINE
 70
0
 62
7
  6
CONTINUOUS
370
-3
390
F
  0
LAYER
  5
223
100
AcDbSymbolTableRecord
100
AcDbLayerTableRecord
  2
SUPERFICI
 70
0
 62
7
  6
CONTINUOUS
370
-3
390
F
  0
LAYER
  5
224
100
AcDbSymbolTableRecord
100
AcDbLayerTableRecord
  2
SUPERFICI_SKEL
 70
0
 62
7
  6
CONTINUOUS
370
-3
390
F
  0
LAYER
  5
225
100
AcDbSymbolTableRecord
100
AcDbLayerTableRecord
  2
TRASH
 70
0
 62
7
  6
CONTINUOUS
370
-3
390
F
  0
LAYER
  5
226
100
AcDbSymbolTableRecord
100
AcDbLayerTableRecord
  2
XSEC_DATUMS
 70
0
 62
7
  6
CONTINUOUS
370
-3
390
F
  0
ENDTAB
  0
TABLE
  2
STYLE
  5
3
100
AcDbSymbolTable
 70
1
  0
STYLE
  5
11
100
AcDbSymbolTableRecord
100
AcDbTextStyleTableRecord
  2
STANDARD
 70
0
 40
0.0
 41
0.8
 50
0.0
 71
0
 42
0.2
  3
txt
  4

  0
STYLE
  5
227
100
AcDbSymbolTableRecord
100
AcDbTextStyleTableRecord
  2
TEXTSTYLE_1
 70
0
 40
0.0
 41
0.8
 50
0.0
 71
0
 42
0.2
  3
gdt
  4

  0
ENDTAB
  0
TABLE
  2
VIEW
  5
6
100
AcDbSymbolTable
 70
0
  0
ENDTAB
  0
TABLE
  2
UCS
  5
7
100
AcDbSymbolTable
 70
0
  0
ENDTAB
  0
TABLE
  2
APPID
  5
9
100
AcDbSymbolTable
 70
1
  0
APPID
  5
228
100
AcDbSymbolTableRecord
100
AcDbRegAppTableRecord
  2
ACAD
 70
0
  0
ENDTAB
  0
TABLE
  2
BLOCK_RECORD
  5
1
100
AcDbSymbolTable
 70
0
  0
BLOCK_RECORD
  5
229
100
AcDbSymbolTableRecord
100
AcDbBlockTableRecord
  2
*Model_Space
  0
BLOCK_RECORD
  5
22A
100
AcDbSymbolTableRecord
100
AcDbBlockTableRecord
  2
*Paper_Space
  0
BLOCK_RECORD
  5
22B
100
AcDbSymbolTableRecord
100
AcDbBlockTableRecord
  2
_FILLED
  0
ENDTAB
  0
TABLE
  2
DIMSTYLE
  5
A
100
AcDbSymbolTable
 70
1
100
AcDbDimStyleTable
 71
0
  0
DIMSTYLE
105
22C
100
AcDbSymbolTableRecord
100
AcDbDimStyleTableRecord
  2
STANDARD
 70
0
  3

  4

 40
1.0
 41
3.0
 42
0.5
 43
0.38
 44
1.5
 45
0.0
 46
0.0
 47
0.01
 48
0.01
140
3.0
141
0.09
142
0.0
143
25.4
144
1.0
145
0.0
146
1.0
147
0.625
 71
1
 72
0
 73
0
 74
0
 75
0
 76
0
 77
1
 78
8
 79
2
170
0
171
1
172
0
173
0
174
0
175
0
176
0
177
0
178
0
270
2
179
2
271
2
272
2
273
2
274
2
275
0
280
0
281
0
282
0
283
1
284
8
285
0
286
0
287
3
288
0
340
11
278
44
341
22B
342
22B
343
22B
344
22B
  0
ENDTAB
  0
ENDSEC
  0
SECTION
  2
BLOCKS
  0
BLOCK
  5
20
100
AcDbEntity
  8
0
100
AcDbBlockBegin
  2
*Model_Space
 70
0
 10
0.0
 20
0.0
 30
0.0
  3
*Model_Space
  1

  0
ENDBLK
  5
21
100
AcDbEntity
  8
0
100
AcDbBlockEnd
  0
BLOCK
  5
1C
100
AcDbEntity
  8
0
100
AcDbBlockBegin
  2
*Paper_Space
 70
0
 10
0.0
 20
0.0
 30
0.0
  3
*Paper_Space
  1

  0
ENDBLK
  5
1D
100
AcDbEntity
  8
0
100
AcDbBlockEnd
  0
BLOCK
  5
22D
100
AcDbEntity
  8
0
100
AcDbBlockBegin
  2
_FILLED
 70
64
 10
0.0
 20
0.0
  3
_FILLED
  1

  0
SOLID
  5
22E
100
AcDbEntity
  8
0
  6
BYBLOCK
 62
0
100
AcDbTrace
 10
0.0
 20
0.0
 11
-1.0
 21
0.3166666667
 12
-1.0
 22
-0.3166666667
 13
-1.0
 23
-0.3166666667
  0
ENDBLK
  5
22F
100
AcDbEntity
  8
0
  6
BYBLOCK
 62
0
100
AcDbBlockEnd
  0
ENDSEC
  0
SECTION
  2
ENTITIES
  0
LINE
  5
230
100
AcDbEntity
  8
ASSI
100
AcDbLine
 62
7
  6
CONTINUOUS
 10
-22.9369721412
 20
-22.4882195425
 11
-8.0687579729
 21
-31.0729400608
  0
LINE
  5
231
100
AcDbEntity
  8
ASSI
100
AcDbLine
 62
250
  6
CONTINUOUS
 10
-23.0405134517
 20
-22.2593511119
 11
-8.1722992834
 21
-30.8440716302
  0
LWPOLYLINE
  5
232
100
AcDbEntity
  8
ASSI
100
AcDbPolyline
 62
250
  6
CONTINUOUS
 90
9
 70
0
 10
-22.9369721412
 20
-22.4882195425
 10
-22.9525720435
 20
-22.4780107162
 10
-22.9751512577
 20
-22.4580947288
 10
-22.994677269
 20
-22.4339104735
 10
-23.0109432117
 20
-22.4057141672
 10
-23.0237767583
 20
-22.3738045322
 10
-23.0330419456
 20
-22.3385196308
 10
-23.0386406148
 20
-22.3002332841
 10
-23.0405134517
 20
-22.2593511119
  0
LINE
  5
233
100
AcDbEntity
  8
ASSI
100
AcDbLine
 62
7
  6
CONTINUOUS
 10
-22.9563340112
 20
20.517791983
 11
-20.6712482344
 21
21.979077846
  0
LINE
  5
234
100
AcDbEntity
  8
ASSI
100
AcDbLine
 62
250
  6
CONTINUOUS
 10
-22.69621501
 20
20.4993100219
 11
-20.4148536335
 21
21.9582141741
  0
LWPOLYLINE
  5
235
100
AcDbEntity
  8
ASSI
100
AcDbPolyline
 62
250
  6
CONTINUOUS
 90
9
 70
0
 10
-22.9563340112
 20
20.517791983
 10
-22.9358320639
 20
20.528964966
 10
-22.9068346386
 20
20.5392434236
 10
-22.8753753584
 20
20.5446629285
 10
-22.8418401229
 20
20.5451456668
 10
-22.8067383201
 20
20.5407131267
 10
-22.7705193127
 20
20.5314859607
 10
-22.7335431639
 20
20.517617249
 10
-22.69621501
 20
20.4993100219
  0
LWPOLYLINE
  5
236
100
AcDbEntity
  8
ASSI
100
AcDbPolyline
 62
250
  6
CONTINUOUS
 90
9
 70
0
 10
-23.1869600611
 20
-22.0552138152
 10
-23.185845376
 20
-22.074480246
 10
-23.1797573143
 20
-22.1040393166
 10
-23.1684104082
 20
-22.1331195473
 10
-23.1519303625
 20
-22.1613693217
 10
-23.1305842295
 20
-22.1883859499
 10
-23.1046895077
 20
-22.2138663064
 10
-23.0745452925
 20
-22.2375966963
 10
-23.0405134517
 20
-22.2593511119
  0
LINE
  5
237
100
AcDbEntity
  8
ASSI
100
AcDbLine
 62
7
  6
CONTINUOUS
 10
-23.1869600611
 20
-22.0552138152
 11
-23.1869600611
 21
20.096558467
  0
LINE
  5
238
100
AcDbEntity
  8
ASSI
100
AcDbLine
 62
250
  6
CONTINUOUS
 10
-23.0405134517
 20
-22.2593511119
 11
-23.0405134517
 21
19.8924211703
  0
LWPOLYLINE
  5
239
100
AcDbEntity
  8
ASSI
100
AcDbPolyline
 62
250
  6
CONTINUOUS
 90
16
 70
0
 10
-23.0405134517
 20
19.8924211703
 10
-23.0386406148
 20
19.9354660477
 10
-23.0330419456
 20
19.9802175972
 10
-23.0237767583
 20
20.0262017046
 10
-23.0109432117
 20
20.0729311976
 10
-22.994677269
 20
20.1199110068
 10
-22.9751512577
 20
20.1666434105
 10
-22.9525720435
 20
20.2126333085
 10
-22.9271788389
 20
20.2573934671
 10
-22.8992406687
 20
20.300449681
 10
-22.8690535198
 20
20.3413457971
 10
-22.8369372061
 20
20.3796485467
 10
-22.8032319797
 20
20.4149521364
 10
-22.7682949261
 20
20.4468825471
 10
-22.7324961812
 20
20.4751014962
 10
-22.69621501
 20
20.4993100219
  0
LWPOLYLINE
  5
23A
100
AcDbEntity
  8
ASSI
100
AcDbPolyline
 62
250
  6
CONTINUOUS
 90
3
 70
0
 10
-14.5701283139
 20
18.2553349228
 10
-14.59422093
 20
18.2286366947
 10
-14.6165314608
 20
18.2014582304
  0
LWPOLYLINE
  5
23B
100
AcDbEntity
  8
ASSI
100
AcDbPolyline
 62
250
  6
CONTINUOUS
 90
8
 70
0
 10
-14.2673059922
 20
18.5072014307
 10
-14.2661264314
 20
18.508500664
 10
-14.2621282936
 20
18.5149083972
 10
-14.2597473501
 20
18.5227546069
 10
-14.2590100282
 20
18.5319531918
 10
-14.2599243043
 20
18.5424035054
 10
-14.2624801562
 20
18.5539919108
 10
-14.2666497193
 20
18.5665920836
  0
LINE
  5
23C
100
AcDbEntity
  8
ASSI
100
AcDbLine
 62
7
  6
CONTINUOUS
 10
-15.401232485
 20
19.0634121583
 11
-15.9032054224
 21
18.5406738713
  0
LINE
  5
23D
100
AcDbEntity
  8
ASSI
100
AcDbLine
 62
250
  6
CONTINUOUS
 10
-14.2666497193
 20
18.5665920836
 11
-14.5701283139
 21
18.2553349228
  0
LINE
  5
23E
100
AcDbEntity
  8
ASSI
100
AcDbLine
 62
7
  6
CONTINUOUS
 10
-14.2673183098
 20
18.5071887886
 11
-14.5707969045
 21
18.1959316276
  0
LINE
  5
23F
100
AcDbEntity
  8
ASSI
100
AcDbLine
 62
250
  6
CONTINUOUS
 10
-15.401232485
 20
18.6073613843
 11
-14.4080495364
 21
19.1808147403
  0
LINE
  5
240
100
AcDbEntity
  8
ASSI
100
AcDbLine
 62
250
  6
CONTINUOUS
 10
-15.3167960071
 20
18.3295596861
 11
-14.2666497193
 21
18.9359030732
  0
LINE
  5
241
100
AcDbEntity
  8
RACCORDO
100
AcDbLine
 62
250
  6
CONTINUOUS
 10
-7.2006452056
 20
22.7803020112
 11
-11.3404902006
 21
20.4591167385
  0
LINE
  5
242
100
AcDbEntity
  8
RACCORDO
100
AcDbLine
 62
250
  6
CONTINUOUS
 10
-6.4833570268
 20
22.6887114132
 11
-10.6424450048
 21
20.3580333137
  0
LINE
  5
243
100
AcDbEntity
  8
DRAFT
100
AcDbLine
 62
7
  6
CONTINUOUS
 10
-7.8526283152
 20
22.4508933633
 11
-14.2105176794
 21
18.9234943866
  0
LINE
  5
244
100
AcDbEntity
  8
RACCORDO
100
AcDbLine
 62
7
  6
CONTINUOUS
 10
11.9779898635
 20
33.4143168683
 11
-7.1369012068
 21
22.8071564359
  0
LINE
  5
245
100
AcDbEntity
  8
RACCORDO
100
AcDbLine
 62
250
  6
CONTINUOUS
 10
-6.6398322143
 20
22.8213316247
 11
12.3710984082
 21
33.3708026134
  0
LINE
  5
246
100
AcDbEntity
  8
DRAFT
100
AcDbLine
 62
7
  6
CONTINUOUS
 10
-11.6634121891
 20
20.3137534762
 11
-11.723087196
 21
20.2807087115
  0
LINE
  5
247
100
AcDbEntity
  8
ASSI
100
AcDbLine
 62
250
  6
CONTINUOUS
 10
-12.3869865791
 20
19.8982708241
 11
-14.2105176794
 21
18.8908141505
  0
LINE
  5
248
100
AcDbEntity
  8
ASSI
100
AcDbLine
 62
250
  6
CONTINUOUS
 10
-11.7266437256
 20
19.8093741872
 11
-14.4811217493
 21
18.2879052782
  0
LINE
  5
249
100
AcDbEntity
  8
RACCORDO
100
AcDbLine
 62
250
  6
CONTINUOUS
 10
-11.5930920729
 20
20.3348104807
 11
-12.3869865791
 21
19.8982708241
  0
LINE
  5
24A
100
AcDbEntity
  8
RACCORDO
100
AcDbLine
 62
250
  6
CONTINUOUS
 10
-10.941300838
 20
20.241254861
 11
-11.7267029299
 21
19.8094083711
  0
LINE
  5
24B
100
AcDbEntity
  8
RACCORDO
100
AcDbLine
 62
250
  6
CONTINUOUS
 10
-7.7716542025
 20
22.4953008981
 11
-7.7800495125
 21
22.4907532202
  0
LINE
  5
24C
100
AcDbEntity
  8
RACCORDO
100
AcDbLine
 62
7
  6
CONTINUOUS
 10
-11.7215170714
 20
20.2778734334
 11
-14.2105176794
 21
18.9140237393
  0
LINE
  5
24D
100
AcDbEntity
  8
0
100
AcDbLine
 62
250
  6
CONTINUOUS
 10
-11.7169318068
 20
20.2801502511
 11
-14.2105176794
 21
18.9138106646
  0
LINE
  5
24E
100
AcDbEntity
  8
ASSI
100
AcDbLine
 62
7
  6
CONTINUOUS
 10
-16.0324467419
 20
20.0740540682
 11
-16.6119057836
 21
19.7624397476
  0
LINE
  5
24F
100
AcDbEntity
  8
ASSI
100
AcDbLine
 62
250
  6
CONTINUOUS
 10
-15.9352534021
 20
20.062603112
 11
-16.5547671948
 21
19.7294486426
  0
LINE
  5
250
100
AcDbEntity
  8
RACCORDO
100
AcDbLine
 62
250
  6
CONTINUOUS
 10
-7.6825796081
 20
22.542969214
 11
-7.7071181565
 21
22.5299939599
  0
LWPOLYLINE
  5
251
100
AcDbEntity
  8
RACCORDO
100
AcDbPolyline
 62
250
  6
CONTINUOUS
 90
10
 70
0
 10
12.3710984082
 20
33.3708026134
 10
12.4200528838
 20
33.3961224027
 10
12.4686180367
 20
33.4163313954
 10
12.5164283721
 20
33.4312727738
 10
12.5631283861
 20
33.4408298302
 10
12.6083602572
 20
33.4449235918
 10
12.6517682803
 20
33.4435193269
 10
12.6930210684
 20
33.4366287045
 10
12.7318130523
 20
33.4243037631
 10
12.7661812623
 20
33.4076101683
  0
LWPOLYLINE
  5
252
100
AcDbEntity
  8
RACCORDO
100
AcDbPolyline
 62
250
  6
CONTINUOUS
 90
3
 70
0
 10
-7.5602058958
 20
22.6066134986
 10
-7.5958209683
 20
22.5882283408
 10
-7.6338361683
 20
22.568614484
  0
LINE
  5
253
100
AcDbEntity
  8
RACCORDO
100
AcDbLine
 62
250
  6
CONTINUOUS
 10
-7.2006452056
 20
22.7803020111
 11
-7.1868782149
 21
22.7872591016
  0
LWPOLYLINE
  5
254
100
AcDbEntity
  8
ASSI
100
AcDbPolyline
 62
250
  6
CONTINUOUS
 90
9
 70
0
 10
-14.4080495364
 20
19.1808147403
 10
-14.3934461539
 20
19.1880773065
 10
-14.3790256829
 20
19.1934974902
 10
-14.3649426269
 20
19.1970172197
 10
-14.3513478848
 20
19.1985987848
 10
-14.3383871015
 20
19.1982252455
 10
-14.3261991127
 20
19.1959005974
 10
-14.314914497
 20
19.1916497295
 10
-14.3105128473
 20
19.1893227715
  0
LINE
  5
255
100
AcDbEntity
  8
ASSI
100
AcDbLine
 62
250
  6
CONTINUOUS
 10
-16.0285940201
 20
20.0759683336
 11
-16.0324467419
 21
20.0740540682
  0
LINE
  5
256
100
AcDbEntity
  8
RACCORDO
100
AcDbLine
 62
250
  6
CONTINUOUS
 10
-7.4862288663
 20
22.6439901609
 11
-7.5114727145
 21
22.6311420942
  0
LINE
  5
257
100
AcDbEntity
  8
RACCORDO
100
AcDbLine
 62
250
  6
CONTINUOUS
 10
-11.7215170714
 20
20.2778734334
 11
-11.7074662036
 21
20.284869817
  0
LINE
  5
258
100
AcDbEntity
  8
RACCORDO
100
AcDbLine
 62
250
  6
CONTINUOUS
 10
-11.5819101282
 20
20.3402876144
 11
-11.5930920729
 21
20.3348104807
  0
LINE
  5
259
100
AcDbEntity
  8
RACCORDO
100
AcDbLine
 62
250
  6
CONTINUOUS
 10
-7.4119057657
 20
22.6807440439
 11
-7.4297186069
 21
22.6717289717
  0
LINE
  5
25A
100
AcDbEntity
  8
RACCORDO
100
AcDbLine
 62
250
  6
CONTINUOUS
 10
-7.337238112
 20
22.716874291
 11
-7.3506533941
 21
22.7100525721
  0
LINE
  5
25B
100
AcDbEntity
  8
RACCORDO
100
AcDbLine
 62
7
  6
CONTINUOUS
 10
-11.6100214591
 20
20.33878787
 11
-11.6634121891
 21
20.3137534762
  0
LWPOLYLINE
  5
25C
100
AcDbEntity
  8
RACCORDO
100
AcDbPolyline
 62
7
  6
CONTINUOUS
 90
10
 70
0
 10
-7.1868782149
 20
22.7872591016
 10
-7.262228275
 20
22.7523796515
 10
-7.337238112
 20
22.716874291
 10
-7.4119057657
 20
22.6807440439
 10
-7.4862288663
 20
22.6439901609
 10
-7.5602058958
 20
22.6066134986
 10
-7.6338361683
 20
22.568614484
 10
-7.7071181565
 20
22.5299939599
 10
-7.7800495125
 20
22.4907532202
 10
-7.8526283151
 20
22.4508933631
  0
LINE
  5
25D
100
AcDbEntity
  8
RACCORDO
100
AcDbLine
 62
250
  6
CONTINUOUS
 10
-7.262228275
 20
22.7523796515
 11
-7.2742804535
 21
22.7462172163
  0
LINE
  5
25E
100
AcDbEntity
  8
RACCORDO
100
AcDbLine
 62
7
  6
CONTINUOUS
 10
-7.1868782149
 20
22.7872591016
 11
-7.1866190154
 21
22.7873775163
  0
LWPOLYLINE
  5
25F
100
AcDbEntity
  8
RACCORDO
100
AcDbPolyline
 62
7
  6
CONTINUOUS
 90
3
 70
0
 10
-11.5027244774
 20
20.3878880374
 10
-11.5564588885
 20
20.3634993904
 10
-11.6100214591
 20
20.33878787
  0
LINE
  5
260
100
AcDbEntity
  8
RACCORDO
100
AcDbLine
 62
250
  6
CONTINUOUS
 10
-11.7169318068
 20
20.2801502511
 11
-11.7074662036
 21
20.284869817
  0
LINE
  5
261
100
AcDbEntity
  8
RACCORDO
100
AcDbLine
 62
250
  6
CONTINUOUS
 10
-11.6796442961
 20
20.2973332941
 11
-11.6757519178
 21
20.2985588566
  0
LINE
  5
262
100
AcDbEntity
  8
RACCORDO
100
AcDbLine
 62
7
  6
CONTINUOUS
 10
-11.6657162852
 20
20.3035332471
 11
-11.7074662036
 21
20.284869817
  0
LWPOLYLINE
  5
263
100
AcDbEntity
  8
RACCORDO
100
AcDbPolyline
 62
250
  6
CONTINUOUS
 90
7
 70
0
 10
-6.4833570268
 20
22.6887114132
 10
-6.45671126
 20
22.7005228589
 10
-6.430669154
 20
22.7081315448
 10
-6.4056471298
 20
22.7114158297
 10
-6.3820452843
 20
22.7103232209
 10
-6.3602410199
 20
22.7048712133
 10
-6.3444519031
 20
22.6974992125
  0
LINE
  5
264
100
AcDbEntity
  8
RACCORDO
100
AcDbLine
 62
250
  6
CONTINUOUS
 10
-11.6757519178
 20
20.2985588566
 11
-11.6657162852
 21
20.3035332471
  0
LINE
  5
265
100
AcDbEntity
  8
RACCORDO
100
AcDbLine
 62
7
  6
CONTINUOUS
 10
-11.6238641677
 20
20.3220058926
 11
-11.6657162852
 21
20.3035332471
  0
LINE
  5
266
100
AcDbEntity
  8
RACCORDO
100
AcDbLine
 62
7
  6
CONTINUOUS
 10
-11.5819101282
 20
20.3402876144
 11
-11.6238641677
 21
20.3220058926
  0
LINE
  5
267
100
AcDbEntity
  8
RACCORDO
100
AcDbLine
 62
7
  6
CONTINUOUS
 10
-11.5817194091
 20
20.34037001
 11
-11.5819101282
 21
20.3402876144
  0
LWPOLYLINE
  5
268
100
AcDbEntity
  8
RACCORDO
100
AcDbPolyline
 62
7
  6
CONTINUOUS
 90
4
 70
0
 10
-11.340490201
 20
20.4591167384
 10
-11.3947401336
 20
20.4356967114
 10
-11.4488182258
 20
20.4119538111
 10
-11.5027244774
 20
20.3878880374
  0
LINE
  5
269
100
AcDbEntity
  8
RACCORDO
100
AcDbLine
 62
250
  6
CONTINUOUS
 10
-7.1474386629
 20
22.8013261637
 11
-7.2006452059
 21
22.7803020118
  0
LWPOLYLINE
  5
26A
100
AcDbEntity
  8
ASSI
100
AcDbPolyline
 62
250
  6
CONTINUOUS
 90
13
 70
0
 10
-12.3869865791
 20
19.8982708242
 10
-12.3400706146
 20
19.9159713089
 10
-12.291055458
 20
19.9291375592
 10
-12.2401140251
 20
19.9377240783
 10
-12.1874234686
 20
19.9417032638
 10
-12.1331725989
 20
19.9410610307
 10
-12.0775612077
 20
19.9357968257
 10
-12.0207850606
 20
19.9259307754
 10
-11.9630458839
 20
19.9114999511
 10
-11.9045588622
 20
19.8925545524
 10
-11.8455348351
 20
19.8691637308
 10
-11.786179395
 20
19.8414145134
 10
-11.7267029299
 20
19.8094083711
  0
LINE
  5
26B
100
AcDbEntity
  8
RACCORDO
100
AcDbLine
 62
250
  6
CONTINUOUS
 10
-11.5930920729
 20
20.3348104807
 11
-11.5474064984
 21
20.3518867461
  0
LWPOLYLINE
  5
26C
100
AcDbEntity
  8
ASSI
100
AcDbPolyline
 62
7
  6
CONTINUOUS
 90
5
 70
0
 10
-4.9663746895
 20
-23.5764297336
 10
-4.9847827978
 20
-23.5762613803
 10
-5.003587748
 20
-23.5789447345
 10
-5.0225452879
 20
-23.5845836267
 10
-5.0413946312
 20
-23.5932563148
  0
LWPOLYLINE
  5
26D
100
AcDbEntity
  8
ASSI
100
AcDbPolyline
 62
7
  6
CONTINUOUS
 90
3
 70
0
 10
-4.9316323617
 20
-23.584803008
 10
-4.9485892232
 20
-23.5793245168
 10
-4.9663746895
 20
-23.5764297336
  0
LWPOLYLINE
  5
26E
100
AcDbEntity
  8
CURVE
100
AcDbPolyline
 62
250
  6
CONTINUOUS
 90
9
 70
0
 10
-19.3009989942
 20
-17.3268627301
 10
-19.2941317728
 20
-17.3300503002
 10
-19.2875261218
 20
-17.3315615017
 10
-19.2814336483
 20
-17.3313387736
 10
-19.2759989942
 20
-17.3293404864
 10
-19.2716192565
 20
-17.3257126503
 10
-19.2683585839
 20
-17.3205736655
 10
-19.2663411744
 20
-17.3141192742
 10
-19.2656436551
 20
-17.3064529442
  0
LWPOLYLINE
  5
26F
100
AcDbEntity
  8
CURVE
100
AcDbPolyline
 62
250
  6
CONTINUOUS
 90
9
 70
0
 10
-18.1794413722
 20
-17.6343663767
 10
-18.1725741508
 20
-17.6375539468
 10
-18.1659684998
 20
-17.6390651483
 10
-18.1598760263
 20
-17.6388424201
 10
-18.1544413722
 20
-17.636844133
 10
-18.1500616345
 20
-17.6332162969
 10
-18.1468009619
 20
-17.6280773121
 10
-18.1447835524
 20
-17.6216229208
 10
-18.1440860331
 20
-17.6139565907
  0
LWPOLYLINE
  5
270
100
AcDbEntity
  8
RACCORDO
100
AcDbPolyline
 62
250
  6
CONTINUOUS
 90
10
 70
0
 10
-11.9541578374
 20
-21.1095295228
 10
-11.9274560631
 20
-21.1224664926
 10
-11.8972692489
 20
-21.1325303013
 10
-11.8645142427
 20
-21.1394151385
 10
-11.830058342
 20
-21.1429181741
 10
-11.7950719582
 20
-21.1429008025
 10
-11.7609968579
 20
-21.1394210383
 10
-11.7289352382
 20
-21.1327262473
 10
-11.6996252541
 20
-21.123110025
 10
-11.6738048071
 20
-21.1109421612
  0
LWPOLYLINE
  5
271
100
AcDbEntity
  8
RACCORDO
100
AcDbPolyline
 62
250
  6
CONTINUOUS
 90
10
 70
0
 10
-11.9541578374
 20
-19.8602329953
 10
-11.9274253394
 20
-19.8731823846
 10
-11.8972101074
 20
-19.8832496923
 10
-11.8644338349
 20
-19.8901310441
 10
-11.829967718
 20
-19.8936261835
 10
-11.7949833786
 20
-19.8935997285
 10
-11.7609208774
 20
-19.8901127524
 10
-11.728880152
 20
-19.8834150363
 10
-11.6995968427
 20
-19.8738022458
 10
-11.6738048071
 20
-19.8616456337
  0
LINE
  5
272
100
AcDbEntity
  8
ASSI
100
AcDbLine
 62
7
  6
CONTINUOUS
 10
-4.44012543
 20
-23.8412589631
 11
-4.9223248206
 21
-23.5891163411
  0
LINE
  5
273
100
AcDbEntity
  8
ASSI
100
AcDbLine
 62
7
  6
CONTINUOUS
 10
-4.1825744937
 20
-23.9971854375
 11
-4.5428796344
 21
-23.8082032361
  0
LINE
  5
274
100
AcDbEntity
  8
CURVE
100
AcDbLine
 62
250
  6
CONTINUOUS
 10
-19.3009989942
 20
-17.3268627301
 11
-19.4071456215
 21
-17.2655749978
  0
LINE
  5
275
100
AcDbEntity
  8
CURVE
100
AcDbLine
 62
250
  6
CONTINUOUS
 10
-18.1794088453
 20
-17.6343851573
 11
-19.2656436551
 21
-17.0072067919
  0
LINE
  5
276
100
AcDbEntity
  8
CURVE
100
AcDbLine
 62
250
  6
CONTINUOUS
 10
-19.4425009606
 20
-16.9050916002
 11
-20.529222967
 21
-16.2776319335
  0
LINE
  5
277
100
AcDbEntity
  8
RACCORDO
100
AcDbLine
 62
7
  6
CONTINUOUS
 10
-15.8231258238
 20
-18.9432698873
 11
-11.9127413132
 21
-21.2010768951
  0
LINE
  5
278
100
AcDbEntity
  8
RACCORDO
100
AcDbLine
 62
250
  6
CONTINUOUS
 10
-15.864542348
 20
-18.851722515
 11
-11.9541578374
 21
-21.1095295228
  0
LINE
  5
279
100
AcDbEntity
  8
CURVE
100
AcDbLine
 62
250
  6
CONTINUOUS
 10
-20.3876884737
 20
-16.1551415293
 11
-18.3209433386
 21
-17.3484542679
  0
LINE
  5
27A
100
AcDbEntity
  8
ASSI
100
AcDbLine
 62
250
  6
CONTINUOUS
 10
-11.3336701389
 20
-21.286003263
 11
-11.5925306971
 21
-21.136540421
  0
LINE
  5
27B
100
AcDbEntity
  8
ASSI
100
AcDbLine
 62
250
  6
CONTINUOUS
 10
-11.1947168125
 20
-21.0425042996
 11
-11.3022312841
 21
-20.9804267912
  0
LINE
  5
27C
100
AcDbEntity
  8
RACCORDO
100
AcDbLine
 62
250
  6
CONTINUOUS
 10
-11.9541578374
 20
-19.8602329953
 11
-15.864542348
 21
-17.6024259875
  0
LINE
  5
27D
100
AcDbEntity
  8
ASSI
100
AcDbLine
 62
250
  6
CONTINUOUS
 10
-4.6832009498
 20
-23.8243284963
 11
-5.0629572643
 21
-23.6050619598
  0
LINE
  5
27E
100
AcDbEntity
  8
RACCORDO
100
AcDbLine
 62
250
  6
CONTINUOUS
 10
-11.8152046241
 20
-19.6167339666
 11
-15.7255891348
 21
-17.3589269587
  0
LINE
  5
27F
100
AcDbEntity
  8
ASSI
100
AcDbLine
 62
250
  6
CONTINUOUS
 10
-4.5428796344
 20
-23.8082032361
 11
-4.9223248206
 21
-23.5891163411
  0
LINE
  5
280
100
AcDbEntity
  8
ASSI
100
AcDbLine
 62
7
  6
CONTINUOUS
 10
-4.44012543
 20
-23.8412589631
 11
-4.1850210975
 21
-23.9885530075
  0
LWPOLYLINE
  5
281
100
AcDbEntity
  8
ASSI
100
AcDbPolyline
 62
250
  6
CONTINUOUS
 90
7
 70
0
 10
-10.9801704831
 20
-21.0819365717
 10
-10.9972424261
 20
-21.0707131603
 10
-11.0116624104
 20
-21.0583112378
 10
-11.0231891409
 20
-21.0449383143
 10
-11.0316297327
 20
-21.0308181473
 10
-11.0368429366
 20
-21.0161870021
 10
-11.0387491165
 20
-21.000318751
  0
LWPOLYLINE
  5
282
100
AcDbEntity
  8
RACCORDO
100
AcDbPolyline
 62
250
  6
CONTINUOUS
 90
6
 70
0
 10
-15.864542348
 20
-17.6024259875
 10
-15.8869483934
 20
-17.5870087176
 10
-15.9043782983
 20
-17.5695792295
 10
-15.9163024179
 20
-17.5506668994
 10
-15.9223694627
 20
-17.5307724942
 10
-15.9231209918
 20
-17.5207710688
  0
LWPOLYLINE
  5
283
100
AcDbEntity
  8
RACCORDO
100
AcDbPolyline
 62
250
  6
CONTINUOUS
 90
6
 70
0
 10
-15.864542348
 20
-18.851722515
 10
-15.8869699033
 20
-18.8362875057
 10
-15.9044058684
 20
-18.8188416094
 10
-15.9163239515
 20
-18.7999170005
 10
-15.9223773204
 20
-18.7800166966
 10
-15.9231209917
 20
-18.7700703864
  0
LWPOLYLINE
  5
284
100
AcDbEntity
  8
CURVE
100
AcDbPolyline
 62
250
  6
CONTINUOUS
 90
9
 70
0
 10
-20.5645457791
 20
-16.2164134707
 10
-20.5638724422
 20
-16.2247315757
 10
-20.5618780786
 20
-16.2335103993
 10
-20.558638653
 20
-16.2424155589
 10
-20.5541904401
 20
-16.2512590971
 10
-20.5488584602
 20
-16.259394838
 10
-20.5427773315
 20
-16.2666709846
 10
-20.5361786824
 20
-16.2728103907
 10
-20.5291904385
 20
-16.2776507151
  0
LWPOLYLINE
  5
285
100
AcDbEntity
  8
CURVE
100
AcDbPolyline
 62
250
  6
CONTINUOUS
 90
9
 70
0
 10
-19.4425009606
 20
-17.2043377543
 10
-19.4418276236
 20
-17.2126558593
 10
-19.43983326
 20
-17.221434683
 10
-19.4365938344
 20
-17.2303398425
 10
-19.4321456215
 20
-17.2391833808
 10
-19.4268136416
 20
-17.2473191216
 10
-19.420732513
 20
-17.2545952682
 10
-19.4141338638
 20
-17.2607346743
 10
-19.40714562
 20
-17.2655749987
  0
LWPOLYLINE
  5
286
100
AcDbEntity
  8
CURVE
100
AcDbPolyline
 62
250
  6
CONTINUOUS
 90
9
 70
0
 10
-19.2656436551
 20
-13.9142696022
 10
-19.2663169921
 20
-13.9059514972
 10
-19.2683113557
 20
-13.8971726736
 10
-19.2715507813
 20
-13.888267514
 10
-19.2759989942
 20
-13.8794239758
 10
-19.2813309741
 20
-13.8712882349
 10
-19.2874121027
 20
-13.8640120883
 10
-19.2940107519
 20
-13.8578726822
 10
-19.3009989957
 20
-13.8530323578
  0
LWPOLYLINE
  5
287
100
AcDbEntity
  8
CURVE
100
AcDbPolyline
 62
250
  6
CONTINUOUS
 90
9
 70
0
 10
-18.1440860331
 20
-14.9013500367
 10
-18.1447593701
 20
-14.8930319316
 10
-18.1467537337
 20
-14.884253108
 10
-18.1499931593
 20
-14.8753479485
 10
-18.1544413722
 20
-14.8665044102
 10
-18.1597733521
 20
-14.8583686693
 10
-18.1658544807
 20
-14.8510925228
 10
-18.1724531299
 20
-14.8449531167
 10
-18.1794413737
 20
-14.8401127923
  0
LWPOLYLINE
  5
288
100
AcDbEntity
  8
ASSI
100
AcDbPolyline
 62
250
  6
CONTINUOUS
 90
9
 70
0
 10
-23.1869600608
 20
20.0965470602
 10
-23.1858435249
 20
20.0772760632
 10
-23.179752101
 20
20.0477154272
 10
-23.1684019376
 20
20.0186352856
 10
-23.1519193133
 20
19.9903868277
 10
-23.1305721018
 20
19.9633728648
 10
-23.1046785471
 20
19.9378963554
 10
-23.0745382289
 20
19.9141705817
 10
-23.0405134517
 20
19.8924211703
  0
LINE
  5
289
100
AcDbEntity
  8
CURVE
100
AcDbLine
 62
250
  6
CONTINUOUS
 10
-20.5645457791
 20
-16.2164510283
 11
-20.5645457791
 21
-13.5037693572
  0
LINE
  5
28A
100
AcDbEntity
  8
CURVE
100
AcDbLine
 62
250
  6
CONTINUOUS
 10
-20.3876884737
 20
-13.7693092394
 11
-20.3876884737
 21
-15.5351964646
  0
LINE
  5
28B
100
AcDbEntity
  8
CURVE
100
AcDbLine
 62
250
  6
CONTINUOUS
 10
-20.3876884737
 20
-15.7711914828
 11
-20.3876884737
 21
-16.1551415293
  0
LINE
  5
28C
100
AcDbEntity
  8
CURVE
100
AcDbLine
 62
250
  6
CONTINUOUS
 10
-19.4425009606
 20
-17.2043377543
 11
-19.4425009606
 21
-16.9050916002
  0
LINE
  5
28D
100
AcDbEntity
  8
CURVE
100
AcDbLine
 62
250
  6
CONTINUOUS
 10
-19.4425009606
 20
-14.1108380167
 11
-19.4425009606
 21
-13.8121544106
  0
LINE
  5
28E
100
AcDbEntity
  8
CURVE
100
AcDbLine
 62
250
  6
CONTINUOUS
 10
-19.2656436551
 20
-13.9142696022
 11
-19.2656436551
 21
-14.2129532083
  0
LINE
  5
28F
100
AcDbEntity
  8
CURVE
100
AcDbLine
 62
250
  6
CONTINUOUS
 10
-19.2656436551
 20
-17.0072067919
 11
-19.2656436551
 21
-17.3064529459
  0
LINE
  5
290
100
AcDbEntity
  8
ASSI
100
AcDbLine
 62
250
  6
CONTINUOUS
 10
-14.7226143941
 20
18.0057237485
 11
-14.7278626167
 21
17.9895169276
  0
LWPOLYLINE
  5
291
100
AcDbEntity
  8
ASSI
100
AcDbPolyline
 62
7
  6
CONTINUOUS
 90
13
 70
0
 10
-12.3149104063
 20
18.2267510407
 10
-12.3250771633
 20
18.2064187351
 10
-12.3374041855
 20
18.1844153462
 10
-12.3509951459
 20
18.1626590146
 10
-12.3656641786
 20
18.1414566267
 10
-12.3812006053
 20
18.1211065183
 10
-12.3974321388
 20
18.1018132243
 10
-12.4141281782
 20
18.0838115097
 10
-12.4310134601
 20
18.0673437158
 10
-12.4477726443
 20
18.0526332298
 10
-12.4640437239
 20
18.0398763765
 10
-12.4794795612
 20
18.0291959822
 10
-12.4930016298
 20
18.0210510685
  0
LWPOLYLINE
  5
292
100
AcDbEntity
  8
ASSI
100
AcDbPolyline
 62
250
  6
CONTINUOUS
 90
6
 70
0
 10
-14.6558133925
 20
18.1453657272
 10
-14.6727847933
 20
18.1164516883
 10
-14.6879527317
 20
18.0879420112
 10
-14.701186699
 20
18.0602141531
 10
-14.7126172037
 20
18.0328906568
 10
-14.7226143941
 20
18.0057237485
  0
LWPOLYLINE
  5
293
100
AcDbEntity
  8
ASSI
100
AcDbPolyline
 62
250
  6
CONTINUOUS
 90
6
 70
0
 10
-14.5707951753
 20
18.1959334013
 10
-14.5655865099
 20
18.2036968732
 10
-14.5628814438
 20
18.2137162574
 10
-14.5627424149
 20
18.225804511
 10
-14.5651717878
 20
18.2397563696
 10
-14.5701283139
 20
18.2553349228
  0
LWPOLYLINE
  5
294
100
AcDbEntity
  8
ASSI
100
AcDbPolyline
 62
250
  6
CONTINUOUS
 90
3
 70
0
 10
-14.6165314608
 20
18.2014582304
 10
-14.6370599064
 20
18.1737995299
 10
-14.6558133925
 20
18.1453657272
  0
LWPOLYLINE
  5
295
100
AcDbEntity
  8
ASSI
100
AcDbPolyline
 62
7
  6
CONTINUOUS
 90
6
 70
0
 10
-9.7985693931
 20
19.7742075285
 10
-9.8040843826
 20
19.7669197562
 10
-9.8097003357
 20
19.759674156
 10
-9.8154178762
 20
19.7524738791
 10
-9.8212383756
 20
19.7453227383
 10
-9.8221279008
 20
19.7442565473
  0
LWPOLYLINE
  5
296
100
AcDbEntity
  8
ASSI
100
AcDbPolyline
 62
250
  6
CONTINUOUS
 90
3
 70
0
 10
-10.7446469728
 20
18.8089894023
 10
-10.7501322208
 20
18.8038388598
 10
-10.7530183279
 20
18.7976238907
  0
LWPOLYLINE
  5
297
100
AcDbEntity
  8
RACCORDO
100
AcDbPolyline
 62
250
  6
CONTINUOUS
 90
3
 70
0
 10
-2.7794908918
 20
21.114721598
 10
-2.7577107732
 20
21.128350879
 10
-2.7366252433
 20
21.1416974027
  0
LWPOLYLINE
  5
298
100
AcDbEntity
  8
RACCORDO
100
AcDbPolyline
 62
250
  6
CONTINUOUS
 90
5
 70
0
 10
-2.8988937666
 20
21.0423455346
 10
-2.8735572531
 20
21.0573768997
 10
-2.8489709626
 20
21.0721333094
 10
-2.8251209865
 20
21.0866128132
 10
-2.7794908918
 20
21.114721598
  0
LINE
  5
299
100
AcDbEntity
  8
RACCORDO
100
AcDbLine
 62
250
  6
CONTINUOUS
 10
-2.9517757367
 20
21.0114520868
 11
-2.8988937666
 21
21.0423455346
  0
LINE
  5
29A
100
AcDbEntity
  8
DRAFT
100
AcDbLine
 62
7
  6
CONTINUOUS
 10
5.7835737633
 20
27.6984456943
 11
13.9845244227
 21
32.43357988
  0
LINE
  5
29B
100
AcDbEntity
  8
ASSI
100
AcDbLine
 62
250
  6
CONTINUOUS
 10
-5.768903461
 20
20.8935782945
 11
-8.6346803682
 21
19.2389146249
  0
LINE
  5
29C
100
AcDbEntity
  8
ASSI
100
AcDbLine
 62
250
  6
CONTINUOUS
 10
-5.6276759178
 20
20.6572873763
 11
-8.4934528251
 21
19.0026237067
  0
LINE
  5
29D
100
AcDbEntity
  8
ASSI
100
AcDbLine
 62
250
  6
CONTINUOUS
 10
-8.1723914413
 20
18.955196417
 11
-9.5988463051
 21
18.1315792563
  0
LINE
  5
29E
100
AcDbEntity
  8
ASSI
100
AcDbLine
 62
250
  6
CONTINUOUS
 10
-8.0311638981
 20
18.7189054988
 11
-9.323611779
 21
17.9726622905
  0
LINE
  5
29F
100
AcDbEntity
  8
DRAFT
100
AcDbLine
 62
7
  6
CONTINUOUS
 10
13.3746312061
 20
30.8671239122
 11
6.835129006
 21
27.0912908763
  0
LINE
  5
2A0
100
AcDbEntity
  8
RACCORDO
100
AcDbLine
 62
250
  6
CONTINUOUS
 10
-7.0488484754
 20
19.0431460505
 11
-6.7163679981
 21
19.2351161111
  0
LINE
  5
2A1
100
AcDbEntity
  8
RACCORDO
100
AcDbLine
 62
250
  6
CONTINUOUS
 10
-4.1199830153
 20
20.7342362598
 11
-3.1283101657
 21
21.3068157346
  0
LINE
  5
2A2
100
AcDbEntity
  8
0
100
AcDbLine
 62
7
  6
CONTINUOUS
 10
13.5530663656
 20
30.792978592
 11
6.9885486162
 21
27.0027083162
  0
LINE
  5
2A3
100
AcDbEntity
  8
0
100
AcDbLine
 62
7
  6
CONTINUOUS
 10
7.0875339988
 20
26.9455553968
 11
13.2789056439
 21
30.5203757885
  0
LINE
  5
2A4
100
AcDbEntity
  8
RACCORDO
100
AcDbLine
 62
250
  6
CONTINUOUS
 10
-6.7926242873
 20
18.7937942708
 11
-6.5398335691
 21
18.9397524633
  0
LINE
  5
2A5
100
AcDbEntity
  8
RACCORDO
100
AcDbLine
 62
250
  6
CONTINUOUS
 10
-3.9434485863
 20
20.438872612
 11
-2.9517757367
 21
21.0114520868
  0
LWPOLYLINE
  5
2A6
100
AcDbEntity
  8
ASSI
100
AcDbPolyline
 62
250
  6
CONTINUOUS
 90
13
 70
0
 10
-12.3956216268
 20
18.0096539778
 10
-12.3829518938
 20
18.016955857
 10
-12.3703017009
 20
18.0252521012
 10
-12.357755292
 20
18.0344561374
 10
-12.3455012049
 20
18.0443771215
 10
-12.3334975366
 20
18.0550039368
 10
-12.3215057044
 20
18.0665847208
 10
-12.309489843
 20
18.0792366853
 10
-12.2977157764
 20
18.0927620571
 10
-12.2864192961
 20
18.1069651441
 10
-12.2757370702
 20
18.1216986839
 10
-12.2657256847
 20
18.1368839037
 10
-12.2564800782
 20
18.152392887
  0
LINE
  5
2A7
100
AcDbEntity
  8
RACCORDO
100
AcDbLine
 62
7
  6
CONTINUOUS
 10
13.7081061866
 20
32.5988310788
 11
13.7031697126
 21
32.5960305634
  0
LWPOLYLINE
  5
2A8
100
AcDbEntity
  8
ASSI
100
AcDbPolyline
 62
250
  6
CONTINUOUS
 90
16
 70
0
 10
-8.6346803682
 20
19.2389146249
 10
-8.6670560836
 20
19.2208325713
 10
-8.6986593088
 20
19.2043340942
 10
-8.7294653265
 20
19.1893505823
 10
-8.7592103378
 20
19.1759201752
 10
-8.7881223037
 20
19.1638487156
 10
-8.8169119178
 20
19.1527920326
 10
-8.8455876137
 20
19.1427391923
 10
-8.8741000652
 20
19.1337080523
 10
-8.9030550088
 20
19.125535067
 10
-8.9324833583
 20
19.118269776
 10
-8.9622836271
 20
19.1120029267
 10
-8.9928370717
 20
19.1067464865
 10
-9.0242268046
 20
19.1026070227
 10
-9.0562495259
 20
19.0997330289
 10
-9.088837188
 20
19.0982515445
  0
LINE
  5
2A9
100
AcDbEntity
  8
ASSI
100
AcDbLine
 62
7
  6
CONTINUOUS
 10
-11.8495836694
 20
19.1260196704
 11
-11.7083231897
 21
19.204772702
  0
LINE
  5
2AA
100
AcDbEntity
  8
ASSI
100
AcDbLine
 62
250
  6
CONTINUOUS
 10
-11.7521953351
 20
19.1146268277
 11
-11.6109348951
 21
19.1933798372
  0
LINE
  5
2AB
100
AcDbEntity
  8
ASSI
100
AcDbLine
 62
7
  6
CONTINUOUS
 10
-13.6577975355
 20
17.3716747607
 11
-12.493009613
 21
18.0210466186
  0
LINE
  5
2AC
100
AcDbEntity
  8
ASSI
100
AcDbLine
 62
250
  6
CONTINUOUS
 10
-13.5999178524
 20
17.3382557571
 11
-12.3956212778
 21
18.0096537764
  0
LINE
  5
2AD
100
AcDbEntity
  8
ASSI
100
AcDbLine
 62
7
  6
CONTINUOUS
 10
-6.251663678
 20
21.1274800324
 11
-7.0187871849
 21
20.6998069709
  0
LINE
  5
2AE
100
AcDbEntity
  8
ASSI
100
AcDbLine
 62
7
  6
CONTINUOUS
 10
-9.1677101455
 20
19.5017776033
 11
-7.9366656272
 21
20.1880876975
  0
LINE
  5
2AF
100
AcDbEntity
  8
ASSI
100
AcDbLine
 62
250
  6
CONTINUOUS
 10
-9.0702656501
 20
19.4904161075
 11
-7.8392772602
 21
20.1766948731
  0
LINE
  5
2B0
100
AcDbEntity
  8
0
100
AcDbLine
 62
7
  6
CONTINUOUS
 10
13.349616322
 20
31.890361675
 11
13.99835314
 21
32.251859072
  0
LINE
  5
2B1
100
AcDbEntity
  8
ASSI
100
AcDbLine
 62
250
  6
CONTINUOUS
 10
-11.8495836694
 20
19.1260196704
 11
-11.8494168971
 21
19.1261123224
  0
LWPOLYLINE
  5
2B2
100
AcDbEntity
  8
ASSI
100
AcDbPolyline
 62
250
  6
CONTINUOUS
 90
16
 70
0
 10
-8.4934528251
 20
19.0026237067
 10
-8.5301797304
 20
18.982258992
 10
-8.5659762379
 20
18.9635283643
 10
-8.6008423476
 20
18.9464318234
 10
-8.6345246916
 20
18.931124812
 10
-8.6672766379
 20
18.9174518874
 10
-8.6998582895
 20
18.9049467225
 10
-8.7323160366
 20
18.893489128
 10
-8.7646034891
 20
18.8831992931
 10
-8.7973415804
 20
18.8739714583
 10
-8.8306298259
 20
18.8656942142
 10
-8.8643687101
 20
18.85847897
 10
-8.8988806201
 20
18.8525541945
 10
-8.9342730184
 20
18.8479960437
 10
-8.9704384426
 20
18.8447283615
 10
-9.0073768926
 20
18.8427511478
  0
LINE
  5
2B3
100
AcDbEntity
  8
ASSI
100
AcDbLine
 62
250
  6
CONTINUOUS
 10
-6.1455781376
 20
21.1208909074
 11
-6.9213988507
 21
20.6884141282
  0
LWPOLYLINE
  5
2B4
100
AcDbEntity
  8
ASSI
100
AcDbPolyline
 62
7
  6
CONTINUOUS
 90
10
 70
0
 10
-9.1677142565
 20
19.5017849806
 10
-9.1799910139
 20
19.4950156729
 10
-9.2428165404
 20
19.4626551373
 10
-9.3042148614
 20
19.4348195649
 10
-9.3637024819
 20
19.4116158393
 10
-9.4211062509
 20
19.3929755661
 10
-9.4764751885
 20
19.3787611539
 10
-9.5295747651
 20
19.3689454345
 10
-9.5799945857
 20
19.3634977589
 10
-9.5879115877
 20
19.3630176582
  0
LWPOLYLINE
  5
2B5
100
AcDbEntity
  8
ASSI
100
AcDbPolyline
 62
250
  6
CONTINUOUS
 90
13
 70
0
 10
-11.6109348951
 20
19.1933798372
 10
-11.5981975606
 20
19.2003379345
 10
-11.5858413449
 20
19.2066102313
 10
-11.5738791562
 20
19.2122314066
 10
-11.5623279513
 20
19.2172357276
 10
-11.5511895877
 20
19.221660183
 10
-11.5404512179
 20
19.2255424052
 10
-11.530115035
 20
19.2289170915
 10
-11.5201865341
 20
19.2318173967
 10
-11.5106556744
 20
19.2342759598
 10
-11.5015207848
 20
19.2363255133
 10
-11.4927828778
 20
19.2379975878
 10
-11.484434285
 20
19.2393213081
  0
LINE
  5
2B6
100
AcDbEntity
  8
ASSI
100
AcDbLine
 62
7
  6
CONTINUOUS
 10
-5.3238857129
 20
22.1175156066
 11
-9.6822057632
 21
19.7737521243
  0
LINE
  5
2B7
100
AcDbEntity
  8
RACCORDO
100
AcDbLine
 62
250
  6
CONTINUOUS
 10
-5.2023940381
 20
22.1032019114
 11
-9.560713018
 21
19.7594390047
  0
LWPOLYLINE
  5
2B8
100
AcDbEntity
  8
ASSI
100
AcDbPolyline
 62
250
  6
CONTINUOUS
 90
9
 70
0
 10
-4.8460864985
 20
19.1617312696
 10
-4.8371974053
 20
19.1665110816
 10
-4.8227724819
 20
19.1716810333
 10
-4.8071634017
 20
19.1744131797
 10
-4.7905409981
 20
19.1746778796
 10
-4.7730870771
 20
19.172472368
 10
-4.7549926907
 20
19.1678208321
 10
-4.7364560944
 20
19.1607742813
 10
-4.7176802826
 20
19.1514099434
  0
LWPOLYLINE
  5
2B9
100
AcDbEntity
  8
RACCORDO
100
AcDbPolyline
 62
250
  6
CONTINUOUS
 90
19
 70
0
 10
-6.7163679981
 20
19.2351161111
 10
-6.6836518998
 20
19.2522838086
 10
-6.6514568427
 20
19.2660026628
 10
-6.6197828265
 20
19.2762726737
 10
-6.5884072894
 20
19.2831120384
 10
-6.5575527933
 20
19.2865025598
 10
-6.5278870245
 20
19.2863896471
 10
-6.4994951717
 20
19.282740981
 10
-6.4722920462
 20
19.2755888807
 10
-6.4466897676
 20
19.2649757125
 10
-6.4226557043
 20
19.2508877177
 10
-6.400222488
 20
19.233338655
 10
-6.3799001333
 20
19.2124121678
 10
-6.3616600159
 20
19.1878933326
 10
-6.3455307602
 20
19.1599970728
 10
-6.3321082535
 20
19.1294518023
 10
-6.3215911249
 20
19.0965003257
 10
-6.3137807453
 20
19.0608998383
 10
-6.3086771147
 20
19.0226503402
  0
LWPOLYLINE
  5
2BA
100
AcDbEntity
  8
RACCORDO
100
AcDbPolyline
 62
250
  6
CONTINUOUS
 90
11
 70
0
 10
-6.5398335726
 20
18.9397524653
 10
-6.5221524882
 20
18.9490302007
 10
-6.504455739
 20
18.9564755929
 10
-6.486864061
 20
18.9620359628
 10
-6.469483963
 20
18.9656697804
 10
-6.4524452608
 20
18.9673490664
 10
-6.435897728
 20
18.9670685351
 10
-6.4199876024
 20
18.9648422375
 10
-6.4047711681
 20
18.9606920336
 10
-6.3902692951
 20
18.954615071
 10
-6.3839764852
 20
18.9512371053
  0
LINE
  5
2BB
100
AcDbEntity
  8
0
100
AcDbLine
 62
7
  6
CONTINUOUS
 10
14.0336146689
 20
32.2703318345
 11
13.99835314
 21
32.251859072
  0
LWPOLYLINE
  5
2BC
100
AcDbEntity
  8
RACCORDO
100
AcDbPolyline
 62
250
  6
CONTINUOUS
 90
21
 70
0
 10
-9.560713018
 20
19.7594390047
 10
-9.5687646382
 20
19.7552491741
 10
-9.577118279
 20
19.7511927899
 10
-9.5857739406
 20
19.7472698523
 10
-9.5947282259
 20
19.7434778631
 10
-9.6039845319
 20
19.7398193204
 10
-9.6135530491
 20
19.7363017185
 10
-9.6234438338
 20
19.7329206749
 10
-9.6336468296
 20
19.7296805721
 10
-9.644142058
 20
19.7266020524
 10
-9.6549401685
 20
19.7236836479
 10
-9.6660305115
 20
19.7209268266
 10
-9.6773611599
 20
19.718356634
 10
-9.6889326518
 20
19.7159752488
 10
-9.700744449
 20
19.7137804925
 10
-9.71274301
 20
19.7117908749
 10
-9.7249257764
 20
19.7100084122
 10
-9.7372953065
 20
19.7084310883
 10
-9.7498057331
 20
19.707071365
 10
-9.7624572137
 20
19.7059303992
 10
-9.7752495907
 20
19.7050070339
  0
LWPOLYLINE
  5
2BD
100
AcDbEntity
  8
ASSI
100
AcDbPolyline
 62
250
  6
CONTINUOUS
 90
8
 70
0
 10
-11.7083231897
 20
19.204772702
 10
-11.7047914753
 20
19.2066009868
 10
-11.6914449856
 20
19.2113055357
 10
-11.676869425
 20
19.2132438121
 10
-11.6612872938
 20
19.2123861741
 10
-11.6449364508
 20
19.2087456729
 10
-11.6280664774
 20
19.2023778387
 10
-11.6109348951
 20
19.1933798372
  0
LINE
  5
2BE
100
AcDbEntity
  8
ASSI
100
AcDbLine
 62
250
  6
CONTINUOUS
 10
-6.2481304259
 20
21.129309054
 11
-6.251663678
 21
21.1274800324
  0
LWPOLYLINE
  5
2BF
100
AcDbEntity
  8
ASSI
100
AcDbPolyline
 62
250
  6
CONTINUOUS
 90
8
 70
0
 10
-9.1676539836
 20
19.5018089505
 10
-9.1641207318
 20
19.503637972
 10
-9.1507741622
 20
19.5083421694
 10
-9.1361986646
 20
19.5102801191
 10
-9.1206167277
 20
19.5094222387
 10
-9.1042662035
 20
19.5057816236
 10
-9.0873966756
 20
19.499413846
 10
-9.0702656501
 20
19.4904161075
  0
LWPOLYLINE
  5
2C0
100
AcDbEntity
  8
ASSI
100
AcDbPolyline
 62
250
  6
CONTINUOUS
 90
8
 70
0
 10
-12.4930016297
 20
18.0210510685
 10
-12.4894760936
 20
18.0228757682
 10
-12.4761295114
 20
18.027579904
 10
-12.4615540263
 20
18.0295177963
 10
-12.4459721247
 20
18.0286598735
 10
-12.4296216567
 20
18.0250192382
 10
-12.4127522066
 20
18.0186514701
 10
-12.3956212778
 20
18.0096537764
  0
LWPOLYLINE
  5
2C1
100
AcDbEntity
  8
ASSI
100
AcDbPolyline
 62
250
  6
CONTINUOUS
 90
8
 70
0
 10
-7.0187585014
 20
20.6998229524
 10
-7.0152539331
 20
20.7016359923
 10
-7.0019073639
 20
20.7063401895
 10
-6.9873318666
 20
20.7082781389
 10
-6.9717499298
 20
20.7074202585
 10
-6.9553994054
 20
20.7037796434
 10
-6.9385298769
 20
20.6974118662
 10
-6.9213988507
 20
20.6884141282
  0
LWPOLYLINE
  5
2C2
100
AcDbEntity
  8
ASSI
100
AcDbPolyline
 62
250
  6
CONTINUOUS
 90
8
 70
0
 10
-7.9365403885
 20
20.1881573357
 10
-7.9331323845
 20
20.1899167146
 10
-7.9197858141
 20
20.1946209142
 10
-7.9052103151
 20
20.1965588652
 10
-7.8896283766
 20
20.1957009855
 10
-7.8732778506
 20
20.1920603705
 10
-7.856408321
 20
20.1856925929
 10
-7.8392772938
 20
20.1766948544
  0
LINE
  5
2C3
100
AcDbEntity
  8
RACCORDO
100
AcDbLine
 62
7
  6
CONTINUOUS
 10
13.7577134525
 20
32.6243631951
 11
13.7081061866
 21
32.5988310788
  0
LWPOLYLINE
  5
2C4
100
AcDbEntity
  8
ASSI
100
AcDbPolyline
 62
250
  6
CONTINUOUS
 90
8
 70
0
 10
-11.8494168971
 20
19.1261123224
 10
-11.8459490964
 20
19.1278971286
 10
-11.8325622541
 20
19.1325864151
 10
-11.8179413519
 20
19.1344973189
 10
-11.8023432682
 20
19.1336041242
 10
-11.7860228621
 20
19.129940075
 10
-11.7692213711
 20
19.1235770708
 10
-11.7521953351
 20
19.1146268277
  0
LWPOLYLINE
  5
2C5
100
AcDbEntity
  8
ASSI
100
AcDbPolyline
 62
250
  6
CONTINUOUS
 90
6
 70
0
 10
-6.9213988507
 20
20.6884141282
 10
-6.950092827
 20
20.6738741344
 10
-6.9806455
 20
20.6611233467
 10
-7.0130568697
 20
20.650161765
 10
-7.0476980925
 20
20.6408956509
 10
-7.084198012
 20
20.6334187429
  0
LWPOLYLINE
  5
2C6
100
AcDbEntity
  8
ASSI
100
AcDbPolyline
 62
7
  6
CONTINUOUS
 90
15
 70
0
 10
-7.0199633401
 20
20.6991569203
 10
-7.0322444867
 20
20.6929479598
 10
-7.04685042
 20
20.6866749919
 10
-7.0636315997
 20
20.6806214274
 10
-7.0825362056
 20
20.6749932876
 10
-7.1032957877
 20
20.6700328261
 10
-7.1257273727
 20
20.6659229809
 10
-7.1495436829
 20
20.662834907
 10
-7.1742513475
 20
20.6609154125
 10
-7.1995802295
 20
20.6602460581
 10
-7.225120856
 20
20.6608795302
 10
-7.250126308
 20
20.6627869831
 10
-7.2742639703
 20
20.6658944136
 10
-7.2971700842
 20
20.6700825406
 10
-7.3032221883
 20
20.6714059364
  0
LWPOLYLINE
  5
2C7
100
AcDbEntity
  8
RACCORDO
100
AcDbPolyline
 62
7
  6
CONTINUOUS
 90
21
 70
0
 10
-9.6822290171
 20
19.7737392862
 10
-9.6875289004
 20
19.7710632377
 10
-9.6967599447
 20
19.7670278898
 10
-9.7084782851
 20
19.7627087118
 10
-9.7226843003
 20
19.7583513431
 10
-9.7392004125
 20
19.7542236072
 10
-9.757718313
 20
19.7505744571
 10
-9.7779840754
 20
19.7475920996
 10
-9.7997902407
 20
19.7454280716
 10
-9.8228844626
 20
19.7442168685
 10
-9.8470723781
 20
19.7440716862
 10
-9.8719840548
 20
19.7450868305
 10
-9.8970790651
 20
19.7472997587
 10
-9.9220560046
 20
19.7507160747
 10
-9.946581624
 20
19.7553089231
 10
-9.9700768587
 20
19.7609505139
 10
-9.9923310567
 20
19.7675352606
 10
-10.0130631295
 20
19.7749038061
 10
-10.0317459942
 20
19.7827300435
 10
-10.0483105321
 20
19.7907864115
 10
-10.0593273301
 20
19.7968390306
  0
LINE
  5
2C8
100
AcDbEntity
  8
ASSI
100
AcDbLine
 62
7
  6
CONTINUOUS
 10
-12.2746984928
 20
18.3921318252
 11
-13.9639245903
 21
17.5484286855
  0
LWPOLYLINE
  5
2C9
100
AcDbEntity
  8
RACCORDO
100
AcDbPolyline
 62
250
  6
CONTINUOUS
 90
9
 70
0
 10
-9.6822057632
 20
19.7737521243
 10
-9.6776929778
 20
19.7760056097
 10
-9.6633641243
 20
19.7811211729
 10
-9.6479447885
 20
19.7837446296
 10
-9.6316038427
 20
19.7838472429
 10
-9.6145202634
 20
19.7814278839
 10
-9.5968811527
 20
19.7765130489
 10
-9.5788796876
 20
19.7691565664
 10
-9.5607130179
 20
19.7594390047
  0
LWPOLYLINE
  5
2CA
100
AcDbEntity
  8
RACCORDO
100
AcDbPolyline
 62
250
  6
CONTINUOUS
 90
8
 70
0
 10
-5.2023940381
 20
22.1032019114
 10
-5.1845314641
 20
22.1121084635
 10
-5.1667916399
 20
22.1188412655
 10
-5.1493633199
 20
22.1232950135
 10
-5.1324259964
 20
22.1253870227
 10
-5.1161814216
 20
22.1250540628
 10
-5.1008457506
 20
22.1222697875
 10
-5.0869394503
 20
22.1171661826
  0
LINE
  5
2CB
100
AcDbEntity
  8
ASSI
100
AcDbLine
 62
250
  6
CONTINUOUS
 10
-8.8852923289
 20
20.2023063801
 11
-9.7985693931
 21
19.7742075285
  0
LINE
  5
2CC
100
AcDbEntity
  8
RACCORDO
100
AcDbLine
 62
7
  6
CONTINUOUS
 10
-5.5295681335
 20
22.13800566
 11
-9.7985693931
 21
20.1640958453
  0
LINE
  5
2CD
100
AcDbEntity
  8
ASSI
100
AcDbLine
 62
7
  6
CONTINUOUS
 10
-12.2746984928
 20
18.3921318252
 11
-12.2268489954
 21
18.413540062
  0
LWPOLYLINE
  5
2CE
100
AcDbEntity
  8
ASSI
100
AcDbPolyline
 62
250
  6
CONTINUOUS
 90
4
 70
0
 10
-9.2344818948
 20
19.4123015192
 10
-9.1813152839
 20
19.4346741443
 10
-9.1265335151
 20
19.4606697996
 10
-9.0702656501
 20
19.4904161075
  0
LINE
  5
2CF
100
AcDbEntity
  8
RACCORDO
100
AcDbLine
 62
250
  6
CONTINUOUS
 10
-2.9758028166
 20
21.3695124403
 11
-2.9087886097
 21
21.3978405148
  0
LINE
  5
2D0
100
AcDbEntity
  8
RACCORDO
100
AcDbLine
 62
250
  6
CONTINUOUS
 10
-3.0488830558
 20
21.3391717138
 11
-2.9758028166
 21
21.3695124403
  0
LWPOLYLINE
  5
2D1
100
AcDbEntity
  8
RACCORDO
100
AcDbPolyline
 62
250
  6
CONTINUOUS
 90
3
 70
0
 10
-3.1283101657
 20
21.3068157346
 10
-3.1011220158
 20
21.3178183626
 10
-3.0488830558
 20
21.3391717138
  0
LWPOLYLINE
  5
2D2
100
AcDbEntity
  8
ASSI
100
AcDbPolyline
 62
250
  6
CONTINUOUS
 90
6
 70
0
 10
-2.9108380178
 20
19.1985223952
 10
-2.8971137925
 20
19.2038364867
 10
-2.8820524141
 20
19.2062728245
 10
-2.8658947155
 20
19.2057924514
 10
-2.84889906
 20
19.2024030487
 10
-2.8313372097
 20
19.1961588132
  0
LWPOLYLINE
  5
2D3
100
AcDbEntity
  8
ASSI
100
AcDbPolyline
 62
7
  6
CONTINUOUS
 90
5
 70
0
 10
-2.8129029089
 20
19.2400283263
 10
-2.8414705814
 20
19.2308473277
 10
-2.8696722078
 20
19.2194552856
 10
-2.897300387
 20
19.2060160545
 10
-2.9135316322
 20
19.1970465514
  0
LWPOLYLINE
  5
2D4
100
AcDbEntity
  8
ASSI
100
AcDbPolyline
 62
7
  6
CONTINUOUS
 90
5
 70
0
 10
-6.1517196122
 20
21.1688953901
 10
-6.1759991703
 20
21.1614356771
 10
-6.202705988
 20
21.1513113064
 10
-6.2294211419
 20
21.1391606591
 10
-6.2516822319
 20
21.1274696845
  0
LINE
  5
2D5
100
AcDbEntity
  8
ASSI
100
AcDbLine
 62
250
  6
CONTINUOUS
 10
-2.7307095311
 20
19.2238818682
 11
-2.7223624446
 21
19.2263026591
  0
LWPOLYLINE
  5
2D6
100
AcDbEntity
  8
ASSI
100
AcDbPolyline
 62
250
  6
CONTINUOUS
 90
6
 70
0
 10
-11.0885865832
 20
-21.0713903612
 10
-11.1086064107
 20
-21.0716634171
 10
-11.1295051688
 20
-21.0688161406
 10
-11.1509555067
 20
-21.0629407946
 10
-11.1727765647
 20
-21.0541278008
 10
-11.1947164762
 20
-21.0425040916
  0
LWPOLYLINE
  5
2D7
100
AcDbEntity
  8
RACCORDO
100
AcDbPolyline
 62
250
  6
CONTINUOUS
 90
6
 70
0
 10
-15.7255891348
 20
-17.3589269587
 10
-15.7505291639
 20
-17.3474663986
 10
-15.774636721
 20
-17.341269589
 10
-15.7971795939
 20
-17.3405247383
 10
-15.8174730926
 20
-17.3452544624
 10
-15.8283141076
 20
-17.3506698977
  0
LWPOLYLINE
  5
2D8
100
AcDbEntity
  8
CURVE
100
AcDbPolyline
 62
250
  6
CONTINUOUS
 90
9
 70
0
 10
-20.5291904401
 20
-13.4833971306
 10
-20.5360576614
 20
-13.4802095606
 10
-20.5426633124
 20
-13.478698359
 10
-20.5487557859
 20
-13.4789210872
 10
-20.5541904401
 20
-13.4809193743
 10
-20.5585701777
 20
-13.4845472104
 10
-20.5618308503
 20
-13.4896861952
 10
-20.5638482598
 20
-13.4961405865
 10
-20.5645457791
 20
-13.5038069166
  0
LWPOLYLINE
  5
2D9
100
AcDbEntity
  8
CURVE
100
AcDbPolyline
 62
250
  6
CONTINUOUS
 90
9
 70
0
 10
-19.4071456215
 20
-13.7917446264
 10
-19.4140128429
 20
-13.7885570564
 10
-19.4206184939
 20
-13.7870458548
 10
-19.4267109674
 20
-13.787268583
 10
-19.4321456215
 20
-13.7892668701
 10
-19.4365253592
 20
-13.7928947062
 10
-19.4397860318
 20
-13.7980336911
 10
-19.4418034413
 20
-13.8044880823
 10
-19.4425009606
 20
-13.8121544124
  0
LWPOLYLINE
  5
2DA
100
AcDbEntity
  8
ASSI
100
AcDbPolyline
 62
250
  6
CONTINUOUS
 90
13
 70
0
 10
-15.7071588524
 20
-16.9767795893
 10
-15.6877205856
 20
-16.986636715
 10
-15.6662412094
 20
-16.994962633
 10
-15.6430801184
 20
-17.0016180226
 10
-15.6186248471
 20
-17.0064915144
 10
-15.5932845928
 20
-17.009501553
 10
-15.5674833698
 20
-17.0105977634
 10
-15.5416528997
 20
-17.0097617958
 10
-15.516225399
 20
-17.0070076308
 10
-15.4916263548
 20
-17.0023813488
 10
-15.4682673843
 20
-16.9959603575
 10
-15.446539348
 20
-16.9878520936
 10
-15.4268058221
 20
-16.9781922277
  0
LINE
  5
2DB
100
AcDbEntity
  8
ASSI
100
AcDbLine
 62
7
  6
CONTINUOUS
 10
-15.3257153417
 20
-16.8570132684
 11
-15.3123052279
 21
-16.8642241064
  0
LINE
  5
2DC
100
AcDbEntity
  8
ASSI
100
AcDbLine
 62
7
  6
CONTINUOUS
 10
-15.3122427855
 20
-16.8642602049
 11
-11.2922535009
 21
-19.1853516355
  0
LINE
  5
2DD
100
AcDbEntity
  8
ASSI
100
AcDbLine
 62
250
  6
CONTINUOUS
 10
-15.3536591966
 20
-16.772712898
 11
-11.3336700258
 21
-19.0938042629
  0
LINE
  5
2DE
100
AcDbEntity
  8
CURVE
100
AcDbLine
 62
250
  6
CONTINUOUS
 10
-18.3209433386
 20
-14.962621978
 11
-20.3876884737
 21
-13.7693092394
  0
LINE
  5
2DF
100
AcDbEntity
  8
CURVE
100
AcDbLine
 62
250
  6
CONTINUOUS
 10
-20.529222967
 20
-13.48337835
 11
-19.4425009606
 21
-14.1108380167
  0
LINE
  5
2E0
100
AcDbEntity
  8
CURVE
100
AcDbLine
 62
250
  6
CONTINUOUS
 10
-19.2656436551
 20
-14.2129532083
 11
-18.1794088453
 21
-14.8401315738
  0
LINE
  5
2E1
100
AcDbEntity
  8
CURVE
100
AcDbLine
 62
250
  6
CONTINUOUS
 10
-19.4071456215
 20
-13.7917446264
 11
-19.3009989942
 21
-13.8530323587
  0
LWPOLYLINE
  5
2E2
100
AcDbEntity
  8
ASSI
100
AcDbPolyline
 62
7
  6
CONTINUOUS
 90
20
 70
0
 10
-11.2924499288
 20
-19.185238293
 10
-11.2755073513
 20
-19.1957984537
 10
-11.2567801921
 20
-19.2092430665
 10
-11.2369895628
 20
-19.2254165584
 10
-11.2165182295
 20
-19.2442885797
 10
-11.195677415
 20
-19.2658337441
 10
-11.1750549578
 20
-19.2896542669
 10
-11.154997319
 20
-19.3154935039
 10
-11.1357784618
 20
-19.3431208269
 10
-11.1177989917
 20
-19.372043154
 10
-11.1012999915
 20
-19.4018994568
 10
-11.0864851388
 20
-19.4323091355
 10
-11.0735969152
 20
-19.4626852631
 10
-11.0627142749
 20
-19.4926736
 10
-11.0539045289
 20
-19.5218409718
 10
-11.0472405734
 20
-19.5494743249
 10
-11.0426076027
 20
-19.5752745082
 10
-11.0398583911
 20
-19.5988880094
 10
-11.0387919455
 20
-19.6196101515
 10
-11.0387491259
 20
-19.6244174623
  0
LWPOLYLINE
  5
2E3
100
AcDbEntity
  8
ASSI
100
AcDbPolyline
 62
250
  6
CONTINUOUS
 90
4
 70
0
 10
-11.3336700258
 20
-19.0938042629
 10
-11.2964460937
 20
-19.1176675717
 10
-11.260357704
 20
-19.1450412574
 10
-11.2254048567
 20
-19.1759253201
  0
LWPOLYLINE
  5
2E4
100
AcDbEntity
  8
ASSI
100
AcDbPolyline
 62
250
  6
CONTINUOUS
 90
7
 70
0
 10
-10.9801704831
 20
-19.7060834307
 10
-10.9972425456
 20
-19.6948599293
 10
-11.011662587
 20
-19.682457921
 10
-11.0231893212
 20
-19.6690849245
 10
-11.0316298749
 20
-19.6549647062
 10
-11.0368430149
 20
-19.6403335352
 10
-11.0387491269
 20
-19.624428512
  0
LWPOLYLINE
  5
2E5
100
AcDbEntity
  8
ASSI
100
AcDbPolyline
 62
250
  6
CONTINUOUS
 90
10
 70
0
 10
-11.2254048567
 20
-19.1759253201
 10
-11.1912347584
 20
-19.2107178121
 10
-11.1582002024
 20
-19.2490206811
 10
-11.1273595687
 20
-19.2896397702
 10
-11.0988016776
 20
-19.3325592215
 10
-11.0724377087
 20
-19.377794893
 10
-11.0490595808
 20
-19.4242002011
 10
-11.0286685568
 20
-19.472089903
 10
-11.0112633737
 20
-19.5211492417
 10
-10.9976321618
 20
-19.5692873623
  0
LWPOLYLINE
  5
2E6
100
AcDbEntity
  8
RACCORDO
100
AcDbPolyline
 62
250
  6
CONTINUOUS
 90
6
 70
0
 10
-15.864542348
 20
-18.851722515
 10
-15.8623944836
 20
-18.8788338645
 10
-15.856016029
 20
-18.9026416647
 10
-15.8456005857
 20
-18.9224225925
 10
-15.8314061577
 20
-18.9376220874
 10
-15.8231258238
 20
-18.9432698873
  0
LWPOLYLINE
  5
2E7
100
AcDbEntity
  8
ASSI
100
AcDbPolyline
 62
250
  6
CONTINUOUS
 90
7
 70
0
 10
-15.3536593097
 20
-16.7727128327
 10
-15.3524761299
 20
-16.7931083385
 10
-15.3489463882
 20
-16.8117962664
 10
-15.3431291468
 20
-16.8284639169
 10
-15.3351217437
 20
-16.8428323954
 10
-15.3250581643
 20
-16.8546612786
 10
-15.3123052279
 20
-16.8642241064
  0
LINE
  5
2E8
100
AcDbEntity
  8
CURVE
100
AcDbLine
 62
250
  6
CONTINUOUS
 10
-18.3209433386
 20
-17.3484542679
 11
-18.3209433386
 21
-15.5825670427
  0
LINE
  5
2E9
100
AcDbEntity
  8
CURVE
100
AcDbLine
 62
250
  6
CONTINUOUS
 10
-18.3209433386
 20
-15.346571208
 11
-18.3209433386
 21
-14.962621978
  0
LINE
  5
2EA
100
AcDbEntity
  8
CURVE
100
AcDbLine
 62
250
  6
CONTINUOUS
 10
-18.1440860331
 20
-14.901312479
 11
-18.1440860331
 21
-17.6139941502
  0
LINE
  5
2EB
100
AcDbEntity
  8
RACCORDO
100
AcDbLine
 62
7
  6
CONTINUOUS
 10
-15.9231209918
 20
-17.5207710688
 11
-15.9231209918
 21
-18.7700675964
  0
LINE
  5
2EC
100
AcDbEntity
  8
RACCORDO
100
AcDbLine
 62
250
  6
CONTINUOUS
 10
-15.864542348
 20
-17.6024259875
 11
-15.864542348
 21
-18.851722515
  0
LINE
  5
2ED
100
AcDbEntity
  8
ASSI
100
AcDbLine
 62
250
  6
CONTINUOUS
 10
-15.7071588524
 20
-17.2757456706
 11
-15.7071588524
 21
-16.9767795893
  0
LINE
  5
2EE
100
AcDbEntity
  8
ASSI
100
AcDbLine
 62
250
  6
CONTINUOUS
 10
-15.4268058221
 20
-17.1023711512
 11
-15.4268058221
 21
-16.9781922277
  0
LINE
  5
2EF
100
AcDbEntity
  8
ASSI
100
AcDbLine
 62
7
  6
CONTINUOUS
 10
-15.401232485
 20
19.0634121583
 11
-15.401232485
 21
18.3783122502
  0
LWPOLYLINE
  5
2F0
100
AcDbEntity
  8
ASSI
100
AcDbPolyline
 62
7
  6
CONTINUOUS
 90
12
 70
0
 10
-14.691538582
 20
17.9685438852
 10
-14.6879568823
 20
17.9850948134
 10
-14.6821467041
 20
18.0061626876
 10
-14.674755196
 20
18.0282224406
 10
-14.6657852714
 20
18.0509404872
 10
-14.6552777368
 20
18.0739755032
 10
-14.6434460131
 20
18.0967490034
 10
-14.6304337092
 20
18.1189513836
 10
-14.6164420757
 20
18.140243048
 10
-14.6018922839
 20
18.1600696849
 10
-14.5870377348
 20
18.1782238814
 10
-14.5707951753
 20
18.1959334013
  0
LWPOLYLINE
  5
2F1
100
AcDbEntity
  8
ASSI
100
AcDbPolyline
 62
250
  6
CONTINUOUS
 90
9
 70
0
 10
-12.3149113412
 20
18.2267490581
 10
-12.3158627782
 20
18.2240011905
 10
-12.3158993106
 20
18.2167090377
 10
-12.3129352289
 20
18.2081755608
 10
-12.3070194306
 20
18.1985415341
 10
-12.2982495068
 20
18.1879658872
 10
-12.2867701326
 20
18.1766230836
 10
-12.2727706796
 20
18.1647002421
 10
-12.2564820929
 20
18.1523940503
  0
LWPOLYLINE
  5
2F2
100
AcDbEntity
  8
ASSI
100
AcDbPolyline
 62
250
  6
CONTINUOUS
 90
11
 70
0
 10
-11.9330990705
 20
19.0366195739
 10
-11.9336993162
 20
19.0351193938
 10
-11.9344308273
 20
19.0295793504
 10
-11.9332276618
 20
19.0232066509
 10
-11.9301055476
 20
19.0160771606
 10
-11.9251033524
 20
19.0082694912
 10
-11.9182785012
 20
18.9998669544
 10
-11.9097150378
 20
18.9909668363
 10
-11.8995143582
 20
18.981667576
 10
-11.8877893307
 20
18.9720662603
 10
-11.8746698223
 20
18.9622645661
  0
LWPOLYLINE
  5
2F3
100
AcDbEntity
  8
ASSI
100
AcDbPolyline
 62
250
  6
CONTINUOUS
 90
10
 70
0
 10
-11.8746698223
 20
18.9622645661
 10
-11.8656326866
 20
18.9833479129
 10
-11.8550615053
 20
19.0039983108
 10
-11.8430992353
 20
19.0239364988
 10
-11.8299076456
 20
19.0428928469
 10
-11.8156651296
 20
19.0606110029
 10
-11.800564293
 20
19.0768513589
 10
-11.7848093486
 20
19.0913942915
 10
-11.7686133549
 20
19.1040431325
 10
-11.7521953351
 20
19.1146268277
  0
LINE
  5
2F4
100
AcDbEntity
  8
ASSI
100
AcDbLine
 62
7
  6
CONTINUOUS
 10
-12.3149113412
 20
18.2267490581
 11
-11.9330990705
 21
19.0366195739
  0
LINE
  5
2F5
100
AcDbEntity
  8
ASSI
100
AcDbLine
 62
250
  6
CONTINUOUS
 10
-12.2564820929
 20
18.1523940503
 11
-11.8746698223
 21
18.9622645661
  0
LWPOLYLINE
  5
2F6
100
AcDbEntity
  8
ASSI
100
AcDbPolyline
 62
7
  6
CONTINUOUS
 90
7
 70
0
 10
-7.9105357758
 20
20.207079191
 10
-7.9101803975
 20
20.207633981
 10
-7.9107182691
 20
20.2070102239
 10
-7.9134623663
 20
20.2042279133
 10
-7.9186354987
 20
20.1998416732
 10
-7.9260882624
 20
20.1945005474
 10
-7.9365403848
 20
20.1881573292
  0
LINE
  5
2F7
100
AcDbEntity
  8
ASSI
100
AcDbLine
 62
7
  6
CONTINUOUS
 10
-5.4520704843
 20
18.4131663493
 11
-4.9113900813
 21
19.1032856634
  0
LINE
  5
2F8
100
AcDbEntity
  8
ASSI
100
AcDbLine
 62
250
  6
CONTINUOUS
 10
-5.3620848569
 20
18.3612097758
 11
-4.8029834515
 21
19.0748414819
  0
LWPOLYLINE
  5
2F9
100
AcDbEntity
  8
ASSI
100
AcDbPolyline
 62
250
  6
CONTINUOUS
 90
10
 70
0
 10
-5.4985537429
 20
16.8997068126
 10
-5.5122985619
 20
16.883688946
 10
-5.5239285015
 20
16.8670024065
 10
-5.5332869534
 20
16.8498718658
 10
-5.5402478935
 20
16.8325279727
 10
-5.5447175751
 20
16.8152042602
 10
-5.5466357967
 20
16.7981340006
 10
-5.545976717
 20
16.7815470473
 10
-5.5427491974
 20
16.7656667402
 10
-5.5386385514
 20
16.7542817802
  0
LWPOLYLINE
  5
2FA
100
AcDbEntity
  8
ASSI
100
AcDbPolyline
 62
250
  6
CONTINUOUS
 90
11
 70
0
 10
-5.6743767086
 20
16.7492714689
 10
-5.6882459413
 20
16.7355238992
 10
-5.6960554121
 20
16.727970847
 10
-5.7045804551
 20
16.72003832
 10
-5.7138355064
 20
16.711702883
 10
-5.7239773657
 20
16.7030143715
 10
-5.7351186338
 20
16.6940488759
 10
-5.7472435053
 20
16.6848173113
 10
-5.7604624417
 20
16.675364218
 10
-5.7749950859
 20
16.6657832012
 10
-5.7910106474
 20
16.6561594471
  0
LWPOLYLINE
  5
2FB
100
AcDbEntity
  8
RACCORDO
100
AcDbPolyline
 62
250
  6
CONTINUOUS
 90
3
 70
0
 10
-6.3481705497
 20
18.9903909631
 10
-6.3301115907
 20
19.0071665541
 10
-6.308677115
 20
19.0226503419
  0
LWPOLYLINE
  5
2FC
100
AcDbEntity
  8
ASSI
100
AcDbPolyline
 62
250
  6
CONTINUOUS
 90
3
 70
0
 10
-3.0487896701
 20
18.2743259745
 10
-3.037785651
 20
18.2839510128
 10
-3.0254919347
 20
18.2927522389
  0
LWPOLYLINE
  5
2FD
100
AcDbEntity
  8
ASSI
100
AcDbPolyline
 62
250
  6
CONTINUOUS
 90
10
 70
0
 10
-4.9113878181
 20
19.1032885512
 10
-4.9066545433
 20
19.1070214706
 10
-4.8998881593
 20
19.1089380172
 10
-4.8910977964
 20
19.1091051858
 10
-4.8803832975
 20
19.1075237361
 10
-4.8678635821
 20
19.1042133994
 10
-4.8536931977
 20
19.0992186789
 10
-4.8380391391
 20
19.092603922
 10
-4.8210728939
 20
19.0844465412
 10
-4.8029834515
 20
19.0748414819
  0
LWPOLYLINE
  5
2FE
100
AcDbEntity
  8
ASSI
100
AcDbPolyline
 62
7
  6
CONTINUOUS
 90
7
 70
0
 10
-5.4651851951
 20
15.6488437959
 10
-5.4761500137
 20
15.64069796
 10
-5.4855973832
 20
15.6320522992
 10
-5.4935892305
 20
15.6228343253
 10
-5.5000636286
 20
15.6131165264
 10
-5.504834797
 20
15.6031163666
 10
-5.5074318129
 20
15.5942955032
  0
LINE
  5
2FF
100
AcDbEntity
  8
ASSI
100
AcDbLine
 62
7
  6
CONTINUOUS
 10
-6.6609864998
 20
14.7722563684
 11
-5.9343060817
 21
15.284648799
  0
LINE
  5
300
100
AcDbEntity
  8
RACCORDO
100
AcDbLine
 62
250
  6
CONTINUOUS
 10
-6.5978058982
 20
14.7361024419
 11
-5.7988479578
 21
15.299458755
  0
LWPOLYLINE
  5
301
100
AcDbEntity
  8
ASSI
100
AcDbPolyline
 62
250
  6
CONTINUOUS
 90
10
 70
0
 10
-8.0156411413
 20
16.9571872662
 10
-8.0320591546
 20
16.9466035756
 10
-8.0482551437
 20
16.9339547394
 10
-8.0640100855
 20
16.919411811
 10
-8.0791109217
 20
16.9031714578
 10
-8.0933534389
 20
16.8854533027
 10
-8.1065450311
 20
16.8664969535
 10
-8.1185073043
 20
16.8465587623
 10
-8.1290784892
 20
16.825908359
 10
-8.1381156285
 20
16.8048250046
  0
LWPOLYLINE
  5
302
100
AcDbEntity
  8
ASSI
100
AcDbPolyline
 62
7
  6
CONTINUOUS
 90
6
 70
0
 10
-2.9866037774
 20
17.0657263901
 10
-3.00048124
 20
17.0568029787
 10
-3.0124355115
 20
17.0472772415
 10
-3.0224665919
 20
17.0371491788
 10
-3.0306577918
 20
17.02628498
 10
-3.0325580788
 20
17.0228086467
  0
LWPOLYLINE
  5
303
100
AcDbEntity
  8
ASSI
100
AcDbPolyline
 62
250
  6
CONTINUOUS
 90
10
 70
0
 10
-4.7176802826
 20
19.1514099434
 10
-4.727525397
 20
19.1452098227
 10
-4.7373584615
 20
19.1383797406
 10
-4.7471482581
 20
19.1309358634
 10
-4.7568724456
 20
19.1228886739
 10
-4.7664898252
 20
19.114265671
 10
-4.7759418664
 20
19.1051164616
 10
-4.7851897838
 20
19.0954795633
 10
-4.7942132102
 20
19.0853771949
 10
-4.8029834515
 20
19.0748414819
  0
LWPOLYLINE
  5
304
100
AcDbEntity
  8
ASSI
100
AcDbPolyline
 62
250
  6
CONTINUOUS
 90
35
 70
0
 10
-5.9771264
 20
16.8515903974
 10
-5.9870489728
 20
16.8454042976
 10
-5.997055803
 20
16.8390917549
 10
-6.0071244491
 20
16.8326613584
 10
-6.0172128742
 20
16.8260854449
 10
-6.0272738499
 20
16.8194019885
 10
-6.0373546045
 20
16.812573015
 10
-6.0475547856
 20
16.8054569394
 10
-6.0578347327
 20
16.7981040798
 10
-6.0682341063
 20
16.7904641181
 10
-6.078971535
 20
16.782244514
 10
-6.0900897023
 20
16.7734525328
 10
-6.1015459247
 20
16.7640809094
 10
-6.1134307797
 20
16.7538153082
 10
-6.1258057335
 20
16.7426472059
 10
-6.13860932
 20
16.7305851258
 10
-6.1517477181
 20
16.7173403027
 10
-6.1652513479
 20
16.7029361702
 10
-6.1790897894
 20
16.6873492947
 10
-6.1930779615
 20
16.67022061
 10
-6.2072900213
 20
16.651533798
 10
-6.2216518118
 20
16.6313051768
 10
-6.2357557802
 20
16.6092246338
 10
-6.249777138
 20
16.5849409056
 10
-6.2635406737
 20
16.5588052558
 10
-6.2761131999
 20
16.5315613625
 10
-6.2874007098
 20
16.5029048728
 10
-6.2974972102
 20
16.4731401397
 10
-6.3057515336
 20
16.443923901
 10
-6.311872804
 20
16.4154429135
 10
-6.3161518974
 20
16.3875104204
 10
-6.3188102742
 20
16.3612228884
 10
-6.3199217546
 20
16.3369458064
 10
-6.3194125184
 20
16.3143136856
 10
-6.3172825655
 20
16.2933265257
  0
LINE
  5
305
100
AcDbEntity
  8
ASSI
100
AcDbLine
 62
7
  6
CONTINUOUS
 10
-4.8460864985
 20
19.1617312696
 11
-4.101678649
 21
19.6220842501
  0
LINE
  5
306
100
AcDbEntity
  8
ASSI
100
AcDbLine
 62
250
  6
CONTINUOUS
 10
-4.7176802826
 20
19.1514099434
 11
-3.974526741
 21
19.610987241
  0
LINE
  5
307
100
AcDbEntity
  8
ASSI
100
AcDbLine
 62
250
  6
CONTINUOUS
 10
-3.0406733024
 20
18.2523621989
 11
-3.0242610599
 21
18.2624940625
  0
LINE
  5
308
100
AcDbEntity
  8
ASSI
100
AcDbLine
 62
7
  6
CONTINUOUS
 10
-5.4527029274
 20
15.6564898067
 11
-5.4651851951
 21
15.6488437959
  0
LINE
  5
309
100
AcDbEntity
  8
ASSI
100
AcDbLine
 62
250
  6
CONTINUOUS
 10
-5.9574414157
 20
16.8636624664
 11
-5.9771264
 21
16.8515903974
  0
LWPOLYLINE
  5
30A
100
AcDbEntity
  8
ASSI
100
AcDbPolyline
 62
250
  6
CONTINUOUS
 90
3
 70
0
 10
-5.928162622
 20
16.8813408295
 10
-5.9378856906
 20
16.8755124647
 10
-5.9574414157
 20
16.8636624664
  0
LWPOLYLINE
  5
30B
100
AcDbEntity
  8
ASSI
100
AcDbPolyline
 62
250
  6
CONTINUOUS
 90
10
 70
0
 10
-6.3172825639
 20
16.2933265238
 10
-6.3003121662
 20
16.3034959138
 10
-6.2816390764
 20
16.3126432774
 10
-6.2615149138
 20
16.3206453537
 10
-6.2402108507
 20
16.3273943149
 10
-6.2180139589
 20
16.3327992187
 10
-6.1952233413
 20
16.3367872338
 10
-6.172146101
 20
16.3393046217
 10
-6.1490932033
 20
16.3403174605
 10
-6.1263752858
 20
16.3398121019
  0
LINE
  5
30C
100
AcDbEntity
  8
RACCORDO
100
AcDbLine
 62
7
  6
CONTINUOUS
 10
-5.5019577302
 20
18.4419706198
 11
-5.3655109477
 21
18.5236501169
  0
LINE
  5
30D
100
AcDbEntity
  8
ASSI
100
AcDbLine
 62
250
  6
CONTINUOUS
 10
-7.8792457154
 20
17.0387492738
 11
-8.0156411413
 21
16.9571872662
  0
LINE
  5
30E
100
AcDbEntity
  8
ASSI
100
AcDbLine
 62
250
  6
CONTINUOUS
 10
-7.7359158243
 20
16.8097783324
 11
-7.8723112502
 21
16.7282163248
  0
LINE
  5
30F
100
AcDbEntity
  8
ASSI
100
AcDbLine
 62
250
  6
CONTINUOUS
 10
-8.5153104119
 20
15.7692109141
 11
-9.0952504966
 21
15.4224171907
  0
LINE
  5
310
100
AcDbEntity
  8
ASSI
100
AcDbLine
 62
250
  6
CONTINUOUS
 10
-8.3719805208
 20
15.5402399727
 11
-8.8275222231
 21
15.2678342411
  0
LINE
  5
311
100
AcDbEntity
  8
ASSI
100
AcDbLine
 62
250
  6
CONTINUOUS
 10
-4.0550885002
 20
17.991751704
 11
-5.2436816058
 21
17.2809944387
  0
LINE
  5
312
100
AcDbEntity
  8
ASSI
100
AcDbLine
 62
250
  6
CONTINUOUS
 10
-3.168821852
 20
18.521723194
 11
-2.4281180977
 21
18.9646506956
  0
LINE
  5
313
100
AcDbEntity
  8
ASSI
100
AcDbLine
 62
250
  6
CONTINUOUS
 10
-3.911758609
 20
17.7627807627
 11
-5.1003517147
 21
17.0520234973
  0
LINE
  5
314
100
AcDbEntity
  8
ASSI
100
AcDbLine
 62
250
  6
CONTINUOUS
 10
-3.0254919287
 20
18.2927522718
 11
-2.2847882067
 21
18.7356797542
  0
LWPOLYLINE
  5
315
100
AcDbEntity
  8
ASSI
100
AcDbPolyline
 62
250
  6
CONTINUOUS
 90
7
 70
0
 10
-5.4771077409
 20
16.7957359356
 10
-5.4922943507
 20
16.7866759895
 10
-5.5053448584
 20
16.77685315
 10
-5.5160834281
 20
16.7663997886
 10
-5.5243653783
 20
16.7554567736
 10
-5.5300791387
 20
16.7441715641
 10
-5.5315898258
 20
16.738522207
  0
LWPOLYLINE
  5
316
100
AcDbEntity
  8
ASSI
100
AcDbPolyline
 62
250
  6
CONTINUOUS
 90
13
 70
0
 10
-2.2847882067
 20
18.7356797542
 10
-2.2805544029
 20
18.7381603849
 10
-2.276287946
 20
18.7405447248
 10
-2.2719888358
 20
18.7428327737
 10
-2.267672885
 20
18.7450215168
 10
-2.2633242811
 20
18.747113969
 10
-2.2588955856
 20
18.7491191751
 10
-2.2543833044
 20
18.7510442849
 10
-2.2497909317
 20
18.7528821486
 10
-2.2450815123
 20
18.7546203606
 10
-2.2402427278
 20
18.7562547858
 10
-2.2352868966
 20
18.7577895594
 10
-2.2302140188
 20
18.7592246813
  0
LWPOLYLINE
  5
317
100
AcDbEntity
  8
ASSI
100
AcDbPolyline
 62
250
  6
CONTINUOUS
 90
10
 70
0
 10
-3.9086021573
 20
17.7336740392
 10
-3.8900297564
 20
17.7444622406
 10
-3.8694682452
 20
17.7540312904
 10
-3.8472454532
 20
17.7622286208
 10
-3.8237156971
 20
17.7689235347
 10
-3.7992541319
 20
17.7740092891
 10
-3.7742507697
 20
17.7774047972
 10
-3.7491042604
 20
17.7790559214
 10
-3.7242155366
 20
17.7789363361
 10
-3.6999814206
 20
17.7770479479
  0
LINE
  5
318
100
AcDbEntity
  8
0
100
AcDbLine
 62
7
  6
CONTINUOUS
 10
13.8445910689
 20
29.2955520086
 11
11.8646920815
 21
28.1523831472
  0
LINE
  5
319
100
AcDbEntity
  8
0
100
AcDbLine
 62
7
  6
CONTINUOUS
 10
10.3090571629
 20
27.2541790419
 11
8.4310368831
 21
26.1698336695
  0
LINE
  5
31A
100
AcDbEntity
  8
ASSI
100
AcDbLine
 62
7
  6
CONTINUOUS
 10
-5.7793401646
 20
17.5423645834
 11
-2.9134948124
 21
19.1970678264
  0
LINE
  5
31B
100
AcDbEntity
  8
ASSI
100
AcDbLine
 62
250
  6
CONTINUOUS
 10
-5.6792668876
 20
17.5324959212
 11
-2.8134899804
 21
19.1871595908
  0
LINE
  5
31C
100
AcDbEntity
  8
RACCORDO
100
AcDbLine
 62
250
  6
CONTINUOUS
 10
-5.8659114884
 20
14.3135157825
 11
-4.978578801
 21
14.8258456242
  0
LWPOLYLINE
  5
31D
100
AcDbEntity
  8
ASSI
100
AcDbPolyline
 62
250
  6
CONTINUOUS
 90
13
 70
0
 10
-2.4281180977
 20
18.9646506956
 10
-2.4210192266
 20
18.9687485352
 10
-2.4138645837
 20
18.9726994651
 10
-2.4066572774
 20
18.9764981799
 10
-2.3994307081
 20
18.9801249819
 10
-2.3921579584
 20
18.9835904074
 10
-2.3847523715
 20
18.986927695
 10
-2.377214308
 20
18.9901265086
 10
-2.369552541
 20
18.9931718979
 10
-2.361694943
 20
18.996076722
 10
-2.353622525
 20
18.9988290117
 10
-2.3453685951
 20
19.0013989311
 10
-2.3369413695
 20
19.0037653608
  0
LWPOLYLINE
  5
31E
100
AcDbEntity
  8
ASSI
100
AcDbPolyline
 62
250
  6
CONTINUOUS
 90
13
 70
0
 10
-5.1003517147
 20
17.0520234973
 10
-5.1350604482
 20
17.03199088
 10
-5.1694457994
 20
17.0133451806
 10
-5.2035077682
 20
16.9960863992
 10
-5.2372201362
 20
16.980250561
 10
-5.2706091219
 20
16.9658016408
 10
-5.3037533812
 20
16.9526315624
 10
-5.3366451482
 20
16.9407244493
 10
-5.3692921889
 20
16.930096178
 10
-5.4017964567
 20
16.9206863023
 10
-5.434191936
 20
16.9124746732
 10
-5.4664446423
 20
16.9054814395
 10
-5.4985545757
 20
16.8997066014
  0
LINE
  5
31F
100
AcDbEntity
  8
ASSI
100
AcDbLine
 62
7
  6
CONTINUOUS
 10
-0.6453616229
 20
18.4135222429
 11
-2.9866037774
 21
17.0657263901
  0
LINE
  5
320
100
AcDbEntity
  8
ASSI
100
AcDbLine
 62
7
  6
CONTINUOUS
 10
-3.7757952724
 20
16.6114081353
 11
-4.9836687175
 21
15.9160649269
  0
LWPOLYLINE
  5
321
100
AcDbEntity
  8
ASSI
100
AcDbPolyline
 62
250
  6
CONTINUOUS
 90
10
 70
0
 10
-5.7910106474
 20
16.6561594471
 10
-5.8007388127
 20
16.6505969928
 10
-5.8105965098
 20
16.6451804002
 10
-5.8205854315
 20
16.639896199
 10
-5.8307356279
 20
16.6347194138
 10
-5.8410278133
 20
16.629648723
 10
-5.8513836844
 20
16.6247004873
 10
-5.8618122272
 20
16.6198468745
 10
-5.8723068084
 20
16.6150769646
 10
-5.8827456403
 20
16.6104203292
  0
LWPOLYLINE
  5
322
100
AcDbEntity
  8
ASSI
100
AcDbPolyline
 62
7
  6
CONTINUOUS
 90
10
 70
0
 10
-5.7793401644
 20
17.5423645835
 10
-5.7908848994
 20
17.5357687201
 10
-5.8520551233
 20
17.5031427413
 10
-5.91202709
 20
17.475038576
 10
-5.9703779921
 20
17.4515511052
 10
-6.0269202994
 20
17.4326322682
 10
-6.0815948075
 20
17.4182013602
 10
-6.1341382827
 20
17.4082424641
 10
-6.184161903
 20
17.4027160317
 10
-6.1921094685
 20
17.4022255733
  0
LWPOLYLINE
  5
323
100
AcDbEntity
  8
ASSI
100
AcDbPolyline
 62
250
  6
CONTINUOUS
 90
10
 70
0
 10
-5.2436816058
 20
17.2809944387
 10
-5.2956738997
 20
17.2514527008
 10
-5.3471695384
 20
17.2254639579
 10
-5.3980485864
 20
17.2029806761
 10
-5.4478780489
 20
17.1840586262
 10
-5.4968860362
 20
17.1684780725
 10
-5.5459275839
 20
17.1559405682
 10
-5.5951886747
 20
17.146487571
 10
-5.6442205161
 20
17.1403039656
 10
-5.6928903468
 20
17.1374743996
  0
LINE
  5
324
100
AcDbEntity
  8
ASSI
100
AcDbLine
 62
250
  6
CONTINUOUS
 10
-0.7589308018
 20
19.4248031141
 11
-0.0073069811
 21
19.8515878413
  0
LINE
  5
325
100
AcDbEntity
  8
ASSI
100
AcDbLine
 62
250
  6
CONTINUOUS
 10
-0.6213591415
 20
19.2037025631
 11
0.1287486714
 21
19.6296264754
  0
LWPOLYLINE
  5
326
100
AcDbEntity
  8
ASSI
100
AcDbPolyline
 62
250
  6
CONTINUOUS
 90
7
 70
0
 10
-2.8134899804
 20
19.1871595908
 10
-2.8062779448
 20
19.1912412802
 10
-2.7990371668
 20
19.1951734354
 10
-2.7917707644
 20
19.1989517666
 10
-2.7845162518
 20
19.2025551688
 10
-2.7772424887
 20
19.2059979407
 10
-2.7698503455
 20
19.20932112
  0
LINE
  5
327
100
AcDbEntity
  8
0
100
AcDbLine
 62
7
  6
CONTINUOUS
 10
9.8140824161
 20
25.5076093696
 11
17.2387036186
 21
29.6448514117
  0
LINE
  5
328
100
AcDbEntity
  8
ASSI
100
AcDbLine
 62
7
  6
CONTINUOUS
 10
-4.9836687175
 20
15.9160649269
 11
-5.4527021883
 21
15.6564902157
  0
LINE
  5
329
100
AcDbEntity
  8
ASSI
100
AcDbLine
 62
7
  6
CONTINUOUS
 10
-6.1826452161
 20
15.25252171
 11
-7.5195660055
 21
14.5126367135
  0
LWPOLYLINE
  5
32A
100
AcDbEntity
  8
ASSI
100
AcDbPolyline
 62
250
  6
CONTINUOUS
 90
8
 70
0
 10
-5.7792717197
 20
17.5424041568
 10
-5.7766149253
 20
17.5438587255
 10
-5.7628907001
 20
17.549172817
 10
-5.7478293216
 20
17.5516091549
 10
-5.731671623
 20
17.5511287818
 10
-5.7146759674
 20
17.5477393791
 10
-5.697114117
 20
17.5414951436
 10
-5.6792668876
 20
17.5324959212
  0
LWPOLYLINE
  5
32B
100
AcDbEntity
  8
ASSI
100
AcDbPolyline
 62
250
  6
CONTINUOUS
 90
13
 70
0
 10
-4.0550885002
 20
17.991751704
 10
-4.0272943448
 20
18.0068631788
 10
-3.9975340744
 20
18.0202241425
 10
-3.965807689
 20
18.0318345951
 10
-3.9317499475
 20
18.0417957252
 10
-3.895726091
 20
18.0500063442
 10
-3.8588318427
 20
18.0561628865
 10
-3.8210279063
 20
18.06017338
 10
-3.7823535781
 20
18.0621297969
 10
-3.7440224707
 20
18.0620044883
 10
-3.7064391216
 20
18.0597882379
 10
-3.6691989934
 20
18.0554902621
 10
-3.6046119661
 20
18.0443599799
  0
LINE
  5
32C
100
AcDbEntity
  8
ASSI
100
AcDbLine
 62
7
  6
CONTINUOUS
 10
-6.8561039597
 20
14.7757487523
 11
-7.4355630014
 21
14.4641344318
  0
LINE
  5
32D
100
AcDbEntity
  8
ASSI
100
AcDbLine
 62
250
  6
CONTINUOUS
 10
-6.7589106199
 20
14.7642977961
 11
-7.3784244126
 21
14.4311433267
  0
LWPOLYLINE
  5
32E
100
AcDbEntity
  8
RACCORDO
100
AcDbPolyline
 62
250
  6
CONTINUOUS
 90
9
 70
0
 10
1.6436268048
 20
18.1503952774
 10
1.6616258047
 20
18.159361739
 10
1.6794768171
 20
18.1661132591
 10
1.69698857
 20
18.1705511432
 10
1.7139919656
 20
18.1726009058
 10
1.730272713
 20
18.1722038155
 10
1.7455853146
 20
18.1693511206
 10
1.7597447239
 20
18.1640832696
 10
1.7655446462
 20
18.16103206
  0
LINE
  5
32F
100
AcDbEntity
  8
ASSI
100
AcDbLine
 62
250
  6
CONTINUOUS
 10
-6.8522512379
 20
14.7776630177
 11
-6.8561039597
 21
14.7757487523
  0
LWPOLYLINE
  5
330
100
AcDbEntity
  8
ASSI
100
AcDbPolyline
 62
250
  6
CONTINUOUS
 90
13
 70
0
 10
-3.911758609
 20
17.7627807618
 10
-3.8980960432
 20
17.7695006792
 10
-3.883176701
 20
17.7753768787
 10
-3.8671292933
 20
17.7803336104
 10
-3.8500617095
 20
17.7843048835
 10
-3.8321432427
 20
17.7872360628
 10
-3.8136117585
 20
17.7890810347
 10
-3.7946756558
 20
17.7898258006
 10
-3.775459055
 20
17.7894633255
 10
-3.7560832619
 20
17.7879647194
 10
-3.7367074058
 20
17.7853170185
 10
-3.717540406
 20
17.7815526682
 10
-3.6987827101
 20
17.7767037164
  0
LWPOLYLINE
  5
331
100
AcDbEntity
  8
ASSI
100
AcDbPolyline
 62
250
  6
CONTINUOUS
 90
27
 70
0
 10
-5.923649831
 20
16.5924428228
 10
-5.9337638702
 20
16.5879347466
 10
-5.94397344
 20
16.5832595321
 10
-5.9543601041
 20
16.5783910469
 10
-5.964881402
 20
16.5733136799
 10
-5.9755120455
 20
16.5679088572
 10
-5.9863182098
 20
16.5621336271
 10
-5.997279745
 20
16.5559736568
 10
-6.0082443747
 20
16.5493325919
 10
-6.0192056987
 20
16.542179016
 10
-6.030178792
 20
16.534470096
 10
-6.0410312793
 20
16.5260707758
 10
-6.051749854
 20
16.5169425999
 10
-6.0623069498
 20
16.5070530647
 10
-6.0725296217
 20
16.4962628205
 10
-6.0824164287
 20
16.4844117266
 10
-6.0918497178
 20
16.4716314207
 10
-6.1004420014
 20
16.4582320954
 10
-6.1080130262
 20
16.4441216027
 10
-6.1145327611
 20
16.4294719916
 10
-6.1198400839
 20
16.4150032807
 10
-6.1237591382
 20
16.4008335115
 10
-6.1263463964
 20
16.3869555638
 10
-6.1278594518
 20
16.3738632344
 10
-6.1284043089
 20
16.3617156134
 10
-6.1279015564
 20
16.3503670732
 10
-6.1263746561
 20
16.3398120157
  0
LINE
  5
332
100
AcDbEntity
  8
ASSI
100
AcDbLine
 62
250
  6
CONTINUOUS
 10
-5.8827456403
 20
16.6104203292
 11
-5.923649831
 21
16.5924428228
  0
LWPOLYLINE
  5
333
100
AcDbEntity
  8
ASSI
100
AcDbPolyline
 62
250
  6
CONTINUOUS
 90
5
 70
0
 10
-5.8430767412
 20
17.4518715029
 10
-5.8047758171
 20
17.4681798368
 10
-5.7645357685
 20
17.4869952134
 10
-5.7226807858
 20
17.5083786332
 10
-5.6792668876
 20
17.5324959212
  0
LWPOLYLINE
  5
334
100
AcDbEntity
  8
ASSI
100
AcDbPolyline
 62
250
  6
CONTINUOUS
 90
6
 70
0
 10
-2.7698503455
 20
19.20932112
 10
-2.7623373907
 20
19.2125149539
 10
-2.754715132
 20
19.2155639978
 10
-2.7469074066
 20
19.2184856929
 10
-2.7388939611
 20
19.2212689709
 10
-2.7307095311
 20
19.2238818682
  0
LWPOLYLINE
  5
335
100
AcDbEntity
  8
ASSI
100
AcDbPolyline
 62
250
  6
CONTINUOUS
 90
13
 70
0
 10
-0.6996810708
 20
19.1617862079
 10
-0.6926889326
 20
19.1646085082
 10
-0.6857959494
 20
19.167527789
 10
-0.6790081057
 20
19.1705436801
 10
-0.6723602522
 20
19.1736407937
 10
-0.6658283039
 20
19.1768329643
 10
-0.6593364066
 20
19.1801659152
 10
-0.6528930056
 20
19.1836428188
 10
-0.6465164928
 20
19.1872635236
 10
-0.6401590291
 20
19.1910727587
 10
-0.6338215896
 20
19.1950879902
 10
-0.6275473526
 20
19.1992972653
 10
-0.6213591415
 20
19.2037025631
  0
LINE
  5
336
100
AcDbEntity
  8
ASSI
100
AcDbLine
 62
7
  6
CONTINUOUS
 10
-10.4375687131
 20
16.1974549057
 11
-11.3070113446
 21
15.8868890147
  0
LWPOLYLINE
  5
337
100
AcDbEntity
  8
ASSI
100
AcDbPolyline
 62
250
  6
CONTINUOUS
 90
3
 70
0
 10
-5.8453480685
 20
16.9095769184
 10
-5.9130231623
 20
16.8864458871
 10
-5.928162622
 20
16.8813408295
  0
LWPOLYLINE
  5
338
100
AcDbEntity
  8
ASSI
100
AcDbPolyline
 62
7
  6
CONTINUOUS
 90
7
 70
0
 10
-15.3711558492
 20
-16.8428856077
 10
-15.3710809107
 20
-16.8428815642
 10
-15.3680646974
 20
-16.8429640352
 10
-15.3616558766
 20
-16.8438826557
 10
-15.3521814457
 20
-16.8462713634
 10
-15.3400728203
 20
-16.8505477617
 10
-15.3257153417
 20
-16.8570132684
  0
LINE
  5
339
100
AcDbEntity
  8
RACCORDO
100
AcDbLine
 62
250
  6
CONTINUOUS
 10
-4.3694176363
 20
-22.5656339318
 11
-4.3619677731
 21
-22.5785374734
  0
LWPOLYLINE
  5
33A
100
AcDbEntity
  8
RACCORDO
100
AcDbPolyline
 62
250
  6
CONTINUOUS
 90
10
 70
0
 10
-11.6738048071
 20
-19.8616456337
 10
-11.676350533
 20
-19.8322811717
 10
-11.6830386798
 20
-19.801285608
 10
-11.693666105
 20
-19.7696003653
 10
-11.707910018
 20
-19.7381878168
 10
-11.7253377895
 20
-19.7080020417
 10
-11.7454200972
 20
-19.6799598501
 10
-11.7675469906
 20
-19.6549129565
 10
-11.7910464134
 20
-19.633622108
 10
-11.8152046241
 20
-19.6167339666
  0
LWPOLYLINE
  5
33B
100
AcDbEntity
  8
RACCORDO
100
AcDbPolyline
 62
250
  6
CONTINUOUS
 90
6
 70
0
 10
-11.9541578374
 20
-21.1095295228
 10
-11.9520099729
 20
-21.1366408723
 10
-11.9456315183
 20
-21.1604486725
 10
-11.935216075
 20
-21.1802296003
 10
-11.921021647
 20
-21.1954290953
 10
-11.9127413132
 20
-21.2010768951
  0
LWPOLYLINE
  5
33C
100
AcDbEntity
  8
ASSI
100
AcDbPolyline
 62
250
  6
CONTINUOUS
 90
7
 70
0
 10
-11.3336700258
 20
-19.0938042629
 10
-11.3324868637
 20
-19.1141996205
 10
-11.3289571676
 20
-19.1328874562
 10
-11.3231399872
 20
-19.1495550672
 10
-11.3151326473
 20
-19.1639235532
 10
-11.3050691221
 20
-19.1757524789
 10
-11.2922609872
 20
-19.1853473124
  0
LINE
  5
33D
100
AcDbEntity
  8
ASSI
100
AcDbLine
 62
250
  6
CONTINUOUS
 10
-14.2666497193
 20
18.9359030732
 11
-14.2666497193
 21
18.5665920836
  0
LINE
  5
33E
100
AcDbEntity
  8
ASSI
100
AcDbLine
 62
7
  6
CONTINUOUS
 10
-14.2105176794
 20
19.0161204806
 11
-14.2105176794
 21
18.646809491
  0
LINE
  5
33F
100
AcDbEntity
  8
DRAFT
100
AcDbLine
 62
7
  6
CONTINUOUS
 10
-12.2746984928
 20
18.3921318252
 11
-12.2746984928
 21
18.3120454269
  0
LINE
  5
340
100
AcDbEntity
  8
RACCORDO
100
AcDbLine
 62
250
  6
CONTINUOUS
 10
-11.9541578374
 20
-21.1095295228
 11
-11.9541578374
 21
-19.8602329953
  0
LINE
  5
341
100
AcDbEntity
  8
RACCORDO
100
AcDbLine
 62
250
  6
CONTINUOUS
 10
-11.6738048071
 20
-21.1109421612
 11
-11.6738048071
 21
-19.8616456337
  0
LWPOLYLINE
  5
342
100
AcDbEntity
  8
ASSI
100
AcDbPolyline
 62
250
  6
CONTINUOUS
 90
9
 70
0
 10
-14.2105176794
 20
18.646809491
 10
-14.2106854349
 20
18.642080759
 10
-14.2126139656
 20
18.6301338846
 10
-14.2166711689
 20
18.6183850727
 10
-14.2228107301
 20
18.6069484183
 10
-14.2309724701
 20
18.5959354038
 10
-14.2410749698
 20
18.5854617855
 10
-14.2530094998
 20
18.5756450548
 10
-14.2666497193
 20
18.5665920836
  0
LWPOLYLINE
  5
343
100
AcDbEntity
  8
ASSI
100
AcDbPolyline
 62
250
  6
CONTINUOUS
 90
9
 70
0
 10
-14.2105176894
 20
19.0160839536
 10
-14.2106855914
 20
19.0113895442
 10
-14.2126094754
 20
18.9994626488
 10
-14.2166659548
 20
18.9877079194
 10
-14.2228133958
 20
18.9762552233
 10
-14.2309844298
 20
18.9652323245
 10
-14.2410896255
 20
18.9547592824
 10
-14.2530209237
 20
18.9449476159
 10
-14.2666497193
 20
18.9359030732
  0
LWPOLYLINE
  5
344
100
AcDbEntity
  8
ASSI
100
AcDbPolyline
 62
250
  6
CONTINUOUS
 90
8
 70
0
 10
-15.426805514
 20
-16.978192062
 10
-15.4259218886
 20
-16.9536393572
 10
-15.422729622
 20
-16.9306301562
 10
-15.4172641562
 20
-16.9094186122
 10
-15.4095883108
 20
-16.8902424975
 10
-15.3997809991
 20
-16.8733125721
 10
-15.3879355173
 20
-16.8588112918
 10
-15.3742049472
 20
-16.8469233975
  0
LWPOLYLINE
  5
345
100
AcDbEntity
  8
ASSI
100
AcDbPolyline
 62
250
  6
CONTINUOUS
 90
16
 70
0
 10
-15.7071588524
 20
-16.9767795893
 10
-15.7051057199
 20
-16.9349839327
 10
-15.6994445876
 20
-16.8965826589
 10
-15.6901754558
 20
-16.861575768
 10
-15.6771300035
 20
-16.8296530889
 10
-15.6604765516
 20
-16.8011247926
 10
-15.6407200625
 20
-16.7769213927
 10
-15.6178298554
 20
-16.7571631615
 10
-15.5918366111
 20
-16.7417298267
 10
-15.5633373343
 20
-16.7311910847
 10
-15.5320587971
 20
-16.7257061522
 10
-15.4982742274
 20
-16.7251158126
 10
-15.4634003136
 20
-16.7295121127
 10
-15.4279092853
 20
-16.7389257347
 10
-15.3913289129
 20
-16.7533259965
 10
-15.3536591966
 20
-16.772712898
  0
LINE
  5
346
100
AcDbEntity
  8
ASSI
100
AcDbLine
 62
250
  6
CONTINUOUS
 10
-10.7530183279
 20
18.7976238907
 11
-10.7533433735
 21
18.7917657675
  0
LWPOLYLINE
  5
347
100
AcDbEntity
  8
RACCORDO
100
AcDbPolyline
 62
250
  6
CONTINUOUS
 90
10
 70
0
 10
-15.864542348
 20
-17.6024259875
 10
-15.8623898767
 20
-17.5728015219
 10
-15.8560002432
 20
-17.5416016824
 10
-15.8455711485
 20
-17.5097765869
 10
-15.8313647745
 20
-17.4781808222
 10
-15.8138496956
 20
-17.4478967206
 10
-15.7937988297
 20
-17.4201408803
 10
-15.7719784484
 20
-17.3957410089
 10
-15.7490124093
 20
-17.3751863856
 10
-15.7255891348
 20
-17.3589269587
  0
LINE
  5
348
100
AcDbEntity
  8
ASSI
100
AcDbLine
 62
250
  6
CONTINUOUS
 10
-7.9275279472
 20
20.2364064892
 11
-7.924439349
 21
20.253916998
  0
LWPOLYLINE
  5
349
100
AcDbEntity
  8
ASSI
100
AcDbPolyline
 62
250
  6
CONTINUOUS
 90
13
 70
0
 10
-10.5889363735
 20
18.804388753
 10
-10.5833465369
 20
18.8285466565
 10
-10.5801194703
 20
18.8534905609
 10
-10.5793071141
 20
18.8788190382
 10
-10.5809225471
 20
18.9041244598
 10
-10.5849397773
 20
18.9289995859
 10
-10.5912941691
 20
18.9530441177
 10
-10.5998834735
 20
18.9758710919
 10
-10.6105694713
 20
18.9971131314
 10
-10.6231802108
 20
19.0164283811
 10
-10.6375127593
 20
19.033505974
 10
-10.6533364629
 20
19.0480710406
 10
-10.6703966689
 20
19.0598891497
  0
LWPOLYLINE
  5
34A
100
AcDbEntity
  8
ASSI
100
AcDbPolyline
 62
250
  6
CONTINUOUS
 90
13
 70
0
 10
-9.0073768926
 20
18.8427511478
 10
-9.001787022
 20
18.866909253
 10
-8.9985599621
 20
18.8918533462
 10
-8.9977476475
 20
18.9171819889
 10
-8.9993631513
 20
18.9424875539
 10
-9.0033804743
 20
18.9673627852
 10
-9.0097349636
 20
18.9914073525
 10
-9.018324353
 20
19.0142342939
 10
-9.029010409
 20
19.0354762432
 10
-9.0416211551
 20
19.0547913426
 10
-9.05595364
 20
19.0718687438
 10
-9.0717772033
 20
19.0864336111
 10
-9.088837188
 20
19.0982515445
  0
LWPOLYLINE
  5
34B
100
AcDbEntity
  8
ASSI
100
AcDbPolyline
 62
250
  6
CONTINUOUS
 90
13
 70
0
 10
-7.9607756488
 20
19.0210262942
 10
-7.966365696
 20
18.9968672078
 10
-7.969592725
 20
18.9719222929
 10
-7.9704048568
 20
18.946593041
 10
-7.9687890813
 20
18.9212871252
 10
-7.9647714631
 20
18.8964118009
 10
-7.9584167076
 20
18.8723673551
 10
-7.9498271343
 20
18.8495407342
 10
-7.9391410196
 20
18.8282992581
 10
-7.926530343
 20
18.8089846878
 10
-7.9121980586
 20
18.7919078123
 10
-7.8963748435
 20
18.7773434334
 10
-7.8793153533
 20
18.7655258975
  0
LWPOLYLINE
  5
34C
100
AcDbEntity
  8
RACCORDO
100
AcDbPolyline
 62
250
  6
CONTINUOUS
 90
13
 70
0
 10
-7.0488484754
 20
19.0431460505
 10
-7.0544383528
 20
19.0189880753
 10
-7.057665442
 20
18.9940440888
 10
-7.0584778003
 20
18.9687155226
 10
-7.0568623457
 20
18.9434099973
 10
-7.052845068
 20
18.9185347699
 10
-7.0464906125
 20
18.8944901784
 10
-7.0379012365
 20
18.8716631845
 10
-7.0272151692
 20
18.8504211642
 10
-7.0146043932
 20
18.831105997
 10
-7.0002718643
 20
18.8140285387
 10
-6.9844482405
 20
18.7994636231
 10
-6.96738818
 20
18.7876456538
  0
LWPOLYLINE
  5
34D
100
AcDbEntity
  8
ASSI
100
AcDbPolyline
 62
250
  6
CONTINUOUS
 90
16
 70
0
 10
-8.4095013458
 20
15.931195581
 10
-8.4134600695
 20
15.9162288261
 10
-8.4180506716
 20
15.9017922812
 10
-8.4231918699
 20
15.8879484829
 10
-8.4287958954
 20
15.874765864
 10
-8.4347963065
 20
15.8622667065
 10
-8.441154816
 20
15.8504325367
 10
-8.4477539241
 20
15.8393738733
 10
-8.4545873717
 20
15.8290180212
 10
-8.4618198618
 20
15.8191009201
 10
-8.4693894703
 20
15.8096882604
 10
-8.4772946627
 20
15.8008032826
 10
-8.4858336609
 20
15.7922141686
 10
-8.4950958679
 20
15.7839511995
 10
-8.5049372371
 20
15.7762389334
 10
-8.5153102843
 20
15.7692108404
  0
LWPOLYLINE
  5
34E
100
AcDbEntity
  8
ASSI
100
AcDbPolyline
 62
250
  6
CONTINUOUS
 90
14
 70
0
 10
-7.924439349
 20
20.253916998
 10
-7.9193293028
 20
20.2714669455
 10
-7.912253801
 20
20.2888640469
 10
-7.9032903671
 20
20.3059177002
 10
-7.8925372024
 20
20.3224410735
 10
-7.8801121179
 20
20.338253137
 10
-7.8661512473
 20
20.3531806469
 10
-7.8508075488
 20
20.3670600546
 10
-7.8342491319
 20
20.3797392937
 10
-7.8166574131
 20
20.391079449
 10
-7.7982251278
 20
20.4009562771
 10
-7.7791542221
 20
20.4092615651
 10
-7.7596536417
 20
20.4159043172
 10
-7.7399370388
 20
20.420811753
  0
LINE
  5
34F
100
AcDbEntity
  8
ASSI
100
AcDbLine
 62
250
  6
CONTINUOUS
 10
-8.1381156285
 20
16.8048250046
 11
-8.4095006226
 21
15.9311951633
  0
LINE
  5
350
100
AcDbEntity
  8
ASSI
100
AcDbLine
 62
250
  6
CONTINUOUS
 10
-7.8723112502
 20
16.7282163248
 11
-8.1436962443
 21
15.8545864835
  0
LWPOLYLINE
  5
351
100
AcDbEntity
  8
RACCORDO
100
AcDbPolyline
 62
250
  6
CONTINUOUS
 90
4
 70
0
 10
-6.3755903136
 20
18.9463951243
 10
-6.3729930478
 20
18.9541256656
 10
-6.3625460731
 20
18.9726096051
 10
-6.3481705497
 20
18.9903909631
  0
LWPOLYLINE
  5
352
100
AcDbEntity
  8
ASSI
100
AcDbPolyline
 62
250
  6
CONTINUOUS
 90
16
 70
0
 10
-8.1436962443
 20
15.8545864835
 10
-8.1536890309
 20
15.8255291713
 10
-8.1645238271
 20
15.7976836005
 10
-8.1762006328
 20
15.771049771
 10
-8.18883478
 20
15.7455936494
 10
-8.2023109368
 20
15.7213492692
 10
-8.2162831071
 20
15.6984187311
 10
-8.2305810143
 20
15.676960772
 10
-8.2453749351
 20
15.656816655
 10
-8.2608297039
 20
15.6376122698
 10
-8.2768441645
 20
15.619264844
 10
-8.2935194731
 20
15.6018571501
 10
-8.3113239328
 20
15.5852633953
 10
-8.3304136444
 20
15.5694416487
 10
-8.3506325071
 20
15.5544338411
 10
-8.3719805208
 20
15.5402399727
  0
LINE
  5
353
100
AcDbEntity
  8
ASSI
100
AcDbLine
 62
250
  6
CONTINUOUS
 10
-5.2308289124
 20
13.1241630244
 11
-5.0903069371
 21
13.2682867677
  0
LINE
  5
354
100
AcDbEntity
  8
ASSI
100
AcDbLine
 62
7
  6
CONTINUOUS
 10
-5.2066215182
 20
13.0902733192
 11
-5.0909755276
 21
13.2088834727
  0
LINE
  5
355
100
AcDbEntity
  8
RACCORDO
100
AcDbLine
 62
7
  6
CONTINUOUS
 10
0.0352121557
 20
19.0790737377
 11
-0.5682149464
 21
18.4716279984
  0
LWPOLYLINE
  5
356
100
AcDbEntity
  8
RACCORDO
100
AcDbPolyline
 62
250
  6
CONTINUOUS
 90
14
 70
0
 10
-2.4266169614
 20
15.3898075977
 10
-2.426352442
 20
15.3900350403
 10
-2.4239650477
 20
15.3919656653
 10
-2.4214645176
 20
15.393875538
 10
-2.4188571429
 20
15.3957634201
 10
-2.4161537321
 20
15.39763519
 10
-2.4133628319
 20
15.3994893656
 10
-2.4104889842
 20
15.4013267913
 10
-2.4075373836
 20
15.4031572276
 10
-2.4045174893
 20
15.404978754
 10
-2.4014320267
 20
15.4067934393
 10
-2.3982746406
 20
15.4086166666
 10
-2.3950457394
 20
15.4104532344
 10
-2.3917537587
 20
15.4122979167
  0
LWPOLYLINE
  5
357
100
AcDbEntity
  8
ASSI
100
AcDbPolyline
 62
250
  6
CONTINUOUS
 90
16
 70
0
 10
-7.8280008416
 20
11.9145895036
 10
-7.8642820128
 20
11.8903809779
 10
-7.9000807577
 20
11.8621620287
 10
-7.9350178113
 20
11.8302316181
 10
-7.9687230378
 20
11.7949280284
 10
-8.0008393515
 20
11.7566252787
 10
-8.0310265003
 20
11.7157291627
 10
-8.0589646706
 20
11.6726729488
 10
-8.0843578752
 20
11.6279127902
 10
-8.1069370894
 20
11.5819228922
 10
-8.1264631007
 20
11.5351904885
 10
-8.1427290434
 20
11.4882106793
 10
-8.15556259
 20
11.4414811863
 10
-8.1648277772
 20
11.3954970789
 10
-8.1704264465
 20
11.3507455294
 10
-8.1722992834
 20
11.307700652
  0
LWPOLYLINE
  5
358
100
AcDbEntity
  8
ASSI
100
AcDbPolyline
 62
250
  6
CONTINUOUS
 90
9
 70
0
 10
-5.0903069371
 20
13.6375977573
 10
-5.0766520239
 20
13.6466615717
 10
-5.0647047263
 20
13.6564927525
 10
-5.0545928857
 20
13.6669844002
 10
-5.0464286224
 20
13.6780158825
 10
-5.040291895
 20
13.6894738406
 10
-5.0362419346
 20
13.7012556928
 10
-5.034330486
 20
13.7132610692
 10
-5.0341749015
 20
13.7177910733
  0
LWPOLYLINE
  5
359
100
AcDbEntity
  8
ASSI
100
AcDbPolyline
 62
250
  6
CONTINUOUS
 90
8
 70
0
 10
-5.0903069371
 20
13.2682867677
 10
-5.0767005725
 20
13.2773147658
 10
-5.0647855359
 20
13.2871073746
 10
-5.0546898039
 20
13.2975594191
 10
-5.0465216076
 20
13.308558964
 10
-5.0403690035
 20
13.3199875723
 10
-5.0362983416
 20
13.3317214693
 10
-5.0344930196
 20
13.3427756158
  0
LWPOLYLINE
  5
35A
100
AcDbEntity
  8
RACCORDO
100
AcDbPolyline
 62
250
  6
CONTINUOUS
 90
4
 70
0
 10
1.8203765762
 20
17.8442556936
 10
1.8370205488
 20
17.855272925
 10
1.8517205691
 20
17.8672708218
 10
1.8642910699
 20
17.880138559
  0
LINE
  5
35B
100
AcDbEntity
  8
ASSI
100
AcDbLine
 62
7
  6
CONTINUOUS
 10
-5.0788213311
 20
14.2373225375
 11
-4.2482931575
 21
14.772112865
  0
LINE
  5
35C
100
AcDbEntity
  8
0
100
AcDbLine
 62
250
  6
CONTINUOUS
 10
-3.37648728
 20
12.608387371
 11
-0.9647469752
 21
14.0719734859
  0
LINE
  5
35D
100
AcDbEntity
  8
RACCORDO
100
AcDbLine
 62
7
  6
CONTINUOUS
 10
-3.1972451552
 20
12.4731243779
 11
-0.9587483305
 21
13.8310786968
  0
LINE
  5
35E
100
AcDbEntity
  8
ASSI
100
AcDbLine
 62
7
  6
CONTINUOUS
 10
-1.3986141877
 20
13.4678011504
 11
-3.1549407856
 21
12.4032934526
  0
LINE
  5
35F
100
AcDbEntity
  8
RACCORDO
100
AcDbLine
 62
250
  6
CONTINUOUS
 10
-2.0304439387
 20
15.3129967623
 11
-2.1616394001
 21
15.2368128748
  0
LINE
  5
360
100
AcDbEntity
  8
RACCORDO
100
AcDbLine
 62
250
  6
CONTINUOUS
 10
-5.5834693705
 20
14.1504372434
 11
-4.8373512578
 21
14.5812323443
  0
LINE
  5
361
100
AcDbEntity
  8
RACCORDO
100
AcDbLine
 62
250
  6
CONTINUOUS
 10
-2.5651529111
 20
15.7202902739
 11
1.6436268048
 21
18.1503952774
  0
LINE
  5
362
100
AcDbEntity
  8
ASSI
100
AcDbLine
 62
7
  6
CONTINUOUS
 10
-5.4063842296
 20
14.0481905025
 11
-5.0788213311
 21
14.2373225375
  0
LINE
  5
363
100
AcDbEntity
  8
ASSI
100
AcDbLine
 62
250
  6
CONTINUOUS
 10
-5.2317067542
 20
13.8825094244
 11
-5.8299642696
 21
13.5370818469
  0
LINE
  5
364
100
AcDbEntity
  8
RACCORDO
100
AcDbLine
 62
250
  6
CONTINUOUS
 10
-2.3884031397
 20
15.41415069
 11
1.8203765762
 21
17.8442556936
  0
LINE
  5
365
100
AcDbEntity
  8
RACCORDO
100
AcDbLine
 62
7
  6
CONTINUOUS
 10
1.9161241304
 20
17.8389562633
 11
-1.9277018689
 21
15.619555582
  0
LINE
  5
366
100
AcDbEntity
  8
ASSI
100
AcDbLine
 62
250
  6
CONTINUOUS
 10
-5.0903069371
 20
13.6375977573
 11
-5.5471785428
 21
13.3738049124
  0
LINE
  5
367
100
AcDbEntity
  8
ASSI
100
AcDbLine
 62
250
  6
CONTINUOUS
 10
-5.4239475646
 20
13.30265289
 11
-7.8280008416
 21
11.9145895036
  0
LINE
  5
368
100
AcDbEntity
  8
ASSI
100
AcDbLine
 62
250
  6
CONTINUOUS
 10
-5.0705153279
 20
12.6904902997
 11
-7.4745686049
 21
11.3024269133
  0
LINE
  5
369
100
AcDbEntity
  8
DRAFT
100
AcDbLine
 62
7
  6
CONTINUOUS
 10
-1.3967422019
 20
13.4647125692
 11
-0.5989388102
 21
13.9252652176
  0
LINE
  5
36A
100
AcDbEntity
  8
DRAFT
100
AcDbLine
 62
7
  6
CONTINUOUS
 10
-3.1425520915
 20
12.3840575632
 11
-3.0864883896
 21
12.4164217855
  0
LINE
  5
36B
100
AcDbEntity
  8
RACCORDO
100
AcDbLine
 62
250
  6
CONTINUOUS
 10
-2.5155470568
 20
14.4910024128
 11
-1.7403779441
 21
14.9287572967
  0
LINE
  5
36C
100
AcDbEntity
  8
RACCORDO
100
AcDbLine
 62
250
  6
CONTINUOUS
 10
-1.8725390921
 20
13.8273606228
 11
-1.0713437118
 21
14.2794336449
  0
LWPOLYLINE
  5
36D
100
AcDbEntity
  8
RACCORDO
100
AcDbPolyline
 62
250
  6
CONTINUOUS
 90
3
 70
0
 10
-0.9196095234
 20
14.096978847
 10
-0.9472171898
 20
14.0813889508
 10
-0.9647469752
 20
14.0719734859
  0
LINE
  5
36E
100
AcDbEntity
  8
RACCORDO
100
AcDbLine
 62
250
  6
CONTINUOUS
 10
-2.3917537587
 20
15.4122979167
 11
-2.3884031397
 21
15.41415069
  0
LINE
  5
36F
100
AcDbEntity
  8
ASSI
100
AcDbLine
 62
250
  6
CONTINUOUS
 10
-5.2044391656
 20
13.0869664495
 11
-2.5156062611
 21
14.4910365966
  0
LINE
  5
370
100
AcDbEntity
  8
ASSI
100
AcDbLine
 62
250
  6
CONTINUOUS
 10
-5.0705153279
 20
12.1660853873
 11
-1.8725390921
 21
13.8273606228
  0
LWPOLYLINE
  5
371
100
AcDbEntity
  8
ASSI
100
AcDbPolyline
 62
250
  6
CONTINUOUS
 90
16
 70
0
 10
-7.4745686049
 20
11.3024269133
 10
-7.5137928513
 20
11.2830557566
 10
-7.5562668283
 20
11.2661226133
 10
-7.601537913
 20
11.2518079316
 10
-7.6491293358
 20
11.2402630777
 10
-7.6985286997
 20
11.2316129322
 10
-7.7491915822
 20
11.2259511472
 10
-7.8005651721
 20
11.2233351271
 10
-7.8521141799
 20
11.2237878203
 10
-7.9033086936
 20
11.2273029909
 10
-7.9536738857
 20
11.2338545522
 10
-8.0026007781
 20
11.2433699241
 10
-8.0493919361
 20
11.2556949138
 10
-8.0935223647
 20
11.2706462016
 10
-8.1346219578
 20
11.2880510937
 10
-8.1722992834
 20
11.307700652
  0
LWPOLYLINE
  5
372
100
AcDbEntity
  8
ASSI
100
AcDbPolyline
 62
250
  6
CONTINUOUS
 90
7
 70
0
 10
-4.5360740364
 20
10.2062699596
 10
-4.5178422237
 20
10.2150629401
 10
-4.499956777
 20
10.2209530125
 10
-4.4827169678
 20
10.2238416201
 10
-4.4664112646
 20
10.2236804286
 10
-4.4513125055
 20
10.2204721353
 10
-4.4387554822
 20
10.2149033908
  0
LINE
  5
373
100
AcDbEntity
  8
RACCORDO
100
AcDbLine
 62
250
  6
CONTINUOUS
 10
-2.5066774247
 20
15.3905288065
 11
-2.5249097492
 21
15.3817361284
  0
LINE
  5
374
100
AcDbEntity
  8
RACCORDO
100
AcDbLine
 62
250
  6
CONTINUOUS
 10
-1.6199059945
 20
15.1485323681
 11
2.8699130232
 21
17.2882505104
  0
LINE
  5
375
100
AcDbEntity
  8
RACCORDO
100
AcDbLine
 62
250
  6
CONTINUOUS
 10
-0.9218607987
 20
14.4435306979
 11
3.570920588
 21
16.5609349218
  0
LINE
  5
376
100
AcDbEntity
  8
CURVE
100
AcDbLine
 62
250
  6
CONTINUOUS
 10
-18.3209433386
 20
-15.5825670427
 11
-20.3876884737
 21
-15.7711914828
  0
LINE
  5
377
100
AcDbEntity
  8
CURVE
100
AcDbLine
 62
250
  6
CONTINUOUS
 10
-20.3876884737
 20
-15.5351964646
 11
-18.3209433386
 21
-15.346571208
  0
LWPOLYLINE
  5
378
100
AcDbEntity
  8
ASSI
100
AcDbPolyline
 62
250
  6
CONTINUOUS
 90
4
 70
0
 10
-10.9976321618
 20
-19.5692873623
 10
-10.9880376311
 20
-19.6158073133
 10
-10.9822170715
 20
-19.6614060463
 10
-10.9801704831
 20
-19.7060835613
  0
LINE
  5
379
100
AcDbEntity
  8
ASSI
100
AcDbLine
 62
7
  6
CONTINUOUS
 10
-10.7533433735
 20
18.7917657675
 11
-10.753337558
 21
18.7917026077
  0
LINE
  5
37A
100
AcDbEntity
  8
ASSI
100
AcDbLine
 62
250
  6
CONTINUOUS
 10
-10.5792471069
 20
18.697650392
 11
-10.5889363735
 21
18.804388753
  0
LWPOLYLINE
  5
37B
100
AcDbEntity
  8
ASSI
100
AcDbPolyline
 62
250
  6
CONTINUOUS
 90
9
 70
0
 10
-8.1722992834
 20
-30.8440716302
 10
-8.1704264465
 20
-30.8849538025
 10
-8.1648277772
 20
-30.9232401491
 10
-8.15556259
 20
-30.9585250505
 10
-8.1427290434
 20
-30.9904346856
 10
-8.1264631007
 20
-31.0186309918
 10
-8.1069370894
 20
-31.0428152471
 10
-8.0843578752
 20
-31.0627312345
 10
-8.0687579729
 20
-31.0729400608
  0
LINE
  5
37C
100
AcDbEntity
  8
ASSI
100
AcDbLine
 62
7
  6
CONTINUOUS
 10
-11.0387491269
 20
-19.624428512
 11
-11.0387491269
 21
-21.0002816538
  0
LINE
  5
37D
100
AcDbEntity
  8
ASSI
100
AcDbLine
 62
250
  6
CONTINUOUS
 10
-10.9801704831
 20
-19.7060835613
 11
-10.9801704831
 21
-21.0819365717
  0
LINE
  5
37E
100
AcDbEntity
  8
DRAFT
100
AcDbLine
 62
250
  6
CONTINUOUS
 10
-10.3490643481
 20
19.9641294272
 11
-10.3490643481
 21
20.1886389994
  0
LINE
  5
37F
100
AcDbEntity
  8
DRAFT
100
AcDbLine
 62
250
  6
CONTINUOUS
 10
-9.7985693931
 20
19.7742075285
 11
-9.7985693931
 21
20.1640958453
  0
LINE
  5
380
100
AcDbEntity
  8
ASSI
100
AcDbLine
 62
250
  6
CONTINUOUS
 10
-8.1722992834
 20
11.307700652
 11
-8.1722992834
 21
-30.8440716302
  0
LINE
  5
381
100
AcDbEntity
  8
ASSI
100
AcDbLine
 62
7
  6
CONTINUOUS
 10
-7.9570007144
 20
20.3151033312
 11
-7.9570007144
 21
20.1828351247
  0
LINE
  5
382
100
AcDbEntity
  8
ASSI
100
AcDbLine
 62
250
  6
CONTINUOUS
 10
-7.4745686049
 20
11.3024269133
 11
-7.4745686049
 21
-30.8493453689
  0
LINE
  5
383
100
AcDbEntity
  8
ASSI
100
AcDbLine
 62
250
  6
CONTINUOUS
 10
-7.9293246301
 20
20.19253645
 11
-7.9285612709
 21
20.219127289
  0
LWPOLYLINE
  5
384
100
AcDbEntity
  8
ASSI
100
AcDbPolyline
 62
7
  6
CONTINUOUS
 90
6
 70
0
 10
-11.0387491165
 20
-21.000318751
 10
-11.0392795409
 20
-21.0166505937
 10
-11.0409044255
 20
-21.0320241552
 10
-11.0432653686
 20
-21.0443833849
 10
-11.045912267
 20
-21.0535514223
 10
-11.0471715796
 20
-21.0568889424
  0
LWPOLYLINE
  5
385
100
AcDbEntity
  8
ASSI
100
AcDbPolyline
 62
250
  6
CONTINUOUS
 90
16
 70
0
 10
-10.9801704831
 20
-21.0819365717
 10
-10.9822236157
 20
-21.1237322283
 10
-10.9878847479
 20
-21.1621335021
 10
-10.9971538797
 20
-21.197140393
 10
-11.010199332
 20
-21.2290630721
 10
-11.0268527839
 20
-21.2575913683
 10
-11.046609273
 20
-21.2817947682
 10
-11.0694994801
 20
-21.3015529995
 10
-11.0954927244
 20
-21.3169863343
 10
-11.1239920012
 20
-21.3275250763
 10
-11.1552705384
 20
-21.3330100088
 10
-11.1890551082
 20
-21.3336003484
 10
-11.2239290219
 20
-21.3292040483
 10
-11.2594200502
 20
-21.3197904262
 10
-11.2960004226
 20
-21.3053901645
 10
-11.3336701389
 20
-21.286003263
  0
LWPOLYLINE
  5
386
100
AcDbEntity
  8
ASSI
100
AcDbPolyline
 62
250
  6
CONTINUOUS
 90
13
 70
0
 10
-11.3336700258
 20
-21.2860033283
 10
-11.332486846
 20
-21.264241516
 10
-11.3289571043
 20
-21.241477531
 10
-11.3231398629
 20
-21.2180922759
 10
-11.3151324598
 20
-21.194477049
 10
-11.3050688804
 20
-21.1710269965
 10
-11.2931175154
 20
-21.1481345009
 10
-11.2794783434
 20
-21.1261826151
 10
-11.2643795843
 20
-21.1055386533
 10
-11.2480738811
 20
-21.0865480444
 10
-11.2308340719
 20
-21.0695285525
 10
-11.2129486252
 20
-21.0547649593
 10
-11.1947168125
 20
-21.0425042996
  0
LINE
  5
387
100
AcDbEntity
  8
ASSI
100
AcDbLine
 62
250
  6
CONTINUOUS
 10
-7.9285612541
 20
20.2191272687
 11
-7.9275279472
 21
20.2364064892
  0
LWPOLYLINE
  5
388
100
AcDbEntity
  8
ASSI
100
AcDbPolyline
 62
7
  6
CONTINUOUS
 90
19
 70
0
 10
-7.9570007102
 20
20.3151033312
 10
-7.9547485693
 20
20.3517978726
 10
-7.9477976805
 20
20.3889669799
 10
-7.9359123092
 20
20.4260573532
 10
-7.9189716077
 20
20.4624526152
 10
-7.896931473
 20
20.4976099709
 10
-7.8696802215
 20
20.5311714511
 10
-7.8366768619
 20
20.563122746
 10
-7.7982985857
 20
20.5924988036
 10
-7.7560870183
 20
20.6180591138
 10
-7.710412357
 20
20.6397899455
 10
-7.6614206733
 20
20.6577157408
 10
-7.6109415995
 20
20.6713691224
 10
-7.5599806973
 20
20.6808564694
 10
-7.5083592487
 20
20.6864810175
 10
-7.4564965907
 20
20.6883193923
 10
-7.4048065012
 20
20.68642052
 10
-7.3535959334
 20
20.6807940304
 10
-7.3032215859
 20
20.671405793
  0
LWPOLYLINE
  5
389
100
AcDbEntity
  8
RACCORDO
100
AcDbPolyline
 62
250
  6
CONTINUOUS
 90
10
 70
0
 10
-11.9541578374
 20
-19.8602329953
 10
-11.9520099729
 20
-19.8306413458
 10
-11.9456315183
 20
-19.7994678661
 10
-11.935216075
 20
-19.7676594454
 10
-11.921021647
 20
-19.7360685808
 10
-11.9035134118
 20
-19.7057781678
 10
-11.8834624916
 20
-19.6780078112
 10
-11.8616341962
 20
-19.6535883826
 10
-11.8386518479
 20
-19.6330123737
 10
-11.8152046241
 20
-19.6167339666
  0
LWPOLYLINE
  5
38A
100
AcDbEntity
  8
RACCORDO
100
AcDbPolyline
 62
250
  6
CONTINUOUS
 90
10
 70
0
 10
-6.8822728049
 20
18.8474325621
 10
-6.8833988629
 20
18.837138608
 10
-6.8842478486
 20
18.8274082652
 10
-6.8848159629
 20
18.8182856716
 10
-6.8851006992
 20
18.8098123754
 10
-6.8851008224
 20
18.8020265505
 10
-6.8848163286
 20
18.7949629883
 10
-6.8842485074
 20
18.7886536713
 10
-6.8833999821
 20
18.7831274634
 10
-6.8822746344
 20
18.7784094966
  0
LWPOLYLINE
  5
38B
100
AcDbEntity
  8
ASSI
100
AcDbPolyline
 62
250
  6
CONTINUOUS
 90
13
 70
0
 10
-5.5723932921
 20
20.6804232602
 10
-5.5697977377
 20
20.7041028434
 10
-5.5695073336
 20
20.7285728685
 10
-5.5715267344
 20
20.7534411379
 10
-5.575823574
 20
20.778309071
 10
-5.582328984
 20
20.8027780925
 10
-5.590938698
 20
20.8264560206
 10
-5.6015147224
 20
20.8489633531
 10
-5.613887548
 20
20.8699393495
 10
-5.6278588673
 20
20.889047813
 10
-5.6432047523
 20
20.9059824792
 10
-5.6596792441
 20
20.9204719245
 10
-5.6770182949
 20
20.9322839166
  0
LWPOLYLINE
  5
38C
100
AcDbEntity
  8
ASSI
100
AcDbPolyline
 62
250
  6
CONTINUOUS
 90
10
 70
0
 10
-5.6017682173
 20
16.944847095
 10
-5.6051938554
 20
16.9266784239
 10
-5.6072415129
 20
16.9085815874
 10
-5.6078929063
 20
16.8907181556
 10
-5.6071422173
 20
16.8732476146
 10
-5.6049961478
 20
16.8563259435
 10
-5.6014738595
 20
16.8401042219
 10
-5.5966067987
 20
16.8247272791
 10
-5.5904384162
 20
16.8103324023
 10
-5.5830237828
 20
16.7970481108
  0
LWPOLYLINE
  5
38D
100
AcDbEntity
  8
ASSI
100
AcDbPolyline
 62
250
  6
CONTINUOUS
 90
13
 70
0
 10
-7.6460969443
 20
16.8384955441
 10
-7.6413232325
 20
16.862300796
 10
-7.6388125674
 20
16.8867459575
 10
-7.6386033415
 20
16.9114575041
 10
-7.6406987809
 20
16.9360578364
 10
-7.6450668947
 20
16.9601710396
 10
-7.6516409597
 20
16.9834286286
 10
-7.6603205442
 20
17.0054752003
 10
-7.6709730379
 20
17.0259738426
 10
-7.683435668
 20
17.044611279
 10
-7.697518001
 20
17.0611026866
 10
-7.7130048577
 20
17.0751960435
 10
-7.7296595894
 20
17.0866759638
  0
LWPOLYLINE
  5
38E
100
AcDbEntity
  8
ASSI
100
AcDbPolyline
 62
250
  6
CONTINUOUS
 90
5
 70
0
 10
-3.0774258852
 20
18.2293111388
 10
-3.0727862128
 20
18.241321042
 10
-3.066401506
 20
18.2529217612
 10
-3.0583677813
 20
18.263959777
 10
-3.0487896701
 20
18.2743259745
  0
LWPOLYLINE
  5
38F
100
AcDbEntity
  8
ASSI
100
AcDbPolyline
 62
250
  6
CONTINUOUS
 90
5
 70
0
 10
-3.0774245035
 20
18.2083747877
 10
-3.0737774077
 20
18.2173910058
 10
-3.0656367164
 20
18.2296176174
 10
-3.0545388671
 20
18.2413448355
 10
-3.0406733024
 20
18.2523621989
  0
LINE
  5
390
100
AcDbEntity
  8
ASSI
100
AcDbLine
 62
7
  6
CONTINUOUS
 10
-4.5428796344
 20
7.5682455894
 11
-4.1825744937
 21
8.1880822813
  0
LWPOLYLINE
  5
391
100
AcDbEntity
  8
RACCORDO
100
AcDbPolyline
 62
250
  6
CONTINUOUS
 90
3
 70
0
 10
1.8642910699
 20
17.880138559
 10
1.8745707048
 20
17.8937620233
 10
1.8824038461
 20
17.9079980933
  0
LWPOLYLINE
  5
392
100
AcDbEntity
  8
ASSI
100
AcDbPolyline
 62
250
  6
CONTINUOUS
 90
7
 70
0
 10
-4.1825744937
 20
9.5939907918
 10
-4.1658434162
 20
9.6053852788
 10
-4.1517999976
 20
9.6179313795
 10
-4.1406791745
 20
9.6314191175
 10
-4.1326669594
 20
9.6456227868
 10
-4.1278973637
 20
9.660304675
 10
-4.126442823
 20
9.6739862694
  0
LINE
  5
393
100
AcDbEntity
  8
ASSI
100
AcDbLine
 62
7
  6
CONTINUOUS
 10
-5.0705153279
 20
7.1770529749
 11
-4.6832009498
 21
7.4165739961
  0
LINE
  5
394
100
AcDbEntity
  8
0
100
AcDbLine
 62
250
  6
CONTINUOUS
 10
17.4154789374
 20
20.7693321423
 11
25.3414598798
 21
25.4559368703
  0
LINE
  5
395
100
AcDbEntity
  8
0
100
AcDbLine
 62
250
  6
CONTINUOUS
 10
-1.0995792271
 20
8.5667397485
 11
-5.0705153279
 21
6.2204436667
  0
LINE
  5
396
100
AcDbEntity
  8
0
100
AcDbLine
 62
250
  6
CONTINUOUS
 10
-1.0384579853
 20
8.2554620316
 11
-5.0705153279
 21
5.8738203451
  0
LINE
  5
397
100
AcDbEntity
  8
0
100
AcDbLine
 62
250
  6
CONTINUOUS
 10
17.829629413
 20
19.3757193703
 11
25.7620664451
 21
24.051139231
  0
LINE
  5
398
100
AcDbEntity
  8
RACCORDO
100
AcDbLine
 62
250
  6
CONTINUOUS
 10
17.5090161463
 20
19.8070380003
 11
-1.1037266791
 21
8.8564889369
  0
LINE
  5
399
100
AcDbEntity
  8
RACCORDO
100
AcDbLine
 62
250
  6
CONTINUOUS
 10
17.7528928914
 20
18.8849585025
 11
-0.8632299798
 21
7.9410958279
  0
LINE
  5
39A
100
AcDbEntity
  8
RACCORDO
100
AcDbLine
 62
250
  6
CONTINUOUS
 10
16.4035891323
 20
21.5665819203
 11
4.7498689737
 21
14.8076614999
  0
LINE
  5
39B
100
AcDbEntity
  8
RACCORDO
100
AcDbLine
 62
250
  6
CONTINUOUS
 10
16.8195049384
 20
21.1159882674
 11
4.9334389713
 21
14.2217388354
  0
LINE
  5
39C
100
AcDbEntity
  8
ASSI
100
AcDbLine
 62
250
  6
CONTINUOUS
 10
-4.5360740364
 20
10.2062699596
 11
-5.0705153279
 21
9.8976891965
  0
LINE
  5
39D
100
AcDbEntity
  8
ASSI
100
AcDbLine
 62
250
  6
CONTINUOUS
 10
-4.1825744937
 20
9.5939907918
 11
-5.0705153279
 21
9.0813031223
  0
LINE
  5
39E
100
AcDbEntity
  8
SUPERFICI
100
AcDbLine
 62
250
  6
CONTINUOUS
 10
25.7013823698
 20
25.6488790431
 11
25.3477409912
 21
25.4446635173
  0
LINE
  5
39F
100
AcDbEntity
  8
RACCORDO
100
AcDbLine
 62
250
  6
CONTINUOUS
 10
-4.3619677731
 20
7.297512555
 11
-5.0705153279
 21
6.8884851477
  0
LINE
  5
3A0
100
AcDbEntity
  8
RACCORDO
100
AcDbLine
 62
250
  6
CONTINUOUS
 10
-4.4247755285
 20
6.9153084454
 11
-5.0705153279
 21
6.5425384399
  0
LINE
  5
3A1
100
AcDbEntity
  8
0
100
AcDbLine
 62
250
  6
CONTINUOUS
 10
24.8350819023
 20
25.9948677007
 11
16.8200952665
 21
21.4624253557
  0
LINE
  5
3A2
100
AcDbEntity
  8
0
100
AcDbLine
 62
250
  6
CONTINUOUS
 10
25.3414598798
 20
25.4559368703
 11
17.3200191141
 21
20.9346734062
  0
LINE
  5
3A3
100
AcDbEntity
  8
ASSI
100
AcDbLine
 62
250
  6
CONTINUOUS
 10
-6.0517709179
 20
15.5189547274
 11
-6.0283076397
 21
15.2835785278
  0
LWPOLYLINE
  5
3A4
100
AcDbEntity
  8
ASSI
100
AcDbPolyline
 62
250
  6
CONTINUOUS
 90
13
 70
0
 10
-8.4934528251
 20
19.0026237067
 10
-8.4955160713
 20
19.0243264389
 10
-8.4998046451
 20
19.0468492979
 10
-8.5062499377
 20
19.0698321189
 10
-8.5147488525
 20
19.0929073828
 10
-8.5251654619
 20
19.1157061164
 10
-8.5373331885
 20
19.137863791
 10
-8.5510574479
 20
19.1590261088
 10
-8.5661187751
 20
19.1788547025
 10
-8.5822763534
 20
19.1970325591
 10
-8.5992718289
 20
19.2132690388
 10
-8.616833436
 20
19.2273045296
 10
-8.6346803682
 20
19.2389146249
  0
LWPOLYLINE
  5
3A5
100
AcDbEntity
  8
ASSI
100
AcDbPolyline
 62
250
  6
CONTINUOUS
 90
13
 70
0
 10
-8.1723914413
 20
18.955196417
 10
-8.1703282682
 20
18.9334941941
 10
-8.1660398428
 20
18.9109717647
 10
-8.1595947374
 20
18.8879892648
 10
-8.15109601
 20
18.8649141868
 10
-8.1406795561
 20
18.8421155035
 10
-8.1285119358
 20
18.8199577683
 10
-8.1147877105
 20
18.7987952855
 10
-8.0997263321
 20
18.7789664453
 10
-8.0835686335
 20
18.760788313
 10
-8.0665729779
 20
18.7445515586
 10
-8.0490111275
 20
18.7305158095
 10
-8.0311638981
 20
18.7189054988
  0
LWPOLYLINE
  5
3A6
100
AcDbEntity
  8
ASSI
100
AcDbPolyline
 62
250
  6
CONTINUOUS
 90
13
 70
0
 10
-5.6276759178
 20
20.6572873763
 10
-5.629739091
 20
20.6789895992
 10
-5.6340275164
 20
20.7015120286
 10
-5.6404726217
 20
20.7244945285
 10
-5.6489713491
 20
20.7475696065
 10
-5.659387803
 20
20.7703682897
 10
-5.6715554234
 20
20.792526025
 10
-5.6852796486
 20
20.8136885078
 10
-5.700341027
 20
20.8335173479
 10
-5.7164987257
 20
20.8516954803
 10
-5.7334943813
 20
20.8679322347
 10
-5.7510562317
 20
20.8819679838
 10
-5.768903461
 20
20.8935782945
  0
LINE
  5
3A7
100
AcDbEntity
  8
ASSI
100
AcDbLine
 62
250
  6
CONTINUOUS
 10
-6.0770996184
 20
15.7851070761
 11
-6.0517709179
 21
15.5189547274
  0
LINE
  5
3A8
100
AcDbEntity
  8
RACCORDO
100
AcDbLine
 62
250
  6
CONTINUOUS
 10
-6.3086771147
 20
19.0226503402
 11
-6.2976710095
 21
18.9014054946
  0
LINE
  5
3A9
100
AcDbEntity
  8
ASSI
100
AcDbLine
 62
250
  6
CONTINUOUS
 10
-6.1045657075
 20
16.0881857095
 11
-6.0770996184
 21
15.7851070761
  0
LINE
  5
3AA
100
AcDbEntity
  8
ASSI
100
AcDbLine
 62
250
  6
CONTINUOUS
 10
-6.1263752858
 20
16.3398121023
 11
-6.1045657075
 21
16.0881857095
  0
LWPOLYLINE
  5
3AB
100
AcDbEntity
  8
ASSI
100
AcDbPolyline
 62
250
  6
CONTINUOUS
 90
5
 70
0
 10
-7.9570007144
 20
20.3151033312
 10
-7.9551887499
 20
20.2905478546
 10
-7.9498151123
 20
20.2663355534
 10
-7.940918096
 20
20.2424718255
 10
-7.9285612709
 20
20.219127289
  0
LWPOLYLINE
  5
3AC
100
AcDbEntity
  8
ASSI
100
AcDbPolyline
 62
250
  6
CONTINUOUS
 90
16
 70
0
 10
-7.4745686049
 20
11.3024269133
 10
-7.4774585526
 20
11.3458038353
 10
-7.4841072535
 20
11.3910092309
 10
-7.4944414463
 20
11.4375452165
 10
-7.5083490977
 20
11.4849047893
 10
-7.5256759809
 20
11.5325608996
 10
-7.5462234965
 20
11.5799721552
 10
-7.5697566234
 20
11.6266069053
 10
-7.5960178031
 20
11.6719640325
 10
-7.6247252757
 20
11.7155603435
 10
-7.6556081822
 20
11.7569734897
 10
-7.6882873138
 20
11.7956847068
 10
-7.7222671304
 20
11.8311356241
 10
-7.7571153113
 20
11.8629384207
 10
-7.7924882796
 20
11.8908405967
 10
-7.8280008464
 20
11.9145895008
  0
LWPOLYLINE
  5
3AD
100
AcDbEntity
  8
ASSI
100
AcDbPolyline
 62
250
  6
CONTINUOUS
 90
10
 70
0
 10
-5.4771077395
 20
16.7957359364
 10
-5.477764256
 20
16.8087548088
 10
-5.4788548296
 20
16.8214067344
 10
-5.4803794603
 20
16.8336917133
 10
-5.4823414025
 20
16.8456093419
 10
-5.4847374018
 20
16.8571600238
 10
-5.487557695
 20
16.8683449697
 10
-5.4907990279
 20
16.879164583
 10
-5.4944646548
 20
16.8896184602
 10
-5.4985545757
 20
16.8997066014
  0
LWPOLYLINE
  5
3AE
100
AcDbEntity
  8
ASSI
100
AcDbPolyline
 62
250
  6
CONTINUOUS
 90
15
 70
0
 10
-4.1825744164
 20
9.5939908364
 10
-4.1840603571
 20
9.6352130881
 10
-4.1889152773
 20
9.6776204714
 10
-4.1970068577
 20
9.7207738002
 10
-4.2082391307
 20
9.7644680071
 10
-4.2223945175
 20
9.8080683575
 10
-4.2389846752
 20
9.850510432
 10
-4.2576175376
 20
9.8913610698
 10
-4.2779905952
 20
9.930422376
 10
-4.2995571665
 20
9.9670893418
 10
-4.3216043325
 20
10.0007146213
 10
-4.3441079892
 20
10.0317681054
 10
-4.3676767925
 20
10.0612869879
 10
-4.3920862211
 20
10.0890329827
 10
-4.4172431504
 20
10.1149564805
  0
LWPOLYLINE
  5
3AF
100
AcDbEntity
  8
ASSI
100
AcDbPolyline
 62
250
  6
CONTINUOUS
 90
16
 70
0
 10
-5.0903069371
 20
13.6375977573
 10
-5.0908453856
 20
13.6553058491
 10
-5.0929630486
 20
13.6737026999
 10
-5.0966366008
 20
13.6925856144
 10
-5.1018263056
 20
13.7117489144
 10
-5.1084746168
 20
13.7309790995
 10
-5.1165050499
 20
13.750057221
 10
-5.1258251673
 20
13.7687687686
 10
-5.136332946
 20
13.7869133014
 10
-5.1479163577
 20
13.8042987365
 10
-5.1604670293
 20
13.8207570876
 10
-5.1738305395
 20
13.8360809256
 10
-5.1878027464
 20
13.8500483122
 10
-5.2022043687
 20
13.8625071183
 10
-5.2168926602
 20
13.8733598838
 10
-5.2317067542
 20
13.8825094244
  0
LINE
  5
3B0
100
AcDbEntity
  8
ASSI
100
AcDbLine
 62
250
  6
CONTINUOUS
 10
-5.4673432797
 20
16.4563945425
 11
-5.4771077395
 21
16.7957359364
  0
LINE
  5
3B1
100
AcDbEntity
  8
ASSI
100
AcDbLine
 62
250
  6
CONTINUOUS
 10
-5.4600772424
 20
16.1417393924
 11
-5.4673432797
 21
16.4563945425
  0
LINE
  5
3B2
100
AcDbEntity
  8
ASSI
100
AcDbLine
 62
250
  6
CONTINUOUS
 10
-5.4561400925
 20
15.9231207033
 11
-5.4600772424
 21
16.1417393924
  0
LWPOLYLINE
  5
3B3
100
AcDbEntity
  8
ASSI
100
AcDbPolyline
 62
250
  6
CONTINUOUS
 90
3
 70
0
 10
-5.4527021883
 20
15.6564902157
 10
-5.453372839
 20
15.7204449023
 10
-5.4561400925
 20
15.9231207033
  0
LWPOLYLINE
  5
3B4
100
AcDbEntity
  8
ASSI
100
AcDbPolyline
 62
7
  6
CONTINUOUS
 90
17
 70
0
 10
-4.126442823
 20
9.6739862693
 10
-4.1264747797
 20
9.6797232368
 10
-4.1288064875
 20
9.7226202375
 10
-4.1347886307
 20
9.7664135374
 10
-4.1443662884
 20
9.8106971347
 10
-4.1572520358
 20
9.8544764907
 10
-4.1731546655
 20
9.8973419281
 10
-4.1919988887
 20
9.9393461247
 10
-4.2135464208
 20
9.980094893
 10
-4.2376474747
 20
10.0193556448
 10
-4.2641858172
 20
10.0569096589
 10
-4.2929366012
 20
10.09238998
 10
-4.3239599347
 20
10.1257289771
 10
-4.3570727642
 20
10.1565277103
 10
-4.3916851104
 20
10.1841082994
 10
-4.4275091118
 20
10.2082130123
 10
-4.4387554822
 20
10.2149033908
  0
LWPOLYLINE
  5
3B5
100
AcDbEntity
  8
ASSI
100
AcDbPolyline
 62
250
  6
CONTINUOUS
 90
16
 70
0
 10
-5.6017686679
 20
16.9448471442
 10
-5.6018064011
 20
16.960845588
 10
-5.6028099612
 20
16.9768062042
 10
-5.6047728521
 20
16.9926268348
 10
-5.6076824354
 20
17.0082061782
 10
-5.6115200156
 20
17.023444578
 10
-5.616260988
 20
17.0382446489
 10
-5.6218749901
 20
17.0525117247
 10
-5.62832603
 20
17.0661544438
 10
-5.6355727328
 20
17.0790854708
 10
-5.6435687158
 20
17.0912221208
 10
-5.6522627231
 20
17.102486665
 10
-5.6615988699
 20
17.1128068533
 10
-5.6715172621
 20
17.1221166584
 10
-5.6819544207
 20
17.1303566438
 10
-5.6928434921
 20
17.1374741614
  0
LINE
  5
3B6
100
AcDbEntity
  8
ASSI
100
AcDbLine
 62
7
  6
CONTINUOUS
 10
-5.5074318129
 20
16.6202182616
 11
-5.5074318129
 21
15.5514475748
  0
LINE
  5
3B7
100
AcDbEntity
  8
ASSI
100
AcDbLine
 62
7
  6
CONTINUOUS
 10
-5.3533580404
 20
15.5775995817
 11
-5.3533580404
 21
15.7114697217
  0
LINE
  5
3B8
100
AcDbEntity
  8
ASSI
100
AcDbLine
 62
250
  6
CONTINUOUS
 10
-5.0903069371
 20
13.2682867677
 11
-5.0903069371
 21
13.6375977573
  0
LINE
  5
3B9
100
AcDbEntity
  8
RACCORDO
100
AcDbLine
 62
7
  6
CONTINUOUS
 10
-5.0705153279
 20
5.8738203451
 11
-5.0705153279
 21
-22.7862798676
  0
LINE
  5
3BA
100
AcDbEntity
  8
ASSI
100
AcDbLine
 62
7
  6
CONTINUOUS
 10
-5.0705153279
 20
-29.6029498222
 11
-5.0705153279
 21
12.6904902997
  0
LINE
  5
3BB
100
AcDbEntity
  8
ASSI
100
AcDbLine
 62
7
  6
CONTINUOUS
 10
-5.0341748972
 20
13.3485041751
 11
-5.0341748972
 21
13.7178151647
  0
LINE
  5
3BC
100
AcDbEntity
  8
0
100
AcDbLine
 62
7
  6
CONTINUOUS
 10
-4.8583832935
 20
-22.8475907156
 11
-4.8583832935
 21
-22.950981838
  0
LINE
  5
3BD
100
AcDbEntity
  8
DRAFT
100
AcDbLine
 62
7
  6
CONTINUOUS
 10
-4.8373512578
 20
14.3928089661
 11
-4.8373512578
 21
14.5812323443
  0
LINE
  5
3BE
100
AcDbEntity
  8
RACCORDO
100
AcDbLine
 62
250
  6
CONTINUOUS
 10
-4.4890436194
 20
19.3825319418
 11
-4.4890436194
 21
20.0732839151
  0
LINE
  5
3BF
100
AcDbEntity
  8
DRAFT
100
AcDbLine
 62
250
  6
CONTINUOUS
 10
-4.3072308194
 20
15.5254981623
 11
-4.3072308194
 21
14.7341619651
  0
LINE
  5
3C0
100
AcDbEntity
  8
ASSI
100
AcDbLine
 62
250
  6
CONTINUOUS
 10
-4.1825744937
 20
-23.9971854375
 11
-4.1825744937
 21
-25.403093948
  0
LINE
  5
3C1
100
AcDbEntity
  8
ASSI
100
AcDbLine
 62
250
  6
CONTINUOUS
 10
-4.1825744937
 20
8.1880822813
 11
-4.1825744937
 21
9.5939907918
  0
LINE
  5
3C2
100
AcDbEntity
  8
RACCORDO
100
AcDbLine
 62
250
  6
CONTINUOUS
 10
-4.1359747615
 20
19.6008750197
 11
-4.1360234993
 21
20.0955907519
  0
LINE
  5
3C3
100
AcDbEntity
  8
ASSI
100
AcDbLine
 62
7
  6
CONTINUOUS
 10
-4.1264424538
 20
-24.0245277711
 11
-4.1264424538
 21
-25.3228765004
  0
LINE
  5
3C4
100
AcDbEntity
  8
ASSI
100
AcDbLine
 62
7
  6
CONTINUOUS
 10
-4.1264424538
 20
8.3758594297
 11
-4.1264424538
 21
9.6742081743
  0
LWPOLYLINE
  5
3C5
100
AcDbEntity
  8
ASSI
100
AcDbPolyline
 62
7
  6
CONTINUOUS
 90
21
 70
0
 10
-5.5074862141
 20
15.5514486899
 10
-5.5075045676
 20
15.5490274814
 10
-5.5094240957
 20
15.5267820414
 10
-5.5145017269
 20
15.5049028661
 10
-5.5228160983
 20
15.4832517477
 10
-5.5342885727
 20
15.4619668939
 10
-5.5486832387
 20
15.4414629284
 10
-5.5660356656
 20
15.4217686126
 10
-5.5863102839
 20
15.402855185
 10
-5.6091644745
 20
15.3850509853
 10
-5.6346813473
 20
15.3683548785
 10
-5.6627777923
 20
15.3527679995
 10
-5.6928618605
 20
15.3386220929
 10
-5.7249424948
 20
15.3259621311
 10
-5.7590107523
 20
15.3147431417
 10
-5.7944478548
 20
15.3051619518
 10
-5.8312798102
 20
15.2972428267
 10
-5.8694806107
 20
15.2909615012
 10
-5.908353454
 20
15.2864420061
 10
-5.9476660728
 20
15.2837256851
 10
-5.9876507345
 20
15.2827711946
  0
LWPOLYLINE
  5
3C6
100
AcDbEntity
  8
ASSI
100
AcDbPolyline
 62
250
  6
CONTINUOUS
 90
16
 70
0
 10
-3.6987827576
 20
17.7769061869
 10
-3.6984185191
 20
17.7945716803
 10
-3.6973297944
 20
17.8132368592
 10
-3.6955285117
 20
17.832697224
 10
-3.6930344062
 20
17.8527395627
 10
-3.6898748039
 20
17.8731442873
 10
-3.6860843222
 20
17.8936878398
 10
-3.6817044903
 20
17.9141451406
 10
-3.6767832945
 20
17.9342920554
 10
-3.6713746524
 20
17.9539078506
 10
-3.6655378224
 20
17.9727776115
 10
-3.6593367537
 20
17.9906945969
 10
-3.6528393865
 20
18.0074625052
 10
-3.6461169071
 20
18.0228976237
 10
-3.6392429686
 20
18.0368308415
 10
-3.6322928831
 20
18.0491095032
  0
LWPOLYLINE
  5
3C7
100
AcDbEntity
  8
RACCORDO
100
AcDbPolyline
 62
250
  6
CONTINUOUS
 90
19
 70
0
 10
-4.4890436194
 20
20.0732839151
 10
-4.4875957901
 20
20.1138318059
 10
-4.4835519618
 20
20.1548693707
 10
-4.4769121346
 20
20.1963966093
 10
-4.4675861927
 20
20.238708423
 10
-4.4556642518
 20
20.2815099105
 10
-4.4414166593
 20
20.3239163688
 10
-4.4248426113
 20
20.3658539891
 10
-4.4059429117
 20
20.4073965802
 10
-4.3849903189
 20
20.4478808653
 10
-4.3619845576
 20
20.4873123653
 10
-4.336925903
 20
20.5256855593
 10
-4.3100879397
 20
20.5623206089
 10
-4.2812751523
 20
20.5973625283
 10
-4.2506830561
 20
20.6306663032
 10
-4.2191717813
 20
20.661117052
 10
-4.1870280379
 20
20.6883431474
 10
-4.1539651159
 20
20.7127162167
 10
-4.1199830153
 20
20.7342362598
  0
LINE
  5
3C8
100
AcDbEntity
  8
ASSI
100
AcDbLine
 62
250
  6
CONTINUOUS
 10
-5.0343528522
 20
13.3436338735
 11
-5.0341748972
 21
13.3485041751
  0
LWPOLYLINE
  5
3C9
100
AcDbEntity
  8
ASSI
100
AcDbPolyline
 62
250
  6
CONTINUOUS
 90
22
 70
0
 10
-5.5074318129
 20
16.6202182616
 10
-5.5087443886
 20
16.5993135435
 10
-5.5137704821
 20
16.5743950431
 10
-5.5225243469
 20
16.549822559
 10
-5.5349398983
 20
16.52578162
 10
-5.5509233789
 20
16.5024537929
 10
-5.5703540995
 20
16.4800152297
 10
-5.5930853489
 20
16.4586353625
 10
-5.6189454728
 20
16.4384756498
 10
-5.6477391611
 20
16.4196883472
 10
-5.6792489546
 20
16.4024153324
 10
-5.7132369273
 20
16.3867870215
 10
-5.7494464563
 20
16.3729214126
 10
-5.7876041257
 20
16.3609232069
 10
-5.8274217869
 20
16.3508830118
 10
-5.8685987691
 20
16.3428766446
 10
-5.9108241425
 20
16.3369645645
 10
-5.9537790426
 20
16.3331914193
 10
-5.99713908
 20
16.3315857032
 10
-6.0405768215
 20
16.3321595395
 10
-6.0837642637
 20
16.3349085927
 10
-6.1263752858
 20
16.3398121023
  0
LWPOLYLINE
  5
3CA
100
AcDbEntity
  8
RACCORDO
100
AcDbPolyline
 62
250
  6
CONTINUOUS
 90
18
 70
0
 10
-4.1360234993
 20
20.0955907519
 10
-4.1345683987
 20
20.1184646043
 10
-4.1316348106
 20
20.1417509884
 10
-4.1272686432
 20
20.1653008117
 10
-4.1215053299
 20
20.1889494745
 10
-4.1143701773
 20
20.2125179308
 10
-4.1059420983
 20
20.2358096636
 10
-4.0962820179
 20
20.2587120955
 10
-4.085384027
 20
20.2811694721
 10
-4.0733254937
 20
20.303017053
 10
-4.0601818032
 20
20.3241088925
 10
-4.0459239982
 20
20.3443970576
 10
-4.0305565833
 20
20.3638016652
 10
-4.0142498993
 20
20.3820470447
 10
-3.9972405327
 20
20.3988098439
 10
-3.9797019108
 20
20.4139165144
 10
-3.9617260198
 20
20.42730555
 10
-3.9434485917
 20
20.4388726151
  0
LWPOLYLINE
  5
3CB
100
AcDbEntity
  8
ASSI
100
AcDbPolyline
 62
250
  6
CONTINUOUS
 90
9
 70
0
 10
-7.4745686049
 20
-30.8493453689
 10
-7.4774582327
 20
-30.8915031699
 10
-7.4841061427
 20
-30.9308906811
 10
-7.4944391285
 20
-30.967074164
 10
-7.5083452902
 20
-30.9996588615
 10
-7.5256704299
 20
-31.0282812946
 10
-7.5462157212
 20
-31.0526181918
 10
-7.5697455843
 20
-31.072402218
 10
-7.5884955657
 20
-31.0837639788
  0
LWPOLYLINE
  5
3CC
100
AcDbEntity
  8
ASSI
100
AcDbPolyline
 62
250
  6
CONTINUOUS
 90
3
 70
0
 10
-3.0805727396
 20
18.2133445883
 10
-3.0802670539
 20
18.2170349709
 10
-3.0774258852
 20
18.2293111388
  0
LWPOLYLINE
  5
3CD
100
AcDbEntity
  8
ASSI
100
AcDbPolyline
 62
7
  6
CONTINUOUS
 90
20
 70
0
 10
-3.0325777769
 20
16.9184579218
 10
-3.0348412015
 20
16.8914044732
 10
-3.0411554036
 20
16.8663499348
 10
-3.0514496453
 20
16.841527618
 10
-3.06548609
 20
16.8175540982
 10
-3.0833572358
 20
16.7944580723
 10
-3.1049705847
 20
16.7722108434
 10
-3.1298108057
 20
16.7513428963
 10
-3.1579554749
 20
16.7318873737
 10
-3.1893270162
 20
16.7138111329
 10
-3.2231773699
 20
16.6975452307
 10
-3.2595661124
 20
16.6831331857
 10
-3.2984336673
 20
16.6705314792
 10
-3.338853246
 20
16.660040612
 10
-3.3808766229
 20
16.6517126248
 10
-3.4244520237
 20
16.6454954768
 10
-3.4684973369
 20
16.6415335467
 10
-3.5126518586
 20
16.6398749607
 10
-3.5572762928
 20
16.6404715926
 10
-3.6023706393
 20
16.6433234423
  0
LWPOLYLINE
  5
3CE
100
AcDbEntity
  8
RACCORDO
100
AcDbPolyline
 62
250
  6
CONTINUOUS
 90
4
 70
0
 10
1.8824038461
 20
17.9079980933
 10
1.8876596098
 20
17.9226727297
 10
1.8902572814
 20
17.9376448705
 10
1.8905416261
 20
17.9445274528
  0
LINE
  5
3CF
100
AcDbEntity
  8
CURVE
100
AcDbLine
 62
7
  6
CONTINUOUS
 10
-20.5645442786
 20
-13.5034316637
 11
-20.5401855893
 21
-13.4790729744
  0
LINE
  5
3D0
100
AcDbEntity
  8
CURVE
100
AcDbLine
 62
7
  6
CONTINUOUS
 10
-20.5645457791
 20
-13.6448545205
 11
-20.4492468286
 21
-13.52955557
  0
LINE
  5
3D1
100
AcDbEntity
  8
CURVE
100
AcDbLine
 62
7
  6
CONTINUOUS
 10
-20.5645457791
 20
-13.7862758768
 11
-20.3595913957
 21
-13.5813214933
  0
LINE
  5
3D2
100
AcDbEntity
  8
CURVE
100
AcDbLine
 62
7
  6
CONTINUOUS
 10
-20.5645457791
 20
-13.927697233
 11
-20.2699359628
 21
-13.6330874166
  0
LINE
  5
3D3
100
AcDbEntity
  8
CURVE
100
AcDbLine
 62
7
  6
CONTINUOUS
 10
-20.5645457791
 20
-14.0691185892
 11
-20.3876884737
 21
-13.8922612838
  0
LINE
  5
3D4
100
AcDbEntity
  8
CURVE
100
AcDbLine
 62
7
  6
CONTINUOUS
 10
-20.3097418392
 20
-13.8143146493
 11
-20.1802805298
 21
-13.6848533399
  0
LINE
  5
3D5
100
AcDbEntity
  8
CURVE
100
AcDbLine
 62
7
  6
CONTINUOUS
 10
-20.5645457791
 20
-14.2105399455
 11
-20.3876884737
 21
-14.03368264
  0
LINE
  5
3D6
100
AcDbEntity
  8
CURVE
100
AcDbLine
 62
7
  6
CONTINUOUS
 10
-20.2200864063
 20
-13.8660805726
 11
-20.0906250969
 21
-13.7366192633
  0
LINE
  5
3D7
100
AcDbEntity
  8
CURVE
100
AcDbLine
 62
7
  6
CONTINUOUS
 10
-20.5645457791
 20
-14.3519613017
 11
-20.3876884737
 21
-14.1751039962
  0
LINE
  5
3D8
100
AcDbEntity
  8
CURVE
100
AcDbLine
 62
7
  6
CONTINUOUS
 10
-20.1304309733
 20
-13.9178464959
 11
-20.000969664
 21
-13.7883851866
  0
LINE
  5
3D9
100
AcDbEntity
  8
CURVE
100
AcDbLine
 62
7
  6
CONTINUOUS
 10
-20.5645457791
 20
-14.4933826579
 11
-20.3876884737
 21
-14.3165253525
  0
LINE
  5
3DA
100
AcDbEntity
  8
CURVE
100
AcDbLine
 62
7
  6
CONTINUOUS
 10
-20.0407755404
 20
-13.9696124192
 11
-19.9113142311
 21
-13.8401511099
  0
LINE
  5
3DB
100
AcDbEntity
  8
CURVE
100
AcDbLine
 62
7
  6
CONTINUOUS
 10
-20.5645457791
 20
-14.6348040142
 11
-20.3876884737
 21
-14.4579467087
  0
LINE
  5
3DC
100
AcDbEntity
  8
CURVE
100
AcDbLine
 62
7
  6
CONTINUOUS
 10
-19.9511201075
 20
-14.0213783425
 11
-19.8216587982
 21
-13.8919170332
  0
LINE
  5
3DD
100
AcDbEntity
  8
CURVE
100
AcDbLine
 62
7
  6
CONTINUOUS
 10
-20.5645457791
 20
-14.7762253704
 11
-20.3876884737
 21
-14.5993680649
  0
LINE
  5
3DE
100
AcDbEntity
  8
CURVE
100
AcDbLine
 62
7
  6
CONTINUOUS
 10
-19.8614646746
 20
-14.0731442659
 11
-19.7320033653
 21
-13.9436829565
  0
LINE
  5
3DF
100
AcDbEntity
  8
CURVE
100
AcDbLine
 62
7
  6
CONTINUOUS
 10
-20.5645457791
 20
-14.9176467267
 11
-20.3876884737
 21
-14.7407894212
  0
LINE
  5
3E0
100
AcDbEntity
  8
CURVE
100
AcDbLine
 62
7
  6
CONTINUOUS
 10
-19.7718092417
 20
-14.1249101892
 11
-19.6423479323
 21
-13.9954488799
  0
LINE
  5
3E1
100
AcDbEntity
  8
CURVE
100
AcDbLine
 62
7
  6
CONTINUOUS
 10
-20.5645457791
 20
-15.0590680829
 11
-20.3876884737
 21
-14.8822107774
  0
LINE
  5
3E2
100
AcDbEntity
  8
CURVE
100
AcDbLine
 62
7
  6
CONTINUOUS
 10
-19.6821538088
 20
-14.1766761125
 11
-19.5526924994
 21
-14.0472148032
  0
LINE
  5
3E3
100
AcDbEntity
  8
CURVE
100
AcDbLine
 62
7
  6
CONTINUOUS
 10
-19.4425009606
 20
-13.9370232643
 11
-19.3374586859
 21
-13.8319809897
  0
LINE
  5
3E4
100
AcDbEntity
  8
CURVE
100
AcDbLine
 62
7
  6
CONTINUOUS
 10
-20.5645457791
 20
-15.2004894391
 11
-20.3876884737
 21
-15.0236321337
  0
LINE
  5
3E5
100
AcDbEntity
  8
CURVE
100
AcDbLine
 62
7
  6
CONTINUOUS
 10
-19.5924983758
 20
-14.2284420358
 11
-19.4630370665
 21
-14.0989807265
  0
LINE
  5
3E6
100
AcDbEntity
  8
CURVE
100
AcDbLine
 62
7
  6
CONTINUOUS
 10
-19.4425009606
 20
-14.0784446206
 11
-19.2668852841
 21
-13.9028289441
  0
LINE
  5
3E7
100
AcDbEntity
  8
CURVE
100
AcDbLine
 62
7
  6
CONTINUOUS
 10
-20.5645457791
 20
-15.3419107954
 11
-20.3876884737
 21
-15.1650534899
  0
LINE
  5
3E8
100
AcDbEntity
  8
CURVE
100
AcDbLine
 62
7
  6
CONTINUOUS
 10
-19.5028429429
 20
-14.2802079591
 11
-19.2656436551
 21
-14.0430086713
  0
LINE
  5
3E9
100
AcDbEntity
  8
CURVE
100
AcDbLine
 62
7
  6
CONTINUOUS
 10
-20.5645457791
 20
-15.4833321516
 11
-20.3876884737
 21
-15.3064748461
  0
LINE
  5
3EA
100
AcDbEntity
  8
CURVE
100
AcDbLine
 62
7
  6
CONTINUOUS
 10
-19.41318751
 20
-14.3319738825
 11
-19.2656436551
 21
-14.1844300276
  0
LINE
  5
3EB
100
AcDbEntity
  8
CURVE
100
AcDbLine
 62
7
  6
CONTINUOUS
 10
-20.5645457791
 20
-15.6247535078
 11
-20.3876884737
 21
-15.4478962024
  0
LINE
  5
3EC
100
AcDbEntity
  8
CURVE
100
AcDbLine
 62
7
  6
CONTINUOUS
 10
-19.3235320771
 20
-14.3837398058
 11
-19.1940707678
 21
-14.2542784965
  0
LINE
  5
3ED
100
AcDbEntity
  8
CURVE
100
AcDbLine
 62
7
  6
CONTINUOUS
 10
-20.5645457791
 20
-15.7661748641
 11
-20.3281318346
 21
-15.5297609196
  0
LINE
  5
3EE
100
AcDbEntity
  8
CURVE
100
AcDbLine
 62
7
  6
CONTINUOUS
 10
-19.2338766442
 20
-14.4355057291
 11
-19.1044153348
 21
-14.3060444198
  0
LWPOLYLINE
  5
3EF
100
AcDbEntity
  8
ASSI
100
AcDbPolyline
 62
250
  6
CONTINUOUS
 90
7
 70
0
 10
-10.867249795
 20
18.8982812264
 10
-10.8643139076
 20
18.8839655916
 10
-10.8586836336
 20
18.8679022389
 10
-10.8501859653
 20
18.8505591225
 10
-10.8386972882
 20
18.8322688281
 10
-10.8241227877
 20
18.8134491865
 10
-10.8063816025
 20
18.7946427373
  0
LINE
  5
3F0
100
AcDbEntity
  8
ASSI
100
AcDbLine
 62
250
  6
CONTINUOUS
 10
-6.2066329129
 20
15.4242465576
 11
-6.1826452161
 21
15.25252171
  0
LINE
  5
3F1
100
AcDbEntity
  8
ASSI
100
AcDbLine
 62
250
  6
CONTINUOUS
 10
-6.2319735569
 20
15.6120047314
 11
-6.2066329129
 21
15.4242465576
  0
LINE
  5
3F2
100
AcDbEntity
  8
ASSI
100
AcDbLine
 62
250
  6
CONTINUOUS
 10
-6.2588914624
 20
15.8186943087
 11
-6.2319735569
 21
15.6120047314
  0
LINE
  5
3F3
100
AcDbEntity
  8
ASSI
100
AcDbLine
 62
250
  6
CONTINUOUS
 10
-6.2874142027
 20
16.0459828353
 11
-6.2588914624
 21
15.8186943087
  0
LWPOLYLINE
  5
3F4
100
AcDbEntity
  8
ASSI
100
AcDbPolyline
 62
250
  6
CONTINUOUS
 90
13
 70
0
 10
-7.8723112502
 20
16.7282163248
 10
-7.8749574881
 20
16.7496757686
 10
-7.8797576359
 20
16.7718096388
 10
-7.8866374061
 20
16.7942788393
 10
-7.895489901
 20
16.8167374662
 10
-7.9061794476
 20
16.8388438228
 10
-7.9185451951
 20
16.8602652384
 10
-7.9324097774
 20
16.8806889188
 10
-7.9475522498
 20
16.8997844469
 10
-7.9637065247
 20
16.9172242234
 10
-7.9806086296
 20
16.9327420118
 10
-7.9980087258
 20
16.9461262636
 10
-8.0156411413
 20
16.9571872662
  0
LWPOLYLINE
  5
3F5
100
AcDbEntity
  8
ASSI
100
AcDbPolyline
 62
250
  6
CONTINUOUS
 90
13
 70
0
 10
-8.3719805208
 20
15.5402399727
 10
-8.3746205429
 20
15.5616630122
 10
-8.3794081358
 20
15.5837615677
 10
-8.386270219
 20
15.6061983144
 10
-8.3951020457
 20
15.6286307647
 10
-8.4057688019
 20
15.650716497
 10
-8.4181076641
 20
15.6721183818
 10
-8.4319302847
 20
15.6925097287
 10
-8.4470256675
 20
15.7115792723
 10
-8.4631633877
 20
15.7290359242
 10
-8.4800971101
 20
15.7446132161
 10
-8.4975683485
 20
15.7580733672
 10
-8.5153104119
 20
15.7692109141
  0
LWPOLYLINE
  5
3F6
100
AcDbEntity
  8
ASSI
100
AcDbPolyline
 62
250
  6
CONTINUOUS
 90
13
 70
0
 10
-7.7359158243
 20
16.8097783324
 10
-7.7385558463
 20
16.8312013719
 10
-7.7433434392
 20
16.8532999275
 10
-7.7502055224
 20
16.8757366741
 10
-7.7590373492
 20
16.8981691245
 10
-7.7697041054
 20
16.9202548567
 10
-7.7820429675
 20
16.9416567416
 10
-7.7958655882
 20
16.9620480884
 10
-7.8109609709
 20
16.981117632
 10
-7.8270986912
 20
16.9985742839
 10
-7.8440324135
 20
17.0141515758
 10
-7.8615036519
 20
17.0276117269
 10
-7.8792457154
 20
17.0387492738
  0
LWPOLYLINE
  5
3F7
100
AcDbEntity
  8
ASSI
100
AcDbPolyline
 62
250
  6
CONTINUOUS
 90
13
 70
0
 10
-5.928162622
 20
16.8813408295
 10
-5.9256127785
 20
16.8605773569
 10
-5.9210396339
 20
16.8391683789
 10
-5.9145089119
 20
16.8174215865
 10
-5.9061144703
 20
16.7956495253
 10
-5.895976953
 20
16.7741651061
 10
-5.8842420566
 20
16.7532771067
 10
-5.8710784348
 20
16.733285732
 10
-5.8566752757
 20
16.7144783014
 10
-5.8412395838
 20
16.6971251203
 10
-5.824993203
 20
16.6814755921
 10
-5.8081696274
 20
16.6677546342
 10
-5.7910106474
 20
16.6561594471
  0
LINE
  5
3F8
100
AcDbEntity
  8
ASSI
100
AcDbLine
 62
250
  6
CONTINUOUS
 10
-6.3172825655
 20
16.2933265257
 11
-6.2874142027
 21
16.0459828353
  0
LINE
  5
3F9
100
AcDbEntity
  8
ASSI
100
AcDbLine
 62
250
  6
CONTINUOUS
 10
-3.911758609
 20
17.7627807627
 11
-3.8987059035
 21
17.643276229
  0
LINE
  5
3FA
100
AcDbEntity
  8
ASSI
100
AcDbLine
 62
250
  6
CONTINUOUS
 10
-3.6315538275
 20
16.9659194172
 11
-3.6023705628
 21
16.6433234423
  0
LINE
  5
3FB
100
AcDbEntity
  8
ASSI
100
AcDbLine
 62
250
  6
CONTINUOUS
 10
-3.663751603
 20
17.3421823505
 11
-3.6315538275
 21
16.9659194172
  0
LINE
  5
3FC
100
AcDbEntity
  8
ASSI
100
AcDbLine
 62
250
  6
CONTINUOUS
 10
-3.6987827507
 20
17.7769061829
 11
-3.663751603
 21
17.3421823505
  0
LINE
  5
3FD
100
AcDbEntity
  8
ASSI
100
AcDbLine
 62
250
  6
CONTINUOUS
 10
-3.0079972674
 20
17.827666783
 11
-3.0254919287
 21
18.2927522718
  0
LINE
  5
3FE
100
AcDbEntity
  8
ASSI
100
AcDbLine
 62
250
  6
CONTINUOUS
 10
-2.99831374
 20
17.5239270976
 11
-3.0079972674
 21
17.827666783
  0
LINE
  5
3FF
100
AcDbEntity
  8
RACCORDO
100
AcDbLine
 62
250
  6
CONTINUOUS
 10
-2.3884031377
 20
15.4141506912
 11
-2.3890714682
 21
15.4362176773
  0
LINE
  5
400
100
AcDbEntity
  8
ASSI
100
AcDbLine
 62
250
  6
CONTINUOUS
 10
-2.9906479022
 20
17.2414055341
 11
-2.99831374
 21
17.5239270976
  0
LWPOLYLINE
  5
401
100
AcDbEntity
  8
RACCORDO
100
AcDbPolyline
 62
7
  6
CONTINUOUS
 90
7
 70
0
 10
-0.8632299798
 20
7.9410958279
 10
-0.8649662919
 20
8.0122152964
 10
-0.8701370173
 20
8.0847611473
 10
-0.8787421558
 20
8.1587333806
 10
-0.8908326215
 20
8.2344277642
 10
-0.9063575004
 20
8.3115485302
 10
-0.9251640504
 20
8.3892083751
  0
LINE
  5
402
100
AcDbEntity
  8
ASSI
100
AcDbLine
 62
250
  6
CONTINUOUS
 10
-2.9866046929
 20
17.0657258561
 11
-2.9906479022
 21
17.2414055341
  0
LWPOLYLINE
  5
403
100
AcDbEntity
  8
0
100
AcDbPolyline
 62
7
  6
CONTINUOUS
 90
8
 70
0
 10
-0.9823266054
 20
8.3353827698
 10
-0.9827293765
 20
8.3554812087
 10
-0.9867390596
 20
8.402274643
 10
-0.9950546723
 20
8.4501780417
 10
-1.0075784971
 20
8.4984382206
 10
-1.0235933095
 20
8.545088261
 10
-1.042380779
 20
8.5892838884
 10
-1.0501647389
 20
8.60544653
  0
LINE
  5
404
100
AcDbEntity
  8
ASSI
100
AcDbLine
 62
7
  6
CONTINUOUS
 10
-3.0325580788
 20
18.0491793382
 11
-3.0325580788
 21
16.9184577333
  0
LINE
  5
405
100
AcDbEntity
  8
RACCORDO
100
AcDbLine
 62
250
  6
CONTINUOUS
 10
-2.3884031397
 20
15.367743416
 11
-2.3884031397
 21
15.41415069
  0
LINE
  5
406
100
AcDbEntity
  8
ASSI
100
AcDbLine
 62
7
  6
CONTINUOUS
 10
-2.0304439387
 20
15.4762234303
 11
-2.0304439387
 21
15.1610622596
  0
LINE
  5
407
100
AcDbEntity
  8
DRAFT
100
AcDbLine
 62
250
  6
CONTINUOUS
 10
-1.9132866512
 20
15.3179266823
 11
-1.9132866512
 21
15.0934171101
  0
LINE
  5
408
100
AcDbEntity
  8
ASSI
100
AcDbLine
 62
7
  6
CONTINUOUS
 10
-1.3967422019
 20
13.565375399
 11
-1.3967422019
 21
13.4647125692
  0
LINE
  5
409
100
AcDbEntity
  8
0
100
AcDbLine
 62
250
  6
CONTINUOUS
 10
-1.0384579853
 20
8.2554620316
 11
-1.0384579853
 21
-20.3463694417
  0
LINE
  5
40A
100
AcDbEntity
  8
0
100
AcDbLine
 62
7
  6
CONTINUOUS
 10
-0.9823259454
 20
8.335679439
 11
-0.9823259454
 21
-20.2661520075
  0
LINE
  5
40B
100
AcDbEntity
  8
RACCORDO
100
AcDbLine
 62
7
  6
CONTINUOUS
 10
-0.8632299798
 20
7.9410958279
 11
-0.8632299798
 21
-19.9134327711
  0
LWPOLYLINE
  5
40C
100
AcDbEntity
  8
0
100
AcDbPolyline
 62
250
  6
CONTINUOUS
 90
5
 70
0
 10
-1.0384579853
 20
-20.3463694417
 10
-1.0392553077
 20
-20.3741141091
 10
-1.0418166067
 20
-20.4012269093
 10
-1.0462252547
 20
-20.4275082746
 10
-1.0525251481
 20
-20.4526434479
  0
LWPOLYLINE
  5
40D
100
AcDbEntity
  8
ASSI
100
AcDbPolyline
 62
250
  6
CONTINUOUS
 90
8
 70
0
 10
-4.182574413
 20
-25.4030938981
 10
-4.1840391694
 20
-25.4418172291
 10
-4.188840976
 20
-25.4780030147
 10
-4.1968709279
 20
-25.5113601765
 10
-4.2080783158
 20
-25.5418318938
 10
-4.2222553276
 20
-25.5689591997
 10
-4.2388325702
 20
-25.5921036774
 10
-4.2573163508
 20
-25.6112337537
  0
LWPOLYLINE
  5
40E
100
AcDbEntity
  8
ASSI
100
AcDbPolyline
 62
250
  6
CONTINUOUS
 90
7
 70
0
 10
-4.1264424612
 20
-25.3229080401
 10
-4.1278973934
 20
-25.3367801438
 10
-4.1326670126
 20
-25.3514620178
 10
-4.1406792389
 20
-25.3656656706
 10
-4.1518000587
 20
-25.3791533926
 10
-4.1658434564
 20
-25.3916994788
 10
-4.1825744936
 20
-25.4030939558
  0
LWPOLYLINE
  5
40F
100
AcDbEntity
  8
0
100
AcDbPolyline
 62
250
  6
CONTINUOUS
 90
7
 70
0
 10
-0.9823266054
 20
8.3353827698
 10
-0.9837814747
 20
8.3217729908
 10
-0.9885515715
 20
8.3070915165
 10
-0.9965640348
 20
8.2928883949
 10
-1.0076847944
 20
8.2794012827
 10
-1.0217277702
 20
8.2668558553
 10
-1.0384579853
 20
8.2554620316
  0
LWPOLYLINE
  5
410
100
AcDbEntity
  8
RACCORDO
100
AcDbPolyline
 62
7
  6
CONTINUOUS
 90
7
 70
0
 10
-4.3217454664
 20
-22.5381103917
 10
-4.3221359268
 20
-22.5409753566
 10
-4.3251487091
 20
-22.5454005884
 10
-4.330716569
 20
-22.5514241315
 10
-4.3387818472
 20
-22.5589809378
 10
-4.349238643
 20
-22.5680416509
 10
-4.3619677731
 20
-22.5785374734
  0
LINE
  5
411
100
AcDbEntity
  8
CURVE
100
AcDbLine
 62
7
  6
CONTINUOUS
 10
-20.5645457791
 20
-15.9075962203
 11
-20.1725071041
 21
-15.5155575453
  0
LINE
  5
412
100
AcDbEntity
  8
CURVE
100
AcDbLine
 62
7
  6
CONTINUOUS
 10
-19.1442212113
 20
-14.4872716524
 11
-19.0147599019
 21
-14.3578103431
  0
LINE
  5
413
100
AcDbEntity
  8
CURVE
100
AcDbLine
 62
7
  6
CONTINUOUS
 10
-20.5645457791
 20
-16.0490175766
 11
-20.3876884737
 21
-15.8721602711
  0
LINE
  5
414
100
AcDbEntity
  8
CURVE
100
AcDbLine
 62
7
  6
CONTINUOUS
 10
-20.2765791331
 20
-15.7610509305
 11
-20.0168823736
 21
-15.501354171
  0
LINE
  5
415
100
AcDbEntity
  8
CURVE
100
AcDbLine
 62
7
  6
CONTINUOUS
 10
-19.0545657783
 20
-14.5390375757
 11
-18.925104469
 21
-14.4095762664
  0
LINE
  5
416
100
AcDbEntity
  8
CURVE
100
AcDbLine
 62
7
  6
CONTINUOUS
 10
-20.5645457791
 20
-16.1904389328
 11
-20.3876884737
 21
-16.0135816273
  0
LINE
  5
417
100
AcDbEntity
  8
CURVE
100
AcDbLine
 62
7
  6
CONTINUOUS
 10
-20.1209544702
 20
-15.7468476239
 11
-19.861257643
 21
-15.4871507967
  0
LINE
  5
418
100
AcDbEntity
  8
CURVE
100
AcDbLine
 62
7
  6
CONTINUOUS
 10
-18.9649103454
 20
-14.5908034991
 11
-18.8354490361
 21
-14.4613421897
  0
LINE
  5
419
100
AcDbEntity
  8
CURVE
100
AcDbLine
 62
7
  6
CONTINUOUS
 10
-20.5172376154
 20
-16.2845521253
 11
-20.3876884737
 21
-16.1550029836
  0
LINE
  5
41A
100
AcDbEntity
  8
CURVE
100
AcDbLine
 62
7
  6
CONTINUOUS
 10
-19.9653298074
 20
-15.7326443172
 11
-19.7056329125
 21
-15.4729474224
  0
LINE
  5
41B
100
AcDbEntity
  8
CURVE
100
AcDbLine
 62
7
  6
CONTINUOUS
 10
-18.8752549125
 20
-14.6425694224
 11
-18.7457936032
 21
-14.5131081131
  0
LINE
  5
41C
100
AcDbEntity
  8
CURVE
100
AcDbLine
 62
7
  6
CONTINUOUS
 10
-20.4275821825
 20
-16.3363180486
 11
-20.2981208732
 21
-16.2068567393
  0
LINE
  5
41D
100
AcDbEntity
  8
CURVE
100
AcDbLine
 62
7
  6
CONTINUOUS
 10
-19.8097051445
 20
-15.7184410106
 11
-19.550008182
 21
-15.4587440481
  0
LINE
  5
41E
100
AcDbEntity
  8
CURVE
100
AcDbLine
 62
7
  6
CONTINUOUS
 10
-18.7855994796
 20
-14.6943353457
 11
-18.6561381702
 21
-14.5648740364
  0
LINE
  5
41F
100
AcDbEntity
  8
CURVE
100
AcDbLine
 62
7
  6
CONTINUOUS
 10
-20.3379267496
 20
-16.388083972
 11
-20.2084654403
 21
-16.2586226626
  0
LINE
  5
420
100
AcDbEntity
  8
CURVE
100
AcDbLine
 62
7
  6
CONTINUOUS
 10
-19.6540804816
 20
-15.704237704
 11
-19.3943834514
 21
-15.4445406738
  0
LINE
  5
421
100
AcDbEntity
  8
CURVE
100
AcDbLine
 62
7
  6
CONTINUOUS
 10
-18.6959440467
 20
-14.746101269
 11
-18.5664827373
 21
-14.6166399597
  0
LINE
  5
422
100
AcDbEntity
  8
CURVE
100
AcDbLine
 62
7
  6
CONTINUOUS
 10
-20.2482713167
 20
-16.4398498953
 11
-20.1188100074
 21
-16.3103885859
  0
LINE
  5
423
100
AcDbEntity
  8
CURVE
100
AcDbLine
 62
7
  6
CONTINUOUS
 10
-19.4984558187
 20
-15.6900343973
 11
-19.2387587209
 21
-15.4303372995
  0
LINE
  5
424
100
AcDbEntity
  8
CURVE
100
AcDbLine
 62
7
  6
CONTINUOUS
 10
-18.6062886137
 20
-14.7978671923
 11
-18.4768273044
 21
-14.668405883
  0
LINE
  5
425
100
AcDbEntity
  8
CURVE
100
AcDbLine
 62
7
  6
CONTINUOUS
 10
-20.1586158838
 20
-16.4916158186
 11
-20.0291545744
 21
-16.3621545093
  0
LINE
  5
426
100
AcDbEntity
  8
CURVE
100
AcDbLine
 62
7
  6
CONTINUOUS
 10
-19.3428311558
 20
-15.6758310907
 11
-19.0831339903
 21
-15.4161339252
  0
LINE
  5
427
100
AcDbEntity
  8
CURVE
100
AcDbLine
 62
7
  6
CONTINUOUS
 10
-18.5166331808
 20
-14.8496331157
 11
-18.3871718715
 21
-14.7201718063
  0
LINE
  5
428
100
AcDbEntity
  8
CURVE
100
AcDbLine
 62
7
  6
CONTINUOUS
 10
-20.0689604508
 20
-16.5433817419
 11
-19.9394991415
 21
-16.4139204326
  0
LINE
  5
429
100
AcDbEntity
  8
CURVE
100
AcDbLine
 62
7
  6
CONTINUOUS
 10
-19.187206493
 20
-15.661627784
 11
-18.9275092598
 21
-15.4019305509
  0
LINE
  5
42A
100
AcDbEntity
  8
CURVE
100
AcDbLine
 62
7
  6
CONTINUOUS
 10
-18.4269777479
 20
-14.901399039
 11
-18.2975164386
 21
-14.7719377297
  0
LINE
  5
42B
100
AcDbEntity
  8
CURVE
100
AcDbLine
 62
7
  6
CONTINUOUS
 10
-19.9793050179
 20
-16.5951476652
 11
-19.8498437086
 21
-16.4656863559
  0
LINE
  5
42C
100
AcDbEntity
  8
CURVE
100
AcDbLine
 62
7
  6
CONTINUOUS
 10
-19.0315818301
 20
-15.6474244774
 11
-18.7718845293
 21
-15.3877271766
  0
LINE
  5
42D
100
AcDbEntity
  8
CURVE
100
AcDbLine
 62
7
  6
CONTINUOUS
 10
-18.337322315
 20
-14.9531649623
 11
-18.2078610057
 21
-14.823703653
  0
LINE
  5
42E
100
AcDbEntity
  8
CURVE
100
AcDbLine
 62
7
  6
CONTINUOUS
 10
-19.889649585
 20
-16.6469135886
 11
-19.7601882757
 21
-16.5174522792
  0
LINE
  5
42F
100
AcDbEntity
  8
CURVE
100
AcDbLine
 62
7
  6
CONTINUOUS
 10
-18.8759571672
 20
-15.6332211707
 11
-18.6162597987
 21
-15.3735238023
  0
LINE
  5
430
100
AcDbEntity
  8
CURVE
100
AcDbLine
 62
7
  6
CONTINUOUS
 10
-18.3209433386
 20
-15.0782073421
 11
-18.1440860331
 21
-14.9013500367
  0
LINE
  5
431
100
AcDbEntity
  8
CURVE
100
AcDbLine
 62
7
  6
CONTINUOUS
 10
-19.7999941521
 20
-16.6986795119
 11
-19.6705328428
 21
-16.5692182025
  0
LINE
  5
432
100
AcDbEntity
  8
CURVE
100
AcDbLine
 62
7
  6
CONTINUOUS
 10
-18.7203325043
 20
-15.6190178641
 11
-18.4606350682
 21
-15.359320428
  0
LINE
  5
433
100
AcDbEntity
  8
CURVE
100
AcDbLine
 62
7
  6
CONTINUOUS
 10
-18.3209433386
 20
-15.2196286984
 11
-18.1440860331
 21
-15.0427713929
  0
LINE
  5
434
100
AcDbEntity
  8
CURVE
100
AcDbLine
 62
7
  6
CONTINUOUS
 10
-19.7103387192
 20
-16.7504454352
 11
-19.5808774098
 21
-16.6209841259
  0
LINE
  5
435
100
AcDbEntity
  8
CURVE
100
AcDbLine
 62
7
  6
CONTINUOUS
 10
-18.5647078414
 20
-15.6048145575
 11
-18.1440860331
 21
-15.1841927491
  0
LINE
  5
436
100
AcDbEntity
  8
CURVE
100
AcDbLine
 62
7
  6
CONTINUOUS
 10
-19.6206832863
 20
-16.8022113585
 11
-19.4912219769
 21
-16.6727500492
  0
LINE
  5
437
100
AcDbEntity
  8
CURVE
100
AcDbLine
 62
7
  6
CONTINUOUS
 10
-18.4090831785
 20
-15.5906112508
 11
-18.1440860331
 21
-15.3256141054
  0
LINE
  5
438
100
AcDbEntity
  8
CURVE
100
AcDbLine
 62
7
  6
CONTINUOUS
 10
-19.5310278533
 20
-16.8539772818
 11
-19.401566544
 21
-16.7245159725
  0
LINE
  5
439
100
AcDbEntity
  8
CURVE
100
AcDbLine
 62
7
  6
CONTINUOUS
 10
-18.3209433386
 20
-15.6438927671
 11
-18.1440860331
 21
-15.4670354616
  0
LINE
  5
43A
100
AcDbEntity
  8
CURVE
100
AcDbLine
 62
7
  6
CONTINUOUS
 10
-19.4425009606
 20
-16.9068717453
 11
-19.3119111111
 21
-16.7762818958
  0
LINE
  5
43B
100
AcDbEntity
  8
CURVE
100
AcDbLine
 62
7
  6
CONTINUOUS
 10
-18.3209433386
 20
-15.7853141233
 11
-18.1440860331
 21
-15.6084568179
  0
LINE
  5
43C
100
AcDbEntity
  8
CURVE
100
AcDbLine
 62
7
  6
CONTINUOUS
 10
-19.4425009606
 20
-17.0482931016
 11
-19.2222556782
 21
-16.8280478191
  0
LINE
  5
43D
100
AcDbEntity
  8
CURVE
100
AcDbLine
 62
7
  6
CONTINUOUS
 10
-18.3209433386
 20
-15.9267354796
 11
-18.1440860331
 21
-15.7498781741
  0
LINE
  5
43E
100
AcDbEntity
  8
CURVE
100
AcDbLine
 62
7
  6
CONTINUOUS
 10
-19.4425009606
 20
-17.1897144578
 11
-19.2656436551
 21
-17.0128571523
  0
LINE
  5
43F
100
AcDbEntity
  8
CURVE
100
AcDbLine
 62
7
  6
CONTINUOUS
 10
-19.2620615546
 20
-17.0092750518
 11
-19.1326002453
 21
-16.8798137425
  0
LINE
  5
440
100
AcDbEntity
  8
CURVE
100
AcDbLine
 62
7
  6
CONTINUOUS
 10
-18.3209433386
 20
-16.0681568358
 11
-18.1440860331
 21
-15.8912995303
  0
LINE
  5
441
100
AcDbEntity
  8
CURVE
100
AcDbLine
 62
7
  6
CONTINUOUS
 10
-19.3879965679
 20
-17.2766314214
 11
-19.2656436551
 21
-17.1542785086
  0
LINE
  5
442
100
AcDbEntity
  8
CURVE
100
AcDbLine
 62
7
  6
CONTINUOUS
 10
-19.1724061217
 20
-17.0610409751
 11
-19.0429448123
 21
-16.9315796658
  0
LINE
  5
443
100
AcDbEntity
  8
CURVE
100
AcDbLine
 62
7
  6
CONTINUOUS
 10
-18.3209433386
 20
-16.209578192
 11
-18.1440860331
 21
-16.0327208866
  0
LINE
  5
444
100
AcDbEntity
  8
CURVE
100
AcDbLine
 62
7
  6
CONTINUOUS
 10
-19.2982635573
 20
-17.328319767
 11
-19.2656436551
 21
-17.2956998648
  0
LINE
  5
445
100
AcDbEntity
  8
CURVE
100
AcDbLine
 62
7
  6
CONTINUOUS
 10
-19.0827506888
 20
-17.1128068984
 11
-18.9532893794
 21
-16.9833455891
  0
LINE
  5
446
100
AcDbEntity
  8
CURVE
100
AcDbLine
 62
7
  6
CONTINUOUS
 10
-18.3209433386
 20
-16.3509995483
 11
-18.1440860331
 21
-16.1741422428
  0
LINE
  5
447
100
AcDbEntity
  8
CURVE
100
AcDbLine
 62
7
  6
CONTINUOUS
 10
-18.9930952558
 20
-17.1645728218
 11
-18.8636339465
 21
-17.0351115124
  0
LINE
  5
448
100
AcDbEntity
  8
CURVE
100
AcDbLine
 62
7
  6
CONTINUOUS
 10
-18.3209433386
 20
-16.4924209045
 11
-18.1440860331
 21
-16.315563599
  0
LINE
  5
449
100
AcDbEntity
  8
CURVE
100
AcDbLine
 62
7
  6
CONTINUOUS
 10
-18.9034398229
 20
-17.2163387451
 11
-18.7739785136
 21
-17.0868774357
  0
LINE
  5
44A
100
AcDbEntity
  8
CURVE
100
AcDbLine
 62
7
  6
CONTINUOUS
 10
-18.3209433386
 20
-16.6338422607
 11
-18.1440860331
 21
-16.4569849553
  0
LINE
  5
44B
100
AcDbEntity
  8
CURVE
100
AcDbLine
 62
7
  6
CONTINUOUS
 10
-18.81378439
 20
-17.2681046684
 11
-18.6843230807
 21
-17.1386433591
  0
LINE
  5
44C
100
AcDbEntity
  8
CURVE
100
AcDbLine
 62
7
  6
CONTINUOUS
 10
-18.3209433386
 20
-16.775263617
 11
-18.1440860331
 21
-16.5984063115
  0
LINE
  5
44D
100
AcDbEntity
  8
CURVE
100
AcDbLine
 62
7
  6
CONTINUOUS
 10
-18.7241289571
 20
-17.3198705917
 11
-18.5946676478
 21
-17.1904092824
  0
LINE
  5
44E
100
AcDbEntity
  8
CURVE
100
AcDbLine
 62
7
  6
CONTINUOUS
 10
-18.3209433386
 20
-16.9166849732
 11
-18.1440860331
 21
-16.7398276678
  0
LINE
  5
44F
100
AcDbEntity
  8
CURVE
100
AcDbLine
 62
7
  6
CONTINUOUS
 10
-18.6344735242
 20
-17.371636515
 11
-18.5050122148
 21
-17.2421752057
  0
LINE
  5
450
100
AcDbEntity
  8
CURVE
100
AcDbLine
 62
7
  6
CONTINUOUS
 10
-18.3209433386
 20
-17.0581063295
 11
-18.1440860331
 21
-16.881249024
  0
LINE
  5
451
100
AcDbEntity
  8
CURVE
100
AcDbLine
 62
7
  6
CONTINUOUS
 10
-18.5448180913
 20
-17.4234024384
 11
-18.4153567819
 21
-17.293941129
  0
LINE
  5
452
100
AcDbEntity
  8
CURVE
100
AcDbLine
 62
7
  6
CONTINUOUS
 10
-18.3209433386
 20
-17.1995276857
 11
-18.1440860331
 21
-17.0226703802
  0
LINE
  5
453
100
AcDbEntity
  8
CURVE
100
AcDbLine
 62
7
  6
CONTINUOUS
 10
-18.4551626583
 20
-17.4751683617
 11
-18.325701349
 21
-17.3457070523
  0
LINE
  5
454
100
AcDbEntity
  8
CURVE
100
AcDbLine
 62
7
  6
CONTINUOUS
 10
-18.3209433386
 20
-17.3409490419
 11
-18.1440860331
 21
-17.1640917365
  0
LINE
  5
455
100
AcDbEntity
  8
CURVE
100
AcDbLine
 62
7
  6
CONTINUOUS
 10
-18.3655072254
 20
-17.526934285
 11
-18.1440860331
 21
-17.3055130927
  0
LINE
  5
456
100
AcDbEntity
  8
CURVE
100
AcDbLine
 62
7
  6
CONTINUOUS
 10
-18.2758517925
 20
-17.5787002083
 11
-18.1440860331
 21
-17.4469344489
  0
LINE
  5
457
100
AcDbEntity
  8
CURVE
100
AcDbLine
 62
7
  6
CONTINUOUS
 10
-18.1861963596
 20
-17.6304661316
 11
-18.1440860331
 21
-17.5883558052
  0
LWPOLYLINE
  5
458
100
AcDbEntity
  8
RACCORDO
100
AcDbPolyline
 62
250
  6
CONTINUOUS
 90
5
 70
0
 10
25.7693734652
 20
-4.3563730264
 10
25.7882413228
 20
-4.3581228084
 10
25.8034350432
 20
-4.3558990412
 10
25.8148502891
 20
-4.3497169608
 10
25.8163385698
 20
-4.3483450577
  0
LINE
  5
459
100
AcDbEntity
  8
DRAFT
100
AcDbLine
 62
7
  6
CONTINUOUS
 10
-11.6634121891
 20
20.3137534762
 11
-11.6591834051
 21
20.3064290074
  0
LINE
  5
45A
100
AcDbEntity
  8
RACCORDO
100
AcDbLine
 62
7
  6
CONTINUOUS
 10
-4.3619677731
 20
7.297512555
 11
-4.5209895569
 21
7.605903318
  0
LWPOLYLINE
  5
45B
100
AcDbEntity
  8
RACCORDO
100
AcDbPolyline
 62
7
  6
CONTINUOUS
 90
16
 70
0
 10
-4.3619677731
 20
7.297512555
 10
-4.349238643
 20
7.2698017214
 10
-4.3387818472
 20
7.2411466517
 10
-4.330716569
 20
7.2118342968
 10
-4.3251487091
 20
7.1821407133
 10
-4.3221359268
 20
7.152380964
 10
-4.3216782186
 20
7.122905911
 10
-4.3237749243
 20
7.0940482897
 10
-4.3284044689
 20
7.0660539125
 10
-4.3355102956
 20
7.0391406082
 10
-4.3450570134
 20
7.0135399863
 10
-4.3569591614
 20
6.9895679999
 10
-4.3710486975
 20
6.9675468068
 10
-4.3871546655
 20
6.9477160183
 10
-4.4051266289
 20
6.9302461607
 10
-4.4247755285
 20
6.9153084454
  0
LWPOLYLINE
  5
45C
100
AcDbEntity
  8
ASSI
100
AcDbPolyline
 62
250
  6
CONTINUOUS
 90
8
 70
0
 10
-5.0903069371
 20
13.2682867677
 10
-5.0861282567
 20
13.2556537861
 10
-5.0835729606
 20
13.2440437022
 10
-5.0826666901
 20
13.2335820944
 10
-5.083416451
 20
13.2243846336
 10
-5.0858110943
 20
13.2165460803
 10
-5.089827144
 20
13.2101440928
 10
-5.0909602503
 20
13.2088991552
  0
LWPOLYLINE
  5
45D
100
AcDbEntity
  8
ASSI
100
AcDbPolyline
 62
7
  6
CONTINUOUS
 90
4
 70
0
 10
-5.367519073
 20
15.7036326564
 10
-5.3606431149
 20
15.6709134007
 10
-5.3552669004
 20
15.6257814161
 10
-5.3533580404
 20
15.5775995817
  0
LWPOLYLINE
  5
45E
100
AcDbEntity
  8
ASSI
100
AcDbPolyline
 62
7
  6
CONTINUOUS
 90
5
 70
0
 10
-5.5138716521
 20
16.6821206002
 10
-5.5110537943
 20
16.6667273136
 10
-5.5090393191
 20
16.6512429612
 10
-5.5078328883
 20
16.6357271156
 10
-5.5074318171
 20
16.6202182616
  0
LINE
  5
45F
100
AcDbEntity
  8
ASSI
100
AcDbLine
 62
250
  6
CONTINUOUS
 10
-3.8077054504
 20
16.8635067978
 11
-3.77579787
 21
16.6114066396
  0
LWPOLYLINE
  5
460
100
AcDbEntity
  8
ASSI
100
AcDbPolyline
 62
250
  6
CONTINUOUS
 90
13
 70
0
 10
-5.1003517147
 20
17.0520234973
 10
-5.1029918229
 20
17.0734470409
 10
-5.1077795717
 20
17.0955460173
 10
-5.1146418455
 20
17.1179830755
 10
-5.1234738597
 20
17.1404157048
 10
-5.1341407696
 20
17.1625014842
 10
-5.1464797355
 20
17.1839033083
 10
-5.1603023876
 20
17.2042944937
 10
-5.175397717
 20
17.2233637977
 10
-5.1915353144
 20
17.2408201811
 10
-5.2084688533
 20
17.2563972047
 10
-5.2259398443
 20
17.2698571032
 10
-5.2436816053
 20
17.280994439
  0
LWPOLYLINE
  5
461
100
AcDbEntity
  8
ASSI
100
AcDbPolyline
 62
250
  6
CONTINUOUS
 90
13
 70
0
 10
-3.9117586091
 20
17.7627807626
 10
-3.914398631
 20
17.7842038018
 10
-3.9191862239
 20
17.8063023571
 10
-3.926048307
 20
17.8287391036
 10
-3.9348801337
 20
17.8511715539
 10
-3.9455468898
 20
17.8732572863
 10
-3.957885752
 20
17.8946591713
 10
-3.9717083727
 20
17.9150505182
 10
-3.9868037555
 20
17.9341200619
 10
-4.0029414758
 20
17.9515767139
 10
-4.0198751982
 20
17.9671540059
 10
-4.0373464367
 20
17.9806141571
 10
-4.0550885002
 20
17.991751704
  0
LWPOLYLINE
  5
462
100
AcDbEntity
  8
ASSI
100
AcDbPolyline
 62
250
  6
CONTINUOUS
 90
13
 70
0
 10
-3.0254919297
 20
18.2927522712
 10
-3.0281319495
 20
18.3141752976
 10
-3.0329195387
 20
18.3362738438
 10
-3.0397816181
 20
18.3587105853
 10
-3.0486134428
 20
18.3811430367
 10
-3.0592801993
 20
18.4032287745
 10
-3.0716190628
 20
18.4246306649
 10
-3.0854416847
 20
18.4450220161
 10
-3.1005370693
 20
18.4640915637
 10
-3.1166747915
 20
18.4815482188
 10
-3.1336085154
 20
18.4971255129
 10
-3.1510797552
 20
18.5105856656
 10
-3.1688218196
 20
18.5217232133
  0
LINE
  5
463
100
AcDbEntity
  8
ASSI
100
AcDbLine
 62
250
  6
CONTINUOUS
 10
-3.8421798464
 20
17.1480190489
 11
-3.8077054504
 21
16.8635067978
  0
LINE
  5
464
100
AcDbEntity
  8
RACCORDO
100
AcDbLine
 62
250
  6
CONTINUOUS
 10
-2.3890714682
 20
15.4362176773
 11
-2.3917019841
 21
15.4591411727
  0
LINE
  5
465
100
AcDbEntity
  8
ASSI
100
AcDbLine
 62
250
  6
CONTINUOUS
 10
-3.8793123524
 20
17.4691842959
 11
-3.8421798464
 21
17.1480190489
  0
LINE
  5
466
100
AcDbEntity
  8
ASSI
100
AcDbLine
 62
250
  6
CONTINUOUS
 10
-3.8987059035
 20
17.643276229
 11
-3.8793123524
 21
17.4691842959
  0
LINE
  5
467
100
AcDbEntity
  8
ASSI
100
AcDbLine
 62
250
  6
CONTINUOUS
 10
-0.6453616229
 20
18.4135222429
 11
-0.6996810708
 21
19.1617862079
  0
LINE
  5
468
100
AcDbEntity
  8
ASSI
100
AcDbLine
 62
250
  6
CONTINUOUS
 10
-0.5682149464
 20
18.4716279984
 11
-0.6213591415
 21
19.2037025631
  0
LINE
  5
469
100
AcDbEntity
  8
RACCORDO
100
AcDbLine
 62
7
  6
CONTINUOUS
 10
0.1287486714
 20
19.6296264754
 11
0.1684163782
 21
19.0831939053
  0
LWPOLYLINE
  5
46A
100
AcDbEntity
  8
RACCORDO
100
AcDbPolyline
 62
250
  6
CONTINUOUS
 90
16
 70
0
 10
1.8203765762
 20
17.8442556936
 10
1.8197085048
 20
17.8663228717
 10
1.8170782019
 20
17.8892465481
 10
1.8125144735
 20
17.9127756637
 10
1.8060672996
 20
17.9366525317
 10
1.7978072891
 20
17.9606156498
 10
1.7878249094
 20
17.9844025636
 10
1.77622949
 20
18.0077527572
 10
1.7631480241
 20
18.0304105026
 10
1.7487237826
 20
18.0521276506
 10
1.7331147443
 20
18.0726663531
 10
1.7164918569
 20
18.0918016774
 10
1.6990371664
 20
18.1093240642
 10
1.6809418326
 20
18.1250416112
 10
1.6624040371
 20
18.1387821777
 10
1.6436268048
 20
18.1503952774
  0
LINE
  5
46B
100
AcDbEntity
  8
RACCORDO
100
AcDbLine
 62
250
  6
CONTINUOUS
 10
1.8203765762
 20
17.7836722346
 11
1.8203765762
 21
17.8442556936
  0
LINE
  5
46C
100
AcDbEntity
  8
RACCORDO
100
AcDbLine
 62
7
  6
CONTINUOUS
 10
1.8905416261
 20
17.8241850881
 11
1.8905416261
 21
17.9445274528
  0
LWPOLYLINE
  5
46D
100
AcDbEntity
  8
0
100
AcDbPolyline
 62
250
  6
CONTINUOUS
 90
7
 70
0
 10
-0.9823259552
 20
-20.2661882771
 10
-0.9837811778
 20
-20.2800570434
 10
-0.9885510344
 20
-20.2947387198
 10
-0.9965633788
 20
-20.3089421095
 10
-1.0076841689
 20
-20.3224295292
 10
-1.0217273569
 20
-20.3349752886
 10
-1.0384579853
 20
-20.3463694417
  0
LINE
  5
46E
100
AcDbEntity
  8
0
100
AcDbLine
 62
7
  6
CONTINUOUS
 10
25.7620664451
 20
12.3782066026
 11
17.829629413
 21
7.6353848519
  0
LINE
  5
46F
100
AcDbEntity
  8
SMUSSO
100
AcDbLine
 62
7
  6
CONTINUOUS
 10
17.7528928914
 20
7.5163896114
 11
25.7710997028
 21
12.1951838333
  0
LWPOLYLINE
  5
470
100
AcDbEntity
  8
ASSI
100
AcDbPolyline
 62
7
  6
CONTINUOUS
 90
6
 70
0
 10
20.3679343294
 20
-4.3922171584
 10
20.4037599808
 20
-4.4045206121
 10
20.5848973248
 20
-4.4219164071
 10
20.775928542
 20
-4.3978985679
 10
20.9804632981
 20
-4.3337067471
 10
21.1985015932
 20
-4.2293409445
  0
LWPOLYLINE
  5
471
100
AcDbEntity
  8
ASSI
100
AcDbPolyline
 62
250
  6
CONTINUOUS
 90
5
 70
0
 10
-4.4172431504
 20
10.1149564805
 10
-4.4442031502
 20
10.1399989058
 10
-4.4732930316
 20
10.1640682056
 10
-4.5039799648
 20
10.1863206184
 10
-4.5360740364
 20
10.2062699596
  0
LWPOLYLINE
  5
472
100
AcDbEntity
  8
ASSI
100
AcDbPolyline
 62
250
  6
CONTINUOUS
 90
7
 70
0
 10
-10.7663107962
 20
18.8348302044
 10
-10.7716623117
 20
18.8416567924
 10
-10.7870202629
 20
18.8577658236
 10
-10.8045431769
 20
18.8716789935
 10
-10.8239600356
 20
18.8831811665
 10
-10.8449705522
 20
18.8920945114
 10
-10.8672497952
 20
18.898281228
  0
LINE
  5
473
100
AcDbEntity
  8
ASSI
100
AcDbLine
 62
7
  6
CONTINUOUS
 10
-10.7660909682
 20
18.8345328093
 11
-10.7663107962
 21
18.8348302044
  0
LWPOLYLINE
  5
474
100
AcDbEntity
  8
0
100
AcDbPolyline
 62
250
  6
CONTINUOUS
 90
10
 70
0
 10
-3.37648728
 20
12.608387371
 10
-3.1279973043
 20
12.2041248232
 10
-2.8792173687
 20
11.7904143848
 10
-2.6304171996
 20
11.3672467259
 10
-2.3833919552
 20
10.9372933542
 10
-2.1368582434
 20
10.4979265773
 10
-1.8867329261
 20
10.0410726276
 10
-1.6321638179
 20
9.5639313469
 10
-1.3752517745
 20
9.069126491
 10
-1.1166417265
 20
8.5566250944
  0
LINE
  5
475
100
AcDbEntity
  8
0
100
AcDbLine
 62
7
  6
CONTINUOUS
 10
-3.0341951872
 20
12.2069665742
 11
-3.2199147345
 21
12.5104936869
  0
LWPOLYLINE
  5
476
100
AcDbEntity
  8
ASSI
100
AcDbPolyline
 62
250
  6
CONTINUOUS
 90
4
 70
0
 10
-7.928561162
 20
20.2189227108
 10
-7.9229447211
 20
20.2096974345
 10
-7.9191376393
 20
20.2001957557
 10
-7.9190108358
 20
20.1995726827
  0
LWPOLYLINE
  5
477
100
AcDbEntity
  8
ASSI
100
AcDbPolyline
 62
250
  6
CONTINUOUS
 90
16
 70
0
 10
-7.7399368273
 20
20.4208111386
 10
-7.7308326929
 20
20.4038315645
 10
-7.7240226381
 20
20.386674975
 10
-7.719506663
 20
20.36934137
 10
-7.7172739381
 20
20.3517253191
 10
-7.7173352928
 20
20.3339322527
 10
-7.7197232158
 20
20.3162784624
 10
-7.7244995952
 20
20.2987502614
 10
-7.7316025429
 20
20.2813613365
 10
-7.7408788833
 20
20.2644690395
 10
-7.7523736528
 20
20.2481022759
 10
-7.766041815
 20
20.2322321402
 10
-7.7815950853
 20
20.2171292685
 10
-7.7989373688
 20
20.2028838727
 10
-7.8181647605
 20
20.1894057409
 10
-7.8392772602
 20
20.1766948731
  0
LWPOLYLINE
  5
478
100
AcDbEntity
  8
ASSI
100
AcDbPolyline
 62
250
  6
CONTINUOUS
 90
4
 70
0
 10
-5.538843865
 20
16.7547205496
 10
-5.5411099347
 20
16.7590977942
 10
-5.5457088326
 20
16.7666322101
 10
-5.5506857559
 20
16.7733334578
  0
LWPOLYLINE
  5
479
100
AcDbEntity
  8
RACCORDO
100
AcDbPolyline
 62
7
  6
CONTINUOUS
 90
10
 70
0
 10
-1.1037266792
 20
8.856488937
 10
-1.308964309
 20
9.25930052
 10
-1.5180141136
 20
9.6603778383
 10
-1.7308760927
 20
10.0597208921
 10
-1.9476100705
 20
10.4574384915
 10
-2.1681562229
 20
10.8534218262
 10
-2.3923350782
 20
11.247344466
 10
-2.6200868125
 20
11.6390976007
 10
-2.8514712496
 20
12.0287900406
 10
-3.0864883896
 20
12.4164217855
  0
LWPOLYLINE
  5
47A
100
AcDbEntity
  8
0
100
AcDbPolyline
 62
7
  6
CONTINUOUS
 90
9
 70
0
 10
-1.0501532433
 20
8.6054238833
 10
-1.2809793559
 20
9.0635591884
 10
-1.516872241
 20
9.5197213996
 10
-1.757754569
 20
9.9737613811
 10
-2.0035471523
 20
10.4255302225
 10
-2.2541697475
 20
10.8748807189
 10
-2.5095411302
 20
11.3216673854
 10
-2.7695780454
 20
11.7657445785
 10
-3.0341951872
 20
12.2069665742
  0
LINE
  5
47B
100
AcDbEntity
  8
ASSI
100
AcDbLine
 62
7
  6
CONTINUOUS
 10
-5.5388256562
 20
16.7546831279
 11
-5.538843865
 21
16.7547205496
  0
LINE
  5
47C
100
AcDbEntity
  8
0
100
AcDbLine
 62
250
  6
CONTINUOUS
 10
-1.1166417265
 20
8.5566250944
 11
-1.1020883551
 21
8.5259665358
  0
LWPOLYLINE
  5
47D
100
AcDbEntity
  8
ASSI
100
AcDbPolyline
 62
7
  6
CONTINUOUS
 90
6
 70
0
 10
-5.5388069444
 20
16.7546447557
 10
-5.5332753129
 20
16.7426642129
 10
-5.5271925036
 20
16.7277159928
 10
-5.5219291486
 20
16.7126104284
 10
-5.5174920163
 20
16.6974063308
 10
-5.5138716521
 20
16.6821206002
  0
LWPOLYLINE
  5
47E
100
AcDbEntity
  8
RACCORDO
100
AcDbPolyline
 62
7
  6
CONTINUOUS
 90
3
 70
0
 10
-1.0323619098
 20
8.7022277937
 10
-1.0665638078
 20
8.7795457459
 10
-1.1037266792
 20
8.856488937
  0
LINE
  5
47F
100
AcDbEntity
  8
ASSI
100
AcDbLine
 62
7
  6
CONTINUOUS
 10
-5.5386385514
 20
16.7542817802
 11
-5.5386064834
 21
16.7542080646
  0
LWPOLYLINE
  5
480
100
AcDbEntity
  8
ASSI
100
AcDbPolyline
 62
250
  6
CONTINUOUS
 90
3
 70
0
 10
-7.9285612709
 20
20.2191272889
 10
-7.9216058116
 20
20.2028243198
 10
-7.9206261306
 20
20.1984150594
  0
LWPOLYLINE
  5
481
100
AcDbEntity
  8
0
100
AcDbPolyline
 62
250
  6
CONTINUOUS
 90
9
 70
0
 10
-1.1020883551
 20
8.5259665358
 10
-1.0885793177
 20
8.494200448
 10
-1.0762922328
 20
8.461462989
 10
-1.0654105862
 20
8.4279132581
 10
-1.056118063
 20
8.3937387803
 10
-1.0485960682
 20
8.3591559131
 10
-1.043026624
 20
8.3244035971
 10
-1.0395900712
 20
8.289743113
 10
-1.0384579853
 20
8.2554620316
  0
LINE
  5
482
100
AcDbEntity
  8
RACCORDO
100
AcDbLine
 62
7
  6
CONTINUOUS
 10
-1.0013398758
 20
8.6250794377
 11
-1.0323619098
 21
8.7022277937
  0
LINE
  5
483
100
AcDbEntity
  8
RACCORDO
100
AcDbLine
 62
7
  6
CONTINUOUS
 10
-0.9727341343
 20
8.5461629931
 11
-1.0013398758
 21
8.6250794377
  0
LWPOLYLINE
  5
484
100
AcDbEntity
  8
0
100
AcDbPolyline
 62
250
  6
CONTINUOUS
 90
8
 70
0
 10
-1.0501532433
 20
8.6054238833
 10
-1.0500023647
 20
8.6049311165
 10
-1.0511669271
 20
8.6018332288
 10
-1.0553110797
 20
8.5973054198
 10
-1.0623655005
 20
8.5914234424
 10
-1.072212161
 20
8.5842857155
 10
-1.0846863081
 20
8.5760116701
 10
-1.0995792271
 20
8.5667397485
  0
LWPOLYLINE
  5
485
100
AcDbEntity
  8
RACCORDO
100
AcDbPolyline
 62
7
  6
CONTINUOUS
 90
3
 70
0
 10
-0.9251640504
 20
8.3892083751
 10
-0.9473082568
 20
8.4674161446
 10
-0.9727341343
 20
8.5461629931
  0
LWPOLYLINE
  5
486
100
AcDbEntity
  8
RACCORDO
100
AcDbPolyline
 62
7
  6
CONTINUOUS
 90
13
 70
0
 10
-2.9087886345
 20
21.3978405982
 10
-2.9029206573
 20
21.3721548142
 10
-2.8951993887
 20
21.3467646246
 10
-2.8856248287
 20
21.3216700293
 10
-2.8740144306
 20
21.2965481758
 10
-2.860550741
 20
21.2717219166
 10
-2.8457814003
 20
21.2481598098
 10
-2.8296744379
 20
21.2259465251
 10
-2.8122618244
 20
21.2049973928
 10
-2.794187112
 20
21.1860269612
 10
-2.775664818
 20
21.1692734134
 10
-2.756480425
 20
21.1544985663
 10
-2.7366339331
 20
21.1417024201
  0
LWPOLYLINE
  5
487
100
AcDbEntity
  8
RACCORDO
100
AcDbPolyline
 62
250
  6
CONTINUOUS
 90
14
 70
0
 10
-2.3917019841
 20
15.4591411727
 10
-2.3962658774
 20
15.4826701192
 10
-2.4027131638
 20
15.5065468204
 10
-2.4109732346
 20
15.5305097871
 10
-2.4209556349
 20
15.5542966003
 10
-2.4325510455
 20
15.5776467563
 10
-2.4456324759
 20
15.6003045148
 10
-2.4600566616
 20
15.6220217225
 10
-2.4756656312
 20
15.642560534
 10
-2.4922884364
 20
15.661696004
 10
-2.5097430224
 20
15.6792185488
 10
-2.5278382247
 20
15.6949362583
 10
-2.5463758631
 20
15.7086769961
 10
-2.565152911
 20
15.720290274
  0
LWPOLYLINE
  5
488
100
AcDbEntity
  8
RACCORDO
100
AcDbPolyline
 62
7
  6
CONTINUOUS
 90
7
 70
0
 10
-0.9251719082
 20
-20.2900462396
 10
-0.9063631438
 20
-20.2340998848
 10
-0.8908355879
 20
-20.1749007518
 10
-0.8787431068
 20
-20.1131630528
 10
-0.8701369896
 20
-20.0491248583
 10
-0.8649659472
 20
-19.9825480978
 10
-0.8632299798
 20
-19.9134327711
  0
LWPOLYLINE
  5
489
100
AcDbEntity
  8
0
100
AcDbPolyline
 62
250
  6
CONTINUOUS
 90
5
 70
0
 10
-1.0525251481
 20
-20.4526434479
 10
-1.0607933419
 20
-20.4765372861
 10
-1.0712195543
 20
-20.4992400849
 10
-1.0839665683
 20
-20.5205266534
 10
-1.0990852808
 20
-20.5399745439
  0
LINE
  5
48A
100
AcDbEntity
  8
RACCORDO
100
AcDbLine
 62
7
  6
CONTINUOUS
 10
-0.9473178316
 20
-20.3426825338
 11
-0.9252264075
 21
-20.2901757731
  0
LWPOLYLINE
  5
48B
100
AcDbEntity
  8
0
100
AcDbPolyline
 62
7
  6
CONTINUOUS
 90
6
 70
0
 10
25.7620664451
 20
12.3782066026
 10
25.8734660456
 20
12.4600920597
 10
25.9566434019
 20
12.5461412011
 10
26.011598514
 20
12.6363540269
 10
26.0382879978
 20
12.733600912
 10
26.0410828958
 20
12.7792928531
  0
LWPOLYLINE
  5
48C
100
AcDbEntity
  8
RACCORDO
100
AcDbPolyline
 62
250
  6
CONTINUOUS
 90
10
 70
0
 10
25.9183076826
 20
8.6904113316
 10
25.9643423869
 20
8.7202206284
 10
26.0057452438
 20
8.7522145457
 10
26.0422067259
 20
8.7861538974
 10
26.0734542475
 20
8.8217849534
 10
26.0992542022
 20
8.8588413361
 10
26.1194137095
 20
8.8970460123
 10
26.1337820572
 20
8.9361133639
 10
26.1422518277
 20
8.975751324
 10
26.1447791965
 20
9.0124388459
  0
LWPOLYLINE
  5
48D
100
AcDbEntity
  8
RACCORDO
100
AcDbPolyline
 62
7
  6
CONTINUOUS
 90
13
 70
0
 10
25.8770321119
 20
8.5989465489
 10
25.9206238813
 20
8.6269623725
 10
25.9603278544
 20
8.656821631
 10
25.9961408283
 20
8.6883520381
 10
26.0281250691
 20
8.7214533676
 10
26.0562199671
 20
8.755907928
 10
26.0802805173
 20
8.7913027779
 10
26.1002665625
 20
8.8271944653
 10
26.1164032414
 20
8.8635372405
 10
26.1288936127
 20
8.9004470734
 10
26.1377741697
 20
8.9377954207
 10
26.1430441643
 20
8.9752109478
 10
26.1447791965
 20
9.0124388459
  0
LINE
  5
48E
100
AcDbEntity
  8
ASSI
100
AcDbLine
 62
250
  6
CONTINUOUS
 10
-15.3742049472
 20
-16.8469233975
 11
-15.3631564188
 21
-16.8400063984
  0
LINE
  5
48F
100
AcDbEntity
  8
RACCORDO
100
AcDbLine
 62
7
  6
CONTINUOUS
 10
-15.8283141076
 20
-17.3506698977
 11
-15.1723673039
 21
-16.9450225549
  0
LINE
  5
490
100
AcDbEntity
  8
RACCORDO
100
AcDbLine
 62
250
  6
CONTINUOUS
 10
-15.7255891348
 20
-17.3589269587
 11
-15.1123375523
 21
-16.9796829812
  0
LINE
  5
491
100
AcDbEntity
  8
RACCORDO
100
AcDbLine
 62
250
  6
CONTINUOUS
 10
21.821684363
 20
6.2572107696
 11
21.9033766149
 21
6.3065839037
  0
LINE
  5
492
100
AcDbEntity
  8
RACCORDO
100
AcDbLine
 62
250
  6
CONTINUOUS
 10
25.4299904875
 20
6.0268434135
 11
23.7601313787
 21
5.0284309371
  0
LINE
  5
493
100
AcDbEntity
  8
RACCORDO
100
AcDbLine
 62
250
  6
CONTINUOUS
 10
25.5690083247
 20
5.7804320516
 11
23.9015742774
 21
4.7834695247
  0
LINE
  5
494
100
AcDbEntity
  8
RACCORDO
100
AcDbLine
 62
250
  6
CONTINUOUS
 10
21.9033766149
 20
6.3065839037
 11
25.9183076826
 21
8.6904113316
  0
LINE
  5
495
100
AcDbEntity
  8
RACCORDO
100
AcDbLine
 62
7
  6
CONTINUOUS
 10
21.8621010442
 20
6.215119121
 11
25.8770321119
 21
8.5989465489
  0
LINE
  5
496
100
AcDbEntity
  8
DRAFT
100
AcDbLine
 62
7
  6
CONTINUOUS
 10
23.9424977916
 20
4.7598408005
 11
21.1738007741
 21
3.1330824712
  0
LWPOLYLINE
  5
497
100
AcDbEntity
  8
RACCORDO
100
AcDbPolyline
 62
250
  6
CONTINUOUS
 90
13
 70
0
 10
21.7599944831
 20
2.7946215703
 10
21.6631501685
 20
2.7407206868
 10
21.5666324862
 20
2.6945577249
 10
21.4708744529
 20
2.6563530321
 10
21.3762755483
 20
2.6262785097
 10
21.2832974418
 20
2.6045062308
 10
21.1924541581
 20
2.5911733389
 10
21.1041973122
 20
2.5863273156
 10
21.0188714047
 20
2.589967803
 10
20.936808152
 20
2.6020829456
 10
20.8583647467
 20
2.6226206938
 10
20.7839053845
 20
2.6514866965
 10
20.7260036327
 20
2.6813123204
  0
LINE
  5
498
100
AcDbEntity
  8
ASSI
100
AcDbLine
 62
7
  6
CONTINUOUS
 10
-15.3631564188
 20
-16.8400063984
 11
-15.3630934647
 21
-16.8399725148
  0
LINE
  5
499
100
AcDbEntity
  8
ASSI
100
AcDbLine
 62
250
  6
CONTINUOUS
 10
-15.2653222012
 20
-16.8913515622
 11
-15.4268058221
 21
-16.9781922277
  0
LWPOLYLINE
  5
49A
100
AcDbEntity
  8
ASSI
100
AcDbPolyline
 62
7
  6
CONTINUOUS
 90
6
 70
0
 10
20.3679343294
 20
-0.3098657744
 10
20.4037599808
 20
-0.3221692281
 10
20.5848973248
 20
-0.3395650231
 10
20.775928542
 20
-0.315547184
 10
20.9804632981
 20
-0.2513553631
 10
21.1985015932
 20
-0.1469895605
  0
LWPOLYLINE
  5
49B
100
AcDbEntity
  8
RACCORDO
100
AcDbPolyline
 62
250
  6
CONTINUOUS
 90
7
 70
0
 10
25.6690131568
 20
-2.3743624808
 10
25.6551001917
 20
-2.3683065225
 10
25.6397190029
 20
-2.3653205122
 10
25.6231279348
 20
-2.3654527516
 10
25.6056108651
 20
-2.3687009783
 10
25.5874675159
 20
-2.375009614
 10
25.5690083247
 20
-2.3842707164
  0
LINE
  5
49C
100
AcDbEntity
  8
ASSI
100
AcDbLine
 62
250
  6
CONTINUOUS
 10
-8.1722992834
 20
11.307700652
 11
-23.0405134517
 21
19.8924211703
  0
LINE
  5
49D
100
AcDbEntity
  8
RACCORDO
100
AcDbLine
 62
250
  6
CONTINUOUS
 10
21.7599944934
 20
-5.3700812035
 11
21.1738007741
 21
-5.0316202968
  0
LINE
  5
49E
100
AcDbEntity
  8
ASSI
100
AcDbLine
 62
250
  6
CONTINUOUS
 10
-7.8280008416
 20
11.9145895036
 11
-22.69621501
 21
20.4993100219
  0
LINE
  5
49F
100
AcDbEntity
  8
ASSI
100
AcDbLine
 62
250
  6
CONTINUOUS
 10
-4.5360740364
 20
10.2062699596
 11
-5.0705153279
 21
10.5148496632
  0
LINE
  5
4A0
100
AcDbEntity
  8
ASSI
100
AcDbLine
 62
7
  6
CONTINUOUS
 10
-4.4385373473
 20
10.2147779908
 11
-5.0705153279
 21
10.5796741562
  0
LINE
  5
4A1
100
AcDbEntity
  8
ASSI
100
AcDbLine
 62
7
  6
CONTINUOUS
 10
-15.9032054224
 20
18.5406738713
 11
-11.3070113446
 21
15.8868890147
  0
LINE
  5
4A2
100
AcDbEntity
  8
DRAFT
100
AcDbLine
 62
7
  6
CONTINUOUS
 10
23.1363403797
 20
-3.878522782
 11
22.8247380778
 21
-3.6986075182
  0
LINE
  5
4A3
100
AcDbEntity
  8
ASSI
100
AcDbLine
 62
7
  6
CONTINUOUS
 10
-15.401232485
 20
18.3783122502
 11
-11.1706184312
 21
15.9356087176
  0
LINE
  5
4A4
100
AcDbEntity
  8
RACCORDO
100
AcDbLine
 62
7
  6
CONTINUOUS
 10
20.7260036327
 20
-5.4833904476
 11
20.7250074328
 21
-5.4828141276
  0
LWPOLYLINE
  5
4A5
100
AcDbEntity
  8
RACCORDO
100
AcDbPolyline
 62
7
  6
CONTINUOUS
 90
37
 70
0
 10
20.7249797128
 20
-5.4827978211
 10
20.7029241371
 20
-5.469290482
 10
20.6452825644
 20
-5.4265512004
 10
20.5920330882
 20
-5.3754865088
 10
20.5432398662
 20
-5.3158315542
 10
20.4994112346
 20
-5.2478698487
 10
20.4608705509
 20
-5.1718483994
 10
20.4279175216
 20
-5.0879604344
 10
20.4009449462
 20
-4.9969009985
 10
20.3803009532
 20
-4.8999103355
 10
20.3660943402
 20
-4.7981527005
 10
20.3581964302
 20
-4.6920171838
 10
20.3565282758
 20
-4.5814814493
 10
20.3610873778
 20
-4.4672247975
 10
20.3718020525
 20
-4.3498466574
 10
20.3887441405
 20
-4.2288954515
 10
20.4120383831
 20
-4.1045026213
 10
20.4416129653
 20
-3.977664407
 10
20.4773704584
 20
-3.8491053462
 10
20.5192114261
 20
-3.7194419501
 10
20.5669857382
 20
-3.5892917657
 10
20.6204699022
 20
-3.4593658341
 10
20.6794524582
 20
-3.3302829653
 10
20.7436712461
 20
-3.2026672625
 10
20.8127817919
 20
-3.0772199908
 10
20.8864691346
 20
-2.954538931
 10
20.9643792495
 20
-2.8352054668
 10
21.0460638276
 20
-2.7198708413
 10
21.1311216549
 20
-2.6090749747
 10
21.2191257143
 20
-2.5033202171
 10
21.3095427205
 20
-2.4031658479
 10
21.4019094661
 20
-2.3090522136
 10
21.4957454292
 20
-2.2213766757
 10
21.5904472698
 20
-2.14057748
 10
21.685469935
 20
-2.0669886457
 10
21.7803353797
 20
-2.0008210565
 10
21.8620901237
 20
-1.9495901295
  0
LWPOLYLINE
  5
4A6
100
AcDbEntity
  8
ASSI
100
AcDbPolyline
 62
250
  6
CONTINUOUS
 90
3
 70
0
 10
-10.8063816025
 20
18.7946427373
 10
-10.7854222636
 20
18.7761895344
 10
-10.7612225405
 20
18.7581899124
  0
LWPOLYLINE
  5
4A7
100
AcDbEntity
  8
ASSI
100
AcDbPolyline
 62
250
  6
CONTINUOUS
 90
7
 70
0
 10
-5.5506857559
 20
16.7733334578
 10
-5.5559569092
 20
16.7792709833
 10
-5.5614104583
 20
16.7844408736
 10
-5.5669146745
 20
16.7887680463
 10
-5.5723843499
 20
16.7922605615
 10
-5.577772592
 20
16.7950046329
 10
-5.5830237828
 20
16.7970481108
  0
LWPOLYLINE
  5
4A8
100
AcDbEntity
  8
ASSI
100
AcDbPolyline
 62
250
  6
CONTINUOUS
 90
12
 70
0
 10
-3.0878746387
 20
18.2248713544
 10
-3.092053608
 20
18.2306306781
 10
-3.1026673811
 20
18.2425607324
 10
-3.1149314012
 20
18.2530653002
 10
-3.1287112993
 20
18.2620292884
 10
-3.1438560999
 20
18.2693544859
 10
-3.1601998726
 20
18.274960636
 10
-3.1775635527
 20
18.2787863172
 10
-3.1957569033
 20
18.2807896144
 10
-3.2145805958
 20
18.2809485783
 10
-3.2338283932
 20
18.2792614661
 10
-3.2532894128
 20
18.2757467614
  0
LWPOLYLINE
  5
4A9
100
AcDbEntity
  8
RACCORDO
100
AcDbPolyline
 62
7
  6
CONTINUOUS
 90
12
 70
0
 10
-1.0244071379
 20
14.320599188
 10
-1.0746092965
 20
14.395591499
 10
-1.1277365775
 20
14.4684175205
 10
-1.1836170656
 20
14.5387304115
 10
-1.2420362871
 20
14.6061544505
 10
-1.3027418321
 20
14.6703181018
 10
-1.3655561202
 20
14.7309343465
 10
-1.4302756085
 20
14.7877066372
 10
-1.496630966
 20
14.8402853972
 10
-1.5643945222
 20
14.8883809815
 10
-1.6333433022
 20
14.9317284656
 10
-2.427371332
 20
15.3902431618
  0
LWPOLYLINE
  5
4AA
100
AcDbEntity
  8
RACCORDO
100
AcDbPolyline
 62
7
  6
CONTINUOUS
 90
13
 70
0
 10
-0.9218607985
 20
14.4435306976
 10
-0.9710159287
 20
14.5184363363
 10
-1.0222090566
 20
14.5908425703
 10
-1.0754401822
 20
14.6607493996
 10
-1.1309453629
 20
14.7284388736
 10
-1.1884885412
 20
14.7936289429
 10
-1.2473615452
 20
14.8554734595
 10
-1.3075951164
 20
14.9139147922
 10
-1.3691585132
 20
14.9690105723
 10
-1.4312513391
 20
15.0200875453
 10
-1.4936067951
 20
15.0669212933
 10
-1.5564916803
 20
15.1097362342
 10
-1.6199059945
 20
15.1485323681
  0
LWPOLYLINE
  5
4AB
100
AcDbEntity
  8
ASSI
100
AcDbPolyline
 62
7
  6
CONTINUOUS
 90
10
 70
0
 10
-3.0878746387
 20
18.2248713544
 10
-3.0761731171
 20
18.2063993512
 10
-3.0658671731
 20
18.187510882
 10
-3.056965127
 20
18.1682857869
 10
-3.0494838247
 20
18.1488521325
 10
-3.0433935241
 20
18.1292458576
 10
-3.0386515474
 20
18.1094074988
 10
-3.0352597453
 20
18.089371201
 10
-3.0332312067
 20
18.0692672108
 10
-3.032558083
 20
18.0491793382
  0
LWPOLYLINE
  5
4AC
100
AcDbEntity
  8
ASSI
100
AcDbPolyline
 62
250
  6
CONTINUOUS
 90
13
 70
0
 10
-1.8725390927
 20
13.8273606225
 10
-1.9171699918
 20
13.8979087056
 10
-1.9640321016
 20
13.966435392
 10
-2.0129602362
 20
14.0326936645
 10
-2.0637844895
 20
14.0964431941
 10
-2.1163227338
 20
14.1574556093
 10
-2.1703812736
 20
14.2155153011
 10
-2.2257678294
 20
14.2704119873
 10
-2.2822876798
 20
14.3219486457
 10
-2.3397364504
 20
14.3699459682
 10
-2.3979094159
 20
14.4142322501
 10
-2.4566020279
 20
14.4546446742
 10
-2.5156062611
 20
14.4910365967
  0
LINE
  5
4AD
100
AcDbEntity
  8
RACCORDO
100
AcDbLine
 62
7
  6
CONTINUOUS
 10
-1.0011731488
 20
14.2838274287
 11
-1.0244071379
 21
14.320599188
  0
LINE
  5
4AE
100
AcDbEntity
  8
RACCORDO
100
AcDbLine
 62
7
  6
CONTINUOUS
 10
-0.7596265219
 20
14.1849579206
 11
-0.9218607985
 21
14.4435306976
  0
LINE
  5
4AF
100
AcDbEntity
  8
RACCORDO
100
AcDbLine
 62
250
  6
CONTINUOUS
 10
-1.0885867092
 20
14.2696407361
 11
-0.9647469752
 21
14.0719734859
  0
LINE
  5
4B0
100
AcDbEntity
  8
RACCORDO
100
AcDbLine
 62
7
  6
CONTINUOUS
 10
-0.8914638737
 20
14.108611458
 11
-1.0011731488
 21
14.2838274287
  0
LINE
  5
4B1
100
AcDbEntity
  8
RACCORDO
100
AcDbLine
 62
7
  6
CONTINUOUS
 10
-0.5989388102
 20
13.9252652176
 11
-0.7596265219
 21
14.1849579206
  0
LWPOLYLINE
  5
4B2
100
AcDbEntity
  8
ASSI
100
AcDbPolyline
 62
250
  6
CONTINUOUS
 90
16
 70
0
 10
-3.2532896616
 20
18.2757473711
 10
-3.2634184355
 20
18.2925323689
 10
-3.2712652784
 20
18.309540677
 10
-3.2768301901
 20
18.3267722952
 10
-3.2801303906
 20
18.3443323705
 10
-3.2811486599
 20
18.3621157559
 10
-3.2798333385
 20
18.3798070113
 10
-3.2761234067
 20
18.3974210669
 10
-3.2700798843
 20
18.4149429925
 10
-3.2618341706
 20
18.4320125571
 10
-3.2513395033
 20
18.4486017841
 10
-3.2386426446
 20
18.4647386501
 10
-3.2240152815
 20
18.4801468542
 10
-3.2075479761
 20
18.4947342961
 10
-3.1891501663
 20
18.508593076
 10
-3.168821852
 20
18.521723194
  0
LWPOLYLINE
  5
4B3
100
AcDbEntity
  8
RACCORDO
100
AcDbPolyline
 62
250
  6
CONTINUOUS
 90
16
 70
0
 10
-0.9647469752
 20
14.0719734859
 10
-0.9535861958
 20
14.0533565388
 10
-0.943693061
 20
14.0341444437
 10
-0.9351841067
 20
14.0145635083
 10
-0.9281595645
 20
13.9948443877
 10
-0.9227021788
 20
13.9752193596
 10
-0.9188762334
 20
13.9559195882
 10
-0.9167267985
 20
13.9371724186
 10
-0.9162791946
 20
13.9191986792
 10
-0.9175386985
 20
13.9022100756
 10
-0.9204904849
 20
13.8864067168
 10
-0.9250997899
 20
13.8719747801
 10
-0.9313123142
 20
13.859084293
 10
-0.939054872
 20
13.8478871051
 10
-0.9482362619
 20
13.8385151071
 10
-0.9574688104
 20
13.8318364675
  0
LINE
  5
4B4
100
AcDbEntity
  8
0
100
AcDbLine
 62
7
  6
CONTINUOUS
 10
9.8140824161
 20
25.5076093696
 11
9.8140824161
 21
25.3712805123
  0
LINE
  5
4B5
100
AcDbEntity
  8
0
100
AcDbLine
 62
7
  6
CONTINUOUS
 10
10.3090571629
 20
27.2541790419
 11
10.3090571629
 21
25.7834255057
  0
LWPOLYLINE
  5
4B6
100
AcDbEntity
  8
RACCORDO
100
AcDbPolyline
 62
7
  6
CONTINUOUS
 90
4
 70
0
 10
-1.0323704598
 20
-20.4792668648
 10
-1.0011315859
 20
-20.4376544229
 10
-0.9727449635
 20
-20.3920660498
 10
-0.9473178316
 20
-20.3426825338
  0
LWPOLYLINE
  5
4B7
100
AcDbEntity
  8
ASSI
100
AcDbPolyline
 62
7
  6
CONTINUOUS
 90
13
 70
0
 10
21.1985015932
 20
3.9353618235
 10
21.4165398883
 20
4.0827811787
 10
21.6210746444
 20
4.2547809674
 10
21.8121058616
 20
4.4513611894
 10
21.9932432056
 20
4.6779298489
 10
22.1608770106
 20
4.9290789418
 10
22.3041782792
 20
5.188584456
 10
22.4215405589
 20
5.4569980886
 10
22.5145703023
 20
5.7337681425
 10
22.5772578689
 20
6.0010155137
 10
22.6076000456
 20
6.2581115076
 10
22.6076000456
 20
6.505684819
 10
22.5883806706
 20
6.6463407944
  0
LWPOLYLINE
  5
4B8
100
AcDbEntity
  8
ASSI
100
AcDbPolyline
 62
7
  6
CONTINUOUS
 90
13
 70
0
 10
21.1985015932
 20
-0.1469895605
 10
21.4165398883
 20
0.0004297947
 10
21.6210746444
 20
0.1724295834
 10
21.8121058616
 20
0.3690098054
 10
21.9932432056
 20
0.5955784649
 10
22.1608770106
 20
0.8467275578
 10
22.3041782792
 20
1.106233072
 10
22.4215405589
 20
1.3746467046
 10
22.5145703023
 20
1.6514167585
 10
22.5772578689
 20
1.9186641297
 10
22.6076000456
 20
2.1757601237
 10
22.6076000456
 20
2.423333435
 10
22.5883806706
 20
2.5639894105
  0
LWPOLYLINE
  5
4B9
100
AcDbEntity
  8
RACCORDO
100
AcDbPolyline
 62
250
  6
CONTINUOUS
 90
6
 70
0
 10
-11.7180112843
 20
-21.2040198201
 10
-11.7079099676
 20
-21.1973453497
 10
-11.6936660695
 20
-21.1821374257
 10
-11.6830386605
 20
-21.1622441172
 10
-11.6763505272
 20
-21.1382696392
 10
-11.6738048071
 20
-21.1109421612
  0
LWPOLYLINE
  5
4BA
100
AcDbEntity
  8
RACCORDO
100
AcDbPolyline
 62
250
  6
CONTINUOUS
 90
10
 70
0
 10
25.9183076826
 20
4.6080599476
 10
25.9643423869
 20
4.6378692444
 10
26.0057452438
 20
4.6698631618
 10
26.0422067259
 20
4.7038025134
 10
26.0734542475
 20
4.7394335694
 10
26.0992542022
 20
4.7764899521
 10
26.1194137095
 20
4.8146946283
 10
26.1337820572
 20
4.8537619799
 10
26.1422518277
 20
4.8933999401
 10
26.1447791965
 20
4.9300874619
  0
LWPOLYLINE
  5
4BB
100
AcDbEntity
  8
RACCORDO
100
AcDbPolyline
 62
7
  6
CONTINUOUS
 90
13
 70
0
 10
25.8770321119
 20
4.5165951649
 10
25.9206238813
 20
4.5446109886
 10
25.9603278544
 20
4.5744702471
 10
25.9961408283
 20
4.6060006541
 10
26.0281250691
 20
4.6391019836
 10
26.0562199671
 20
4.673556544
 10
26.0802805173
 20
4.708951394
 10
26.1002665625
 20
4.7448430813
 10
26.1164032414
 20
4.7811858565
 10
26.1288936127
 20
4.8180956894
 10
26.1377741697
 20
4.8554440367
 10
26.1430441643
 20
4.8928595639
 10
26.1447791965
 20
4.9300874619
  0
LINE
  5
4BC
100
AcDbEntity
  8
ASSI
100
AcDbLine
 62
250
  6
CONTINUOUS
 10
-11.0387491269
 20
-20.9460515432
 11
-11.1947168125
 21
-21.0425042996
  0
LINE
  5
4BD
100
AcDbEntity
  8
ASSI
100
AcDbLine
 62
7
  6
CONTINUOUS
 10
-11.0431372985
 20
-21.056440842
 11
-11.0432008737
 21
-21.0564801251
  0
LINE
  5
4BE
100
AcDbEntity
  8
RACCORDO
100
AcDbLine
 62
250
  6
CONTINUOUS
 10
21.821684363
 20
2.1748593857
 11
21.9033766149
 21
2.2242325197
  0
LINE
  5
4BF
100
AcDbEntity
  8
RACCORDO
100
AcDbLine
 62
250
  6
CONTINUOUS
 10
25.4299904875
 20
1.9444920296
 11
23.7601313787
 21
0.9460795531
  0
LINE
  5
4C0
100
AcDbEntity
  8
RACCORDO
100
AcDbLine
 62
250
  6
CONTINUOUS
 10
25.5690083247
 20
1.6980806676
 11
23.9015742774
 21
0.7011181407
  0
LINE
  5
4C1
100
AcDbEntity
  8
RACCORDO
100
AcDbLine
 62
250
  6
CONTINUOUS
 10
25.7749255611
 20
5.1784489923
 11
21.7599944934
 21
2.7946215644
  0
LINE
  5
4C2
100
AcDbEntity
  8
RACCORDO
100
AcDbLine
 62
250
  6
CONTINUOUS
 10
25.9183076826
 20
4.9346480583
 11
21.9033766149
 21
2.5508206305
  0
LINE
  5
4C3
100
AcDbEntity
  8
RACCORDO
100
AcDbLine
 62
250
  6
CONTINUOUS
 10
21.9033766149
 20
2.2242325197
 11
25.9183076826
 21
4.6080599476
  0
LINE
  5
4C4
100
AcDbEntity
  8
RACCORDO
100
AcDbLine
 62
7
  6
CONTINUOUS
 10
21.8621010442
 20
2.132767737
 11
25.8770321119
 21
4.5165951649
  0
LINE
  5
4C5
100
AcDbEntity
  8
DRAFT
100
AcDbLine
 62
7
  6
CONTINUOUS
 10
23.9424977916
 20
0.6774894165
 11
21.1738007741
 21
-0.9492689128
  0
LINE
  5
4C6
100
AcDbEntity
  8
RACCORDO
100
AcDbLine
 62
250
  6
CONTINUOUS
 10
-11.8152046241
 20
-19.6167339666
 11
-11.1999015415
 21
-19.2614668562
  0
LINE
  5
4C7
100
AcDbEntity
  8
RACCORDO
100
AcDbLine
 62
250
  6
CONTINUOUS
 10
-11.6738048071
 20
-19.8616456337
 11
-11.0585639692
 21
-19.5064144626
  0
LWPOLYLINE
  5
4C8
100
AcDbEntity
  8
RACCORDO
100
AcDbPolyline
 62
250
  6
CONTINUOUS
 90
13
 70
0
 10
21.7599944831
 20
-1.2877298136
 10
21.6631501685
 20
-1.3416306972
 10
21.5666324862
 20
-1.3877936591
 10
21.4708744529
 20
-1.4259983518
 10
21.3762755483
 20
-1.4560728742
 10
21.2832974418
 20
-1.4778451532
 10
21.1924541581
 20
-1.491178045
 10
21.1041973122
 20
-1.4960240684
 10
21.0188714047
 20
-1.492383581
 10
20.936808152
 20
-1.4802684384
 10
20.8583647467
 20
-1.4597306901
 10
20.7839053845
 20
-1.4308646875
 10
20.7260036327
 20
-1.4010390636
  0
LWPOLYLINE
  5
4C9
100
AcDbEntity
  8
RACCORDO
100
AcDbPolyline
 62
250
  6
CONTINUOUS
 90
48
 70
0
 10
21.9033766149
 20
2.5508206305
 10
21.7963784518
 20
2.49153056
 10
21.6906841368
 20
2.4411338809
 10
21.5862936697
 20
2.3996305933
 10
21.4827165954
 20
2.3668993657
 10
21.3804433691
 20
2.3430615296
 10
21.2809453567
 20
2.3284810786
 10
21.1843143447
 20
2.3233008633
 10
21.0904585466
 20
2.3273780333
 10
21.000573968
 20
2.340648031
 10
20.9146991995
 20
2.3632283265
 10
20.8327956505
 20
2.3950014497
 10
20.7559435546
 20
2.4355504331
 10
20.6842102155
 20
2.4849921454
 10
20.6175283295
 20
2.5432097179
 10
20.5567762187
 20
2.609435576
 10
20.5020332188
 20
2.6837743399
 10
20.4532199942
 20
2.7661213894
 10
20.4109768601
 20
2.8553952901
 10
20.3753899858
 20
2.9516882452
 10
20.3463732021
 20
3.0549080515
 10
20.3243083158
 20
3.1636966644
 10
20.3092872099
 20
3.2781269202
 10
20.3012180015
 20
3.3981259826
 10
20.3002068487
 20
3.522117298
 10
20.3063470744
 20
3.6501547948
 10
20.3195453556
 20
3.7821845447
 10
20.3396278817
 20
3.9164682091
 10
20.3666842394
 20
4.0530316655
 10
20.400624842
 20
4.1918490364
 10
20.4410071175
 20
4.3311043506
 10
20.4879220795
 20
4.47081642
 10
20.5412787145
 20
4.6109664327
 10
20.6003614105
 20
4.7496819821
 10
20.6652240687
 20
4.8869074227
 10
20.7358127879
 20
5.0226984
 10
20.8112502526
 20
5.1553494433
 10
20.891585649
 20
5.2848257259
 10
20.976769791
 20
5.4111620746
 10
21.0657778052
 20
5.5327574994
 10
21.1594339257
 20
5.6501773643
 10
21.2569139184
 20
5.7628563053
 10
21.3547202078
 20
5.8674972406
 10
21.4530957651
 20
5.9634962043
 10
21.5517976191
 20
6.0514571623
 10
21.64659928
 20
6.1298949297
 10
21.736091918
 20
6.198314445
 10
21.821684363
 20
6.2572107696
  0
LWPOLYLINE
  5
4CA
100
AcDbEntity
  8
RACCORDO
100
AcDbPolyline
 62
250
  6
CONTINUOUS
 90
48
 70
0
 10
21.9033766149
 20
-1.5315307535
 10
21.7963784518
 20
-1.590820824
 10
21.6906841368
 20
-1.641217503
 10
21.5862936697
 20
-1.6827207907
 10
21.4827165954
 20
-1.7154520183
 10
21.3804433691
 20
-1.7392898544
 10
21.2809453567
 20
-1.7538703053
 10
21.1843143447
 20
-1.7590505206
 10
21.0904585466
 20
-1.7549733507
 10
21.000573968
 20
-1.741703353
 10
20.9146991995
 20
-1.7191230575
 10
20.8327956505
 20
-1.6873499342
 10
20.7559435546
 20
-1.6468009509
 10
20.6842102155
 20
-1.5973592385
 10
20.6175283295
 20
-1.5391416661
 10
20.5567762187
 20
-1.4729158079
 10
20.5020332188
 20
-1.3985770441
 10
20.4532199942
 20
-1.3162299945
 10
20.4109768601
 20
-1.2269560939
 10
20.3753899858
 20
-1.1306631387
 10
20.3463732021
 20
-1.0274433325
 10
20.3243083158
 20
-0.9186547196
 10
20.3092872099
 20
-0.8042244638
 10
20.3012180015
 20
-0.6842254014
 10
20.3002068487
 20
-0.560234086
 10
20.3063470744
 20
-0.4321965891
 10
20.3195453556
 20
-0.3001668393
 10
20.3396278817
 20
-0.1658831749
 10
20.3666842394
 20
-0.0293197185
 10
20.400624842
 20
0.1094976524
 10
20.4410071175
 20
0.2487529666
 10
20.4879220795
 20
0.388465036
 10
20.5412787145
 20
0.5286150487
 10
20.6003614105
 20
0.6673305981
 10
20.6652240687
 20
0.8045560387
 10
20.7358127879
 20
0.940347016
 10
20.8112502526
 20
1.0729980594
 10
20.891585649
 20
1.202474342
 10
20.976769791
 20
1.3288106907
 10
21.0657778052
 20
1.4504061155
 10
21.1594339257
 20
1.5678259803
 10
21.2569139184
 20
1.6805049214
 10
21.3547202078
 20
1.7851458566
 10
21.4530957651
 20
1.8811448204
 10
21.5517976191
 20
1.9691057783
 10
21.6465992801
 20
2.0475435458
 10
21.736091918
 20
2.115963061
 10
21.821684363
 20
2.1748593857
  0
LWPOLYLINE
  5
4CB
100
AcDbEntity
  8
ASSI
100
AcDbPolyline
 62
7
  6
CONTINUOUS
 90
6
 70
0
 10
20.3679343294
 20
3.7724856095
 10
20.4037599808
 20
3.7601821559
 10
20.5848973248
 20
3.7427863608
 10
20.775928542
 20
3.7668042
 10
20.9804632981
 20
3.8309960209
 10
21.1985015932
 20
3.9353618235
  0
LWPOLYLINE
  5
4CC
100
AcDbEntity
  8
ASSI
100
AcDbPolyline
 62
250
  6
CONTINUOUS
 90
8
 70
0
 10
-6.6657748781
 20
14.7751324469
 10
-6.6770594599
 20
14.779383447
 10
-6.6892474964
 20
14.7817082274
 10
-6.7022083988
 20
14.7820818666
 10
-6.7158032802
 20
14.7805003548
 10
-6.7298864719
 20
14.7769806384
 10
-6.744307088
 20
14.7715604277
 10
-6.7589106199
 20
14.7642977961
  0
LWPOLYLINE
  5
4CD
100
AcDbEntity
  8
0
100
AcDbPolyline
 62
7
  6
CONTINUOUS
 90
10
 70
0
 10
-3.3764872801
 20
12.6083873709
 10
-3.3513867466
 20
12.5986633827
 10
-3.3279461266
 20
12.5886808961
 10
-3.3062881067
 20
12.5783784325
 10
-3.2864688676
 20
12.56757302
 10
-3.2686135166
 20
12.5563643363
 10
-3.2529595198
 20
12.5451059822
 10
-3.2395684504
 20
12.5337323855
 10
-3.2285509558
 20
12.5222264269
 10
-3.2199186987
 20
12.5105001131
  0
LWPOLYLINE
  5
4CE
100
AcDbEntity
  8
RACCORDO
100
AcDbPolyline
 62
250
  6
CONTINUOUS
 90
7
 70
0
 10
25.6690131568
 20
1.7079889031
 10
25.6551001917
 20
1.7140448615
 10
25.6397190029
 20
1.7170308718
 10
25.6231279348
 20
1.7168986323
 10
25.6056108651
 20
1.7136504057
 10
25.5874675159
 20
1.7073417699
 10
25.5690083247
 20
1.6980806676
  0
LWPOLYLINE
  5
4CF
100
AcDbEntity
  8
ASSI
100
AcDbPolyline
 62
250
  6
CONTINUOUS
 90
7
 70
0
 10
-8.5760769488
 20
17.5410450483
 10
-8.5832779405
 20
17.544642945
 10
-8.5960963669
 20
17.5486926038
 10
-8.609965247
 20
17.5503671476
 10
-8.624702445
 20
17.5496445769
 10
-8.6401144151
 20
17.5465343737
 10
-8.655998751
 20
17.5410773774
  0
LWPOLYLINE
  5
4D0
100
AcDbEntity
  8
ASSI
100
AcDbPolyline
 62
250
  6
CONTINUOUS
 90
7
 70
0
 10
-10.6538457665
 20
18.7407227231
 10
-10.6610468721
 20
18.7443206692
 10
-10.6738653308
 20
18.7483703187
 10
-10.6877342399
 20
18.7500448578
 10
-10.7024714583
 20
18.7493222947
 10
-10.7178834416
 20
18.7462121187
 10
-10.7337677833
 20
18.7407551761
  0
LWPOLYLINE
  5
4D1
100
AcDbEntity
  8
RACCORDO
100
AcDbPolyline
 62
250
  6
CONTINUOUS
 90
9
 70
0
 10
25.8690480972
 20
-2.4898601484
 10
25.8636726229
 20
-2.4870735017
 10
25.8521686526
 20
-2.4829592164
 10
25.8397539431
 20
-2.4808181797
 10
25.8265645128
 20
-2.4806738493
 10
25.8127448676
 20
-2.4825278064
 10
25.7984464184
 20
-2.4863597387
 10
25.7838258222
 20
-2.4921276627
 10
25.7690432652
 20
-2.499768384
  0
LWPOLYLINE
  5
4D2
100
AcDbEntity
  8
ASSI
100
AcDbPolyline
 62
250
  6
CONTINUOUS
 90
9
 70
0
 10
-5.1341700651
 20
13.8910174556
 10
-5.1385711588
 20
13.8933441457
 10
-5.1498557643
 20
13.8975951229
 10
-5.1620437961
 20
13.8999198735
 10
-5.175004672
 20
13.9002934886
 10
-5.1885995206
 20
13.8987119635
 10
-5.2026826804
 20
13.8951922434
 10
-5.2171032607
 20
13.8897720392
 10
-5.2317067542
 20
13.8825094244
  0
LINE
  5
4D3
100
AcDbEntity
  8
ASSI
100
AcDbLine
 62
250
  6
CONTINUOUS
 10
-6.6613739309
 20
14.7728058273
 11
-6.6657748781
 21
14.7751324469
  0
LINE
  5
4D4
100
AcDbEntity
  8
ASSI
100
AcDbLine
 62
250
  6
CONTINUOUS
 10
-15.8377167131
 20
20.0711111432
 11
-15.8421176603
 21
20.0734377627
  0
LWPOLYLINE
  5
4D5
100
AcDbEntity
  8
ASSI
100
AcDbPolyline
 62
250
  6
CONTINUOUS
 90
8
 70
0
 10
-6.7589106199
 20
14.7642977961
 10
-6.7732424115
 20
14.7719767246
 10
-6.7875045246
 20
14.7778395598
 10
-6.801541393
 20
14.7818007818
 10
-6.8152146464
 20
14.7837955375
 10
-6.828349631
 20
14.7837715984
 10
-6.8407460505
 20
14.781717385
 10
-6.8518344457
 20
14.7778098931
  0
LWPOLYLINE
  5
4D6
100
AcDbEntity
  8
ASSI
100
AcDbPolyline
 62
250
  6
CONTINUOUS
 90
8
 70
0
 10
-15.9352534021
 20
20.062603112
 10
-15.9495851937
 20
20.0702820404
 10
-15.9638473068
 20
20.0761448757
 10
-15.9778841752
 20
20.0801060976
 10
-15.9915574286
 20
20.0821008534
 10
-16.0046924132
 20
20.0820769142
 10
-16.0170888328
 20
20.0800227009
 10
-16.0281772279
 20
20.0761152089
  0
LWPOLYLINE
  5
4D7
100
AcDbEntity
  8
ASSI
100
AcDbPolyline
 62
250
  6
CONTINUOUS
 90
4
 70
0
 10
-8.655999125
 20
17.5410775933
 10
-8.6280051487
 20
17.5259768345
 10
-8.5974240581
 20
17.5119504803
 10
-8.5642693214
 20
17.4988941532
  0
LINE
  5
4D8
100
AcDbEntity
  8
ASSI
100
AcDbLine
 62
7
  6
CONTINUOUS
 10
-5.4239475646
 20
13.30265289
 11
-10.4375687131
 21
16.1974549057
  0
LINE
  5
4D9
100
AcDbEntity
  8
ASSI
100
AcDbLine
 62
7
  6
CONTINUOUS
 10
-15.401232485
 20
19.0634121583
 11
-20.4148536335
 21
21.9582141741
  0
LINE
  5
4DA
100
AcDbEntity
  8
RACCORDO
100
AcDbLine
 62
7
  6
CONTINUOUS
 10
23.9424977916
 20
-3.4048619674
 11
23.9015742774
 21
-3.3812332432
  0
LINE
  5
4DB
100
AcDbEntity
  8
RACCORDO
100
AcDbLine
 62
7
  6
CONTINUOUS
 10
22.9662685462
 20
-2.677802798
 11
23.3503948967
 21
-2.8995925386
  0
LINE
  5
4DC
100
AcDbEntity
  8
ASSI
100
AcDbLine
 62
250
  6
CONTINUOUS
 10
-12.3956212778
 20
18.0096537764
 11
-8.5153104119
 21
15.7692109141
  0
LINE
  5
4DD
100
AcDbEntity
  8
ASSI
100
AcDbLine
 62
250
  6
CONTINUOUS
 10
-5.2317067542
 20
13.8825094244
 11
-6.7589106199
 21
14.7642977961
  0
LINE
  5
4DE
100
AcDbEntity
  8
ASSI
100
AcDbLine
 62
250
  6
CONTINUOUS
 10
-14.4080495364
 20
19.1808147403
 11
-15.9352534021
 21
20.062603112
  0
LINE
  5
4DF
100
AcDbEntity
  8
ASSI
100
AcDbLine
 62
7
  6
CONTINUOUS
 10
-5.1341700651
 20
13.8910174556
 11
-6.6613739309
 21
14.7728058273
  0
LINE
  5
4E0
100
AcDbEntity
  8
ASSI
100
AcDbLine
 62
7
  6
CONTINUOUS
 10
-14.3105128473
 20
19.1893227715
 11
-15.8377167131
 21
20.0711111432
  0
LINE
  5
4E1
100
AcDbEntity
  8
ASSI
100
AcDbLine
 62
250
  6
CONTINUOUS
 10
-12.2564820929
 20
18.1523940503
 11
-8.4095006226
 21
15.9311951633
  0
LINE
  5
4E2
100
AcDbEntity
  8
RACCORDO
100
AcDbLine
 62
250
  6
CONTINUOUS
 10
21.7599944934
 20
-1.2877298196
 11
21.1738007741
 21
-0.9492689128
  0
LINE
  5
4E3
100
AcDbEntity
  8
DRAFT
100
AcDbLine
 62
7
  6
CONTINUOUS
 10
-6.2382370869
 20
15.0703428364
 11
-6.3721346184
 21
15.147653593
  0
LINE
  5
4E4
100
AcDbEntity
  8
ASSI
100
AcDbLine
 62
7
  6
CONTINUOUS
 10
-4.978578801
 20
14.8258456242
 11
-5.7988479578
 21
15.299458755
  0
LINE
  5
4E5
100
AcDbEntity
  8
ASSI
100
AcDbLine
 62
250
  6
CONTINUOUS
 10
-11.8746698223
 20
18.9622645661
 11
-8.1381156285
 21
16.8048250046
  0
LINE
  5
4E6
100
AcDbEntity
  8
ASSI
100
AcDbLine
 62
250
  6
CONTINUOUS
 10
-11.7521953351
 20
19.1146268277
 11
-8.0156411413
 21
16.9571872662
  0
LINE
  5
4E7
100
AcDbEntity
  8
RACCORDO
100
AcDbLine
 62
250
  6
CONTINUOUS
 10
25.5690083247
 20
-2.3842707164
 11
25.7690432652
 21
-2.499768384
  0
LINE
  5
4E8
100
AcDbEntity
  8
RACCORDO
100
AcDbLine
 62
7
  6
CONTINUOUS
 10
25.6690131568
 20
-2.3743624808
 11
25.8690480972
 21
-2.4898601484
  0
LINE
  5
4E9
100
AcDbEntity
  8
ASSI
100
AcDbLine
 62
250
  6
CONTINUOUS
 10
-5.4709201115
 20
15.6454784483
 11
-5.3533580404
 21
15.5775995817
  0
LINE
  5
4EA
100
AcDbEntity
  8
ASSI
100
AcDbLine
 62
250
  6
CONTINUOUS
 10
-7.8792457154
 20
17.0387492738
 11
-11.6109348951
 21
19.1933798372
  0
LINE
  5
4EB
100
AcDbEntity
  8
ASSI
100
AcDbLine
 62
250
  6
CONTINUOUS
 10
-10.7337677833
 20
18.7407551761
 11
-8.655999125
 21
17.5410775933
  0
LINE
  5
4EC
100
AcDbEntity
  8
ASSI
100
AcDbLine
 62
7
  6
CONTINUOUS
 10
-10.6538457665
 20
18.7407227231
 11
-8.5760769488
 21
17.5410450483
  0
LINE
  5
4ED
100
AcDbEntity
  8
ASSI
100
AcDbLine
 62
250
  6
CONTINUOUS
 10
-7.7296595876
 20
17.0866759639
 11
-8.3240945767
 21
17.4298952766
  0
LINE
  5
4EE
100
AcDbEntity
  8
ASSI
100
AcDbLine
 62
250
  6
CONTINUOUS
 10
-10.867249795
 20
18.8982812264
 11
-11.4616847841
 21
19.2415005391
  0
LINE
  5
4EF
100
AcDbEntity
  8
ASSI
100
AcDbLine
 62
7
  6
CONTINUOUS
 10
-11.7266437256
 20
19.8093741872
 11
-10.8374720794
 21
19.2959776227
  0
LINE
  5
4F0
100
AcDbEntity
  8
ASSI
100
AcDbLine
 62
7
  6
CONTINUOUS
 10
-4.9836687175
 20
15.9160649269
 11
-2.5156062611
 21
14.4910365966
  0
LINE
  5
4F1
100
AcDbEntity
  8
ASSI
100
AcDbLine
 62
250
  6
CONTINUOUS
 10
-5.6928880113
 20
17.1374730511
 11
-6.121618784
 21
17.385016826
  0
LINE
  5
4F2
100
AcDbEntity
  8
ASSI
100
AcDbLine
 62
250
  6
CONTINUOUS
 10
-9.088837188
 20
19.0982515445
 11
-9.5175679608
 21
19.3457953194
  0
LINE
  5
4F3
100
AcDbEntity
  8
RACCORDO
100
AcDbLine
 62
250
  6
CONTINUOUS
 10
-10.941300838
 20
20.241254861
 11
-10.1567690329
 21
19.7882760292
  0
LINE
  5
4F4
100
AcDbEntity
  8
RACCORDO
100
AcDbLine
 62
250
  6
CONTINUOUS
 10
-2.5249097491
 20
15.3817361284
 11
-1.7403779441
 21
14.9287572967
  0
LINE
  5
4F5
100
AcDbEntity
  8
RACCORDO
100
AcDbLine
 62
7
  6
CONTINUOUS
 10
-10.8437641484
 20
20.2497628919
 11
-10.059234071
 21
19.7967850576
  0
LINE
  5
4F6
100
AcDbEntity
  8
ASSI
100
AcDbLine
 62
250
  6
CONTINUOUS
 10
-5.8926162766
 20
17.4841349044
 11
-8.0311638981
 21
18.7189054988
  0
LINE
  5
4F7
100
AcDbEntity
  8
RACCORDO
100
AcDbLine
 62
7
  6
CONTINUOUS
 10
20.7260036327
 20
-1.4010390636
 11
20.7250074328
 21
-1.4004627437
  0
LWPOLYLINE
  5
4F8
100
AcDbEntity
  8
RACCORDO
100
AcDbPolyline
 62
250
  6
CONTINUOUS
 90
52
 70
0
 10
-2.5249097491
 20
15.3817361284
 10
-2.5339573045
 20
15.387032618
 10
-2.5429189529
 20
15.3925602356
 10
-2.5517946943
 20
15.3983189812
 10
-2.5606320731
 20
15.4043196428
 10
-2.5693835448
 20
15.4105514324
 10
-2.5779064766
 20
15.4169819857
 10
-2.5862077397
 20
15.42363497
 10
-2.5942804628
 20
15.430486718
 10
-2.6019613995
 20
15.4374338633
 10
-2.6092075631
 20
15.4444557471
 10
-2.6160619402
 20
15.4515730282
 10
-2.6224902437
 20
15.4587443163
 10
-2.6284801257
 20
15.4659613532
 10
-2.6340439341
 20
15.4732323972
 10
-2.6391844254
 20
15.4805408321
 10
-2.6439002087
 20
15.4878845386
 10
-2.6481926751
 20
15.4952656361
 10
-2.6520687535
 20
15.5026738672
 10
-2.6555294777
 20
15.5101088806
 10
-2.658573814
 20
15.5175710276
 10
-2.661205591
 20
15.525051105
 10
-2.6634262146
 20
15.5325535884
 10
-2.665234279
 20
15.5400740022
 10
-2.6666293955
 20
15.5475897166
 10
-2.6676099603
 20
15.5551021692
 10
-2.6681775771
 20
15.5626099224
 10
-2.6683366683
 20
15.5700860331
 10
-2.6680851027
 20
15.5775303311
 10
-2.6674250114
 20
15.5849429866
 10
-2.6663672101
 20
15.5922975675
 10
-2.6649096864
 20
15.599593948
 10
-2.6630544528
 20
15.6068322538
 10
-2.6608183623
 20
15.6139864305
 10
-2.6581994313
 20
15.6210563061
 10
-2.6551996434
 20
15.6280420525
 10
-2.6518418034
 20
15.6349181311
 10
-2.6481224905
 20
15.6416858239
 10
-2.6440451254
 20
15.6483438487
 10
-2.6396427746
 20
15.6548628203
 10
-2.6349116703
 20
15.6612425078
 10
-2.6298555804
 20
15.6674831421
 10
-2.6245188749
 20
15.6735560307
 10
-2.6189035492
 20
15.6794558133
 10
-2.613007608
 20
15.6851878503
 10
-2.6068694354
 20
15.6907395309
 10
-2.6004972856
 20
15.6961046748
 10
-2.5938829044
 20
15.7012894623
 10
-2.5870399142
 20
15.706299823
 10
-2.5799728556
 20
15.7111377334
 10
-2.5726771879
 20
15.7158012171
 10
-2.5651529111
 20
15.7202902739
  0
LWPOLYLINE
  5
4F9
100
AcDbEntity
  8
ASSI
100
AcDbPolyline
 62
7
  6
CONTINUOUS
 90
10
 70
0
 10
-10.6538073555
 20
18.740700528
 10
-10.6652485816
 20
18.7474956176
 10
-10.6892320459
 20
18.7630994516
 10
-10.7090220625
 20
18.7776659055
 10
-10.7251405413
 20
18.7910193954
 10
-10.7384500913
 20
18.8033081271
 10
-10.7492689427
 20
18.8143979018
 10
-10.7576578867
 20
18.8239020629
 10
-10.7638687598
 20
18.8315997436
 10
-10.7660909682
 20
18.8345328093
  0
LWPOLYLINE
  5
4FA
100
AcDbEntity
  8
RACCORDO
100
AcDbPolyline
 62
7
  6
CONTINUOUS
 90
6
 70
0
 10
-2.4273168094
 20
15.3902118734
 10
-2.4346853002
 20
15.3946239371
 10
-2.4447297197
 20
15.4012790623
 10
-2.451972098
 20
15.4067594441
 10
-2.4565584425
 20
15.410748095
 10
-2.457940393
 20
15.4120971336
  0
LWPOLYLINE
  5
4FB
100
AcDbEntity
  8
RACCORDO
100
AcDbPolyline
 62
250
  6
CONTINUOUS
 90
3
 70
0
 10
-1.7403779441
 20
14.9287572967
 10
-1.6834071313
 20
14.894024602
 10
-1.6263356965
 20
14.855411755
  0
LWPOLYLINE
  5
4FC
100
AcDbEntity
  8
RACCORDO
100
AcDbPolyline
 62
7
  6
CONTINUOUS
 90
37
 70
0
 10
20.7249797128
 20
-1.4004464371
 10
20.7029241371
 20
-1.386939098
 10
20.6452825644
 20
-1.3441998164
 10
20.5920330882
 20
-1.2931351249
 10
20.5432398662
 20
-1.2334801702
 10
20.4994112346
 20
-1.1655184648
 10
20.4608705509
 20
-1.0894970155
 10
20.4279175216
 20
-1.0056090505
 10
20.4009449462
 20
-0.9145496145
 10
20.3803009532
 20
-0.8175589516
 10
20.3660943402
 20
-0.7158013165
 10
20.3581964302
 20
-0.6096657998
 10
20.3565282758
 20
-0.4991300654
 10
20.3610873778
 20
-0.3848734136
 10
20.3718020525
 20
-0.2674952734
 10
20.3887441405
 20
-0.1465440675
 10
20.4120383831
 20
-0.0221512374
 10
20.4416129653
 20
0.104686977
 10
20.4773704584
 20
0.2332460378
 10
20.5192114261
 20
0.3629094338
 10
20.5669857382
 20
0.4930596182
 10
20.6204699022
 20
0.6229855499
 10
20.6794524582
 20
0.7520684186
 10
20.7436712461
 20
0.8796841214
 10
20.8127817919
 20
1.0051313932
 10
20.8864691346
 20
1.127812453
 10
20.9643792495
 20
1.2471459171
 10
21.0460638276
 20
1.3624805426
 10
21.1311216549
 20
1.4732764092
 10
21.2191257143
 20
1.5790311668
 10
21.3095427205
 20
1.679185536
 10
21.4019094661
 20
1.7732991704
 10
21.4957454292
 20
1.8609747083
 10
21.5904472698
 20
1.941773904
 10
21.685469935
 20
2.0153627383
 10
21.7803353797
 20
2.0815303274
 10
21.8620901237
 20
2.1327612545
  0
LWPOLYLINE
  5
4FD
100
AcDbEntity
  8
ASSI
100
AcDbPolyline
 62
250
  6
CONTINUOUS
 90
16
 70
0
 10
-14.4080495364
 20
19.1808147403
 10
-14.3933475961
 20
19.1717411599
 10
-14.3787506817
 20
19.1609753057
 10
-14.3644175398
 20
19.1486065212
 10
-14.3504992562
 20
19.1347348287
 10
-14.337164978
 20
19.1194971973
 10
-14.3245952925
 20
19.1030746121
 10
-14.31292675
 20
19.0856217047
 10
-14.302310461
 20
19.067338692
 10
-14.2929166837
 20
19.0485123888
 10
-14.2848602626
 20
19.0293962121
 10
-14.2782025609
 20
19.0101627173
 10
-14.2730024194
 20
18.9909897343
 10
-14.26931666
 20
18.9720776601
 10
-14.2671908335
 20
18.9536473578
 10
-14.2666497193
 20
18.9359030732
  0
LWPOLYLINE
  5
4FE
100
AcDbEntity
  8
RACCORDO
100
AcDbPolyline
 62
7
  6
CONTINUOUS
 90
20
 70
0
 10
25.6690299838
 20
-2.3743721998
 10
25.6575954454
 20
-2.3672267121
 10
25.6450037706
 20
-2.3581748005
 10
25.631341128
 20
-2.3470238466
 10
25.6168546715
 20
-2.3337119104
 10
25.601980859
 20
-2.3184068279
 10
25.5869601697
 20
-2.3011539404
 10
25.5721153872
 20
-2.2821407356
 10
25.5579526139
 20
-2.2619000974
 10
25.5447235305
 20
-2.2407627967
 10
25.53257952
 20
-2.2189800182
 10
25.5217677372
 20
-2.1970496734
 10
25.5123990166
 20
-2.1753376852
 10
25.5044983924
 20
-2.1541076321
 10
25.4980954018
 20
-2.1337039409
 10
25.493155103
 20
-2.1143845809
 10
25.4896149286
 20
-2.0964268374
 10
25.4873862373
 20
-2.0801939394
 10
25.486301736
 20
-2.0658136528
 10
25.4861225246
 20
-2.0576228272
  0
LWPOLYLINE
  5
4FF
100
AcDbEntity
  8
RACCORDO
100
AcDbPolyline
 62
250
  6
CONTINUOUS
 90
4
 70
0
 10
25.7690432652
 20
-2.499768384
 10
25.8042126811
 20
-2.521930277
 10
25.8356123113
 20
-2.5454640223
 10
25.8632421558
 20
-2.5703696198
  0
LINE
  5
500
100
AcDbEntity
  8
ASSI
100
AcDbLine
 62
250
  6
CONTINUOUS
 10
-10.7612225405
 20
18.7581899124
 11
-10.7337677833
 21
18.7407551761
  0
LWPOLYLINE
  5
501
100
AcDbEntity
  8
RACCORDO
100
AcDbPolyline
 62
250
  6
CONTINUOUS
 90
9
 70
0
 10
23.4382628624
 20
-3.1428357421
 10
23.4174713331
 20
-3.1295186966
 10
23.3991752664
 20
-3.1150320232
 10
23.3835707091
 20
-3.0995309212
 10
23.3708248736
 20
-3.0831814602
 10
23.361074347
 20
-3.0661588031
 10
23.3544236262
 20
-3.0486453293
 10
23.3509439961
 20
-3.0308286765
 10
23.3503948967
 20
-3.0203532997
  0
LWPOLYLINE
  5
502
100
AcDbEntity
  8
RACCORDO
100
AcDbPolyline
 62
7
  6
CONTINUOUS
 90
4
 70
0
 10
-6.3839942617
 20
18.9512462804
 10
-6.3890683184
 20
18.9546692979
 10
-6.3926731315
 20
18.9579152223
 10
-6.3931807756
 20
18.9584697037
  0
LWPOLYLINE
  5
503
100
AcDbEntity
  8
RACCORDO
100
AcDbPolyline
 62
250
  6
CONTINUOUS
 90
11
 70
0
 10
-1.6263356965
 20
14.855411755
 10
-1.5693606496
 20
14.8129903521
 10
-1.5127598767
 20
14.7669108863
 10
-1.4566598546
 20
14.7172234131
 10
-1.4010474306
 20
14.6638335868
 10
-1.346154705
 20
14.6068478217
 10
-1.2922076858
 20
14.5463820343
 10
-1.2392247603
 20
14.4823111875
 10
-1.1874031812
 20
14.4146754613
 10
-1.1370956828
 20
14.3437218525
 10
-1.0885867092
 20
14.2696407361
  0
LWPOLYLINE
  5
504
100
AcDbEntity
  8
ASSI
100
AcDbPolyline
 62
250
  6
CONTINUOUS
 90
10
 70
0
 10
-5.4985538095
 20
16.8997068416
 10
-5.5087744161
 20
16.9073430873
 10
-5.5195258363
 20
16.9143645533
 10
-5.5307314788
 20
16.9207252284
 10
-5.5424241202
 20
16.9263488994
 10
-5.554441964
 20
16.9312610423
 10
-5.5664412325
 20
16.9355724776
 10
-5.578293787
 20
16.9393042494
 10
-5.5900749962
 20
16.9424003782
 10
-5.6017680506
 20
16.9448509439
  0
LWPOLYLINE
  5
505
100
AcDbEntity
  8
RACCORDO
100
AcDbPolyline
 62
250
  6
CONTINUOUS
 90
22
 70
0
 10
-6.8822739427
 20
18.8474270709
 10
-6.8918315831
 20
18.8555339864
 10
-6.901232922
 20
18.8637892556
 10
-6.9104665096
 20
18.8721599848
 10
-6.9194687753
 20
18.8805520077
 10
-6.9282885812
 20
18.8889934266
 10
-6.937070457
 20
18.8976501169
 10
-6.9458430652
 20
18.9065689592
 10
-6.9545300358
 20
18.9156691228
 10
-6.9631027685
 20
18.9249363969
 10
-6.9715324882
 20
18.9343380252
 10
-6.9798030905
 20
18.9438594816
 10
-6.9879014415
 20
18.9535122423
 10
-6.9957993837
 20
18.9632645341
 10
-7.0034732342
 20
18.9730909143
 10
-7.0109080344
 20
18.9830098759
 10
-7.018065667
 20
18.9929729493
 10
-7.024922987
 20
19.0029560216
 10
-7.0314709658
 20
19.0130072505
 10
-7.0376729397
 20
19.02310783
 10
-7.0434776106
 20
19.0331745658
 10
-7.0488426833
 20
19.0431493947
  0
LWPOLYLINE
  5
506
100
AcDbEntity
  8
RACCORDO
100
AcDbPolyline
 62
250
  6
CONTINUOUS
 90
6
 70
0
 10
-0.8915481733
 20
14.1087465583
 10
-0.8918505715
 20
14.1090086899
 10
-0.8945804099
 20
14.1085050558
 10
-0.9001809579
 20
14.106129478
 10
-0.9087986819
 20
14.1024287695
 10
-0.9196095234
 20
14.096978847
  0
LWPOLYLINE
  5
507
100
AcDbEntity
  8
RACCORDO
100
AcDbPolyline
 62
250
  6
CONTINUOUS
 90
8
 70
0
 10
-1.0149366264
 20
14.3056929488
 10
-1.0151942022
 20
14.3059247815
 10
-1.0180253105
 20
14.3057933835
 10
-1.023636431
 20
14.3038768183
 10
-1.0319336744
 20
14.3002071554
 10
-1.0427782055
 20
14.294845798
 10
-1.0559885663
 20
14.287882456
 10
-1.0713437118
 20
14.2794336449
  0
LWPOLYLINE
  5
508
100
AcDbEntity
  8
RACCORDO
100
AcDbPolyline
 62
7
  6
CONTINUOUS
 90
13
 70
0
 10
3.6813274013
 20
16.6167167266
 10
3.6689153463
 20
16.6365114568
 10
3.6162322357
 20
16.7160291117
 10
3.5603959122
 20
16.7932984402
 10
3.501562723
 20
16.8679772391
 10
3.4399333468
 20
16.9396903495
 10
3.3757438168
 20
17.008060553
 10
3.3091472135
 20
17.0727972337
 10
3.2403210933
 20
17.1335949434
 10
3.1694962359
 20
17.190093802
 10
3.0968604324
 20
17.2419866825
 10
3.0226098424
 20
17.2889716804
 10
3.0087006461
 20
17.2971060469
  0
LINE
  5
509
100
AcDbEntity
  8
RACCORDO
100
AcDbLine
 62
250
  6
CONTINUOUS
 10
3.570920588
 20
16.5609349218
 11
3.7195063542
 21
16.3197835505
  0
LINE
  5
50A
100
AcDbEntity
  8
RACCORDO
100
AcDbLine
 62
250
  6
CONTINUOUS
 10
3.7195063542
 20
16.3197835505
 11
3.8797925196
 21
16.0560797965
  0
LINE
  5
50B
100
AcDbEntity
  8
RACCORDO
100
AcDbLine
 62
250
  6
CONTINUOUS
 10
3.8797925196
 20
16.0560797965
 11
4.051054376
 21
15.7701066424
  0
LINE
  5
50C
100
AcDbEntity
  8
RACCORDO
100
AcDbLine
 62
250
  6
CONTINUOUS
 10
4.051054376
 20
15.7701066424
 11
4.2316157466
 21
15.4637325365
  0
LINE
  5
50D
100
AcDbEntity
  8
RACCORDO
100
AcDbLine
 62
250
  6
CONTINUOUS
 10
4.2316157466
 20
15.4637325365
 11
4.4212555365
 21
15.136368378
  0
LINE
  5
50E
100
AcDbEntity
  8
RACCORDO
100
AcDbLine
 62
250
  6
CONTINUOUS
 10
4.4212555365
 20
15.136368378
 11
4.6196439572
 21
14.7875269854
  0
LWPOLYLINE
  5
50F
100
AcDbEntity
  8
RACCORDO
100
AcDbPolyline
 62
7
  6
CONTINUOUS
 90
9
 70
0
 10
4.8289833133
 20
14.6663411152
 10
4.7474989687
 20
14.811894993
 10
4.599931735
 20
15.0725567682
 10
4.4507555202
 20
15.3323232252
 10
4.2999869452
 20
15.5911654357
 10
4.1476426278
 20
15.8490548615
 10
3.993739522
 20
16.105962772
 10
3.8382949252
 20
16.361860252
 10
3.6813262182
 20
16.6167186421
  0
LWPOLYLINE
  5
510
100
AcDbEntity
  8
RACCORDO
100
AcDbPolyline
 62
250
  6
CONTINUOUS
 90
3
 70
0
 10
4.6196439572
 20
14.7875269854
 10
4.82679745
 20
14.4160058126
 10
4.9334389713
 20
14.2217388354
  0
LWPOLYLINE
  5
511
100
AcDbEntity
  8
RACCORDO
100
AcDbPolyline
 62
7
  6
CONTINUOUS
 90
11
 70
0
 10
4.8289919711
 20
14.6663255857
 10
4.8424348867
 20
14.6406170137
 10
4.8582612554
 20
14.60560058
 10
4.8727627127
 20
14.5677890745
 10
4.885883133
 20
14.5271383087
 10
4.8975871989
 20
14.4836923175
 10
4.9078759177
 20
14.437416946
 10
4.9166432643
 20
14.3880969923
 10
4.9238033468
 20
14.3356498572
 10
4.9293877447
 20
14.28017883
 10
4.9334389712
 20
14.2217388354
  0
LINE
  5
512
100
AcDbEntity
  8
0
100
AcDbLine
 62
7
  6
CONTINUOUS
 10
13.349616322
 20
30.9104480973
 11
13.349616322
 21
31.890361675
  0
LINE
  5
513
100
AcDbEntity
  8
0
100
AcDbLine
 62
7
  6
CONTINUOUS
 10
13.6324590345
 20
30.3162384919
 11
13.6324590345
 21
30.74713826
  0
LINE
  5
514
100
AcDbEntity
  8
0
100
AcDbLine
 62
7
  6
CONTINUOUS
 10
13.8445910689
 20
29.2955520086
 11
13.8445910689
 21
27.7535407639
  0
LINE
  5
515
100
AcDbEntity
  8
RACCORDO
100
AcDbLine
 62
7
  6
CONTINUOUS
 10
13.8445910689
 20
30.1937561139
 11
13.8445910689
 21
30.624655882
  0
LINE
  5
516
100
AcDbEntity
  8
SMUSSO
100
AcDbLine
 62
7
  6
CONTINUOUS
 10
13.9845244227
 20
32.251859072
 11
13.9845244227
 21
32.43357988
  0
LINE
  5
517
100
AcDbEntity
  8
RACCORDO
100
AcDbLine
 62
7
  6
CONTINUOUS
 10
-1.0665688242
 20
-20.5170841639
 11
-1.0323704598
 21
-20.4792668648
  0
LINE
  5
518
100
AcDbEntity
  8
0
100
AcDbLine
 62
250
  6
CONTINUOUS
 10
-1.0990852808
 20
-20.5399745439
 11
-1.1166417265
 21
-20.5572478799
  0
LWPOLYLINE
  5
519
100
AcDbEntity
  8
0
100
AcDbPolyline
 62
7
  6
CONTINUOUS
 90
9
 70
0
 10
-1.0987072868
 20
-20.5442113723
 10
-1.0789732152
 20
-20.5256535403
 10
-1.054713143
 20
-20.4975459413
 10
-1.0333549701
 20
-20.4658899839
 10
-1.0153260216
 20
-20.4309305571
 10
-1.0009398271
 20
-20.3928367749
 10
-0.9904643368
 20
-20.3517250344
 10
-0.9841849013
 20
-20.3078101954
 10
-0.9823259552
 20
-20.2661882771
  0
LINE
  5
51A
100
AcDbEntity
  8
RACCORDO
100
AcDbLine
 62
7
  6
CONTINUOUS
 10
-1.1037266792
 20
-20.5511063201
 11
-1.0665688242
 21
-20.5170841639
  0
LINE
  5
51B
100
AcDbEntity
  8
RACCORDO
100
AcDbLine
 62
7
  6
CONTINUOUS
 10
4.9334389712
 20
-17.0400290793
 11
4.9319789832
 21
-17.0413614828
  0
LINE
  5
51C
100
AcDbEntity
  8
0
100
AcDbLine
 62
7
  6
CONTINUOUS
 10
-1.0987072873
 20
-20.5442113725
 11
-1.0991482027
 21
-20.5445906355
  0
LWPOLYLINE
  5
51D
100
AcDbEntity
  8
0
100
AcDbPolyline
 62
250
  6
CONTINUOUS
 90
4
 70
0
 10
-1.1166417265
 20
-20.5572478799
 10
-1.3579671359
 20
-20.7572816522
 10
-1.6009824543
 20
-20.9459238124
 10
-1.6529238498
 20
-20.9853543992
  0
LINE
  5
51E
100
AcDbEntity
  8
RACCORDO
100
AcDbLine
 62
7
  6
CONTINUOUS
 10
-1.1843628103
 20
-20.6162510055
 11
-1.1037266792
 21
-20.5511063201
  0
LINE
  5
51F
100
AcDbEntity
  8
RACCORDO
100
AcDbLine
 62
7
  6
CONTINUOUS
 10
-4.4432330089
 20
-22.6429779668
 11
-4.3619677731
 21
-22.5785374734
  0
LWPOLYLINE
  5
520
100
AcDbEntity
  8
0
100
AcDbPolyline
 62
250
  6
CONTINUOUS
 90
5
 70
0
 10
-1.7956466225
 20
-21.0887647255
 10
-1.8453552696
 20
-21.1234963668
 10
-2.0889362461
 20
-21.2891229853
 10
-2.3331710435
 20
-21.4444462158
 10
-2.3832176164
 20
-21.4749990373
  0
LINE
  5
521
100
AcDbEntity
  8
0
100
AcDbLine
 62
250
  6
CONTINUOUS
 10
-1.0991482027
 20
-20.5445906355
 11
-1.1166417266
 21
-20.5572478797
  0
LWPOLYLINE
  5
522
100
AcDbEntity
  8
RACCORDO
100
AcDbPolyline
 62
7
  6
CONTINUOUS
 90
6
 70
0
 10
-4.8583832935
 20
-22.950981838
 10
-4.7741766892
 20
-22.8912742099
 10
-4.6905583585
 20
-22.8306200087
 10
-4.6075283016
 20
-22.7690192345
 10
-4.5250865184
 20
-22.7064718872
 10
-4.4432330089
 20
-22.6429779668
  0
LWPOLYLINE
  5
523
100
AcDbEntity
  8
ASSI
100
AcDbPolyline
 62
7
  6
CONTINUOUS
 90
13
 70
0
 10
21.1985015932
 20
-4.2293409445
 10
21.4165398883
 20
-4.0819215892
 10
21.6210746444
 20
-3.9099218006
 10
21.8121058616
 20
-3.7133415785
 10
21.9932432056
 20
-3.486772919
 10
22.1608770106
 20
-3.2356238261
 10
22.3041782792
 20
-2.976118312
 10
22.4215405589
 20
-2.7077046793
 10
22.5145703023
 20
-2.4309346255
 10
22.5772578689
 20
-2.1636872542
 10
22.6076000456
 20
-1.9065912603
 10
22.6076000456
 20
-1.659017949
 10
22.5883806706
 20
-1.5183619735
  0
LWPOLYLINE
  5
524
100
AcDbEntity
  8
RACCORDO
100
AcDbPolyline
 62
250
  6
CONTINUOUS
 90
10
 70
0
 10
25.9183076826
 20
0.5257085636
 10
25.9643423869
 20
0.5555178605
 10
26.0057452438
 20
0.5875117778
 10
26.0422067259
 20
0.6214511295
 10
26.0734542475
 20
0.6570821854
 10
26.0992542022
 20
0.6941385682
 10
26.1194137095
 20
0.7323432443
 10
26.1337820572
 20
0.771410596
 10
26.1422518277
 20
0.8110485561
 10
26.1447791965
 20
0.8477360779
  0
LWPOLYLINE
  5
525
100
AcDbEntity
  8
RACCORDO
100
AcDbPolyline
 62
7
  6
CONTINUOUS
 90
13
 70
0
 10
25.8770321119
 20
0.4342437809
 10
25.9206238813
 20
0.4622596046
 10
25.9603278544
 20
0.4921188631
 10
25.9961408283
 20
0.5236492702
 10
26.0281250691
 20
0.5567505996
 10
26.0562199671
 20
0.59120516
 10
26.0802805173
 20
0.62660001
 10
26.1002665625
 20
0.6624916973
 10
26.1164032414
 20
0.6988344726
 10
26.1288936127
 20
0.7357443055
 10
26.1377741697
 20
0.7730926528
 10
26.1430441643
 20
0.8105081799
 10
26.1447791965
 20
0.8477360779
  0
LINE
  5
526
100
AcDbEntity
  8
RACCORDO
100
AcDbLine
 62
250
  6
CONTINUOUS
 10
21.821684363
 20
-1.9074919983
 11
21.9033766149
 21
-1.8581188642
  0
LINE
  5
527
100
AcDbEntity
  8
RACCORDO
100
AcDbLine
 62
250
  6
CONTINUOUS
 10
25.4299904875
 20
-2.1378593544
 11
23.7601313787
 21
-3.1362718309
  0
LINE
  5
528
100
AcDbEntity
  8
RACCORDO
100
AcDbLine
 62
250
  6
CONTINUOUS
 10
25.5690083247
 20
-2.3842707164
 11
23.9015742774
 21
-3.3812332432
  0
LINE
  5
529
100
AcDbEntity
  8
RACCORDO
100
AcDbLine
 62
250
  6
CONTINUOUS
 10
25.7749255611
 20
1.0960976083
 11
21.7599944934
 21
-1.2877298196
  0
LINE
  5
52A
100
AcDbEntity
  8
RACCORDO
100
AcDbLine
 62
250
  6
CONTINUOUS
 10
25.9183076826
 20
0.8522966744
 11
21.9033766149
 21
-1.5315307535
  0
LINE
  5
52B
100
AcDbEntity
  8
RACCORDO
100
AcDbLine
 62
250
  6
CONTINUOUS
 10
21.9033766149
 20
-1.8581188642
 11
25.9183076826
 21
0.5257085636
  0
LINE
  5
52C
100
AcDbEntity
  8
RACCORDO
100
AcDbLine
 62
7
  6
CONTINUOUS
 10
21.8621010442
 20
-1.9495836469
 11
25.8770321119
 21
0.4342437809
  0
LINE
  5
52D
100
AcDbEntity
  8
RACCORDO
100
AcDbLine
 62
250
  6
CONTINUOUS
 10
25.7749255611
 20
-2.9862537757
 11
21.7599944934
 21
-5.3700812035
  0
LINE
  5
52E
100
AcDbEntity
  8
RACCORDO
100
AcDbLine
 62
250
  6
CONTINUOUS
 10
25.9183076826
 20
-3.2300547096
 11
21.9033766149
 21
-5.6138821375
  0
LINE
  5
52F
100
AcDbEntity
  8
DRAFT
100
AcDbLine
 62
7
  6
CONTINUOUS
 10
23.9424977916
 20
-3.4048619674
 11
21.1738007741
 21
-5.0316202968
  0
LINE
  5
530
100
AcDbEntity
  8
0
100
AcDbLine
 62
7
  6
CONTINUOUS
 10
22.9662685462
 20
-3.6168895995
 11
20.4265367399
 21
-5.0832989142
  0
LINE
  5
531
100
AcDbEntity
  8
RACCORDO
100
AcDbLine
 62
250
  6
CONTINUOUS
 10
23.4796779099
 20
-3.2821970193
 11
23.4320023657
 21
-3.3097146244
  0
LWPOLYLINE
  5
532
100
AcDbEntity
  8
RACCORDO
100
AcDbPolyline
 62
250
  6
CONTINUOUS
 90
13
 70
0
 10
21.7599944831
 20
-5.3700811976
 10
21.6631501685
 20
-5.4239820811
 10
21.5666324862
 20
-5.4701450431
 10
21.4708744529
 20
-5.5083497358
 10
21.3762755483
 20
-5.5384242582
 10
21.2832974418
 20
-5.5601965371
 10
21.1924541581
 20
-5.573529429
 10
21.1041973122
 20
-5.5783754523
 10
21.0188714047
 20
-5.574734965
 10
20.936808152
 20
-5.5626198224
 10
20.8583647467
 20
-5.5420820741
 10
20.7839053845
 20
-5.5132160715
 10
20.7260036327
 20
-5.4833904476
  0
LWPOLYLINE
  5
533
100
AcDbEntity
  8
RACCORDO
100
AcDbPolyline
 62
250
  6
CONTINUOUS
 90
48
 70
0
 10
21.9033766149
 20
-5.6138821375
 10
21.7963784518
 20
-5.6731722079
 10
21.6906841368
 20
-5.723568887
 10
21.5862936697
 20
-5.7650721747
 10
21.4827165954
 20
-5.7978034022
 10
21.3804433691
 20
-5.8216412384
 10
21.2809453567
 20
-5.8362216893
 10
21.1843143447
 20
-5.8414019046
 10
21.0904585466
 20
-5.8373247346
 10
21.000573968
 20
-5.824054737
 10
20.9146991995
 20
-5.8014744415
 10
20.8327956505
 20
-5.7697013182
 10
20.7559435546
 20
-5.7291523349
 10
20.6842102155
 20
-5.6797106225
 10
20.6175283295
 20
-5.62149305
 10
20.5567762187
 20
-5.5552671919
 10
20.5020332188
 20
-5.480928428
 10
20.4532199942
 20
-5.3985813785
 10
20.4109768601
 20
-5.3093074778
 10
20.3753899858
 20
-5.2130145227
 10
20.3463732021
 20
-5.1097947164
 10
20.3243083158
 20
-5.0010061036
 10
20.3092872099
 20
-4.8865758478
 10
20.3012180015
 20
-4.7665767854
 10
20.3002068487
 20
-4.6425854699
 10
20.3063470744
 20
-4.5145479731
 10
20.3195453556
 20
-4.3825182232
 10
20.3396278817
 20
-4.2482345588
 10
20.3666842394
 20
-4.1116711024
 10
20.400624842
 20
-3.9728537316
 10
20.4410071175
 20
-3.8335984173
 10
20.4879220795
 20
-3.6938863479
 10
20.5412787145
 20
-3.5537363352
 10
20.6003614105
 20
-3.4150207859
 10
20.6652240687
 20
-3.2777953452
 10
20.7358127879
 20
-3.1420043679
 10
20.8112502527
 20
-3.0093533246
 10
20.891585649
 20
-2.879877042
 10
20.976769791
 20
-2.7535406933
 10
21.0657778052
 20
-2.6319452685
 10
21.1594339257
 20
-2.5145254036
 10
21.2569139184
 20
-2.4018464626
 10
21.3547202078
 20
-2.2972055274
 10
21.4530957651
 20
-2.2012065636
 10
21.5517976191
 20
-2.1132456056
 10
21.6465992801
 20
-2.0348078382
 10
21.7360919181
 20
-1.966388323
 10
21.821684363
 20
-1.9074919983
  0
LWPOLYLINE
  5
534
100
AcDbEntity
  8
ASSI
100
AcDbPolyline
 62
250
  6
CONTINUOUS
 90
4
 70
0
 10
-11.0432008737
 20
-21.0564801251
 10
-11.0527451036
 20
-21.0616783594
 10
-11.0698752011
 20
-21.0680142208
 10
-11.0885865832
 20
-21.0713903612
  0
LINE
  5
535
100
AcDbEntity
  8
RACCORDO
100
AcDbLine
 62
250
  6
CONTINUOUS
 10
-11.6738048071
 20
-21.1109421612
 11
-11.0387491269
 21
-20.7694297676
  0
LINE
  5
536
100
AcDbEntity
  8
RACCORDO
100
AcDbLine
 62
7
  6
CONTINUOUS
 10
-11.7180112843
 20
-21.2040198201
 11
-11.0387491269
 21
-20.8387346136
  0
LINE
  5
537
100
AcDbEntity
  8
RACCORDO
100
AcDbLine
 62
250
  6
CONTINUOUS
 10
25.5361795783
 20
-4.5783322416
 11
25.5505880395
 21
-4.5706506715
  0
LWPOLYLINE
  5
538
100
AcDbEntity
  8
ASSI
100
AcDbPolyline
 62
7
  6
CONTINUOUS
 90
10
 70
0
 10
-6.0283074391
 20
15.2835785346
 10
-6.0478311732
 20
15.2838657092
 10
-6.0668631684
 20
15.2831921919
 10
-6.0854034247
 20
15.2815579826
 10
-6.1035880835
 20
15.2789280834
 10
-6.1212810034
 20
15.2753374923
 10
-6.1380737603
 20
15.2708912031
 10
-6.153830213
 20
15.2656242138
 10
-6.1686865027
 20
15.2595015264
 10
-6.1826426294
 20
15.2525231409
  0
LINE
  5
539
100
AcDbEntity
  8
ASSI
100
AcDbLine
 62
7
  6
CONTINUOUS
 10
-5.9876507345
 20
15.2827711946
 11
-6.0283074391
 21
15.2835785346
  0
LWPOLYLINE
  5
53A
100
AcDbEntity
  8
ASSI
100
AcDbPolyline
 62
250
  6
CONTINUOUS
 90
16
 70
0
 10
-7.8723112502
 20
16.7282163248
 10
-7.8860743228
 20
16.7298791742
 10
-7.9012081534
 20
16.7322192615
 10
-7.9175526347
 20
16.7352118302
 10
-7.9349351793
 20
16.7388252929
 10
-7.9531715921
 20
16.7430213711
 10
-7.9720678764
 20
16.7477553957
 10
-7.9914233125
 20
16.7529769991
 10
-8.0110338165
 20
16.7586310445
 10
-8.0306930826
 20
16.764658022
 10
-8.0502008865
 20
16.7709967633
 10
-8.0693429409
 20
16.7775778561
 10
-8.0878959676
 20
16.7843239136
 10
-8.1056597336
 20
16.7911606299
 10
-8.1224572639
 20
16.7980183308
 10
-8.1381156285
 20
16.8048250046
  0
LWPOLYLINE
  5
53B
100
AcDbEntity
  8
ASSI
100
AcDbPolyline
 62
250
  6
CONTINUOUS
 90
13
 70
0
 10
-8.1436962443
 20
15.8545864835
 10
-8.1611059074
 20
15.8567696003
 10
-8.1805928396
 20
15.8600001533
 10
-8.201835573
 20
15.86422485
 10
-8.2244836747
 20
15.869373998
 10
-8.2481635268
 20
15.8753626539
 10
-8.2724844895
 20
15.8820920251
 10
-8.2970453476
 20
15.8894510996
 10
-8.3214409274
 20
15.8973184774
 10
-8.3452687797
 20
15.905564372
 10
-8.3681358218
 20
15.9140527531
 10
-8.3896648224
 20
15.9226435905
 10
-8.4095006226
 20
15.9311951633
  0
LWPOLYLINE
  5
53C
100
AcDbEntity
  8
ASSI
100
AcDbPolyline
 62
250
  6
CONTINUOUS
 90
27
 70
0
 10
-5.6017686679
 20
16.9448471442
 10
-5.6092732562
 20
16.9462797831
 10
-5.6167388457
 20
16.9475031772
 10
-5.6241620611
 20
16.9485170798
 10
-5.6314904009
 20
16.9493140735
 10
-5.6387710803
 20
16.949901295
 10
-5.64615128
 20
16.9503004255
 10
-5.653664671
 20
16.9505220882
 10
-5.6612755368
 20
16.9505556025
 10
-5.6690277635
 20
16.9503907277
 10
-5.6769206282
 20
16.9500300836
 10
-5.6849551512
 20
16.9494710566
 10
-5.693178525
 20
16.9486955732
 10
-5.701597873
 20
16.9477037077
 10
-5.7102093172
 20
16.9464954927
 10
-5.719044577
 20
16.9450528471
 10
-5.7281130303
 20
16.9433724472
 10
-5.73741229
 20
16.941458074
 10
-5.746957657
 20
16.9393024593
 10
-5.7567556243
 20
16.9369011448
 10
-5.766810705
 20
16.9342599164
 10
-5.777136106
 20
16.9313871645
 10
-5.7877347909
 20
16.9282799946
 10
-5.7986180257
 20
16.9249441849
 10
-5.8098114062
 20
16.9214015043
 10
-5.821312984
 20
16.9176534882
 10
-5.8453480685
 20
16.9095769184
  0
LWPOLYLINE
  5
53D
100
AcDbEntity
  8
ASSI
100
AcDbPolyline
 62
250
  6
CONTINUOUS
 90
21
 70
0
 10
-5.5865390989
 20
16.7980541153
 10
-5.5900344969
 20
16.798781401
 10
-5.5935056845
 20
16.7992395403
 10
-5.5969286296
 20
16.7994464431
 10
-5.6003188887
 20
16.7994039298
 10
-5.603741436
 20
16.7990942549
 10
-5.607228197
 20
16.7985333244
 10
-5.610763067
 20
16.7977175429
 10
-5.6143535906
 20
16.7965980858
 10
-5.6180187327
 20
16.7951917139
 10
-5.6217678446
 20
16.7934981814
 10
-5.6256072443
 20
16.791446818
 10
-5.6295693538
 20
16.7890567314
 10
-5.6336702446
 20
16.7863326009
 10
-5.6379097521
 20
16.7831889355
 10
-5.6423341882
 20
16.7796478797
 10
-5.6469730727
 20
16.7757235994
 10
-5.6518243012
 20
16.7713285265
 10
-5.6569506608
 20
16.7664906007
 10
-5.6624007895
 20
16.7612355815
 10
-5.6743767086
 20
16.7492714689
  0
LINE
  5
53E
100
AcDbEntity
  8
ASSI
100
AcDbLine
 62
250
  6
CONTINUOUS
 10
-8.3669657933
 20
17.4415731512
 11
-8.3240945767
 21
17.4298952766
  0
LWPOLYLINE
  5
53F
100
AcDbEntity
  8
ASSI
100
AcDbPolyline
 62
250
  6
CONTINUOUS
 90
3
 70
0
 10
-8.4896459006
 20
17.4745928642
 10
-8.4497268779
 20
17.463359323
 10
-8.3669657933
 20
17.4415731512
  0
LINE
  5
540
100
AcDbEntity
  8
ASSI
100
AcDbLine
 62
250
  6
CONTINUOUS
 10
-5.5830237828
 20
16.7970481108
 11
-5.5865390989
 21
16.7980541153
  0
LWPOLYLINE
  5
541
100
AcDbEntity
  8
ASSI
100
AcDbPolyline
 62
250
  6
CONTINUOUS
 90
11
 70
0
 10
-8.2346172411
 20
17.3999140268
 10
-8.1888291164
 20
17.3860962294
 10
-8.1422494674
 20
17.3729976975
 10
-8.0949701804
 20
17.3606810507
 10
-8.0472669148
 20
17.3493341468
 10
-7.9990109139
 20
17.3389153115
 10
-7.9503309344
 20
17.3294662193
 10
-7.9018889063
 20
17.321299751
 10
-7.8535290308
 20
17.3144007619
 10
-7.8054071067
 20
17.3087843967
 10
-7.7586524605
 20
17.3048089714
  0
LINE
  5
542
100
AcDbEntity
  8
ASSI
100
AcDbLine
 62
7
  6
CONTINUOUS
 10
-15.401232485
 20
18.3783122502
 11
-15.9032054224
 21
18.5406738713
  0
LINE
  5
543
100
AcDbEntity
  8
ASSI
100
AcDbLine
 62
250
  6
CONTINUOUS
 10
-8.2797057279
 20
17.4145137092
 11
-8.2346172411
 21
17.3999140268
  0
LWPOLYLINE
  5
544
100
AcDbEntity
  8
ASSI
100
AcDbPolyline
 62
250
  6
CONTINUOUS
 90
3
 70
0
 10
-8.5642693214
 20
17.4988941532
 10
-8.5282083507
 20
17.4864796083
 10
-8.4896459006
 20
17.4745928642
  0
LINE
  5
545
100
AcDbEntity
  8
ASSI
100
AcDbLine
 62
250
  6
CONTINUOUS
 10
-8.3240945767
 20
17.4298952766
 11
-8.2797057279
 21
17.4145137092
  0
LINE
  5
546
100
AcDbEntity
  8
ASSI
100
AcDbLine
 62
7
  6
CONTINUOUS
 10
-8.2886085114
 20
17.4259667815
 11
-8.3830663326
 21
17.4590536307
  0
LWPOLYLINE
  5
547
100
AcDbEntity
  8
ASSI
100
AcDbPolyline
 62
7
  6
CONTINUOUS
 90
8
 70
0
 10
-8.3830663326
 20
17.4590536307
 10
-8.4177956197
 20
17.4713566938
 10
-8.4505009805
 20
17.483452266
 10
-8.481066021
 20
17.4954664044
 10
-8.5095683439
 20
17.5075626313
 10
-8.5356419788
 20
17.5196684053
 10
-8.5592151071
 20
17.5316824553
 10
-8.5759938854
 20
17.5409970088
  0
LWPOLYLINE
  5
548
100
AcDbEntity
  8
ASSI
100
AcDbPolyline
 62
250
  6
CONTINUOUS
 90
8
 70
0
 10
-15.8421176603
 20
20.0734377627
 10
-15.8534022421
 20
20.0776887628
 10
-15.8655902786
 20
20.0800135433
 10
-15.878551181
 20
20.0803871825
 10
-15.8921460624
 20
20.0788056707
 10
-15.9062292542
 20
20.0752859543
 10
-15.9206498702
 20
20.0698657436
 10
-15.9352534021
 20
20.062603112
  0
LWPOLYLINE
  5
549
100
AcDbEntity
  8
RACCORDO
100
AcDbPolyline
 62
250
  6
CONTINUOUS
 90
10
 70
0
 10
-6.7926151953
 20
18.7937995204
 10
-6.8029174548
 20
18.7979976354
 10
-6.8131826881
 20
18.8026691635
 10
-6.8233908002
 20
18.8078001423
 10
-6.8335241591
 20
18.8133722283
 10
-6.8435607365
 20
18.8193726411
 10
-6.8534739975
 20
18.8257949268
 10
-6.8632421653
 20
18.8326254009
 10
-6.8728484227
 20
18.839842467
 10
-6.8822739427
 20
18.8474270709
  0
LWPOLYLINE
  5
54A
100
AcDbEntity
  8
RACCORDO
100
AcDbPolyline
 62
250
  6
CONTINUOUS
 90
7
 70
0
 10
25.6690131568
 20
5.7903402871
 10
25.6551001917
 20
5.7963962455
 10
25.6397190029
 20
5.7993822558
 10
25.6231279348
 20
5.7992500163
 10
25.6056108651
 20
5.7960017896
 10
25.5874675159
 20
5.7896931539
 10
25.5690083247
 20
5.7804320516
  0
LWPOLYLINE
  5
54B
100
AcDbEntity
  8
RACCORDO
100
AcDbPolyline
 62
250
  6
CONTINUOUS
 90
7
 70
0
 10
-10.0593274282
 20
19.7968388604
 10
-10.0720091691
 20
19.8024791695
 10
-10.0871077853
 20
19.8056873778
 10
-10.1034132508
 20
19.8058484276
 10
-10.1206527279
 20
19.8029596254
 10
-10.1385377459
 20
19.7970693063
 10
-10.1567690329
 20
19.7882760292
  0
LWPOLYLINE
  5
54C
100
AcDbEntity
  8
RACCORDO
100
AcDbPolyline
 62
250
  6
CONTINUOUS
 90
7
 70
0
 10
-1.6429207405
 20
14.9373111489
 10
-1.6556152864
 20
14.9429591038
 10
-1.6707141038
 20
14.9461676518
 10
-1.6870199562
 20
14.946329033
 10
-1.7042599931
 20
14.9434405237
 10
-1.7221457506
 20
14.9375504334
 10
-1.7403779452
 20
14.9287572973
  0
LWPOLYLINE
  5
54D
100
AcDbEntity
  8
RACCORDO
100
AcDbPolyline
 62
250
  6
CONTINUOUS
 90
6
 70
0
 10
-2.427371332
 20
15.3902431618
 10
-2.4401465341
 20
15.3959373338
 10
-2.4552454543
 20
15.3991457176
 10
-2.4715514084
 20
15.3993070495
 10
-2.4887915538
 20
15.3964186332
 10
-2.5066774247
 20
15.3905288065
  0
LWPOLYLINE
  5
54E
100
AcDbEntity
  8
RACCORDO
100
AcDbPolyline
 62
250
  6
CONTINUOUS
 90
7
 70
0
 10
-10.8437641484
 20
20.2497628919
 10
-10.8565393063
 20
20.2554570362
 10
-10.8716380651
 20
20.2586653295
 10
-10.8879437684
 20
20.258826521
 10
-10.9051835777
 20
20.2559379135
 10
-10.9230690248
 20
20.2500478413
 10
-10.941300838
 20
20.241254861
  0
LINE
  5
54F
100
AcDbEntity
  8
ASSI
100
AcDbLine
 62
250
  6
CONTINUOUS
 10
-2.8313372097
 20
19.1961588132
 11
-2.8134899804
 21
19.1871595908
  0
LWPOLYLINE
  5
550
100
AcDbEntity
  8
RACCORDO
100
AcDbPolyline
 62
250
  6
CONTINUOUS
 90
9
 70
0
 10
25.8690480972
 20
1.5924912355
 10
25.8636726229
 20
1.5952778823
 10
25.8521686526
 20
1.5993921675
 10
25.8397539431
 20
1.6015332042
 10
25.8265645128
 20
1.6016775347
 10
25.8127448676
 20
1.5998235776
 10
25.7984464184
 20
1.5959916453
 10
25.7838258222
 20
1.5902237212
 10
25.7690432652
 20
1.582583
  0
LWPOLYLINE
  5
551
100
AcDbEntity
  8
ASSI
100
AcDbPolyline
 62
250
  6
CONTINUOUS
 90
3
 70
0
 10
-6.1542753437
 20
21.1160871897
 10
-6.1714063699
 20
21.1250849277
 10
-6.1882758983
 20
21.131452705
  0
LWPOLYLINE
  5
552
100
AcDbEntity
  8
RACCORDO
100
AcDbPolyline
 62
7
  6
CONTINUOUS
 90
13
 70
0
 10
-10.6424450048
 20
20.3580333137
 10
-10.7058593191
 20
20.3924664404
 10
-10.7687442043
 20
20.4222693886
 10
-10.8310996605
 20
20.4474421584
 10
-10.8931924863
 20
20.4680684242
 10
-10.9547558831
 20
20.4840645116
 10
-11.0149894542
 20
20.495179397
 10
-11.0738624582
 20
20.5013199497
 10
-11.1314056365
 20
20.5025793004
 10
-11.1869108172
 20
20.4989858178
 10
-11.2401419428
 20
20.490548958
 10
-11.2913350707
 20
20.4772592649
 10
-11.340490201
 20
20.4591167384
  0
LWPOLYLINE
  5
553
100
AcDbEntity
  8
RACCORDO
100
AcDbPolyline
 62
7
  6
CONTINUOUS
 90
13
 70
0
 10
-10.8437524372
 20
20.2497561284
 10
-10.9006262246
 20
20.2807268558
 10
-10.9711744346
 20
20.3139954856
 10
-11.0414311835
 20
20.3414537742
 10
-11.1112881285
 20
20.363068188
 10
-11.1804257317
 20
20.3787553646
 10
-11.2482815072
 20
20.3884330166
 10
-11.3146918012
 20
20.3921584726
 10
-11.3793752484
 20
20.389992301
 10
-11.4415677466
 20
20.3820983051
 10
-11.5008486627
 20
20.3687906182
 10
-11.5571501293
 20
20.3503628037
 10
-11.5817194094
 20
20.3403700099
  0
LINE
  5
554
100
AcDbEntity
  8
RACCORDO
100
AcDbLine
 62
7
  6
CONTINUOUS
 10
-1.6199059945
 20
15.1485323681
 11
-1.9132866512
 21
15.3179266823
  0
LINE
  5
555
100
AcDbEntity
  8
RACCORDO
100
AcDbLine
 62
7
  6
CONTINUOUS
 10
-10.3490643481
 20
20.1886389994
 11
-10.6424450048
 21
20.3580333137
  0
LINE
  5
556
100
AcDbEntity
  8
ASSI
100
AcDbLine
 62
250
  6
CONTINUOUS
 10
-5.7747232522
 20
17.5503607951
 11
-7.8793153533
 21
18.7655258975
  0
LINE
  5
557
100
AcDbEntity
  8
ASSI
100
AcDbLine
 62
250
  6
CONTINUOUS
 10
-5.2436816058
 20
17.2809944387
 11
-5.6792668876
 21
17.5324959212
  0
LINE
  5
558
100
AcDbEntity
  8
ASSI
100
AcDbLine
 62
250
  6
CONTINUOUS
 10
-8.6346803682
 20
19.2389146249
 11
-9.0702656501
 21
19.4904161075
  0
LINE
  5
559
100
AcDbEntity
  8
RACCORDO
100
AcDbLine
 62
7
  6
CONTINUOUS
 10
23.9424977916
 20
0.6774894165
 11
23.9015742774
 21
0.7011181407
  0
LINE
  5
55A
100
AcDbEntity
  8
RACCORDO
100
AcDbLine
 62
250
  6
CONTINUOUS
 10
-5.2604302542
 20
17.8419767163
 11
-6.8822751152
 21
18.7784096125
  0
LINE
  5
55B
100
AcDbEntity
  8
RACCORDO
100
AcDbLine
 62
250
  6
CONTINUOUS
 10
-5.2022821937
 20
17.8755506777
 11
-6.7926242873
 21
18.7937942708
  0
LINE
  5
55C
100
AcDbEntity
  8
RACCORDO
100
AcDbLine
 62
250
  6
CONTINUOUS
 10
-4.9494914756
 20
18.0215088701
 11
-6.5398335691
 21
18.9397524633
  0
LINE
  5
55D
100
AcDbEntity
  8
RACCORDO
100
AcDbLine
 62
7
  6
CONTINUOUS
 10
-4.8616175052
 20
18.0722461993
 11
-6.3838549703
 21
18.9511670335
  0
LINE
  5
55E
100
AcDbEntity
  8
RACCORDO
100
AcDbLine
 62
250
  6
CONTINUOUS
 10
21.7599944934
 20
2.7946215644
 11
21.1738007741
 21
3.1330824712
  0
LINE
  5
55F
100
AcDbEntity
  8
ASSI
100
AcDbLine
 62
250
  6
CONTINUOUS
 10
-4.8029834515
 20
19.0748414819
 11
-3.9640834319
 21
18.5904711245
  0
LINE
  5
560
100
AcDbEntity
  8
ASSI
100
AcDbLine
 62
250
  6
CONTINUOUS
 10
-4.7176802826
 20
19.1514099434
 11
-3.8551258867
 21
18.6533818455
  0
LINE
  5
561
100
AcDbEntity
  8
RACCORDO
100
AcDbLine
 62
250
  6
CONTINUOUS
 10
25.5690083247
 20
1.6980806676
 11
25.7690432652
 21
1.582583
  0
LINE
  5
562
100
AcDbEntity
  8
RACCORDO
100
AcDbLine
 62
7
  6
CONTINUOUS
 10
25.6690131568
 20
1.7079889031
 11
25.8690480972
 21
1.5924912355
  0
LINE
  5
563
100
AcDbEntity
  8
ASSI
100
AcDbLine
 62
7
  6
CONTINUOUS
 10
-3.974526741
 20
19.610987241
 11
-3.0855691424
 21
19.0977142649
  0
LINE
  5
564
100
AcDbEntity
  8
ASSI
100
AcDbLine
 62
250
  6
CONTINUOUS
 10
-2.4281180977
 20
18.9646506956
 11
-2.8134899804
 21
19.1871595908
  0
LINE
  5
565
100
AcDbEntity
  8
ASSI
100
AcDbLine
 62
250
  6
CONTINUOUS
 10
-5.768903461
 20
20.8935782945
 11
-6.1542753437
 21
21.1160871897
  0
LINE
  5
566
100
AcDbEntity
  8
ASSI
100
AcDbLine
 62
250
  6
CONTINUOUS
 10
-2.3369413695
 20
19.0037653608
 11
-2.7223624446
 21
19.2263026591
  0
LINE
  5
567
100
AcDbEntity
  8
ASSI
100
AcDbLine
 62
250
  6
CONTINUOUS
 10
-5.6770182949
 20
20.9322839166
 11
-6.0624393701
 21
21.1548212149
  0
LINE
  5
568
100
AcDbEntity
  8
RACCORDO
100
AcDbLine
 62
250
  6
CONTINUOUS
 10
-4.1359747615
 20
20.0732839151
 11
-2.7320438966
 21
19.2626718291
  0
LINE
  5
569
100
AcDbEntity
  8
0
100
AcDbLine
 62
7
  6
CONTINUOUS
 10
17.7528928914
 20
7.6796915578
 11
17.829629413
 21
7.6353848519
  0
LINE
  5
56A
100
AcDbEntity
  8
RACCORDO
100
AcDbLine
 62
250
  6
CONTINUOUS
 10
-3.9434485863
 20
20.438872612
 11
-2.1760170944
 21
19.4183798197
  0
LINE
  5
56B
100
AcDbEntity
  8
RACCORDO
100
AcDbLine
 62
7
  6
CONTINUOUS
 10
23.9424977916
 20
4.7598408005
 11
23.9015742774
 21
4.7834695247
  0
LINE
  5
56C
100
AcDbEntity
  8
RACCORDO
100
AcDbLine
 62
7
  6
CONTINUOUS
 10
20.7260036327
 20
2.6813123204
 11
20.7250074328
 21
2.6818886403
  0
LWPOLYLINE
  5
56D
100
AcDbEntity
  8
RACCORDO
100
AcDbPolyline
 62
7
  6
CONTINUOUS
 90
37
 70
0
 10
20.7249797128
 20
2.6819049468
 10
20.7029241371
 20
2.6954122859
 10
20.6452825644
 20
2.7381515676
 10
20.5920330882
 20
2.7892162591
 10
20.5432398662
 20
2.8488712137
 10
20.4994112346
 20
2.9168329192
 10
20.4608705509
 20
2.9928543685
 10
20.4279175216
 20
3.0767423335
 10
20.4009449462
 20
3.1678017694
 10
20.3803009532
 20
3.2647924324
 10
20.3660943402
 20
3.3665500675
 10
20.3581964302
 20
3.4726855842
 10
20.3565282758
 20
3.5832213186
 10
20.3610873778
 20
3.6974779704
 10
20.3718020525
 20
3.8148561106
 10
20.3887441405
 20
3.9358073164
 10
20.4120383831
 20
4.0602001466
 10
20.4416129653
 20
4.1870383609
 10
20.4773704584
 20
4.3155974218
 10
20.5192114261
 20
4.4452608178
 10
20.5669857382
 20
4.5754110022
 10
20.6204699022
 20
4.7053369339
 10
20.6794524582
 20
4.8344198026
 10
20.7436712461
 20
4.9620355054
 10
20.8127817919
 20
5.0874827772
 10
20.8864691346
 20
5.2101638369
 10
20.9643792495
 20
5.3294973011
 10
21.0460638276
 20
5.4448319266
 10
21.1311216549
 20
5.5556277932
 10
21.2191257143
 20
5.6613825508
 10
21.3095427205
 20
5.76153692
 10
21.4019094661
 20
5.8556505543
 10
21.4957454292
 20
5.9433260922
 10
21.5904472698
 20
6.024125288
 10
21.685469935
 20
6.0977141222
 10
21.7803353797
 20
6.1638817114
 10
21.8620901237
 20
6.2151126384
  0
LWPOLYLINE
  5
56E
100
AcDbEntity
  8
RACCORDO
100
AcDbPolyline
 62
7
  6
CONTINUOUS
 90
20
 70
0
 10
25.6690299838
 20
1.7079791842
 10
25.6575954454
 20
1.7151246719
 10
25.6450037706
 20
1.7241765835
 10
25.631341128
 20
1.7353275373
 10
25.6168546715
 20
1.7486394736
 10
25.601980859
 20
1.7639445561
 10
25.5869601697
 20
1.7811974436
 10
25.5721153872
 20
1.8002106484
 10
25.5579526139
 20
1.8204512866
 10
25.5447235305
 20
1.8415885873
 10
25.53257952
 20
1.8633713658
 10
25.5217677372
 20
1.8853017105
 10
25.5123990166
 20
1.9070136987
 10
25.5044983924
 20
1.9282437518
 10
25.4980954018
 20
1.948647443
 10
25.493155103
 20
1.9679668031
 10
25.4896149286
 20
1.9859245466
 10
25.4873862373
 20
2.0021574446
 10
25.486301736
 20
2.0165377311
 10
25.4861225246
 20
2.0247285568
  0
LWPOLYLINE
  5
56F
100
AcDbEntity
  8
ASSI
100
AcDbPolyline
 62
250
  6
CONTINUOUS
 90
13
 70
0
 10
-2.4281180977
 20
18.9646506956
 10
-2.4103760344
 20
18.9535131488
 10
-2.3929047961
 20
18.9400529978
 10
-2.3759710738
 20
18.924475706
 10
-2.3598333536
 20
18.9070190541
 10
-2.3447379708
 20
18.8879495106
 10
-2.3309153501
 20
18.8675581638
 10
-2.318576488
 20
18.8461562789
 10
-2.3079097317
 20
18.8240705467
 10
-2.2990779049
 20
18.8016380963
 10
-2.2922158217
 20
18.7792013495
 10
-2.2874282287
 20
18.7571027938
 10
-2.2847882067
 20
18.7356797542
  0
LWPOLYLINE
  5
570
100
AcDbEntity
  8
RACCORDO
100
AcDbPolyline
 62
250
  6
CONTINUOUS
 90
4
 70
0
 10
25.7690432652
 20
1.582583
 10
25.8042126811
 20
1.560421107
 10
25.8356123113
 20
1.5368873617
 10
25.8632421558
 20
1.5119817641
  0
LWPOLYLINE
  5
571
100
AcDbEntity
  8
RACCORDO
100
AcDbPolyline
 62
250
  6
CONTINUOUS
 90
13
 70
0
 10
-6.5398335691
 20
18.9397524633
 10
-6.562142418
 20
18.9542652159
 10
-6.5840945789
 20
18.9718097406
 10
-6.6053390375
 20
18.9921055135
 10
-6.6255360895
 20
19.0148280113
 10
-6.6443627855
 20
19.039613915
 10
-6.6615180915
 20
19.0660669226
 10
-6.6767276846
 20
19.0937640601
 10
-6.6897483488
 20
19.1222624507
 10
-6.7003718725
 20
19.1511064145
 10
-6.7084283671
 20
19.1798347339
 10
-6.7137889879
 20
19.2079880285
 10
-6.7163679981
 20
19.2351161111
  0
LWPOLYLINE
  5
572
100
AcDbEntity
  8
RACCORDO
100
AcDbPolyline
 62
250
  6
CONTINUOUS
 90
13
 70
0
 10
-3.9434485863
 20
20.438872612
 10
-3.965757623
 20
20.4533855004
 10
-3.987709936
 20
20.4709301868
 10
-4.0089545055
 20
20.4912261298
 10
-4.0291516288
 20
20.5139487952
 10
-4.0479783519
 20
20.5387348454
 10
-4.0651336334
 20
20.5651879489
 10
-4.0803431588
 20
20.592885118
 10
-4.0933637262
 20
20.621383472
 10
-4.1039871354
 20
20.6502273195
 10
-4.1120435171
 20
20.6789554444
 10
-4.1174040489
 20
20.7071084811
 10
-4.1199830153
 20
20.7342362598
  0
LWPOLYLINE
  5
573
100
AcDbEntity
  8
RACCORDO
100
AcDbPolyline
 62
250
  6
CONTINUOUS
 90
13
 70
0
 10
-2.9517757367
 20
21.0114520868
 10
-2.9740847302
 20
21.0259649436
 10
-2.9960370107
 20
21.0435095947
 10
-3.0172815596
 20
21.0638055037
 10
-3.0374786745
 20
21.0865281414
 10
-3.0563054001
 20
21.1113141734
 10
-3.0734606922
 20
21.137767269
 10
-3.0886702344
 20
21.1654644422
 10
-3.1016908221
 20
21.1939628128
 10
-3.1123142511
 20
21.2228066854
 10
-3.1203706497
 20
21.2515348417
 10
-3.1257311937
 20
21.2796879154
 10
-3.1283101657
 20
21.3068157346
  0
LWPOLYLINE
  5
574
100
AcDbEntity
  8
ASSI
100
AcDbPolyline
 62
250
  6
CONTINUOUS
 90
13
 70
0
 10
-2.3369413695
 20
19.0037653608
 10
-2.3198956164
 20
18.9923187532
 10
-2.3036670695
 20
18.978321937
 10
-2.2885029325
 20
18.9619881208
 10
-2.2746341956
 20
18.9435661121
 10
-2.2622721165
 20
18.9233365269
 10
-2.2516050026
 20
18.9016075158
 10
-2.2427953423
 20
18.8787100692
 10
-2.2359773301
 20
18.8549929761
 10
-2.2312548226
 20
18.8308175109
 10
-2.228699756
 20
18.8065519301
 10
-2.2283510508
 20
18.7825658631
 10
-2.2302140188
 20
18.7592246813
  0
LWPOLYLINE
  5
575
100
AcDbEntity
  8
ASSI
100
AcDbPolyline
 62
250
  6
CONTINUOUS
 90
13
 70
0
 10
-0.8064084215
 20
19.4063268873
 10
-0.7893626683
 20
19.3948802797
 10
-0.7731341212
 20
19.3808834633
 10
-0.7579699842
 20
19.3645496469
 10
-0.7441012473
 20
19.3461276381
 10
-0.7317391682
 20
19.3258980529
 10
-0.7210720543
 20
19.3041690417
 10
-0.7122623941
 20
19.2812715951
 10
-0.705444382
 20
19.257554502
 10
-0.7007218745
 20
19.2333790369
 10
-0.698166808
 20
19.2091134563
 10
-0.6978181029
 20
19.1851273894
 10
-0.6996810708
 20
19.1617862079
  0
LWPOLYLINE
  5
576
100
AcDbEntity
  8
ASSI
100
AcDbPolyline
 62
250
  6
CONTINUOUS
 90
6
 70
0
 10
-4.4888370523
 20
21.5784042364
 10
-4.501311965
 20
21.5875503637
 10
-4.5141236176
 20
21.5940725123
 10
-4.527093203
 20
21.5978796551
 10
-4.5400397099
 20
21.5989186571
 10
-4.5438495114
 20
21.5986913225
  0
LWPOLYLINE
  5
577
100
AcDbEntity
  8
RACCORDO
100
AcDbPolyline
 62
250
  6
CONTINUOUS
 90
11
 70
0
 10
2.996007009
 20
17.2055000013
 10
3.0584272726
 20
17.1578132463
 10
3.1200499733
 20
17.106236962
 10
3.1807552208
 20
17.0508821999
 10
3.2405919
 20
16.9916450026
 10
3.2993266028
 20
16.9286990357
 10
3.3567371821
 20
16.8622249811
 10
3.4128436095
 20
16.7920557752
 10
3.4674637617
 20
16.7182461597
 10
3.5202455908
 20
16.6411265052
 10
3.5709205882
 20
16.5609349219
  0
LINE
  5
578
100
AcDbEntity
  8
RACCORDO
100
AcDbLine
 62
7
  6
CONTINUOUS
 10
17.7528928914
 20
18.8849585025
 11
17.7528928914
 21
7.5163896114
  0
LINE
  5
579
100
AcDbEntity
  8
0
100
AcDbLine
 62
7
  6
CONTINUOUS
 10
17.829629413
 20
7.6353848519
 11
17.829629413
 21
19.3757193703
  0
LWPOLYLINE
  5
57A
100
AcDbEntity
  8
ASSI
100
AcDbPolyline
 62
250
  6
CONTINUOUS
 90
3
 70
0
 10
-4.2573163508
 20
-25.6112337537
 10
-4.277439756
 20
-25.6266220025
 10
-4.2807647901
 20
-25.6287329497
  0
LWPOLYLINE
  5
57B
100
AcDbEntity
  8
RACCORDO
100
AcDbPolyline
 62
250
  6
CONTINUOUS
 90
3
 70
0
 10
25.5361795784
 20
-4.5783322417
 10
25.5637064507
 20
-4.5574779711
 10
25.5908563146
 20
-4.5356497601
  0
LWPOLYLINE
  5
57C
100
AcDbEntity
  8
RACCORDO
100
AcDbPolyline
 62
7
  6
CONTINUOUS
 90
8
 70
0
 10
25.5505904052
 20
-4.5706490244
 10
25.5629880993
 20
-4.5619429478
 10
25.6083712945
 20
-4.5287690351
 10
25.6534784098
 20
-4.4937091415
 10
25.6982480158
 20
-4.4567707129
 10
25.7426068091
 20
-4.4179724055
 10
25.7865055539
 20
-4.3773177216
 10
25.8163385813
 20
-4.3483450463
  0
LINE
  5
57D
100
AcDbEntity
  8
RACCORDO
100
AcDbLine
 62
250
  6
CONTINUOUS
 10
25.3819215624
 20
-4.6854273402
 11
25.5361795783
 21
-4.5783322415
  0
LWPOLYLINE
  5
57E
100
AcDbEntity
  8
ASSI
100
AcDbPolyline
 62
7
  6
CONTINUOUS
 90
10
 70
0
 10
-4.2811432692
 20
-25.6289606971
 10
-4.2562479058
 20
-25.6118245676
 10
-4.22785396
 20
-25.5871748128
 10
-4.2020888533
 20
-25.5584849284
 10
-4.1794006092
 20
-25.525842531
 10
-4.1603277682
 20
-25.4896300883
 10
-4.1453365095
 20
-25.4504510112
 10
-4.1346297309
 20
-25.4086457379
 10
-4.1282982198
 20
-25.364424547
 10
-4.1264424612
 20
-25.3229080401
  0
LINE
  5
57F
100
AcDbEntity
  8
RACCORDO
100
AcDbLine
 62
250
  6
CONTINUOUS
 10
25.227584102
 20
-4.7915249748
 11
25.2685122292
 21
-4.7652994979
  0
LINE
  5
580
100
AcDbEntity
  8
RACCORDO
100
AcDbLine
 62
250
  6
CONTINUOUS
 10
25.0731697561
 20
-4.8966235199
 11
25.0986411309
 21
-4.880862913
  0
LINE
  5
581
100
AcDbEntity
  8
RACCORDO
100
AcDbLine
 62
250
  6
CONTINUOUS
 10
24.918682549
 20
-5.0007202228
 11
24.9290548336
 21
-4.9949925961
  0
LINE
  5
582
100
AcDbEntity
  8
RACCORDO
100
AcDbLine
 62
250
  6
CONTINUOUS
 10
4.9320659416
 20
-17.0413028174
 11
4.9334389713
 21
-17.0400290794
  0
LWPOLYLINE
  5
583
100
AcDbEntity
  8
RACCORDO
100
AcDbPolyline
 62
250
  6
CONTINUOUS
 90
8
 70
0
 10
25.8875606058
 20
-4.1312038813
 10
25.9336145291
 20
-4.1006496207
 10
25.9751621308
 20
-4.0668179787
 10
26.0118931233
 20
-4.0299616208
 10
26.0435331917
 20
-3.9903558013
 10
26.0698460407
 20
-3.9482963094
 10
26.0906351599
 20
-3.90409726
 10
26.1068919961
 20
-3.8535917004
  0
LWPOLYLINE
  5
584
100
AcDbEntity
  8
RACCORDO
100
AcDbPolyline
 62
7
  6
CONTINUOUS
 90
7
 70
0
 10
24.4220814521
 20
-5.3288130788
 10
24.5907674337
 20
-5.2189641455
 10
24.7597611642
 20
-5.1076917861
 10
24.9290548336
 20
-4.9949925961
 10
25.0986411309
 20
-4.880862913
 10
25.2685122292
 20
-4.7652994979
 10
25.5505880398
 20
-4.5706506712
  0
LWPOLYLINE
  5
585
100
AcDbEntity
  8
RACCORDO
100
AcDbPolyline
 62
250
  6
CONTINUOUS
 90
3
 70
0
 10
4.7973090501
 20
-17.1306084052
 10
4.8265351798
 20
-17.1113214483
 10
4.8459097975
 20
-17.0987736923
  0
LWPOLYLINE
  5
586
100
AcDbEntity
  8
RACCORDO
100
AcDbPolyline
 62
250
  6
CONTINUOUS
 90
10
 70
0
 10
25.9183076826
 20
-3.854654861
 10
25.9643423879
 20
-3.8248455634
 10
26.0057452453
 20
-3.7928516455
 10
26.0422067275
 20
-3.7589122935
 10
26.0734542487
 20
-3.7232812376
 10
26.0992542029
 20
-3.6862248552
 10
26.1194137099
 20
-3.6480201795
 10
26.1337820574
 20
-3.6089528281
 10
26.1422518277
 20
-3.5693148683
 10
26.1447791963
 20
-3.5326385889
  0
LINE
  5
587
100
AcDbEntity
  8
RACCORDO
100
AcDbLine
 62
7
  6
CONTINUOUS
 10
24.1508640787
 20
-5.5028781524
 11
24.4220814521
 21
-5.3288130788
  0
LINE
  5
588
100
AcDbEntity
  8
RACCORDO
100
AcDbLine
 62
7
  6
CONTINUOUS
 10
24.1505948728
 20
-5.5030492832
 11
24.150682172
 21
-5.5029936744
  0
LINE
  5
589
100
AcDbEntity
  8
RACCORDO
100
AcDbLine
 62
250
  6
CONTINUOUS
 10
24.1333171835
 20
-5.5137227353
 11
24.1508640787
 21
-5.5028781524
  0
LINE
  5
58A
100
AcDbEntity
  8
RACCORDO
100
AcDbLine
 62
250
  6
CONTINUOUS
 10
4.6217435989
 20
-17.2421268472
 11
4.6504318541
 21
-17.2243081134
  0
LWPOLYLINE
  5
58B
100
AcDbEntity
  8
RACCORDO
100
AcDbPolyline
 62
250
  6
CONTINUOUS
 90
3
 70
0
 10
4.6995696961
 20
-17.1933758349
 10
4.7216701504
 20
-17.179241131
 10
4.7485288436
 20
-17.1621425544
  0
LWPOLYLINE
  5
58C
100
AcDbEntity
  8
0
100
AcDbPolyline
 62
7
  6
CONTINUOUS
 90
10
 70
0
 10
-2.3832176165
 20
-21.4749990372
 10
-2.2338582535
 20
-21.3825737645
 10
-2.086131175
 20
-21.2873855616
 10
-1.9400540643
 20
-21.1894450405
 10
-1.7956466225
 20
-21.0887647255
 10
-1.6529238498
 20
-20.9853543992
 10
-1.5118962876
 20
-20.8792206663
 10
-1.3725788577
 20
-20.7703733552
 10
-1.2349906153
 20
-20.6588259505
 10
-1.0991482027
 20
-20.5445906355
  0
LINE
  5
58D
100
AcDbEntity
  8
ASSI
100
AcDbLine
 62
250
  6
CONTINUOUS
 10
-4.1825744937
 20
-25.403093948
 11
-5.0705153279
 21
-25.9522098792
  0
LINE
  5
58E
100
AcDbEntity
  8
ASSI
100
AcDbLine
 62
7
  6
CONTINUOUS
 10
-4.280766664
 20
-25.6287341085
 11
-5.0705153279
 21
-26.1171265288
  0
LINE
  5
58F
100
AcDbEntity
  8
RACCORDO
100
AcDbLine
 62
7
  6
CONTINUOUS
 10
24.1509550698
 20
-5.5028201956
 11
24.132990136
 21
-5.5139187639
  0
LINE
  5
590
100
AcDbEntity
  8
RACCORDO
100
AcDbLine
 62
250
  6
CONTINUOUS
 10
4.5184025121
 20
-17.3053954478
 11
4.5516224275
 21
-17.2852682651
  0
LINE
  5
591
100
AcDbEntity
  8
RACCORDO
100
AcDbLine
 62
250
  6
CONTINUOUS
 10
4.6011158341
 20
-17.2549390816
 11
4.6164491374
 21
-17.2454153219
  0
LINE
  5
592
100
AcDbEntity
  8
ASSI
100
AcDbLine
 62
7
  6
CONTINUOUS
 10
-2.3832176164
 20
-21.4749990373
 11
-5.0705153279
 21
-23.1041743142
  0
LINE
  5
593
100
AcDbEntity
  8
0
100
AcDbLine
 62
250
  6
CONTINUOUS
 10
-5.0705153279
 20
-22.7862798676
 11
-1.0384579853
 21
-20.3463694417
  0
LINE
  5
594
100
AcDbEntity
  8
0
100
AcDbLine
 62
250
  6
CONTINUOUS
 10
-5.0705153279
 20
-22.9497775178
 11
-1.1166417265
 21
-20.5572478799
  0
LWPOLYLINE
  5
595
100
AcDbEntity
  8
RACCORDO
100
AcDbPolyline
 62
7
  6
CONTINUOUS
 90
10
 70
0
 10
4.5019522926
 20
-17.3152952798
 10
4.5516224275
 20
-17.2852682651
 10
4.6011158341
 20
-17.2549390816
 10
4.6504318541
 20
-17.2243081134
 10
4.6995696961
 20
-17.1933758349
 10
4.7485288436
 20
-17.1621425544
 10
4.7973090501
 20
-17.1306084052
 10
4.8459097975
 20
-17.0987736923
 10
4.8943303005
 20
-17.0666388997
 10
4.9320659416
 20
-17.0413028174
  0
LINE
  5
596
100
AcDbEntity
  8
RACCORDO
100
AcDbLine
 62
250
  6
CONTINUOUS
 10
24.1333171812
 20
-5.5137227367
 11
24.1451733404
 21
-5.5061747944
  0
LINE
  5
597
100
AcDbEntity
  8
RACCORDO
100
AcDbLine
 62
7
  6
CONTINUOUS
 10
4.9318025725
 20
-17.0414705726
 11
24.1333171812
 21
-5.5137227367
  0
LINE
  5
598
100
AcDbEntity
  8
DRAFT
100
AcDbLine
 62
7
  6
CONTINUOUS
 10
4.5019522926
 20
-17.3152952799
 11
-1.8754891974
 21
-21.1444306627
  0
LINE
  5
599
100
AcDbEntity
  8
RACCORDO
100
AcDbLine
 62
250
  6
CONTINUOUS
 10
-0.8632299798
 20
-19.9134327711
 11
25.9183076826
 21
-3.854654861
  0
LINE
  5
59A
100
AcDbEntity
  8
RACCORDO
100
AcDbLine
 62
250
  6
CONTINUOUS
 10
-1.1037266791
 20
-20.55110632
 11
25.5361795783
 21
-4.5783322415
  0
LWPOLYLINE
  5
59B
100
AcDbEntity
  8
RACCORDO
100
AcDbPolyline
 62
7
  6
CONTINUOUS
 90
10
 70
0
 10
-4.4247755285
 20
-22.5880931246
 10
-4.4051266289
 20
-22.5765050622
 10
-4.3871546655
 20
-22.5662278447
 10
-4.3710486975
 20
-22.5573706354
 10
-4.3569591614
 20
-22.550037676
 10
-4.3450570134
 20
-22.5443103038
 10
-4.3355102956
 20
-22.5402334232
 10
-4.3284044689
 20
-22.5378630837
 10
-4.3237749243
 20
-22.5372130371
 10
-4.3217454664
 20
-22.5381103917
  0
LINE
  5
59C
100
AcDbEntity
  8
ASSI
100
AcDbLine
 62
7
  6
CONTINUOUS
 10
-4.6832009498
 20
-23.8243284963
 11
-5.0705153279
 21
-24.0479597319
  0
LINE
  5
59D
100
AcDbEntity
  8
RACCORDO
100
AcDbLine
 62
250
  6
CONTINUOUS
 10
24.1451733453
 20
-5.5061747914
 11
24.1505948728
 21
-5.5030492832
  0
LINE
  5
59E
100
AcDbEntity
  8
ASSI
100
AcDbLine
 62
7
  6
CONTINUOUS
 10
-5.0705153279
 20
-23.6092120031
 11
-5.0629572643
 21
-23.6050619598
  0
LINE
  5
59F
100
AcDbEntity
  8
ASSI
100
AcDbLine
 62
250
  6
CONTINUOUS
 10
-2.7223624446
 20
19.2263026591
 11
-0.1647907124
 21
19.9425169741
  0
LINE
  5
5A0
100
AcDbEntity
  8
ASSI
100
AcDbLine
 62
7
  6
CONTINUOUS
 10
-2.81289755
 20
19.2400298272
 11
-0.2474687045
 21
19.9584444233
  0
LWPOLYLINE
  5
5A1
100
AcDbEntity
  8
ASSI
100
AcDbPolyline
 62
250
  6
CONTINUOUS
 90
13
 70
0
 10
-0.8064084215
 20
19.4063268873
 10
-0.8021675203
 20
19.4074758334
 10
-0.7979934261
 20
19.4086831973
 10
-0.793886139
 20
19.4099489791
 10
-0.7898570629
 20
19.4112657569
 10
-0.7858947938
 20
19.4126409526
 10
-0.78196512
 20
19.4140968316
 10
-0.7780593172
 20
19.4156322187
 10
-0.7741861096
 20
19.4172482892
 10
-0.7703374582
 20
19.4189708348
 10
-0.7665106832
 20
19.4208084528
 10
-0.7627084644
 20
19.4227525459
 10
-0.7589308018
 20
19.4248031141
  0
LINE
  5
5A2
100
AcDbEntity
  8
ASSI
100
AcDbLine
 62
250
  6
CONTINUOUS
 10
-2.2302140188
 20
18.7592246813
 11
-0.6996810708
 21
19.1617862079
  0
LINE
  5
5A3
100
AcDbEntity
  8
ASSI
100
AcDbLine
 62
250
  6
CONTINUOUS
 10
-2.3369413695
 20
19.0037653608
 11
-0.8064084215
 21
19.4063268873
  0
LWPOLYLINE
  5
5A4
100
AcDbEntity
  8
RACCORDO
100
AcDbPolyline
 62
7
  6
CONTINUOUS
 90
8
 70
0
 10
-0.2474583792
 20
19.9584224183
 10
-0.2359416412
 20
19.9606974869
 10
-0.2249050431
 20
19.9612156406
 10
-0.2133534703
 20
19.9602784269
 10
-0.2015408574
 20
19.9579350346
 10
-0.1895518492
 20
19.9542018597
 10
-0.1773018009
 20
19.9490625063
 10
-0.1647907124
 20
19.9425169741
  0
LWPOLYLINE
  5
5A5
100
AcDbEntity
  8
ASSI
100
AcDbPolyline
 62
250
  6
CONTINUOUS
 90
6
 70
0
 10
-2.81289755
 20
19.2400298272
 10
-2.7964911647
 20
19.2432099912
 10
-2.7781201061
 20
19.2436443699
 10
-2.7594420354
 20
19.2409340295
 10
-2.7407563187
 20
19.2351224103
 10
-2.7223624446
 20
19.2263026591
  0
LWPOLYLINE
  5
5A6
100
AcDbEntity
  8
ASSI
100
AcDbPolyline
 62
250
  6
CONTINUOUS
 90
9
 70
0
 10
-6.121618784
 20
17.385016826
 10
-6.0870195267
 20
17.387847176
 10
-6.0524206014
 20
17.3923750352
 10
-6.017895577
 20
17.3984998667
 10
-5.9839078643
 20
17.406026162
 10
-5.9501347393
 20
17.4149132273
 10
-5.9154286391
 20
17.425455519
 10
-5.8796908413
 20
17.437769024
 10
-5.8430767412
 20
17.4518715029
  0
LINE
  5
5A7
100
AcDbEntity
  8
ASSI
100
AcDbLine
 62
250
  6
CONTINUOUS
 10
-11.4688885128
 20
19.2410431892
 11
-11.4616847841
 21
19.2415005391
  0
LWPOLYLINE
  5
5A8
100
AcDbEntity
  8
ASSI
100
AcDbPolyline
 62
250
  6
CONTINUOUS
 90
16
 70
0
 10
-7.6460969443
 20
16.8384955441
 10
-7.6532475875
 20
16.8380842138
 10
-7.6602506256
 20
16.8373908717
 10
-7.6671060584
 20
16.8364155178
 10
-7.6738221378
 20
16.8351305141
 10
-7.680390612
 20
16.8335634986
 10
-7.6867867256
 20
16.8317973856
 10
-7.6930082669
 20
16.8298352107
 10
-7.6990574476
 20
16.8276739382
 10
-7.7049161469
 20
16.8253873758
 10
-7.710582627
 20
16.8229781331
 10
-7.7160586258
 20
16.8204436006
 10
-7.7213312356
 20
16.8178497564
 10
-7.726396154
 20
16.8152185934
 10
-7.7312576836
 20
16.8125281187
 10
-7.7359158243
 20
16.8097783324
  0
LWPOLYLINE
  5
5A9
100
AcDbEntity
  8
ASSI
100
AcDbPolyline
 62
250
  6
CONTINUOUS
 90
16
 70
0
 10
-7.7296595876
 20
17.0866759639
 10
-7.7414373646
 20
17.0860152453
 10
-7.7530367472
 20
17.0847959097
 10
-7.7644296724
 20
17.0830677327
 10
-7.7755849585
 20
17.080879289
 10
-7.7864852346
 20
17.0782785417
 10
-7.7971271923
 20
17.0753110329
 10
-7.8074953124
 20
17.0720192873
 10
-7.8175708805
 20
17.0684456806
 10
-7.8273492549
 20
17.0646313555
 10
-7.8368201081
 20
17.0606138366
 10
-7.8459707066
 20
17.0564304462
 10
-7.8547953471
 20
17.0521192421
 10
-7.8632874196
 20
17.0477147826
 10
-7.8714392997
 20
17.043248026
 10
-7.8792457154
 20
17.0387492738
  0
LINE
  5
5AA
100
AcDbEntity
  8
ASSI
100
AcDbLine
 62
250
  6
CONTINUOUS
 10
-7.6277215162
 20
17.3030866502
 11
-6.121618784
 21
17.385016826
  0
LINE
  5
5AB
100
AcDbEntity
  8
ASSI
100
AcDbLine
 62
7
  6
CONTINUOUS
 10
-7.6990101555
 20
17.3202502843
 11
-6.1922497291
 21
17.4022180245
  0
LINE
  5
5AC
100
AcDbEntity
  8
ASSI
100
AcDbLine
 62
250
  6
CONTINUOUS
 10
-11.4616847841
 20
19.2415005391
 11
-9.5175679608
 21
19.3457953194
  0
LINE
  5
5AD
100
AcDbEntity
  8
ASSI
100
AcDbLine
 62
7
  6
CONTINUOUS
 10
-11.5323859329
 20
19.2586978276
 11
-9.5880540563
 21
19.3630043449
  0
LWPOLYLINE
  5
5AE
100
AcDbEntity
  8
ASSI
100
AcDbPolyline
 62
250
  6
CONTINUOUS
 90
16
 70
0
 10
-10.6703966689
 20
19.0598891497
 10
-10.7075790285
 20
19.0580143975
 10
-10.7412850688
 20
19.0548272742
 10
-10.7715147898
 20
19.0503277798
 10
-10.7981869331
 20
19.0444760113
 10
-10.8213827571
 20
19.0373118717
 10
-10.8413460364
 20
19.0289550701
 10
-10.8582083862
 20
19.0194899439
 10
-10.8718381913
 20
19.0088321557
 10
-10.8820843807
 20
18.996848402
 10
-10.889080066
 20
18.9834406472
 10
-10.8926921355
 20
18.9687069269
 10
-10.8923701837
 20
18.9528080443
 10
-10.8879307421
 20
18.9357976006
 10
-10.8795572792
 20
18.9176219946
 10
-10.867249795
 20
18.8982812264
  0
LWPOLYLINE
  5
5AF
100
AcDbEntity
  8
ASSI
100
AcDbPolyline
 62
250
  6
CONTINUOUS
 90
10
 70
0
 10
-7.8793153533
 20
18.7655258975
 10
-7.8939994031
 20
18.7648060398
 10
-7.9092154222
 20
18.7631307167
 10
-7.9249499778
 20
18.7604454964
 10
-7.9411062775
 20
18.7567226203
 10
-7.9577398422
 20
18.751895664
 10
-7.9750676653
 20
18.7458085036
 10
-7.9931458315
 20
18.7383262324
 10
-8.0118593519
 20
18.7293877929
 10
-8.0311638981
 20
18.7189054988
  0
LWPOLYLINE
  5
5B0
100
AcDbEntity
  8
ASSI
100
AcDbPolyline
 62
250
  6
CONTINUOUS
 90
10
 70
0
 10
-7.9607756488
 20
19.0210262942
 10
-7.9811882034
 20
19.0200344963
 10
-8.0023164706
 20
19.0175667069
 10
-8.0241604502
 20
19.0136229257
 10
-8.0466409886
 20
19.0083427084
 10
-8.0698372394
 20
19.0015864995
 10
-8.093986664
 20
18.9929356325
 10
-8.119168416
 20
18.982250552
 10
-8.1453033418
 20
18.9696708135
 10
-8.1723914413
 20
18.955196417
  0
LWPOLYLINE
  5
5B1
100
AcDbEntity
  8
ASSI
100
AcDbPolyline
 62
7
  6
CONTINUOUS
 90
13
 70
0
 10
-7.6990101556
 20
17.3202502843
 10
-7.7279708332
 20
17.3193587502
 10
-7.7669993312
 20
17.3198645501
 10
-7.8102050362
 20
17.3222278192
 10
-7.8569070141
 20
17.3265276507
 10
-7.9062900137
 20
17.3327440379
 10
-7.9579115764
 20
17.3408605604
 10
-8.0113711699
 20
17.3508499645
 10
-8.0661286194
 20
17.3626378395
 10
-8.1217013834
 20
17.3761460456
 10
-8.1776083576
 20
17.3912745146
 10
-8.2334351884
 20
17.4079307124
 10
-8.2886085114
 20
17.4259667815
  0
LINE
  5
5B2
100
AcDbEntity
  8
ASSI
100
AcDbLine
 62
250
  6
CONTINUOUS
 10
-7.6699978864
 20
17.3020198174
 11
-7.6277215162
 21
17.3030866502
  0
LINE
  5
5B3
100
AcDbEntity
  8
ASSI
100
AcDbLine
 62
250
  6
CONTINUOUS
 10
-5.928162622
 20
16.8813408295
 11
-7.6460969443
 21
16.8384955441
  0
LINE
  5
5B4
100
AcDbEntity
  8
ASSI
100
AcDbLine
 62
250
  6
CONTINUOUS
 10
-5.6928880113
 20
17.1374730511
 11
-7.7296595876
 21
17.0866759639
  0
LINE
  5
5B5
100
AcDbEntity
  8
RACCORDO
100
AcDbLine
 62
250
  6
CONTINUOUS
 10
-6.9672173044
 20
18.7876497986
 11
-7.8793153533
 21
18.7655258975
  0
LINE
  5
5B6
100
AcDbEntity
  8
ASSI
100
AcDbLine
 62
250
  6
CONTINUOUS
 10
-9.0073768926
 20
18.8427511478
 11
-10.5889363735
 21
18.804388753
  0
LINE
  5
5B7
100
AcDbEntity
  8
RACCORDO
100
AcDbLine
 62
250
  6
CONTINUOUS
 10
-7.9607756488
 20
19.0210262942
 11
-7.0488484754
 21
19.0431460505
  0
LINE
  5
5B8
100
AcDbEntity
  8
ASSI
100
AcDbLine
 62
250
  6
CONTINUOUS
 10
-9.088837188
 20
19.0982515445
 11
-10.6703966689
 21
19.0598891497
  0
LWPOLYLINE
  5
5B9
100
AcDbEntity
  8
ASSI
100
AcDbPolyline
 62
250
  6
CONTINUOUS
 90
6
 70
0
 10
-9.5879136489
 20
19.3630117957
 10
-9.5784518954
 20
19.3631393998
 10
-9.5628697111
 20
19.3617443087
 10
-9.5474273271
 20
19.3583636194
 10
-9.5322805639
 20
19.3530297284
 10
-9.5175813312
 20
19.3457946021
  0
LWPOLYLINE
  5
5BA
100
AcDbEntity
  8
ASSI
100
AcDbPolyline
 62
250
  6
CONTINUOUS
 90
5
 70
0
 10
-7.698352461
 20
17.3202878487
 10
-7.6856115439
 20
17.3203133704
 10
-7.6658627536
 20
17.3177126704
 10
-7.6464620022
 20
17.3119394599
 10
-7.6277215162
 20
17.3030866502
  0
LWPOLYLINE
  5
5BB
100
AcDbEntity
  8
ASSI
100
AcDbPolyline
 62
250
  6
CONTINUOUS
 90
5
 70
0
 10
-6.1921094685
 20
17.4022255733
 10
-6.1795075659
 20
17.4022434835
 10
-6.1597591337
 20
17.3996426563
 10
-6.1403588058
 20
17.3938694577
 10
-6.121618784
 20
17.385016826
  0
LWPOLYLINE
  5
5BC
100
AcDbEntity
  8
ASSI
100
AcDbPolyline
 62
250
  6
CONTINUOUS
 90
5
 70
0
 10
-11.5321658983
 20
19.2587098318
 10
-11.5180046565
 20
19.2586438102
 10
-11.4987889411
 20
19.2559091153
 10
-11.4799195367
 20
19.2501654354
 10
-11.4616847841
 20
19.2415005391
  0
LWPOLYLINE
  5
5BD
100
AcDbEntity
  8
ASSI
100
AcDbPolyline
 62
250
  6
CONTINUOUS
 90
6
 70
0
 10
-10.6823884808
 20
18.8176618277
 10
-10.6994456576
 20
18.8181190247
 10
-10.7142312894
 20
18.8174110032
 10
-10.7266806844
 20
18.8156742588
 10
-10.7367904018
 20
18.812961833
 10
-10.744208739
 20
18.8092109816
  0
LWPOLYLINE
  5
5BE
100
AcDbEntity
  8
RACCORDO
100
AcDbPolyline
 62
250
  6
CONTINUOUS
 90
10
 70
0
 10
-6.882279191
 20
18.7784119658
 10
-6.8728513816
 20
18.7780713109
 10
-6.8632433951
 20
18.7782513707
 10
-6.8534740638
 20
18.7789494445
 10
-6.8435603991
 20
18.7801590735
 10
-6.8335239918
 20
18.7818773987
 10
-6.8233908082
 20
18.7841060908
 10
-6.8131826861
 20
18.7868411178
 10
-6.8029174476
 20
18.7900718406
 10
-6.7926151873
 20
18.7937890166
  0
LWPOLYLINE
  5
5BF
100
AcDbEntity
  8
ASSI
100
AcDbPolyline
 62
250
  6
CONTINUOUS
 90
3
 70
0
 10
-7.7586524605
 20
17.3048089714
 10
-7.7136415345
 20
17.3025939245
 10
-7.6699978864
 20
17.3020198174
  0
LWPOLYLINE
  5
5C0
100
AcDbEntity
  8
ASSI
100
AcDbPolyline
 62
7
  6
CONTINUOUS
 90
10
 70
0
 10
-3.6023706393
 20
16.6433234423
 10
-3.6238843724
 20
16.6445695142
 10
-3.6450149738
 20
16.6445804131
 10
-3.6657624438
 20
16.643356139
 10
-3.6863640498
 20
16.6408472004
 10
-3.7065825243
 20
16.6371030889
 10
-3.7257060642
 20
16.6322722791
 10
-3.7434974016
 20
16.6264042627
 10
-3.7601938043
 20
16.6194495482
 10
-3.7757952724
 20
16.6114081353
  0
LWPOLYLINE
  5
5C1
100
AcDbEntity
  8
ASSI
100
AcDbPolyline
 62
250
  6
CONTINUOUS
 90
3
 70
0
 10
-7.2365364934
 20
20.6244965421
 10
-7.2739623025
 20
20.6274716476
 10
-7.3109187937
 20
20.6325202582
  0
LWPOLYLINE
  5
5C2
100
AcDbEntity
  8
ASSI
100
AcDbPolyline
 62
250
  6
CONTINUOUS
 90
24
 70
0
 10
-3.6046119661
 20
18.0443599799
 10
-3.5767665663
 20
18.0411598375
 10
-3.5487658864
 20
18.0395101334
 10
-3.5203535705
 20
18.0394228596
 10
-3.4917859745
 20
18.0408860241
 10
-3.4638321662
 20
18.0438636516
 10
-3.4365137253
 20
18.0483950647
 10
-3.4098090721
 20
18.0544409407
 10
-3.3844225357
 20
18.0618473355
 10
-3.3603811511
 20
18.0706533397
 10
-3.3376578832
 20
18.0808198627
 10
-3.3168759558
 20
18.0920756882
 10
-3.2980894994
 20
18.1044538374
 10
-3.2812443835
 20
18.1179212892
 10
-3.2668014401
 20
18.1321077646
 10
-3.2548318529
 20
18.1470296014
 10
-3.2452644383
 20
18.1626704618
 10
-3.2383464773
 20
18.1786110532
 10
-3.2341486247
 20
18.194858389
 10
-3.2326002258
 20
18.2114054558
 10
-3.2337365983
 20
18.2278119207
 10
-3.2375695147
 20
18.2439310061
 10
-3.2440872024
 20
18.2599094895
 10
-3.2532896616
 20
18.2757473711
  0
LWPOLYLINE
  5
5C3
100
AcDbEntity
  8
RACCORDO
100
AcDbPolyline
 62
250
  6
CONTINUOUS
 90
10
 70
0
 10
3.6813262182
 20
16.6167186421
 10
3.6790005355
 20
16.6170056326
 10
3.67400772
 20
16.6155167157
 10
3.6663497503
 20
16.6123390649
 10
3.6561090453
 20
16.6075068796
 10
3.64339582
 20
16.601072166
 10
3.6283469002
 20
16.5931041778
 10
3.6111242494
 20
16.5836886702
 10
3.591913226
 20
16.5729269774
 10
3.5709205879
 20
16.5609349217
  0
LINE
  5
5C4
100
AcDbEntity
  8
ASSI
100
AcDbLine
 62
250
  6
CONTINUOUS
 10
-7.3747908483
 20
20.6449501393
 11
-7.402424987
 21
20.648711559
  0
LWPOLYLINE
  5
5C5
100
AcDbEntity
  8
ASSI
100
AcDbPolyline
 62
250
  6
CONTINUOUS
 90
4
 70
0
 10
-8.3166494349
 20
17.4357593619
 10
-8.3172627467
 20
17.4358457424
 10
-8.3201862873
 20
17.4343159073
 10
-8.3240945765
 20
17.4298952765
  0
LWPOLYLINE
  5
5C6
100
AcDbEntity
  8
ASSI
100
AcDbPolyline
 62
250
  6
CONTINUOUS
 90
24
 70
0
 10
-3.6987827507
 20
17.7769061829
 10
-3.6583519886
 20
17.7697715905
 10
-3.6170218764
 20
17.7646345773
 10
-3.5750878968
 20
17.7615318706
 10
-3.5328498492
 20
17.7604856539
 10
-3.4906097085
 20
17.7615034078
 10
-3.4486694658
 20
17.7645778571
 10
-3.4073289615
 20
17.7696870231
 10
-3.366883759
 20
17.7767943789
 10
-3.3276230327
 20
17.7858491081
 10
-3.2898274807
 20
17.79678647
 10
-3.2537673032
 20
17.8095282703
 10
-3.21970029
 20
17.8239834188
 10
-3.1878699971
 20
17.8400485724
 10
-3.1585039928
 20
17.8576088758
 10
-3.1318122181
 20
17.876538791
 10
-3.1079854948
 20
17.8967029931
 10
-3.0871941863
 20
17.9179573138
 10
-3.0695869593
 20
17.9401497743
 10
-3.0552896934
 20
17.9631217006
 10
-3.0444045895
 20
17.9867088669
 10
-3.0370094607
 20
18.010742645
 10
-3.0331571754
 20
18.035051177
 10
-3.0325580788
 20
18.0491793382
  0
LWPOLYLINE
  5
5C7
100
AcDbEntity
  8
ASSI
100
AcDbPolyline
 62
250
  6
CONTINUOUS
 90
8
 70
0
 10
-7.3032221898
 20
20.6714059297
 10
-7.3044732232
 20
20.6716426653
 10
-7.3108865572
 20
20.6715151062
 10
-7.3177001055
 20
20.6692492728
 10
-7.3248392179
 20
20.6648699896
 10
-7.3322256767
 20
20.6584252367
 10
-7.3397785544
 20
20.6499856239
 10
-7.3474151
 20
20.6396436171
  0
LINE
  5
5C8
100
AcDbEntity
  8
ASSI
100
AcDbLine
 62
250
  6
CONTINUOUS
 10
-7.3109187937
 20
20.6325202582
 11
-7.3747908483
 21
20.6449501393
  0
LWPOLYLINE
  5
5C9
100
AcDbEntity
  8
ASSI
100
AcDbPolyline
 62
250
  6
CONTINUOUS
 90
5
 70
0
 10
-10.5889363735
 20
18.804388753
 10
-10.6160754579
 20
18.8096988952
 10
-10.6407212451
 20
18.8135797106
 10
-10.662852091
 20
18.8161657187
 10
-10.6823884808
 20
18.8176618277
  0
LWPOLYLINE
  5
5CA
100
AcDbEntity
  8
RACCORDO
100
AcDbPolyline
 62
250
  6
CONTINUOUS
 90
17
 70
0
 10
-9.9717779203
 20
19.7189079886
 10
-9.984638084
 20
19.7217127966
 10
-9.9974288498
 20
19.724757877
 10
-10.0101463456
 20
19.7280423821
 10
-10.0227611878
 20
19.731567592
 10
-10.0352877416
 20
19.7353406714
 10
-10.0477116417
 20
19.7393544555
 10
-10.0599604086
 20
19.7435887307
 10
-10.0720696574
 20
19.7480682369
 10
-10.084003773
 20
19.7527682341
 10
-10.0955834305
 20
19.7575942895
 10
-10.1067670057
 20
19.7625420718
 10
-10.1175961227
 20
19.7676159122
 10
-10.1280163292
 20
19.772734372
 10
-10.1380094744
 20
19.777870305
 10
-10.1475937089
 20
19.7830508574
 10
-10.1567690329
 20
19.7882760292
  0
LWPOLYLINE
  5
5CB
100
AcDbEntity
  8
ASSI
100
AcDbPolyline
 62
250
  6
CONTINUOUS
 90
5
 70
0
 10
-6.1882758983
 20
21.131452705
 10
-6.2046264227
 20
21.13509332
 10
-6.2202083594
 20
21.1359512005
 10
-6.2347838567
 20
21.1340132511
 10
-6.2481304259
 20
21.129309054
  0
LWPOLYLINE
  5
5CC
100
AcDbEntity
  8
RACCORDO
100
AcDbPolyline
 62
250
  6
CONTINUOUS
 90
22
 70
0
 10
-6.8822751152
 20
18.7784096125
 10
-6.8855509589
 20
18.7792555416
 10
-6.8888904873
 20
18.780060986
 10
-6.8922937005
 20
18.7808259457
 10
-6.8957449518
 20
18.7815472183
 10
-6.8992598879
 20
18.7822280063
 10
-6.9028854484
 20
18.7828779166
 10
-6.906644691
 20
18.7835026288
 10
-6.9105145581
 20
18.7840964633
 10
-6.9144728154
 20
18.7846519884
 10
-6.918517096
 20
18.7851688813
 10
-6.922649767
 20
18.7856474649
 10
-6.9268556948
 20
18.7860812762
 10
-6.9311355688
 20
18.7864707779
 10
-6.9354886996
 20
18.7868155072
 10
-6.9398978864
 20
18.7871076132
 10
-6.9443677094
 20
18.7873477993
 10
-6.9488935883
 20
18.7875353621
 10
-6.9534445815
 20
18.7876603396
 10
-6.9580103749
 20
18.7877194112
 10
-6.9626012825
 20
18.7877158975
 10
-6.9672173044
 20
18.7876497986
  0
LWPOLYLINE
  5
5CD
100
AcDbEntity
  8
RACCORDO
100
AcDbPolyline
 62
250
  6
CONTINUOUS
 90
13
 70
0
 10
-4.1359747615
 20
20.0732839151
 10
-4.1605447783
 20
20.0843626396
 10
-4.1877058791
 20
20.0936967428
 10
-4.2169949826
 20
20.101127061
 10
-4.2479127013
 20
20.1065268865
 10
-4.2799319038
 20
20.1098041372
 10
-4.3125067067
 20
20.1109029166
 10
-4.3450817014
 20
20.1098044608
 10
-4.3771014491
 20
20.1065274699
 10
-4.4080200005
 20
20.1011277853
 10
-4.4373101482
 20
20.0936974419
 10
-4.4644724189
 20
20.0843631068
 10
-4.4890436194
 20
20.0732839151
  0
LWPOLYLINE
  5
5CE
100
AcDbEntity
  8
RACCORDO
100
AcDbPolyline
 62
250
  6
CONTINUOUS
 90
7
 70
0
 10
3.0087006461
 20
17.2971060469
 10
2.9930290337
 20
17.3044103126
 10
2.9712247694
 20
17.3098623241
 10
2.9476229232
 20
17.3109549352
 10
2.9226008981
 20
17.3076706504
 10
2.8965587906
 20
17.3000619621
 10
2.869913022
 20
17.2882505111
  0
LWPOLYLINE
  5
5CF
100
AcDbEntity
  8
ASSI
100
AcDbPolyline
 62
250
  6
CONTINUOUS
 90
13
 70
0
 10
-0.7589308018
 20
19.4248031141
 10
-0.7390675716
 20
19.4152776027
 10
-0.7199924116
 20
19.4033887047
 10
-0.7019715461
 20
19.3893023486
 10
-0.6852564852
 20
19.3732151321
 10
-0.6700805142
 20
19.3553515781
 10
-0.6566554381
 20
19.3359610009
 10
-0.6451686254
 20
19.3153140272
 10
-0.6357803928
 20
19.2936988185
 10
-0.6286217682
 20
19.2714170496
 10
-0.6237926617
 20
19.2487796982
 10
-0.6213604711
 20
19.2261027048
 10
-0.6213591415
 20
19.2037025631
  0
LWPOLYLINE
  5
5D0
100
AcDbEntity
  8
ASSI
100
AcDbPolyline
 62
250
  6
CONTINUOUS
 90
6
 70
0
 10
-6.0624393701
 20
21.1548212149
 10
-6.0802351473
 20
21.1634916702
 10
-6.0983174015
 20
21.1693054806
 10
-6.1164106919
 20
21.1721740861
 10
-6.1342394096
 20
21.1720537903
 10
-6.1517196122
 20
21.1688953901
  0
LWPOLYLINE
  5
5D1
100
AcDbEntity
  8
ASSI
100
AcDbPolyline
 62
250
  6
CONTINUOUS
 90
3
 70
0
 10
-4.5499236326
 20
21.567785653
 10
-4.5677194098
 20
21.5764561083
 10
-4.585801664
 20
21.5822699187
  0
LWPOLYLINE
  5
5D2
100
AcDbEntity
  8
RACCORDO
100
AcDbPolyline
 62
250
  6
CONTINUOUS
 90
9
 70
0
 10
25.8690480972
 20
5.6748426195
 10
25.8636726229
 20
5.6776292662
 10
25.8521686526
 20
5.6817435515
 10
25.8397539431
 20
5.6838845882
 10
25.8265645128
 20
5.6840289186
 10
25.8127448676
 20
5.6821749616
 10
25.7984464184
 20
5.6783430293
 10
25.7838258222
 20
5.6725751052
 10
25.7690432652
 20
5.664934384
  0
LINE
  5
5D3
100
AcDbEntity
  8
RACCORDO
100
AcDbLine
 62
250
  6
CONTINUOUS
 10
-5.086581496
 20
22.1170348136
 11
-5.0804731768
 21
22.1138369503
  0
LWPOLYLINE
  5
5D4
100
AcDbEntity
  8
RACCORDO
100
AcDbPolyline
 62
250
  6
CONTINUOUS
 90
11
 70
0
 10
-6.4833570268
 20
22.6887114132
 10
-6.5470392312
 20
22.7227790878
 10
-6.6105762363
 20
22.752354965
 10
-6.6737349042
 20
22.7773335278
 10
-6.7361326399
 20
22.7975886956
 10
-6.7976919854
 20
22.8131075071
 10
-6.8586220433
 20
22.8238789247
 10
-6.9186647441
 20
22.8297621741
 10
-6.9775698484
 20
22.8306354286
 10
-7.0354987122
 20
22.8263308799
 10
-7.0922780662
 20
22.8166176262
  0
LWPOLYLINE
  5
5D5
100
AcDbEntity
  8
RACCORDO
100
AcDbPolyline
 62
250
  6
CONTINUOUS
 90
9
 70
0
 10
-5.2023940381
 20
22.1032019114
 10
-5.2205604255
 20
22.1129195922
 10
-5.238561647
 20
22.1202761871
 10
-5.2562005534
 20
22.1251911257
 10
-5.2732839666
 20
22.1276105785
 10
-5.2896247855
 20
22.1275080454
 10
-5.3050440372
 20
22.12488465
 10
-5.3193728486
 20
22.1197691279
 10
-5.3238857129
 20
22.1175156066
  0
LWPOLYLINE
  5
5D6
100
AcDbEntity
  8
RACCORDO
100
AcDbPolyline
 62
7
  6
CONTINUOUS
 90
13
 70
0
 10
-6.3444501263
 20
22.6974981865
 10
-6.4165164635
 20
22.7363266334
 10
-6.496098358
 20
22.7728234244
 10
-6.5752720909
 20
22.8025175009
 10
-6.6539005775
 20
22.8254314299
 10
-6.7316712905
 20
22.8415486232
 10
-6.8080264864
 20
22.8508483606
 10
-6.8827574545
 20
22.8534342414
 10
-6.9555370233
 20
22.8494138527
 10
-7.0255540416
 20
22.8390174121
 10
-7.0923181555
 20
22.8226347885
 10
-7.1556979779
 20
22.8006305692
 10
-7.1866190159
 20
22.7873775166
  0
LINE
  5
5D7
100
AcDbEntity
  8
RACCORDO
100
AcDbLine
 62
250
  6
CONTINUOUS
 10
1.9161241304
 20
17.8389562633
 11
2.8699130232
 21
17.2882505104
  0
LINE
  5
5D8
100
AcDbEntity
  8
RACCORDO
100
AcDbLine
 62
250
  6
CONTINUOUS
 10
-5.5295681335
 20
22.13800566
 11
-6.4833570268
 21
22.6887114132
  0
LINE
  5
5D9
100
AcDbEntity
  8
RACCORDO
100
AcDbLine
 62
7
  6
CONTINUOUS
 10
2.0477495369
 20
17.85194728
 11
3.0088181302
 21
17.2970383192
  0
LINE
  5
5DA
100
AcDbEntity
  8
RACCORDO
100
AcDbLine
 62
7
  6
CONTINUOUS
 10
-5.3833833097
 20
22.1425902517
 11
-6.3444519031
 21
22.6974992125
  0
LINE
  5
5DB
100
AcDbEntity
  8
RACCORDO
100
AcDbLine
 62
250
  6
CONTINUOUS
 10
1.6436268048
 20
18.1503952774
 11
0.0352121557
 21
19.0790737377
  0
LINE
  5
5DC
100
AcDbEntity
  8
RACCORDO
100
AcDbLine
 62
250
  6
CONTINUOUS
 10
-4.3583584577
 20
21.6158663455
 11
-5.2023940381
 21
22.1032019114
  0
LINE
  5
5DD
100
AcDbEntity
  8
RACCORDO
100
AcDbLine
 62
7
  6
CONTINUOUS
 10
1.7655476661
 20
18.1610303164
 11
0.1268834056
 21
19.1071745232
  0
LINE
  5
5DE
100
AcDbEntity
  8
RACCORDO
100
AcDbLine
 62
7
  6
CONTINUOUS
 10
-4.23741356
 20
21.6270648936
 11
-5.0804731768
 21
22.1138369503
  0
LINE
  5
5DF
100
AcDbEntity
  8
RACCORDO
100
AcDbLine
 62
7
  6
CONTINUOUS
 10
-2.7366339331
 20
21.1417024201
 11
-0.5436520604
 21
19.8755021713
  0
LINE
  5
5E0
100
AcDbEntity
  8
ASSI
100
AcDbLine
 62
7
  6
CONTINUOUS
 10
-0.0073069811
 20
19.8515878413
 11
-0.1647907124
 21
19.9425169741
  0
LINE
  5
5E1
100
AcDbEntity
  8
ASSI
100
AcDbLine
 62
7
  6
CONTINUOUS
 10
-3.0465934877
 20
21.6064337791
 11
-3.2040772191
 21
21.6973629118
  0
LINE
  5
5E2
100
AcDbEntity
  8
RACCORDO
100
AcDbLine
 62
250
  6
CONTINUOUS
 10
25.5690083247
 20
5.7804320516
 11
25.7690432652
 21
5.664934384
  0
LINE
  5
5E3
100
AcDbEntity
  8
RACCORDO
100
AcDbLine
 62
7
  6
CONTINUOUS
 10
25.6690131568
 20
5.7903402871
 11
25.8690480972
 21
5.6748426195
  0
LWPOLYLINE
  5
5E4
100
AcDbEntity
  8
RACCORDO
100
AcDbPolyline
 62
250
  6
CONTINUOUS
 90
3
 70
0
 10
2.8699130232
 20
17.2882505104
 10
2.933095969
 20
17.2490322073
 10
2.996007009
 20
17.2055000013
  0
LWPOLYLINE
  5
5E5
100
AcDbEntity
  8
RACCORDO
100
AcDbPolyline
 62
7
  6
CONTINUOUS
 90
20
 70
0
 10
25.6690299838
 20
5.7903305682
 10
25.6575954454
 20
5.7974760559
 10
25.6450037706
 20
5.8065279674
 10
25.631341128
 20
5.8176789213
 10
25.6168546715
 20
5.8309908576
 10
25.601980859
 20
5.8462959401
 10
25.5869601697
 20
5.8635488275
 10
25.5721153872
 20
5.8825620323
 10
25.5579526139
 20
5.9028026705
 10
25.5447235305
 20
5.9239399712
 10
25.53257952
 20
5.9457227498
 10
25.5217677372
 20
5.9676530945
 10
25.5123990166
 20
5.9893650827
 10
25.5044983924
 20
6.0105951358
 10
25.4980954018
 20
6.030998827
 10
25.493155103
 20
6.0503181871
 10
25.4896149286
 20
6.0682759306
 10
25.4873862373
 20
6.0845088285
 10
25.486301736
 20
6.0988891151
 10
25.4861225246
 20
6.1070799407
  0
LWPOLYLINE
  5
5E6
100
AcDbEntity
  8
RACCORDO
100
AcDbPolyline
 62
250
  6
CONTINUOUS
 90
4
 70
0
 10
25.7690432652
 20
5.664934384
 10
25.8042126811
 20
5.642772491
 10
25.8356123113
 20
5.6192387457
 10
25.8632421558
 20
5.5943331481
  0
LWPOLYLINE
  5
5E7
100
AcDbEntity
  8
RACCORDO
100
AcDbPolyline
 62
7
  6
CONTINUOUS
 90
16
 70
0
 10
-3.0465934877
 20
21.6064337791
 10
-3.0340823972
 20
21.5985318185
 10
-3.0218323469
 20
21.5895251215
 10
-3.0098433369
 20
21.5794136881
 10
-2.9980307222
 20
21.5681161686
 10
-2.9864791478
 20
21.5557139128
 10
-2.9754425483
 20
21.5424509692
 10
-2.9649217004
 20
21.528298694
 10
-2.9549158276
 20
21.5132857311
 10
-2.9456765341
 20
21.4977420607
 10
-2.9372155964
 20
21.4816352519
 10
-2.9295212381
 20
21.4649977356
 10
-2.9228097352
 20
21.4482567847
 10
-2.9171531796
 20
21.4315548237
 10
-2.9124794794
 20
21.4147494282
 10
-2.9087886345
 20
21.3978405982
  0
LWPOLYLINE
  5
5E8
100
AcDbEntity
  8
RACCORDO
100
AcDbPolyline
 62
250
  6
CONTINUOUS
 90
16
 70
0
 10
25.8632421558
 20
-2.5703696198
 10
25.8872907759
 20
-2.5968803198
 10
25.9075696103
 20
-2.624762872
 10
25.9235129755
 20
-2.6533175263
 10
25.9349815604
 20
-2.6825290275
 10
25.9421146762
 20
-2.7124126308
 10
25.9447645719
 20
-2.742314351
 10
25.9428380951
 20
-2.7722345359
 10
25.9364283984
 20
-2.8021728378
 10
25.9256671883
 20
-2.8314742284
 10
25.9104152558
 20
-2.8601553132
 10
25.8908118098
 20
-2.8881994867
 10
25.8674061841
 20
-2.9149019041
 10
25.8403814896
 20
-2.9400276173
 10
25.8095546153
 20
-2.9638115745
 10
25.7749255611
 20
-2.9862537757
  0
LINE
  5
5E9
100
AcDbEntity
  8
RACCORDO
100
AcDbLine
 62
7
  6
CONTINUOUS
 10
23.4320023232
 20
-3.3097146414
 11
23.6023291376
 21
-3.6047293375
  0
LINE
  5
5EA
100
AcDbEntity
  8
RACCORDO
100
AcDbLine
 62
250
  6
CONTINUOUS
 10
23.4796779099
 20
-3.2821970193
 11
23.649791607
 21
-3.5768425853
  0
LWPOLYLINE
  5
5EB
100
AcDbEntity
  8
RACCORDO
100
AcDbPolyline
 62
250
  6
CONTINUOUS
 90
13
 70
0
 10
21.9033766149
 20
-5.6138821375
 10
21.9021498584
 20
-5.5918782926
 10
21.8984906234
 20
-5.5688735673
 10
21.8924615882
 20
-5.5452616262
 10
21.8841659836
 20
-5.5214465221
 10
21.8737458087
 20
-5.4978357345
 10
21.8613793855
 20
-5.4748332002
 10
21.8472783495
 20
-5.4528324891
 10
21.8316839986
 20
-5.4322100008
 10
21.8148631241
 20
-5.4133184952
 10
21.7971035191
 20
-5.3964811614
 10
21.7787090677
 20
-5.3819860729
 10
21.7599944934
 20
-5.3700812035
  0
LWPOLYLINE
  5
5EC
100
AcDbEntity
  8
RACCORDO
100
AcDbPolyline
 62
250
  6
CONTINUOUS
 90
13
 70
0
 10
21.9033766149
 20
-1.5315307535
 10
21.9021498584
 20
-1.5095269086
 10
21.8984906234
 20
-1.4865221833
 10
21.8924615882
 20
-1.4629102423
 10
21.8841659836
 20
-1.4390951381
 10
21.8737458087
 20
-1.4154843505
 10
21.8613793855
 20
-1.3924818162
 10
21.8472783495
 20
-1.3704811052
 10
21.8316839986
 20
-1.3498586168
 10
21.8148631241
 20
-1.3309671112
 10
21.7971035191
 20
-1.3141297774
 10
21.7787090677
 20
-1.2996346889
 10
21.7599944934
 20
-1.2877298196
  0
LWPOLYLINE
  5
5ED
100
AcDbEntity
  8
RACCORDO
100
AcDbPolyline
 62
250
  6
CONTINUOUS
 90
13
 70
0
 10
21.9033766149
 20
2.5508206305
 10
21.9021498584
 20
2.5728244754
 10
21.8984906234
 20
2.5958292006
 10
21.8924615882
 20
2.6194411417
 10
21.8841659836
 20
2.6432562459
 10
21.8737458087
 20
2.6668670335
 10
21.8613793855
 20
2.6898695677
 10
21.8472783495
 20
2.7118702788
 10
21.8316839986
 20
2.7324927671
 10
21.8148631241
 20
2.7513842728
 10
21.7971035191
 20
2.7682216065
 10
21.7787090677
 20
2.782716695
 10
21.7599944934
 20
2.7946215644
  0
LWPOLYLINE
  5
5EE
100
AcDbEntity
  8
RACCORDO
100
AcDbPolyline
 62
250
  6
CONTINUOUS
 90
13
 70
0
 10
23.4382628624
 20
-3.1428357421
 10
23.4386979384
 20
-3.1544450117
 10
23.4396578147
 20
-3.1659268582
 10
23.4411424912
 20
-3.1772812815
 10
23.4431544013
 20
-3.1884329077
 10
23.4456911115
 20
-3.1994571106
 10
23.4487453225
 20
-3.2105800121
 10
23.4522496229
 20
-3.2217897753
 10
23.4562714239
 20
-3.2330982371
 10
23.4610056597
 20
-3.2447670292
 10
23.4665173083
 20
-3.2568833622
 10
23.4727413917
 20
-3.2693600256
 10
23.4796779099
 20
-3.2821970193
  0
LWPOLYLINE
  5
5EF
100
AcDbEntity
  8
RACCORDO
100
AcDbPolyline
 62
7
  6
CONTINUOUS
 90
10
 70
0
 10
23.350394897
 20
-3.0203459092
 10
23.3508398668
 20
-3.0412639928
 10
23.3539066539
 20
-3.0796083016
 10
23.3599610075
 20
-3.1187651271
 10
23.3687956891
 20
-3.1574529574
 10
23.3803199952
 20
-3.1957157495
 10
23.3944890513
 20
-3.2335325951
 10
23.4106837157
 20
-3.2695860774
 10
23.4284285421
 20
-3.3034433388
 10
23.4320023657
 20
-3.3097146244
  0
LINE
  5
5F0
100
AcDbEntity
  8
0
100
AcDbLine
 62
7
  6
CONTINUOUS
 10
22.9662685462
 20
6.870708154
 11
22.9662685462
 21
4.1862536415
  0
LINE
  5
5F1
100
AcDbEntity
  8
0
100
AcDbLine
 62
7
  6
CONTINUOUS
 10
22.9662685462
 20
2.78835677
 11
22.9662685462
 21
0.1039022575
  0
LINE
  5
5F2
100
AcDbEntity
  8
0
100
AcDbLine
 62
7
  6
CONTINUOUS
 10
22.9662685462
 20
-1.2939946139
 11
22.9662685462
 21
-3.6168895995
  0
LINE
  5
5F3
100
AcDbEntity
  8
RACCORDO
100
AcDbLine
 62
7
  6
CONTINUOUS
 10
23.3503948967
 20
7.0987795492
 11
23.3503948967
 21
4.4119485212
  0
LINE
  5
5F4
100
AcDbEntity
  8
RACCORDO
100
AcDbLine
 62
7
  6
CONTINUOUS
 10
23.3503948967
 20
3.0164281652
 11
23.3503948967
 21
0.3295971372
  0
LINE
  5
5F5
100
AcDbEntity
  8
RACCORDO
100
AcDbLine
 62
7
  6
CONTINUOUS
 10
23.3503948967
 20
-1.0659232187
 11
23.3503948967
 21
-3.0203532997
  0
LINE
  5
5F6
100
AcDbEntity
  8
RACCORDO
100
AcDbLine
 62
250
  6
CONTINUOUS
 10
23.4382628624
 20
7.1509503245
 11
23.4382628624
 21
4.4635756744
  0
LINE
  5
5F7
100
AcDbEntity
  8
RACCORDO
100
AcDbLine
 62
250
  6
CONTINUOUS
 10
23.4382628624
 20
3.0685989405
 11
23.4382628624
 21
0.3812242904
  0
LINE
  5
5F8
100
AcDbEntity
  8
RACCORDO
100
AcDbLine
 62
250
  6
CONTINUOUS
 10
23.4382628624
 20
-1.0137524434
 11
23.4382628624
 21
-3.1428357421
  0
LINE
  5
5F9
100
AcDbEntity
  8
RACCORDO
100
AcDbLine
 62
7
  6
CONTINUOUS
 10
23.7601313787
 20
7.3420567182
 11
23.7601313787
 21
5.0284309371
  0
LINE
  5
5FA
100
AcDbEntity
  8
RACCORDO
100
AcDbLine
 62
7
  6
CONTINUOUS
 10
23.7601313787
 20
-3.1362718309
 11
23.7601313787
 21
-0.8226460497
  0
LINE
  5
5FB
100
AcDbEntity
  8
RACCORDO
100
AcDbLine
 62
7
  6
CONTINUOUS
 10
23.7601313787
 20
0.9460795531
 11
23.7601313787
 21
3.2597053342
  0
LWPOLYLINE
  5
5FC
100
AcDbEntity
  8
RACCORDO
100
AcDbPolyline
 62
250
  6
CONTINUOUS
 90
7
 70
0
 10
21.9033766149
 20
6.3065839037
 10
21.902149961
 20
6.2859585
 10
21.8984909876
 20
6.2670634976
 10
21.8924623008
 20
6.2502221954
 10
21.8841670531
 20
6.2357227526
 10
21.8737471784
 20
6.2238132588
 10
21.8621010442
 20
6.215119121
  0
LWPOLYLINE
  5
5FD
100
AcDbEntity
  8
RACCORDO
100
AcDbPolyline
 62
250
  6
CONTINUOUS
 90
7
 70
0
 10
21.9033766149
 20
2.2242325197
 10
21.902149961
 20
2.203607116
 10
21.8984909876
 20
2.1847121136
 10
21.8924623008
 20
2.1678708114
 10
21.8841670531
 20
2.1533713686
 10
21.8737471784
 20
2.1414618748
 10
21.8621010442
 20
2.132767737
  0
LWPOLYLINE
  5
5FE
100
AcDbEntity
  8
RACCORDO
100
AcDbPolyline
 62
250
  6
CONTINUOUS
 90
7
 70
0
 10
21.9033766149
 20
-1.8581188642
 10
21.902149961
 20
-1.878744268
 10
21.8984909876
 20
-1.8976392703
 10
21.8924623008
 20
-1.9144805726
 10
21.8841670531
 20
-1.9289800153
 10
21.8737471784
 20
-1.9408895092
 10
21.8621010442
 20
-1.9495836469
  0
LWPOLYLINE
  5
5FF
100
AcDbEntity
  8
RACCORDO
100
AcDbPolyline
 62
250
  6
CONTINUOUS
 90
13
 70
0
 10
25.7693734652
 20
-4.3563730264
 10
25.7837034943
 20
-4.3384288992
 10
25.7971221776
 20
-4.3205468708
 10
25.8096253026
 20
-4.3027286125
 10
25.8211189709
 20
-4.2850861246
 10
25.8316916548
 20
-4.2675140936
 10
25.8415998046
 20
-4.24967527
 10
25.850858343
 20
-4.2315974691
 10
25.8594200569
 20
-4.2132342541
 10
25.8674080883
 20
-4.1940990852
 10
25.8748193821
 20
-4.1739947139
 10
25.8815542073
 20
-4.1530414452
 10
25.8875606058
 20
-4.1312038813
  0
LWPOLYLINE
  5
600
100
AcDbEntity
  8
RACCORDO
100
AcDbPolyline
 62
250
  6
CONTINUOUS
 90
3
 70
0
 10
25.7205370109
 20
-4.4122467897
 10
25.7451839575
 20
-4.3847647484
 10
25.7693734652
 20
-4.3563730264
  0
LWPOLYLINE
  5
601
100
AcDbEntity
  8
RACCORDO
100
AcDbPolyline
 62
7
  6
CONTINUOUS
 90
9
 70
0
 10
25.8164359499
 20
-4.3482481757
 10
25.8372932824
 20
-4.3271125805
 10
25.8912435136
 20
-4.26738467
 10
25.9417434873
 20
-4.2031014376
 10
25.9881959388
 20
-4.1339644182
 10
26.0294607173
 20
-4.0605757011
 10
26.0639533661
 20
-3.9852594864
 10
26.091106002
 20
-3.9099411946
 10
26.1068919961
 20
-3.8535917004
  0
LINE
  5
602
100
AcDbEntity
  8
RACCORDO
100
AcDbLine
 62
7
  6
CONTINUOUS
 10
25.8163385698
 20
-4.3483450577
 11
25.8164359499
 21
-4.3482481757
  0
LWPOLYLINE
  5
603
100
AcDbEntity
  8
RACCORDO
100
AcDbPolyline
 62
250
  6
CONTINUOUS
 90
4
 70
0
 10
25.6439745216
 20
-4.4891158906
 10
25.6699197168
 20
-4.4644326473
 10
25.6954444434
 20
-4.4388076411
 10
25.7205370109
 20
-4.4122467897
  0
LWPOLYLINE
  5
604
100
AcDbEntity
  8
RACCORDO
100
AcDbPolyline
 62
250
  6
CONTINUOUS
 90
3
 70
0
 10
25.5908563146
 20
-4.5356497601
 10
25.617616814
 20
-4.5128576673
 10
25.6439745216
 20
-4.4891158906
  0
LWPOLYLINE
  5
605
100
AcDbEntity
  8
ASSI
100
AcDbPolyline
 62
250
  6
CONTINUOUS
 90
12
 70
0
 10
-6.0624393701
 20
21.1548212149
 10
-6.0694742036
 20
21.1528283332
 10
-6.0765747787
 20
21.1506442226
 10
-6.0837383724
 20
21.1482680787
 10
-6.0909260745
 20
21.1457122019
 10
-6.0981708883
 20
21.142964837
 10
-6.1055790023
 20
21.1399808236
 10
-6.1131576004
 20
21.1367467595
 10
-6.1208950536
 20
21.1332578254
 10
-6.1288705029
 20
21.1294670527
 10
-6.1371084568
 20
21.1253458076
 10
-6.1455781376
 20
21.1208909074
  0
LINE
  5
606
100
AcDbEntity
  8
RACCORDO
100
AcDbLine
 62
250
  6
CONTINUOUS
 10
-7.0922780662
 20
22.8166176262
 11
-7.1474386629
 21
22.8013261637
  0
LWPOLYLINE
  5
607
100
AcDbEntity
  8
ASSI
100
AcDbPolyline
 62
250
  6
CONTINUOUS
 90
13
 70
0
 10
-5.6770182949
 20
20.9322839166
 10
-5.6841588371
 20
20.9303282943
 10
-5.69134261
 20
20.928175788
 10
-5.6985667234
 20
20.9258263961
 10
-5.7057887835
 20
20.9232947015
 10
-5.7130449927
 20
20.9205684432
 10
-5.720451545
 20
20.9175982457
 10
-5.7280184663
 20
20.914370174
 10
-5.7357313438
 20
20.9108797436
 10
-5.743671028
 20
20.907075876
 10
-5.7518626325
 20
20.9029281099
 10
-5.7602748422
 20
20.8984341247
 10
-5.768903461
 20
20.8935782945
  0
LINE
  5
608
100
AcDbEntity
  8
ASSI
100
AcDbLine
 62
250
  6
CONTINUOUS
 10
-4.5499236326
 20
21.567785653
 11
-6.0624393701
 21
21.1548212149
  0
LINE
  5
609
100
AcDbEntity
  8
ASSI
100
AcDbLine
 62
7
  6
CONTINUOUS
 10
-4.6392042851
 20
21.5818597162
 11
-6.1517200226
 21
21.1688952781
  0
LWPOLYLINE
  5
60A
100
AcDbEntity
  8
ASSI
100
AcDbPolyline
 62
250
  6
CONTINUOUS
 90
13
 70
0
 10
-5.5723932921
 20
20.6804232602
 10
-5.5767034677
 20
20.6792630296
 10
-5.5810342198
 20
20.6779836889
 10
-5.5853855484
 20
20.6765852383
 10
-5.5897352492
 20
20.6750793012
 10
-5.5941055264
 20
20.6734542541
 10
-5.5985629933
 20
20.6716752267
 10
-5.6031148943
 20
20.6697457942
 10
-5.6077539848
 20
20.6676623814
 10
-5.6125251444
 20
20.6653793928
 10
-5.6174433331
 20
20.6628816298
 10
-5.6224935909
 20
20.660184291
 10
-5.6276759178
 20
20.6572873763
  0
LINE
  5
60B
100
AcDbEntity
  8
RACCORDO
100
AcDbLine
 62
250
  6
CONTINUOUS
 10
-11.5474064984
 20
20.3518867461
 11
-11.4992255065
 21
20.3645592642
  0
LINE
  5
60C
100
AcDbEntity
  8
ASSI
100
AcDbLine
 62
250
  6
CONTINUOUS
 10
-4.5447633849
 20
21.5691295438
 11
-4.5499236326
 21
21.567785653
  0
LINE
  5
60D
100
AcDbEntity
  8
RACCORDO
100
AcDbLine
 62
250
  6
CONTINUOUS
 10
-3.1283101657
 20
21.3068157346
 11
-5.5723932921
 21
20.6804232602
  0
LINE
  5
60E
100
AcDbEntity
  8
ASSI
100
AcDbLine
 62
250
  6
CONTINUOUS
 10
-3.0465934877
 20
21.6064337791
 11
-5.6770182949
 21
20.9322839166
  0
LINE
  5
60F
100
AcDbEntity
  8
ASSI
100
AcDbLine
 62
250
  6
CONTINUOUS
 10
-4.621723672
 20
21.5850182285
 11
-4.6392042851
 21
21.5818597162
  0
LWPOLYLINE
  5
610
100
AcDbEntity
  8
RACCORDO
100
AcDbPolyline
 62
250
  6
CONTINUOUS
 90
11
 70
0
 10
-11.4992255065
 20
20.3645592642
 10
-11.4486822149
 20
20.3726870549
 10
-11.3957171832
 20
20.3761477703
 10
-11.3406870595
 20
20.3747898369
 10
-11.2844236707
 20
20.3686203122
 10
-11.2271581146
 20
20.357734219
 10
-11.1691191244
 20
20.3422385588
 10
-11.1112160042
 20
20.3225104741
 10
-11.0539162426
 20
20.2989415992
 10
-10.9972117543
 20
20.271758213
 10
-10.941300838
 20
20.241254861
  0
LWPOLYLINE
  5
611
100
AcDbEntity
  8
ASSI
100
AcDbPolyline
 62
250
  6
CONTINUOUS
 90
5
 70
0
 10
-7.084198012
 20
20.6334187429
 10
-7.1214431587
 20
20.6280122564
 10
-7.1594672247
 20
20.6247689022
 10
-7.198236518
 20
20.6235959696
 10
-7.2365364934
 20
20.6244965421
  0
LWPOLYLINE
  5
612
100
AcDbEntity
  8
ASSI
100
AcDbPolyline
 62
250
  6
CONTINUOUS
 90
3
 70
0
 10
-11.484434285
 20
19.2393213081
 10
-11.4764701521
 20
19.240326381
 10
-11.4688885128
 20
19.2410431892
  0
LWPOLYLINE
  5
613
100
AcDbEntity
  8
ASSI
100
AcDbPolyline
 62
7
  6
CONTINUOUS
 90
6
 70
0
 10
-4.5438495113
 20
21.5986913225
 10
-4.5542711289
 20
21.5976415675
 10
-4.579808185
 20
21.5943164195
 10
-4.6048736528
 20
21.589926265
 10
-4.6294786722
 20
21.5844057343
 10
-4.6392655998
 20
21.5818429546
  0
LWPOLYLINE
  5
614
100
AcDbEntity
  8
ASSI
100
AcDbPolyline
 62
250
  6
CONTINUOUS
 90
12
 70
0
 10
-4.4888370523
 20
21.5784042364
 10
-4.4940907962
 20
21.5778870343
 10
-4.499284142
 20
21.5773122714
 10
-4.5044170897
 20
21.5766799477
 10
-4.5094676112
 20
21.5759953292
 10
-4.5144577346
 20
21.57525315
 10
-4.5194535436
 20
21.574437612
 10
-4.5244680416
 20
21.5735503607
 10
-4.5294882253
 20
21.5725897506
 10
-4.5345411689
 20
21.5715350482
 10
-4.5396358969
 20
21.5703793422
 10
-4.5447633849
 20
21.5691295438
  0
LINE
  5
615
100
AcDbEntity
  8
ASSI
100
AcDbLine
 62
250
  6
CONTINUOUS
 10
-3.2040772191
 20
21.6973629118
 11
-4.4888370523
 21
21.5784042364
  0
LINE
  5
616
100
AcDbEntity
  8
ASSI
100
AcDbLine
 62
7
  6
CONTINUOUS
 10
-3.2738452168
 20
21.7162837583
 11
-4.5438791459
 21
21.598688586
  0
LWPOLYLINE
  5
617
100
AcDbEntity
  8
ASSI
100
AcDbPolyline
 62
250
  6
CONTINUOUS
 90
7
 70
0
 10
-9.5176051123
 20
19.3458167702
 10
-9.4745392165
 20
19.3495335561
 10
-9.4297332943
 20
19.356047985
 10
-9.3832483912
 20
19.365475721
 10
-9.3352826253
 20
19.3779031631
 10
-9.28579275
 20
19.3934426292
 10
-9.2344818948
 20
19.4123015192
  0
LWPOLYLINE
  5
618
100
AcDbEntity
  8
ASSI
100
AcDbPolyline
 62
7
  6
CONTINUOUS
 90
7
 70
0
 10
-11.5323859328
 20
19.2586978276
 10
-11.5488766708
 20
19.2574006744
 10
-11.5857034143
 20
19.2516520624
 10
-11.6239227473
 20
19.2416034231
 10
-11.6617579884
 20
19.2275986431
 10
-11.698639366
 20
19.210034348
 10
-11.7084112114
 20
19.2047235393
  0
LWPOLYLINE
  5
619
100
AcDbEntity
  8
RACCORDO
100
AcDbPolyline
 62
250
  6
CONTINUOUS
 90
16
 70
0
 10
-9.7752495907
 20
19.7050070339
 10
-9.7881365243
 20
19.7043102603
 10
-9.8011178676
 20
19.7038412085
 10
-9.8141937674
 20
19.7035987485
 10
-9.8273183243
 20
19.7035884809
 10
-9.8404918742
 20
19.7038115634
 10
-9.8537140812
 20
19.7042668384
 10
-9.8669380376
 20
19.7049564334
 10
-9.8801617798
 20
19.7058812856
 10
-9.8933872713
 20
19.7070404578
 10
-9.9065734959
 20
19.7084332661
 10
-9.919712193
 20
19.7100588273
 10
-9.932811623
 20
19.7119180247
 10
-9.9458555507
 20
19.7140128237
 10
-9.9588444867
 20
19.7163426053
 10
-9.9717779203
 20
19.7189079886
  0
LWPOLYLINE
  5
61A
100
AcDbEntity
  8
ASSI
100
AcDbPolyline
 62
250
  6
CONTINUOUS
 90
23
 70
0
 10
-7.402424987
 20
20.648711559
 10
-7.430308383
 20
20.650926633
 10
-7.4586979622
 20
20.6515885625
 10
-7.4873367988
 20
20.6507041463
 10
-7.5154541154
 20
20.6482937811
 10
-7.5430307337
 20
20.6443177308
 10
-7.5700858321
 20
20.6388157315
 10
-7.5959061684
 20
20.6319273874
 10
-7.6204670925
 20
20.6236130861
 10
-7.6437932544
 20
20.6139124401
 10
-7.665245362
 20
20.6030838916
 10
-7.6847713231
 20
20.5910933449
 10
-7.7024232299
 20
20.5779748958
 10
-7.7177180661
 20
20.5640892733
 10
-7.7305856838
 20
20.5494187087
 10
-7.7410962309
 20
20.5339809708
 10
-7.7489771359
 20
20.5181900947
 10
-7.7541582122
 20
20.5020376429
 10
-7.7567096464
 20
20.4855320529
 10
-7.7565694262
 20
20.4691126727
 10
-7.7537168809
 20
20.4529259515
 10
-7.7481726813
 20
20.4368254402
 10
-7.7399368273
 20
20.4208111386
  0
LWPOLYLINE
  5
61B
100
AcDbEntity
  8
ASSI
100
AcDbPolyline
 62
250
  6
CONTINUOUS
 90
3
 70
0
 10
-4.585801664
 20
21.5822699187
 10
-4.6038949544
 20
21.5851385242
 10
-4.621723672
 20
21.5850182285
  0
LINE
  5
61C
100
AcDbEntity
  8
SMUSSO
100
AcDbLine
 62
7
  6
CONTINUOUS
 10
25.6107785706
 20
12.2877512458
 11
25.7710997028
 21
12.1951838333
  0
LINE
  5
61D
100
AcDbEntity
  8
RACCORDO
100
AcDbLine
 62
7
  6
CONTINUOUS
 10
25.9183076826
 20
12.1086935258
 11
25.7710997028
 21
12.1951838333
  0
LWPOLYLINE
  5
61E
100
AcDbEntity
  8
RACCORDO
100
AcDbPolyline
 62
250
  6
CONTINUOUS
 90
16
 70
0
 10
25.8632421558
 20
1.5119817641
 10
25.8872907759
 20
1.4854710642
 10
25.9075696103
 20
1.4575885119
 10
25.9235129755
 20
1.4290338577
 10
25.9349815604
 20
1.3998223564
 10
25.9421146762
 20
1.3699387532
 10
25.9447645719
 20
1.340037033
 10
25.9428380951
 20
1.310116848
 10
25.9364283984
 20
1.2801785461
 10
25.9256671883
 20
1.2508771556
 10
25.9104152558
 20
1.2221960708
 10
25.8908118098
 20
1.1941518973
 10
25.8674061841
 20
1.1674494798
 10
25.8403814896
 20
1.1423237666
 10
25.8095546153
 20
1.1185398094
 10
25.7749255611
 20
1.0960976083
  0
LWPOLYLINE
  5
61F
100
AcDbEntity
  8
RACCORDO
100
AcDbPolyline
 62
250
  6
CONTINUOUS
 90
16
 70
0
 10
25.8632421558
 20
5.5943331481
 10
25.8872907759
 20
5.5678224481
 10
25.9075696103
 20
5.5399398959
 10
25.9235129755
 20
5.5113852416
 10
25.9349815604
 20
5.4821737404
 10
25.9421146762
 20
5.4522901371
 10
25.9447645719
 20
5.4223884169
 10
25.9428380951
 20
5.392468232
 10
25.9364283984
 20
5.3625299301
 10
25.9256671883
 20
5.3332285395
 10
25.9104152558
 20
5.3045474547
 10
25.8908118098
 20
5.2765032812
 10
25.8674061841
 20
5.2498008638
 10
25.8403814896
 20
5.2246751506
 10
25.8095546153
 20
5.2008911934
 10
25.7749255611
 20
5.1784489923
  0
LWPOLYLINE
  5
620
100
AcDbEntity
  8
RACCORDO
100
AcDbPolyline
 62
7
  6
CONTINUOUS
 90
5
 70
0
 10
14.2481144467
 20
32.4317724888
 10
14.2351115056
 20
32.4720213664
 10
14.2163373255
 20
32.5138410199
 10
14.1938883435
 20
32.5511055295
 10
14.167682002
 20
32.58371256
  0
LWPOLYLINE
  5
621
100
AcDbEntity
  8
SUPERFICI
100
AcDbPolyline
 62
7
  6
CONTINUOUS
 90
7
 70
0
 10
26.042724308
 20
24.4509836051
 10
26.0287384618
 20
24.6889181276
 10
25.9903993402
 20
24.9151285675
 10
25.9282687907
 20
25.1422749738
 10
25.8440277554
 20
25.3654659886
 10
25.739072211
 20
25.5821125232
 10
25.7016767975
 20
25.6490352392
  0
LWPOLYLINE
  5
622
100
AcDbEntity
  8
RACCORDO
100
AcDbPolyline
 62
7
  6
CONTINUOUS
 90
13
 70
0
 10
26.1447791965
 20
-2.9080271953
 10
26.1430214497
 20
-2.8705570233
 10
26.1376612212
 20
-2.8327880346
 10
26.1285902385
 20
-2.7949853915
 10
26.1157698322
 20
-2.7575126069
 10
26.0991394438
 20
-2.7205402701
 10
26.0785055054
 20
-2.6840348446
 10
26.0536191464
 20
-2.6480392218
 10
26.0245240307
 20
-2.6130297103
 10
25.9914651651
 20
-2.5795287943
 10
25.9545657762
 20
-2.5477770833
 10
25.9137529354
 20
-2.517833043
 10
25.8690480972
 20
-2.4898601484
  0
LWPOLYLINE
  5
623
100
AcDbEntity
  8
RACCORDO
100
AcDbPolyline
 62
7
  6
CONTINUOUS
 90
13
 70
0
 10
26.1447791965
 20
1.1743241887
 10
26.1430214497
 20
1.2117943607
 10
26.1376612212
 20
1.2495633494
 10
26.1285902385
 20
1.2873659925
 10
26.1157698322
 20
1.3248387771
 10
26.0991394438
 20
1.3618111139
 10
26.0785055054
 20
1.3983165394
 10
26.0536191464
 20
1.4343121622
 10
26.0245240307
 20
1.4693216737
 10
25.9914651651
 20
1.5028225896
 10
25.9545657762
 20
1.5345743006
 10
25.9137529354
 20
1.5645183409
 10
25.8690480972
 20
1.5924912355
  0
LWPOLYLINE
  5
624
100
AcDbEntity
  8
RACCORDO
100
AcDbPolyline
 62
7
  6
CONTINUOUS
 90
13
 70
0
 10
26.1447791965
 20
5.2566755726
 10
26.1430214497
 20
5.2941457446
 10
26.1376612212
 20
5.3319147333
 10
26.1285902385
 20
5.3697173764
 10
26.1157698322
 20
5.407190161
 10
26.0991394438
 20
5.4441624978
 10
26.0785055054
 20
5.4806679233
 10
26.0536191464
 20
5.5166635462
 10
26.0245240307
 20
5.5516730576
 10
25.9914651651
 20
5.5851739736
 10
25.9545657762
 20
5.6169256846
 10
25.9137529354
 20
5.6468697249
 10
25.8690480972
 20
5.6748426195
  0
LWPOLYLINE
  5
625
100
AcDbEntity
  8
RACCORDO
100
AcDbPolyline
 62
250
  6
CONTINUOUS
 90
16
 70
0
 10
25.9183076826
 20
-3.2300547096
 10
25.9175222204
 20
-3.2125448079
 10
25.9151744393
 20
-3.1943446981
 10
25.9112900621
 20
-3.1756537844
 10
25.905911647
 20
-3.1566768484
 10
25.8990981208
 20
-3.1376218054
 10
25.8909241341
 20
-3.1186974265
 10
25.8814792428
 20
-3.100111051
 10
25.870866927
 20
-3.0820663152
 10
25.8592034576
 20
-3.0647609211
 10
25.8466166219
 20
-3.0483844701
 10
25.8332443239
 20
-3.033116386
 10
25.8192330733
 20
-3.0191239492
 10
25.8047363804
 20
-3.0065604638
 10
25.7899130739
 20
-2.9955635779
 10
25.7749255611
 20
-2.9862537757
  0
LWPOLYLINE
  5
626
100
AcDbEntity
  8
RACCORDO
100
AcDbPolyline
 62
250
  6
CONTINUOUS
 90
16
 70
0
 10
25.9183076826
 20
0.8522966744
 10
25.9175222204
 20
0.8698065761
 10
25.9151744393
 20
0.8880066859
 10
25.9112900621
 20
0.9066975996
 10
25.905911647
 20
0.9256745355
 10
25.8990981208
 20
0.9447295785
 10
25.8909241341
 20
0.9636539575
 10
25.8814792428
 20
0.982240333
 10
25.870866927
 20
1.0002850687
 10
25.8592034576
 20
1.0175904629
 10
25.8466166219
 20
1.0339669139
 10
25.8332443239
 20
1.0492349979
 10
25.8192330733
 20
1.0632274347
 10
25.8047363804
 20
1.0757909202
 10
25.7899130739
 20
1.0867878061
 10
25.7749255611
 20
1.0960976083
  0
LWPOLYLINE
  5
627
100
AcDbEntity
  8
RACCORDO
100
AcDbPolyline
 62
250
  6
CONTINUOUS
 90
16
 70
0
 10
25.9183076826
 20
4.9346480583
 10
25.9175222204
 20
4.9521579601
 10
25.9151744393
 20
4.9703580699
 10
25.9112900621
 20
4.9890489835
 10
25.905911647
 20
5.0080259195
 10
25.8990981208
 20
5.0270809625
 10
25.8909241341
 20
5.0460053415
 10
25.8814792428
 20
5.0645917169
 10
25.870866927
 20
5.0826364527
 10
25.8592034576
 20
5.0999418468
 10
25.8466166219
 20
5.1163182979
 10
25.8332443239
 20
5.1315863819
 10
25.8192330733
 20
5.1455788187
 10
25.8047363804
 20
5.1581423041
 10
25.7899130739
 20
5.16913919
 10
25.7749255611
 20
5.1784489923
  0
LWPOLYLINE
  5
628
100
AcDbEntity
  8
RACCORDO
100
AcDbPolyline
 62
250
  6
CONTINUOUS
 90
19
 70
0
 10
25.4299904876
 20
-2.1378593543
 10
25.4305028399
 20
-2.1521767527
 10
25.4320473561
 20
-2.1670781495
 10
25.4346282693
 20
-2.1824593778
 10
25.4382478498
 20
-2.1982390388
 10
25.442890629
 20
-2.2142724444
 10
25.4485049541
 20
-2.2303507412
 10
25.4550247791
 20
-2.2463078986
 10
25.4624124752
 20
-2.262066634
 10
25.4706394224
 20
-2.2775487843
 10
25.4796643835
 20
-2.2926634674
 10
25.4894057697
 20
-2.3072594075
 10
25.499765236
 20
-2.3211738115
 10
25.5106780914
 20
-2.3343247113
 10
25.5220376647
 20
-2.3465860498
 10
25.5336594787
 20
-2.3577683259
 10
25.5454111262
 20
-2.3677860664
 10
25.5572251423
 20
-2.3766309387
 10
25.569008027
 20
-2.3842708944
  0
LWPOLYLINE
  5
629
100
AcDbEntity
  8
RACCORDO
100
AcDbPolyline
 62
250
  6
CONTINUOUS
 90
19
 70
0
 10
25.4299904876
 20
1.9444920297
 10
25.4305028399
 20
1.9301746312
 10
25.4320473561
 20
1.9152732345
 10
25.4346282693
 20
1.8998920062
 10
25.4382478498
 20
1.8841123452
 10
25.442890629
 20
1.8680789396
 10
25.4485049541
 20
1.8520006428
 10
25.4550247791
 20
1.8360434854
 10
25.4624124752
 20
1.82028475
 10
25.4706394224
 20
1.8048025996
 10
25.4796643835
 20
1.7896879166
 10
25.4894057697
 20
1.7750919765
 10
25.499765236
 20
1.7611775725
 10
25.5106780914
 20
1.7480266727
 10
25.5220376647
 20
1.7357653342
 10
25.5336594787
 20
1.7245830581
 10
25.5454111262
 20
1.7145653176
 10
25.5572251423
 20
1.7057204453
 10
25.569008027
 20
1.6980804896
  0
LWPOLYLINE
  5
62A
100
AcDbEntity
  8
RACCORDO
100
AcDbPolyline
 62
250
  6
CONTINUOUS
 90
19
 70
0
 10
25.4299904876
 20
6.0268434136
 10
25.4305028399
 20
6.0125260152
 10
25.4320473561
 20
5.9976246185
 10
25.4346282693
 20
5.9822433902
 10
25.4382478498
 20
5.9664637292
 10
25.442890629
 20
5.9504303236
 10
25.4485049541
 20
5.9343520267
 10
25.4550247791
 20
5.9183948693
 10
25.4624124752
 20
5.902636134
 10
25.4706394224
 20
5.8871539836
 10
25.4796643835
 20
5.8720393005
 10
25.4894057697
 20
5.8574433604
 10
25.499765236
 20
5.8435289564
 10
25.5106780914
 20
5.8303780566
 10
25.5220376647
 20
5.8181167182
 10
25.5336594787
 20
5.806934442
 10
25.5454111262
 20
5.7969167016
 10
25.5572251423
 20
5.7880718292
 10
25.569008027
 20
5.7804318735
  0
LINE
  5
62B
100
AcDbEntity
  8
RACCORDO
100
AcDbLine
 62
250
  6
CONTINUOUS
 10
25.4299904875
 20
8.3335198036
 11
25.4299904875
 21
6.0268434135
  0
LINE
  5
62C
100
AcDbEntity
  8
RACCORDO
100
AcDbLine
 62
250
  6
CONTINUOUS
 10
25.4299904875
 20
4.2511684196
 11
25.4299904875
 21
1.9444920296
  0
LINE
  5
62D
100
AcDbEntity
  8
RACCORDO
100
AcDbLine
 62
250
  6
CONTINUOUS
 10
25.4299904875
 20
0.1688170357
 11
25.4299904875
 21
-2.1378593544
  0
LINE
  5
62E
100
AcDbEntity
  8
RACCORDO
100
AcDbLine
 62
7
  6
CONTINUOUS
 10
25.4861225274
 20
8.3668476725
 11
25.4861225274
 21
6.10706082
  0
LINE
  5
62F
100
AcDbEntity
  8
RACCORDO
100
AcDbLine
 62
7
  6
CONTINUOUS
 10
25.4861225274
 20
4.2844962886
 11
25.4861225274
 21
2.024709436
  0
LINE
  5
630
100
AcDbEntity
  8
RACCORDO
100
AcDbLine
 62
7
  6
CONTINUOUS
 10
25.4861225274
 20
0.2021449046
 11
25.4861225274
 21
-2.057641948
  0
LINE
  5
631
100
AcDbEntity
  8
0
100
AcDbLine
 62
250
  6
CONTINUOUS
 10
25.7620664451
 20
12.3782066026
 11
25.7620664451
 21
24.051139231
  0
LINE
  5
632
100
AcDbEntity
  8
RACCORDO
100
AcDbLine
 62
250
  6
CONTINUOUS
 10
25.9183076826
 20
-3.854654861
 11
25.9183076826
 21
-3.2300547096
  0
LINE
  5
633
100
AcDbEntity
  8
RACCORDO
100
AcDbLine
 62
250
  6
CONTINUOUS
 10
25.9183076826
 20
0.5257085636
 11
25.9183076826
 21
0.8522966744
  0
LINE
  5
634
100
AcDbEntity
  8
RACCORDO
100
AcDbLine
 62
250
  6
CONTINUOUS
 10
25.9183076826
 20
4.6080599476
 11
25.9183076826
 21
4.9346480583
  0
LINE
  5
635
100
AcDbEntity
  8
RACCORDO
100
AcDbLine
 62
250
  6
CONTINUOUS
 10
25.9183076826
 20
8.6904113316
 11
25.9183076826
 21
12.1086935258
  0
LINE
  5
636
100
AcDbEntity
  8
SUPERFICI
100
AcDbLine
 62
7
  6
CONTINUOUS
 10
26.0427266447
 20
24.45222886
 11
26.0427266447
 21
12.7792936396
  0
LINE
  5
637
100
AcDbEntity
  8
RACCORDO
100
AcDbLine
 62
7
  6
CONTINUOUS
 10
26.1447791965
 20
-3.5326273467
 11
26.1447791965
 21
-2.9080271953
  0
LINE
  5
638
100
AcDbEntity
  8
RACCORDO
100
AcDbLine
 62
7
  6
CONTINUOUS
 10
26.1447791965
 20
0.8477360779
 11
26.1447791965
 21
1.1743241887
  0
LINE
  5
639
100
AcDbEntity
  8
RACCORDO
100
AcDbLine
 62
7
  6
CONTINUOUS
 10
26.1447791965
 20
4.9300874619
 11
26.1447791965
 21
5.2566755726
  0
LINE
  5
63A
100
AcDbEntity
  8
RACCORDO
100
AcDbLine
 62
7
  6
CONTINUOUS
 10
26.1447791965
 20
9.0124388459
 11
26.1447791965
 21
11.9740071782
  0
LWPOLYLINE
  5
63B
100
AcDbEntity
  8
SUPERFICI
100
AcDbPolyline
 62
250
  6
CONTINUOUS
 90
28
 70
0
 10
26.042724319
 20
24.4509836051
 10
26.0425258714
 20
24.4406593868
 10
26.0415359377
 20
24.4240608941
 10
26.0397195859
 20
24.4074857075
 10
26.0370783188
 20
24.3909475417
 10
26.0336143217
 20
24.3744600801
 10
26.0293304608
 20
24.3580369648
 10
26.0242302807
 20
24.3416917841
 10
26.0183180011
 20
24.3254380622
 10
26.011598514
 20
24.3092892474
 10
26.004077379
 20
24.2932587013
 10
25.9957608191
 20
24.2773596877
 10
25.9866557156
 20
24.2616053614
 10
25.9767696021
 20
24.2460087576
 10
25.9661106582
 20
24.2305827811
 10
25.9546877033
 20
24.2153401952
 10
25.9425101887
 20
24.2002936118
 10
25.9295881902
 20
24.1854554805
 10
25.9159323995
 20
24.1708380784
 10
25.9015541154
 20
24.1564535
 10
25.8864652346
 20
24.1423136471
 10
25.8706782416
 20
24.1284302191
 10
25.8542061987
 20
24.1148147032
 10
25.8370627349
 20
24.1014783648
 10
25.8192620347
 20
24.0884322387
 10
25.8008188265
 20
24.075687119
 10
25.7817483703
 20
24.0632535513
 10
25.7620664451
 20
24.051141823
  0
LWPOLYLINE
  5
63C
100
AcDbEntity
  8
RACCORDO
100
AcDbPolyline
 62
250
  6
CONTINUOUS
 90
8
 70
0
 10
25.9183076826
 20
8.6904113316
 10
25.9175222204
 20
8.67378348
 10
25.9151744392
 20
8.6582198568
 10
25.9112900621
 20
8.6438909804
 10
25.9059116469
 20
8.6309538409
 10
25.8990981207
 20
8.6195501803
 10
25.8909241339
 20
8.6098049395
 10
25.8814792426
 20
8.6018248895
  0
LWPOLYLINE
  5
63D
100
AcDbEntity
  8
RACCORDO
100
AcDbPolyline
 62
250
  6
CONTINUOUS
 90
8
 70
0
 10
25.9183076826
 20
4.6080599476
 10
25.9175222204
 20
4.591432096
 10
25.9151744392
 20
4.5758684728
 10
25.9112900621
 20
4.5615395964
 10
25.9059116469
 20
4.5486024569
 10
25.8990981207
 20
4.5371987963
 10
25.8909241339
 20
4.5274535556
 10
25.8814792426
 20
4.5194735055
  0
LWPOLYLINE
  5
63E
100
AcDbEntity
  8
RACCORDO
100
AcDbPolyline
 62
250
  6
CONTINUOUS
 90
8
 70
0
 10
25.9183076826
 20
0.5257085636
 10
25.9175222204
 20
0.5090807121
 10
25.9151744392
 20
0.4935170889
 10
25.9112900621
 20
0.4791882125
 10
25.9059116469
 20
0.4662510729
 10
25.8990981207
 20
0.4548474124
 10
25.8909241339
 20
0.4451021716
 10
25.8814792426
 20
0.4371221216
  0
LWPOLYLINE
  5
63F
100
AcDbEntity
  8
RACCORDO
100
AcDbPolyline
 62
250
  6
CONTINUOUS
 90
10
 70
0
 10
26.1447791965
 20
5.2566755726
 10
26.1422518277
 20
5.2199880508
 10
26.1337820572
 20
5.1803500906
 10
26.1194137095
 20
5.141282739
 10
26.0992542022
 20
5.1030780629
 10
26.0734542475
 20
5.0660216801
 10
26.0422067259
 20
5.0303906242
 10
26.0057452438
 20
4.9964512725
 10
25.9643423869
 20
4.9644573552
 10
25.9183076826
 20
4.9346480583
  0
LWPOLYLINE
  5
640
100
AcDbEntity
  8
RACCORDO
100
AcDbPolyline
 62
250
  6
CONTINUOUS
 90
10
 70
0
 10
26.1447791965
 20
1.1743241887
 10
26.1422518277
 20
1.1376366668
 10
26.1337820572
 20
1.0979987067
 10
26.1194137095
 20
1.058931355
 10
26.0992542022
 20
1.0207266789
 10
26.0734542475
 20
0.9836702961
 10
26.0422067259
 20
0.9480392402
 10
26.0057452438
 20
0.9140998885
 10
25.9643423869
 20
0.8821059712
 10
25.9183076826
 20
0.8522966744
  0
LWPOLYLINE
  5
641
100
AcDbEntity
  8
RACCORDO
100
AcDbPolyline
 62
250
  6
CONTINUOUS
 90
10
 70
0
 10
26.1447791965
 20
-2.9080271953
 10
26.1422518277
 20
-2.9447147172
 10
26.1337820572
 20
-2.9843526773
 10
26.1194137095
 20
-3.0234200289
 10
26.0992542022
 20
-3.0616247051
 10
26.0734542475
 20
-3.0986810878
 10
26.0422067259
 20
-3.1343121438
 10
26.0057452438
 20
-3.1682514954
 10
25.9643423869
 20
-3.2002454128
 10
25.9183076826
 20
-3.2300547096
  0
LWPOLYLINE
  5
642
100
AcDbEntity
  8
RACCORDO
100
AcDbPolyline
 62
250
  6
CONTINUOUS
 90
7
 70
0
 10
25.4861225274
 20
6.10706082
 10
25.4846670159
 20
6.0931544565
 10
25.4798969325
 20
6.0784729681
 10
25.4718844751
 20
6.0642698299
 10
25.460763713
 20
6.0507827
 10
25.4467207251
 20
6.0382372545
 10
25.4299904875
 20
6.0268434135
  0
LWPOLYLINE
  5
643
100
AcDbEntity
  8
RACCORDO
100
AcDbPolyline
 62
250
  6
CONTINUOUS
 90
7
 70
0
 10
25.4861225274
 20
2.024709436
 10
25.4846670159
 20
2.0108030726
 10
25.4798969325
 20
1.9961215842
 10
25.4718844751
 20
1.9819184459
 10
25.460763713
 20
1.968431316
 10
25.4467207251
 20
1.9558858705
 10
25.4299904875
 20
1.9444920296
  0
LWPOLYLINE
  5
644
100
AcDbEntity
  8
RACCORDO
100
AcDbPolyline
 62
250
  6
CONTINUOUS
 90
7
 70
0
 10
25.4861225274
 20
-2.057641948
 10
25.4846670159
 20
-2.0715483114
 10
25.4798969325
 20
-2.0862297998
 10
25.4718844751
 20
-2.1004329381
 10
25.460763713
 20
-2.113920068
 10
25.4467207251
 20
-2.1264655134
 10
25.4299904875
 20
-2.1378593544
  0
LWPOLYLINE
  5
645
100
AcDbEntity
  8
RACCORDO
100
AcDbPolyline
 62
7
  6
CONTINUOUS
 90
8
 70
0
 10
26.1072049129
 20
-3.8523243916
 10
26.1168244541
 20
-3.8099211084
 10
26.1254614677
 20
-3.7644433896
 10
26.1325600062
 20
-3.7180023865
 10
26.1380754083
 20
-3.6706528929
 10
26.1419701551
 20
-3.622420518
 10
26.1442076607
 20
-3.5733180914
 10
26.1447791963
 20
-3.5326385889
  0
LWPOLYLINE
  5
646
100
AcDbEntity
  8
RACCORDO
100
AcDbPolyline
 62
250
  6
CONTINUOUS
 90
10
 70
0
 10
25.8875606058
 20
-4.1312038813
 10
25.8940549615
 20
-4.1027769198
 10
25.8997869722
 20
-4.0737289075
 10
25.904752736
 20
-4.0440812188
 10
25.9089481054
 20
-4.0138623345
 10
25.9123714618
 20
-3.9830880151
 10
25.915022008
 20
-3.9517600886
 10
25.9168968614
 20
-3.9198934942
 10
25.917992768
 20
-3.887517464
 10
25.9183076826
 20
-3.854654861
  0
LINE
  5
647
100
AcDbEntity
  8
RACCORDO
100
AcDbLine
 62
7
  6
CONTINUOUS
 10
26.1068919961
 20
-3.8535917004
 11
26.1072049129
 21
-3.8523243916
  0
LINE
  5
648
100
AcDbEntity
  8
ASSI
100
AcDbLine
 62
250
  6
CONTINUOUS
 10
-7.4745686049
 20
-30.8493453689
 11
-5.0705153279
 21
-29.6029498222
  0
LINE
  5
649
100
AcDbEntity
  8
ASSI
100
AcDbLine
 62
7
  6
CONTINUOUS
 10
-7.5886092253
 20
-31.0838229618
 11
-5.1806312152
 21
-29.8353926141
  0
LWPOLYLINE
  5
64A
100
AcDbEntity
  8
ASSI
100
AcDbPolyline
 62
250
  6
CONTINUOUS
 90
16
 70
0
 10
-7.4745686049
 20
-30.8493453689
 10
-7.5137955778
 20
-30.8687177372
 10
-7.5562725463
 20
-30.8856517052
 10
-7.6015467698
 20
-30.8999668169
 10
-7.6491411635
 20
-30.9115116671
 10
-7.6985434059
 20
-30.9201614531
 10
-7.7492096057
 20
-30.9258225967
 10
-7.8005878841
 20
-30.928437632
 10
-7.8521418442
 20
-30.9279833931
 10
-7.9033390691
 20
-30.9244662812
 10
-7.9537041069
 20
-30.9179128392
 10
-8.0026287191
 20
-30.9083959785
 10
-8.0494152609
 20
-30.8960703661
 10
-8.0935390268
 20
-30.8811197521
 10
-8.1346306247
 20
-30.8637171101
 10
-8.1722992834
 20
-30.8440716302
  0
LINE
  5
64B
100
AcDbEntity
  8
RACCORDO
100
AcDbLine
 62
7
  6
CONTINUOUS
 10
16.4035891323
 20
21.5665819203
 11
5.7835737633
 21
27.6984456943
  0
LINE
  5
64C
100
AcDbEntity
  8
0
100
AcDbLine
 62
7
  6
CONTINUOUS
 10
16.8200952665
 20
21.4624253557
 11
9.8140824161
 21
25.5076093696
  0
LWPOLYLINE
  5
64D
100
AcDbEntity
  8
RACCORDO
100
AcDbPolyline
 62
7
  6
CONTINUOUS
 90
13
 70
0
 10
16.4035891323
 20
21.5665819203
 10
16.4424710054
 20
21.542605861
 10
16.4809408924
 20
21.5158147587
 10
16.5189987934
 20
21.4862086134
 10
16.5568713179
 20
21.4535890646
 10
16.5943318564
 20
21.4181544728
 10
16.6307005794
 20
21.3804999196
 10
16.6659405144
 20
21.3405702582
 10
16.7000886339
 20
21.2984206354
 10
16.7325760272
 20
21.2548115727
 10
16.7632130572
 20
21.2099965775
 10
16.792189361
 20
21.1637221423
 10
16.8195049384
 20
21.1159882674
  0
LINE
  5
64E
100
AcDbEntity
  8
0
100
AcDbLine
 62
7
  6
CONTINUOUS
 10
17.4154789374
 20
20.7693321423
 11
17.3200191141
 21
20.9346734062
  0
LINE
  5
64F
100
AcDbEntity
  8
RACCORDO
100
AcDbLine
 62
7
  6
CONTINUOUS
 10
16.9763234314
 20
20.8266875464
 11
16.8195049384
 21
21.1159882674
  0
LINE
  5
650
100
AcDbEntity
  8
RACCORDO
100
AcDbLine
 62
7
  6
CONTINUOUS
 10
17.1310985773
 20
20.5364661835
 11
16.9763234314
 21
20.8266875464
  0
LINE
  5
651
100
AcDbEntity
  8
RACCORDO
100
AcDbLine
 62
7
  6
CONTINUOUS
 10
17.2838234382
 20
20.2453373427
 11
17.1310985773
 21
20.5364661835
  0
LWPOLYLINE
  5
652
100
AcDbEntity
  8
RACCORDO
100
AcDbPolyline
 62
7
  6
CONTINUOUS
 90
3
 70
0
 10
17.5090161463
 20
19.8070380003
 10
17.434470263
 20
19.9533536805
 10
17.2838234382
 20
20.2453373427
  0
LWPOLYLINE
  5
653
100
AcDbEntity
  8
RACCORDO
100
AcDbPolyline
 62
7
  6
CONTINUOUS
 90
13
 70
0
 10
17.5090161463
 20
19.8070380003
 10
17.5466955502
 20
19.7295755487
 10
17.58137404
 20
19.6517228405
 10
17.6130516159
 20
19.5734798756
 10
17.6418371927
 20
19.4945360776
 10
17.6676218555
 20
19.4152020231
 10
17.6900788592
 20
19.3364094407
 10
17.709150906
 20
19.2581700112
 10
17.7248952936
 20
19.1804720539
 10
17.7371571711
 20
19.1042122558
 10
17.7458849214
 20
19.0296895123
 10
17.7511301615
 20
18.9566049279
 10
17.7528928914
 20
18.8849585025
  0
LWPOLYLINE
  5
654
100
AcDbEntity
  8
0
100
AcDbPolyline
 62
7
  6
CONTINUOUS
 90
6
 70
0
 10
14.1981444595
 20
32.3297331552
 10
14.1668088818
 20
32.32224789
 10
14.134688114
 20
32.3125651254
 10
14.1017821559
 20
32.3006848612
 10
14.0680910075
 20
32.2866070976
 10
14.0336146689
 20
32.2703318345
  0
LWPOLYLINE
  5
655
100
AcDbEntity
  8
0
100
AcDbPolyline
 62
7
  6
CONTINUOUS
 90
3
 70
0
 10
13.8445910689
 20
32.5338704519
 10
13.9378135066
 20
32.5449089723
 10
14.022479214
 20
32.538824497
  0
LINE
  5
656
100
AcDbEntity
  8
0
100
AcDbLine
 62
7
  6
CONTINUOUS
 10
11.6053090034
 20
26.5057394751
 11
10.3090571629
 21
27.2541790419
  0
LINE
  5
657
100
AcDbEntity
  8
0
100
AcDbLine
 62
7
  6
CONTINUOUS
 10
11.8646920815
 20
28.1523831472
 11
13.1885773023
 21
27.387988413
  0
LINE
  5
658
100
AcDbEntity
  8
0
100
AcDbLine
 62
7
  6
CONTINUOUS
 10
14.022479214
 20
32.538824497
 11
14.0985881911
 21
32.5156170259
  0
LWPOLYLINE
  5
659
100
AcDbEntity
  8
RACCORDO
100
AcDbPolyline
 62
7
  6
CONTINUOUS
 90
9
 70
0
 10
14.1031888558
 20
32.6356383133
 10
14.0689455236
 20
32.6522098247
 10
14.0299713319
 20
32.6646033165
 10
13.9888577332
 20
32.6715397788
 10
13.9455566638
 20
32.6728966149
 10
13.9001161875
 20
32.6687964215
 10
13.8535495745
 20
32.6593306282
 10
13.8061945818
 20
32.6445297116
 10
13.7577134525
 20
32.6243631951
  0
LINE
  5
65A
100
AcDbEntity
  8
0
100
AcDbLine
 62
7
  6
CONTINUOUS
 10
14.0985881911
 20
32.5156170259
 11
14.1323064368
 21
32.4982328244
  0
LWPOLYLINE
  5
65B
100
AcDbEntity
  8
RACCORDO
100
AcDbPolyline
 62
250
  6
CONTINUOUS
 90
13
 70
0
 10
12.3710984097
 20
33.3708026125
 10
12.332627697
 20
33.3919437699
 10
12.2943156029
 20
33.4098812327
 10
12.2563433916
 20
33.4245301247
 10
12.2188906976
 20
33.435821134
 10
12.1821347439
 20
33.4437008197
 10
12.1462494991
 20
33.4481318856
 10
12.111404761
 20
33.4490933755
 10
12.0777653671
 20
33.4465807518
 10
12.0454904781
 20
33.4406059121
 10
12.014732792
 20
33.4311971364
 10
11.9856378224
 20
33.4183989497
 10
11.9779898635
 20
33.4143168683
  0
LWPOLYLINE
  5
65C
100
AcDbEntity
  8
SUPERFICI
100
AcDbPolyline
 62
250
  6
CONTINUOUS
 90
30
 70
0
 10
25.3222161584
 20
26.0377242557
 10
25.3202853374
 20
26.0388256479
 10
25.3064098655
 20
26.0462527406
 10
25.2921752179
 20
26.0530301591
 10
25.2775919654
 20
26.0591528704
 10
25.2626709374
 20
26.0646163277
 10
25.2474232146
 20
26.0694164739
 10
25.2318601198
 20
26.0735497442
 10
25.2159932105
 20
26.0770130694
 10
25.1998342692
 20
26.0798038774
 10
25.1833952958
 20
26.0819200959
 10
25.1666884984
 20
26.0833601532
 10
25.149726284
 20
26.0841229799
 10
25.1325212484
 20
26.0842080097
 10
25.1150861676
 20
26.0836151793
 10
25.0974339882
 20
26.0823449289
 10
25.0795778196
 20
26.0803982018
 10
25.0615309237
 20
26.0777764439
 10
25.0433067035
 20
26.0744816024
 10
25.0249186913
 20
26.0705161242
 10
25.0063805407
 20
26.0658829537
 10
24.9877060159
 20
26.0605855311
 10
24.9689089872
 20
26.0546277906
 10
24.9500034185
 20
26.0480141584
 10
24.931003326
 20
26.0407495372
 10
24.9119228425
 20
26.0328393299
 10
24.8927762136
 20
26.0242894465
 10
24.8735776838
 20
26.0151062568
 10
24.8543414851
 20
26.0052965774
 10
24.8350819023
 20
25.9948677007
  0
LINE
  5
65D
100
AcDbEntity
  8
0
100
AcDbLine
 62
7
  6
CONTINUOUS
 10
15.2036460463
 20
28.5108506975
 11
13.8445910689
 21
29.2955520086
  0
LINE
  5
65E
100
AcDbEntity
  8
0
100
AcDbLine
 62
7
  6
CONTINUOUS
 10
13.2789056439
 20
30.5203757885
 11
15.9952801957
 21
28.9519751665
  0
LINE
  5
65F
100
AcDbEntity
  8
0
100
AcDbLine
 62
7
  6
CONTINUOUS
 10
16.3750546472
 20
29.163597926
 11
13.349616322
 21
30.9104480973
  0
LINE
  5
660
100
AcDbEntity
  8
0
100
AcDbLine
 62
7
  6
CONTINUOUS
 10
13.349616322
 20
31.890361675
 11
17.2387036186
 21
29.6448514117
  0
LINE
  5
661
100
AcDbEntity
  8
0
100
AcDbLine
 62
250
  6
CONTINUOUS
 10
24.8350819023
 20
25.9948677007
 11
13.99835314
 21
32.251859072
  0
LINE
  5
662
100
AcDbEntity
  8
DRAFT
100
AcDbLine
 62
7
  6
CONTINUOUS
 10
13.7031697126
 20
32.5960305634
 11
13.9845244227
 21
32.43357988
  0
LINE
  5
663
100
AcDbEntity
  8
RACCORDO
100
AcDbLine
 62
250
  6
CONTINUOUS
 10
13.7081061866
 20
32.5988310788
 11
12.3710984082
 21
33.3708026134
  0
LINE
  5
664
100
AcDbEntity
  8
0
100
AcDbLine
 62
7
  6
CONTINUOUS
 10
13.8445910689
 20
32.5338704519
 11
14.1981444595
 21
32.3297331552
  0
LINE
  5
665
100
AcDbEntity
  8
SUPERFICI
100
AcDbLine
 62
7
  6
CONTINUOUS
 10
14.1324831946
 20
32.4985365245
 11
25.3227653475
 21
26.0374078566
  0
LINE
  5
666
100
AcDbEntity
  8
RACCORDO
100
AcDbLine
 62
7
  6
CONTINUOUS
 10
14.1031890407
 20
32.6356386337
 11
12.7661812623
 21
33.4076101683
  0
LWPOLYLINE
  5
667
100
AcDbEntity
  8
SUPERFICI
100
AcDbPolyline
 62
250
  6
CONTINUOUS
 90
31
 70
0
 10
24.8350819023
 20
25.9948677007
 10
24.8537166577
 20
25.9839754867
 10
24.8723305631
 20
25.9725263931
 10
24.8909108651
 20
25.9605282305
 10
24.9094449555
 20
25.9479891033
 10
24.9279200087
 20
25.9349176468
 10
24.9463229949
 20
25.9213230563
 10
24.9646411815
 20
25.9072147388
 10
24.9828621425
 20
25.8926022748
 10
25.0009733982
 20
25.8774956784
 10
25.0189625414
 20
25.861905301
 10
25.0368172452
 20
25.8458418231
 10
25.054525275
 20
25.8293162499
 10
25.0720744978
 20
25.8123399036
 10
25.0894528901
 20
25.7949244158
 10
25.1066485457
 20
25.7770817189
 10
25.123649683
 20
25.7588240379
 10
25.1404446536
 20
25.7401638819
 10
25.1570219501
 20
25.7211140357
 10
25.173370214
 20
25.7016875509
 10
25.189478245
 20
25.681897738
 10
25.2053350077
 20
25.6617581564
 10
25.2209296397
 20
25.6412826058
 10
25.2362514545
 20
25.620485114
 10
25.2512899506
 20
25.5993799282
 10
25.2660349457
 20
25.5779813235
 10
25.2804762108
 20
25.5563041414
 10
25.2946034988
 20
25.5343638003
 10
25.3084070406
 20
25.5121755425
 10
25.321877525
 20
25.4897544005
 10
25.3350057499
 20
25.4671157512
  0
LINE
  5
668
100
AcDbEntity
  8
RACCORDO
100
AcDbLine
 62
7
  6
CONTINUOUS
 10
14.1378008587
 20
32.6117644464
 11
14.1031888558
 21
32.6356383133
  0
LINE
  5
669
100
AcDbEntity
  8
RACCORDO
100
AcDbLine
 62
7
  6
CONTINUOUS
 10
14.167682002
 20
32.58371256
 11
14.1378008587
 21
32.6117644464
  0
LINE
  5
66A
100
AcDbEntity
  8
SUPERFICI
100
AcDbLine
 62
250
  6
CONTINUOUS
 10
25.347913999
 20
25.4447579832
 11
25.3715408392
 21
25.4034504983
  0
LWPOLYLINE
  5
66B
100
AcDbEntity
  8
SUPERFICI
100
AcDbPolyline
 62
250
  6
CONTINUOUS
 90
9
 70
0
 10
25.3715408392
 20
25.4034504983
 10
25.3945813529
 20
25.3618353442
 10
25.4170224199
 20
25.3199360412
 10
25.438851261
 20
25.2777761515
 10
25.4600554478
 20
25.2353796312
 10
25.4806229233
 20
25.1927708224
 10
25.500541974
 20
25.1499739004
 10
25.5198013012
 20
25.1070129986
 10
25.5383900433
 20
25.0639125646
  0
LWPOLYLINE
  5
66C
100
AcDbEntity
  8
SUPERFICI
100
AcDbPolyline
 62
250
  6
CONTINUOUS
 90
25
 70
0
 10
25.5383900433
 20
25.0639125646
 10
25.5562976374
 20
25.0206970405
 10
25.573513925
 20
24.9773908236
 10
25.5900292356
 20
24.934018396
 10
25.6058342173
 20
24.8906042864
 10
25.6209198814
 20
24.8471730852
 10
25.6352777085
 20
24.8037494058
 10
25.6488995733
 20
24.7603578362
 10
25.6617777447
 20
24.717022939
 10
25.6739049266
 20
24.6737692655
 10
25.6852742685
 20
24.6306213203
 10
25.6958793297
 20
24.5876035299
 10
25.705714079
 20
24.5447402426
 10
25.7147729726
 20
24.5020557703
 10
25.7230508961
 20
24.4595742632
 10
25.7305431246
 20
24.4173196797
 10
25.7372454621
 20
24.3753159249
 10
25.7431541218
 20
24.3335868434
 10
25.7482656695
 20
24.2921560927
 10
25.7525772685
 20
24.2510471212
 10
25.7560865078
 20
24.2102832691
 10
25.7587912934
 20
24.1698877554
 10
25.7606901092
 20
24.1298835146
 10
25.7617820047
 20
24.0902931893
 10
25.7620664364
 20
24.0511392259
  0
ARC
  5
66D
100
AcDbEntity
  8
SUPERFICI
100
AcDbCircle
 62
7
  6
CONTINUOUS
 10
24.8227411874
 20
25.1713964022
 40
1.0
100
AcDbArc
 50
28.5211121487
 51
60.0347162927
  0
ARC
  5
66E
100
AcDbEntity
  8
RACCORDO
100
AcDbCircle
 62
7
  6
CONTINUOUS
 10
12.3661619342
 20
32.7148010047
 40
0.8
100
AcDbArc
 50
59.9908325557
 51
119.0265653798
  0
ARC
  5
66F
100
AcDbEntity
  8
ASSI
100
AcDbCircle
 62
7
  6
CONTINUOUS
 10
-7.8187458928
 20
-30.6399343336
 40
0.5
100
AcDbArc
 50
239.9984015654
 51
297.4194204711
  0
ARC
  5
670
100
AcDbEntity
  8
ASSI
100
AcDbCircle
 62
7
  6
CONTINUOUS
 10
-22.6869600611
 20
-22.0552138152
 40
0.5
100
AcDbArc
 50
179.9840060021
 51
239.998401565
  0
ARC
  5
671
100
AcDbEntity
  8
ASSI
100
AcDbCircle
 62
7
  6
CONTINUOUS
 10
-22.6869600611
 20
20.096558467
 40
0.5
100
AcDbArc
 50
122.5992954233
 51
180.0013071257
  0
ARC
  5
672
100
AcDbEntity
  8
RACCORDO
100
AcDbCircle
 62
7
  6
CONTINUOUS
 10
1.6405416261
 20
17.9445274528
 40
0.25
100
AcDbArc
 50
0.0007992626
 51
59.9992007505
  0
ARC
  5
673
100
AcDbEntity
  8
RACCORDO
100
AcDbCircle
 62
7
  6
CONTINUOUS
 10
-5.2054792168
 20
21.8973340867
 40
0.25
100
AcDbArc
 50
59.9867464189
 51
118.2699256376
  0
ARC
  5
674
100
AcDbEntity
  8
ASSI
100
AcDbCircle
 62
7
  6
CONTINUOUS
 10
-4.7145951038
 20
18.9491048058
 40
0.25
100
AcDbArc
 50
121.733268332
 51
141.921904304
  0
ARC
  5
675
100
AcDbEntity
  8
RACCORDO
100
AcDbCircle
 62
7
  6
CONTINUOUS
 10
-15.7231209918
 20
-18.7700675964
 40
0.2
100
AcDbArc
 50
180.0007992632
 51
239.9992007512
  0
ARC
  5
676
100
AcDbEntity
  8
RACCORDO
100
AcDbCircle
 62
7
  6
CONTINUOUS
 10
-15.7231209918
 20
-17.5207710688
 40
0.2
100
AcDbArc
 50
121.7332683128
 51
179.9919314117
  0
ARC
  5
677
100
AcDbEntity
  8
RACCORDO
100
AcDbCircle
 62
7
  6
CONTINUOUS
 10
-11.8127364811
 20
-21.0278746042
 40
0.2
100
AcDbArc
 50
240.0064424257
 51
298.2699256376
  0
ARC
  5
678
100
AcDbEntity
  8
RACCORDO
100
AcDbCircle
 62
7
  6
CONTINUOUS
 10
-1.061201243
 20
14.0028323226
 40
0.2
100
AcDbArc
 50
301.2425547428
 51
31.9323994864
  0
ARC
  5
679
100
AcDbEntity
  8
RACCORDO
100
AcDbCircle
 62
7
  6
CONTINUOUS
 10
-11.6254138251
 20
20.1024762668
 40
0.2
100
AcDbArc
 50
114.2212594619
 51
118.7191233489
  0
ARC
  5
67A
100
AcDbEntity
  8
ASSI
100
AcDbCircle
 62
7
  6
CONTINUOUS
 10
-11.7521953351
 20
18.9513327723
 40
0.2
100
AcDbArc
 50
119.0851091966
 51
154.7491244457
  0
ARC
  5
67B
100
AcDbEntity
  8
ASSI
100
AcDbCircle
 62
7
  6
CONTINUOUS
 10
-15.9377215451
 20
19.8979088523
 40
0.2
100
AcDbArc
 50
59.9984015652
 51
118.2824903446
  0
ARC
  5
67C
100
AcDbEntity
  8
ASSI
100
AcDbCircle
 62
7
  6
CONTINUOUS
 10
-5.2341748972
 20
13.3485041751
 40
0.2
100
AcDbArc
 50
315.7312262426
 51
0.0244869022
  0
ARC
  5
67D
100
AcDbEntity
  8
ASSI
100
AcDbCircle
 62
7
  6
CONTINUOUS
 10
-5.2341748972
 20
13.7178151647
 40
0.2
100
AcDbArc
 50
359.9930983179
 51
59.9984015652
  0
ARC
  5
67E
100
AcDbEntity
  8
ASSI
100
AcDbCircle
 62
7
  6
CONTINUOUS
 10
-14.4105176794
 20
19.0161204806
 40
0.2
100
AcDbArc
 50
359.9895357921
 51
59.9984015652
  0
ARC
  5
67F
100
AcDbEntity
  8
ASSI
100
AcDbCircle
 62
7
  6
CONTINUOUS
 10
-14.4105176794
 20
18.646809491
 40
0.2
100
AcDbArc
 50
315.7300106867
 51
0.0272097891
  0
ARC
  5
680
100
AcDbEntity
  8
ASSI
100
AcDbCircle
 62
7
  6
CONTINUOUS
 10
-6.7613787629
 20
14.5996035364
 40
0.2
100
AcDbArc
 50
59.9984015652
 51
118.2824903446
  0
ELLIPSE
  5
681
100
AcDbEntity
  8
0
100
AcDbEllipse
 62
7
  6
CONTINUOUS
 10
16.4152004263
 20
20.1921868908
 30
0.0
 11
-1.0002637881
 21
1.7319588718
 31
0.0
 40
0.5774045053
 41
-2.3563059395
 42
-1.5710339479
  0
ELLIPSE
  5
682
100
AcDbEntity
  8
0
100
AcDbEllipse
 62
7
  6
CONTINUOUS
 10
16.8200060416
 20
20.645882225
 30
0.0
 11
-0.4999425808
 21
0.8660887289
 31
0.0
 40
0.5774045194
 41
4.7125299342
 42
5.4978019258
  0
ELLIPSE
  5
683
100
AcDbEntity
  8
ASSI
100
AcDbEllipse
 62
7
  6
CONTINUOUS
 10
-5.4241899139
 20
-29.3984627168
 30
0.0
 11
-0.2501834304
 21
0.4333025529
 31
0.0
 40
0.5769361983
 41
-3.1677535987
 42
-2.3565853618
  0
ELLIPSE
  5
684
100
AcDbEntity
  8
ASSI
100
AcDbEllipse
 62
7
  6
CONTINUOUS
 10
-5.4241899139
 20
12.8944177411
 30
0.0
 11
-0.2500121049
 21
0.4330057129
 31
0.0
 40
0.5777274115
 41
-2.3559002616
 42
-0.7857891675
  0
ELLIPSE
  5
685
100
AcDbEntity
  8
ASSI
100
AcDbEllipse
 62
7
  6
CONTINUOUS
 10
-4.3264424538
 20
8.2655777799
 30
0.0
 11
0.143107575
 21
0.2366201515
 31
0.0
 40
0.5904602253
 41
-1.5413474331
 42
-0.7734026838
  0
ELLIPSE
  5
686
100
AcDbEntity
  8
ASSI
100
AcDbEllipse
 62
7
  6
CONTINUOUS
 10
-20.4146112842
 20
21.5496991662
 30
0.0
 11
-0.2501834304
 21
0.4333025529
 31
0.0
 40
0.5769361983
 41
-0.7851038024
 42
0.0261609458
  0
ELLIPSE
  5
687
100
AcDbEntity
  8
ASSI
100
AcDbEllipse
 62
7
  6
CONTINUOUS
 10
-4.6868385419
 20
7.6593028491
 30
0.0
 11
0.1461416733
 21
0.2620230697
 31
0.0
 40
0.5671693725
 41
-2.347120172
 42
-1.6021379547
  0
ELLIPSE
  5
688
100
AcDbEntity
  8
ASSI
100
AcDbEllipse
 62
7
  6
CONTINUOUS
 10
-5.2788505943
 20
-23.7295868586
 30
0.0
 11
0.3037200246
 21
0.1710449014
 31
0.0
 40
0.0105151745
 41
0.6673087948
 42
0.7742146559
  0
ELLIPSE
  5
689
100
AcDbEntity
  8
ASSI
100
AcDbEllipse
 62
7
  6
CONTINUOUS
 10
-5.3553856324
 20
-23.6853964868
 30
0.0
 11
0.4568380168
 21
0.0702030008
 31
0.0
 40
0.2209951355
 41
0.2918164413
 42
0.3503969549
  0
ELLIPSE
  5
68A
100
AcDbEntity
  8
ASSI
100
AcDbEllipse
 62
7
  6
CONTINUOUS
 10
-4.6868385419
 20
-24.071407198
 30
0.0
 11
0.1461416733
 21
0.2620230697
 31
0.0
 40
0.5671693725
 41
0.0145836793
 42
0.7595658966
  0
ELLIPSE
  5
68B
100
AcDbEntity
  8
ASSI
100
AcDbEllipse
 62
7
  6
CONTINUOUS
 10
-4.3264424538
 20
-23.9142461213
 30
0.0
 11
0.1999879242
 21
-0.1103320873
 31
0.0
 40
0.0199195284
 41
-0.756955834
 42
0.7963872003
  0
ELLIPSE
  5
68C
100
AcDbEntity
  8
ASSI
100
AcDbEllipse
 62
7
  6
CONTINUOUS
 10
-0.0168897198
 20
19.6880663486
 30
0.0
 11
-0.0997443216
 21
0.1733547677
 31
0.0
 40
0.6165007174
 41
-2.2349887316
 42
-0.8165063841
  0
ELLIPSE
  5
68D
100
AcDbEntity
  8
RACCORDO
100
AcDbEllipse
 62
7
  6
CONTINUOUS
 10
-116.2219977152
 20
-54.3844045585
 30
0.0
 11
402.8595621856
 21
232.6078586167
 31
0.0
 40
0.0628494143
 41
-1.3277255146
 42
-1.3260586827
  0
ELLIPSE
  5
68E
100
AcDbEntity
  8
ASSI
100
AcDbEllipse
 62
7
  6
CONTINUOUS
 10
-3.1944944804
 20
21.5227755127
 30
0.0
 11
-0.1065746657
 21
0.1850801844
 31
0.0
 40
0.5406488238
 41
-0.7513003416
 42
-0.2431306586
  0
ELLIPSE
  5
68F
100
AcDbEntity
  8
ASSI
100
AcDbEllipse
 62
7
  6
CONTINUOUS
 10
-5.0143376006
 20
15.1457353393
 30
0.0
 11
0.999867518
 21
-0.0292282715
 31
0.0
 40
0.5568983954
 41
5.6013315027
 42
7.0848613669
  0
ELLIPSE
  5
690
100
AcDbEntity
  8
RACCORDO
100
AcDbEllipse
 62
7
  6
CONTINUOUS
 10
-116.2219977152
 20
-66.3090472406
 30
0.0
 11
403.1242860915
 21
268.5419470062
 31
0.0
 40
0.0022336512
 41
-1.2929406365
 42
-1.2912738045
  0
ELLIPSE
  5
691
100
AcDbEntity
  8
ASSI
100
AcDbEllipse
 62
7
  6
CONTINUOUS
 10
-4.9789666931
 20
14.662551437
 30
0.0
 11
-0.100004872
 21
0.1732022678
 31
0.0
 40
0.5789151826
 41
-2.3548735497
 42
-0.7868162787
  0
ELLIPSE
  5
692
100
AcDbEntity
  8
0
100
AcDbEllipse
 62
7
  6
CONTINUOUS
 10
-993.6592522269
 20
-539.7465475254
 30
0.0
 11
1091.3872670356
 21
588.1465940607
 31
0.0
 40
0.0261556157
 41
5.8313683858
 42
5.8318271149
  0
ELLIPSE
  5
693
100
AcDbEntity
  8
ASSI
100
AcDbEllipse
 62
7
  6
CONTINUOUS
 10
-1.0063912568
 20
18.6149752164
 30
0.0
 11
0.5013109713
 21
-0.0090323087
 31
0.0
 40
0.5663187271
 41
-0.7565983455
 42
-0.4971873728
  0
ELLIPSE
  5
694
100
AcDbEntity
  8
RACCORDO
100
AcDbEllipse
 62
7
  6
CONTINUOUS
 10
0.0484706187
 20
18.8637692991
 30
0.0
 11
0.0661042222
 21
0.2485176373
 31
0.0
 40
0.4377348049
 41
-0.1176148805
 42
0.6503781016
  0
ELLIPSE
  5
695
100
AcDbEntity
  8
RACCORDO
100
AcDbEllipse
 62
7
  6
CONTINUOUS
 10
1.9056038356
 20
17.5876046851
 30
0.0
 11
0.1387555033
 21
0.2662037777
 31
0.0
 40
0.5463614449
 41
-0.0235765391
 42
0.709509901
  0
ELLIPSE
  5
696
100
AcDbEntity
  8
DRAFT
100
AcDbEllipse
 62
7
  6
CONTINUOUS
 10
21.1738007741
 20
-3.3170327155
 30
0.0
 11
1.0364148088
 21
1.8264749765
 31
0.0
 40
0.5722717666
 41
-2.8408152839
 42
-2.3604340017
  0
ELLIPSE
  5
697
100
AcDbEntity
  8
DRAFT
100
AcDbEllipse
 62
7
  6
CONTINUOUS
 10
21.1738007741
 20
0.7653186685
 30
0.0
 11
1.0364148088
 21
1.8264749765
 31
0.0
 40
0.5722717666
 41
-2.8408152839
 42
-2.3604340017
  0
ELLIPSE
  5
698
100
AcDbEntity
  8
DRAFT
100
AcDbEllipse
 62
7
  6
CONTINUOUS
 10
21.1738007741
 20
4.8476700524
 30
0.0
 11
1.0364148088
 21
1.8264749765
 31
0.0
 40
0.5722717666
 41
-2.8408152839
 42
-2.3604340017
  0
ELLIPSE
  5
699
100
AcDbEntity
  8
ASSI
100
AcDbEllipse
 62
7
  6
CONTINUOUS
 10
-3.974472889
 20
19.4068074855
 30
0.0
 11
-0.1250441155
 21
0.2165688207
 31
0.0
 40
0.5771558487
 41
-0.7852941622
 42
0.0174472731
  0
ELLIPSE
  5
69A
100
AcDbEntity
  8
RACCORDO
100
AcDbEllipse
 62
7
  6
CONTINUOUS
 10
25.3447791965
 20
12.4399207385
 30
0.0
 11
0.7999981053
 21
-0.4659211703
 31
0.0
 40
0.0037369571
 41
0.0021765348
 42
0.7736119404
  0
ELLIPSE
  5
69B
100
AcDbEntity
  8
RACCORDO
100
AcDbEllipse
 62
7
  6
CONTINUOUS
 10
-5.5412521045
 20
21.8873259739
 30
0.0
 11
0.16239016
 21
0.2525073425
 31
0.0
 40
0.6067084637
 41
6.0242970108
 42
7.0453413213
  0
ELLIPSE
  5
69C
100
AcDbEntity
  8
DRAFT
100
AcDbEllipse
 62
7
  6
CONTINUOUS
 10
-1.6304439387
 20
15.464120762
 30
0.0
 11
0.3998888124
 21
-0.01725912
 31
0.0
 40
0.5464172455
 41
2.4321332546
 42
3.9505697038
  0
ELLIPSE
  5
69D
100
AcDbEntity
  8
RACCORDO
100
AcDbEllipse
 62
7
  6
CONTINUOUS
 10
23.9015742774
 20
4.9467635801
 30
0.0
 11
-0.1000352969
 21
0.1732022922
 31
0.0
 40
0.5773316475
 41
0.7851975329
 42
2.3559938597
  0
ELLIPSE
  5
69E
100
AcDbEntity
  8
RACCORDO
100
AcDbEllipse
 62
7
  6
CONTINUOUS
 10
23.9015742774
 20
0.8644121961
 30
0.0
 11
-0.1000352969
 21
0.1732022922
 31
0.0
 40
0.5773316475
 41
0.7851975329
 42
2.3559938597
  0
ELLIPSE
  5
69F
100
AcDbEntity
  8
RACCORDO
100
AcDbEllipse
 62
7
  6
CONTINUOUS
 10
23.9015742774
 20
-3.2179391879
 30
0.0
 11
-0.1000352969
 21
0.1732022922
 31
0.0
 40
0.5773316475
 41
0.7851975329
 42
2.3559938597
  0
ELLIPSE
  5
6A0
100
AcDbEntity
  8
DRAFT
100
AcDbEllipse
 62
7
  6
CONTINUOUS
 10
-10.0662216357
 20
20.3348330791
 30
0.0
 11
0.3998888124
 21
-0.01725912
 31
0.0
 40
0.5464172455
 41
-2.3326156034
 42
-0.8141791541
  0
ELLIPSE
  5
6A1
100
AcDbEntity
  8
DRAFT
100
AcDbEllipse
 62
7
  6
CONTINUOUS
 10
-2684.2483037065
 20
-1612.6219632904
 30
0.0
 11
3269.8823395053
 21
1982.3548394542
 31
0.0
 40
0.0001588544
 41
-0.6095573293
 42
-0.6082270751
  0
ELLIPSE
  5
6A2
100
AcDbEntity
  8
DRAFT
100
AcDbEllipse
 62
7
  6
CONTINUOUS
 10
-2733.7152780207
 20
-1584.060352288
 30
0.0
 11
3351.5145030805
 21
1935.117929008
 31
0.0
 40
0.0126710417
 41
0.6156593962
 42
0.6159821512
  0
ENDSEC
  0
SECTION
  2
OBJECTS
  0
DICTIONARY
  5
C
100
AcDbDictionary
280
0
281
1
  3
ACAD_GROUP
350
D
  3
ACAD_MLINESTYLE
350
17
  3
ACAD_LAYOUT
350
1A
  3
ACAD_PLOTSETTINGS
350
19
  3
ACAD_PLOTSTYLENAME
350
E
  0
DICTIONARY
  5
D
102
{ACAD_REACTORS
330
C
102
}
100
AcDbDictionary
280
0
281
1
  0
ACDBDICTIONARYWDFLT
  5
E
102
{ACAD_REACTORS
330
C
102
}
100
AcDbDictionary
281
1
  3
Normal
350
F
100
AcDbDictionaryWithDefault
340
F
  0
DICTIONARY
  5
17
102
{ACAD_REACTORS
330
C
102
}
100
AcDbDictionary
280
0
281
1
  3
Standard
350
18
  0
DICTIONARY
  5
19
102
{ACAD_REACTORS
330
C
102
}
100
AcDbDictionary
281
1
  0
DICTIONARY
  5
1A
102
{ACAD_REACTORS
330
C
102
}
100
AcDbDictionary
281
1
  3
Model
350
6A3
  3
Layout1
350
6A4
  0
ACDBPLACEHOLDER
  5
F
102
{ACAD_REACTORS
330
E
102
}
  0
MLINESTYLE
  5
18
102
{ACAD_REACTORS
330
17
102
}
100
AcDbMlineStyle
  2
STANDARD
 70
0
  3

 62
256
 51
90.0
 52
90.0
 71
2
 49
0.5
 62
256
  6
BYLAYER
 49
-0.5
 62
256
  6
BYLAYER
  0
LAYOUT
  5
6A3
102
{ACAD_REACTORS
330
1A
102
}
100
AcDbPlotSettings
  1

  2
none_device
  4
ISO_A4_(297.00_x_210.00_MM)
  6

 40
0.0
 41
0.0
 42
0.0
 43
0.0
 44
297.0
 45
210.0
 46
0.0
 47
0.0
 48
0.0
 49
0.0
140
0.0
141
0.0
142
1.0
143
1.0
 70
1024
 72
1
 73
0
 74
0
  7

 75
0
147
1.0
148
0.0
149
0.0
100
AcDbLayout
  1
Model
 70
0
 71
0
 10
0.0
 20
0.0
 11
297.0
 21
210.0
 12
0.0
 22
0.0
 32
0.0
 14
0.0
 24
0.0
 34
0.0
 15
0.0
 25
0.0
 35
0.0
146
0.0
 13
0.0
 23
0.0
 33
0.0
 16
1.0
 26
0.0
 36
0.0
 17
0.0
 27
1.0
 37
0.0
 76
0
330
229
345
0
346
0
  0
LAYOUT
  5
6A4
102
{ACAD_REACTORS
330
1A
102
}
100
AcDbPlotSettings
  1

  2
none_device
  4
ISO_A4_(297.00_x_210.00_MM)
  6

 40
0.0
 41
0.0
 42
0.0
 43
0.0
 44
297.0
 45
210.0
 46
0.0
 47
0.0
 48
0.0
 49
0.0
140
0.0
141
0.0
142
1.0
143
1.0
 70
0
 72
1
 73
0
 74
0
  7

 75
0
147
1.0
148
0.0
149
0.0
100
AcDbLayout
  1
Layout1
 70
0
 71
1
 10
0.0
 20
0.0
 11
297.0
 21
210.0
 12
0.0
 22
0.0
 32
0.0
 14
0.0
 24
0.0
 34
0.0
 15
0.0
 25
0.0
 35
0.0
146
0.0
 13
0.0
 23
0.0
 33
0.0
 16
1.0
 26
0.0
 36
0.0
 17
0.0
 27
1.0
 37
0.0
 76
0
330
22A
345
0
346
0
  0
ENDSEC
  0
EOF
