  0
SECTION
  2
HEADER
  9
$ACADVER
  1
AC1024
  9
$DWGCODEPAGE
  3
ANSI_1252
  9
$EXTMAX
 10
297.0
 20
210.0
 30
0.0
  9
$EXTMIN
 10
0.0
 20
0.0
 30
0.0
  9
$LIMMIN
 10
0.0
 20
0.0
  9
$LIMMAX
 10
297.0
 20
210.0
  9
$VIEWCTR
 10
148.5
 20
105.0
  9
$VIEWSIZE
 40
210.0
  9
$CLAYER
  8
0
  9
$LTSCALE
 40
16.335
  9
$CELTYPE
  6
BYLAYER
  9
$DIMSCALE
 40
1.0
  9
$DIMASZ
 40
3.0
  9
$DIMEXO
 40
0.5
  9
$DIMDLI
 40
11.286
  9
$DIMEXE
 40
1.5
  9
$DIMCEN
 40
2.673
  9
$DIMLFAC
 40
1.0
  9
$DIMBLK
  1
_FILLED
  9
$DIMALT
 70
0
  9
$DIMALTF
 40
0.0393700787
  9
$DIMTXT
 40
3.0
  9
$DIMTOL
 70
1
  9
$DIMLIM
 70
0
  9
$DIMTFAC
 40
1.0
  9
$DIMTP
 40
0.01
  9
$DIMTM
 40
0.01
  9
$DIMGAP
 40
0.625
  9
$DIMDSEP
 70
44
  9
$AUNITS
 70
0
  9
$PDMODE
 70
3
  9
$PDSIZE
 40
3.0
  9
$HANDSEED
  5
5E6
  9
$TILEMODE
 70
1
  9
$MEASUREMENT
 70
1
  9
$INSUNITS
 70
4
  0
ENDSEC
  0
SECTION
  2
CLASSES
  0
CLASS
  1
ACDBDICTIONARYWDFLT
  2
AcDbDictionaryWithDefault
  3
AutoCAD 2000
 90
0
 91
1
280
0
281
0
  0
CLASS
  1
ACDBPLACEHOLDER
  2
AcDbPlaceHolder
  3
AutoCAD 2000
 90
0
 91
1
280
0
281
0
  0
CLASS
  1
LAYOUT
  2
AcDbLayout
  3
AutoCAD 2000
 90
0
 91
0
280
0
281
0
  0
ENDSEC
  0
SECTION
  2
TABLES
  0
TABLE
  2
VPORT
  5
8
100
AcDbSymbolTable
 70
2
  0
VPORT
  5
1F4
100
AcDbSymbolTableRecord
100
AcDbViewportTableRecord
  2
*ACTIVE
 70
0
 10
0.0
 20
0.0
 11
1.0
 21
1.0
 12
148.5
 22
105.0
 13
0.0
 23
0.0
 14
1.0
 24
1.0
 15
0.0
 25
0.0
 16
0.0
 26
0.0
 36
1.0
 17
0.0
 27
0.0
 37
0.0
 40
210.0
 41
1.4142857143
 42
50.0
 43
0.0
 44
0.0
 50
0.0
 51
0.0
 71
0
 72
100
 73
1
 74
1
 75
0
 76
0
 77
0
 78
0
  0
ENDTAB
  0
TABLE
  2
LTYPE
  5
5
100
AcDbSymbolTable
 70
6
  0
LTYPE
  5
14
100
AcDbSymbolTableRecord
100
AcDbLinetypeTableRecord
  2
BYBLOCK
 70
0
  3

 72
65
 73
0
 40
0.0
  0
LTYPE
  5
15
100
AcDbSymbolTableRecord
100
AcDbLinetypeTableRecord
  2
BYLAYER
 70
0
  3

 72
65
 73
0
 40
0.0
  0
LTYPE
  5
16
100
AcDbSymbolTableRecord
100
AcDbLinetypeTableRecord
  2
CONTINUOUS
 70
64
  3
Solid line
 72
65
 73
0
 40
0.0
  0
LTYPE
  5
1F5
100
AcDbSymbolTableRecord
100
AcDbLinetypeTableRecord
  2
CENTER
 70
64
  3
____ _ ____ _ ____ _ ____ _ ____ _ ____ _ ____
 72
65
 73
4
 40
0.6
 49
0.375
 74
0
 49
-0.075
 74
0
 49
0.075
 74
0
 49
-0.075
 74
0
  0
LTYPE
  5
1F6
100
AcDbSymbolTableRecord
100
AcDbLinetypeTableRecord
  2
HIDDEN
 70
64
  3
- - - - - - - - - - - - - - - - - - - -
 72
65
 73
2
 40
0.2
 49
0.1
 74
0
 49
-0.1
 74
0
  0
LTYPE
  5
1F7
100
AcDbSymbolTableRecord
100
AcDbLinetypeTableRecord
  2
PHANTOM
 70
64
  3
_____ _ _ _____ _ _ _____ _ _ _____
 72
65
 73
6
 40
0.8
 49
0.45
 74
0
 49
-0.05
 74
0
 49
0.1
 74
0
 49
-0.05
 74
0
 49
0.1
 74
0
 49
-0.05
 74
0
  0
LTYPE
  5
1F8
100
AcDbSymbolTableRecord
100
AcDbLinetypeTableRecord
  2
DOT
 70
64
  3
. . . . . . . . . . . . . . . . . . . .
 72
65
 73
2
 40
0.2
 49
0.1
 74
0
 49
-0.1
 74
0
  0
LTYPE
  5
1F9
100
AcDbSymbolTableRecord
100
AcDbLinetypeTableRecord
  2
DASHED
 70
64
  3
- - - - - - - - - - - - - - - - - - - -
 72
65
 73
2
 40
0.2
 49
0.1
 74
0
 49
-0.1
 74
0
  0
ENDTAB
  0
TABLE
  2
LAYER
  5
2
100
AcDbSymbolTable
 70
36
  0
LAYER
  5
10
100
AcDbSymbolTableRecord
100
AcDbLayerTableRecord
  2
0
 70
0
 62
7
  6
CONTINUOUS
370
-3
390
F
  0
LAYER
  5
1FA
100
AcDbSymbolTableRecord
100
AcDbLayerTableRecord
  2
DEFAULT_1
 70
0
 62
7
  6
CENTER
370
-3
390
F
  0
LAYER
  5
1FB
100
AcDbSymbolTableRecord
100
AcDbLayerTableRecord
  2
DEFAULT_2
 70
0
 62
7
  6
HIDDEN
370
-3
390
F
  0
LAYER
  5
1FC
100
AcDbSymbolTableRecord
100
AcDbLayerTableRecord
  2
DEFAULT_3
 70
0
 62
7
  6
PHANTOM
370
-3
390
F
  0
LAYER
  5
1FD
100
AcDbSymbolTableRecord
100
AcDbLayerTableRecord
  2
ASSI
 70
0
 62
7
  6
CONTINUOUS
370
-3
390
F
  0
LAYER
  5
1FE
100
AcDbSymbolTableRecord
100
AcDbLayerTableRecord
  2
COLOR19
 70
0
 62
7
  6
CONTINUOUS
370
-3
390
F
  0
LAYER
  5
1FF
100
AcDbSymbolTableRecord
100
AcDbLayerTableRecord
  2
COLOR23
 70
0
 62
7
  6
CONTINUOUS
370
-3
390
F
  0
LAYER
  5
200
100
AcDbSymbolTableRecord
100
AcDbLayerTableRecord
  2
COLOR7
 70
0
 62
7
  6
CONTINUOUS
370
-3
390
F
  0
LAYER
  5
201
100
AcDbSymbolTableRecord
100
AcDbLayerTableRecord
  2
COORDINATE
 70
0
 62
7
  6
CONTINUOUS
370
-3
390
F
  0
LAYER
  5
202
100
AcDbSymbolTableRecord
100
AcDbLayerTableRecord
  2
COPY_PUBLISH
 70
0
 62
7
  6
CONTINUOUS
370
-3
390
F
  0
LAYER
  5
203
100
AcDbSymbolTableRecord
100
AcDbLayerTableRecord
  2
COSMETIC
 70
0
 62
7
  6
CONTINUOUS
370
-3
390
F
  0
LAYER
  5
204
100
AcDbSymbolTableRecord
100
AcDbLayerTableRecord
  2
COSMETICI
 70
0
 62
7
  6
CONTINUOUS
370
-3
390
F
  0
LAYER
  5
205
100
AcDbSymbolTableRecord
100
AcDbLayerTableRecord
  2
CURVE
 70
0
 62
7
  6
CONTINUOUS
370
-3
390
F
  0
LAYER
  5
206
100
AcDbSymbolTableRecord
100
AcDbLayerTableRecord
  2
DRAFT
 70
0
 62
7
  6
CONTINUOUS
370
-3
390
F
  0
LAYER
  5
207
100
AcDbSymbolTableRecord
100
AcDbLayerTableRecord
  2
IMPORT_IGES
 70
0
 62
7
  6
CONTINUOUS
370
-3
390
F
  0
LAYER
  5
208
100
AcDbSymbolTableRecord
100
AcDbLayerTableRecord
  2
INTFCLR_1
 70
0
 62
7
  6
CONTINUOUS
370
-3
390
F
  0
LAYER
  5
209
100
AcDbSymbolTableRecord
100
AcDbLayerTableRecord
  2
INTFCLR_1_1
 70
0
 62
7
  6
CONTINUOUS
370
-3
390
F
  0
LAYER
  5
20A
100
AcDbSymbolTableRecord
100
AcDbLayerTableRecord
  2
INTFCLR_1_2
 70
0
 62
7
  6
CONTINUOUS
370
-3
390
F
  0
LAYER
  5
20B
100
AcDbSymbolTableRecord
100
AcDbLayerTableRecord
  2
INTFCLR_2169
 70
0
 62
7
  6
CONTINUOUS
370
-3
390
F
  0
LAYER
  5
20C
100
AcDbSymbolTableRecord
100
AcDbLayerTableRecord
  2
INTFCLR_3737
 70
0
 62
7
  6
CONTINUOUS
370
-3
390
F
  0
LAYER
  5
20D
100
AcDbSymbolTableRecord
100
AcDbLayerTableRecord
  2
INTFCLR_4685
 70
0
 62
7
  6
CONTINUOUS
370
-3
390
F
  0
LAYER
  5
20E
100
AcDbSymbolTableRecord
100
AcDbLayerTableRecord
  2
INTFCLR_7651
 70
0
 62
7
  6
CONTINUOUS
370
-3
390
F
  0
LAYER
  5
20F
100
AcDbSymbolTableRecord
100
AcDbLayerTableRecord
  2
INTFCLR_9403
 70
0
 62
7
  6
CONTINUOUS
370
-3
390
F
  0
LAYER
  5
210
100
AcDbSymbolTableRecord
100
AcDbLayerTableRecord
  2
INTF_1
 70
0
 62
7
  6
CONTINUOUS
370
-3
390
F
  0
LAYER
  5
211
100
AcDbSymbolTableRecord
100
AcDbLayerTableRecord
  2
INTF_10
 70
0
 62
7
  6
CONTINUOUS
370
-3
390
F
  0
LAYER
  5
212
100
AcDbSymbolTableRecord
100
AcDbLayerTableRecord
  2
INTF_11
 70
0
 62
7
  6
CONTINUOUS
370
-3
390
F
  0
LAYER
  5
213
100
AcDbSymbolTableRecord
100
AcDbLayerTableRecord
  2
INTF_2
 70
0
 62
7
  6
CONTINUOUS
370
-3
390
F
  0
LAYER
  5
214
100
AcDbSymbolTableRecord
100
AcDbLayerTableRecord
  2
INTF_3
 70
0
 62
7
  6
CONTINUOUS
370
-3
390
F
  0
LAYER
  5
215
100
AcDbSymbolTableRecord
100
AcDbLayerTableRecord
  2
INTF_5
 70
0
 62
7
  6
CONTINUOUS
370
-3
390
F
  0
LAYER
  5
216
100
AcDbSymbolTableRecord
100
AcDbLayerTableRecord
  2
INTF_7
 70
0
 62
7
  6
CONTINUOUS
370
-3
390
F
  0
LAYER
  5
217
100
AcDbSymbolTableRecord
100
AcDbLayerTableRecord
  2
INTF_8
 70
0
 62
7
  6
CONTINUOUS
370
-3
390
F
  0
LAYER
  5
218
100
AcDbSymbolTableRecord
100
AcDbLayerTableRecord
  2
INTF_9
 70
0
 62
7
  6
CONTINUOUS
370
-3
390
F
  0
LAYER
  5
219
100
AcDbSymbolTableRecord
100
AcDbLayerTableRecord
  2
INTF_GREEN
 70
0
 62
7
  6
CONTINUOUS
370
-3
390
F
  0
LAYER
  5
21A
100
AcDbSymbolTableRecord
100
AcDbLayerTableRecord
  2
INTF_RED
 70
0
 62
7
  6
CONTINUOUS
370
-3
390
F
  0
LAYER
  5
21B
100
AcDbSymbolTableRecord
100
AcDbLayerTableRecord
  2
LAY0001
 70
0
 62
7
  6
CONTINUOUS
370
-3
390
F
  0
LAYER
  5
21C
100
AcDbSymbolTableRecord
100
AcDbLayerTableRecord
  2
NOTE
 70
0
 62
7
  6
CONTINUOUS
370
-3
390
F
  0
LAYER
  5
21D
100
AcDbSymbolTableRecord
100
AcDbLayerTableRecord
  2
PCB
 70
0
 62
7
  6
CONTINUOUS
370
-3
390
F
  0
LAYER
  5
21E
100
AcDbSymbolTableRecord
100
AcDbLayerTableRecord
  2
PIANI
 70
0
 62
7
  6
CONTINUOUS
370
-3
390
F
  0
LAYER
  5
21F
100
AcDbSymbolTableRecord
100
AcDbLayerTableRecord
  2
PUNTI
 70
0
 62
7
  6
CONTINUOUS
370
-3
390
F
  0
LAYER
  5
220
100
AcDbSymbolTableRecord
100
AcDbLayerTableRecord
  2
RACCORDO
 70
0
 62
7
  6
CONTINUOUS
370
-3
390
F
  0
LAYER
  5
221
100
AcDbSymbolTableRecord
100
AcDbLayerTableRecord
  2
SIMBOLI
 70
0
 62
7
  6
CONTINUOUS
370
-3
390
F
  0
LAYER
  5
222
100
AcDbSymbolTableRecord
100
AcDbLayerTableRecord
  2
SMUSSO
 70
0
 62
7
  6
CONTINUOUS
370
-3
390
F
  0
LAYER
  5
223
100
AcDbSymbolTableRecord
100
AcDbLayerTableRecord
  2
SPEAKER_TERMINAL-BLOCK_JACK
 70
0
 62
7
  6
CONTINUOUS
370
-3
390
F
  0
LAYER
  5
224
100
AcDbSymbolTableRecord
100
AcDbLayerTableRecord
  2
SUPERFICI
 70
0
 62
7
  6
CONTINUOUS
370
-3
390
F
  0
LAYER
  5
225
100
AcDbSymbolTableRecord
100
AcDbLayerTableRecord
  2
TRASH
 70
0
 62
7
  6
CONTINUOUS
370
-3
390
F
  0
LAYER
  5
226
100
AcDbSymbolTableRecord
100
AcDbLayerTableRecord
  2
___SHELL
 70
0
 62
7
  6
CONTINUOUS
370
-3
390
F
  0
LAYER
  5
227
100
AcDbSymbolTableRecord
100
AcDbLayerTableRecord
  2
____-4671
 70
0
 62
7
  6
CONTINUOUS
370
-3
390
F
  0
LAYER
  5
228
100
AcDbSymbolTableRecord
100
AcDbLayerTableRecord
  2
____-4671_1
 70
0
 62
7
  6
CONTINUOUS
370
-3
390
F
  0
LAYER
  5
229
100
AcDbSymbolTableRecord
100
AcDbLayerTableRecord
  2
____-7645
 70
0
 62
7
  6
CONTINUOUS
370
-3
390
F
  0
LAYER
  5
22A
100
AcDbSymbolTableRecord
100
AcDbLayerTableRecord
  2
____-9019
 70
0
 62
7
  6
CONTINUOUS
370
-3
390
F
  0
LAYER
  5
22B
100
AcDbSymbolTableRecord
100
AcDbLayerTableRecord
  2
____-9019_1
 70
0
 62
7
  6
CONTINUOUS
370
-3
390
F
  0
LAYER
  5
22C
100
AcDbSymbolTableRecord
100
AcDbLayerTableRecord
  2
____-9397
 70
0
 62
7
  6
CONTINUOUS
370
-3
390
F
  0
LAYER
  5
22D
100
AcDbSymbolTableRecord
100
AcDbLayerTableRecord
  2
____IDC
 70
0
 62
7
  6
CONTINUOUS
370
-3
390
F
  0
LAYER
  5
22E
100
AcDbSymbolTableRecord
100
AcDbLayerTableRecord
  2
______IDC-2P
 70
0
 62
7
  6
CONTINUOUS
370
-3
390
F
  0
ENDTAB
  0
TABLE
  2
STYLE
  5
3
100
AcDbSymbolTable
 70
1
  0
STYLE
  5
11
100
AcDbSymbolTableRecord
100
AcDbTextStyleTableRecord
  2
STANDARD
 70
0
 40
0.0
 41
0.8
 50
0.0
 71
0
 42
0.2
  3
txt
  4

  0
STYLE
  5
22F
100
AcDbSymbolTableRecord
100
AcDbTextStyleTableRecord
  2
TEXTSTYLE_1
 70
0
 40
0.0
 41
0.8
 50
0.0
 71
0
 42
0.2
  3
gdt
  4

  0
ENDTAB
  0
TABLE
  2
VIEW
  5
6
100
AcDbSymbolTable
 70
0
  0
ENDTAB
  0
TABLE
  2
UCS
  5
7
100
AcDbSymbolTable
 70
0
  0
ENDTAB
  0
TABLE
  2
APPID
  5
9
100
AcDbSymbolTable
 70
1
  0
APPID
  5
230
100
AcDbSymbolTableRecord
100
AcDbRegAppTableRecord
  2
ACAD
 70
0
  0
ENDTAB
  0
TABLE
  2
BLOCK_RECORD
  5
1
100
AcDbSymbolTable
 70
0
  0
BLOCK_RECORD
  5
231
100
AcDbSymbolTableRecord
100
AcDbBlockTableRecord
  2
*Model_Space
  0
BLOCK_RECORD
  5
232
100
AcDbSymbolTableRecord
100
AcDbBlockTableRecord
  2
*Paper_Space
  0
BLOCK_RECORD
  5
233
100
AcDbSymbolTableRecord
100
AcDbBlockTableRecord
  2
_FILLED
  0
ENDTAB
  0
TABLE
  2
DIMSTYLE
  5
A
100
AcDbSymbolTable
 70
1
100
AcDbDimStyleTable
 71
0
  0
DIMSTYLE
105
234
100
AcDbSymbolTableRecord
100
AcDbDimStyleTableRecord
  2
STANDARD
 70
0
  3

  4

 40
1.0
 41
3.0
 42
0.5
 43
0.38
 44
1.5
 45
0.0
 46
0.0
 47
0.01
 48
0.01
140
3.0
141
0.09
142
0.0
143
25.4
144
1.0
145
0.0
146
1.0
147
0.625
 71
1
 72
0
 73
0
 74
0
 75
0
 76
0
 77
1
 78
8
 79
2
170
0
171
1
172
0
173
0
174
0
175
0
176
0
177
0
178
0
270
2
179
2
271
2
272
2
273
2
274
2
275
0
280
0
281
0
282
0
283
1
284
8
285
0
286
0
287
3
288
0
340
11
278
44
341
233
342
233
343
233
344
233
  0
ENDTAB
  0
ENDSEC
  0
SECTION
  2
BLOCKS
  0
BLOCK
  5
20
100
AcDbEntity
  8
0
100
AcDbBlockBegin
  2
*Model_Space
 70
0
 10
0.0
 20
0.0
 30
0.0
  3
*Model_Space
  1

  0
ENDBLK
  5
21
100
AcDbEntity
  8
0
100
AcDbBlockEnd
  0
BLOCK
  5
1C
100
AcDbEntity
  8
0
100
AcDbBlockBegin
  2
*Paper_Space
 70
0
 10
0.0
 20
0.0
 30
0.0
  3
*Paper_Space
  1

  0
ENDBLK
  5
1D
100
AcDbEntity
  8
0
100
AcDbBlockEnd
  0
BLOCK
  5
235
100
AcDbEntity
  8
0
100
AcDbBlockBegin
  2
_FILLED
 70
64
 10
0.0
 20
0.0
  3
_FILLED
  1

  0
SOLID
  5
236
100
AcDbEntity
  8
0
  6
BYBLOCK
 62
0
100
AcDbTrace
 10
0.0
 20
0.0
 11
-1.0
 21
0.3166666667
 12
-1.0
 22
-0.3166666667
 13
-1.0
 23
-0.3166666667
  0
ENDBLK
  5
237
100
AcDbEntity
  8
0
  6
BYBLOCK
 62
0
100
AcDbBlockEnd
  0
ENDSEC
  0
SECTION
  2
ENTITIES
  0
LWPOLYLINE
  5
238
100
AcDbEntity
  8
LAY0001
100
AcDbPolyline
 62
250
  6
CONTINUOUS
 90
9
 70
0
 10
126.402149422
 20
139.7236314382
 10
126.4226513693
 20
139.7348044212
 10
126.4516487946
 20
139.7450828788
 10
126.4831080748
 20
139.7505023837
 10
126.5166433104
 20
139.750985122
 10
126.5517451131
 20
139.7465525819
 10
126.5879641205
 20
139.7373254159
 10
126.6249402693
 20
139.7234567042
 10
126.6622684233
 20
139.7051494771
  0
LINE
  5
239
100
AcDbEntity
  8
LAY0001
100
AcDbLine
 62
7
  6
CONTINUOUS
 10
126.402149422
 20
139.7236314382
 11
128.6872351989
 21
141.1849173012
  0
LINE
  5
23A
100
AcDbEntity
  8
LAY0001
100
AcDbLine
 62
250
  6
CONTINUOUS
 10
126.6622684233
 20
139.7051494771
 11
128.9436297997
 21
141.1640536293
  0
LINE
  5
23B
100
AcDbEntity
  8
ASSI
100
AcDbLine
 62
250
  6
CONTINUOUS
 10
133.3298894131
 20
139.2818077888
 11
133.3260366913
 21
139.2798935234
  0
LINE
  5
23C
100
AcDbEntity
  8
ASSI
100
AcDbLine
 62
250
  6
CONTINUOUS
 10
133.9572509482
 20
137.8132008395
 11
134.9504338968
 21
138.3866541955
  0
LINE
  5
23D
100
AcDbEntity
  8
ASSI
100
AcDbLine
 62
250
  6
CONTINUOUS
 10
134.0416874261
 20
137.5353991413
 11
135.0918337139
 21
138.1417425284
  0
LINE
  5
23E
100
AcDbEntity
  8
ASSI
100
AcDbLine
 62
250
  6
CONTINUOUS
 10
136.9714968541
 20
139.1041102794
 11
135.1479657539
 21
138.0966536058
  0
LINE
  5
23F
100
AcDbEntity
  8
ASSI
100
AcDbLine
 62
250
  6
CONTINUOUS
 10
137.6318397076
 20
139.0152136425
 11
134.877361684
 21
137.4937447334
  0
LINE
  5
240
100
AcDbEntity
  8
RACCORDO
100
AcDbLine
 62
250
  6
CONTINUOUS
 10
137.8003485969
 20
139.5598718532
 11
136.9714968541
 21
139.1041102794
  0
LINE
  5
241
100
AcDbEntity
  8
RACCORDO
100
AcDbLine
 62
250
  6
CONTINUOUS
 10
138.4521487331
 20
139.4663200875
 11
137.6317805033
 21
139.0152478263
  0
LINE
  5
242
100
AcDbEntity
  8
RACCORDO
100
AcDbLine
 62
7
  6
CONTINUOUS
 10
137.7049302107
 20
139.5177032147
 11
135.1726678383
 21
138.1303094235
  0
LINE
  5
243
100
AcDbEntity
  8
RACCORDO
100
AcDbLine
 62
250
  6
CONTINUOUS
 10
137.7097708296
 20
139.5200965453
 11
137.7050722304
 21
139.5175224297
  0
LINE
  5
244
100
AcDbEntity
  8
ASSI
100
AcDbLine
 62
7
  6
CONTINUOUS
 10
133.3260366913
 20
139.2798935234
 11
132.7465776496
 21
138.9682792028
  0
LINE
  5
245
100
AcDbEntity
  8
ASSI
100
AcDbLine
 62
250
  6
CONTINUOUS
 10
133.4232300311
 20
139.2684425672
 11
132.8037162384
 21
138.9352880978
  0
LWPOLYLINE
  5
246
100
AcDbEntity
  8
ASSI
100
AcDbPolyline
 62
250
  6
CONTINUOUS
 90
8
 70
0
 10
137.6501602435
 20
138.4106121572
 10
137.6536919579
 20
138.412440442
 10
137.6670384477
 20
138.4171449909
 10
137.6816140082
 20
138.4190832673
 10
137.6971961395
 20
138.4182256293
 10
137.7135469824
 20
138.4145851281
 10
137.7304169558
 20
138.4082172939
 10
137.7475485381
 20
138.3992192924
  0
LWPOLYLINE
  5
247
100
AcDbEntity
  8
ASSI
100
AcDbPolyline
 62
250
  6
CONTINUOUS
 90
8
 70
0
 10
137.5090665362
 20
138.3319517776
 10
137.5125343368
 20
138.3337365839
 10
137.5259211791
 20
138.3384258703
 10
137.5405420814
 20
138.3403367741
 10
137.556140165
 20
138.3394435794
 10
137.5724605711
 20
138.3357795302
 10
137.5892620622
 20
138.329416526
 10
137.6062880981
 20
138.3204662829
  0
LWPOLYLINE
  5
248
100
AcDbEntity
  8
ASSI
100
AcDbPolyline
 62
250
  6
CONTINUOUS
 90
9
 70
0
 10
134.9504338968
 20
138.3866541955
 10
134.9650372793
 20
138.3939167617
 10
134.9794577503
 20
138.3993369454
 10
134.9935408063
 20
138.4028566749
 10
135.0071355484
 20
138.4044382401
 10
135.0200963318
 20
138.4040647007
 10
135.0322843205
 20
138.4017400526
 10
135.0435689363
 20
138.3974891847
 10
135.0479705859
 20
138.3951622267
  0
LINE
  5
249
100
AcDbEntity
  8
RACCORDO
100
AcDbLine
 62
7
  6
CONTINUOUS
 10
137.717264534
 20
139.5238126629
 11
137.704963909
 21
139.5177201514
  0
LINE
  5
24A
100
AcDbEntity
  8
RACCORDO
100
AcDbLine
 62
250
  6
CONTINUOUS
 10
137.8087331855
 20
139.5639788939
 11
137.8003485969
 21
139.5598718532
  0
LINE
  5
24B
100
AcDbEntity
  8
RACCORDO
100
AcDbLine
 62
250
  6
CONTINUOUS
 10
135.1479657539
 20
138.1184053143
 11
135.1716911982
 21
138.1295397339
  0
LINE
  5
24C
100
AcDbEntity
  8
RACCORDO
100
AcDbLine
 62
7
  6
CONTINUOUS
 10
135.1729184796
 20
138.1304343568
 11
135.1479657539
 21
138.1190620585
  0
LINE
  5
24D
100
AcDbEntity
  8
DRAFT
100
AcDbLine
 62
7
  6
CONTINUOUS
 10
137.0837849404
 20
137.5979712804
 11
137.1316344378
 21
137.6193795173
  0
LINE
  5
24E
100
AcDbEntity
  8
RACCORDO
100
AcDbLine
 62
250
  6
CONTINUOUS
 10
137.7097708296
 20
139.5200965453
 11
137.717214447
 21
139.5237903752
  0
LINE
  5
24F
100
AcDbEntity
  8
RACCORDO
100
AcDbLine
 62
250
  6
CONTINUOUS
 10
137.7375097985
 20
139.5328001863
 11
137.7499683717
 21
139.5378863516
  0
LINE
  5
250
100
AcDbEntity
  8
RACCORDO
100
AcDbLine
 62
7
  6
CONTINUOUS
 10
137.757829262
 20
139.5417648517
 11
137.717214447
 21
139.5237903752
  0
LINE
  5
251
100
AcDbEntity
  8
RACCORDO
100
AcDbLine
 62
250
  6
CONTINUOUS
 10
137.7499683717
 20
139.5378863516
 11
137.757829262
 21
139.5417648517
  0
LWPOLYLINE
  5
252
100
AcDbEntity
  8
RACCORDO
100
AcDbPolyline
 62
7
  6
CONTINUOUS
 90
3
 70
0
 10
137.8087331855
 20
139.5639788939
 10
137.7985403875
 20
139.559558679
 10
137.757829262
 20
139.5417648517
  0
LINE
  5
253
100
AcDbEntity
  8
RACCORDO
100
AcDbLine
 62
250
  6
CONTINUOUS
 10
137.7902607272
 20
139.5554971417
 11
137.7985403875
 21
139.559558679
  0
LWPOLYLINE
  5
254
100
AcDbEntity
  8
RACCORDO
100
AcDbPolyline
 62
250
  6
CONTINUOUS
 90
8
 70
0
 10
144.1047669453
 20
141.3610898002
 10
144.1189446975
 20
141.3671092096
 10
144.13404188
 20
141.3705427655
 10
144.1504676279
 20
141.3714727897
 10
144.1681278654
 20
141.3697274285
 10
144.1868753492
 20
141.3651488281
 10
144.2065026363
 20
141.357617453
 10
144.2267787204
 20
141.3470557981
  0
LWPOLYLINE
  5
255
100
AcDbEntity
  8
ASSI
100
AcDbPolyline
 62
250
  6
CONTINUOUS
 90
4
 70
0
 10
140.1240015384
 20
138.6181409744
 10
140.1771681493
 20
138.6405135995
 10
140.2319499182
 20
138.6665092548
 10
140.2882177832
 20
138.6962555627
  0
LINE
  5
256
100
AcDbEntity
  8
RACCORDO
100
AcDbLine
 62
250
  6
CONTINUOUS
 10
137.8003485969
 20
139.5598718532
 11
137.841320407
 21
139.5754244998
  0
LWPOLYLINE
  5
257
100
AcDbEntity
  8
ASSI
100
AcDbPolyline
 62
250
  6
CONTINUOUS
 90
13
 70
0
 10
136.9714968541
 20
139.1041102794
 10
137.0184128186
 20
139.1218107642
 10
137.0674279752
 20
139.1349770144
 10
137.1183694081
 20
139.1435635335
 10
137.1710599646
 20
139.147542719
 10
137.2253108343
 20
139.1469004859
 10
137.2809222255
 20
139.1416362809
 10
137.3376983726
 20
139.1317702306
 10
137.3954375493
 20
139.1173394063
 10
137.453924571
 20
139.0983940076
 10
137.5129485981
 20
139.075003186
 10
137.5723040383
 20
139.0472539687
 10
137.6317805033
 20
139.0152478263
  0
LWPOLYLINE
  5
258
100
AcDbEntity
  8
RACCORDO
100
AcDbPolyline
 62
250
  6
CONTINUOUS
 90
12
 70
0
 10
139.7367623131
 20
138.9345007062
 10
139.7275798673
 20
138.9310987603
 10
139.7181005117
 20
138.9279569843
 10
139.7084266845
 20
138.9250716966
 10
139.6985756267
 20
138.9224483481
 10
139.6885300974
 20
138.9200814879
 10
139.6783408123
 20
138.9179510814
 10
139.668016088
 20
138.9160555428
 10
139.657547608
 20
138.9143964579
 10
139.6469611373
 20
138.9129585493
 10
139.6362630367
 20
138.9117390597
 10
139.6254469455
 20
138.9107407465
  0
LWPOLYLINE
  5
259
100
AcDbEntity
  8
ASSI
100
AcDbPolyline
 62
7
  6
CONTINUOUS
 90
5
 70
0
 10
143.2067638211
 20
140.3747348453
 10
143.1824842629
 20
140.3672751323
 10
143.1557774453
 20
140.3571507616
 10
143.1290622913
 20
140.3450001143
 10
143.1068012013
 20
140.3333091398
  0
LINE
  5
25A
100
AcDbEntity
  8
LAY0001
100
AcDbLine
 62
7
  6
CONTINUOUS
 10
133.9572509482
 20
138.2692516135
 11
133.4552780109
 21
137.7465133265
  0
LINE
  5
25B
100
AcDbEntity
  8
RACCORDO
100
AcDbLine
 62
7
  6
CONTINUOUS
 10
135.1725769739
 20
138.1302674403
 11
135.1716911982
 21
138.1295397338
  0
LINE
  5
25C
100
AcDbEntity
  8
ASSI
100
AcDbLine
 62
250
  6
CONTINUOUS
 10
143.5895799722
 20
140.0994177497
 11
140.723803065
 21
138.4447540801
  0
LINE
  5
25D
100
AcDbEntity
  8
ASSI
100
AcDbLine
 62
250
  6
CONTINUOUS
 10
143.7308075154
 20
139.8631268315
 11
140.8650306082
 21
138.2084631619
  0
LINE
  5
25E
100
AcDbEntity
  8
ASSI
100
AcDbLine
 62
250
  6
CONTINUOUS
 10
141.1860919919
 20
138.1610358722
 11
139.7596371281
 21
137.3374187116
  0
LINE
  5
25F
100
AcDbEntity
  8
ASSI
100
AcDbLine
 62
250
  6
CONTINUOUS
 10
141.3273195351
 20
137.924744954
 11
140.0348716542
 21
137.1785017457
  0
LWPOLYLINE
  5
260
100
AcDbEntity
  8
ASSI
100
AcDbPolyline
 62
250
  6
CONTINUOUS
 90
13
 70
0
 10
136.9628618065
 20
137.2154934331
 10
136.9755315394
 20
137.2227953122
 10
136.9881817323
 20
137.2310915564
 10
137.0007281412
 20
137.2402955927
 10
137.0129822283
 20
137.2502165768
 10
137.0249858966
 20
137.260843392
 10
137.0369777288
 20
137.272424176
 10
137.0489935902
 20
137.2850761405
 10
137.0607676568
 20
137.2986015123
 10
137.0720641371
 20
137.3128045993
 10
137.082746363
 20
137.3275381391
 10
137.0927577486
 20
137.3427233589
 10
137.102003355
 20
137.3582323422
  0
LWPOLYLINE
  5
261
100
AcDbEntity
  8
ASSI
100
AcDbPolyline
 62
250
  6
CONTINUOUS
 90
16
 70
0
 10
140.723803065
 20
138.4447540801
 10
140.6914273497
 20
138.4266720265
 10
140.6598241244
 20
138.4101735494
 10
140.6290181067
 20
138.3951900375
 10
140.5992730954
 20
138.3817596304
 10
140.5703611295
 20
138.3696881708
 10
140.5415715154
 20
138.3586314878
 10
140.5128958196
 20
138.3485786475
 10
140.484383368
 20
138.3395475076
 10
140.4554284244
 20
138.3313745222
 10
140.426000075
 20
138.3241092312
 10
140.3961998061
 20
138.3178423819
 10
140.3656463615
 20
138.3125859417
 10
140.3342566286
 20
138.3084464779
 10
140.3022339073
 20
138.3055724841
 10
140.2696462452
 20
138.3040909997
  0
LINE
  5
262
100
AcDbEntity
  8
ASSI
100
AcDbLine
 62
7
  6
CONTINUOUS
 10
137.5088997639
 20
138.3318591256
 11
137.6501602435
 21
138.4106121572
  0
LINE
  5
263
100
AcDbEntity
  8
ASSI
100
AcDbLine
 62
250
  6
CONTINUOUS
 10
137.6062880981
 20
138.3204662829
 11
137.7475485381
 21
138.3992192924
  0
LINE
  5
264
100
AcDbEntity
  8
ASSI
100
AcDbLine
 62
7
  6
CONTINUOUS
 10
135.7006858977
 20
136.5775142159
 11
136.8654738203
 21
137.2268860738
  0
LINE
  5
265
100
AcDbEntity
  8
ASSI
100
AcDbLine
 62
250
  6
CONTINUOUS
 10
135.7585655808
 20
136.5440952123
 11
136.9628621554
 21
137.2154932316
  0
LINE
  5
266
100
AcDbEntity
  8
ASSI
100
AcDbLine
 62
7
  6
CONTINUOUS
 10
143.1068197552
 20
140.3333194876
 11
142.3396962483
 21
139.9056464261
  0
LINE
  5
267
100
AcDbEntity
  8
ASSI
100
AcDbLine
 62
7
  6
CONTINUOUS
 10
140.1907691767
 20
138.7076244358
 11
141.421817806
 21
139.3939271528
  0
LINE
  5
268
100
AcDbEntity
  8
ASSI
100
AcDbLine
 62
250
  6
CONTINUOUS
 10
140.2882177832
 20
138.6962555627
 11
141.519206173
 21
139.3825343283
  0
LINE
  5
269
100
AcDbEntity
  8
ASSI
100
AcDbLine
 62
250
  6
CONTINUOUS
 10
137.5088997639
 20
138.3318591256
 11
137.5090665362
 21
138.3319517776
  0
LWPOLYLINE
  5
26A
100
AcDbEntity
  8
ASSI
100
AcDbPolyline
 62
250
  6
CONTINUOUS
 90
16
 70
0
 10
140.8650306082
 20
138.2084631619
 10
140.8283037028
 20
138.1880984472
 10
140.7925071953
 20
138.1693678195
 10
140.7576410856
 20
138.1522712787
 10
140.7239587416
 20
138.1369642672
 10
140.6912067954
 20
138.1232913426
 10
140.6586251437
 20
138.1107861777
 10
140.6261673966
 20
138.0993285832
 10
140.5938799441
 20
138.0890387483
 10
140.5611418528
 20
138.0798109135
 10
140.5278536074
 20
138.0715336694
 10
140.4941147231
 20
138.0643184252
 10
140.4596028131
 20
138.0583936497
 10
140.4242104148
 20
138.0538354989
 10
140.3880449906
 20
138.0505678167
 10
140.3511065406
 20
138.0485906031
  0
LINE
  5
26B
100
AcDbEntity
  8
ASSI
100
AcDbLine
 62
250
  6
CONTINUOUS
 10
143.2129052957
 20
140.3267303626
 11
142.4370845825
 21
139.8942535834
  0
LWPOLYLINE
  5
26C
100
AcDbEntity
  8
ASSI
100
AcDbPolyline
 62
7
  6
CONTINUOUS
 90
10
 70
0
 10
140.1907691767
 20
138.7076244358
 10
140.1784924193
 20
138.7008551281
 10
140.1156668928
 20
138.6684945926
 10
140.0542685718
 20
138.6406590201
 10
139.9947809513
 20
138.6174552945
 10
139.9373771823
 20
138.5988150213
 10
139.8820082448
 20
138.5846006091
 10
139.8289086682
 20
138.5747848897
 10
139.7784888475
 20
138.5693372141
 10
139.7705718455
 20
138.5688571134
  0
LWPOLYLINE
  5
26D
100
AcDbEntity
  8
ASSI
100
AcDbPolyline
 62
250
  6
CONTINUOUS
 90
13
 70
0
 10
137.7475485381
 20
138.3992192924
 10
137.7602858726
 20
138.4061773897
 10
137.7726420883
 20
138.4124496865
 10
137.7846042771
 20
138.4180708618
 10
137.7961554819
 20
138.4230751828
 10
137.8072938455
 20
138.4274996382
 10
137.8180322154
 20
138.4313818604
 10
137.8283683982
 20
138.4347565467
 10
137.8382968992
 20
138.4376568519
 10
137.8478277588
 20
138.440115415
 10
137.8569626484
 20
138.4421649685
 10
137.8657005554
 20
138.443837043
 10
137.8740491482
 20
138.4451607633
  0
LINE
  5
26E
100
AcDbEntity
  8
RACCORDO
100
AcDbLine
 62
7
  6
CONTINUOUS
 10
144.104649276
 20
141.3610263998
 11
144.1047669453
 21
141.3610898002
  0
LINE
  5
26F
100
AcDbEntity
  8
ASSI
100
AcDbLine
 62
7
  6
CONTINUOUS
 10
144.1047677255
 20
141.3610902198
 11
139.6409316516
 21
138.9605836346
  0
LINE
  5
270
100
AcDbEntity
  8
RACCORDO
100
AcDbLine
 62
250
  6
CONTINUOUS
 10
144.2267787204
 20
141.3470557981
 11
139.7624257526
 21
138.9462712441
  0
LINE
  5
271
100
AcDbEntity
  8
RACCORDO
100
AcDbLine
 62
7
  6
CONTINUOUS
 10
139.6409316516
 20
138.9605836346
 11
139.6409675347
 21
138.9606029201
  0
LWPOLYLINE
  5
272
100
AcDbEntity
  8
RACCORDO
100
AcDbPolyline
 62
7
  6
CONTINUOUS
 90
25
 70
0
 10
139.6409678109
 20
138.9606023988
 10
139.6409017632
 20
138.9605679503
 10
139.6395632487
 20
138.9599383426
 10
139.6362630829
 20
138.9586288085
 10
139.630673666
 20
138.9567713097
 10
139.6227153386
 20
138.9546051137
 10
139.6126402468
 20
138.9524110476
 10
139.6009415075
 20
138.950438923
 10
139.5880027239
 20
138.9488395199
 10
139.5739750485
 20
138.9476924228
 10
139.559027824
 20
138.9470655031
 10
139.5433436413
 20
138.9470144551
 10
139.5270815973
 20
138.9475807661
 10
139.51030921
 20
138.9488024807
 10
139.4930476345
 20
138.9507276331
 10
139.4755625817
 20
138.9533731162
 10
139.4582718512
 20
138.9566949711
 10
139.4413107614
 20
138.9606652444
 10
139.4247911784
 20
138.9652494134
 10
139.4090448373
 20
138.97032595
 10
139.3941972189
 20
138.9757968879
 10
139.3802473775
 20
138.981593074
 10
139.3672362668
 20
138.9876193627
 10
139.3552684212
 20
138.9937273328
 10
139.3442901031
 20
138.9998260881
  0
LINE
  5
273
100
AcDbEntity
  8
ASSI
100
AcDbLine
 62
250
  6
CONTINUOUS
 10
143.1103530074
 20
140.3351485092
 11
143.1068197552
 21
140.3333194876
  0
LWPOLYLINE
  5
274
100
AcDbEntity
  8
ASSI
100
AcDbPolyline
 62
250
  6
CONTINUOUS
 90
8
 70
0
 10
136.8654818036
 20
137.2268905238
 10
136.8690073396
 20
137.2287152234
 10
136.8823539218
 20
137.2334193592
 10
136.8969294069
 20
137.2353572515
 10
136.9125113085
 20
137.2344993287
 10
136.9288617765
 20
137.2308586935
 10
136.9457312266
 20
137.2244909253
 10
136.9628621554
 20
137.2154932316
  0
LWPOLYLINE
  5
275
100
AcDbEntity
  8
ASSI
100
AcDbPolyline
 62
250
  6
CONTINUOUS
 90
8
 70
0
 10
142.3397249318
 20
139.9056624076
 10
142.3432295001
 20
139.9074754475
 10
142.3565760693
 20
139.9121796447
 10
142.3711515667
 20
139.9141175941
 10
142.3867335034
 20
139.9132597137
 10
142.4030840278
 20
139.9096190987
 10
142.4199535563
 20
139.9032513214
 10
142.4370845826
 20
139.8942535834
  0
LWPOLYLINE
  5
276
100
AcDbEntity
  8
ASSI
100
AcDbPolyline
 62
250
  6
CONTINUOUS
 90
8
 70
0
 10
141.4219430447
 20
139.3939967909
 10
141.4253510487
 20
139.3957561698
 10
141.4386976191
 20
139.4004603695
 10
141.4532731181
 20
139.4023983204
 10
141.4688550566
 20
139.4015404407
 10
141.4852055826
 20
139.3978998257
 10
141.5020751123
 20
139.3915320481
 10
141.5192061394
 20
139.3825343096
  0
LWPOLYLINE
  5
277
100
AcDbEntity
  8
ASSI
100
AcDbPolyline
 62
250
  6
CONTINUOUS
 90
8
 70
0
 10
140.1908253371
 20
138.7076557912
 10
140.1943627015
 20
138.7094774272
 10
140.207709271
 20
138.7141816246
 10
140.2222847687
 20
138.7161195743
 10
140.2378667055
 20
138.715261694
 10
140.2542172297
 20
138.7116210788
 10
140.2710867577
 20
138.7052533012
 10
140.2882177832
 20
138.6962555627
  0
LWPOLYLINE
  5
278
100
AcDbEntity
  8
RACCORDO
100
AcDbPolyline
 62
250
  6
CONTINUOUS
 90
4
 70
0
 10
139.7624257526
 20
138.9462712441
 10
139.7541681826
 20
138.9420875617
 10
139.7456137028
 20
138.938164049
 10
139.7367623131
 20
138.9345007062
  0
LWPOLYLINE
  5
279
100
AcDbEntity
  8
ASSI
100
AcDbPolyline
 62
250
  6
CONTINUOUS
 90
6
 70
0
 10
142.4370845825
 20
139.8942535834
 10
142.4083906062
 20
139.8797135896
 10
142.3778379332
 20
139.8669628019
 10
142.3454265635
 20
139.8560012202
 10
142.3107853407
 20
139.8467351061
 10
142.2742854212
 20
139.8392581981
  0
LWPOLYLINE
  5
27A
100
AcDbEntity
  8
ASSI
100
AcDbPolyline
 62
7
  6
CONTINUOUS
 90
15
 70
0
 10
142.3385200931
 20
139.9049963755
 10
142.3262389466
 20
139.898787415
 10
142.3116330132
 20
139.8925144472
 10
142.2948518335
 20
139.8864608826
 10
142.2759472276
 20
139.8808327428
 10
142.2551876455
 20
139.8758722813
 10
142.2327560606
 20
139.8717624361
 10
142.2089397503
 20
139.8686743622
 10
142.1842320857
 20
139.8667548677
 10
142.1589032038
 20
139.8660855133
 10
142.1333625772
 20
139.8667189854
 10
142.1083571252
 20
139.8686264383
 10
142.084219463
 20
139.8717338688
 10
142.0613133491
 20
139.8759219958
 10
142.055261245
 20
139.8772453916
  0
LINE
  5
27B
100
AcDbEntity
  8
DRAFT
100
AcDbLine
 62
7
  6
CONTINUOUS
 10
137.0837849404
 20
137.5979712804
 11
135.3945588429
 21
136.7542681407
  0
LWPOLYLINE
  5
27C
100
AcDbEntity
  8
RACCORDO
100
AcDbPolyline
 62
250
  6
CONTINUOUS
 90
9
 70
0
 10
139.6409675347
 20
138.9606029201
 10
139.6454439999
 20
138.9628369176
 10
139.6597728635
 20
138.9679525773
 10
139.6751923
 20
138.9705761565
 10
139.6915334346
 20
138.9706789043
 10
139.7086172796
 20
138.9682596857
 10
139.7262567271
 20
138.9633449961
 10
139.7442586015
 20
138.9559886597
 10
139.7624257502
 20
138.9462712428
  0
LWPOLYLINE
  5
27D
100
AcDbEntity
  8
ASSI
100
AcDbPolyline
 62
250
  6
CONTINUOUS
 90
5
 70
0
 10
143.5154066921
 20
136.6577109581
 10
143.5537076161
 20
136.674019292
 10
143.5939476647
 20
136.6928346686
 10
143.6358026475
 20
136.7142180884
 10
143.6792165456
 20
136.7383353765
  0
LWPOLYLINE
  5
27E
100
AcDbEntity
  8
ASSI
100
AcDbPolyline
 62
250
  6
CONTINUOUS
 90
6
 70
0
 10
146.5886330878
 20
138.4151605752
 10
146.5961460425
 20
138.4183544092
 10
146.6037683012
 20
138.421403453
 10
146.6115760267
 20
138.4243251481
 10
146.6195894721
 20
138.4271084262
 10
146.6277739022
 20
138.4297213234
  0
LWPOLYLINE
  5
27F
100
AcDbEntity
  8
ASSI
100
AcDbPolyline
 62
250
  6
CONTINUOUS
 90
13
 70
0
 10
148.6588023624
 20
138.3676256631
 10
148.6657945007
 20
138.3704479634
 10
148.6726874838
 20
138.3733672442
 10
148.6794753275
 20
138.3763831353
 10
148.686123181
 20
138.3794802489
 10
148.6926551294
 20
138.3826724195
 10
148.6991470266
 20
138.3860053704
 10
148.7055904276
 20
138.389482274
 10
148.7119669405
 20
138.3931029788
 10
148.7183244041
 20
138.3969122139
 10
148.7246618436
 20
138.4009274454
 10
148.7309360807
 20
138.4051367205
 10
148.7371242917
 20
138.4095420183
  0
LWPOLYLINE
  5
280
100
AcDbEntity
  8
ASSI
100
AcDbPolyline
 62
250
  6
CONTINUOUS
 90
6
 70
0
 10
146.4476454155
 20
138.4043618505
 10
146.4613696407
 20
138.4096759419
 10
146.4764310191
 20
138.4121122797
 10
146.4925887177
 20
138.4116319066
 10
146.5095843733
 20
138.4082425039
 10
146.5271462235
 20
138.4019982684
  0
LINE
  5
281
100
AcDbEntity
  8
LAY0001
100
AcDbLine
 62
7
  6
CONTINUOUS
 10
138.9209147201
 20
135.403294361
 11
138.0514720886
 21
135.0927284699
  0
LWPOLYLINE
  5
282
100
AcDbEntity
  8
ASSI
100
AcDbPolyline
 62
250
  6
CONTINUOUS
 90
3
 70
0
 10
143.5131353647
 20
136.1154163736
 10
143.4454602709
 20
136.0922853423
 10
143.4303208113
 20
136.0871802848
  0
LWPOLYLINE
  5
283
100
AcDbEntity
  8
ASSI
100
AcDbPolyline
 62
7
  6
CONTINUOUS
 90
5
 70
0
 10
146.5455805244
 20
138.4458677815
 10
146.5170128518
 20
138.4366867829
 10
146.4888112255
 20
138.4252947408
 10
146.4611830463
 20
138.4118555097
 10
146.444951801
 20
138.4028860067
  0
LINE
  5
284
100
AcDbEntity
  8
ASSI
100
AcDbLine
 62
250
  6
CONTINUOUS
 10
146.6277739022
 20
138.4297213234
 11
146.6361209886
 21
138.4321421144
  0
LWPOLYLINE
  5
285
100
AcDbEntity
  8
LAY0001
100
AcDbPolyline
 62
7
  6
CONTINUOUS
 90
5
 70
0
 10
144.3921087437
 20
95.6294097216
 10
144.3737006354
 20
95.6295780749
 10
144.3548956853
 20
95.6268947207
 10
144.3359381453
 20
95.6212558285
 10
144.3170888021
 20
95.6125831404
  0
LINE
  5
286
100
AcDbEntity
  8
LAY0001
100
AcDbLine
 62
7
  6
CONTINUOUS
 10
126.421511292
 20
96.7176199127
 11
141.2897254604
 21
88.1328993944
  0
LINE
  5
287
100
AcDbEntity
  8
LAY0001
100
AcDbLine
 62
250
  6
CONTINUOUS
 10
126.3179699815
 20
96.9464883433
 11
141.1861841498
 21
88.361767825
  0
LWPOLYLINE
  5
288
100
AcDbEntity
  8
LAY0001
100
AcDbPolyline
 62
250
  6
CONTINUOUS
 90
9
 70
0
 10
126.421511292
 20
96.7176199127
 10
126.4059113897
 20
96.727828739
 10
126.3833321755
 20
96.7477447264
 10
126.3638061642
 20
96.7719289817
 10
126.3475402215
 20
96.800125288
 10
126.3347066749
 20
96.832034923
 10
126.3254414876
 20
96.8673198245
 10
126.3198428184
 20
96.9056061711
 10
126.3179699815
 20
96.9464883433
  0
LWPOLYLINE
  5
289
100
AcDbEntity
  8
ASSI
100
AcDbPolyline
 62
250
  6
CONTINUOUS
 90
3
 70
0
 10
134.7419519724
 20
137.4072976856
 10
134.7214235268
 20
137.3796389851
 10
134.7026700407
 20
137.3512051824
  0
LWPOLYLINE
  5
28A
100
AcDbEntity
  8
ASSI
100
AcDbPolyline
 62
250
  6
CONTINUOUS
 90
3
 70
0
 10
134.7883551194
 20
137.461174378
 10
134.7642625033
 20
137.4344761499
 10
134.7419519724
 20
137.4072976856
  0
LWPOLYLINE
  5
28B
100
AcDbEntity
  8
ASSI
100
AcDbPolyline
 62
250
  6
CONTINUOUS
 90
8
 70
0
 10
135.091177441
 20
137.7130408859
 10
135.0923570018
 20
137.7143401192
 10
135.0963551396
 20
137.7207478525
 10
135.0987360832
 20
137.7285940621
 10
135.099473405
 20
137.737792647
 10
135.0985591289
 20
137.7482429606
 10
135.096003277
 20
137.7598313661
 10
135.0918337139
 20
137.7724315388
  0
LINE
  5
28C
100
AcDbEntity
  8
ASSI
100
AcDbLine
 62
250
  6
CONTINUOUS
 10
135.0918337139
 20
137.7724315388
 11
134.7883551194
 21
137.461174378
  0
LINE
  5
28D
100
AcDbEntity
  8
ASSI
100
AcDbLine
 62
7
  6
CONTINUOUS
 10
135.0911651235
 20
137.7130282438
 11
134.7876865287
 21
137.4017710828
  0
LWPOLYLINE
  5
28E
100
AcDbEntity
  8
ASSI
100
AcDbPolyline
 62
250
  6
CONTINUOUS
 90
3
 70
0
 10
138.6138364604
 20
138.0148288576
 10
138.6083512124
 20
138.0096783151
 10
138.6054651053
 20
138.0034633459
  0
LWPOLYLINE
  5
28F
100
AcDbEntity
  8
ASSI
100
AcDbPolyline
 62
250
  6
CONTINUOUS
 90
10
 70
0
 10
141.3428422919
 20
136.1630267214
 10
141.3264242786
 20
136.1524430308
 10
141.3102282895
 20
136.1397941947
 10
141.2944733477
 20
136.1252512662
 10
141.2793725115
 20
136.109010913
 10
141.2651299943
 20
136.0912927579
 10
141.2519384021
 20
136.0723364087
 10
141.2399761289
 20
136.0523982176
 10
141.229404944
 20
136.0317478142
 10
141.2203678048
 20
136.0106644598
  0
LWPOLYLINE
  5
290
100
AcDbEntity
  8
ASSI
100
AcDbPolyline
 62
250
  6
CONTINUOUS
 90
35
 70
0
 10
143.3813570332
 20
136.0574298526
 10
143.3714344604
 20
136.0512437529
 10
143.3614276303
 20
136.0449312101
 10
143.3513589841
 20
136.0385008136
 10
143.341270559
 20
136.0319249001
 10
143.3312095833
 20
136.0252414437
 10
143.3211288287
 20
136.0184124703
 10
143.3109286477
 20
136.0112963946
 10
143.3006487005
 20
136.0039435351
 10
143.2902493269
 20
135.9963035733
 10
143.2795118982
 20
135.9880839692
 10
143.2683937309
 20
135.9792919881
 10
143.2569375086
 20
135.9699203646
 10
143.2450526536
 20
135.9596547634
 10
143.2326776997
 20
135.9484866611
 10
143.2198741132
 20
135.936424581
 10
143.2067357151
 20
135.9231797579
 10
143.1932320853
 20
135.9087756254
 10
143.1793936438
 20
135.89318875
 10
143.1654054718
 20
135.8760600652
 10
143.1511934119
 20
135.8573732532
 10
143.1368316214
 20
135.837144632
 10
143.1227276531
 20
135.815064089
 10
143.1087062952
 20
135.7907803609
 10
143.0949427595
 20
135.764644711
 10
143.0823702334
 20
135.7374008178
 10
143.0710827234
 20
135.708744328
 10
143.060986223
 20
135.6789795949
 10
143.0527318996
 20
135.6497633562
 10
143.0466106292
 20
135.6212823687
 10
143.0423315358
 20
135.5933498756
 10
143.039673159
 20
135.5670623436
 10
143.0385616786
 20
135.5427852617
 10
143.0390709149
 20
135.5201531408
 10
143.0412008677
 20
135.499165981
  0
LINE
  5
291
100
AcDbEntity
  8
ASSI
100
AcDbLine
 62
250
  6
CONTINUOUS
 10
143.4010420175
 20
136.0695019216
 11
143.3813570332
 21
136.0574298526
  0
LWPOLYLINE
  5
292
100
AcDbEntity
  8
ASSI
100
AcDbPolyline
 62
250
  6
CONTINUOUS
 90
3
 70
0
 10
143.4303208113
 20
136.0871802848
 10
143.4205977426
 20
136.0813519199
 10
143.4010420175
 20
136.0695019216
  0
LWPOLYLINE
  5
293
100
AcDbEntity
  8
ASSI
100
AcDbPolyline
 62
250
  6
CONTINUOUS
 90
10
 70
0
 10
143.0412008693
 20
135.499165979
 10
143.058171267
 20
135.509335369
 10
143.0768443568
 20
135.5184827326
 10
143.0969685195
 20
135.5264848089
 10
143.1182725825
 20
135.5332337701
 10
143.1404694743
 20
135.5386386739
 10
143.1632600919
 20
135.542626689
 10
143.1863373323
 20
135.5451440769
 10
143.2093902299
 20
135.5461569157
 10
143.2321081475
 20
135.5456515571
  0
LINE
  5
294
100
AcDbEntity
  8
ASSI
100
AcDbLine
 62
250
  6
CONTINUOUS
 10
141.4792377179
 20
136.244588729
 11
141.3428422919
 21
136.1630267214
  0
LINE
  5
295
100
AcDbEntity
  8
ASSI
100
AcDbLine
 62
250
  6
CONTINUOUS
 10
141.6225676089
 20
136.0156177877
 11
141.486172183
 21
135.93405578
  0
LINE
  5
296
100
AcDbEntity
  8
ASSI
100
AcDbLine
 62
250
  6
CONTINUOUS
 10
140.8431730213
 20
134.9750503693
 11
140.2632329366
 21
134.628256646
  0
LINE
  5
297
100
AcDbEntity
  8
ASSI
100
AcDbLine
 62
250
  6
CONTINUOUS
 10
140.9865029124
 20
134.7460794279
 11
140.5309612101
 21
134.4736736963
  0
LINE
  5
298
100
AcDbEntity
  8
ASSI
100
AcDbLine
 62
250
  6
CONTINUOUS
 10
145.3033949331
 20
137.1975911592
 11
144.1148018274
 21
136.4868338939
  0
LINE
  5
299
100
AcDbEntity
  8
ASSI
100
AcDbLine
 62
250
  6
CONTINUOUS
 10
146.1896615812
 20
137.7275626492
 11
146.9303653355
 21
138.1704901508
  0
LINE
  5
29A
100
AcDbEntity
  8
ASSI
100
AcDbLine
 62
250
  6
CONTINUOUS
 10
145.4467248243
 20
136.9686202179
 11
144.2581317185
 21
136.2578629525
  0
LINE
  5
29B
100
AcDbEntity
  8
ASSI
100
AcDbLine
 62
250
  6
CONTINUOUS
 10
146.3329915045
 20
137.4985917271
 11
147.0736952266
 21
137.9415192094
  0
LWPOLYLINE
  5
29C
100
AcDbEntity
  8
ASSI
100
AcDbPolyline
 62
250
  6
CONTINUOUS
 90
7
 70
0
 10
143.8813756923
 20
136.0015753908
 10
143.8661890825
 20
135.9925154447
 10
143.8531385749
 20
135.9826926052
 10
143.8424000052
 20
135.9722392438
 10
143.8341180549
 20
135.9612962288
 10
143.8284042945
 20
135.9500110193
 10
143.8268936074
 20
135.9443616623
  0
LWPOLYLINE
  5
29D
100
AcDbEntity
  8
ASSI
100
AcDbPolyline
 62
250
  6
CONTINUOUS
 90
13
 70
0
 10
147.0736952266
 20
137.9415192094
 10
147.0779290303
 20
137.9439998402
 10
147.0821954872
 20
137.94638418
 10
147.0864945975
 20
137.9486722289
 10
147.0908105482
 20
137.950860972
 10
147.0951591522
 20
137.9529534243
 10
147.0995878476
 20
137.9549586303
 10
147.1041001288
 20
137.9568837401
 10
147.1086925016
 20
137.9587216038
 10
147.113401921
 20
137.9604598158
 10
147.1182407054
 20
137.9620942411
 10
147.1231965366
 20
137.9636290146
 10
147.1282694145
 20
137.9650641365
  0
LWPOLYLINE
  5
29E
100
AcDbEntity
  8
ASSI
100
AcDbPolyline
 62
250
  6
CONTINUOUS
 90
10
 70
0
 10
145.4498812759
 20
136.9395134945
 10
145.4684536768
 20
136.9503016958
 10
145.489015188
 20
136.9598707456
 10
145.5112379801
 20
136.968068076
 10
145.5347677362
 20
136.9747629899
 10
145.5592293013
 20
136.9798487443
 10
145.5842326636
 20
136.9832442525
 10
145.6093791728
 20
136.9848953766
 10
145.6342678967
 20
136.9847757913
 10
145.6585020127
 20
136.9828874031
  0
LINE
  5
29F
100
AcDbEntity
  8
ASSI
100
AcDbLine
 62
7
  6
CONTINUOUS
 10
143.5791432687
 20
136.7482040386
 11
146.4449886208
 21
138.4029072816
  0
LINE
  5
2A0
100
AcDbEntity
  8
ASSI
100
AcDbLine
 62
250
  6
CONTINUOUS
 10
143.6792165456
 20
136.7383353765
 11
146.5449934528
 21
138.3929990461
  0
LWPOLYLINE
  5
2A1
100
AcDbEntity
  8
ASSI
100
AcDbPolyline
 62
250
  6
CONTINUOUS
 90
13
 70
0
 10
146.9303653355
 20
138.1704901508
 10
146.9374642067
 20
138.1745879905
 10
146.9446188495
 20
138.1785389203
 10
146.9518261558
 20
138.1823376351
 10
146.9590527251
 20
138.1859644371
 10
146.9663254749
 20
138.1894298626
 10
146.9737310617
 20
138.1927671502
 10
146.9812691252
 20
138.1959659638
 10
146.9889308922
 20
138.1990113531
 10
146.9967884902
 20
138.2019161772
 10
147.0048609083
 20
138.2046684669
 10
147.0131148381
 20
138.2072383863
 10
147.0215420638
 20
138.209604816
  0
LWPOLYLINE
  5
2A2
100
AcDbEntity
  8
ASSI
100
AcDbPolyline
 62
250
  6
CONTINUOUS
 90
13
 70
0
 10
144.2581317185
 20
136.2578629525
 10
144.223422985
 20
136.2378303352
 10
144.1890376339
 20
136.2191846358
 10
144.154975665
 20
136.2019258544
 10
144.121263297
 20
136.1860900162
 10
144.0878743113
 20
136.171641096
 10
144.0547300521
 20
136.1584710176
 10
144.021838285
 20
136.1465639045
 10
143.9891912443
 20
136.1359356333
 10
143.9566869765
 20
136.1265257575
 10
143.9242914973
 20
136.1183141284
 10
143.8920387909
 20
136.1113208948
 10
143.8599288576
 20
136.1055460566
  0
LWPOLYLINE
  5
2A3
100
AcDbEntity
  8
RACCORDO
100
AcDbPolyline
 62
7
  6
CONTINUOUS
 90
9
 70
0
 10
142.6776729126
 20
138.2579126548
 10
146.3632475298
 20
140.3858930518
 10
146.3722429505
 20
140.3909883609
 10
146.3801120541
 20
140.3953756348
 10
146.3867550433
 20
140.39896131
 10
146.3920384247
 20
140.4017045674
 10
146.3958369141
 20
140.403611455
 10
146.3981013439
 20
140.4045405472
 10
146.39877096
 20
140.4045758081
  0
LWPOLYLINE
  5
2A4
100
AcDbEntity
  8
ASSI
100
AcDbPolyline
 62
250
  6
CONTINUOUS
 90
10
 70
0
 10
143.5674727858
 20
135.8619989024
 10
143.5577446205
 20
135.856436448
 10
143.5478869234
 20
135.8510198554
 10
143.5378980017
 20
135.8457356542
 10
143.5277478053
 20
135.840558869
 10
143.51745562
 20
135.8354881782
 10
143.5070997489
 20
135.8305399425
 10
143.4966712061
 20
135.8256863297
 10
143.4861766248
 20
135.8209164199
 10
143.4757377929
 20
135.8162597844
  0
LWPOLYLINE
  5
2A5
100
AcDbEntity
  8
ASSI
100
AcDbPolyline
 62
7
  6
CONTINUOUS
 90
10
 70
0
 10
143.5791432688
 20
136.7482040387
 10
143.5675985339
 20
136.7416081754
 10
143.5064283099
 20
136.7089821965
 10
143.4464563433
 20
136.6808780312
 10
143.3881054411
 20
136.6573905604
 10
143.3315631338
 20
136.6384717234
 10
143.2768886257
 20
136.6240408154
 10
143.2243451506
 20
136.6140819193
 10
143.1743215302
 20
136.6085554869
 10
143.1663739648
 20
136.6080650285
  0
LWPOLYLINE
  5
2A6
100
AcDbEntity
  8
ASSI
100
AcDbPolyline
 62
250
  6
CONTINUOUS
 90
10
 70
0
 10
144.1148018274
 20
136.4868338939
 10
144.0628095335
 20
136.457292156
 10
144.0113138948
 20
136.4313034131
 10
143.9604348468
 20
136.4088201313
 10
143.9106053844
 20
136.3898980814
 10
143.861597397
 20
136.3743175277
 10
143.8125558493
 20
136.3617800235
 10
143.7632947585
 20
136.3523270262
 10
143.7142629171
 20
136.3461434208
 10
143.6655930864
 20
136.3433138548
  0
LINE
  5
2A7
100
AcDbEntity
  8
RACCORDO
100
AcDbLine
 62
250
  6
CONTINUOUS
 10
148.5995526314
 20
138.6306425694
 11
149.2931439306
 21
139.0244754486
  0
LINE
  5
2A8
100
AcDbEntity
  8
RACCORDO
100
AcDbLine
 62
250
  6
CONTINUOUS
 10
148.7371242917
 20
138.4095420183
 11
149.430336589
 21
138.8031596938
  0
LWPOLYLINE
  5
2A9
100
AcDbEntity
  8
ASSI
100
AcDbPolyline
 62
250
  6
CONTINUOUS
 90
7
 70
0
 10
146.5449934528
 20
138.3929990461
 10
146.5522054885
 20
138.3970807354
 10
146.5594462664
 20
138.4010128906
 10
146.5667126688
 20
138.4047912218
 10
146.5739671814
 20
138.408394624
 10
146.5812409445
 20
138.411837396
 10
146.5886330878
 20
138.4151605752
  0
LWPOLYLINE
  5
2AA
100
AcDbEntity
  8
ASSI
100
AcDbPolyline
 62
250
  6
CONTINUOUS
 90
8
 70
0
 10
143.5792117136
 20
136.748243612
 10
143.5818685079
 20
136.7496981807
 10
143.5955927332
 20
136.7550122722
 10
143.6106541116
 20
136.7574486101
 10
143.6268118102
 20
136.7569682371
 10
143.6438074658
 20
136.7535788343
 10
143.6613693162
 20
136.7473345988
 10
143.6792165456
 20
136.7383353765
  0
LWPOLYLINE
  5
2AB
100
AcDbEntity
  8
ASSI
100
AcDbPolyline
 62
250
  6
CONTINUOUS
 90
13
 70
0
 10
145.3033949331
 20
137.1975911592
 10
145.3311890884
 20
137.212702634
 10
145.3609493588
 20
137.2260635977
 10
145.3926757442
 20
137.2376740503
 10
145.4267334857
 20
137.2476351804
 10
145.4627573422
 20
137.2558457994
 10
145.4996515905
 20
137.2620023418
 10
145.5374555269
 20
137.2660128352
 10
145.5761298551
 20
137.2679692521
 10
145.6144609625
 20
137.2678439435
 10
145.6520443116
 20
137.2656276932
 10
145.6892844399
 20
137.2613297173
 10
145.7538714671
 20
137.2501994352
  0
LWPOLYLINE
  5
2AC
100
AcDbEntity
  8
RACCORDO
100
AcDbPolyline
 62
7
  6
CONTINUOUS
 90
6
 70
0
 10
149.4632113481
 20
138.3503016738
 10
149.4701732986
 20
138.3540417802
 10
149.4759078251
 20
138.356910474
 10
149.4802975647
 20
138.3588597049
 10
149.4831703078
 20
138.3598880823
 10
149.4844138485
 20
138.3599815361
  0
LINE
  5
2AD
100
AcDbEntity
  8
ASSI
100
AcDbLine
 62
250
  6
CONTINUOUS
 10
142.5062321953
 20
133.9835024729
 11
142.5023794735
 21
133.9815882075
  0
LWPOLYLINE
  5
2AE
100
AcDbEntity
  8
ASSI
100
AcDbPolyline
 62
250
  6
CONTINUOUS
 90
13
 70
0
 10
145.4467248242
 20
136.968620217
 10
145.46038739
 20
136.9753401344
 10
145.4753067322
 20
136.9812163339
 10
145.4913541399
 20
136.9861730657
 10
145.5084217237
 20
136.9901443387
 10
145.5263401905
 20
136.993075518
 10
145.5448716748
 20
136.9949204899
 10
145.5638077774
 20
136.9956652558
 10
145.5830243783
 20
136.9953027807
 10
145.6024001714
 20
136.9938041746
 10
145.6217760275
 20
136.9911564737
 10
145.6409430272
 20
136.9873921234
 10
145.6597007231
 20
136.9825431716
  0
LWPOLYLINE
  5
2AF
100
AcDbEntity
  8
ASSI
100
AcDbPolyline
 62
250
  6
CONTINUOUS
 90
27
 70
0
 10
143.4348336022
 20
135.798282278
 10
143.424719563
 20
135.7937742018
 10
143.4145099932
 20
135.7890989873
 10
143.4041233291
 20
135.7842305021
 10
143.3936020312
 20
135.7791531351
 10
143.3829713877
 20
135.7737483124
 10
143.3721652234
 20
135.7679730823
 10
143.3612036882
 20
135.761813112
 10
143.3502390586
 20
135.7551720471
 10
143.3392777346
 20
135.7480184712
 10
143.3283046412
 20
135.7403095512
 10
143.3174521539
 20
135.731910231
 10
143.3067335793
 20
135.7227820552
 10
143.2961764834
 20
135.7128925199
 10
143.2859538115
 20
135.7021022757
 10
143.2760670045
 20
135.6902511818
 10
143.2666337154
 20
135.677470876
 10
143.2580414318
 20
135.6640715507
 10
143.250470407
 20
135.6499610579
 10
143.2439506721
 20
135.6353114468
 10
143.2386433494
 20
135.6208427359
 10
143.234724295
 20
135.6066729668
 10
143.2321370369
 20
135.592795019
 10
143.2306239815
 20
135.5797026896
 10
143.2300791244
 20
135.5675550686
 10
143.2305818768
 20
135.5562065284
 10
143.2321087771
 20
135.5456514709
  0
LINE
  5
2B0
100
AcDbEntity
  8
ASSI
100
AcDbLine
 62
250
  6
CONTINUOUS
 10
143.4757377929
 20
135.8162597844
 11
143.4348336022
 21
135.798282278
  0
LWPOLYLINE
  5
2B1
100
AcDbEntity
  8
ASSI
100
AcDbPolyline
 62
250
  6
CONTINUOUS
 90
6
 70
0
 10
134.7026700407
 20
137.3512051824
 10
134.6856986399
 20
137.3222911435
 10
134.6705307016
 20
137.2937814664
 10
134.6572967343
 20
137.2660536083
 10
134.6458662295
 20
137.238730112
 10
134.6358690391
 20
137.2115632037
  0
LWPOLYLINE
  5
2B2
100
AcDbEntity
  8
ASSI
100
AcDbPolyline
 62
250
  6
CONTINUOUS
 90
6
 70
0
 10
134.7876882579
 20
137.4017728565
 10
134.7928969233
 20
137.4095363284
 10
134.7956019894
 20
137.4195557126
 10
134.7957410184
 20
137.4316439663
 10
134.7933116455
 20
137.4455958248
 10
134.7883551194
 20
137.461174378
  0
LWPOLYLINE
  5
2B3
100
AcDbEntity
  8
ASSI
100
AcDbPolyline
 62
7
  6
CONTINUOUS
 90
7
 70
0
 10
143.8932982381
 20
134.8546832511
 10
143.8823334195
 20
134.8465374153
 10
143.87288605
 20
134.8378917544
 10
143.8648942027
 20
134.8286737805
 10
143.8584198046
 20
134.8189559816
 10
143.8536486363
 20
134.8089558218
 10
143.8510516203
 20
134.8001349584
  0
LINE
  5
2B4
100
AcDbEntity
  8
ASSI
100
AcDbLine
 62
7
  6
CONTINUOUS
 10
142.6974969335
 20
133.9780958236
 11
143.4241773515
 21
134.4904882542
  0
LINE
  5
2B5
100
AcDbEntity
  8
RACCORDO
100
AcDbLine
 62
250
  6
CONTINUOUS
 10
142.760677535
 20
133.9419418972
 11
143.5596354754
 21
134.5052982102
  0
LINE
  5
2B6
100
AcDbEntity
  8
DRAFT
100
AcDbLine
 62
7
  6
CONTINUOUS
 10
144.2796621021
 20
133.4431619927
 11
145.1101902758
 21
133.9779523202
  0
LWPOLYLINE
  5
2B7
100
AcDbEntity
  8
ASSI
100
AcDbPolyline
 62
7
  6
CONTINUOUS
 90
6
 70
0
 10
146.3718796558
 20
136.2715658453
 10
146.3580021932
 20
136.2626424339
 10
146.3460479217
 20
136.2531166968
 10
146.3360168414
 20
136.242988634
 10
146.3278256414
 20
136.2321244352
 10
146.3259253544
 20
136.2286481019
  0
LINE
  5
2B8
100
AcDbEntity
  8
ASSI
100
AcDbLine
 62
250
  6
CONTINUOUS
 10
146.3178101308
 20
137.4582016541
 11
146.3342223734
 21
137.4683335177
  0
LINE
  5
2B9
100
AcDbEntity
  8
ASSI
100
AcDbLine
 62
7
  6
CONTINUOUS
 10
143.9057805059
 20
134.8623292619
 11
143.8932982381
 21
134.8546832511
  0
LINE
  5
2BA
100
AcDbEntity
  8
RACCORDO
100
AcDbLine
 62
250
  6
CONTINUOUS
 10
151.2471238974
 20
136.7946091932
 11
147.2168847119
 21
134.454289751
  0
LINE
  5
2BB
100
AcDbEntity
  8
RACCORDO
100
AcDbLine
 62
250
  6
CONTINUOUS
 10
151.393181393
 20
136.5092914769
 11
147.5364935986
 21
134.2697515854
  0
LINE
  5
2BC
100
AcDbEntity
  8
RACCORDO
100
AcDbLine
 62
250
  6
CONTINUOUS
 10
143.4925719448
 20
133.5193552377
 11
144.3799046322
 21
134.0316850795
  0
LINE
  5
2BD
100
AcDbEntity
  8
RACCORDO
100
AcDbLine
 62
250
  6
CONTINUOUS
 10
143.7750140628
 20
133.3562766987
 11
144.5211321754
 21
133.7870717995
  0
LINE
  5
2BE
100
AcDbEntity
  8
RACCORDO
100
AcDbLine
 62
250
  6
CONTINUOUS
 10
146.7591985782
 20
134.9064223048
 11
151.070374126
 21
137.3956495813
  0
LINE
  5
2BF
100
AcDbEntity
  8
DRAFT
100
AcDbLine
 62
7
  6
CONTINUOUS
 10
143.9520992036
 20
133.2540299577
 11
144.2796621021
 21
133.4431619927
  0
LINE
  5
2C0
100
AcDbEntity
  8
ASSI
100
AcDbLine
 62
250
  6
CONTINUOUS
 10
144.1267766791
 20
133.0883488796
 11
143.5285191637
 21
132.7429213021
  0
LINE
  5
2C1
100
AcDbEntity
  8
RACCORDO
100
AcDbLine
 62
250
  6
CONTINUOUS
 10
146.9499910313
 20
134.6083908172
 11
151.2471238974
 21
137.0895099975
  0
LINE
  5
2C2
100
AcDbEntity
  8
ASSI
100
AcDbLine
 62
250
  6
CONTINUOUS
 10
144.2681764961
 20
132.8434372125
 11
143.8113048905
 21
132.5796443676
  0
LINE
  5
2C3
100
AcDbEntity
  8
LAY0001
100
AcDbLine
 62
250
  6
CONTINUOUS
 10
143.9345358687
 20
132.5084923452
 11
141.5304825916
 21
131.1204289588
  0
LINE
  5
2C4
100
AcDbEntity
  8
ASSI
100
AcDbLine
 62
7
  6
CONTINUOUS
 10
148.7131218103
 20
137.6193616981
 11
146.3718796558
 21
136.2715658453
  0
LINE
  5
2C5
100
AcDbEntity
  8
ASSI
100
AcDbLine
 62
7
  6
CONTINUOUS
 10
145.5826881608
 20
135.8172475906
 11
144.3748147157
 21
135.1219043821
  0
LINE
  5
2C6
100
AcDbEntity
  8
RACCORDO
100
AcDbLine
 62
250
  6
CONTINUOUS
 10
146.8429363765
 20
133.696841868
 11
147.6526159579
 21
134.1540856208
  0
LINE
  5
2C7
100
AcDbEntity
  8
ASSI
100
AcDbLine
 62
7
  6
CONTINUOUS
 10
144.3748147157
 20
135.1219043821
 11
143.9057812449
 21
134.8623296709
  0
LINE
  5
2C8
100
AcDbEntity
  8
ASSI
100
AcDbLine
 62
7
  6
CONTINUOUS
 10
143.1758382172
 20
134.4583611652
 11
141.8389174277
 21
133.7184761687
  0
LINE
  5
2C9
100
AcDbEntity
  8
ASSI
100
AcDbLine
 62
7
  6
CONTINUOUS
 10
142.5023794735
 20
133.9815882075
 11
141.9229204318
 21
133.669973887
  0
LINE
  5
2CA
100
AcDbEntity
  8
ASSI
100
AcDbLine
 62
250
  6
CONTINUOUS
 10
142.5995728133
 20
133.9701372513
 11
141.9800590207
 21
133.6369827819
  0
LINE
  5
2CB
100
AcDbEntity
  8
ASSI
100
AcDbLine
 62
250
  6
CONTINUOUS
 10
144.1540442676
 20
132.2928059048
 11
146.8428771721
 21
133.6968760519
  0
LWPOLYLINE
  5
2CC
100
AcDbEntity
  8
RACCORDO
100
AcDbPolyline
 62
250
  6
CONTINUOUS
 90
8
 70
0
 10
151.393181393
 20
136.5092914769
 10
151.4066597236
 20
136.5160188977
 10
151.4195734055
 20
136.5207759494
 10
151.431706358
 20
136.5234830358
 10
151.4428555651
 20
136.5240948618
 10
151.4528344702
 20
136.5226011919
 10
151.4614760987
 20
136.5190270226
 10
151.4652156732
 20
136.5165033504
  0
LWPOLYLINE
  5
2CD
100
AcDbEntity
  8
RACCORDO
100
AcDbPolyline
 62
250
  6
CONTINUOUS
 90
8
 70
0
 10
151.7374625048
 20
136.2404128286
 10
151.750940802
 20
136.2471402349
 10
151.7638544585
 20
136.2518972837
 10
151.775987394
 20
136.2546043767
 10
151.787136592
 20
136.2552162171
 10
151.7971154962
 20
136.253722567
 10
151.8057571329
 20
136.2501484193
 10
151.8094121244
 20
136.2476904605
  0
LWPOLYLINE
  5
2CE
100
AcDbEntity
  8
LAY0001
100
AcDbPolyline
 62
250
  6
CONTINUOUS
 90
16
 70
0
 10
141.8839148283
 20
130.5082663685
 10
141.8446905819
 20
130.4888952118
 10
141.802216605
 20
130.4719620685
 10
141.7569455202
 20
130.4576473868
 10
141.7093540974
 20
130.4461025329
 10
141.6599547335
 20
130.4374523874
 10
141.6092918511
 20
130.4317906024
 10
141.5579182612
 20
130.4291745823
 10
141.5063692533
 20
130.4296272756
 10
141.4551747397
 20
130.4331424461
 10
141.4048095475
 20
130.4396940075
 10
141.3558826552
 20
130.4492093793
 10
141.3090914972
 20
130.461534369
 10
141.2649610685
 20
130.4764856568
 10
141.2238614754
 20
130.4938905489
 10
141.1861841498
 20
130.5135401072
  0
LWPOLYLINE
  5
2CF
100
AcDbEntity
  8
RACCORDO
100
AcDbPolyline
 62
250
  6
CONTINUOUS
 90
7
 70
0
 10
151.070374126
 20
137.3956495813
 10
151.0840479855
 20
137.4022443167
 10
151.0974620705
 20
137.406661871
 10
151.1103919274
 20
137.4088283267
 10
151.1226212049
 20
137.4087074331
 10
151.1339452742
 20
137.4063012131
 10
151.1435252891
 20
137.4020313863
  0
LWPOLYLINE
  5
2D0
100
AcDbEntity
  8
RACCORDO
100
AcDbPolyline
 62
250
  6
CONTINUOUS
 90
7
 70
0
 10
147.6526159579
 20
134.1540856208
 10
147.6662898172
 20
134.1606803563
 10
147.6797039022
 20
134.1650979107
 10
147.692633759
 20
134.1672643664
 10
147.7048630365
 20
134.1671434728
 10
147.7161871058
 20
134.1647372527
 10
147.7257164323
 20
134.1604966511
  0
LWPOLYLINE
  5
2D1
100
AcDbEntity
  8
RACCORDO
100
AcDbPolyline
 62
250
  6
CONTINUOUS
 90
5
 70
0
 10
149.6843644092
 20
102.5560073029
 10
149.6998492931
 20
102.559830282
 10
149.7144845099
 20
102.5605143664
 10
149.7279325692
 20
102.5580437809
 10
149.737942188
 20
102.5536518449
  0
LWPOLYLINE
  5
2D2
100
AcDbEntity
  8
RACCORDO
100
AcDbPolyline
 62
250
  6
CONTINUOUS
 90
5
 70
0
 10
149.3777289617
 20
102.7330547673
 10
149.3932138478
 20
102.7368777479
 10
149.4078490658
 20
102.7375618319
 10
149.4212971253
 20
102.735091245
 10
149.4313392643
 20
102.7306805792
  0
LWPOLYLINE
  5
2D3
100
AcDbEntity
  8
RACCORDO
100
AcDbPolyline
 62
250
  6
CONTINUOUS
 90
10
 70
0
 10
148.5078660168
 20
102.7374991678
 10
148.526211567
 20
102.7398010291
 10
148.544218387
 20
102.7399926441
 10
148.5615844736
 20
102.738070799
 10
148.5780185696
 20
102.7340677262
 10
148.5932450488
 20
102.7280505636
 10
148.6070085385
 20
102.7201202286
 10
148.6190782029
 20
102.7104097256
 10
148.6292516142
 20
102.6990819152
 10
148.6350525145
 20
102.6904591662
  0
LWPOLYLINE
  5
2D4
100
AcDbEntity
  8
LAY0001
100
AcDbPolyline
 62
7
  6
CONTINUOUS
 90
3
 70
0
 10
144.4268510715
 20
95.6210364472
 10
144.4098942101
 20
95.6265149384
 10
144.3921087437
 20
95.6294097216
  0
LINE
  5
2D5
100
AcDbEntity
  8
LAY0001
100
AcDbLine
 62
7
  6
CONTINUOUS
 10
144.9183580033
 20
95.3645804921
 11
144.4361586126
 21
95.6167231141
  0
LINE
  5
2D6
100
AcDbEntity
  8
RACCORDO
100
AcDbLine
 62
7
  6
CONTINUOUS
 10
145.1759089395
 20
95.2086540177
 11
144.8156037989
 21
95.3976362191
  0
LWPOLYLINE
  5
2D7
100
AcDbEntity
  8
LAY0001
100
AcDbPolyline
 62
250
  6
CONTINUOUS
 90
9
 70
0
 10
126.1715233721
 20
97.15062564
 10
126.1726380572
 20
97.1313592092
 10
126.1787261189
 20
97.1018001386
 10
126.190073025
 20
97.0727199079
 10
126.2065530707
 20
97.0444701335
 10
126.2278992038
 20
97.0174535053
 10
126.2537939256
 20
96.9919731489
 10
126.2839381407
 20
96.9682427589
 10
126.3179699815
 20
96.9464883433
  0
LINE
  5
2D8
100
AcDbEntity
  8
LAY0001
100
AcDbLine
 62
7
  6
CONTINUOUS
 10
126.1715233721
 20
97.15062564
 11
126.1715233721
 21
139.3023979222
  0
LINE
  5
2D9
100
AcDbEntity
  8
LAY0001
100
AcDbLine
 62
250
  6
CONTINUOUS
 10
126.3179699815
 20
96.9464883433
 11
126.3179699815
 21
139.0982606255
  0
LWPOLYLINE
  5
2DA
100
AcDbEntity
  8
LAY0001
100
AcDbPolyline
 62
250
  6
CONTINUOUS
 90
16
 70
0
 10
126.3179699815
 20
139.0982606255
 10
126.3198428184
 20
139.1413055029
 10
126.3254414876
 20
139.1860570524
 10
126.3347066749
 20
139.2320411598
 10
126.3475402215
 20
139.2787706528
 10
126.3638061642
 20
139.325750462
 10
126.3833321755
 20
139.3724828657
 10
126.4059113897
 20
139.4184727637
 10
126.4313045943
 20
139.4632329223
 10
126.4592427646
 20
139.5062891362
 10
126.4894299134
 20
139.5471852523
 10
126.5215462271
 20
139.5854880019
 10
126.5552514535
 20
139.6207915916
 10
126.5901885071
 20
139.6527220023
 10
126.6259872521
 20
139.6809409514
 10
126.6622684233
 20
139.7051494771
  0
LINE
  5
2DB
100
AcDbEntity
  8
ASSI
100
AcDbLine
 62
7
  6
CONTINUOUS
 10
137.0435720921
 20
137.4325885133
 11
137.4253843627
 21
138.2424590291
  0
LINE
  5
2DC
100
AcDbEntity
  8
ASSI
100
AcDbLine
 62
250
  6
CONTINUOUS
 10
137.1020013403
 20
137.3582335055
 11
137.483813611
 21
138.1681040213
  0
LWPOLYLINE
  5
2DD
100
AcDbEntity
  8
ASSI
100
AcDbPolyline
 62
7
  6
CONTINUOUS
 90
13
 70
0
 10
137.0435730269
 20
137.4325904959
 10
137.0334062699
 20
137.4122581903
 10
137.0210792477
 20
137.3902548014
 10
137.0074882873
 20
137.3684984698
 10
136.9928192546
 20
137.3472960819
 10
136.9772828279
 20
137.3269459735
 10
136.9610512944
 20
137.3076526795
 10
136.944355255
 20
137.2896509649
 10
136.9274699731
 20
137.2731831711
 10
136.9107107889
 20
137.2584726851
 10
136.8944397093
 20
137.2457158317
 10
136.8790038721
 20
137.2350354374
 10
136.8654818035
 20
137.2268905237
  0
LWPOLYLINE
  5
2DE
100
AcDbEntity
  8
ASSI
100
AcDbPolyline
 62
7
  6
CONTINUOUS
 90
7
 70
0
 10
141.4479476574
 20
139.4129186462
 10
141.4483030357
 20
139.4134734362
 10
141.4477651641
 20
139.4128496791
 10
141.4450210669
 20
139.4100673685
 10
141.4398479346
 20
139.4056811284
 10
141.4323951708
 20
139.4003400026
 10
141.4219430485
 20
139.3939967844
  0
LWPOLYLINE
  5
2DF
100
AcDbEntity
  8
ASSI
100
AcDbPolyline
 62
250
  6
CONTINUOUS
 90
11
 70
0
 10
143.6841067246
 20
135.9551109241
 10
143.6702374919
 20
135.9413633544
 10
143.6624280211
 20
135.9338103023
 10
143.6539029782
 20
135.9258777752
 10
143.6446479268
 20
135.9175423382
 10
143.6345060676
 20
135.9088538267
 10
143.6233647994
 20
135.8998883311
 10
143.6112399279
 20
135.8906567665
 10
143.5980209915
 20
135.8812036733
 10
143.5834883473
 20
135.8716226564
 10
143.5674727858
 20
135.8619989024
  0
LWPOLYLINE
  5
2E0
100
AcDbEntity
  8
ASSI
100
AcDbPolyline
 62
250
  6
CONTINUOUS
 90
3
 70
0
 10
146.3096937631
 20
137.4801654297
 10
146.3206977822
 20
137.489790468
 10
146.3329914985
 20
137.4985916941
  0
LWPOLYLINE
  5
2E1
100
AcDbEntity
  8
RACCORDO
100
AcDbPolyline
 62
250
  6
CONTINUOUS
 90
7
 70
0
 10
151.2471238974
 20
137.0895099975
 10
151.2596715602
 20
137.0980553663
 10
151.2702037927
 20
137.107464438
 10
151.2785443626
 20
137.1175797732
 10
151.2845537096
 20
137.1282321152
 10
151.2881312814
 20
137.1392432216
 10
151.289222911
 20
137.1496326895
  0
LWPOLYLINE
  5
2E2
100
AcDbEntity
  8
RACCORDO
100
AcDbPolyline
 62
250
  6
CONTINUOUS
 90
7
 70
0
 10
151.2471238974
 20
136.7946091932
 10
151.2596715587
 20
136.803154561
 10
151.2702037905
 20
136.8125636315
 10
151.2785443602
 20
136.8226789657
 10
151.2845537077
 20
136.8333313069
 10
151.2881312803
 20
136.8443424126
 10
151.2892229273
 20
136.8547722487
  0
LWPOLYLINE
  5
2E3
100
AcDbEntity
  8
RACCORDO
100
AcDbPolyline
 62
250
  6
CONTINUOUS
 90
7
 70
0
 10
151.8835200004
 20
135.9550951123
 10
151.8960677038
 20
135.9636405102
 10
151.9065999568
 20
135.9730496113
 10
151.9149405292
 20
135.9831649737
 10
151.9209498642
 20
135.9938173389
 10
151.9245274126
 20
136.0048284621
 10
151.9256189769
 20
136.0151850438
  0
LWPOLYLINE
  5
2E4
100
AcDbEntity
  8
RACCORDO
100
AcDbPolyline
 62
250
  6
CONTINUOUS
 90
7
 70
0
 10
151.8835200004
 20
135.5751462794
 10
151.8960676618
 20
135.5836916472
 10
151.9065998936
 20
135.5931007177
 10
151.9149404633
 20
135.6032160519
 10
151.9209498108
 20
135.613868393
 10
151.9245273834
 20
135.6248794988
 10
151.9256190217
 20
135.6352798988
  0
LWPOLYLINE
  5
2E5
100
AcDbEntity
  8
RACCORDO
100
AcDbPolyline
 62
7
  6
CONTINUOUS
 90
16
 70
0
 10
148.4024404682
 20
133.1100327764
 10
148.4169790929
 20
133.1199308908
 10
148.4318103751
 20
133.1326490709
 10
148.4452020859
 20
133.1471758412
 10
148.4568669819
 20
133.1632611582
 10
148.4666506399
 20
133.1807218794
 10
148.4744814932
 20
133.1995337194
 10
148.4802145339
 20
133.2195987654
 10
148.4836577801
 20
133.2405251089
 10
148.4847380998
 20
133.262007261
 10
148.4833733162
 20
133.2843856514
 10
148.4794674793
 20
133.3070722879
 10
148.4733743296
 20
133.3286796096
 10
148.4652050414
 20
133.3495151754
 10
148.4549932626
 20
133.369624654
 10
148.450028076
 20
133.3779459428
  0
LWPOLYLINE
  5
2E6
100
AcDbEntity
  8
LAY0001
100
AcDbPolyline
 62
250
  6
CONTINUOUS
 90
16
 70
0
 10
141.5304825916
 20
131.1204289588
 10
141.4942014204
 20
131.0962204331
 10
141.4584026755
 20
131.0680014839
 10
141.4234656219
 20
131.0360710733
 10
141.3897603955
 20
131.0007674836
 10
141.3576440818
 20
130.962464734
 10
141.3274569329
 20
130.9215686179
 10
141.2995187626
 20
130.878512404
 10
141.274125558
 20
130.8337522454
 10
141.2515463439
 20
130.7877623474
 10
141.2320203325
 20
130.7410299437
 10
141.2157543899
 20
130.6940501345
 10
141.2029208433
 20
130.6473206415
 10
141.193655656
 20
130.6013365341
 10
141.1880569868
 20
130.5565849846
 10
141.1861841498
 20
130.5135401072
  0
LWPOLYLINE
  5
2E7
100
AcDbEntity
  8
ASSI
100
AcDbPolyline
 62
250
  6
CONTINUOUS
 90
9
 70
0
 10
144.2681764961
 20
132.8434372125
 10
144.2818314093
 20
132.8525010269
 10
144.293778707
 20
132.8623322077
 10
144.3038905475
 20
132.8728238554
 10
144.3120548108
 20
132.8838553377
 10
144.3181915382
 20
132.8953132958
 10
144.3222414986
 20
132.907095148
 10
144.3241529472
 20
132.9191005244
 10
144.3243085317
 20
132.9236305285
  0
LWPOLYLINE
  5
2E8
100
AcDbEntity
  8
ASSI
100
AcDbPolyline
 62
250
  6
CONTINUOUS
 90
8
 70
0
 10
144.2681764961
 20
132.474126223
 10
144.2817828607
 20
132.483154221
 10
144.2936978973
 20
132.4929468298
 10
144.3037936293
 20
132.5033988743
 10
144.3119618256
 20
132.5143984192
 10
144.3181144297
 20
132.5258270275
 10
144.3221850916
 20
132.5375609245
 10
144.3239904135
 20
132.5486150707
  0
LWPOLYLINE
  5
2E9
100
AcDbEntity
  8
RACCORDO
100
AcDbPolyline
 62
250
  6
CONTINUOUS
 90
25
 70
0
 10
148.4024442339
 20
133.1100350019
 10
148.4069580142
 20
133.1130141619
 10
148.4123322466
 20
133.1172821409
 10
148.4173296253
 20
133.1221046504
 10
148.4218966663
 20
133.1274205375
 10
148.4260598537
 20
133.1332500984
 10
148.4298915186
 20
133.1397361893
 10
148.4333750669
 20
133.1469625415
 10
148.4364233066
 20
133.1548787185
 10
148.4389778452
 20
133.163449363
 10
148.4409969853
 20
133.1726630134
 10
148.4424414545
 20
133.1825094448
 10
148.4432712396
 20
133.1929354955
 10
148.4434554357
 20
133.203916083
 10
148.4429649778
 20
133.2154126725
 10
148.4417809345
 20
133.2273348732
 10
148.4399024323
 20
133.239561821
 10
148.4373143958
 20
133.2521090939
 10
148.4339632452
 20
133.2650868865
 10
148.4298312883
 20
133.2784010256
 10
148.4248870578
 20
133.2920174218
 10
148.4189938193
 20
133.3061277505
 10
148.4120548372
 20
133.320721774
 10
148.4040639825
 20
133.335587727
 10
148.3949938614
 20
133.3505826841
  0
LINE
  5
2EA
100
AcDbEntity
  8
RACCORDO
100
AcDbLine
 62
250
  6
CONTINUOUS
 10
145.9833260245
 20
131.8870372868
 11
148.3949938614
 21
133.3505826841
  0
LINE
  5
2EB
100
AcDbEntity
  8
RACCORDO
100
AcDbLine
 62
7
  6
CONTINUOUS
 10
146.1453913295
 20
131.740840331
 11
148.4012257178
 21
133.1093142059
  0
LINE
  5
2EC
100
AcDbEntity
  8
RACCORDO
100
AcDbLine
 62
250
  6
CONTINUOUS
 10
151.7374625048
 20
136.2404128286
 11
147.9212571796
 21
134.0243807007
  0
LINE
  5
2ED
100
AcDbEntity
  8
RACCORDO
100
AcDbLine
 62
250
  6
CONTINUOUS
 10
151.8835200004
 20
135.9550951123
 11
148.1591377098
 21
133.7923836989
  0
LINE
  5
2EE
100
AcDbEntity
  8
LAY0001
100
AcDbLine
 62
250
  6
CONTINUOUS
 10
144.2879681053
 20
131.8963297549
 11
141.8839148283
 21
130.5082663685
  0
LINE
  5
2EF
100
AcDbEntity
  8
RACCORDO
100
AcDbLine
 62
250
  6
CONTINUOUS
 10
145.0481078951
 20
129.3345745382
 11
144.2879681053
 21
128.8956793504
  0
LWPOLYLINE
  5
2F0
100
AcDbEntity
  8
RACCORDO
100
AcDbPolyline
 62
250
  6
CONTINUOUS
 90
9
 70
0
 10
148.3949938614
 20
133.3505826841
 10
148.407921013
 20
133.3579354888
 10
148.4194243308
 20
133.3642928836
 10
148.4293113334
 20
133.369548492
 10
148.4374165846
 20
133.3736143736
 10
148.4436044618
 20
133.3764224953
 10
148.4477714251
 20
133.3779258696
 10
148.44984775
 20
133.3780993411
 10
148.450028076
 20
133.3779459428
  0
LINE
  5
2F1
100
AcDbEntity
  8
RACCORDO
100
AcDbLine
 62
250
  6
CONTINUOUS
 10
147.4859443412
 20
133.033200078
 11
148.3173485744
 21
133.5022997599
  0
LWPOLYLINE
  5
2F2
100
AcDbEntity
  8
RACCORDO
100
AcDbPolyline
 62
250
  6
CONTINUOUS
 90
8
 70
0
 10
148.3173485744
 20
133.5022997599
 10
148.3288650617
 20
133.508636487
 10
148.3387728596
 20
133.5138590829
 10
148.346906197
 20
133.5178801684
 10
148.3531289857
 20
133.5206324642
 10
148.3573371093
 20
133.5220699247
 10
148.3594601813
 20
133.5221685154
 10
148.3596532565
 20
133.5219947214
  0
LINE
  5
2F3
100
AcDbEntity
  8
ASSI
100
AcDbLine
 62
250
  6
CONTINUOUS
 10
144.2879681053
 20
131.3719248425
 11
147.4859443412
 21
133.033200078
  0
LINE
  5
2F4
100
AcDbEntity
  8
DRAFT
100
AcDbLine
 62
250
  6
CONTINUOUS
 10
144.6752824834
 20
95.3815109589
 11
144.2955261689
 21
95.6007774954
  0
LINE
  5
2F5
100
AcDbEntity
  8
DRAFT
100
AcDbLine
 62
250
  6
CONTINUOUS
 10
144.8156037989
 20
95.3976362191
 11
144.4361586126
 21
95.6167231141
  0
LINE
  5
2F6
100
AcDbEntity
  8
RACCORDO
100
AcDbLine
 62
7
  6
CONTINUOUS
 10
144.9183580033
 20
95.3645804921
 11
145.1734623357
 21
95.2172864477
  0
LWPOLYLINE
  5
2F7
100
AcDbEntity
  8
0
100
AcDbPolyline
 62
250
  6
CONTINUOUS
 90
13
 70
0
 10
129.9513781168
 20
112.5360201509
 10
129.9528539079
 20
112.5130124589
 10
129.9565009509
 20
112.4899157602
 10
129.9623192459
 20
112.4667300546
 10
129.9704778171
 20
112.4431054431
 10
129.9808076403
 20
112.4193918248
 10
129.9928016425
 20
112.3966388969
 10
130.0065093103
 20
112.3748752268
 10
130.021881157
 20
112.3540722471
 10
130.03826165
 20
112.3351939527
 10
130.0554322784
 20
112.3185616753
 10
130.0736115529
 20
112.3038540833
 10
130.0927994737
 20
112.2910711765
  0
LWPOLYLINE
  5
2F8
100
AcDbEntity
  8
LAY0001
100
AcDbPolyline
 62
250
  6
CONTINUOUS
 90
9
 70
0
 10
126.1715233725
 20
139.3023865154
 10
126.1726399083
 20
139.2831155184
 10
126.1787313323
 20
139.2535548824
 10
126.1900814956
 20
139.2244747408
 10
126.2065641199
 20
139.1962262829
 10
126.2279113314
 20
139.16921232
 10
126.2538048861
 20
139.1437358106
 10
126.2839452043
 20
139.1200100369
 10
126.3179699815
 20
139.0982606255
  0
LWPOLYLINE
  5
2F9
100
AcDbEntity
  8
0
100
AcDbPolyline
 62
250
  6
CONTINUOUS
 90
9
 70
0
 10
129.8453120995
 20
112.3114967432
 10
129.8472487758
 20
112.2699441507
 10
129.8530375975
 20
112.2310831629
 10
129.8626151604
 20
112.195339534
 10
129.8758764781
 20
112.1631050168
 10
129.8926763186
 20
112.1347325877
 10
129.912830964
 20
112.110532774
 10
129.9361200172
 20
112.0907707291
 10
129.94885341
 20
112.0826283125
  0
LWPOLYLINE
  5
2FA
100
AcDbEntity
  8
RACCORDO
100
AcDbPolyline
 62
250
  6
CONTINUOUS
 90
8
 70
0
 10
128.9349818941
 20
123.1756156256
 10
128.9368759339
 20
123.1345094586
 10
128.9425377599
 20
123.0960309054
 10
128.9519067096
 20
123.0605922369
 10
128.9648824012
 20
123.0285731539
 10
128.9813258092
 20
123.0003167189
 10
129.0010607537
 20
122.9761256797
 10
129.0238757887
 20
122.9562592268
  0
LINE
  5
2FB
100
AcDbEntity
  8
0
100
AcDbLine
 62
250
  6
CONTINUOUS
 10
129.6988654902
 20
112.5156340396
 11
129.6995503357
 21
112.5005292428
  0
LINE
  5
2FC
100
AcDbEntity
  8
RACCORDO
100
AcDbLine
 62
250
  6
CONTINUOUS
 10
128.4400825343
 20
110.704265356
 11
128.4400825343
 21
122.8899214502
  0
LINE
  5
2FD
100
AcDbEntity
  8
RACCORDO
100
AcDbLine
 62
250
  6
CONTINUOUS
 10
129.1409994171
 20
110.6852514759
 11
129.1409651102
 21
122.8863905704
  0
LINE
  5
2FE
100
AcDbEntity
  8
RACCORDO
100
AcDbLine
 62
7
  6
CONTINUOUS
 10
129.6508577348
 20
122.5931929117
 11
129.6508577348
 21
110.995137458
  0
LINE
  5
2FF
100
AcDbEntity
  8
0
100
AcDbLine
 62
7
  6
CONTINUOUS
 10
129.6629897691
 20
110.9224650142
 11
129.6629897691
 21
122.5861880271
  0
LINE
  5
300
100
AcDbEntity
  8
0
100
AcDbLine
 62
7
  6
CONTINUOUS
 10
129.6988654902
 20
112.5156340396
 11
129.6988654902
 21
114.1485745932
  0
LINE
  5
301
100
AcDbEntity
  8
0
100
AcDbLine
 62
250
  6
CONTINUOUS
 10
129.7215684129
 20
110.8129965932
 11
129.7215684129
 21
112.3677224955
  0
LINE
  5
302
100
AcDbEntity
  8
0
100
AcDbLine
 62
250
  6
CONTINUOUS
 10
129.7215684129
 20
114.2946461328
 11
129.7215684129
 21
122.5523654524
  0
LINE
  5
303
100
AcDbEntity
  8
0
100
AcDbLine
 62
250
  6
CONTINUOUS
 10
129.8453120996
 20
112.3114967431
 11
129.8453120996
 21
113.9444372966
  0
LINE
  5
304
100
AcDbEntity
  8
0
100
AcDbLine
 62
250
  6
CONTINUOUS
 10
129.9513781168
 20
112.5360201509
 11
129.9513781168
 21
113.5974315107
  0
LWPOLYLINE
  5
305
100
AcDbEntity
  8
RACCORDO
100
AcDbPolyline
 62
250
  6
CONTINUOUS
 90
19
 70
0
 10
128.4400825343
 20
122.8899214502
 10
128.4421950494
 20
122.9392245515
 10
128.4477828307
 20
122.9851602229
 10
128.4568458783
 20
123.0277284644
 10
128.4694990536
 20
123.067093086
 10
128.4856274951
 20
123.1030902778
 10
128.5048866187
 20
123.1352286095
 10
128.5273310665
 20
123.1635207081
 10
128.5529061964
 20
123.1879539466
 10
128.5811034978
 20
123.2079990138
 10
128.6118303832
 20
123.2236179614
 10
128.6451794401
 20
123.2348487377
 10
128.6809199207
 20
123.2412758765
 10
128.7193504093
 20
123.2428540825
 10
128.7601723215
 20
123.2396286509
 10
128.8022591573
 20
123.2313200007
 10
128.8452354165
 20
123.2178349381
 10
128.8894765992
 20
123.199266657
 10
128.9349827055
 20
123.1756151572
  0
LWPOLYLINE
  5
306
100
AcDbEntity
  8
RACCORDO
100
AcDbPolyline
 62
250
  6
CONTINUOUS
 90
16
 70
0
 10
128.9349818941
 20
109.8470735842
 10
128.9368759495
 20
109.8903671291
 10
128.9425378181
 20
109.9353839881
 10
128.9519068292
 20
109.9816418306
 10
128.9648825925
 20
110.0286450306
 10
128.9813260742
 20
110.0758899785
 10
129.0010610872
 20
110.1228704767
 10
129.0238761775
 20
110.1690831607
 10
129.0495268919
 20
110.2140328963
 10
129.0777383981
 20
110.2572380846
 10
129.1082084255
 20
110.2982358152
 10
129.1406105068
 20
110.3365868319
 10
129.1745974791
 20
110.3718802409
 10
129.2098051972
 20
110.4037379049
 10
129.245856434
 20
110.4318184957
 10
129.2823649272
 20
110.455821156
  0
LWPOLYLINE
  5
307
100
AcDbEntity
  8
0
100
AcDbPolyline
 62
250
  6
CONTINUOUS
 90
16
 70
0
 10
129.8453120996
 20
113.9444372965
 10
129.8472485747
 20
113.9882239891
 10
129.8530368082
 20
114.0337673441
 10
129.862613424
 20
114.080568473
 10
129.8758729583
 20
114.1281128399
 10
129.8926704996
 20
114.1758814667
 10
129.9128246257
 20
114.2233566244
 10
129.9361185845
 20
114.2700233531
 10
129.9622959481
 20
114.3153641407
 10
129.9910636649
 20
114.3588713561
 10
130.0221018701
 20
114.4000642112
 10
130.0550729302
 20
114.4384973558
 10
130.0896189683
 20
114.4737545171
 10
130.1253628849
 20
114.5054506267
 10
130.1619118551
 20
114.5332371458
 10
130.1988654901
 20
114.5568097317
  0
LWPOLYLINE
  5
308
100
AcDbEntity
  8
ASSI
100
AcDbPolyline
 62
7
  6
CONTINUOUS
 90
12
 70
0
 10
134.6669448512
 20
137.1743833404
 10
134.670526551
 20
137.1909342686
 10
134.6763367292
 20
137.2120021428
 10
134.6837282373
 20
137.2340618958
 10
134.6926981618
 20
137.2567799425
 10
134.7032056964
 20
137.2798149584
 10
134.7150374201
 20
137.3025884586
 10
134.728049724
 20
137.3247908388
 10
134.7420413576
 20
137.3460825032
 10
134.7565911493
 20
137.3659091401
 10
134.7714456984
 20
137.3840633366
 10
134.7876882579
 20
137.4017728565
  0
LINE
  5
309
100
AcDbEntity
  8
ASSI
100
AcDbLine
 62
250
  6
CONTINUOUS
 10
134.6358690391
 20
137.2115632037
 11
134.6306208165
 21
137.1953563828
  0
LWPOLYLINE
  5
30A
100
AcDbEntity
  8
ASSI
100
AcDbPolyline
 62
250
  6
CONTINUOUS
 90
9
 70
0
 10
137.0435720921
 20
137.4325885133
 10
137.042620655
 20
137.4298406457
 10
137.0425841226
 20
137.4225484929
 10
137.0455482043
 20
137.414015016
 10
137.0514640026
 20
137.4043809893
 10
137.0602339264
 20
137.3938053424
 10
137.0717133007
 20
137.3824625388
 10
137.0857127536
 20
137.3705396973
 10
137.1020013403
 20
137.3582335055
  0
LWPOLYLINE
  5
30B
100
AcDbEntity
  8
ASSI
100
AcDbPolyline
 62
250
  6
CONTINUOUS
 90
11
 70
0
 10
137.4253843627
 20
138.2424590291
 10
137.424784117
 20
138.240958849
 10
137.424052606
 20
138.2354188057
 10
137.4252557714
 20
138.2290461061
 10
137.4283778856
 20
138.2219166158
 10
137.4333800809
 20
138.2141089464
 10
137.4402049321
 20
138.2057064096
 10
137.4487683954
 20
138.1968062915
 10
137.458969075
 20
138.1875070312
 10
137.4706941025
 20
138.1779057155
 10
137.483813611
 20
138.1681040213
  0
LWPOLYLINE
  5
30C
100
AcDbEntity
  8
ASSI
100
AcDbPolyline
 62
250
  6
CONTINUOUS
 90
10
 70
0
 10
137.483813611
 20
138.1681040213
 10
137.4928507467
 20
138.1891873681
 10
137.5034219279
 20
138.2098377661
 10
137.5153841979
 20
138.229775954
 10
137.5285757876
 20
138.2487323021
 10
137.5428183036
 20
138.2664504581
 10
137.5579191403
 20
138.2826908141
 10
137.5736740847
 20
138.2972337467
 10
137.5898700783
 20
138.3098825877
 10
137.6062880981
 20
138.3204662829
  0
LWPOLYLINE
  5
30D
100
AcDbEntity
  8
RACCORDO
100
AcDbPolyline
 62
250
  6
CONTINUOUS
 90
5
 70
0
 10
149.430336589
 20
138.8031596938
 10
149.4394687222
 20
138.8138979603
 10
149.4457169482
 20
138.8250682947
 10
149.4489523393
 20
138.8364402047
 10
149.4493128505
 20
138.8456895288
  0
LWPOLYLINE
  5
30E
100
AcDbEntity
  8
ASSI
100
AcDbPolyline
 62
250
  6
CONTINUOUS
 90
10
 70
0
 10
143.8599296903
 20
136.1055462678
 10
143.8461848713
 20
136.0895284012
 10
143.8345549317
 20
136.0728418617
 10
143.8251964798
 20
136.055711321
 10
143.8182355397
 20
136.0383674279
 10
143.8137658582
 20
136.0210437154
 10
143.8118476365
 20
136.0039734558
 10
143.8125067163
 20
135.9873865025
 10
143.8157342359
 20
135.9715061954
 10
143.8198448819
 20
135.9601212354
  0
LINE
  5
30F
100
AcDbEntity
  8
ASSI
100
AcDbLine
 62
250
  6
CONTINUOUS
 10
144.1276545208
 20
132.3300024796
 11
144.2681764961
 21
132.474126223
  0
LINE
  5
310
100
AcDbEntity
  8
ASSI
100
AcDbLine
 62
7
  6
CONTINUOUS
 10
144.1518619151
 20
132.2961127744
 11
144.2675079057
 21
132.4147229279
  0
LINE
  5
311
100
AcDbEntity
  8
RACCORDO
100
AcDbLine
 62
7
  6
CONTINUOUS
 10
149.4434602451
 20
138.3350092662
 11
148.7902684869
 21
137.6774674536
  0
LINE
  5
312
100
AcDbEntity
  8
RACCORDO
100
AcDbLine
 62
250
  6
CONTINUOUS
 10
146.5406381941
 20
131.0896728022
 11
151.8835200004
 21
135.5751462794
  0
LINE
  5
313
100
AcDbEntity
  8
RACCORDO
100
AcDbLine
 62
7
  6
CONTINUOUS
 10
146.564665337
 20
131.0497061267
 11
151.8639207825
 21
135.4985542597
  0
LWPOLYLINE
  5
314
100
AcDbEntity
  8
LAY0001
100
AcDbPolyline
 62
7
  6
CONTINUOUS
 90
10
 70
0
 10
144.6824772307
 20
126.6182592945
 10
144.7001960327
 20
126.6297332234
 10
144.7175350142
 20
126.6425989109
 10
144.7344941751
 20
126.6568563569
 10
144.7511839428
 20
126.6726217244
 10
144.76749389
 20
126.6897788504
 10
144.783092735
 20
126.7079792457
 10
144.7978700509
 20
126.7271067474
 10
144.8119362646
 20
126.7472775184
 10
144.8252913763
 20
126.7684915588
  0
LINE
  5
315
100
AcDbEntity
  8
LAY0001
100
AcDbLine
 62
7
  6
CONTINUOUS
 10
144.2879681053
 20
126.3825234475
 11
144.6824772307
 21
126.6182592945
  0
LINE
  5
316
100
AcDbEntity
  8
RACCORDO
100
AcDbLine
 62
250
  6
CONTINUOUS
 10
145.1895292514
 20
129.0896255642
 11
144.2879681053
 21
128.5690754577
  0
LINE
  5
317
100
AcDbEntity
  8
RACCORDO
100
AcDbLine
 62
7
  6
CONTINUOUS
 10
145.0146508842
 20
126.185100659
 11
144.3026114386
 21
125.7740574674
  0
LWPOLYLINE
  5
318
100
AcDbEntity
  8
RACCORDO
100
AcDbPolyline
 62
250
  6
CONTINUOUS
 90
6
 70
0
 10
144.3586570547
 20
125.1214146146
 10
144.3453446004
 20
125.1147459645
 10
144.3302112624
 20
125.1095302981
 10
144.3137271075
 20
125.105929623
 10
144.2964041617
 20
125.1040557823
 10
144.2879681053
 20
125.1040132748
  0
LWPOLYLINE
  5
319
100
AcDbEntity
  8
RACCORDO
100
AcDbPolyline
 62
7
  6
CONTINUOUS
 90
16
 70
0
 10
145.0146508842
 20
126.185100659
 10
145.0267269237
 20
126.1905522663
 10
145.0396699587
 20
126.1936631206
 10
145.0534799891
 20
126.1944332219
 10
145.0684368906
 20
126.1927779092
 10
145.0842607876
 20
126.1887818435
 10
145.1001120534
 20
126.1826990075
 10
145.1158586127
 20
126.1744812794
 10
145.1316325408
 20
126.1641767809
 10
145.1469904375
 20
126.1521838607
 10
145.1619523389
 20
126.1384494296
 10
145.1764982089
 20
126.1230265768
 10
145.1901245384
 20
126.1064729177
 10
145.2026634911
 20
126.0889743243
 10
145.2142829034
 20
126.0703449248
 10
145.2249827752
 20
126.0505847191
  0
LWPOLYLINE
  5
31A
100
AcDbEntity
  8
RACCORDO
100
AcDbPolyline
 62
250
  6
CONTINUOUS
 90
16
 70
0
 10
128.4400825343
 20
110.7042644191
 10
128.4785238173
 20
110.6842560938
 10
128.5203413081
 20
110.6666493334
 10
128.5650869614
 20
110.6516327823
 10
128.6122813584
 20
110.6393673324
 10
128.6614188439
 20
110.6299843994
 10
128.7119729438
 20
110.623584515
 10
128.7634020059
 20
110.6202362496
 10
128.8151550036
 20
110.6199754774
 10
128.8666774392
 20
110.6228049925
 10
128.9174172856
 20
110.6286944785
 10
128.9668309005
 20
110.6375808338
 10
129.0143888513
 20
110.6493688471
 10
129.0595815875
 20
110.6639322181
 10
129.1019249002
 20
110.6811149103
 10
129.1409651102
 20
110.7007328231
  0
LINE
  5
31B
100
AcDbEntity
  8
RACCORDO
100
AcDbLine
 62
250
  6
CONTINUOUS
 10
138.5691714259
 20
104.2844132934
 11
128.9349825143
 21
109.8470732261
  0
LINE
  5
31C
100
AcDbEntity
  8
RACCORDO
100
AcDbLine
 62
7
  6
CONTINUOUS
 10
129.7922575519
 20
110.7502257909
 11
138.9176249876
 21
105.4813530012
  0
LWPOLYLINE
  5
31D
100
AcDbEntity
  8
RACCORDO
100
AcDbPolyline
 62
250
  6
CONTINUOUS
 90
18
 70
0
 10
138.9165552704
 20
104.8931603967
 10
129.2694757552
 20
110.4632764647
 10
129.2568112165
 20
110.4719013861
 10
129.2444618598
 20
110.4816092621
 10
129.2325335163
 20
110.4922832926
 10
129.2210829071
 20
110.5038456143
 10
129.2101245763
 20
110.5162755705
 10
129.1997198907
 20
110.5295037043
 10
129.1899610642
 20
110.5434130331
 10
129.1809124392
 20
110.557921175
 10
129.1726701598
 20
110.5728706041
 10
129.165264788
 20
110.5882038663
 10
129.1586850258
 20
110.6039938324
 10
129.1529826601
 20
110.6202317856
 10
129.1482837153
 20
110.636691711
 10
129.1446886828
 20
110.6531171495
 10
129.1422505098
 20
110.6693344749
 10
129.1409994171
 20
110.6852514759
  0
LWPOLYLINE
  5
31E
100
AcDbEntity
  8
RACCORDO
100
AcDbPolyline
 62
250
  6
CONTINUOUS
 90
4
 70
0
 10
128.9349825143
 20
109.8470732261
 10
128.8912270409
 20
109.8747763318
 10
128.8486501402
 20
109.9058117069
 10
128.8072518123
 20
109.9401793514
  0
LWPOLYLINE
  5
31F
100
AcDbEntity
  8
RACCORDO
100
AcDbPolyline
 62
250
  6
CONTINUOUS
 90
8
 70
0
 10
139.064071597
 20
104.5701062842
 10
139.029418255
 20
104.5923018973
 10
138.9989243328
 20
104.6164468898
 10
138.9729165455
 20
104.6422825593
 10
138.9516735414
 20
104.6695320898
 10
138.9354229159
 20
104.6979035179
 10
138.9243387737
 20
104.7270928609
 10
138.9185398641
 20
104.756787373
  0
LWPOLYLINE
  5
320
100
AcDbEntity
  8
RACCORDO
100
AcDbPolyline
 62
250
  6
CONTINUOUS
 90
16
 70
0
 10
128.8072518123
 20
109.9401793514
 10
128.7668327525
 20
109.9781269675
 10
128.7275922655
 20
110.019406853
 10
128.6901282647
 20
110.0632759015
 10
128.6544024907
 20
110.1098192967
 10
128.6204532029
 20
110.1589518549
 10
128.5889930929
 20
110.2096749183
 10
128.5601013242
 20
110.2618358716
 10
128.5336987332
 20
110.3155873301
 10
128.510260521
 20
110.3703884827
 10
128.4896766091
 20
110.4266476517
 10
128.472057076
 20
110.4839565147
 10
128.4582073583
 20
110.5405492945
 10
128.4483959349
 20
110.5958373983
 10
128.4423543269
 20
110.6504094188
 10
128.4400825343
 20
110.704265356
  0
LWPOLYLINE
  5
321
100
AcDbEntity
  8
0
100
AcDbPolyline
 62
250
  6
CONTINUOUS
 90
8
 70
0
 10
129.6995503357
 20
112.5005292428
 10
129.7050203836
 20
112.4704758033
 10
129.7159012899
 20
112.4409173769
 10
129.7320738353
 20
112.4121776267
 10
129.7533608399
 20
112.3845714004
 10
129.7795290881
 20
112.3584011573
 10
129.810291859
 20
112.3339536502
 10
129.8453120996
 20
112.3114967431
  0
LWPOLYLINE
  5
322
100
AcDbEntity
  8
0
100
AcDbPolyline
 62
250
  6
CONTINUOUS
 90
6
 70
0
 10
130.092799473
 20
113.6790706474
 10
130.093814093
 20
113.6658748317
 10
130.0968518834
 20
113.6541673683
 10
130.1018585377
 20
113.6443178863
 10
130.1087040214
 20
113.6366635606
 10
130.1135077349
 20
113.6332969615
  0
LWPOLYLINE
  5
323
100
AcDbEntity
  8
0
100
AcDbPolyline
 62
250
  6
CONTINUOUS
 90
6
 70
0
 10
131.7191450695
 20
112.7400390829
 10
131.7201596896
 20
112.7268432671
 10
131.72319748
 20
112.7151358037
 10
131.7282041344
 20
112.7052863216
 10
131.7350496181
 20
112.6976319959
 10
131.7398533319
 20
112.6942653967
  0
LWPOLYLINE
  5
324
100
AcDbEntity
  8
0
100
AcDbPolyline
 62
250
  6
CONTINUOUS
 90
4
 70
0
 10
131.860566426
 20
112.4950901088
 10
131.8590906349
 20
112.5180978007
 10
131.8554435919
 20
112.5411944995
 10
131.8496252969
 20
112.5643802051
  0
LWPOLYLINE
  5
325
100
AcDbEntity
  8
0
100
AcDbPolyline
 62
250
  6
CONTINUOUS
 90
6
 70
0
 10
131.8312771041
 20
111.474506208
 10
131.8315343678
 20
111.4703672402
 10
131.8343101096
 20
111.4603938147
 10
131.8401493946
 20
111.4507297558
 10
131.8489651986
 20
111.441718173
 10
131.860566426
 20
111.433678749
  0
LWPOLYLINE
  5
326
100
AcDbEntity
  8
0
100
AcDbPolyline
 62
250
  6
CONTINUOUS
 90
6
 70
0
 10
131.8312771041
 20
112.5359175681
 10
131.8315343678
 20
112.5317786
 10
131.8343101096
 20
112.5218051745
 10
131.8401493946
 20
112.5121411156
 10
131.8489651986
 20
112.5031295329
 10
131.860566426
 20
112.4950901088
  0
LWPOLYLINE
  5
327
100
AcDbEntity
  8
0
100
AcDbPolyline
 62
250
  6
CONTINUOUS
 90
9
 70
0
 10
131.9666324431
 20
111.0866729631
 10
131.9685689183
 20
111.0451224636
 10
131.9743571517
 20
111.0062632154
 10
131.9839337675
 20
110.9705209225
 10
131.9971933018
 20
110.9382883335
 10
132.0139908432
 20
110.9099170863
 10
132.0341449692
 20
110.8857154083
 10
132.057438928
 20
110.8659479592
 10
132.0701737536
 20
110.8578045325
  0
LINE
  5
328
100
AcDbEntity
  8
0
100
AcDbLine
 62
250
  6
CONTINUOUS
 10
133.2343993961
 20
110.474261073
 11
133.2350842416
 21
110.4591562762
  0
LWPOLYLINE
  5
329
100
AcDbEntity
  8
0
100
AcDbPolyline
 62
250
  6
CONTINUOUS
 90
16
 70
0
 10
132.6737392243
 20
112.7196135167
 10
132.6717739287
 20
112.7637323158
 10
132.6659819271
 20
112.8091392329
 10
132.6565472387
 20
112.8552923086
 10
132.6437779676
 20
112.9013788718
 10
132.627870153
 20
112.947189449
 10
132.6087007406
 20
112.9931220139
 10
132.5862587355
 20
113.0389525183
 10
132.5608139022
 20
113.0839111747
 10
132.5325311426
 20
113.1275485637
 10
132.5016124765
 20
113.1693846345
 10
132.4683747409
 20
113.2088336147
 10
132.4332176887
 20
113.2452977869
 10
132.3965389598
 20
113.2782672346
 10
132.3587180137
 20
113.3073062374
 10
132.3201858338
 20
113.3319859517
  0
LWPOLYLINE
  5
32A
100
AcDbEntity
  8
0
100
AcDbPolyline
 62
7
  6
CONTINUOUS
 90
28
 70
0
 10
131.8959217651
 20
117.1696093079
 10
131.9002467439
 20
117.0587424484
 10
131.9123563235
 20
116.9458233306
 10
131.9322505038
 20
116.8308519545
 10
131.9602255304
 20
116.7128863081
 10
131.9959851577
 20
116.5928684034
 10
132.038640649
 20
116.4736242762
 10
132.088365882
 20
116.355192747
 10
132.1449869789
 20
116.2375349952
 10
132.2070935702
 20
116.1233605945
 10
132.274682754
 20
116.0129011485
 10
132.3477574321
 20
115.9059250537
 10
132.4249159409
 20
115.8044470727
 10
132.5063730962
 20
115.7084036523
 10
132.5919140821
 20
115.6178583457
 10
132.6794927878
 20
115.535016576
 10
132.7691040117
 20
115.4601273625
 10
132.8607529554
 20
115.3929416858
 10
132.9524091122
 20
115.3349179113
 10
133.0440437505
 20
115.2862541066
 10
133.1356856019
 20
115.246752204
 10
133.2253903538
 20
115.2172763655
 10
133.3131622656
 20
115.1980205657
 10
133.3989970779
 20
115.1887908299
 10
133.4809377005
 20
115.1898693957
 10
133.5588580992
 20
115.201438105
 10
133.6328843082
 20
115.2233151159
 10
133.7066778008
 20
115.258214669
  0
LINE
  5
32B
100
AcDbEntity
  8
0
100
AcDbLine
 62
250
  6
CONTINUOUS
 10
130.0927994729
 20
112.5360201509
 11
130.092799473
 21
113.5974315107
  0
LINE
  5
32C
100
AcDbEntity
  8
0
100
AcDbLine
 62
7
  6
CONTINUOUS
 10
130.3756421855
 20
112.6993299887
 11
130.3756421855
 21
113.481943815
  0
LINE
  5
32D
100
AcDbEntity
  8
0
100
AcDbLine
 62
7
  6
CONTINUOUS
 10
131.8312771041
 20
112.5359175681
 11
131.8312771041
 21
111.4745062083
  0
LINE
  5
32E
100
AcDbEntity
  8
0
100
AcDbLine
 62
250
  6
CONTINUOUS
 10
131.860566426
 20
112.4950901088
 11
131.860566426
 21
111.4336787489
  0
LINE
  5
32F
100
AcDbEntity
  8
0
100
AcDbLine
 62
250
  6
CONTINUOUS
 10
131.9666324431
 20
112.7196135166
 11
131.9666324431
 21
111.0866729631
  0
LINE
  5
330
100
AcDbEntity
  8
0
100
AcDbLine
 62
250
  6
CONTINUOUS
 10
132.6737392243
 20
112.7196135166
 11
132.6737392243
 21
111.0866729628
  0
LWPOLYLINE
  5
331
100
AcDbEntity
  8
0
100
AcDbPolyline
 62
7
  6
CONTINUOUS
 90
4
 70
0
 10
131.8312771039
 20
111.474506208
 10
131.8310415572
 20
111.4683590073
 10
131.8304826682
 20
111.4637923538
 10
131.8303215842
 20
111.4629073645
  0
LWPOLYLINE
  5
332
100
AcDbEntity
  8
0
100
AcDbPolyline
 62
250
  6
CONTINUOUS
 90
16
 70
0
 10
131.9666324431
 20
112.7196135165
 10
131.9685691194
 20
112.7634025342
 10
131.9743579411
 20
112.8089483083
 10
131.983935504
 20
112.8557518667
 10
131.9971968217
 20
112.9033002212
 10
132.0139966622
 20
112.9510726851
 10
132.0341513076
 20
112.9985465781
 10
132.0574403609
 20
113.0452022381
 10
132.0836086076
 20
113.0905279351
 10
132.1123689588
 20
113.1340262616
 10
132.1434061006
 20
113.1752203864
 10
132.176380128
 20
113.2136592278
 10
132.2109297869
 20
113.2489216641
 10
132.2466765425
 20
113.2806213455
 10
132.2832287211
 20
113.3084109358
 10
132.3201858342
 20
113.3319859519
  0
LWPOLYLINE
  5
333
100
AcDbEntity
  8
0
100
AcDbPolyline
 62
250
  6
CONTINUOUS
 90
5
 70
0
 10
130.092799473
 20
113.5974315107
 10
130.0938140928
 20
113.6106273263
 10
130.096851883
 20
113.6223347897
 10
130.1018585373
 20
113.6321842717
 10
130.1061491766
 20
113.6369818801
  0
LWPOLYLINE
  5
334
100
AcDbEntity
  8
RACCORDO
100
AcDbPolyline
 62
250
  6
CONTINUOUS
 90
9
 70
0
 10
151.8639294033
 20
135.4985614983
 10
151.8697701188
 20
135.5043734485
 10
151.8744657847
 20
135.5108374871
 10
151.8783993547
 20
135.5183669247
 10
151.8815003107
 20
135.5269990856
 10
151.8837122845
 20
135.5369378692
 10
151.8848912454
 20
135.5482968426
 10
151.8848742754
 20
135.5610352721
 10
151.8835200004
 20
135.5751462794
  0
LWPOLYLINE
  5
335
100
AcDbEntity
  8
RACCORDO
100
AcDbPolyline
 62
7
  6
CONTINUOUS
 90
9
 70
0
 10
151.8639180932
 20
135.4985539623
 10
151.8749401451
 20
135.5086803041
 10
151.8878494535
 20
135.5232368284
 10
151.8990997306
 20
135.5393250918
 10
151.9084920177
 20
135.5567018129
 10
151.9159607026
 20
135.5753120426
 10
151.9213796773
 20
135.5950274411
 10
151.9246171671
 20
135.6155392339
 10
151.9256190217
 20
135.6352798988
  0
LINE
  5
336
100
AcDbEntity
  8
RACCORDO
100
AcDbLine
 62
250
  6
CONTINUOUS
 10
144.3052177036
 20
125.4364753172
 11
144.2879681053
 21
125.4240470358
  0
LWPOLYLINE
  5
337
100
AcDbEntity
  8
0
100
AcDbPolyline
 62
7
  6
CONTINUOUS
 90
10
 70
0
 10
132.2064860729
 20
117.8561801695
 10
132.1486540209
 20
117.8169009313
 10
132.0910546862
 20
117.7645991514
 10
132.0404854922
 20
117.7033848353
 10
131.9971652581
 20
117.6329536726
 10
131.9608751648
 20
117.5536099738
 10
131.9325157182
 20
117.467399147
 10
131.912387087
 20
117.3750029952
 10
131.9001891027
 20
117.2757397155
 10
131.8959217651
 20
117.1696093079
  0
LINE
  5
338
100
AcDbEntity
  8
RACCORDO
100
AcDbLine
 62
250
  6
CONTINUOUS
 10
145.2249827752
 20
126.0505847191
 11
144.3052177036
 21
125.4364753172
  0
LINE
  5
339
100
AcDbEntity
  8
RACCORDO
100
AcDbLine
 62
250
  6
CONTINUOUS
 10
145.0146511977
 20
126.18510084
 11
144.2879681053
 21
125.7003671621
  0
LINE
  5
33A
100
AcDbEntity
  8
RACCORDO
100
AcDbLine
 62
250
  6
CONTINUOUS
 10
144.2879681053
 20
125.7643176393
 11
144.3026114386
 21
125.7740574674
  0
LWPOLYLINE
  5
33B
100
AcDbEntity
  8
0
100
AcDbPolyline
 62
7
  6
CONTINUOUS
 90
9
 70
0
 10
131.5751990111
 20
115.683913834
 10
131.562458376
 20
115.6756669486
 10
131.5392806829
 20
115.6561083891
 10
131.5192737982
 20
115.6320276736
 10
131.5023513089
 20
115.6035508232
 10
131.4890725232
 20
115.5715290497
 10
131.4796238773
 20
115.5362460905
 10
131.473818935
 20
115.4974182081
 10
131.4719616118
 20
115.4610039071
  0
LINE
  5
33C
100
AcDbEntity
  8
RACCORDO
100
AcDbLine
 62
250
  6
CONTINUOUS
 10
148.2887680937
 20
127.790216014
 11
144.3052177036
 21
125.4364753172
  0
LINE
  5
33D
100
AcDbEntity
  8
RACCORDO
100
AcDbLine
 62
250
  6
CONTINUOUS
 10
148.3541573919
 20
127.4814621721
 11
144.3586570547
 21
125.1214146146
  0
LINE
  5
33E
100
AcDbEntity
  8
0
100
AcDbLine
 62
250
  6
CONTINUOUS
 10
131.8959217669
 20
117.169537407
 11
132.9563506822
 21
117.7818157727
  0
LINE
  5
33F
100
AcDbEntity
  8
0
100
AcDbLine
 62
7
  6
CONTINUOUS
 10
152.5434397757
 20
128.1514738445
 11
148.3962564218
 21
125.7569421524
  0
LINE
  5
340
100
AcDbEntity
  8
0
100
AcDbLine
 62
7
  6
CONTINUOUS
 10
129.9488534101
 20
114.5815803205
 11
131.8226897956
 21
115.6635099648
  0
LINE
  5
341
100
AcDbEntity
  8
0
100
AcDbLine
 62
250
  6
CONTINUOUS
 10
131.9666256082
 20
115.5774922686
 11
130.1988654906
 21
114.5568097319
  0
LINE
  5
342
100
AcDbEntity
  8
0
100
AcDbLine
 62
7
  6
CONTINUOUS
 10
148.3962564218
 20
124.6955307926
 11
150.91709418
 21
126.1510309206
  0
LWPOLYLINE
  5
343
100
AcDbEntity
  8
0
100
AcDbPolyline
 62
250
  6
CONTINUOUS
 90
4
 70
0
 10
135.3663277073
 20
109.4249616404
 10
135.3616522466
 20
109.4237574465
 10
135.3503638228
 20
109.4239833202
 10
135.338152164
 20
109.4271131099
  0
LWPOLYLINE
  5
344
100
AcDbEntity
  8
0
100
AcDbPolyline
 62
7
  6
CONTINUOUS
 90
6
 70
0
 10
133.635190845
 20
111.5978181296
 10
133.6352463087
 20
111.5978024361
 10
133.6365538744
 20
111.597503833
 10
133.6394022706
 20
111.5965801589
 10
133.6436291285
 20
111.5947802225
 10
133.6490416407
 20
111.5919239946
  0
LWPOLYLINE
  5
345
100
AcDbEntity
  8
0
100
AcDbPolyline
 62
250
  6
CONTINUOUS
 90
12
 70
0
 10
133.6091454586
 20
111.6470725038
 10
133.5909661842
 20
111.6533578822
 10
133.573795556
 20
111.6565538159
 10
133.557415063
 20
111.6565913043
 10
133.5420432162
 20
111.6535393479
 10
133.5283355484
 20
111.647604949
 10
133.5163415462
 20
111.6387023942
 10
133.5060117231
 20
111.6269173968
 10
133.4978531518
 20
111.6127140988
 10
133.4920348569
 20
111.5962472144
 10
133.4883878138
 20
111.5773620295
 10
133.4869120228
 20
111.5560585441
  0
LWPOLYLINE
  5
346
100
AcDbEntity
  8
RACCORDO
100
AcDbPolyline
 62
250
  6
CONTINUOUS
 90
13
 70
0
 10
148.681019225
 20
103.4179250896
 10
148.6980484748
 20
103.4113064923
 10
148.7147566301
 20
103.4026997639
 10
148.7308595385
 20
103.3922512775
 10
148.7460833411
 20
103.3801387283
 10
148.7601691296
 20
103.3665681121
 10
148.7728773498
 20
103.3517702217
 10
148.7839918755
 20
103.3359967219
 10
148.7933236841
 20
103.3195158695
 10
148.8007140713
 20
103.3026079511
 10
148.8060373501
 20
103.2855605163
 10
148.8092029887
 20
103.2686634875
 10
148.8101571496
 20
103.2522042293
  0
LWPOLYLINE
  5
347
100
AcDbEntity
  8
RACCORDO
100
AcDbPolyline
 62
250
  6
CONTINUOUS
 90
4
 70
0
 10
149.3337330227
 20
104.0749857586
 10
149.3508348241
 20
104.0683344
 10
149.3676051495
 20
104.0596821189
 10
149.3837571044
 20
104.0491794418
  0
LWPOLYLINE
  5
348
100
AcDbEntity
  8
RACCORDO
100
AcDbPolyline
 62
250
  6
CONTINUOUS
 90
7
 70
0
 10
149.406866981
 20
104.0813774922
 10
149.3974904873
 20
104.0855759945
 10
149.3861528753
 20
104.0880248174
 10
149.3738975993
 20
104.0881762863
 10
149.3609284837
 20
104.0860248487
 10
149.3474647564
 20
104.0816040033
 10
149.3337330227
 20
104.0749857586
  0
LINE
  5
349
100
AcDbEntity
  8
0
100
AcDbLine
 62
250
  6
CONTINUOUS
 10
135.338152164
 20
109.4271131099
 11
135.3253896534
 21
109.4331411323
  0
LINE
  5
34A
100
AcDbEntity
  8
0
100
AcDbLine
 62
250
  6
CONTINUOUS
 10
131.8026182581
 20
111.4684860765
 11
131.7898557475
 21
111.474514099
  0
LWPOLYLINE
  5
34B
100
AcDbEntity
  8
0
100
AcDbPolyline
 62
250
  6
CONTINUOUS
 90
10
 70
0
 10
133.4869120227
 20
110.4946471843
 10
133.4998622815
 20
110.4883415249
 10
133.5145584012
 20
110.4833641337
 10
133.5305988012
 20
110.4798841668
 10
133.5474964115
 20
110.4780326913
 10
133.564791142
 20
110.4778844377
 10
133.5820645089
 20
110.4794871163
 10
133.5988020714
 20
110.4828586462
 10
133.614409585
 20
110.487948781
 10
133.6283333789
 20
110.4946471842
  0
LWPOLYLINE
  5
34C
100
AcDbEntity
  8
0
100
AcDbPolyline
 62
250
  6
CONTINUOUS
 90
10
 70
0
 10
129.9513781168
 20
112.5360201509
 10
129.9643283756
 20
112.5297144915
 10
129.9790244953
 20
112.5247371003
 10
129.9950648952
 20
112.5212571334
 10
130.0119625056
 20
112.5194056579
 10
130.029257236
 20
112.5192574044
 10
130.0465306029
 20
112.5208600829
 10
130.0632681655
 20
112.5242316129
 10
130.0788756791
 20
112.5293217476
 10
130.092799473
 20
112.5360201509
  0
LWPOLYLINE
  5
34D
100
AcDbEntity
  8
0
100
AcDbPolyline
 62
250
  6
CONTINUOUS
 90
10
 70
0
 10
133.4869120227
 20
111.5560585441
 10
133.4998622815
 20
111.5497528847
 10
133.5145584012
 20
111.5447754935
 10
133.5305988012
 20
111.5412955266
 10
133.5474964115
 20
111.5394440511
 10
133.564791142
 20
111.5392957975
 10
133.5820645089
 20
111.5408984761
 10
133.5988020715
 20
111.5442700061
 10
133.6144095851
 20
111.5493601408
 10
133.628333379
 20
111.5560585441
  0
LWPOLYLINE
  5
34E
100
AcDbEntity
  8
0
100
AcDbPolyline
 62
250
  6
CONTINUOUS
 90
10
 70
0
 10
129.9513781168
 20
113.5974315107
 10
129.9643283756
 20
113.5911258513
 10
129.9790244953
 20
113.5861484601
 10
129.9950648953
 20
113.5826684932
 10
130.0119625056
 20
113.5808170177
 10
130.0292572361
 20
113.5806687642
 10
130.046530603
 20
113.5822714427
 10
130.0632681655
 20
113.5856429727
 10
130.0788756792
 20
113.5907331075
 10
130.0927994731
 20
113.5974315108
  0
LWPOLYLINE
  5
34F
100
AcDbEntity
  8
0
100
AcDbPolyline
 62
250
  6
CONTINUOUS
 90
13
 70
0
 10
135.2546789755
 20
109.3106666457
 10
135.2738668961
 20
109.3012918226
 10
135.2920461705
 20
109.2950064442
 10
135.3092167987
 20
109.2918105105
 10
135.3255972917
 20
109.2917730221
 10
135.3409691385
 20
109.2948249785
 10
135.3546768063
 20
109.3007593774
 10
135.3666708084
 20
109.3096619322
 10
135.3770006316
 20
109.3214469296
 10
135.3851592028
 20
109.3356502276
 10
135.3909774978
 20
109.352117112
 10
135.3946245408
 20
109.3710022969
 10
135.3961003319
 20
109.3923057823
  0
LWPOLYLINE
  5
350
100
AcDbEntity
  8
0
100
AcDbPolyline
 62
250
  6
CONTINUOUS
 90
13
 70
0
 10
131.7191450695
 20
111.3520396124
 10
131.7383329901
 20
111.3426647893
 10
131.7565122645
 20
111.3363794108
 10
131.7736828928
 20
111.3331834771
 10
131.7900633857
 20
111.3331459888
 10
131.8054352325
 20
111.3361979451
 10
131.8191429003
 20
111.342132344
 10
131.8311369025
 20
111.3510348989
 10
131.8414667257
 20
111.3628198963
 10
131.8496252969
 20
111.3770231942
 10
131.8554435919
 20
111.3934900786
 10
131.8590906349
 20
111.4123752635
 10
131.860566426
 20
111.4336787489
  0
LINE
  5
351
100
AcDbEntity
  8
0
100
AcDbLine
 62
250
  6
CONTINUOUS
 10
133.6283333792
 20
111.6376976807
 11
133.6091454586
 21
111.6470725038
  0
LINE
  5
352
100
AcDbEntity
  8
0
100
AcDbLine
 62
250
  6
CONTINUOUS
 10
130.0927994733
 20
113.6790706473
 11
130.0736115527
 21
113.6884454704
  0
LWPOLYLINE
  5
353
100
AcDbEntity
  8
RACCORDO
100
AcDbPolyline
 62
7
  6
CONTINUOUS
 90
9
 70
0
 10
149.4313392642
 20
102.7306805793
 10
149.4134941315
 20
102.7397808078
 10
149.3936203109
 20
102.7473102052
 10
149.373255951
 20
102.7524255971
 10
149.3527078449
 20
102.7550753301
 10
149.3322314782
 20
102.7552667886
 10
149.3120967648
 20
102.7530440441
 10
149.2926246022
 20
102.7484981609
 10
149.2882649667
 20
102.7471371061
  0
LWPOLYLINE
  5
354
100
AcDbEntity
  8
0
100
AcDbPolyline
 62
7
  6
CONTINUOUS
 90
9
 70
0
 10
137.6288348178
 20
109.6958521479
 10
137.6612699144
 20
109.6792678078
 10
137.6978040268
 20
109.6648778605
 10
137.7330890295
 20
109.6554168482
 10
137.7674638351
 20
109.6509046544
 10
137.8005895309
 20
109.6513213954
 10
137.8314493788
 20
109.6566074202
 10
137.8599773153
 20
109.6669005612
 10
137.8734987685
 20
109.6738161004
  0
LWPOLYLINE
  5
355
100
AcDbEntity
  8
0
100
AcDbPolyline
 62
250
  6
CONTINUOUS
 90
16
 70
0
 10
135.502166349
 20
109.0452999965
 10
135.541058217
 20
109.0250807445
 10
135.5833974162
 20
109.0073194078
 10
135.6287201112
 20
108.9922105812
 10
135.6765295387
 20
108.9799198542
 10
135.7263021473
 20
108.9705818085
 10
135.7774934179
 20
108.9642986897
 10
135.8295431076
 20
108.9611394662
 10
135.881880436
 20
108.961138984
 10
135.9339310912
 20
108.9642973207
 10
135.9851244702
 20
108.9705798186
 10
136.034899976
 20
108.9799176456
 10
136.0827122854
 20
108.9922084975
 10
136.1280375495
 20
109.0073177153
 10
136.170379139
 20
109.0250797516
 10
136.2092731303
 20
109.0452999962
  0
LWPOLYLINE
  5
356
100
AcDbEntity
  8
0
100
AcDbPolyline
 62
250
  6
CONTINUOUS
 90
16
 70
0
 10
131.966632443
 20
111.0866729631
 10
132.005524311
 20
111.0664537112
 10
132.0478635102
 20
111.0486923744
 10
132.0931862052
 20
111.0335835478
 10
132.1409956328
 20
111.0212928208
 10
132.1907682413
 20
111.0119547752
 10
132.241959512
 20
111.0056716564
 10
132.2940092016
 20
111.0025124328
 10
132.34634653
 20
111.0025119506
 10
132.3983971853
 20
111.0056702873
 10
132.4495905642
 20
111.0119527853
 10
132.49936607
 20
111.0212906123
 10
132.5471783795
 20
111.0335814641
 10
132.5925036436
 20
111.0486906819
 10
132.6348452331
 20
111.0664527182
 10
132.6737392243
 20
111.0866729628
  0
LWPOLYLINE
  5
357
100
AcDbEntity
  8
0
100
AcDbPolyline
 62
250
  6
CONTINUOUS
 90
16
 70
0
 10
135.502166349
 20
110.6782405501
 10
135.5410561028
 20
110.6580222866
 10
135.5833929129
 20
110.6402616499
 10
135.6287130304
 20
110.625153218
 10
135.6765181128
 20
110.6128629404
 10
135.7262862489
 20
110.6035248221
 10
135.7774783552
 20
110.5972406211
 10
135.8295400836
 20
110.5940801113
 10
135.8818950393
 20
110.5940799794
 10
135.9339570752
 20
110.5972402507
 10
135.9851498862
 20
110.6035243046
 10
136.0349189749
 20
110.6128624102
 10
136.0827249056
 20
110.6251527639
 10
136.1280456571
 20
110.6402613089
 10
136.1703829826
 20
110.6580221024
 10
136.2092731302
 20
110.67824055
  0
LWPOLYLINE
  5
358
100
AcDbEntity
  8
0
100
AcDbPolyline
 62
250
  6
CONTINUOUS
 90
16
 70
0
 10
131.966632443
 20
112.7196135167
 10
132.0055221968
 20
112.6993952533
 10
132.047859007
 20
112.6816346166
 10
132.0931791244
 20
112.6665261846
 10
132.1409842069
 20
112.654235907
 10
132.190752343
 20
112.6448977887
 10
132.2419444493
 20
112.6386135877
 10
132.2940061776
 20
112.635453078
 10
132.3463611334
 20
112.6354529461
 10
132.3984231693
 20
112.6386132173
 10
132.4496159803
 20
112.6448972712
 10
132.4993850689
 20
112.6542353769
 10
132.5471909997
 20
112.6665257306
 10
132.5925117511
 20
112.6816342756
 10
132.6348490767
 20
112.699395069
 10
132.6737392243
 20
112.7196135166
  0
LWPOLYLINE
  5
359
100
AcDbEntity
  8
RACCORDO
100
AcDbPolyline
 62
250
  6
CONTINUOUS
 90
11
 70
0
 10
149.3777289617
 20
102.7330547673
 10
149.3696698278
 20
102.7374905005
 10
149.3613073333
 20
102.7414539022
 10
149.3526655487
 20
102.7448700504
 10
149.3437631541
 20
102.747663848
 10
149.3346474785
 20
102.7497536133
 10
149.3253943933
 20
102.7510599797
 10
149.3160491665
 20
102.7515126212
 10
149.3066693711
 20
102.7510415576
 10
149.2973557397
 20
102.7495897206
 10
149.2886808173
 20
102.7472740773
  0
LINE
  5
35A
100
AcDbEntity
  8
0
100
AcDbLine
 62
7
  6
CONTINUOUS
 10
135.6057076595
 20
108.8164315659
 11
133.484387316
 21
110.0412553459
  0
LINE
  5
35B
100
AcDbEntity
  8
0
100
AcDbLine
 62
7
  6
CONTINUOUS
 10
132.0701737536
 20
110.8578045325
 11
129.9488534101
 21
112.0826283125
  0
LINE
  5
35C
100
AcDbEntity
  8
0
100
AcDbLine
 62
250
  6
CONTINUOUS
 10
135.5021663491
 20
109.0452999965
 11
133.3808460056
 21
110.2701237764
  0
LINE
  5
35D
100
AcDbEntity
  8
0
100
AcDbLine
 62
250
  6
CONTINUOUS
 10
131.9666324431
 20
111.0866729631
 11
129.8453120996
 21
112.3114967431
  0
LINE
  5
35E
100
AcDbEntity
  8
0
100
AcDbLine
 62
250
  6
CONTINUOUS
 10
135.2546789755
 20
109.3106666457
 11
133.6283333797
 21
110.2496982099
  0
LINE
  5
35F
100
AcDbEntity
  8
0
100
AcDbLine
 62
250
  6
CONTINUOUS
 10
131.7191450695
 20
111.3520396124
 11
130.0927994737
 21
112.2910711765
  0
LINE
  5
360
100
AcDbEntity
  8
0
100
AcDbLine
 62
250
  6
CONTINUOUS
 10
135.3253896537
 20
109.4331411325
 11
133.699044057
 21
110.3721726972
  0
LINE
  5
361
100
AcDbEntity
  8
0
100
AcDbLine
 62
250
  6
CONTINUOUS
 10
131.7898557478
 20
111.4745140992
 11
130.163510151
 21
112.4135456638
  0
LINE
  5
362
100
AcDbEntity
  8
0
100
AcDbLine
 62
7
  6
CONTINUOUS
 10
135.36681101
 20
109.7358446353
 11
133.9818867696
 21
110.5354825346
  0
LINE
  5
363
100
AcDbEntity
  8
0
100
AcDbLine
 62
7
  6
CONTINUOUS
 10
131.8312771041
 20
111.777217602
 11
130.4463528636
 21
112.5768555012
  0
LINE
  5
364
100
AcDbEntity
  8
0
100
AcDbLine
 62
7
  6
CONTINUOUS
 10
130.1135077351
 20
113.6332969613
 11
131.7398533319
 21
112.6942653967
  0
LINE
  5
365
100
AcDbEntity
  8
0
100
AcDbLine
 62
7
  6
CONTINUOUS
 10
133.6490416411
 20
111.5919239947
 11
135.2753872378
 21
110.65289243
  0
LINE
  5
366
100
AcDbEntity
  8
0
100
AcDbLine
 62
250
  6
CONTINUOUS
 10
130.0927994733
 20
113.6790706473
 11
131.7191450691
 21
112.7400390832
  0
LINE
  5
367
100
AcDbEntity
  8
0
100
AcDbLine
 62
250
  6
CONTINUOUS
 10
133.6283333792
 20
111.6376976807
 11
135.254678975
 21
110.6986661165
  0
LINE
  5
368
100
AcDbEntity
  8
0
100
AcDbLine
 62
250
  6
CONTINUOUS
 10
129.8453120996
 20
113.9444372966
 11
131.9666324431
 21
112.7196135166
  0
LINE
  5
369
100
AcDbEntity
  8
0
100
AcDbLine
 62
250
  6
CONTINUOUS
 10
133.3808460056
 20
111.9030643299
 11
135.5021663491
 21
110.67824055
  0
LINE
  5
36A
100
AcDbEntity
  8
RACCORDO
100
AcDbLine
 62
250
  6
CONTINUOUS
 10
149.6843644092
 20
102.5560073029
 11
149.3777289617
 21
102.7330547673
  0
LINE
  5
36B
100
AcDbEntity
  8
RACCORDO
100
AcDbLine
 62
7
  6
CONTINUOUS
 10
149.7380072453
 20
102.5536143467
 11
149.4313717941
 21
102.7306618132
  0
LWPOLYLINE
  5
36C
100
AcDbEntity
  8
0
100
AcDbPolyline
 62
7
  6
CONTINUOUS
 90
16
 70
0
 10
131.7398533319
 20
112.6942653964
 10
131.7468666789
 20
112.6898089239
 10
131.7547746957
 20
112.6838732544
 10
131.7633552716
 20
112.6763945142
 10
131.7724022523
 20
112.6673267757
 10
131.7816022893
 20
112.6567737514
 10
131.790575222
 20
112.6450150288
 10
131.7990952479
 20
112.6322362753
 10
131.8069304193
 20
112.6186991093
 10
131.8137847137
 20
112.6049081361
 10
131.8195437772
 20
112.5911831464
 10
131.8241438795
 20
112.5778297441
 10
131.8275151345
 20
112.5653626363
 10
131.8297244367
 20
112.5541221009
 10
131.8309217541
 20
112.5442531873
 10
131.8312771039
 20
112.5359175683
  0
LWPOLYLINE
  5
36D
100
AcDbEntity
  8
0
100
AcDbPolyline
 62
7
  6
CONTINUOUS
 90
16
 70
0
 10
135.2753872378
 20
110.6528924298
 10
135.2824005849
 20
110.6484359572
 10
135.2903086016
 20
110.6425002877
 10
135.2988891775
 20
110.6350215475
 10
135.3079361582
 20
110.6259538091
 10
135.3171361952
 20
110.6154007848
 10
135.3261091279
 20
110.6036420622
 10
135.3346291538
 20
110.5908633086
 10
135.3424643252
 20
110.5773261427
 10
135.3493186197
 20
110.5635351695
 10
135.3550776831
 20
110.5498101797
 10
135.3596777854
 20
110.5364567775
 10
135.3630490405
 20
110.5239896697
 10
135.3652583426
 20
110.5127491343
 10
135.36645566
 20
110.5028802207
 10
135.3668110098
 20
110.4945446016
  0
LWPOLYLINE
  5
36E
100
AcDbEntity
  8
0
100
AcDbPolyline
 62
250
  6
CONTINUOUS
 90
9
 70
0
 10
129.8453120997
 20
113.9444372965
 10
129.8102935842
 20
113.9668929736
 10
129.7795320285
 20
113.9913390966
 10
129.7533644592
 20
114.0175078527
 10
129.732077667
 20
114.0451124169
 10
129.7159047394
 20
114.0738504973
 10
129.7050227596
 20
114.1034076954
 10
129.6995511764
 20
114.1334605339
 10
129.6988654902
 20
114.1485745931
  0
LWPOLYLINE
  5
36F
100
AcDbEntity
  8
0
100
AcDbPolyline
 62
250
  6
CONTINUOUS
 90
9
 70
0
 10
133.3808460056
 20
111.9030643298
 10
133.3458274901
 20
111.925520007
 10
133.3150659344
 20
111.94996613
 10
133.2888983651
 20
111.976134886
 10
133.2676115729
 20
112.0037394503
 10
133.2514386454
 20
112.0324775307
 10
133.2405566655
 20
112.0620347288
 10
133.2350850824
 20
112.0920875673
 10
133.2343993961
 20
112.1072016265
  0
LINE
  5
370
100
AcDbEntity
  8
0
100
AcDbLine
 62
250
  6
CONTINUOUS
 10
131.7383329899
 20
112.7272561764
 11
131.7191450691
 21
112.7400390832
  0
LINE
  5
371
100
AcDbEntity
  8
0
100
AcDbLine
 62
250
  6
CONTINUOUS
 10
135.2738668958
 20
110.6858832098
 11
135.254678975
 21
110.6986661165
  0
LWPOLYLINE
  5
372
100
AcDbEntity
  8
0
100
AcDbPolyline
 62
250
  6
CONTINUOUS
 90
10
 70
0
 10
130.163510151
 20
112.4135456638
 10
130.1515745121
 20
112.4216086964
 10
130.1399161826
 20
112.4318476948
 10
130.128882437
 20
112.4439994414
 10
130.1188303103
 20
112.4577076424
 10
130.110054562
 20
112.4726112059
 10
130.1028057494
 20
112.4883715648
 10
130.0973566107
 20
112.5045521584
 10
130.0939607559
 20
112.5206132371
 10
130.0927994726
 20
112.5360201507
  0
LWPOLYLINE
  5
373
100
AcDbEntity
  8
0
100
AcDbPolyline
 62
250
  6
CONTINUOUS
 90
10
 70
0
 10
133.699044057
 20
110.3721726972
 10
133.687108418
 20
110.3802357298
 10
133.6754500886
 20
110.3904747282
 10
133.6644163429
 20
110.4026264748
 10
133.6543642162
 20
110.4163346758
 10
133.6455884679
 20
110.4312382392
 10
133.6383396554
 20
110.4469985982
 10
133.6328905166
 20
110.4631791917
 10
133.6294946618
 20
110.4792402705
 10
133.6283333785
 20
110.494647184
  0
LWPOLYLINE
  5
374
100
AcDbEntity
  8
0
100
AcDbPolyline
 62
7
  6
CONTINUOUS
 90
10
 70
0
 10
130.4463528636
 20
112.5768555012
 10
130.4334438709
 20
112.5859105915
 10
130.4216210872
 20
112.5964098034
 10
130.4108845127
 20
112.608353137
 10
130.4009983425
 20
112.6221483591
 10
130.3921983813
 20
112.637387703
 10
130.3851920436
 20
112.6528478679
 10
130.3802151341
 20
112.6681210871
 10
130.3770318481
 20
112.6836151273
 10
130.3756421855
 20
112.6993299887
  0
LWPOLYLINE
  5
375
100
AcDbEntity
  8
0
100
AcDbPolyline
 62
7
  6
CONTINUOUS
 90
10
 70
0
 10
133.9818867696
 20
110.5354825346
 10
133.9689777768
 20
110.5445376248
 10
133.9571549932
 20
110.5550368367
 10
133.9464184186
 20
110.5669801703
 10
133.9365322484
 20
110.5807753925
 10
133.9277322872
 20
110.5960147363
 10
133.9207259495
 20
110.6114749013
 10
133.9157490401
 20
110.6267481204
 10
133.912565754
 20
110.6422421607
 10
133.9111760914
 20
110.657957022
  0
LWPOLYLINE
  5
376
100
AcDbEntity
  8
0
100
AcDbPolyline
 62
250
  6
CONTINUOUS
 90
6
 70
0
 10
131.8191429003
 20
112.6344713628
 10
131.8054352325
 20
112.6562350329
 10
131.7900633858
 20
112.6770380126
 10
131.7736828928
 20
112.695916307
 10
131.7565122644
 20
112.7125485844
 10
131.7383329899
 20
112.7272561764
  0
LINE
  5
377
100
AcDbEntity
  8
0
100
AcDbLine
 62
250
  6
CONTINUOUS
 10
131.8311369025
 20
112.6117184349
 11
131.8191429003
 21
112.6344713628
  0
LWPOLYLINE
  5
378
100
AcDbEntity
  8
0
100
AcDbPolyline
 62
250
  6
CONTINUOUS
 90
3
 70
0
 10
131.8496252969
 20
112.5643802051
 10
131.8414667257
 20
112.5880048166
 10
131.8311369025
 20
112.6117184349
  0
LWPOLYLINE
  5
379
100
AcDbEntity
  8
0
100
AcDbPolyline
 62
250
  6
CONTINUOUS
 90
8
 70
0
 10
133.2350842416
 20
110.4591562762
 10
133.2405542895
 20
110.4291028367
 10
133.2514351958
 20
110.3995444102
 10
133.2676077413
 20
110.3708046601
 10
133.2888947458
 20
110.3431984337
 10
133.315062994
 20
110.3170281907
 10
133.3458257649
 20
110.2925806836
 10
133.3808460056
 20
110.2701237764
  0
LWPOLYLINE
  5
37A
100
AcDbEntity
  8
0
100
AcDbPolyline
 62
250
  6
CONTINUOUS
 90
6
 70
0
 10
133.628333379
 20
111.6376976808
 10
133.6293479989
 20
111.6245018651
 10
133.6323857893
 20
111.6127944017
 10
133.6373924437
 20
111.6029449196
 10
133.6442379273
 20
111.595290594
 10
133.6490416409
 20
111.5919239948
  0
LWPOLYLINE
  5
37B
100
AcDbEntity
  8
0
100
AcDbPolyline
 62
250
  6
CONTINUOUS
 90
6
 70
0
 10
135.2546789755
 20
110.6986661163
 10
135.2556935955
 20
110.6854703005
 10
135.258731386
 20
110.673762837
 10
135.2637380404
 20
110.663913355
 10
135.2705835241
 20
110.6562590293
 10
135.2753872378
 20
110.65289243
  0
LWPOLYLINE
  5
37C
100
AcDbEntity
  8
0
100
AcDbPolyline
 62
250
  6
CONTINUOUS
 90
13
 70
0
 10
133.4869120227
 20
110.4946471843
 10
133.4883878138
 20
110.4716394923
 10
133.4920348569
 20
110.4485427935
 10
133.4978531518
 20
110.4253570879
 10
133.5060117231
 20
110.4017324764
 10
133.5163415462
 20
110.3780188581
 10
133.5283355484
 20
110.3552659302
 10
133.5420432162
 20
110.3335022601
 10
133.557415063
 20
110.3126992805
 10
133.573795556
 20
110.2938209861
 10
133.5909661843
 20
110.2771887087
 10
133.6091454589
 20
110.2624811166
 10
133.6283333797
 20
110.2496982099
  0
LWPOLYLINE
  5
37D
100
AcDbEntity
  8
0
100
AcDbPolyline
 62
250
  6
CONTINUOUS
 90
4
 70
0
 10
135.3961003319
 20
110.4537171421
 10
135.3946245408
 20
110.4767248341
 10
135.3909774978
 20
110.4998215329
 10
135.3851592028
 20
110.5230072385
  0
LWPOLYLINE
  5
37E
100
AcDbEntity
  8
0
100
AcDbPolyline
 62
250
  6
CONTINUOUS
 90
6
 70
0
 10
135.36681101
 20
109.4331332414
 10
135.3670682737
 20
109.4289942736
 10
135.3698440156
 20
109.419020848
 10
135.3756833005
 20
109.4093567892
 10
135.3844991046
 20
109.4003452064
 10
135.3961003319
 20
109.3923057823
  0
LWPOLYLINE
  5
37F
100
AcDbEntity
  8
0
100
AcDbPolyline
 62
250
  6
CONTINUOUS
 90
6
 70
0
 10
135.36681101
 20
110.4945446015
 10
135.3670682737
 20
110.4904056334
 10
135.3698440156
 20
110.4804322078
 10
135.3756833005
 20
110.470768149
 10
135.3844991046
 20
110.4617565662
 10
135.3961003319
 20
110.4537171421
  0
LWPOLYLINE
  5
380
100
AcDbEntity
  8
0
100
AcDbPolyline
 62
7
  6
CONTINUOUS
 90
16
 70
0
 10
134.4415061781
 20
113.7402921091
 10
134.439343923
 20
113.7851674704
 10
134.4335375628
 20
113.8307045907
 10
134.4240870974
 20
113.87690347
 10
134.4108058339
 20
113.9242632327
 10
134.3938804652
 20
113.9722847543
 10
134.3738710708
 20
114.0194706624
 10
134.3506913154
 20
114.0657945246
 10
134.3244275342
 20
114.1112827732
 10
134.2958988126
 20
114.1545173318
 10
134.2650392205
 20
114.1954364896
 10
134.231914688
 20
114.2341019574
 10
134.197542091
 20
114.2692807909
 10
134.1622603883
 20
114.3005620089
 10
134.1257306211
 20
114.3283565928
 10
134.0879527896
 20
114.3526645424
  0
LWPOLYLINE
  5
381
100
AcDbEntity
  8
0
100
AcDbPolyline
 62
250
  6
CONTINUOUS
 90
9
 70
0
 10
133.3808460055
 20
110.2701237765
 10
133.3827826817
 20
110.228571184
 10
133.3885715034
 20
110.1897101963
 10
133.3981490663
 20
110.1539665674
 10
133.411410384
 20
110.1217320502
 10
133.4282102245
 20
110.0933596211
 10
133.4483648699
 20
110.0691598074
 10
133.4716539231
 20
110.0493977624
 10
133.4843873159
 20
110.0412553459
  0
LWPOLYLINE
  5
382
100
AcDbEntity
  8
0
100
AcDbPolyline
 62
250
  6
CONTINUOUS
 90
9
 70
0
 10
135.5021663491
 20
109.0452999965
 10
135.5041028242
 20
109.003749497
 10
135.5098910577
 20
108.9648902488
 10
135.5194676734
 20
108.9291479559
 10
135.5327272077
 20
108.8969153669
 10
135.5495247491
 20
108.8685441197
 10
135.5696788752
 20
108.8443424416
 10
135.5929728339
 20
108.8245749926
 10
135.6057076595
 20
108.8164315659
  0
LWPOLYLINE
  5
383
100
AcDbEntity
  8
0
100
AcDbPolyline
 62
250
  6
CONTINUOUS
 90
16
 70
0
 10
136.2092731303
 20
110.67824055
 10
136.2073078346
 20
110.7223593492
 10
136.2015158331
 20
110.7677662663
 10
136.1920811446
 20
110.813919342
 10
136.1793118735
 20
110.8600059051
 10
136.1634040589
 20
110.9058164823
 10
136.1442346465
 20
110.9517490473
 10
136.1217926414
 20
110.9975795516
 10
136.0963478082
 20
111.0425382081
 10
136.0680650485
 20
111.0861755971
 10
136.0371463825
 20
111.1280116679
 10
136.0039086468
 20
111.1674606481
 10
135.9687515946
 20
111.2039248203
 10
135.9320728658
 20
111.236894268
 10
135.8942519197
 20
111.2659332708
 10
135.8557197398
 20
111.290612985
  0
LWPOLYLINE
  5
384
100
AcDbEntity
  8
0
100
AcDbPolyline
 62
7
  6
CONTINUOUS
 90
28
 70
0
 10
134.0172421086
 20
115.9447855279
 10
134.0129171299
 20
116.0556523875
 10
134.0008075505
 20
116.1685715054
 10
133.9809133703
 20
116.2835428816
 10
133.9529383438
 20
116.4015085281
 10
133.9171787166
 20
116.521526433
 10
133.8745232254
 20
116.6407705604
 10
133.8247979925
 20
116.7592020898
 10
133.7681768956
 20
116.8768598418
 10
133.7060703043
 20
116.9910342426
 10
133.6384811205
 20
117.1014936888
 10
133.5654064423
 20
117.2084697838
 10
133.4882479334
 20
117.309947765
 10
133.4067907781
 20
117.4059911856
 10
133.321249792
 20
117.4965364923
 10
133.2336710863
 20
117.5793782622
 10
133.1440598622
 20
117.6542674758
 10
133.0524109184
 20
117.7214531526
 10
132.9607547615
 20
117.7794769272
 10
132.869120123
 20
117.828140732
 10
132.7774782715
 20
117.8676426346
 10
132.6877735195
 20
117.8971184732
 10
132.6000016076
 20
117.9163742729
 10
132.5141667952
 20
117.9256040087
 10
132.4322261725
 20
117.9245254428
 10
132.3543057737
 20
117.9129567334
 10
132.2802795647
 20
117.8910797223
 10
132.2064860729
 20
117.8561801695
  0
LWPOLYLINE
  5
385
100
AcDbEntity
  8
0
100
AcDbPolyline
 62
7
  6
CONTINUOUS
 90
28
 70
0
 10
135.431455671
 20
115.1282363413
 10
135.4357806499
 20
115.0173694818
 10
135.4478902295
 20
114.904450364
 10
135.4677844098
 20
114.7894789878
 10
135.4957594364
 20
114.6715133415
 10
135.5315190637
 20
114.5514954368
 10
135.574174555
 20
114.4322513095
 10
135.6238997879
 20
114.3138197803
 10
135.6805208848
 20
114.1961620285
 10
135.7426274761
 20
114.0819876279
 10
135.8102166599
 20
113.9715281819
 10
135.883291338
 20
113.864552087
 10
135.9604498469
 20
113.7630741061
 10
136.0419070021
 20
113.6670306856
 10
136.1274479881
 20
113.5764853791
 10
136.2150266937
 20
113.4936436094
 10
136.3046379177
 20
113.4187543958
 10
136.3962868614
 20
113.3515687192
 10
136.4879430181
 20
113.2935449446
 10
136.5795776564
 20
113.24488114
 10
136.6712195078
 20
113.2053792374
 10
136.7609242598
 20
113.1759033988
 10
136.8486961715
 20
113.156647599
 10
136.9345309838
 20
113.1474178632
 10
137.0164716064
 20
113.148496429
 10
137.0943920052
 20
113.1600651384
 10
137.1684182142
 20
113.1819421493
 10
137.2422117067
 20
113.2168417024
  0
LINE
  5
386
100
AcDbEntity
  8
0
100
AcDbLine
 62
7
  6
CONTINUOUS
 10
133.2343993961
 20
110.474261073
 11
133.2343993961
 21
112.1072016265
  0
LINE
  5
387
100
AcDbEntity
  8
0
100
AcDbLine
 62
250
  6
CONTINUOUS
 10
133.3808460056
 20
110.2701237764
 11
133.3808460056
 21
111.9030643299
  0
LINE
  5
388
100
AcDbEntity
  8
0
100
AcDbLine
 62
250
  6
CONTINUOUS
 10
133.4869120227
 20
110.4946471843
 11
133.4869120228
 21
111.5560585441
  0
LINE
  5
389
100
AcDbEntity
  8
0
100
AcDbLine
 62
250
  6
CONTINUOUS
 10
133.6283333788
 20
110.4946471843
 11
133.628333379
 21
111.556058544
  0
LINE
  5
38A
100
AcDbEntity
  8
0
100
AcDbLine
 62
7
  6
CONTINUOUS
 10
133.9111760914
 20
110.657957022
 11
133.9111760914
 21
111.4405708484
  0
LINE
  5
38B
100
AcDbEntity
  8
LAY0001
100
AcDbLine
 62
7
  6
CONTINUOUS
 10
133.9572509482
 20
138.2692516135
 11
133.9572509482
 21
137.5841517054
  0
LINE
  5
38C
100
AcDbEntity
  8
0
100
AcDbLine
 62
7
  6
CONTINUOUS
 10
134.4415061773
 20
113.7402921088
 11
134.4415061773
 21
113.0928357889
  0
LINE
  5
38D
100
AcDbEntity
  8
ASSI
100
AcDbLine
 62
250
  6
CONTINUOUS
 10
135.0918337139
 20
138.1417425284
 11
135.0918337139
 21
137.7724315388
  0
LINE
  5
38E
100
AcDbEntity
  8
ASSI
100
AcDbLine
 62
7
  6
CONTINUOUS
 10
135.1479657539
 20
138.2219599358
 11
135.1479657539
 21
137.8526489462
  0
LINE
  5
38F
100
AcDbEntity
  8
0
100
AcDbLine
 62
7
  6
CONTINUOUS
 10
135.36681101
 20
110.4945446015
 11
135.36681101
 21
109.4331332416
  0
LINE
  5
390
100
AcDbEntity
  8
0
100
AcDbLine
 62
250
  6
CONTINUOUS
 10
135.3961003319
 20
110.4537171421
 11
135.3961003319
 21
109.3923057823
  0
LINE
  5
391
100
AcDbEntity
  8
0
100
AcDbLine
 62
250
  6
CONTINUOUS
 10
135.5021663491
 20
110.67824055
 11
135.5021663491
 21
109.0452999965
  0
LWPOLYLINE
  5
392
100
AcDbEntity
  8
ASSI
100
AcDbPolyline
 62
250
  6
CONTINUOUS
 90
9
 70
0
 10
135.1479657539
 20
137.8526489462
 10
135.1477979983
 20
137.8479202142
 10
135.1458694677
 20
137.8359733398
 10
135.1418122644
 20
137.8242245279
 10
135.1356727032
 20
137.8127878735
 10
135.1275109631
 20
137.801774859
 10
135.1174084635
 20
137.7913012407
 10
135.1054739334
 20
137.78148451
 10
135.0918337139
 20
137.7724315388
  0
LWPOLYLINE
  5
393
100
AcDbEntity
  8
ASSI
100
AcDbPolyline
 62
250
  6
CONTINUOUS
 90
9
 70
0
 10
135.1479657439
 20
138.2219234088
 10
135.1477978418
 20
138.2172289994
 10
135.1458739578
 20
138.205302104
 10
135.1418174785
 20
138.1935473746
 10
135.1356700374
 20
138.1820946785
 10
135.1274990034
 20
138.1710717797
 10
135.1173938078
 20
138.1605987376
 10
135.1054625095
 20
138.1507870711
 10
135.0918337139
 20
138.1417425284
  0
LWPOLYLINE
  5
394
100
AcDbEntity
  8
0
100
AcDbPolyline
 62
7
  6
CONTINUOUS
 90
4
 70
0
 10
135.3668110098
 20
109.4331332414
 10
135.3665754631
 20
109.4269860406
 10
135.3660165741
 20
109.4224193872
 10
135.3658554901
 20
109.4215343979
  0
LWPOLYLINE
  5
395
100
AcDbEntity
  8
0
100
AcDbPolyline
 62
250
  6
CONTINUOUS
 90
16
 70
0
 10
133.3808460055
 20
111.9030643298
 10
133.3827824807
 20
111.9468510224
 10
133.3885707141
 20
111.9923943775
 10
133.3981473299
 20
112.0391955064
 10
133.4114068642
 20
112.0867398732
 10
133.4282044056
 20
112.1345085001
 10
133.4483585316
 20
112.1819836577
 10
133.4716524904
 20
112.2286503865
 10
133.4978298541
 20
112.273991174
 10
133.5265975709
 20
112.3174983894
 10
133.5576357761
 20
112.3586912446
 10
133.5906068361
 20
112.3971243892
 10
133.6251528743
 20
112.4323815505
 10
133.6608967908
 20
112.4640776601
 10
133.697445761
 20
112.4918641792
 10
133.734399396
 20
112.515436765
  0
LWPOLYLINE
  5
396
100
AcDbEntity
  8
0
100
AcDbPolyline
 62
250
  6
CONTINUOUS
 90
16
 70
0
 10
135.5021663491
 20
110.6782405499
 10
135.5041030253
 20
110.7220295676
 10
135.509891847
 20
110.7675753416
 10
135.5194694099
 20
110.8143789
 10
135.5327307276
 20
110.8619272546
 10
135.5495305681
 20
110.9096997184
 10
135.5696852136
 20
110.9571736115
 10
135.5929742668
 20
111.0038292714
 10
135.6191425135
 20
111.0491549684
 10
135.6479028647
 20
111.092653295
 10
135.6789400065
 20
111.1338474198
 10
135.7119140339
 20
111.1722862611
 10
135.7464636928
 20
111.2075486975
 10
135.7822104485
 20
111.2392483788
 10
135.818762627
 20
111.2670379692
 10
135.8557197401
 20
111.2906129853
  0
LWPOLYLINE
  5
397
100
AcDbEntity
  8
0
100
AcDbPolyline
 62
250
  6
CONTINUOUS
 90
5
 70
0
 10
133.628333379
 20
111.556058544
 10
133.6293479987
 20
111.5692543597
 10
133.6323857889
 20
111.580961823
 10
133.6373924432
 20
111.590811305
 10
133.6416830825
 20
111.5956089135
  0
LWPOLYLINE
  5
398
100
AcDbEntity
  8
ASSI
100
AcDbPolyline
 62
250
  6
CONTINUOUS
 90
13
 70
0
 10
138.7695470598
 20
138.0102282082
 10
138.7751368963
 20
138.0343861117
 10
138.7783639629
 20
138.0593300161
 10
138.7791763191
 20
138.0846584935
 10
138.7775608861
 20
138.109963915
 10
138.7735436559
 20
138.1348390411
 10
138.7671892641
 20
138.1588835729
 10
138.7585999597
 20
138.1817105471
 10
138.7479139619
 20
138.2029525866
 10
138.7353032224
 20
138.2222678363
 10
138.7209706739
 20
138.2393454292
 10
138.7051469703
 20
138.2539104958
 10
138.6880867643
 20
138.2657286049
  0
LWPOLYLINE
  5
399
100
AcDbEntity
  8
ASSI
100
AcDbPolyline
 62
250
  6
CONTINUOUS
 90
13
 70
0
 10
140.3511065406
 20
138.0485906031
 10
140.3566964112
 20
138.0727487082
 10
140.3599234711
 20
138.0976928014
 10
140.3607357857
 20
138.1230214442
 10
140.359120282
 20
138.1483270091
 10
140.355102959
 20
138.1732022404
 10
140.3487484697
 20
138.1972468077
 10
140.3401590802
 20
138.2200737491
 10
140.3294730242
 20
138.2413156985
 10
140.3168622781
 20
138.2606307978
 10
140.3025297932
 20
138.277708199
 10
140.2867062299
 20
138.2922730663
 10
140.2696462452
 20
138.3040909997
  0
LWPOLYLINE
  5
39A
100
AcDbEntity
  8
ASSI
100
AcDbPolyline
 62
250
  6
CONTINUOUS
 90
13
 70
0
 10
141.3977077844
 20
138.2268657494
 10
141.3921177372
 20
138.202706663
 10
141.3888907082
 20
138.1777617482
 10
141.3880785764
 20
138.1524324962
 10
141.3896943519
 20
138.1271265804
 10
141.3937119701
 20
138.1022512561
 10
141.4000667256
 20
138.0782068103
 10
141.4086562989
 20
138.0553801895
 10
141.4193424137
 20
138.0341387133
 10
141.4319530902
 20
138.014824143
 10
141.4462853746
 20
137.9977472676
 10
141.4621085897
 20
137.9831828886
 10
141.4791680799
 20
137.9713653527
  0
LWPOLYLINE
  5
39B
100
AcDbEntity
  8
ASSI
100
AcDbPolyline
 62
250
  6
CONTINUOUS
 90
16
 70
0
 10
140.9489820874
 20
135.1370350362
 10
140.9450233637
 20
135.1220682813
 10
140.9404327616
 20
135.1076317364
 10
140.9352915634
 20
135.0937879381
 10
140.9296875378
 20
135.0806053192
 10
140.9236871267
 20
135.0681061617
 10
140.9173286172
 20
135.0562719919
 10
140.9107295091
 20
135.0452133286
 10
140.9038960615
 20
135.0348574764
 10
140.8966635714
 20
135.0249403753
 10
140.8890939629
 20
135.0155277156
 10
140.8811887705
 20
135.0066427378
 10
140.8726497723
 20
134.9980536238
 10
140.8633875654
 20
134.9897906547
 10
140.8535461961
 20
134.9820783886
 10
140.8431731489
 20
134.9750502957
  0
LWPOLYLINE
  5
39C
100
AcDbEntity
  8
ASSI
100
AcDbPolyline
 62
250
  6
CONTINUOUS
 90
14
 70
0
 10
141.4340440843
 20
139.4597564532
 10
141.4391541304
 20
139.4773064007
 10
141.4462296322
 20
139.4947035021
 10
141.4551930661
 20
139.5117571554
 10
141.4659462308
 20
139.5282805287
 10
141.4783713153
 20
139.5440925922
 10
141.4923321859
 20
139.5590201021
 10
141.5076758845
 20
139.5728995098
 10
141.5242343013
 20
139.585578749
 10
141.5418260201
 20
139.5969189042
 10
141.5602583055
 20
139.6067957323
 10
141.5793292111
 20
139.6151010204
 10
141.5988297915
 20
139.6217437724
 10
141.6185463944
 20
139.6266512082
  0
LINE
  5
39D
100
AcDbEntity
  8
ASSI
100
AcDbLine
 62
250
  6
CONTINUOUS
 10
141.2203678048
 20
136.0106644598
 11
140.9489828107
 21
135.1370346185
  0
LINE
  5
39E
100
AcDbEntity
  8
ASSI
100
AcDbLine
 62
250
  6
CONTINUOUS
 10
141.486172183
 20
135.93405578
 11
141.2147871889
 21
135.0604259387
  0
LWPOLYLINE
  5
39F
100
AcDbEntity
  8
ASSI
100
AcDbPolyline
 62
250
  6
CONTINUOUS
 90
16
 70
0
 10
141.2147871889
 20
135.0604259387
 10
141.2047944023
 20
135.0313686265
 10
141.1939596061
 20
135.0035230557
 10
141.1822828004
 20
134.9768892262
 10
141.1696486532
 20
134.9514331046
 10
141.1561724965
 20
134.9271887245
 10
141.1422003261
 20
134.9042581863
 10
141.1279024189
 20
134.8828002272
 10
141.1131084981
 20
134.8626561102
 10
141.0976537293
 20
134.843451725
 10
141.0816392687
 20
134.8251042992
 10
141.0649639601
 20
134.8076966053
 10
141.0471595005
 20
134.7911028505
 10
141.0280697888
 20
134.7752811039
 10
141.0078509261
 20
134.7602732963
 10
140.9865029124
 20
134.7460794279
  0
LWPOLYLINE
  5
3A0
100
AcDbEntity
  8
0
100
AcDbPolyline
 62
7
  6
CONTINUOUS
 90
10
 70
0
 10
133.7066778008
 20
115.258214669
 10
133.7645098519
 20
115.2974939066
 10
133.8221091867
 20
115.3497956863
 10
133.8726783807
 20
115.4110100021
 10
133.9159986149
 20
115.4814411646
 10
133.9522887083
 20
115.5607848632
 10
133.980648155
 20
115.6469956897
 10
134.0007767863
 20
115.7393918412
 10
134.0129747708
 20
115.8386551207
 10
134.0172421086
 20
115.9447855279
  0
LWPOLYLINE
  5
3A1
100
AcDbEntity
  8
0
100
AcDbPolyline
 62
7
  6
CONTINUOUS
 90
10
 70
0
 10
135.7420199788
 20
115.8148072028
 10
135.6841879268
 20
115.7755279647
 10
135.6265885921
 20
115.7232261848
 10
135.5760193982
 20
115.6620118687
 10
135.532699164
 20
115.591580706
 10
135.4964090707
 20
115.5122370071
 10
135.4680496241
 20
115.4260261804
 10
135.447920993
 20
115.3336300286
 10
135.4357230086
 20
115.2343667489
 10
135.431455671
 20
115.1282363413
  0
LWPOLYLINE
  5
3A2
100
AcDbEntity
  8
0
100
AcDbPolyline
 62
250
  6
CONTINUOUS
 90
10
 70
0
 10
130.1635101512
 20
112.4135456639
 10
130.1515745124
 20
112.4054826312
 10
130.139916183
 20
112.3952436328
 10
130.1288824374
 20
112.3830918861
 10
130.1188303107
 20
112.3693836851
 10
130.1100545624
 20
112.3544801217
 10
130.1028057499
 20
112.3387197627
 10
130.0973566111
 20
112.3225391692
 10
130.0939607563
 20
112.3064780904
 10
130.092799473
 20
112.2910711769
  0
LWPOLYLINE
  5
3A3
100
AcDbEntity
  8
0
100
AcDbPolyline
 62
250
  6
CONTINUOUS
 90
10
 70
0
 10
131.7898557478
 20
111.4745140992
 10
131.777920109
 20
111.4664510665
 10
131.7662617797
 20
111.4562120681
 10
131.7552280341
 20
111.4440603215
 10
131.7451759075
 20
111.4303521205
 10
131.7364001591
 20
111.415448557
 10
131.7291513466
 20
111.3996881981
 10
131.7237022078
 20
111.3835076045
 10
131.720306353
 20
111.3674465258
 10
131.7191450698
 20
111.3520396122
  0
LWPOLYLINE
  5
3A4
100
AcDbEntity
  8
0
100
AcDbPolyline
 62
7
  6
CONTINUOUS
 90
9
 70
0
 10
135.1107329171
 20
113.6425408673
 10
135.0979922805
 20
113.634293981
 10
135.0748145877
 20
113.6147354213
 10
135.0548077033
 20
113.5906547059
 10
135.0378852143
 20
113.5621778556
 10
135.0246064288
 20
113.5301560822
 10
135.0151577831
 20
113.4948731232
 10
135.0093528409
 20
113.4560452411
 10
135.0074955177
 20
113.4196309405
  0
LWPOLYLINE
  5
3A5
100
AcDbEntity
  8
0
100
AcDbPolyline
 62
7
  6
CONTINUOUS
 90
16
 70
0
 10
150.9170941818
 20
125.0079725342
 10
150.9699906933
 20
125.0420096639
 10
151.0211384509
 20
125.0809278856
 10
151.0705374546
 20
125.1247271993
 10
151.118662182
 20
125.1739833572
 10
151.1650381555
 20
125.2281206072
 10
151.208241942
 20
125.2854116921
 10
151.2481810526
 20
125.3459427735
 10
151.2849479762
 20
125.40962769
 10
151.3173967462
 20
125.4744806998
 10
151.3454063844
 20
125.5405385297
 10
151.3690978691
 20
125.6077644529
 10
151.3876881687
 20
125.6740625477
 10
151.4009162728
 20
125.7387341736
 10
151.4090431918
 20
125.802477971
 10
151.4120689258
 20
125.8652939401
  0
LINE
  5
3A6
100
AcDbEntity
  8
0
100
AcDbLine
 62
250
  6
CONTINUOUS
 10
130.1342119944
 20
113.6213425815
 11
130.092799473
 21
113.5974315107
  0
LINE
  5
3A7
100
AcDbEntity
  8
0
100
AcDbLine
 62
7
  6
CONTINUOUS
 10
153.5333892684
 20
126.5185885273
 11
150.9170941818
 21
125.0079725342
  0
LINE
  5
3A8
100
AcDbEntity
  8
0
100
AcDbLine
 62
7
  6
CONTINUOUS
 10
153.5333892682
 20
126.2736237712
 11
158.4831367377
 21
129.1315459251
  0
LINE
  5
3A9
100
AcDbEntity
  8
0
100
AcDbLine
 62
250
  6
CONTINUOUS
 10
130.0927994729
 20
112.5360201509
 11
130.3756421855
 21
112.6993299884
  0
LINE
  5
3AA
100
AcDbEntity
  8
0
100
AcDbLine
 62
7
  6
CONTINUOUS
 10
153.8162319797
 20
126.1103139327
 11
158.7659794506
 21
128.9682360875
  0
LINE
  5
3AB
100
AcDbEntity
  8
0
100
AcDbLine
 62
250
  6
CONTINUOUS
 10
130.163510151
 20
112.4135456638
 11
130.4463528636
 21
112.5768555012
  0
LINE
  5
3AC
100
AcDbEntity
  8
0
100
AcDbLine
 62
250
  6
CONTINUOUS
 10
132.3201858347
 20
113.3319859522
 11
134.0879493712
 21
114.3526704628
  0
LINE
  5
3AD
100
AcDbEntity
  8
0
100
AcDbLine
 62
250
  6
CONTINUOUS
 10
135.4314556728
 20
115.1281644404
 11
136.4918845881
 21
115.7404428061
  0
LINE
  5
3AE
100
AcDbEntity
  8
RACCORDO
100
AcDbLine
 62
250
  6
CONTINUOUS
 10
129.1409651102
 20
110.7007328231
 11
129.6508577348
 21
110.995137458
  0
LINE
  5
3AF
100
AcDbEntity
  8
0
100
AcDbLine
 62
250
  6
CONTINUOUS
 10
132.6737392243
 20
112.7196135166
 11
134.441502761
 21
113.7402980274
  0
LINE
  5
3B0
100
AcDbEntity
  8
0
100
AcDbLine
 62
250
  6
CONTINUOUS
 10
148.3962564218
 20
121.7560641945
 11
159.8266396219
 21
128.3558241978
  0
LINE
  5
3B1
100
AcDbEntity
  8
RACCORDO
100
AcDbLine
 62
250
  6
CONTINUOUS
 10
129.2823649272
 20
110.455821156
 11
129.7922575519
 21
110.7502257909
  0
LINE
  5
3B2
100
AcDbEntity
  8
0
100
AcDbLine
 62
7
  6
CONTINUOUS
 10
133.4843873161
 20
112.5402073539
 11
135.3582237006
 21
113.6221369977
  0
LINE
  5
3B3
100
AcDbEntity
  8
0
100
AcDbLine
 62
250
  6
CONTINUOUS
 10
131.7898557478
 20
111.4745140992
 11
131.8312771041
 21
111.4984302712
  0
LINE
  5
3B4
100
AcDbEntity
  8
0
100
AcDbLine
 62
250
  6
CONTINUOUS
 10
135.5021595157
 20
113.5361193029
 11
133.7343993965
 21
112.5154367653
  0
LINE
  5
3B5
100
AcDbEntity
  8
0
100
AcDbLine
 62
250
  6
CONTINUOUS
 10
160.1801930125
 20
127.7434517628
 11
148.3962564218
 21
120.9395544629
  0
LWPOLYLINE
  5
3B6
100
AcDbEntity
  8
0
100
AcDbPolyline
 62
250
  6
CONTINUOUS
 90
4
 70
0
 10
131.8307938013
 20
111.466334607
 10
131.8261183407
 20
111.4651304132
 10
131.8148299169
 20
111.4653562868
 10
131.8026182581
 20
111.4684860765
  0
LWPOLYLINE
  5
3B7
100
AcDbEntity
  8
0
100
AcDbPolyline
 62
7
  6
CONTINUOUS
 90
6
 70
0
 10
130.099656939
 20
113.6391910963
 10
130.0997124028
 20
113.6391754027
 10
130.1010199685
 20
113.6388767997
 10
130.1038683646
 20
113.6379531256
 10
130.1080952226
 20
113.6361531892
 10
130.1135077348
 20
113.6332969613
  0
LWPOLYLINE
  5
3B8
100
AcDbEntity
  8
0
100
AcDbPolyline
 62
250
  6
CONTINUOUS
 90
12
 70
0
 10
130.0736115527
 20
113.6884454704
 10
130.0554322783
 20
113.6947308488
 10
130.03826165
 20
113.6979267826
 10
130.0218811571
 20
113.6979642709
 10
130.0065093103
 20
113.6949123146
 10
129.9928016425
 20
113.6889779157
 10
129.9808076403
 20
113.6800753608
 10
129.9704778171
 20
113.6682903634
 10
129.9623192459
 20
113.6540870655
 10
129.9565009509
 20
113.6376201811
 10
129.9528539079
 20
113.6187349962
 10
129.9513781168
 20
113.5974315107
  0
LWPOLYLINE
  5
3B9
100
AcDbEntity
  8
0
100
AcDbPolyline
 62
7
  6
CONTINUOUS
 90
9
 70
0
 10
135.36074499
 20
113.6177702777
 10
135.3229617676
 20
113.6370891603
 10
135.2864276552
 20
113.6514791078
 10
135.2511426526
 20
113.6609401202
 10
135.2167678474
 20
113.6654523137
 10
135.1836421522
 20
113.6650355721
 10
135.1527823048
 20
113.659749547
 10
135.1242543687
 20
113.6494564058
 10
135.1107329171
 20
113.6425408673
  0
LWPOLYLINE
  5
3BA
100
AcDbEntity
  8
0
100
AcDbPolyline
 62
7
  6
CONTINUOUS
 90
9
 70
0
 10
131.8252110875
 20
115.6591432404
 10
131.7874278653
 20
115.6784621243
 10
131.7508937528
 20
115.6928520729
 10
131.7156087502
 20
115.7023130862
 10
131.6812339447
 20
115.7068252803
 10
131.6481082489
 20
115.7064085391
 10
131.617248401
 20
115.7011225142
 10
131.5887204646
 20
115.6908293732
 10
131.5751990111
 20
115.683913834
  0
LWPOLYLINE
  5
3BB
100
AcDbEntity
  8
0
100
AcDbPolyline
 62
250
  6
CONTINUOUS
 90
9
 70
0
 10
133.7343993961
 20
112.5154367651
 10
133.697172907
 20
112.5346616185
 10
133.6607443771
 20
112.5490071832
 10
133.6254911536
 20
112.5584680638
 10
133.5919629859
 20
112.5630825983
 10
133.5602432601
 20
112.5630290002
 10
133.530048843
 20
112.5583286604
 10
133.5015792703
 20
112.5488536744
 10
133.4843873161
 20
112.5402073539
  0
LWPOLYLINE
  5
3BC
100
AcDbEntity
  8
0
100
AcDbPolyline
 62
250
  6
CONTINUOUS
 90
9
 70
0
 10
130.1988654901
 20
114.5568097317
 10
130.1616390011
 20
114.5760345851
 10
130.1252104712
 20
114.5903801498
 10
130.0899572476
 20
114.5998410304
 10
130.05642908
 20
114.604455565
 10
130.0247093542
 20
114.6044019668
 10
129.9945149371
 20
114.5997016271
 10
129.9660453644
 20
114.590226641
 10
129.9488534101
 20
114.5815803205
  0
LINE
  5
3BD
100
AcDbEntity
  8
0
100
AcDbLine
 62
250
  6
CONTINUOUS
 10
130.1988654906
 20
114.5568097319
 11
132.3201858347
 21
113.3319859522
  0
LINE
  5
3BE
100
AcDbEntity
  8
0
100
AcDbLine
 62
250
  6
CONTINUOUS
 10
133.7343993965
 20
112.5154367653
 11
135.8557197406
 21
111.2906129855
  0
LINE
  5
3BF
100
AcDbEntity
  8
RACCORDO
100
AcDbLine
 62
250
  6
CONTINUOUS
 10
148.3962564218
 20
104.6162729987
 11
149.3337330227
 21
104.0749857586
  0
LINE
  5
3C0
100
AcDbEntity
  8
RACCORDO
100
AcDbLine
 62
7
  6
CONTINUOUS
 10
148.3962564218
 20
104.6648913684
 11
149.4068855395
 21
104.081366782
  0
LINE
  5
3C1
100
AcDbEntity
  8
0
100
AcDbLine
 62
7
  6
CONTINUOUS
 10
134.0879527896
 20
114.3526645424
 11
131.8252110875
 21
115.6591432404
  0
LINE
  5
3C2
100
AcDbEntity
  8
0
100
AcDbLine
 62
7
  6
CONTINUOUS
 10
135.360744993
 20
113.617770276
 11
137.623486692
 21
112.3112915778
  0
LINE
  5
3C3
100
AcDbEntity
  8
RACCORDO
100
AcDbLine
 62
250
  6
CONTINUOUS
 10
149.6981700373
 20
102.5473273577
 11
149.6843644092
 21
102.5560073029
  0
LWPOLYLINE
  5
3C4
100
AcDbEntity
  8
RACCORDO
100
AcDbPolyline
 62
250
  6
CONTINUOUS
 90
12
 70
0
 10
148.5078660168
 20
102.7374991678
 10
148.5000910066
 20
102.7430527734
 10
148.4923233687
 20
102.7479169671
 10
148.4845995345
 20
102.7520711961
 10
148.4770217665
 20
102.7554760793
 10
148.4695582623
 20
102.7581502082
 10
148.4620551436
 20
102.7601107856
 10
148.454495429
 20
102.761302424
 10
148.4470090834
 20
102.7616368202
 10
148.439675761
 20
102.7610461363
 10
148.4325646243
 20
102.7594913078
 10
148.426027232
 20
102.757046806
  0
LWPOLYLINE
  5
3C5
100
AcDbEntity
  8
0
100
AcDbPolyline
 62
250
  6
CONTINUOUS
 90
6
 70
0
 10
135.3546768063
 20
110.5930983962
 10
135.3409691385
 20
110.6148620663
 10
135.3255972917
 20
110.635665046
 10
135.3092167987
 20
110.6545433403
 10
135.2920461704
 20
110.6711756177
 10
135.2738668958
 20
110.6858832098
  0
LINE
  5
3C6
100
AcDbEntity
  8
0
100
AcDbLine
 62
250
  6
CONTINUOUS
 10
135.3666708084
 20
110.5703454683
 11
135.3546768063
 21
110.5930983962
  0
LWPOLYLINE
  5
3C7
100
AcDbEntity
  8
0
100
AcDbPolyline
 62
250
  6
CONTINUOUS
 90
3
 70
0
 10
135.3851592028
 20
110.5230072385
 10
135.3770006316
 20
110.54663185
 10
135.3666708084
 20
110.5703454683
  0
LINE
  5
3C8
100
AcDbEntity
  8
RACCORDO
100
AcDbLine
 62
250
  6
CONTINUOUS
 10
138.9185398641
 20
104.756787373
 11
138.9176249876
 21
104.7742435784
  0
LWPOLYLINE
  5
3C9
100
AcDbEntity
  8
0
100
AcDbPolyline
 62
7
  6
CONTINUOUS
 90
16
 70
0
 10
137.9770400825
 20
111.6989191433
 10
137.974877828
 20
111.7437945046
 10
137.9690714682
 20
111.789331625
 10
137.9596210031
 20
111.8355305046
 10
137.9463397394
 20
111.8828902675
 10
137.9294143704
 20
111.9309117896
 10
137.9094049756
 20
111.9780976981
 10
137.8862252198
 20
112.0244215607
 10
137.8599614383
 20
112.0699098095
 10
137.8314327163
 20
112.1131443683
 10
137.8005731238
 20
112.1540635263
 10
137.7674485908
 20
112.1927289941
 10
137.7330759935
 20
112.2279078276
 10
137.6977942904
 20
112.2591890455
 10
137.6612645228
 20
112.2869836291
 10
137.6234866909
 20
112.3112915784
  0
LWPOLYLINE
  5
3CA
100
AcDbEntity
  8
RACCORDO
100
AcDbPolyline
 62
250
  6
CONTINUOUS
 90
9
 70
0
 10
138.5691722372
 20
117.6129548663
 10
138.5710662935
 20
117.5718485297
 10
138.5767281629
 20
117.5333698551
 10
138.5860971747
 20
117.4979311122
 10
138.5990729386
 20
117.4659119987
 10
138.6155164209
 20
117.4376555716
 10
138.6352514342
 20
117.413464572
 10
138.6580665247
 20
117.3935981824
 10
138.6726856105
 20
117.3841025699
  0
LWPOLYLINE
  5
3CB
100
AcDbEntity
  8
0
100
AcDbPolyline
 62
7
  6
CONTINUOUS
 90
28
 70
0
 10
137.5527760145
 20
113.9034125613
 10
137.5484510359
 20
114.0142794209
 10
137.5363414564
 20
114.1271985388
 10
137.5164472763
 20
114.242169915
 10
137.4884722498
 20
114.3601355615
 10
137.4527126226
 20
114.4801534663
 10
137.4100571313
 20
114.5993975938
 10
137.3603318984
 20
114.7178291231
 10
137.3037108015
 20
114.8354868751
 10
137.2416042102
 20
114.949661276
 10
137.1740150264
 20
115.0601207221
 10
137.1009403482
 20
115.1670968172
 10
137.0237818393
 20
115.2685747983
 10
136.942324684
 20
115.364618219
 10
136.856783698
 20
115.4551635257
 10
136.7692049922
 20
115.5380052955
 10
136.6795937681
 20
115.6128945092
 10
136.5879448243
 20
115.680080186
 10
136.4962886675
 20
115.7381039606
 10
136.404654029
 20
115.7867677653
 10
136.3130121775
 20
115.8262696679
 10
136.2233074254
 20
115.8557455065
 10
136.1355355135
 20
115.8750013063
 10
136.0497007011
 20
115.884231042
 10
135.9677600785
 20
115.8831524762
 10
135.8898396797
 20
115.8715837667
 10
135.8158134706
 20
115.8497067557
 10
135.7420199788
 20
115.8148072028
  0
LINE
  5
3CC
100
AcDbEntity
  8
0
100
AcDbLine
 62
250
  6
CONTINUOUS
 10
136.2092731303
 20
110.67824055
 11
136.2092731303
 21
109.0452999962
  0
LINE
  5
3CD
100
AcDbEntity
  8
DRAFT
100
AcDbLine
 62
7
  6
CONTINUOUS
 10
137.0837849404
 20
137.5979712804
 11
137.0837849404
 21
137.5178848821
  0
LINE
  5
3CE
100
AcDbEntity
  8
0
100
AcDbLine
 62
7
  6
CONTINUOUS
 10
137.9770400833
 20
111.6989191421
 11
137.9770400833
 21
109.9026845336
  0
LINE
  5
3CF
100
AcDbEntity
  8
RACCORDO
100
AcDbLine
 62
7
  6
CONTINUOUS
 10
138.9176249876
 20
116.9599013281
 11
138.9176249876
 21
104.7742435784
  0
LINE
  5
3D0
100
AcDbEntity
  8
RACCORDO
100
AcDbLine
 62
250
  6
CONTINUOUS
 10
139.064071597
 20
116.7557630945
 11
139.064071597
 21
104.5701070003
  0
LWPOLYLINE
  5
3D1
100
AcDbEntity
  8
RACCORDO
100
AcDbPolyline
 62
7
  6
CONTINUOUS
 90
4
 70
0
 10
138.9176249878
 20
104.7742507543
 10
138.9174919949
 20
104.7680338515
 10
138.9171800631
 20
104.7635898774
 10
138.9170472605
 20
104.7624237354
  0
LWPOLYLINE
  5
3D2
100
AcDbEntity
  8
RACCORDO
100
AcDbPolyline
 62
250
  6
CONTINUOUS
 90
15
 70
0
 10
138.5691722372
 20
104.2844128249
 10
138.571066277
 20
104.3277061816
 10
138.576728103
 20
104.3727228696
 10
138.5860970527
 20
104.4189805664
 10
138.5990727443
 20
104.4659836527
 10
138.6155161523
 20
104.5132285231
 10
138.6352510969
 20
104.5602089816
 10
138.6580661318
 20
104.606421665
 10
138.6837168098
 20
104.6513714365
 10
138.7119283017
 20
104.6945766905
 10
138.7423983409
 20
104.7355745125
 10
138.7748004619
 20
104.7739256394
 10
138.8087874986
 20
104.8092191654
 10
138.8439953034
 20
104.8410769449
 10
138.880046649
 20
104.8691576437
  0
LINE
  5
3D3
100
AcDbEntity
  8
ASSI
100
AcDbLine
 62
250
  6
CONTINUOUS
 10
138.6054651053
 20
138.0034633459
 11
138.6051400597
 21
137.9976052227
  0
LINE
  5
3D4
100
AcDbEntity
  8
ASSI
100
AcDbLine
 62
250
  6
CONTINUOUS
 10
141.430955486
 20
139.4422459444
 11
141.4340440843
 21
139.4597564532
  0
LWPOLYLINE
  5
3D5
100
AcDbEntity
  8
ASSI
100
AcDbPolyline
 62
250
  6
CONTINUOUS
 90
13
 70
0
 10
141.7123864889
 20
136.0443349993
 10
141.7171602008
 20
136.0681402512
 10
141.7196708658
 20
136.0925854128
 10
141.7198800917
 20
136.1172969593
 10
141.7177846523
 20
136.1418972916
 10
141.7134165385
 20
136.1660104948
 10
141.7068424736
 20
136.1892680838
 10
141.698162889
 20
136.2113146555
 10
141.6875103954
 20
136.2318132978
 10
141.6750477652
 20
136.2504507342
 10
141.6609654322
 20
136.2669421418
 10
141.6454785755
 20
136.2810354987
 10
141.6288238438
 20
136.292515419
  0
LWPOLYLINE
  5
3D6
100
AcDbEntity
  8
ASSI
100
AcDbPolyline
 62
250
  6
CONTINUOUS
 90
5
 70
0
 10
146.2810575481
 20
137.435150594
 10
146.2856972204
 20
137.4471604972
 10
146.2920819272
 20
137.4587612164
 10
146.3001156519
 20
137.4697992322
 10
146.3096937631
 20
137.4801654297
  0
LWPOLYLINE
  5
3D7
100
AcDbEntity
  8
ASSI
100
AcDbPolyline
 62
250
  6
CONTINUOUS
 90
5
 70
0
 10
146.2810589296
 20
137.4142142426
 10
146.2847060255
 20
137.423230461
 10
146.2928467168
 20
137.4354570726
 10
146.3039445662
 20
137.4471842907
 10
146.3178101308
 20
137.4582016541
  0
LINE
  5
3D8
100
AcDbEntity
  8
RACCORDO
100
AcDbLine
 62
7
  6
CONTINUOUS
 10
144.8252913763
 20
126.7684915588
 11
145.1895292514
 21
127.3804854807
  0
LWPOLYLINE
  5
3D9
100
AcDbEntity
  8
0
100
AcDbPolyline
 62
7
  6
CONTINUOUS
 90
10
 70
0
 10
137.2422117067
 20
113.2168417024
 10
137.3000437579
 20
113.2561209399
 10
137.3576430926
 20
113.3084227196
 10
137.4082122866
 20
113.3696370355
 10
137.4515325208
 20
113.440068198
 10
137.4878226142
 20
113.5194118966
 10
137.5161820609
 20
113.605622723
 10
137.5363106922
 20
113.6980188746
 10
137.5485086768
 20
113.797282154
 10
137.5527760145
 20
113.9034125613
  0
LWPOLYLINE
  5
3DA
100
AcDbEntity
  8
0
100
AcDbPolyline
 62
250
  6
CONTINUOUS
 90
10
 70
0
 10
133.6990440571
 20
110.3721726973
 10
133.6871084183
 20
110.3641096646
 10
133.6754500889
 20
110.3538706661
 10
133.6644163433
 20
110.3417189195
 10
133.6543642167
 20
110.3280107185
 10
133.6455884684
 20
110.313107155
 10
133.6383396558
 20
110.2973467961
 10
133.632890517
 20
110.2811662026
 10
133.6294946622
 20
110.2651051238
 10
133.628333379
 20
110.2496982103
  0
LWPOLYLINE
  5
3DB
100
AcDbEntity
  8
0
100
AcDbPolyline
 62
250
  6
CONTINUOUS
 90
10
 70
0
 10
135.3253896537
 20
109.4331411325
 10
135.3134540149
 20
109.4250780999
 10
135.3017956856
 20
109.4148391015
 10
135.2907619401
 20
109.4026873548
 10
135.2807098134
 20
109.3889791539
 10
135.2719340651
 20
109.3740755904
 10
135.2646852525
 20
109.3583152314
 10
135.2592361138
 20
109.3421346379
 10
135.255840259
 20
109.3260735591
 10
135.2546789757
 20
109.3106666456
  0
LWPOLYLINE
  5
3DC
100
AcDbEntity
  8
0
100
AcDbPolyline
 62
250
  6
CONTINUOUS
 90
9
 70
0
 10
132.5701979138
 20
110.8578045325
 10
132.5792189064
 20
110.8634034012
 10
132.6028684647
 20
110.8824055083
 10
132.6236399049
 20
110.9061129892
 10
132.6411843506
 20
110.9343614409
 10
132.6551840424
 20
110.9668727536
 10
132.6653962046
 20
111.0033279626
 10
132.6716332283
 20
111.0433972432
 10
132.6737392244
 20
111.0866729629
  0
LINE
  5
3DD
100
AcDbEntity
  8
0
100
AcDbLine
 62
250
  6
CONTINUOUS
 10
132.6737392243
 20
111.0866729628
 11
133.2343993961
 21
111.4103911193
  0
LINE
  5
3DE
100
AcDbEntity
  8
0
100
AcDbLine
 62
250
  6
CONTINUOUS
 10
133.6697459003
 20
111.5799696149
 11
133.628333379
 21
111.556058544
  0
LINE
  5
3DF
100
AcDbEntity
  8
0
100
AcDbLine
 62
7
  6
CONTINUOUS
 10
132.5701979138
 20
110.8578045325
 11
133.2343993961
 21
111.241306144
  0
LINE
  5
3E0
100
AcDbEntity
  8
0
100
AcDbLine
 62
7
  6
CONTINUOUS
 10
156.8567911428
 20
124.6806863158
 11
148.3962564218
 21
119.7956796029
  0
LINE
  5
3E1
100
AcDbEntity
  8
0
100
AcDbLine
 62
250
  6
CONTINUOUS
 10
133.6283333788
 20
110.4946471843
 11
133.9111760914
 21
110.6579570217
  0
LINE
  5
3E2
100
AcDbEntity
  8
0
100
AcDbLine
 62
7
  6
CONTINUOUS
 10
156.7860804628
 20
123.8650364553
 11
156.4325270739
 21
123.6608991596
  0
LINE
  5
3E3
100
AcDbEntity
  8
0
100
AcDbLine
 62
7
  6
CONTINUOUS
 10
148.3962564218
 20
118.8975623008
 11
156.8567911428
 21
123.7825690135
  0
LINE
  5
3E4
100
AcDbEntity
  8
0
100
AcDbLine
 62
250
  6
CONTINUOUS
 10
133.699044057
 20
110.3721726972
 11
133.9818867696
 21
110.5354825346
  0
LINE
  5
3E5
100
AcDbEntity
  8
0
100
AcDbLine
 62
250
  6
CONTINUOUS
 10
135.8557197406
 20
111.2906129855
 11
137.6234832748
 21
112.3112974949
  0
LINE
  5
3E6
100
AcDbEntity
  8
0
100
AcDbLine
 62
250
  6
CONTINUOUS
 10
136.2092731303
 20
110.67824055
 11
137.9770366661
 21
111.6989250603
  0
LINE
  5
3E7
100
AcDbEntity
  8
0
100
AcDbLine
 62
7
  6
CONTINUOUS
 10
160.1801930125
 20
124.0685190472
 11
150.2806980758
 21
118.3526747406
  0
LINE
  5
3E8
100
AcDbEntity
  8
0
100
AcDbLine
 62
7
  6
CONTINUOUS
 10
148.5129311229
 20
110.3519838614
 11
148.3962564218
 21
110.4193503715
  0
LINE
  5
3E9
100
AcDbEntity
  8
RACCORDO
100
AcDbLine
 62
250
  6
CONTINUOUS
 10
149.3837571044
 20
104.0491794418
 11
149.3990131834
 21
104.0370098175
  0
LWPOLYLINE
  5
3EA
100
AcDbEntity
  8
RACCORDO
100
AcDbPolyline
 62
250
  6
CONTINUOUS
 90
4
 70
0
 10
149.3990131834
 20
104.0370098175
 10
149.4131155071
 20
104.0233821303
 10
149.4258287112
 20
104.0085254284
 10
149.4369502493
 20
103.9926705613
  0
LWPOLYLINE
  5
3EB
100
AcDbEntity
  8
RACCORDO
100
AcDbPolyline
 62
250
  6
CONTINUOUS
 90
4
 70
0
 10
148.6551869908
 20
102.5418663091
 10
148.6456694756
 20
102.5520848847
 10
148.6162023553
 20
102.5857128267
 10
148.5876438972
 20
102.6210469133
  0
LWPOLYLINE
  5
3EC
100
AcDbEntity
  8
RACCORDO
100
AcDbPolyline
 62
7
  6
CONTINUOUS
 90
4
 70
0
 10
148.7253336705
 20
102.5646110815
 10
148.6983876635
 20
102.5971245686
 10
148.6531085946
 20
102.6612998501
 10
148.6350690217
 20
102.6904313009
  0
LINE
  5
3ED
100
AcDbEntity
  8
ASSI
100
AcDbLine
 62
7
  6
CONTINUOUS
 10
138.6051400597
 20
137.9976052227
 11
138.6051458752
 21
137.9975420629
  0
LINE
  5
3EE
100
AcDbEntity
  8
ASSI
100
AcDbLine
 62
250
  6
CONTINUOUS
 10
138.7792363264
 20
137.9034898472
 11
138.7695470598
 21
138.0102282082
  0
LWPOLYLINE
  5
3EF
100
AcDbEntity
  8
LAY0001
100
AcDbPolyline
 62
250
  6
CONTINUOUS
 90
9
 70
0
 10
141.1861841498
 20
88.361767825
 10
141.1880569868
 20
88.3208856528
 10
141.193655656
 20
88.2825993061
 10
141.2029208433
 20
88.2473144047
 10
141.2157543899
 20
88.2154047696
 10
141.2320203325
 20
88.1872084634
 10
141.2515463439
 20
88.1630242081
 10
141.274125558
 20
88.1431082207
 10
141.2897254604
 20
88.1328993944
  0
LINE
  5
3F0
100
AcDbEntity
  8
LAY0001
100
AcDbLine
 62
250
  6
CONTINUOUS
 10
141.1861841498
 20
130.5135401072
 11
141.1861841498
 21
88.361767825
  0
LINE
  5
3F1
100
AcDbEntity
  8
ASSI
100
AcDbLine
 62
7
  6
CONTINUOUS
 10
141.4014827188
 20
139.5209427864
 11
141.4014827188
 21
139.3886745799
  0
LINE
  5
3F2
100
AcDbEntity
  8
LAY0001
100
AcDbLine
 62
250
  6
CONTINUOUS
 10
141.8839148283
 20
130.5082663685
 11
141.8839148283
 21
88.3564940863
  0
LINE
  5
3F3
100
AcDbEntity
  8
ASSI
100
AcDbLine
 62
250
  6
CONTINUOUS
 10
141.4291588032
 20
139.3983759052
 11
141.4299221623
 21
139.4249667442
  0
LWPOLYLINE
  5
3F4
100
AcDbEntity
  8
RACCORDO
100
AcDbPolyline
 62
250
  6
CONTINUOUS
 90
19
 70
0
 10
139.064071597
 20
104.5701070003
 10
139.0619590819
 20
104.520803899
 10
139.0563713006
 20
104.4748682276
 10
139.047308253
 20
104.4322999861
 10
139.0346550778
 20
104.3929353645
 10
139.0185266362
 20
104.3569381727
 10
138.9992675126
 20
104.3247998411
 10
138.9768230648
 20
104.2965077425
 10
138.9512479349
 20
104.272074504
 10
138.9230506335
 20
104.2520294367
 10
138.8923237481
 20
104.2364104891
 10
138.8589746912
 20
104.2251797128
 10
138.8232342106
 20
104.2187525741
 10
138.7848037221
 20
104.217174368
 10
138.7439818098
 20
104.2203997996
 10
138.701894974
 20
104.2287084499
 10
138.6589187148
 20
104.2421935124
 10
138.6146775321
 20
104.2607617936
 10
138.5691714259
 20
104.2844132934
  0
LINE
  5
3F5
100
AcDbEntity
  8
ASSI
100
AcDbLine
 62
250
  6
CONTINUOUS
 10
141.4299221791
 20
139.424966724
 11
141.430955486
 21
139.4422459444
  0
LWPOLYLINE
  5
3F6
100
AcDbEntity
  8
ASSI
100
AcDbPolyline
 62
7
  6
CONTINUOUS
 90
19
 70
0
 10
141.401482723
 20
139.5209427864
 10
141.4037348493
 20
139.5576372082
 10
141.4106857059
 20
139.5948062496
 10
141.4225710467
 20
139.6318966104
 10
141.4395117399
 20
139.668291913
 10
141.4615519049
 20
139.7034493488
 10
141.4888032311
 20
139.7370109275
 10
141.5218067524
 20
139.7689623571
 10
141.560185261
 20
139.7983385402
 10
141.6023970062
 20
139.8238988869
 10
141.6480716869
 20
139.8456296565
 10
141.6970632846
 20
139.863555362
 10
141.7475422629
 20
139.877208675
 10
141.7985030983
 20
139.8866959779
 10
141.8501244765
 20
139.8923204937
 10
141.9019870614
 20
139.8941588474
 10
141.953677077
 20
139.8922599646
 10
142.0048875713
 20
139.8866334751
 10
142.0552618473
 20
139.8772452482
  0
LWPOLYLINE
  5
3F7
100
AcDbEntity
  8
ASSI
100
AcDbPolyline
 62
250
  6
CONTINUOUS
 90
13
 70
0
 10
143.7860901411
 20
139.8862627154
 10
143.7886856955
 20
139.9099422986
 10
143.7889760996
 20
139.9344123237
 10
143.7869566988
 20
139.9592805931
 10
143.7826598592
 20
139.9841485262
 10
143.7761544492
 20
140.0086175477
 10
143.7675447352
 20
140.0322954758
 10
143.7569687108
 20
140.0548028083
 10
143.7445958852
 20
140.0757788047
 10
143.7306245659
 20
140.0948872682
 10
143.7152786809
 20
140.1118219344
 10
143.6988041891
 20
140.1263113797
 10
143.6814651383
 20
140.1381233718
  0
LWPOLYLINE
  5
3F8
100
AcDbEntity
  8
ASSI
100
AcDbPolyline
 62
250
  6
CONTINUOUS
 90
10
 70
0
 10
143.7567152159
 20
136.1506865502
 10
143.7532895778
 20
136.1325178791
 10
143.7512419204
 20
136.1144210426
 10
143.7505905269
 20
136.0965576108
 10
143.7513412159
 20
136.0790870698
 10
143.7534872855
 20
136.0621653987
 10
143.7570095737
 20
136.0459436771
 10
143.7618766346
 20
136.0305667343
 10
143.768045017
 20
136.0161718575
 10
143.7754596504
 20
136.002887566
  0
LWPOLYLINE
  5
3F9
100
AcDbEntity
  8
0
100
AcDbPolyline
 62
7
  6
CONTINUOUS
 90
9
 70
0
 10
137.8734987685
 20
109.6738161004
 10
137.8862394038
 20
109.6820629859
 10
137.909417097
 20
109.7016215455
 10
137.9294239817
 20
109.7257022611
 10
137.946346471
 20
109.7541791116
 10
137.9596252566
 20
109.7862008852
 10
137.9690739025
 20
109.8214838445
 10
137.9748788447
 20
109.860311727
 10
137.9770400833
 20
109.9026845326
  0
LWPOLYLINE
  5
3FA
100
AcDbEntity
  8
0
100
AcDbPolyline
 62
250
  6
CONTINUOUS
 90
9
 70
0
 10
136.1057318198
 20
108.8164315658
 10
136.1147528123
 20
108.8220304346
 10
136.1384023707
 20
108.8410325416
 10
136.1591738109
 20
108.8647400225
 10
136.1767182565
 20
108.8929884743
 10
136.1907179483
 20
108.925499787
 10
136.2009301105
 20
108.961954996
 10
136.2071671342
 20
109.0020242765
 10
136.2092731303
 20
109.0452999963
  0
LINE
  5
3FB
100
AcDbEntity
  8
0
100
AcDbLine
 62
250
  6
CONTINUOUS
 10
135.3253896537
 20
109.4331411325
 11
135.36681101
 21
109.4570573046
  0
LINE
  5
3FC
100
AcDbEntity
  8
0
100
AcDbLine
 62
7
  6
CONTINUOUS
 10
148.3962564218
 20
116.8163795649
 11
148.5129311241
 21
116.8837460757
  0
LINE
  5
3FD
100
AcDbEntity
  8
0
100
AcDbLine
 62
250
  6
CONTINUOUS
 10
136.2092731303
 20
109.0452999962
 11
137.9770400833
 21
110.0659864794
  0
LINE
  5
3FE
100
AcDbEntity
  8
0
100
AcDbLine
 62
7
  6
CONTINUOUS
 10
136.1057318198
 20
108.8164315658
 11
137.9795442887
 21
109.898347401
  0
LINE
  5
3FF
100
AcDbEntity
  8
0
100
AcDbLine
 62
7
  6
CONTINUOUS
 10
156.0796445021
 20
118.4769882462
 11
152.8262824885
 21
116.5985377937
  0
LINE
  5
400
100
AcDbEntity
  8
0
100
AcDbLine
 62
7
  6
CONTINUOUS
 10
154.0841227895
 20
123.0797823582
 11
156.4325270739
 21
123.6608991596
  0
LWPOLYLINE
  5
401
100
AcDbEntity
  8
RACCORDO
100
AcDbPolyline
 62
250
  6
CONTINUOUS
 90
16
 70
0
 10
128.4400825343
 20
122.8899221663
 10
128.4785239881
 20
122.8699137615
 10
128.5203416483
 20
122.8523069534
 10
128.5650874584
 20
122.8372903834
 10
128.6122819897
 20
122.8250249395
 10
128.6614195792
 20
122.8156420323
 10
128.7119737477
 20
122.8092421877
 10
128.7634028381
 20
122.8058939701
 10
128.8151558228
 20
122.8056332474
 10
128.8666782087
 20
122.8084628077
 10
128.9174179701
 20
122.8143523289
 10
128.9668314697
 20
122.8232387042
 10
129.0143892869
 20
122.8350267196
 10
129.0595818797
 20
122.8495900724
 10
129.1019250445
 20
122.8667727234
 10
129.1409651102
 20
122.8863905704
  0
LINE
  5
402
100
AcDbEntity
  8
RACCORDO
100
AcDbLine
 62
7
  6
CONTINUOUS
 10
129.0385232046
 20
122.9467471951
 11
138.6727135498
 21
117.3840864345
  0
LINE
  5
403
100
AcDbEntity
  8
RACCORDO
100
AcDbLine
 62
250
  6
CONTINUOUS
 10
128.9349827055
 20
123.1756151572
 11
138.569171617
 21
117.6129552244
  0
LWPOLYLINE
  5
404
100
AcDbEntity
  8
RACCORDO
100
AcDbPolyline
 62
7
  6
CONTINUOUS
 90
22
 70
0
 10
138.6726856105
 20
117.3841025699
 10
138.6785498416
 20
117.3805650998
 10
138.6898638574
 20
117.3729805596
 10
138.7033828675
 20
117.362785696
 10
138.7187504778
 20
117.349858585
 10
138.7355954858
 20
117.3341569676
 10
138.7535599687
 20
117.3156577583
 10
138.7723549884
 20
117.2943007104
 10
138.7914867288
 20
117.2703185159
 10
138.8103125835
 20
117.244250543
 10
138.8284780626
 20
117.2163890922
 10
138.8456079743
 20
117.1871827068
 10
138.8611391989
 20
117.1575790088
 10
138.8748495955
 20
117.1281209861
 10
138.8866400025
 20
117.0992635552
 10
138.8963328648
 20
117.0718445856
 10
138.9039484955
 20
117.0464155016
 10
138.9096603806
 20
117.0232217442
 10
138.9136461517
 20
117.0026052581
 10
138.9161123233
 20
116.9848936134
 10
138.9173287142
 20
116.9703358661
 10
138.9176249879
 20
116.9598913193
  0
LWPOLYLINE
  5
405
100
AcDbEntity
  8
RACCORDO
100
AcDbPolyline
 62
250
  6
CONTINUOUS
 90
19
 70
0
 10
138.569171617
 20
117.6129552244
 10
138.6129270904
 20
117.5852521187
 10
138.6555039911
 20
117.5542167436
 10
138.6969023191
 20
117.5198490991
 10
138.7373213788
 20
117.481901483
 10
138.7765618658
 20
117.4406215975
 10
138.8140258666
 20
117.396752549
 10
138.8497516406
 20
117.3502091538
 10
138.8837009284
 20
117.3010765956
 10
138.9151610384
 20
117.2503535322
 10
138.9440528072
 20
117.198192579
 10
138.9704553981
 20
117.1444411205
 10
138.9938936103
 20
117.0896399678
 10
139.0144775222
 20
117.0333807989
 10
139.0320970553
 20
116.9760719358
 10
139.045946773
 20
116.919479156
 10
139.0557581964
 20
116.8641910522
 10
139.0617998044
 20
116.8096190317
 10
139.064071597
 20
116.7557630945
  0
LWPOLYLINE
  5
406
100
AcDbEntity
  8
RACCORDO
100
AcDbPolyline
 62
250
  6
CONTINUOUS
 90
9
 70
0
 10
139.064071597
 20
116.7557640314
 10
139.0294183936
 20
116.7779595464
 10
138.9989245548
 20
116.8021044415
 10
138.972916801
 20
116.8279400209
 10
138.9516737871
 20
116.8551894743
 10
138.9354231175
 20
116.8835608426
 10
138.9243389068
 20
116.9127501463
 10
138.9185399145
 20
116.9424446422
 10
138.9176249879
 20
116.9598913193
  0
LINE
  5
407
100
AcDbEntity
  8
RACCORDO
100
AcDbLine
 62
250
  6
CONTINUOUS
 10
129.0238757887
 20
122.9562592268
 11
129.0385232046
 21
122.9467471951
  0
LINE
  5
408
100
AcDbEntity
  8
RACCORDO
100
AcDbLine
 62
250
  6
CONTINUOUS
 10
148.5876438972
 20
102.6210469133
 11
148.5601426082
 21
102.6581581869
  0
LWPOLYLINE
  5
409
100
AcDbEntity
  8
RACCORDO
100
AcDbPolyline
 62
250
  6
CONTINUOUS
 90
3
 70
0
 10
148.5601426082
 20
102.6581581869
 10
148.5335499814
 20
102.6969756051
 10
148.5078660168
 20
102.7374991678
  0
LWPOLYLINE
  5
40A
100
AcDbEntity
  8
RACCORDO
100
AcDbPolyline
 62
7
  6
CONTINUOUS
 90
14
 70
0
 10
148.6350525145
 20
102.6904591662
 10
148.6257722844
 20
102.7047183597
 10
148.6149683328
 20
102.7184189667
 10
148.6024957816
 20
102.7313182631
 10
148.5883010433
 20
102.7431040464
 10
148.5722388973
 20
102.7535451894
 10
148.5546487676
 20
102.7621272954
 10
148.5358066249
 20
102.7685281232
 10
148.5159050318
 20
102.7725149748
 10
148.4953943428
 20
102.7738533524
 10
148.474682284
 20
102.7724158671
 10
148.4541329615
 20
102.7681353086
 10
148.4341892132
 20
102.7610169341
 10
148.4228895583
 20
102.7555205875
  0
LWPOLYLINE
  5
40B
100
AcDbEntity
  8
RACCORDO
100
AcDbPolyline
 62
250
  6
CONTINUOUS
 90
8
 70
0
 10
149.7697426482
 20
102.4661521382
 10
149.7620434838
 20
102.4789562763
 10
149.7535429856
 20
102.491540638
 10
149.7442594681
 20
102.5037500268
 10
149.7341884236
 20
102.5154762223
 10
149.723161571
 20
102.5267780502
 10
149.7111233136
 20
102.537499452
 10
149.6981700373
 20
102.5473273577
  0
LINE
  5
40C
100
AcDbEntity
  8
RACCORDO
100
AcDbLine
 62
7
  6
CONTINUOUS
 10
148.6350525145
 20
102.6904591662
 11
148.6350690217
 21
102.690431301
  0
LINE
  5
40D
100
AcDbEntity
  8
RACCORDO
100
AcDbLine
 62
250
  6
CONTINUOUS
 10
148.4012262428
 20
98.9137624993
 11
148.3955533752
 21
98.9235881942
  0
LINE
  5
40E
100
AcDbEntity
  8
RACCORDO
100
AcDbLine
 62
7
  6
CONTINUOUS
 10
148.4542898439
 20
98.9444055063
 11
148.3962564218
 21
99.0449223418
  0
LWPOLYLINE
  5
40F
100
AcDbEntity
  8
ASSI
100
AcDbPolyline
 62
250
  6
CONTINUOUS
 90
13
 70
0
 10
140.8650306082
 20
138.2084631619
 10
140.8629673619
 20
138.2301658941
 10
140.8586787881
 20
138.2526887532
 10
140.8522334955
 20
138.2756715741
 10
140.8437345808
 20
138.298746838
 10
140.8333179714
 20
138.3215455717
 10
140.8211502447
 20
138.3437032462
 10
140.8074259854
 20
138.364865564
 10
140.7923646581
 20
138.3846941577
 10
140.7762070798
 20
138.4028720143
 10
140.7592116044
 20
138.419108494
 10
140.7416499972
 20
138.4331439848
 10
140.723803065
 20
138.4447540801
  0
LWPOLYLINE
  5
410
100
AcDbEntity
  8
ASSI
100
AcDbPolyline
 62
250
  6
CONTINUOUS
 90
13
 70
0
 10
141.1860919919
 20
138.1610358722
 10
141.1881551651
 20
138.1393336493
 10
141.1924435905
 20
138.1168112199
 10
141.1988886958
 20
138.09382872
 10
141.2073874232
 20
138.070753642
 10
141.2178038771
 20
138.0479549587
 10
141.2299714974
 20
138.0257972235
 10
141.2436957227
 20
138.0046347407
 10
141.2587571011
 20
137.9848059006
 10
141.2749147997
 20
137.9666277682
 10
141.2919104554
 20
137.9503910138
 10
141.3094723057
 20
137.9363552647
 10
141.3273195351
 20
137.924744954
  0
LINE
  5
411
100
AcDbEntity
  8
ASSI
100
AcDbLine
 62
250
  6
CONTINUOUS
 10
143.2609717477
 20
135.2147311808
 11
143.2879128735
 21
134.9211463789
  0
LINE
  5
412
100
AcDbEntity
  8
ASSI
100
AcDbLine
 62
250
  6
CONTINUOUS
 10
143.2321081474
 20
135.5456515575
 11
143.2609717477
 21
135.2147311808
  0
LWPOLYLINE
  5
413
100
AcDbEntity
  8
ASSI
100
AcDbPolyline
 62
250
  6
CONTINUOUS
 90
5
 70
0
 10
141.4014827188
 20
139.5209427864
 10
141.4032946833
 20
139.4963873098
 10
141.4086683209
 20
139.4721750086
 10
141.4175653372
 20
139.4483112807
 10
141.4299221623
 20
139.4249667442
  0
LWPOLYLINE
  5
414
100
AcDbEntity
  8
LAY0001
100
AcDbPolyline
 62
250
  6
CONTINUOUS
 90
16
 70
0
 10
141.8839148283
 20
130.5082663685
 10
141.8810248806
 20
130.5516432906
 10
141.8743761797
 20
130.5968486861
 10
141.864041987
 20
130.6433846717
 10
141.8501343355
 20
130.6907442445
 10
141.8328074523
 20
130.7384003549
 10
141.8122599368
 20
130.7858116104
 10
141.7887268099
 20
130.8324463605
 10
141.7624656301
 20
130.8778034878
 10
141.7337581575
 20
130.9213997988
 10
141.702875251
 20
130.962812945
 10
141.6701961195
 20
131.001524162
 10
141.6362163028
 20
131.0369750793
 10
141.6013681219
 20
131.0687778759
 10
141.5659951536
 20
131.0966800519
 10
141.5304825868
 20
131.1204289561
  0
LWPOLYLINE
  5
415
100
AcDbEntity
  8
ASSI
100
AcDbPolyline
 62
250
  6
CONTINUOUS
 90
10
 70
0
 10
143.8813756938
 20
136.0015753916
 10
143.8807191772
 20
136.014594264
 10
143.8796286036
 20
136.0272461896
 10
143.8781039729
 20
136.0395311685
 10
143.8761420307
 20
136.0514487971
 10
143.8737460315
 20
136.062999479
 10
143.8709257382
 20
136.0741844249
 10
143.8676844053
 20
136.0850040382
 10
143.8640187784
 20
136.0954579154
 10
143.8599288576
 20
136.1055460566
  0
LWPOLYLINE
  5
416
100
AcDbEntity
  8
ASSI
100
AcDbPolyline
 62
250
  6
CONTINUOUS
 90
16
 70
0
 10
144.2681764961
 20
132.8434372125
 10
144.2676380476
 20
132.8611453043
 10
144.2655203846
 20
132.8795421551
 10
144.2618468325
 20
132.8984250696
 10
144.2566571276
 20
132.9175883696
 10
144.2500088164
 20
132.9368185547
 10
144.2419783833
 20
132.9558966762
 10
144.2326582659
 20
132.9746082238
 10
144.2221504873
 20
132.9927527567
 10
144.2105670755
 20
133.0101381917
 10
144.198016404
 20
133.0265965428
 10
144.1846528937
 20
133.0419203808
 10
144.1706806868
 20
133.0558877674
 10
144.1562790646
 20
133.0683465735
 10
144.141590773
 20
133.0791993391
 10
144.1267766791
 20
133.0883488796
  0
LINE
  5
417
100
AcDbEntity
  8
ASSI
100
AcDbLine
 62
250
  6
CONTINUOUS
 10
143.8911401535
 20
135.6622339977
 11
143.8813756938
 21
136.0015753916
  0
LINE
  5
418
100
AcDbEntity
  8
ASSI
100
AcDbLine
 62
250
  6
CONTINUOUS
 10
143.8984061909
 20
135.3475788476
 11
143.8911401535
 21
135.6622339977
  0
LINE
  5
419
100
AcDbEntity
  8
ASSI
100
AcDbLine
 62
250
  6
CONTINUOUS
 10
143.9023433407
 20
135.1289601585
 11
143.8984061909
 21
135.3475788476
  0
LWPOLYLINE
  5
41A
100
AcDbEntity
  8
ASSI
100
AcDbPolyline
 62
250
  6
CONTINUOUS
 90
3
 70
0
 10
143.9057812449
 20
134.8623296709
 10
143.9051105942
 20
134.9262843576
 10
143.9023433407
 20
135.1289601585
  0
LWPOLYLINE
  5
41B
100
AcDbEntity
  8
ASSI
100
AcDbPolyline
 62
250
  6
CONTINUOUS
 90
16
 70
0
 10
143.7567147653
 20
136.1506865994
 10
143.7566770321
 20
136.1666850432
 10
143.7556734721
 20
136.1826456594
 10
143.7537105811
 20
136.1984662901
 10
143.7508009979
 20
136.2140456335
 10
143.7469634176
 20
136.2292840332
 10
143.7422224453
 20
136.2440841041
 10
143.7366084431
 20
136.25835118
 10
143.7301574033
 20
136.271993899
 10
143.7229107005
 20
136.284924926
 10
143.7149147175
 20
136.297061576
 10
143.7062207101
 20
136.3083261202
 10
143.6968845634
 20
136.3186463085
 10
143.6869661711
 20
136.3279561137
 10
143.6765290125
 20
136.336196099
 10
143.6656399412
 20
136.3433136166
  0
LINE
  5
41C
100
AcDbEntity
  8
ASSI
100
AcDbLine
 62
7
  6
CONTINUOUS
 10
143.8510516203
 20
135.8260577168
 11
143.8510516203
 21
134.75728703
  0
LINE
  5
41D
100
AcDbEntity
  8
ASSI
100
AcDbLine
 62
7
  6
CONTINUOUS
 10
144.0051253929
 20
134.783439037
 11
144.0051253929
 21
134.9173091769
  0
LINE
  5
41E
100
AcDbEntity
  8
ASSI
100
AcDbLine
 62
250
  6
CONTINUOUS
 10
144.2681764961
 20
132.474126223
 11
144.2681764961
 21
132.8434372125
  0
LINE
  5
41F
100
AcDbEntity
  8
LAY0001
100
AcDbLine
 62
7
  6
CONTINUOUS
 10
144.2879681053
 20
89.602889633
 11
144.2879681053
 21
131.8963297549
  0
LINE
  5
420
100
AcDbEntity
  8
ASSI
100
AcDbLine
 62
7
  6
CONTINUOUS
 10
144.3243085361
 20
132.5543436304
 11
144.3243085361
 21
132.9236546199
  0
LINE
  5
421
100
AcDbEntity
  8
RACCORDO
100
AcDbLine
 62
250
  6
CONTINUOUS
 10
144.3586570547
 20
125.1214146146
 11
144.3586570547
 21
96.4623349335
  0
LINE
  5
422
100
AcDbEntity
  8
0
100
AcDbLine
 62
7
  6
CONTINUOUS
 10
144.5001001397
 20
96.3818120504
 11
144.5001001397
 21
96.2548576172
  0
LINE
  5
423
100
AcDbEntity
  8
DRAFT
100
AcDbLine
 62
7
  6
CONTINUOUS
 10
144.5211321754
 20
133.5986484213
 11
144.5211321754
 21
133.7870717995
  0
LINE
  5
424
100
AcDbEntity
  8
DRAFT
100
AcDbLine
 62
250
  6
CONTINUOUS
 10
145.0512526138
 20
134.7313376175
 11
145.0512526138
 21
133.9400014204
  0
LINE
  5
425
100
AcDbEntity
  8
RACCORDO
100
AcDbLine
 62
250
  6
CONTINUOUS
 10
145.1759089395
 20
95.2086540177
 11
145.1759089395
 21
93.502235843
  0
LINE
  5
426
100
AcDbEntity
  8
RACCORDO
100
AcDbLine
 62
250
  6
CONTINUOUS
 10
145.1895292514
 20
129.0896255642
 11
145.1895292514
 21
127.3804854807
  0
LWPOLYLINE
  5
427
100
AcDbEntity
  8
ASSI
100
AcDbPolyline
 62
7
  6
CONTINUOUS
 90
21
 70
0
 10
143.8509972191
 20
134.7572881451
 10
143.8509788656
 20
134.7548669366
 10
143.8490593375
 20
134.7326214966
 10
143.8439817063
 20
134.7107423214
 10
143.8356673349
 20
134.6890912029
 10
143.8241948605
 20
134.6678063491
 10
143.8098001945
 20
134.6473023837
 10
143.7924477677
 20
134.6276080678
 10
143.7721731493
 20
134.6086946402
 10
143.7493189587
 20
134.5908904405
 10
143.7238020859
 20
134.5741943337
 10
143.6957056409
 20
134.5586074547
 10
143.6656215728
 20
134.5444615481
 10
143.6335409384
 20
134.5318015864
 10
143.5994726809
 20
134.5205825969
 10
143.5640355784
 20
134.511001407
 10
143.527203623
 20
134.503082282
 10
143.4890028226
 20
134.4968009564
 10
143.4501299792
 20
134.4922814613
 10
143.4108173604
 20
134.4895651403
 10
143.3708326987
 20
134.4886106498
  0
LWPOLYLINE
  5
428
100
AcDbEntity
  8
ASSI
100
AcDbPolyline
 62
250
  6
CONTINUOUS
 90
16
 70
0
 10
145.6597006757
 20
136.9827456421
 10
145.6600649141
 20
137.0004111355
 10
145.6611536388
 20
137.0190763144
 10
145.6629549216
 20
137.0385366792
 10
145.665449027
 20
137.0585790179
 10
145.6686086293
 20
137.0789837425
 10
145.672399111
 20
137.099527295
 10
145.676778943
 20
137.1199845958
 10
145.6817001387
 20
137.1401315106
 10
145.6871087808
 20
137.1597473058
 10
145.6929456109
 20
137.1786170667
 10
145.6991466795
 20
137.1965340521
 10
145.7056440467
 20
137.2133019605
 10
145.7123665261
 20
137.2287370789
 10
145.7192404646
 20
137.2426702967
 10
145.7261905501
 20
137.2549489584
  0
LWPOLYLINE
  5
429
100
AcDbEntity
  8
RACCORDO
100
AcDbPolyline
 62
250
  6
CONTINUOUS
 90
5
 70
0
 10
144.3586570547
 20
96.4623349335
 10
144.3578870006
 20
96.4354881618
 10
144.3554585193
 20
96.4090758137
 10
144.3512655416
 20
96.3833005629
 10
144.3452477195
 20
96.3585184046
  0
LINE
  5
42A
100
AcDbEntity
  8
ASSI
100
AcDbLine
 62
250
  6
CONTINUOUS
 10
144.324130581
 20
132.5494733287
 11
144.3243085361
 21
132.5543436304
  0
LWPOLYLINE
  5
42B
100
AcDbEntity
  8
ASSI
100
AcDbPolyline
 62
250
  6
CONTINUOUS
 90
22
 70
0
 10
143.8510516203
 20
135.8260577168
 10
143.8497390446
 20
135.8051529987
 10
143.8447129511
 20
135.7802344983
 10
143.8359590863
 20
135.7556620142
 10
143.8235435349
 20
135.7316210752
 10
143.8075600544
 20
135.7082932481
 10
143.7881293337
 20
135.6858546849
 10
143.7653980843
 20
135.6644748177
 10
143.7395379605
 20
135.644315105
 10
143.7107442721
 20
135.6255278024
 10
143.6792344786
 20
135.6082547876
 10
143.6452465059
 20
135.5926264767
 10
143.6090369769
 20
135.5787608678
 10
143.5708793075
 20
135.5667626621
 10
143.5310616463
 20
135.556722467
 10
143.4898846641
 20
135.5487160998
 10
143.4476592908
 20
135.5428040197
 10
143.4047043906
 20
135.5390308745
 10
143.3613443533
 20
135.5374251584
 10
143.3179066118
 20
135.5379989947
 10
143.2747191695
 20
135.5407480479
 10
143.2321081474
 20
135.5456515575
  0
LWPOLYLINE
  5
42C
100
AcDbEntity
  8
LAY0001
100
AcDbPolyline
 62
250
  6
CONTINUOUS
 90
9
 70
0
 10
141.8839148283
 20
88.3564940863
 10
141.8810252005
 20
88.3143362853
 10
141.8743772905
 20
88.2749487741
 10
141.8640443047
 20
88.2387652912
 10
141.850138143
 20
88.2061805937
 10
141.8328130033
 20
88.1775581607
 10
141.812267712
 20
88.1532212635
 10
141.7887378489
 20
88.1334372372
 10
141.7699878675
 20
88.1220754764
  0
LINE
  5
42D
100
AcDbEntity
  8
RACCORDO
100
AcDbLine
 62
250
  6
CONTINUOUS
 10
146.3473380032
 20
140.5595504046
 11
146.3460760222
 21
140.5423598314
  0
LWPOLYLINE
  5
42E
100
AcDbEntity
  8
ASSI
100
AcDbPolyline
 62
250
  6
CONTINUOUS
 90
3
 70
0
 10
146.2779106936
 20
137.4191840432
 10
146.2782163794
 20
137.4228744261
 10
146.2810575481
 20
137.435150594
  0
LWPOLYLINE
  5
42F
100
AcDbEntity
  8
ASSI
100
AcDbPolyline
 62
7
  6
CONTINUOUS
 90
20
 70
0
 10
146.3259056563
 20
136.1242973771
 10
146.3236422317
 20
136.0972439284
 10
146.3173280297
 20
136.0721893901
 10
146.307033788
 20
136.0473670732
 10
146.2929973433
 20
136.0233935534
 10
146.2751261974
 20
136.0002975275
 10
146.2535128485
 20
135.9780502986
 10
146.2286726275
 20
135.9571823516
 10
146.2005279583
 20
135.9377268289
 10
146.169156417
 20
135.9196505881
 10
146.1353060633
 20
135.9033846859
 10
146.0989173208
 20
135.8889726409
 10
146.0600497659
 20
135.8763709344
 10
146.0196301872
 20
135.8658800672
 10
145.9776068103
 20
135.85755208
 10
145.9340314095
 20
135.851334932
 10
145.8899860964
 20
135.8473730019
 10
145.8458315746
 20
135.8457144159
 10
145.8012071404
 20
135.8463110478
 10
145.7561127939
 20
135.8491628975
  0
LWPOLYLINE
  5
430
100
AcDbEntity
  8
RACCORDO
100
AcDbPolyline
 62
250
  6
CONTINUOUS
 90
7
 70
0
 10
145.2481078951
 20
129.1712804829
 10
145.2462668216
 20
129.1556478852
 10
145.2409833648
 20
129.140733176
 10
145.2324186836
 20
129.1264463061
 10
145.2208175429
 20
129.1130490816
 10
145.2064220992
 20
129.1007148219
 10
145.1895292514
 20
129.0896255642
  0
LINE
  5
431
100
AcDbEntity
  8
RACCORDO
100
AcDbLine
 62
250
  6
CONTINUOUS
 10
138.880046649
 20
104.8691576437
 11
138.9165552704
 21
104.8931603967
  0
LINE
  5
432
100
AcDbEntity
  8
0
100
AcDbLine
 62
7
  6
CONTINUOUS
 10
150.2806980755
 20
112.5976519435
 11
151.4827796039
 21
113.2917187524
  0
LINE
  5
433
100
AcDbEntity
  8
0
100
AcDbLine
 62
7
  6
CONTINUOUS
 10
148.5129311235
 20
110.351983861
 11
148.3962564218
 21
110.2846173506
  0
LWPOLYLINE
  5
434
100
AcDbEntity
  8
RACCORDO
100
AcDbPolyline
 62
7
  6
CONTINUOUS
 90
6
 70
0
 10
129.0322271227
 20
122.9509724513
 10
129.0285215334
 20
122.9520110881
 10
129.0275774279
 20
122.952328846
 10
129.0293117172
 20
122.9515824472
 10
129.0335648927
 20
122.9494841361
 10
129.0385335644
 20
122.946741214
  0
LWPOLYLINE
  5
435
100
AcDbEntity
  8
RACCORDO
100
AcDbPolyline
 62
250
  6
CONTINUOUS
 90
5
 70
0
 10
149.4369502493
 20
103.9926705613
 10
149.4462703844
 20
103.9761098337
 10
149.4536046139
 20
103.9591943742
 10
149.458846557
 20
103.9422375159
 10
149.4619439838
 20
103.9255024112
  0
LINE
  5
436
100
AcDbEntity
  8
RACCORDO
100
AcDbLine
 62
250
  6
CONTINUOUS
 10
149.7767326744
 20
102.453052579
 11
149.7697426482
 21
102.4661521382
  0
LWPOLYLINE
  5
437
100
AcDbEntity
  8
RACCORDO
100
AcDbPolyline
 62
250
  6
CONTINUOUS
 90
5
 70
0
 10
148.4290302882
 20
98.854056984
 10
148.423704743
 20
98.868308254
 10
148.41731285
 20
98.8831349337
 10
148.4098328073
 20
98.8983329517
 10
148.4012262532
 20
98.9137625057
  0
LINE
  5
438
100
AcDbEntity
  8
RACCORDO
100
AcDbLine
 62
250
  6
CONTINUOUS
 10
148.4333913643
 20
98.8403873113
 11
148.4290302882
 21
98.854056984
  0
LWPOLYLINE
  5
439
100
AcDbEntity
  8
ASSI
100
AcDbPolyline
 62
250
  6
CONTINUOUS
 90
7
 70
0
 10
138.4912336382
 20
138.1041206816
 10
138.4941695256
 20
138.0898050468
 10
138.4997997996
 20
138.0737416941
 10
138.5082974679
 20
138.0563985777
 10
138.519786145
 20
138.0381082833
 10
138.5343606455
 20
138.0192886418
 10
138.5521018307
 20
138.0004821925
  0
LWPOLYLINE
  5
43A
100
AcDbEntity
  8
ASSI
100
AcDbPolyline
 62
250
  6
CONTINUOUS
 90
13
 70
0
 10
141.486172183
 20
135.93405578
 10
141.4835259452
 20
135.9555152238
 10
141.4787257973
 20
135.977649094
 10
141.4718460271
 20
136.0001182945
 10
141.4629935322
 20
136.0225769214
 10
141.4523039856
 20
136.044683278
 10
141.4399382382
 20
136.0661046936
 10
141.4260736558
 20
136.086528374
 10
141.4109311835
 20
136.1056239021
 10
141.3947769085
 20
136.1230636786
 10
141.3778748036
 20
136.138581467
 10
141.3604747074
 20
136.1519657188
 10
141.3428422919
 20
136.1630267214
  0
LWPOLYLINE
  5
43B
100
AcDbEntity
  8
ASSI
100
AcDbPolyline
 62
250
  6
CONTINUOUS
 90
13
 70
0
 10
140.9865029124
 20
134.7460794279
 10
140.9838628904
 20
134.7675024674
 10
140.9790752975
 20
134.789601023
 10
140.9722132142
 20
134.8120377696
 10
140.9633813875
 20
134.8344702199
 10
140.9527146313
 20
134.8565559522
 10
140.9403757692
 20
134.8779578371
 10
140.9265531485
 20
134.8983491839
 10
140.9114577657
 20
134.9174187275
 10
140.8953200455
 20
134.9348753794
 10
140.8783863231
 20
134.9504526713
 10
140.8609150847
 20
134.9639128224
 10
140.8431730213
 20
134.9750503693
  0
LWPOLYLINE
  5
43C
100
AcDbEntity
  8
ASSI
100
AcDbPolyline
 62
250
  6
CONTINUOUS
 90
13
 70
0
 10
141.6225676089
 20
136.0156177877
 10
141.6199275869
 20
136.0370408271
 10
141.615139994
 20
136.0591393827
 10
141.6082779108
 20
136.0815761293
 10
141.5994460841
 20
136.1040085797
 10
141.5887793279
 20
136.1260943119
 10
141.5764404657
 20
136.1474961968
 10
141.5626178451
 20
136.1678875436
 10
141.5475224623
 20
136.1869570872
 10
141.531384742
 20
136.2044137392
 10
141.5144510197
 20
136.219991031
 10
141.4969797813
 20
136.2334511822
 10
141.4792377179
 20
136.244588729
  0
LINE
  5
43D
100
AcDbEntity
  8
ASSI
100
AcDbLine
 62
250
  6
CONTINUOUS
 10
145.4467248243
 20
136.9686202179
 11
145.4597775297
 21
136.8491156842
  0
LINE
  5
43E
100
AcDbEntity
  8
ASSI
100
AcDbLine
 62
250
  6
CONTINUOUS
 10
143.3067125153
 20
134.7247941826
 11
143.3301757936
 21
134.4894179831
  0
LWPOLYLINE
  5
43F
100
AcDbEntity
  8
ASSI
100
AcDbPolyline
 62
250
  6
CONTINUOUS
 90
13
 70
0
 10
143.7308075154
 20
139.8631268315
 10
143.7287443422
 20
139.8848290544
 10
143.7244559168
 20
139.9073514838
 10
143.7180108115
 20
139.9303339837
 10
143.7095120841
 20
139.9534090617
 10
143.6990956302
 20
139.9762077449
 10
143.6869280099
 20
139.9983654802
 10
143.6732037846
 20
140.019527963
 10
143.6581424062
 20
140.0393568031
 10
143.6419847076
 20
140.0575349355
 10
143.6249890519
 20
140.0737716899
 10
143.6074272016
 20
140.087807439
 10
143.5895799722
 20
140.0994177497
  0
LINE
  5
440
100
AcDbEntity
  8
ASSI
100
AcDbLine
 62
250
  6
CONTINUOUS
 10
143.2879128735
 20
134.9211463789
 11
143.3067125153
 21
134.7247941826
  0
LINE
  5
441
100
AcDbEntity
  8
ASSI
100
AcDbLine
 62
250
  6
CONTINUOUS
 10
145.7269296058
 20
136.1717588724
 11
145.7561128705
 21
135.8491628975
  0
LINE
  5
442
100
AcDbEntity
  8
ASSI
100
AcDbLine
 62
250
  6
CONTINUOUS
 10
145.6947318302
 20
136.5480218057
 11
145.7269296058
 21
136.1717588724
  0
LINE
  5
443
100
AcDbEntity
  8
ASSI
100
AcDbLine
 62
250
  6
CONTINUOUS
 10
145.6597006826
 20
136.9827456381
 11
145.6947318302
 21
136.5480218057
  0
LINE
  5
444
100
AcDbEntity
  8
RACCORDO
100
AcDbLine
 62
250
  6
CONTINUOUS
 10
146.3460760222
 20
140.5423598314
 11
146.3532505915
 21
140.3801451408
  0
LINE
  5
445
100
AcDbEntity
  8
RACCORDO
100
AcDbLine
 62
7
  6
CONTINUOUS
 10
146.3900088654
 20
140.6037353266
 11
146.3988200188
 21
140.4045179981
  0
LINE
  5
446
100
AcDbEntity
  8
ASSI
100
AcDbLine
 62
250
  6
CONTINUOUS
 10
146.3504861658
 20
137.0335062383
 11
146.3329915045
 21
137.4985917271
  0
LINE
  5
447
100
AcDbEntity
  8
ASSI
100
AcDbLine
 62
250
  6
CONTINUOUS
 10
146.3601696932
 20
136.7297665528
 11
146.3504861658
 21
137.0335062383
  0
LINE
  5
448
100
AcDbEntity
  8
ASSI
100
AcDbLine
 62
250
  6
CONTINUOUS
 10
146.367835531
 20
136.4472449893
 11
146.3601696932
 21
136.7297665528
  0
LINE
  5
449
100
AcDbEntity
  8
ASSI
100
AcDbLine
 62
250
  6
CONTINUOUS
 10
146.3718787403
 20
136.2715653114
 11
146.367835531
 21
136.4472449893
  0
LWPOLYLINE
  5
44A
100
AcDbEntity
  8
RACCORDO
100
AcDbPolyline
 62
250
  6
CONTINUOUS
 90
8
 70
0
 10
146.3900126221
 20
140.6036484793
 10
146.3900525799
 20
140.601699106
 10
146.3887567723
 20
140.5909545235
 10
146.3849183535
 20
140.5803152198
 10
146.3786029997
 20
140.5699632363
 10
146.3699187686
 20
140.5600756983
 10
146.3590142496
 20
140.5508217843
 10
146.3460760222
 20
140.5423598314
  0
LINE
  5
44B
100
AcDbEntity
  8
RACCORDO
100
AcDbLine
 62
7
  6
CONTINUOUS
 10
145.2320409795
 20
95.1813116841
 11
145.2320409795
 21
93.5824532504
  0
LINE
  5
44C
100
AcDbEntity
  8
RACCORDO
100
AcDbLine
 62
7
  6
CONTINUOUS
 10
145.2481078951
 20
129.1712804829
 11
145.2481078951
 21
127.5724220492
  0
LINE
  5
44D
100
AcDbEntity
  8
ASSI
100
AcDbLine
 62
7
  6
CONTINUOUS
 10
146.3259253544
 20
137.2550187934
 11
146.3259253544
 21
136.1242971885
  0
LWPOLYLINE
  5
44E
100
AcDbEntity
  8
RACCORDO
100
AcDbPolyline
 62
250
  6
CONTINUOUS
 90
7
 70
0
 10
145.1759089395
 20
93.502235843
 10
145.1746781351
 20
93.48160801
 10
145.1710067795
 20
93.4627056539
 10
145.1649576887
 20
93.4458521993
 10
145.156634364
 20
93.4313360176
 10
145.1461792164
 20
93.4194054815
 10
145.1346752298
 20
93.4107960028
  0
LWPOLYLINE
  5
44F
100
AcDbEntity
  8
RACCORDO
100
AcDbPolyline
 62
250
  6
CONTINUOUS
 90
7
 70
0
 10
148.3962556387
 20
127.5413453635
 10
148.3951647749
 20
127.5311953915
 10
148.3915872022
 20
127.5201842857
 10
148.3855778548
 20
127.5095319446
 10
148.3772372851
 20
127.4994166104
 10
148.3667050532
 20
127.4900075399
 10
148.3541573919
 20
127.4814621721
  0
LWPOLYLINE
  5
450
100
AcDbEntity
  8
RACCORDO
100
AcDbPolyline
 62
250
  6
CONTINUOUS
 90
7
 70
0
 10
145.2320409795
 20
93.5824532504
 10
145.2304646813
 20
93.5679835639
 10
145.2255199719
 20
93.5532059706
 10
145.2173559277
 20
93.539020931
 10
145.2062038621
 20
93.5256831408
 10
145.1922939909
 20
93.5133619643
 10
145.1759089395
 20
93.502235843
  0
LINE
  5
451
100
AcDbEntity
  8
0
100
AcDbLine
 62
7
  6
CONTINUOUS
 10
148.3962564218
 20
107.8352065202
 11
150.280698075
 21
108.9232595131
  0
LINE
  5
452
100
AcDbEntity
  8
0
100
AcDbLine
 62
7
  6
CONTINUOUS
 10
152.8262824879
 20
116.598537793
 11
151.4827796039
 21
117.3742595202
  0
LWPOLYLINE
  5
453
100
AcDbEntity
  8
RACCORDO
100
AcDbPolyline
 62
250
  6
CONTINUOUS
 90
6
 70
0
 10
149.8008962696
 20
102.3859318747
 10
149.7975244456
 20
102.3992301772
 10
149.7934312364
 20
102.4126763868
 10
149.7886071198
 20
102.4261787381
 10
149.7830351704
 20
102.4396747522
 10
149.7767326744
 20
102.453052579
  0
LWPOLYLINE
  5
454
100
AcDbEntity
  8
ASSI
100
AcDbPolyline
 62
7
  6
CONTINUOUS
 90
4
 70
0
 10
143.9909643603
 20
134.9094721116
 10
143.9978403184
 20
134.8767528559
 10
144.0032165329
 20
134.8316208713
 10
144.0051253929
 20
134.783439037
  0
LWPOLYLINE
  5
455
100
AcDbEntity
  8
ASSI
100
AcDbPolyline
 62
7
  6
CONTINUOUS
 90
5
 70
0
 10
143.8446117827
 20
135.8879600476
 10
143.8474296398
 20
135.8725667635
 10
143.8494441145
 20
135.8570824128
 10
143.850650545
 20
135.841566569
 10
143.8510516161
 20
135.8260577168
  0
LINE
  5
456
100
AcDbEntity
  8
ASSI
100
AcDbLine
 62
250
  6
CONTINUOUS
 10
143.1518505203
 20
134.6300860128
 11
143.1758382172
 21
134.4583611652
  0
LINE
  5
457
100
AcDbEntity
  8
ASSI
100
AcDbLine
 62
250
  6
CONTINUOUS
 10
143.1265098763
 20
134.8178441866
 11
143.1518505203
 21
134.6300860128
  0
LINE
  5
458
100
AcDbEntity
  8
ASSI
100
AcDbLine
 62
250
  6
CONTINUOUS
 10
143.0995919708
 20
135.0245337639
 11
143.1265098763
 21
134.8178441866
  0
LINE
  5
459
100
AcDbEntity
  8
ASSI
100
AcDbLine
 62
250
  6
CONTINUOUS
 10
143.0710692305
 20
135.2518222905
 11
143.0995919708
 21
135.0245337639
  0
LWPOLYLINE
  5
45A
100
AcDbEntity
  8
ASSI
100
AcDbPolyline
 62
250
  6
CONTINUOUS
 90
13
 70
0
 10
144.2581317185
 20
136.2578629525
 10
144.2554916104
 20
136.2792864961
 10
144.2507038615
 20
136.3013854726
 10
144.2438415877
 20
136.3238225307
 10
144.2350095736
 20
136.34625516
 10
144.2243426636
 20
136.3683409394
 10
144.2120036977
 20
136.3897427635
 10
144.1981810456
 20
136.410133949
 10
144.1830857162
 20
136.4292032529
 10
144.1669481188
 20
136.4466596363
 10
144.1500145799
 20
136.4622366599
 10
144.1325435889
 20
136.4756965584
 10
144.114801828
 20
136.4868338942
  0
LWPOLYLINE
  5
45B
100
AcDbEntity
  8
ASSI
100
AcDbPolyline
 62
250
  6
CONTINUOUS
 90
13
 70
0
 10
145.4467248242
 20
136.9686202178
 10
145.4440848022
 20
136.990043257
 10
145.4392972094
 20
137.0121418123
 10
145.4324351263
 20
137.0345785588
 10
145.4236032996
 20
137.0570110092
 10
145.4129365434
 20
137.0790967415
 10
145.4005976812
 20
137.1004986265
 10
145.3867750605
 20
137.1208899735
 10
145.3716796777
 20
137.1399595172
 10
145.3555419574
 20
137.1574161691
 10
145.338608235
 20
137.1729934611
 10
145.3211369966
 20
137.1864536123
 10
145.3033949331
 20
137.1975911592
  0
LWPOLYLINE
  5
45C
100
AcDbEntity
  8
ASSI
100
AcDbPolyline
 62
250
  6
CONTINUOUS
 90
13
 70
0
 10
143.4303208112
 20
136.0871802848
 10
143.4328706548
 20
136.0664168121
 10
143.4374437993
 20
136.0450078341
 10
143.4439745213
 20
136.0232610417
 10
143.4523689629
 20
136.0014889805
 10
143.4625064802
 20
135.9800045613
 10
143.4742413766
 20
135.9591165619
 10
143.4874049984
 20
135.9391251872
 10
143.5018081576
 20
135.9203177566
 10
143.5172438494
 20
135.9029645755
 10
143.5334902303
 20
135.8873150473
 10
143.5503138059
 20
135.8735940894
 10
143.5674727858
 20
135.8619989024
  0
LINE
  5
45D
100
AcDbEntity
  8
ASSI
100
AcDbLine
 62
250
  6
CONTINUOUS
 10
145.5338884544
 20
136.2071314912
 11
145.5670385494
 21
135.9394761448
  0
LINE
  5
45E
100
AcDbEntity
  8
ASSI
100
AcDbLine
 62
250
  6
CONTINUOUS
 10
143.0412008677
 20
135.499165981
 11
143.0710692305
 21
135.2518222905
  0
LINE
  5
45F
100
AcDbEntity
  8
ASSI
100
AcDbLine
 62
250
  6
CONTINUOUS
 10
145.4980521359
 20
136.5098137654
 11
145.5338884544
 21
136.2071314912
  0
LINE
  5
460
100
AcDbEntity
  8
ASSI
100
AcDbLine
 62
250
  6
CONTINUOUS
 10
145.4597775297
 20
136.8491156842
 11
145.4980521359
 21
136.5098137654
  0
LWPOLYLINE
  5
461
100
AcDbEntity
  8
RACCORDO
100
AcDbPolyline
 62
7
  6
CONTINUOUS
 90
11
 70
0
 10
146.3900126221
 20
140.6036484793
 10
146.3878998748
 20
140.6254502699
 10
146.3826676855
 20
140.6504202652
 10
146.3749431993
 20
140.6738969539
 10
146.3646894587
 20
140.6966239401
 10
146.3519678876
 20
140.7183815201
 10
146.3375272033
 20
140.7380193143
 10
146.3215859277
 20
140.7555210458
 10
146.3038853096
 20
140.7711778848
 10
146.2850431497
 20
140.7844114312
 10
146.2797267474
 20
140.7875944026
  0
LINE
  5
462
100
AcDbEntity
  8
ASSI
100
AcDbLine
 62
250
  6
CONTINUOUS
 10
148.7131218103
 20
137.6193616981
 11
148.6588023624
 21
138.3676256631
  0
LINE
  5
463
100
AcDbEntity
  8
ASSI
100
AcDbLine
 62
250
  6
CONTINUOUS
 10
148.7902684869
 20
137.6774674536
 11
148.7371242917
 21
138.4095420183
  0
LINE
  5
464
100
AcDbEntity
  8
RACCORDO
100
AcDbLine
 62
250
  6
CONTINUOUS
 10
149.430336589
 20
138.8031596938
 11
149.4632113481
 21
138.3503016738
  0
LINE
  5
465
100
AcDbEntity
  8
RACCORDO
100
AcDbLine
 62
7
  6
CONTINUOUS
 10
149.4845897203
 20
138.3597418453
 11
149.4493122525
 21
138.8456977777
  0
LINE
  5
466
100
AcDbEntity
  8
RACCORDO
100
AcDbLine
 62
250
  6
CONTINUOUS
 10
149.4619439838
 20
103.9255024112
 11
149.4628709473
 21
103.9092648984
  0
LWPOLYLINE
  5
467
100
AcDbEntity
  8
RACCORDO
100
AcDbPolyline
 62
7
  6
CONTINUOUS
 90
12
 70
0
 10
149.8482399897
 20
102.3617519725
 10
149.8475817422
 20
102.3781023693
 10
149.8445910501
 20
102.4003217143
 10
149.8392105762
 20
102.4224742134
 10
149.831758789
 20
102.4436504536
 10
149.8222653344
 20
102.464089225
 10
149.8106620395
 20
102.4838500003
 10
149.7975588595
 20
102.5019336624
 10
149.7830792793
 20
102.5183360681
 10
149.766994758
 20
102.5332757682
 10
149.7498051909
 20
102.5462347152
 10
149.737942188
 20
102.5536518449
  0
LINE
  5
468
100
AcDbEntity
  8
RACCORDO
100
AcDbLine
 62
250
  6
CONTINUOUS
 10
148.3530619257
 20
127.5149410418
 11
148.3541573919
 21
127.4814621721
  0
LWPOLYLINE
  5
469
100
AcDbEntity
  8
RACCORDO
100
AcDbPolyline
 62
7
  6
CONTINUOUS
 90
8
 70
0
 10
148.3962556387
 20
127.5413453635
 10
148.3956659958
 20
127.5655854527
 10
148.3912371502
 20
127.6128179716
 10
148.3825327667
 20
127.6610312028
 10
148.3697068824
 20
127.7095466187
 10
148.3533662986
 20
127.7567974025
 10
148.3341352127
 20
127.8019891401
 10
148.3258297696
 20
127.8192446104
  0
LWPOLYLINE
  5
46A
100
AcDbEntity
  8
RACCORDO
100
AcDbPolyline
 62
250
  6
CONTINUOUS
 90
9
 70
0
 10
149.430336589
 20
138.8031596938
 10
149.4303158151
 20
138.8139921277
 10
149.4297267903
 20
138.8249515365
 10
149.4285697281
 20
138.8360000293
 10
149.426861743
 20
138.8470047976
 10
149.4246020621
 20
138.858022446
 10
149.4217230155
 20
138.8692968592
 10
149.4181502424
 20
138.8808927438
 10
149.413877574
 20
138.8926452052
  0
LINE
  5
46B
100
AcDbEntity
  8
RACCORDO
100
AcDbLine
 62
250
  6
CONTINUOUS
 10
148.3541573919
 20
127.4814621721
 11
148.3541573919
 21
98.8801244588
  0
LINE
  5
46C
100
AcDbEntity
  8
RACCORDO
100
AcDbLine
 62
7
  6
CONTINUOUS
 10
148.3962564218
 20
127.5416252276
 11
148.3962564218
 21
98.940287531
  0
LINE
  5
46D
100
AcDbEntity
  8
0
100
AcDbLine
 62
7
  6
CONTINUOUS
 10
148.5129311229
 20
116.8837460737
 11
148.5129311229
 21
110.3519838614
  0
LINE
  5
46E
100
AcDbEntity
  8
RACCORDO
100
AcDbLine
 62
250
  6
CONTINUOUS
 10
148.8101571496
 20
103.2522042293
 11
148.8101571496
 21
102.5921147458
  0
LINE
  5
46F
100
AcDbEntity
  8
RACCORDO
100
AcDbLine
 62
250
  6
CONTINUOUS
 10
149.4628709473
 20
103.9092648984
 11
149.4628709473
 21
103.1202937985
  0
LINE
  5
470
100
AcDbEntity
  8
RACCORDO
100
AcDbLine
 62
7
  6
CONTINUOUS
 10
149.4818819155
 20
103.9514650639
 11
149.4818819155
 21
103.1638572004
  0
LINE
  5
471
100
AcDbEntity
  8
RACCORDO
100
AcDbLine
 62
250
  6
CONTINUOUS
 10
149.8061410314
 20
101.3840298787
 11
149.8061410314
 21
102.3016735309
  0
LINE
  5
472
100
AcDbEntity
  8
RACCORDO
100
AcDbLine
 62
7
  6
CONTINUOUS
 10
149.8482400613
 20
101.4441929342
 11
149.8482400613
 21
102.3618365886
  0
LINE
  5
473
100
AcDbEntity
  8
0
100
AcDbLine
 62
7
  6
CONTINUOUS
 10
150.2806980758
 20
118.3526747406
 11
150.2806980754
 21
108.9232595133
  0
LINE
  5
474
100
AcDbEntity
  8
RACCORDO
100
AcDbLine
 62
250
  6
CONTINUOUS
 10
151.2471238974
 20
136.7946091932
 11
151.2471238974
 21
137.0895099975
  0
LINE
  5
475
100
AcDbEntity
  8
RACCORDO
100
AcDbLine
 62
7
  6
CONTINUOUS
 10
151.289222911
 20
137.1496326895
 11
151.2892229273
 21
137.1496730529
  0
LINE
  5
476
100
AcDbEntity
  8
RACCORDO
100
AcDbLine
 62
250
  6
CONTINUOUS
 10
148.3962564218
 20
127.5416252276
 11
148.3962556387
 21
127.5413453635
  0
LWPOLYLINE
  5
477
100
AcDbEntity
  8
RACCORDO
100
AcDbPolyline
 62
250
  6
CONTINUOUS
 90
5
 70
0
 10
148.3541573919
 20
98.8801244588
 10
148.3533338784
 20
98.8521679067
 10
148.3507234787
 20
98.8248614139
 10
148.3462421438
 20
98.798408298
 10
148.3398280489
 20
98.7730673333
  0
LINE
  5
478
100
AcDbEntity
  8
RACCORDO
100
AcDbLine
 62
7
  6
CONTINUOUS
 10
149.4817118997
 20
103.1595594126
 11
149.4818819155
 21
103.1638589207
  0
LINE
  5
479
100
AcDbEntity
  8
RACCORDO
100
AcDbLine
 62
250
  6
CONTINUOUS
 10
149.4320224943
 20
102.7306264426
 11
149.4629008178
 21
103.1203255488
  0
LINE
  5
47A
100
AcDbEntity
  8
RACCORDO
100
AcDbLine
 62
7
  6
CONTINUOUS
 10
149.4492372646
 20
102.7497138047
 11
149.4817119002
 21
103.159559128
  0
LWPOLYLINE
  5
47B
100
AcDbEntity
  8
RACCORDO
100
AcDbPolyline
 62
250
  6
CONTINUOUS
 90
8
 70
0
 10
149.8061410314
 20
102.3016735309
 10
149.8071835127
 20
102.3129391476
 10
149.8076433103
 20
102.324512213
 10
149.8075129739
 20
102.3363464396
 10
149.8067933541
 20
102.3482976188
 10
149.8054854512
 20
102.3604111262
 10
149.8035431631
 20
102.3729307931
 10
149.8008962696
 20
102.3859318747
  0
LWPOLYLINE
  5
47C
100
AcDbEntity
  8
RACCORDO
100
AcDbPolyline
 62
250
  6
CONTINUOUS
 90
7
 70
0
 10
148.3962564199
 20
98.9402737332
 10
148.3951650009
 20
98.92985877
 10
148.3915876089
 20
98.9188475059
 10
148.3855783492
 20
98.9081949588
 10
148.377237755
 20
98.898079392
 10
148.3667053629
 20
98.8886700722
 10
148.3541573919
 20
98.8801244588
  0
LWPOLYLINE
  5
47D
100
AcDbEntity
  8
RACCORDO
100
AcDbPolyline
 62
250
  6
CONTINUOUS
 90
10
 70
0
 10
148.3962564218
 20
102.9050189707
 10
148.397663161
 20
102.9152416339
 10
148.4154439845
 20
102.9882478444
 10
148.4390324059
 20
103.0585922428
 10
148.4685389944
 20
103.1261641825
 10
148.5038531809
 20
103.1910743101
 10
148.5429598124
 20
103.2527615702
 10
148.5851871715
 20
103.3110389442
 10
148.6312069757
 20
103.3660934506
 10
148.681019225
 20
103.4179250896
  0
LINE
  5
47E
100
AcDbEntity
  8
RACCORDO
100
AcDbLine
 62
250
  6
CONTINUOUS
 10
148.5427696343
 20
102.7661627327
 11
148.5450539996
 21
102.7826152754
  0
LWPOLYLINE
  5
47F
100
AcDbEntity
  8
RACCORDO
100
AcDbPolyline
 62
7
  6
CONTINUOUS
 90
3
 70
0
 10
149.4450541579
 20
102.7227617878
 10
149.448798615
 20
102.7449454012
 10
149.4492204132
 20
102.7495058282
  0
LWPOLYLINE
  5
480
100
AcDbEntity
  8
RACCORDO
100
AcDbPolyline
 62
250
  6
CONTINUOUS
 90
9
 70
0
 10
148.5450539996
 20
102.7826152754
 10
148.5613650883
 20
102.8507300212
 10
148.5836819816
 20
102.9164733077
 10
148.6114501096
 20
102.9797018913
 10
148.6441219176
 20
103.0403029089
 10
148.6809475145
 20
103.0979067257
 10
148.7212447886
 20
103.1523806891
 10
148.7644982044
 20
103.2038093379
 10
148.8101571496
 20
103.2522042293
  0
LWPOLYLINE
  5
481
100
AcDbEntity
  8
RACCORDO
100
AcDbPolyline
 62
250
  6
CONTINUOUS
 90
6
 70
0
 10
144.3452477195
 20
96.3585184046
 10
144.3372994367
 20
96.3347980345
 10
144.3271665349
 20
96.3120166914
 10
144.3146214591
 20
96.2904177879
 10
144.2995737869
 20
96.2705114174
 10
144.2917465858
 20
96.2626188205
  0
LINE
  5
482
100
AcDbEntity
  8
RACCORDO
100
AcDbLine
 62
250
  6
CONTINUOUS
 10
149.6843644092
 20
102.5560073029
 11
148.3962564218
 21
102.0970786385
  0
LINE
  5
483
100
AcDbEntity
  8
RACCORDO
100
AcDbLine
 62
7
  6
CONTINUOUS
 10
148.3962564218
 20
102.4579091369
 11
149.2886792668
 21
102.7472735745
  0
LINE
  5
484
100
AcDbEntity
  8
RACCORDO
100
AcDbLine
 62
250
  6
CONTINUOUS
 10
148.3962564218
 20
102.4148163322
 11
149.3777289617
 21
102.7330547673
  0
LINE
  5
485
100
AcDbEntity
  8
0
100
AcDbLine
 62
7
  6
CONTINUOUS
 10
152.8262824885
 20
116.5985377937
 11
151.4827796039
 21
118.1497563549
  0
LINE
  5
486
100
AcDbEntity
  8
RACCORDO
100
AcDbLine
 62
7
  6
CONTINUOUS
 10
144.8437863797
 20
126.7995669369
 11
144.9885940566
 21
126.5188437067
  0
LWPOLYLINE
  5
487
100
AcDbEntity
  8
RACCORDO
100
AcDbPolyline
 62
7
  6
CONTINUOUS
 90
3
 70
0
 10
144.9885940566
 20
126.5188437067
 10
145.1467717059
 20
126.2068990671
 10
145.2249827752
 20
126.0505847191
  0
LWPOLYLINE
  5
488
100
AcDbEntity
  8
RACCORDO
100
AcDbPolyline
 62
250
  6
CONTINUOUS
 90
10
 70
0
 10
144.2879681053
 20
125.4067728457
 10
144.2960616046
 20
125.3895287368
 10
144.3091784484
 20
125.3583906575
 10
144.3211020602
 20
125.3263977587
 10
144.3316073339
 20
125.293906309
 10
144.3406188777
 20
125.2608798488
 10
144.3481007145
 20
125.2269041926
 10
144.3538120733
 20
125.1920281472
 10
144.357423152
 20
125.156750939
 10
144.3586570547
 20
125.1214146146
  0
LWPOLYLINE
  5
489
100
AcDbEntity
  8
ASSI
100
AcDbPolyline
 62
250
  6
CONTINUOUS
 90
3
 70
0
 10
141.4299221623
 20
139.4249667441
 10
141.4368776216
 20
139.4086637751
 10
141.4378573026
 20
139.4042545146
  0
LWPOLYLINE
  5
48A
100
AcDbEntity
  8
ASSI
100
AcDbPolyline
 62
250
  6
CONTINUOUS
 90
8
 70
0
 10
144.2681764961
 20
132.474126223
 10
144.2723551765
 20
132.4614932413
 10
144.2749104727
 20
132.4498831574
 10
144.2758167431
 20
132.4394215496
 10
144.2750669823
 20
132.4302240888
 10
144.2726723389
 20
132.4223855356
 10
144.2686562892
 20
132.415983548
 10
144.2675231829
 20
132.4147386104
  0
LWPOLYLINE
  5
48B
100
AcDbEntity
  8
RACCORDO
100
AcDbPolyline
 62
250
  6
CONTINUOUS
 90
4
 70
0
 10
148.3368720783
 20
127.6180335439
 10
148.3443058668
 20
127.583435268
 10
148.3497390176
 20
127.5490170779
 10
148.3530619257
 20
127.5149410418
  0
LINE
  5
48C
100
AcDbEntity
  8
ASSI
100
AcDbLine
 62
250
  6
CONTINUOUS
 10
145.5670385494
 20
135.9394761448
 11
145.5826855632
 21
135.8172460948
  0
LWPOLYLINE
  5
48D
100
AcDbEntity
  8
ASSI
100
AcDbPolyline
 62
250
  6
CONTINUOUS
 90
13
 70
0
 10
146.3329915035
 20
137.4985917264
 10
146.3303514837
 20
137.5200147528
 10
146.3255638945
 20
137.542113299
 10
146.3187018151
 20
137.5645500406
 10
146.3098699905
 20
137.5869824919
 10
146.2992032339
 20
137.6090682297
 10
146.2868643704
 20
137.6304701202
 10
146.2730417485
 20
137.6508614713
 10
146.2579463639
 20
137.6699310189
 10
146.2418086418
 20
137.687387674
 10
146.2248749178
 20
137.7029649681
 10
146.207403678
 20
137.7164251208
 10
146.1896616136
 20
137.7275626685
  0
LWPOLYLINE
  5
48E
100
AcDbEntity
  8
RACCORDO
100
AcDbPolyline
 62
250
  6
CONTINUOUS
 90
3
 70
0
 10
146.9352793554
 20
134.6223486403
 10
146.9326483961
 20
134.6452711085
 10
146.9280842903
 20
134.6687991016
  0
LWPOLYLINE
  5
48F
100
AcDbEntity
  8
RACCORDO
100
AcDbPolyline
 62
7
  6
CONTINUOUS
 90
12
 70
0
 10
149.4493128505
 20
138.8456895288
 10
149.4489123922
 20
138.8504400802
 10
149.4457453364
 20
138.8717806668
 10
149.4402744617
 20
138.8932630806
 10
149.4327301459
 20
138.9139950131
 10
149.423071641
 20
138.9341698192
 10
149.4112202565
 20
138.9537361658
 10
149.3977761889
 20
138.9716735157
 10
149.3827981248
 20
138.988008426
 10
149.3661137048
 20
139.0028454041
 10
149.3484307106
 20
139.0155248353
 10
149.3406741241
 20
139.0202417429
  0
LWPOLYLINE
  5
490
100
AcDbEntity
  8
0
100
AcDbPolyline
 62
7
  6
CONTINUOUS
 90
9
 70
0
 10
151.4120689258
 20
125.8652939401
 10
151.4090417694
 20
125.9246237608
 10
151.4009128658
 20
125.9789886745
 10
151.3876822147
 20
126.0283886812
 10
151.3690884459
 20
126.0732207309
 10
151.3453929298
 20
126.1130878737
 10
151.3173797776
 20
126.1467992594
 10
151.2849281199
 20
126.1741783062
 10
151.2671108199
 20
126.185709901
  0
LWPOLYLINE
  5
491
100
AcDbEntity
  8
RACCORDO
100
AcDbPolyline
 62
250
  6
CONTINUOUS
 90
3
 70
0
 10
151.8835200847
 20
135.9550951612
 10
151.8825785967
 20
135.978540278
 10
151.8794329148
 20
136.002939466
  0
LWPOLYLINE
  5
492
100
AcDbEntity
  8
RACCORDO
100
AcDbPolyline
 62
7
  6
CONTINUOUS
 90
12
 70
0
 10
151.9256189769
 20
136.0151850438
 10
151.9249059102
 20
136.0339927646
 10
151.9218528363
 20
136.0588081827
 10
151.9163612617
 20
136.084027571
 10
151.9083664558
 20
136.1094712639
 10
151.8981338087
 20
136.1342797586
 10
151.8856457195
 20
136.158490074
 10
151.8708657578
 20
136.1819912127
 10
151.8543083978
 20
136.203857983
 10
151.8362119837
 20
136.2238263965
 10
151.8163853093
 20
136.2420591534
 10
151.8094121244
 20
136.2476904605
  0
LWPOLYLINE
  5
493
100
AcDbEntity
  8
RACCORDO
100
AcDbPolyline
 62
7
  6
CONTINUOUS
 90
13
 70
0
 10
151.289222911
 20
137.1496326895
 10
151.2891334648
 20
137.1562999092
 10
151.2869236368
 20
137.1836363654
 10
151.2818597397
 20
137.2109068572
 10
151.273979566
 20
137.2381849161
 10
151.2632717033
 20
137.2653337346
 10
151.250224486
 20
137.2911886237
 10
151.2349425099
 20
137.3157208107
 10
151.2174059286
 20
137.3388899353
 10
151.1983478409
 20
137.359731865
 10
151.1779218611
 20
137.3781866552
 10
151.1560434359
 20
137.3942977423
 10
151.1435252891
 20
137.4020313863
  0
LWPOLYLINE
  5
494
100
AcDbEntity
  8
RACCORDO
100
AcDbPolyline
 62
250
  6
CONTINUOUS
 90
9
 70
0
 10
151.2471238974
 20
137.0895099975
 10
151.2470604747
 20
137.0975259973
 10
151.2467348097
 20
137.1055882672
 10
151.2461563421
 20
137.1136805326
 10
151.2453416939
 20
137.1217266764
 10
151.2442974065
 20
137.129771018
 10
151.2430017537
 20
137.137984845
 10
151.241440889
 20
137.1463978639
 10
151.2396147576
 20
137.1549623256
  0
LINE
  5
495
100
AcDbEntity
  8
RACCORDO
100
AcDbLine
 62
7
  6
CONTINUOUS
 10
151.2892229273
 20
136.8547722487
 11
151.2892229273
 21
137.1496730529
  0
LINE
  5
496
100
AcDbEntity
  8
0
100
AcDbLine
 62
7
  6
CONTINUOUS
 10
151.4827796039
 20
113.2917187524
 11
151.4827796039
 21
119.0467415493
  0
LINE
  5
497
100
AcDbEntity
  8
RACCORDO
100
AcDbLine
 62
250
  6
CONTINUOUS
 10
151.8835200004
 20
135.5751462794
 11
151.8835200004
 21
135.9550951123
  0
LINE
  5
498
100
AcDbEntity
  8
RACCORDO
100
AcDbLine
 62
7
  6
CONTINUOUS
 10
151.9256190304
 20
135.6353093349
 11
151.9256190304
 21
136.0152581589
  0
LINE
  5
499
100
AcDbEntity
  8
0
100
AcDbLine
 62
7
  6
CONTINUOUS
 10
153.5333892694
 20
127.5799998873
 11
153.5333892684
 21
126.5185885273
  0
LWPOLYLINE
  5
49A
100
AcDbEntity
  8
RACCORDO
100
AcDbPolyline
 62
250
  6
CONTINUOUS
 90
5
 70
0
 10
148.3398280489
 20
98.7730673333
 10
148.331412674
 20
98.7490056552
 10
148.3208863644
 20
98.7263309895
 10
148.3081584806
 20
98.7052739879
 10
148.2931961925
 20
98.6861519584
  0
LWPOLYLINE
  5
49B
100
AcDbEntity
  8
RACCORDO
100
AcDbPolyline
 62
250
  6
CONTINUOUS
 90
4
 70
0
 10
149.4413365093
 20
102.7249083115
 10
149.4457169482
 20
102.7337560524
 10
149.4489523393
 20
102.7469501641
 10
149.4492204132
 20
102.7495058282
  0
LWPOLYLINE
  5
49C
100
AcDbEntity
  8
RACCORDO
100
AcDbPolyline
 62
7
  6
CONTINUOUS
 90
6
 70
0
 10
149.4628709473
 20
103.1202937985
 10
149.4699744074
 20
103.1288689456
 10
149.4754757
 20
103.1378898288
 10
149.479309751
 20
103.1472547384
 10
149.4814310454
 20
103.1568649697
 10
149.4817118997
 20
103.1595594126
  0
LWPOLYLINE
  5
49D
100
AcDbEntity
  8
RACCORDO
100
AcDbPolyline
 62
250
  6
CONTINUOUS
 90
6
 70
0
 10
149.4628709473
 20
103.9092648984
 10
149.4699778466
 20
103.9176520697
 10
149.4754796738
 20
103.9264322453
 10
149.4793124818
 20
103.9355033743
 10
149.4814317222
 20
103.9447600241
 10
149.4818819155
 20
103.9514650639
  0
LINE
  5
49E
100
AcDbEntity
  8
RACCORDO
100
AcDbLine
 62
7
  6
CONTINUOUS
 10
149.4629008178
 20
103.1203255488
 11
149.0343565428
 21
102.6648104771
  0
LINE
  5
49F
100
AcDbEntity
  8
RACCORDO
100
AcDbLine
 62
250
  6
CONTINUOUS
 10
148.681019225
 20
103.4179250896
 11
149.3337330227
 21
104.0749857586
  0
LINE
  5
4A0
100
AcDbEntity
  8
RACCORDO
100
AcDbLine
 62
250
  6
CONTINUOUS
 10
148.8101571496
 20
103.2522042293
 11
149.4628709473
 21
103.9092648984
  0
LWPOLYLINE
  5
4A1
100
AcDbEntity
  8
RACCORDO
100
AcDbPolyline
 62
250
  6
CONTINUOUS
 90
7
 70
0
 10
149.1242457441
 20
100.8671576066
 10
149.1301809201
 20
100.8716137999
 10
149.1358448289
 20
100.8767136333
 10
149.141199974
 20
100.8824690923
 10
149.1461761521
 20
100.8888434699
 10
149.150720276
 20
100.8957884499
 10
149.1527442185
 20
100.8994973109
  0
LWPOLYLINE
  5
4A2
100
AcDbEntity
  8
RACCORDO
100
AcDbPolyline
 62
7
  6
CONTINUOUS
 90
10
 70
0
 10
149.7569653712
 20
101.2711637104
 10
149.7757995685
 20
101.2844559053
 10
149.7920435381
 20
101.2991967433
 10
149.8065697366
 20
101.3159125855
 10
149.8191539661
 20
101.3343964045
 10
149.8296014972
 20
101.3544004404
 10
149.8378217495
 20
101.3758185209
 10
149.8437237373
 20
101.3984980259
 10
149.8472130219
 20
101.4221597332
 10
149.8482400517
 20
101.4441618657
  0
LWPOLYLINE
  5
4A3
100
AcDbEntity
  8
RACCORDO
100
AcDbPolyline
 62
7
  6
CONTINUOUS
 90
5
 70
0
 10
149.120971993
 20
100.8650332164
 10
149.1349964051
 20
100.8746197004
 10
149.1515550852
 20
100.8887194892
 10
149.1666641989
 20
100.9050573452
 10
149.1705776653
 20
100.9104669224
  0
LWPOLYLINE
  5
4A4
100
AcDbEntity
  8
RACCORDO
100
AcDbPolyline
 62
250
  6
CONTINUOUS
 90
7
 70
0
 10
149.8061410314
 20
102.3016735309
 10
149.8186886935
 20
102.3102188999
 10
149.8292209257
 20
102.3196279715
 10
149.8375614954
 20
102.3297433067
 10
149.8435708427
 20
102.3403956486
 10
149.8471484149
 20
102.3514067548
 10
149.8482399897
 20
102.3617519725
  0
LWPOLYLINE
  5
4A5
100
AcDbEntity
  8
RACCORDO
100
AcDbPolyline
 62
250
  6
CONTINUOUS
 90
7
 70
0
 10
149.8061410314
 20
101.3840298787
 10
149.8186886927
 20
101.3925752465
 10
149.8292209246
 20
101.401984317
 10
149.8375614943
 20
101.4120996512
 10
149.8435708417
 20
101.4227519923
 10
149.8471484144
 20
101.4337630981
 10
149.8482400517
 20
101.4441618657
  0
LWPOLYLINE
  5
4A6
100
AcDbEntity
  8
RACCORDO
100
AcDbPolyline
 62
250
  6
CONTINUOUS
 90
8
 70
0
 10
149.7569437647
 20
101.2711492095
 10
149.7619308855
 20
101.2744707052
 10
149.774583755
 20
101.2856092305
 10
149.7854536501
 20
101.2996723742
 10
149.7943031943
 20
101.316661828
 10
149.8008685144
 20
101.3365083235
 10
149.8048885105
 20
101.3590397601
 10
149.8061411171
 20
101.3840299314
  0
LINE
  5
4A7
100
AcDbEntity
  8
RACCORDO
100
AcDbLine
 62
250
  6
CONTINUOUS
 10
149.1211002648
 20
100.8651119306
 11
149.1242457441
 21
100.8671576066
  0
LINE
  5
4A8
100
AcDbEntity
  8
ASSI
100
AcDbLine
 62
7
  6
CONTINUOUS
 10
149.1210999855
 20
100.8651117579
 11
148.3962564218
 21
100.4168576252
  0
LINE
  5
4A9
100
AcDbEntity
  8
RACCORDO
100
AcDbLine
 62
7
  6
CONTINUOUS
 10
149.1209727559
 20
100.8650332376
 11
149.1211002648
 21
100.8651119306
  0
LINE
  5
4AA
100
AcDbEntity
  8
RACCORDO
100
AcDbLine
 62
250
  6
CONTINUOUS
 10
149.8061410314
 20
101.3840298787
 11
148.3962564218
 21
100.5167894301
  0
LINE
  5
4AB
100
AcDbEntity
  8
ASSI
100
AcDbLine
 62
7
  6
CONTINUOUS
 10
149.7569225674
 20
101.2711361662
 11
148.3962564218
 21
100.4341707078
  0
LINE
  5
4AC
100
AcDbEntity
  8
RACCORDO
100
AcDbLine
 62
7
  6
CONTINUOUS
 10
148.4229125952
 20
102.7555323559
 11
148.3962564218
 21
102.7411975285
  0
LINE
  5
4AD
100
AcDbEntity
  8
RACCORDO
100
AcDbLine
 62
250
  6
CONTINUOUS
 10
148.5078660168
 20
102.7374991678
 11
148.3962564218
 21
102.6774791394
  0
LINE
  5
4AE
100
AcDbEntity
  8
RACCORDO
100
AcDbLine
 62
250
  6
CONTINUOUS
 10
148.4257284929
 20
102.7569350996
 11
148.4229152122
 21
102.7555337632
  0
LINE
  5
4AF
100
AcDbEntity
  8
RACCORDO
100
AcDbLine
 62
250
  6
CONTINUOUS
 10
149.8061410314
 20
102.3016735309
 11
148.3962564218
 21
101.7993581449
  0
LWPOLYLINE
  5
4B0
100
AcDbEntity
  8
RACCORDO
100
AcDbPolyline
 62
250
  6
CONTINUOUS
 90
7
 70
0
 10
145.1481103112
 20
129.3444841686
 10
145.1336280178
 20
129.3507125199
 10
145.1180697773
 20
129.3535880665
 10
145.1014171239
 20
129.3533087948
 10
145.0840193709
 20
129.3499569131
 10
145.0661476718
 20
129.3436564964
 10
145.0481078951
 20
129.3345745382
  0
LWPOLYLINE
  5
4B1
100
AcDbEntity
  8
0
100
AcDbPolyline
 62
7
  6
CONTINUOUS
 90
9
 70
0
 10
151.2671108199
 20
126.185709901
 10
151.2481588261
 20
126.1954015959
 10
151.2082186158
 20
126.2098080245
 10
151.1650151866
 20
126.2172046087
 10
151.1186408408
 20
126.2177843318
 10
151.0705192048
 20
126.21146504
 10
151.0211248207
 20
126.1982193488
 10
150.9699831464
 20
126.1780746426
 10
150.9170941818
 20
126.1510309217
  0
LINE
  5
4B2
100
AcDbEntity
  8
LAY0001
100
AcDbLine
 62
250
  6
CONTINUOUS
 10
141.1861841498
 20
130.5135401072
 11
126.3179699815
 21
139.0982606255
  0
LINE
  5
4B3
100
AcDbEntity
  8
0
100
AcDbLine
 62
250
  6
CONTINUOUS
 10
150.9170941807
 20
125.0079725349
 11
149.9272403551
 21
125.5795017279
  0
LINE
  5
4B4
100
AcDbEntity
  8
LAY0001
100
AcDbLine
 62
250
  6
CONTINUOUS
 10
141.5304825916
 20
131.1204289588
 11
126.6622684233
 21
139.7051494771
  0
LINE
  5
4B5
100
AcDbEntity
  8
RACCORDO
100
AcDbLine
 62
250
  6
CONTINUOUS
 10
144.2879681053
 20
129.7734697261
 11
145.0481078951
 21
129.3345745382
  0
LINE
  5
4B6
100
AcDbEntity
  8
RACCORDO
100
AcDbLine
 62
7
  6
CONTINUOUS
 10
144.2879681053
 20
129.8411194983
 11
145.1481127271
 21
129.3444827738
  0
LINE
  5
4B7
100
AcDbEntity
  8
0
100
AcDbLine
 62
250
  6
CONTINUOUS
 10
150.9171180993
 20
126.1510723453
 11
151.4120689258
 21
125.8652939413
  0
LWPOLYLINE
  5
4B8
100
AcDbEntity
  8
RACCORDO
100
AcDbPolyline
 62
250
  6
CONTINUOUS
 90
13
 70
0
 10
145.0481078951
 20
129.3345745382
 10
145.0665670426
 20
129.3225194612
 10
145.0847103553
 20
129.3078766513
 10
145.1022273971
 20
129.2908966479
 10
145.1188184433
 20
129.2718699854
 10
145.1341996208
 20
129.2511222089
 10
145.1481077623
 20
129.2290083002
 10
145.1603048975
 20
129.2059066173
 10
145.1705823162
 20
129.182212447
 10
145.1787641553
 20
129.1583312267
 10
145.1847104191
 20
129.13467158
 10
145.1883193679
 20
129.1116383235
 10
145.1895292514
 20
129.0896255642
  0
LWPOLYLINE
  5
4B9
100
AcDbEntity
  8
ASSI
100
AcDbPolyline
 62
250
  6
CONTINUOUS
 90
7
 70
0
 10
138.5921726371
 20
138.0406696596
 10
138.5868211215
 20
138.0474962476
 10
138.5714631703
 20
138.0636052788
 10
138.5539402563
 20
138.0775184488
 10
138.5345233976
 20
138.0890206217
 10
138.513512881
 20
138.0979339666
 10
138.491233638
 20
138.1041206832
  0
LINE
  5
4BA
100
AcDbEntity
  8
ASSI
100
AcDbLine
 62
7
  6
CONTINUOUS
 10
138.592392465
 20
138.0403722645
 11
138.5921726371
 21
138.0406696596
  0
LWPOLYLINE
  5
4BB
100
AcDbEntity
  8
RACCORDO
100
AcDbPolyline
 62
250
  6
CONTINUOUS
 90
9
 70
0
 10
145.9833260245
 20
131.8870372868
 10
146.2357464767
 20
131.4774873702
 10
146.4883411739
 20
131.0584489655
 10
146.7408361737
 20
130.6299159563
 10
146.9913498135
 20
130.1947033463
 10
147.241247015
 20
129.7500493654
 10
147.4948424022
 20
129.2874582587
 10
147.7530426648
 20
128.803982722
 10
148.0136424962
 20
128.3023847355
  0
LINE
  5
4BC
100
AcDbEntity
  8
RACCORDO
100
AcDbLine
 62
7
  6
CONTINUOUS
 10
146.31171177
 20
131.4704683104
 11
146.1131941352
 21
131.7939152095
  0
LWPOLYLINE
  5
4BD
100
AcDbEntity
  8
ASSI
100
AcDbPolyline
 62
250
  6
CONTINUOUS
 90
4
 70
0
 10
141.4299222712
 20
139.4247621661
 10
141.4355387121
 20
139.4155368897
 10
141.4393457939
 20
139.4060352109
 10
141.4394725975
 20
139.4054121379
  0
LWPOLYLINE
  5
4BE
100
AcDbEntity
  8
ASSI
100
AcDbPolyline
 62
250
  6
CONTINUOUS
 90
16
 70
0
 10
141.618546606
 20
139.6266505938
 10
141.6276507404
 20
139.6096710197
 10
141.6344607951
 20
139.5925144302
 10
141.6389767702
 20
139.5751808252
 10
141.6412094952
 20
139.5575647743
 10
141.6411481405
 20
139.5397717079
 10
141.6387602174
 20
139.5221179176
 10
141.633983838
 20
139.5045897166
 10
141.6268808903
 20
139.4872007917
 10
141.6176045499
 20
139.4703084947
 10
141.6061097804
 20
139.4539417311
 10
141.5924416182
 20
139.4380715954
 10
141.5768883479
 20
139.4229687237
 10
141.5595460644
 20
139.4087233279
 10
141.5403186727
 20
139.3952451961
 10
141.519206173
 20
139.3825343283
  0
LWPOLYLINE
  5
4BF
100
AcDbEntity
  8
ASSI
100
AcDbPolyline
 62
250
  6
CONTINUOUS
 90
4
 70
0
 10
143.8196395682
 20
135.9605600047
 10
143.8173734985
 20
135.9649372494
 10
143.8127746006
 20
135.9724716653
 10
143.8077976773
 20
135.979172913
  0
LINE
  5
4C0
100
AcDbEntity
  8
RACCORDO
100
AcDbLine
 62
250
  6
CONTINUOUS
 10
148.0136424962
 20
128.3023847355
 11
148.2759712498
 21
127.7826300634
  0
LWPOLYLINE
  5
4C1
100
AcDbEntity
  8
RACCORDO
100
AcDbPolyline
 62
7
  6
CONTINUOUS
 90
9
 70
0
 10
148.325837914
 20
127.819228548
 10
148.0917175459
 20
128.2838131924
 10
147.8523901869
 20
128.7463699214
 10
147.6079365238
 20
129.2067431007
 10
147.3584391484
 20
129.6647774583
 10
147.1039819189
 20
130.1203192622
 10
146.844649894
 20
130.5732163459
 10
146.5805301459
 20
131.0233166525
 10
146.31171177
 20
131.4704683104
  0
LINE
  5
4C2
100
AcDbEntity
  8
ASSI
100
AcDbLine
 62
7
  6
CONTINUOUS
 10
143.819657777
 20
135.9605225831
 11
143.8196395682
 21
135.9605600047
  0
LWPOLYLINE
  5
4C3
100
AcDbEntity
  8
RACCORDO
100
AcDbPolyline
 62
250
  6
CONTINUOUS
 90
3
 70
0
 10
148.2759712498
 20
127.7826300634
 10
148.2906821481
 20
127.7515834009
 10
148.3043015512
 20
127.719461998
  0
LWPOLYLINE
  5
4C4
100
AcDbEntity
  8
ASSI
100
AcDbPolyline
 62
7
  6
CONTINUOUS
 90
6
 70
0
 10
143.8196764888
 20
135.9604842109
 10
143.8252081225
 20
135.9485036631
 10
143.8312909329
 20
135.9335554394
 10
143.836554288
 20
135.918449873
 10
143.8409914196
 20
135.903245776
 10
143.8446117827
 20
135.8879600476
  0
LINE
  5
4C5
100
AcDbEntity
  8
ASSI
100
AcDbLine
 62
7
  6
CONTINUOUS
 10
143.8198448819
 20
135.9601212354
 11
143.8198769499
 21
135.9600475198
  0
LWPOLYLINE
  5
4C6
100
AcDbEntity
  8
RACCORDO
100
AcDbPolyline
 62
250
  6
CONTINUOUS
 90
4
 70
0
 10
148.3043015512
 20
127.719461998
 10
148.3166537407
 20
127.6864080676
 10
148.3275812906
 20
127.6525080699
 10
148.3368720783
 20
127.6180335439
  0
LWPOLYLINE
  5
4C7
100
AcDbEntity
  8
RACCORDO
100
AcDbPolyline
 62
250
  6
CONTINUOUS
 90
12
 70
0
 10
146.9216370397
 20
134.6926748874
 10
146.9133772228
 20
134.7166370571
 10
146.9033951705
 20
134.7404233873
 10
146.8918001149
 20
134.7637734521
 10
146.8787190246
 20
134.7864314281
 10
146.8642951076
 20
134.8081490959
 10
146.8486862877
 20
134.8286886062
 10
146.8320635123
 20
134.8478249392
 10
146.8146088816
 20
134.8653483497
 10
146.7965135886
 20
134.8810668648
 10
146.777975809
 20
134.8948083572
 10
146.7591985852
 20
134.9064223089
  0
LWPOLYLINE
  5
4C8
100
AcDbEntity
  8
RACCORDO
100
AcDbPolyline
 62
250
  6
CONTINUOUS
 90
8
 70
0
 10
148.325837914
 20
127.819228548
 10
148.3259510622
 20
127.8188589803
 10
148.3250775441
 20
127.8165356934
 10
148.3219693442
 20
127.8131399517
 10
148.3166784597
 20
127.80872857
 10
148.3092934159
 20
127.8033753615
 10
148.2999377809
 20
127.797169899
 10
148.2887680937
 20
127.790216014
  0
LINE
  5
4C9
100
AcDbEntity
  8
RACCORDO
100
AcDbLine
 62
250
  6
CONTINUOUS
 10
146.9280842903
 20
134.6687991016
 11
146.9216370397
 21
134.6926748874
  0
LINE
  5
4CA
100
AcDbEntity
  8
0
100
AcDbLine
 62
7
  6
CONTINUOUS
 10
156.4325270742
 20
124.4357215598
 11
156.4325270742
 21
123.6608991591
  0
LINE
  5
4CB
100
AcDbEntity
  8
0
100
AcDbLine
 62
7
  6
CONTINUOUS
 10
156.7860804628
 20
123.8650364553
 11
156.7860804628
 21
124.6398588554
  0
LINE
  5
4CC
100
AcDbEntity
  8
0
100
AcDbLine
 62
7
  6
CONTINUOUS
 10
156.7861192757
 20
122.1088234093
 11
156.7861253731
 21
121.3326453915
  0
LINE
  5
4CD
100
AcDbEntity
  8
0
100
AcDbLine
 62
7
  6
CONTINUOUS
 10
156.8567911409
 20
124.6806863155
 11
156.8567911409
 21
123.7825690126
  0
LINE
  5
4CE
100
AcDbEntity
  8
0
100
AcDbLine
 62
7
  6
CONTINUOUS
 10
156.7861253731
 20
121.3326453915
 11
156.0796445021
 21
118.4769882462
  0
LINE
  5
4CF
100
AcDbEntity
  8
RACCORDO
100
AcDbLine
 62
250
  6
CONTINUOUS
 10
148.2931961925
 20
98.6861519584
 11
148.2759712498
 21
98.6692439646
  0
LWPOLYLINE
  5
4D0
100
AcDbEntity
  8
RACCORDO
100
AcDbPolyline
 62
7
  6
CONTINUOUS
 90
9
 70
0
 10
148.2894231062
 20
98.6790222322
 10
148.3089944662
 20
98.6976052931
 10
148.3309546112
 20
98.7236087622
 10
148.3503486908
 20
98.7531399922
 10
148.3667190543
 20
98.7859708678
 10
148.3796829744
 20
98.8217235768
 10
148.3890370642
 20
98.8602033289
 10
148.3946154548
 20
98.901328294
 10
148.3962564199
 20
98.9402737332
  0
LINE
  5
4D1
100
AcDbEntity
  8
RACCORDO
100
AcDbLine
 62
7
  6
CONTINUOUS
 10
148.2894231059
 20
98.6790222322
 11
148.2890900238
 21
98.6787357258
  0
LINE
  5
4D2
100
AcDbEntity
  8
RACCORDO
100
AcDbLine
 62
7
  6
CONTINUOUS
 10
145.2249827752
 20
96.8162411752
 11
145.1467717059
 21
96.7502430096
  0
LWPOLYLINE
  5
4D3
100
AcDbEntity
  8
RACCORDO
100
AcDbPolyline
 62
250
  6
CONTINUOUS
 90
4
 70
0
 10
148.2759712498
 20
98.6692439646
 10
148.031415248
 20
98.4666278431
 10
147.7850948997
 20
98.2756795049
 10
147.7372960409
 20
98.2395587542
  0
LWPOLYLINE
  5
4D4
100
AcDbEntity
  8
RACCORDO
100
AcDbPolyline
 62
7
  6
CONTINUOUS
 90
9
 70
0
 10
145.1467717059
 20
96.7502430096
 10
145.0679754664
 20
96.6851486027
 10
144.9885940566
 20
96.6209579545
 10
144.9086243981
 20
96.5576686718
 10
144.8280695693
 20
96.4952831479
 10
144.7469388056
 20
96.4338085624
 10
144.6652351853
 20
96.3732473088
 10
144.58295563
 20
96.3135969938
 10
144.5001001397
 20
96.2548576172
  0
LWPOLYLINE
  5
4D5
100
AcDbEntity
  8
RACCORDO
100
AcDbPolyline
 62
250
  6
CONTINUOUS
 90
5
 70
0
 10
147.595077837
 20
98.1365146953
 10
147.5373537491
 20
98.0960672522
 10
147.2904157748
 20
97.928694972
 10
147.0427848943
 20
97.7718671811
 10
147.0095700798
 20
97.7516373905
  0
LINE
  5
4D6
100
AcDbEntity
  8
RACCORDO
100
AcDbLine
 62
250
  6
CONTINUOUS
 10
148.2890900238
 20
98.6787357258
 11
148.2759712497
 21
98.6692439647
  0
LINE
  5
4D7
100
AcDbEntity
  8
RACCORDO
100
AcDbLine
 62
7
  6
CONTINUOUS
 10
145.2249827752
 20
96.8162411752
 11
145.2157972447
 21
96.809656069
  0
LINE
  5
4D8
100
AcDbEntity
  8
RACCORDO
100
AcDbLine
 62
250
  6
CONTINUOUS
 10
144.3052177036
 20
96.2664996702
 11
144.2951153186
 21
96.2592974764
  0
LWPOLYLINE
  5
4D9
100
AcDbEntity
  8
RACCORDO
100
AcDbPolyline
 62
250
  6
CONTINUOUS
 90
19
 70
0
 10
148.4026875548
 20
98.6837344087
 10
148.4065827061
 20
98.6862879391
 10
148.4119281353
 20
98.6904568688
 10
148.4169113403
 20
98.6951760266
 10
148.4215395547
 20
98.7004648199
 10
148.4258580462
 20
98.7064229799
 10
148.4298467948
 20
98.7131191938
 10
148.4334222621
 20
98.7205235923
 10
148.4365199998
 20
98.7286001095
 10
148.4390975556
 20
98.7373385669
 10
148.4411159415
 20
98.7467321758
 10
148.442532228
 20
98.7567278776
 10
148.4433153464
 20
98.7672943941
 10
148.4434372082
 20
98.7784033778
 10
148.4428742508
 20
98.7899901569
 10
148.4416174572
 20
98.8019400942
 10
148.4396508321
 20
98.8142697971
 10
148.4369191466
 20
98.8271116985
 10
148.4333913643
 20
98.8403873113
  0
LWPOLYLINE
  5
4DA
100
AcDbEntity
  8
RACCORDO
100
AcDbPolyline
 62
7
  6
CONTINUOUS
 90
16
 70
0
 10
148.4024109643
 20
98.6835678842
 10
148.4074249499
 20
98.686728897
 10
148.4233068674
 20
98.6985425563
 10
148.437800281
 20
98.7122772811
 10
148.4505929989
 20
98.7276723705
 10
148.4615333743
 20
98.744551484
 10
148.4705681951
 20
98.7629175435
 10
148.4775291587
 20
98.782650048
 10
148.4822017365
 20
98.8033627573
 10
148.4844975018
 20
98.8248106748
 10
148.4843327426
 20
98.8472956765
 10
148.4815782174
 20
98.8701864318
 10
148.4765150055
 20
98.8921332818
 10
148.4692702242
 20
98.9134378733
 10
148.4598974157
 20
98.9341086141
 10
148.4542898332
 20
98.9444054972
  0
LWPOLYLINE
  5
4DB
100
AcDbEntity
  8
RACCORDO
100
AcDbPolyline
 62
7
  6
CONTINUOUS
 90
10
 70
0
 10
147.0095700797
 20
97.7516373907
 10
147.1584077107
 20
97.8437398144
 10
147.305616672
 20
97.9385941378
 10
147.4511796454
 20
98.0361897927
 10
147.595077837
 20
98.1365146953
 10
147.7372960409
 20
98.2395587542
 10
147.8778224572
 20
98.3453141996
 10
148.0166420312
 20
98.4537707593
 10
148.1537366393
 20
98.5649153321
 10
148.2890900238
 20
98.6787357258
  0
LINE
  5
4DC
100
AcDbEntity
  8
RACCORDO
100
AcDbLine
 62
250
  6
CONTINUOUS
 10
148.4012262428
 20
98.9137624993
 11
148.3949792124
 21
98.9099614446
  0
LINE
  5
4DD
100
AcDbEntity
  8
RACCORDO
100
AcDbLine
 62
7
  6
CONTINUOUS
 10
147.9881232199
 20
98.4314896639
 11
148.4026879382
 21
98.683734642
  0
LINE
  5
4DE
100
AcDbEntity
  8
ASSI
100
AcDbLine
 62
7
  6
CONTINUOUS
 10
147.0095700798
 20
97.7516373905
 11
144.2879681053
 21
96.101665141
  0
LINE
  5
4DF
100
AcDbEntity
  8
RACCORDO
100
AcDbLine
 62
250
  6
CONTINUOUS
 10
144.3586570547
 20
96.4623349335
 11
148.3541573919
 21
98.8801244588
  0
LINE
  5
4E0
100
AcDbEntity
  8
RACCORDO
100
AcDbLine
 62
250
  6
CONTINUOUS
 10
144.3052177036
 20
96.2664996702
 11
148.2759712498
 21
98.6692439646
  0
LINE
  5
4E1
100
AcDbEntity
  8
RACCORDO
100
AcDbLine
 62
250
  6
CONTINUOUS
 10
145.2158028042
 20
96.8096465698
 11
145.2249827752
 21
96.8162411752
  0
LINE
  5
4E2
100
AcDbEntity
  8
RACCORDO
100
AcDbLine
 62
7
  6
CONTINUOUS
 10
144.2879681053
 20
96.2550264188
 11
145.2158028042
 21
96.8096465698
  0
LINE
  5
4E3
100
AcDbEntity
  8
RACCORDO
100
AcDbLine
 62
250
  6
CONTINUOUS
 10
148.4012257178
 20
98.9137634086
 11
148.4542898332
 21
98.9444054972
  0
LINE
  5
4E4
100
AcDbEntity
  8
DRAFT
100
AcDbLine
 62
7
  6
CONTINUOUS
 10
144.6752824834
 20
95.3815109589
 11
144.2879681053
 21
95.1578797234
  0
LINE
  5
4E5
100
AcDbEntity
  8
LAY0001
100
AcDbLine
 62
7
  6
CONTINUOUS
 10
144.2879681053
 20
95.5966274521
 11
144.2955261689
 21
95.6007774954
  0
LWPOLYLINE
  5
4E6
100
AcDbEntity
  8
RACCORDO
100
AcDbPolyline
 62
250
  6
CONTINUOUS
 90
6
 70
0
 10
144.3586570547
 20
96.4623349335
 10
144.3453440571
 20
96.4556660597
 10
144.3302101855
 20
96.4504503227
 10
144.3137255908
 20
96.446849704
 10
144.2964023318
 20
96.4449760071
 10
144.2879681053
 20
96.4449336014
  0
LINE
  5
4E7
100
AcDbEntity
  8
RACCORDO
100
AcDbLine
 62
250
  6
CONTINUOUS
 10
146.6361209886
 20
138.4321421144
 11
149.1161825572
 21
139.1266507278
  0
LINE
  5
4E8
100
AcDbEntity
  8
ASSI
100
AcDbLine
 62
7
  6
CONTINUOUS
 10
146.5455858833
 20
138.4458692824
 11
149.0276106928
 21
139.1409276756
  0
LWPOLYLINE
  5
4E9
100
AcDbEntity
  8
ASSI
100
AcDbPolyline
 62
250
  6
CONTINUOUS
 90
13
 70
0
 10
148.5520750117
 20
138.6121663426
 10
148.556315913
 20
138.6133152886
 10
148.5604900071
 20
138.6145226526
 10
148.5645972942
 20
138.6157884343
 10
148.5686263703
 20
138.6171052121
 10
148.5725886394
 20
138.6184804078
 10
148.5765183132
 20
138.6199362868
 10
148.580424116
 20
138.6214716739
 10
148.5842973236
 20
138.6230877444
 10
148.588145975
 20
138.62481029
 10
148.59197275
 20
138.626647908
 10
148.5957749688
 20
138.6285920011
 10
148.5995526314
 20
138.6306425694
  0
LINE
  5
4EA
100
AcDbEntity
  8
ASSI
100
AcDbLine
 62
250
  6
CONTINUOUS
 10
147.1282694145
 20
137.9650641365
 11
148.6588023624
 21
138.3676256631
  0
LINE
  5
4EB
100
AcDbEntity
  8
ASSI
100
AcDbLine
 62
250
  6
CONTINUOUS
 10
147.0215420638
 20
138.209604816
 11
148.5520750117
 21
138.6121663426
  0
LWPOLYLINE
  5
4EC
100
AcDbEntity
  8
ASSI
100
AcDbPolyline
 62
7
  6
CONTINUOUS
 90
10
 70
0
 10
143.3301759941
 20
134.4894179898
 10
143.31065226
 20
134.4897051644
 10
143.2916202648
 20
134.4890316471
 10
143.2730800085
 20
134.4873974378
 10
143.2548953497
 20
134.4847675386
 10
143.2372024299
 20
134.4811769475
 10
143.2204096729
 20
134.4767306584
 10
143.2046532203
 20
134.471463669
 10
143.1897969306
 20
134.4653409816
 10
143.1758408038
 20
134.4583625962
  0
LINE
  5
4ED
100
AcDbEntity
  8
ASSI
100
AcDbLine
 62
7
  6
CONTINUOUS
 10
143.3708326987
 20
134.4886106498
 11
143.3301759941
 21
134.4894179898
  0
LWPOLYLINE
  5
4EE
100
AcDbEntity
  8
ASSI
100
AcDbPolyline
 62
250
  6
CONTINUOUS
 90
8
 70
0
 10
142.6927085552
 20
133.9809719021
 10
142.6814239733
 20
133.9852229022
 10
142.6692359368
 20
133.9875476827
 10
142.6562750344
 20
133.9879213218
 10
142.642680153
 20
133.98633981
 10
142.6285969613
 20
133.9828200936
 10
142.6141763452
 20
133.9773998829
 10
142.5995728133
 20
133.9701372513
  0
LWPOLYLINE
  5
4EF
100
AcDbEntity
  8
RACCORDO
100
AcDbPolyline
 62
7
  6
CONTINUOUS
 90
10
 70
0
 10
145.9833260245
 20
131.8870372868
 10
146.0048483893
 20
131.8770270077
 10
146.0246782646
 20
131.8668942985
 10
146.0427568607
 20
131.8566182946
 10
146.0590429287
 20
131.8461455993
 10
146.0735448753
 20
131.8355374956
 10
146.0862670347
 20
131.8249349975
 10
146.0971947014
 20
131.8143359955
 10
146.1063176405
 20
131.8037462202
 10
146.1131962723
 20
131.7939117575
  0
LWPOLYLINE
  5
4F0
100
AcDbEntity
  8
ASSI
100
AcDbPolyline
 62
250
  6
CONTINUOUS
 90
9
 70
0
 10
144.2243133681
 20
133.0968569108
 10
144.2199122744
 20
133.0991836009
 10
144.2086276689
 20
133.1034345781
 10
144.1964396371
 20
133.1057593287
 10
144.1834787612
 20
133.1061329438
 10
144.1698839126
 20
133.1045514187
 10
144.1558007528
 20
133.1010316986
 10
144.1413801725
 20
133.0956114944
 10
144.1267766791
 20
133.0883488796
  0
LINE
  5
4F1
100
AcDbEntity
  8
ASSI
100
AcDbLine
 62
250
  6
CONTINUOUS
 10
142.6971095024
 20
133.9786452825
 11
142.6927085552
 21
133.9809719021
  0
LINE
  5
4F2
100
AcDbEntity
  8
ASSI
100
AcDbLine
 62
250
  6
CONTINUOUS
 10
133.5207667201
 20
139.2769505984
 11
133.5163657729
 21
139.2792772179
  0
LWPOLYLINE
  5
4F3
100
AcDbEntity
  8
ASSI
100
AcDbPolyline
 62
250
  6
CONTINUOUS
 90
8
 70
0
 10
142.5995728133
 20
133.9701372513
 10
142.5852410217
 20
133.9778161798
 10
142.5709789086
 20
133.9836790151
 10
142.5569420403
 20
133.987640237
 10
142.5432687868
 20
133.9896349927
 10
142.5301338023
 20
133.9896110536
 10
142.5177373827
 20
133.9875568402
 10
142.5066489875
 20
133.9836493483
  0
LWPOLYLINE
  5
4F4
100
AcDbEntity
  8
ASSI
100
AcDbPolyline
 62
250
  6
CONTINUOUS
 90
8
 70
0
 10
133.4232300311
 20
139.2684425672
 10
133.4088982395
 20
139.2761214957
 10
133.3946361264
 20
139.2819843309
 10
133.380599258
 20
139.2859455529
 10
133.3669260046
 20
139.2879403086
 10
133.35379102
 20
139.2879163695
 10
133.3413946005
 20
139.2858621561
 10
133.3303062053
 20
139.2819546642
  0
LINE
  5
4F5
100
AcDbEntity
  8
0
100
AcDbLine
 62
7
  6
CONTINUOUS
 10
156.8567911409
 20
123.7825690126
 11
156.7500215025
 21
123.8442164636
  0
LINE
  5
4F6
100
AcDbEntity
  8
LAY0001
100
AcDbLine
 62
7
  6
CONTINUOUS
 10
133.4552780109
 20
137.7465133265
 11
138.0514720886
 21
135.0927284699
  0
LINE
  5
4F7
100
AcDbEntity
  8
0
100
AcDbLine
 62
7
  6
CONTINUOUS
 10
153.8162319821
 20
126.1103139344
 11
153.533389269
 21
126.2736237721
  0
LINE
  5
4F8
100
AcDbEntity
  8
LAY0001
100
AcDbLine
 62
7
  6
CONTINUOUS
 10
133.9572509482
 20
137.5841517054
 11
138.187865002
 21
135.1414481728
  0
LINE
  5
4F9
100
AcDbEntity
  8
LAY0001
100
AcDbLine
 62
7
  6
CONTINUOUS
 10
143.9345358687
 20
132.5084923452
 11
138.9209147201
 21
135.403294361
  0
LINE
  5
4FA
100
AcDbEntity
  8
LAY0001
100
AcDbLine
 62
7
  6
CONTINUOUS
 10
133.9572509482
 20
138.2692516135
 11
128.9436297997
 21
141.1640536293
  0
LINE
  5
4FB
100
AcDbEntity
  8
0
100
AcDbLine
 62
7
  6
CONTINUOUS
 10
146.95554187
 20
131.3778560624
 11
153.5333892694
 21
127.5799998873
  0
LINE
  5
4FC
100
AcDbEntity
  8
ASSI
100
AcDbLine
 62
250
  6
CONTINUOUS
 10
136.9628621554
 20
137.2154932316
 11
140.8431730213
 21
134.9750503693
  0
LINE
  5
4FD
100
AcDbEntity
  8
ASSI
100
AcDbLine
 62
250
  6
CONTINUOUS
 10
144.1267766791
 20
133.0883488796
 11
142.5995728133
 21
133.9701372513
  0
LINE
  5
4FE
100
AcDbEntity
  8
ASSI
100
AcDbLine
 62
250
  6
CONTINUOUS
 10
134.9504338968
 20
138.3866541955
 11
133.4232300311
 21
139.2684425672
  0
LINE
  5
4FF
100
AcDbEntity
  8
ASSI
100
AcDbLine
 62
7
  6
CONTINUOUS
 10
144.2243133681
 20
133.0968569108
 11
142.6971095024
 21
133.9786452825
  0
LINE
  5
500
100
AcDbEntity
  8
ASSI
100
AcDbLine
 62
7
  6
CONTINUOUS
 10
135.0479705859
 20
138.3951622267
 11
133.5207667201
 21
139.2769505984
  0
LINE
  5
501
100
AcDbEntity
  8
ASSI
100
AcDbLine
 62
250
  6
CONTINUOUS
 10
137.1020013403
 20
137.3582335055
 11
140.9489828107
 21
135.1370346185
  0
LINE
  5
502
100
AcDbEntity
  8
DRAFT
100
AcDbLine
 62
7
  6
CONTINUOUS
 10
143.1591394025
 20
134.3036063244
 11
143.0304590544
 21
134.3779047446
  0
LWPOLYLINE
  5
503
100
AcDbEntity
  8
ASSI
100
AcDbPolyline
 62
250
  6
CONTINUOUS
 90
16
 70
0
 10
134.9504338968
 20
138.3866541955
 10
134.9651358371
 20
138.3775806151
 10
134.9797327515
 20
138.3668147609
 10
134.9940658934
 20
138.3544459764
 10
135.0079841771
 20
138.3405742839
 10
135.0213184553
 20
138.3253366525
 10
135.0338881407
 20
138.3089140673
 10
135.0455566832
 20
138.2914611599
 10
135.0561729722
 20
138.2731781472
 10
135.0655667496
 20
138.254351844
 10
135.0736231706
 20
138.2352356673
 10
135.0802808723
 20
138.2160021725
 10
135.0854810138
 20
138.1968291895
 10
135.0891667732
 20
138.1779171153
 10
135.0912925998
 20
138.159486813
 10
135.0918337139
 20
138.1417425284
  0
LWPOLYLINE
  5
504
100
AcDbEntity
  8
ASSI
100
AcDbPolyline
 62
250
  6
CONTINUOUS
 90
3
 70
0
 10
138.5521018307
 20
138.0004821925
 10
138.5730611696
 20
137.9820289897
 10
138.5972608928
 20
137.9640293676
  0
LWPOLYLINE
  5
505
100
AcDbEntity
  8
ASSI
100
AcDbPolyline
 62
250
  6
CONTINUOUS
 90
7
 70
0
 10
143.8077976773
 20
135.979172913
 10
143.8025265241
 20
135.9851104386
 10
143.7970729749
 20
135.9902803288
 10
143.7915687587
 20
135.9946075016
 10
143.7860990834
 20
135.9981000167
 10
143.7807108412
 20
136.0008440881
 10
143.7754596504
 20
136.002887566
  0
LWPOLYLINE
  5
506
100
AcDbEntity
  8
RACCORDO
100
AcDbPolyline
 62
7
  6
CONTINUOUS
 90
12
 70
0
 10
148.3528801846
 20
133.5326823855
 10
148.3018832596
 20
133.6092292644
 10
148.248009289
 20
133.6834162389
 10
148.191497406
 20
133.7548563763
 10
148.1325807966
 20
133.8231815731
 10
148.0714706868
 20
133.8881060193
 10
148.0083673395
 20
133.9493526051
 10
147.9435028195
 20
134.0066206363
 10
147.8771170031
 20
134.0596205222
 10
147.8094367933
 20
134.1080719454
 10
147.740719253
 20
134.1517036467
 10
147.7257164325
 20
134.160496651
  0
LWPOLYLINE
  5
507
100
AcDbEntity
  8
RACCORDO
100
AcDbPolyline
 62
250
  6
CONTINUOUS
 90
11
 70
0
 10
148.3044160986
 20
133.4949549299
 10
148.249001127
 20
133.5790994647
 10
148.1924049993
 20
133.657675023
 10
148.1351917081
 20
133.7306007619
 10
148.0779386071
 20
133.7978110697
 10
148.0210443469
 20
133.8594391949
 10
147.9647124364
 20
133.9157739146
 10
147.9092936717
 20
133.9669514727
 10
147.8550893191
 20
134.0131567181
 10
147.802139639
 20
134.0547467164
 10
147.7505886543
 20
134.0919705074
  0
LWPOLYLINE
  5
508
100
AcDbEntity
  8
ASSI
100
AcDbPolyline
 62
7
  6
CONTINUOUS
 90
10
 70
0
 10
146.2706087945
 20
137.4307108096
 10
146.2823103205
 20
137.4122387989
 10
146.2926162666
 20
137.3933503244
 10
146.3015183129
 20
137.3741252263
 10
146.3089996138
 20
137.3546915725
 10
146.3150899124
 20
137.3350853011
 10
146.3198318875
 20
137.3152469459
 10
146.3232236887
 20
137.2952106508
 10
146.3252522267
 20
137.2751066634
 10
146.3259253503
 20
137.2550187934
  0
LWPOLYLINE
  5
509
100
AcDbEntity
  8
ASSI
100
AcDbPolyline
 62
250
  6
CONTINUOUS
 90
13
 70
0
 10
147.4859443405
 20
133.0332000777
 10
147.4413134414
 20
133.1037481608
 10
147.3944513316
 20
133.1722748473
 10
147.345523197
 20
133.2385331197
 10
147.2946989437
 20
133.3022826493
 10
147.2421606995
 20
133.3632950645
 10
147.1881021596
 20
133.4213547563
 10
147.1327156039
 20
133.4762514425
 10
147.0761957535
 20
133.5277881009
 10
147.0187469828
 20
133.5757854234
 10
146.9605740173
 20
133.6200717053
 10
146.9018814053
 20
133.6604841294
 10
146.8428771722
 20
133.6968760519
  0
LINE
  5
50A
100
AcDbEntity
  8
RACCORDO
100
AcDbLine
 62
7
  6
CONTINUOUS
 10
148.3998797174
 20
133.4580152153
 11
148.3528801846
 21
133.5326823855
  0
LINE
  5
50B
100
AcDbEntity
  8
RACCORDO
100
AcDbLine
 62
250
  6
CONTINUOUS
 10
148.3949938614
 20
133.3505826841
 11
148.3044160941
 21
133.4949549273
  0
LINE
  5
50C
100
AcDbEntity
  8
RACCORDO
100
AcDbLine
 62
7
  6
CONTINUOUS
 10
148.4500297437
 20
133.3779432996
 11
148.3998797174
 21
133.4580152153
  0
LWPOLYLINE
  5
50D
100
AcDbEntity
  8
ASSI
100
AcDbPolyline
 62
250
  6
CONTINUOUS
 90
16
 70
0
 10
146.1051937717
 20
137.4815868263
 10
146.0950649977
 20
137.4983718241
 10
146.0872181548
 20
137.5153801322
 10
146.0816532431
 20
137.5326117504
 10
146.0783530427
 20
137.5501718257
 10
146.0773347734
 20
137.5679552111
 10
146.0786500947
 20
137.5856464665
 10
146.0823600265
 20
137.6032605222
 10
146.0884035489
 20
137.6207824477
 10
146.0966492626
 20
137.6378520123
 10
146.10714393
 20
137.6544412393
 10
146.1198407886
 20
137.6705781053
 10
146.1344681517
 20
137.6859863094
 10
146.1509354571
 20
137.7005737513
 10
146.1693332669
 20
137.7144325312
 10
146.1896615812
 20
137.7275626492
  0
LWPOLYLINE
  5
50E
100
AcDbEntity
  8
RACCORDO
100
AcDbPolyline
 62
250
  6
CONTINUOUS
 90
10
 70
0
 10
146.3171851459
 20
140.6950437717
 10
146.3232395356
 20
140.6820185072
 10
146.3287257773
 20
140.6685182796
 10
146.3336191717
 20
140.6545373481
 10
146.3379067272
 20
140.6399643281
 10
146.3414995218
 20
140.6249027096
 10
146.3443274096
 20
140.6094036186
 10
146.3463309465
 20
140.593287742
 10
146.3473815439
 20
140.5765876147
 10
146.3473380032
 20
140.5595504046
  0
LWPOLYLINE
  5
50F
100
AcDbEntity
  8
RACCORDO
100
AcDbPolyline
 62
250
  6
CONTINUOUS
 90
10
 70
0
 10
151.2396147576
 20
137.1549623256
 10
151.2375003269
 20
137.1637393828
 10
151.2350848261
 20
137.1727242314
 10
151.2323591657
 20
137.1818987769
 10
151.2292956011
 20
137.1913037283
 10
151.2258798194
 20
137.2009241066
 10
151.2220989284
 20
137.2107414341
 10
151.2179191489
 20
137.220787662
 10
151.2133187821
 20
137.2310517894
 10
151.2082887267
 20
137.2414938599
  0
LWPOLYLINE
  5
510
100
AcDbEntity
  8
RACCORDO
100
AcDbPolyline
 62
250
  6
CONTINUOUS
 90
5
 70
0
 10
151.8794329148
 20
136.002939466
 10
151.8741237443
 20
136.0279881604
 10
151.8667714825
 20
136.0532115086
 10
151.8574421917
 20
136.0784589605
 10
151.8460210389
 20
136.103899665
  0
LINE
  5
511
100
AcDbEntity
  8
0
100
AcDbLine
 62
7
  6
CONTINUOUS
 10
158.4831367377
 20
129.1315459251
 11
158.4831367377
 21
128.8049262499
  0
LINE
  5
512
100
AcDbEntity
  8
0
100
AcDbLine
 62
7
  6
CONTINUOUS
 10
160.1801930125
 20
127.7434517628
 11
160.1801930125
 21
124.0685190472
  0
LINE
  5
513
100
AcDbEntity
  8
RACCORDO
100
AcDbLine
 62
250
  6
CONTINUOUS
 10
145.1759089395
 20
93.502235843
 11
144.2879681053
 21
92.9713340427
  0
LINE
  5
514
100
AcDbEntity
  8
RACCORDO
100
AcDbLine
 62
7
  6
CONTINUOUS
 10
145.1346752298
 20
93.4107960028
 11
144.2879681053
 21
92.9045479292
  0
LWPOLYLINE
  5
515
100
AcDbEntity
  8
ASSI
100
AcDbPolyline
 62
250
  6
CONTINUOUS
 90
12
 70
0
 10
143.2960440631
 20
140.3606606701
 10
143.2890092296
 20
140.3586677884
 10
143.2819086545
 20
140.3564836778
 10
143.2747450608
 20
140.3541075339
 10
143.2675573587
 20
140.3515516571
 10
143.260312545
 20
140.3488042922
 10
143.252904431
 20
140.3458202789
 10
143.2453258328
 20
140.3425862147
 10
143.2375883796
 20
140.3390972806
 10
143.2296129303
 20
140.3353065079
 10
143.2213749764
 20
140.3311852628
 10
143.2129052957
 20
140.3267303626
  0
LINE
  5
516
100
AcDbEntity
  8
RACCORDO
100
AcDbLine
 62
250
  6
CONTINUOUS
 10
137.841320407
 20
139.5754244998
 11
137.8843842812
 21
139.587440267
  0
LWPOLYLINE
  5
517
100
AcDbEntity
  8
ASSI
100
AcDbPolyline
 62
250
  6
CONTINUOUS
 90
13
 70
0
 10
143.6814651383
 20
140.1381233718
 10
143.6743245962
 20
140.1361677495
 10
143.6671408232
 20
140.1340152433
 10
143.6599167098
 20
140.1316658513
 10
143.6526946497
 20
140.1291341567
 10
143.6454384405
 20
140.1264078984
 10
143.6380318883
 20
140.123437701
 10
143.630464967
 20
140.1202096292
 10
143.6227520894
 20
140.1167191988
 10
143.6148124052
 20
140.1129153312
 10
143.6066208007
 20
140.1087675651
 10
143.598208591
 20
140.1042735799
 10
143.5895799722
 20
140.0994177497
  0
LINE
  5
518
100
AcDbEntity
  8
ASSI
100
AcDbLine
 62
250
  6
CONTINUOUS
 10
144.8085598006
 20
140.7736251082
 11
143.2960440631
 21
140.3606606701
  0
LINE
  5
519
100
AcDbEntity
  8
ASSI
100
AcDbLine
 62
7
  6
CONTINUOUS
 10
144.7192791481
 20
140.7876991714
 11
143.2067634106
 21
140.3747347333
  0
LWPOLYLINE
  5
51A
100
AcDbEntity
  8
ASSI
100
AcDbPolyline
 62
250
  6
CONTINUOUS
 90
13
 70
0
 10
143.7860901411
 20
139.8862627154
 10
143.7817799655
 20
139.8851024848
 10
143.7774492135
 20
139.8838231442
 10
143.7730978848
 20
139.8824246936
 10
143.7687481841
 20
139.8809187564
 10
143.7643779068
 20
139.8792937093
 10
143.7599204399
 20
139.8775146819
 10
143.755368539
 20
139.8755852494
 10
143.7507294484
 20
139.8735018366
 10
143.7459582888
 20
139.871218848
 10
143.7410401001
 20
139.868721085
 10
143.7359898423
 20
139.8660237462
 10
143.7308075154
 20
139.8631268315
  0
LINE
  5
51B
100
AcDbEntity
  8
ASSI
100
AcDbLine
 62
250
  6
CONTINUOUS
 10
144.8137200483
 20
140.774968999
 11
144.8085598006
 21
140.7736251082
  0
LINE
  5
51C
100
AcDbEntity
  8
RACCORDO
100
AcDbLine
 62
250
  6
CONTINUOUS
 10
146.3460760222
 20
140.5423598314
 11
143.7860901411
 21
139.8862627154
  0
LINE
  5
51D
100
AcDbEntity
  8
RACCORDO
100
AcDbLine
 62
250
  6
CONTINUOUS
 10
146.2321718854
 20
140.7918423445
 11
143.6814651383
 21
140.1381233718
  0
LWPOLYLINE
  5
51E
100
AcDbEntity
  8
ASSI
100
AcDbPolyline
 62
250
  6
CONTINUOUS
 90
6
 70
0
 10
146.5455858833
 20
138.4458692824
 10
146.5619922685
 20
138.4490494464
 10
146.5803633271
 20
138.4494838251
 10
146.5990413978
 20
138.4467734847
 10
146.6177271145
 20
138.4409618655
 10
146.6361209886
 20
138.4321421144
  0
LWPOLYLINE
  5
51F
100
AcDbEntity
  8
RACCORDO
100
AcDbPolyline
 62
250
  6
CONTINUOUS
 90
5
 70
0
 10
149.2931439306
 20
139.0244754486
 10
149.3077026286
 20
139.0270384232
 10
149.3213742003
 20
139.0267145132
 10
149.333869947
 20
139.0235105588
 10
149.3406741241
 20
139.0202417429
  0
LWPOLYLINE
  5
520
100
AcDbEntity
  8
RACCORDO
100
AcDbPolyline
 62
250
  6
CONTINUOUS
 90
5
 70
0
 10
149.1161825572
 20
139.1266507278
 10
149.1307412557
 20
139.1292137032
 10
149.1444128276
 20
139.1288897933
 10
149.156908574
 20
139.1256858383
 10
149.1636455142
 20
139.1224557296
  0
LWPOLYLINE
  5
521
100
AcDbEntity
  8
ASSI
100
AcDbPolyline
 62
250
  6
CONTINUOUS
 90
3
 70
0
 10
137.8740491482
 20
138.4451607633
 10
137.8820132811
 20
138.4461658362
 10
137.8895949205
 20
138.4468826444
  0
LWPOLYLINE
  5
522
100
AcDbEntity
  8
ASSI
100
AcDbPolyline
 62
250
  6
CONTINUOUS
 90
7
 70
0
 10
139.840878321
 20
138.5516562254
 10
139.8839442167
 20
138.5553730113
 10
139.9287501389
 20
138.5618874402
 10
139.975235042
 20
138.5713151762
 10
140.0232008079
 20
138.5837426184
 10
140.0726906832
 20
138.5992820845
 10
140.1240015384
 20
138.6181409744
  0
LWPOLYLINE
  5
523
100
AcDbEntity
  8
ASSI
100
AcDbPolyline
 62
250
  6
CONTINUOUS
 90
9
 70
0
 10
143.2368646492
 20
136.5908562812
 10
143.2714639066
 20
136.5936866312
 10
143.3060628318
 20
136.5982144904
 10
143.3405878563
 20
136.6043393219
 10
143.3745755689
 20
136.6118656172
 10
143.408348694
 20
136.6207526825
 10
143.4430547941
 20
136.6312949742
 10
143.4787925919
 20
136.6436084792
 10
143.5154066921
 20
136.6577109581
  0
LWPOLYLINE
  5
524
100
AcDbEntity
  8
ASSI
100
AcDbPolyline
 62
7
  6
CONTINUOUS
 90
7
 70
0
 10
137.8260975005
 20
138.4645372828
 10
137.8096067624
 20
138.4632401296
 10
137.7727800189
 20
138.4574915176
 10
137.7345606859
 20
138.4474428783
 10
137.6967254448
 20
138.4334380983
 10
137.6598440672
 20
138.4158738032
 10
137.6500722218
 20
138.4105629945
  0
LINE
  5
525
100
AcDbEntity
  8
ASSI
100
AcDbLine
 62
250
  6
CONTINUOUS
 10
137.8895949205
 20
138.4468826444
 11
137.8967986491
 21
138.4473399943
  0
LWPOLYLINE
  5
526
100
AcDbEntity
  8
ASSI
100
AcDbPolyline
 62
250
  6
CONTINUOUS
 90
16
 70
0
 10
141.7123864889
 20
136.0443349993
 10
141.7052358457
 20
136.043923669
 10
141.6982328076
 20
136.0432303269
 10
141.6913773748
 20
136.042254973
 10
141.6846612954
 20
136.0409699693
 10
141.6780928212
 20
136.0394029539
 10
141.6716967076
 20
136.0376368409
 10
141.6654751663
 20
136.0356746659
 10
141.6594259856
 20
136.0335133934
 10
141.6535672863
 20
136.031226831
 10
141.6479008062
 20
136.0288175883
 10
141.6424248075
 20
136.0262830558
 10
141.6371521976
 20
136.0236892116
 10
141.6320872792
 20
136.0210580486
 10
141.6272257496
 20
136.0183675739
 10
141.6225676089
 20
136.0156177877
  0
LWPOLYLINE
  5
527
100
AcDbEntity
  8
ASSI
100
AcDbPolyline
 62
250
  6
CONTINUOUS
 90
16
 70
0
 10
141.6288238456
 20
136.2925154191
 10
141.6170460686
 20
136.2918547005
 10
141.6054466861
 20
136.2906353649
 10
141.5940537608
 20
136.2889071879
 10
141.5828984748
 20
136.2867187442
 10
141.5719981986
 20
136.2841179969
 10
141.5613562409
 20
136.2811504881
 10
141.5509881209
 20
136.2778587425
 10
141.5409125527
 20
136.2742851358
 10
141.5311341783
 20
136.2704708107
 10
141.5216633251
 20
136.2664532918
 10
141.5125127267
 20
136.2622699014
 10
141.5036880861
 20
136.2579586973
 10
141.4951960136
 20
136.2535542378
 10
141.4870441336
 20
136.2490874812
 10
141.4792377179
 20
136.244588729
  0
LINE
  5
528
100
AcDbEntity
  8
ASSI
100
AcDbLine
 62
250
  6
CONTINUOUS
 10
141.730761917
 20
136.5089261054
 11
143.2368646492
 21
136.5908562812
  0
LINE
  5
529
100
AcDbEntity
  8
ASSI
100
AcDbLine
 62
7
  6
CONTINUOUS
 10
141.6594732777
 20
136.5260897395
 11
143.1662337041
 21
136.6080574797
  0
LINE
  5
52A
100
AcDbEntity
  8
ASSI
100
AcDbLine
 62
250
  6
CONTINUOUS
 10
137.8967986491
 20
138.4473399943
 11
139.8409154724
 21
138.5516347746
  0
LINE
  5
52B
100
AcDbEntity
  8
ASSI
100
AcDbLine
 62
7
  6
CONTINUOUS
 10
137.8260975003
 20
138.4645372828
 11
139.7704293769
 21
138.5688438001
  0
LWPOLYLINE
  5
52C
100
AcDbEntity
  8
ASSI
100
AcDbPolyline
 62
250
  6
CONTINUOUS
 90
16
 70
0
 10
138.6880867643
 20
138.2657286049
 10
138.6509044047
 20
138.2638538527
 10
138.6171983644
 20
138.2606667294
 10
138.5869686435
 20
138.256167235
 10
138.5602965001
 20
138.2503154665
 10
138.5371006761
 20
138.2431513269
 10
138.5171373968
 20
138.2347945253
 10
138.500275047
 20
138.2253293991
 10
138.4866452419
 20
138.2146716109
 10
138.4763990525
 20
138.2026878573
 10
138.4694033673
 20
138.1892801025
 10
138.4657912977
 20
138.1745463821
 10
138.4661132495
 20
138.1586474996
 10
138.4705526911
 20
138.1416370558
 10
138.478926154
 20
138.1234614498
 10
138.4912336382
 20
138.1041206816
  0
LWPOLYLINE
  5
52D
100
AcDbEntity
  8
ASSI
100
AcDbPolyline
 62
250
  6
CONTINUOUS
 90
10
 70
0
 10
141.4791680799
 20
137.9713653527
 10
141.4644840301
 20
137.970645495
 10
141.449268011
 20
137.9689701719
 10
141.4335334554
 20
137.9662849516
 10
141.4173771557
 20
137.9625620755
 10
141.400743591
 20
137.9577351193
 10
141.3834157679
 20
137.9516479588
 10
141.3653376017
 20
137.9441656876
 10
141.3466240813
 20
137.9352272481
 10
141.3273195351
 20
137.924744954
  0
LWPOLYLINE
  5
52E
100
AcDbEntity
  8
ASSI
100
AcDbPolyline
 62
250
  6
CONTINUOUS
 90
10
 70
0
 10
141.3977077844
 20
138.2268657494
 10
141.3772952298
 20
138.2258739515
 10
141.3561669626
 20
138.2234061621
 10
141.334322983
 20
138.219462381
 10
141.3118424447
 20
138.2141821636
 10
141.2886461938
 20
138.2074259547
 10
141.2644967692
 20
138.1987750877
 10
141.2393150172
 20
138.1880900073
 10
141.2131800914
 20
138.1755102688
 10
141.1860919919
 20
138.1610358722
  0
LWPOLYLINE
  5
52F
100
AcDbEntity
  8
ASSI
100
AcDbPolyline
 62
7
  6
CONTINUOUS
 90
13
 70
0
 10
141.6594732776
 20
136.5260897395
 10
141.6305126
 20
136.5251982054
 10
141.591484102
 20
136.5257040053
 10
141.5482783971
 20
136.5280672744
 10
141.5015764191
 20
136.5323671059
 10
141.4521934195
 20
136.5385834932
 10
141.4005718569
 20
136.5467000156
 10
141.3471122633
 20
136.5566894197
 10
141.2923548138
 20
136.5684772947
 10
141.2367820498
 20
136.5819855008
 10
141.1808750756
 20
136.5971139698
 10
141.1250482448
 20
136.6137701677
 10
141.0698749218
 20
136.6318062367
  0
LINE
  5
530
100
AcDbEntity
  8
ASSI
100
AcDbLine
 62
250
  6
CONTINUOUS
 10
141.6884855468
 20
136.5078592727
 11
141.730761917
 21
136.5089261054
  0
LINE
  5
531
100
AcDbEntity
  8
ASSI
100
AcDbLine
 62
250
  6
CONTINUOUS
 10
143.4303208113
 20
136.0871802848
 11
141.7123864889
 21
136.0443349993
  0
LINE
  5
532
100
AcDbEntity
  8
ASSI
100
AcDbLine
 62
250
  6
CONTINUOUS
 10
143.6655954219
 20
136.3433125063
 11
141.6288238456
 21
136.2925154191
  0
LINE
  5
533
100
AcDbEntity
  8
ASSI
100
AcDbLine
 62
250
  6
CONTINUOUS
 10
142.4938121394
 20
137.9959766155
 11
141.4791680799
 21
137.9713653527
  0
LINE
  5
534
100
AcDbEntity
  8
ASSI
100
AcDbLine
 62
250
  6
CONTINUOUS
 10
140.3511065406
 20
138.0485906031
 11
138.7695470598
 21
138.0102282082
  0
LINE
  5
535
100
AcDbEntity
  8
ASSI
100
AcDbLine
 62
250
  6
CONTINUOUS
 10
142.6776729126
 20
138.2579126548
 11
141.3977077844
 21
138.2268657494
  0
LINE
  5
536
100
AcDbEntity
  8
ASSI
100
AcDbLine
 62
250
  6
CONTINUOUS
 10
140.2696462452
 20
138.3040909997
 11
138.6880867643
 21
138.2657286049
  0
LWPOLYLINE
  5
537
100
AcDbEntity
  8
ASSI
100
AcDbPolyline
 62
250
  6
CONTINUOUS
 90
5
 70
0
 10
141.6601309722
 20
136.5261273039
 10
141.6728718894
 20
136.5261528256
 10
141.6926206796
 20
136.5235521256
 10
141.7120214311
 20
136.5177789151
 10
141.730761917
 20
136.5089261054
  0
LWPOLYLINE
  5
538
100
AcDbEntity
  8
ASSI
100
AcDbPolyline
 62
250
  6
CONTINUOUS
 90
5
 70
0
 10
143.1663739647
 20
136.6080650285
 10
143.1789758673
 20
136.6080829387
 10
143.1987242995
 20
136.6054821115
 10
143.2181246274
 20
136.5997089129
 10
143.2368646492
 20
136.5908562812
  0
LWPOLYLINE
  5
539
100
AcDbEntity
  8
ASSI
100
AcDbPolyline
 62
250
  6
CONTINUOUS
 90
5
 70
0
 10
137.8263175349
 20
138.464549287
 10
137.8404787767
 20
138.4644832654
 10
137.8596944922
 20
138.4617485705
 10
137.8785638965
 20
138.4560048906
 10
137.8967986491
 20
138.4473399943
  0
LWPOLYLINE
  5
53A
100
AcDbEntity
  8
ASSI
100
AcDbPolyline
 62
250
  6
CONTINUOUS
 90
6
 70
0
 10
138.6760949524
 20
138.0235012829
 10
138.6590377757
 20
138.0239584799
 10
138.6442521438
 20
138.0232504585
 10
138.6318027489
 20
138.0215137141
 10
138.6216930314
 20
138.0188012882
 10
138.6142746942
 20
138.0150504368
  0
LWPOLYLINE
  5
53B
100
AcDbEntity
  8
ASSI
100
AcDbPolyline
 62
250
  6
CONTINUOUS
 90
3
 70
0
 10
141.5998309727
 20
136.5106484266
 10
141.6448418987
 20
136.5084333797
 10
141.6884855468
 20
136.5078592727
  0
LWPOLYLINE
  5
53C
100
AcDbEntity
  8
ASSI
100
AcDbPolyline
 62
7
  6
CONTINUOUS
 90
10
 70
0
 10
145.7561127939
 20
135.8491628975
 10
145.7345990609
 20
135.8504089694
 10
145.7134684594
 20
135.8504198683
 10
145.6927209895
 20
135.8491955942
 10
145.6721193834
 20
135.8466866557
 10
145.6519009089
 20
135.8429425441
 10
145.6327773691
 20
135.8381117343
 10
145.6149860316
 20
135.832243718
 10
145.5982896289
 20
135.8252890034
 10
145.5826881608
 20
135.8172475906
  0
LWPOLYLINE
  5
53D
100
AcDbEntity
  8
ASSI
100
AcDbPolyline
 62
250
  6
CONTINUOUS
 90
24
 70
0
 10
145.7538714671
 20
137.2501994352
 10
145.7817168669
 20
137.2469992927
 10
145.8097175468
 20
137.2453495886
 10
145.8381298628
 20
137.2452623148
 10
145.8666974588
 20
137.2467254793
 10
145.894651267
 20
137.2497031068
 10
145.921969708
 20
137.2542345199
 10
145.9486743611
 20
137.2602803959
 10
145.9740608975
 20
137.2676867907
 10
145.9981022822
 20
137.2764927949
 10
146.0208255501
 20
137.2866593179
 10
146.0416074775
 20
137.2979151435
 10
146.0603939338
 20
137.3102932926
 10
146.0772390498
 20
137.3237607444
 10
146.0916819931
 20
137.3379472198
 10
146.1036515803
 20
137.3528690566
 10
146.113218995
 20
137.368509917
 10
146.1201369559
 20
137.3844505084
 10
146.1243348085
 20
137.4006978442
 10
146.1258832074
 20
137.417244911
 10
146.1247468349
 20
137.4336513759
 10
146.1209139185
 20
137.4497704613
 10
146.1143962308
 20
137.4657489448
 10
146.1051937717
 20
137.4815868263
  0
LWPOLYLINE
  5
53E
100
AcDbEntity
  8
ASSI
100
AcDbPolyline
 62
250
  6
CONTINUOUS
 90
16
 70
0
 10
141.486172183
 20
135.93405578
 10
141.4724091104
 20
135.9357186294
 10
141.4572752798
 20
135.9380587167
 10
141.4409307985
 20
135.9410512854
 10
141.4235482539
 20
135.9446647481
 10
141.4053118411
 20
135.9488608263
 10
141.3864155568
 20
135.9535948509
 10
141.3670601208
 20
135.9588164543
 10
141.3474496168
 20
135.9644704997
 10
141.3277903506
 20
135.9704974772
 10
141.3082825467
 20
135.9768362185
 10
141.2891404924
 20
135.9834173113
 10
141.2705874656
 20
135.9901633689
 10
141.2528236996
 20
135.9970000851
 10
141.2360261694
 20
136.003857786
 10
141.2203678048
 20
136.0106644598
  0
LWPOLYLINE
  5
53F
100
AcDbEntity
  8
ASSI
100
AcDbPolyline
 62
250
  6
CONTINUOUS
 90
13
 70
0
 10
141.2147871889
 20
135.0604259387
 10
141.1973775258
 20
135.0626090555
 10
141.1778905936
 20
135.0658396085
 10
141.1566478602
 20
135.0700643052
 10
141.1339997585
 20
135.0752134532
 10
141.1103199064
 20
135.0812021091
 10
141.0859989437
 20
135.0879314803
 10
141.0614380856
 20
135.0952905548
 10
141.0370425058
 20
135.1031579326
 10
141.0132146535
 20
135.1114038272
 10
140.9903476114
 20
135.1198922083
 10
140.9688186108
 20
135.1284830457
 10
140.9489828107
 20
135.1370346185
  0
LWPOLYLINE
  5
540
100
AcDbEntity
  8
ASSI
100
AcDbPolyline
 62
250
  6
CONTINUOUS
 90
4
 70
0
 10
141.0418339983
 20
136.6415988171
 10
141.0412206865
 20
136.6416851976
 10
141.038297146
 20
136.6401553625
 10
141.0343888567
 20
136.6357347317
  0
LWPOLYLINE
  5
541
100
AcDbEntity
  8
ASSI
100
AcDbPolyline
 62
250
  6
CONTINUOUS
 90
24
 70
0
 10
145.6597006826
 20
136.9827456381
 10
145.7001314447
 20
136.9756110457
 10
145.7414615568
 20
136.9704740325
 10
145.7833955364
 20
136.9673713258
 10
145.825633584
 20
136.9663251091
 10
145.8678737248
 20
136.967342863
 10
145.9098139674
 20
136.9704173124
 10
145.9511544717
 20
136.9755264783
 10
145.9915996742
 20
136.9826338342
 10
146.0308604005
 20
136.9916885633
 10
146.0686559525
 20
137.0026259252
 10
146.10471613
 20
137.0153677255
 10
146.1387831433
 20
137.029822874
 10
146.1706134361
 20
137.0458880276
 10
146.1999794404
 20
137.063448331
 10
146.2266712151
 20
137.0823782462
 10
146.2504979384
 20
137.1025424483
 10
146.2712892469
 20
137.123796769
 10
146.2888964739
 20
137.1459892295
 10
146.3031937398
 20
137.1689611559
 10
146.3140788437
 20
137.1925483221
 10
146.3214739725
 20
137.2165821002
 10
146.3253262578
 20
137.2408906322
 10
146.3259253544
 20
137.2550187934
  0
LWPOLYLINE
  5
542
100
AcDbEntity
  8
ASSI
100
AcDbPolyline
 62
250
  6
CONTINUOUS
 90
27
 70
0
 10
143.7567147653
 20
136.1506865994
 10
143.749210177
 20
136.1521192383
 10
143.7417445876
 20
136.1533426325
 10
143.7343213721
 20
136.154356535
 10
143.7269930323
 20
136.1551535287
 10
143.7197123529
 20
136.1557407502
 10
143.7123321532
 20
136.1561398807
 10
143.7048187622
 20
136.1563615434
 10
143.6972078964
 20
136.1563950577
 10
143.6894556697
 20
136.1562301829
 10
143.6815628051
 20
136.1558695388
 10
143.6735282821
 20
136.1553105118
 10
143.6653049082
 20
136.1545350284
 10
143.6568855602
 20
136.1535431629
 10
143.648274116
 20
136.1523349479
 10
143.6394388563
 20
136.1508923023
 10
143.6303704029
 20
136.1492119024
 10
143.6210711433
 20
136.1472975292
 10
143.6115257762
 20
136.1451419145
 10
143.601727809
 20
136.1427406
 10
143.5916727282
 20
136.1400993716
 10
143.5813473273
 20
136.1372266197
 10
143.5707486423
 20
136.1341194498
 10
143.5598654076
 20
136.1307836401
 10
143.548672027
 20
136.1272409595
 10
143.5371704492
 20
136.1234929434
 10
143.5131353647
 20
136.1154163736
  0
LWPOLYLINE
  5
543
100
AcDbEntity
  8
ASSI
100
AcDbPolyline
 62
250
  6
CONTINUOUS
 90
5
 70
0
 10
138.7695470598
 20
138.0102282082
 10
138.7424079753
 20
138.0155383504
 10
138.7177621882
 20
138.0194191658
 10
138.6956313423
 20
138.0220051739
 10
138.6760949524
 20
138.0235012829
  0
LWPOLYLINE
  5
544
100
AcDbEntity
  8
ASSI
100
AcDbPolyline
 62
250
  6
CONTINUOUS
 90
21
 70
0
 10
143.7719443343
 20
136.0038935705
 10
143.7684489363
 20
136.0046208562
 10
143.7649777487
 20
136.0050789955
 10
143.7615548036
 20
136.0052858984
 10
143.7581645445
 20
136.0052433851
 10
143.7547419972
 20
136.0049337101
 10
143.7512552362
 20
136.0043727796
 10
143.7477203662
 20
136.0035569981
 10
143.7441298427
 20
136.002437541
 10
143.7404647006
 20
136.0010311691
 10
143.7367155886
 20
135.9993376366
 10
143.7328761889
 20
135.9972862732
 10
143.7289140794
 20
135.9948961866
 10
143.7248131886
 20
135.9921720561
 10
143.7205736811
 20
135.9890283908
 10
143.7161492451
 20
135.9854873349
 10
143.7115103606
 20
135.9815630547
 10
143.706659132
 20
135.9771679818
 10
143.7015327725
 20
135.9723300559
 10
143.6960826437
 20
135.9670750367
 10
143.6841067246
 20
135.9551109241
  0
LINE
  5
545
100
AcDbEntity
  8
ASSI
100
AcDbLine
 62
250
  6
CONTINUOUS
 10
140.99151764
 20
136.6474126064
 11
141.0343888565
 21
136.6357347318
  0
LWPOLYLINE
  5
546
100
AcDbEntity
  8
ASSI
100
AcDbPolyline
 62
250
  6
CONTINUOUS
 90
3
 70
0
 10
140.8688375326
 20
136.6804323194
 10
140.9087565553
 20
136.6691987782
 10
140.99151764
 20
136.6474126064
  0
LINE
  5
547
100
AcDbEntity
  8
ASSI
100
AcDbLine
 62
250
  6
CONTINUOUS
 10
143.7754596504
 20
136.002887566
 11
143.7719443343
 21
136.0038935705
  0
LWPOLYLINE
  5
548
100
AcDbEntity
  8
ASSI
100
AcDbPolyline
 62
250
  6
CONTINUOUS
 90
11
 70
0
 10
141.1238661921
 20
136.605753482
 10
141.1696543168
 20
136.5919356846
 10
141.2162339659
 20
136.5788371528
 10
141.2635132528
 20
136.5665205059
 10
141.3112165184
 20
136.555173602
 10
141.3594725194
 20
136.5447547668
 10
141.4081524989
 20
136.5353056745
 10
141.456594527
 20
136.5271392062
 10
141.5049544025
 20
136.5202402171
 10
141.5530763265
 20
136.5146238519
 10
141.5998309727
 20
136.5106484266
  0
LINE
  5
549
100
AcDbEntity
  8
LAY0001
100
AcDbLine
 62
7
  6
CONTINUOUS
 10
133.9572509482
 20
137.5841517054
 11
133.4552780109
 21
137.7465133265
  0
LINE
  5
54A
100
AcDbEntity
  8
ASSI
100
AcDbLine
 62
250
  6
CONTINUOUS
 10
141.0787777053
 20
136.6203531644
 11
141.1238661921
 21
136.605753482
  0
LWPOLYLINE
  5
54B
100
AcDbEntity
  8
ASSI
100
AcDbPolyline
 62
250
  6
CONTINUOUS
 90
3
 70
0
 10
140.7942141118
 20
136.7047336084
 10
140.8302750825
 20
136.6923190635
 10
140.8688375326
 20
136.6804323194
  0
LINE
  5
54C
100
AcDbEntity
  8
ASSI
100
AcDbLine
 62
250
  6
CONTINUOUS
 10
141.0343888565
 20
136.6357347318
 11
141.0787777053
 21
136.6203531644
  0
LINE
  5
54D
100
AcDbEntity
  8
ASSI
100
AcDbLine
 62
7
  6
CONTINUOUS
 10
141.0698749218
 20
136.6318062367
 11
140.9754171006
 21
136.664893086
  0
LWPOLYLINE
  5
54E
100
AcDbEntity
  8
ASSI
100
AcDbPolyline
 62
7
  6
CONTINUOUS
 90
8
 70
0
 10
140.9754171006
 20
136.664893086
 10
140.9406878135
 20
136.677196149
 10
140.9079824528
 20
136.6892917212
 10
140.8774174122
 20
136.7013058596
 10
140.8489150894
 20
136.7134020865
 10
140.8228414545
 20
136.7255078605
 10
140.7992683261
 20
136.7375219105
 10
140.7824895478
 20
136.746836464
  0
LWPOLYLINE
  5
54F
100
AcDbEntity
  8
ASSI
100
AcDbPolyline
 62
250
  6
CONTINUOUS
 90
8
 70
0
 10
133.5163657729
 20
139.2792772179
 10
133.5050811911
 20
139.283528218
 10
133.4928931546
 20
139.2858529985
 10
133.4799322522
 20
139.2862266377
 10
133.4663373708
 20
139.2846451259
 10
133.4522541791
 20
139.2811254095
 10
133.437833563
 20
139.2757051988
 10
133.4232300311
 20
139.2684425672
  0
LWPOLYLINE
  5
550
100
AcDbEntity
  8
RACCORDO
100
AcDbPolyline
 62
250
  6
CONTINUOUS
 90
7
 70
0
 10
146.9065398344
 20
134.6334784657
 10
146.8971437732
 20
134.6376426146
 10
146.8858193128
 20
134.6400490619
 10
146.8735894138
 20
134.6401703123
 10
146.8606587122
 20
134.638004341
 10
146.8472435536
 20
134.6335874038
 10
146.8335683923
 20
134.6269934201
  0
LWPOLYLINE
  5
551
100
AcDbEntity
  8
RACCORDO
100
AcDbPolyline
 62
250
  6
CONTINUOUS
 90
7
 70
0
 10
139.3442905694
 20
138.9998268955
 10
139.3347641477
 20
139.004065784
 10
139.323440365
 20
139.0064718035
 10
139.3112115611
 20
139.0065924041
 10
139.2982823639
 20
139.0044255716
 10
139.2848691257
 20
139.0000075591
 10
139.2711962986
 20
138.9934122882
  0
LWPOLYLINE
  5
552
100
AcDbEntity
  8
RACCORDO
100
AcDbPolyline
 62
250
  6
CONTINUOUS
 90
7
 70
0
 10
138.5253012499
 20
139.4727011108
 10
138.5157198813
 20
139.4769717192
 10
138.504395812
 20
139.4793779392
 10
138.4921665346
 20
139.4794988328
 10
138.4792366777
 20
139.4773323771
 10
138.4658225926
 20
139.4729148228
 10
138.4521487331
 20
139.4663200875
  0
LWPOLYLINE
  5
553
100
AcDbEntity
  8
ASSI
100
AcDbPolyline
 62
250
  6
CONTINUOUS
 90
7
 70
0
 10
140.7824064845
 20
136.7468845035
 10
140.7752054928
 20
136.7504824002
 10
140.7623870664
 20
136.754532059
 10
140.7485181862
 20
136.7562066028
 10
140.7337809882
 20
136.7554840322
 10
140.7183690181
 20
136.752373829
 10
140.7024846822
 20
136.7469168326
  0
LWPOLYLINE
  5
554
100
AcDbEntity
  8
ASSI
100
AcDbPolyline
 62
250
  6
CONTINUOUS
 90
7
 70
0
 10
138.7046376667
 20
137.9465621783
 10
138.6974365611
 20
137.9501601244
 10
138.6846181025
 20
137.954209774
 10
138.6707491934
 20
137.9558843131
 10
138.6560119749
 20
137.9551617499
 10
138.6405999916
 20
137.9520515739
 10
138.6247156499
 20
137.9465946313
  0
LWPOLYLINE
  5
555
100
AcDbEntity
  8
ASSI
100
AcDbPolyline
 62
250
  6
CONTINUOUS
 90
4
 70
0
 10
140.7024843082
 20
136.7469170485
 10
140.7304782845
 20
136.7318162897
 10
140.7610593751
 20
136.7177899355
 10
140.7942141118
 20
136.7047336084
  0
LWPOLYLINE
  5
556
100
AcDbEntity
  8
RACCORDO
100
AcDbPolyline
 62
250
  6
CONTINUOUS
 90
3
 70
0
 10
139.2945404446
 20
138.9803362122
 10
139.2866770167
 20
138.9846189791
 10
139.2788956347
 20
138.9889776711
  0
LWPOLYLINE
  5
557
100
AcDbEntity
  8
RACCORDO
100
AcDbPolyline
 62
7
  6
CONTINUOUS
 90
13
 70
0
 10
138.5253153197
 20
139.4726929841
 10
138.4705279584
 20
139.5025839616
 10
138.4021642419
 20
139.5350313944
 10
138.334033564
 20
139.5619959634
 10
138.2662796931
 20
139.5833870173
 10
138.1992365342
 20
139.5990808919
 10
138.1334441475
 20
139.6089857407
 10
138.0690552144
 20
139.6131261943
 10
138.0063426015
 20
139.6115331222
 10
137.9460326529
 20
139.6043357788
 10
137.8885153319
 20
139.5917920867
 10
137.8338508283
 20
139.5741540596
 10
137.8088775637
 20
139.5640412713
  0
LINE
  5
558
100
AcDbEntity
  8
ASSI
100
AcDbLine
 62
7
  6
CONTINUOUS
 10
144.3799046322
 20
134.0316850795
 11
143.5596354754
 21
134.5052982102
  0
LINE
  5
559
100
AcDbEntity
  8
ASSI
100
AcDbLine
 62
250
  6
CONTINUOUS
 10
137.483813611
 20
138.1681040213
 11
141.2203678048
 21
136.0106644598
  0
LINE
  5
55A
100
AcDbEntity
  8
ASSI
100
AcDbLine
 62
250
  6
CONTINUOUS
 10
137.6062880981
 20
138.3204662829
 11
141.3428422919
 21
136.1630267214
  0
LINE
  5
55B
100
AcDbEntity
  8
ASSI
100
AcDbLine
 62
250
  6
CONTINUOUS
 10
143.8875633217
 20
134.8513179035
 11
144.0051253929
 21
134.783439037
  0
LINE
  5
55C
100
AcDbEntity
  8
ASSI
100
AcDbLine
 62
250
  6
CONTINUOUS
 10
141.4792377179
 20
136.244588729
 11
137.7475485381
 21
138.3992192924
  0
LINE
  5
55D
100
AcDbEntity
  8
ASSI
100
AcDbLine
 62
250
  6
CONTINUOUS
 10
138.6247156499
 20
137.9465946313
 11
140.7024843082
 21
136.7469170485
  0
LINE
  5
55E
100
AcDbEntity
  8
ASSI
100
AcDbLine
 62
7
  6
CONTINUOUS
 10
138.7046376667
 20
137.9465621783
 11
140.7824064845
 21
136.7468845035
  0
LINE
  5
55F
100
AcDbEntity
  8
ASSI
100
AcDbLine
 62
250
  6
CONTINUOUS
 10
141.6288238456
 20
136.2925154191
 11
141.0343888565
 21
136.6357347318
  0
LINE
  5
560
100
AcDbEntity
  8
ASSI
100
AcDbLine
 62
250
  6
CONTINUOUS
 10
138.4912336382
 20
138.1041206816
 11
137.8967986491
 21
138.4473399943
  0
LINE
  5
561
100
AcDbEntity
  8
ASSI
100
AcDbLine
 62
7
  6
CONTINUOUS
 10
137.6318397076
 20
139.0152136425
 11
138.5210113538
 21
138.5018170779
  0
LINE
  5
562
100
AcDbEntity
  8
ASSI
100
AcDbLine
 62
7
  6
CONTINUOUS
 10
144.3748147157
 20
135.1219043821
 11
146.8428771721
 21
133.6968760519
  0
LINE
  5
563
100
AcDbEntity
  8
ASSI
100
AcDbLine
 62
250
  6
CONTINUOUS
 10
143.6655954219
 20
136.3433125063
 11
143.2368646492
 21
136.5908562812
  0
LINE
  5
564
100
AcDbEntity
  8
ASSI
100
AcDbLine
 62
250
  6
CONTINUOUS
 10
140.2696462452
 20
138.3040909997
 11
139.8409154724
 21
138.5516347746
  0
LINE
  5
565
100
AcDbEntity
  8
RACCORDO
100
AcDbLine
 62
250
  6
CONTINUOUS
 10
138.4521487331
 20
139.4663200875
 11
139.2788956347
 21
138.9889776711
  0
LINE
  5
566
100
AcDbEntity
  8
RACCORDO
100
AcDbLine
 62
7
  6
CONTINUOUS
 10
147.7257684744
 20
134.1604666443
 11
146.9067252462
 21
134.6333719393
  0
LINE
  5
567
100
AcDbEntity
  8
RACCORDO
100
AcDbLine
 62
7
  6
CONTINUOUS
 10
138.5253012499
 20
139.4727011108
 11
139.3443455826
 21
138.9997951782
  0
LINE
  5
568
100
AcDbEntity
  8
ASSI
100
AcDbLine
 62
250
  6
CONTINUOUS
 10
143.4658671566
 20
136.6899743596
 11
141.3273195351
 21
137.924744954
  0
LINE
  5
569
100
AcDbEntity
  8
ASSI
100
AcDbLine
 62
250
  6
CONTINUOUS
 10
143.583760181
 20
136.7562002503
 11
141.4791680799
 21
137.9713653527
  0
LINE
  5
56A
100
AcDbEntity
  8
ASSI
100
AcDbLine
 62
250
  6
CONTINUOUS
 10
144.1148018274
 20
136.4868338939
 11
143.6792165456
 21
136.7383353765
  0
LINE
  5
56B
100
AcDbEntity
  8
ASSI
100
AcDbLine
 62
250
  6
CONTINUOUS
 10
140.723803065
 20
138.4447540801
 11
140.2882177832
 21
138.6962555627
  0
LINE
  5
56C
100
AcDbEntity
  8
ASSI
100
AcDbLine
 62
7
  6
CONTINUOUS
 10
144.1170107897
 20
137.0587620583
 11
142.4938121394
 21
137.9959766155
  0
LINE
  5
56D
100
AcDbEntity
  8
0
100
AcDbLine
 62
7
  6
CONTINUOUS
 10
158.4831367373
 20
129.1315459254
 11
150.0676495165
 21
133.9905427758
  0
LINE
  5
56E
100
AcDbEntity
  8
0
100
AcDbLine
 62
7
  6
CONTINUOUS
 10
158.7659794506
 20
128.9682360875
 11
159.8266396219
 21
128.3558241978
  0
LINE
  5
56F
100
AcDbEntity
  8
RACCORDO
100
AcDbLine
 62
250
  6
CONTINUOUS
 10
147.6526159579
 20
134.1540856208
 11
146.8258789895
 21
134.631444467
  0
LWPOLYLINE
  5
570
100
AcDbEntity
  8
RACCORDO
100
AcDbPolyline
 62
7
  6
CONTINUOUS
 90
6
 70
0
 10
146.9065400833
 20
134.633478898
 10
146.9021034053
 20
134.6360844438
 10
146.8920251365
 20
134.6423947507
 10
146.8844345425
 20
134.6476609629
 10
146.8790651851
 20
134.6518318921
 10
146.8758388159
 20
134.6546698061
  0
LWPOLYLINE
  5
571
100
AcDbEntity
  8
ASSI
100
AcDbPolyline
 62
7
  6
CONTINUOUS
 90
10
 70
0
 10
138.7046760777
 20
137.9465399832
 10
138.6932348516
 20
137.9533350728
 10
138.6692513874
 20
137.9689389068
 10
138.6494613707
 20
137.9835053607
 10
138.633342892
 20
137.9968588506
 10
138.6200333419
 20
138.0091475823
 10
138.6092144905
 20
138.020237357
 10
138.6008255465
 20
138.0297415181
 10
138.5946146734
 20
138.0374391988
 10
138.592392465
 20
138.0403722645
  0
LWPOLYLINE
  5
572
100
AcDbEntity
  8
RACCORDO
100
AcDbPolyline
 62
250
  6
CONTINUOUS
 90
48
 70
0
 10
146.8258789895
 20
134.631444467
 10
146.8183316868
 20
134.6359362662
 10
146.8109264844
 20
134.6404688175
 10
146.8036789056
 20
134.6450155075
 10
146.7965734272
 20
134.6496029497
 10
146.789563479
 20
134.654310985
 10
146.7826378663
 20
134.6591412927
 10
146.7758077839
 20
134.6640921937
 10
146.7690602464
 20
134.669238491
 10
146.7623638465
 20
134.6746000424
 10
146.7557499916
 20
134.6801569902
 10
146.7492999181
 20
134.6859245647
 10
146.742994162
 20
134.6919298573
 10
146.7368521873
 20
134.6981457767
 10
146.7310136231
 20
134.7045062791
 10
146.7254891623
 20
134.7110268104
 10
146.7202681119
 20
134.7176919249
 10
146.7154580218
 20
134.7243892408
 10
146.7110934794
 20
134.7310920862
 10
146.7071398973
 20
134.7378271332
 10
146.7036010633
 20
134.7445620167
 10
146.7004812235
 20
134.7512940674
 10
146.6977761318
 20
134.7580259547
 10
146.6954768379
 20
134.7647333222
 10
146.693584628
 20
134.7714160147
 10
146.692098216
 20
134.7780741873
 10
146.6910047934
 20
134.7846839489
 10
146.6903045449
 20
134.79124208
 10
146.6899972858
 20
134.7977517999
 10
146.6900696532
 20
134.8041988761
 10
146.6905184195
 20
134.8105797225
 10
146.6913468123
 20
134.8168979251
 10
146.6925511518
 20
134.8231500088
 10
146.6941254617
 20
134.8293353241
 10
146.6960757183
 20
134.8354545205
 10
146.6984161707
 20
134.8415060712
 10
146.7011432764
 20
134.8474959687
 10
146.7042605779
 20
134.8534182206
 10
146.7077929523
 20
134.8592533233
 10
146.7117388701
 20
134.8650057817
 10
146.7160998608
 20
134.8706710907
 10
146.7209053903
 20
134.8762162322
 10
146.7261628446
 20
134.8816478008
 10
146.7318648376
 20
134.8869592019
 10
146.7380186767
 20
134.892097633
 10
146.7446267978
 20
134.8970454935
 10
146.7516867649
 20
134.9018203841
 10
146.7591985782
 20
134.9064223048
  0
LINE
  5
573
100
AcDbEntity
  8
RACCORDO
100
AcDbLine
 62
250
  6
CONTINUOUS
 10
147.7006957937
 20
134.1250026055
 11
147.6526159579
 21
134.1540856208
  0
LINE
  5
574
100
AcDbEntity
  8
ASSI
100
AcDbLine
 62
250
  6
CONTINUOUS
 10
138.5972608928
 20
137.9640293676
 11
138.6247156499
 21
137.9465946313
  0
LINE
  5
575
100
AcDbEntity
  8
RACCORDO
100
AcDbLine
 62
250
  6
CONTINUOUS
 10
147.7505886543
 20
134.0919705074
 11
147.7006957937
 21
134.1250026055
  0
LWPOLYLINE
  5
576
100
AcDbEntity
  8
ASSI
100
AcDbPolyline
 62
250
  6
CONTINUOUS
 90
10
 70
0
 10
143.8599296237
 20
136.1055462968
 10
143.8497090171
 20
136.1131825426
 10
143.8389575969
 20
136.1202040085
 10
143.8277519544
 20
136.1265646836
 10
143.8160593131
 20
136.1321883546
 10
143.8040414693
 20
136.1371004975
 10
143.7920422008
 20
136.1414119328
 10
143.7801896462
 20
136.1451437046
 10
143.768408437
 20
136.1482398335
 10
143.7567153827
 20
136.1506903991
  0
LWPOLYLINE
  5
577
100
AcDbEntity
  8
RACCORDO
100
AcDbPolyline
 62
250
  6
CONTINUOUS
 90
5
 70
0
 10
146.2887635435
 20
140.740677302
 10
146.2963738751
 20
140.730320983
 10
146.3036894065
 20
140.7192391452
 10
146.3106432852
 20
140.7074744863
 10
146.3171851459
 20
140.6950437717
  0
LWPOLYLINE
  5
578
100
AcDbEntity
  8
ASSI
100
AcDbPolyline
 62
250
  6
CONTINUOUS
 90
12
 70
0
 10
146.2706087945
 20
137.4307108096
 10
146.2664298253
 20
137.4364701333
 10
146.2558160522
 20
137.4484001876
 10
146.243552032
 20
137.4589047554
 10
146.2297721339
 20
137.4678687436
 10
146.2146273333
 20
137.4751939411
 10
146.1982835606
 20
137.4808000912
 10
146.1809198805
 20
137.4846257724
 10
146.1627265299
 20
137.4866290696
 10
146.1439028375
 20
137.4867880335
 10
146.12465504
 20
137.4851009213
 10
146.1051940204
 20
137.4815862166
  0
LWPOLYLINE
  5
579
100
AcDbEntity
  8
RACCORDO
100
AcDbPolyline
 62
250
  6
CONTINUOUS
 90
7
 70
0
 10
151.2082887267
 20
137.2414938599
 10
151.2028103784
 20
137.2520967206
 10
151.1968586783
 20
137.2628488447
 10
151.1904355354
 20
137.2736883203
 10
151.1835698723
 20
137.2845195002
 10
151.1762519405
 20
137.295314734
 10
151.168493604
 20
137.306013917
  0
LWPOLYLINE
  5
57A
100
AcDbEntity
  8
RACCORDO
100
AcDbPolyline
 62
250
  6
CONTINUOUS
 90
4
 70
0
 10
149.413877574
 20
138.8926452052
 10
149.4089090596
 20
138.9044449625
 10
149.4032297827
 20
138.91623043
 10
149.3968268941
 20
138.9279352778
  0
LWPOLYLINE
  5
57B
100
AcDbEntity
  8
0
100
AcDbPolyline
 62
7
  6
CONTINUOUS
 90
16
 70
0
 10
160.1801930125
 20
127.7434517628
 10
160.1780307579
 20
127.7883271236
 10
160.172224398
 20
127.8338642437
 10
160.1627739328
 20
127.880063123
 10
160.1494926692
 20
127.9274228859
 10
160.1325673004
 20
127.975444408
 10
160.1125579058
 20
128.0226303164
 10
160.0893781502
 20
128.0689541791
 10
160.0631143688
 20
128.114442428
 10
160.0345856469
 20
128.1576769869
 10
160.0037260545
 20
128.1985961449
 10
159.9706015216
 20
128.2372616128
 10
159.9362289244
 20
128.2724404465
 10
159.9009472213
 20
128.3037216645
 10
159.8644174538
 20
128.3315162483
 10
159.8266396219
 20
128.3558241978
  0
LINE
  5
57C
100
AcDbEntity
  8
LAY0001
100
AcDbLine
 62
250
  6
CONTINUOUS
 10
141.8839148283
 20
88.3564940863
 11
144.2879681053
 21
89.602889633
  0
LINE
  5
57D
100
AcDbEntity
  8
LAY0001
100
AcDbLine
 62
7
  6
CONTINUOUS
 10
141.7698742079
 20
88.1220164934
 11
144.177852218
 21
89.3704468411
  0
LWPOLYLINE
  5
57E
100
AcDbEntity
  8
LAY0001
100
AcDbPolyline
 62
250
  6
CONTINUOUS
 90
16
 70
0
 10
141.8839148283
 20
88.3564940863
 10
141.8446878554
 20
88.337121718
 10
141.8022108869
 20
88.32018775
 10
141.7569366634
 20
88.3058726383
 10
141.7093422697
 20
88.2943277881
 10
141.6599400273
 20
88.2856780021
 10
141.6092738275
 20
88.2800168585
 10
141.5578955491
 20
88.2774018233
 10
141.5063415891
 20
88.2778560622
 10
141.4551443641
 20
88.281373174
 10
141.4047793264
 20
88.287926616
 10
141.3558547141
 20
88.2974434768
 10
141.3090681723
 20
88.3097690892
 10
141.2649444064
 20
88.3247197031
 10
141.2238528085
 20
88.3421223451
 10
141.1861841498
 20
88.361767825
  0
LWPOLYLINE
  5
57F
100
AcDbEntity
  8
RACCORDO
100
AcDbPolyline
 62
250
  6
CONTINUOUS
 90
11
 70
0
 10
137.8843842812
 20
139.587440267
 10
137.9294512916
 20
139.5957994214
 10
137.9759894675
 20
139.6003651419
 10
138.0242980197
 20
139.6011330643
 10
138.0756253341
 20
139.5978815731
 10
138.1301390795
 20
139.5901662527
 10
138.1875600824
 20
139.5775934494
 10
138.2485596049
 20
139.5595251364
 10
138.3132678767
 20
139.5352892012
 10
138.3812226128
 20
139.5043949578
 10
138.4521487373
 20
139.4663200898
  0
LINE
  5
580
100
AcDbEntity
  8
ASSI
100
AcDbLine
 62
250
  6
CONTINUOUS
 10
144.7367597612
 20
140.7908576837
 11
144.7192791481
 21
140.7876991714
  0
LWPOLYLINE
  5
581
100
AcDbEntity
  8
ASSI
100
AcDbPolyline
 62
250
  6
CONTINUOUS
 90
5
 70
0
 10
142.2742854212
 20
139.8392581981
 10
142.2370402745
 20
139.8338517116
 10
142.1990162085
 20
139.8306083574
 10
142.1602469152
 20
139.8294354248
 10
142.1219469398
 20
139.8303359973
  0
LWPOLYLINE
  5
582
100
AcDbEntity
  8
ASSI
100
AcDbPolyline
 62
7
  6
CONTINUOUS
 90
6
 70
0
 10
144.8146339219
 20
140.8045307777
 10
144.8042123043
 20
140.8034810227
 10
144.7786752483
 20
140.8001558747
 10
144.7536097805
 20
140.7957657202
 10
144.729004761
 20
140.7902451896
 10
144.7192178334
 20
140.7876824098
  0
LWPOLYLINE
  5
583
100
AcDbEntity
  8
ASSI
100
AcDbPolyline
 62
250
  6
CONTINUOUS
 90
12
 70
0
 10
144.869646381
 20
140.7842436916
 10
144.864392637
 20
140.7837264895
 10
144.8591992912
 20
140.7831517266
 10
144.8540663435
 20
140.7825194029
 10
144.849015822
 20
140.7818347844
 10
144.8440256987
 20
140.7810926052
 10
144.8390298896
 20
140.7802770672
 10
144.8340153916
 20
140.7793898159
 10
144.8289952079
 20
140.7784292058
 10
144.8239422644
 20
140.7773745034
 10
144.8188475363
 20
140.7762187974
 10
144.8137200483
 20
140.774968999
  0
LINE
  5
584
100
AcDbEntity
  8
RACCORDO
100
AcDbLine
 62
250
  6
CONTINUOUS
 10
146.0552105119
 20
140.8940176237
 11
144.869646381
 21
140.7842436916
  0
LINE
  5
585
100
AcDbEntity
  8
ASSI
100
AcDbLine
 62
7
  6
CONTINUOUS
 10
145.9964894396
 20
140.9139613287
 11
144.8146042873
 21
140.8045280413
  0
LWPOLYLINE
  5
586
100
AcDbEntity
  8
RACCORDO
100
AcDbPolyline
 62
250
  6
CONTINUOUS
 90
8
 70
0
 10
139.6254469455
 20
138.9107407465
 10
139.614519547
 20
138.9099566042
 10
139.6034796618
 20
138.9093836174
 10
139.5923284693
 20
138.9090248015
 10
139.5810761918
 20
138.9088821974
 10
139.5697201384
 20
138.9089539375
 10
139.558263
 20
138.9092418893
 10
139.5467230716
 20
138.9097536971
  0
LINE
  5
587
100
AcDbEntity
  8
RACCORDO
100
AcDbLine
 62
250
  6
CONTINUOUS
 10
145.9964854847
 20
140.9139609625
 11
146.0008505062
 21
140.9142142862
  0
LWPOLYLINE
  5
588
100
AcDbEntity
  8
ASSI
100
AcDbPolyline
 62
250
  6
CONTINUOUS
 90
6
 70
0
 10
139.7705697843
 20
138.568851251
 10
139.7800315378
 20
138.568978855
 10
139.7956137222
 20
138.5675837639
 10
139.8110561062
 20
138.5642030746
 10
139.8262028693
 20
138.5588691836
 10
139.840902102
 20
138.5516340573
  0
LINE
  5
589
100
AcDbEntity
  8
RACCORDO
100
AcDbLine
 62
250
  6
CONTINUOUS
 10
146.0008505062
 20
140.9142142862
 11
146.0090509123
 21
140.9138967505
  0
LWPOLYLINE
  5
58A
100
AcDbEntity
  8
RACCORDO
100
AcDbPolyline
 62
250
  6
CONTINUOUS
 90
10
 70
0
 10
139.5467230716
 20
138.9097536971
 10
139.5350908271
 20
138.9104896335
 10
139.5233757926
 20
138.9114494259
 10
139.5116248404
 20
138.9126398999
 10
139.4998403053
 20
138.9140615417
 10
139.4880198525
 20
138.9157138652
 10
139.4762033499
 20
138.9176022375
 10
139.4643837821
 20
138.919729537
 10
139.4525681646
 20
138.9220928853
 10
139.4408174115
 20
138.9246890142
  0
LWPOLYLINE
  5
58B
100
AcDbEntity
  8
ASSI
100
AcDbPolyline
 62
250
  6
CONTINUOUS
 90
23
 70
0
 10
141.9560584462
 20
139.8545510142
 10
141.9281750502
 20
139.8567660882
 10
141.899785471
 20
139.8574280177
 10
141.8711466345
 20
139.8565436016
 10
141.8430293178
 20
139.8541332363
 10
141.8154526995
 20
139.850157186
 10
141.7883976011
 20
139.8446551867
 10
141.7625772648
 20
139.8377668427
 10
141.7380163407
 20
139.8294525413
 10
141.7146901788
 20
139.8197518953
 10
141.6932380712
 20
139.8089233468
 10
141.6737121101
 20
139.7969328001
 10
141.6560602034
 20
139.783814351
 10
141.6407653671
 20
139.7699287285
 10
141.6278977495
 20
139.7552581639
 10
141.6173872023
 20
139.739820426
 10
141.6095062974
 20
139.7240295499
 10
141.604325221
 20
139.7078770981
 10
141.6017737869
 20
139.6913715081
 10
141.601914007
 20
139.6749521279
 10
141.6047665523
 20
139.6587654067
 10
141.610310752
 20
139.6426648954
 10
141.618546606
 20
139.6266505938
  0
LWPOLYLINE
  5
58C
100
AcDbEntity
  8
ASSI
100
AcDbPolyline
 62
250
  6
CONTINUOUS
 90
3
 70
0
 10
142.1219469398
 20
139.8303359973
 10
142.0845211308
 20
139.8333111028
 10
142.0475646396
 20
139.8383597134
  0
LINE
  5
58D
100
AcDbEntity
  8
ASSI
100
AcDbLine
 62
250
  6
CONTINUOUS
 10
141.9836925849
 20
139.8507895945
 11
141.9560584462
 21
139.8545510142
  0
LWPOLYLINE
  5
58E
100
AcDbEntity
  8
ASSI
100
AcDbPolyline
 62
250
  6
CONTINUOUS
 90
8
 70
0
 10
142.0552612435
 20
139.877245385
 10
142.05401021
 20
139.8774821205
 10
142.0475968761
 20
139.8773545615
 10
142.0407833277
 20
139.875088728
 10
142.0336442154
 20
139.8707094448
 10
142.0262577565
 20
139.8642646919
 10
142.0187048789
 20
139.8558250791
 10
142.0110683333
 20
139.8454830724
  0
LINE
  5
58F
100
AcDbEntity
  8
ASSI
100
AcDbLine
 62
250
  6
CONTINUOUS
 10
142.0475646396
 20
139.8383597134
 11
141.9836925849
 21
139.8507895945
  0
LWPOLYLINE
  5
590
100
AcDbEntity
  8
ASSI
100
AcDbPolyline
 62
250
  6
CONTINUOUS
 90
5
 70
0
 10
143.1702075349
 20
140.3372921602
 10
143.1538570105
 20
140.3409327752
 10
143.1382750738
 20
140.3417906557
 10
143.1236995765
 20
140.3398527064
 10
143.1103530074
 20
140.3351485092
  0
LWPOLYLINE
  5
591
100
AcDbEntity
  8
RACCORDO
100
AcDbPolyline
 62
250
  6
CONTINUOUS
 90
16
 70
0
 10
139.4408174115
 20
138.9246890142
 10
139.4290829375
 20
138.9275391434
 10
139.4174133279
 20
138.9306220533
 10
139.4060152536
 20
138.9338708171
 10
139.3949257246
 20
138.937288032
 10
139.3841077309
 20
138.9408711009
 10
139.3736569135
 20
138.9445453052
 10
139.3636137082
 20
138.9483009787
 10
139.3539376793
 20
138.9521477878
 10
139.344603161
 20
138.9560400126
 10
139.3356451534
 20
138.9599594296
 10
139.3270286564
 20
138.9639242625
 10
139.3186230037
 20
138.9679434621
 10
139.3104275725
 20
138.972012826
 10
139.3024429856
 20
138.9761365565
 10
139.2945404446
 20
138.9803362122
  0
LWPOLYLINE
  5
592
100
AcDbEntity
  8
ASSI
100
AcDbPolyline
 62
250
  6
CONTINUOUS
 90
6
 70
0
 10
143.2960440631
 20
140.3606606701
 10
143.2782482859
 20
140.3693311255
 10
143.2601660317
 20
140.3751449358
 10
143.2420727413
 20
140.3780135413
 10
143.2242440236
 20
140.3778932455
 10
143.2067638211
 20
140.3747348453
  0
LINE
  5
593
100
AcDbEntity
  8
ASSI
100
AcDbLine
 62
250
  6
CONTINUOUS
 10
146.5271462235
 20
138.4019982684
 11
146.5449934528
 21
138.3929990461
  0
LWPOLYLINE
  5
594
100
AcDbEntity
  8
ASSI
100
AcDbPolyline
 62
250
  6
CONTINUOUS
 90
3
 70
0
 10
143.2042080895
 20
140.3219266449
 10
143.1870770633
 20
140.3309243829
 10
143.1702075349
 20
140.3372921602
  0
LINE
  5
595
100
AcDbEntity
  8
ASSI
100
AcDbLine
 62
250
  6
CONTINUOUS
 10
146.9303653355
 20
138.1704901508
 11
146.5449934528
 21
138.3929990461
  0
LINE
  5
596
100
AcDbEntity
  8
ASSI
100
AcDbLine
 62
250
  6
CONTINUOUS
 10
143.5895799722
 20
140.0994177497
 11
143.2042080895
 21
140.3219266449
  0
LINE
  5
597
100
AcDbEntity
  8
ASSI
100
AcDbLine
 62
250
  6
CONTINUOUS
 10
147.0215420638
 20
138.209604816
 11
146.6361209886
 21
138.4321421144
  0
LINE
  5
598
100
AcDbEntity
  8
ASSI
100
AcDbLine
 62
250
  6
CONTINUOUS
 10
143.6814651383
 20
140.1381233718
 11
143.2960440631
 21
140.3606606701
  0
LWPOLYLINE
  5
599
100
AcDbEntity
  8
ASSI
100
AcDbPolyline
 62
250
  6
CONTINUOUS
 90
13
 70
0
 10
146.9303653355
 20
138.1704901508
 10
146.9481073988
 20
138.159352604
 10
146.9655786371
 20
138.145892453
 10
146.9825123594
 20
138.1303151612
 10
146.9986500797
 20
138.1128585093
 10
147.0137454624
 20
138.0937889658
 10
147.0275680831
 20
138.073397619
 10
147.0399069453
 20
138.0519957341
 10
147.0505737015
 20
138.0299100019
 10
147.0594055283
 20
138.0074775515
 10
147.0662676116
 20
137.9850408047
 10
147.0710552045
 20
137.9629422491
 10
147.0736952266
 20
137.9415192094
  0
LWPOLYLINE
  5
59A
100
AcDbEntity
  8
ASSI
100
AcDbPolyline
 62
250
  6
CONTINUOUS
 90
13
 70
0
 10
147.0215420638
 20
138.209604816
 10
147.0385878168
 20
138.1981582084
 10
147.0548163638
 20
138.1841613922
 10
147.0699805008
 20
138.167827576
 10
147.0838492376
 20
138.1494055673
 10
147.0962113167
 20
138.1291759821
 10
147.1068784306
 20
138.107446971
 10
147.115688091
 20
138.0845495244
 10
147.1225061031
 20
138.0608324313
 10
147.1272286106
 20
138.0366569661
 10
147.1297836772
 20
138.0123913853
 10
147.1301323824
 20
137.9884053183
 10
147.1282694145
 20
137.9650641365
  0
LWPOLYLINE
  5
59B
100
AcDbEntity
  8
ASSI
100
AcDbPolyline
 62
250
  6
CONTINUOUS
 90
6
 70
0
 10
144.869646381
 20
140.7842436916
 10
144.8571714682
 20
140.7933898189
 10
144.8443598156
 20
140.7999119675
 10
144.8313902302
 20
140.8037191103
 10
144.8184437233
 20
140.8047581123
 10
144.8146339219
 20
140.8045307777
  0
LINE
  5
59C
100
AcDbEntity
  8
RACCORDO
100
AcDbLine
 62
250
  6
CONTINUOUS
 10
151.7374625048
 20
136.2404128286
 11
151.393181393
 21
136.5092914769
  0
LINE
  5
59D
100
AcDbEntity
  8
RACCORDO
100
AcDbLine
 62
7
  6
CONTINUOUS
 10
151.8095232394
 20
136.2476040634
 11
151.4652421276
 21
136.5164827116
  0
LWPOLYLINE
  5
59E
100
AcDbEntity
  8
RACCORDO
100
AcDbPolyline
 62
7
  6
CONTINUOUS
 90
18
 70
0
 10
151.4652156732
 20
136.5165033504
 10
151.4597228087
 20
136.5208888364
 10
151.4430900646
 20
136.5353201401
 10
151.4258301147
 20
136.5521748286
 10
151.4083595756
 20
136.5713131337
 10
151.3912625641
 20
136.5922787031
 10
151.374810785
 20
136.6148502511
 10
151.3592507892
 20
136.638785435
 10
151.3450107045
 20
136.6634459372
 10
151.3322744427
 20
136.6884356187
 10
151.3211223596
 20
136.713479878
 10
151.3116957559
 20
136.7380738735
 10
151.3040117225
 20
136.7618773597
 10
151.2980249329
 20
136.7846493881
 10
151.2936867356
 20
136.8060540246
 10
151.2908811815
 20
136.8258985486
 10
151.2894727335
 20
136.8439216603
 10
151.2892229179
 20
136.8548029294
  0
LINE
  5
59F
100
AcDbEntity
  8
RACCORDO
100
AcDbLine
 62
250
  6
CONTINUOUS
 10
151.7595063818
 20
136.2217622436
 11
151.7374625905
 21
136.2404128784
  0
LWPOLYLINE
  5
5A0
100
AcDbEntity
  8
RACCORDO
100
AcDbPolyline
 62
250
  6
CONTINUOUS
 90
16
 70
0
 10
151.3931812728
 20
136.509291407
 10
151.3764487012
 20
136.5235430212
 10
151.3604219817
 20
136.5391259088
 10
151.3452246779
 20
136.5558202958
 10
151.3309910607
 20
136.5733681981
 10
151.3177706133
 20
136.5915963109
 10
151.3055486728
 20
136.6104399685
 10
151.29443574
 20
136.6296463201
 10
151.2844357558
 20
136.6491136718
 10
151.2754323843
 20
136.6690554678
 10
151.2675409178
 20
136.6892773409
 10
151.260825184
 20
136.709665547
 10
151.2552433821
 20
136.7305633074
 10
151.250950912
 20
136.7519363735
 10
151.2481849547
 20
136.7733754402
 10
151.2471237892
 20
136.7946091304
  0
LWPOLYLINE
  5
5A1
100
AcDbEntity
  8
RACCORDO
100
AcDbPolyline
 62
250
  6
CONTINUOUS
 90
9
 70
0
 10
151.168493604
 20
137.306013917
 10
151.1603730701
 20
137.3164799119
 10
151.1519571224
 20
137.3266131633
 10
151.1432153397
 20
137.336436992
 10
151.1340845576
 20
137.3459942784
 10
151.1246145796
 20
137.3551986168
 10
151.1147931264
 20
137.3640285782
 10
151.1044527999
 20
137.3725776598
 10
151.0935502001
 20
137.3807952227
  0
LWPOLYLINE
  5
5A2
100
AcDbEntity
  8
RACCORDO
100
AcDbPolyline
 62
250
  6
CONTINUOUS
 90
4
 70
0
 10
151.8169392349
 20
136.154182924
 10
151.7994909146
 20
136.1781716514
 10
151.7802707711
 20
136.2008594682
 10
151.7595063818
 20
136.2217622436
  0
LWPOLYLINE
  5
5A3
100
AcDbEntity
  8
RACCORDO
100
AcDbPolyline
 62
250
  6
CONTINUOUS
 90
9
 70
0
 10
149.3897321394
 20
138.9394431132
 10
149.3819916884
 20
138.9506320545
 10
149.3735843408
 20
138.9614886942
 10
149.3644394273
 20
138.9720442115
 10
149.3545882147
 20
138.982179174
 10
149.3440258136
 20
138.9918242466
 10
149.3325965615
 20
139.0010234915
 10
149.3202524457
 20
139.009668407
 10
149.3070840982
 20
139.0175426411
  0
LINE
  5
5A4
100
AcDbEntity
  8
RACCORDO
100
AcDbLine
 62
250
  6
CONTINUOUS
 10
149.3968268941
 20
138.9279352778
 11
149.3897321394
 21
138.9394431132
  0
LWPOLYLINE
  5
5A5
100
AcDbEntity
  8
RACCORDO
100
AcDbPolyline
 62
250
  6
CONTINUOUS
 90
3
 70
0
 10
151.8460210389
 20
136.103899665
 10
151.8324741678
 20
136.1293134022
 10
151.8169392349
 20
136.154182924
  0
LWPOLYLINE
  5
5A6
100
AcDbEntity
  8
ASSI
100
AcDbPolyline
 62
250
  6
CONTINUOUS
 90
3
 70
0
 10
144.7726817692
 20
140.7881093739
 10
144.7545884788
 20
140.7909779794
 10
144.7367597612
 20
140.7908576837
  0
LWPOLYLINE
  5
5A7
100
AcDbEntity
  8
RACCORDO
100
AcDbPolyline
 62
250
  6
CONTINUOUS
 90
6
 70
0
 10
146.0090509123
 20
140.9138967505
 10
146.0175605665
 20
140.9125130614
 10
146.0264765484
 20
140.9099512078
 10
146.0357921675
 20
140.9060790185
 10
146.0453956948
 20
140.9007997019
 10
146.0552105119
 20
140.8940176237
  0
LWPOLYLINE
  5
5A8
100
AcDbEntity
  8
RACCORDO
100
AcDbPolyline
 62
250
  6
CONTINUOUS
 90
4
 70
0
 10
146.0959365283
 20
140.8930527339
 10
146.0834407816
 20
140.8962566884
 10
146.0697692099
 20
140.8965805983
 10
146.0552105119
 20
140.8940176237
  0
LWPOLYLINE
  5
5A9
100
AcDbEntity
  8
RACCORDO
100
AcDbPolyline
 62
250
  6
CONTINUOUS
 90
7
 70
0
 10
144.2999016362
 20
141.3534538993
 10
144.2903498681
 20
141.3577074302
 10
144.2790257987
 20
141.3601136503
 10
144.2667965212
 20
141.3602345439
 10
144.2538666644
 20
141.3580680881
 10
144.2404525796
 20
141.3536505337
 10
144.2267787204
 20
141.3470557981
  0
LWPOLYLINE
  5
5AA
100
AcDbEntity
  8
ASSI
100
AcDbPolyline
 62
250
  6
CONTINUOUS
 90
13
 70
0
 10
148.5995526314
 20
138.6306425694
 10
148.6194158616
 20
138.6211170579
 10
148.6384910216
 20
138.6092281599
 10
148.6565118871
 20
138.5951418038
 10
148.6732269481
 20
138.5790545873
 10
148.688402919
 20
138.5611910333
 10
148.7018279951
 20
138.5418004561
 10
148.7133148079
 20
138.5211534824
 10
148.7227030404
 20
138.4995382737
 10
148.729861665
 20
138.4772565048
 10
148.7346907716
 20
138.4546191534
 10
148.7371229622
 20
138.43194216
 10
148.7371242917
 20
138.4095420183
  0
LINE
  5
5AB
100
AcDbEntity
  8
RACCORDO
100
AcDbLine
 62
250
  6
CONTINUOUS
 10
146.1026730916
 20
140.8898228424
 11
146.0993952318
 21
140.8916715388
  0
LWPOLYLINE
  5
5AC
100
AcDbEntity
  8
RACCORDO
100
AcDbPolyline
 62
250
  6
CONTINUOUS
 90
5
 70
0
 10
146.2797235957
 20
140.7875962224
 10
146.2728979328
 20
140.790877444
 10
146.2604021829
 20
140.7940814081
 10
146.2467306009
 20
140.7944053227
 10
146.2321718854
 20
140.7918423445
  0
LWPOLYLINE
  5
5AD
100
AcDbEntity
  8
ASSI
100
AcDbPolyline
 62
250
  6
CONTINUOUS
 90
3
 70
0
 10
144.8085598006
 20
140.7736251082
 10
144.7907640234
 20
140.7822955636
 10
144.7726817692
 20
140.7881093739
  0
LINE
  5
5AE
100
AcDbEntity
  8
RACCORDO
100
AcDbLine
 62
250
  6
CONTINUOUS
 10
149.3070840982
 20
139.0175426411
 11
149.2931439306
 21
139.0244754486
  0
LWPOLYLINE
  5
5AF
100
AcDbEntity
  8
RACCORDO
100
AcDbPolyline
 62
7
  6
CONTINUOUS
 90
8
 70
0
 10
149.1636455142
 20
139.1224557296
 10
149.1439511946
 20
139.1323568962
 10
149.1242128563
 20
139.1395861471
 10
149.1037996318
 20
139.1444777089
 10
149.0828142874
 20
139.1469198658
 10
149.0615633117
 20
139.1467780129
 10
149.0404366729
 20
139.1439824903
 10
149.0276310833
 20
139.1409328678
  0
LWPOLYLINE
  5
5B0
100
AcDbEntity
  8
RACCORDO
100
AcDbPolyline
 62
7
  6
CONTINUOUS
 90
10
 70
0
 10
144.2999016362
 20
141.3534538993
 10
144.2794477644
 20
141.363972895
 10
144.2562740268
 20
141.3729848731
 10
144.232733899
 20
141.379191884
 10
144.2090810077
 20
141.3825369095
 10
144.1855835811
 20
141.3830198773
 10
144.1626324204
 20
141.3807035767
 10
144.1406009406
 20
141.3757306129
 10
144.1197547099
 20
141.3682888503
 10
144.1046794281
 20
141.3610336166
  0
LWPOLYLINE
  5
5B1
100
AcDbEntity
  8
RACCORDO
100
AcDbPolyline
 62
250
  6
CONTINUOUS
 90
10
 70
0
 10
149.1161825572
 20
139.1266507278
 10
149.1081885374
 20
139.1308995537
 10
149.099873787
 20
139.1347015619
 10
149.0912583913
 20
139.137985948
 10
149.0823564212
 20
139.1406818668
 10
149.0732109151
 20
139.1427117445
 10
149.0638941406
 20
139.143999921
 10
149.0544482208
 20
139.1444797881
 10
149.044924328
 20
139.1440849865
 10
149.0354155274
 20
139.1427598777
  0
LWPOLYLINE
  5
5B2
100
AcDbEntity
  8
RACCORDO
100
AcDbPolyline
 62
7
  6
CONTINUOUS
 90
7
 70
0
 10
146.1026730916
 20
140.8898228424
 10
146.0993952318
 20
140.8916715388
 10
146.0798058697
 20
140.9010796326
 10
146.0593966279
 20
140.9081274816
 10
146.0383654052
 20
140.9126755924
 10
146.0169323135
 20
140.9146164608
 10
145.9961325292
 20
140.9139259126
  0
LINE
  5
5B3
100
AcDbEntity
  8
RACCORDO
100
AcDbLine
 62
250
  6
CONTINUOUS
 10
151.070374126
 20
137.3956495813
 11
149.4434602451
 21
138.3350092662
  0
LINE
  5
5B4
100
AcDbEntity
  8
RACCORDO
100
AcDbLine
 62
250
  6
CONTINUOUS
 10
144.2267787204
 20
141.3470557981
 11
145.1177846178
 21
140.8326001599
  0
LINE
  5
5B5
100
AcDbEntity
  8
RACCORDO
100
AcDbLine
 62
7
  6
CONTINUOUS
 10
151.1435266428
 20
137.4020306047
 11
149.4844540534
 21
138.3599583248
  0
LINE
  5
5B6
100
AcDbEntity
  8
RACCORDO
100
AcDbLine
 62
7
  6
CONTINUOUS
 10
144.2999016362
 20
141.3534538993
 11
145.1903515564
 21
140.8393192888
  0
LINE
  5
5B7
100
AcDbEntity
  8
RACCORDO
100
AcDbLine
 62
250
  6
CONTINUOUS
 10
146.3532505915
 20
140.3801451408
 11
148.6719821715
 21
139.041338587
  0
LINE
  5
5B8
100
AcDbEntity
  8
RACCORDO
100
AcDbLine
 62
7
  6
CONTINUOUS
 10
146.3987702267
 20
140.404600003
 11
148.7311562916
 21
139.0579095208
  0
LINE
  5
5B9
100
AcDbEntity
  8
RACCORDO
100
AcDbLine
 62
250
  6
CONTINUOUS
 10
149.2931439306
 20
139.0244754486
 11
149.1161825572
 21
139.1266507278
  0
LINE
  5
5BA
100
AcDbEntity
  8
RACCORDO
100
AcDbLine
 62
250
  6
CONTINUOUS
 10
146.0552105119
 20
140.8940176237
 11
146.2321718854
 21
140.7918423445
  0
LINE
  5
5BB
100
AcDbEntity
  8
RACCORDO
100
AcDbLine
 62
7
  6
CONTINUOUS
 10
149.3406956493
 20
139.0202293217
 11
149.1637342727
 21
139.1224046027
  0
LINE
  5
5BC
100
AcDbEntity
  8
RACCORDO
100
AcDbLine
 62
7
  6
CONTINUOUS
 10
146.1026730916
 20
140.8898228424
 11
146.2797235957
 21
140.7875962224
  0
LINE
  5
5BD
100
AcDbEntity
  8
RACCORDO
100
AcDbLine
 62
250
  6
CONTINUOUS
 10
151.0821777493
 20
137.3885225439
 11
151.070374126
 21
137.3956495813
  0
LWPOLYLINE
  5
5BE
100
AcDbEntity
  8
RACCORDO
100
AcDbPolyline
 62
250
  6
CONTINUOUS
 90
8
 70
0
 10
146.2321718854
 20
140.7918423445
 10
146.2405659705
 20
140.7865744479
 10
146.2489036706
 20
140.7806284416
 10
146.2571495846
 20
140.7740097444
 10
146.265216938
 20
140.7667734518
 10
146.2731225885
 20
140.7588928598
 10
146.2809698354
 20
140.7502240722
 10
146.2887635435
 20
140.740677302
  0
LWPOLYLINE
  5
5BF
100
AcDbEntity
  8
ASSI
100
AcDbPolyline
 62
250
  6
CONTINUOUS
 90
13
 70
0
 10
148.5520750117
 20
138.6121663426
 10
148.569120765
 20
138.6007197349
 10
148.585349312
 20
138.5867229185
 10
148.6005134491
 20
138.5703891022
 10
148.614382186
 20
138.5519670933
 10
148.626744265
 20
138.5317375081
 10
148.6374113789
 20
138.5100084969
 10
148.6462210392
 20
138.4871110503
 10
148.6530390512
 20
138.4633939572
 10
148.6577615587
 20
138.4392184921
 10
148.6603166252
 20
138.4149529115
 10
148.6606653304
 20
138.3909668446
 10
148.6588023624
 20
138.3676256631
  0
LINE
  5
5C0
100
AcDbEntity
  8
RACCORDO
100
AcDbLine
 62
250
  6
CONTINUOUS
 10
151.0935502001
 20
137.3807952227
 11
151.0821777493
 21
137.3885225439
  0
ARC
  5
5C1
100
AcDbEntity
  8
0
100
AcDbCircle
 62
7
  6
CONTINUOUS
 10
130.1988654902
 20
112.5156340397
 40
0.5
100
AcDbArc
 50
180.0000000203
 51
239.9984015462
  0
ARC
  5
5C2
100
AcDbEntity
  8
0
100
AcDbCircle
 62
7
  6
CONTINUOUS
 10
132.3201858338
 20
111.2908102597
 40
0.5
100
AcDbArc
 50
239.9984015461
 51
300.0015984348
  0
ARC
  5
5C3
100
AcDbEntity
  8
0
100
AcDbCircle
 62
7
  6
CONTINUOUS
 10
130.1988654902
 20
114.1485745933
 40
0.5
100
AcDbArc
 50
120.0015984348
 51
180.0000000202
  0
ARC
  5
5C4
100
AcDbEntity
  8
0
100
AcDbCircle
 62
7
  6
CONTINUOUS
 10
133.7343993961
 20
110.4742610731
 40
0.5
100
AcDbArc
 50
180.0000000203
 51
239.9984015462
  0
ARC
  5
5C5
100
AcDbEntity
  8
0
100
AcDbCircle
 62
7
  6
CONTINUOUS
 10
135.8557197397
 20
109.2494372931
 40
0.5
100
AcDbArc
 50
239.998401546
 51
300.0015984348
  0
ARC
  5
5C6
100
AcDbEntity
  8
0
100
AcDbCircle
 62
7
  6
CONTINUOUS
 10
133.7343993961
 20
112.1072016266
 40
0.5
100
AcDbArc
 50
120.0015984349
 51
180.0000000203
  0
ARC
  5
5C7
100
AcDbEntity
  8
LAY0001
100
AcDbCircle
 62
7
  6
CONTINUOUS
 10
141.5397375404
 20
88.5659051217
 40
0.5
100
AcDbArc
 50
239.9984015654
 51
297.4194204711
  0
ARC
  5
5C8
100
AcDbEntity
  8
LAY0001
100
AcDbCircle
 62
7
  6
CONTINUOUS
 10
126.6715233721
 20
97.15062564
 40
0.5
100
AcDbArc
 50
179.9840060021
 51
239.998401565
  0
ARC
  5
5C9
100
AcDbEntity
  8
LAY0001
100
AcDbCircle
 62
7
  6
CONTINUOUS
 10
126.6715233721
 20
139.3023979222
 40
0.5
100
AcDbArc
 50
122.5992954234
 51
180.0013071251
  0
ARC
  5
5CA
100
AcDbEntity
  8
RACCORDO
100
AcDbCircle
 62
7
  6
CONTINUOUS
 10
145.0481078951
 20
129.1712804829
 40
0.2
100
AcDbArc
 50
0.0007992999
 51
59.9992007879
  0
ARC
  5
5CB
100
AcDbEntity
  8
RACCORDO
100
AcDbCircle
 62
7
  6
CONTINUOUS
 10
145.0320409795
 20
93.5824532504
 40
0.2
100
AcDbArc
 50
300.8752970448
 51
0.0114052678
  0
ARC
  5
5CC
100
AcDbEntity
  8
ASSI
100
AcDbCircle
 62
7
  6
CONTINUOUS
 10
137.6062880981
 20
138.1571722275
 40
0.2
100
AcDbArc
 50
119.0851091898
 51
154.7491244468
  0
ARC
  5
5CD
100
AcDbEntity
  8
ASSI
100
AcDbCircle
 62
7
  6
CONTINUOUS
 10
133.4207618881
 20
139.1037483075
 40
0.2
100
AcDbArc
 50
59.9984015652
 51
118.2824903446
  0
ARC
  5
5CE
100
AcDbEntity
  8
ASSI
100
AcDbCircle
 62
7
  6
CONTINUOUS
 10
144.1243085361
 20
132.5543436304
 40
0.2
100
AcDbArc
 50
315.7312262421
 51
0.024486907
  0
ARC
  5
5CF
100
AcDbEntity
  8
ASSI
100
AcDbCircle
 62
7
  6
CONTINUOUS
 10
144.1243085361
 20
132.9236546199
 40
0.2
100
AcDbArc
 50
359.9930983179
 51
59.9984015652
  0
ARC
  5
5D0
100
AcDbEntity
  8
ASSI
100
AcDbCircle
 62
7
  6
CONTINUOUS
 10
134.9479657539
 20
138.2219599358
 40
0.2
100
AcDbArc
 50
359.9895357921
 51
59.9984015652
  0
ARC
  5
5D1
100
AcDbEntity
  8
ASSI
100
AcDbCircle
 62
7
  6
CONTINUOUS
 10
134.9479657539
 20
137.8526489462
 40
0.2
100
AcDbArc
 50
315.7300106886
 51
0.0272097881
  0
ARC
  5
5D2
100
AcDbEntity
  8
ASSI
100
AcDbCircle
 62
7
  6
CONTINUOUS
 10
142.5971046703
 20
133.8054429916
 40
0.2
100
AcDbArc
 50
59.9984015652
 51
118.2824903446
  0
ARC
  5
5D3
100
AcDbEntity
  8
RACCORDO
100
AcDbCircle
 62
7
  6
CONTINUOUS
 10
149.3318819155
 20
103.9514650639
 40
0.15
100
AcDbArc
 50
0.0
 51
60.0065861469
  0
ELLIPSE
  5
5D4
100
AcDbEntity
  8
LAY0001
100
AcDbEllipse
 62
7
  6
CONTINUOUS
 10
143.9342935193
 20
89.8073767384
 30
0.0
 11
-0.2501834304
 21
0.4333025529
 31
0.0
 40
0.5769361983
 41
-3.1677535987
 42
-2.3565853618
  0
ELLIPSE
  5
5D5
100
AcDbEntity
  8
LAY0001
100
AcDbEllipse
 62
7
  6
CONTINUOUS
 10
143.9342935193
 20
132.1002571964
 30
0.0
 11
-0.2500121049
 21
0.4330057129
 31
0.0
 40
0.5777274115
 41
-2.3559002616
 42
-0.7857891675
  0
ELLIPSE
  5
5D6
100
AcDbEntity
  8
RACCORDO
100
AcDbEllipse
 62
7
  6
CONTINUOUS
 10
145.0481078951
 20
127.4621403994
 30
0.0
 11
0.143107575
 21
0.2366201515
 31
0.0
 40
0.5904602253
 41
-1.5588007257
 42
-0.7734027153
  0
ELLIPSE
  5
5D7
100
AcDbEntity
  8
LAY0001
100
AcDbEllipse
 62
7
  6
CONTINUOUS
 10
128.943872149
 20
140.7555386214
 30
0.0
 11
-0.2501834304
 21
0.4333025529
 31
0.0
 40
0.5769361983
 41
-0.7851038024
 42
0.0261609458
  0
ELLIPSE
  5
5D8
100
AcDbEntity
  8
LAY0001
100
AcDbEllipse
 62
7
  6
CONTINUOUS
 10
144.0796328389
 20
95.4762525966
 30
0.0
 11
0.3037200246
 21
0.1710449014
 31
0.0
 40
0.0105151745
 41
0.6673087948
 42
0.7742146559
  0
ELLIPSE
  5
5D9
100
AcDbEntity
  8
RACCORDO
100
AcDbEllipse
 62
7
  6
CONTINUOUS
 10
129.7923006335
 20
110.9135198457
 30
0.0
 11
-0.1000048364
 21
0.1732022883
 31
0.0
 40
0.5775075436
 41
0.7855021057
 42
2.355993846
  0
ELLIPSE
  5
5DA
100
AcDbEntity
  8
LAY0001
100
AcDbEllipse
 62
7
  6
CONTINUOUS
 10
144.0030978008
 20
95.5204429684
 30
0.0
 11
0.4568380168
 21
0.0702030008
 31
0.0
 40
0.2209951355
 41
0.2918164413
 42
0.3503969549
  0
ELLIPSE
  5
5DB
100
AcDbEntity
  8
DRAFT
100
AcDbEllipse
 62
7
  6
CONTINUOUS
 10
144.6716448913
 20
95.1344322572
 30
0.0
 11
0.1461416733
 21
0.2620230697
 31
0.0
 40
0.5671693725
 41
0.0145836793
 42
0.7595658966
  0
ELLIPSE
  5
5DC
100
AcDbEntity
  8
RACCORDO
100
AcDbEllipse
 62
7
  6
CONTINUOUS
 10
145.0320409795
 20
95.2915933339
 30
0.0
 11
0.1999879242
 21
-0.1103320873
 31
0.0
 40
0.0199195284
 41
-0.756955834
 42
0.7963872003
  0
ELLIPSE
  5
5DD
100
AcDbEntity
  8
RACCORDO
100
AcDbEllipse
 62
7
  6
CONTINUOUS
 10
149.4514153229
 20
138.205826603
 30
0.0
 11
0.0396625333
 21
0.1491105824
 31
0.0
 40
0.4377348049
 41
0.3909671288
 42
0.6503781016
  0
ELLIPSE
  5
5DE
100
AcDbEntity
  8
ASSI
100
AcDbEllipse
 62
7
  6
CONTINUOUS
 10
142.8351607483
 20
138.1853102025
 30
0.0
 11
0.3652263551
 21
0.1644105368
 31
0.0
 40
0.3407407308
 41
1.8589059539
 42
3.382251992
  0
ELLIPSE
  5
5DF
100
AcDbEntity
  8
ASSI
100
AcDbEllipse
 62
7
  6
CONTINUOUS
 10
144.3441458326
 20
134.3515747945
 30
0.0
 11
0.999867518
 21
-0.0292282715
 31
0.0
 40
0.5568983954
 41
5.6013315027
 42
7.0848613669
  0
ELLIPSE
  5
5E0
100
AcDbEntity
  8
ASSI
100
AcDbEllipse
 62
7
  6
CONTINUOUS
 10
144.3795167401
 20
133.8683908922
 30
0.0
 11
-0.100004872
 21
0.1732022678
 31
0.0
 40
0.5789151826
 41
-2.3548735497
 42
-0.7868162787
  0
ELLIPSE
  5
5E1
100
AcDbEntity
  8
0
100
AcDbEllipse
 62
7
  6
CONTINUOUS
 10
-844.3007687937
 20
-420.5407080702
 30
0.0
 11
1091.3872670356
 21
588.1465940607
 31
0.0
 40
0.0261556157
 41
5.8313683858
 42
5.8318271149
  0
ELLIPSE
  5
5E2
100
AcDbEntity
  8
RACCORDO
100
AcDbEllipse
 62
7
  6
CONTINUOUS
 10
144.2025655567
 20
125.947552981
 30
0.0
 11
-0.1000051894
 21
0.1735189852
 31
0.0
 40
0.5766278503
 41
-3.2779512934
 42
-3.141185874
  0
ELLIPSE
  5
5E3
100
AcDbEntity
  8
ASSI
100
AcDbEllipse
 62
7
  6
CONTINUOUS
 10
148.3520921765
 20
137.8208146717
 30
0.0
 11
0.5013109713
 21
-0.0090323087
 31
0.0
 40
0.5663187271
 41
-0.7565983455
 42
-0.4971873728
  0
ENDSEC
  0
SECTION
  2
OBJECTS
  0
DICTIONARY
  5
C
100
AcDbDictionary
280
0
281
1
  3
ACAD_GROUP
350
D
  3
ACAD_MLINESTYLE
350
17
  3
ACAD_LAYOUT
350
1A
  3
ACAD_PLOTSETTINGS
350
19
  3
ACAD_PLOTSTYLENAME
350
E
  0
DICTIONARY
  5
D
102
{ACAD_REACTORS
330
C
102
}
100
AcDbDictionary
280
0
281
1
  0
ACDBDICTIONARYWDFLT
  5
E
102
{ACAD_REACTORS
330
C
102
}
100
AcDbDictionary
281
1
  3
Normal
350
F
100
AcDbDictionaryWithDefault
340
F
  0
DICTIONARY
  5
17
102
{ACAD_REACTORS
330
C
102
}
100
AcDbDictionary
280
0
281
1
  3
Standard
350
18
  0
DICTIONARY
  5
19
102
{ACAD_REACTORS
330
C
102
}
100
AcDbDictionary
281
1
  0
DICTIONARY
  5
1A
102
{ACAD_REACTORS
330
C
102
}
100
AcDbDictionary
281
1
  3
Model
350
5E4
  3
Layout1
350
5E5
  0
ACDBPLACEHOLDER
  5
F
102
{ACAD_REACTORS
330
E
102
}
  0
MLINESTYLE
  5
18
102
{ACAD_REACTORS
330
17
102
}
100
AcDbMlineStyle
  2
STANDARD
 70
0
  3

 62
256
 51
90.0
 52
90.0
 71
2
 49
0.5
 62
256
  6
BYLAYER
 49
-0.5
 62
256
  6
BYLAYER
  0
LAYOUT
  5
5E4
102
{ACAD_REACTORS
330
1A
102
}
100
AcDbPlotSettings
  1

  2
none_device
  4
ISO_A4_(297.00_x_210.00_MM)
  6

 40
0.0
 41
0.0
 42
0.0
 43
0.0
 44
297.0
 45
210.0
 46
0.0
 47
0.0
 48
0.0
 49
0.0
140
0.0
141
0.0
142
1.0
143
1.0
 70
1024
 72
1
 73
0
 74
0
  7

 75
0
147
1.0
148
0.0
149
0.0
100
AcDbLayout
  1
Model
 70
0
 71
0
 10
0.0
 20
0.0
 11
297.0
 21
210.0
 12
0.0
 22
0.0
 32
0.0
 14
0.0
 24
0.0
 34
0.0
 15
0.0
 25
0.0
 35
0.0
146
0.0
 13
0.0
 23
0.0
 33
0.0
 16
1.0
 26
0.0
 36
0.0
 17
0.0
 27
1.0
 37
0.0
 76
0
330
231
345
0
346
0
  0
LAYOUT
  5
5E5
102
{ACAD_REACTORS
330
1A
102
}
100
AcDbPlotSettings
  1

  2
none_device
  4
ISO_A4_(297.00_x_210.00_MM)
  6

 40
0.0
 41
0.0
 42
0.0
 43
0.0
 44
297.0
 45
210.0
 46
0.0
 47
0.0
 48
0.0
 49
0.0
140
0.0
141
0.0
142
1.0
143
1.0
 70
0
 72
1
 73
0
 74
0
  7

 75
0
147
1.0
148
0.0
149
0.0
100
AcDbLayout
  1
Layout1
 70
0
 71
1
 10
0.0
 20
0.0
 11
297.0
 21
210.0
 12
0.0
 22
0.0
 32
0.0
 14
0.0
 24
0.0
 34
0.0
 15
0.0
 25
0.0
 35
0.0
146
0.0
 13
0.0
 23
0.0
 33
0.0
 16
1.0
 26
0.0
 36
0.0
 17
0.0
 27
1.0
 37
0.0
 76
0
330
232
345
0
346
0
  0
ENDSEC
  0
EOF
