  0
SECTION
  2
HEADER
  9
$ACADVER
  1
AC1024
  9
$DWGCODEPAGE
  3
ANSI_1252
  9
$EXTMAX
 10
210.0
 20
297.0
 30
0.0
  9
$EXTMIN
 10
0.0
 20
0.0
 30
0.0
  9
$LIMMIN
 10
0.0
 20
0.0
  9
$LIMMAX
 10
210.0
 20
297.0
  9
$VIEWCTR
 10
105.0
 20
148.5
  9
$VIEWSIZE
 40
297.0
  9
$CLAYER
  8
0
  9
$LTSCALE
 40
19.36
  9
$CELTYPE
  6
BYLAYER
  9
$DIMSCALE
 40
1.0
  9
$DIMASZ
 40
3.0
  9
$DIMEXO
 40
0.5
  9
$DIMDLI
 40
13.376
  9
$DIMEXE
 40
1.5
  9
$DIMCEN
 40
3.168
  9
$DIMLFAC
 40
1.0
  9
$DIMBLK
  1
_FILLED
  9
$DIMALT
 70
0
  9
$DIMALTF
 40
0.0393700787
  9
$DIMTXT
 40
3.0
  9
$DIMTOL
 70
1
  9
$DIMLIM
 70
0
  9
$DIMTFAC
 40
1.0
  9
$DIMTP
 40
0.01
  9
$DIMTM
 40
0.01
  9
$DIMGAP
 40
0.625
  9
$DIMDSEP
 70
44
  9
$AUNITS
 70
0
  9
$PDMODE
 70
3
  9
$PDSIZE
 40
3.0
  9
$HANDSEED
  5
39E
  9
$TILEMODE
 70
1
  9
$MEASUREMENT
 70
1
  9
$INSUNITS
 70
4
  0
ENDSEC
  0
SECTION
  2
CLASSES
  0
CLASS
  1
ACDBDICTIONARYWDFLT
  2
AcDbDictionaryWithDefault
  3
AutoCAD 2000
 90
0
 91
1
280
0
281
0
  0
CLASS
  1
ACDBPLACEHOLDER
  2
AcDbPlaceHolder
  3
AutoCAD 2000
 90
0
 91
1
280
0
281
0
  0
CLASS
  1
LAYOUT
  2
AcDbLayout
  3
AutoCAD 2000
 90
0
 91
0
280
0
281
0
  0
ENDSEC
  0
SECTION
  2
TABLES
  0
TABLE
  2
VPORT
  5
8
100
AcDbSymbolTable
 70
2
  0
VPORT
  5
1F4
100
AcDbSymbolTableRecord
100
AcDbViewportTableRecord
  2
*ACTIVE
 70
0
 10
0.0
 20
0.0
 11
1.0
 21
1.0
 12
105.0
 22
148.5
 13
0.0
 23
0.0
 14
1.0
 24
1.0
 15
0.0
 25
0.0
 16
0.0
 26
0.0
 36
1.0
 17
0.0
 27
0.0
 37
0.0
 40
297.0
 41
0.7070707071
 42
50.0
 43
0.0
 44
0.0
 50
0.0
 51
0.0
 71
0
 72
100
 73
1
 74
1
 75
0
 76
0
 77
0
 78
0
  0
ENDTAB
  0
TABLE
  2
LTYPE
  5
5
100
AcDbSymbolTable
 70
6
  0
LTYPE
  5
14
100
AcDbSymbolTableRecord
100
AcDbLinetypeTableRecord
  2
BYBLOCK
 70
0
  3

 72
65
 73
0
 40
0.0
  0
LTYPE
  5
15
100
AcDbSymbolTableRecord
100
AcDbLinetypeTableRecord
  2
BYLAYER
 70
0
  3

 72
65
 73
0
 40
0.0
  0
LTYPE
  5
16
100
AcDbSymbolTableRecord
100
AcDbLinetypeTableRecord
  2
CONTINUOUS
 70
64
  3
Solid line
 72
65
 73
0
 40
0.0
  0
LTYPE
  5
1F5
100
AcDbSymbolTableRecord
100
AcDbLinetypeTableRecord
  2
CENTER
 70
64
  3
____ _ ____ _ ____ _ ____ _ ____ _ ____ _ ____
 72
65
 73
4
 40
0.6
 49
0.375
 74
0
 49
-0.075
 74
0
 49
0.075
 74
0
 49
-0.075
 74
0
  0
LTYPE
  5
1F6
100
AcDbSymbolTableRecord
100
AcDbLinetypeTableRecord
  2
HIDDEN
 70
64
  3
- - - - - - - - - - - - - - - - - - - -
 72
65
 73
2
 40
0.2
 49
0.1
 74
0
 49
-0.1
 74
0
  0
LTYPE
  5
1F7
100
AcDbSymbolTableRecord
100
AcDbLinetypeTableRecord
  2
PHANTOM
 70
64
  3
_____ _ _ _____ _ _ _____ _ _ _____
 72
65
 73
6
 40
0.8
 49
0.45
 74
0
 49
-0.05
 74
0
 49
0.1
 74
0
 49
-0.05
 74
0
 49
0.1
 74
0
 49
-0.05
 74
0
  0
LTYPE
  5
1F8
100
AcDbSymbolTableRecord
100
AcDbLinetypeTableRecord
  2
DOT
 70
64
  3
. . . . . . . . . . . . . . . . . . . .
 72
65
 73
2
 40
0.2
 49
0.1
 74
0
 49
-0.1
 74
0
  0
LTYPE
  5
1F9
100
AcDbSymbolTableRecord
100
AcDbLinetypeTableRecord
  2
DASHED
 70
64
  3
- - - - - - - - - - - - - - - - - - - -
 72
65
 73
2
 40
0.2
 49
0.1
 74
0
 49
-0.1
 74
0
  0
ENDTAB
  0
TABLE
  2
LAYER
  5
2
100
AcDbSymbolTable
 70
36
  0
LAYER
  5
10
100
AcDbSymbolTableRecord
100
AcDbLayerTableRecord
  2
0
 70
0
 62
7
  6
CONTINUOUS
370
-3
390
F
  0
LAYER
  5
1FA
100
AcDbSymbolTableRecord
100
AcDbLayerTableRecord
  2
DEFAULT_1
 70
0
 62
7
  6
CENTER
370
-3
390
F
  0
LAYER
  5
1FB
100
AcDbSymbolTableRecord
100
AcDbLayerTableRecord
  2
DEFAULT_2
 70
0
 62
7
  6
HIDDEN
370
-3
390
F
  0
LAYER
  5
1FC
100
AcDbSymbolTableRecord
100
AcDbLayerTableRecord
  2
DEFAULT_3
 70
0
 62
7
  6
PHANTOM
370
-3
390
F
  0
LAYER
  5
1FD
100
AcDbSymbolTableRecord
100
AcDbLayerTableRecord
  2
ASSI
 70
0
 62
7
  6
CONTINUOUS
370
-3
390
F
  0
LAYER
  5
1FE
100
AcDbSymbolTableRecord
100
AcDbLayerTableRecord
  2
COORDINATE
 70
0
 62
7
  6
CONTINUOUS
370
-3
390
F
  0
LAYER
  5
1FF
100
AcDbSymbolTableRecord
100
AcDbLayerTableRecord
  2
COPY_PUBLISH
 70
0
 62
7
  6
CONTINUOUS
370
-3
390
F
  0
LAYER
  5
200
100
AcDbSymbolTableRecord
100
AcDbLayerTableRecord
  2
COSMETICI
 70
0
 62
7
  6
CONTINUOUS
370
-3
390
F
  0
LAYER
  5
201
100
AcDbSymbolTableRecord
100
AcDbLayerTableRecord
  2
CURVE
 70
0
 62
7
  6
CONTINUOUS
370
-3
390
F
  0
LAYER
  5
202
100
AcDbSymbolTableRecord
100
AcDbLayerTableRecord
  2
DRAFT
 70
0
 62
7
  6
CONTINUOUS
370
-3
390
F
  0
LAYER
  5
203
100
AcDbSymbolTableRecord
100
AcDbLayerTableRecord
  2
IMPORT_IGES
 70
0
 62
7
  6
CONTINUOUS
370
-3
390
F
  0
LAYER
  5
204
100
AcDbSymbolTableRecord
100
AcDbLayerTableRecord
  2
INTF_1
 70
0
 62
7
  6
CONTINUOUS
370
-3
390
F
  0
LAYER
  5
205
100
AcDbSymbolTableRecord
100
AcDbLayerTableRecord
  2
INTF_11
 70
0
 62
7
  6
CONTINUOUS
370
-3
390
F
  0
LAYER
  5
206
100
AcDbSymbolTableRecord
100
AcDbLayerTableRecord
  2
INTF_13
 70
0
 62
7
  6
CONTINUOUS
370
-3
390
F
  0
LAYER
  5
207
100
AcDbSymbolTableRecord
100
AcDbLayerTableRecord
  2
INTF_2
 70
0
 62
7
  6
CONTINUOUS
370
-3
390
F
  0
LAYER
  5
208
100
AcDbSymbolTableRecord
100
AcDbLayerTableRecord
  2
NOTE
 70
0
 62
7
  6
CONTINUOUS
370
-3
390
F
  0
LAYER
  5
209
100
AcDbSymbolTableRecord
100
AcDbLayerTableRecord
  2
PIANI
 70
0
 62
7
  6
CONTINUOUS
370
-3
390
F
  0
LAYER
  5
20A
100
AcDbSymbolTableRecord
100
AcDbLayerTableRecord
  2
PUNTI
 70
0
 62
7
  6
CONTINUOUS
370
-3
390
F
  0
LAYER
  5
20B
100
AcDbSymbolTableRecord
100
AcDbLayerTableRecord
  2
RACCORDO
 70
0
 62
7
  6
CONTINUOUS
370
-3
390
F
  0
LAYER
  5
20C
100
AcDbSymbolTableRecord
100
AcDbLayerTableRecord
  2
SIMBOLI
 70
0
 62
7
  6
CONTINUOUS
370
-3
390
F
  0
LAYER
  5
20D
100
AcDbSymbolTableRecord
100
AcDbLayerTableRecord
  2
SMUSSO
 70
0
 62
7
  6
CONTINUOUS
370
-3
390
F
  0
LAYER
  5
20E
100
AcDbSymbolTableRecord
100
AcDbLayerTableRecord
  2
SNAPLINE
 70
0
 62
7
  6
CONTINUOUS
370
-3
390
F
  0
LAYER
  5
20F
100
AcDbSymbolTableRecord
100
AcDbLayerTableRecord
  2
SUPERFICI
 70
0
 62
7
  6
CONTINUOUS
370
-3
390
F
  0
LAYER
  5
210
100
AcDbSymbolTableRecord
100
AcDbLayerTableRecord
  2
TRASH
 70
0
 62
7
  6
CONTINUOUS
370
-3
390
F
  0
ENDTAB
  0
TABLE
  2
STYLE
  5
3
100
AcDbSymbolTable
 70
1
  0
STYLE
  5
11
100
AcDbSymbolTableRecord
100
AcDbTextStyleTableRecord
  2
STANDARD
 70
0
 40
0.0
 41
0.8
 50
0.0
 71
0
 42
0.2
  3
txt
  4

  0
STYLE
  5
211
100
AcDbSymbolTableRecord
100
AcDbTextStyleTableRecord
  2
TEXTSTYLE_1
 70
0
 40
0.0
 41
0.8
 50
0.0
 71
0
 42
0.2
  3
gdt
  4

  0
ENDTAB
  0
TABLE
  2
VIEW
  5
6
100
AcDbSymbolTable
 70
0
  0
ENDTAB
  0
TABLE
  2
UCS
  5
7
100
AcDbSymbolTable
 70
0
  0
ENDTAB
  0
TABLE
  2
APPID
  5
9
100
AcDbSymbolTable
 70
1
  0
APPID
  5
212
100
AcDbSymbolTableRecord
100
AcDbRegAppTableRecord
  2
ACAD
 70
0
  0
ENDTAB
  0
TABLE
  2
BLOCK_RECORD
  5
1
100
AcDbSymbolTable
 70
0
  0
BLOCK_RECORD
  5
213
100
AcDbSymbolTableRecord
100
AcDbBlockTableRecord
  2
*Model_Space
  0
BLOCK_RECORD
  5
214
100
AcDbSymbolTableRecord
100
AcDbBlockTableRecord
  2
*Paper_Space
  0
BLOCK_RECORD
  5
215
100
AcDbSymbolTableRecord
100
AcDbBlockTableRecord
  2
_FILLED
  0
ENDTAB
  0
TABLE
  2
DIMSTYLE
  5
A
100
AcDbSymbolTable
 70
1
100
AcDbDimStyleTable
 71
0
  0
DIMSTYLE
105
216
100
AcDbSymbolTableRecord
100
AcDbDimStyleTableRecord
  2
STANDARD
 70
0
  3

  4

 40
1.0
 41
3.0
 42
0.5
 43
0.38
 44
1.5
 45
0.0
 46
0.0
 47
0.01
 48
0.01
140
3.0
141
0.09
142
0.0
143
25.4
144
1.0
145
0.0
146
1.0
147
0.625
 71
1
 72
0
 73
0
 74
0
 75
0
 76
0
 77
1
 78
8
 79
2
170
0
171
1
172
0
173
0
174
0
175
0
176
0
177
0
178
0
270
2
179
2
271
2
272
2
273
2
274
2
275
0
280
0
281
0
282
0
283
1
284
8
285
0
286
0
287
3
288
0
340
11
278
44
341
215
342
215
343
215
344
215
  0
ENDTAB
  0
ENDSEC
  0
SECTION
  2
BLOCKS
  0
BLOCK
  5
20
100
AcDbEntity
  8
0
100
AcDbBlockBegin
  2
*Model_Space
 70
0
 10
0.0
 20
0.0
 30
0.0
  3
*Model_Space
  1

  0
ENDBLK
  5
21
100
AcDbEntity
  8
0
100
AcDbBlockEnd
  0
BLOCK
  5
1C
100
AcDbEntity
  8
0
100
AcDbBlockBegin
  2
*Paper_Space
 70
0
 10
0.0
 20
0.0
 30
0.0
  3
*Paper_Space
  1

  0
ENDBLK
  5
1D
100
AcDbEntity
  8
0
100
AcDbBlockEnd
  0
BLOCK
  5
217
100
AcDbEntity
  8
0
100
AcDbBlockBegin
  2
_FILLED
 70
64
 10
0.0
 20
0.0
  3
_FILLED
  1

  0
SOLID
  5
218
100
AcDbEntity
  8
0
  6
BYBLOCK
 62
0
100
AcDbTrace
 10
0.0
 20
0.0
 11
-1.0
 21
0.3166666667
 12
-1.0
 22
-0.3166666667
 13
-1.0
 23
-0.3166666667
  0
ENDBLK
  5
219
100
AcDbEntity
  8
0
  6
BYBLOCK
 62
0
100
AcDbBlockEnd
  0
ENDSEC
  0
SECTION
  2
ENTITIES
  0
LINE
  5
21A
100
AcDbEntity
  8
0
100
AcDbLine
 62
7
  6
CONTINUOUS
 10
-33.4163501084
 20
52.8842541574
 11
-30.3050802712
 21
54.6806623681
  0
LINE
  5
21B
100
AcDbEntity
  8
RACCORDO
100
AcDbLine
 62
7
  6
CONTINUOUS
 10
-33.4163501084
 20
52.8842541574
 11
-30.3050802712
 21
54.6806623681
  0
LINE
  5
21C
100
AcDbEntity
  8
0
100
AcDbLine
 62
250
  6
CONTINUOUS
 10
-32.6663138682
 20
52.8099423909
 11
-29.555044031
 21
54.6063506016
  0
LINE
  5
21D
100
AcDbEntity
  8
RACCORDO
100
AcDbLine
 62
250
  6
CONTINUOUS
 10
-32.6663138682
 20
52.8099423909
 11
-29.555044031
 21
54.6063506016
  0
LINE
  5
21E
100
AcDbEntity
  8
RACCORDO
100
AcDbLine
 62
7
  6
CONTINUOUS
 10
-27.4307766575
 20
54.1446430526
 11
-28.1287028842
 21
53.7827990996
  0
LINE
  5
21F
100
AcDbEntity
  8
RACCORDO
100
AcDbLine
 62
250
  6
CONTINUOUS
 10
-27.091702943
 20
54.1040486596
 11
-27.9312393014
 21
53.6687861018
  0
LWPOLYLINE
  5
220
100
AcDbEntity
  8
0
100
AcDbPolyline
 62
7
  6
CONTINUOUS
 90
13
 70
0
 10
-30.3050805049
 20
54.6806622331
 10
-30.2544414566
 20
54.706149813
 10
-30.2006364289
 20
54.7260695236
 10
-30.1443152498
 20
54.7401883395
 10
-30.0854456879
 20
54.7484319525
 10
-30.0240599746
 20
54.7508746709
 10
-29.9609411061
 20
54.7474853369
 10
-29.896066881
 20
54.7381892431
 10
-29.8294595007
 20
54.7230610969
 10
-29.7619685655
 20
54.7022938632
 10
-29.6938772755
 20
54.6759518636
 10
-29.6249024307
 20
54.6439707763
 10
-29.555044031
 20
54.6063506016
  0
LWPOLYLINE
  5
221
100
AcDbEntity
  8
RACCORDO
100
AcDbPolyline
 62
7
  6
CONTINUOUS
 90
13
 70
0
 10
-30.3050805049
 20
54.6806622331
 10
-30.2544414566
 20
54.706149813
 10
-30.2006364289
 20
54.7260695236
 10
-30.1443152498
 20
54.7401883395
 10
-30.0854456879
 20
54.7484319525
 10
-30.0240599746
 20
54.7508746709
 10
-29.9609411061
 20
54.7474853369
 10
-29.896066881
 20
54.7381892431
 10
-29.8294595007
 20
54.7230610969
 10
-29.7619685655
 20
54.7022938632
 10
-29.6938772755
 20
54.6759518636
 10
-29.6249024307
 20
54.6439707763
 10
-29.555044031
 20
54.6063506016
  0
LWPOLYLINE
  5
222
100
AcDbEntity
  8
RACCORDO
100
AcDbPolyline
 62
250
  6
CONTINUOUS
 90
11
 70
0
 10
-27.4307766575
 20
54.1446430526
 10
-27.4057101648
 20
54.15583002
 10
-27.3768512427
 20
54.1647322623
 10
-27.346278721
 20
54.1702165355
 10
-27.3139110889
 20
54.1721921635
 10
-27.279759793
 20
54.1704990999
 10
-27.2440940553
 20
54.1649941557
 10
-27.2072315255
 20
54.1556130633
 10
-27.1694221992
 20
54.1423365709
 10
-27.1308359627
 20
54.1251432564
 10
-27.0917028872
 20
54.1040486885
  0
LINE
  5
223
100
AcDbEntity
  8
CURVE
100
AcDbLine
 62
250
  6
CONTINUOUS
 10
31.4957189493
 20
-45.5627254552
 11
30.9709290451
 21
-45.6960275888
  0
LINE
  5
224
100
AcDbEntity
  8
CURVE
100
AcDbLine
 62
250
  6
CONTINUOUS
 10
30.5823703333
 20
-49.291844379
 11
31.55573888
 21
-49.0505831111
  0
LINE
  5
225
100
AcDbEntity
  8
CURVE
100
AcDbLine
 62
250
  6
CONTINUOUS
 10
31.9964693444
 20
-45.4373652446
 11
31.7141647401
 21
-45.5063168068
  0
LINE
  5
226
100
AcDbEntity
  8
CURVE
100
AcDbLine
 62
250
  6
CONTINUOUS
 10
30.5823703333
 20
-46.0788289058
 11
31.9964693444
 21
-45.7744988854
  0
LINE
  5
227
100
AcDbEntity
  8
CURVE
100
AcDbLine
 62
250
  6
CONTINUOUS
 10
31.9964693444
 20
-48.6596125473
 11
30.5823703333
 21
-48.9512456384
  0
LINE
  5
228
100
AcDbEntity
  8
CURVE
100
AcDbLine
 62
250
  6
CONTINUOUS
 10
30.5823703333
 20
-47.1344065855
 11
31.3674823061
 21
-47.0219233904
  0
LINE
  5
229
100
AcDbEntity
  8
CURVE
100
AcDbLine
 62
250
  6
CONTINUOUS
 10
31.9964693444
 20
-46.6367151754
 11
31.0769392008
 21
-46.7623926822
  0
LWPOLYLINE
  5
22A
100
AcDbEntity
  8
0
100
AcDbPolyline
 62
250
  6
CONTINUOUS
 90
25
 70
0
 10
-33.72697404
 20
-17.610599255
 10
-33.725456188
 20
-17.664919363
 10
-33.720965401
 20
-17.7203854062
 10
-33.7135016789
 20
-17.7769973846
 10
-33.7030048661
 20
-17.8350504011
 10
-33.6895351182
 20
-17.8942493527
 10
-33.6732729021
 20
-17.9537089308
 10
-33.6541876857
 20
-18.0133805951
 10
-33.6323100011
 20
-18.0733128858
 10
-33.6079119115
 20
-18.1327661158
 10
-33.5809575963
 20
-18.1917459884
 10
-33.5514828761
 20
-18.2502468003
 10
-33.5198672759
 20
-18.3075117546
 10
-33.4860820404
 20
-18.3635243367
 10
-33.4501559249
 20
-18.4183010611
 10
-33.4125547205
 20
-18.4711346745
 10
-33.3732654033
 20
-18.5219912973
 10
-33.3323009972
 20
-18.570904809
 10
-33.2901663653
 20
-18.6172695949
 10
-33.2468048435
 20
-18.6610830323
 10
-33.2022730959
 20
-18.7023477438
 10
-33.1572459781
 20
-18.7404659835
 10
-33.1119484419
 20
-18.7752385026
 10
-33.0661555355
 20
-18.8068645498
 10
-33.0198672588
 20
-18.8353441251
  0
LWPOLYLINE
  5
22B
100
AcDbEntity
  8
RACCORDO
100
AcDbPolyline
 62
250
  6
CONTINUOUS
 90
25
 70
0
 10
-33.72697404
 20
-17.610599255
 10
-33.725456188
 20
-17.664919363
 10
-33.720965401
 20
-17.7203854062
 10
-33.7135016789
 20
-17.7769973846
 10
-33.7030048661
 20
-17.8350504011
 10
-33.6895351182
 20
-17.8942493527
 10
-33.6732729021
 20
-17.9537089308
 10
-33.6541876857
 20
-18.0133805951
 10
-33.6323100011
 20
-18.0733128858
 10
-33.6079119115
 20
-18.1327661158
 10
-33.5809575963
 20
-18.1917459884
 10
-33.5514828761
 20
-18.2502468003
 10
-33.5198672759
 20
-18.3075117546
 10
-33.4860820404
 20
-18.3635243367
 10
-33.4501559249
 20
-18.4183010611
 10
-33.4125547205
 20
-18.4711346745
 10
-33.3732654033
 20
-18.5219912973
 10
-33.3323009972
 20
-18.570904809
 10
-33.2901663653
 20
-18.6172695949
 10
-33.2468048435
 20
-18.6610830323
 10
-33.2022730959
 20
-18.7023477438
 10
-33.1572459781
 20
-18.7404659835
 10
-33.1119484419
 20
-18.7752385026
 10
-33.0661555355
 20
-18.8068645498
 10
-33.0198672588
 20
-18.8353441251
  0
LINE
  5
22C
100
AcDbEntity
  8
0
100
AcDbLine
 62
7
  6
CONTINUOUS
 10
-33.8734206494
 20
51.9935115691
 11
-33.8734206494
 21
-17.4064619583
  0
LINE
  5
22D
100
AcDbEntity
  8
RACCORDO
100
AcDbLine
 62
7
  6
CONTINUOUS
 10
-33.8734206494
 20
51.9935115691
 11
-33.8734206494
 21
-17.4064619583
  0
LWPOLYLINE
  5
22E
100
AcDbEntity
  8
0
100
AcDbPolyline
 62
7
  6
CONTINUOUS
 90
16
 70
0
 10
-33.8734206494
 20
51.9935115691
 10
-33.8709007453
 20
52.0777979756
 10
-33.8634674272
 20
52.158963782
 10
-33.8513067259
 20
52.2369125313
 10
-33.8345713484
 20
52.3116728916
 10
-33.8134535318
 20
52.3830525186
 10
-33.7882787904
 20
52.4506151602
 10
-33.7594388382
 20
52.5140383848
 10
-33.7271250118
 20
52.5735204886
 10
-33.6914069394
 20
52.629324914
 10
-33.6525758292
 20
52.6812860263
 10
-33.6108723022
 20
52.7293543717
 10
-33.5661953489
 20
52.7738067498
 10
-33.5186469591
 20
52.8145920811
 10
-33.4686066416
 20
52.851444886
 10
-33.4163501084
 20
52.8842541574
  0
LWPOLYLINE
  5
22F
100
AcDbEntity
  8
RACCORDO
100
AcDbPolyline
 62
7
  6
CONTINUOUS
 90
16
 70
0
 10
-33.8734206494
 20
51.9935115691
 10
-33.8709007453
 20
52.0777979756
 10
-33.8634674272
 20
52.158963782
 10
-33.8513067259
 20
52.2369125313
 10
-33.8345713484
 20
52.3116728916
 10
-33.8134535318
 20
52.3830525186
 10
-33.7882787904
 20
52.4506151602
 10
-33.7594388382
 20
52.5140383848
 10
-33.7271250118
 20
52.5735204886
 10
-33.6914069394
 20
52.629324914
 10
-33.6525758292
 20
52.6812860263
 10
-33.6108723022
 20
52.7293543717
 10
-33.5661953489
 20
52.7738067498
 10
-33.5186469591
 20
52.8145920811
 10
-33.4686066416
 20
52.851444886
 10
-33.4163501084
 20
52.8842541574
  0
LWPOLYLINE
  5
230
100
AcDbEntity
  8
0
100
AcDbPolyline
 62
250
  6
CONTINUOUS
 90
19
 70
0
 10
-33.0198672588
 20
52.1975699559
 10
-33.0185218814
 20
52.2339267966
 10
-33.0144959884
 20
52.2715605479
 10
-33.0078202192
 20
52.3101847942
 10
-32.9985453804
 20
52.3495055817
 10
-32.9867420593
 20
52.3892236555
 10
-32.9725000861
 20
52.4290367369
 10
-32.9559278509
 20
52.4686418245
 10
-32.9371514784
 20
52.5077374995
 10
-32.9163138682
 20
52.5460262204
 10
-32.8935736071
 20
52.5832165868
 10
-32.8691037621
 20
52.6190255575
 10
-32.8430905635
 20
52.6531806047
 10
-32.8157319876
 20
52.6854217879
 10
-32.7872362496
 20
52.7155037321
 10
-32.7578202192
 20
52.7431974957
 10
-32.7277077702
 20
52.7682923123
 10
-32.6971280766
 20
52.7905971952
 10
-32.6663138682
 20
52.8099423909
  0
LWPOLYLINE
  5
231
100
AcDbEntity
  8
RACCORDO
100
AcDbPolyline
 62
250
  6
CONTINUOUS
 90
19
 70
0
 10
-33.0198672588
 20
52.1975699559
 10
-33.0185218814
 20
52.2339267966
 10
-33.0144959884
 20
52.2715605479
 10
-33.0078202192
 20
52.3101847942
 10
-32.9985453804
 20
52.3495055817
 10
-32.9867420593
 20
52.3892236555
 10
-32.9725000861
 20
52.4290367369
 10
-32.9559278509
 20
52.4686418245
 10
-32.9371514784
 20
52.5077374995
 10
-32.9163138682
 20
52.5460262204
 10
-32.8935736071
 20
52.5832165868
 10
-32.8691037621
 20
52.6190255575
 10
-32.8430905635
 20
52.6531806047
 10
-32.8157319876
 20
52.6854217879
 10
-32.7872362496
 20
52.7155037321
 10
-32.7578202192
 20
52.7431974957
 10
-32.7277077702
 20
52.7682923123
 10
-32.6971280766
 20
52.7905971952
 10
-32.6663138682
 20
52.8099423909
  0
LINE
  5
232
100
AcDbEntity
  8
0
100
AcDbLine
 62
250
  6
CONTINUOUS
 10
-18.1529471844
 20
29.7540373555
 11
-17.8165980861
 21
29.9482411094
  0
LINE
  5
233
100
AcDbEntity
  8
RACCORDO
100
AcDbLine
 62
250
  6
CONTINUOUS
 10
-18.1529471844
 20
29.7540373555
 11
-17.8165980861
 21
29.9482411094
  0
LWPOLYLINE
  5
234
100
AcDbEntity
  8
0
100
AcDbPolyline
 62
7
  6
CONTINUOUS
 90
13
 70
0
 10
-18.0286976117
 20
30.0286794722
 10
-18.0289294996
 20
30.028591136
 10
-18.0274337758
 20
30.0291371486
 10
-18.0236697346
 20
30.0299417961
 10
-18.01730766
 20
30.0305555653
 10
-18.0082112832
 20
30.0305177083
 10
-17.9963957116
 20
30.0294017599
 10
-17.982023667
 20
30.0268486503
 10
-17.9653491894
 20
30.0225862108
 10
-17.9465000025
 20
30.016367256
 10
-17.9255935675
 20
30.0079625171
 10
-17.9029041904
 20
29.9972354564
 10
-17.8786903637
 20
29.9840924123
  0
LWPOLYLINE
  5
235
100
AcDbEntity
  8
RACCORDO
100
AcDbPolyline
 62
7
  6
CONTINUOUS
 90
13
 70
0
 10
-18.0286976117
 20
30.0286794722
 10
-18.0289294996
 20
30.028591136
 10
-18.0274337758
 20
30.0291371486
 10
-18.0236697346
 20
30.0299417961
 10
-18.01730766
 20
30.0305555653
 10
-18.0082112832
 20
30.0305177083
 10
-17.9963957116
 20
30.0294017599
 10
-17.982023667
 20
30.0268486503
 10
-17.9653491894
 20
30.0225862108
 10
-17.9465000025
 20
30.016367256
 10
-17.9255935675
 20
30.0079625171
 10
-17.9029041904
 20
29.9972354564
 10
-17.8786903637
 20
29.9840924123
  0
LWPOLYLINE
  5
236
100
AcDbEntity
  8
0
100
AcDbPolyline
 62
250
  6
CONTINUOUS
 90
19
 70
0
 10
29.2055294856
 20
-53.9470380612
 10
29.2376890714
 20
-53.9640529948
 10
29.272294658
 20
-53.9793848265
 10
29.3090828762
 20
-53.9929168717
 10
29.3477737453
 20
-54.0045461433
 10
29.3880728045
 20
-54.0141841356
 10
29.4296733537
 20
-54.0217574976
 10
29.4722587874
 20
-54.0272085915
 10
29.5155050048
 20
-54.0304959312
 10
29.5590828762
 20
-54.031594498
 10
29.6026607476
 20
-54.0304959312
 10
29.645906965
 20
-54.0272085915
 10
29.6884923988
 20
-54.0217574976
 10
29.7300929479
 20
-54.0141841356
 10
29.7703920071
 20
-54.0045461433
 10
29.8090828762
 20
-53.9929168717
 10
29.8458710944
 20
-53.9793848265
 10
29.8804766811
 20
-53.9640529948
 10
29.9126362668
 20
-53.9470380612
  0
LWPOLYLINE
  5
237
100
AcDbEntity
  8
RACCORDO
100
AcDbPolyline
 62
250
  6
CONTINUOUS
 90
19
 70
0
 10
29.2055294856
 20
-53.9470380612
 10
29.2376890714
 20
-53.9640529948
 10
29.272294658
 20
-53.9793848265
 10
29.3090828762
 20
-53.9929168717
 10
29.3477737453
 20
-54.0045461433
 10
29.3880728045
 20
-54.0141841356
 10
29.4296733537
 20
-54.0217574976
 10
29.4722587874
 20
-54.0272085915
 10
29.5155050048
 20
-54.0304959312
 10
29.5590828762
 20
-54.031594498
 10
29.6026607476
 20
-54.0304959312
 10
29.645906965
 20
-54.0272085915
 10
29.6884923988
 20
-54.0217574976
 10
29.7300929479
 20
-54.0141841356
 10
29.7703920071
 20
-54.0045461433
 10
29.8090828762
 20
-53.9929168717
 10
29.8458710944
 20
-53.9793848265
 10
29.8804766811
 20
-53.9640529948
 10
29.9126362668
 20
-53.9470380612
  0
LWPOLYLINE
  5
238
100
AcDbEntity
  8
0
100
AcDbPolyline
 62
250
  6
CONTINUOUS
 90
25
 70
0
 10
28.4984227044
 20
-54.3552337446
 10
28.5447078142
 20
-54.3802055789
 10
28.5904987536
 20
-54.4014593463
 10
28.6357955228
 20
-54.4189950469
 10
28.6808236159
 20
-54.4328734185
 10
28.7253575387
 20
-54.4430337234
 10
28.768720809
 20
-54.4492937474
 10
28.8108561205
 20
-54.4515851485
 10
28.8518207794
 20
-54.4499762688
 10
28.8911102219
 20
-54.4444899209
 10
28.9287114754
 20
-54.4350772538
 10
28.9646375124
 20
-54.4217871185
 10
28.9984226874
 20
-54.4047888806
 10
29.0300383188
 20
-54.3840327771
 10
29.0595130882
 20
-54.3595685711
 10
29.0864673944
 20
-54.3317149175
 10
29.1108653834
 20
-54.3004360764
 10
29.1327429092
 20
-54.2657677876
 10
29.1518279332
 20
-54.2281359266
 10
29.1680898491
 20
-54.1874573935
 10
29.1815592632
 20
-54.143815288
 10
29.1920559559
 20
-54.0978847846
 10
29.1995198539
 20
-54.0498909414
 10
29.2040110305
 20
-53.9996087003
 10
29.2055294856
 20
-53.9470380612
  0
LWPOLYLINE
  5
239
100
AcDbEntity
  8
RACCORDO
100
AcDbPolyline
 62
250
  6
CONTINUOUS
 90
25
 70
0
 10
28.4984227044
 20
-54.3552337446
 10
28.5447078142
 20
-54.3802055789
 10
28.5904987536
 20
-54.4014593463
 10
28.6357955228
 20
-54.4189950469
 10
28.6808236159
 20
-54.4328734185
 10
28.7253575387
 20
-54.4430337234
 10
28.768720809
 20
-54.4492937474
 10
28.8108561205
 20
-54.4515851485
 10
28.8518207794
 20
-54.4499762688
 10
28.8911102219
 20
-54.4444899209
 10
28.9287114754
 20
-54.4350772538
 10
28.9646375124
 20
-54.4217871185
 10
28.9984226874
 20
-54.4047888806
 10
29.0300383188
 20
-54.3840327771
 10
29.0595130882
 20
-54.3595685711
 10
29.0864673944
 20
-54.3317149175
 10
29.1108653834
 20
-54.3004360764
 10
29.1327429092
 20
-54.2657677876
 10
29.1518279332
 20
-54.2281359266
 10
29.1680898491
 20
-54.1874573935
 10
29.1815592632
 20
-54.143815288
 10
29.1920559559
 20
-54.0978847846
 10
29.1995198539
 20
-54.0498909414
 10
29.2040110305
 20
-53.9996087003
 10
29.2055294856
 20
-53.9470380612
  0
LWPOLYLINE
  5
23A
100
AcDbEntity
  8
0
100
AcDbPolyline
 62
250
  6
CONTINUOUS
 90
10
 70
0
 10
-33.0198672588
 20
-18.8353441251
 10
-33.0185218814
 20
-18.8701473578
 10
-33.0144959884
 20
-18.9031321087
 10
-33.0078202192
 20
-18.9340473441
 10
-32.9985453804
 20
-18.9626577803
 10
-32.9867420592
 20
-18.9887456746
 10
-32.9725000861
 20
-19.0121124824
 10
-32.9559278509
 20
-19.0325803682
 10
-32.9371514784
 20
-19.049993559
 10
-32.9163259483
 20
-19.0642125557
  0
LWPOLYLINE
  5
23B
100
AcDbEntity
  8
RACCORDO
100
AcDbPolyline
 62
250
  6
CONTINUOUS
 90
10
 70
0
 10
-33.0198672588
 20
-18.8353441251
 10
-33.0185218814
 20
-18.8701473578
 10
-33.0144959884
 20
-18.9031321087
 10
-33.0078202192
 20
-18.9340473441
 10
-32.9985453804
 20
-18.9626577803
 10
-32.9867420592
 20
-18.9887456746
 10
-32.9725000861
 20
-19.0121124824
 10
-32.9559278509
 20
-19.0325803682
 10
-32.9371514784
 20
-19.049993559
 10
-32.9163259483
 20
-19.0642125557
  0
LINE
  5
23C
100
AcDbEntity
  8
0
100
AcDbLine
 62
250
  6
CONTINUOUS
 10
-33.72697404
 20
51.7893742724
 11
-33.72697404
 21
-17.610599255
  0
LINE
  5
23D
100
AcDbEntity
  8
RACCORDO
100
AcDbLine
 62
250
  6
CONTINUOUS
 10
-33.72697404
 20
51.7893742724
 11
-33.72697404
 21
-17.610599255
  0
LINE
  5
23E
100
AcDbEntity
  8
RACCORDO
100
AcDbLine
 62
250
  6
CONTINUOUS
 10
-16.2368349617
 20
24.9606232672
 11
-17.4203591408
 21
24.2619716374
  0
LINE
  5
23F
100
AcDbEntity
  8
RACCORDO
100
AcDbLine
 62
250
  6
CONTINUOUS
 10
-17.3869585157
 20
24.1373012361
 11
-17.4767154275
 21
24.0863582377
  0
LINE
  5
240
100
AcDbEntity
  8
RACCORDO
100
AcDbLine
 62
250
  6
CONTINUOUS
 10
-17.4203591408
 20
24.2619716374
 11
-17.4948153027
 21
24.2199165293
  0
LWPOLYLINE
  5
241
100
AcDbEntity
  8
RACCORDO
100
AcDbPolyline
 62
250
  6
CONTINUOUS
 90
4
 70
0
 10
-17.5165510813
 20
24.0645024412
 10
-17.5101884335
 20
24.0679125991
 10
-17.4930569067
 20
24.0772635291
 10
-17.4767154275
 20
24.0863582377
  0
LINE
  5
242
100
AcDbEntity
  8
0
100
AcDbLine
 62
7
  6
CONTINUOUS
 10
-32.9163259483
 20
-19.0642125557
 11
28.6019640149
 21
-54.5841021752
  0
LINE
  5
243
100
AcDbEntity
  8
RACCORDO
100
AcDbLine
 62
7
  6
CONTINUOUS
 10
-32.9163259483
 20
-19.0642125557
 11
28.6019640149
 21
-54.5841021752
  0
LINE
  5
244
100
AcDbEntity
  8
0
100
AcDbLine
 62
250
  6
CONTINUOUS
 10
-33.0198672588
 20
-18.8353441251
 11
28.4984227044
 21
-54.3552337446
  0
LINE
  5
245
100
AcDbEntity
  8
RACCORDO
100
AcDbLine
 62
250
  6
CONTINUOUS
 10
-33.0198672588
 20
-18.8353441251
 11
28.4984227044
 21
-54.3552337446
  0
LWPOLYLINE
  5
246
100
AcDbEntity
  8
0
100
AcDbPolyline
 62
7
  6
CONTINUOUS
 90
22
 70
0
 10
-32.9163259483
 20
-19.0642125557
 10
-32.9948323344
 20
-19.0155503673
 10
-33.0709679287
 20
-18.9617889382
 10
-33.1446208471
 20
-18.9032727474
 10
-33.2158282992
 20
-18.840183473
 10
-33.2843704517
 20
-18.7728853626
 10
-33.3497492291
 20
-18.7020724671
 10
-33.4117229724
 20
-18.62826034
 10
-33.4703599941
 20
-18.5515883977
 10
-33.525591329
 20
-18.4723020177
 10
-33.5772715673
 20
-18.3907316064
 10
-33.6253057538
 20
-18.3071159003
 10
-33.66964541
 20
-18.2215620394
 10
-33.7101616407
 20
-18.1342622762
 10
-33.7466566515
 20
-18.0455300639
 10
-33.7789586675
 20
-17.9556104631
 10
-33.8069198269
 20
-17.8646213749
 10
-33.8302982159
 20
-17.7729184635
 10
-33.8488325562
 20
-17.6810164569
 10
-33.8623320191
 20
-17.5891964182
 10
-33.8706066144
 20
-17.4975919223
 10
-33.8734206494
 20
-17.4064619583
  0
LWPOLYLINE
  5
247
100
AcDbEntity
  8
RACCORDO
100
AcDbPolyline
 62
7
  6
CONTINUOUS
 90
22
 70
0
 10
-32.9163259483
 20
-19.0642125557
 10
-32.9948323344
 20
-19.0155503673
 10
-33.0709679287
 20
-18.9617889382
 10
-33.1446208471
 20
-18.9032727474
 10
-33.2158282992
 20
-18.840183473
 10
-33.2843704517
 20
-18.7728853626
 10
-33.3497492291
 20
-18.7020724671
 10
-33.4117229724
 20
-18.62826034
 10
-33.4703599941
 20
-18.5515883977
 10
-33.525591329
 20
-18.4723020177
 10
-33.5772715673
 20
-18.3907316064
 10
-33.6253057538
 20
-18.3071159003
 10
-33.66964541
 20
-18.2215620394
 10
-33.7101616407
 20
-18.1342622762
 10
-33.7466566515
 20
-18.0455300639
 10
-33.7789586675
 20
-17.9556104631
 10
-33.8069198269
 20
-17.8646213749
 10
-33.8302982159
 20
-17.7729184635
 10
-33.8488325562
 20
-17.6810164569
 10
-33.8623320191
 20
-17.5891964182
 10
-33.8706066144
 20
-17.4975919223
 10
-33.8734206494
 20
-17.4064619583
  0
LWPOLYLINE
  5
248
100
AcDbEntity
  8
0
100
AcDbPolyline
 62
250
  6
CONTINUOUS
 90
10
 70
0
 10
-33.72697404
 20
-17.610599255
 10
-33.756442871
 20
-17.5920307132
 10
-33.7829966715
 20
-17.5720498812
 10
-33.8064333513
 20
-17.5508088251
 10
-33.8265745429
 20
-17.5284692022
 10
-33.8432669598
 20
-17.5052010305
 10
-33.8563835625
 20
-17.4811813948
 10
-33.8658245259
 20
-17.4565930991
 10
-33.8715179984
 20
-17.4316232751
 10
-33.8734206494
 20
-17.4064619583
  0
LWPOLYLINE
  5
249
100
AcDbEntity
  8
RACCORDO
100
AcDbPolyline
 62
250
  6
CONTINUOUS
 90
10
 70
0
 10
-33.72697404
 20
-17.610599255
 10
-33.756442871
 20
-17.5920307132
 10
-33.7829966715
 20
-17.5720498812
 10
-33.8064333513
 20
-17.5508088251
 10
-33.8265745429
 20
-17.5284692022
 10
-33.8432669598
 20
-17.5052010305
 10
-33.8563835625
 20
-17.4811813948
 10
-33.8658245259
 20
-17.4565930991
 10
-33.8715179984
 20
-17.4316232751
 10
-33.8734206494
 20
-17.4064619583
  0
LWPOLYLINE
  5
24A
100
AcDbEntity
  8
RACCORDO
100
AcDbPolyline
 62
250
  6
CONTINUOUS
 90
4
 70
0
 10
-16.1346700443
 20
24.3087471627
 10
-16.1482466998
 20
24.2830562594
 10
-16.1640870799
 20
24.2600235802
 10
-16.1820910801
 20
24.23979468
  0
LINE
  5
24B
100
AcDbEntity
  8
RACCORDO
100
AcDbLine
 62
250
  6
CONTINUOUS
 10
-16.1869285479
 20
24.1870342578
 11
-16.1930847987
 21
24.175621937
  0
LWPOLYLINE
  5
24C
100
AcDbEntity
  8
RACCORDO
100
AcDbPolyline
 62
250
  6
CONTINUOUS
 90
5
 70
0
 10
-16.1930847987
 20
24.175621937
 10
-16.2012512478
 20
24.1646381911
 10
-16.2113403971
 20
24.1542007033
 10
-16.2232441486
 20
24.1444213041
 10
-16.2368349616
 20
24.1354047729
  0
LWPOLYLINE
  5
24D
100
AcDbEntity
  8
RACCORDO
100
AcDbPolyline
 62
250
  6
CONTINUOUS
 90
5
 70
0
 10
-16.2090784095
 20
24.2165052127
 10
-16.2152469859
 20
24.2095743341
 10
-16.220638027
 20
24.2017813229
 10
-16.2251679357
 20
24.1933665573
 10
-16.2289420717
 20
24.1842753762
  0
LWPOLYLINE
  5
24E
100
AcDbEntity
  8
RACCORDO
100
AcDbPolyline
 62
250
  6
CONTINUOUS
 90
19
 70
0
 10
-17.461339084
 20
23.4639777536
 10
-17.4410126837
 20
23.4822686664
 10
-17.4227758478
 20
23.5035046793
 10
-17.4067396205
 20
23.5275564874
 10
-17.3930016463
 20
23.554277641
 10
-17.3816455766
 20
23.5835054353
 10
-17.3727405597
 20
23.6150619
 10
-17.3663408182
 20
23.648754887
 10
-17.3624853195
 20
23.684379241
 10
-17.3611975396
 20
23.7217180461
 10
-17.3624853195
 20
23.7605439466
 10
-17.3663408181
 20
23.8006205324
 10
-17.3727405592
 20
23.8417037791
 10
-17.3816455758
 20
23.8835435335
 10
-17.3930016452
 20
23.925885032
 10
-17.4067396193
 20
23.968470454
 10
-17.4227758467
 20
24.011040496
 10
-17.4410126831
 20
24.053335951
 10
-17.4613390842
 20
24.0950992829
  0
LWPOLYLINE
  5
24F
100
AcDbEntity
  8
RACCORDO
100
AcDbPolyline
 62
7
  6
CONTINUOUS
 90
21
 70
0
 10
-17.3869585147
 20
23.5048931209
 10
-17.3693784962
 20
23.5204598647
 10
-17.3533247685
 20
23.5382103905
 10
-17.3388696985
 20
23.5580660282
 10
-17.3260690397
 20
23.5799568233
 10
-17.3149929196
 20
23.6037703437
 10
-17.3057116489
 20
23.6293372588
 10
-17.2982724245
 20
23.6564547269
 10
-17.2926678997
 20
23.6850594075
 10
-17.2888935422
 20
23.715195227
 10
-17.2869818134
 20
23.7468816552
 10
-17.2869818134
 20
23.7798621119
 10
-17.2888935421
 20
23.8137561566
 10
-17.2926678996
 20
23.8482505095
 10
-17.2982724244
 20
23.8833271549
 10
-17.3057116488
 20
23.9190352529
 10
-17.3149929194
 20
23.9553199467
 10
-17.3260690394
 20
23.9919238929
 10
-17.3388696983
 20
24.0285965681
 10
-17.3533247685
 20
24.0651445585
 10
-17.3693784966
 20
24.101433527
  0
LINE
  5
250
100
AcDbEntity
  8
RACCORDO
100
AcDbLine
 62
250
  6
CONTINUOUS
 10
-16.1820910801
 20
24.23979468
 11
-16.2090784095
 21
24.2165052127
  0
LWPOLYLINE
  5
251
100
AcDbEntity
  8
RACCORDO
100
AcDbPolyline
 62
7
  6
CONTINUOUS
 90
19
 70
0
 10
-16.1912484654
 20
24.229863237
 10
-16.1673976339
 20
24.2496054855
 10
-16.1449783058
 20
24.272078808
 10
-16.1242704553
 20
24.2972469734
 10
-16.1055678953
 20
24.3250034191
 10
-16.0890950789
 20
24.3552810803
 10
-16.0750162269
 20
24.3881310243
 10
-16.0634826811
 20
24.4237828306
 10
-16.0548483443
 20
24.4618853272
 10
-16.0493926165
 20
24.5016370481
 10
-16.0471445316
 20
24.5430302305
 10
-16.0481633713
 20
24.5858725738
 10
-16.0523632602
 20
24.6289830854
 10
-16.0595363049
 20
24.671957847
 10
-16.0695701806
 20
24.7149163885
 10
-16.0822341785
 20
24.7573430517
 10
-16.0973076706
 20
24.7989392506
 10
-16.114680023
 20
24.8396931894
 10
-16.1342284156
 20
24.879475547
  0
LINE
  5
252
100
AcDbEntity
  8
RACCORDO
100
AcDbLine
 62
7
  6
CONTINUOUS
 10
-16.1911693163
 20
24.2299227025
 11
-16.1912484654
 21
24.229863237
  0
LINE
  5
253
100
AcDbEntity
  8
RACCORDO
100
AcDbLine
 62
250
  6
CONTINUOUS
 10
-16.1912484654
 20
24.229863237
 11
-16.2021449224
 21
24.222497396
  0
LINE
  5
254
100
AcDbEntity
  8
RACCORDO
100
AcDbLine
 62
250
  6
CONTINUOUS
 10
-17.3869585147
 20
23.5048931209
 11
-16.2021449225
 21
24.2224973959
  0
LINE
  5
255
100
AcDbEntity
  8
RACCORDO
100
AcDbLine
 62
250
  6
CONTINUOUS
 10
-17.420359132
 20
23.418792928
 11
-16.2368349616
 21
24.1354047729
  0
LINE
  5
256
100
AcDbEntity
  8
RACCORDO
100
AcDbLine
 62
250
  6
CONTINUOUS
 10
-17.4948153017
 20
23.3778180046
 11
-17.4203591317
 21
23.4187929277
  0
LINE
  5
257
100
AcDbEntity
  8
RACCORDO
100
AcDbLine
 62
250
  6
CONTINUOUS
 10
-17.461339084
 20
23.4639777536
 11
-17.3869585147
 21
23.5048931208
  0
LWPOLYLINE
  5
258
100
AcDbEntity
  8
RACCORDO
100
AcDbPolyline
 62
250
  6
CONTINUOUS
 90
3
 70
0
 10
-17.5165510813
 20
24.2095860245
 10
-17.5104313867
 20
24.2120693642
 10
-17.4948153027
 20
24.2199165293
  0
LWPOLYLINE
  5
259
100
AcDbEntity
  8
RACCORDO
100
AcDbPolyline
 62
250
  6
CONTINUOUS
 90
3
 70
0
 10
-17.5165510813
 20
23.3674874994
 10
-17.5104313169
 20
23.3699708707
 10
-17.4948153017
 20
23.3778180046
  0
LWPOLYLINE
  5
25A
100
AcDbEntity
  8
RACCORDO
100
AcDbPolyline
 62
7
  6
CONTINUOUS
 90
21
 70
0
 10
7.7543941054
 20
-26.7744520107
 10
7.7496041551
 20
-26.7758122904
 10
7.7371595574
 20
-26.7788564512
 10
7.7224518068
 20
-26.7817152922
 10
7.7055003869
 20
-26.784214246
 10
7.686592114
 20
-26.7861673188
 10
7.6658548337
 20
-26.7874397096
 10
7.6434329048
 20
-26.7879106478
 10
7.6196853914
 20
-26.7874787507
 10
7.59479282
 20
-26.7860648528
 10
7.5690649199
 20
-26.7836158169
 10
7.5430983243
 20
-26.780146826
 10
7.5171644143
 20
-26.7756725273
 10
7.491615614
 20
-26.7702469306
 10
7.4671628133
 20
-26.764047138
 10
7.4440574256
 20
-26.7572010132
 10
7.422555174
 20
-26.7498616125
 10
7.4032501067
 20
-26.742351389
 10
7.3863539996
 20
-26.734926384
 10
7.3717626968
 20
-26.7277225135
 10
7.360795352
 20
-26.7216995734
  0
LWPOLYLINE
  5
25B
100
AcDbEntity
  8
RACCORDO
100
AcDbPolyline
 62
250
  6
CONTINUOUS
 90
7
 70
0
 10
7.2889821032
 20
-26.7186047072
 10
7.3045866214
 20
-26.7143455946
 10
7.3196208073
 20
-26.7124375637
 10
7.333888894
 20
-26.7129054598
 10
7.3472050899
 20
-26.7157431903
 10
7.359395999
 20
-26.7209138038
 10
7.3607920516
 20
-26.7216976677
  0
LWPOLYLINE
  5
25C
100
AcDbEntity
  8
RACCORDO
100
AcDbPolyline
 62
250
  6
CONTINUOUS
 90
4
 70
0
 10
7.8394770583
 20
-26.7898955073
 10
7.8146899384
 20
-26.7964172059
 10
7.7887328369
 20
-26.8017780108
 10
7.7616057539
 20
-26.805977922
  0
LINE
  5
25D
100
AcDbEntity
  8
RACCORDO
100
AcDbLine
 62
250
  6
CONTINUOUS
 10
7.7616057539
 20
-26.805977922
 11
7.7330198361
 21
-26.8090148704
  0
LWPOLYLINE
  5
25E
100
AcDbEntity
  8
RACCORDO
100
AcDbPolyline
 62
250
  6
CONTINUOUS
 90
3
 70
0
 10
7.7330198361
 20
-26.8090148704
 10
7.7032639367
 20
-26.8108909252
 10
7.6732046156
 20
-26.8116122935
  0
LWPOLYLINE
  5
25F
100
AcDbEntity
  8
RACCORDO
100
AcDbPolyline
 62
250
  6
CONTINUOUS
 90
9
 70
0
 10
7.6732046156
 20
-26.8116122935
 10
7.6427541269
 20
-26.8110976451
 10
7.6120002165
 20
-26.8094283103
 10
7.5820726828
 20
-26.8068544871
 10
7.5532399364
 20
-26.8033588987
 10
7.5252335667
 20
-26.798958822
 10
7.49837814
 20
-26.7939562861
 10
7.4729849403
 20
-26.7884657209
 10
7.4487426837
 20
-26.7823726965
  0
LWPOLYLINE
  5
260
100
AcDbEntity
  8
RACCORDO
100
AcDbPolyline
 62
250
  6
CONTINUOUS
 90
5
 70
0
 10
7.7969338377
 20
-26.7726256911
 10
7.7828578619
 20
-26.7709933548
 10
7.769089187
 20
-26.7714713482
 10
7.7557766702
 20
-26.7740545043
 10
7.7544001238
 20
-26.774450225
  0
LWPOLYLINE
  5
261
100
AcDbEntity
  8
RACCORDO
100
AcDbPolyline
 62
250
  6
CONTINUOUS
 90
10
 70
0
 10
-16.134228279
 20
24.8794752865
 10
-16.1346936346
 20
24.8778414771
 10
-16.1370743365
 20
24.8752777945
 10
-16.1413220113
 20
24.8717633017
 10
-16.1473911629
 20
24.8673356468
 10
-16.1552167773
 20
24.8620422628
 10
-16.1647150115
 20
24.8559398649
 10
-16.1757841011
 20
24.8490938356
 10
-16.1883054559
 20
24.8415775218
 10
-17.3869585157
 20
24.1373012361
  0
LWPOLYLINE
  5
262
100
AcDbEntity
  8
RACCORDO
100
AcDbPolyline
 62
250
  6
CONTINUOUS
 90
5
 70
0
 10
-16.2289420717
 20
24.1842753762
 10
-16.2321171088
 20
24.1740212867
 10
-16.23460696
 20
24.1623738188
 10
-16.2362216515
 20
24.1494978928
 10
-16.2368349616
 20
24.1354047729
  0
LWPOLYLINE
  5
263
100
AcDbEntity
  8
RACCORDO
100
AcDbPolyline
 62
250
  6
CONTINUOUS
 90
7
 70
0
 10
7.4487426837
 20
-26.7823726965
 10
7.425042084
 20
-26.7756359532
 10
7.401828661
 20
-26.7683532254
 10
7.379156895
 20
-26.7604267787
 10
7.3565809408
 20
-26.7515221498
 10
7.3339521832
 20
-26.7415278511
 10
7.3114192374
 20
-26.7305553702
  0
LINE
  5
264
100
AcDbEntity
  8
0
100
AcDbLine
 62
250
  6
CONTINUOUS
 10
13.4193705956
 20
-32.2790772594
 11
-17.94081515
 21
-14.1720990454
  0
LINE
  5
265
100
AcDbEntity
  8
RACCORDO
100
AcDbLine
 62
250
  6
CONTINUOUS
 10
13.4193705956
 20
-32.2790772594
 11
-17.94081515
 21
-14.1720990454
  0
LWPOLYLINE
  5
266
100
AcDbEntity
  8
0
100
AcDbPolyline
 62
250
  6
CONTINUOUS
 90
22
 70
0
 10
-17.94081515
 20
-14.1720990454
 10
-17.9884537012
 20
-14.1425263584
 10
-18.0354240654
 20
-14.10932644
 10
-18.0817262426
 20
-14.0724992901
 10
-18.1276574004
 20
-14.031767275
 10
-18.1729203713
 20
-13.9874080286
 10
-18.216623652
 20
-13.9402544515
 10
-18.2586863905
 20
-13.8903013914
 10
-18.2991894389
 20
-13.8375540008
 10
-18.33748385
 20
-13.7828606377
 10
-18.373547024
 20
-13.7261685499
 10
-18.4074015607
 20
-13.6675304898
 10
-18.4384663134
 20
-13.607953072
 10
-18.466684357
 20
-13.5474427396
 10
-18.4921126166
 20
-13.4859930497
 10
-18.5143407204
 20
-13.4245912881
 10
-18.5333235104
 20
-13.3631714806
 10
-18.5491061446
 20
-13.3017996015
 10
-18.5614137257
 20
-13.2416608592
 10
-18.5701546213
 20
-13.1831503234
 10
-18.5754204637
 20
-13.1258729244
 10
-18.5772112531
 20
-13.0698286622
  0
LWPOLYLINE
  5
267
100
AcDbEntity
  8
RACCORDO
100
AcDbPolyline
 62
250
  6
CONTINUOUS
 90
22
 70
0
 10
-17.94081515
 20
-14.1720990454
 10
-17.9884537012
 20
-14.1425263584
 10
-18.0354240654
 20
-14.10932644
 10
-18.0817262426
 20
-14.0724992901
 10
-18.1276574004
 20
-14.031767275
 10
-18.1729203713
 20
-13.9874080286
 10
-18.216623652
 20
-13.9402544515
 10
-18.2586863905
 20
-13.8903013914
 10
-18.2991894389
 20
-13.8375540008
 10
-18.33748385
 20
-13.7828606377
 10
-18.373547024
 20
-13.7261685499
 10
-18.4074015607
 20
-13.6675304898
 10
-18.4384663134
 20
-13.607953072
 10
-18.466684357
 20
-13.5474427396
 10
-18.4921126166
 20
-13.4859930497
 10
-18.5143407204
 20
-13.4245912881
 10
-18.5333235104
 20
-13.3631714806
 10
-18.5491061446
 20
-13.3017996015
 10
-18.5614137257
 20
-13.2416608592
 10
-18.5701546213
 20
-13.1831503234
 10
-18.5754204637
 20
-13.1258729244
 10
-18.5772112531
 20
-13.0698286622
  0
LWPOLYLINE
  5
268
100
AcDbEntity
  8
0
100
AcDbPolyline
 62
250
  6
CONTINUOUS
 90
22
 70
0
 10
-17.7286831156
 20
-13.8046755843
 10
-17.7603884398
 20
-13.784999515
 10
-17.7919164497
 20
-13.762693861
 10
-17.8230908277
 20
-13.7378833661
 10
-17.8537372355
 20
-13.7107067805
 10
-17.8836842845
 20
-13.6813160892
 10
-17.9127644946
 20
-13.6498756629
 10
-17.9408152317
 20
-13.6165613393
 10
-17.9676796329
 20
-13.5815594197
 10
-17.993207477
 20
-13.5450656294
 10
-18.0172560083
 20
-13.5072840432
 10
-18.0396907282
 20
-13.4684259614
 10
-18.0603861642
 20
-13.428708708
 10
-18.0792265769
 20
-13.3883544044
 10
-18.096106607
 20
-13.3475887225
 10
-18.1109318563
 20
-13.3066396371
 10
-18.1236194164
 20
-13.265736151
 10
-18.1340983334
 20
-13.2251070141
 10
-18.1423100049
 20
-13.1849794404
 10
-18.1482085083
 20
-13.1455778395
 10
-18.1517608568
 20
-13.107122561
 10
-18.1529471844
 20
-13.0698286622
  0
LWPOLYLINE
  5
269
100
AcDbEntity
  8
RACCORDO
100
AcDbPolyline
 62
250
  6
CONTINUOUS
 90
22
 70
0
 10
-17.7286831156
 20
-13.8046755843
 10
-17.7603884398
 20
-13.784999515
 10
-17.7919164497
 20
-13.762693861
 10
-17.8230908277
 20
-13.7378833661
 10
-17.8537372355
 20
-13.7107067805
 10
-17.8836842845
 20
-13.6813160892
 10
-17.9127644946
 20
-13.6498756629
 10
-17.9408152317
 20
-13.6165613393
 10
-17.9676796329
 20
-13.5815594197
 10
-17.993207477
 20
-13.5450656294
 10
-18.0172560083
 20
-13.5072840432
 10
-18.0396907282
 20
-13.4684259614
 10
-18.0603861642
 20
-13.428708708
 10
-18.0792265769
 20
-13.3883544044
 10
-18.096106607
 20
-13.3475887225
 10
-18.1109318563
 20
-13.3066396371
 10
-18.1236194164
 20
-13.265736151
 10
-18.1340983334
 20
-13.2251070141
 10
-18.1423100049
 20
-13.1849794404
 10
-18.1482085083
 20
-13.1455778395
 10
-18.1517608568
 20
-13.107122561
 10
-18.1529471844
 20
-13.0698286622
  0
LWPOLYLINE
  5
26A
100
AcDbEntity
  8
RACCORDO
100
AcDbPolyline
 62
7
  6
CONTINUOUS
 90
5
 70
0
 10
-17.1412926118
 20
-13.3616287167
 10
-17.107331689
 20
-13.39876711
 10
-17.0724070856
 20
-13.433510417
 10
-17.0365691845
 20
-13.4655814743
 10
-17.019231255
 20
-13.4794099291
  0
LWPOLYLINE
  5
26B
100
AcDbEntity
  8
0
100
AcDbPolyline
 62
250
  6
CONTINUOUS
 90
10
 70
0
 10
-17.94081515
 20
30.1214134707
 10
-17.9400079236
 20
30.1005315311
 10
-17.9375923877
 20
30.0807406805
 10
-17.9335869262
 20
30.0621915393
 10
-17.928022023
 20
30.0450252775
 10
-17.9209400303
 20
30.029372541
 10
-17.9123948464
 20
30.0153524563
 10
-17.9024515052
 20
30.0030717248
 10
-17.8911856818
 20
29.9926238103
 10
-17.8786903637
 20
29.9840924123
  0
LWPOLYLINE
  5
26C
100
AcDbEntity
  8
RACCORDO
100
AcDbPolyline
 62
250
  6
CONTINUOUS
 90
10
 70
0
 10
-17.94081515
 20
30.1214134707
 10
-17.9400079236
 20
30.1005315311
 10
-17.9375923877
 20
30.0807406805
 10
-17.9335869262
 20
30.0621915393
 10
-17.928022023
 20
30.0450252775
 10
-17.9209400303
 20
30.029372541
 10
-17.9123948464
 20
30.0153524563
 10
-17.9024515052
 20
30.0030717248
 10
-17.8911856818
 20
29.9926238103
 10
-17.8786903637
 20
29.9840924123
  0
LWPOLYLINE
  5
26D
100
AcDbEntity
  8
0
100
AcDbPolyline
 62
7
  6
CONTINUOUS
 90
22
 70
0
 10
-17.5165510813
 20
-12.7023815282
 10
-17.5153099059
 20
-12.7400418651
 10
-17.5117641772
 20
-12.7784254701
 10
-17.5059138953
 20
-12.8175323432
 10
-17.4977007849
 20
-12.8575884308
 10
-17.4871831213
 20
-12.8983677866
 10
-17.4745357303
 20
-12.9391925713
 10
-17.459723014
 20
-12.9800635444
 10
-17.4427805703
 20
-13.0209799465
 10
-17.4239900184
 20
-13.0612616606
 10
-17.4033204677
 20
-13.1008980779
 10
-17.3808028087
 20
-13.1398998072
 10
-17.3568113327
 20
-13.1776185572
 10
-17.3313214051
 20
-13.2140328833
 10
-17.3043576604
 20
-13.2491642302
 10
-17.2763682931
 20
-13.2824286405
 10
-17.24733616
 20
-13.3137949091
 10
-17.2172784043
 20
-13.3432942411
 10
-17.1866946494
 20
-13.3704362953
 10
-17.1557514364
 20
-13.3950576248
 10
-17.1242822241
 20
-13.4173216764
 10
-17.0922870126
 20
-13.4372284503
  0
LWPOLYLINE
  5
26E
100
AcDbEntity
  8
RACCORDO
100
AcDbPolyline
 62
7
  6
CONTINUOUS
 90
22
 70
0
 10
-17.5165510813
 20
-12.7023815282
 10
-17.5153099059
 20
-12.7400418651
 10
-17.5117641772
 20
-12.7784254701
 10
-17.5059138953
 20
-12.8175323432
 10
-17.4977007849
 20
-12.8575884308
 10
-17.4871831213
 20
-12.8983677866
 10
-17.4745357303
 20
-12.9391925713
 10
-17.459723014
 20
-12.9800635444
 10
-17.4427805703
 20
-13.0209799465
 10
-17.4239900184
 20
-13.0612616606
 10
-17.4033204677
 20
-13.1008980779
 10
-17.3808028087
 20
-13.1398998072
 10
-17.3568113327
 20
-13.1776185572
 10
-17.3313214051
 20
-13.2140328833
 10
-17.3043576604
 20
-13.2491642302
 10
-17.2763682931
 20
-13.2824286405
 10
-17.24733616
 20
-13.3137949091
 10
-17.2172784043
 20
-13.3432942411
 10
-17.1866946494
 20
-13.3704362953
 10
-17.1557514364
 20
-13.3950576248
 10
-17.1242822241
 20
-13.4173216764
 10
-17.0922870126
 20
-13.4372284503
  0
LINE
  5
26F
100
AcDbEntity
  8
RACCORDO
100
AcDbLine
 62
250
  6
CONTINUOUS
 10
-17.4936531868
 20
-12.7727946181
 11
-17.4948152473
 21
-12.729747439
  0
LWPOLYLINE
  5
270
100
AcDbEntity
  8
RACCORDO
100
AcDbPolyline
 62
7
  6
CONTINUOUS
 90
16
 70
0
 10
-17.4203591399
 20
-12.6867575583
 10
-17.4196008271
 20
-12.7282182291
 10
-17.4160624599
 20
-12.7713910624
 10
-17.4096605507
 20
-12.8161057318
 10
-17.4001660645
 20
-12.862287575
 10
-17.3876648802
 20
-12.9096016642
 10
-17.3726620979
 20
-12.957432005
 10
-17.355458782
 20
-13.0054332644
 10
-17.335930098
 20
-13.0534087867
 10
-17.3140656682
 20
-13.1009429544
 10
-17.289955202
 20
-13.1477270069
 10
-17.2637686692
 20
-13.1935342471
 10
-17.2356455859
 20
-13.2380793321
 10
-17.2057143515
 20
-13.2810909098
 10
-17.1741750891
 20
-13.3223419242
 10
-17.1412926118
 20
-13.3616287167
  0
LINE
  5
271
100
AcDbEntity
  8
0
100
AcDbLine
 62
250
  6
CONTINUOUS
 10
-18.5772112531
 20
-13.0698286622
 11
-18.5772112531
 21
29.7540373555
  0
LINE
  5
272
100
AcDbEntity
  8
RACCORDO
100
AcDbLine
 62
250
  6
CONTINUOUS
 10
-18.5772112531
 20
-13.0698286622
 11
-18.5772112531
 21
29.7540373555
  0
LINE
  5
273
100
AcDbEntity
  8
0
100
AcDbLine
 62
250
  6
CONTINUOUS
 10
-18.1529471844
 20
-13.0698286622
 11
-18.1529471844
 21
29.7540373555
  0
LINE
  5
274
100
AcDbEntity
  8
RACCORDO
100
AcDbLine
 62
250
  6
CONTINUOUS
 10
-18.1529471844
 20
-13.0698286622
 11
-18.1529471844
 21
29.7540373555
  0
LINE
  5
275
100
AcDbEntity
  8
0
100
AcDbLine
 62
7
  6
CONTINUOUS
 10
-17.5165510813
 20
29.7749977293
 11
-17.5165510813
 21
-12.7023815282
  0
LINE
  5
276
100
AcDbEntity
  8
RACCORDO
100
AcDbLine
 62
7
  6
CONTINUOUS
 10
-17.5165510813
 20
29.7749977293
 11
-17.5165510813
 21
-12.7023815282
  0
LINE
  5
277
100
AcDbEntity
  8
RACCORDO
100
AcDbLine
 62
250
  6
CONTINUOUS
 10
-17.4948153021
 20
-12.7297474707
 11
-17.4948153017
 21
-6.504994126
  0
LINE
  5
278
100
AcDbEntity
  8
RACCORDO
100
AcDbLine
 62
250
  6
CONTINUOUS
 10
-17.4948153013
 20
-5.6628955875
 11
-17.4948153017
 21
23.3778180046
  0
LINE
  5
279
100
AcDbEntity
  8
RACCORDO
100
AcDbLine
 62
250
  6
CONTINUOUS
 10
-17.4948153027
 20
24.2199165293
 11
-17.4948153022
 21
29.7624477629
  0
LINE
  5
27A
100
AcDbEntity
  8
RACCORDO
100
AcDbLine
 62
7
  6
CONTINUOUS
 10
-17.4203591399
 20
-12.6867575583
 11
-17.4203591316
 21
-6.4640192044
  0
LINE
  5
27B
100
AcDbEntity
  8
RACCORDO
100
AcDbLine
 62
7
  6
CONTINUOUS
 10
-17.4203590695
 20
-5.6208404511
 11
-17.420359132
 21
23.418792928
  0
LINE
  5
27C
100
AcDbEntity
  8
RACCORDO
100
AcDbLine
 62
7
  6
CONTINUOUS
 10
-17.4203591408
 20
24.2619716374
 11
-17.42035914
 21
29.719457708
  0
LWPOLYLINE
  5
27D
100
AcDbEntity
  8
RACCORDO
100
AcDbPolyline
 62
250
  6
CONTINUOUS
 90
13
 70
0
 10
-17.4948152603
 20
23.3778180279
 10
-17.4946291256
 20
23.3870483094
 10
-17.4939798745
 20
23.3958647887
 10
-17.4928878932
 20
23.4042515234
 10
-17.4913947244
 20
23.4121058667
 10
-17.4895113979
 20
23.4195160683
 10
-17.487171952
 20
23.4267192991
 10
-17.4843477079
 20
23.4336968477
 10
-17.4810300446
 20
23.4403695338
 10
-17.4771177999
 20
23.4468136705
 10
-17.4725411152
 20
23.4529817465
 10
-17.4672915853
 20
23.4587356755
 10
-17.4613390415
 20
23.463977777
  0
LWPOLYLINE
  5
27E
100
AcDbEntity
  8
RACCORDO
100
AcDbPolyline
 62
250
  6
CONTINUOUS
 90
13
 70
0
 10
-17.4948152603
 20
-6.5049941027
 10
-17.4946291256
 20
-6.4957638212
 10
-17.4939798745
 20
-6.4869473419
 10
-17.4928878932
 20
-6.4785606073
 10
-17.4913947244
 20
-6.4707062639
 10
-17.4895113979
 20
-6.4632960624
 10
-17.4871719521
 20
-6.4560928316
 10
-17.4843477079
 20
-6.449115283
 10
-17.4810300446
 20
-6.4424425968
 10
-17.4771178
 20
-6.4359984602
 10
-17.4725411152
 20
-6.4298303842
 10
-17.4672915853
 20
-6.4240764551
 10
-17.4613390415
 20
-6.4188343536
  0
LWPOLYLINE
  5
27F
100
AcDbEntity
  8
RACCORDO
100
AcDbPolyline
 62
7
  6
CONTINUOUS
 90
5
 70
0
 10
-16.1807029256
 20
24.2156448567
 10
-16.1805477128
 20
24.2228331911
 10
-16.1800243699
 20
24.2301970381
 10
-16.1792487099
 20
24.2362237328
 10
-16.178354334
 20
24.2408925235
  0
LWPOLYLINE
  5
280
100
AcDbEntity
  8
RACCORDO
100
AcDbPolyline
 62
250
  6
CONTINUOUS
 90
10
 70
0
 10
-17.2814219546
 20
-6.3799040918
 10
-17.2810518841
 20
-6.3674797349
 10
-17.2798085847
 20
-6.3556024463
 10
-17.2777002905
 20
-6.3443441797
 10
-17.2747323731
 20
-6.3337685702
 10
-17.2709152049
 20
-6.3239584999
 10
-17.2662818478
 20
-6.3149989369
 10
-17.260874437
 20
-6.3069419427
 10
-17.2547264941
 20
-6.2998238371
 10
-17.2478749469
 20
-6.293688731
  0
LWPOLYLINE
  5
281
100
AcDbEntity
  8
0
100
AcDbPolyline
 62
250
  6
CONTINUOUS
 90
12
 70
0
 10
-18.1529471844
 20
29.7540373555
 10
-18.1517608537
 20
29.7899613585
 10
-18.1482084968
 20
29.8243145094
 10
-18.1423099812
 20
29.8569046917
 10
-18.1340982943
 20
29.8875496502
 10
-18.1236193607
 20
29.9160780049
 10
-18.1109317859
 20
29.9423302107
 10
-18.0961065299
 20
29.9661594514
 10
-18.0792265006
 20
29.9874324733
 10
-18.0603860885
 20
30.0060303212
 10
-18.0396906487
 20
30.021848991
 10
-18.0286976117
 20
30.0286794722
  0
LWPOLYLINE
  5
282
100
AcDbEntity
  8
RACCORDO
100
AcDbPolyline
 62
250
  6
CONTINUOUS
 90
12
 70
0
 10
-18.1529471844
 20
29.7540373555
 10
-18.1517608537
 20
29.7899613585
 10
-18.1482084968
 20
29.8243145094
 10
-18.1423099812
 20
29.8569046917
 10
-18.1340982943
 20
29.8875496502
 10
-18.1236193607
 20
29.9160780049
 10
-18.1109317859
 20
29.9423302107
 10
-18.0961065299
 20
29.9661594514
 10
-18.0792265006
 20
29.9874324733
 10
-18.0603860885
 20
30.0060303212
 10
-18.0396906487
 20
30.021848991
 10
-18.0286976117
 20
30.0286794722
  0
LWPOLYLINE
  5
283
100
AcDbEntity
  8
0
100
AcDbPolyline
 62
250
  6
CONTINUOUS
 90
22
 70
0
 10
-18.5772112531
 20
29.7540373555
 10
-18.5754213075
 20
29.808010352
 10
-18.5701558603
 20
29.8592051063
 10
-18.5614149115
 20
29.9076216185
 10
-18.5491066138
 20
29.9535499858
 10
-18.5333228145
 20
29.9967001109
 10
-18.5143390555
 20
30.0362017024
 10
-18.4921104447
 20
30.0719354832
 10
-18.4666818742
 20
30.1040207303
 10
-18.4384635624
 20
30.1319449834
 10
-18.4073985222
 20
30.1556492433
 10
-18.3735437408
 20
30.1751925093
 10
-18.3374803988
 20
30.1902393186
 10
-18.2991856109
 20
30.2007107285
 10
-18.2586822624
 20
30.2066856819
 10
-18.2166201899
 20
30.208065545
 10
-18.172919675
 20
30.204752147
 10
-18.1276604361
 20
30.1968436588
 10
-18.0817314649
 20
30.1845359591
 10
-18.0354290922
 20
30.167894341
 10
-17.9884569872
 20
30.1468535116
 10
-17.94081515
 20
30.1214134707
  0
LWPOLYLINE
  5
284
100
AcDbEntity
  8
RACCORDO
100
AcDbPolyline
 62
250
  6
CONTINUOUS
 90
22
 70
0
 10
-18.5772112531
 20
29.7540373555
 10
-18.5754213075
 20
29.808010352
 10
-18.5701558603
 20
29.8592051063
 10
-18.5614149115
 20
29.9076216185
 10
-18.5491066138
 20
29.9535499858
 10
-18.5333228145
 20
29.9967001109
 10
-18.5143390555
 20
30.0362017024
 10
-18.4921104447
 20
30.0719354832
 10
-18.4666818742
 20
30.1040207303
 10
-18.4384635624
 20
30.1319449834
 10
-18.4073985222
 20
30.1556492433
 10
-18.3735437408
 20
30.1751925093
 10
-18.3374803988
 20
30.1902393186
 10
-18.2991856109
 20
30.2007107285
 10
-18.2586822624
 20
30.2066856819
 10
-18.2166201899
 20
30.208065545
 10
-18.172919675
 20
30.204752147
 10
-18.1276604361
 20
30.1968436588
 10
-18.0817314649
 20
30.1845359591
 10
-18.0354290922
 20
30.167894341
 10
-17.9884569872
 20
30.1468535116
 10
-17.94081515
 20
30.1214134707
  0
LWPOLYLINE
  5
285
100
AcDbEntity
  8
RACCORDO
100
AcDbPolyline
 62
7
  6
CONTINUOUS
 90
10
 70
0
 10
-17.4203591411
 20
23.4187929239
 10
-17.4199242003
 20
23.4313406198
 10
-17.4186241646
 20
23.4432901183
 10
-17.4164713412
 20
23.4545709467
 10
-17.4134828048
 20
23.465117932
 10
-17.409680939
 20
23.4748697028
 10
-17.4050936696
 20
23.4837694417
 10
-17.399753085
 20
23.4917674791
 10
-17.3936947658
 20
23.4988210863
 10
-17.3869585152
 20
23.5048931207
  0
LWPOLYLINE
  5
286
100
AcDbEntity
  8
0
100
AcDbPolyline
 62
250
  6
CONTINUOUS
 90
19
 70
0
 10
-17.94081515
 20
-14.1720990454
 10
-17.9400079236
 20
-14.1502849409
 10
-17.9375923877
 20
-14.1277046901
 10
-17.9335869262
 20
-14.1045301423
 10
-17.9280220229
 20
-14.0809376697
 10
-17.9209400302
 20
-14.0571068255
 10
-17.9123948463
 20
-14.0332189766
 10
-17.9024515052
 20
-14.009455924
 10
-17.8911856817
 20
-13.985998519
 10
-17.8786831156
 20
-13.9630252865
 10
-17.8650389589
 20
-13.9407110667
 10
-17.8503570519
 20
-13.9192256842
 10
-17.8347491328
 20
-13.8987326559
 10
-17.8183339872
 20
-13.8793879461
 10
-17.8012365444
 20
-13.8613387795
 10
-17.7835869262
 20
-13.8447225214
 10
-17.7655194568
 20
-13.8296656315
 10
-17.7471716406
 20
-13.8162827017
 10
-17.7286831156
 20
-13.8046755843
  0
LWPOLYLINE
  5
287
100
AcDbEntity
  8
RACCORDO
100
AcDbPolyline
 62
250
  6
CONTINUOUS
 90
19
 70
0
 10
-17.94081515
 20
-14.1720990454
 10
-17.9400079236
 20
-14.1502849409
 10
-17.9375923877
 20
-14.1277046901
 10
-17.9335869262
 20
-14.1045301423
 10
-17.9280220229
 20
-14.0809376697
 10
-17.9209400302
 20
-14.0571068255
 10
-17.9123948463
 20
-14.0332189766
 10
-17.9024515052
 20
-14.009455924
 10
-17.8911856817
 20
-13.985998519
 10
-17.8786831156
 20
-13.9630252865
 10
-17.8650389589
 20
-13.9407110667
 10
-17.8503570519
 20
-13.9192256842
 10
-17.8347491328
 20
-13.8987326559
 10
-17.8183339872
 20
-13.8793879461
 10
-17.8012365444
 20
-13.8613387795
 10
-17.7835869262
 20
-13.8447225214
 10
-17.7655194568
 20
-13.8296656315
 10
-17.7471716406
 20
-13.8162827017
 10
-17.7286831156
 20
-13.8046755843
  0
LWPOLYLINE
  5
288
100
AcDbEntity
  8
RACCORDO
100
AcDbPolyline
 62
250
  6
CONTINUOUS
 90
9
 70
0
 10
-16.1807029225
 20
25.040830441
 10
-16.1808882526
 20
25.0358705107
 10
-16.1828485089
 20
25.0239711616
 10
-16.1869286304
 20
25.0122525649
 10
-16.1930848976
 20
25.0008402762
 10
-16.2012513482
 20
24.9898565671
 10
-16.2113404829
 20
24.9794191184
 10
-16.2232442013
 20
24.9696397594
 10
-16.2368349617
 20
24.9606232672
  0
LWPOLYLINE
  5
289
100
AcDbEntity
  8
RACCORDO
100
AcDbPolyline
 62
250
  6
CONTINUOUS
 90
4
 70
0
 10
-16.1807029217
 20
24.2156221803
 10
-16.1808882359
 20
24.2106522418
 10
-16.1828484551
 20
24.1987528783
 10
-16.1869285479
 20
24.1870342578
  0
LWPOLYLINE
  5
28A
100
AcDbEntity
  8
0
100
AcDbPolyline
 62
250
  6
CONTINUOUS
 90
19
 70
0
 10
-18.5772112531
 20
-13.0698286622
 10
-18.5579155016
 20
-13.0800376224
 10
-18.5371521496
 20
-13.0892367214
 10
-18.5150792187
 20
-13.0973559485
 10
-18.4918646972
 20
-13.1043335115
 10
-18.4676852617
 20
-13.1101163069
 10
-18.4427249322
 20
-13.1146603241
 10
-18.417173672
 20
-13.1179309805
 10
-18.3912259415
 20
-13.1199033843
 10
-18.3650792187
 20
-13.1205625244
 10
-18.3389324959
 20
-13.1199033843
 10
-18.3129847654
 20
-13.1179309805
 10
-18.2874335052
 20
-13.1146603241
 10
-18.2624731757
 20
-13.1101163069
 10
-18.2382937402
 20
-13.1043335115
 10
-18.2150792187
 20
-13.0973559485
 10
-18.1930062878
 20
-13.0892367214
 10
-18.1722429358
 20
-13.0800376224
 10
-18.1529471844
 20
-13.0698286622
  0
LWPOLYLINE
  5
28B
100
AcDbEntity
  8
RACCORDO
100
AcDbPolyline
 62
250
  6
CONTINUOUS
 90
19
 70
0
 10
-18.5772112531
 20
-13.0698286622
 10
-18.5579155016
 20
-13.0800376224
 10
-18.5371521496
 20
-13.0892367214
 10
-18.5150792187
 20
-13.0973559485
 10
-18.4918646972
 20
-13.1043335115
 10
-18.4676852617
 20
-13.1101163069
 10
-18.4427249322
 20
-13.1146603241
 10
-18.417173672
 20
-13.1179309805
 10
-18.3912259415
 20
-13.1199033843
 10
-18.3650792187
 20
-13.1205625244
 10
-18.3389324959
 20
-13.1199033843
 10
-18.3129847654
 20
-13.1179309805
 10
-18.2874335052
 20
-13.1146603241
 10
-18.2624731757
 20
-13.1101163069
 10
-18.2382937402
 20
-13.1043335115
 10
-18.2150792187
 20
-13.0973559485
 10
-18.1930062878
 20
-13.0892367214
 10
-18.1722429358
 20
-13.0800376224
 10
-18.1529471844
 20
-13.0698286622
  0
LINE
  5
28C
100
AcDbEntity
  8
RACCORDO
100
AcDbLine
 62
250
  6
CONTINUOUS
 10
7.3114192374
 20
-26.7305553702
 11
7.2889821032
 21
-26.7186047072
  0
LWPOLYLINE
  5
28D
100
AcDbEntity
  8
RACCORDO
100
AcDbPolyline
 62
250
  6
CONTINUOUS
 90
7
 70
0
 10
7.929472154
 20
-26.7631974195
 10
7.9153626199
 20
-26.7554158071
 10
7.9011001658
 20
-26.7496326532
 10
7.8868396342
 20
-26.7459107436
 10
7.8727346844
 20
-26.7442904393
 10
7.8589396628
 20
-26.7447897304
 10
7.8443952195
 20
-26.7477521372
  0
LWPOLYLINE
  5
28E
100
AcDbEntity
  8
RACCORDO
100
AcDbPolyline
 62
250
  6
CONTINUOUS
 90
4
 70
0
 10
7.8394770583
 20
-26.7898955073
 10
7.8253972987
 20
-26.7821281348
 10
7.8111649353
 20
-26.7763507087
 10
7.7969338377
 20
-26.7726256911
  0
LINE
  5
28F
100
AcDbEntity
  8
0
100
AcDbLine
 62
250
  6
CONTINUOUS
 10
13.63150263
 20
-31.9116537984
 11
-17.7286831156
 21
-13.8046755843
  0
LINE
  5
290
100
AcDbEntity
  8
RACCORDO
100
AcDbLine
 62
250
  6
CONTINUOUS
 10
13.63150263
 20
-31.9116537984
 11
-17.7286831156
 21
-13.8046755843
  0
LINE
  5
291
100
AcDbEntity
  8
0
100
AcDbLine
 62
7
  6
CONTINUOUS
 10
-17.0922870126
 20
-13.4372284503
 11
13.967898733
 21
-31.3709904243
  0
LINE
  5
292
100
AcDbEntity
  8
RACCORDO
100
AcDbLine
 62
7
  6
CONTINUOUS
 10
-17.0922870126
 20
-13.4372284503
 11
13.967898733
 21
-31.3709904243
  0
LINE
  5
293
100
AcDbEntity
  8
RACCORDO
100
AcDbLine
 62
250
  6
CONTINUOUS
 10
7.2889821032
 20
-26.7186047072
 11
-7.9356602719
 21
-17.9280870093
  0
LINE
  5
294
100
AcDbEntity
  8
RACCORDO
100
AcDbLine
 62
7
  6
CONTINUOUS
 10
7.3607920516
 20
-26.7216976677
 11
-7.8638503209
 21
-17.9311799714
  0
LINE
  5
295
100
AcDbEntity
  8
RACCORDO
100
AcDbLine
 62
250
  6
CONTINUOUS
 10
13.967898733
 20
-30.249709247
 11
7.929472154
 21
-26.7631974195
  0
LINE
  5
296
100
AcDbEntity
  8
RACCORDO
100
AcDbLine
 62
250
  6
CONTINUOUS
 10
-7.8690435414
 20
-17.6413324589
 11
-15.7182296399
 21
-13.1093107791
  0
LINE
  5
297
100
AcDbEntity
  8
RACCORDO
100
AcDbLine
 62
7
  6
CONTINUOUS
 10
13.967898733
 20
-30.2113400433
 11
8.0012821023
 21
-26.7662903801
  0
LINE
  5
298
100
AcDbEntity
  8
RACCORDO
100
AcDbLine
 62
7
  6
CONTINUOUS
 10
-7.7972335931
 20
-17.6444254194
 11
-15.6464196967
 21
-13.1124037366
  0
LWPOLYLINE
  5
299
100
AcDbEntity
  8
RACCORDO
100
AcDbPolyline
 62
7
  6
CONTINUOUS
 90
26
 70
0
 10
-15.6464872293
 20
-13.1123647967
 10
-15.6566070031
 20
-13.1063943977
 10
-15.6876263182
 20
-13.0865583499
 10
-15.7195865216
 20
-13.0637294155
 10
-15.752189115
 20
-13.0379367612
 10
-15.7850685123
 20
-13.0093090158
 10
-15.8179840872
 20
-12.9779302048
 10
-15.8507093585
 20
-12.943898611
 10
-15.8829408663
 20
-12.9074219117
 10
-15.9144584438
 20
-12.868661954
 10
-15.9450435155
 20
-12.8278112052
 10
-15.9744248252
 20
-12.7851667608
 10
-16.0024066004
 20
-12.7409658674
 10
-16.0288206253
 20
-12.6954459224
 10
-16.0534670474
 20
-12.6489353488
 10
-16.0762047836
 20
-12.6016978852
 10
-16.096912087
 20
-12.554006981
 10
-16.1154506763
 20
-12.5062317369
 10
-16.1317402697
 20
-12.4586544049
 10
-16.1457235667
 20
-12.4115463469
 10
-16.1573423564
 20
-12.3652768288
 10
-16.1665915955
 20
-12.3201042485
 10
-16.1734824101
 20
-12.276284797
 10
-16.1780428305
 20
-12.2342108495
 10
-16.1803525776
 20
-12.1941856289
 10
-16.180702987
 20
-12.1722068728
  0
LWPOLYLINE
  5
29A
100
AcDbEntity
  8
RACCORDO
100
AcDbPolyline
 62
250
  6
CONTINUOUS
 90
15
 70
0
 10
-7.9500754896
 20
-17.6732057558
 10
-7.9348244792
 20
-17.6823736033
 10
-7.9200431739
 20
-17.6933483096
 10
-7.9058913783
 20
-17.7060112244
 10
-7.8925220914
 20
-17.7202254454
 10
-7.880079852
 20
-17.735837299
 10
-7.8686991764
 20
-17.7526780011
 10
-7.8585031042
 20
-17.7705654826
 10
-7.8496018679
 20
-17.7893063571
 10
-7.8420917011
 20
-17.8086980119
 10
-7.8360537981
 20
-17.8285307988
 10
-7.8315534364
 20
-17.8485903002
 10
-7.8286392706
 20
-17.8686596475
 10
-7.8273428065
 20
-17.8885218656
 10
-7.8276780606
 20
-17.9079622189
  0
LWPOLYLINE
  5
29B
100
AcDbEntity
  8
RACCORDO
100
AcDbPolyline
 62
250
  6
CONTINUOUS
 90
5
 70
0
 10
-7.8690435414
 20
-17.6413324589
 10
-7.8537605091
 20
-17.6505217882
 10
-7.8389495531
 20
-17.6615254177
 10
-7.8247714774
 20
-17.6742238695
 10
-7.8113791705
 20
-17.6884804723
  0
LWPOLYLINE
  5
29C
100
AcDbEntity
  8
RACCORDO
100
AcDbPolyline
 62
7
  6
CONTINUOUS
 90
5
 70
0
 10
-7.8638611175
 20
-17.9311737389
 10
-7.872179724
 20
-17.9261596468
 10
-7.880435733
 20
-17.9206784574
 10
-7.8869325961
 20
-17.9158668925
 10
-7.8911517208
 20
-17.9123834891
  0
LWPOLYLINE
  5
29D
100
AcDbEntity
  8
RACCORDO
100
AcDbPolyline
 62
250
  6
CONTINUOUS
 90
22
 70
0
 10
-16.4505295836
 20
-13.3720672796
 10
-16.4876368427
 20
-13.3493465886
 10
-16.5240348476
 20
-13.3233102219
 10
-16.5595190851
 20
-13.2940913524
 10
-16.5939017829
 20
-13.2618288601
 10
-16.6269735246
 20
-13.2267029608
 10
-16.6585098681
 20
-13.1889447609
 10
-16.6883198143
 20
-13.1487864097
 10
-16.716253943
 20
-13.1064328633
 10
-16.7421669088
 20
-13.0621013246
 10
-16.7659209426
 20
-13.0160172471
 10
-16.7873691809
 20
-12.9684543674
 10
-16.8063738162
 20
-12.9197182824
 10
-16.8228254086
 20
-12.8701036254
 10
-16.8366438691
 20
-12.8198680578
 10
-16.8477595811
 20
-12.7692710688
 10
-16.8561141872
 20
-12.7185684626
 10
-16.8616545898
 20
-12.6680693912
 10
-16.8643484309
 20
-12.6181122186
 10
-16.8641910375
 20
-12.5689914865
 10
-16.8611945811
 20
-12.5209577215
 10
-16.8553853509
 20
-12.4742729737
  0
LWPOLYLINE
  5
29E
100
AcDbEntity
  8
RACCORDO
100
AcDbPolyline
 62
250
  6
CONTINUOUS
 90
19
 70
0
 10
-7.9356602719
 20
-17.9280870093
 10
-7.9582780341
 20
-17.9140976613
 10
-7.9785623942
 20
-17.8997242467
 10
-7.996513352
 20
-17.8849667654
 10
-8.0122300265
 20
-17.869723402
 10
-8.0256132988
 20
-17.854095972
 10
-8.0363658122
 20
-17.8383899217
 10
-8.0444435061
 20
-17.8226015555
 10
-8.0498904411
 20
-17.8067345689
 10
-8.0525414424
 20
-17.7911054954
 10
-8.0523672457
 20
-17.7757281462
 10
-8.0493971152
 20
-17.76058871
 10
-8.0435536696
 20
-17.7459622865
 10
-8.0347341994
 20
-17.7318043352
 10
-8.023041414
 20
-17.7181593966
 10
-8.0087060599
 20
-17.7054361911
 10
-7.9918050525
 20
-17.6937709588
 10
-7.9722614763
 20
-17.6830274596
 10
-7.9500753314
 20
-17.6732056936
  0
LWPOLYLINE
  5
29F
100
AcDbEntity
  8
RACCORDO
100
AcDbPolyline
 62
250
  6
CONTINUOUS
 90
22
 70
0
 10
-15.7182296842
 20
-13.109310795
 10
-15.7545218357
 20
-13.0866979337
 10
-15.7907317108
 20
-13.0611201982
 10
-15.8266660485
 20
-13.0327204702
 10
-15.862119087
 20
-13.0016876178
 10
-15.8969298256
 20
-12.9681705167
 10
-15.9309718273
 20
-12.9322556964
 10
-15.9641098941
 20
-12.8940897053
 10
-15.9961271678
 20
-12.853907017
 10
-16.0267794311
 20
-12.8119342985
 10
-16.0558860597
 20
-12.7684690723
 10
-16.0833467876
 20
-12.7236933218
 10
-16.1090340115
 20
-12.6776677546
 10
-16.1328333525
 20
-12.6306050683
 10
-16.1545841662
 20
-12.5828088912
 10
-16.1740755834
 20
-12.5344802544
 10
-16.1912513613
 20
-12.4857802159
 10
-16.2059438398
 20
-12.4371349095
 10
-16.21785459
 20
-12.389149473
 10
-16.2269190639
 20
-12.3422155297
 10
-16.2332344716
 20
-12.2965176385
 10
-16.2368355455
 20
-12.2523311537
  0
LWPOLYLINE
  5
2A0
100
AcDbEntity
  8
0
100
AcDbPolyline
 62
250
  6
CONTINUOUS
 90
6
 70
0
 10
14.0557666987
 20
-31.9117011443
 10
14.0380854001
 20
-31.9005600193
 10
14.0221531197
 20
-31.88857152
 10
14.0080911119
 20
-31.8758268863
 10
13.9960063969
 20
-31.8624231126
 10
13.9859909468
 20
-31.8484622095
  0
LWPOLYLINE
  5
2A1
100
AcDbEntity
  8
RACCORDO
100
AcDbPolyline
 62
250
  6
CONTINUOUS
 90
6
 70
0
 10
14.0557666987
 20
-31.9117011443
 10
14.0380854001
 20
-31.9005600193
 10
14.0221531197
 20
-31.88857152
 10
14.0080911119
 20
-31.8758268863
 10
13.9960063969
 20
-31.8624231126
 10
13.9859909468
 20
-31.8484622095
  0
LWPOLYLINE
  5
2A2
100
AcDbEntity
  8
RACCORDO
100
AcDbPolyline
 62
250
  6
CONTINUOUS
 90
3
 70
0
 10
-7.8113791705
 20
-17.6884804723
 10
-7.7989192238
 20
-17.7041394512
 10
-7.7875295463
 20
-17.7210265461
  0
LWPOLYLINE
  5
2A3
100
AcDbEntity
  8
RACCORDO
100
AcDbPolyline
 62
250
  6
CONTINUOUS
 90
16
 70
0
 10
-17.4613390887
 20
-5.7877128397
 10
-17.4654439069
 20
-5.7795771718
 10
-17.4692692939
 20
-5.7714538009
 10
-17.4728149592
 20
-5.7633614052
 10
-17.4760612967
 20
-5.7553695495
 10
-17.4790328906
 20
-5.747443169
 10
-17.4817833688
 20
-5.7394419088
 10
-17.4843087992
 20
-5.7313592119
 10
-17.4865894579
 20
-5.7232336968
 10
-17.4886335541
 20
-5.7149945422
 10
-17.4904169636
 20
-5.7066888829
 10
-17.4919265475
 20
-5.6983113224
 10
-17.4931605641
 20
-5.6897220359
 10
-17.4940841407
 20
-5.6809015456
 10
-17.4946492971
 20
-5.6719445788
 10
-17.4948153089
 20
-5.6628955818
  0
LWPOLYLINE
  5
2A4
100
AcDbEntity
  8
RACCORDO
100
AcDbPolyline
 62
7
  6
CONTINUOUS
 90
11
 70
0
 10
-16.1342282885
 20
-5.003336826
 10
-16.1433750458
 20
-4.9849789625
 10
-16.1520784857
 20
-4.9654026024
 10
-16.1596707755
 20
-4.9459571657
 10
-16.1660917476
 20
-4.9269027734
 10
-16.1712733949
 20
-4.9086355655
 10
-16.1752508609
 20
-4.8913467047
 10
-16.178075927
 20
-4.8752524465
 10
-16.1798096215
 20
-4.8607632422
 10
-16.1806043585
 20
-4.8479926369
 10
-16.1807029217
 20
-4.8419720106
  0
LWPOLYLINE
  5
2A5
100
AcDbEntity
  8
RACCORDO
100
AcDbPolyline
 62
250
  6
CONTINUOUS
 90
10
 70
0
 10
-16.1820910796
 20
-5.0897956338
 10
-16.2087877539
 20
-5.0358107839
 10
-16.2148716531
 20
-5.0219319735
 10
-16.2203339277
 20
-5.0077794521
 10
-16.2251122452
 20
-4.993433981
 10
-16.2291482285
 20
-4.9789856162
 10
-16.2323885504
 20
-4.9645333116
 10
-16.2347816649
 20
-4.9501790792
 10
-16.236278216
 20
-4.9360274726
 10
-16.2368350037
 20
-4.9221888882
  0
LWPOLYLINE
  5
2A6
100
AcDbEntity
  8
RACCORDO
100
AcDbPolyline
 62
7
  6
CONTINUOUS
 90
10
 70
0
 10
-17.3693784916
 20
-5.7813785982
 10
-17.3937354066
 20
-5.7315719896
 10
-17.3998169612
 20
-5.7174524621
 10
-17.4051659759
 20
-5.7032380688
 10
-17.4097503176
 20
-5.6890125597
 10
-17.4135405297
 20
-5.6748651473
 10
-17.4165114867
 20
-5.660889731
 10
-17.4186453942
 20
-5.6471735451
 10
-17.4199304122
 20
-5.6337968971
 10
-17.4203591498
 20
-5.6208404867
  0
LWPOLYLINE
  5
2A7
100
AcDbEntity
  8
RACCORDO
100
AcDbPolyline
 62
250
  6
CONTINUOUS
 90
7
 70
0
 10
-17.4368434642
 20
-13.0337074497
 10
-17.4467036878
 20
-13.006317856
 10
-17.4614968498
 20
-12.9581904535
 10
-17.4736687801
 20
-12.9103144268
 10
-17.4830956069
 20
-12.8632591162
 10
-17.4897512318
 20
-12.8173733425
 10
-17.4936531868
 20
-12.7727946181
  0
LWPOLYLINE
  5
2A8
100
AcDbEntity
  8
RACCORDO
100
AcDbPolyline
 62
250
  6
CONTINUOUS
 90
19
 70
0
 10
-16.2368349616
 20
0.7955450599
 10
-16.2357767431
 20
0.7687804569
 10
-16.2329404478
 20
0.7437442957
 10
-16.2283260756
 20
0.7204365762
 10
-16.2218754403
 20
0.698768513
 10
-16.2136467282
 20
0.6788288915
 10
-16.2038144982
 20
0.6608840684
 10
-16.1924078993
 20
0.6449482658
 10
-16.1793977825
 20
0.6310072615
 10
-16.1648712597
 20
0.6192847459
 10
-16.148841454
 20
0.6097287181
 10
-16.1312952422
 20
0.602391179
 10
-16.1122803671
 20
0.5976518207
 10
-16.0915894522
 20
0.595550835
 10
-16.069429874
 20
0.5960480301
 10
-16.0464715051
 20
0.5994025227
 10
-16.0229376363
 20
0.6057006848
 10
-15.9986049768
 20
0.6148561443
 10
-15.9734735266
 20
0.6268689013
  0
LWPOLYLINE
  5
2A9
100
AcDbEntity
  8
RACCORDO
100
AcDbPolyline
 62
250
  6
CONTINUOUS
 90
10
 70
0
 10
-16.2368349617
 20
24.9606232672
 10
-16.236334633
 20
24.9476118191
 10
-16.2349737765
 20
24.9340892073
 10
-16.232744926
 20
24.9201334766
 10
-16.2296351068
 20
24.9057813898
 10
-16.2256545922
 20
24.8911662289
 10
-16.2208649818
 20
24.8765210318
 10
-16.215326612
 20
24.8619866307
 10
-16.2090702857
 20
24.8476073891
 10
-16.2021449225
 20
24.8334714565
  0
LINE
  5
2AA
100
AcDbEntity
  8
RACCORDO
100
AcDbLine
 62
250
  6
CONTINUOUS
 10
-16.2368349617
 20
29.0361056805
 11
-16.2368349617
 21
24.9606232672
  0
LINE
  5
2AB
100
AcDbEntity
  8
RACCORDO
100
AcDbLine
 62
250
  6
CONTINUOUS
 10
-16.2368349616
 20
24.1354047729
 11
-16.2368349616
 21
0.7955450599
  0
LINE
  5
2AC
100
AcDbEntity
  8
RACCORDO
100
AcDbLine
 62
250
  6
CONTINUOUS
 10
-16.2368349616
 20
-12.2523309442
 11
-16.2368349616
 21
-5.7474073577
  0
LINE
  5
2AD
100
AcDbEntity
  8
RACCORDO
100
AcDbLine
 62
250
  6
CONTINUOUS
 10
-16.2368349617
 20
-4.9221888634
 11
-16.2368349616
 21
-2.8105564946
  0
LINE
  5
2AE
100
AcDbEntity
  8
RACCORDO
100
AcDbLine
 62
7
  6
CONTINUOUS
 10
-16.1807029217
 20
29.0036957441
 11
-16.1807029217
 21
25.0408406739
  0
LINE
  5
2AF
100
AcDbEntity
  8
RACCORDO
100
AcDbLine
 62
7
  6
CONTINUOUS
 10
-16.1807029217
 20
24.2156221803
 11
-16.1807029217
 21
0.8757624668
  0
LINE
  5
2B0
100
AcDbEntity
  8
RACCORDO
100
AcDbLine
 62
7
  6
CONTINUOUS
 10
-16.1807029217
 20
-12.1721135368
 11
-16.1807029217
 21
-5.6671899499
  0
LINE
  5
2B1
100
AcDbEntity
  8
RACCORDO
100
AcDbLine
 62
7
  6
CONTINUOUS
 10
-16.1807029217
 20
-4.841971456
 11
-16.1807029217
 21
-2.7303389397
  0
LINE
  5
2B2
100
AcDbEntity
  8
RACCORDO
100
AcDbLine
 62
7
  6
CONTINUOUS
 10
-14.8497316502
 20
1.2295472385
 11
-14.8497316502
 21
-1.5858542134
  0
LWPOLYLINE
  5
2B3
100
AcDbEntity
  8
RACCORDO
100
AcDbPolyline
 62
250
  6
CONTINUOUS
 90
9
 70
0
 10
-15.9734737463
 20
-2.3269515574
 10
-15.9735014711
 20
-2.3430941476
 10
-15.975103309
 20
-2.3581822239
 10
-15.9782617304
 20
-2.3720506701
 10
-15.9829421712
 20
-2.3845477171
 10
-15.989093411
 20
-2.3955366037
 10
-15.9966481338
 20
-2.4048970731
 10
-16.0055236646
 20
-2.4125266894
 10
-16.0072325156
 20
-2.4136951218
  0
LWPOLYLINE
  5
2B4
100
AcDbEntity
  8
RACCORDO
100
AcDbPolyline
 62
7
  6
CONTINUOUS
 90
21
 70
0
 10
-16.1807029217
 20
-2.7303401365
 10
-16.1806542363
 20
-2.7260590733
 10
-16.1799329039
 20
-2.7126266451
 10
-16.178196093
 20
-2.6972726423
 10
-16.1752656811
 20
-2.6801146711
 10
-16.1710579998
 20
-2.6615764639
 10
-16.1655138945
 20
-2.6419314138
 10
-16.1585866915
 20
-2.6213955107
 10
-16.1503118443
 20
-2.6003288909
 10
-16.1407162203
 20
-2.5789781135
 10
-16.1298805782
 20
-2.5576565081
 10
-16.1180070543
 20
-2.5368087007
 10
-16.1052388641
 20
-2.5166801497
 10
-16.0917583464
 20
-2.497536693
 10
-16.0779178849
 20
-2.4797942393
 10
-16.0639314607
 20
-2.4635999661
 10
-16.0500386403
 20
-2.4490929517
 10
-16.0366854889
 20
-2.4365512475
 10
-16.0241821306
 20
-2.4260303009
 10
-16.0126799425
 20
-2.4174103634
 10
-16.0072407606
 20
-2.4137005583
  0
LWPOLYLINE
  5
2B5
100
AcDbEntity
  8
RACCORDO
100
AcDbPolyline
 62
7
  6
CONTINUOUS
 90
5
 70
0
 10
-16.1807029265
 20
-5.6671647551
 10
-16.1805520591
 20
-5.660075991
 10
-16.1800325358
 20
-5.652694213
 10
-16.179259959
 20
-5.6466551074
 10
-16.1783679751
 20
-5.6419774498
  0
LWPOLYLINE
  5
2B6
100
AcDbEntity
  8
RACCORDO
100
AcDbPolyline
 62
250
  6
CONTINUOUS
 90
9
 70
0
 10
-16.1807029233
 20
0.87574805
 10
-16.1808882187
 20
0.8707927588
 10
-16.1828483978
 20
0.8588933891
 10
-16.1869284565
 20
0.8471747507
 10
-16.1930846846
 20
0.8357624021
 10
-16.2012511273
 20
0.8247786192
 10
-16.2113402913
 20
0.8143410874
 10
-16.223244082
 20
0.8045616401
 10
-16.2368349616
 20
0.7955450599
  0
LWPOLYLINE
  5
2B7
100
AcDbEntity
  8
RACCORDO
100
AcDbPolyline
 62
250
  6
CONTINUOUS
 90
9
 70
0
 10
-16.2368349616
 20
-5.7474073577
 10
-16.2363703761
 20
-5.7353232915
 10
-16.2350992273
 20
-5.7236020446
 10
-16.2329893168
 20
-5.7123385654
 10
-16.2300051797
 20
-5.7016075804
 10
-16.2261307681
 20
-5.6915363757
 10
-16.2213889805
 20
-5.6822857736
 10
-16.2158036267
 20
-5.673956756
 10
-16.209380952
 20
-5.6666077776
  0
LWPOLYLINE
  5
2B8
100
AcDbEntity
  8
RACCORDO
100
AcDbPolyline
 62
250
  6
CONTINUOUS
 90
6
 70
0
 10
-16.2368349616
 20
-2.8105564946
 10
-16.235602232
 20
-2.779766668
 10
-16.2321801937
 20
-2.7484048896
 10
-16.2265688467
 20
-2.7164711596
 10
-16.2186079703
 20
-2.6835663136
 10
-16.2084577853
 20
-2.6500895159
  0
LWPOLYLINE
  5
2B9
100
AcDbEntity
  8
RACCORDO
100
AcDbPolyline
 62
250
  6
CONTINUOUS
 90
8
 70
0
 10
-16.2084577853
 20
-2.6500895159
 10
-16.1965989538
 20
-2.6172382595
 10
-16.1828559557
 20
-2.5849979726
 10
-16.1674043111
 20
-2.553383227
 10
-16.1512512429
 20
-2.5236352306
 10
-16.1346994658
 20
-2.4963133073
 10
-16.1174462651
 20
-2.4708581333
 10
-16.0995907185
 20
-2.4468329447
  0
LWPOLYLINE
  5
2BA
100
AcDbEntity
  8
RACCORDO
100
AcDbPolyline
 62
250
  6
CONTINUOUS
 90
14
 70
0
 10
-16.1346700434
 20
-5.574064966
 10
-16.1234429125
 20
-5.5458781943
 10
-16.1146362578
 20
-5.5153736851
 10
-16.1083057337
 20
-5.4827442153
 10
-16.1044913458
 20
-5.4481959879
 10
-16.1032171991
 20
-5.411947332
 10
-16.1044913458
 20
-5.3742273233
 10
-16.1083057338
 20
-5.3352743361
 10
-16.1146362579
 20
-5.2953345355
 10
-16.1234429127
 20
-5.2546603222
 10
-16.1346700436
 20
-5.2135087411
 10
-16.148246699
 20
-5.1721398564
 10
-16.1640870792
 20
-5.1308151029
 10
-16.1820910796
 20
-5.0897956338
  0
LWPOLYLINE
  5
2BB
100
AcDbEntity
  8
RACCORDO
100
AcDbPolyline
 62
250
  6
CONTINUOUS
 90
7
 70
0
 10
-7.9356602719
 20
-17.9280870093
 10
-7.9200555272
 20
-17.9238278518
 10
-7.9050211775
 20
-17.9219198476
 10
-7.8907529908
 20
-17.9223878217
 10
-7.8774367571
 20
-17.9252256589
 10
-7.8652458643
 20
-17.9303963854
 10
-7.8638611175
 20
-17.9311737389
  0
LINE
  5
2BC
100
AcDbEntity
  8
RACCORDO
100
AcDbLine
 62
250
  6
CONTINUOUS
 10
-7.8406330138
 20
-17.9286824034
 11
-7.8296414082
 21
-17.9267739019
  0
LINE
  5
2BD
100
AcDbEntity
  8
RACCORDO
100
AcDbLine
 62
250
  6
CONTINUOUS
 10
-7.7875295463
 20
-17.7210265461
 11
-7.7773344304
 21
-17.7389547653
  0
LWPOLYLINE
  5
2BE
100
AcDbEntity
  8
RACCORDO
100
AcDbPolyline
 62
250
  6
CONTINUOUS
 90
8
 70
0
 10
-7.7773344304
 20
-17.7389547653
 10
-7.7684416677
 20
-17.757731533
 10
-7.760945131
 20
-17.7771572429
 10
-7.7549207817
 20
-17.7970412086
 10
-7.7504421398
 20
-17.8171484338
 10
-7.7475634901
 20
-17.8372053601
 10
-7.7463030261
 20
-17.8569781215
 10
-7.7466574265
 20
-17.8762758672
  0
LWPOLYLINE
  5
2BF
100
AcDbEntity
  8
RACCORDO
100
AcDbPolyline
 62
7
  6
CONTINUOUS
 90
8
 70
0
 10
-16.1769691346
 20
0.8450693901
 10
-16.176983914
 20
0.8451194951
 10
-16.1774956043
 20
0.8466548164
 10
-16.1784201598
 20
0.850292876
 10
-16.1794343561
 20
0.8559940611
 10
-16.1802512469
 20
0.8634927516
 10
-16.1806763358
 20
0.8726795098
 10
-16.1807029233
 20
0.87574805
  0
LWPOLYLINE
  5
2C0
100
AcDbEntity
  8
RACCORDO
100
AcDbPolyline
 62
250
  6
CONTINUOUS
 90
3
 70
0
 10
-16.1640870789
 20
-5.6227885492
 10
-16.1482466988
 20
-5.5997558695
 10
-16.1346700434
 20
-5.574064966
  0
LWPOLYLINE
  5
2C1
100
AcDbEntity
  8
RACCORDO
100
AcDbPolyline
 62
250
  6
CONTINUOUS
 90
7
 70
0
 10
-16.0995907185
 20
-2.4468329447
 10
-16.0814077997
 20
-2.4242731323
 10
-16.062622535
 20
-2.4031433053
 10
-16.0425090817
 20
-2.3829005279
 10
-16.0208254919
 20
-2.3633638215
 10
-15.9978137135
 20
-2.3447141646
 10
-15.9734737463
 20
-2.3269515574
  0
LWPOLYLINE
  5
2C2
100
AcDbEntity
  8
RACCORDO
100
AcDbPolyline
 62
7
  6
CONTINUOUS
 90
9
 70
0
 10
-17.3936059563
 20
-6.383851874
 10
-17.3996853112
 20
-6.3908196547
 10
-17.4051241121
 20
-6.3988342131
 10
-17.4099006777
 20
-6.408011533
 10
-17.4138717296
 20
-6.4182505836
 10
-17.4168739045
 20
-6.4291285132
 10
-17.4189129425
 20
-6.4403905457
 10
-17.4200621363
 20
-6.4520546903
 10
-17.4203591411
 20
-6.4640192087
  0
LINE
  5
2C3
100
AcDbEntity
  8
RACCORDO
100
AcDbLine
 62
250
  6
CONTINUOUS
 10
-16.1099402845
 20
0.8744299456
 11
-14.9910453566
 21
1.4745087972
  0
LINE
  5
2C4
100
AcDbEntity
  8
RACCORDO
100
AcDbLine
 62
250
  6
CONTINUOUS
 10
-15.9734735266
 20
0.6268689013
 11
-14.8497316502
 21
1.2295472385
  0
LINE
  5
2C5
100
AcDbEntity
  8
RACCORDO
100
AcDbLine
 62
7
  6
CONTINUOUS
 10
-15.6838640249
 20
1.832661717
 11
-16.1807029217
 21
1.602932299
  0
LINE
  5
2C6
100
AcDbEntity
  8
RACCORDO
100
AcDbLine
 62
250
  6
CONTINUOUS
 10
-15.5893283126
 20
1.8199498778
 11
-16.1807029217
 21
1.5465088375
  0
LWPOLYLINE
  5
2C7
100
AcDbEntity
  8
RACCORDO
100
AcDbPolyline
 62
250
  6
CONTINUOUS
 90
7
 70
0
 10
-15.7182296399
 20
-13.1093107791
 10
-15.7026256713
 20
-13.1050517758
 10
-15.687591909
 20
-13.1031436816
 10
-15.6733241134
 20
-13.1036113784
 10
-15.6600080865
 20
-13.106448811
 10
-15.6478172201
 20
-13.11161907
 10
-15.6464872304
 20
-13.1123647961
  0
LINE
  5
2C8
100
AcDbEntity
  8
RACCORDO
100
AcDbLine
 62
250
  6
CONTINUOUS
 10
-7.8296414082
 20
-17.9267705324
 11
-7.8296414082
 21
-17.9509317689
  0
LINE
  5
2C9
100
AcDbEntity
  8
RACCORDO
100
AcDbLine
 62
250
  6
CONTINUOUS
 10
-7.74860946
 20
-17.8948972355
 11
-7.74860946
 21
-17.9977186002
  0
LINE
  5
2CA
100
AcDbEntity
  8
RACCORDO
100
AcDbLine
 62
7
  6
CONTINUOUS
 10
-7.6972384251
 20
-17.8176277103
 11
-7.6972384251
 21
-18.0273795919
  0
LINE
  5
2CB
100
AcDbEntity
  8
RACCORDO
100
AcDbLine
 62
250
  6
CONTINUOUS
 10
-7.8276780606
 20
-17.9079622189
 11
-7.8296414082
 21
-17.9267705324
  0
LINE
  5
2CC
100
AcDbEntity
  8
RACCORDO
100
AcDbLine
 62
250
  6
CONTINUOUS
 10
-7.7466574265
 20
-17.8762758672
 11
-7.74860946
 21
-17.8948972355
  0
LWPOLYLINE
  5
2CD
100
AcDbEntity
  8
RACCORDO
100
AcDbPolyline
 62
250
  6
CONTINUOUS
 90
19
 70
0
 10
-17.461339084
 20
-6.418834377
 10
-17.4410126835
 20
-6.400543464
 10
-17.4227758474
 20
-6.3793074508
 10
-17.40673962
 20
-6.3552556424
 10
-17.3930016457
 20
-6.3285344885
 10
-17.381645576
 20
-6.2993066937
 10
-17.3727405592
 20
-6.2677502285
 10
-17.3663408178
 20
-6.234057241
 10
-17.3624853193
 20
-6.1984328865
 10
-17.3611975396
 20
-6.1610940808
 10
-17.3624853198
 20
-6.1222681798
 10
-17.3663408187
 20
-6.0821915934
 10
-17.3727405602
 20
-6.0411083461
 10
-17.3816455772
 20
-5.9992685912
 10
-17.3930016471
 20
-5.9569270922
 10
-17.4067396217
 20
-5.9143416697
 10
-17.4227758496
 20
-5.8717716272
 10
-17.4410126864
 20
-5.8294761717
 10
-17.461339088
 20
-5.7877128394
  0
LWPOLYLINE
  5
2CE
100
AcDbEntity
  8
RACCORDO
100
AcDbPolyline
 62
7
  6
CONTINUOUS
 90
21
 70
0
 10
-17.3936059563
 20
-6.383851874
 10
-17.3693784965
 20
-6.3623522662
 10
-17.3533247686
 20
-6.3446017403
 10
-17.3388696985
 20
-6.3247461024
 10
-17.3260690396
 20
-6.3028553071
 10
-17.3149929194
 20
-6.2790417864
 10
-17.3057116487
 20
-6.2534748712
 10
-17.2982724243
 20
-6.2263574028
 10
-17.2926678995
 20
-6.1977527219
 10
-17.288893542
 20
-6.1676169021
 10
-17.2869818133
 20
-6.1359304736
 10
-17.2869818134
 20
-6.1029500167
 10
-17.2888935423
 20
-6.0690559717
 10
-17.2926679
 20
-6.0345616185
 10
-17.298272425
 20
-5.9994849728
 10
-17.3057116496
 20
-5.9637768744
 10
-17.3149929208
 20
-5.9274921805
 10
-17.3260690416
 20
-5.890888234
 10
-17.3388696999
 20
-5.8542155584
 10
-17.3533247675
 20
-5.8176675675
 10
-17.3693784916
 20
-5.7813785982
  0
LWPOLYLINE
  5
2CF
100
AcDbEntity
  8
RACCORDO
100
AcDbPolyline
 62
250
  6
CONTINUOUS
 90
3
 70
0
 10
-16.209380952
 20
-5.6666077776
 10
-16.1820910795
 20
-5.64301745
 10
-16.1640870789
 20
-5.6227885492
  0
LWPOLYLINE
  5
2D0
100
AcDbEntity
  8
RACCORDO
100
AcDbPolyline
 62
7
  6
CONTINUOUS
 90
19
 70
0
 10
-16.1912484664
 20
-5.6529488944
 10
-16.1673976423
 20
-5.6332066528
 10
-16.1449783134
 20
-5.610733331
 10
-16.1242704622
 20
-5.5855651664
 10
-16.1055679013
 20
-5.5578087215
 10
-16.0890950841
 20
-5.527531061
 10
-16.0750162311
 20
-5.4946811177
 10
-16.0634826844
 20
-5.459029312
 10
-16.0548483465
 20
-5.4209268159
 10
-16.0493926177
 20
-5.3811750954
 10
-16.0471445317
 20
-5.3397819132
 10
-16.0481633705
 20
-5.2969395698
 10
-16.0523632585
 20
-5.2538290582
 10
-16.0595363024
 20
-5.2108542963
 10
-16.0695701774
 20
-5.1678957545
 10
-16.0822341745
 20
-5.1254690909
 10
-16.0973076661
 20
-5.0838728915
 10
-16.1146800179
 20
-5.0431189522
 10
-16.1342284101
 20
-5.0033365941
  0
LINE
  5
2D1
100
AcDbEntity
  8
RACCORDO
100
AcDbLine
 62
7
  6
CONTINUOUS
 10
-16.1912484664
 20
-5.6529488944
 11
-16.1911622322
 21
-5.6528841013
  0
LINE
  5
2D2
100
AcDbEntity
  8
RACCORDO
100
AcDbLine
 62
250
  6
CONTINUOUS
 10
-16.2021449222
 20
-5.6603147344
 11
-16.1912484664
 21
-5.6529488944
  0
LWPOLYLINE
  5
2D3
100
AcDbEntity
  8
RACCORDO
100
AcDbPolyline
 62
250
  6
CONTINUOUS
 90
9
 70
0
 10
-16.2368349616
 20
-2.8105563471
 10
-16.2232441463
 20
-2.8015398142
 10
-16.2113403935
 20
-2.7917604133
 10
-16.2012512436
 20
-2.781322924
 10
-16.1930847948
 20
-2.7703391769
 10
-16.1869285448
 20
-2.7589268552
 10
-16.1828484532
 20
-2.747208234
 10
-16.1808882353
 20
-2.7353088704
 10
-16.1807029217
 20
-2.7303401365
  0
LWPOLYLINE
  5
2D4
100
AcDbEntity
  8
RACCORDO
100
AcDbPolyline
 62
250
  6
CONTINUOUS
 90
9
 70
0
 10
-16.2368349617
 20
-4.9221888634
 10
-16.2232441486
 20
-4.9131723322
 10
-16.2113403971
 20
-4.903392933
 10
-16.2012512478
 20
-4.8929554452
 10
-16.1930847987
 20
-4.8819716993
 10
-16.1869285479
 20
-4.8705593785
 10
-16.1828484551
 20
-4.858840758
 10
-16.1808882359
 20
-4.8469413945
 10
-16.1807029217
 20
-4.8419720106
  0
LWPOLYLINE
  5
2D5
100
AcDbEntity
  8
RACCORDO
100
AcDbPolyline
 62
250
  6
CONTINUOUS
 90
9
 70
0
 10
-16.2368349616
 20
-5.7474073577
 10
-16.2232441923
 20
-5.7383908587
 10
-16.2113404685
 20
-5.7286114927
 10
-16.2012513315
 20
-5.7181740375
 10
-16.1930848813
 20
-5.7071903224
 10
-16.186928617
 20
-5.6957780287
 10
-16.1828485003
 20
-5.6840594285
 10
-16.18088825
 20
-5.6721600774
 10
-16.1807029217
 20
-5.6671899499
  0
LINE
  5
2D6
100
AcDbEntity
  8
RACCORDO
100
AcDbLine
 62
250
  6
CONTINUOUS
 10
-15.9734737463
 20
-2.3269515574
 11
-14.8497316502
 21
-1.5858542134
  0
LINE
  5
2D7
100
AcDbEntity
  8
RACCORDO
100
AcDbLine
 62
7
  6
CONTINUOUS
 10
-16.0072325156
 20
-2.4136951218
 11
-14.88779973
 21
-1.6754397276
  0
LINE
  5
2D8
100
AcDbEntity
  8
RACCORDO
100
AcDbLine
 62
250
  6
CONTINUOUS
 10
-16.2368349617
 20
-4.9221888634
 11
-17.4203590695
 21
-5.6208404511
  0
LWPOLYLINE
  5
2D9
100
AcDbEntity
  8
RACCORDO
100
AcDbPolyline
 62
250
  6
CONTINUOUS
 90
10
 70
0
 10
-17.386958505
 20
-5.7455108883
 10
-16.1883057237
 20
-5.0412347692
 10
-16.175784554
 20
-5.0337185758
 10
-16.16471557
 20
-5.0268726252
 10
-16.1552173695
 20
-5.0207702678
 10
-16.1473917201
 20
-5.0154768861
 10
-16.1413224691
 20
-5.0110491954
 10
-16.1370746469
 20
-5.0075346365
 10
-16.1346937691
 20
-5.004970867
 10
-16.1342282885
 20
-5.003336826
  0
LWPOLYLINE
  5
2DA
100
AcDbEntity
  8
RACCORDO
100
AcDbPolyline
 62
250
  6
CONTINUOUS
 90
3
 70
0
 10
-16.1341133112
 20
0.8635916575
 10
-16.1221314292
 20
0.8682991561
 10
-16.1099406212
 20
0.8744301401
  0
LWPOLYLINE
  5
2DB
100
AcDbEntity
  8
RACCORDO
100
AcDbPolyline
 62
250
  6
CONTINUOUS
 90
5
 70
0
 10
-17.5165510813
 20
-6.435300598
 10
-17.5101896103
 20
-6.434795869
 10
-17.4930577037
 20
-6.43140423
 10
-17.476715826
 20
-6.4260646669
 10
-17.4613390839
 20
-6.418834377
  0
LINE
  5
2DC
100
AcDbEntity
  8
RACCORDO
100
AcDbLine
 62
250
  6
CONTINUOUS
 10
-16.1807029217
 20
0.9152874055
 11
-16.1099402845
 21
0.8744299456
  0
LINE
  5
2DD
100
AcDbEntity
  8
RACCORDO
100
AcDbLine
 62
7
  6
CONTINUOUS
 10
-15.5893283126
 20
1.8199498778
 11
-14.9910453566
 21
1.4745087972
  0
LWPOLYLINE
  5
2DE
100
AcDbEntity
  8
RACCORDO
100
AcDbPolyline
 62
250
  6
CONTINUOUS
 90
16
 70
0
 10
-16.1099402845
 20
0.8744299456
 10
-16.0949518988
 20
0.8651181681
 10
-16.0802085357
 20
0.8540769702
 10
-16.0658715388
 20
0.8414271813
 10
-16.0520978048
 20
0.827307234
 10
-16.0390380663
 20
0.8118716498
 10
-16.0268352423
 20
0.7952893478
 10
-16.0156228743
 20
0.777741796
 10
-16.0055236647
 20
0.7594210257
 10
-15.9966481338
 20
0.7405275301
 10
-15.989093411
 20
0.7212680698
 10
-15.9829421712
 20
0.7018534103
 10
-15.9782617304
 20
0.6824960157
 10
-15.975103309
 20
0.6634077232
 10
-15.9735014711
 20
0.6447974253
 10
-15.9734737463
 20
0.6268687835
  0
LWPOLYLINE
  5
2DF
100
AcDbEntity
  8
RACCORDO
100
AcDbPolyline
 62
250
  6
CONTINUOUS
 90
16
 70
0
 10
-17.4613390845
 20
24.0950992827
 10
-17.4654439026
 20
24.1032349495
 10
-17.4692692895
 20
24.1113583194
 10
-17.4728149547
 20
24.1194507142
 10
-17.4760612921
 20
24.1274425692
 10
-17.4790328859
 20
24.1353689489
 10
-17.4817833641
 20
24.1433702085
 10
-17.4843087945
 20
24.1514529048
 10
-17.4865894533
 20
24.1595784193
 10
-17.4886335495
 20
24.1678175733
 10
-17.4904169591
 20
24.176123232
 10
-17.4919265432
 20
24.1845007918
 10
-17.4931605598
 20
24.1930900775
 10
-17.4940841362
 20
24.201910567
 10
-17.4946492923
 20
24.210867533
 10
-17.4948153037
 20
24.2199165292
  0
LWPOLYLINE
  5
2E0
100
AcDbEntity
  8
RACCORDO
100
AcDbPolyline
 62
7
  6
CONTINUOUS
 90
10
 70
0
 10
-17.3693784966
 20
24.101433527
 10
-17.3937392462
 20
24.1512483117
 10
-17.3998262625
 20
24.1653824039
 10
-17.4051813322
 20
24.1796176555
 10
-17.4097744502
 20
24.1938810589
 10
-17.4135705511
 20
24.2080715636
 10
-17.4165373691
 20
24.2220619122
 10
-17.4186603804
 20
24.2357552713
 10
-17.4199351485
 20
24.2490844074
 10
-17.4203591399
 20
24.2619716379
  0
LWPOLYLINE
  5
2E1
100
AcDbEntity
  8
RACCORDO
100
AcDbPolyline
 62
250
  6
CONTINUOUS
 90
14
 70
0
 10
-16.1820910794
 20
24.7930164964
 10
-16.1640870788
 20
24.7519970269
 10
-16.1482466986
 20
24.7106722732
 10
-16.1346700433
 20
24.6693033882
 10
-16.1234429123
 20
24.628151807
 10
-16.1146362577
 20
24.5874775938
 10
-16.1083057337
 20
24.5475377939
 10
-16.1044913458
 20
24.5085848075
 10
-16.1032171991
 20
24.4708647992
 10
-16.1044913458
 20
24.4346161428
 10
-16.1083057338
 20
24.4000679145
 10
-16.1146362581
 20
24.3674384441
 10
-16.1234429131
 20
24.3369339345
 10
-16.1346700443
 20
24.3087471627
  0
LINE
  5
2E2
100
AcDbEntity
  8
RACCORDO
100
AcDbLine
 62
250
  6
CONTINUOUS
 10
-17.3869585153
 20
-6.3779190102
 11
-16.2021449225
 21
-5.6603147347
  0
LINE
  5
2E3
100
AcDbEntity
  8
RACCORDO
100
AcDbLine
 62
250
  6
CONTINUOUS
 10
-17.4203591316
 20
-6.4640192044
 11
-16.2368349616
 21
-5.7474073577
  0
LINE
  5
2E4
100
AcDbEntity
  8
0
100
AcDbLine
 62
250
  6
CONTINUOUS
 10
28.851976095
 20
17.2900527714
 11
31.9632459322
 21
19.086460982
  0
LINE
  5
2E5
100
AcDbEntity
  8
RACCORDO
100
AcDbLine
 62
250
  6
CONTINUOUS
 10
28.851976095
 20
17.2900527714
 11
31.9632459322
 21
19.086460982
  0
LINE
  5
2E6
100
AcDbEntity
  8
RACCORDO
100
AcDbLine
 62
250
  6
CONTINUOUS
 10
32.4235787241
 20
18.6989380173
 11
33.3256854217
 21
19.2198058255
  0
LINE
  5
2E7
100
AcDbEntity
  8
RACCORDO
100
AcDbLine
 62
250
  6
CONTINUOUS
 10
-17.3869585046
 20
-5.7455108883
 11
-17.4767154312
 21
-5.7964538846
  0
LINE
  5
2E8
100
AcDbEntity
  8
RACCORDO
100
AcDbLine
 62
250
  6
CONTINUOUS
 10
-17.4203590669
 20
-5.6208404514
 11
-17.4948153013
 21
-5.6628955875
  0
LINE
  5
2E9
100
AcDbEntity
  8
RACCORDO
100
AcDbLine
 62
250
  6
CONTINUOUS
 10
-17.4948153017
 20
-6.504994126
 11
-17.4203591313
 21
-6.4640212951
  0
LINE
  5
2EA
100
AcDbEntity
  8
RACCORDO
100
AcDbLine
 62
250
  6
CONTINUOUS
 10
-17.461339084
 20
-6.418834377
 11
-17.3869566794
 21
-6.3779175618
  0
LWPOLYLINE
  5
2EB
100
AcDbEntity
  8
RACCORDO
100
AcDbPolyline
 62
250
  6
CONTINUOUS
 90
4
 70
0
 10
-17.5165510813
 20
-5.8183096793
 10
-17.5101884371
 20
-5.8148995233
 10
-17.4930569103
 20
-5.8055485932
 10
-17.4767154312
 20
-5.7964538846
  0
LWPOLYLINE
  5
2EC
100
AcDbEntity
  8
RACCORDO
100
AcDbPolyline
 62
250
  6
CONTINUOUS
 90
3
 70
0
 10
-17.5165510813
 20
-5.673226093
 10
-17.5104313855
 20
-5.6707427529
 10
-17.4948153013
 20
-5.6628955875
  0
LWPOLYLINE
  5
2ED
100
AcDbEntity
  8
RACCORDO
100
AcDbPolyline
 62
250
  6
CONTINUOUS
 90
3
 70
0
 10
-17.5165510813
 20
-6.5153246312
 10
-17.5104313169
 20
-6.5128412599
 10
-17.4948153017
 20
-6.504994126
  0
LWPOLYLINE
  5
2EE
100
AcDbEntity
  8
RACCORDO
100
AcDbPolyline
 62
250
  6
CONTINUOUS
 90
6
 70
0
 10
-16.1798198297
 20
0.8595325359
 10
-16.1781107279
 20
0.8591096382
 10
-16.1679550793
 20
0.8580958305
 10
-16.1571153443
 20
0.8584873398
 10
-16.1457903288
 20
0.8603221773
 10
-16.1341133112
 20
0.8635916575
  0
LWPOLYLINE
  5
2EF
100
AcDbEntity
  8
0
100
AcDbPolyline
 62
250
  6
CONTINUOUS
 90
5
 70
0
 10
13.9859909468
 20
-31.8484622095
 10
13.9781209851
 20
-31.8340504281
 10
13.9724564071
 20
-31.8192974507
 10
13.9690403236
 20
-31.8043155563
 10
13.967898733
 20
-31.7892187663
  0
LWPOLYLINE
  5
2F0
100
AcDbEntity
  8
RACCORDO
100
AcDbPolyline
 62
250
  6
CONTINUOUS
 90
5
 70
0
 10
13.9859909468
 20
-31.8484622095
 10
13.9781209851
 20
-31.8340504281
 10
13.9724564071
 20
-31.8192974507
 10
13.9690403236
 20
-31.8043155563
 10
13.967898733
 20
-31.7892187663
  0
LWPOLYLINE
  5
2F1
100
AcDbEntity
  8
RACCORDO
100
AcDbPolyline
 62
7
  6
CONTINUOUS
 90
12
 70
0
 10
-16.134228279
 20
24.8794752865
 10
-16.1373456813
 20
24.8855171534
 10
-16.1467306355
 20
24.9050992563
 10
-16.1550306126
 20
24.9246571209
 10
-16.1621862815
 20
24.9439668802
 10
-16.1681517834
 20
24.9627691892
 10
-16.1728813542
 20
24.9806906606
 10
-16.176421551
 20
24.9975423036
 10
-16.1788368049
 20
25.0131144764
 10
-16.1802072185
 20
25.0270213233
 10
-16.1806950728
 20
25.039170454
 10
-16.1807029225
 20
25.040830441
  0
LINE
  5
2F2
100
AcDbEntity
  8
RACCORDO
100
AcDbLine
 62
250
  6
CONTINUOUS
 10
-16.2021449225
 20
24.8334714565
 11
-16.1820910794
 21
24.7930164964
  0
LWPOLYLINE
  5
2F3
100
AcDbEntity
  8
RACCORDO
100
AcDbPolyline
 62
250
  6
CONTINUOUS
 90
9
 70
0
 10
-16.2368349616
 20
-12.2523309442
 10
-16.2232441486
 20
-12.243314413
 10
-16.2113403971
 20
-12.2335350138
 10
-16.2012512478
 20
-12.223097526
 10
-16.1930847987
 20
-12.2121137801
 10
-16.1869285479
 20
-12.2007014593
 10
-16.1828484551
 20
-12.1889828388
 10
-16.1808882359
 20
-12.1770834753
 10
-16.180702987
 20
-12.1722068726
  0
LINE
  5
2F4
100
AcDbEntity
  8
RACCORDO
100
AcDbLine
 62
250
  6
CONTINUOUS
 10
32.9184196992
 20
17.8419310867
 11
33.8204905531
 21
18.362778199
  0
LINE
  5
2F5
100
AcDbEntity
  8
0
100
AcDbLine
 62
250
  6
CONTINUOUS
 10
29.9126362668
 20
15.4529354662
 11
33.023906104
 21
17.2493436769
  0
LINE
  5
2F6
100
AcDbEntity
  8
RACCORDO
100
AcDbLine
 62
250
  6
CONTINUOUS
 10
29.9126362668
 20
15.4529354662
 11
33.023906104
 21
17.2493436769
  0
LINE
  5
2F7
100
AcDbEntity
  8
0
100
AcDbLine
 62
250
  6
CONTINUOUS
 10
-18.1529471844
 20
-13.0698286622
 11
-17.5165510813
 21
-12.7023815282
  0
LINE
  5
2F8
100
AcDbEntity
  8
RACCORDO
100
AcDbLine
 62
250
  6
CONTINUOUS
 10
-18.1529471844
 20
-13.0698286622
 11
-17.5165510813
 21
-12.7023815282
  0
LINE
  5
2F9
100
AcDbEntity
  8
RACCORDO
100
AcDbLine
 62
250
  6
CONTINUOUS
 10
-17.4948153021
 20
-12.7297474707
 11
-17.4203591399
 21
-12.6867575583
  0
LINE
  5
2FA
100
AcDbEntity
  8
0
100
AcDbLine
 62
250
  6
CONTINUOUS
 10
-17.7286831156
 20
-13.8046755843
 11
-17.0922870126
 21
-13.4372284503
  0
LINE
  5
2FB
100
AcDbEntity
  8
RACCORDO
100
AcDbLine
 62
250
  6
CONTINUOUS
 10
-17.7286831156
 20
-13.8046755843
 11
-17.0922870126
 21
-13.4372284503
  0
LINE
  5
2FC
100
AcDbEntity
  8
RACCORDO
100
AcDbLine
 62
250
  6
CONTINUOUS
 10
-17.5104313861
 20
-12.7375946358
 11
-17.4948153021
 21
-12.7297474707
  0
LINE
  5
2FD
100
AcDbEntity
  8
RACCORDO
100
AcDbLine
 62
250
  6
CONTINUOUS
 10
-17.5153251116
 20
-12.7395804837
 11
-17.5104313861
 21
-12.7375946358
  0
LINE
  5
2FE
100
AcDbEntity
  8
RACCORDO
100
AcDbLine
 62
250
  6
CONTINUOUS
 10
-17.4203591399
 20
-12.6867575583
 11
-17.2945317239
 21
-12.6377510301
  0
LINE
  5
2FF
100
AcDbEntity
  8
RACCORDO
100
AcDbLine
 62
250
  6
CONTINUOUS
 10
-17.2945317239
 20
-12.6377510301
 11
-17.1688577624
 21
-12.5897641876
  0
LINE
  5
300
100
AcDbEntity
  8
RACCORDO
100
AcDbLine
 62
250
  6
CONTINUOUS
 10
-17.1688577624
 20
-12.5897641876
 11
-17.0433407934
 21
-12.542798301
  0
LINE
  5
301
100
AcDbEntity
  8
RACCORDO
100
AcDbLine
 62
250
  6
CONTINUOUS
 10
-17.0433407934
 20
-12.542798301
 11
-16.9179949686
 21
-12.4968584518
  0
LINE
  5
302
100
AcDbEntity
  8
RACCORDO
100
AcDbLine
 62
250
  6
CONTINUOUS
 10
-16.9144244845
 20
-13.5399240449
 11
-16.5034573844
 21
-13.3910764666
  0
LINE
  5
303
100
AcDbEntity
  8
RACCORDO
100
AcDbLine
 62
250
  6
CONTINUOUS
 10
-16.9179949686
 20
-12.4968584518
 11
-16.2368349616
 21
-12.2523309442
  0
LINE
  5
304
100
AcDbEntity
  8
RACCORDO
100
AcDbLine
 62
250
  6
CONTINUOUS
 10
-16.5034573844
 20
-13.3910764666
 11
-15.7182296399
 21
-13.1093107791
  0
LWPOLYLINE
  5
305
100
AcDbEntity
  8
RACCORDO
100
AcDbPolyline
 62
250
  6
CONTINUOUS
 90
9
 70
0
 10
-7.74860946
 20
-17.8948972355
 10
-7.7358464135
 20
-17.8858294125
 10
-7.7247357796
 20
-17.8760633079
 10
-7.7153913139
 20
-17.8656989122
 10
-7.7079086934
 20
-17.8548423491
 10
-7.7023645209
 20
-17.8436047662
 10
-7.6988155542
 20
-17.8321011951
 10
-7.6972981409
 20
-17.820449402
 10
-7.6972384251
 20
-17.8176277103
  0
LWPOLYLINE
  5
306
100
AcDbEntity
  8
0
100
AcDbPolyline
 62
250
  6
CONTINUOUS
 90
10
 70
0
 10
13.4193705956
 20
12.0144352566
 10
13.4201778221
 20
11.993553317
 10
13.4225933579
 20
11.9737624664
 10
13.4265988194
 20
11.9552133251
 10
13.4321637227
 20
11.9380470634
 10
13.4392457154
 20
11.9223943268
 10
13.4477908993
 20
11.9083742421
 10
13.4577342404
 20
11.8960935107
 10
13.4690000639
 20
11.8856455962
 10
13.4814953819
 20
11.8771141982
  0
LWPOLYLINE
  5
307
100
AcDbEntity
  8
RACCORDO
100
AcDbPolyline
 62
250
  6
CONTINUOUS
 90
10
 70
0
 10
13.4193705956
 20
12.0144352566
 10
13.4201778221
 20
11.993553317
 10
13.4225933579
 20
11.9737624664
 10
13.4265988194
 20
11.9552133251
 10
13.4321637227
 20
11.9380470634
 10
13.4392457154
 20
11.9223943268
 10
13.4477908993
 20
11.9083742421
 10
13.4577342404
 20
11.8960935107
 10
13.4690000639
 20
11.8856455962
 10
13.4814953819
 20
11.8771141982
  0
LINE
  5
308
100
AcDbEntity
  8
0
100
AcDbLine
 62
7
  6
CONTINUOUS
 10
13.967898733
 20
11.0346472515
 11
13.967898733
 21
-31.7892187663
  0
LINE
  5
309
100
AcDbEntity
  8
RACCORDO
100
AcDbLine
 62
7
  6
CONTINUOUS
 10
13.967898733
 20
11.0346472515
 11
13.967898733
 21
-31.7892187663
  0
LINE
  5
30A
100
AcDbEntity
  8
0
100
AcDbLine
 62
250
  6
CONTINUOUS
 10
14.0557666987
 20
10.9121648735
 11
14.0557666987
 21
-31.9117011443
  0
LINE
  5
30B
100
AcDbEntity
  8
RACCORDO
100
AcDbLine
 62
250
  6
CONTINUOUS
 10
14.0557666987
 20
10.9121648735
 11
14.0557666987
 21
-31.9117011443
  0
LWPOLYLINE
  5
30C
100
AcDbEntity
  8
0
100
AcDbPolyline
 62
7
  6
CONTINUOUS
 90
13
 70
0
 10
13.967898733
 20
-31.7892187663
 10
13.9671658298
 20
-31.8168937981
 10
13.9650931038
 20
-31.8419863723
 10
13.9618980813
 20
-31.8643256395
 10
13.9578439741
 20
-31.8837443045
 10
13.9531930319
 20
-31.9002688849
 10
13.9482218349
 20
-31.9139356383
 10
13.9432934136
 20
-31.9246677261
 10
13.9387990162
 20
-31.9325102577
 10
13.935106148
 20
-31.9376773844
 10
13.9325401662
 20
-31.9405176757
 10
13.9313258429
 20
-31.9415341459
 10
13.9315171261
 20
-31.941378505
  0
LWPOLYLINE
  5
30D
100
AcDbEntity
  8
RACCORDO
100
AcDbPolyline
 62
7
  6
CONTINUOUS
 90
13
 70
0
 10
13.967898733
 20
-31.7892187663
 10
13.9671658298
 20
-31.8168937981
 10
13.9650931038
 20
-31.8419863723
 10
13.9618980813
 20
-31.8643256395
 10
13.9578439741
 20
-31.8837443045
 10
13.9531930319
 20
-31.9002688849
 10
13.9482218349
 20
-31.9139356383
 10
13.9432934136
 20
-31.9246677261
 10
13.9387990162
 20
-31.9325102577
 10
13.935106148
 20
-31.9376773844
 10
13.9325401662
 20
-31.9405176757
 10
13.9313258429
 20
-31.9415341459
 10
13.9315171261
 20
-31.941378505
  0
LWPOLYLINE
  5
30E
100
AcDbEntity
  8
0
100
AcDbPolyline
 62
250
  6
CONTINUOUS
 90
22
 70
0
 10
14.0557666987
 20
-31.9117011443
 10
14.0539767531
 20
-31.9656741408
 10
14.0487113059
 20
-32.0168688951
 10
14.0399703571
 20
-32.0652854073
 10
14.0276620594
 20
-32.1112137746
 10
14.0118782601
 20
-32.1543638997
 10
13.9928945012
 20
-32.1938654912
 10
13.9706658903
 20
-32.229599272
 10
13.9452373198
 20
-32.2616845191
 10
13.9170190081
 20
-32.2896087722
 10
13.8859539678
 20
-32.3133130321
 10
13.8520991864
 20
-32.332856298
 10
13.8160358444
 20
-32.3479031074
 10
13.7777410565
 20
-32.3583745173
 10
13.737237708
 20
-32.3643494706
 10
13.6951756356
 20
-32.3657293337
 10
13.6514751206
 20
-32.3624159358
 10
13.6062158817
 20
-32.3545074475
 10
13.5602869105
 20
-32.3421997479
 10
13.5139845378
 20
-32.3255581298
 10
13.4670124328
 20
-32.3045173003
 10
13.4193705956
 20
-32.2790772594
  0
LWPOLYLINE
  5
30F
100
AcDbEntity
  8
RACCORDO
100
AcDbPolyline
 62
250
  6
CONTINUOUS
 90
22
 70
0
 10
14.0557666987
 20
-31.9117011443
 10
14.0539767531
 20
-31.9656741408
 10
14.0487113059
 20
-32.0168688951
 10
14.0399703571
 20
-32.0652854073
 10
14.0276620594
 20
-32.1112137746
 10
14.0118782601
 20
-32.1543638997
 10
13.9928945012
 20
-32.1938654912
 10
13.9706658903
 20
-32.229599272
 10
13.9452373198
 20
-32.2616845191
 10
13.9170190081
 20
-32.2896087722
 10
13.8859539678
 20
-32.3133130321
 10
13.8520991864
 20
-32.332856298
 10
13.8160358444
 20
-32.3479031074
 10
13.7777410565
 20
-32.3583745173
 10
13.737237708
 20
-32.3643494706
 10
13.6951756356
 20
-32.3657293337
 10
13.6514751206
 20
-32.3624159358
 10
13.6062158817
 20
-32.3545074475
 10
13.5602869105
 20
-32.3421997479
 10
13.5139845378
 20
-32.3255581298
 10
13.4670124328
 20
-32.3045173003
 10
13.4193705956
 20
-32.2790772594
  0
LWPOLYLINE
  5
310
100
AcDbEntity
  8
0
100
AcDbPolyline
 62
250
  6
CONTINUOUS
 90
19
 70
0
 10
13.4193705956
 20
-32.2790772594
 10
13.4201778221
 20
-32.257263155
 10
13.4225933579
 20
-32.2346829042
 10
13.4265988194
 20
-32.2115083564
 10
13.4321637227
 20
-32.1879158839
 10
13.4392457154
 20
-32.1640850396
 10
13.4477908993
 20
-32.1401971908
 10
13.4577342404
 20
-32.1164341382
 10
13.4690000639
 20
-32.0929767332
 10
13.48150263
 20
-32.0700035007
 10
13.4951467867
 20
-32.0476892809
 10
13.5098286937
 20
-32.0262038984
 10
13.5254366128
 20
-32.0057108701
 10
13.5418517584
 20
-31.9863661602
 10
13.5589492012
 20
-31.9683169937
 10
13.5765988194
 20
-31.9517007355
 10
13.5946662888
 20
-31.9366438456
 10
13.613014105
 20
-31.9232609158
 10
13.63150263
 20
-31.9116537984
  0
LWPOLYLINE
  5
311
100
AcDbEntity
  8
RACCORDO
100
AcDbPolyline
 62
250
  6
CONTINUOUS
 90
19
 70
0
 10
13.4193705956
 20
-32.2790772594
 10
13.4201778221
 20
-32.257263155
 10
13.4225933579
 20
-32.2346829042
 10
13.4265988194
 20
-32.2115083564
 10
13.4321637227
 20
-32.1879158839
 10
13.4392457154
 20
-32.1640850396
 10
13.4477908993
 20
-32.1401971908
 10
13.4577342404
 20
-32.1164341382
 10
13.4690000639
 20
-32.0929767332
 10
13.48150263
 20
-32.0700035007
 10
13.4951467867
 20
-32.0476892809
 10
13.5098286937
 20
-32.0262038984
 10
13.5254366128
 20
-32.0057108701
 10
13.5418517584
 20
-31.9863661602
 10
13.5589492012
 20
-31.9683169937
 10
13.5765988194
 20
-31.9517007355
 10
13.5946662888
 20
-31.9366438456
 10
13.613014105
 20
-31.9232609158
 10
13.63150263
 20
-31.9116537984
  0
LINE
  5
312
100
AcDbEntity
  8
RACCORDO
100
AcDbLine
 62
250
  6
CONTINUOUS
 10
-7.9500753314
 20
-17.6732056936
 11
-7.8690435414
 21
-17.6413324589
  0
LINE
  5
313
100
AcDbEntity
  8
RACCORDO
100
AcDbLine
 62
250
  6
CONTINUOUS
 10
-7.8296414082
 20
-17.9267705324
 11
-7.74860946
 21
-17.8948972355
  0
LWPOLYLINE
  5
314
100
AcDbEntity
  8
RACCORDO
100
AcDbPolyline
 62
250
  6
CONTINUOUS
 90
3
 70
0
 10
-7.8584960267
 20
-17.9342714738
 10
-7.8504280104
 20
-17.9312595303
 10
-7.8406330138
 20
-17.9286824034
  0
LWPOLYLINE
  5
315
100
AcDbEntity
  8
RACCORDO
100
AcDbPolyline
 62
250
  6
CONTINUOUS
 90
8
 70
0
 10
-7.8690435414
 20
-17.6413324589
 10
-7.8564968915
 20
-17.6377329377
 10
-7.8442911971
 20
-17.6356389746
 10
-7.8325286107
 20
-17.6350680998
 10
-7.8213068746
 20
-17.6360252073
 10
-7.8107206918
 20
-17.6385023777
 10
-7.8008605023
 20
-17.6424779716
 10
-7.7972446009
 20
-17.644419065
  0
LWPOLYLINE
  5
316
100
AcDbEntity
  8
0
100
AcDbPolyline
 62
250
  6
CONTINUOUS
 90
19
 70
0
 10
-18.5772112531
 20
29.7540373555
 10
-18.5579155016
 20
29.7438283953
 10
-18.5371521496
 20
29.7346292963
 10
-18.5150792187
 20
29.7265100692
 10
-18.4918646972
 20
29.7195325063
 10
-18.4676852616
 20
29.7137497109
 10
-18.4427249321
 20
29.7092056937
 10
-18.4171736719
 20
29.7059350373
 10
-18.3912259414
 20
29.7039626335
 10
-18.3650792186
 20
29.7033034934
 10
-18.3389324958
 20
29.7039626335
 10
-18.3129847653
 20
29.7059350373
 10
-18.2874335051
 20
29.7092056937
 10
-18.2624731756
 20
29.7137497109
 10
-18.2382937401
 20
29.7195325063
 10
-18.2150792187
 20
29.7265100693
 10
-18.1930062878
 20
29.7346292964
 10
-18.1722429358
 20
29.7438283953
 10
-18.1529471844
 20
29.7540373555
  0
LWPOLYLINE
  5
317
100
AcDbEntity
  8
RACCORDO
100
AcDbPolyline
 62
250
  6
CONTINUOUS
 90
19
 70
0
 10
-18.5772112531
 20
29.7540373555
 10
-18.5579155016
 20
29.7438283953
 10
-18.5371521496
 20
29.7346292963
 10
-18.5150792187
 20
29.7265100692
 10
-18.4918646972
 20
29.7195325063
 10
-18.4676852616
 20
29.7137497109
 10
-18.4427249321
 20
29.7092056937
 10
-18.4171736719
 20
29.7059350373
 10
-18.3912259414
 20
29.7039626335
 10
-18.3650792186
 20
29.7033034934
 10
-18.3389324958
 20
29.7039626335
 10
-18.3129847653
 20
29.7059350373
 10
-18.2874335051
 20
29.7092056937
 10
-18.2624731756
 20
29.7137497109
 10
-18.2382937401
 20
29.7195325063
 10
-18.2150792187
 20
29.7265100693
 10
-18.1930062878
 20
29.7346292964
 10
-18.1722429358
 20
29.7438283953
 10
-18.1529471844
 20
29.7540373555
  0
LINE
  5
318
100
AcDbEntity
  8
0
100
AcDbLine
 62
7
  6
CONTINUOUS
 10
-17.8786903637
 20
29.9840924123
 11
13.4814953819
 21
11.8771141982
  0
LINE
  5
319
100
AcDbEntity
  8
RACCORDO
100
AcDbLine
 62
7
  6
CONTINUOUS
 10
-17.8786903637
 20
29.9840924123
 11
13.4814953819
 21
11.8771141982
  0
LINE
  5
31A
100
AcDbEntity
  8
0
100
AcDbLine
 62
250
  6
CONTINUOUS
 10
-17.94081515
 20
30.1214134707
 11
13.4193705956
 21
12.0144352566
  0
LINE
  5
31B
100
AcDbEntity
  8
RACCORDO
100
AcDbLine
 62
250
  6
CONTINUOUS
 10
-17.94081515
 20
30.1214134707
 11
13.4193705956
 21
12.0144352566
  0
LWPOLYLINE
  5
31C
100
AcDbEntity
  8
0
100
AcDbPolyline
 62
7
  6
CONTINUOUS
 90
25
 70
0
 10
13.4814953819
 20
11.8771141982
 10
13.5079817225
 20
11.8608520017
 10
13.5356525761
 20
11.8418404077
 10
13.5642755596
 20
11.820043687
 10
13.5936253694
 20
11.795445069
 10
13.6234184739
 20
11.7681045146
 10
13.6533397165
 20
11.7381539675
 10
13.6831631567
 20
11.7056756891
 10
13.7126163877
 20
11.6708306672
 10
13.741351189
 20
11.6339226813
 10
13.7691409128
 20
11.5951606879
 10
13.7957725393
 20
11.5547698117
 10
13.8209651939
 20
11.5131309153
 10
13.8445463767
 20
11.4705139546
 10
13.8663589065
 20
11.4272034327
 10
13.8862019427
 20
11.3836378227
 10
13.903978894
 20
11.3401145719
 10
13.9196126339
 20
11.2969390635
 10
13.9330017321
 20
11.2545807528
 10
13.9441409912
 20
11.2133414447
 10
13.9530577934
 20
11.1734893167
 10
13.959778329
 20
11.1354457938
 10
13.9643966037
 20
11.0995126686
 10
13.9670519076
 20
11.0658522885
 10
13.967898733
 20
11.0346472515
  0
LWPOLYLINE
  5
31D
100
AcDbEntity
  8
RACCORDO
100
AcDbPolyline
 62
7
  6
CONTINUOUS
 90
25
 70
0
 10
13.4814953819
 20
11.8771141982
 10
13.5079817225
 20
11.8608520017
 10
13.5356525761
 20
11.8418404077
 10
13.5642755596
 20
11.820043687
 10
13.5936253694
 20
11.795445069
 10
13.6234184739
 20
11.7681045146
 10
13.6533397165
 20
11.7381539675
 10
13.6831631567
 20
11.7056756891
 10
13.7126163877
 20
11.6708306672
 10
13.741351189
 20
11.6339226813
 10
13.7691409128
 20
11.5951606879
 10
13.7957725393
 20
11.5547698117
 10
13.8209651939
 20
11.5131309153
 10
13.8445463767
 20
11.4705139546
 10
13.8663589065
 20
11.4272034327
 10
13.8862019427
 20
11.3836378227
 10
13.903978894
 20
11.3401145719
 10
13.9196126339
 20
11.2969390635
 10
13.9330017321
 20
11.2545807528
 10
13.9441409912
 20
11.2133414447
 10
13.9530577934
 20
11.1734893167
 10
13.959778329
 20
11.1354457938
 10
13.9643966037
 20
11.0995126686
 10
13.9670519076
 20
11.0658522885
 10
13.967898733
 20
11.0346472515
  0
LWPOLYLINE
  5
31E
100
AcDbEntity
  8
0
100
AcDbPolyline
 62
250
  6
CONTINUOUS
 90
4
 70
0
 10
13.4193705956
 20
12.0144352566
 10
13.4670091468
 20
11.9848625696
 10
13.513979511
 20
11.9516626512
 10
13.5602816882
 20
11.9148355013
  0
LWPOLYLINE
  5
31F
100
AcDbEntity
  8
RACCORDO
100
AcDbPolyline
 62
250
  6
CONTINUOUS
 90
4
 70
0
 10
13.4193705956
 20
12.0144352566
 10
13.4670091468
 20
11.9848625696
 10
13.513979511
 20
11.9516626512
 10
13.5602816882
 20
11.9148355013
  0
LWPOLYLINE
  5
320
100
AcDbEntity
  8
0
100
AcDbPolyline
 62
250
  6
CONTINUOUS
 90
10
 70
0
 10
14.0557666987
 20
10.9121648735
 10
14.0380854001
 20
10.9233059985
 10
14.0221531198
 20
10.9352944977
 10
14.0080911119
 20
10.9480391314
 10
13.9960063969
 20
10.9614429052
 10
13.9859909468
 20
10.9754038082
 10
13.9781209852
 20
10.9898155896
 10
13.9724564071
 20
11.004568567
 10
13.9690403236
 20
11.0195504614
 10
13.967898733
 20
11.0346472515
  0
LWPOLYLINE
  5
321
100
AcDbEntity
  8
RACCORDO
100
AcDbPolyline
 62
250
  6
CONTINUOUS
 90
10
 70
0
 10
14.0557666987
 20
10.9121648735
 10
14.0380854001
 20
10.9233059985
 10
14.0221531198
 20
10.9352944977
 10
14.0080911119
 20
10.9480391314
 10
13.9960063969
 20
10.9614429052
 10
13.9859909468
 20
10.9754038082
 10
13.9781209852
 20
10.9898155896
 10
13.9724564071
 20
11.004568567
 10
13.9690403236
 20
11.0195504614
 10
13.967898733
 20
11.0346472515
  0
LWPOLYLINE
  5
322
100
AcDbEntity
  8
0
100
AcDbPolyline
 62
250
  6
CONTINUOUS
 90
19
 70
0
 10
13.5602816882
 20
11.9148355013
 10
13.6062128461
 20
11.8741034863
 10
13.6514758169
 20
11.8297442398
 10
13.6951790976
 20
11.7825906627
 10
13.7372418361
 20
11.7326376026
 10
13.7777448845
 20
11.679890212
 10
13.8160392957
 20
11.6251968489
 10
13.8521024696
 20
11.5685047612
 10
13.8859570063
 20
11.509866701
 10
13.917021759
 20
11.4502892832
 10
13.9452398026
 20
11.3897789509
 10
13.9706680622
 20
11.3283292609
 10
13.9928961661
 20
11.2669274993
 10
14.011878956
 20
11.2055076918
 10
14.0276615902
 20
11.1441358127
 10
14.0399691713
 20
11.0839970704
 10
14.0487100669
 20
11.0254865346
 10
14.0539759093
 20
10.9682091356
 10
14.0557666987
 20
10.9121648735
  0
LWPOLYLINE
  5
323
100
AcDbEntity
  8
RACCORDO
100
AcDbPolyline
 62
250
  6
CONTINUOUS
 90
19
 70
0
 10
13.5602816882
 20
11.9148355013
 10
13.6062128461
 20
11.8741034863
 10
13.6514758169
 20
11.8297442398
 10
13.6951790976
 20
11.7825906627
 10
13.7372418361
 20
11.7326376026
 10
13.7777448845
 20
11.679890212
 10
13.8160392957
 20
11.6251968489
 10
13.8521024696
 20
11.5685047612
 10
13.8859570063
 20
11.509866701
 10
13.917021759
 20
11.4502892832
 10
13.9452398026
 20
11.3897789509
 10
13.9706680622
 20
11.3283292609
 10
13.9928961661
 20
11.2669274993
 10
14.011878956
 20
11.2055076918
 10
14.0276615902
 20
11.1441358127
 10
14.0399691713
 20
11.0839970704
 10
14.0487100669
 20
11.0254865346
 10
14.0539759093
 20
10.9682091356
 10
14.0557666987
 20
10.9121648735
  0
LWPOLYLINE
  5
324
100
AcDbEntity
  8
RACCORDO
100
AcDbPolyline
 62
250
  6
CONTINUOUS
 90
5
 70
0
 10
-17.5165510813
 20
23.4475115327
 10
-17.5101896103
 20
23.4480162616
 10
-17.4930577037
 20
23.4514079006
 10
-17.476715826
 20
23.4567474638
 10
-17.4613390839
 20
23.4639777537
  0
LWPOLYLINE
  5
325
100
AcDbEntity
  8
0
100
AcDbPolyline
 62
250
  6
CONTINUOUS
 90
10
 70
0
 10
-33.72697404
 20
51.7893742724
 10
-33.756442871
 20
51.8079428141
 10
-33.7829966715
 20
51.8279236462
 10
-33.8064333513
 20
51.8491647023
 10
-33.8265745429
 20
51.8715043252
 10
-33.8432669598
 20
51.8947724969
 10
-33.8563835625
 20
51.9187921326
 10
-33.8658245259
 20
51.9433804283
 10
-33.8715179984
 20
51.9683502523
 10
-33.8734206494
 20
51.9935115691
  0
LWPOLYLINE
  5
326
100
AcDbEntity
  8
RACCORDO
100
AcDbPolyline
 62
250
  6
CONTINUOUS
 90
10
 70
0
 10
-33.72697404
 20
51.7893742724
 10
-33.756442871
 20
51.8079428141
 10
-33.7829966715
 20
51.8279236462
 10
-33.8064333513
 20
51.8491647023
 10
-33.8265745429
 20
51.8715043252
 10
-33.8432669598
 20
51.8947724969
 10
-33.8563835625
 20
51.9187921326
 10
-33.8658245259
 20
51.9433804283
 10
-33.8715179984
 20
51.9683502523
 10
-33.8734206494
 20
51.9935115691
  0
LWPOLYLINE
  5
327
100
AcDbEntity
  8
CURVE
100
AcDbPolyline
 62
250
  6
CONTINUOUS
 90
32
 70
0
 10
30.5988921789
 20
-45.1385060729
 10
30.5950028393
 20
-45.1096710211
 10
30.5912626618
 20
-45.0807014638
 10
30.5876929943
 20
-45.0515884407
 10
30.5843151846
 20
-45.0223229918
 10
30.5811505803
 20
-44.992896157
 10
30.5782205292
 20
-44.9632989762
 10
30.5755463792
 20
-44.9335224891
 10
30.573149478
 20
-44.9035577358
 10
30.5710511733
 20
-44.8733957559
 10
30.5692728129
 20
-44.8430275896
 10
30.5678357445
 20
-44.8124442765
 10
30.566761316
 20
-44.7816368566
 10
30.5660708751
 20
-44.7505963697
 10
30.5657857696
 20
-44.7193138558
 10
30.5659273472
 20
-44.6877803547
 10
30.5665169556
 20
-44.6559869063
 10
30.5675759428
 20
-44.6239245504
 10
30.5691256563
 20
-44.591584327
 10
30.571187444
 20
-44.5589572759
 10
30.5728552827
 20
-44.5371014152
 10
30.5747834672
 20
-44.5151173584
 10
30.5769965254
 20
-44.4930076727
 10
30.5795189849
 20
-44.4707749255
 10
30.5823753735
 20
-44.4484216841
 10
30.5855902191
 20
-44.4259505158
 10
30.5891880493
 20
-44.403363988
 10
30.5931933919
 20
-44.380664668
 10
30.5976307747
 20
-44.3578551231
 10
30.6025247254
 20
-44.3349379206
 10
30.6078997719
 20
-44.3119156279
 10
30.6137804418
 20
-44.2887908123
  0
LWPOLYLINE
  5
328
100
AcDbEntity
  8
0
100
AcDbPolyline
 62
250
  6
CONTINUOUS
 90
10
 70
0
 10
28.4984227044
 20
-54.3552337446
 10
28.4997680818
 20
-54.3900369773
 10
28.5037939749
 20
-54.4230217282
 10
28.5104697441
 20
-54.4539369636
 10
28.5197445828
 20
-54.4825473998
 10
28.531547904
 20
-54.5086352941
 10
28.5457898772
 20
-54.5320021019
 10
28.5623621123
 20
-54.5524699877
 10
28.5811384848
 20
-54.5698831785
 10
28.6019640149
 20
-54.5841021752
  0
LWPOLYLINE
  5
329
100
AcDbEntity
  8
RACCORDO
100
AcDbPolyline
 62
250
  6
CONTINUOUS
 90
10
 70
0
 10
28.4984227044
 20
-54.3552337446
 10
28.4997680818
 20
-54.3900369773
 10
28.5037939749
 20
-54.4230217282
 10
28.5104697441
 20
-54.4539369636
 10
28.5197445828
 20
-54.4825473998
 10
28.531547904
 20
-54.5086352941
 10
28.5457898772
 20
-54.5320021019
 10
28.5623621123
 20
-54.5524699877
 10
28.5811384848
 20
-54.5698831785
 10
28.6019640149
 20
-54.5841021752
  0
LWPOLYLINE
  5
32A
100
AcDbEntity
  8
0
100
AcDbPolyline
 62
250
  6
CONTINUOUS
 90
25
 70
0
 10
29.2055294856
 20
15.4529354662
 10
29.2040116337
 20
15.5072555742
 10
29.1995208466
 20
15.5627216174
 10
29.1920571245
 20
15.6193335958
 10
29.1815603117
 20
15.6773866123
 10
29.1680905638
 20
15.7365855639
 10
29.1518283477
 20
15.7960451421
 10
29.1327431313
 20
15.8557168063
 10
29.1108654467
 20
15.915649097
 10
29.0864673571
 20
15.975102327
 10
29.0595130419
 20
16.0340821996
 10
29.0300383217
 20
16.0925830116
 10
28.9984227215
 20
16.1498479658
 10
28.964637486
 20
16.2058605479
 10
28.9287113705
 20
16.2606372723
 10
28.8911101661
 20
16.3134708857
 10
28.8518208489
 20
16.3643275085
 10
28.8108564428
 20
16.4132410202
 10
28.7687218109
 20
16.4596058061
 10
28.7253602891
 20
16.5034192435
 10
28.6808285415
 20
16.544683955
 10
28.6358014237
 20
16.5828021947
 10
28.5905038875
 20
16.6175747138
 10
28.5447109811
 20
16.649200761
 10
28.4984227044
 20
16.6776803363
  0
LWPOLYLINE
  5
32B
100
AcDbEntity
  8
RACCORDO
100
AcDbPolyline
 62
250
  6
CONTINUOUS
 90
25
 70
0
 10
29.2055294856
 20
15.4529354662
 10
29.2040116337
 20
15.5072555742
 10
29.1995208466
 20
15.5627216174
 10
29.1920571245
 20
15.6193335958
 10
29.1815603117
 20
15.6773866123
 10
29.1680905638
 20
15.7365855639
 10
29.1518283477
 20
15.7960451421
 10
29.1327431313
 20
15.8557168063
 10
29.1108654467
 20
15.915649097
 10
29.0864673571
 20
15.975102327
 10
29.0595130419
 20
16.0340821996
 10
29.0300383217
 20
16.0925830116
 10
28.9984227215
 20
16.1498479658
 10
28.964637486
 20
16.2058605479
 10
28.9287113705
 20
16.2606372723
 10
28.8911101661
 20
16.3134708857
 10
28.8518208489
 20
16.3643275085
 10
28.8108564428
 20
16.4132410202
 10
28.7687218109
 20
16.4596058061
 10
28.7253602891
 20
16.5034192435
 10
28.6808285415
 20
16.544683955
 10
28.6358014237
 20
16.5828021947
 10
28.5905038875
 20
16.6175747138
 10
28.5447109811
 20
16.649200761
 10
28.4984227044
 20
16.6776803363
  0
LWPOLYLINE
  5
32C
100
AcDbEntity
  8
0
100
AcDbPolyline
 62
250
  6
CONTINUOUS
 90
25
 70
0
 10
29.9126362668
 20
15.4529354662
 10
29.9103653125
 20
15.534346244
 10
29.9035621739
 20
15.6180308518
 10
29.8922559827
 20
15.7036309394
 10
29.8764951535
 20
15.790779954
 10
29.8563471762
 20
15.8791047105
 10
29.8318983268
 20
15.9682269901
 10
29.8032532978
 20
16.0577651599
 10
29.7705347518
 20
16.1473358012
 10
29.7338827966
 20
16.2365553529
 10
29.6934543833
 20
16.3250417603
 10
29.6494226318
 20
16.4124161138
 10
29.6019760919
 20
16.4983042653
 10
29.5513179373
 20
16.5823384281
 10
29.4976650938
 20
16.6641587555
 10
29.4412473087
 20
16.7434148834
 10
29.3823061689
 20
16.8197674279
 10
29.3210940715
 20
16.8928894317
 10
29.2578731414
 20
16.9624677689
 10
29.1929141032
 20
17.0282044925
 10
29.1264951193
 20
17.089818111
 10
29.058900605
 20
17.1470447872
 10
28.9904200099
 20
17.1996394683
 10
28.9213465789
 20
17.2473769359
 10
28.851976095
 20
17.2900527714
  0
LWPOLYLINE
  5
32D
100
AcDbEntity
  8
RACCORDO
100
AcDbPolyline
 62
250
  6
CONTINUOUS
 90
25
 70
0
 10
29.9126362668
 20
15.4529354662
 10
29.9103653125
 20
15.534346244
 10
29.9035621739
 20
15.6180308518
 10
29.8922559827
 20
15.7036309394
 10
29.8764951535
 20
15.790779954
 10
29.8563471762
 20
15.8791047105
 10
29.8318983268
 20
15.9682269901
 10
29.8032532978
 20
16.0577651599
 10
29.7705347518
 20
16.1473358012
 10
29.7338827966
 20
16.2365553529
 10
29.6934543833
 20
16.3250417603
 10
29.6494226318
 20
16.4124161138
 10
29.6019760919
 20
16.4983042653
 10
29.5513179373
 20
16.5823384281
 10
29.4976650938
 20
16.6641587555
 10
29.4412473087
 20
16.7434148834
 10
29.3823061689
 20
16.8197674279
 10
29.3210940715
 20
16.8928894317
 10
29.2578731414
 20
16.9624677689
 10
29.1929141032
 20
17.0282044925
 10
29.1264951193
 20
17.089818111
 10
29.058900605
 20
17.1470447872
 10
28.9904200099
 20
17.1996394683
 10
28.9213465789
 20
17.2473769359
 10
28.851976095
 20
17.2900527714
  0
LWPOLYLINE
  5
32E
100
AcDbEntity
  8
CURVE
100
AcDbPolyline
 62
250
  6
CONTINUOUS
 90
59
 70
0
 10
31.211474208
 20
-44.2618690826
 10
31.2112999519
 20
-44.2549798894
 10
31.2110438201
 20
-44.2480897425
 10
31.2107016978
 20
-44.2412093908
 10
31.2102694704
 20
-44.2343495837
 10
31.2097430231
 20
-44.2275210701
 10
31.209118241
 20
-44.2207345994
 10
31.2083910096
 20
-44.2140009205
 10
31.207557214
 20
-44.2073307826
 10
31.2066127395
 20
-44.2007349349
 10
31.2055534714
 20
-44.1942241265
 10
31.2043752948
 20
-44.1878091065
 10
31.2030740951
 20
-44.1815006242
 10
31.2016457574
 20
-44.1753094285
 10
31.2000861671
 20
-44.1692462686
 10
31.1983912095
 20
-44.1633218938
 10
31.1965567696
 20
-44.1575470531
 10
31.1945787329
 20
-44.1519324956
 10
31.1924529845
 20
-44.1464889705
 10
31.1901754098
 20
-44.1412272269
 10
31.1877418939
 20
-44.136158014
 10
31.1851483221
 20
-44.131292081
 10
31.1823905797
 20
-44.1266401768
 10
31.1794645519
 20
-44.1222130507
 10
31.1763661239
 20
-44.1180214518
 10
31.1730911811
 20
-44.1140761293
 10
31.1696356087
 20
-44.1103878323
 10
31.1659952919
 20
-44.1069673098
 10
31.162166116
 20
-44.1038253112
 10
31.1580899209
 20
-44.1009330577
 10
31.1538239299
 20
-44.0983330434
 10
31.1493766171
 20
-44.0960202957
 10
31.1447564566
 20
-44.0939898419
 10
31.1399719225
 20
-44.0922367092
 10
31.1350314889
 20
-44.0907559251
 10
31.1299436299
 20
-44.0895425167
 10
31.1247168196
 20
-44.0885915115
 10
31.119359532
 20
-44.0878979368
 10
31.1138802413
 20
-44.0874568199
 10
31.1082874215
 20
-44.087263188
 10
31.1025895468
 20
-44.0873120686
 10
31.0967950912
 20
-44.0875984889
 10
31.0909125289
 20
-44.0881174763
 10
31.0849503339
 20
-44.0888640581
 10
31.0789169803
 20
-44.0898332616
 10
31.0728209422
 20
-44.0910201141
 10
31.0666706938
 20
-44.0924196429
 10
31.0604747091
 20
-44.0940268754
 10
31.0542414621
 20
-44.0958368389
 10
31.0479794271
 20
-44.0978445607
 10
31.041697078
 20
-44.1000450681
 10
31.035402889
 20
-44.1024333885
 10
31.0291053342
 20
-44.1050045491
 10
31.0228128877
 20
-44.1077535773
 10
31.0165340236
 20
-44.1106755004
 10
31.0102772158
 20
-44.1137653458
 10
31.0040509387
 20
-44.1170181406
 10
30.9978636662
 20
-44.1204289124
 10
30.9917238724
 20
-44.1239926883
  0
LINE
  5
32F
100
AcDbEntity
  8
0
100
AcDbLine
 62
250
  6
CONTINUOUS
 10
29.2055294856
 20
-53.9470380612
 11
29.2055294856
 21
15.4529354662
  0
LINE
  5
330
100
AcDbEntity
  8
RACCORDO
100
AcDbLine
 62
250
  6
CONTINUOUS
 10
29.2055294856
 20
-53.9470380612
 11
29.2055294856
 21
15.4529354662
  0
LINE
  5
331
100
AcDbEntity
  8
0
100
AcDbLine
 62
250
  6
CONTINUOUS
 10
29.9126362668
 20
-53.9470380612
 11
29.9126362668
 21
15.4529354662
  0
LINE
  5
332
100
AcDbEntity
  8
RACCORDO
100
AcDbLine
 62
250
  6
CONTINUOUS
 10
29.9126362668
 20
-53.9470380612
 11
29.9126362668
 21
15.4529354662
  0
LINE
  5
333
100
AcDbEntity
  8
CURVE
100
AcDbLine
 62
250
  6
CONTINUOUS
 10
30.5822854805
 20
-48.8248111384
 11
30.5822854805
 21
-48.4839805202
  0
LINE
  5
334
100
AcDbEntity
  8
CURVE
100
AcDbLine
 62
250
  6
CONTINUOUS
 10
30.5823703333
 20
-45.7491161633
 11
30.5823703333
 21
-46.0788289058
  0
LINE
  5
335
100
AcDbEntity
  8
CURVE
100
AcDbLine
 62
250
  6
CONTINUOUS
 10
30.5823703333
 20
-46.7971872153
 11
30.5823703333
 21
-47.1344065855
  0
LINE
  5
336
100
AcDbEntity
  8
CURVE
100
AcDbLine
 62
250
  6
CONTINUOUS
 10
30.5823703333
 20
-47.812468821
 11
30.5823703333
 21
-48.153017757
  0
LINE
  5
337
100
AcDbEntity
  8
CURVE
100
AcDbLine
 62
250
  6
CONTINUOUS
 10
30.5823703333
 20
-48.9512456384
 11
30.5823703333
 21
-49.291844379
  0
LINE
  5
338
100
AcDbEntity
  8
CURVE
100
AcDbLine
 62
250
  6
CONTINUOUS
 10
30.5823703333
 20
-49.9238372791
 11
30.5823703333
 21
-50.294084505
  0
LWPOLYLINE
  5
339
100
AcDbEntity
  8
0
100
AcDbPolyline
 62
250
  6
CONTINUOUS
 90
19
 70
0
 10
28.4984227044
 20
16.6776803363
 10
28.4997680818
 20
16.7140371771
 10
28.5037939749
 20
16.7516709284
 10
28.5104697441
 20
16.7902951747
 10
28.5197445828
 20
16.8296159622
 10
28.531547904
 20
16.869334036
 10
28.5457898772
 20
16.9091471174
 10
28.5623621123
 20
16.948752205
 10
28.5811384848
 20
16.9878478801
 10
28.601976095
 20
17.0261366009
 10
28.6247163562
 20
17.0633269673
 10
28.6491862012
 20
17.099135938
 10
28.6751993997
 20
17.1332909852
 10
28.7025579757
 20
17.1655321684
 10
28.7310537137
 20
17.1956141126
 10
28.7604697441
 20
17.2233078762
 10
28.790582193
 20
17.2484026928
 10
28.8211618867
 20
17.2707075757
 10
28.851976095
 20
17.2900527714
  0
LWPOLYLINE
  5
33A
100
AcDbEntity
  8
RACCORDO
100
AcDbPolyline
 62
250
  6
CONTINUOUS
 90
19
 70
0
 10
28.4984227044
 20
16.6776803363
 10
28.4997680818
 20
16.7140371771
 10
28.5037939749
 20
16.7516709284
 10
28.5104697441
 20
16.7902951747
 10
28.5197445828
 20
16.8296159622
 10
28.531547904
 20
16.869334036
 10
28.5457898772
 20
16.9091471174
 10
28.5623621123
 20
16.948752205
 10
28.5811384848
 20
16.9878478801
 10
28.601976095
 20
17.0261366009
 10
28.6247163562
 20
17.0633269673
 10
28.6491862012
 20
17.099135938
 10
28.6751993997
 20
17.1332909852
 10
28.7025579757
 20
17.1655321684
 10
28.7310537137
 20
17.1956141126
 10
28.7604697441
 20
17.2233078762
 10
28.790582193
 20
17.2484026928
 10
28.8211618867
 20
17.2707075757
 10
28.851976095
 20
17.2900527714
  0
LINE
  5
33B
100
AcDbEntity
  8
RACCORDO
100
AcDbLine
 62
7
  6
CONTINUOUS
 10
7.8443952195
 20
-26.7477521372
 11
7.7544001238
 21
-26.774450225
  0
LINE
  5
33C
100
AcDbEntity
  8
RACCORDO
100
AcDbLine
 62
250
  6
CONTINUOUS
 10
7.929472154
 20
-26.7631974195
 11
7.8394770583
 21
-26.7898955073
  0
LWPOLYLINE
  5
33D
100
AcDbEntity
  8
RACCORDO
100
AcDbPolyline
 62
250
  6
CONTINUOUS
 90
8
 70
0
 10
7.929472154
 20
-26.7631974195
 10
7.9420530425
 20
-26.7595900283
 10
7.9542853406
 20
-26.7574971896
 10
7.9660667368
 20
-26.7569344354
 10
7.9772939462
 20
-26.7579036227
 10
7.9878791186
 20
-26.7603939443
 10
7.9977474886
 20
-26.7643889721
 10
8.0012821023
 20
-26.7662903801
  0
LWPOLYLINE
  5
33E
100
AcDbEntity
  8
0
100
AcDbPolyline
 62
250
  6
CONTINUOUS
 90
19
 70
0
 10
29.2055294856
 20
15.4529354662
 10
29.2376890714
 20
15.4359205326
 10
29.272294658
 20
15.4205887009
 10
29.3090828762
 20
15.4070566557
 10
29.3477737453
 20
15.3954273841
 10
29.3880728045
 20
15.3857893918
 10
29.4296733536
 20
15.3782160298
 10
29.4722587873
 20
15.3727649359
 10
29.5155050048
 20
15.3694775962
 10
29.5590828761
 20
15.3683790294
 10
29.6026607475
 20
15.3694775962
 10
29.645906965
 20
15.3727649359
 10
29.6884923987
 20
15.3782160298
 10
29.7300929478
 20
15.3857893918
 10
29.770392007
 20
15.3954273841
 10
29.8090828762
 20
15.4070566557
 10
29.8458710944
 20
15.4205887009
 10
29.880476681
 20
15.4359205325
 10
29.9126362668
 20
15.4529354662
  0
LWPOLYLINE
  5
33F
100
AcDbEntity
  8
RACCORDO
100
AcDbPolyline
 62
250
  6
CONTINUOUS
 90
19
 70
0
 10
29.2055294856
 20
15.4529354662
 10
29.2376890714
 20
15.4359205326
 10
29.272294658
 20
15.4205887009
 10
29.3090828762
 20
15.4070566557
 10
29.3477737453
 20
15.3954273841
 10
29.3880728045
 20
15.3857893918
 10
29.4296733536
 20
15.3782160298
 10
29.4722587873
 20
15.3727649359
 10
29.5155050048
 20
15.3694775962
 10
29.5590828761
 20
15.3683790294
 10
29.6026607475
 20
15.3694775962
 10
29.645906965
 20
15.3727649359
 10
29.6884923987
 20
15.3782160298
 10
29.7300929478
 20
15.3857893918
 10
29.770392007
 20
15.3954273841
 10
29.8090828762
 20
15.4070566557
 10
29.8458710944
 20
15.4205887009
 10
29.880476681
 20
15.4359205325
 10
29.9126362668
 20
15.4529354662
  0
LWPOLYLINE
  5
340
100
AcDbEntity
  8
0
100
AcDbPolyline
 62
250
  6
CONTINUOUS
 90
25
 70
0
 10
-33.0198672588
 20
52.1975699559
 10
-33.0661523685
 20
52.2225417901
 10
-33.111943308
 20
52.2437955575
 10
-33.1572400772
 20
52.2613312581
 10
-33.2022681703
 20
52.2752096298
 10
-33.2468020931
 20
52.2853699346
 10
-33.2901653634
 20
52.2916299586
 10
-33.3323006749
 20
52.2939213597
 10
-33.3732653338
 20
52.29231248
 10
-33.4125547763
 20
52.2868261322
 10
-33.4501560297
 20
52.277413465
 10
-33.4860820668
 20
52.2641233297
 10
-33.5198672417
 20
52.2471250918
 10
-33.5514828732
 20
52.2263689883
 10
-33.5809576425
 20
52.2019047823
 10
-33.6079119488
 20
52.1740511287
 10
-33.6323099377
 20
52.1427722876
 10
-33.6541874636
 20
52.1081039989
 10
-33.6732724876
 20
52.0704721378
 10
-33.6895344035
 20
52.0297936047
 10
-33.7030038176
 20
51.9861514993
 10
-33.7135005102
 20
51.9402209959
 10
-33.7209644082
 20
51.8922271526
 10
-33.7254555848
 20
51.8419449115
 10
-33.72697404
 20
51.7893742724
  0
LWPOLYLINE
  5
341
100
AcDbEntity
  8
RACCORDO
100
AcDbPolyline
 62
250
  6
CONTINUOUS
 90
25
 70
0
 10
-33.0198672588
 20
52.1975699559
 10
-33.0661523685
 20
52.2225417901
 10
-33.111943308
 20
52.2437955575
 10
-33.1572400772
 20
52.2613312581
 10
-33.2022681703
 20
52.2752096298
 10
-33.2468020931
 20
52.2853699346
 10
-33.2901653634
 20
52.2916299586
 10
-33.3323006749
 20
52.2939213597
 10
-33.3732653338
 20
52.29231248
 10
-33.4125547763
 20
52.2868261322
 10
-33.4501560297
 20
52.277413465
 10
-33.4860820668
 20
52.2641233297
 10
-33.5198672417
 20
52.2471250918
 10
-33.5514828732
 20
52.2263689883
 10
-33.5809576425
 20
52.2019047823
 10
-33.6079119488
 20
52.1740511287
 10
-33.6323099377
 20
52.1427722876
 10
-33.6541874636
 20
52.1081039989
 10
-33.6732724876
 20
52.0704721378
 10
-33.6895344035
 20
52.0297936047
 10
-33.7030038176
 20
51.9861514993
 10
-33.7135005102
 20
51.9402209959
 10
-33.7209644082
 20
51.8922271526
 10
-33.7254555848
 20
51.8419449115
 10
-33.72697404
 20
51.7893742724
  0
LINE
  5
342
100
AcDbEntity
  8
0
100
AcDbLine
 62
250
  6
CONTINUOUS
 10
28.4984227044
 20
16.6776803363
 11
-33.0198672588
 21
52.1975699559
  0
LINE
  5
343
100
AcDbEntity
  8
RACCORDO
100
AcDbLine
 62
250
  6
CONTINUOUS
 10
28.4984227044
 20
16.6776803363
 11
-33.0198672588
 21
52.1975699559
  0
LINE
  5
344
100
AcDbEntity
  8
0
100
AcDbLine
 62
250
  6
CONTINUOUS
 10
28.851976095
 20
17.2900527714
 11
-32.6663138682
 21
52.8099423909
  0
LINE
  5
345
100
AcDbEntity
  8
RACCORDO
100
AcDbLine
 62
250
  6
CONTINUOUS
 10
28.851976095
 20
17.2900527714
 11
-32.6663138682
 21
52.8099423909
  0
LWPOLYLINE
  5
346
100
AcDbEntity
  8
RACCORDO
100
AcDbPolyline
 62
7
  6
CONTINUOUS
 90
20
 70
0
 10
33.8754153925
 20
18.4420722213
 10
33.8747116937
 20
18.4731989843
 10
33.8707521526
 20
18.5230957621
 10
33.8634518127
 20
18.5733053086
 10
33.8529393062
 20
18.6236402699
 10
33.8393484755
 20
18.6739136686
 10
33.822797075
 20
18.7239398193
 10
33.8033958194
 20
18.7735078679
 10
33.7813024478
 20
18.8223189427
 10
33.7566329385
 20
18.8701483811
 10
33.7295128514
 20
18.9167679302
 10
33.700131496
 20
18.9618510714
 10
33.6686143615
 20
19.0051797413
 10
33.6351033945
 20
19.0465313011
 10
33.5997990103
 20
19.0855981824
 10
33.5628290856
 20
19.1221780817
 10
33.5242946206
 20
19.1560825561
 10
33.4843070372
 20
19.1870935675
 10
33.4429697633
 20
19.2150068997
 10
33.4218225459
 20
19.227727914
  0
LINE
  5
347
100
AcDbEntity
  8
CURVE
100
AcDbLine
 62
250
  6
CONTINUOUS
 10
31.211474208
 20
-44.4566506604
 11
31.211474208
 21
-44.2618690826
  0
LINE
  5
348
100
AcDbEntity
  8
CURVE
100
AcDbLine
 62
250
  6
CONTINUOUS
 10
31.4430694081
 20
-44.1288835719
 11
31.4430694081
 21
-44.3116290489
  0
LINE
  5
349
100
AcDbEntity
  8
CURVE
100
AcDbLine
 62
250
  6
CONTINUOUS
 10
31.4957189493
 20
-45.2364043303
 11
31.4957189493
 21
-45.5627254552
  0
LINE
  5
34A
100
AcDbEntity
  8
CURVE
100
AcDbLine
 62
250
  6
CONTINUOUS
 10
31.7141647401
 20
-45.5063168068
 11
31.7141647401
 21
-45.0421616191
  0
LINE
  5
34B
100
AcDbEntity
  8
CURVE
100
AcDbLine
 62
250
  6
CONTINUOUS
 10
31.9964693444
 20
-48.9599699174
 11
31.9964693444
 21
-48.6596125473
  0
LINE
  5
34C
100
AcDbEntity
  8
CURVE
100
AcDbLine
 62
250
  6
CONTINUOUS
 10
31.9964693444
 20
-47.4839680145
 11
31.9964693444
 21
-47.1579040777
  0
LINE
  5
34D
100
AcDbEntity
  8
CURVE
100
AcDbLine
 62
250
  6
CONTINUOUS
 10
31.9964693444
 20
-46.6845162442
 11
31.9964693444
 21
-46.6367151754
  0
LINE
  5
34E
100
AcDbEntity
  8
CURVE
100
AcDbLine
 62
250
  6
CONTINUOUS
 10
31.9964693444
 20
-46.1614412955
 11
31.9964693444
 21
-45.8280185121
  0
LINE
  5
34F
100
AcDbEntity
  8
CURVE
100
AcDbLine
 62
250
  6
CONTINUOUS
 10
31.9964693444
 20
-45.7744988854
 11
31.9964693444
 21
-45.4373652446
  0
LINE
  5
350
100
AcDbEntity
  8
CURVE
100
AcDbLine
 62
250
  6
CONTINUOUS
 10
31.9964693444
 20
-44.7908685665
 11
31.9964693444
 21
-44.4316469553
  0
LINE
  5
351
100
AcDbEntity
  8
CURVE
100
AcDbLine
 62
250
  6
CONTINUOUS
 10
31.9964695319
 20
-43.1423271019
 11
31.9964695319
 21
-43.4701669777
  0
LINE
  5
352
100
AcDbEntity
  8
CURVE
100
AcDbLine
 62
250
  6
CONTINUOUS
 10
31.9964695319
 20
-43.9921027531
 11
31.9964695319
 21
-44.331562425
  0
LINE
  5
353
100
AcDbEntity
  8
CURVE
100
AcDbLine
 62
250
  6
CONTINUOUS
 10
31.9964693444
 20
-47.667448481
 11
31.9964693444
 21
-48.0082790993
  0
LINE
  5
354
100
AcDbEntity
  8
0
100
AcDbLine
 62
7
  6
CONTINUOUS
 10
33.023906104
 20
-52.1506298505
 11
33.023906104
 21
17.2493436769
  0
LINE
  5
355
100
AcDbEntity
  8
RACCORDO
100
AcDbLine
 62
7
  6
CONTINUOUS
 10
33.023906104
 20
-52.1506298505
 11
33.023906104
 21
17.2493436769
  0
LINE
  5
356
100
AcDbEntity
  8
RACCORDO
100
AcDbLine
 62
250
  6
CONTINUOUS
 10
33.8204905531
 20
18.362778199
 11
33.8204905531
 21
-49.7660246131
  0
LINE
  5
357
100
AcDbEntity
  8
RACCORDO
100
AcDbLine
 62
7
  6
CONTINUOUS
 10
33.8754156789
 20
18.44226766
 11
33.8754156789
 21
-49.6865351485
  0
LWPOLYLINE
  5
358
100
AcDbEntity
  8
0
100
AcDbPolyline
 62
7
  6
CONTINUOUS
 90
13
 70
0
 10
33.023906104
 20
-52.1506298505
 10
33.021554605
 20
-52.2299350575
 10
33.0147611758
 20
-52.3056553412
 10
33.0035258162
 20
-52.3777907016
 10
32.9877626186
 20
-52.4466185374
 10
32.9675574907
 20
-52.5118614499
 10
32.9431681559
 20
-52.5726872431
 10
32.9145410154
 20
-52.6290393344
 10
32.8817296681
 20
-52.6809743063
 10
32.8451526341
 20
-52.7278297102
 10
32.8047616756
 20
-52.7695404777
 10
32.7606050306
 20
-52.8061716772
 10
32.7132824062
 20
-52.8372350073
  0
LWPOLYLINE
  5
359
100
AcDbEntity
  8
RACCORDO
100
AcDbPolyline
 62
7
  6
CONTINUOUS
 90
13
 70
0
 10
33.023906104
 20
-52.1506298505
 10
33.021554605
 20
-52.2299350575
 10
33.0147611758
 20
-52.3056553412
 10
33.0035258162
 20
-52.3777907016
 10
32.9877626186
 20
-52.4466185374
 10
32.9675574907
 20
-52.5118614499
 10
32.9431681559
 20
-52.5726872431
 10
32.9145410154
 20
-52.6290393344
 10
32.8817296681
 20
-52.6809743063
 10
32.8451526341
 20
-52.7278297102
 10
32.8047616756
 20
-52.7695404777
 10
32.7606050306
 20
-52.8061716772
 10
32.7132824062
 20
-52.8372350073
  0
LWPOLYLINE
  5
35A
100
AcDbEntity
  8
RACCORDO
100
AcDbPolyline
 62
250
  6
CONTINUOUS
 90
9
 70
0
 10
33.8754153925
 20
18.4420722213
 10
33.8752682622
 20
18.437834732
 10
33.8734204104
 20
18.4259967389
 10
33.8694748241
 20
18.4143311259
 10
33.8634733043
 20
18.4029614827
 10
33.8554794332
 20
18.3920082636
 10
33.8455779008
 20
18.3815875109
 10
33.8338736076
 20
18.3718096259
 10
33.8204905531
 20
18.362778199
  0
LWPOLYLINE
  5
35B
100
AcDbEntity
  8
CURVE
100
AcDbPolyline
 62
250
  6
CONTINUOUS
 90
22
 70
0
 10
30.8149513914
 20
-44.4185961927
 10
30.81373537
 20
-44.4322493417
 10
30.8126877861
 20
-44.4458329899
 10
30.811808585
 20
-44.4593431224
 10
30.8110977124
 20
-44.4727757244
 10
30.8105551135
 20
-44.486126781
 10
30.8101807338
 20
-44.4993922774
 10
30.8099745188
 20
-44.5125681986
 10
30.8099364139
 20
-44.5256505297
 10
30.8100663646
 20
-44.538635256
 10
30.8103643163
 20
-44.5515183624
 10
30.8108302144
 20
-44.5642958342
 10
30.8114640043
 20
-44.5769636565
 10
30.8122656316
 20
-44.5895178143
 10
30.8132350416
 20
-44.6019542929
 10
30.8143721798
 20
-44.6142690772
 10
30.8155732655
 20
-44.6255694322
 10
30.8169051172
 20
-44.6367715441
 10
30.8183545528
 20
-44.6478850912
 10
30.8199083899
 20
-44.6589197521
 10
30.8215534462
 20
-44.6698852052
 10
30.8232765394
 20
-44.680791129
  0
LINE
  5
35C
100
AcDbEntity
  8
0
100
AcDbLine
 62
250
  6
CONTINUOUS
 10
13.63150263
 20
-31.9116537984
 11
13.967898733
 21
-31.7174229045
  0
LINE
  5
35D
100
AcDbEntity
  8
RACCORDO
100
AcDbLine
 62
250
  6
CONTINUOUS
 10
13.63150263
 20
-31.9116537984
 11
13.967898733
 21
-31.7174229045
  0
LWPOLYLINE
  5
35E
100
AcDbEntity
  8
0
100
AcDbPolyline
 62
250
  6
CONTINUOUS
 90
12
 70
0
 10
13.9315171261
 20
-31.941378505
 10
13.920075437
 20
-31.9474990427
 10
13.8960268965
 20
-31.957509978
 10
13.8704990353
 20
-31.9645248448
 10
13.8436346125
 20
-31.9685044156
 10
13.8155838629
 20
-31.9694264362
 10
13.7865036568
 20
-31.9672857502
 10
13.7565566233
 20
-31.9620943296
 10
13.7259102382
 20
-31.953881207
 10
13.6947358882
 20
-31.9426923137
 10
13.6632079131
 20
-31.9285902225
 10
13.63150263
 20
-31.9116537984
  0
LWPOLYLINE
  5
35F
100
AcDbEntity
  8
RACCORDO
100
AcDbPolyline
 62
250
  6
CONTINUOUS
 90
12
 70
0
 10
13.9315171261
 20
-31.941378505
 10
13.920075437
 20
-31.9474990427
 10
13.8960268965
 20
-31.957509978
 10
13.8704990353
 20
-31.9645248448
 10
13.8436346125
 20
-31.9685044156
 10
13.8155838629
 20
-31.9694264362
 10
13.7865036568
 20
-31.9672857502
 10
13.7565566233
 20
-31.9620943296
 10
13.7259102382
 20
-31.953881207
 10
13.6947358882
 20
-31.9426923137
 10
13.6632079131
 20
-31.9285902225
 10
13.63150263
 20
-31.9116537984
  0
LWPOLYLINE
  5
360
100
AcDbEntity
  8
RACCORDO
100
AcDbPolyline
 62
250
  6
CONTINUOUS
 90
9
 70
0
 10
33.4218225458
 20
19.2277279141
 10
33.4180720805
 20
19.2297231453
 10
33.4068968387
 20
19.2340409317
 10
33.3948219369
 20
19.2364558376
 10
33.3819752958
 20
19.2369422576
 10
33.3684930308
 20
19.2354950209
 10
33.3545179844
 20
19.2321294492
 10
33.3401982104
 20
19.2268811869
 10
33.3256854217
 20
19.2198058255
  0
LWPOLYLINE
  5
361
100
AcDbEntity
  8
RACCORDO
100
AcDbPolyline
 62
7
  6
CONTINUOUS
 90
13
 70
0
 10
-26.9954007256
 20
54.111875742
 10
-27.0290114171
 20
54.1299924804
 10
-27.0699488168
 20
54.1486522031
 10
-27.1108154787
 20
54.1636142712
 10
-27.1514992559
 20
54.1748743727
 10
-27.1918409671
 20
54.1824326739
 10
-27.2315726886
 20
54.1862997479
 10
-27.2705289866
 20
54.1865199552
 10
-27.3085019916
 20
54.1831566717
 10
-27.3450802888
 20
54.1763541281
 10
-27.3799750188
 20
54.1663153071
 10
-27.4130536044
 20
54.1532356811
 10
-27.4310582525
 20
54.1444944714
  0
LWPOLYLINE
  5
362
100
AcDbEntity
  8
0
100
AcDbPolyline
 62
250
  6
CONTINUOUS
 90
13
 70
0
 10
-32.6663138682
 20
52.8099423909
 10
-32.7356843545
 20
52.8473738526
 10
-32.8047577875
 20
52.8794006523
 10
-32.8732383843
 20
52.9058856462
 10
-32.9408329001
 20
52.9267154208
 10
-33.0072518851
 20
52.9418007796
 10
-33.0722109236
 20
52.9510771243
 10
-33.1354318527
 20
52.9545047316
 10
-33.1966439486
 20
52.9520689229
 10
-33.2555850873
 20
52.9437801288
 10
-33.3120028726
 20
52.9296738443
 10
-33.3656557166
 20
52.9098104748
 10
-33.4163501084
 20
52.8842541574
  0
LWPOLYLINE
  5
363
100
AcDbEntity
  8
RACCORDO
100
AcDbPolyline
 62
250
  6
CONTINUOUS
 90
13
 70
0
 10
-32.6663138682
 20
52.8099423909
 10
-32.7356843545
 20
52.8473738526
 10
-32.8047577875
 20
52.8794006523
 10
-32.8732383843
 20
52.9058856462
 10
-32.9408329001
 20
52.9267154208
 10
-33.0072518851
 20
52.9418007796
 10
-33.0722109236
 20
52.9510771243
 10
-33.1354318527
 20
52.9545047316
 10
-33.1966439486
 20
52.9520689229
 10
-33.2555850873
 20
52.9437801288
 10
-33.3120028726
 20
52.9296738443
 10
-33.3656557166
 20
52.9098104748
 10
-33.4163501084
 20
52.8842541574
  0
LINE
  5
364
100
AcDbEntity
  8
0
100
AcDbLine
 62
7
  6
CONTINUOUS
 10
31.9632459322
 20
19.086460982
 11
-29.555044031
 21
54.6063506016
  0
LINE
  5
365
100
AcDbEntity
  8
RACCORDO
100
AcDbLine
 62
7
  6
CONTINUOUS
 10
31.9632459322
 20
19.086460982
 11
-29.555044031
 21
54.6063506016
  0
LINE
  5
366
100
AcDbEntity
  8
RACCORDO
100
AcDbLine
 62
250
  6
CONTINUOUS
 10
-27.091702943
 20
54.1040486596
 11
33.3256854217
 21
19.2198058255
  0
LINE
  5
367
100
AcDbEntity
  8
RACCORDO
100
AcDbLine
 62
7
  6
CONTINUOUS
 10
-26.9954000905
 20
54.1118753753
 11
33.4219882744
 21
19.2276325411
  0
LWPOLYLINE
  5
368
100
AcDbEntity
  8
RACCORDO
100
AcDbPolyline
 62
250
  6
CONTINUOUS
 90
4
 70
0
 10
33.3256854217
 20
19.2198058255
 10
33.3632241129
 20
19.1968070563
 10
33.4002273756
 20
19.1709097284
 10
33.4364948589
 20
19.1423314576
  0
LWPOLYLINE
  5
369
100
AcDbEntity
  8
0
100
AcDbPolyline
 62
7
  6
CONTINUOUS
 90
25
 70
0
 10
31.9632459322
 20
19.086460982
 10
32.0331043319
 20
19.0434104279
 10
32.1020791767
 20
18.9957410933
 10
32.1701704667
 20
18.9434529781
 10
32.2376614019
 20
18.8862833715
 10
32.3042687822
 20
18.8244949844
 10
32.3691430073
 20
18.7588759492
 10
32.4322618759
 20
18.689377196
 10
32.4936475891
 20
18.6160477946
 10
32.552517151
 20
18.5398230872
 10
32.6088383301
 20
18.4606659854
 10
32.6626433578
 20
18.3786135775
 10
32.7132459322
 20
18.2947124706
 10
32.7606050306
 20
18.2089389832
 10
32.8047616756
 20
18.1213167969
 10
32.8451526341
 20
18.032963563
 10
32.8817296681
 20
17.9438699171
 10
32.9145410154
 20
17.8540452237
 10
32.9431681559
 20
17.7646352281
 10
32.9675574907
 20
17.6756452426
 10
32.9877626186
 20
17.5870699548
 10
33.0035258162
 20
17.5000391734
 10
33.0147611758
 20
17.4149295014
 10
33.021554605
 20
17.3313643359
 10
33.023906104
 20
17.2493436769
  0
LWPOLYLINE
  5
36A
100
AcDbEntity
  8
RACCORDO
100
AcDbPolyline
 62
7
  6
CONTINUOUS
 90
25
 70
0
 10
31.9632459322
 20
19.086460982
 10
32.0331043319
 20
19.0434104279
 10
32.1020791767
 20
18.9957410933
 10
32.1701704667
 20
18.9434529781
 10
32.2376614019
 20
18.8862833715
 10
32.3042687822
 20
18.8244949844
 10
32.3691430073
 20
18.7588759492
 10
32.4322618759
 20
18.689377196
 10
32.4936475891
 20
18.6160477946
 10
32.552517151
 20
18.5398230872
 10
32.6088383301
 20
18.4606659854
 10
32.6626433578
 20
18.3786135775
 10
32.7132459322
 20
18.2947124706
 10
32.7606050306
 20
18.2089389832
 10
32.8047616756
 20
18.1213167969
 10
32.8451526341
 20
18.032963563
 10
32.8817296681
 20
17.9438699171
 10
32.9145410154
 20
17.8540452237
 10
32.9431681559
 20
17.7646352281
 10
32.9675574907
 20
17.6756452426
 10
32.9877626186
 20
17.5870699548
 10
33.0035258162
 20
17.5000391734
 10
33.0147611758
 20
17.4149295014
 10
33.021554605
 20
17.3313643359
 10
33.023906104
 20
17.2493436769
  0
LWPOLYLINE
  5
36B
100
AcDbEntity
  8
RACCORDO
100
AcDbPolyline
 62
250
  6
CONTINUOUS
 90
11
 70
0
 10
33.8204905531
 20
-49.7660246131
 10
33.819386517
 20
-49.8073755012
 10
33.8155781108
 20
-49.8468025265
 10
33.8091124317
 20
-49.8841129705
 10
33.8000655736
 20
-49.9190752131
 10
33.7885059
 20
-49.9515885153
 10
33.7744512289
 20
-49.9816447893
 10
33.7579200166
 20
-50.0091423076
 10
33.7390222352
 20
-50.0338440017
 10
33.7179159088
 20
-50.0555474249
 10
33.6953315898
 20
-50.0736714685
  0
LWPOLYLINE
  5
36C
100
AcDbEntity
  8
RACCORDO
100
AcDbPolyline
 62
250
  6
CONTINUOUS
 90
9
 70
0
 10
33.8754156789
 20
-49.6865362972
 10
33.8752683315
 20
-49.6909670349
 10
33.8734206494
 20
-49.7028051004
 10
33.869475193
 20
-49.7144708291
 10
33.8634737447
 20
-49.7258406247
 10
33.8554798787
 20
-49.7367940146
 10
33.8455782799
 20
-49.7472149456
 10
33.8338738396
 20
-49.7569930117
 10
33.8204905531
 20
-49.7660246131
  0
LWPOLYLINE
  5
36D
100
AcDbEntity
  8
RACCORDO
100
AcDbPolyline
 62
250
  6
CONTINUOUS
 90
9
 70
0
 10
-26.9954007255
 20
54.1118757419
 10
-26.9993174118
 20
54.113966534
 10
-27.01049268
 20
54.1182841
 10
-27.0225675395
 20
54.1206988012
 10
-27.0354140649
 20
54.1211850554
 10
-27.0488961554
 20
54.119737711
 10
-27.0628709767
 20
54.1163721017
 10
-27.0771904746
 20
54.1111238841
 10
-27.091702943
 20
54.1040486596
  0
LWPOLYLINE
  5
36E
100
AcDbEntity
  8
RACCORDO
100
AcDbPolyline
 62
250
  6
CONTINUOUS
 90
19
 70
0
 10
33.4364948589
 20
19.1423314576
 10
33.4717182107
 20
19.1114072498
 10
33.5058507243
 20
19.0782768318
 10
33.5390752663
 20
19.0427997386
 10
33.571349603
 20
19.0049761147
 10
33.6023389614
 20
18.9651513448
 10
33.6317792858
 20
18.9236663885
 10
33.6594479139
 20
18.880866762
 10
33.6852839613
 20
18.8368773583
 10
33.7092681706
 20
18.7917186881
 10
33.7312163323
 20
18.7456982816
 10
33.7510304904
 20
18.6989835988
 10
33.7687386204
 20
18.6513692189
 10
33.7842035409
 20
18.6029210351
 10
33.7971597821
 20
18.5541116491
 10
33.8074057609
 20
18.5053615469
 10
33.8147900927
 20
18.4570233957
 10
33.819190291
 20
18.409383288
 10
33.8204906055
 20
18.3627782293
  0
LWPOLYLINE
  5
36F
100
AcDbEntity
  8
CURVE
100
AcDbPolyline
 62
250
  6
CONTINUOUS
 90
73
 70
0
 10
30.6137804418
 20
-44.2887908123
 10
30.6174047154
 20
-44.2758591023
 10
30.6214272155
 20
-44.2628797311
 10
30.6258174893
 20
-44.2498697376
 10
30.6305450842
 20
-44.2368461604
 10
30.6355795474
 20
-44.2238260383
 10
30.6408904263
 20
-44.21082641
 10
30.6464472682
 20
-44.1978643142
 10
30.6544270892
 20
-44.1801695143
 10
30.6628044961
 20
-44.1625971627
 10
30.6715714476
 20
-44.1451669955
 10
30.6807199028
 20
-44.1278987487
 10
30.6902418205
 20
-44.1108121581
 10
30.7001291597
 20
-44.0939269599
 10
30.7103738794
 20
-44.0772628899
 10
30.7215993692
 20
-44.0598827643
 10
30.7331942812
 20
-44.0428003115
 10
30.7451364143
 20
-44.0260431858
 10
30.7574035677
 20
-44.0096390419
 10
30.7699735404
 20
-43.9936155341
 10
30.7828241314
 20
-43.9780003169
 10
30.7959331397
 20
-43.9628210449
 10
30.8092783645
 20
-43.9481053725
 10
30.8217266069
 20
-43.935017161
 10
30.8343396265
 20
-43.9223488846
 10
30.8471016096
 20
-43.9101059483
 10
30.8599967429
 20
-43.8982937566
 10
30.8730092127
 20
-43.8869177144
 10
30.8876043142
 20
-43.874778646
 10
30.9023069415
 20
-43.8631772169
 10
30.9170989781
 20
-43.8521046102
 10
30.9319623074
 20
-43.8415520088
 10
30.9468788128
 20
-43.8315105955
 10
30.9622131545
 20
-43.8217392775
 10
30.9775650357
 20
-43.8125181081
 10
30.9929151197
 20
-43.8038688359
 10
31.0082440697
 20
-43.7958132096
 10
31.023532549
 20
-43.7883729778
 10
31.038761221
 20
-43.7815698892
 10
31.0520190543
 20
-43.7761578413
 10
31.0652089178
 20
-43.7712607634
 10
31.0783234005
 20
-43.7668894602
 10
31.0913550915
 20
-43.7630547362
 10
31.1042965796
 20
-43.759767396
 10
31.117140454
 20
-43.7570382442
 10
31.1298871978
 20
-43.7548761534
 10
31.1424998965
 20
-43.7532934734
 10
31.1549497197
 20
-43.7522995934
 10
31.1672078372
 20
-43.7519039028
 10
31.1792454184
 20
-43.7521157906
 10
31.1910336331
 20
-43.752944646
 10
31.2025436508
 20
-43.7543998583
 10
31.2137466411
 20
-43.7564908166
 10
31.2246137736
 20
-43.7592269101
 10
31.235116218
 20
-43.762617528
 10
31.2445009637
 20
-43.7663409116
 10
31.2535901561
 20
-43.7705946263
 10
31.2624255998
 20
-43.7753398392
 10
31.2710490995
 20
-43.7805377175
 10
31.27950246
 20
-43.7861494282
 10
31.2878274858
 20
-43.7921361386
 10
31.2960659817
 20
-43.7984590157
 10
31.3042597524
 20
-43.8050792267
 10
31.3075011446
 20
-43.807789647
 10
31.3106897839
 20
-43.8105846856
 10
31.3137733779
 20
-43.8135081997
 10
31.3166996342
 20
-43.8166040466
 10
31.3194162603
 20
-43.8199160835
 10
31.3218709638
 20
-43.8234881675
 10
31.3240114524
 20
-43.827364156
 10
31.3257854337
 20
-43.8315879061
 10
31.3271406152
 20
-43.8362032751
 10
31.3280247045
 20
-43.8412541203
  0
LWPOLYLINE
  5
370
100
AcDbEntity
  8
CURVE
100
AcDbPolyline
 62
250
  6
CONTINUOUS
 90
44
 70
0
 10
31.3363807951
 20
-43.8364294183
 10
31.3387973963
 20
-43.8284175706
 10
31.3414249645
 20
-43.8204226341
 10
31.3442573552
 20
-43.8124466661
 10
31.3472884237
 20
-43.804491724
 10
31.3505120256
 20
-43.7965598653
 10
31.3539220161
 20
-43.7886531473
 10
31.3575122507
 20
-43.7807736273
 10
31.361276585
 20
-43.7729233627
 10
31.3652088741
 20
-43.765104411
 10
31.3693029737
 20
-43.7573188294
 10
31.3735527391
 20
-43.7495686754
 10
31.3779520257
 20
-43.7418560064
 10
31.382494689
 20
-43.7341828796
 10
31.3871745843
 20
-43.7265513526
 10
31.3919855672
 20
-43.7189634826
 10
31.396921493
 20
-43.7114213271
 10
31.4019762171
 20
-43.7039269434
 10
31.4071435949
 20
-43.6964823889
 10
31.412417482
 20
-43.689089721
 10
31.4177917336
 20
-43.681750997
 10
31.4232602053
 20
-43.6744682744
 10
31.4288167525
 20
-43.6672436105
 10
31.4344552304
 20
-43.6600790626
 10
31.4401694947
 20
-43.6529766882
 10
31.4459534007
 20
-43.6459385447
 10
31.4518008038
 20
-43.6389666893
 10
31.4577055595
 20
-43.6320631796
 10
31.4636615232
 20
-43.6252300728
 10
31.4696625502
 20
-43.6184694263
 10
31.4757024961
 20
-43.6117832976
 10
31.4817752162
 20
-43.605173744
 10
31.4878745659
 20
-43.5986428228
 10
31.4939944008
 20
-43.5921925915
 10
31.5001285761
 20
-43.5858251074
 10
31.5062709473
 20
-43.5795424279
 10
31.5124153699
 20
-43.5733466103
 10
31.5185556993
 20
-43.5672397122
 10
31.5246857908
 20
-43.5612237907
 10
31.5307995
 20
-43.5553009034
 10
31.5368906822
 20
-43.5494731075
 10
31.5479787611
 20
-43.5390397193
 10
31.558993437
 20
-43.5288701078
 10
31.5699574956
 20
-43.5189021299
  0
LWPOLYLINE
  5
371
100
AcDbEntity
  8
CURVE
100
AcDbPolyline
 62
250
  6
CONTINUOUS
 90
48
 70
0
 10
31.567668474
 20
-43.8667883827
 10
31.5633158182
 20
-43.8712474283
 10
31.5589769832
 20
-43.8758124559
 10
31.5546562478
 20
-43.8804798611
 10
31.5503578911
 20
-43.8852460393
 10
31.5460861921
 20
-43.890107386
 10
31.5418454298
 20
-43.8950602966
 10
31.5376398832
 20
-43.9001011665
 10
31.5334738312
 20
-43.9052263912
 10
31.5293515529
 20
-43.9104323662
 10
31.5252773272
 20
-43.9157154869
 10
31.5212554331
 20
-43.9210721487
 10
31.5172901497
 20
-43.9264987472
 10
31.5133857558
 20
-43.9319916777
 10
31.5095465306
 20
-43.9375473358
 10
31.5057767529
 20
-43.9431621169
 10
31.5020807018
 20
-43.9488324164
 10
31.4984626563
 20
-43.9545546297
 10
31.4949268953
 20
-43.9603251524
 10
31.4914776979
 20
-43.9661403799
 10
31.4881193431
 20
-43.9719967077
 10
31.4848561097
 20
-43.9778905311
 10
31.4816922769
 20
-43.9838182457
 10
31.4786321236
 20
-43.9897762469
 10
31.4756799287
 20
-43.9957609301
 10
31.4728399714
 20
-44.0017686908
 10
31.4701165305
 20
-44.0077959245
 10
31.4675138851
 20
-44.0138390266
 10
31.4650363142
 20
-44.0198943926
 10
31.4626880967
 20
-44.0259584179
 10
31.4604735117
 20
-44.032027498
 10
31.4584459086
 20
-44.0379469676
 10
31.4565485053
 20
-44.0438629604
 10
31.4547803576
 20
-44.0497706203
 10
31.4531405213
 20
-44.0556650914
 10
31.4516280523
 20
-44.0615415177
 10
31.4502420065
 20
-44.0673950433
 10
31.4489814398
 20
-44.0732208121
 10
31.4478454079
 20
-44.0790139684
 10
31.4468329667
 20
-44.084769656
 10
31.4459431722
 20
-44.090483019
 10
31.4451750802
 20
-44.0961492016
 10
31.4445277464
 20
-44.1017633476
 10
31.4440002269
 20
-44.1073206012
 10
31.4435915775
 20
-44.1128161063
 10
31.4433008539
 20
-44.1182450072
 10
31.4431271122
 20
-44.1236024477
 10
31.4430694081
 20
-44.1288835719
  0
LINE
  5
372
100
AcDbEntity
  8
CURVE
100
AcDbLine
 62
250
  6
CONTINUOUS
 10
31.0730890044
 20
-47.617501405
 11
31.9964693444
 21
-46.6845162442
  0
LINE
  5
373
100
AcDbEntity
  8
CURVE
100
AcDbLine
 62
250
  6
CONTINUOUS
 10
31.3674823061
 20
-47.0219233904
 11
30.5823703333
 21
-47.812468821
  0
LINE
  5
374
100
AcDbEntity
  8
CURVE
100
AcDbLine
 62
250
  6
CONTINUOUS
 10
31.9964693444
 20
-44.4316469553
 11
30.5823703333
 21
-45.7491161633
  0
LWPOLYLINE
  5
375
100
AcDbEntity
  8
CURVE
100
AcDbPolyline
 62
250
  6
CONTINUOUS
 90
7
 70
0
 10
31.6863725665
 20
-43.7528747423
 10
31.666410858
 20
-43.7713635121
 10
31.6465053761
 20
-43.7900106348
 10
31.6266672588
 20
-43.8088463967
 10
31.606907644
 20
-43.8279010844
 10
31.5872376698
 20
-43.8472049843
 10
31.567668474
 20
-43.8667883827
  0
LINE
  5
376
100
AcDbEntity
  8
CURVE
100
AcDbLine
 62
250
  6
CONTINUOUS
 10
31.7264201118
 20
-43.7162511158
 11
31.6863725665
 21
-43.7528747423
  0
LINE
  5
377
100
AcDbEntity
  8
CURVE
100
AcDbLine
 62
250
  6
CONTINUOUS
 10
31.9964695319
 20
-43.4701669777
 11
31.8066998524
 21
-43.6435714951
  0
LINE
  5
378
100
AcDbEntity
  8
CURVE
100
AcDbLine
 62
250
  6
CONTINUOUS
 10
31.8066998524
 20
-43.6435714951
 11
31.7264201118
 21
-43.7162511158
  0
LINE
  5
379
100
AcDbEntity
  8
CURVE
100
AcDbLine
 62
250
  6
CONTINUOUS
 10
31.5699574956
 20
-43.5189021299
 11
31.5918249036
 21
-43.4993225032
  0
LINE
  5
37A
100
AcDbEntity
  8
CURVE
100
AcDbLine
 62
250
  6
CONTINUOUS
 10
31.7141647401
 20
-45.0421616191
 11
31.9964693444
 21
-44.7908685665
  0
LINE
  5
37B
100
AcDbEntity
  8
CURVE
100
AcDbLine
 62
250
  6
CONTINUOUS
 10
31.5918249036
 20
-43.4993225032
 11
31.7159639383
 21
-43.3891950285
  0
LINE
  5
37C
100
AcDbEntity
  8
CURVE
100
AcDbLine
 62
250
  6
CONTINUOUS
 10
31.9459836437
 20
-43.1870272277
 11
31.9964695319
 21
-43.1423271019
  0
LINE
  5
37D
100
AcDbEntity
  8
CURVE
100
AcDbLine
 62
250
  6
CONTINUOUS
 10
31.7159639383
 20
-43.3891950285
 11
31.9459836437
 21
-43.1870272277
  0
LINE
  5
37E
100
AcDbEntity
  8
CURVE
100
AcDbLine
 62
250
  6
CONTINUOUS
 10
30.9709290451
 20
-45.6960275888
 11
31.4957189493
 21
-45.2364043303
  0
LINE
  5
37F
100
AcDbEntity
  8
CURVE
100
AcDbLine
 62
250
  6
CONTINUOUS
 10
31.9964693444
 20
-45.8280185121
 11
30.5823703333
 21
-46.7971872153
  0
LINE
  5
380
100
AcDbEntity
  8
CURVE
100
AcDbLine
 62
250
  6
CONTINUOUS
 10
31.0769392008
 20
-46.7623926822
 11
31.9964693444
 21
-46.1614412955
  0
LWPOLYLINE
  5
381
100
AcDbEntity
  8
CURVE
100
AcDbPolyline
 62
250
  6
CONTINUOUS
 90
49
 70
0
 10
30.9917238724
 20
-44.1239926883
 10
30.9863018685
 20
-44.127322512
 10
30.9808681834
 20
-44.1308606664
 10
30.975429208
 20
-44.1346014847
 10
30.9699913331
 20
-44.1385393004
 10
30.9645609494
 20
-44.1426684469
 10
30.959144448
 20
-44.1469832573
 10
30.9537482195
 20
-44.1514780653
 10
30.9483786549
 20
-44.156147204
 10
30.943042145
 20
-44.160985007
 10
30.9377450806
 20
-44.1659858074
 10
30.9324938525
 20
-44.1711439387
 10
30.9272948516
 20
-44.1764537343
 10
30.9221544688
 20
-44.1819095276
 10
30.9170790949
 20
-44.1875056518
 10
30.9120751206
 20
-44.1932364403
 10
30.907148937
 20
-44.1990962266
 10
30.9023069347
 20
-44.2050793439
 10
30.8975555046
 20
-44.2111801256
 10
30.8929010377
 20
-44.2173929052
 10
30.8883499246
 20
-44.2237120159
 10
30.8839085563
 20
-44.2301317911
 10
30.8795833236
 20
-44.2366465642
 10
30.8753806173
 20
-44.2432506685
 10
30.8713068283
 20
-44.2499384375
 10
30.867346147
 20
-44.2567412374
 10
30.8635226711
 20
-44.2636157732
 10
30.8598368119
 20
-44.270554926
 10
30.8562889805
 20
-44.277551577
 10
30.8528795881
 20
-44.2845986072
 10
30.8496090458
 20
-44.291688898
 10
30.8464777648
 20
-44.2988153303
 10
30.8434861563
 20
-44.3059707855
 10
30.8406346315
 20
-44.3131481446
 10
30.8379236014
 20
-44.3203402888
 10
30.8353534774
 20
-44.3275400992
 10
30.8329246705
 20
-44.3347404571
 10
30.8306375919
 20
-44.3419342436
 10
30.8284926528
 20
-44.3491143398
 10
30.8264902644
 20
-44.3562736269
 10
30.8246308378
 20
-44.3634049861
 10
30.8229147842
 20
-44.3705012985
 10
30.8213425148
 20
-44.3775554453
 10
30.8199144407
 20
-44.3845603076
 10
30.8186309732
 20
-44.3915087666
 10
30.8174925233
 20
-44.3983937035
 10
30.8164995022
 20
-44.4052079993
 10
30.8156523212
 20
-44.4119445354
 10
30.8149513913
 20
-44.4185961928
  0
LINE
  5
382
100
AcDbEntity
  8
CURVE
100
AcDbLine
 62
250
  6
CONTINUOUS
 10
31.3280247045
 20
-43.8412541203
 11
31.3363807951
 21
-43.8364294183
  0
LINE
  5
383
100
AcDbEntity
  8
CURVE
100
AcDbLine
 62
250
  6
CONTINUOUS
 10
31.4430694081
 20
-44.3116290489
 11
31.9964695319
 21
-43.9921027531
  0
LINE
  5
384
100
AcDbEntity
  8
CURVE
100
AcDbLine
 62
250
  6
CONTINUOUS
 10
30.8232765394
 20
-44.680791129
 11
31.211474208
 21
-44.4566506604
  0
LINE
  5
385
100
AcDbEntity
  8
CURVE
100
AcDbLine
 62
250
  6
CONTINUOUS
 10
31.9964695319
 20
-44.331562425
 11
30.5988921789
 21
-45.1385060729
  0
LINE
  5
386
100
AcDbEntity
  8
CURVE
100
AcDbLine
 62
250
  6
CONTINUOUS
 10
30.5823703333
 20
-50.294084505
 11
31.9964693444
 21
-48.9599699174
  0
LINE
  5
387
100
AcDbEntity
  8
CURVE
100
AcDbLine
 62
250
  6
CONTINUOUS
 10
31.55573888
 20
-49.0505831111
 11
30.5823703333
 21
-49.9238372791
  0
LWPOLYLINE
  5
388
100
AcDbEntity
  8
RACCORDO
100
AcDbPolyline
 62
7
  6
CONTINUOUS
 90
13
 70
0
 10
33.6858015729
 20
-50.0801248107
 10
33.7024402487
 20
-50.068857772
 10
33.7303345705
 20
-50.0467249916
 10
33.756499859
 20
-50.0214907385
 10
33.7806975215
 20
-49.9931697965
 10
33.8026092745
 20
-49.9619143021
 10
33.8219063686
 20
-49.9280104494
 10
33.8384241889
 20
-49.8916020349
 10
33.8520409476
 20
-49.8528127124
 10
33.8626156752
 20
-49.8118750584
 10
33.8700661661
 20
-49.7689218856
 10
33.8743381382
 20
-49.7240474364
 10
33.8754156789
 20
-49.6865362972
  0
LWPOLYLINE
  5
389
100
AcDbEntity
  8
0
100
AcDbPolyline
 62
250
  6
CONTINUOUS
 90
13
 70
0
 10
29.6020123352
 20
-54.6336433529
 10
29.6494226372
 20
-54.6025661968
 10
29.6934543876
 20
-54.5660386062
 10
29.7338828002
 20
-54.5242379169
 10
29.7705347555
 20
-54.4773431232
 10
29.8032533018
 20
-54.425555037
 10
29.8318983306
 20
-54.3690954274
 10
29.8563471791
 20
-54.3082060662
 10
29.8764951555
 20
-54.2431476896
 10
29.8922559839
 20
-54.1741988868
 10
29.9035621744
 20
-54.101654907
 10
29.9103653126
 20
-54.0258263953
 10
29.9126362668
 20
-53.9470380612
  0
LWPOLYLINE
  5
38A
100
AcDbEntity
  8
RACCORDO
100
AcDbPolyline
 62
250
  6
CONTINUOUS
 90
13
 70
0
 10
29.6020123352
 20
-54.6336433529
 10
29.6494226372
 20
-54.6025661968
 10
29.6934543876
 20
-54.5660386062
 10
29.7338828002
 20
-54.5242379169
 10
29.7705347555
 20
-54.4773431232
 10
29.8032533018
 20
-54.425555037
 10
29.8318983306
 20
-54.3690954274
 10
29.8563471791
 20
-54.3082060662
 10
29.8764951555
 20
-54.2431476896
 10
29.8922559839
 20
-54.1741988868
 10
29.9035621744
 20
-54.101654907
 10
29.9103653126
 20
-54.0258263953
 10
29.9126362668
 20
-53.9470380612
  0
LINE
  5
38B
100
AcDbEntity
  8
RACCORDO
100
AcDbLine
 62
250
  6
CONTINUOUS
 10
33.8204905531
 20
-49.7660246131
 11
33.023906104
 21
-50.2754311334
  0
LINE
  5
38C
100
AcDbEntity
  8
RACCORDO
100
AcDbLine
 62
7
  6
CONTINUOUS
 10
33.6861277206
 20
-50.0799200706
 11
33.023906104
 21
-50.5034031172
  0
LINE
  5
38D
100
AcDbEntity
  8
CURVE
100
AcDbLine
 62
250
  6
CONTINUOUS
 10
30.5822854805
 20
-48.4839805202
 11
31.9964693444
 21
-47.667448481
  0
LINE
  5
38E
100
AcDbEntity
  8
CURVE
100
AcDbLine
 62
250
  6
CONTINUOUS
 10
31.9964693444
 20
-48.0082790993
 11
30.5822854805
 21
-48.8248111384
  0
LINE
  5
38F
100
AcDbEntity
  8
0
100
AcDbLine
 62
250
  6
CONTINUOUS
 10
29.9126362668
 20
-53.9470380612
 11
33.023906104
 21
-52.1506298505
  0
LINE
  5
390
100
AcDbEntity
  8
RACCORDO
100
AcDbLine
 62
250
  6
CONTINUOUS
 10
29.9126362668
 20
-53.9470380612
 11
33.023906104
 21
-52.1506298505
  0
LINE
  5
391
100
AcDbEntity
  8
0
100
AcDbLine
 62
7
  6
CONTINUOUS
 10
29.6020123352
 20
-54.6336433529
 11
32.7132821724
 21
-52.8372351422
  0
LINE
  5
392
100
AcDbEntity
  8
RACCORDO
100
AcDbLine
 62
7
  6
CONTINUOUS
 10
29.6020123352
 20
-54.6336433529
 11
32.7132821724
 21
-52.8372351422
  0
LWPOLYLINE
  5
393
100
AcDbEntity
  8
0
100
AcDbPolyline
 62
7
  6
CONTINUOUS
 90
16
 70
0
 10
29.6020123352
 20
-54.6336433529
 10
29.548191362
 20
-54.6621496734
 10
29.4918312437
 20
-54.6868992178
 10
29.433139337
 20
-54.7076701061
 10
29.3724818494
 20
-54.7242314429
 10
29.3099688575
 20
-54.7364643173
 10
29.2453985066
 20
-54.7442648718
 10
29.1789244522
 20
-54.747424242
 10
29.1108435433
 20
-54.7457464606
 10
29.0410859865
 20
-54.7390308348
 10
28.9695654694
 20
-54.7270107075
 10
28.8967743049
 20
-54.7095098724
 10
28.8234164002
 20
-54.686522355
 10
28.7498053542
 20
-54.6580360954
 10
28.6759325654
 20
-54.6239233209
 10
28.6019640149
 20
-54.5841021752
  0
LWPOLYLINE
  5
394
100
AcDbEntity
  8
RACCORDO
100
AcDbPolyline
 62
7
  6
CONTINUOUS
 90
16
 70
0
 10
29.6020123352
 20
-54.6336433529
 10
29.548191362
 20
-54.6621496734
 10
29.4918312437
 20
-54.6868992178
 10
29.433139337
 20
-54.7076701061
 10
29.3724818494
 20
-54.7242314429
 10
29.3099688575
 20
-54.7364643173
 10
29.2453985066
 20
-54.7442648718
 10
29.1789244522
 20
-54.747424242
 10
29.1108435433
 20
-54.7457464606
 10
29.0410859865
 20
-54.7390308348
 10
28.9695654694
 20
-54.7270107075
 10
28.8967743049
 20
-54.7095098724
 10
28.8234164002
 20
-54.686522355
 10
28.7498053542
 20
-54.6580360954
 10
28.6759325654
 20
-54.6239233209
 10
28.6019640149
 20
-54.5841021752
  0
LINE
  5
395
100
AcDbEntity
  8
CURVE
100
AcDbLine
 62
250
  6
CONTINUOUS
 10
31.9964693444
 20
-47.1579040777
 11
31.0730890044
 21
-47.617501405
  0
LINE
  5
396
100
AcDbEntity
  8
CURVE
100
AcDbLine
 62
250
  6
CONTINUOUS
 10
30.5823703333
 20
-48.153017757
 11
31.9964693444
 21
-47.4839680145
  0
ARC
  5
397
100
AcDbEntity
  8
RACCORDO
100
AcDbCircle
 62
7
  6
CONTINUOUS
 10
-7.8972384251
 20
-17.8176277103
 40
0.2
100
AcDbArc
 50
0.0
 51
60.0020427915
  0
ARC
  5
398
100
AcDbEntity
  8
RACCORDO
100
AcDbCircle
 62
7
  6
CONTINUOUS
 10
7.9012772703
 20
-26.9394926709
 40
0.2
100
AcDbArc
 50
59.9959230305
 51
106.5253958511
  0
ELLIPSE
  5
399
100
AcDbEntity
  8
RACCORDO
100
AcDbEllipse
 62
7
  6
CONTINUOUS
 10
-15.5889404205
 20
1.6562077624
 30
0.0
 11
-0.1002790871
 21
0.1736773754
 31
0.0
 40
0.5757524875
 41
-0.7840766935
 42
-0.052214687
  0
ELLIPSE
  5
39A
100
AcDbEntity
  8
RACCORDO
100
AcDbEllipse
 62
7
  6
CONTINUOUS
 10
-14.9911745489
 20
-1.5040375008
 30
0.0
 11
-0.0999440089
 21
0.17351898
 31
0.0
 40
0.5768037941
 41
-3.1066990021
 42
-2.355482613
  0
ELLIPSE
  5
39B
100
AcDbEntity
  8
RACCORDO
100
AcDbEllipse
 62
7
  6
CONTINUOUS
 10
-14.9911745489
 20
1.3110652399
 30
0.0
 11
-0.099852121
 21
0.1733609324
 31
0.0
 40
0.5778584463
 41
-2.3545649475
 42
-0.7846820092
  0
ENDSEC
  0
SECTION
  2
OBJECTS
  0
DICTIONARY
  5
C
100
AcDbDictionary
280
0
281
1
  3
ACAD_GROUP
350
D
  3
ACAD_MLINESTYLE
350
17
  3
ACAD_LAYOUT
350
1A
  3
ACAD_PLOTSETTINGS
350
19
  3
ACAD_PLOTSTYLENAME
350
E
  0
DICTIONARY
  5
D
102
{ACAD_REACTORS
330
C
102
}
100
AcDbDictionary
280
0
281
1
  0
ACDBDICTIONARYWDFLT
  5
E
102
{ACAD_REACTORS
330
C
102
}
100
AcDbDictionary
281
1
  3
Normal
350
F
100
AcDbDictionaryWithDefault
340
F
  0
DICTIONARY
  5
17
102
{ACAD_REACTORS
330
C
102
}
100
AcDbDictionary
280
0
281
1
  3
Standard
350
18
  0
DICTIONARY
  5
19
102
{ACAD_REACTORS
330
C
102
}
100
AcDbDictionary
281
1
  0
DICTIONARY
  5
1A
102
{ACAD_REACTORS
330
C
102
}
100
AcDbDictionary
281
1
  3
Model
350
39C
  3
Layout1
350
39D
  0
ACDBPLACEHOLDER
  5
F
102
{ACAD_REACTORS
330
E
102
}
  0
MLINESTYLE
  5
18
102
{ACAD_REACTORS
330
17
102
}
100
AcDbMlineStyle
  2
STANDARD
 70
0
  3

 62
256
 51
90.0
 52
90.0
 71
2
 49
0.5
 62
256
  6
BYLAYER
 49
-0.5
 62
256
  6
BYLAYER
  0
LAYOUT
  5
39C
102
{ACAD_REACTORS
330
1A
102
}
100
AcDbPlotSettings
  1

  2
none_device
  4

  6

 40
0.0
 41
0.0
 42
0.0
 43
0.0
 44
210.0
 45
297.0
 46
0.0
 47
0.0
 48
0.0
 49
0.0
140
0.0
141
0.0
142
1.0
143
1.0
 70
1024
 72
1
 73
0
 74
0
  7

 75
0
147
1.0
148
0.0
149
0.0
100
AcDbLayout
  1
Model
 70
0
 71
0
 10
0.0
 20
0.0
 11
210.0
 21
297.0
 12
0.0
 22
0.0
 32
0.0
 14
0.0
 24
0.0
 34
0.0
 15
0.0
 25
0.0
 35
0.0
146
0.0
 13
0.0
 23
0.0
 33
0.0
 16
1.0
 26
0.0
 36
0.0
 17
0.0
 27
1.0
 37
0.0
 76
0
330
213
345
0
346
0
  0
LAYOUT
  5
39D
102
{ACAD_REACTORS
330
1A
102
}
100
AcDbPlotSettings
  1

  2
none_device
  4

  6

 40
0.0
 41
0.0
 42
0.0
 43
0.0
 44
210.0
 45
297.0
 46
0.0
 47
0.0
 48
0.0
 49
0.0
140
0.0
141
0.0
142
1.0
143
1.0
 70
0
 72
1
 73
0
 74
0
  7

 75
0
147
1.0
148
0.0
149
0.0
100
AcDbLayout
  1
Layout1
 70
0
 71
1
 10
0.0
 20
0.0
 11
210.0
 21
297.0
 12
0.0
 22
0.0
 32
0.0
 14
0.0
 24
0.0
 34
0.0
 15
0.0
 25
0.0
 35
0.0
146
0.0
 13
0.0
 23
0.0
 33
0.0
 16
1.0
 26
0.0
 36
0.0
 17
0.0
 27
1.0
 37
0.0
 76
0
330
214
345
0
346
0
  0
ENDSEC
  0
EOF
