  0
SECTION
  2
HEADER
  9
$ACADVER
  1
AC1024
  9
$DWGCODEPAGE
  3
ANSI_1252
  9
$EXTMAX
 10
297.0
 20
210.0
 30
0.0
  9
$EXTMIN
 10
0.0
 20
0.0
 30
0.0
  9
$LIMMIN
 10
0.0
 20
0.0
  9
$LIMMAX
 10
297.0
 20
210.0
  9
$VIEWCTR
 10
148.5
 20
105.0
  9
$VIEWSIZE
 40
210.0
  9
$CLAYER
  8
0
  9
$LTSCALE
 40
16.335
  9
$CELTYPE
  6
BYLAYER
  9
$DIMSCALE
 40
1.0
  9
$DIMASZ
 40
3.0
  9
$DIMEXO
 40
0.5
  9
$DIMDLI
 40
11.286
  9
$DIMEXE
 40
1.5
  9
$DIMCEN
 40
2.673
  9
$DIMLFAC
 40
1.0
  9
$DIMBLK
  1
_FILLED
  9
$DIMALT
 70
0
  9
$DIMALTF
 40
0.0393700787
  9
$DIMTXT
 40
3.0
  9
$DIMTOL
 70
1
  9
$DIMLIM
 70
0
  9
$DIMTFAC
 40
1.0
  9
$DIMTP
 40
0.01
  9
$DIMTM
 40
0.01
  9
$DIMGAP
 40
0.625
  9
$DIMDSEP
 70
44
  9
$AUNITS
 70
0
  9
$PDMODE
 70
3
  9
$PDSIZE
 40
3.0
  9
$HANDSEED
  5
2B9
  9
$TILEMODE
 70
1
  9
$MEASUREMENT
 70
1
  9
$INSUNITS
 70
4
  0
ENDSEC
  0
SECTION
  2
CLASSES
  0
CLASS
  1
ACDBDICTIONARYWDFLT
  2
AcDbDictionaryWithDefault
  3
AutoCAD 2000
 90
0
 91
1
280
0
281
0
  0
CLASS
  1
ACDBPLACEHOLDER
  2
AcDbPlaceHolder
  3
AutoCAD 2000
 90
0
 91
1
280
0
281
0
  0
CLASS
  1
LAYOUT
  2
AcDbLayout
  3
AutoCAD 2000
 90
0
 91
0
280
0
281
0
  0
ENDSEC
  0
SECTION
  2
TABLES
  0
TABLE
  2
VPORT
  5
8
100
AcDbSymbolTable
 70
2
  0
VPORT
  5
1F4
100
AcDbSymbolTableRecord
100
AcDbViewportTableRecord
  2
*ACTIVE
 70
0
 10
0.0
 20
0.0
 11
1.0
 21
1.0
 12
148.5
 22
105.0
 13
0.0
 23
0.0
 14
1.0
 24
1.0
 15
0.0
 25
0.0
 16
0.0
 26
0.0
 36
1.0
 17
0.0
 27
0.0
 37
0.0
 40
210.0
 41
1.4142857143
 42
50.0
 43
0.0
 44
0.0
 50
0.0
 51
0.0
 71
0
 72
100
 73
1
 74
1
 75
0
 76
0
 77
0
 78
0
  0
ENDTAB
  0
TABLE
  2
LTYPE
  5
5
100
AcDbSymbolTable
 70
6
  0
LTYPE
  5
14
100
AcDbSymbolTableRecord
100
AcDbLinetypeTableRecord
  2
BYBLOCK
 70
0
  3

 72
65
 73
0
 40
0.0
  0
LTYPE
  5
15
100
AcDbSymbolTableRecord
100
AcDbLinetypeTableRecord
  2
BYLAYER
 70
0
  3

 72
65
 73
0
 40
0.0
  0
LTYPE
  5
16
100
AcDbSymbolTableRecord
100
AcDbLinetypeTableRecord
  2
CONTINUOUS
 70
64
  3
Solid line
 72
65
 73
0
 40
0.0
  0
LTYPE
  5
1F5
100
AcDbSymbolTableRecord
100
AcDbLinetypeTableRecord
  2
CENTER
 70
64
  3
____ _ ____ _ ____ _ ____ _ ____ _ ____ _ ____
 72
65
 73
4
 40
0.6
 49
0.375
 74
0
 49
-0.075
 74
0
 49
0.075
 74
0
 49
-0.075
 74
0
  0
LTYPE
  5
1F6
100
AcDbSymbolTableRecord
100
AcDbLinetypeTableRecord
  2
HIDDEN
 70
64
  3
- - - - - - - - - - - - - - - - - - - -
 72
65
 73
2
 40
0.2
 49
0.1
 74
0
 49
-0.1
 74
0
  0
LTYPE
  5
1F7
100
AcDbSymbolTableRecord
100
AcDbLinetypeTableRecord
  2
PHANTOM
 70
64
  3
_____ _ _ _____ _ _ _____ _ _ _____
 72
65
 73
6
 40
0.8
 49
0.45
 74
0
 49
-0.05
 74
0
 49
0.1
 74
0
 49
-0.05
 74
0
 49
0.1
 74
0
 49
-0.05
 74
0
  0
LTYPE
  5
1F8
100
AcDbSymbolTableRecord
100
AcDbLinetypeTableRecord
  2
DOT
 70
64
  3
. . . . . . . . . . . . . . . . . . . .
 72
65
 73
2
 40
0.2
 49
0.1
 74
0
 49
-0.1
 74
0
  0
LTYPE
  5
1F9
100
AcDbSymbolTableRecord
100
AcDbLinetypeTableRecord
  2
DASHED
 70
64
  3
- - - - - - - - - - - - - - - - - - - -
 72
65
 73
2
 40
0.2
 49
0.1
 74
0
 49
-0.1
 74
0
  0
ENDTAB
  0
TABLE
  2
LAYER
  5
2
100
AcDbSymbolTable
 70
36
  0
LAYER
  5
10
100
AcDbSymbolTableRecord
100
AcDbLayerTableRecord
  2
0
 70
0
 62
7
  6
CONTINUOUS
370
-3
390
F
  0
LAYER
  5
1FA
100
AcDbSymbolTableRecord
100
AcDbLayerTableRecord
  2
DEFAULT_1
 70
0
 62
7
  6
CENTER
370
-3
390
F
  0
LAYER
  5
1FB
100
AcDbSymbolTableRecord
100
AcDbLayerTableRecord
  2
DEFAULT_2
 70
0
 62
7
  6
HIDDEN
370
-3
390
F
  0
LAYER
  5
1FC
100
AcDbSymbolTableRecord
100
AcDbLayerTableRecord
  2
DEFAULT_3
 70
0
 62
7
  6
PHANTOM
370
-3
390
F
  0
LAYER
  5
1FD
100
AcDbSymbolTableRecord
100
AcDbLayerTableRecord
  2
ASSI
 70
0
 62
7
  6
CONTINUOUS
370
-3
390
F
  0
LAYER
  5
1FE
100
AcDbSymbolTableRecord
100
AcDbLayerTableRecord
  2
COORDINATE
 70
0
 62
7
  6
CONTINUOUS
370
-3
390
F
  0
LAYER
  5
1FF
100
AcDbSymbolTableRecord
100
AcDbLayerTableRecord
  2
COPY_PUBLISH
 70
0
 62
7
  6
CONTINUOUS
370
-3
390
F
  0
LAYER
  5
200
100
AcDbSymbolTableRecord
100
AcDbLayerTableRecord
  2
COSMETICI
 70
0
 62
7
  6
CONTINUOUS
370
-3
390
F
  0
LAYER
  5
201
100
AcDbSymbolTableRecord
100
AcDbLayerTableRecord
  2
CURVE
 70
0
 62
7
  6
CONTINUOUS
370
-3
390
F
  0
LAYER
  5
202
100
AcDbSymbolTableRecord
100
AcDbLayerTableRecord
  2
DRAFT
 70
0
 62
7
  6
CONTINUOUS
370
-3
390
F
  0
LAYER
  5
203
100
AcDbSymbolTableRecord
100
AcDbLayerTableRecord
  2
IMPORT_IGES
 70
0
 62
7
  6
CONTINUOUS
370
-3
390
F
  0
LAYER
  5
204
100
AcDbSymbolTableRecord
100
AcDbLayerTableRecord
  2
INTF_1
 70
0
 62
7
  6
CONTINUOUS
370
-3
390
F
  0
LAYER
  5
205
100
AcDbSymbolTableRecord
100
AcDbLayerTableRecord
  2
INTF_11
 70
0
 62
7
  6
CONTINUOUS
370
-3
390
F
  0
LAYER
  5
206
100
AcDbSymbolTableRecord
100
AcDbLayerTableRecord
  2
INTF_13
 70
0
 62
7
  6
CONTINUOUS
370
-3
390
F
  0
LAYER
  5
207
100
AcDbSymbolTableRecord
100
AcDbLayerTableRecord
  2
INTF_2
 70
0
 62
7
  6
CONTINUOUS
370
-3
390
F
  0
LAYER
  5
208
100
AcDbSymbolTableRecord
100
AcDbLayerTableRecord
  2
INTF_4
 70
0
 62
7
  6
CONTINUOUS
370
-3
390
F
  0
LAYER
  5
209
100
AcDbSymbolTableRecord
100
AcDbLayerTableRecord
  2
NOTE
 70
0
 62
7
  6
CONTINUOUS
370
-3
390
F
  0
LAYER
  5
20A
100
AcDbSymbolTableRecord
100
AcDbLayerTableRecord
  2
PIANI
 70
0
 62
7
  6
CONTINUOUS
370
-3
390
F
  0
LAYER
  5
20B
100
AcDbSymbolTableRecord
100
AcDbLayerTableRecord
  2
PUNTI
 70
0
 62
7
  6
CONTINUOUS
370
-3
390
F
  0
LAYER
  5
20C
100
AcDbSymbolTableRecord
100
AcDbLayerTableRecord
  2
RACCORDO
 70
0
 62
7
  6
CONTINUOUS
370
-3
390
F
  0
LAYER
  5
20D
100
AcDbSymbolTableRecord
100
AcDbLayerTableRecord
  2
RGB____0____0____0__
 70
0
 62
7
  6
CONTINUOUS
370
-3
390
F
  0
LAYER
  5
20E
100
AcDbSymbolTableRecord
100
AcDbLayerTableRecord
  2
SIMBOLI
 70
0
 62
7
  6
CONTINUOUS
370
-3
390
F
  0
LAYER
  5
20F
100
AcDbSymbolTableRecord
100
AcDbLayerTableRecord
  2
SMUSSO
 70
0
 62
7
  6
CONTINUOUS
370
-3
390
F
  0
LAYER
  5
210
100
AcDbSymbolTableRecord
100
AcDbLayerTableRecord
  2
SUPERFICI
 70
0
 62
7
  6
CONTINUOUS
370
-3
390
F
  0
LAYER
  5
211
100
AcDbSymbolTableRecord
100
AcDbLayerTableRecord
  2
TRASH
 70
0
 62
7
  6
CONTINUOUS
370
-3
390
F
  0
ENDTAB
  0
TABLE
  2
STYLE
  5
3
100
AcDbSymbolTable
 70
1
  0
STYLE
  5
11
100
AcDbSymbolTableRecord
100
AcDbTextStyleTableRecord
  2
STANDARD
 70
0
 40
0.0
 41
0.8
 50
0.0
 71
0
 42
0.2
  3
txt
  4

  0
STYLE
  5
212
100
AcDbSymbolTableRecord
100
AcDbTextStyleTableRecord
  2
TEXTSTYLE_1
 70
0
 40
0.0
 41
0.8
 50
0.0
 71
0
 42
0.2
  3
gdt
  4

  0
ENDTAB
  0
TABLE
  2
VIEW
  5
6
100
AcDbSymbolTable
 70
0
  0
ENDTAB
  0
TABLE
  2
UCS
  5
7
100
AcDbSymbolTable
 70
0
  0
ENDTAB
  0
TABLE
  2
APPID
  5
9
100
AcDbSymbolTable
 70
1
  0
APPID
  5
213
100
AcDbSymbolTableRecord
100
AcDbRegAppTableRecord
  2
ACAD
 70
0
  0
ENDTAB
  0
TABLE
  2
BLOCK_RECORD
  5
1
100
AcDbSymbolTable
 70
0
  0
BLOCK_RECORD
  5
214
100
AcDbSymbolTableRecord
100
AcDbBlockTableRecord
  2
*Model_Space
  0
BLOCK_RECORD
  5
215
100
AcDbSymbolTableRecord
100
AcDbBlockTableRecord
  2
*Paper_Space
  0
BLOCK_RECORD
  5
216
100
AcDbSymbolTableRecord
100
AcDbBlockTableRecord
  2
_FILLED
  0
ENDTAB
  0
TABLE
  2
DIMSTYLE
  5
A
100
AcDbSymbolTable
 70
1
100
AcDbDimStyleTable
 71
0
  0
DIMSTYLE
105
217
100
AcDbSymbolTableRecord
100
AcDbDimStyleTableRecord
  2
STANDARD
 70
0
  3

  4

 40
1.0
 41
3.0
 42
0.5
 43
0.38
 44
1.5
 45
0.0
 46
0.0
 47
0.01
 48
0.01
140
3.0
141
0.09
142
0.0
143
25.4
144
1.0
145
0.0
146
1.0
147
0.625
 71
1
 72
0
 73
0
 74
0
 75
0
 76
0
 77
1
 78
8
 79
2
170
0
171
1
172
0
173
0
174
0
175
0
176
0
177
0
178
0
270
2
179
2
271
2
272
2
273
2
274
2
275
0
280
0
281
0
282
0
283
1
284
8
285
0
286
0
287
3
288
0
340
11
278
44
341
216
342
216
343
216
344
216
  0
ENDTAB
  0
ENDSEC
  0
SECTION
  2
BLOCKS
  0
BLOCK
  5
20
100
AcDbEntity
  8
0
100
AcDbBlockBegin
  2
*Model_Space
 70
0
 10
0.0
 20
0.0
 30
0.0
  3
*Model_Space
  1

  0
ENDBLK
  5
21
100
AcDbEntity
  8
0
100
AcDbBlockEnd
  0
BLOCK
  5
1C
100
AcDbEntity
  8
0
100
AcDbBlockBegin
  2
*Paper_Space
 70
0
 10
0.0
 20
0.0
 30
0.0
  3
*Paper_Space
  1

  0
ENDBLK
  5
1D
100
AcDbEntity
  8
0
100
AcDbBlockEnd
  0
BLOCK
  5
218
100
AcDbEntity
  8
0
100
AcDbBlockBegin
  2
_FILLED
 70
64
 10
0.0
 20
0.0
  3
_FILLED
  1

  0
SOLID
  5
219
100
AcDbEntity
  8
0
  6
BYBLOCK
 62
0
100
AcDbTrace
 10
0.0
 20
0.0
 11
-1.0
 21
0.3166666667
 12
-1.0
 22
-0.3166666667
 13
-1.0
 23
-0.3166666667
  0
ENDBLK
  5
21A
100
AcDbEntity
  8
0
  6
BYBLOCK
 62
0
100
AcDbBlockEnd
  0
ENDSEC
  0
SECTION
  2
ENTITIES
  0
LWPOLYLINE
  5
21B
100
AcDbEntity
  8
RACCORDO
100
AcDbPolyline
 62
7
  6
CONTINUOUS
 90
15
 70
0
 10
-33.6941900971
 20
52.222221857
 10
-33.7467851203
 20
52.1819861795
 10
-33.7946882825
 20
52.1390668608
 10
-33.8400647732
 20
52.0917180072
 10
-33.882502874
 20
52.0400824547
 10
-33.9215502314
 20
51.9844642781
 10
-33.9569662118
 20
51.9250116981
 10
-33.9885201261
 20
51.8619048383
 10
-34.0159310513
 20
51.7955195233
 10
-34.0390682968
 20
51.7260406418
 10
-34.0578398193
 20
51.6535936861
 10
-34.0721271136
 20
51.5784154997
 10
-34.0818561622
 20
51.5006585247
 10
-34.0869699371
 20
51.4204376009
 10
-34.0877890913
 20
51.3721966949
  0
LINE
  5
21C
100
AcDbEntity
  8
RACCORDO
100
AcDbLine
 62
7
  6
CONTINUOUS
 10
-33.6946501665
 20
52.2218989159
 11
-30.7217060955
 21
54.3181629694
  0
LINE
  5
21D
100
AcDbEntity
  8
RACCORDO
100
AcDbLine
 62
250
  6
CONTINUOUS
 10
-32.9001549304
 20
52.1768326849
 11
-29.9344060115
 21
54.268023337
  0
LINE
  5
21E
100
AcDbEntity
  8
RACCORDO
100
AcDbLine
 62
250
  6
CONTINUOUS
 10
-27.9491296905
 20
54.7242204538
 11
-29.3614708142
 21
53.9372177347
  0
LINE
  5
21F
100
AcDbEntity
  8
DRAFT
100
AcDbLine
 62
7
  6
CONTINUOUS
 10
-28.275530883
 20
54.7592774831
 11
-29.5617437383
 21
54.052852811
  0
LINE
  5
220
100
AcDbEntity
  8
RACCORDO
100
AcDbLine
 62
250
  6
CONTINUOUS
 10
-28.275530883
 20
54.7592774831
 11
-28.2670302945
 21
54.7637086363
  0
LWPOLYLINE
  5
221
100
AcDbEntity
  8
RACCORDO
100
AcDbPolyline
 62
250
  6
CONTINUOUS
 90
11
 70
0
 10
-28.2670302945
 20
54.7637086363
 10
-28.2405377021
 20
54.7747369908
 10
-28.2124154362
 20
54.7824647888
 10
-28.1828207684
 20
54.7868488123
 10
-28.1519192053
 20
54.787864544
 10
-28.1198835606
 20
54.7855063035
 10
-28.0868929909
 20
54.7797872788
 10
-28.0531319947
 20
54.7707394539
 10
-28.0187893778
 20
54.7584134284
 10
-27.9840571976
 20
54.742878135
 10
-27.9491296905
 20
54.7242204538
  0
LWPOLYLINE
  5
222
100
AcDbEntity
  8
RACCORDO
100
AcDbPolyline
 62
250
  6
CONTINUOUS
 90
11
 70
0
 10
-33.2352047662
 20
-19.079543491
 10
-33.2339475334
 20
-19.1132144794
 10
-33.2301847766
 20
-19.1451941794
 10
-33.2239432564
 20
-19.1752551521
 10
-33.2152673624
 20
-19.2031836042
 10
-33.2042187974
 20
-19.2287809092
 10
-33.1908761385
 20
-19.2518650194
 10
-33.1753342786
 20
-19.2722717611
 10
-33.1577037511
 20
-19.2898560019
 10
-33.1381099439
 20
-19.304492683
 10
-33.1316634557
 20
-19.3084119216
  0
LWPOLYLINE
  5
223
100
AcDbEntity
  8
RACCORDO
100
AcDbPolyline
 62
7
  6
CONTINUOUS
 90
24
 70
0
 10
-34.0877494344
 20
-17.6629997573
 10
-34.0846103584
 20
-17.7492218394
 10
-34.0766110257
 20
-17.8358652567
 10
-34.0639309372
 20
-17.9227557059
 10
-34.0467451109
 20
-18.0096621769
 10
-34.0252654722
 20
-18.0962074359
 10
-33.9996734753
 20
-18.1821597077
 10
-33.9701215848
 20
-18.267369481
 10
-33.9368048991
 20
-18.3515014133
 10
-33.8999222001
 20
-18.4342705285
 10
-33.8595915029
 20
-18.5155523327
 10
-33.8159114969
 20
-18.5952106497
 10
-33.7690157322
 20
-18.6730289109
 10
-33.7190232023
 20
-18.7487825265
 10
-33.6660045932
 20
-18.8223197154
 10
-33.6100053145
 20
-18.8934730346
 10
-33.5511745968
 20
-18.9619318775
 10
-33.4897028623
 20
-19.0273561426
 10
-33.4256421417
 20
-19.0895379961
 10
-33.3591026577
 20
-19.1482065734
 10
-33.2903038707
 20
-19.202985327
 10
-33.2193611772
 20
-19.2536052945
 10
-33.1463369554
 20
-19.2998236462
 10
-33.1314952966
 20
-19.308508884
  0
LWPOLYLINE
  5
224
100
AcDbEntity
  8
RACCORDO
100
AcDbPolyline
 62
250
  6
CONTINUOUS
 90
28
 70
0
 10
-33.9413424821
 20
-17.8564770912
 10
-33.9399602905
 20
-17.905684653
 10
-33.9363513138
 20
-17.9552329952
 10
-33.9305155519
 20
-18.0051221176
 10
-33.9224301704
 20
-18.0553271747
 10
-33.9121180039
 20
-18.1058730121
 10
-33.8996475554
 20
-18.1568341671
 10
-33.8849818062
 20
-18.2084315685
 10
-33.868157775
 20
-18.2604442875
 10
-33.8493550217
 20
-18.3122840754
 10
-33.8285626913
 20
-18.3639133993
 10
-33.8057916388
 20
-18.415369792
 10
-33.781253988
 20
-18.4661776032
 10
-33.7549213681
 20
-18.5163494766
 10
-33.72682215
 20
-18.5658727685
 10
-33.6972535707
 20
-18.614233897
 10
-33.6663476215
 20
-18.661262718
 10
-33.6339723111
 20
-18.7071293757
 10
-33.6000289028
 20
-18.75183072
 10
-33.5644054467
 20
-18.7955552405
 10
-33.5272138926
 20
-18.8381144478
 10
-33.4886913533
 20
-18.8789397233
 10
-33.4487270473
 20
-18.9180933082
 10
-33.4074317561
 20
-18.9555129613
 10
-33.3653749366
 20
-18.9904433404
 10
-33.322746408
 20
-19.0226326647
 10
-33.2793563512
 20
-19.0523327149
 10
-33.2352047662
 20
-19.079543491
  0
LINE
  5
225
100
AcDbEntity
  8
RACCORDO
100
AcDbLine
 62
7
  6
CONTINUOUS
 10
-34.0877890915
 20
51.3722044737
 11
-34.0877494344
 21
-17.6629997573
  0
LINE
  5
226
100
AcDbEntity
  8
RACCORDO
100
AcDbLine
 62
250
  6
CONTINUOUS
 10
-33.9413424821
 20
51.1680671771
 11
-33.9413424821
 21
-17.8564770912
  0
LINE
  5
227
100
AcDbEntity
  8
RACCORDO
100
AcDbLine
 62
7
  6
CONTINUOUS
 10
-34.0877890915
 20
-17.6523398125
 11
-34.0877889684
 21
-17.6521372362
  0
LWPOLYLINE
  5
228
100
AcDbEntity
  8
RACCORDO
100
AcDbPolyline
 62
250
  6
CONTINUOUS
 90
19
 70
0
 10
-33.2352047662
 20
51.5757034425
 10
-33.2339475624
 20
51.6108258871
 10
-33.2301848785
 20
51.6471503875
 10
-33.2239434641
 20
51.6844186135
 10
-33.2152676972
 20
51.7223655223
 10
-33.2042192691
 20
51.7607212409
 10
-33.190876747
 20
51.7992129849
 10
-33.1753350128
 20
51.8375670049
 10
-33.1577045907
 20
51.8755105267
 10
-33.138110863
 20
51.9127736896
 10
-33.1166931729
 20
51.9490914764
 10
-33.0936038378
 20
51.9842055906
 10
-33.0690070696
 20
52.0178662879
 10
-33.0430777969
 20
52.0498341688
 10
-33.016000427
 20
52.0798818707
 10
-32.9879675408
 20
52.1077956796
 10
-32.9591785113
 20
52.1333770641
 10
-32.9298380842
 20
52.1564440857
 10
-32.9001549304
 20
52.1768326849
  0
LINE
  5
229
100
AcDbEntity
  8
RACCORDO
100
AcDbLine
 62
250
  6
CONTINUOUS
 10
-18.4064039903
 20
29.6702833413
 11
-18.3991849046
 21
29.6744078161
  0
LINE
  5
22A
100
AcDbEntity
  8
RACCORDO
100
AcDbLine
 62
7
  6
CONTINUOUS
 10
-18.3991849046
 20
29.6744078161
 11
-18.3990786273
 21
29.6744650181
  0
LINE
  5
22B
100
AcDbEntity
  8
RACCORDO
100
AcDbLine
 62
250
  6
CONTINUOUS
 10
-18.5054383622
 20
29.4440060798
 11
-18.226610582
 21
29.5939506367
  0
LWPOLYLINE
  5
22C
100
AcDbEntity
  8
RACCORDO
100
AcDbPolyline
 62
250
  6
CONTINUOUS
 90
19
 70
0
 10
28.6640811625
 20
-54.0040640733
 10
28.6951279431
 20
-54.0205382745
 10
28.728468385
 20
-54.0354434906
 10
28.7638653716
 20
-54.0486737159
 10
28.8010671602
 20
-54.0601348574
 10
28.8398091722
 20
-54.0697454037
 10
28.8798158752
 20
-54.0774370046
 10
28.9208027422
 20
-54.0831549576
 10
28.9624782753
 20
-54.0868585969
 10
29.0045460789
 20
-54.0885215821
 10
29.0467069676
 20
-54.0881320861
 10
29.0886610937
 20
-54.0856928791
 10
29.1301100803
 20
-54.0812213085
 10
29.1707591429
 20
-54.0747491762
 10
29.2103191862
 20
-54.0663225119
 10
29.2485088597
 20
-54.0560012458
 10
29.2850565593
 20
-54.0438587826
 10
29.3197023582
 20
-54.0299814792
 10
29.3521998563
 20
-54.0144680309
  0
LWPOLYLINE
  5
22D
100
AcDbEntity
  8
RACCORDO
100
AcDbPolyline
 62
250
  6
CONTINUOUS
 90
28
 70
0
 10
27.9579434466
 20
-54.4117003388
 10
27.9998686555
 20
-54.434311463
 10
28.0409754982
 20
-54.4538788857
 10
28.0812639746
 20
-54.4704026067
 10
28.1207011488
 20
-54.4838372433
 10
28.1593199566
 20
-54.4942281783
 10
28.1972192065
 20
-54.5017115605
 10
28.2345717231
 20
-54.5063444325
 10
28.2712046818
 20
-54.5080697517
 10
28.306698416
 20
-54.5068525391
 10
28.3410149927
 20
-54.5026583588
 10
28.374192345
 20
-54.4955216466
 10
28.4059246066
 20
-54.485510731
 10
28.4362085409
 20
-54.4725909843
 10
28.4650473846
 20
-54.4567970342
 10
28.4921449812
 20
-54.4383010924
 10
28.517419979
 20
-54.4172085929
 10
28.5409537297
 20
-54.3934141016
 10
28.5626941322
 20
-54.3667735283
 10
28.5827484482
 20
-54.3372195403
 10
28.601009416
 20
-54.3048194702
 10
28.6171031495
 20
-54.2696312264
 10
28.6310281569
 20
-54.2315260322
 10
28.64278593
 20
-54.1906326641
 10
28.6520070582
 20
-54.1473953604
 10
28.6585684045
 20
-54.1019622004
 10
28.662593106
 20
-54.0541851047
 10
28.6640811625
 20
-54.0040640733
  0
LWPOLYLINE
  5
22E
100
AcDbEntity
  8
RACCORDO
100
AcDbPolyline
 62
7
  6
CONTINUOUS
 90
15
 70
0
 10
28.0614773207
 20
-54.6405644754
 10
28.1011750509
 20
-54.6626479942
 10
28.173360843
 20
-54.6985906274
 10
28.2457265823
 20
-54.7292797995
 10
28.3181449701
 20
-54.7547085425
 10
28.3904503337
 20
-54.7748674523
 10
28.4623770676
 20
-54.7897361981
 10
28.5337699848
 20
-54.7993307678
 10
28.6044020818
 20
-54.8036747799
 10
28.6738032565
 20
-54.8028177418
 10
28.7416988948
 20
-54.7968654246
 10
28.8078413186
 20
-54.7859583212
 10
28.8717373479
 20
-54.7703351946
 10
28.9330526801
 20
-54.750278243
 10
28.9945539833
 20
-54.7247060358
  0
LWPOLYLINE
  5
22F
100
AcDbEntity
  8
RACCORDO
100
AcDbPolyline
 62
7
  6
CONTINUOUS
 90
11
 70
0
 10
-18.4053498028
 20
29.6719844576
 10
-18.4053150373
 20
29.6719946135
 10
-18.4033290056
 20
29.6721760206
 10
-18.3986536024
 20
29.6721672347
 10
-18.3910187394
 20
29.6714688579
 10
-18.3802746199
 20
29.6695617565
 10
-18.3667906682
 20
29.6660565921
 10
-18.3512436297
 20
29.6607991074
 10
-18.334053715
 20
29.6537164143
 10
-18.3153886014
 20
29.6447015066
 10
-18.2982799097
 20
29.6353316183
  0
LINE
  5
230
100
AcDbEntity
  8
RACCORDO
100
AcDbLine
 62
7
  6
CONTINUOUS
 10
-33.1316634557
 20
-19.3084119216
 11
28.0614847727
 21
-54.6405687784
  0
LINE
  5
231
100
AcDbEntity
  8
RACCORDO
100
AcDbLine
 62
250
  6
CONTINUOUS
 10
-33.2352047662
 20
-19.079543491
 11
27.9579434466
 21
-54.4117003388
  0
LWPOLYLINE
  5
232
100
AcDbEntity
  8
RACCORDO
100
AcDbPolyline
 62
250
  6
CONTINUOUS
 90
11
 70
0
 10
-33.9413424821
 20
-17.8564770912
 10
-33.9698745185
 20
-17.8385512636
 10
-33.9956892588
 20
-17.819301103
 10
-34.0186031008
 20
-17.7988635089
 10
-34.0384530726
 20
-17.7773838257
 10
-34.0550979899
 20
-17.7550148114
 10
-34.0684194613
 20
-17.7319155506
 10
-34.0783227328
 20
-17.7082503207
 10
-34.0847373589
 20
-17.6841874265
 10
-34.0876177054
 20
-17.6598980048
 10
-34.0877890915
 20
-17.6523398125
  0
LWPOLYLINE
  5
233
100
AcDbEntity
  8
RACCORDO
100
AcDbPolyline
 62
250
  6
CONTINUOUS
 90
12
 70
0
 10
-16.8684435798
 20
18.0780131802
 10
-16.8587048403
 20
18.1109422987
 10
-16.8473091041
 20
18.1437814519
 10
-16.8343855744
 20
18.176429591
 10
-16.8205769171
 20
18.2078613028
 10
-16.8059349033
 20
18.2378159704
 10
-16.7904077618
 20
18.2665542106
 10
-16.7744828449
 20
18.2938324605
 10
-16.7584112729
 20
18.3193543338
 10
-16.7419419254
 20
18.3434162167
 10
-16.7248087929
 20
18.3666637059
 10
-16.7071309395
 20
18.3891742667
  0
LWPOLYLINE
  5
234
100
AcDbEntity
  8
RACCORDO
100
AcDbPolyline
 62
250
  6
CONTINUOUS
 90
4
 70
0
 10
-16.7071309395
 20
18.3891742667
 10
-16.6887893012
 20
18.4108704338
 10
-16.6691606764
 20
18.4321654076
 10
-16.6480373313
 20
18.4531969217
  0
LWPOLYLINE
  5
235
100
AcDbEntity
  8
RACCORDO
100
AcDbPolyline
 62
250
  6
CONTINUOUS
 90
15
 70
0
 10
-16.5954567547
 20
18.4996304406
 10
-16.5892809201
 20
18.5056304057
 10
-16.583402178
 20
18.5120562653
 10
-16.5777939316
 20
18.5189514882
 10
-16.5724827776
 20
18.5262726056
 10
-16.5675485061
 20
18.5338892112
 10
-16.5629844322
 20
18.5418079993
 10
-16.5587972409
 20
18.5500222755
 10
-16.5550867767
 20
18.5583815511
 10
-16.5518493685
 20
18.5669135531
 10
-16.5490886874
 20
18.5755905543
 10
-16.5469155908
 20
18.5841788846
 10
-16.5453670313
 20
18.5926006539
 10
-16.5444060564
 20
18.6009337522
 10
-16.5440326661
 20
18.6091781795
  0
LINE
  5
236
100
AcDbEntity
  8
RACCORDO
100
AcDbLine
 62
250
  6
CONTINUOUS
 10
-16.6480373313
 20
18.4531969217
 11
-16.6256269997
 21
18.4738272425
  0
LINE
  5
237
100
AcDbEntity
  8
RACCORDO
100
AcDbLine
 62
250
  6
CONTINUOUS
 10
-16.6256269997
 20
18.4738272425
 11
-16.5954567547
 21
18.4996304406
  0
LWPOLYLINE
  5
238
100
AcDbEntity
  8
RACCORDO
100
AcDbPolyline
 62
7
  6
CONTINUOUS
 90
12
 70
0
 10
-16.6213322383
 20
18.4177226587
 10
-16.607995444
 20
18.4289394008
 10
-16.5871461176
 20
18.4491233065
 10
-16.5677397703
 20
18.4713709031
 10
-16.5499486618
 20
18.4955269562
 10
-16.5342172377
 20
18.5209459119
 10
-16.5204850784
 20
18.5476854149
 10
-16.5088222918
 20
18.5757911908
 10
-16.4996273077
 20
18.6045150942
 10
-16.4929996127
 20
18.6336833618
 10
-16.4890112271
 20
18.6636196617
 10
-16.487900652
 20
18.6894542975
  0
LINE
  5
239
100
AcDbEntity
  8
RACCORDO
100
AcDbLine
 62
7
  6
CONTINUOUS
 10
-16.6212121199
 20
18.4178178898
 11
-16.6213322383
 21
18.4177226587
  0
LWPOLYLINE
  5
23A
100
AcDbEntity
  8
RACCORDO
100
AcDbPolyline
 62
250
  6
CONTINUOUS
 90
8
 70
0
 10
-16.5440326661
 20
18.6091781795
 10
-16.5304418531
 20
18.6181947107
 10
-16.5185381016
 20
18.6279741099
 10
-16.5084489523
 20
18.6384115977
 10
-16.5002825032
 20
18.6493953436
 10
-16.4941262524
 20
18.6608076643
 10
-16.4900461596
 20
18.6725262849
 10
-16.4881277273
 20
18.684171984
  0
LWPOLYLINE
  5
23B
100
AcDbEntity
  8
RACCORDO
100
AcDbPolyline
 62
250
  6
CONTINUOUS
 90
9
 70
0
 10
-16.8914147593
 20
17.9184473232
 10
-16.8778239574
 20
17.9274638462
 10
-16.8659202125
 20
17.9372432374
 10
-16.8558310655
 20
17.947680718
 10
-16.8476646153
 20
17.9586644579
 10
-16.8415083605
 20
17.9700767742
 10
-16.8374282622
 20
17.9817953921
 10
-16.8354680363
 20
17.9936947547
 10
-16.8352827224
 20
17.9986447132
  0
LINE
  5
23C
100
AcDbEntity
  8
RACCORDO
100
AcDbLine
 62
250
  6
CONTINUOUS
 10
13.0831073198
 20
-32.6086287443
 11
-18.3603686393
 21
-14.4535598048
  0
LINE
  5
23D
100
AcDbEntity
  8
RACCORDO
100
AcDbLine
 62
250
  6
CONTINUOUS
 10
13.2915371396
 20
-32.2433802012
 11
-18.1519388195
 21
-14.0883112617
  0
LWPOLYLINE
  5
23E
100
AcDbEntity
  8
RACCORDO
100
AcDbPolyline
 62
250
  6
CONTINUOUS
 90
25
 70
0
 10
-18.1519387128
 20
-14.0883112001
 10
-18.1752061977
 20
-14.0742875351
 10
-18.1982695879
 20
-14.0586402016
 10
-18.2210354563
 20
-14.0414544996
 10
-18.2433824778
 20
-14.0228497258
 10
-18.2652549093
 20
-14.0028954817
 10
-18.2866572667
 20
-13.9815914501
 10
-18.3075349747
 20
-13.9589865809
 10
-18.3277676313
 20
-13.9352062147
 10
-18.347259516
 20
-13.9103563659
 10
-18.3659352199
 20
-13.8845311642
 10
-18.3837123501
 20
-13.8578456174
 10
-18.4004937983
 20
-13.8304475446
 10
-18.4161975584
 20
-13.8024809957
 10
-18.4307807304
 20
-13.7740358237
 10
-18.4442098328
 20
-13.7451820381
 10
-18.4563742708
 20
-13.7161744821
 10
-18.4672859496
 20
-13.6869959317
 10
-18.4770385771
 20
-13.65730516
 10
-18.4855730626
 20
-13.627055172
 10
-18.4927221877
 20
-13.5965626352
 10
-18.4983707205
 20
-13.5660440966
 10
-18.502426014
 20
-13.535680188
 10
-18.5048082333
 20
-13.5056174465
 10
-18.5054382281
 20
-13.4760320166
  0
LWPOLYLINE
  5
23F
100
AcDbEntity
  8
RACCORDO
100
AcDbPolyline
 62
250
  6
CONTINUOUS
 90
25
 70
0
 10
-18.3603686393
 20
-14.4535598048
 10
-18.3974565275
 20
-14.4306615399
 10
-18.4339572653
 20
-14.4054687148
 10
-18.4698708527
 20
-14.3779813297
 10
-18.5052883033
 20
-14.3481022376
 10
-18.5401186036
 20
-14.3159285853
 10
-18.5740887128
 20
-14.281751814
 10
-18.6072460328
 20
-14.2455087382
 10
-18.6395431618
 20
-14.2072625433
 10
-18.6705648535
 20
-14.1674942266
 10
-18.7002999028
 20
-14.1261674309
 10
-18.7287595149
 20
-14.0833185134
 10
-18.7555620588
 20
-14.0395375421
 10
-18.7806616489
 20
-13.994858635
 10
-18.8041041709
 20
-13.9492476742
 10
-18.8256456507
 20
-13.9031923746
 10
-18.845239912
 20
-13.8569005485
 10
-18.862933131
 20
-13.8101643836
 10
-18.8786198629
 20
-13.7628481583
 10
-18.8924288567
 20
-13.7146320008
 10
-18.9042313635
 20
-13.6658357829
 10
-18.9135356911
 20
-13.6172833981
 10
-18.9201779424
 20
-13.5692494777
 10
-18.9243220146
 20
-13.5214593904
 10
-18.9259679077
 20
-13.4739131364
  0
LWPOLYLINE
  5
240
100
AcDbEntity
  8
RACCORDO
100
AcDbPolyline
 62
250
  6
CONTINUOUS
 90
8
 70
0
 10
-17.3120931453
 20
-13.7343340942
 10
-17.3193428726
 20
-13.7295644998
 10
-17.3266851245
 20
-13.7248018207
 10
-17.3341741823
 20
-13.7200294449
 10
-17.3417733605
 20
-13.7152935929
 10
-17.349177034
 20
-13.7107946957
 10
-17.3563513864
 20
-13.7065645092
 10
-17.3570853976
 20
-13.7061399335
  0
LINE
  5
241
100
AcDbEntity
  8
RACCORDO
100
AcDbLine
 62
250
  6
CONTINUOUS
 10
-17.3051031667
 20
-13.7389995565
 11
-17.3115189001
 21
-13.7347173743
  0
LWPOLYLINE
  5
242
100
AcDbEntity
  8
RACCORDO
100
AcDbPolyline
 62
250
  6
CONTINUOUS
 90
3
 70
0
 10
-17.2858071796
 20
-13.7521615737
 10
-17.292001484
 20
-13.7478911444
 10
-17.3051031667
 20
-13.7389995565
  0
LWPOLYLINE
  5
243
100
AcDbEntity
  8
RACCORDO
100
AcDbPolyline
 62
7
  6
CONTINUOUS
 90
15
 70
0
 10
-17.3002588844
 20
-13.7442398164
 10
-17.3000929863
 20
-13.7443674163
 10
-17.300381163
 20
-13.7441400793
 10
-17.3009920108
 20
-13.743652967
 10
-17.3020303476
 20
-13.7428128768
 10
-17.3034080297
 20
-13.7416803904
 10
-17.3049245858
 20
-13.7404143362
 10
-17.3065266781
 20
-13.7390575443
 10
-17.3082273198
 20
-13.7375973986
 10
-17.3099172057
 20
-13.7361274743
 10
-17.3115600203
 20
-13.7346811728
 10
-17.313176048
 20
-13.7332423766
 10
-17.3147514891
 20
-13.7318247855
 10
-17.3162661866
 20
-13.7304482476
 10
-17.3177337353
 20
-13.7291020536
  0
LWPOLYLINE
  5
244
100
AcDbEntity
  8
RACCORDO
100
AcDbPolyline
 62
250
  6
CONTINUOUS
 90
4
 70
0
 10
-17.2802621867
 20
-13.7825057255
 10
-17.3157916047
 20
-13.7532214176
 10
-17.3501631877
 20
-13.7209372096
 10
-17.383185584
 20
-13.6858328483
  0
LINE
  5
245
100
AcDbEntity
  8
RACCORDO
100
AcDbLine
 62
7
  6
CONTINUOUS
 10
-17.3177337353
 20
-13.7291020536
 11
-17.3206492468
 21
-13.7263917652
  0
LWPOLYLINE
  5
246
100
AcDbEntity
  8
RACCORDO
100
AcDbPolyline
 62
7
  6
CONTINUOUS
 90
11
 70
0
 10
-17.3206492468
 20
-13.7263917652
 10
-17.3235843574
 20
-13.7236158352
 10
-17.3251451115
 20
-13.7221205765
 10
-17.3267488578
 20
-13.7205703717
 10
-17.3283661861
 20
-13.7189929653
 10
-17.3299881621
 20
-13.7173968658
 10
-17.3316221709
 20
-13.7157746054
 10
-17.3332633968
 20
-13.7141307154
 10
-17.3349088822
 20
-13.7124679979
 10
-17.3365603594
 20
-13.7107845459
 10
-17.3382202454
 20
-13.7090776712
  0
LINE
  5
247
100
AcDbEntity
  8
RACCORDO
100
AcDbLine
 62
7
  6
CONTINUOUS
 10
-17.3382202454
 20
-13.7090776712
 11
-17.341564049
 21
-13.7055938217
  0
LWPOLYLINE
  5
248
100
AcDbEntity
  8
RACCORDO
100
AcDbPolyline
 62
7
  6
CONTINUOUS
 90
24
 70
0
 10
-17.341564049
 20
-13.7055938217
 10
-17.3449413474
 20
-13.7020130909
 10
-17.3466421316
 20
-13.7001860862
 10
-17.3483495986
 20
-13.6983357636
 10
-17.3500631855
 20
-13.6964624494
 10
-17.3517826266
 20
-13.694566151
 10
-17.3535074417
 20
-13.6926471147
 10
-17.3552370866
 20
-13.690705667
 10
-17.356971346
 20
-13.6887417708
 10
-17.3587102805
 20
-13.6867550706
 10
-17.3604533927
 20
-13.6847458435
 10
-17.3622004637
 20
-13.6827140506
 10
-17.3639519971
 20
-13.6806588
 10
-17.3657075245
 20
-13.6785803228
 10
-17.3674668166
 20
-13.6764785716
 10
-17.3692307403
 20
-13.6743521697
 10
-17.3709990956
 20
-13.6722009942
 10
-17.372771378
 20
-13.6700252929
 10
-17.3745479928
 20
-13.6678241913
 10
-17.3763289255
 20
-13.6655973096
 10
-17.3781134762
 20
-13.6633451234
 10
-17.3799010279
 20
-13.6610680207
 10
-17.3816910269
 20
-13.6587663226
 10
-17.3834833286
 20
-13.6564398291
  0
LWPOLYLINE
  5
249
100
AcDbEntity
  8
RACCORDO
100
AcDbPolyline
 62
250
  6
CONTINUOUS
 90
6
 70
0
 10
-17.383185584
 20
-13.6858328483
 10
-17.4146749763
 20
-13.6481037471
 10
-17.444456053
 20
-13.6079599532
 10
-17.4723629911
 20
-13.5656249869
 10
-17.4982404147
 20
-13.5213345532
 10
-17.5219442468
 20
-13.4753352458
  0
LWPOLYLINE
  5
24A
100
AcDbEntity
  8
RACCORDO
100
AcDbPolyline
 62
7
  6
CONTINUOUS
 90
81
 70
0
 10
-17.3834833286
 20
-13.6564398291
 10
-17.3852779356
 20
-13.6540881388
 10
-17.3870744549
 20
-13.6517113608
 10
-17.3888725704
 20
-13.6493095056
 10
-17.3906723921
 20
-13.6468820061
 10
-17.3924735238
 20
-13.6444289663
 10
-17.3942756338
 20
-13.6419504048
 10
-17.3960789135
 20
-13.6394456105
 10
-17.3978829581
 20
-13.6369146846
 10
-17.3996874166
 20
-13.634357655
 10
-17.4014925387
 20
-13.6317736866
 10
-17.4032980136
 20
-13.6291627236
 10
-17.4051033581
 20
-13.6265249613
 10
-17.4069085386
 20
-13.6238599348
 10
-17.4087132751
 20
-13.6211675284
 10
-17.4105170206
 20
-13.6184480253
 10
-17.4123193269
 20
-13.6157015685
 10
-17.4141197615
 20
-13.6129282813
 10
-17.4159179128
 20
-13.6101282585
 10
-17.417713355
 20
-13.6073016198
 10
-17.4195056372
 20
-13.6044485283
 10
-17.4212943447
 20
-13.6015690939
 10
-17.4230790928
 20
-13.5986633797
 10
-17.4248594204
 20
-13.5957315758
 10
-17.4266348973
 20
-13.5927738261
 10
-17.4284051685
 20
-13.5897901508
 10
-17.4301697607
 20
-13.5867807702
 10
-17.431928226
 20
-13.5837458669
 10
-17.4336802261
 20
-13.5806854356
 10
-17.435425274
 20
-13.5775997307
 10
-17.4371629018
 20
-13.5744889797
 10
-17.4388927734
 20
-13.5713531749
 10
-17.4406143871
 20
-13.5681926092
 10
-17.4423272519
 20
-13.5650075631
 10
-17.444031018
 20
-13.561798057
 10
-17.4457251682
 20
-13.5585644271
 10
-17.4474091856
 20
-13.5553070175
 10
-17.4490826869
 20
-13.5520259193
 10
-17.4507451241
 20
-13.5487215483
 10
-17.4523959676
 20
-13.5453942951
 10
-17.4540348218
 20
-13.5420442862
 10
-17.4556607392
 20
-13.5386727952
 10
-17.4572735519
 20
-13.5352795052
 10
-17.4588739407
 20
-13.5318622403
 10
-17.4604610737
 20
-13.5284219799
 10
-17.4620345151
 20
-13.5249588679
 10
-17.463595368
 20
-13.5214695717
 10
-17.4651428735
 20
-13.5179547895
 10
-17.4666763126
 20
-13.51441515
 10
-17.4681966321
 20
-13.5108473588
 10
-17.4697029657
 20
-13.5072522302
 10
-17.4711944569
 20
-13.5036305808
 10
-17.472671815
 20
-13.4999793458
 10
-17.4741340509
 20
-13.4962995083
 10
-17.4755801469
 20
-13.4925921544
 10
-17.4770104833
 20
-13.4888547158
 10
-17.4784239631
 20
-13.4850883377
 10
-17.4798193568
 20
-13.4812945576
 10
-17.481196529
 20
-13.4774718994
 10
-17.4825542432
 20
-13.4736218316
 10
-17.483891064
 20
-13.4697464401
 10
-17.4852062263
 20
-13.4658458848
 10
-17.4864979881
 20
-13.4619232161
 10
-17.4877651022
 20
-13.4579801048
 10
-17.4890071205
 20
-13.4540156808
 10
-17.4902219365
 20
-13.4500343068
 10
-17.4914081946
 20
-13.44603805
 10
-17.4925658188
 20
-13.4420244589
 10
-17.4936932234
 20
-13.4379959336
 10
-17.4947875012
 20
-13.4339597358
 10
-17.4958456218
 20
-13.4299241027
 10
-17.4968655135
 20
-13.4258940042
 10
-17.4978438892
 20
-13.4218794875
 10
-17.4987749478
 20
-13.4179023974
 10
-17.4996612309
 20
-13.4139494745
 10
-17.5004936268
 20
-13.4100590663
 10
-17.5012501484
 20
-13.4063403237
 10
-17.5019370164
 20
-13.4027741964
 10
-17.5025451105
 20
-13.3994205128
 10
-17.503038383
 20
-13.3965154929
 10
-17.5032704624
 20
-13.3950712465
  0
LWPOLYLINE
  5
24B
100
AcDbEntity
  8
RACCORDO
100
AcDbPolyline
 62
7
  6
CONTINUOUS
 90
16
 70
0
 10
-16.2744147749
 20
-14.3312603814
 10
-16.2845005706
 20
-14.3166715582
 10
-16.3128483826
 20
-14.2720073332
 10
-16.3395382213
 20
-14.2260790159
 10
-16.3643269546
 20
-14.1793039298
 10
-16.3870758727
 20
-14.1319710588
 10
-16.4076760971
 20
-14.0843601323
 10
-16.4259832203
 20
-14.0368973635
 10
-16.4419371115
 20
-13.9898712996
 10
-16.455500878
 20
-13.9435653961
 10
-16.4666293429
 20
-13.8984031486
 10
-16.4753531908
 20
-13.8546310176
 10
-16.4817191708
 20
-13.8125067446
 10
-16.4857923771
 20
-13.7724676816
 10
-16.4877035466
 20
-13.73479841
 10
-16.4879006593
 20
-13.7187913232
  0
LWPOLYLINE
  5
24C
100
AcDbEntity
  8
RACCORDO
100
AcDbPolyline
 62
250
  6
CONTINUOUS
 90
11
 70
0
 10
-16.419031844
 20
-14.2477602982
 10
-16.433653793
 20
-14.2198994807
 10
-16.4557573035
 20
-14.172994303
 10
-16.4756646149
 20
-14.1254672986
 10
-16.4932689876
 20
-14.0775053056
 10
-16.5084839521
 20
-14.0292322838
 10
-16.521128773
 20
-13.9810744473
 10
-16.5310249146
 20
-13.9336713623
 10
-16.5381289569
 20
-13.887406196
 10
-16.5424625595
 20
-13.8424149929
 10
-16.5440327211
 20
-13.7989423517
  0
LWPOLYLINE
  5
24D
100
AcDbEntity
  8
RACCORDO
100
AcDbPolyline
 62
250
  6
CONTINUOUS
 90
12
 70
0
 10
-17.5219442468
 20
-13.4753352458
 10
-17.543342512
 20
-13.4278831732
 10
-17.5623160719
 20
-13.3792425311
 10
-17.5787592874
 20
-13.3296841337
 10
-17.5925806077
 20
-13.2794839057
 10
-17.6037030795
 20
-13.2289213443
 10
-17.6120647759
 20
-13.1782779648
 10
-17.617619141
 20
-13.1278357329
 10
-17.6203352491
 20
-13.0778754942
 10
-17.620197977
 20
-13.0286754109
 10
-17.6172080882
 20
-12.9805094131
 10
-17.6113822286
 20
-12.9336456736
  0
LWPOLYLINE
  5
24E
100
AcDbEntity
  8
RACCORDO
100
AcDbPolyline
 62
250
  6
CONTINUOUS
 90
9
 70
0
 10
-18.3603686393
 20
29.772631848
 10
-18.3592322155
 20
29.7479681478
 10
-18.3558351199
 20
29.7248810158
 10
-18.35021375
 20
29.7036178147
 10
-18.3424283351
 20
29.684406365
 10
-18.3325622903
 20
29.6674525039
 10
-18.3207213236
 20
29.6529378805
 10
-18.3070323026
 20
29.6410180087
 10
-18.2982799097
 20
29.6353316183
  0
LINE
  5
24F
100
AcDbEntity
  8
RACCORDO
100
AcDbLine
 62
7
  6
CONTINUOUS
 10
-16.8350004846
 20
0.3506643712
 11
-16.8352827224
 21
0.362926628
  0
LINE
  5
250
100
AcDbEntity
  8
RACCORDO
100
AcDbLine
 62
250
  6
CONTINUOUS
 10
-18.9259679077
 20
-13.4739131364
 11
-18.9259679077
 21
29.4461250374
  0
LINE
  5
251
100
AcDbEntity
  8
RACCORDO
100
AcDbLine
 62
250
  6
CONTINUOUS
 10
-18.5054383622
 20
-13.476032094
 11
-18.5054383622
 21
29.4440060798
  0
LINE
  5
252
100
AcDbEntity
  8
RACCORDO
100
AcDbLine
 62
7
  6
CONTINUOUS
 10
-18.1419468373
 20
29.5450668516
 11
-18.1419468373
 21
-13.266157339
  0
LINE
  5
253
100
AcDbEntity
  8
RACCORDO
100
AcDbLine
 62
250
  6
CONTINUOUS
 10
-16.8914147593
 20
0.2826893445
 11
-16.8914147593
 21
17.9184473232
  0
LINE
  5
254
100
AcDbEntity
  8
RACCORDO
100
AcDbLine
 62
7
  6
CONTINUOUS
 10
-16.8352827194
 20
0.3629067519
 11
-16.8352827194
 21
17.9986647306
  0
LWPOLYLINE
  5
255
100
AcDbEntity
  8
RACCORDO
100
AcDbPolyline
 62
7
  6
CONTINUOUS
 90
21
 70
0
 10
-16.8352827224
 20
17.9986447132
 10
-16.8351563372
 20
18.007185659
 10
-16.8341055093
 20
18.0254434063
 10
-16.8318614253
 20
18.0455224207
 10
-16.8282948221
 20
18.0672381829
 10
-16.8232930125
 20
18.0904431446
 10
-16.8168187296
 20
18.1147723654
 10
-16.8088377237
 20
18.1400041432
 10
-16.7993368892
 20
18.1659122711
 10
-16.7883904819
 20
18.1921124334
 10
-16.7760518625
 20
18.218364917
 10
-16.7624068575
 20
18.2444055177
 10
-16.7476518467
 20
18.2698295198
 10
-16.7319223775
 20
18.2944164151
 10
-16.7153821044
 20
18.3179369336
 10
-16.6983394474
 20
18.3400210146
 10
-16.6809875253
 20
18.360520424
 10
-16.6635269529
 20
18.3793079751
 10
-16.6463276674
 20
18.3961279988
 10
-16.6296723319
 20
18.4108871481
 10
-16.6212121201
 20
18.4178178897
  0
LWPOLYLINE
  5
256
100
AcDbEntity
  8
RACCORDO
100
AcDbPolyline
 62
250
  6
CONTINUOUS
 90
13
 70
0
 10
-18.5054382555
 20
29.4440061372
 10
-18.504927858
 20
29.4700323523
 10
-18.502909222
 20
29.4950004484
 10
-18.4994095035
 20
29.5188154601
 10
-18.494471351
 20
29.5413565046
 10
-18.4881271692
 20
29.562579084
 10
-18.4803789417
 20
29.5824962249
 10
-18.4712417714
 20
29.6010512162
 10
-18.460764003
 20
29.6181307044
 10
-18.4489895859
 20
29.633656072
 10
-18.4359623336
 20
29.6475662736
 10
-18.4217406482
 20
29.6597968427
 10
-18.4064039903
 20
29.6702833413
  0
LWPOLYLINE
  5
257
100
AcDbEntity
  8
RACCORDO
100
AcDbPolyline
 62
250
  6
CONTINUOUS
 90
25
 70
0
 10
-18.9259679077
 20
29.4461250374
 10
-18.9246825259
 20
29.4882068988
 10
-18.9211163293
 20
29.5282938853
 10
-18.9152693178
 20
29.5663859969
 10
-18.9071028681
 20
29.602566023
 10
-18.8966556036
 20
29.6367511742
 10
-18.884043394
 20
29.6686930822
 10
-18.8692352207
 20
29.6984285704
 10
-18.8522621025
 20
29.7259208154
 10
-18.8333329653
 20
29.750810979
 10
-18.8124107189
 20
29.7730647074
 10
-18.7895324536
 20
29.7927163544
 10
-18.7650183659
 20
29.8095101422
 10
-18.7388750587
 20
29.8233969009
 10
-18.7110959292
 20
29.8344258004
 10
-18.6819813657
 20
29.8424885733
 10
-18.6516882542
 20
29.8476224855
 10
-18.6200597087
 20
29.8497902711
 10
-18.5869254595
 20
29.8487718651
 10
-18.5520728611
 20
29.8445931505
 10
-18.515714559
 20
29.8372282444
 10
-18.4783182192
 20
29.8263794325
 10
-18.4400397303
 20
29.8119474768
 10
-18.4007232037
 20
29.7940316153
 10
-18.3603686393
 20
29.772631848
  0
LWPOLYLINE
  5
258
100
AcDbEntity
  8
RACCORDO
100
AcDbPolyline
 62
250
  6
CONTINUOUS
 90
6
 70
0
 10
-16.8914147593
 20
17.9184473232
 10
-16.8904202297
 20
17.9492016848
 10
-16.8876428507
 20
17.9804873001
 10
-16.8830826223
 20
18.0123041691
 10
-16.8766545257
 20
18.0448930478
 10
-16.8684435798
 20
18.0780131802
  0
LINE
  5
259
100
AcDbEntity
  8
RACCORDO
100
AcDbLine
 62
250
  6
CONTINUOUS
 10
-16.4880859404
 20
18.6844256483
 11
-16.4879006262
 21
18.6893955869
  0
LINE
  5
25A
100
AcDbEntity
  8
RACCORDO
100
AcDbLine
 62
250
  6
CONTINUOUS
 10
-16.8354680336
 20
0.3579368134
 11
-16.8352827194
 21
0.3629067519
  0
LWPOLYLINE
  5
25B
100
AcDbEntity
  8
RACCORDO
100
AcDbPolyline
 62
250
  6
CONTINUOUS
 90
16
 70
0
 10
-18.3603686393
 20
-14.4535598048
 10
-18.3592321737
 20
-14.4275833008
 10
-18.3558349669
 20
-14.4005728478
 10
-18.3502134391
 20
-14.372817861
 10
-18.3424278433
 20
-14.3446157319
 10
-18.3325616171
 20
-14.3162686319
 10
-18.3207204858
 20
-14.2880802754
 10
-18.3070313366
 20
-14.2603526832
 10
-18.2916408527
 20
-14.2333829303
 10
-18.274713935
 20
-14.2074599559
 10
-18.2564319525
 20
-14.1828614986
 10
-18.2369907886
 20
-14.1598510996
 10
-18.2165987288
 20
-14.1386752686
 10
-18.1954742535
 20
-14.1195608731
 10
-18.1738436996
 20
-14.1027127033
 10
-18.1519388195
 20
-14.0883112617
  0
LWPOLYLINE
  5
25C
100
AcDbEntity
  8
RACCORDO
100
AcDbPolyline
 62
250
  6
CONTINUOUS
 90
24
 70
0
 10
-17.443190699
 20
-13.3875973718
 10
-17.4413169631
 20
-13.3448792225
 10
-17.4403356742
 20
-13.3043458636
 10
-17.4405474494
 20
-13.2667799713
 10
-17.4416516717
 20
-13.2313988693
 10
-17.4434313881
 20
-13.1978409064
 10
-17.4458196267
 20
-13.1660385982
 10
-17.4488833594
 20
-13.136059429
 10
-17.4526065494
 20
-13.107744201
 10
-17.4569073305
 20
-13.0809551363
 10
-17.4618675688
 20
-13.0558300128
 10
-17.4677168261
 20
-13.0326229656
 10
-17.4744821246
 20
-13.011246813
 10
-17.4821364421
 20
-12.9917887368
 10
-17.490828274
 20
-12.9747644181
 10
-17.5006716798
 20
-12.9603101939
 10
-17.5115526002
 20
-12.9482897271
 10
-17.5232773519
 20
-12.9388096875
 10
-17.5357656971
 20
-12.9319740052
 10
-17.5490978736
 20
-12.9276787501
 10
-17.563320912
 20
-12.9257188014
 10
-17.5784504891
 20
-12.9260257856
 10
-17.5944709279
 20
-12.9286680764
 10
-17.6113822286
 20
-12.9336456736
  0
LINE
  5
25D
100
AcDbEntity
  8
RACCORDO
100
AcDbLine
 62
250
  6
CONTINUOUS
 10
-17.4473325175
 20
-13.4729667827
 11
-17.443190699
 21
-13.3875973718
  0
LWPOLYLINE
  5
25E
100
AcDbEntity
  8
RACCORDO
100
AcDbPolyline
 62
250
  6
CONTINUOUS
 90
3
 70
0
 10
-17.4514330439
 20
-13.5473350551
 10
-17.4496006
 20
-13.5156180443
 10
-17.4473325175
 20
-13.4729667827
  0
LWPOLYLINE
  5
25F
100
AcDbEntity
  8
RACCORDO
100
AcDbPolyline
 62
250
  6
CONTINUOUS
 90
16
 70
0
 10
-18.9259679077
 20
-13.4739131364
 10
-18.9029031379
 20
-13.4859181316
 10
-18.8778126434
 20
-13.4964821878
 10
-18.8509652514
 20
-13.5054921185
 10
-18.8226486132
 20
-13.5128513884
 10
-18.7931661219
 20
-13.5184811482
 10
-18.762833662
 20
-13.5223210788
 10
-18.7319762247
 20
-13.5243300381
 10
-18.7009244261
 20
-13.5244865014
 10
-18.6700109647
 20
-13.5227887924
 10
-18.6395670569
 20
-13.5192551007
 10
-18.6099188879
 20
-13.5139232876
 10
-18.5813841175
 20
-13.5068504796
 10
-18.5542684758
 20
-13.498112457
 10
-18.5288624882
 20
-13.4878028417
 10
-18.5054383622
 20
-13.476032094
  0
LINE
  5
260
100
AcDbEntity
  8
RACCORDO
100
AcDbLine
 62
7
  6
CONTINUOUS
 10
-17.7884472946
 20
-13.8784365068
 11
13.5608386224
 21
-31.9791212965
  0
LINE
  5
261
100
AcDbEntity
  8
RACCORDO
100
AcDbLine
 62
250
  6
CONTINUOUS
 10
13.5608386224
 20
-31.5961309731
 11
-17.2065264612
 21
-13.8314399795
  0
LINE
  5
262
100
AcDbEntity
  8
RACCORDO
100
AcDbLine
 62
7
  6
CONTINUOUS
 10
13.5608386224
 20
-31.5577617695
 11
-17.3184258141
 21
-13.7284614919
  0
LWPOLYLINE
  5
263
100
AcDbEntity
  8
RACCORDO
100
AcDbPolyline
 62
250
  6
CONTINUOUS
 90
3
 70
0
 10
-17.2065264825
 20
-13.8314399871
 10
-17.2437727596
 20
-13.8086270642
 10
-17.2802621867
 20
-13.7825057255
  0
LWPOLYLINE
  5
264
100
AcDbEntity
  8
RACCORDO
100
AcDbPolyline
 62
250
  6
CONTINUOUS
 90
9
 70
0
 10
13.6487065881
 20
-32.2821219337
 10
13.6279143046
 20
-32.2688043677
 10
13.609617787
 20
-32.2543171785
 10
13.5940130524
 20
-32.238815601
 10
13.5812672752
 20
-32.2224657381
 10
13.5715169916
 20
-32.2054427758
 10
13.5648666415
 20
-32.1879291054
 10
13.561387454
 20
-32.1701123797
 10
13.560838633
 20
-32.1596855659
  0
LWPOLYLINE
  5
265
100
AcDbEntity
  8
RACCORDO
100
AcDbPolyline
 62
250
  6
CONTINUOUS
 90
8
 70
0
 10
-16.6019296817
 20
18.4940563701
 10
-16.6002993239
 20
18.4791392979
 10
-16.6002571832
 20
18.4652606873
 10
-16.6018037201
 20
18.4525720324
 10
-16.6049220537
 20
18.441211838
 10
-16.6095781454
 20
18.4313041082
 10
-16.6157211696
 20
18.4229569933
 10
-16.6212121199
 20
18.4178178898
  0
LWPOLYLINE
  5
266
100
AcDbEntity
  8
RACCORDO
100
AcDbPolyline
 62
250
  6
CONTINUOUS
 90
16
 70
0
 10
-16.5440326661
 20
0.0073595411
 10
-16.5443735778
 20
0.0151021713
 10
-16.5453301277
 20
0.0222712714
 10
-16.5469023158
 20
0.0288668415
 10
-16.5491523853
 20
0.0349575012
 10
-16.5520180931
 20
0.0404746309
 10
-16.5553127101
 20
0.0452123715
 10
-16.5590078353
 20
0.0490814049
 10
-16.5631318696
 20
0.0521710492
 10
-16.5675832866
 20
0.0545433993
 10
-16.5722924693
 20
0.05624103
 10
-16.5773290347
 20
0.0572213664
 10
-16.5828003063
 20
0.0574187788
 10
-16.5887420586
 20
0.0568113905
 10
-16.595118517
 20
0.0554210781
 10
-16.6019296817
 20
0.0532478417
  0
LWPOLYLINE
  5
267
100
AcDbEntity
  8
RACCORDO
100
AcDbPolyline
 62
7
  6
CONTINUOUS
 90
12
 70
0
 10
-16.4879007575
 20
0.0872926735
 10
-16.4890144437
 20
0.1129605073
 10
-16.4924413674
 20
0.1383458862
 10
-16.4982134735
 20
0.1631565644
 10
-16.506340468
 20
0.1871527178
 10
-16.5168138361
 20
0.2101627954
 10
-16.5295399354
 20
0.2318914974
 10
-16.5443817417
 20
0.2520696111
 10
-16.5611879117
 20
0.2704843339
 10
-16.5797178687
 20
0.2869057334
 10
-16.5996965258
 20
0.3011543647
 10
-16.6083319164
 20
0.3063906327
  0
LINE
  5
268
100
AcDbEntity
  8
RACCORDO
100
AcDbLine
 62
250
  6
CONTINUOUS
 10
-16.5440326661
 20
-13.7989423199
 11
-16.5440326661
 21
0.0073595411
  0
LINE
  5
269
100
AcDbEntity
  8
RACCORDO
100
AcDbLine
 62
250
  6
CONTINUOUS
 10
-16.5440326661
 20
18.6091781795
 11
-16.5440326661
 21
28.6224512358
  0
LINE
  5
26A
100
AcDbEntity
  8
RACCORDO
100
AcDbLine
 62
7
  6
CONTINUOUS
 10
-16.4879006262
 20
-13.7187249126
 11
-16.4879006262
 21
0.0875769342
  0
LINE
  5
26B
100
AcDbEntity
  8
RACCORDO
100
AcDbLine
 62
7
  6
CONTINUOUS
 10
-16.4879006262
 20
18.6893955869
 11
-16.4879006262
 21
28.5900412994
  0
LWPOLYLINE
  5
26C
100
AcDbEntity
  8
RACCORDO
100
AcDbPolyline
 62
250
  6
CONTINUOUS
 90
16
 70
0
 10
-16.6019296817
 20
0.0532478417
 10
-16.6002993259
 20
0.0719291682
 10
-16.6002572005
 20
0.0912821969
 10
-16.6018037619
 20
0.1110956731
 10
-16.6049221249
 20
0.1311533164
 10
-16.6095782471
 20
0.1512361825
 10
-16.6157213006
 20
0.171125053
 10
-16.6232842267
 20
0.1906028267
 10
-16.6321844679
 20
0.2094568911
 10
-16.6423248708
 20
0.2274814443
 10
-16.6535947395
 20
0.2444797314
 10
-16.6658710578
 20
0.2602662132
 10
-16.6790198362
 20
0.2746685882
 10
-16.6928975542
 20
0.2875296466
 10
-16.707352723
 20
0.2987089921
 10
-16.7222275553
 20
0.3080845905
  0
LWPOLYLINE
  5
26D
100
AcDbEntity
  8
RACCORDO
100
AcDbPolyline
 62
250
  6
CONTINUOUS
 90
8
 70
0
 10
-16.8914147593
 20
0.2826893445
 10
-16.8778239463
 20
0.2917058757
 10
-16.8659201948
 20
0.3014852749
 10
-16.8558310455
 20
0.3119227627
 10
-16.8476645964
 20
0.3229065086
 10
-16.8415083456
 20
0.3343188294
 10
-16.8374282528
 20
0.3460374499
 10
-16.8354680336
 20
0.3579368134
  0
LWPOLYLINE
  5
26E
100
AcDbEntity
  8
RACCORDO
100
AcDbPolyline
 62
250
  6
CONTINUOUS
 90
9
 70
0
 10
-16.5440326661
 20
0.0073595411
 10
-16.5304419484
 20
0.0163759985
 10
-16.5185382538
 20
0.0261553251
 10
-16.5084491264
 20
0.036592746
 10
-16.5002826693
 20
0.0475764344
 10
-16.4941263864
 20
0.0589887105
 10
-16.4900462444
 20
0.0707073014
 10
-16.488085966
 20
0.0826066523
 10
-16.4879006262
 20
0.0875769342
  0
LINE
  5
26F
100
AcDbEntity
  8
RACCORDO
100
AcDbLine
 62
250
  6
CONTINUOUS
 10
-16.8307556528
 20
0.3707473561
 11
-16.722227553
 21
0.3080845914
  0
LINE
  5
270
100
AcDbEntity
  8
RACCORDO
100
AcDbLine
 62
7
  6
CONTINUOUS
 10
-16.8352827194
 20
0.4374343447
 11
-16.6082421177
 21
0.3063439467
  0
LINE
  5
271
100
AcDbEntity
  8
RACCORDO
100
AcDbLine
 62
7
  6
CONTINUOUS
 10
-16.8335435843
 20
0.3082839557
 11
-16.8336800341
 21
0.3083628923
  0
LWPOLYLINE
  5
272
100
AcDbEntity
  8
RACCORDO
100
AcDbPolyline
 62
7
  6
CONTINUOUS
 90
10
 70
0
 10
-16.827760196
 20
0.3041764868
 10
-16.8257596378
 20
0.3022557278
 10
-16.8247428833
 20
0.3010782162
 10
-16.8248453854
 20
0.3012929321
 10
-16.825996882
 20
0.3035493039
 10
-16.8279140625
 20
0.308316803
 10
-16.8301267022
 20
0.315585787
 10
-16.8322203696
 20
0.3251268416
 10
-16.833924241
 20
0.3368773418
 10
-16.8350004846
 20
0.3506643712
  0
LWPOLYLINE
  5
273
100
AcDbEntity
  8
RACCORDO
100
AcDbPolyline
 62
250
  6
CONTINUOUS
 90
8
 70
0
 10
-16.722227553
 20
0.3080845914
 10
-16.7379863389
 20
0.3023633855
 10
-16.7533889371
 20
0.2982971727
 10
-16.7683429648
 20
0.2958912814
 10
-16.7827431352
 20
0.2951393687
 10
-16.7965252687
 20
0.2960244958
 10
-16.8096600262
 20
0.2985368426
 10
-16.822084767
 20
0.3026648157
  0
LWPOLYLINE
  5
274
100
AcDbEntity
  8
RACCORDO
100
AcDbPolyline
 62
250
  6
CONTINUOUS
 90
19
 70
0
 10
-16.6019296817
 20
0.0532478417
 10
-16.6287559505
 20
0.0439094627
 10
-16.6546828726
 20
0.0373128062
 10
-16.679710448
 20
0.0334578722
 10
-16.7039465006
 20
0.0323691417
 10
-16.7272832065
 20
0.0340221336
 10
-16.7493970934
 20
0.0383434053
 10
-16.7702973069
 20
0.045374515
 10
-16.7899747014
 20
0.0550739045
 10
-16.8080783677
 20
0.0672434557
 10
-16.8245485937
 20
0.0818304527
 10
-16.8394450916
 20
0.0988876115
 10
-16.8525960881
 20
0.1183749614
 10
-16.8640587045
 20
0.1404111711
 10
-16.8737758195
 20
0.1648775719
 10
-16.8814042962
 20
0.1913781874
 10
-16.8868297556
 20
0.2197810252
 10
-16.8901665766
 20
0.2502180775
 10
-16.8914147593
 20
0.2826893445
  0
LINE
  5
275
100
AcDbEntity
  8
RACCORDO
100
AcDbLine
 62
250
  6
CONTINUOUS
 10
-16.822084767
 20
0.3026648157
 11
-16.8335435843
 21
0.3082839557
  0
LWPOLYLINE
  5
276
100
AcDbEntity
  8
RACCORDO
100
AcDbPolyline
 62
250
  6
CONTINUOUS
 90
8
 70
0
 10
-16.6082949617
 20
0.3063744365
 10
-16.6179676867
 20
0.3112664584
 10
-16.6323529329
 20
0.3163291797
 10
-16.647568531
 20
0.3193013281
 10
-16.6641600505
 20
0.3202051381
 10
-16.6823095367
 20
0.3187873244
 10
-16.7017079338
 20
0.3148104415
 10
-16.7222274157
 20
0.3080845122
  0
LINE
  5
277
100
AcDbEntity
  8
RACCORDO
100
AcDbLine
 62
250
  6
CONTINUOUS
 10
28.2929932824
 20
16.8446758371
 11
31.5867911475
 21
18.7464551391
  0
LINE
  5
278
100
AcDbEntity
  8
RACCORDO
100
AcDbLine
 62
250
  6
CONTINUOUS
 10
33.5662490872
 20
19.2060117163
 11
32.0467533681
 21
18.359298948
  0
LWPOLYLINE
  5
279
100
AcDbEntity
  8
RACCORDO
100
AcDbPolyline
 62
250
  6
CONTINUOUS
 90
9
 70
0
 10
-16.5440326661
 20
-13.7989423199
 10
-16.5304418531
 20
-13.7899257888
 10
-16.5185381016
 20
-13.7801463895
 10
-16.5084489523
 20
-13.7697089018
 10
-16.5002825032
 20
-13.7587251559
 10
-16.4941262524
 20
-13.7473128351
 10
-16.4900461596
 20
-13.7355942145
 10
-16.4880859404
 20
-13.7236948511
 10
-16.4879006593
 20
-13.718791323
  0
LWPOLYLINE
  5
27A
100
AcDbEntity
  8
RACCORDO
100
AcDbPolyline
 62
250
  6
CONTINUOUS
 90
33
 70
0
 10
-17.206345018
 20
-13.8315447425
 10
-17.2048074705
 20
-13.8306232065
 10
-17.2035914385
 20
-13.8296172894
 10
-17.2026966396
 20
-13.82852341
 10
-17.2021348927
 20
-13.8273434031
 10
-17.2018935657
 20
-13.8260681255
 10
-17.2019360563
 20
-13.8246797792
 10
-17.2022597175
 20
-13.8231666177
 10
-17.20286725
 20
-13.821538581
 10
-17.2037304483
 20
-13.8198124039
 10
-17.2048544058
 20
-13.817983536
 10
-17.2062338347
 20
-13.8160541234
 10
-17.2078248707
 20
-13.814050716
 10
-17.2096261331
 20
-13.8119747424
 10
-17.2116386094
 20
-13.8098220744
 10
-17.2138219884
 20
-13.8076110297
 10
-17.2161657414
 20
-13.8053491123
 10
-17.2186800453
 20
-13.8030266619
 10
-17.2213558959
 20
-13.8006371737
 10
-17.2241852417
 20
-13.7981855354
 10
-17.2271761655
 20
-13.7956661878
 10
-17.230344306
 20
-13.7930584063
 10
-17.2336789731
 20
-13.7903704492
 10
-17.2371913696
 20
-13.7875948879
 10
-17.2409306071
 20
-13.7846893531
 10
-17.2449023932
 20
-13.7816518333
 10
-17.2491024534
 20
-13.7784876268
 10
-17.2535657299
 20
-13.775167526
 10
-17.2583128429
 20
-13.7716816075
 10
-17.2633257423
 20
-13.768045652
 10
-17.2685821167
 20
-13.7642708488
 10
-17.2740834403
 20
-13.7603630032
 10
-17.2858071796
 20
-13.7521615737
  0
LINE
  5
27B
100
AcDbEntity
  8
RACCORDO
100
AcDbLine
 62
250
  6
CONTINUOUS
 10
34.0336312475
 20
18.396482069
 11
32.5406645278
 21
17.5038339456
  0
LINE
  5
27C
100
AcDbEntity
  8
RACCORDO
100
AcDbLine
 62
250
  6
CONTINUOUS
 10
29.3521998563
 20
15.0100762373
 11
32.6459977214
 21
16.9118555393
  0
LINE
  5
27D
100
AcDbEntity
  8
RACCORDO
100
AcDbLine
 62
250
  6
CONTINUOUS
 10
-18.5054383622
 20
-13.476032094
 11
-18.1419468373
 21
-13.266157339
  0
LINE
  5
27E
100
AcDbEntity
  8
RACCORDO
100
AcDbLine
 62
250
  6
CONTINUOUS
 10
-18.1519388195
 20
-14.0883112617
 11
-17.7884472946
 21
-13.8784365068
  0
LINE
  5
27F
100
AcDbEntity
  8
RACCORDO
100
AcDbLine
 62
250
  6
CONTINUOUS
 10
-16.5440326661
 20
-13.7989423199
 11
-16.8701944249
 21
-13.9872646783
  0
LINE
  5
280
100
AcDbEntity
  8
RACCORDO
100
AcDbLine
 62
250
  6
CONTINUOUS
 10
-18.1419468373
 20
-13.1240175302
 11
-17.6113822286
 21
-12.9336456736
  0
LINE
  5
281
100
AcDbEntity
  8
RACCORDO
100
AcDbLine
 62
250
  6
CONTINUOUS
 10
-17.6156178767
 20
-13.9782260466
 11
-17.2065264612
 21
-13.8314399795
  0
LWPOLYLINE
  5
282
100
AcDbEntity
  8
RACCORDO
100
AcDbPolyline
 62
250
  6
CONTINUOUS
 90
9
 70
0
 10
13.0831073198
 20
11.6175629085
 10
13.0842437857
 20
11.5928987667
 10
13.0876409926
 20
11.569811323
 10
13.0932625205
 20
11.5485479357
 10
13.1010481162
 20
11.5293364174
 10
13.1109143424
 20
11.5123825881
 10
13.1227554737
 20
11.4978680732
 10
13.1364446229
 20
11.4859483674
 10
13.1452321063
 20
11.4802418501
  0
LINE
  5
283
100
AcDbEntity
  8
RACCORDO
100
AcDbLine
 62
7
  6
CONTINUOUS
 10
13.5608386224
 20
10.7603986181
 11
13.5608386224
 21
-32.1596395559
  0
LINE
  5
284
100
AcDbEntity
  8
RACCORDO
100
AcDbLine
 62
250
  6
CONTINUOUS
 10
13.6487065881
 20
10.6379162401
 11
13.6487065881
 21
-32.2821219337
  0
LWPOLYLINE
  5
285
100
AcDbEntity
  8
RACCORDO
100
AcDbPolyline
 62
7
  6
CONTINUOUS
 90
9
 70
0
 10
13.560838633
 20
-32.1596855659
 10
13.5604095118
 20
-32.178941663
 10
13.5588936493
 20
-32.1996489807
 10
13.5564388383
 20
-32.218108922
 10
13.5532211424
 20
-32.234231768
 10
13.5495140276
 20
-32.247694026
 10
13.5457900729
 20
-32.2579797169
 10
13.5425722035
 20
-32.2649598245
 10
13.5420232891
 20
-32.2659927989
  0
LWPOLYLINE
  5
286
100
AcDbEntity
  8
RACCORDO
100
AcDbPolyline
 62
250
  6
CONTINUOUS
 90
25
 70
0
 10
13.6487065881
 20
-32.2821219337
 10
13.6474212063
 20
-32.3242037951
 10
13.6438550097
 20
-32.3642907816
 10
13.6380079982
 20
-32.4023828932
 10
13.6298415485
 20
-32.4385629193
 10
13.619394284
 20
-32.4727480705
 10
13.6067820744
 20
-32.5046899785
 10
13.5919739012
 20
-32.5344254667
 10
13.5750007829
 20
-32.5619177117
 10
13.5560716457
 20
-32.5868078753
 10
13.5351493993
 20
-32.6090616037
 10
13.512271134
 20
-32.6287132507
 10
13.4877570463
 20
-32.6455070385
 10
13.4616137391
 20
-32.6593937972
 10
13.4338346096
 20
-32.6704226967
 10
13.4047200461
 20
-32.6784854696
 10
13.3744269346
 20
-32.6836193818
 10
13.3427983891
 20
-32.6857871674
 10
13.3096641399
 20
-32.6847687614
 10
13.2748115416
 20
-32.6805900468
 10
13.2384532394
 20
-32.6732251407
 10
13.2010568996
 20
-32.6623763288
 10
13.1627784107
 20
-32.6479443731
 10
13.1234618841
 20
-32.6300285116
 10
13.0831073198
 20
-32.6086287443
  0
LWPOLYLINE
  5
287
100
AcDbEntity
  8
RACCORDO
100
AcDbPolyline
 62
250
  6
CONTINUOUS
 90
16
 70
0
 10
13.0831073198
 20
-32.6086287443
 10
13.0842437436
 20
-32.5826527303
 10
13.0876408392
 20
-32.5556427175
 10
13.0932622091
 20
-32.5278880994
 10
13.101047624
 20
-32.4996862476
 10
13.1109136688
 20
-32.4713393254
 10
13.1227546355
 20
-32.4431510503
 10
13.1364436565
 20
-32.4154234402
 10
13.1518340633
 20
-32.3884535773
 10
13.1687609584
 20
-32.3625304249
 10
13.1870429819
 20
-32.3379317317
 10
13.2064842546
 20
-32.3149210556
 10
13.2268764766
 20
-32.29374494
 10
13.2480011594
 20
-32.2746302723
 10
13.2696319668
 20
-32.257781853
 10
13.2915371396
 20
-32.2433802012
  0
LWPOLYLINE
  5
288
100
AcDbEntity
  8
RACCORDO
100
AcDbPolyline
 62
250
  6
CONTINUOUS
 90
16
 70
0
 10
-18.9259679077
 20
29.4461250374
 10
-18.9029026926
 20
29.4341198336
 10
-18.8778117613
 20
29.4235556537
 10
-18.8509639711
 20
29.4145456756
 10
-18.8226470023
 20
29.4071864236
 10
-18.7931642663
 20
29.401556732
 10
-18.7628316536
 20
29.3977169032
 10
-18.7319741676
 20
29.3957080639
 10
-18.7009224258
 20
29.3955517224
 10
-18.6700091072
 20
29.39724954
 10
-18.6395654243
 20
29.4007833142
 10
-18.6099175497
 20
29.4061151719
 10
-18.5813831068
 20
29.4131879817
 10
-18.5542678046
 20
29.4219259605
 10
-18.5288621597
 20
29.4322354808
 10
-18.5054383622
 20
29.4440060798
  0
LINE
  5
289
100
AcDbEntity
  8
RACCORDO
100
AcDbLine
 62
7
  6
CONTINUOUS
 10
-18.298243853
 20
29.6353107897
 11
13.1452321063
 21
11.4802418501
  0
LINE
  5
28A
100
AcDbEntity
  8
RACCORDO
100
AcDbLine
 62
250
  6
CONTINUOUS
 10
-18.3603686393
 20
29.772631848
 11
13.0831073198
 21
11.6175629085
  0
LWPOLYLINE
  5
28B
100
AcDbEntity
  8
RACCORDO
100
AcDbPolyline
 62
7
  6
CONTINUOUS
 90
24
 70
0
 10
13.1452697021
 20
11.4802201536
 10
13.1633618932
 20
11.4692248213
 10
13.1872862178
 20
11.4530577097
 10
13.2126204807
 20
11.4339740891
 10
13.2388533058
 20
11.4121021443
 10
13.2657002441
 20
11.3874654394
 10
13.2929026204
 20
11.3600966749
 10
13.3200160265
 20
11.3302678967
 10
13.3467641232
 20
11.2981427922
 10
13.3728897006
 20
11.2639014103
 10
13.3980203322
 20
11.227935584
 10
13.4219299274
 20
11.1905081812
 10
13.4444128391
 20
11.1518969941
 10
13.4651918921
 20
11.1125744421
 10
13.4841239376
 20
11.0728548038
 10
13.5010874717
 20
11.0330654927
 10
13.5159202028
 20
10.9937272109
 10
13.5285881473
 20
10.9551544041
 10
13.5390813628
 20
10.9176680459
 10
13.5473769161
 20
10.8817932183
 10
13.5535682566
 20
10.8477772613
 10
13.5577701793
 20
10.8158834703
 10
13.560118058
 20
10.7866236905
 10
13.5608386351
 20
10.7604489885
  0
LWPOLYLINE
  5
28C
100
AcDbEntity
  8
RACCORDO
100
AcDbPolyline
 62
250
  6
CONTINUOUS
 90
5
 70
0
 10
13.0831073198
 20
11.6175629085
 10
13.1201952079
 20
11.5946646436
 10
13.1566959457
 20
11.5694718185
 10
13.1926095331
 20
11.5419844334
 10
13.2280269837
 20
11.5121053413
  0
LWPOLYLINE
  5
28D
100
AcDbEntity
  8
RACCORDO
100
AcDbPolyline
 62
250
  6
CONTINUOUS
 90
9
 70
0
 10
13.6487065881
 20
10.6379162401
 10
13.627914666
 20
10.6512335491
 10
13.6096183627
 20
10.6657204862
 10
13.5940137104
 20
10.6812218338
 10
13.5812679022
 20
10.6975715058
 10
13.5715175004
 20
10.7145943268
 10
13.5648669739
 20
10.732107909
 10
13.5613875786
 20
10.7499246066
 10
13.5608386224
 20
10.7603986181
  0
LWPOLYLINE
  5
28E
100
AcDbEntity
  8
RACCORDO
100
AcDbPolyline
 62
250
  6
CONTINUOUS
 90
21
 70
0
 10
13.2280269837
 20
11.5121053413
 10
13.262857284
 20
11.479931689
 10
13.2968273932
 20
11.4457549177
 10
13.3299847133
 20
11.4095118419
 10
13.3622818422
 20
11.371265647
 10
13.393303534
 20
11.3314973303
 10
13.4230385833
 20
11.2901705346
 10
13.4514981953
 20
11.2473216171
 10
13.4783007392
 20
11.2035406459
 10
13.5034003293
 20
11.1588617387
 10
13.5268428513
 20
11.1132507779
 10
13.5483843312
 20
11.0671954783
 10
13.5679785924
 20
11.0209036522
 10
13.5856718114
 20
10.9741674874
 10
13.6013585433
 20
10.9268512621
 10
13.6151675372
 20
10.8786351045
 10
13.6269700439
 20
10.8298388866
 10
13.6362743716
 20
10.7812865018
 10
13.6429166228
 20
10.7332525814
 10
13.647060695
 20
10.6854624941
 10
13.6487065881
 20
10.6379162401
  0
LWPOLYLINE
  5
28F
100
AcDbEntity
  8
RACCORDO
100
AcDbPolyline
 62
250
  6
CONTINUOUS
 90
11
 70
0
 10
27.9579434466
 20
-54.4117003388
 10
27.9592006568
 20
-54.4453709923
 10
27.9629633463
 20
-54.4773504364
 10
27.9692047657
 20
-54.5074112306
 10
27.977880537
 20
-54.5353395787
 10
27.9889289686
 20
-54.5609368475
 10
28.0022714934
 20
-54.5840209798
 10
28.0178132296
 20
-54.6044277936
 10
28.0354436529
 20
-54.6220121452
 10
28.055037381
 20
-54.6366489622
 10
28.0614773207
 20
-54.6405644754
  0
LWPOLYLINE
  5
290
100
AcDbEntity
  8
RACCORDO
100
AcDbPolyline
 62
250
  6
CONTINUOUS
 90
11
 70
0
 10
-33.9413424821
 20
51.1680671771
 10
-33.9698747972
 20
51.1859931991
 10
-33.9956897255
 20
51.2052435524
 10
-34.0186036717
 20
51.2256813288
 10
-34.0384536722
 20
51.2471611753
 10
-34.0550985542
 20
51.2695303275
 10
-34.0684199395
 20
51.2926296964
 10
-34.0783230867
 20
51.3162949997
 10
-34.0847375647
 20
51.3403579302
 10
-34.087617754
 20
51.3646473528
 10
-34.0877890913
 20
51.3721966951
  0
LWPOLYLINE
  5
291
100
AcDbEntity
  8
RACCORDO
100
AcDbPolyline
 62
250
  6
CONTINUOUS
 90
28
 70
0
 10
29.3521998563
 20
15.0100762373
 10
29.3492472437
 20
15.0827580753
 10
29.3427615004
 20
15.156587772
 10
29.332874441
 20
15.231262532
 10
29.3197875031
 20
15.3061937138
 10
29.303610306
 20
15.3813869644
 10
29.2842383973
 20
15.4574829822
 10
29.261617403
 20
15.5345972942
 10
29.2358917506
 20
15.6121397436
 10
29.2071764554
 20
15.6897206683
 10
29.1755908864
 20
15.7670347961
 10
29.1412242342
 20
15.843890595
 10
29.1041712156
 20
15.9200680558
 10
29.0645335733
 20
15.9953511267
 10
29.0224555559
 20
16.0694671391
 10
28.9781097046
 20
16.1421173425
 10
28.9318343709
 20
16.2127903972
 10
28.8836048311
 20
16.2815558402
 10
28.8330043574
 20
16.3489350218
 10
28.7799717341
 20
16.4148540791
 10
28.7247991195
 20
16.4787882523
 10
28.6675592577
 20
16.5404999462
 10
28.6082943351
 20
16.5997763686
 10
28.5472887662
 20
16.6561774823
 10
28.4850098687
 20
16.7091556729
 10
28.4217631935
 20
16.7583684932
 10
28.3576801656
 20
16.8036281776
 10
28.2929932824
 20
16.8446758371
  0
LWPOLYLINE
  5
292
100
AcDbEntity
  8
RACCORDO
100
AcDbPolyline
 62
250
  6
CONTINUOUS
 90
28
 70
0
 10
28.6640811625
 20
15.0204801949
 10
28.6626989709
 20
15.0696877567
 10
28.6590899942
 20
15.1192360989
 10
28.6532542323
 20
15.1691252214
 10
28.6451688509
 20
15.2193302784
 10
28.6348566843
 20
15.2698761158
 10
28.6223862358
 20
15.3208372708
 10
28.6077204866
 20
15.3724346722
 10
28.5908964554
 20
15.4244473912
 10
28.5720937021
 20
15.4762871791
 10
28.5513013717
 20
15.527916503
 10
28.5285303192
 20
15.5793728957
 10
28.5039926684
 20
15.6301807069
 10
28.4776600485
 20
15.6803525804
 10
28.4495608304
 20
15.7298758722
 10
28.4199922511
 20
15.7782370007
 10
28.3890863019
 20
15.8252658218
 10
28.3567109915
 20
15.8711324794
 10
28.3227675832
 20
15.9158338237
 10
28.2871441271
 20
15.9595583442
 10
28.249952573
 20
16.0021175515
 10
28.2114300337
 20
16.042942827
 10
28.1714657277
 20
16.0820964119
 10
28.1301704365
 20
16.119516065
 10
28.088113617
 20
16.1544464441
 10
28.0454850884
 20
16.1866357684
 10
28.0020950316
 20
16.2163358186
 10
27.9579434466
 20
16.2435465947
  0
LINE
  5
293
100
AcDbEntity
  8
RACCORDO
100
AcDbLine
 62
250
  6
CONTINUOUS
 10
28.6640811625
 20
-54.0040640733
 11
28.6640811625
 21
15.0204801949
  0
LINE
  5
294
100
AcDbEntity
  8
RACCORDO
100
AcDbLine
 62
250
  6
CONTINUOUS
 10
29.3521998563
 20
-54.0144680309
 11
29.3521998563
 21
15.0100762373
  0
LWPOLYLINE
  5
295
100
AcDbEntity
  8
RACCORDO
100
AcDbPolyline
 62
250
  6
CONTINUOUS
 90
19
 70
0
 10
27.9579434466
 20
16.2435465947
 10
27.9592006793
 20
16.278669404
 10
27.9629634361
 20
16.3149942412
 10
27.9692049563
 20
16.3522627649
 10
27.9778808504
 20
16.390209922
 10
27.9889294154
 20
16.428565833
 10
28.0022720742
 20
16.4670577112
 10
28.0178139342
 20
16.5054118032
 10
28.0354444617
 20
16.5433553353
 10
28.0550382689
 20
16.5806184537
 10
28.0764560048
 20
16.6169361439
 10
28.0995453471
 20
16.6520501151
 10
28.1241420846
 20
16.6857106373
 10
28.1500712858
 20
16.7176783174
 10
28.1771485426
 20
16.747725802
 10
28.2051812822
 20
16.7756393938
 10
28.2339701361
 20
16.8012205718
 10
28.2633103586
 20
16.8242874032
 10
28.2929932824
 20
16.8446758371
  0
LWPOLYLINE
  5
296
100
AcDbEntity
  8
RACCORDO
100
AcDbPolyline
 62
250
  6
CONTINUOUS
 90
19
 70
0
 10
28.6640811625
 20
15.0204801949
 10
28.6951276129
 20
15.0040061584
 10
28.7284677266
 20
14.9891010542
 10
28.7638644025
 20
14.9758708918
 10
28.8010659124
 20
14.9644097693
 10
28.8398076893
 20
14.9547992048
 10
28.8798142078
 20
14.9471075557
 10
28.9208009495
 20
14.9413895321
 10
28.9624764211
 20
14.937685808
 10
29.0045442234
 20
14.9360227322
 10
29.0467051728
 20
14.9364121395
 10
29.0886594192
 20
14.9388512675
 10
29.1301085728
 20
14.9433227746
 10
29.1707578451
 20
14.9497948651
 10
29.2103181331
 20
14.9582215144
 10
29.2485080679
 20
14.968542794
 10
29.2850560341
 20
14.9806853004
 10
29.3197021
 20
14.9945626795
 10
29.3521998563
 20
15.0100762373
  0
LWPOLYLINE
  5
297
100
AcDbEntity
  8
RACCORDO
100
AcDbPolyline
 62
250
  6
CONTINUOUS
 90
28
 70
0
 10
-33.2352047662
 20
51.5757034425
 10
-33.2771299751
 20
51.5983145667
 10
-33.3182368178
 20
51.6178819894
 10
-33.3585252942
 20
51.6344057104
 10
-33.3979624683
 20
51.647840347
 10
-33.4365812762
 20
51.658231282
 10
-33.4744805261
 20
51.6657146642
 10
-33.5118330427
 20
51.6703475362
 10
-33.5484660013
 20
51.6720728554
 10
-33.5839597356
 20
51.6708556428
 10
-33.6182763123
 20
51.6666614625
 10
-33.6514536645
 20
51.6595247503
 10
-33.6831859262
 20
51.6495138347
 10
-33.7134698605
 20
51.636594088
 10
-33.7423087042
 20
51.6208001379
 10
-33.7694063008
 20
51.6023041961
 10
-33.7946812986
 20
51.5812116966
 10
-33.8182150493
 20
51.5574172053
 10
-33.8399554518
 20
51.530776632
 10
-33.8600097678
 20
51.501222644
 10
-33.8782707356
 20
51.4688225739
 10
-33.8943644691
 20
51.4336343301
 10
-33.9082894765
 20
51.3955291359
 10
-33.9200472496
 20
51.3546357678
 10
-33.9292683778
 20
51.3113984641
 10
-33.9358297241
 20
51.2659653041
 10
-33.9398544256
 20
51.2181882084
 10
-33.9413424821
 20
51.1680671771
  0
LINE
  5
298
100
AcDbEntity
  8
RACCORDO
100
AcDbLine
 62
250
  6
CONTINUOUS
 10
27.9579434466
 20
16.2435465947
 11
-33.2352047662
 21
51.5757034425
  0
LINE
  5
299
100
AcDbEntity
  8
RACCORDO
100
AcDbLine
 62
250
  6
CONTINUOUS
 10
28.2929932824
 20
16.8446758371
 11
-32.9001549304
 21
52.1768326849
  0
LWPOLYLINE
  5
29A
100
AcDbEntity
  8
RACCORDO
100
AcDbPolyline
 62
7
  6
CONTINUOUS
 90
19
 70
0
 10
34.0897632874
 20
18.4766994764
 10
34.088015177
 20
18.5244620467
 10
34.0828955528
 20
18.5725328586
 10
34.0745812051
 20
18.6206970089
 10
34.0632145011
 20
18.6688309764
 10
34.0489417688
 20
18.7167091748
 10
34.0319707739
 20
18.7639420336
 10
34.0125100964
 20
18.8102248151
 10
33.9906706408
 20
18.8554835848
 10
33.9665423976
 20
18.8996204956
 10
33.9402470382
 20
18.9424430077
 10
33.9119070288
 20
18.9837500911
 10
33.8815826009
 20
19.0234137566
 10
33.8493151912
 20
19.0612922007
 10
33.8152540146
 20
19.0970996927
 10
33.7795828076
 20
19.1305353478
 10
33.74240505
 20
19.1613862053
 10
33.7037741197
 20
19.1894626062
 10
33.6637857762
 20
19.2145197475
  0
LWPOLYLINE
  5
29B
100
AcDbEntity
  8
0
100
AcDbPolyline
 62
7
  6
CONTINUOUS
 90
28
 70
0
 10
32.6459977214
 20
16.9118555393
 10
32.6442305873
 20
16.9839675054
 10
32.638864013
 20
17.0580098592
 10
32.6299083095
 20
17.1337485854
 10
32.6173699656
 20
17.2110702057
 10
32.6012877093
 20
17.289599174
 10
32.5817846593
 20
17.3686815678
 10
32.5590244938
 20
17.4478304157
 10
32.5330731698
 20
17.5269899168
 10
32.5039390897
 20
17.6061438664
 10
32.4717171388
 20
17.6850444129
 10
32.4365217524
 20
17.7634153286
 10
32.3983550543
 20
17.8411964087
 10
32.3572033811
 20
17.9183315656
 10
32.3132954823
 20
17.9943331082
 10
32.2670307996
 20
18.0685097888
 10
32.2187019006
 20
18.1404416175
 10
32.168378801
 20
18.2100895795
 10
32.1161630205
 20
18.2773606413
 10
32.0622780536
 20
18.3419813952
 10
32.006858812
 20
18.4038007244
 10
31.9498542471
 20
18.4628774715
 10
31.8912667413
 20
18.5191384127
 10
31.8314447096
 20
18.5721860474
 10
31.7708592589
 20
18.6216103805
 10
31.709803482
 20
18.667191201
 10
31.6483817421
 20
18.7088506399
 10
31.5867911475
 20
18.7464551391
  0
LINE
  5
29C
100
AcDbEntity
  8
0
100
AcDbLine
 62
7
  6
CONTINUOUS
 10
32.6459977214
 20
-52.4914748205
 11
32.6459977214
 21
16.9118555393
  0
LINE
  5
29D
100
AcDbEntity
  8
RACCORDO
100
AcDbLine
 62
250
  6
CONTINUOUS
 10
34.0336312475
 20
18.396482069
 11
34.0336312475
 21
-51.0001300192
  0
LINE
  5
29E
100
AcDbEntity
  8
RACCORDO
100
AcDbLine
 62
7
  6
CONTINUOUS
 10
34.0897632874
 20
18.4766994764
 11
34.0897632874
 21
-50.9199126118
  0
LWPOLYLINE
  5
29F
100
AcDbEntity
  8
RACCORDO
100
AcDbPolyline
 62
250
  6
CONTINUOUS
 90
9
 70
0
 10
34.0897632874
 20
18.4766994764
 10
34.0895779732
 20
18.4717295379
 10
34.087617754
 20
18.4598301744
 10
34.0835376612
 20
18.4481115539
 10
34.0773814103
 20
18.4366992331
 10
34.0692149613
 20
18.4257154872
 10
34.0591258119
 20
18.4152779994
 10
34.0472220605
 20
18.4054986002
 10
34.0336312475
 20
18.396482069
  0
LINE
  5
2A0
100
AcDbEntity
  8
RACCORDO
100
AcDbLine
 62
250
  6
CONTINUOUS
 10
13.2915371396
 20
-32.2433802012
 11
13.5608386224
 21
-32.0768401246
  0
LINE
  5
2A1
100
AcDbEntity
  8
RACCORDO
100
AcDbLine
 62
7
  6
CONTINUOUS
 10
13.5443358102
 20
-32.2665050239
 11
13.5442389422
 21
-32.2665648829
  0
LWPOLYLINE
  5
2A2
100
AcDbEntity
  8
RACCORDO
100
AcDbPolyline
 62
250
  6
CONTINUOUS
 90
13
 70
0
 10
13.5442389422
 20
-32.2665648829
 10
13.5265834647
 20
-32.2760500893
 10
13.5092977608
 20
-32.2829081913
 10
13.4911227489
 20
-32.287920254
 10
13.4722218389
 20
-32.2910529283
 10
13.4525901514
 20
-32.2923171433
 10
13.4319833255
 20
-32.2916800089
 10
13.4103293895
 20
-32.2890317397
 10
13.3878168686
 20
-32.2842881071
 10
13.3645772544
 20
-32.2773919784
 10
13.3407216341
 20
-32.2683005179
 10
13.3163369073
 20
-32.2569717178
 10
13.2915372691
 20
-32.2433801211
  0
LWPOLYLINE
  5
2A3
100
AcDbEntity
  8
RACCORDO
100
AcDbPolyline
 62
250
  6
CONTINUOUS
 90
16
 70
0
 10
-32.9001549304
 20
52.1768326849
 10
-32.9637291497
 20
52.2101302514
 10
-33.0263832921
 20
52.2388170088
 10
-33.0879134805
 20
52.2629274429
 10
-33.1478929641
 20
52.2824477467
 10
-33.2063946478
 20
52.2975465872
 10
-33.2639479232
 20
52.3084090198
 10
-33.3206117625
 20
52.3150063112
 10
-33.3759288553
 20
52.3172411824
 10
-33.429628219
 20
52.3150899749
 10
-33.4815009572
 20
52.3085699056
 10
-33.5314162491
 20
52.2977084261
 10
-33.5792361703
 20
52.2825352663
 10
-33.62482413
 20
52.2630890389
 10
-33.6680101151
 20
52.2394381392
 10
-33.694162476
 20
52.2222423579
  0
LWPOLYLINE
  5
2A4
100
AcDbEntity
  8
RACCORDO
100
AcDbPolyline
 62
250
  6
CONTINUOUS
 90
9
 70
0
 10
33.6637857762
 20
19.2145197475
 10
33.6593844715
 20
19.2168465393
 10
33.6480998747
 20
19.2210974715
 10
33.635911859
 20
19.2234221853
 10
33.6229510106
 20
19.2237957732
 10
33.6093561959
 20
19.2222142324
 10
33.595273074
 20
19.218694508
 10
33.5808525357
 20
19.2132743114
 10
33.5662490872
 20
19.2060117163
  0
LWPOLYLINE
  5
2A5
100
AcDbEntity
  8
0
100
AcDbPolyline
 62
7
  6
CONTINUOUS
 90
16
 70
0
 10
-29.9344060115
 20
54.268023337
 10
-29.9959406828
 20
54.301512242
 10
-30.0573890684
 20
54.3307951827
 10
-30.1185317339
 20
54.3557573674
 10
-30.1792388433
 20
54.3763313248
 10
-30.2391976723
 20
54.39238121
 10
-30.2979320689
 20
54.4037742578
 10
-30.3551002899
 20
54.4105021433
 10
-30.4106741295
 20
54.4126247397
 10
-30.4646605308
 20
54.4101557568
 10
-30.5168824498
 20
54.4031025328
 10
-30.5671513397
 20
54.3914883378
 10
-30.6154314418
 20
54.3752949764
 10
-30.6616663145
 20
54.3544740835
 10
-30.7055316461
 20
54.3291025352
 10
-30.7217060872
 20
54.3181629753
  0
LINE
  5
2A6
100
AcDbEntity
  8
0
100
AcDbLine
 62
7
  6
CONTINUOUS
 10
31.5867911475
 20
18.7464551391
 11
-29.9344060115
 21
54.268023337
  0
LINE
  5
2A7
100
AcDbEntity
  8
RACCORDO
100
AcDbLine
 62
250
  6
CONTINUOUS
 10
-27.9491296905
 20
54.7242204538
 11
33.5662490872
 21
19.2060117163
  0
LINE
  5
2A8
100
AcDbEntity
  8
RACCORDO
100
AcDbLine
 62
7
  6
CONTINUOUS
 10
-27.8515930015
 20
54.732728485
 11
33.6637857762
 21
19.2145197475
  0
LWPOLYLINE
  5
2A9
100
AcDbEntity
  8
RACCORDO
100
AcDbPolyline
 62
250
  6
CONTINUOUS
 90
4
 70
0
 10
33.5662490872
 20
19.2060117163
 10
33.6011765958
 20
19.1843359868
 10
33.635908777
 20
19.1597634282
 10
33.6702513944
 20
19.1324314599
  0
LWPOLYLINE
  5
2AA
100
AcDbEntity
  8
RACCORDO
100
AcDbPolyline
 62
250
  6
CONTINUOUS
 90
12
 70
0
 10
34.0336312475
 20
-51.0001300192
 10
34.0323243524
 20
-51.0397049481
 10
34.0284109759
 20
-51.0775493898
 10
34.0219130026
 20
-51.1134517028
 10
34.0128667715
 20
-51.1472111069
 10
34.0013228726
 20
-51.1786388051
 10
33.9873458642
 20
-51.2075590395
 10
33.9710139116
 20
-51.2338100763
 10
33.9524183497
 20
-51.2572451092
 10
33.931663173
 20
-51.2777330794
 10
33.9088644537
 20
-51.2951594096
 10
33.9008076772
 20
-51.3002855134
  0
LWPOLYLINE
  5
2AB
100
AcDbEntity
  8
RACCORDO
100
AcDbPolyline
 62
7
  6
CONTINUOUS
 90
13
 70
0
 10
-27.8515930015
 20
54.732728485
 10
-27.8909639839
 20
54.7536025445
 10
-27.9300822479
 20
54.7707300756
 10
-27.9688075214
 20
54.7842017358
 10
-28.0070541703
 20
54.7941219345
 10
-28.0446606963
 20
54.8005721007
 10
-28.0813354438
 20
54.803643742
 10
-28.1167287801
 20
54.8034931643
 10
-28.1508770211
 20
54.8003086784
 10
-28.1839856651
 20
54.794188846
 10
-28.2159770994
 20
54.785206516
 10
-28.2465484572
 20
54.7735156431
 10
-28.275530883
 20
54.7592774831
  0
LWPOLYLINE
  5
2AC
100
AcDbEntity
  8
RACCORDO
100
AcDbPolyline
 62
250
  6
CONTINUOUS
 90
19
 70
0
 10
33.6702513944
 20
19.1324314599
 10
33.7040123906
 20
19.1024929324
 10
33.7370029598
 20
19.0701152743
 10
33.769038604
 20
19.0354795557
 10
33.7999401667
 20
18.9987794738
 10
33.8295348339
 20
18.9602202702
 10
33.8576570995
 20
18.9200175849
 10
33.8841496917
 20
18.8783962488
 10
33.9088644543
 20
18.8355890244
 10
33.9316631736
 20
18.7918353044
 10
33.9524183505
 20
18.747379776
 10
33.9710139125
 20
18.7024710537
 10
33.9873458652
 20
18.6573602868
 10
34.0013228736
 20
18.6122997529
 10
34.0128667725
 20
18.567541449
 10
34.0219130033
 20
18.5233356841
 10
34.0284109763
 20
18.4799296753
 10
34.0323243526
 20
18.4375661657
 10
34.0336312475
 20
18.396482069
  0
LWPOLYLINE
  5
2AD
100
AcDbEntity
  8
RACCORDO
100
AcDbPolyline
 62
250
  6
CONTINUOUS
 90
8
 70
0
 10
34.0895779732
 20
-50.9248825503
 10
34.087617754
 20
-50.9367819137
 10
34.0835376612
 20
-50.9485005343
 10
34.0773814104
 20
-50.9599128551
 10
34.0692149613
 20
-50.970896601
 10
34.059125812
 20
-50.9813340888
 10
34.0472220605
 20
-50.991113488
 10
34.0336312475
 20
-51.0001300192
  0
LWPOLYLINE
  5
2AE
100
AcDbEntity
  8
RACCORDO
100
AcDbPolyline
 62
250
  6
CONTINUOUS
 90
8
 70
0
 10
-27.8559943063
 20
54.7350552769
 10
-27.8672789031
 20
54.739306209
 10
-27.8794669188
 20
54.7416309228
 10
-27.8924277672
 20
54.7420045107
 10
-27.9060225819
 20
54.7404229699
 10
-27.9201057038
 20
54.7369032455
 10
-27.934526242
 20
54.7314830489
 10
-27.9491296905
 20
54.7242204538
  0
LWPOLYLINE
  5
2AF
100
AcDbEntity
  8
RACCORDO
100
AcDbPolyline
 62
7
  6
CONTINUOUS
 90
13
 70
0
 10
33.9008076772
 20
-51.3002855134
 10
33.9273679571
 20
-51.2824958096
 10
33.9526300311
 20
-51.2620345178
 10
33.9763561525
 20
-51.2389421128
 10
33.9982605075
 20
-51.2133594856
 10
34.0182002518
 20
-51.1853157614
 10
34.0361315519
 20
-51.1546400869
 10
34.0519046876
 20
-51.1212002156
 10
34.0651998342
 20
-51.0852231384
 10
34.0757623679
 20
-51.0470128004
 10
34.0834522721
 20
-51.0067120474
 10
34.0881631909
 20
-50.9643186222
 10
34.0897632874
 20
-50.9199126118
  0
LINE
  5
2B0
100
AcDbEntity
  8
DRAFT
100
AcDbLine
 62
7
  6
CONTINUOUS
 10
33.9008076772
 20
-51.3002855134
 11
32.6459977214
 21
-52.0610145344
  0
LINE
  5
2B1
100
AcDbEntity
  8
RACCORDO
100
AcDbLine
 62
250
  6
CONTINUOUS
 10
34.0336312475
 20
-51.0001300192
 11
32.6459977214
 21
-51.8297991918
  0
LWPOLYLINE
  5
2B2
100
AcDbEntity
  8
0
100
AcDbPolyline
 62
7
  6
CONTINUOUS
 90
16
 70
0
 10
32.2958089988
 20
-53.1982680085
 10
32.3140419106
 20
-53.1893854734
 10
32.3579072265
 20
-53.1640139341
 10
32.3990136084
 20
-53.1343170769
 10
32.4371436213
 20
-53.1005269806
 10
32.4722984876
 20
-53.0627251793
 10
32.5044483993
 20
-53.0209923102
 10
32.5334683291
 20
-52.9755235992
 10
32.5592948648
 20
-52.9264518364
 10
32.5819534397
 20
-52.8737121056
 10
32.6013818298
 20
-52.8172837851
 10
32.6174100029
 20
-52.757474475
 10
32.6299184562
 20
-52.6947275543
 10
32.6388630364
 20
-52.6293632339
 10
32.6442284926
 20
-52.5615316372
 10
32.6459977214
 20
-52.4914748205
  0
LWPOLYLINE
  5
2B3
100
AcDbEntity
  8
RACCORDO
100
AcDbPolyline
 62
250
  6
CONTINUOUS
 90
16
 70
0
 10
28.9945872
 20
-54.7246934817
 10
29.0024475488
 20
-54.7209636949
 10
29.045594926
 20
-54.6973350868
 10
29.0863387997
 20
-54.6695026344
 10
29.1244055146
 20
-54.6377008963
 10
29.1598429309
 20
-54.6019389525
 10
29.1928941814
 20
-54.5618729838
 10
29.2234646855
 20
-54.5173573488
 10
29.251246066
 20
-54.4685484301
 10
29.276068929
 20
-54.4154376514
 10
29.2977700801
 20
-54.3579781411
 10
29.3161106443
 20
-54.2963515312
 10
29.3308500398
 20
-54.2309624524
 10
29.3418444799
 20
-54.1620936597
 10
29.3489970691
 20
-54.0898545305
 10
29.3521998563
 20
-54.0144680309
  0
LINE
  5
2B4
100
AcDbEntity
  8
RACCORDO
100
AcDbLine
 62
250
  6
CONTINUOUS
 10
29.3521998563
 20
-54.0144680309
 11
32.6459977214
 21
-52.4914748205
  0
LINE
  5
2B5
100
AcDbEntity
  8
RACCORDO
100
AcDbLine
 62
7
  6
CONTINUOUS
 10
28.9940189778
 20
-54.7249566488
 11
32.2958089898
 21
-53.1982680126
  0
ELLIPSE
  5
2B6
100
AcDbEntity
  8
RACCORDO
100
AcDbEllipse
 62
7
  6
CONTINUOUS
 10
-17.7883395906
 20
-13.4702013697
 30
0.0
 11
-0.2500120911
 21
0.4330057209
 31
0.0
 40
0.5775075436
 41
0.7855021057
 42
2.355993846
  0
ENDSEC
  0
SECTION
  2
OBJECTS
  0
DICTIONARY
  5
C
100
AcDbDictionary
280
0
281
1
  3
ACAD_GROUP
350
D
  3
ACAD_MLINESTYLE
350
17
  3
ACAD_LAYOUT
350
1A
  3
ACAD_PLOTSETTINGS
350
19
  3
ACAD_PLOTSTYLENAME
350
E
  0
DICTIONARY
  5
D
102
{ACAD_REACTORS
330
C
102
}
100
AcDbDictionary
280
0
281
1
  0
ACDBDICTIONARYWDFLT
  5
E
102
{ACAD_REACTORS
330
C
102
}
100
AcDbDictionary
281
1
  3
Normal
350
F
100
AcDbDictionaryWithDefault
340
F
  0
DICTIONARY
  5
17
102
{ACAD_REACTORS
330
C
102
}
100
AcDbDictionary
280
0
281
1
  3
Standard
350
18
  0
DICTIONARY
  5
19
102
{ACAD_REACTORS
330
C
102
}
100
AcDbDictionary
281
1
  0
DICTIONARY
  5
1A
102
{ACAD_REACTORS
330
C
102
}
100
AcDbDictionary
281
1
  3
Model
350
2B7
  3
Layout1
350
2B8
  0
ACDBPLACEHOLDER
  5
F
102
{ACAD_REACTORS
330
E
102
}
  0
MLINESTYLE
  5
18
102
{ACAD_REACTORS
330
17
102
}
100
AcDbMlineStyle
  2
STANDARD
 70
0
  3

 62
256
 51
90.0
 52
90.0
 71
2
 49
0.5
 62
256
  6
BYLAYER
 49
-0.5
 62
256
  6
BYLAYER
  0
LAYOUT
  5
2B7
102
{ACAD_REACTORS
330
1A
102
}
100
AcDbPlotSettings
  1

  2
none_device
  4
ISO_A4_(297.00_x_210.00_MM)
  6

 40
0.0
 41
0.0
 42
0.0
 43
0.0
 44
297.0
 45
210.0
 46
0.0
 47
0.0
 48
0.0
 49
0.0
140
0.0
141
0.0
142
1.0
143
1.0
 70
1024
 72
1
 73
0
 74
0
  7

 75
0
147
1.0
148
0.0
149
0.0
100
AcDbLayout
  1
Model
 70
0
 71
0
 10
0.0
 20
0.0
 11
297.0
 21
210.0
 12
0.0
 22
0.0
 32
0.0
 14
0.0
 24
0.0
 34
0.0
 15
0.0
 25
0.0
 35
0.0
146
0.0
 13
0.0
 23
0.0
 33
0.0
 16
1.0
 26
0.0
 36
0.0
 17
0.0
 27
1.0
 37
0.0
 76
0
330
214
345
0
346
0
  0
LAYOUT
  5
2B8
102
{ACAD_REACTORS
330
1A
102
}
100
AcDbPlotSettings
  1

  2
none_device
  4
ISO_A4_(297.00_x_210.00_MM)
  6

 40
0.0
 41
0.0
 42
0.0
 43
0.0
 44
297.0
 45
210.0
 46
0.0
 47
0.0
 48
0.0
 49
0.0
140
0.0
141
0.0
142
1.0
143
1.0
 70
0
 72
1
 73
0
 74
0
  7

 75
0
147
1.0
148
0.0
149
0.0
100
AcDbLayout
  1
Layout1
 70
0
 71
1
 10
0.0
 20
0.0
 11
297.0
 21
210.0
 12
0.0
 22
0.0
 32
0.0
 14
0.0
 24
0.0
 34
0.0
 15
0.0
 25
0.0
 35
0.0
146
0.0
 13
0.0
 23
0.0
 33
0.0
 16
1.0
 26
0.0
 36
0.0
 17
0.0
 27
1.0
 37
0.0
 76
0
330
215
345
0
346
0
  0
ENDSEC
  0
EOF
