  0
SECTION
  2
HEADER
  9
$ACADVER
  1
AC1024
  9
$DWGCODEPAGE
  3
ANSI_1252
  9
$EXTMAX
 10
420.0
 20
297.0
 30
0.0
  9
$EXTMIN
 10
0.0
 20
-0.0
 30
0.0
  9
$LIMMIN
 10
0.0
 20
-0.0
  9
$LIMMAX
 10
420.0
 20
297.0
  9
$VIEWCTR
 10
210.0
 20
148.5
  9
$VIEWSIZE
 40
297.0
  9
$CLAYER
  8
0
  9
$LTSCALE
 40
23.1
  9
$CELTYPE
  6
BYLAYER
  9
$DIMSCALE
 40
1.0
  9
$DIMASZ
 40
3.0
  9
$DIMEXO
 40
0.5
  9
$DIMDLI
 40
15.96
  9
$DIMEXE
 40
1.5
  9
$DIMCEN
 40
3.78
  9
$DIMLFAC
 40
1.0
  9
$DIMBLK
  1
_FILLED
  9
$DIMALT
 70
0
  9
$DIMALTF
 40
0.0393700787
  9
$DIMTXT
 40
3.0
  9
$DIMTOL
 70
1
  9
$DIMLIM
 70
0
  9
$DIMTFAC
 40
1.0
  9
$DIMTP
 40
0.01
  9
$DIMTM
 40
0.01
  9
$DIMGAP
 40
0.625
  9
$DIMDSEP
 70
44
  9
$AUNITS
 70
0
  9
$PDMODE
 70
3
  9
$PDSIZE
 40
3.0
  9
$HANDSEED
  5
3DB
  9
$TILEMODE
 70
1
  9
$MEASUREMENT
 70
1
  9
$INSUNITS
 70
4
  0
ENDSEC
  0
SECTION
  2
CLASSES
  0
CLASS
  1
ACDBDICTIONARYWDFLT
  2
AcDbDictionaryWithDefault
  3
AutoCAD 2000
 90
0
 91
1
280
0
281
0
  0
CLASS
  1
ACDBPLACEHOLDER
  2
AcDbPlaceHolder
  3
AutoCAD 2000
 90
0
 91
1
280
0
281
0
  0
CLASS
  1
LAYOUT
  2
AcDbLayout
  3
AutoCAD 2000
 90
0
 91
0
280
0
281
0
  0
ENDSEC
  0
SECTION
  2
TABLES
  0
TABLE
  2
VPORT
  5
8
100
AcDbSymbolTable
 70
2
  0
VPORT
  5
1F4
100
AcDbSymbolTableRecord
100
AcDbViewportTableRecord
  2
*ACTIVE
 70
0
 10
0.0
 20
0.0
 11
1.0
 21
1.0
 12
210.0
 22
148.5
 13
0.0
 23
0.0
 14
1.0
 24
1.0
 15
0.0
 25
0.0
 16
0.0
 26
0.0
 36
1.0
 17
0.0
 27
0.0
 37
0.0
 40
297.0
 41
1.4141414141
 42
50.0
 43
0.0
 44
0.0
 50
0.0
 51
0.0
 71
0
 72
100
 73
1
 74
1
 75
0
 76
0
 77
0
 78
0
  0
ENDTAB
  0
TABLE
  2
LTYPE
  5
5
100
AcDbSymbolTable
 70
6
  0
LTYPE
  5
14
100
AcDbSymbolTableRecord
100
AcDbLinetypeTableRecord
  2
BYBLOCK
 70
0
  3

 72
65
 73
0
 40
0.0
  0
LTYPE
  5
15
100
AcDbSymbolTableRecord
100
AcDbLinetypeTableRecord
  2
BYLAYER
 70
0
  3

 72
65
 73
0
 40
0.0
  0
LTYPE
  5
16
100
AcDbSymbolTableRecord
100
AcDbLinetypeTableRecord
  2
CONTINUOUS
 70
64
  3
Solid line
 72
65
 73
0
 40
0.0
  0
LTYPE
  5
1F5
100
AcDbSymbolTableRecord
100
AcDbLinetypeTableRecord
  2
CENTER
 70
64
  3
____ _ ____ _ ____ _ ____ _ ____ _ ____ _ ____
 72
65
 73
4
 40
0.6
 49
0.375
 74
0
 49
-0.075
 74
0
 49
0.075
 74
0
 49
-0.075
 74
0
  0
LTYPE
  5
1F6
100
AcDbSymbolTableRecord
100
AcDbLinetypeTableRecord
  2
HIDDEN
 70
64
  3
- - - - - - - - - - - - - - - - - - - -
 72
65
 73
2
 40
0.2
 49
0.1
 74
0
 49
-0.1
 74
0
  0
LTYPE
  5
1F7
100
AcDbSymbolTableRecord
100
AcDbLinetypeTableRecord
  2
PHANTOM
 70
64
  3
_____ _ _ _____ _ _ _____ _ _ _____
 72
65
 73
6
 40
0.8
 49
0.45
 74
0
 49
-0.05
 74
0
 49
0.1
 74
0
 49
-0.05
 74
0
 49
0.1
 74
0
 49
-0.05
 74
0
  0
LTYPE
  5
1F8
100
AcDbSymbolTableRecord
100
AcDbLinetypeTableRecord
  2
DOT
 70
64
  3
. . . . . . . . . . . . . . . . . . . .
 72
65
 73
2
 40
0.2
 49
0.1
 74
0
 49
-0.1
 74
0
  0
LTYPE
  5
1F9
100
AcDbSymbolTableRecord
100
AcDbLinetypeTableRecord
  2
DASHED
 70
64
  3
- - - - - - - - - - - - - - - - - - - -
 72
65
 73
2
 40
0.2
 49
0.1
 74
0
 49
-0.1
 74
0
  0
ENDTAB
  0
TABLE
  2
LAYER
  5
2
100
AcDbSymbolTable
 70
36
  0
LAYER
  5
10
100
AcDbSymbolTableRecord
100
AcDbLayerTableRecord
  2
0
 70
0
 62
7
  6
CONTINUOUS
370
-3
390
F
  0
LAYER
  5
1FA
100
AcDbSymbolTableRecord
100
AcDbLayerTableRecord
  2
DEFAULT_1
 70
0
 62
7
  6
CENTER
370
-3
390
F
  0
LAYER
  5
1FB
100
AcDbSymbolTableRecord
100
AcDbLayerTableRecord
  2
DEFAULT_2
 70
0
 62
7
  6
HIDDEN
370
-3
390
F
  0
LAYER
  5
1FC
100
AcDbSymbolTableRecord
100
AcDbLayerTableRecord
  2
DEFAULT_3
 70
0
 62
7
  6
PHANTOM
370
-3
390
F
  0
LAYER
  5
1FD
100
AcDbSymbolTableRecord
100
AcDbLayerTableRecord
  2
ASSI
 70
0
 62
7
  6
CONTINUOUS
370
-3
390
F
  0
LAYER
  5
1FE
100
AcDbSymbolTableRecord
100
AcDbLayerTableRecord
  2
COORDINATE
 70
0
 62
7
  6
CONTINUOUS
370
-3
390
F
  0
LAYER
  5
1FF
100
AcDbSymbolTableRecord
100
AcDbLayerTableRecord
  2
COPY_PUBLISH
 70
0
 62
7
  6
CONTINUOUS
370
-3
390
F
  0
LAYER
  5
200
100
AcDbSymbolTableRecord
100
AcDbLayerTableRecord
  2
COSMETICI
 70
0
 62
7
  6
CONTINUOUS
370
-3
390
F
  0
LAYER
  5
201
100
AcDbSymbolTableRecord
100
AcDbLayerTableRecord
  2
CURVE
 70
0
 62
7
  6
CONTINUOUS
370
-3
390
F
  0
LAYER
  5
202
100
AcDbSymbolTableRecord
100
AcDbLayerTableRecord
  2
DRAFT
 70
0
 62
7
  6
CONTINUOUS
370
-3
390
F
  0
LAYER
  5
203
100
AcDbSymbolTableRecord
100
AcDbLayerTableRecord
  2
IMPORT_IGES
 70
0
 62
7
  6
CONTINUOUS
370
-3
390
F
  0
LAYER
  5
204
100
AcDbSymbolTableRecord
100
AcDbLayerTableRecord
  2
INTF_1
 70
0
 62
7
  6
CONTINUOUS
370
-3
390
F
  0
LAYER
  5
205
100
AcDbSymbolTableRecord
100
AcDbLayerTableRecord
  2
INTF_11
 70
0
 62
7
  6
CONTINUOUS
370
-3
390
F
  0
LAYER
  5
206
100
AcDbSymbolTableRecord
100
AcDbLayerTableRecord
  2
INTF_13
 70
0
 62
7
  6
CONTINUOUS
370
-3
390
F
  0
LAYER
  5
207
100
AcDbSymbolTableRecord
100
AcDbLayerTableRecord
  2
INTF_2
 70
0
 62
7
  6
CONTINUOUS
370
-3
390
F
  0
LAYER
  5
208
100
AcDbSymbolTableRecord
100
AcDbLayerTableRecord
  2
INTF_8
 70
0
 62
7
  6
CONTINUOUS
370
-3
390
F
  0
LAYER
  5
209
100
AcDbSymbolTableRecord
100
AcDbLayerTableRecord
  2
NOTE
 70
0
 62
7
  6
CONTINUOUS
370
-3
390
F
  0
LAYER
  5
20A
100
AcDbSymbolTableRecord
100
AcDbLayerTableRecord
  2
PIANI
 70
0
 62
7
  6
CONTINUOUS
370
-3
390
F
  0
LAYER
  5
20B
100
AcDbSymbolTableRecord
100
AcDbLayerTableRecord
  2
PUNTI
 70
0
 62
7
  6
CONTINUOUS
370
-3
390
F
  0
LAYER
  5
20C
100
AcDbSymbolTableRecord
100
AcDbLayerTableRecord
  2
RACCORDO
 70
0
 62
7
  6
CONTINUOUS
370
-3
390
F
  0
LAYER
  5
20D
100
AcDbSymbolTableRecord
100
AcDbLayerTableRecord
  2
RGB____0____0____0__
 70
0
 62
7
  6
CONTINUOUS
370
-3
390
F
  0
LAYER
  5
20E
100
AcDbSymbolTableRecord
100
AcDbLayerTableRecord
  2
SIMBOLI
 70
0
 62
7
  6
CONTINUOUS
370
-3
390
F
  0
LAYER
  5
20F
100
AcDbSymbolTableRecord
100
AcDbLayerTableRecord
  2
SMUSSO
 70
0
 62
7
  6
CONTINUOUS
370
-3
390
F
  0
LAYER
  5
210
100
AcDbSymbolTableRecord
100
AcDbLayerTableRecord
  2
SUPERFICI
 70
0
 62
7
  6
CONTINUOUS
370
-3
390
F
  0
LAYER
  5
211
100
AcDbSymbolTableRecord
100
AcDbLayerTableRecord
  2
TRASH
 70
0
 62
7
  6
CONTINUOUS
370
-3
390
F
  0
ENDTAB
  0
TABLE
  2
STYLE
  5
3
100
AcDbSymbolTable
 70
1
  0
STYLE
  5
11
100
AcDbSymbolTableRecord
100
AcDbTextStyleTableRecord
  2
STANDARD
 70
0
 40
0.0
 41
0.8
 50
0.0
 71
0
 42
0.2
  3
txt
  4

  0
STYLE
  5
212
100
AcDbSymbolTableRecord
100
AcDbTextStyleTableRecord
  2
TEXTSTYLE_1
 70
0
 40
0.0
 41
0.8
 50
0.0
 71
0
 42
0.2
  3
gdt
  4

  0
ENDTAB
  0
TABLE
  2
VIEW
  5
6
100
AcDbSymbolTable
 70
0
  0
ENDTAB
  0
TABLE
  2
UCS
  5
7
100
AcDbSymbolTable
 70
0
  0
ENDTAB
  0
TABLE
  2
APPID
  5
9
100
AcDbSymbolTable
 70
1
  0
APPID
  5
213
100
AcDbSymbolTableRecord
100
AcDbRegAppTableRecord
  2
ACAD
 70
0
  0
ENDTAB
  0
TABLE
  2
BLOCK_RECORD
  5
1
100
AcDbSymbolTable
 70
0
  0
BLOCK_RECORD
  5
214
100
AcDbSymbolTableRecord
100
AcDbBlockTableRecord
  2
*Model_Space
  0
BLOCK_RECORD
  5
215
100
AcDbSymbolTableRecord
100
AcDbBlockTableRecord
  2
*Paper_Space
  0
BLOCK_RECORD
  5
216
100
AcDbSymbolTableRecord
100
AcDbBlockTableRecord
  2
_FILLED
  0
ENDTAB
  0
TABLE
  2
DIMSTYLE
  5
A
100
AcDbSymbolTable
 70
1
100
AcDbDimStyleTable
 71
0
  0
DIMSTYLE
105
217
100
AcDbSymbolTableRecord
100
AcDbDimStyleTableRecord
  2
STANDARD
 70
0
  3

  4

 40
1.0
 41
3.0
 42
0.5
 43
0.38
 44
1.5
 45
0.0
 46
0.0
 47
0.01
 48
0.01
140
3.0
141
0.09
142
0.0
143
25.4
144
1.0
145
0.0
146
1.0
147
0.625
 71
1
 72
0
 73
0
 74
0
 75
0
 76
0
 77
1
 78
8
 79
2
170
0
171
1
172
0
173
0
174
0
175
0
176
0
177
0
178
0
270
2
179
2
271
2
272
2
273
2
274
2
275
0
280
0
281
0
282
0
283
1
284
8
285
0
286
0
287
3
288
0
340
11
278
44
341
216
342
216
343
216
344
216
  0
ENDTAB
  0
ENDSEC
  0
SECTION
  2
BLOCKS
  0
BLOCK
  5
20
100
AcDbEntity
  8
0
100
AcDbBlockBegin
  2
*Model_Space
 70
0
 10
0.0
 20
0.0
 30
0.0
  3
*Model_Space
  1

  0
ENDBLK
  5
21
100
AcDbEntity
  8
0
100
AcDbBlockEnd
  0
BLOCK
  5
1C
100
AcDbEntity
  8
0
100
AcDbBlockBegin
  2
*Paper_Space
 70
0
 10
0.0
 20
0.0
 30
0.0
  3
*Paper_Space
  1

  0
ENDBLK
  5
1D
100
AcDbEntity
  8
0
100
AcDbBlockEnd
  0
BLOCK
  5
218
100
AcDbEntity
  8
0
100
AcDbBlockBegin
  2
_FILLED
 70
64
 10
0.0
 20
0.0
  3
_FILLED
  1

  0
SOLID
  5
219
100
AcDbEntity
  8
0
  6
BYBLOCK
 62
0
100
AcDbTrace
 10
0.0
 20
0.0
 11
-1.0
 21
0.3166666667
 12
-1.0
 22
-0.3166666667
 13
-1.0
 23
-0.3166666667
  0
ENDBLK
  5
21A
100
AcDbEntity
  8
0
  6
BYBLOCK
 62
0
100
AcDbBlockEnd
  0
ENDSEC
  0
SECTION
  2
ENTITIES
  0
LINE
  5
21B
100
AcDbEntity
  8
RACCORDO
100
AcDbLine
 62
7
  6
CONTINUOUS
 10
146.6433702922
 20
236.1536630128
 11
143.532100455
 21
234.3572548022
  0
LINE
  5
21C
100
AcDbEntity
  8
ASSI
100
AcDbLine
 62
7
  6
CONTINUOUS
 10
146.6433702922
 20
236.1536630128
 11
143.532100455
 21
234.3572548022
  0
LINE
  5
21D
100
AcDbEntity
  8
RACCORDO
100
AcDbLine
 62
7
  6
CONTINUOUS
 10
149.8282981643
 20
235.0795437433
 11
149.1303716108
 21
234.7176996209
  0
LINE
  5
21E
100
AcDbEntity
  8
RACCORDO
100
AcDbLine
 62
250
  6
CONTINUOUS
 10
150.167371552
 20
235.0389491808
 11
149.3278351936
 21
234.603686623
  0
LINE
  5
21F
100
AcDbEntity
  8
RACCORDO
100
AcDbLine
 62
250
  6
CONTINUOUS
 10
149.8282981643
 20
235.0795437433
 11
149.8353475599
 21
235.083049144
  0
LWPOLYLINE
  5
220
100
AcDbEntity
  8
RACCORDO
100
AcDbPolyline
 62
250
  6
CONTINUOUS
 90
12
 70
0
 10
149.8353475599
 20
235.083049144
 10
149.8591734771
 20
235.0928424469
 10
149.8844050115
 20
235.1001514911
 10
149.9109438735
 20
235.1048897665
 10
149.9387206169
 20
235.1069897187
 10
149.9679449151
 20
235.1063681101
 10
149.9986831213
 20
235.1028620589
 10
150.030695117
 20
235.096338851
 10
150.0637283424
 20
235.086730315
 10
150.0975990333
 20
235.0739946165
 10
150.1322013018
 20
235.0580760316
 10
150.167371552
 20
235.0389491808
  0
LINE
  5
221
100
AcDbEntity
  8
CURVE
100
AcDbLine
 62
250
  6
CONTINUOUS
 10
258.0460262925
 20
102.655560016
 11
259.0193948393
 21
102.8968212839
  0
LINE
  5
222
100
AcDbEntity
  8
CURVE
100
AcDbLine
 62
250
  6
CONTINUOUS
 10
259.4601253036
 20
103.2877918477
 11
258.0460262925
 21
102.9961587566
  0
LINE
  5
223
100
AcDbEntity
  8
CURVE
100
AcDbLine
 62
250
  6
CONTINUOUS
 10
258.9593749086
 20
106.3846789398
 11
258.4345850043
 21
106.2513768062
  0
LINE
  5
224
100
AcDbEntity
  8
CURVE
100
AcDbLine
 62
250
  6
CONTINUOUS
 10
259.4601253036
 20
106.5100391503
 11
259.1778206994
 21
106.4410875882
  0
LINE
  5
225
100
AcDbEntity
  8
CURVE
100
AcDbLine
 62
250
  6
CONTINUOUS
 10
258.0460262925
 20
105.8685754892
 11
259.4601253036
 21
106.1729055095
  0
LINE
  5
226
100
AcDbEntity
  8
CURVE
100
AcDbLine
 62
250
  6
CONTINUOUS
 10
258.0460262925
 20
104.8129978095
 11
258.8311382654
 21
104.9254810046
  0
LINE
  5
227
100
AcDbEntity
  8
CURVE
100
AcDbLine
 62
250
  6
CONTINUOUS
 10
259.4601253036
 20
105.3106892196
 11
258.5405951601
 21
105.1850117128
  0
LWPOLYLINE
  5
228
100
AcDbEntity
  8
RACCORDO
100
AcDbPolyline
 62
7
  6
CONTINUOUS
 90
13
 70
0
 10
143.3856538457
 20
234.0335428147
 10
143.3861632843
 20
234.0592851749
 10
143.3891364437
 20
234.0995482408
 10
143.3946354399
 20
234.1373044907
 10
143.402501534
 20
234.1724310437
 10
143.4125707442
 20
234.2048751322
 10
143.4247224774
 20
234.2347290452
 10
143.4388483216
 20
234.261965498
 10
143.4547656301
 20
234.2864862279
 10
143.4722366377
 20
234.3082944579
 10
143.4910526115
 20
234.3273785433
 10
143.5110638006
 20
234.3437023546
 10
143.532100455
 20
234.3572548022
  0
LWPOLYLINE
  5
229
100
AcDbEntity
  8
ASSI
100
AcDbPolyline
 62
7
  6
CONTINUOUS
 90
13
 70
0
 10
143.3856538457
 20
234.0335428147
 10
143.3861632843
 20
234.0592851749
 10
143.3891364437
 20
234.0995482408
 10
143.3946354399
 20
234.1373044907
 10
143.402501534
 20
234.1724310437
 10
143.4125707442
 20
234.2048751322
 10
143.4247224774
 20
234.2347290452
 10
143.4388483216
 20
234.261965498
 10
143.4547656301
 20
234.2864862279
 10
143.4722366377
 20
234.3082944579
 10
143.4910526115
 20
234.3273785433
 10
143.5110638006
 20
234.3437023546
 10
143.532100455
 20
234.3572548022
  0
LINE
  5
22A
100
AcDbEntity
  8
RACCORDO
100
AcDbLine
 62
7
  6
CONTINUOUS
 10
143.3856538456
 20
234.0335482018
 11
143.3856538456
 21
162.4233024514
  0
LINE
  5
22B
100
AcDbEntity
  8
ASSI
100
AcDbLine
 62
7
  6
CONTINUOUS
 10
143.3856538456
 20
234.0335482018
 11
143.3856538456
 21
162.4233024514
  0
LINE
  5
22C
100
AcDbEntity
  8
RACCORDO
100
AcDbLine
 62
250
  6
CONTINUOUS
 10
143.532100455
 20
233.5407450704
 11
143.532100455
 21
162.5078309895
  0
LINE
  5
22D
100
AcDbEntity
  8
ASSI
100
AcDbLine
 62
250
  6
CONTINUOUS
 10
143.532100455
 20
233.5407450704
 11
143.532100455
 21
162.5078309895
  0
LWPOLYLINE
  5
22E
100
AcDbEntity
  8
RACCORDO
100
AcDbPolyline
 62
250
  6
CONTINUOUS
 90
22
 70
0
 10
159.82482472
 20
204.4148087917
 10
159.8410641394
 20
204.4333659177
 10
159.8556095534
 20
204.4541325687
 10
159.8683861594
 20
204.4770042131
 10
159.8793325411
 20
204.5018696255
 10
159.8883988337
 20
204.528614038
 10
159.8955423781
 20
204.5571111676
 10
159.9007294578
 20
204.5872255185
 10
159.90393597
 20
204.6188157887
 10
159.9051469264
 20
204.6517359818
 10
159.904355797
 20
204.6858384205
 10
159.9015654099
 20
204.7209554949
 10
159.8967916464
 20
204.7569018035
 10
159.8900752535
 20
204.7934327817
 10
159.8814429182
 20
204.8304473685
 10
159.8708751204
 20
204.8679766736
 10
159.8584107237
 20
204.9057991189
 10
159.844069843
 20
204.9437822324
 10
159.8277400207
 20
204.9820852691
 10
159.8093720877
 20
205.0206185674
 10
159.7890357714
 20
205.059047777
 10
159.7667704708
 20
205.0971408056
  0
LWPOLYLINE
  5
22F
100
AcDbEntity
  8
RACCORDO
100
AcDbPolyline
 62
7
  6
CONTINUOUS
 90
10
 70
0
 10
161.3104216068
 20
206.0414804722
 10
161.3199605389
 20
206.047845316
 10
161.3286447233
 20
206.0542322639
 10
161.3363837359
 20
206.0606535175
 10
161.3430206647
 20
206.0670375955
 10
161.3483834603
 20
206.0732165117
 10
161.3523876294
 20
206.0790810089
 10
161.3550104206
 20
206.08461449
 10
161.356206254
 20
206.0897724511
 10
161.3562772479
 20
206.0912708543
  0
LWPOLYLINE
  5
230
100
AcDbEntity
  8
RACCORDO
100
AcDbPolyline
 62
7
  6
CONTINUOUS
 90
24
 70
0
 10
161.3365431731
 20
205.2788269901
 10
161.3631590346
 20
205.2959275349
 10
161.3885311991
 20
205.3158877201
 10
161.4123699771
 20
205.3386822356
 10
161.4343368927
 20
205.3641775721
 10
161.4542347071
 20
205.392337859
 10
161.4719666002
 20
205.4233234178
 10
161.4873570107
 20
205.4573215949
 10
161.5000045925
 20
205.4940286731
 10
161.5095815255
 20
205.5329197275
 10
161.515998229
 20
205.5740829722
 10
161.5190911297
 20
205.6172492328
 10
161.5187884004
 20
205.6612764444
 10
161.5152101354
 20
205.7058788959
 10
161.5084406584
 20
205.7510599438
 10
161.4987143212
 20
205.7959771337
 10
161.4862897102
 20
205.8402186419
 10
161.4712821554
 20
205.8838701751
 10
161.453851987
 20
205.9267365383
 10
161.4341691569
 20
205.9685950091
 10
161.4123459016
 20
206.0093334454
 10
161.3884516973
 20
206.0488708673
 10
161.3625718525
 20
206.0870567824
 10
161.3583761984
 20
206.0928053174
  0
LINE
  5
231
100
AcDbEntity
  8
RACCORDO
100
AcDbLine
 62
7
  6
CONTINUOUS
 10
161.3104216068
 20
206.0414804722
 11
159.8387153551
 21
205.1359509191
  0
LWPOLYLINE
  5
232
100
AcDbEntity
  8
RACCORDO
100
AcDbPolyline
 62
250
  6
CONTINUOUS
 90
4
 70
0
 10
159.7809084008
 20
204.3806226314
 10
159.7875895362
 20
204.3846560248
 10
159.8069718915
 20
204.3985482274
 10
159.82482472
 20
204.4148087917
  0
LINE
  5
233
100
AcDbEntity
  8
RACCORDO
100
AcDbLine
 62
250
  6
CONTINUOUS
 10
159.1061273107
 20
210.6889378768
 11
159.4424764089
 21
210.8831416307
  0
LINE
  5
234
100
AcDbEntity
  8
ASSI
100
AcDbLine
 62
250
  6
CONTINUOUS
 10
159.1061273107
 20
210.6889378768
 11
159.4424764089
 21
210.8831416307
  0
LINE
  5
235
100
AcDbEntity
  8
ASSI
100
AcDbLine
 62
7
  6
CONTINUOUS
 10
161.3365433194
 20
205.2788267367
 11
159.7809084008
 21
204.3806226314
  0
LINE
  5
236
100
AcDbEntity
  8
RACCORDO
100
AcDbLine
 62
7
  6
CONTINUOUS
 10
159.8387153551
 20
205.1359509191
 11
159.7526726812
 21
205.0895182713
  0
LWPOLYLINE
  5
237
100
AcDbEntity
  8
RACCORDO
100
AcDbPolyline
 62
7
  6
CONTINUOUS
 90
13
 70
0
 10
159.2303768833
 20
210.9635799935
 10
159.2301689667
 20
210.9635024438
 10
159.2317165317
 20
210.9640594682
 10
159.2355652536
 20
210.9648671454
 10
159.2420418159
 20
210.9654684804
 10
159.2512515145
 20
210.9653986582
 10
159.2631410443
 20
210.9642388813
 10
159.2775249418
 20
210.9616460021
 10
159.2941524907
 20
210.9573613993
 10
159.3129227956
 20
210.9511402097
 10
159.3337338279
 20
210.9427523905
 10
159.3563054323
 20
210.9320673712
 10
159.3803841313
 20
210.9189929336
  0
LWPOLYLINE
  5
238
100
AcDbEntity
  8
ASSI
100
AcDbPolyline
 62
7
  6
CONTINUOUS
 90
13
 70
0
 10
159.2303768833
 20
210.9635799935
 10
159.2301689667
 20
210.9635024438
 10
159.2317165317
 20
210.9640594682
 10
159.2355652536
 20
210.9648671454
 10
159.2420418159
 20
210.9654684804
 10
159.2512515145
 20
210.9653986582
 10
159.2631410443
 20
210.9642388813
 10
159.2775249418
 20
210.9616460021
 10
159.2941524907
 20
210.9573613993
 10
159.3129227956
 20
210.9511402097
 10
159.3337338279
 20
210.9427523905
 10
159.3563054323
 20
210.9320673712
 10
159.3803841313
 20
210.9189929336
  0
LWPOLYLINE
  5
239
100
AcDbEntity
  8
RACCORDO
100
AcDbPolyline
 62
7
  6
CONTINUOUS
 90
7
 70
0
 10
161.3309312837
 20
199.7127945248
 10
161.3386511163
 20
199.7216823548
 10
161.3450762165
 20
199.7309873007
 10
161.3500647681
 20
199.7405011498
 10
161.3535841177
 20
199.7502264561
 10
161.3556669186
 20
199.7601606657
 10
161.3562772471
 20
199.7690489526
  0
LWPOLYLINE
  5
23A
100
AcDbEntity
  8
RACCORDO
100
AcDbPolyline
 62
7
  6
CONTINUOUS
 90
4
 70
0
 10
161.3001452079
 20
199.6888419418
 10
161.3117019656
 20
199.6964090204
 10
161.3219639908
 20
199.7043932147
 10
161.3309312837
 20
199.7127945248
  0
LINE
  5
23B
100
AcDbEntity
  8
RACCORDO
100
AcDbLine
 62
7
  6
CONTINUOUS
 10
161.3001452079
 20
199.6888419418
 11
161.2306687893
 21
199.6473018366
  0
LINE
  5
23C
100
AcDbEntity
  8
RACCORDO
100
AcDbLine
 62
7
  6
CONTINUOUS
 10
159.7526726812
 20
205.0895182713
 11
159.7425234137
 21
205.0844230231
  0
LWPOLYLINE
  5
23D
100
AcDbEntity
  8
RACCORDO
100
AcDbPolyline
 62
7
  6
CONTINUOUS
 90
3
 70
0
 10
159.7571409457
 20
204.3681474351
 10
159.7673313578
 20
204.3731984632
 10
159.7809082544
 20
204.3806228848
  0
LWPOLYLINE
  5
23E
100
AcDbEntity
  8
RACCORDO
100
AcDbPolyline
 62
7
  6
CONTINUOUS
 90
3
 70
0
 10
159.757139535
 20
204.3680916501
 10
159.7526714503
 20
204.3660646495
 10
159.7425234137
 20
204.3622392923
  0
LWPOLYLINE
  5
23F
100
AcDbEntity
  8
RACCORDO
100
AcDbPolyline
 62
7
  6
CONTINUOUS
 90
8
 70
0
 10
236.7569690991
 20
124.6977403696
 10
236.7696545481
 20
124.7013424128
 10
236.7818040564
 20
124.7034308959
 10
236.7934176242
 20
124.7040058187
 10
236.8045826496
 20
124.7030468509
 10
236.8152117343
 20
124.7005743228
 10
236.8250426839
 20
124.696649226
 10
236.8288083137
 20
124.6946305012
  0
LWPOLYLINE
  5
240
100
AcDbEntity
  8
RACCORDO
100
AcDbPolyline
 62
7
  6
CONTINUOUS
 90
22
 70
0
 10
159.7425234137
 20
168.232518993
 10
159.7437645892
 20
168.1948586561
 10
159.7473103178
 20
168.1564750511
 10
159.7531605997
 20
168.117368178
 10
159.7613737101
 20
168.0773120904
 10
159.7718913737
 20
168.0365327347
 10
159.7845387648
 20
167.9957079499
 10
159.799351481
 20
167.9548369768
 10
159.8162939247
 20
167.9139205747
 10
159.8350844766
 20
167.8736388607
 10
159.8557540274
 20
167.8340024433
 10
159.8782716863
 20
167.7950007141
 10
159.9022631623
 20
167.757281964
 10
159.9277530899
 20
167.7208676379
 10
159.9547168346
 20
167.6857362911
 10
159.9827062019
 20
167.6524718807
 10
160.011738335
 20
167.6211056122
 10
160.0417960907
 20
167.5916062802
 10
160.0723798456
 20
167.5644642259
 10
160.1033230587
 20
167.5398428965
 10
160.1347922709
 20
167.5175788448
 10
160.1667874824
 20
167.4976720709
  0
LWPOLYLINE
  5
241
100
AcDbEntity
  8
ASSI
100
AcDbPolyline
 62
7
  6
CONTINUOUS
 90
22
 70
0
 10
159.7425234137
 20
168.232518993
 10
159.7437645892
 20
168.1948586561
 10
159.7473103178
 20
168.1564750511
 10
159.7531605997
 20
168.117368178
 10
159.7613737101
 20
168.0773120904
 10
159.7718913737
 20
168.0365327347
 10
159.7845387648
 20
167.9957079499
 10
159.799351481
 20
167.9548369768
 10
159.8162939247
 20
167.9139205747
 10
159.8350844766
 20
167.8736388607
 10
159.8557540274
 20
167.8340024433
 10
159.8782716863
 20
167.7950007141
 10
159.9022631623
 20
167.757281964
 10
159.9277530899
 20
167.7208676379
 10
159.9547168346
 20
167.6857362911
 10
159.9827062019
 20
167.6524718807
 10
160.011738335
 20
167.6211056122
 10
160.0417960907
 20
167.5916062802
 10
160.0723798456
 20
167.5644642259
 10
160.1033230587
 20
167.5398428965
 10
160.1347922709
 20
167.5175788448
 10
160.1667874824
 20
167.4976720709
  0
LINE
  5
242
100
AcDbEntity
  8
RACCORDO
100
AcDbLine
 62
250
  6
CONTINUOUS
 10
158.6818632419
 20
167.865071859
 11
158.6818632419
 21
210.6889378768
  0
LINE
  5
243
100
AcDbEntity
  8
ASSI
100
AcDbLine
 62
250
  6
CONTINUOUS
 10
158.6818632419
 20
167.865071859
 11
158.6818632419
 21
210.6889378768
  0
LINE
  5
244
100
AcDbEntity
  8
RACCORDO
100
AcDbLine
 62
250
  6
CONTINUOUS
 10
159.1061273107
 20
167.865071859
 11
159.1061273107
 21
210.6889378768
  0
LINE
  5
245
100
AcDbEntity
  8
ASSI
100
AcDbLine
 62
250
  6
CONTINUOUS
 10
159.1061273107
 20
167.865071859
 11
159.1061273107
 21
210.6889378768
  0
LINE
  5
246
100
AcDbEntity
  8
RACCORDO
100
AcDbLine
 62
7
  6
CONTINUOUS
 10
159.7425234137
 20
210.7098982506
 11
159.7425234137
 21
168.232518993
  0
LINE
  5
247
100
AcDbEntity
  8
ASSI
100
AcDbLine
 62
7
  6
CONTINUOUS
 10
159.7425234137
 20
210.7098982506
 11
159.7425234137
 21
168.232518993
  0
LINE
  5
248
100
AcDbEntity
  8
RACCORDO
100
AcDbLine
 62
250
  6
CONTINUOUS
 10
159.7642591929
 20
168.164341972
 11
159.7642591929
 21
174.4889373888
  0
LINE
  5
249
100
AcDbEntity
  8
RACCORDO
100
AcDbLine
 62
250
  6
CONTINUOUS
 10
159.7642591929
 20
175.2129739267
 11
159.7642591929
 21
204.3717495194
  0
LINE
  5
24A
100
AcDbEntity
  8
RACCORDO
100
AcDbLine
 62
250
  6
CONTINUOUS
 10
159.7642591929
 20
205.0957860574
 11
159.7642591929
 21
210.6973482841
  0
LINE
  5
24B
100
AcDbEntity
  8
RACCORDO
100
AcDbLine
 62
7
  6
CONTINUOUS
 10
159.8387153551
 20
210.6543582292
 11
159.8387153551
 21
205.1359509191
  0
LINE
  5
24C
100
AcDbEntity
  8
DRAFT
100
AcDbLine
 62
7
  6
CONTINUOUS
 10
159.8387153551
 20
204.4146146846
 11
159.8387153551
 21
175.2531387885
  0
LINE
  5
24D
100
AcDbEntity
  8
RACCORDO
100
AcDbLine
 62
7
  6
CONTINUOUS
 10
159.8387153551
 20
174.5318025539
 11
159.8387153551
 21
168.2157030603
  0
LWPOLYLINE
  5
24E
100
AcDbEntity
  8
RACCORDO
100
AcDbPolyline
 62
250
  6
CONTINUOUS
 90
25
 70
0
 10
158.6818632419
 20
210.6889378768
 10
158.6832306188
 20
210.7362573994
 10
158.6872735168
 20
210.7815158233
 10
158.6939919358
 20
210.8247131484
 10
158.7034400573
 20
210.8660515836
 10
158.7155637
 20
210.9053289199
 10
158.7302003198
 20
210.9419385312
 10
158.747377268
 20
210.9758057354
 10
158.7670671934
 20
211.0070052145
 10
158.7890254984
 20
211.0351543887
 10
158.8132844099
 20
211.0602213378
 10
158.8398117011
 20
211.082237982
 10
158.8682660944
 20
211.1009175016
 10
158.8986739633
 20
211.1162151719
 10
158.9310089342
 20
211.1281757176
 10
158.9648506101
 20
211.1366464932
 10
159.000210182
 20
211.1415832252
 10
159.0370764587
 20
211.143030187
 10
159.0749954696
 20
211.1409675537
 10
159.1140177302
 20
211.1353345174
 10
159.1540927249
 20
211.126191886
 10
159.1946149355
 20
211.1137022579
 10
159.2353825227
 20
211.0979198326
 10
159.2765973259
 20
211.0787904106
 10
159.318259345
 20
211.0563139919
  0
LWPOLYLINE
  5
24F
100
AcDbEntity
  8
ASSI
100
AcDbPolyline
 62
250
  6
CONTINUOUS
 90
25
 70
0
 10
158.6818632419
 20
210.6889378768
 10
158.6832306188
 20
210.7362573994
 10
158.6872735168
 20
210.7815158233
 10
158.6939919358
 20
210.8247131484
 10
158.7034400573
 20
210.8660515836
 10
158.7155637
 20
210.9053289199
 10
158.7302003198
 20
210.9419385312
 10
158.747377268
 20
210.9758057354
 10
158.7670671934
 20
211.0070052145
 10
158.7890254984
 20
211.0351543887
 10
158.8132844099
 20
211.0602213378
 10
158.8398117011
 20
211.082237982
 10
158.8682660944
 20
211.1009175016
 10
158.8986739633
 20
211.1162151719
 10
158.9310089342
 20
211.1281757176
 10
158.9648506101
 20
211.1366464932
 10
159.000210182
 20
211.1415832252
 10
159.0370764587
 20
211.143030187
 10
159.0749954696
 20
211.1409675537
 10
159.1140177302
 20
211.1353345174
 10
159.1540927249
 20
211.126191886
 10
159.1946149355
 20
211.1137022579
 10
159.2353825227
 20
211.0979198326
 10
159.2765973259
 20
211.0787904106
 10
159.318259345
 20
211.0563139919
  0
LWPOLYLINE
  5
250
100
AcDbEntity
  8
RACCORDO
100
AcDbPolyline
 62
250
  6
CONTINUOUS
 90
12
 70
0
 10
159.1061273107
 20
210.6889378768
 10
159.1073136389
 20
210.7248618438
 10
159.1108659915
 20
210.7592149835
 10
159.1167645057
 20
210.7918051768
 10
159.1249762014
 20
210.8224501737
 10
159.1354551568
 20
210.8509785792
 10
159.1481427573
 20
210.8772308196
 10
159.1629680425
 20
210.9010600827
 10
159.1798481009
 20
210.9223331133
 10
159.1986885136
 20
210.9409309357
 10
159.219383889
 20
210.9567495407
 10
159.2303768833
 20
210.9635799935
  0
LWPOLYLINE
  5
251
100
AcDbEntity
  8
ASSI
100
AcDbPolyline
 62
250
  6
CONTINUOUS
 90
12
 70
0
 10
159.1061273107
 20
210.6889378768
 10
159.1073136389
 20
210.7248618438
 10
159.1108659915
 20
210.7592149835
 10
159.1167645057
 20
210.7918051768
 10
159.1249762014
 20
210.8224501737
 10
159.1354551568
 20
210.8509785792
 10
159.1481427573
 20
210.8772308196
 10
159.1629680425
 20
210.9010600827
 10
159.1798481009
 20
210.9223331133
 10
159.1986885136
 20
210.9409309357
 10
159.219383889
 20
210.9567495407
 10
159.2303768833
 20
210.9635799935
  0
LWPOLYLINE
  5
252
100
AcDbEntity
  8
RACCORDO
100
AcDbPolyline
 62
250
  6
CONTINUOUS
 90
19
 70
0
 10
159.318259345
 20
166.7628014759
 10
159.3190665715
 20
166.7846155803
 10
159.3214821073
 20
166.8071958311
 10
159.3254875688
 20
166.830370379
 10
159.3310524721
 20
166.8539628515
 10
159.3381344648
 20
166.8777936957
 10
159.3466796487
 20
166.9016815446
 10
159.3566229898
 20
166.9254445971
 10
159.3678888133
 20
166.9489020022
 10
159.3803913794
 20
166.9718752347
 10
159.3940355361
 20
166.9941894545
 10
159.4087174431
 20
167.0156748369
 10
159.4243253622
 20
167.0361678653
 10
159.4407405078
 20
167.0555125751
 10
159.4578379506
 20
167.0735617417
 10
159.4754875688
 20
167.0901779998
 10
159.4935550382
 20
167.1052348898
 10
159.5119028544
 20
167.1186178195
 10
159.5303913794
 20
167.1302249369
  0
LWPOLYLINE
  5
253
100
AcDbEntity
  8
ASSI
100
AcDbPolyline
 62
250
  6
CONTINUOUS
 90
19
 70
0
 10
159.318259345
 20
166.7628014759
 10
159.3190665715
 20
166.7846155803
 10
159.3214821073
 20
166.8071958311
 10
159.3254875688
 20
166.830370379
 10
159.3310524721
 20
166.8539628515
 10
159.3381344648
 20
166.8777936957
 10
159.3466796487
 20
166.9016815446
 10
159.3566229898
 20
166.9254445971
 10
159.3678888133
 20
166.9489020022
 10
159.3803913794
 20
166.9718752347
 10
159.3940355361
 20
166.9941894545
 10
159.4087174431
 20
167.0156748369
 10
159.4243253622
 20
167.0361678653
 10
159.4407405078
 20
167.0555125751
 10
159.4578379506
 20
167.0735617417
 10
159.4754875688
 20
167.0901779998
 10
159.4935550382
 20
167.1052348898
 10
159.5119028544
 20
167.1186178195
 10
159.5303913794
 20
167.1302249369
  0
LWPOLYLINE
  5
254
100
AcDbEntity
  8
RACCORDO
100
AcDbPolyline
 62
250
  6
CONTINUOUS
 90
25
 70
0
 10
161.3001447763
 20
168.7400784666
 10
161.3029431867
 20
168.707244654
 10
161.3075082986
 20
168.6734446787
 10
161.3138555252
 20
168.6388355913
 10
161.3220314893
 20
168.6035455004
 10
161.3319999841
 20
168.5677705224
 10
161.3436187269
 20
168.5317780498
 10
161.3568297017
 20
168.4957694553
 10
161.3716025013
 20
168.4598780836
 10
161.3877998002
 20
168.4242685325
 10
161.405342519
 20
168.3891142324
 10
161.4241733962
 20
168.3545502444
 10
161.4441781946
 20
168.3206767389
 10
161.4653308072
 20
168.287538684
 10
161.4875048192
 20
168.2553740853
 10
161.5103991058
 20
168.2245399889
 10
161.5336598365
 20
168.1954122978
 10
161.5573786245
 20
168.1677591116
 10
161.5819612287
 20
168.1410705669
 10
161.6074328372
 20
168.1154608723
 10
161.6336529094
 20
168.0911320336
 10
161.6608743996
 20
168.0678770146
 10
161.6891570563
 20
168.0458334385
 10
161.7183221841
 20
168.0253919656
 10
161.7482751257
 20
168.0068201654
  0
LWPOLYLINE
  5
255
100
AcDbEntity
  8
RACCORDO
100
AcDbPolyline
 62
250
  6
CONTINUOUS
 90
10
 70
0
 10
159.318259345
 20
211.0563139919
 10
159.3190665714
 20
211.0354320523
 10
159.3214821073
 20
211.0156412017
 10
159.3254875688
 20
210.9970920605
 10
159.3310524721
 20
210.9799257988
 10
159.3381344648
 20
210.9642730622
 10
159.3466796487
 20
210.9502529775
 10
159.3566229898
 20
210.937972246
 10
159.3678888132
 20
210.9275243316
 10
159.3803841313
 20
210.9189929336
  0
LWPOLYLINE
  5
256
100
AcDbEntity
  8
ASSI
100
AcDbPolyline
 62
250
  6
CONTINUOUS
 90
10
 70
0
 10
159.318259345
 20
211.0563139919
 10
159.3190665714
 20
211.0354320523
 10
159.3214821073
 20
211.0156412017
 10
159.3254875688
 20
210.9970920605
 10
159.3310524721
 20
210.9799257988
 10
159.3381344648
 20
210.9642730622
 10
159.3466796487
 20
210.9502529775
 10
159.3566229898
 20
210.937972246
 10
159.3678888132
 20
210.9275243316
 10
159.3803841313
 20
210.9189929336
  0
LINE
  5
257
100
AcDbEntity
  8
DRAFT
100
AcDbLine
 62
250
  6
CONTINUOUS
 10
161.2306687893
 20
181.6871194507
 11
161.2306687893
 21
199.6473018366
  0
LINE
  5
258
100
AcDbEntity
  8
RACCORDO
100
AcDbLine
 62
7
  6
CONTINUOUS
 10
161.2868008292
 20
181.7614348796
 11
161.2868008292
 21
199.6808633081
  0
LINE
  5
259
100
AcDbEntity
  8
RACCORDO
100
AcDbLine
 62
250
  6
CONTINUOUS
 10
161.3001452079
 20
209.8105469482
 11
161.3001452079
 21
206.0351573089
  0
LINE
  5
25A
100
AcDbEntity
  8
RACCORDO
100
AcDbLine
 62
250
  6
CONTINUOUS
 10
161.3001452079
 20
205.2578109233
 11
161.3001452079
 21
199.6888419418
  0
LINE
  5
25B
100
AcDbEntity
  8
DRAFT
100
AcDbLine
 62
250
  6
CONTINUOUS
 10
161.3001452079
 20
178.462729981
 11
161.3001452079
 21
176.1523451783
  0
LINE
  5
25C
100
AcDbEntity
  8
RACCORDO
100
AcDbLine
 62
250
  6
CONTINUOUS
 10
161.3001452079
 20
175.3749987927
 11
161.3001452079
 21
168.7400786215
  0
LINE
  5
25D
100
AcDbEntity
  8
RACCORDO
100
AcDbLine
 62
7
  6
CONTINUOUS
 10
161.3562772479
 20
209.7781370118
 11
161.3562772479
 21
206.0912733671
  0
LINE
  5
25E
100
AcDbEntity
  8
RACCORDO
100
AcDbLine
 62
7
  6
CONTINUOUS
 10
161.3562772479
 20
205.2915060248
 11
161.3562772479
 21
199.7690593492
  0
LINE
  5
25F
100
AcDbEntity
  8
RACCORDO
100
AcDbLine
 62
7
  6
CONTINUOUS
 10
161.3562772479
 20
178.4997485335
 11
161.3562772479
 21
176.2084612364
  0
LINE
  5
260
100
AcDbEntity
  8
RACCORDO
100
AcDbLine
 62
7
  6
CONTINUOUS
 10
161.3562772479
 20
175.4086938942
 11
161.3562772479
 21
168.8202960291
  0
LINE
  5
261
100
AcDbEntity
  8
DRAFT
100
AcDbLine
 62
7
  6
CONTINUOUS
 10
162.6872485194
 20
182.4683033402
 11
162.6872485194
 21
179.3775115697
  0
LWPOLYLINE
  5
262
100
AcDbEntity
  8
RACCORDO
100
AcDbPolyline
 62
250
  6
CONTINUOUS
 90
9
 70
0
 10
161.356277198
 20
168.8202144471
 10
161.3560919254
 20
168.8153259792
 10
161.3541316881
 20
168.803426624
 10
161.3500515817
 20
168.7917080162
 10
161.3438953237
 20
168.7802957119
 10
161.3357288745
 20
168.7693119843
 10
161.3256397324
 20
168.7588745152
 10
161.3137359967
 20
168.7490951347
 10
161.3001452079
 20
168.7400786215
  0
LINE
  5
263
100
AcDbEntity
  8
DRAFT
100
AcDbLine
 62
7
  6
CONTINUOUS
 10
164.2814582034
 20
166.5825612329
 11
164.3308630094
 21
166.8239852138
  0
LWPOLYLINE
  5
264
100
AcDbEntity
  8
RACCORDO
100
AcDbPolyline
 62
250
  6
CONTINUOUS
 90
22
 70
0
 10
159.82482472
 20
174.5319966611
 10
159.8410641394
 20
174.5505537871
 10
159.8556095534
 20
174.5713204381
 10
159.8683861594
 20
174.5941920825
 10
159.8793325411
 20
174.6190574949
 10
159.8883988337
 20
174.6458019074
 10
159.8955423781
 20
174.674299037
 10
159.9007294578
 20
174.7044133879
 10
159.90393597
 20
174.7360036581
 10
159.9051469264
 20
174.7689238512
 10
159.904355797
 20
174.8030262898
 10
159.9015654099
 20
174.8381433643
 10
159.8967916464
 20
174.8740896729
 10
159.8900752535
 20
174.9106206511
 10
159.8814429182
 20
174.9476352379
 10
159.8708751204
 20
174.985164543
 10
159.8584107237
 20
175.0229869883
 10
159.844069843
 20
175.0609701018
 10
159.8277400207
 20
175.0992731385
 10
159.8093720877
 20
175.1378064368
 10
159.7890357714
 20
175.1762356463
 10
159.7667704708
 20
175.214328675
  0
LWPOLYLINE
  5
265
100
AcDbEntity
  8
RACCORDO
100
AcDbPolyline
 62
7
  6
CONTINUOUS
 90
8
 70
0
 10
220.4935131318
 20
134.023012373
 10
220.5061985808
 20
134.0266144162
 10
220.5183480891
 20
134.0287028993
 10
220.5299616569
 20
134.0292778221
 10
220.5411266823
 20
134.0283188543
 10
220.5517557671
 20
134.0258463262
 10
220.5615867166
 20
134.0219212294
 10
220.5653523464
 20
134.0199025046
  0
LWPOLYLINE
  5
266
100
AcDbEntity
  8
RACCORDO
100
AcDbPolyline
 62
7
  6
CONTINUOUS
 90
5
 70
0
 10
159.8402897635
 20
168.208240925
 10
159.8438534438
 20
168.1982659763
 10
159.8471326815
 20
168.1872331547
 10
159.8501649995
 20
168.1751296045
 10
159.8529040381
 20
168.1618964443
  0
LWPOLYLINE
  5
267
100
AcDbEntity
  8
RACCORDO
100
AcDbPolyline
 62
250
  6
CONTINUOUS
 90
7
 70
0
 10
159.7882518653
 20
167.9854628316
 10
159.786567763
 20
167.9916108697
 10
159.778416527
 20
168.0275692595
 10
159.7720949402
 20
168.0629873571
 10
159.7676272112
 20
168.0976540874
 10
159.7650141591
 20
168.1314858271
 10
159.7642592373
 20
168.1643419976
  0
LWPOLYLINE
  5
268
100
AcDbEntity
  8
RACCORDO
100
AcDbPolyline
 62
7
  6
CONTINUOUS
 90
21
 70
0
 10
159.8642382832
 20
168.0988268704
 10
159.8677498341
 20
168.0808256389
 10
159.8716684532
 20
168.0621463024
 10
159.8760282483
 20
168.04269941
 10
159.8809861708
 20
168.0223671662
 10
159.8866091785
 20
168.001141874
 10
159.8929313681
 20
167.9790717131
 10
159.9000800583
 20
167.956128237
 10
159.9081055204
 20
167.9323650028
 10
159.9170634442
 20
167.9078116761
 10
159.9271045556
 20
167.8824177656
 10
159.9382619715
 20
167.8562999882
 10
159.950611156
 20
167.82948954
 10
159.9643950272
 20
167.8018368386
 10
159.979684416
 20
167.7734391148
 10
159.9965315952
 20
167.7444646635
 10
160.0151799022
 20
167.7149236336
 10
160.035760421
 20
167.6848975765
 10
160.0582292638
 20
167.6547564677
 10
160.0825437504
 20
167.6249800699
 10
160.1086839905
 20
167.5958383462
  0
LWPOLYLINE
  5
269
100
AcDbEntity
  8
RACCORDO
100
AcDbPolyline
 62
7
  6
CONTINUOUS
 90
3
 70
0
 10
159.8529040381
 20
168.1618964443
 10
159.8581766055
 20
168.1322914635
 10
159.8642382832
 20
168.0988268704
  0
LINE
  5
26A
100
AcDbEntity
  8
DRAFT
100
AcDbLine
 62
7
  6
CONTINUOUS
 10
170.6335152808
 20
162.8499194432
 11
170.6948240401
 21
163.1495138739
  0
LWPOLYLINE
  5
26B
100
AcDbEntity
  8
RACCORDO
100
AcDbPolyline
 62
7
  6
CONTINUOUS
 90
10
 70
0
 10
161.3104216068
 20
176.1586683416
 10
161.3199605389
 20
176.1650331853
 10
161.3286447233
 20
176.1714201333
 10
161.3363837359
 20
176.1778413869
 10
161.3430206647
 20
176.1842254649
 10
161.3483834603
 20
176.1904043811
 10
161.3523876294
 20
176.1962688783
 10
161.3550104206
 20
176.2018023594
 10
161.356206254
 20
176.2069603205
 10
161.3562772479
 20
176.2084587236
  0
LINE
  5
26C
100
AcDbEntity
  8
DRAFT
100
AcDbLine
 62
7
  6
CONTINUOUS
 10
161.3001452079
 20
178.462729981
 11
162.6872485194
 21
179.3775115697
  0
LWPOLYLINE
  5
26D
100
AcDbEntity
  8
RACCORDO
100
AcDbPolyline
 62
7
  6
CONTINUOUS
 90
24
 70
0
 10
161.3365431731
 20
175.3960148595
 10
161.3631590346
 20
175.4131154043
 10
161.3885311991
 20
175.4330755895
 10
161.4123699771
 20
175.455870105
 10
161.4343368927
 20
175.4813654415
 10
161.4542347071
 20
175.5095257284
 10
161.4719666002
 20
175.5405112872
 10
161.4873570107
 20
175.5745094643
 10
161.5000045925
 20
175.6112165425
 10
161.5095815255
 20
175.6501075969
 10
161.515998229
 20
175.6912708416
 10
161.5190911297
 20
175.7344371021
 10
161.5187884004
 20
175.7784643138
 10
161.5152101354
 20
175.8230667653
 10
161.5084406584
 20
175.8682478132
 10
161.4987143212
 20
175.9131650031
 10
161.4862897102
 20
175.9574065112
 10
161.4712821554
 20
176.0010580445
 10
161.453851987
 20
176.0439244077
 10
161.4341691569
 20
176.0857828785
 10
161.4123459016
 20
176.1265213148
 10
161.3884516973
 20
176.1660587366
 10
161.3625718525
 20
176.2042446518
 10
161.3583761984
 20
176.2099931868
  0
LINE
  5
26E
100
AcDbEntity
  8
RACCORDO
100
AcDbLine
 62
7
  6
CONTINUOUS
 10
161.3104216068
 20
176.1586683416
 11
159.8387153551
 21
175.2531387885
  0
LINE
  5
26F
100
AcDbEntity
  8
DRAFT
100
AcDbLine
 62
7
  6
CONTINUOUS
 10
162.6872485194
 20
182.4683033402
 11
161.2306687893
 21
181.6871194507
  0
LINE
  5
270
100
AcDbEntity
  8
RACCORDO
100
AcDbLine
 62
7
  6
CONTINUOUS
 10
161.8802879203
 20
182.8923603802
 11
161.2868008292
 21
182.6179425662
  0
LINE
  5
271
100
AcDbEntity
  8
RACCORDO
100
AcDbLine
 62
250
  6
CONTINUOUS
 10
161.9748236326
 20
182.879648541
 11
161.2868008292
 21
182.5615191047
  0
LWPOLYLINE
  5
272
100
AcDbEntity
  8
RACCORDO
100
AcDbPolyline
 62
7
  6
CONTINUOUS
 90
8
 70
0
 10
214.2002627792
 20
137.7216998968
 10
214.2129482282
 20
137.72530194
 10
214.2250977366
 20
137.727390423
 10
214.2367113043
 20
137.7279653459
 10
214.2478763297
 20
137.727006378
 10
214.2585054145
 20
137.72453385
 10
214.2683363641
 20
137.7206087532
 10
214.2721019938
 20
137.7185900284
  0
LWPOLYLINE
  5
273
100
AcDbEntity
  8
RACCORDO
100
AcDbPolyline
 62
7
  6
CONTINUOUS
 90
13
 70
0
 10
257.0227239697
 20
96.8106984817
 10
257.045303834
 20
96.7982597032
 10
257.0816495268
 20
96.7806988498
 10
257.1170835504
 20
96.7665768125
 10
257.1514394328
 20
96.7558286996
 10
257.1845794334
 20
96.7483330679
 10
257.2164971225
 20
96.7439242869
 10
257.2471599211
 20
96.7425482351
 10
257.2763829675
 20
96.7440909804
 10
257.3039615447
 20
96.7482938162
 10
257.3298053853
 20
96.7549957478
 10
257.3539220146
 20
96.7641507858
 10
257.3762922261
 20
96.7756609186
  0
LWPOLYLINE
  5
274
100
AcDbEntity
  8
ASSI
100
AcDbPolyline
 62
7
  6
CONTINUOUS
 90
13
 70
0
 10
257.0227239697
 20
96.8106984817
 10
257.045303834
 20
96.7982597032
 10
257.0816495268
 20
96.7806988498
 10
257.1170835504
 20
96.7665768125
 10
257.1514394328
 20
96.7558286996
 10
257.1845794334
 20
96.7483330679
 10
257.2164971225
 20
96.7439242869
 10
257.2471599211
 20
96.7425482351
 10
257.2763829675
 20
96.7440909804
 10
257.3039615447
 20
96.7482938162
 10
257.3298053853
 20
96.7549957478
 10
257.3539220146
 20
96.7641507858
 10
257.3762922261
 20
96.7756609186
  0
LINE
  5
275
100
AcDbEntity
  8
RACCORDO
100
AcDbLine
 62
7
  6
CONTINUOUS
 10
143.3856538462
 20
162.4233024504
 11
257.0227146747
 21
96.8106877349
  0
LINE
  5
276
100
AcDbEntity
  8
ASSI
100
AcDbLine
 62
7
  6
CONTINUOUS
 10
143.3856538462
 20
162.4233024504
 11
257.0227146747
 21
96.8106877349
  0
LINE
  5
277
100
AcDbEntity
  8
RACCORDO
100
AcDbLine
 62
250
  6
CONTINUOUS
 10
143.532100455
 20
162.5078309895
 11
256.6691854449
 21
97.183896057
  0
LINE
  5
278
100
AcDbEntity
  8
ASSI
100
AcDbLine
 62
250
  6
CONTINUOUS
 10
143.532100455
 20
162.5078309895
 11
256.6691854449
 21
97.183896057
  0
LWPOLYLINE
  5
279
100
AcDbEntity
  8
RACCORDO
100
AcDbPolyline
 62
250
  6
CONTINUOUS
 90
4
 70
0
 10
159.7809084008
 20
174.4978105008
 10
159.7875895362
 20
174.5018438941
 10
159.8069718915
 20
174.5157360968
 10
159.82482472
 20
174.5319966611
  0
LINE
  5
27A
100
AcDbEntity
  8
ASSI
100
AcDbLine
 62
7
  6
CONTINUOUS
 10
161.3365433194
 20
175.3960146061
 11
159.7809084008
 21
174.4978105008
  0
LWPOLYLINE
  5
27B
100
AcDbEntity
  8
RACCORDO
100
AcDbPolyline
 62
7
  6
CONTINUOUS
 90
4
 70
0
 10
143.3939644476
 20
162.428051584
 10
143.3884088963
 20
162.4248875196
 10
143.3858677057
 20
162.4234251037
 10
143.385667801
 20
162.4232943932
  0
LWPOLYLINE
  5
27C
100
AcDbEntity
  8
ASSI
100
AcDbPolyline
 62
7
  6
CONTINUOUS
 90
4
 70
0
 10
143.3939644476
 20
162.428051584
 10
143.3884088963
 20
162.4248875196
 10
143.3858677057
 20
162.4234251037
 10
143.385667801
 20
162.4232943932
  0
LWPOLYLINE
  5
27D
100
AcDbEntity
  8
RACCORDO
100
AcDbPolyline
 62
7
  6
CONTINUOUS
 90
7
 70
0
 10
143.532100455
 20
162.5078309895
 10
143.5001436763
 20
162.489737233
 10
143.4727365181
 20
162.4738273299
 10
143.4495835892
 20
162.4601974674
 10
143.4303151478
 20
162.4489795572
 10
143.41468282
 20
162.4400480709
 10
143.3939644476
 20
162.428051584
  0
LWPOLYLINE
  5
27E
100
AcDbEntity
  8
ASSI
100
AcDbPolyline
 62
7
  6
CONTINUOUS
 90
7
 70
0
 10
143.532100455
 20
162.5078309895
 10
143.5001436763
 20
162.489737233
 10
143.4727365181
 20
162.4738273299
 10
143.4495835892
 20
162.4601974674
 10
143.4303151478
 20
162.4489795572
 10
143.41468282
 20
162.4400480709
 10
143.3939644476
 20
162.428051584
  0
LINE
  5
27F
100
AcDbEntity
  8
RACCORDO
100
AcDbLine
 62
7
  6
CONTINUOUS
 10
159.8387153551
 20
175.2531387885
 11
159.7526726812
 21
175.2067061407
  0
LINE
  5
280
100
AcDbEntity
  8
RACCORDO
100
AcDbLine
 62
7
  6
CONTINUOUS
 10
159.7526726812
 20
175.2067061407
 11
159.7425234137
 21
175.2016108925
  0
LWPOLYLINE
  5
281
100
AcDbEntity
  8
RACCORDO
100
AcDbPolyline
 62
7
  6
CONTINUOUS
 90
3
 70
0
 10
159.7571409457
 20
174.4853353045
 10
159.7673313578
 20
174.4903863326
 10
159.7809082544
 20
174.4978107542
  0
LWPOLYLINE
  5
282
100
AcDbEntity
  8
RACCORDO
100
AcDbPolyline
 62
7
  6
CONTINUOUS
 90
3
 70
0
 10
159.757139535
 20
174.4852795195
 10
159.7526714503
 20
174.4832525189
 10
159.7425234137
 20
174.4794271617
  0
LWPOLYLINE
  5
283
100
AcDbEntity
  8
RACCORDO
100
AcDbPolyline
 62
7
  6
CONTINUOUS
 90
5
 70
0
 10
160.1086839905
 20
167.5958383462
 10
160.1365921805
 20
167.567634192
 10
160.166106084
 20
167.5408807638
 10
160.197082393
 20
167.5159431707
 10
160.2294078628
 20
167.4930722448
  0
LWPOLYLINE
  5
284
100
AcDbEntity
  8
RACCORDO
100
AcDbPolyline
 62
250
  6
CONTINUOUS
 90
27
 70
0
 10
161.2977204042
 20
176.1508554876
 10
161.3192852898
 20
176.1175870941
 10
161.3396144687
 20
176.0834227168
 10
161.3586176015
 20
176.0485117284
 10
161.3762116036
 20
176.013003706
 10
161.392316102
 20
175.9770575509
 10
161.4068551986
 20
175.9408411299
 10
161.4197639568
 20
175.9045167159
 10
161.4309868314
 20
175.8682411916
 10
161.4404741683
 20
175.8321753433
 10
161.4481839508
 20
175.7964802194
 10
161.4540831706
 20
175.7613102699
 10
161.4581466164
 20
175.7268142175
 10
161.460356144
 20
175.6931313575
 10
161.4606993417
 20
175.6604237724
 10
161.4591763352
 20
175.6288662997
 10
161.455805001
 20
175.5986392653
 10
161.4506038685
 20
175.5698232495
 10
161.443572247
 20
175.5424465128
 10
161.4347436547
 20
175.5166861114
 10
161.4241318062
 20
175.492619254
 10
161.411653492
 20
175.470180041
 10
161.3972671535
 20
175.4494865225
 10
161.3810125133
 20
175.4307674541
 10
161.3628950494
 20
175.4141740387
 10
161.3429393983
 20
175.399868571
 10
161.3365433194
 20
175.3960146061
  0
LINE
  5
285
100
AcDbEntity
  8
RACCORDO
100
AcDbLine
 62
250
  6
CONTINUOUS
 10
159.1061273107
 20
167.865071859
 11
159.7425234137
 21
168.232518993
  0
LINE
  5
286
100
AcDbEntity
  8
ASSI
100
AcDbLine
 62
250
  6
CONTINUOUS
 10
159.1061273107
 20
167.865071859
 11
159.7425234137
 21
168.232518993
  0
LINE
  5
287
100
AcDbEntity
  8
RACCORDO
100
AcDbLine
 62
250
  6
CONTINUOUS
 10
159.7642591929
 20
168.164341972
 11
159.8402897635
 21
168.208240925
  0
LINE
  5
288
100
AcDbEntity
  8
RACCORDO
100
AcDbLine
 62
250
  6
CONTINUOUS
 10
159.5303913794
 20
167.1302249369
 11
160.1667874824
 21
167.4976720709
  0
LINE
  5
289
100
AcDbEntity
  8
ASSI
100
AcDbLine
 62
250
  6
CONTINUOUS
 10
159.5303913794
 20
167.1302249369
 11
160.1667874824
 21
167.4976720709
  0
LINE
  5
28A
100
AcDbEntity
  8
RACCORDO
100
AcDbLine
 62
250
  6
CONTINUOUS
 10
160.2365654514
 20
167.4573831462
 11
160.2629148063
 21
167.472596883
  0
LWPOLYLINE
  5
28B
100
AcDbEntity
  8
RACCORDO
100
AcDbPolyline
 62
250
  6
CONTINUOUS
 90
3
 70
0
 10
159.7473838092
 20
168.1559837897
 10
159.7486431089
 20
168.1564948068
 10
159.7642591929
 20
168.164341972
  0
LWPOLYLINE
  5
28C
100
AcDbEntity
  8
RACCORDO
100
AcDbPolyline
 62
250
  6
CONTINUOUS
 90
19
 70
0
 10
208.8864447062
 20
138.8775757327
 10
208.9057404576
 20
138.8673667725
 10
208.9265038096
 20
138.8581676735
 10
208.9485767405
 20
138.8500484464
 10
208.971791262
 20
138.8430708835
 10
208.9959706975
 20
138.8372880881
 10
209.020931027
 20
138.8327440709
 10
209.0464822872
 20
138.8294734145
 10
209.0724300177
 20
138.8275010107
 10
209.0985767405
 20
138.8268418706
 10
209.1247234634
 20
138.8275010107
 10
209.1506711938
 20
138.8294734145
 10
209.1762224541
 20
138.8327440709
 10
209.2011827835
 20
138.8372880881
 10
209.2253622191
 20
138.8430708835
 10
209.2485767405
 20
138.8500484464
 10
209.2706496715
 20
138.8581676735
 10
209.2914130235
 20
138.8673667725
 10
209.3107087749
 20
138.8775757327
  0
LWPOLYLINE
  5
28D
100
AcDbEntity
  8
ASSI
100
AcDbPolyline
 62
250
  6
CONTINUOUS
 90
19
 70
0
 10
208.8864447062
 20
138.8775757327
 10
208.9057404576
 20
138.8673667725
 10
208.9265038096
 20
138.8581676735
 10
208.9485767405
 20
138.8500484464
 10
208.971791262
 20
138.8430708835
 10
208.9959706975
 20
138.8372880881
 10
209.020931027
 20
138.8327440709
 10
209.0464822872
 20
138.8294734145
 10
209.0724300177
 20
138.8275010107
 10
209.0985767405
 20
138.8268418706
 10
209.1247234634
 20
138.8275010107
 10
209.1506711938
 20
138.8294734145
 10
209.1762224541
 20
138.8327440709
 10
209.2011827835
 20
138.8372880881
 10
209.2253622191
 20
138.8430708835
 10
209.2485767405
 20
138.8500484464
 10
209.2706496715
 20
138.8581676735
 10
209.2914130235
 20
138.8673667725
 10
209.3107087749
 20
138.8775757327
  0
LWPOLYLINE
  5
28E
100
AcDbEntity
  8
RACCORDO
100
AcDbPolyline
 62
250
  6
CONTINUOUS
 90
19
 70
0
 10
158.6818632419
 20
167.865071859
 10
158.7011589934
 20
167.8548628988
 10
158.7219223454
 20
167.8456637998
 10
158.7439952763
 20
167.8375445727
 10
158.7672097978
 20
167.8305670097
 10
158.7913892333
 20
167.8247842144
 10
158.8163495628
 20
167.8202401971
 10
158.841900823
 20
167.8169695408
 10
158.8678485535
 20
167.814997137
 10
158.8939952763
 20
167.8143379969
 10
158.9201419991
 20
167.814997137
 10
158.9460897296
 20
167.8169695408
 10
158.9716409898
 20
167.8202401971
 10
158.9966013193
 20
167.8247842144
 10
159.0207807548
 20
167.8305670097
 10
159.0439952763
 20
167.8375445727
 10
159.0660682072
 20
167.8456637998
 10
159.0868315592
 20
167.8548628988
 10
159.1061273107
 20
167.865071859
  0
LWPOLYLINE
  5
28F
100
AcDbEntity
  8
ASSI
100
AcDbPolyline
 62
250
  6
CONTINUOUS
 90
19
 70
0
 10
158.6818632419
 20
167.865071859
 10
158.7011589934
 20
167.8548628988
 10
158.7219223454
 20
167.8456637998
 10
158.7439952763
 20
167.8375445727
 10
158.7672097978
 20
167.8305670097
 10
158.7913892333
 20
167.8247842144
 10
158.8163495628
 20
167.8202401971
 10
158.841900823
 20
167.8169695408
 10
158.8678485535
 20
167.814997137
 10
158.8939952763
 20
167.8143379969
 10
158.9201419991
 20
167.814997137
 10
158.9460897296
 20
167.8169695408
 10
158.9716409898
 20
167.8202401971
 10
158.9966013193
 20
167.8247842144
 10
159.0207807548
 20
167.8305670097
 10
159.0439952763
 20
167.8375445727
 10
159.0660682072
 20
167.8456637998
 10
159.0868315592
 20
167.8548628988
 10
159.1061273107
 20
167.865071859
  0
LWPOLYLINE
  5
290
100
AcDbEntity
  8
RACCORDO
100
AcDbPolyline
 62
250
  6
CONTINUOUS
 90
7
 70
0
 10
212.024599781
 20
139.0162695966
 10
212.0232705119
 20
139.0170149521
 10
212.0110796031
 20
139.0221855654
 10
211.9977634073
 20
139.0250232958
 10
211.9834953207
 20
139.0254911919
 10
211.9684611347
 20
139.0235831611
 10
211.9528566164
 20
139.0193240486
  0
LWPOLYLINE
  5
291
100
AcDbEntity
  8
RACCORDO
100
AcDbPolyline
 62
250
  6
CONTINUOUS
 90
7
 70
0
 10
161.8200183168
 20
168.0037657229
 10
161.8186890476
 20
168.0045110783
 10
161.8064981389
 20
168.0096816916
 10
161.7931819431
 20
168.012519422
 10
161.7789138565
 20
168.0129873182
 10
161.7638796705
 20
168.0110792873
 10
161.7482751521
 20
168.0068201748
  0
LINE
  5
292
100
AcDbEntity
  8
RACCORDO
100
AcDbLine
 62
250
  6
CONTINUOUS
 10
240.8830265549
 20
119.6683271355
 11
209.5228408093
 21
137.7753053496
  0
LINE
  5
293
100
AcDbEntity
  8
ASSI
100
AcDbLine
 62
250
  6
CONTINUOUS
 10
240.8830265549
 20
119.6683271355
 11
209.5228408093
 21
137.7753053496
  0
LINE
  5
294
100
AcDbEntity
  8
RACCORDO
100
AcDbLine
 62
250
  6
CONTINUOUS
 10
190.6784450906
 20
148.6558232618
 11
159.318259345
 21
166.7628014759
  0
LINE
  5
295
100
AcDbEntity
  8
ASSI
100
AcDbLine
 62
250
  6
CONTINUOUS
 10
190.6784450906
 20
148.6558232618
 11
159.318259345
 21
166.7628014759
  0
LINE
  5
296
100
AcDbEntity
  8
RACCORDO
100
AcDbLine
 62
250
  6
CONTINUOUS
 10
241.0951585892
 20
120.0357505966
 11
209.7349728436
 21
138.1427288107
  0
LINE
  5
297
100
AcDbEntity
  8
ASSI
100
AcDbLine
 62
250
  6
CONTINUOUS
 10
241.0951585892
 20
120.0357505966
 11
209.7349728436
 21
138.1427288107
  0
LINE
  5
298
100
AcDbEntity
  8
RACCORDO
100
AcDbLine
 62
250
  6
CONTINUOUS
 10
190.890577125
 20
149.0232467228
 11
159.5303913794
 21
167.1302249369
  0
LINE
  5
299
100
AcDbEntity
  8
ASSI
100
AcDbLine
 62
250
  6
CONTINUOUS
 10
190.890577125
 20
149.0232467228
 11
159.5303913794
 21
167.1302249369
  0
LINE
  5
29A
100
AcDbEntity
  8
RACCORDO
100
AcDbLine
 62
7
  6
CONTINUOUS
 10
160.1667874824
 20
167.4976720709
 11
191.2269732281
 21
149.563910097
  0
LINE
  5
29B
100
AcDbEntity
  8
ASSI
100
AcDbLine
 62
7
  6
CONTINUOUS
 10
160.1667874824
 20
167.4976720709
 11
191.2269732281
 21
149.563910097
  0
LINE
  5
29C
100
AcDbEntity
  8
RACCORDO
100
AcDbLine
 62
7
  6
CONTINUOUS
 10
210.3713689467
 20
138.5101759447
 11
241.4315546923
 21
120.5764139707
  0
LINE
  5
29D
100
AcDbEntity
  8
ASSI
100
AcDbLine
 62
7
  6
CONTINUOUS
 10
210.3713689467
 20
138.5101759447
 11
241.4315546923
 21
120.5764139707
  0
LINE
  5
29E
100
AcDbEntity
  8
RACCORDO
100
AcDbLine
 62
7
  6
CONTINUOUS
 10
160.2615676205
 20
167.4733747312
 11
191.2269732281
 21
149.5943376211
  0
LINE
  5
29F
100
AcDbEntity
  8
RACCORDO
100
AcDbLine
 62
7
  6
CONTINUOUS
 10
210.4661490848
 20
138.4858786049
 11
241.4315546923
 21
120.6068414948
  0
LINE
  5
2A0
100
AcDbEntity
  8
RACCORDO
100
AcDbLine
 62
250
  6
CONTINUOUS
 10
234.918491468
 20
125.6942106691
 11
220.4935131318
 21
134.023012373
  0
LINE
  5
2A1
100
AcDbEntity
  8
RACCORDO
100
AcDbLine
 62
250
  6
CONTINUOUS
 10
184.7139100038
 20
154.6817067954
 11
170.2889316676
 21
163.0105084993
  0
LINE
  5
2A2
100
AcDbEntity
  8
RACCORDO
100
AcDbLine
 62
7
  6
CONTINUOUS
 10
234.960203652
 20
125.7084957805
 11
220.5653230801
 21
134.0199194125
  0
LINE
  5
2A3
100
AcDbEntity
  8
RACCORDO
100
AcDbLine
 62
7
  6
CONTINUOUS
 10
184.7556221877
 20
154.6959919068
 11
170.3607416159
 21
163.0074155387
  0
LINE
  5
2A4
100
AcDbEntity
  8
RACCORDO
100
AcDbLine
 62
250
  6
CONTINUOUS
 10
161.7482751521
 20
168.0068201748
 11
162.227914362
 21
167.7298825063
  0
LINE
  5
2A5
100
AcDbEntity
  8
RACCORDO
100
AcDbLine
 62
250
  6
CONTINUOUS
 10
163.995681315
 20
166.709196023
 11
168.5918753927
 21
164.0554111664
  0
LINE
  5
2A6
100
AcDbEntity
  8
RACCORDO
100
AcDbLine
 62
250
  6
CONTINUOUS
 10
186.5523876348
 20
153.6852364959
 11
191.1485817126
 21
151.0314516392
  0
LINE
  5
2A7
100
AcDbEntity
  8
RACCORDO
100
AcDbLine
 62
250
  6
CONTINUOUS
 10
211.9528566164
 20
139.0193240486
 11
212.4324958263
 21
138.7423863801
  0
LINE
  5
2A8
100
AcDbEntity
  8
RACCORDO
100
AcDbLine
 62
250
  6
CONTINUOUS
 10
214.2002627792
 20
137.7216998968
 11
218.7964568569
 21
135.0679150401
  0
LINE
  5
2A9
100
AcDbEntity
  8
RACCORDO
100
AcDbLine
 62
250
  6
CONTINUOUS
 10
236.7569690991
 20
124.6977403696
 11
241.3531631768
 21
122.043955513
  0
LINE
  5
2AA
100
AcDbEntity
  8
RACCORDO
100
AcDbLine
 62
7
  6
CONTINUOUS
 10
161.8200183168
 20
168.0037657229
 11
162.269626546
 21
167.7441676177
  0
LINE
  5
2AB
100
AcDbEntity
  8
RACCORDO
100
AcDbLine
 62
7
  6
CONTINUOUS
 10
164.0674912633
 20
166.7061030625
 11
168.6335875767
 21
164.0696962778
  0
LINE
  5
2AC
100
AcDbEntity
  8
RACCORDO
100
AcDbLine
 62
7
  6
CONTINUOUS
 10
186.6241975832
 20
153.6821435353
 11
191.1902938965
 21
151.0457367506
  0
LINE
  5
2AD
100
AcDbEntity
  8
RACCORDO
100
AcDbLine
 62
7
  6
CONTINUOUS
 10
212.024599781
 20
139.0162695966
 11
212.4742080102
 21
138.7566714915
  0
LINE
  5
2AE
100
AcDbEntity
  8
RACCORDO
100
AcDbLine
 62
7
  6
CONTINUOUS
 10
214.2720727276
 20
137.7186069362
 11
218.8381690409
 21
135.0822001515
  0
LINE
  5
2AF
100
AcDbEntity
  8
RACCORDO
100
AcDbLine
 62
7
  6
CONTINUOUS
 10
236.8287790474
 20
124.6946474091
 11
241.3948753608
 21
122.0582406244
  0
LINE
  5
2B0
100
AcDbEntity
  8
DRAFT
100
AcDbLine
 62
7
  6
CONTINUOUS
 10
162.5630960564
 20
167.8446716971
 11
164.3308630094
 21
166.8239852138
  0
LINE
  5
2B1
100
AcDbEntity
  8
DRAFT
100
AcDbLine
 62
7
  6
CONTINUOUS
 10
168.9270570871
 20
164.1702003572
 11
170.6948240401
 21
163.1495138739
  0
LINE
  5
2B2
100
AcDbEntity
  8
DRAFT
100
AcDbLine
 62
7
  6
CONTINUOUS
 10
185.1198023763
 20
154.82071217
 11
186.8875693292
 21
153.8000256867
  0
LINE
  5
2B3
100
AcDbEntity
  8
DRAFT
100
AcDbLine
 62
7
  6
CONTINUOUS
 10
212.7676775207
 20
138.8571755709
 11
214.5354444736
 21
137.8364890875
  0
LINE
  5
2B4
100
AcDbEntity
  8
DRAFT
100
AcDbLine
 62
7
  6
CONTINUOUS
 10
219.1316385513
 20
135.1827042309
 11
220.8994055043
 21
134.1620177476
  0
LINE
  5
2B5
100
AcDbEntity
  8
DRAFT
100
AcDbLine
 62
7
  6
CONTINUOUS
 10
235.3243838405
 20
125.8332160437
 11
237.0921507935
 21
124.8125295604
  0
LWPOLYLINE
  5
2B6
100
AcDbEntity
  8
RACCORDO
100
AcDbPolyline
 62
7
  6
CONTINUOUS
 90
26
 70
0
 10
161.8200183173
 20
168.0037657226
 10
161.8131155831
 20
168.0078210801
 10
161.7862915497
 20
168.0248531779
 10
161.7584978955
 20
168.0446028465
 10
161.7300171333
 20
168.0670543627
 10
161.7011888846
 20
168.092100378
 10
161.6722356234
 20
168.1196774935
 10
161.6433762538
 20
168.1497020354
 10
161.6149036603
 20
168.1819794994
 10
161.5870379486
 20
168.2163487654
 10
161.5599822711
 20
168.2526442424
 10
161.5339764502
 20
168.290614882
 10
161.5091999048
 20
168.3300506192
 10
161.4858320215
 20
168.3707144031
 10
161.4640740078
 20
168.4122815273
 10
161.4440537168
 20
168.4545097655
 10
161.4258991245
 20
168.4971249691
 10
161.4097587139
 20
168.5397300297
 10
161.3956954753
 20
168.5820636706
 10
161.3837621521
 20
168.623851131
 10
161.3740212217
 20
168.6646665575
 10
161.3664534953
 20
168.7042691522
 10
161.3610238718
 20
168.7424233497
 10
161.3576851514
 20
168.7787015151
 10
161.356324942
 20
168.8128150502
 10
161.356277198
 20
168.8202144471
  0
LWPOLYLINE
  5
2B7
100
AcDbEntity
  8
RACCORDO
100
AcDbPolyline
 62
7
  6
CONTINUOUS
 90
26
 70
0
 10
212.0245997816
 20
139.0162695963
 10
212.0176970474
 20
139.0203249538
 10
211.9908730139
 20
139.0373570516
 10
211.9630793597
 20
139.0571067202
 10
211.9345985976
 20
139.0795582364
 10
211.9057703489
 20
139.1046042518
 10
211.8768170876
 20
139.1321813672
 10
211.8479577181
 20
139.1622059092
 10
211.8194851246
 20
139.1944833731
 10
211.7916194129
 20
139.2288526391
 10
211.7645637353
 20
139.2651481161
 10
211.7385579145
 20
139.3031187557
 10
211.7137813691
 20
139.3425544929
 10
211.6904134857
 20
139.3832182768
 10
211.668655472
 20
139.424785401
 10
211.648635181
 20
139.4670136392
 10
211.6304805887
 20
139.5096288428
 10
211.6143401782
 20
139.5522339035
 10
211.6002769395
 20
139.5945675443
 10
211.5883436163
 20
139.6363550047
 10
211.5786026859
 20
139.6771704312
 10
211.5710349596
 20
139.716773026
 10
211.565605336
 20
139.7549272235
 10
211.5622666157
 20
139.7912053889
 10
211.5609064063
 20
139.8253189239
 10
211.5608586622
 20
139.8327183208
  0
LINE
  5
2B8
100
AcDbEntity
  8
RACCORDO
100
AcDbLine
 62
7
  6
CONTINUOUS
 10
160.2294078628
 20
167.4930722448
 11
160.2629148063
 21
167.472596883
  0
LWPOLYLINE
  5
2B9
100
AcDbEntity
  8
RACCORDO
100
AcDbPolyline
 62
7
  6
CONTINUOUS
 90
4
 70
0
 10
210.4674962706
 20
138.4851007567
 10
210.433989327
 20
138.5055761185
 10
210.4016638572
 20
138.5284470444
 10
210.3706875483
 20
138.5533846375
  0
LWPOLYLINE
  5
2BA
100
AcDbEntity
  8
RACCORDO
100
AcDbPolyline
 62
250
  6
CONTINUOUS
 90
25
 70
0
 10
159.318259345
 20
166.7628014759
 10
159.2765943616
 20
166.7884371751
 10
159.2353765096
 20
166.8169040323
 10
159.1946057893
 20
166.8482020474
 10
159.1540799836
 20
166.8825105392
 10
159.1140013095
 20
166.919650189
 10
159.0749764175
 20
166.9590830409
 10
159.0370563092
 20
167.0008112285
 10
159.000189983
 20
167.0448326182
 10
158.9648310841
 20
167.0906028531
 10
158.9309911419
 20
167.1381524873
 10
158.898658627
 20
167.1874509668
 10
158.8682525957
 20
167.2378622731
 10
158.8397985939
 20
167.2894021084
 10
158.8132710757
 20
167.3420547705
 10
158.7890124593
 20
167.395137134
 10
158.7670554916
 20
167.4486432133
 10
158.7473674256
 20
167.5025789941
 10
158.7301924382
 20
167.5562793082
 10
158.7155579318
 20
167.6097866625
 10
158.7034365041
 20
167.6630585501
 10
158.6939901243
 20
167.7153022824
 10
158.6872727822
 20
167.7662536299
 10
158.6832304881
 20
167.8161768221
 10
158.6818632419
 20
167.865071859
  0
LWPOLYLINE
  5
2BB
100
AcDbEntity
  8
ASSI
100
AcDbPolyline
 62
250
  6
CONTINUOUS
 90
25
 70
0
 10
159.318259345
 20
166.7628014759
 10
159.2765943616
 20
166.7884371751
 10
159.2353765096
 20
166.8169040323
 10
159.1946057893
 20
166.8482020474
 10
159.1540799836
 20
166.8825105392
 10
159.1140013095
 20
166.919650189
 10
159.0749764175
 20
166.9590830409
 10
159.0370563092
 20
167.0008112285
 10
159.000189983
 20
167.0448326182
 10
158.9648310841
 20
167.0906028531
 10
158.9309911419
 20
167.1381524873
 10
158.898658627
 20
167.1874509668
 10
158.8682525957
 20
167.2378622731
 10
158.8397985939
 20
167.2894021084
 10
158.8132710757
 20
167.3420547705
 10
158.7890124593
 20
167.395137134
 10
158.7670554916
 20
167.4486432133
 10
158.7473674256
 20
167.5025789941
 10
158.7301924382
 20
167.5562793082
 10
158.7155579318
 20
167.6097866625
 10
158.7034365041
 20
167.6630585501
 10
158.6939901243
 20
167.7153022824
 10
158.6872727822
 20
167.7662536299
 10
158.6832304881
 20
167.8161768221
 10
158.6818632419
 20
167.865071859
  0
LWPOLYLINE
  5
2BC
100
AcDbEntity
  8
RACCORDO
100
AcDbPolyline
 62
250
  6
CONTINUOUS
 90
25
 70
0
 10
209.5228408093
 20
137.7753053496
 10
209.4811758258
 20
137.8009410488
 10
209.4399579739
 20
137.829407906
 10
209.3991872535
 20
137.8607059212
 10
209.3586614479
 20
137.8950144129
 10
209.3185827738
 20
137.9321540627
 10
209.2795578817
 20
137.9715869146
 10
209.2416377735
 20
138.0133151022
 10
209.2047714473
 20
138.0573364919
 10
209.1694125483
 20
138.1031067269
 10
209.1355726062
 20
138.1506563611
 10
209.1032400913
 20
138.1999548405
 10
209.0728340599
 20
138.2503661468
 10
209.0443800582
 20
138.3019059821
 10
209.01785254
 20
138.3545586442
 10
208.9935939235
 20
138.4076410078
 10
208.9716369558
 20
138.461147087
 10
208.9519488898
 20
138.5150828678
 10
208.9347739024
 20
138.5687831819
 10
208.9201393961
 20
138.6222905362
 10
208.9080179683
 20
138.6755624238
 10
208.8985715885
 20
138.7278061561
 10
208.8918542464
 20
138.7787575036
 10
208.8878119523
 20
138.8286806958
 10
208.8864447062
 20
138.8775757327
  0
LWPOLYLINE
  5
2BD
100
AcDbEntity
  8
ASSI
100
AcDbPolyline
 62
250
  6
CONTINUOUS
 90
25
 70
0
 10
209.5228408093
 20
137.7753053496
 10
209.4811758258
 20
137.8009410488
 10
209.4399579739
 20
137.829407906
 10
209.3991872535
 20
137.8607059212
 10
209.3586614479
 20
137.8950144129
 10
209.3185827738
 20
137.9321540627
 10
209.2795578817
 20
137.9715869146
 10
209.2416377735
 20
138.0133151022
 10
209.2047714473
 20
138.0573364919
 10
209.1694125483
 20
138.1031067269
 10
209.1355726062
 20
138.1506563611
 10
209.1032400913
 20
138.1999548405
 10
209.0728340599
 20
138.2503661468
 10
209.0443800582
 20
138.3019059821
 10
209.01785254
 20
138.3545586442
 10
208.9935939235
 20
138.4076410078
 10
208.9716369558
 20
138.461147087
 10
208.9519488898
 20
138.5150828678
 10
208.9347739024
 20
138.5687831819
 10
208.9201393961
 20
138.6222905362
 10
208.9080179683
 20
138.6755624238
 10
208.8985715885
 20
138.7278061561
 10
208.8918542464
 20
138.7787575036
 10
208.8878119523
 20
138.8286806958
 10
208.8864447062
 20
138.8775757327
  0
LWPOLYLINE
  5
2BE
100
AcDbEntity
  8
RACCORDO
100
AcDbPolyline
 62
250
  6
CONTINUOUS
 90
22
 70
0
 10
159.5303913794
 20
167.1302249369
 10
159.4986860876
 20
167.1499009848
 10
159.4671580894
 20
167.1722066271
 10
159.4359837027
 20
167.1970171254
 10
159.4053372572
 20
167.2241937429
 10
159.3753901533
 20
167.253584491
 10
159.3463099004
 20
167.2850249716
 10
159.3182591293
 20
167.3183393487
 10
159.291394706
 20
167.3533413146
 10
159.2658668836
 20
167.3898350932
 10
159.2418184407
 20
167.427616554
 10
159.2193838331
 20
167.4664744392
 10
159.1986884734
 20
167.5061915246
 10
159.1798480911
 20
167.5465457239
 10
159.1629680664
 20
167.5873113392
 10
159.1481427983
 20
167.6282604094
 10
159.1354551966
 20
167.6691639548
 10
159.1249762324
 20
167.7097932015
 10
159.1167645261
 20
167.7499208778
 10
159.1108660021
 20
167.7893225552
 10
159.1073136419
 20
167.8277779016
 10
159.1061273107
 20
167.865071859
  0
LWPOLYLINE
  5
2BF
100
AcDbEntity
  8
ASSI
100
AcDbPolyline
 62
250
  6
CONTINUOUS
 90
22
 70
0
 10
159.5303913794
 20
167.1302249369
 10
159.4986860876
 20
167.1499009848
 10
159.4671580894
 20
167.1722066271
 10
159.4359837027
 20
167.1970171254
 10
159.4053372572
 20
167.2241937429
 10
159.3753901533
 20
167.253584491
 10
159.3463099004
 20
167.2850249716
 10
159.3182591293
 20
167.3183393487
 10
159.291394706
 20
167.3533413146
 10
159.2658668836
 20
167.3898350932
 10
159.2418184407
 20
167.427616554
 10
159.2193838331
 20
167.4664744392
 10
159.1986884734
 20
167.5061915246
 10
159.1798480911
 20
167.5465457239
 10
159.1629680664
 20
167.5873113392
 10
159.1481427983
 20
167.6282604094
 10
159.1354551966
 20
167.6691639548
 10
159.1249762324
 20
167.7097932015
 10
159.1167645261
 20
167.7499208778
 10
159.1108660021
 20
167.7893225552
 10
159.1073136419
 20
167.8277779016
 10
159.1061273107
 20
167.865071859
  0
LWPOLYLINE
  5
2C0
100
AcDbEntity
  8
RACCORDO
100
AcDbPolyline
 62
250
  6
CONTINUOUS
 90
22
 70
0
 10
209.7349728436
 20
138.1427288107
 10
209.7032675518
 20
138.1624048585
 10
209.6717395536
 20
138.1847105009
 10
209.640565167
 20
138.2095209991
 10
209.6099187215
 20
138.2366976166
 10
209.5799716175
 20
138.2660883647
 10
209.5508913647
 20
138.2975288454
 10
209.5228405935
 20
138.3308432224
 10
209.4959761702
 20
138.3658451883
 10
209.4704483478
 20
138.4023389669
 10
209.4463999049
 20
138.4401204277
 10
209.4239652973
 20
138.4789783129
 10
209.4032699376
 20
138.5186953983
 10
209.3844295554
 20
138.5590495977
 10
209.3675495306
 20
138.5998152129
 10
209.3527242626
 20
138.6407642831
 10
209.3400366609
 20
138.6816678285
 10
209.3295576967
 20
138.7222970752
 10
209.3213459904
 20
138.7624247515
 10
209.3154474664
 20
138.8018264289
 10
209.3118951062
 20
138.8402817753
 10
209.3107087749
 20
138.8775757327
  0
LWPOLYLINE
  5
2C1
100
AcDbEntity
  8
ASSI
100
AcDbPolyline
 62
250
  6
CONTINUOUS
 90
22
 70
0
 10
209.7349728436
 20
138.1427288107
 10
209.7032675518
 20
138.1624048585
 10
209.6717395536
 20
138.1847105009
 10
209.640565167
 20
138.2095209991
 10
209.6099187215
 20
138.2366976166
 10
209.5799716175
 20
138.2660883647
 10
209.5508913647
 20
138.2975288454
 10
209.5228405935
 20
138.3308432224
 10
209.4959761702
 20
138.3658451883
 10
209.4704483478
 20
138.4023389669
 10
209.4463999049
 20
138.4401204277
 10
209.4239652973
 20
138.4789783129
 10
209.4032699376
 20
138.5186953983
 10
209.3844295554
 20
138.5590495977
 10
209.3675495306
 20
138.5998152129
 10
209.3527242626
 20
138.6407642831
 10
209.3400366609
 20
138.6816678285
 10
209.3295576967
 20
138.7222970752
 10
209.3213459904
 20
138.7624247515
 10
209.3154474664
 20
138.8018264289
 10
209.3118951062
 20
138.8402817753
 10
209.3107087749
 20
138.8775757327
  0
LWPOLYLINE
  5
2C2
100
AcDbEntity
  8
RACCORDO
100
AcDbPolyline
 62
250
  6
CONTINUOUS
 90
6
 70
0
 10
191.3148411937
 20
149.0231993769
 10
191.2971598951
 20
149.034340502
 10
191.2812276148
 20
149.0463290012
 10
191.2671656069
 20
149.0590736349
 10
191.2550808919
 20
149.0724774086
 10
191.2450654418
 20
149.0864383117
  0
LWPOLYLINE
  5
2C3
100
AcDbEntity
  8
ASSI
100
AcDbPolyline
 62
250
  6
CONTINUOUS
 90
6
 70
0
 10
191.3148411937
 20
149.0231993769
 10
191.2971598951
 20
149.034340502
 10
191.2812276148
 20
149.0463290012
 10
191.2671656069
 20
149.0590736349
 10
191.2550808919
 20
149.0724774086
 10
191.2450654418
 20
149.0864383117
  0
LWPOLYLINE
  5
2C4
100
AcDbEntity
  8
RACCORDO
100
AcDbPolyline
 62
250
  6
CONTINUOUS
 90
6
 70
0
 10
241.519422658
 20
120.0357032507
 10
241.5017413594
 20
120.0468443757
 10
241.485809079
 20
120.0588328749
 10
241.4717470712
 20
120.0715775086
 10
241.4596623562
 20
120.0849812824
 10
241.4496469061
 20
120.0989421854
  0
LWPOLYLINE
  5
2C5
100
AcDbEntity
  8
ASSI
100
AcDbPolyline
 62
250
  6
CONTINUOUS
 90
6
 70
0
 10
241.519422658
 20
120.0357032507
 10
241.5017413594
 20
120.0468443757
 10
241.485809079
 20
120.0588328749
 10
241.4717470712
 20
120.0715775086
 10
241.4596623562
 20
120.0849812824
 10
241.4496469061
 20
120.0989421854
  0
LWPOLYLINE
  5
2C6
100
AcDbEntity
  8
RACCORDO
100
AcDbPolyline
 62
250
  6
CONTINUOUS
 90
5
 70
0
 10
191.2450654418
 20
149.0864383117
 10
191.2371954802
 20
149.1008500931
 10
191.2315309022
 20
149.1156030705
 10
191.2281148186
 20
149.1305849649
 10
191.2269732281
 20
149.1456817549
  0
LWPOLYLINE
  5
2C7
100
AcDbEntity
  8
ASSI
100
AcDbPolyline
 62
250
  6
CONTINUOUS
 90
5
 70
0
 10
191.2450654418
 20
149.0864383117
 10
191.2371954802
 20
149.1008500931
 10
191.2315309022
 20
149.1156030705
 10
191.2281148186
 20
149.1305849649
 10
191.2269732281
 20
149.1456817549
  0
LWPOLYLINE
  5
2C8
100
AcDbEntity
  8
RACCORDO
100
AcDbPolyline
 62
7
  6
CONTINUOUS
 90
11
 70
0
 10
143.532100455
 20
233.5407450704
 10
143.5004502127
 20
233.5995297807
 10
143.4729660501
 20
233.6574371379
 10
143.4495835892
 20
233.7141632028
 10
143.4302322159
 20
233.7694093817
 10
143.4146790445
 20
233.8229357208
 10
143.4026290267
 20
233.8745832768
 10
143.3939265275
 20
233.9241370111
 10
143.3884066565
 20
233.9714548553
 10
143.3858677057
 20
234.0165399788
 10
143.3856538457
 20
234.0335428147
  0
LWPOLYLINE
  5
2C9
100
AcDbEntity
  8
ASSI
100
AcDbPolyline
 62
7
  6
CONTINUOUS
 90
11
 70
0
 10
143.532100455
 20
233.5407450704
 10
143.5004502127
 20
233.5995297807
 10
143.4729660501
 20
233.6574371379
 10
143.4495835892
 20
233.7141632028
 10
143.4302322159
 20
233.7694093817
 10
143.4146790445
 20
233.8229357208
 10
143.4026290267
 20
233.8745832768
 10
143.3939265275
 20
233.9241370111
 10
143.3884066565
 20
233.9714548553
 10
143.3858677057
 20
234.0165399788
 10
143.3856538457
 20
234.0335428147
  0
LINE
  5
2CA
100
AcDbEntity
  8
DRAFT
100
AcDbLine
 62
7
  6
CONTINUOUS
 10
186.8381645233
 20
153.5586017058
 11
186.8875693292
 21
153.8000256867
  0
LWPOLYLINE
  5
2CB
100
AcDbEntity
  8
RACCORDO
100
AcDbPolyline
 62
7
  6
CONTINUOUS
 90
13
 70
0
 10
209.4349583475
 20
181.9760838672
 10
209.4347504309
 20
181.9760063176
 10
209.4362979959
 20
181.9765633419
 10
209.4401467179
 20
181.9773710191
 10
209.4466232801
 20
181.9779723541
 10
209.4558329787
 20
181.977902532
 10
209.4677225085
 20
181.9767427551
 10
209.482106406
 20
181.9741498758
 10
209.498733955
 20
181.9698652731
 10
209.5175042599
 20
181.9636440835
 10
209.5383152921
 20
181.9552562642
 10
209.5608868965
 20
181.9445712449
 10
209.5849655956
 20
181.9314968073
  0
LWPOLYLINE
  5
2CC
100
AcDbEntity
  8
ASSI
100
AcDbPolyline
 62
7
  6
CONTINUOUS
 90
13
 70
0
 10
209.4349583475
 20
181.9760838672
 10
209.4347504309
 20
181.9760063176
 10
209.4362979959
 20
181.9765633419
 10
209.4401467179
 20
181.9773710191
 10
209.4466232801
 20
181.9779723541
 10
209.4558329787
 20
181.977902532
 10
209.4677225085
 20
181.9767427551
 10
209.482106406
 20
181.9741498758
 10
209.498733955
 20
181.9698652731
 10
209.5175042599
 20
181.9636440835
 10
209.5383152921
 20
181.9552562642
 10
209.5608868965
 20
181.9445712449
 10
209.5849655956
 20
181.9314968073
  0
LINE
  5
2CD
100
AcDbEntity
  8
RACCORDO
100
AcDbLine
 62
250
  6
CONTINUOUS
 10
159.8387153551
 20
168.2157030603
 11
161.3001452079
 21
168.7400786215
  0
LINE
  5
2CE
100
AcDbEntity
  8
RACCORDO
100
AcDbLine
 62
250
  6
CONTINUOUS
 10
160.2615676205
 20
167.4733747312
 11
161.7482751521
 21
168.0068201748
  0
LINE
  5
2CF
100
AcDbEntity
  8
RACCORDO
100
AcDbLine
 62
7
  6
CONTINUOUS
 10
162.5630960564
 20
167.8446716971
 11
162.227914362
 21
167.7298825063
  0
LINE
  5
2D0
100
AcDbEntity
  8
RACCORDO
100
AcDbLine
 62
7
  6
CONTINUOUS
 10
163.995681315
 20
166.709196023
 11
164.3308630094
 21
166.8239852138
  0
LWPOLYLINE
  5
2D1
100
AcDbEntity
  8
RACCORDO
100
AcDbPolyline
 62
7
  6
CONTINUOUS
 90
3
 70
0
 10
210.3706875483
 20
138.5533846375
 10
210.3411736447
 20
138.5801380657
 10
210.3132654547
 20
138.6083422199
  0
LWPOLYLINE
  5
2D2
100
AcDbEntity
  8
RACCORDO
100
AcDbPolyline
 62
7
  6
CONTINUOUS
 90
21
 70
0
 10
210.3132654547
 20
138.6083422199
 10
210.2871252146
 20
138.6374839437
 10
210.2628107281
 20
138.6672603414
 10
210.2403418852
 20
138.6974014503
 10
210.2197613664
 20
138.7274275074
 10
210.2011130595
 20
138.7569685372
 10
210.1842658803
 20
138.7859429886
 10
210.1689764915
 20
138.8143407124
 10
210.1551926202
 20
138.8419934138
 10
210.1428434358
 20
138.8688038619
 10
210.1316860198
 20
138.8949216393
 10
210.1216449084
 20
138.9203155499
 10
210.1126869847
 20
138.9448688765
 10
210.1046615225
 20
138.9686321108
 10
210.0975128323
 20
138.9915755868
 10
210.0911906428
 20
139.0136457477
 10
210.085567635
 20
139.0348710399
 10
210.0806097125
 20
139.0552032837
 10
210.0762499175
 20
139.0746501761
 10
210.0723312983
 20
139.0933295126
 10
210.0688197474
 20
139.1113307441
  0
LWPOLYLINE
  5
2D3
100
AcDbEntity
  8
RACCORDO
100
AcDbPolyline
 62
250
  6
CONTINUOUS
 90
27
 70
0
 10
161.2977204042
 20
206.0336676183
 10
161.3192852898
 20
206.0003992247
 10
161.3396144687
 20
205.9662348474
 10
161.3586176015
 20
205.931323859
 10
161.3762116036
 20
205.8958158366
 10
161.392316102
 20
205.8598696815
 10
161.4068551986
 20
205.8236532605
 10
161.4197639568
 20
205.7873288465
 10
161.4309868314
 20
205.7510533223
 10
161.4404741683
 20
205.7149874739
 10
161.4481839508
 20
205.67929235
 10
161.4540831706
 20
205.6441224006
 10
161.4581466164
 20
205.6096263481
 10
161.460356144
 20
205.5759434882
 10
161.4606993417
 20
205.543235903
 10
161.4591763352
 20
205.5116784303
 10
161.455805001
 20
205.4814513959
 10
161.4506038685
 20
205.4526353801
 10
161.443572247
 20
205.4252586434
 10
161.4347436547
 20
205.3994982421
 10
161.4241318062
 20
205.3754313846
 10
161.411653492
 20
205.3529921716
 10
161.3972671535
 20
205.3322986532
 10
161.3810125133
 20
205.3135795847
 10
161.3628950494
 20
205.2969861694
 10
161.3429393983
 20
205.2826807016
 10
161.3365433194
 20
205.2788267367
  0
LWPOLYLINE
  5
2D4
100
AcDbEntity
  8
RACCORDO
100
AcDbPolyline
 62
250
  6
CONTINUOUS
 90
10
 70
0
 10
190.6784450906
 20
192.9493357778
 10
190.6792523171
 20
192.9284538382
 10
190.6816678529
 20
192.9086629876
 10
190.6856733144
 20
192.8901138464
 10
190.6912382177
 20
192.8729475847
 10
190.6983202104
 20
192.8572948481
 10
190.7068653943
 20
192.8432747634
 10
190.7168087354
 20
192.8309940319
 10
190.7280745589
 20
192.8205461175
 10
190.740569877
 20
192.8120147195
  0
LWPOLYLINE
  5
2D5
100
AcDbEntity
  8
ASSI
100
AcDbPolyline
 62
250
  6
CONTINUOUS
 90
10
 70
0
 10
190.6784450906
 20
192.9493357778
 10
190.6792523171
 20
192.9284538382
 10
190.6816678529
 20
192.9086629876
 10
190.6856733144
 20
192.8901138464
 10
190.6912382177
 20
192.8729475847
 10
190.6983202104
 20
192.8572948481
 10
190.7068653943
 20
192.8432747634
 10
190.7168087354
 20
192.8309940319
 10
190.7280745589
 20
192.8205461175
 10
190.740569877
 20
192.8120147195
  0
LINE
  5
2D6
100
AcDbEntity
  8
RACCORDO
100
AcDbLine
 62
7
  6
CONTINUOUS
 10
191.2269732281
 20
191.9695477727
 11
191.2269732281
 21
149.1456817549
  0
LINE
  5
2D7
100
AcDbEntity
  8
ASSI
100
AcDbLine
 62
7
  6
CONTINUOUS
 10
191.2269732281
 20
191.9695477727
 11
191.2269732281
 21
149.1456817549
  0
LINE
  5
2D8
100
AcDbEntity
  8
RACCORDO
100
AcDbLine
 62
250
  6
CONTINUOUS
 10
191.3148411937
 20
191.8470653947
 11
191.3148411937
 21
149.0231993769
  0
LINE
  5
2D9
100
AcDbEntity
  8
ASSI
100
AcDbLine
 62
250
  6
CONTINUOUS
 10
191.3148411937
 20
191.8470653947
 11
191.3148411937
 21
149.0231993769
  0
LWPOLYLINE
  5
2DA
100
AcDbEntity
  8
RACCORDO
100
AcDbPolyline
 62
7
  6
CONTINUOUS
 90
13
 70
0
 10
191.2269732281
 20
149.1456817549
 10
191.2262486337
 20
149.1181600949
 10
191.2241987383
 20
149.0931916
 10
191.2210371442
 20
149.0709436347
 10
191.2170246326
 20
149.0515915454
 10
191.2124162986
 20
149.035095444
 10
191.207473402
 20
149.0213976493
 10
191.2025456896
 20
149.0105791111
 10
191.1980220256
 20
149.0026222297
 10
191.1942824749
 20
148.9973496643
 10
191.1916714244
 20
148.9944375411
 10
191.1904216206
 20
148.9933817045
 10
191.1905916211
 20
148.9935220162
  0
LWPOLYLINE
  5
2DB
100
AcDbEntity
  8
ASSI
100
AcDbPolyline
 62
7
  6
CONTINUOUS
 90
13
 70
0
 10
191.2269732281
 20
149.1456817549
 10
191.2262486337
 20
149.1181600949
 10
191.2241987383
 20
149.0931916
 10
191.2210371442
 20
149.0709436347
 10
191.2170246326
 20
149.0515915454
 10
191.2124162986
 20
149.035095444
 10
191.207473402
 20
149.0213976493
 10
191.2025456896
 20
149.0105791111
 10
191.1980220256
 20
149.0026222297
 10
191.1942824749
 20
148.9973496643
 10
191.1916714244
 20
148.9944375411
 10
191.1904216206
 20
148.9933817045
 10
191.1905916211
 20
148.9935220162
  0
LWPOLYLINE
  5
2DC
100
AcDbEntity
  8
RACCORDO
100
AcDbPolyline
 62
250
  6
CONTINUOUS
 90
25
 70
0
 10
191.3148411937
 20
149.0231993769
 10
191.3134738169
 20
148.9758798543
 10
191.3094309189
 20
148.9306214304
 10
191.3027124998
 20
148.8874241053
 10
191.2932643783
 20
148.8460856702
 10
191.2811407357
 20
148.8068083338
 10
191.2665041159
 20
148.7701987225
 10
191.2493271677
 20
148.7363315183
 10
191.2296372423
 20
148.7051320392
 10
191.2076789372
 20
148.676982865
 10
191.1834200257
 20
148.6519159159
 10
191.1568927346
 20
148.6298992717
 10
191.1284383412
 20
148.6112197522
 10
191.0980304724
 20
148.5959220818
 10
191.0656955014
 20
148.5839615361
 10
191.0318538256
 20
148.5754907605
 10
190.9964942537
 20
148.5705540286
 10
190.9596279769
 20
148.5691070667
 10
190.9217089661
 20
148.5711697
 10
190.8826867055
 20
148.5768027363
 10
190.8426117108
 20
148.5859453677
 10
190.8020895002
 20
148.5984349958
 10
190.761321913
 20
148.6142174211
 10
190.7201071098
 20
148.6333468431
 10
190.6784450906
 20
148.6558232618
  0
LWPOLYLINE
  5
2DD
100
AcDbEntity
  8
ASSI
100
AcDbPolyline
 62
250
  6
CONTINUOUS
 90
25
 70
0
 10
191.3148411937
 20
149.0231993769
 10
191.3134738169
 20
148.9758798543
 10
191.3094309189
 20
148.9306214304
 10
191.3027124998
 20
148.8874241053
 10
191.2932643783
 20
148.8460856702
 10
191.2811407357
 20
148.8068083338
 10
191.2665041159
 20
148.7701987225
 10
191.2493271677
 20
148.7363315183
 10
191.2296372423
 20
148.7051320392
 10
191.2076789372
 20
148.676982865
 10
191.1834200257
 20
148.6519159159
 10
191.1568927346
 20
148.6298992717
 10
191.1284383412
 20
148.6112197522
 10
191.0980304724
 20
148.5959220818
 10
191.0656955014
 20
148.5839615361
 10
191.0318538256
 20
148.5754907605
 10
190.9964942537
 20
148.5705540286
 10
190.9596279769
 20
148.5691070667
 10
190.9217089661
 20
148.5711697
 10
190.8826867055
 20
148.5768027363
 10
190.8426117108
 20
148.5859453677
 10
190.8020895002
 20
148.5984349958
 10
190.761321913
 20
148.6142174211
 10
190.7201071098
 20
148.6333468431
 10
190.6784450906
 20
148.6558232618
  0
LWPOLYLINE
  5
2DE
100
AcDbEntity
  8
RACCORDO
100
AcDbPolyline
 62
250
  6
CONTINUOUS
 90
19
 70
0
 10
190.6784450906
 20
148.6558232618
 10
190.6792523171
 20
148.6776373663
 10
190.6816678529
 20
148.7002176171
 10
190.6856733144
 20
148.7233921648
 10
190.6912382177
 20
148.7469846374
 10
190.6983202104
 20
148.7708154816
 10
190.7068653943
 20
148.7947033305
 10
190.7168087354
 20
148.818466383
 10
190.7280745589
 20
148.841923788
 10
190.740577125
 20
148.8648970206
 10
190.7542212817
 20
148.8872112404
 10
190.7689031887
 20
148.9086966228
 10
190.7845111078
 20
148.9291896511
 10
190.8009262534
 20
148.948534361
 10
190.8180236962
 20
148.9665835276
 10
190.8356733144
 20
148.9831997857
 10
190.8537407838
 20
148.9982566757
 10
190.8720886
 20
149.0116396054
 10
190.890577125
 20
149.0232467228
  0
LWPOLYLINE
  5
2DF
100
AcDbEntity
  8
ASSI
100
AcDbPolyline
 62
250
  6
CONTINUOUS
 90
19
 70
0
 10
190.6784450906
 20
148.6558232618
 10
190.6792523171
 20
148.6776373663
 10
190.6816678529
 20
148.7002176171
 10
190.6856733144
 20
148.7233921648
 10
190.6912382177
 20
148.7469846374
 10
190.6983202104
 20
148.7708154816
 10
190.7068653943
 20
148.7947033305
 10
190.7168087354
 20
148.818466383
 10
190.7280745589
 20
148.841923788
 10
190.740577125
 20
148.8648970206
 10
190.7542212817
 20
148.8872112404
 10
190.7689031887
 20
148.9086966228
 10
190.7845111078
 20
148.9291896511
 10
190.8009262534
 20
148.948534361
 10
190.8180236962
 20
148.9665835276
 10
190.8356733144
 20
148.9831997857
 10
190.8537407838
 20
148.9982566757
 10
190.8720886
 20
149.0116396054
 10
190.890577125
 20
149.0232467228
  0
LINE
  5
2E0
100
AcDbEntity
  8
RACCORDO
100
AcDbLine
 62
250
  6
CONTINUOUS
 10
209.3107087749
 20
181.7014417505
 11
209.6470578732
 21
181.8956455044
  0
LINE
  5
2E1
100
AcDbEntity
  8
ASSI
100
AcDbLine
 62
250
  6
CONTINUOUS
 10
209.3107087749
 20
181.7014417505
 11
209.6470578732
 21
181.8956455044
  0
LINE
  5
2E2
100
AcDbEntity
  8
RACCORDO
100
AcDbLine
 62
7
  6
CONTINUOUS
 10
168.9270570871
 20
164.1702003572
 11
168.5918753927
 21
164.0554111664
  0
LINE
  5
2E3
100
AcDbEntity
  8
RACCORDO
100
AcDbLine
 62
7
  6
CONTINUOUS
 10
170.2889316676
 20
163.0105084993
 11
170.6948240401
 21
163.1495138739
  0
LWPOLYLINE
  5
2E4
100
AcDbEntity
  8
RACCORDO
100
AcDbPolyline
 62
7
  6
CONTINUOUS
 90
8
 70
0
 10
186.5523876348
 20
153.6852364959
 10
186.5650730838
 20
153.6888385391
 10
186.5772225922
 20
153.6909270221
 10
186.5888361599
 20
153.691501945
 10
186.6000011853
 20
153.6905429771
 10
186.6106302701
 20
153.6880704491
 10
186.6204612197
 20
153.6841453523
 10
186.6242268494
 20
153.6821266275
  0
LINE
  5
2E5
100
AcDbEntity
  8
RACCORDO
100
AcDbLine
 62
7
  6
CONTINUOUS
 10
161.9748236326
 20
182.879648541
 11
162.6872485194
 21
182.4683033402
  0
LINE
  5
2E6
100
AcDbEntity
  8
RACCORDO
100
AcDbLine
 62
7
  6
CONTINUOUS
 10
212.1794050968
 20
153.8921524148
 11
212.8918299836
 21
153.4808072139
  0
LWPOLYLINE
  5
2E7
100
AcDbEntity
  8
RACCORDO
100
AcDbPolyline
 62
250
  6
CONTINUOUS
 90
22
 70
0
 10
210.0294061742
 20
175.4273126552
 10
210.0456455986
 20
175.445869785
 10
210.0601910193
 20
175.466636445
 10
210.0729676299
 20
175.4895080994
 10
210.0839140132
 20
175.5143735195
 10
210.0929803061
 20
175.5411179395
 10
210.10012385
 20
175.5696150778
 10
210.1053109286
 20
175.5997294404
 10
210.1085174384
 20
175.6313197237
 10
210.1097283911
 20
175.6642399285
 10
210.1089372571
 20
175.6983423753
 10
210.1061468649
 20
175.7334594556
 10
210.1013730959
 20
175.7694057699
 10
210.0946566977
 20
175.8059367513
 10
210.086024357
 20
175.842951341
 10
210.0754565509
 20
175.8804806579
 10
210.0629921352
 20
175.9183031418
 10
210.0486512284
 20
175.9562863025
 10
210.0323213911
 20
175.9945893508
 10
210.0139534663
 20
176.0331226115
 10
209.99361718
 20
176.0715517507
 10
209.9713519351
 20
176.1096446794
  0
LWPOLYLINE
  5
2E8
100
AcDbEntity
  8
RACCORDO
100
AcDbPolyline
 62
7
  6
CONTINUOUS
 90
10
 70
0
 10
211.5150030711
 20
177.0539843459
 10
211.5245420032
 20
177.0603491897
 10
211.5332261875
 20
177.0667361377
 10
211.5409652001
 20
177.0731573913
 10
211.547602129
 20
177.0795414692
 10
211.5529649245
 20
177.0857203854
 10
211.5569690937
 20
177.0915848826
 10
211.5595918849
 20
177.0971183637
 10
211.5607877182
 20
177.1022763248
 10
211.5608587121
 20
177.103774728
  0
LWPOLYLINE
  5
2E9
100
AcDbEntity
  8
RACCORDO
100
AcDbPolyline
 62
7
  6
CONTINUOUS
 90
24
 70
0
 10
211.5411246373
 20
176.2913308639
 10
211.5677404988
 20
176.3084314087
 10
211.5931126633
 20
176.3283915938
 10
211.6169514414
 20
176.3511861094
 10
211.638918357
 20
176.3766814459
 10
211.6588161713
 20
176.4048417327
 10
211.6765480644
 20
176.4358272915
 10
211.6919384749
 20
176.4698254686
 10
211.7045860567
 20
176.5065325469
 10
211.7141629897
 20
176.5454236013
 10
211.7205796932
 20
176.5865868459
 10
211.7236725939
 20
176.6297531065
 10
211.7233698646
 20
176.6737803181
 10
211.7197915996
 20
176.7183827696
 10
211.7130221226
 20
176.7635638176
 10
211.7032957854
 20
176.8084810074
 10
211.6908711744
 20
176.8527225156
 10
211.6758636196
 20
176.8963740488
 10
211.6584334513
 20
176.9392404121
 10
211.6387506212
 20
176.9810988828
 10
211.6169273658
 20
177.0218373192
 10
211.5930331616
 20
177.061374741
 10
211.5671533167
 20
177.0995606561
 10
211.5629576626
 20
177.1053091912
  0
LINE
  5
2EA
100
AcDbEntity
  8
RACCORDO
100
AcDbLine
 62
7
  6
CONTINUOUS
 10
211.5150030711
 20
177.0539843459
 11
210.0432968193
 21
176.1484547928
  0
LWPOLYLINE
  5
2EB
100
AcDbEntity
  8
RACCORDO
100
AcDbPolyline
 62
250
  6
CONTINUOUS
 90
4
 70
0
 10
209.985489865
 20
175.3931265051
 10
209.9921709926
 20
175.3971598936
 10
210.0115533449
 20
175.4110520923
 10
210.0294061742
 20
175.4273126552
  0
LINE
  5
2EC
100
AcDbEntity
  8
ASSI
100
AcDbLine
 62
7
  6
CONTINUOUS
 10
211.5411247836
 20
176.2913306104
 11
209.985489865
 21
175.3931265051
  0
LINE
  5
2ED
100
AcDbEntity
  8
RACCORDO
100
AcDbLine
 62
7
  6
CONTINUOUS
 10
210.0432968193
 20
176.1484547928
 11
209.9572541455
 21
176.1020221451
  0
LINE
  5
2EE
100
AcDbEntity
  8
RACCORDO
100
AcDbLine
 62
7
  6
CONTINUOUS
 10
209.9572541455
 20
176.1020221451
 11
209.947104878
 21
176.0969268969
  0
LWPOLYLINE
  5
2EF
100
AcDbEntity
  8
RACCORDO
100
AcDbPolyline
 62
7
  6
CONTINUOUS
 90
3
 70
0
 10
209.96172241
 20
175.3806513088
 10
209.971912822
 20
175.3857023369
 10
209.9854897187
 20
175.3931267585
  0
LWPOLYLINE
  5
2F0
100
AcDbEntity
  8
RACCORDO
100
AcDbPolyline
 62
7
  6
CONTINUOUS
 90
3
 70
0
 10
209.9617209993
 20
175.3805955239
 10
209.9572529145
 20
175.3785685232
 10
209.947104878
 20
175.374743166
  0
LWPOLYLINE
  5
2F1
100
AcDbEntity
  8
RACCORDO
100
AcDbPolyline
 62
250
  6
CONTINUOUS
 90
27
 70
0
 10
211.5023018685
 20
147.1633593614
 10
211.5238666961
 20
147.130091061
 10
211.5441958242
 20
147.0959267816
 10
211.563198914
 20
147.0610158943
 10
211.5807928813
 20
147.0255079753
 10
211.596897354
 20
146.9895619243
 10
211.6114364348
 20
146.9533456063
 10
211.6243451875
 20
146.9170212922
 10
211.6355680669
 20
146.8807458642
 10
211.6450554189
 20
146.8446801084
 10
211.6527652266
 20
146.8089850744
 10
211.6586644825
 20
146.7738152086
 10
211.6627279761
 20
146.7393192277
 10
211.6649375625
 20
146.7056364212
 10
211.6652808285
 20
146.672928876
 10
211.6637578999
 20
146.6413714405
 10
211.660386655
 20
146.611144446
 10
211.6551856242
 20
146.5823284628
 10
211.6481541148
 20
146.5549517389
 10
211.6393256361
 20
146.5291913111
 10
211.628713906
 20
146.5051244096
 10
211.61623574
 20
146.4826851749
 10
211.6018496658
 20
146.461991746
 10
211.5855953522
 20
146.4432727421
 10
211.5674780325
 20
146.4266791469
 10
211.5475221951
 20
146.4123732819
 10
211.5411247836
 20
146.4085184798
  0
LWPOLYLINE
  5
2F2
100
AcDbEntity
  8
RACCORDO
100
AcDbPolyline
 62
250
  6
CONTINUOUS
 90
7
 70
0
 10
209.9928333295
 20
138.9979667053
 10
209.9911492272
 20
139.0041147434
 10
209.9829979913
 20
139.0400731332
 10
209.9766764044
 20
139.0754912309
 10
209.9722086754
 20
139.1101579611
 10
209.9695956233
 20
139.1439897009
 10
209.9688407015
 20
139.1768458713
  0
LWPOLYLINE
  5
2F3
100
AcDbEntity
  8
RACCORDO
100
AcDbPolyline
 62
250
  6
CONTINUOUS
 90
25
 70
0
 10
211.5047262406
 20
139.7525823404
 10
211.5075246509
 20
139.7197485277
 10
211.5120897628
 20
139.6859485525
 10
211.5184369894
 20
139.6513394651
 10
211.5266129535
 20
139.6160493741
 10
211.5365814484
 20
139.5802743961
 10
211.5482001911
 20
139.5442819235
 10
211.5614111659
 20
139.508273329
 10
211.5761839655
 20
139.4723819573
 10
211.5923812644
 20
139.4367724063
 10
211.6099239832
 20
139.4016181061
 10
211.6287548605
 20
139.3670541182
 10
211.6487596588
 20
139.3331806126
 10
211.6699122715
 20
139.3000425577
 10
211.6920862834
 20
139.2678779591
 10
211.7149805701
 20
139.2370438626
 10
211.7382413008
 20
139.2079161715
 10
211.7619600888
 20
139.1802629854
 10
211.786542693
 20
139.1535744406
 10
211.8120143014
 20
139.127964746
 10
211.8382343736
 20
139.1036359073
 10
211.8654558639
 20
139.0803808883
 10
211.8937385206
 20
139.0583373123
 10
211.9229036483
 20
139.0378958394
 10
211.95285659
 20
139.0193240391
  0
LWPOLYLINE
  5
2F4
100
AcDbEntity
  8
RACCORDO
100
AcDbPolyline
 62
7
  6
CONTINUOUS
 90
22
 70
0
 10
209.947104878
 20
139.2450228667
 10
209.9483460534
 20
139.2073625298
 10
209.9518917821
 20
139.1689789248
 10
209.957742064
 20
139.1298720517
 10
209.9659551743
 20
139.0898159641
 10
209.976472838
 20
139.0490366084
 10
209.989120229
 20
139.0082118237
 10
210.0039329453
 20
138.9673408506
 10
210.020875389
 20
138.9264244485
 10
210.0396659409
 20
138.8861427344
 10
210.0603354916
 20
138.8465063171
 10
210.0828531505
 20
138.8075045878
 10
210.1068446265
 20
138.7697858378
 10
210.1323345541
 20
138.7333715117
 10
210.1592982988
 20
138.6982401648
 10
210.1872876662
 20
138.6649757544
 10
210.2163197992
 20
138.6336094859
 10
210.2463775549
 20
138.6041101539
 10
210.2769613099
 20
138.5769680996
 10
210.3079045229
 20
138.5523467702
 10
210.3393737352
 20
138.5300827186
 10
210.3713689467
 20
138.5101759447
  0
LWPOLYLINE
  5
2F5
100
AcDbEntity
  8
ASSI
100
AcDbPolyline
 62
7
  6
CONTINUOUS
 90
22
 70
0
 10
209.947104878
 20
139.2450228667
 10
209.9483460534
 20
139.2073625298
 10
209.9518917821
 20
139.1689789248
 10
209.957742064
 20
139.1298720517
 10
209.9659551743
 20
139.0898159641
 10
209.976472838
 20
139.0490366084
 10
209.989120229
 20
139.0082118237
 10
210.0039329453
 20
138.9673408506
 10
210.020875389
 20
138.9264244485
 10
210.0396659409
 20
138.8861427344
 10
210.0603354916
 20
138.8465063171
 10
210.0828531505
 20
138.8075045878
 10
210.1068446265
 20
138.7697858378
 10
210.1323345541
 20
138.7333715117
 10
210.1592982988
 20
138.6982401648
 10
210.1872876662
 20
138.6649757544
 10
210.2163197992
 20
138.6336094859
 10
210.2463775549
 20
138.6041101539
 10
210.2769613099
 20
138.5769680996
 10
210.3079045229
 20
138.5523467702
 10
210.3393737352
 20
138.5300827186
 10
210.3713689467
 20
138.5101759447
  0
LINE
  5
2F6
100
AcDbEntity
  8
RACCORDO
100
AcDbLine
 62
250
  6
CONTINUOUS
 10
208.8864447062
 20
138.8775757327
 11
208.8864447062
 21
181.7014417505
  0
LINE
  5
2F7
100
AcDbEntity
  8
ASSI
100
AcDbLine
 62
250
  6
CONTINUOUS
 10
208.8864447062
 20
138.8775757327
 11
208.8864447062
 21
181.7014417505
  0
LWPOLYLINE
  5
2F8
100
AcDbEntity
  8
RACCORDO
100
AcDbPolyline
 62
250
  6
CONTINUOUS
 90
25
 70
0
 10
208.8864447062
 20
181.7014417505
 10
208.887812083
 20
181.7487612732
 10
208.891854981
 20
181.7940196971
 10
208.8985734001
 20
181.8372170222
 10
208.9080215216
 20
181.8785554573
 10
208.9201451642
 20
181.9178327936
 10
208.934781784
 20
181.954442405
 10
208.9519587322
 20
181.9883096091
 10
208.9716486576
 20
182.0195090883
 10
208.9936069627
 20
182.0476582625
 10
209.0178658742
 20
182.0727252116
 10
209.0443931653
 20
182.0947418557
 10
209.0728475587
 20
182.1134213753
 10
209.1032554275
 20
182.1287190456
 10
209.1355903985
 20
182.1406795913
 10
209.1694320743
 20
182.1491503669
 10
209.2047916462
 20
182.1540870989
 10
209.241657923
 20
182.1555340607
 10
209.2795769338
 20
182.1534714274
 10
209.3185991944
 20
182.1478383912
 10
209.3586741891
 20
182.1386957598
 10
209.3991963997
 20
182.1262061317
 10
209.4399639869
 20
182.1104237063
 10
209.4811787901
 20
182.0912942843
 10
209.5228408093
 20
182.0688178656
  0
LWPOLYLINE
  5
2F9
100
AcDbEntity
  8
ASSI
100
AcDbPolyline
 62
250
  6
CONTINUOUS
 90
25
 70
0
 10
208.8864447062
 20
181.7014417505
 10
208.887812083
 20
181.7487612732
 10
208.891854981
 20
181.7940196971
 10
208.8985734001
 20
181.8372170222
 10
208.9080215216
 20
181.8785554573
 10
208.9201451642
 20
181.9178327936
 10
208.934781784
 20
181.954442405
 10
208.9519587322
 20
181.9883096091
 10
208.9716486576
 20
182.0195090883
 10
208.9936069627
 20
182.0476582625
 10
209.0178658742
 20
182.0727252116
 10
209.0443931653
 20
182.0947418557
 10
209.0728475587
 20
182.1134213753
 10
209.1032554275
 20
182.1287190456
 10
209.1355903985
 20
182.1406795913
 10
209.1694320743
 20
182.1491503669
 10
209.2047916462
 20
182.1540870989
 10
209.241657923
 20
182.1555340607
 10
209.2795769338
 20
182.1534714274
 10
209.3185991944
 20
182.1478383912
 10
209.3586741891
 20
182.1386957598
 10
209.3991963997
 20
182.1262061317
 10
209.4399639869
 20
182.1104237063
 10
209.4811787901
 20
182.0912942843
 10
209.5228408093
 20
182.0688178656
  0
LWPOLYLINE
  5
2FA
100
AcDbEntity
  8
RACCORDO
100
AcDbPolyline
 62
250
  6
CONTINUOUS
 90
12
 70
0
 10
209.3107087749
 20
181.7014417505
 10
209.3118951032
 20
181.7373657175
 10
209.3154474558
 20
181.7717188573
 10
209.32134597
 20
181.8043090505
 10
209.3295576656
 20
181.8349540474
 10
209.340036621
 20
181.863482453
 10
209.3527242215
 20
181.8897346933
 10
209.3675495067
 20
181.9135639564
 10
209.3844295651
 20
181.934836987
 10
209.4032699779
 20
181.9534348094
 10
209.4239653533
 20
181.9692534145
 10
209.4349583475
 20
181.9760838672
  0
LWPOLYLINE
  5
2FB
100
AcDbEntity
  8
ASSI
100
AcDbPolyline
 62
250
  6
CONTINUOUS
 90
12
 70
0
 10
209.3107087749
 20
181.7014417505
 10
209.3118951032
 20
181.7373657175
 10
209.3154474558
 20
181.7717188573
 10
209.32134597
 20
181.8043090505
 10
209.3295576656
 20
181.8349540474
 10
209.340036621
 20
181.863482453
 10
209.3527242215
 20
181.8897346933
 10
209.3675495067
 20
181.9135639564
 10
209.3844295651
 20
181.934836987
 10
209.4032699779
 20
181.9534348094
 10
209.4239653533
 20
181.9692534145
 10
209.4349583475
 20
181.9760838672
  0
LWPOLYLINE
  5
2FC
100
AcDbEntity
  8
RACCORDO
100
AcDbPolyline
 62
7
  6
CONTINUOUS
 90
7
 70
0
 10
211.535512748
 20
170.7252983985
 10
211.5432325806
 20
170.7341862286
 10
211.5496576808
 20
170.7434911744
 10
211.5546462323
 20
170.7530050236
 10
211.5581655819
 20
170.7627303299
 10
211.5602483828
 20
170.7726645395
 10
211.5608587113
 20
170.7815528263
  0
LWPOLYLINE
  5
2FD
100
AcDbEntity
  8
RACCORDO
100
AcDbPolyline
 62
7
  6
CONTINUOUS
 90
4
 70
0
 10
211.5047266722
 20
170.7013458156
 10
211.5162834298
 20
170.7089128941
 10
211.5265454551
 20
170.7168970884
 10
211.535512748
 20
170.7252983985
  0
LINE
  5
2FE
100
AcDbEntity
  8
RACCORDO
100
AcDbLine
 62
7
  6
CONTINUOUS
 10
211.4352502535
 20
170.6598057103
 11
211.5047266722
 21
170.7013458156
  0
LINE
  5
2FF
100
AcDbEntity
  8
RACCORDO
100
AcDbLine
 62
7
  6
CONTINUOUS
 10
185.1198023763
 20
154.82071217
 11
184.7139100038
 21
154.6817067954
  0
LWPOLYLINE
  5
300
100
AcDbEntity
  8
RACCORDO
100
AcDbPolyline
 62
7
  6
CONTINUOUS
 90
8
 70
0
 10
170.2889316676
 20
163.0105084993
 10
170.3016171165
 20
163.0141105425
 10
170.3137666249
 20
163.0161990255
 10
170.3253801927
 20
163.0167739484
 10
170.336545218
 20
163.0158149805
 10
170.3471743028
 20
163.0133424525
 10
170.3570052524
 20
163.0094173557
 10
170.3607708822
 20
163.0073986309
  0
LWPOLYLINE
  5
301
100
AcDbEntity
  8
RACCORDO
100
AcDbPolyline
 62
7
  6
CONTINUOUS
 90
5
 70
0
 10
210.0574855023
 20
139.174400318
 10
210.0547464638
 20
139.1876334783
 10
210.0517141457
 20
139.1997370284
 10
210.048434908
 20
139.2107698501
 10
210.0448712278
 20
139.2207447988
  0
LWPOLYLINE
  5
302
100
AcDbEntity
  8
RACCORDO
100
AcDbPolyline
 62
7
  6
CONTINUOUS
 90
3
 70
0
 10
210.0688197474
 20
139.1113307441
 10
210.0627580698
 20
139.1447953373
 10
210.0574855023
 20
139.174400318
  0
LWPOLYLINE
  5
303
100
AcDbEntity
  8
RACCORDO
100
AcDbPolyline
 62
250
  6
CONTINUOUS
 90
10
 70
0
 10
209.5228408093
 20
182.0688178656
 10
209.5236480357
 20
182.047935926
 10
209.5260635715
 20
182.0281450755
 10
209.530069033
 20
182.0095959342
 10
209.5356339363
 20
181.9924296725
 10
209.542715929
 20
181.9767769359
 10
209.5512611129
 20
181.9627568513
 10
209.561204454
 20
181.9504761198
 10
209.5724702775
 20
181.9400282053
 10
209.5849655956
 20
181.9314968073
  0
LWPOLYLINE
  5
304
100
AcDbEntity
  8
ASSI
100
AcDbPolyline
 62
250
  6
CONTINUOUS
 90
10
 70
0
 10
209.5228408093
 20
182.0688178656
 10
209.5236480357
 20
182.047935926
 10
209.5260635715
 20
182.0281450755
 10
209.530069033
 20
182.0095959342
 10
209.5356339363
 20
181.9924296725
 10
209.542715929
 20
181.9767769359
 10
209.5512611129
 20
181.9627568513
 10
209.561204454
 20
181.9504761198
 10
209.5724702775
 20
181.9400282053
 10
209.5849655956
 20
181.9314968073
  0
LINE
  5
305
100
AcDbEntity
  8
RACCORDO
100
AcDbLine
 62
250
  6
CONTINUOUS
 10
209.3107087749
 20
138.8775757327
 11
209.3107087749
 21
181.7014417505
  0
LINE
  5
306
100
AcDbEntity
  8
ASSI
100
AcDbLine
 62
250
  6
CONTINUOUS
 10
209.3107087749
 20
138.8775757327
 11
209.3107087749
 21
181.7014417505
  0
LINE
  5
307
100
AcDbEntity
  8
RACCORDO
100
AcDbLine
 62
7
  6
CONTINUOUS
 10
209.947104878
 20
181.7224021243
 11
209.947104878
 21
139.2450228667
  0
LINE
  5
308
100
AcDbEntity
  8
ASSI
100
AcDbLine
 62
7
  6
CONTINUOUS
 10
209.947104878
 20
181.7224021243
 11
209.947104878
 21
139.2450228667
  0
LINE
  5
309
100
AcDbEntity
  8
RACCORDO
100
AcDbLine
 62
250
  6
CONTINUOUS
 10
209.9688406571
 20
139.1768458457
 11
209.9688406571
 21
145.5014412625
  0
LINE
  5
30A
100
AcDbEntity
  8
RACCORDO
100
AcDbLine
 62
250
  6
CONTINUOUS
 10
209.9688406571
 20
146.2254778005
 11
209.9688406571
 21
175.3842533931
  0
LINE
  5
30B
100
AcDbEntity
  8
RACCORDO
100
AcDbLine
 62
250
  6
CONTINUOUS
 10
209.9688406571
 20
176.1082899311
 11
209.9688406571
 21
181.7098521578
  0
LINE
  5
30C
100
AcDbEntity
  8
RACCORDO
100
AcDbLine
 62
7
  6
CONTINUOUS
 10
210.0432968193
 20
139.2282069341
 11
210.0432968193
 21
145.5443064277
  0
LINE
  5
30D
100
AcDbEntity
  8
DRAFT
100
AcDbLine
 62
7
  6
CONTINUOUS
 10
210.0432968193
 20
146.2656426622
 11
210.0432968193
 21
175.4271185583
  0
LINE
  5
30E
100
AcDbEntity
  8
RACCORDO
100
AcDbLine
 62
7
  6
CONTINUOUS
 10
210.0432968193
 20
176.1484547928
 11
210.0432968193
 21
181.6668621029
  0
LINE
  5
30F
100
AcDbEntity
  8
DRAFT
100
AcDbLine
 62
250
  6
CONTINUOUS
 10
211.4352502535
 20
152.6996233245
 11
211.4352502535
 21
170.6598057103
  0
LINE
  5
310
100
AcDbEntity
  8
RACCORDO
100
AcDbLine
 62
7
  6
CONTINUOUS
 10
211.4913822935
 20
152.7739387533
 11
211.4913822935
 21
170.6933671819
  0
LINE
  5
311
100
AcDbEntity
  8
RACCORDO
100
AcDbLine
 62
250
  6
CONTINUOUS
 10
211.5047266722
 20
180.8230508219
 11
211.5047266722
 21
177.0476611827
  0
LINE
  5
312
100
AcDbEntity
  8
RACCORDO
100
AcDbLine
 62
250
  6
CONTINUOUS
 10
211.5047266722
 20
176.2703147971
 11
211.5047266722
 21
170.7013458156
  0
LINE
  5
313
100
AcDbEntity
  8
DRAFT
100
AcDbLine
 62
250
  6
CONTINUOUS
 10
211.5047266722
 20
149.4752338548
 11
211.5047266722
 21
147.1648490521
  0
LINE
  5
314
100
AcDbEntity
  8
RACCORDO
100
AcDbLine
 62
250
  6
CONTINUOUS
 10
211.5047266722
 20
146.3875026664
 11
211.5047266722
 21
139.7525824952
  0
LINE
  5
315
100
AcDbEntity
  8
RACCORDO
100
AcDbLine
 62
7
  6
CONTINUOUS
 10
211.5608587121
 20
180.7906408856
 11
211.5608587121
 21
177.1037772408
  0
LINE
  5
316
100
AcDbEntity
  8
RACCORDO
100
AcDbLine
 62
7
  6
CONTINUOUS
 10
211.5608587121
 20
176.3040098985
 11
211.5608587121
 21
170.781563223
  0
LINE
  5
317
100
AcDbEntity
  8
RACCORDO
100
AcDbLine
 62
7
  6
CONTINUOUS
 10
211.5608587121
 20
149.5122524072
 11
211.5608587121
 21
147.2209651102
  0
LINE
  5
318
100
AcDbEntity
  8
RACCORDO
100
AcDbLine
 62
7
  6
CONTINUOUS
 10
211.5608587121
 20
146.4211977679
 11
211.5608587121
 21
139.8327999028
  0
LINE
  5
319
100
AcDbEntity
  8
DRAFT
100
AcDbLine
 62
7
  6
CONTINUOUS
 10
212.8918299836
 20
153.4808072139
 11
212.8918299836
 21
150.3900154434
  0
LWPOLYLINE
  5
31A
100
AcDbEntity
  8
RACCORDO
100
AcDbPolyline
 62
250
  6
CONTINUOUS
 90
19
 70
0
 10
209.5228408093
 20
137.7753053496
 10
209.5236480357
 20
137.7971194541
 10
209.5260635715
 20
137.8196997049
 10
209.5300690331
 20
137.8428742527
 10
209.5356339363
 20
137.8664667252
 10
209.542715929
 20
137.8902975694
 10
209.5512611129
 20
137.9141854183
 10
209.561204454
 20
137.9379484709
 10
209.5724702775
 20
137.9614058759
 10
209.5849728436
 20
137.9843791084
 10
209.5986170003
 20
138.0066933282
 10
209.6132989073
 20
138.0281787107
 10
209.6289068265
 20
138.048671739
 10
209.645321972
 20
138.0680164489
 10
209.6624194148
 20
138.0860656154
 10
209.6800690331
 20
138.1026818735
 10
209.6981365024
 20
138.1177387635
 10
209.7164843186
 20
138.1311216933
 10
209.7349728436
 20
138.1427288107
  0
LWPOLYLINE
  5
31B
100
AcDbEntity
  8
ASSI
100
AcDbPolyline
 62
250
  6
CONTINUOUS
 90
19
 70
0
 10
209.5228408093
 20
137.7753053496
 10
209.5236480357
 20
137.7971194541
 10
209.5260635715
 20
137.8196997049
 10
209.5300690331
 20
137.8428742527
 10
209.5356339363
 20
137.8664667252
 10
209.542715929
 20
137.8902975694
 10
209.5512611129
 20
137.9141854183
 10
209.561204454
 20
137.9379484709
 10
209.5724702775
 20
137.9614058759
 10
209.5849728436
 20
137.9843791084
 10
209.5986170003
 20
138.0066933282
 10
209.6132989073
 20
138.0281787107
 10
209.6289068265
 20
138.048671739
 10
209.645321972
 20
138.0680164489
 10
209.6624194148
 20
138.0860656154
 10
209.6800690331
 20
138.1026818735
 10
209.6981365024
 20
138.1177387635
 10
209.7164843186
 20
138.1311216933
 10
209.7349728436
 20
138.1427288107
  0
LWPOLYLINE
  5
31C
100
AcDbEntity
  8
RACCORDO
100
AcDbPolyline
 62
250
  6
CONTINUOUS
 90
9
 70
0
 10
211.5608586622
 20
139.8327183208
 10
211.5606733897
 20
139.8278298529
 10
211.5587131523
 20
139.8159304977
 10
211.554633046
 20
139.8042118899
 10
211.5484767879
 20
139.7927995857
 10
211.5403103387
 20
139.781815858
 10
211.5302211967
 20
139.7713783889
 10
211.5183174609
 20
139.7615990085
 10
211.5047266722
 20
139.7525824952
  0
LINE
  5
31D
100
AcDbEntity
  8
RACCORDO
100
AcDbLine
 62
250
  6
CONTINUOUS
 10
190.890577125
 20
149.0232467228
 11
191.2269732281
 21
149.2174776167
  0
LINE
  5
31E
100
AcDbEntity
  8
ASSI
100
AcDbLine
 62
250
  6
CONTINUOUS
 10
190.890577125
 20
149.0232467228
 11
191.2269732281
 21
149.2174776167
  0
LWPOLYLINE
  5
31F
100
AcDbEntity
  8
RACCORDO
100
AcDbPolyline
 62
250
  6
CONTINUOUS
 90
12
 70
0
 10
191.1905916211
 20
148.9935220162
 10
191.1791500034
 20
148.9874015138
 10
191.1551015703
 20
148.9773906046
 10
191.1295737841
 20
148.9703757297
 10
191.1027094164
 20
148.9663961332
 10
191.0746586893
 20
148.965474078
 10
191.0455784526
 20
148.9676147336
 10
191.0156313477
 20
148.9728061409
 10
190.984984891
 20
148.9810192647
 10
190.9538104851
 20
148.9922081665
 10
190.9222824571
 20
149.0063102747
 10
190.890577125
 20
149.0232467228
  0
LWPOLYLINE
  5
320
100
AcDbEntity
  8
ASSI
100
AcDbPolyline
 62
250
  6
CONTINUOUS
 90
12
 70
0
 10
191.1905916211
 20
148.9935220162
 10
191.1791500034
 20
148.9874015138
 10
191.1551015703
 20
148.9773906046
 10
191.1295737841
 20
148.9703757297
 10
191.1027094164
 20
148.9663961332
 10
191.0746586893
 20
148.965474078
 10
191.0455784526
 20
148.9676147336
 10
191.0156313477
 20
148.9728061409
 10
190.984984891
 20
148.9810192647
 10
190.9538104851
 20
148.9922081665
 10
190.9222824571
 20
149.0063102747
 10
190.890577125
 20
149.0232467228
  0
LINE
  5
321
100
AcDbEntity
  8
RACCORDO
100
AcDbLine
 62
7
  6
CONTINUOUS
 10
186.5523876348
 20
153.6852364959
 11
186.8875693292
 21
153.8000256867
  0
LINE
  5
322
100
AcDbEntity
  8
RACCORDO
100
AcDbLine
 62
7
  6
CONTINUOUS
 10
191.2269732281
 20
151.0582982683
 11
191.1485817126
 21
151.0314516392
  0
LWPOLYLINE
  5
323
100
AcDbEntity
  8
RACCORDO
100
AcDbPolyline
 62
7
  6
CONTINUOUS
 90
8
 70
0
 10
163.995681315
 20
166.709196023
 10
164.008366764
 20
166.7127980663
 10
164.0205162723
 20
166.7148865493
 10
164.0321298401
 20
166.7154614721
 10
164.0432948655
 20
166.7145025043
 10
164.0539239503
 20
166.7120299762
 10
164.0637548998
 20
166.7081048794
 10
164.0675205296
 20
166.7060861546
  0
LWPOLYLINE
  5
324
100
AcDbEntity
  8
RACCORDO
100
AcDbPolyline
 62
250
  6
CONTINUOUS
 90
22
 70
0
 10
190.8020986464
 20
192.8639352063
 10
190.842624452
 20
192.8296267145
 10
190.8827031261
 20
192.7924870647
 10
190.9217280182
 20
192.7530542128
 10
190.9596481264
 20
192.7113260252
 10
190.9965144526
 20
192.6673046356
 10
191.0318733516
 20
192.6215344006
 10
191.0657132937
 20
192.5739847664
 10
191.0980458086
 20
192.5246862869
 10
191.12845184
 20
192.4742749806
 10
191.1569058417
 20
192.4227351453
 10
191.1834333599
 20
192.3700824832
 10
191.2076919764
 20
192.3170001197
 10
191.2296489441
 20
192.2634940404
 10
191.2493370101
 20
192.2095582596
 10
191.2665119975
 20
192.1558579455
 10
191.2811465038
 20
192.1023505913
 10
191.2932679316
 20
192.0490787036
 10
191.3027143114
 20
191.9968349713
 10
191.3094316535
 20
191.9458836238
 10
191.3134739476
 20
191.8959604316
 10
191.3148411937
 20
191.8470653947
  0
LWPOLYLINE
  5
325
100
AcDbEntity
  8
ASSI
100
AcDbPolyline
 62
250
  6
CONTINUOUS
 90
22
 70
0
 10
190.8020986464
 20
192.8639352063
 10
190.842624452
 20
192.8296267145
 10
190.8827031261
 20
192.7924870647
 10
190.9217280182
 20
192.7530542128
 10
190.9596481264
 20
192.7113260252
 10
190.9965144526
 20
192.6673046356
 10
191.0318733516
 20
192.6215344006
 10
191.0657132937
 20
192.5739847664
 10
191.0980458086
 20
192.5246862869
 10
191.12845184
 20
192.4742749806
 10
191.1569058417
 20
192.4227351453
 10
191.1834333599
 20
192.3700824832
 10
191.2076919764
 20
192.3170001197
 10
191.2296489441
 20
192.2634940404
 10
191.2493370101
 20
192.2095582596
 10
191.2665119975
 20
192.1558579455
 10
191.2811465038
 20
192.1023505913
 10
191.2932679316
 20
192.0490787036
 10
191.3027143114
 20
191.9968349713
 10
191.3094316535
 20
191.9458836238
 10
191.3134739476
 20
191.8959604316
 10
191.3148411937
 20
191.8470653947
  0
LWPOLYLINE
  5
326
100
AcDbEntity
  8
RACCORDO
100
AcDbPolyline
 62
7
  6
CONTINUOUS
 90
11
 70
0
 10
256.6691854449
 20
97.183896057
 10
256.7039627994
 20
97.1269169021
 10
256.7404468174
 20
97.0742059487
 10
256.7781110949
 20
97.0257260256
 10
256.8163626275
 20
96.9813925618
 10
256.8548616878
 20
96.9411148915
 10
256.8935605698
 20
96.9048540557
 10
256.9321615504
 20
96.8725633297
 10
256.9703438647
 20
96.844104371
 10
257.0081164444
 20
96.8193627032
 10
257.0227239697
 20
96.8106984817
  0
LWPOLYLINE
  5
327
100
AcDbEntity
  8
ASSI
100
AcDbPolyline
 62
7
  6
CONTINUOUS
 90
11
 70
0
 10
256.6691854449
 20
97.183896057
 10
256.7039627994
 20
97.1269169021
 10
256.7404468174
 20
97.0742059487
 10
256.7781110949
 20
97.0257260256
 10
256.8163626275
 20
96.9813925618
 10
256.8548616878
 20
96.9411148915
 10
256.8935605698
 20
96.9048540557
 10
256.9321615504
 20
96.8725633297
 10
256.9703438647
 20
96.844104371
 10
257.0081164444
 20
96.8193627032
 10
257.0227239697
 20
96.8106984817
  0
LWPOLYLINE
  5
328
100
AcDbEntity
  8
RACCORDO
100
AcDbPolyline
 62
250
  6
CONTINUOUS
 90
5
 70
0
 10
241.4496469061
 20
120.0989421854
 10
241.4417769444
 20
120.1133539668
 10
241.4361123664
 20
120.1281069442
 10
241.4326962829
 20
120.1430888386
 10
241.4315546923
 20
120.1581856287
  0
LWPOLYLINE
  5
329
100
AcDbEntity
  8
ASSI
100
AcDbPolyline
 62
250
  6
CONTINUOUS
 90
5
 70
0
 10
241.4496469061
 20
120.0989421854
 10
241.4417769444
 20
120.1133539668
 10
241.4361123664
 20
120.1281069442
 10
241.4326962829
 20
120.1430888386
 10
241.4315546923
 20
120.1581856287
  0
LINE
  5
32A
100
AcDbEntity
  8
DRAFT
100
AcDbLine
 62
7
  6
CONTINUOUS
 10
214.4860396677
 20
137.5950651067
 11
214.5354444736
 21
137.8364890875
  0
LINE
  5
32B
100
AcDbEntity
  8
DRAFT
100
AcDbLine
 62
7
  6
CONTINUOUS
 10
212.8918299836
 20
153.4808072139
 11
211.4352502535
 21
152.6996233245
  0
LINE
  5
32C
100
AcDbEntity
  8
RACCORDO
100
AcDbLine
 62
7
  6
CONTINUOUS
 10
212.0848693845
 20
153.904864254
 11
211.4913822935
 21
153.6304464399
  0
LINE
  5
32D
100
AcDbEntity
  8
RACCORDO
100
AcDbLine
 62
250
  6
CONTINUOUS
 10
212.1794050968
 20
153.8921524148
 11
211.4913822935
 21
153.5740229785
  0
LWPOLYLINE
  5
32E
100
AcDbEntity
  8
RACCORDO
100
AcDbPolyline
 62
250
  6
CONTINUOUS
 90
19
 70
0
 10
208.8864447062
 20
181.7014417505
 10
208.9057404576
 20
181.6912327903
 10
208.9265038097
 20
181.6820336913
 10
208.9485767406
 20
181.6739144642
 10
208.971791262
 20
181.6669369012
 10
208.9959706976
 20
181.6611541059
 10
209.020931027
 20
181.6566100886
 10
209.0464822873
 20
181.6533394323
 10
209.0724300178
 20
181.6513670285
 10
209.0985767406
 20
181.6507078884
 10
209.1247234634
 20
181.6513670285
 10
209.1506711939
 20
181.6533394323
 10
209.1762224541
 20
181.6566100887
 10
209.2011827836
 20
181.6611541059
 10
209.2253622191
 20
181.6669369013
 10
209.2485767406
 20
181.6739144642
 10
209.2706496715
 20
181.6820336913
 10
209.2914130235
 20
181.6912327903
 10
209.3107087749
 20
181.7014417505
  0
LWPOLYLINE
  5
32F
100
AcDbEntity
  8
ASSI
100
AcDbPolyline
 62
250
  6
CONTINUOUS
 90
19
 70
0
 10
208.8864447062
 20
181.7014417505
 10
208.9057404576
 20
181.6912327903
 10
208.9265038097
 20
181.6820336913
 10
208.9485767406
 20
181.6739144642
 10
208.971791262
 20
181.6669369012
 10
208.9959706976
 20
181.6611541059
 10
209.020931027
 20
181.6566100886
 10
209.0464822873
 20
181.6533394323
 10
209.0724300178
 20
181.6513670285
 10
209.0985767406
 20
181.6507078884
 10
209.1247234634
 20
181.6513670285
 10
209.1506711939
 20
181.6533394323
 10
209.1762224541
 20
181.6566100887
 10
209.2011827836
 20
181.6611541059
 10
209.2253622191
 20
181.6669369013
 10
209.2485767406
 20
181.6739144642
 10
209.2706496715
 20
181.6820336913
 10
209.2914130235
 20
181.6912327903
 10
209.3107087749
 20
181.7014417505
  0
LWPOLYLINE
  5
330
100
AcDbEntity
  8
RACCORDO
100
AcDbPolyline
 62
250
  6
CONTINUOUS
 90
19
 70
0
 10
158.6818632419
 20
210.6889378768
 10
158.7011589934
 20
210.6787289166
 10
158.7219223454
 20
210.6695298176
 10
158.7439952763
 20
210.6614105905
 10
158.7672097978
 20
210.6544330275
 10
158.7913892333
 20
210.6486502321
 10
158.8163495628
 20
210.6441062149
 10
158.841900823
 20
210.6408355586
 10
158.8678485535
 20
210.6388631548
 10
158.8939952763
 20
210.6382040147
 10
158.9201419992
 20
210.6388631548
 10
158.9460897296
 20
210.6408355586
 10
158.9716409899
 20
210.6441062149
 10
158.9966013193
 20
210.6486502321
 10
159.0207807548
 20
210.6544330275
 10
159.0439952763
 20
210.6614105905
 10
159.0660682072
 20
210.6695298176
 10
159.0868315592
 20
210.6787289166
 10
159.1061273107
 20
210.6889378768
  0
LWPOLYLINE
  5
331
100
AcDbEntity
  8
ASSI
100
AcDbPolyline
 62
250
  6
CONTINUOUS
 90
19
 70
0
 10
158.6818632419
 20
210.6889378768
 10
158.7011589934
 20
210.6787289166
 10
158.7219223454
 20
210.6695298176
 10
158.7439952763
 20
210.6614105905
 10
158.7672097978
 20
210.6544330275
 10
158.7913892333
 20
210.6486502321
 10
158.8163495628
 20
210.6441062149
 10
158.841900823
 20
210.6408355586
 10
158.8678485535
 20
210.6388631548
 10
158.8939952763
 20
210.6382040147
 10
158.9201419992
 20
210.6388631548
 10
158.9460897296
 20
210.6408355586
 10
158.9716409899
 20
210.6441062149
 10
158.9966013193
 20
210.6486502321
 10
159.0207807548
 20
210.6544330275
 10
159.0439952763
 20
210.6614105905
 10
159.0660682072
 20
210.6695298176
 10
159.0868315592
 20
210.6787289166
 10
159.1061273107
 20
210.6889378768
  0
LINE
  5
332
100
AcDbEntity
  8
RACCORDO
100
AcDbLine
 62
7
  6
CONTINUOUS
 10
159.3803841313
 20
210.9189929336
 11
190.740569877
 21
192.8120147195
  0
LINE
  5
333
100
AcDbEntity
  8
ASSI
100
AcDbLine
 62
7
  6
CONTINUOUS
 10
159.3803841313
 20
210.9189929336
 11
190.740569877
 21
192.8120147195
  0
LINE
  5
334
100
AcDbEntity
  8
RACCORDO
100
AcDbLine
 62
7
  6
CONTINUOUS
 10
209.5849655956
 20
181.9314968073
 11
240.9451513412
 21
163.8245185932
  0
LINE
  5
335
100
AcDbEntity
  8
ASSI
100
AcDbLine
 62
7
  6
CONTINUOUS
 10
209.5849655956
 20
181.9314968073
 11
240.9451513412
 21
163.8245185932
  0
LINE
  5
336
100
AcDbEntity
  8
RACCORDO
100
AcDbLine
 62
250
  6
CONTINUOUS
 10
159.318259345
 20
211.0563139919
 11
190.6784450906
 21
192.9493357778
  0
LINE
  5
337
100
AcDbEntity
  8
ASSI
100
AcDbLine
 62
250
  6
CONTINUOUS
 10
159.318259345
 20
211.0563139919
 11
190.6784450906
 21
192.9493357778
  0
LINE
  5
338
100
AcDbEntity
  8
RACCORDO
100
AcDbLine
 62
250
  6
CONTINUOUS
 10
209.5228408093
 20
182.0688178656
 11
240.8830265549
 21
163.9618396515
  0
LINE
  5
339
100
AcDbEntity
  8
ASSI
100
AcDbLine
 62
250
  6
CONTINUOUS
 10
209.5228408093
 20
182.0688178656
 11
240.8830265549
 21
163.9618396515
  0
LWPOLYLINE
  5
33A
100
AcDbEntity
  8
RACCORDO
100
AcDbPolyline
 62
7
  6
CONTINUOUS
 90
28
 70
0
 10
190.740569877
 20
192.8120147195
 10
190.7640557063
 20
192.7976909726
 10
190.7884985103
 20
192.7811977889
 10
190.8137345581
 20
192.7625072701
 10
190.8396004648
 20
192.7416073479
 10
190.8659033967
 20
192.7185277449
 10
190.8924384835
 20
192.6933327142
 10
190.919051036
 20
192.666059685
 10
190.9455423444
 20
192.6368079542
 10
190.9716632127
 20
192.6057652938
 10
190.9972489239
 20
192.5730549473
 10
191.0221364486
 20
192.5388185827
 10
191.0461062187
 20
192.5033079183
 10
191.0690177972
 20
192.4666983171
 10
191.0907411322
 20
192.4291726903
 10
191.1111051562
 20
192.3910214236
 10
191.1300116997
 20
192.3524454117
 10
191.1473720465
 20
192.3136554863
 10
191.1630688785
 20
192.2749748757
 10
191.1770554062
 20
192.2366170093
 10
191.1893006549
 20
192.1987911809
 10
191.1997576854
 20
192.1618224903
 10
191.2084396301
 20
192.1259197413
 10
191.2153818008
 20
192.0912613568
 10
191.2206191207
 20
192.0581267924
 10
191.2242267435
 20
192.0267189301
 10
191.2263072399
 20
191.9971506364
 10
191.2269732281
 20
191.9695477727
  0
LWPOLYLINE
  5
33B
100
AcDbEntity
  8
ASSI
100
AcDbPolyline
 62
7
  6
CONTINUOUS
 90
28
 70
0
 10
190.740569877
 20
192.8120147195
 10
190.7640557063
 20
192.7976909726
 10
190.7884985103
 20
192.7811977889
 10
190.8137345581
 20
192.7625072701
 10
190.8396004648
 20
192.7416073479
 10
190.8659033967
 20
192.7185277449
 10
190.8924384835
 20
192.6933327142
 10
190.919051036
 20
192.666059685
 10
190.9455423444
 20
192.6368079542
 10
190.9716632127
 20
192.6057652938
 10
190.9972489239
 20
192.5730549473
 10
191.0221364486
 20
192.5388185827
 10
191.0461062187
 20
192.5033079183
 10
191.0690177972
 20
192.4666983171
 10
191.0907411322
 20
192.4291726903
 10
191.1111051562
 20
192.3910214236
 10
191.1300116997
 20
192.3524454117
 10
191.1473720465
 20
192.3136554863
 10
191.1630688785
 20
192.2749748757
 10
191.1770554062
 20
192.2366170093
 10
191.1893006549
 20
192.1987911809
 10
191.1997576854
 20
192.1618224903
 10
191.2084396301
 20
192.1259197413
 10
191.2153818008
 20
192.0912613568
 10
191.2206191207
 20
192.0581267924
 10
191.2242267435
 20
192.0267189301
 10
191.2263072399
 20
191.9971506364
 10
191.2269732281
 20
191.9695477727
  0
LWPOLYLINE
  5
33C
100
AcDbEntity
  8
RACCORDO
100
AcDbPolyline
 62
7
  6
CONTINUOUS
 90
28
 70
0
 10
240.9451513412
 20
163.8245185932
 10
240.9686371706
 20
163.8101948463
 10
240.9930799746
 20
163.7937016626
 10
241.0183160223
 20
163.7750111438
 10
241.044181929
 20
163.7541112216
 10
241.070484861
 20
163.7310316187
 10
241.0970199477
 20
163.7058365879
 10
241.1236325002
 20
163.6785635587
 10
241.1501238087
 20
163.6493118279
 10
241.176244677
 20
163.6182691675
 10
241.2018303882
 20
163.5855588211
 10
241.2267179128
 20
163.5513224564
 10
241.250687683
 20
163.515811792
 10
241.2735992614
 20
163.4792021908
 10
241.2953225964
 20
163.441676564
 10
241.3156866205
 20
163.4035252973
 10
241.334593164
 20
163.3649492855
 10
241.3519535108
 20
163.32615936
 10
241.3676503427
 20
163.2874787494
 10
241.3816368704
 20
163.249120883
 10
241.3938821191
 20
163.2112950546
 10
241.4043391496
 20
163.174326364
 10
241.4130210944
 20
163.1384236151
 10
241.4199632651
 20
163.1037652306
 10
241.4252005849
 20
163.0706306662
 10
241.4288082078
 20
163.0392228038
 10
241.4308887041
 20
163.0096545102
 10
241.4315546923
 20
162.9820516464
  0
LWPOLYLINE
  5
33D
100
AcDbEntity
  8
ASSI
100
AcDbPolyline
 62
7
  6
CONTINUOUS
 90
28
 70
0
 10
240.9451513412
 20
163.8245185932
 10
240.9686371706
 20
163.8101948463
 10
240.9930799746
 20
163.7937016626
 10
241.0183160223
 20
163.7750111438
 10
241.044181929
 20
163.7541112216
 10
241.070484861
 20
163.7310316187
 10
241.0970199477
 20
163.7058365879
 10
241.1236325002
 20
163.6785635587
 10
241.1501238087
 20
163.6493118279
 10
241.176244677
 20
163.6182691675
 10
241.2018303882
 20
163.5855588211
 10
241.2267179128
 20
163.5513224564
 10
241.250687683
 20
163.515811792
 10
241.2735992614
 20
163.4792021908
 10
241.2953225964
 20
163.441676564
 10
241.3156866205
 20
163.4035252973
 10
241.334593164
 20
163.3649492855
 10
241.3519535108
 20
163.32615936
 10
241.3676503427
 20
163.2874787494
 10
241.3816368704
 20
163.249120883
 10
241.3938821191
 20
163.2112950546
 10
241.4043391496
 20
163.174326364
 10
241.4130210944
 20
163.1384236151
 10
241.4199632651
 20
163.1037652306
 10
241.4252005849
 20
163.0706306662
 10
241.4288082078
 20
163.0392228038
 10
241.4308887041
 20
163.0096545102
 10
241.4315546923
 20
162.9820516464
  0
LWPOLYLINE
  5
33E
100
AcDbEntity
  8
RACCORDO
100
AcDbPolyline
 62
250
  6
CONTINUOUS
 90
4
 70
0
 10
190.6784450906
 20
192.9493357778
 10
190.7201100741
 20
192.9237000786
 10
190.761327926
 20
192.8952332215
 10
190.8020986464
 20
192.8639352063
  0
LWPOLYLINE
  5
33F
100
AcDbEntity
  8
ASSI
100
AcDbPolyline
 62
250
  6
CONTINUOUS
 90
4
 70
0
 10
190.6784450906
 20
192.9493357778
 10
190.7201100741
 20
192.9237000786
 10
190.761327926
 20
192.8952332215
 10
190.8020986464
 20
192.8639352063
  0
LWPOLYLINE
  5
340
100
AcDbEntity
  8
RACCORDO
100
AcDbPolyline
 62
250
  6
CONTINUOUS
 90
4
 70
0
 10
240.8830265549
 20
163.9618396515
 10
240.9246915383
 20
163.9362039524
 10
240.9659093903
 20
163.9077370952
 10
241.0066801106
 20
163.87643908
  0
LWPOLYLINE
  5
341
100
AcDbEntity
  8
ASSI
100
AcDbPolyline
 62
250
  6
CONTINUOUS
 90
4
 70
0
 10
240.8830265549
 20
163.9618396515
 10
240.9246915383
 20
163.9362039524
 10
240.9659093903
 20
163.9077370952
 10
241.0066801106
 20
163.87643908
  0
LWPOLYLINE
  5
342
100
AcDbEntity
  8
RACCORDO
100
AcDbPolyline
 62
250
  6
CONTINUOUS
 90
10
 70
0
 10
191.3148411937
 20
191.8470653947
 10
191.2971598951
 20
191.8582065198
 10
191.2812276148
 20
191.870195019
 10
191.2671656069
 20
191.8829396526
 10
191.255080892
 20
191.8963434264
 10
191.2450654418
 20
191.9103043294
 10
191.2371954802
 20
191.9247161108
 10
191.2315309022
 20
191.9394690883
 10
191.2281148186
 20
191.9544509826
 10
191.2269732281
 20
191.9695477727
  0
LWPOLYLINE
  5
343
100
AcDbEntity
  8
ASSI
100
AcDbPolyline
 62
250
  6
CONTINUOUS
 90
10
 70
0
 10
191.3148411937
 20
191.8470653947
 10
191.2971598951
 20
191.8582065198
 10
191.2812276148
 20
191.870195019
 10
191.2671656069
 20
191.8829396526
 10
191.255080892
 20
191.8963434264
 10
191.2450654418
 20
191.9103043294
 10
191.2371954802
 20
191.9247161108
 10
191.2315309022
 20
191.9394690883
 10
191.2281148186
 20
191.9544509826
 10
191.2269732281
 20
191.9695477727
  0
LWPOLYLINE
  5
344
100
AcDbEntity
  8
RACCORDO
100
AcDbPolyline
 62
250
  6
CONTINUOUS
 90
10
 70
0
 10
241.519422658
 20
162.8595692684
 10
241.5017413594
 20
162.8707103935
 10
241.485809079
 20
162.8826988927
 10
241.4717470712
 20
162.8954435264
 10
241.4596623562
 20
162.9088473001
 10
241.4496469061
 20
162.9228082032
 10
241.4417769444
 20
162.9372199846
 10
241.4361123664
 20
162.951972962
 10
241.4326962829
 20
162.9669548564
 10
241.4315546923
 20
162.9820516464
  0
LWPOLYLINE
  5
345
100
AcDbEntity
  8
ASSI
100
AcDbPolyline
 62
250
  6
CONTINUOUS
 90
10
 70
0
 10
241.519422658
 20
162.8595692684
 10
241.5017413594
 20
162.8707103935
 10
241.485809079
 20
162.8826988927
 10
241.4717470712
 20
162.8954435264
 10
241.4596623562
 20
162.9088473001
 10
241.4496469061
 20
162.9228082032
 10
241.4417769444
 20
162.9372199846
 10
241.4361123664
 20
162.951972962
 10
241.4326962829
 20
162.9669548564
 10
241.4315546923
 20
162.9820516464
  0
LWPOLYLINE
  5
346
100
AcDbEntity
  8
RACCORDO
100
AcDbPolyline
 62
250
  6
CONTINUOUS
 90
27
 70
0
 10
211.5023018685
 20
177.046171492
 10
211.5238666961
 20
177.0129031916
 10
211.5441958242
 20
176.9787389122
 10
211.563198914
 20
176.9438280249
 10
211.5807928813
 20
176.9083201059
 10
211.596897354
 20
176.8723740549
 10
211.6114364348
 20
176.8361577369
 10
211.6243451875
 20
176.7998334228
 10
211.6355680669
 20
176.7635579948
 10
211.6450554189
 20
176.727492239
 10
211.6527652266
 20
176.691797205
 10
211.6586644825
 20
176.6566273392
 10
211.6627279761
 20
176.6221313583
 10
211.6649375625
 20
176.5884485518
 10
211.6652808285
 20
176.5557410066
 10
211.6637578999
 20
176.5241835711
 10
211.660386655
 20
176.4939565766
 10
211.6551856242
 20
176.4651405934
 10
211.6481541148
 20
176.4377638695
 10
211.6393256361
 20
176.4120034417
 10
211.628713906
 20
176.3879365402
 10
211.61623574
 20
176.3654973055
 10
211.6018496658
 20
176.3448038766
 10
211.5855953522
 20
176.3260848727
 10
211.5674780325
 20
176.3094912775
 10
211.5475221951
 20
176.2951854125
 10
211.5411247836
 20
176.2913306104
  0
LINE
  5
347
100
AcDbEntity
  8
DRAFT
100
AcDbLine
 62
7
  6
CONTINUOUS
 10
220.8380967451
 20
133.862423317
 11
220.8994055043
 21
134.1620177476
  0
LWPOLYLINE
  5
348
100
AcDbEntity
  8
RACCORDO
100
AcDbPolyline
 62
250
  6
CONTINUOUS
 90
22
 70
0
 10
210.0294061742
 20
145.5445005245
 10
210.0456455986
 20
145.5630576543
 10
210.0601910193
 20
145.5838243144
 10
210.0729676299
 20
145.6066959687
 10
210.0839140132
 20
145.6315613889
 10
210.0929803061
 20
145.6583058088
 10
210.10012385
 20
145.6868029472
 10
210.1053109286
 20
145.7169173098
 10
210.1085174384
 20
145.7485075931
 10
210.1097283911
 20
145.7814277979
 10
210.1089372571
 20
145.8155302447
 10
210.1061468649
 20
145.850647325
 10
210.1013730959
 20
145.8865936393
 10
210.0946566977
 20
145.9231246207
 10
210.086024357
 20
145.9601392104
 10
210.0754565509
 20
145.9976685273
 10
210.0629921352
 20
146.0354910112
 10
210.0486512284
 20
146.0734741719
 10
210.0323213911
 20
146.1117772202
 10
210.0139534663
 20
146.1503104809
 10
209.99361718
 20
146.1887396201
 10
209.9713519351
 20
146.2268325488
  0
LWPOLYLINE
  5
349
100
AcDbEntity
  8
RACCORDO
100
AcDbPolyline
 62
7
  6
CONTINUOUS
 90
10
 70
0
 10
211.5150030711
 20
147.1711722153
 10
211.5245420032
 20
147.1775370591
 10
211.5332261875
 20
147.183924007
 10
211.5409652001
 20
147.1903452606
 10
211.547602129
 20
147.1967293386
 10
211.5529649245
 20
147.2029082548
 10
211.5569690937
 20
147.208772752
 10
211.5595918849
 20
147.2143062331
 10
211.5607877182
 20
147.2194641942
 10
211.5608587121
 20
147.2209625974
  0
LINE
  5
34A
100
AcDbEntity
  8
DRAFT
100
AcDbLine
 62
7
  6
CONTINUOUS
 10
211.5047266722
 20
149.4752338548
 11
212.8918299836
 21
150.3900154434
  0
LWPOLYLINE
  5
34B
100
AcDbEntity
  8
RACCORDO
100
AcDbPolyline
 62
7
  6
CONTINUOUS
 90
24
 70
0
 10
211.5411246373
 20
146.4085187332
 10
211.5677404988
 20
146.4256192781
 10
211.5931126633
 20
146.4455794632
 10
211.6169514414
 20
146.4683739788
 10
211.638918357
 20
146.4938693152
 10
211.6588161713
 20
146.5220296021
 10
211.6765480644
 20
146.5530151609
 10
211.6919384749
 20
146.587013338
 10
211.7045860567
 20
146.6237204163
 10
211.7141629897
 20
146.6626114706
 10
211.7205796932
 20
146.7037747153
 10
211.7236725939
 20
146.7469409759
 10
211.7233698646
 20
146.7909681875
 10
211.7197915996
 20
146.835570639
 10
211.7130221226
 20
146.880751687
 10
211.7032957854
 20
146.9256688768
 10
211.6908711744
 20
146.969910385
 10
211.6758636196
 20
147.0135619182
 10
211.6584334513
 20
147.0564282814
 10
211.6387506212
 20
147.0982867522
 10
211.6169273658
 20
147.1390251886
 10
211.5930331616
 20
147.1785626104
 10
211.5671533167
 20
147.2167485255
 10
211.5629576626
 20
147.2224970605
  0
LINE
  5
34C
100
AcDbEntity
  8
RACCORDO
100
AcDbLine
 62
7
  6
CONTINUOUS
 10
211.5150030711
 20
147.1711722153
 11
210.0432968193
 21
146.2656426622
  0
LWPOLYLINE
  5
34D
100
AcDbEntity
  8
RACCORDO
100
AcDbPolyline
 62
250
  6
CONTINUOUS
 90
4
 70
0
 10
209.985489865
 20
145.5103143745
 10
209.9921709926
 20
145.514347763
 10
210.0115533449
 20
145.5282399617
 10
210.0294061742
 20
145.5445005245
  0
LINE
  5
34E
100
AcDbEntity
  8
ASSI
100
AcDbLine
 62
7
  6
CONTINUOUS
 10
211.5411247836
 20
146.4085184798
 11
209.985489865
 21
145.5103143745
  0
LINE
  5
34F
100
AcDbEntity
  8
RACCORDO
100
AcDbLine
 62
250
  6
CONTINUOUS
 10
259.9926511244
 20
170.7072088604
 11
260.789341381
 21
171.1672102204
  0
LINE
  5
350
100
AcDbEntity
  8
RACCORDO
100
AcDbLine
 62
7
  6
CONTINUOUS
 10
210.0432968193
 20
146.2656426622
 11
209.9572541455
 21
146.2192100145
  0
LINE
  5
351
100
AcDbEntity
  8
RACCORDO
100
AcDbLine
 62
7
  6
CONTINUOUS
 10
209.9572541455
 20
146.2192100145
 11
209.947104878
 21
146.2141147662
  0
LWPOLYLINE
  5
352
100
AcDbEntity
  8
RACCORDO
100
AcDbPolyline
 62
7
  6
CONTINUOUS
 90
3
 70
0
 10
209.96172241
 20
145.4978391782
 10
209.971912822
 20
145.5028902063
 10
209.9854897187
 20
145.5103146279
  0
LWPOLYLINE
  5
353
100
AcDbEntity
  8
RACCORDO
100
AcDbPolyline
 62
7
  6
CONTINUOUS
 90
3
 70
0
 10
209.9617209993
 20
145.4977833933
 10
209.9572529145
 20
145.4957563926
 10
209.947104878
 20
145.4919310354
  0
LWPOLYLINE
  5
354
100
AcDbEntity
  8
RACCORDO
100
AcDbPolyline
 62
250
  6
CONTINUOUS
 90
22
 70
0
 10
241.0066801106
 20
163.87643908
 10
241.0472059163
 20
163.8421305882
 10
241.0872845904
 20
163.8049909384
 10
241.1263094824
 20
163.7655580866
 10
241.1642295907
 20
163.723829899
 10
241.2010959169
 20
163.6798085093
 10
241.2364548158
 20
163.6340382743
 10
241.270294758
 20
163.5864886401
 10
241.3026272729
 20
163.5371901606
 10
241.3330333042
 20
163.4867788544
 10
241.361487306
 20
163.4352390191
 10
241.3880148242
 20
163.382586357
 10
241.4122734406
 20
163.3295039934
 10
241.4342304083
 20
163.2759979141
 10
241.4539184743
 20
163.2220621334
 10
241.4710934617
 20
163.1683618193
 10
241.4857279681
 20
163.114854465
 10
241.4978493958
 20
163.0615825774
 10
241.5072957756
 20
163.009338845
 10
241.5140131177
 20
162.9583874975
 10
241.5180554118
 20
162.9084643053
 10
241.519422658
 20
162.8595692684
  0
LWPOLYLINE
  5
355
100
AcDbEntity
  8
ASSI
100
AcDbPolyline
 62
250
  6
CONTINUOUS
 90
22
 70
0
 10
241.0066801106
 20
163.87643908
 10
241.0472059163
 20
163.8421305882
 10
241.0872845904
 20
163.8049909384
 10
241.1263094824
 20
163.7655580866
 10
241.1642295907
 20
163.723829899
 10
241.2010959169
 20
163.6798085093
 10
241.2364548158
 20
163.6340382743
 10
241.270294758
 20
163.5864886401
 10
241.3026272729
 20
163.5371901606
 10
241.3330333042
 20
163.4867788544
 10
241.361487306
 20
163.4352390191
 10
241.3880148242
 20
163.382586357
 10
241.4122734406
 20
163.3295039934
 10
241.4342304083
 20
163.2759979141
 10
241.4539184743
 20
163.2220621334
 10
241.4710934617
 20
163.1683618193
 10
241.4857279681
 20
163.114854465
 10
241.4978493958
 20
163.0615825774
 10
241.5072957756
 20
163.009338845
 10
241.5140131177
 20
162.9583874975
 10
241.5180554118
 20
162.9084643053
 10
241.519422658
 20
162.8595692684
  0
LINE
  5
356
100
AcDbEntity
  8
RACCORDO
100
AcDbLine
 62
7
  6
CONTINUOUS
 10
257.3540378379
 20
168.6120621962
 11
257.3762922261
 21
168.6250452764
  0
LINE
  5
357
100
AcDbEntity
  8
ASSI
100
AcDbLine
 62
7
  6
CONTINUOUS
 10
257.3540378379
 20
168.6120621962
 11
257.3762922261
 21
168.6250452764
  0
LINE
  5
358
100
AcDbEntity
  8
RACCORDO
100
AcDbLine
 62
7
  6
CONTINUOUS
 10
256.7042693357
 20
168.2367094498
 11
256.8162796956
 21
168.3018223864
  0
LINE
  5
359
100
AcDbEntity
  8
ASSI
100
AcDbLine
 62
7
  6
CONTINUOUS
 10
256.7042693357
 20
168.2367094498
 11
256.8162796956
 21
168.3018223864
  0
LINE
  5
35A
100
AcDbEntity
  8
RACCORDO
100
AcDbLine
 62
7
  6
CONTINUOUS
 10
260.4875620633
 20
170.421453487
 11
257.3762922261
 21
168.6250452764
  0
LINE
  5
35B
100
AcDbEntity
  8
ASSI
100
AcDbLine
 62
7
  6
CONTINUOUS
 10
260.4875620633
 20
170.421453487
 11
257.3762922261
 21
168.6250452764
  0
LINE
  5
35C
100
AcDbEntity
  8
RACCORDO
100
AcDbLine
 62
250
  6
CONTINUOUS
 10
260.4875620633
 20
169.8502423263
 11
261.2841465124
 21
170.310182594
  0
LINE
  5
35D
100
AcDbEntity
  8
RACCORDO
100
AcDbLine
 62
250
  6
CONTINUOUS
 10
209.3107087749
 20
138.8775757327
 11
209.947104878
 21
139.2450228667
  0
LINE
  5
35E
100
AcDbEntity
  8
ASSI
100
AcDbLine
 62
250
  6
CONTINUOUS
 10
209.3107087749
 20
138.8775757327
 11
209.947104878
 21
139.2450228667
  0
LINE
  5
35F
100
AcDbEntity
  8
RACCORDO
100
AcDbLine
 62
250
  6
CONTINUOUS
 10
209.9688406571
 20
139.1768458457
 11
210.0448712278
 21
139.2207447988
  0
LINE
  5
360
100
AcDbEntity
  8
RACCORDO
100
AcDbLine
 62
250
  6
CONTINUOUS
 10
209.7349728436
 20
138.1427288107
 11
210.3713689467
 21
138.5101759447
  0
LINE
  5
361
100
AcDbEntity
  8
ASSI
100
AcDbLine
 62
250
  6
CONTINUOUS
 10
209.7349728436
 20
138.1427288107
 11
210.3713689467
 21
138.5101759447
  0
LINE
  5
362
100
AcDbEntity
  8
RACCORDO
100
AcDbLine
 62
250
  6
CONTINUOUS
 10
210.4411469157
 20
138.4698870199
 11
210.4674962706
 21
138.4851007567
  0
LINE
  5
363
100
AcDbEntity
  8
RACCORDO
100
AcDbLine
 62
7
  6
CONTINUOUS
 10
256.8162796956
 20
168.3018223864
 11
257.3540378379
 21
168.6120621962
  0
LINE
  5
364
100
AcDbEntity
  8
ASSI
100
AcDbLine
 62
7
  6
CONTINUOUS
 10
256.8162796956
 20
168.3018223864
 11
257.3540378379
 21
168.6120621962
  0
LINE
  5
365
100
AcDbEntity
  8
RACCORDO
100
AcDbLine
 62
7
  6
CONTINUOUS
 10
256.6691854449
 20
168.216810138
 11
256.7042693357
 21
168.2367094498
  0
LINE
  5
366
100
AcDbEntity
  8
ASSI
100
AcDbLine
 62
7
  6
CONTINUOUS
 10
256.6691854449
 20
168.216810138
 11
256.7042693357
 21
168.2367094498
  0
LWPOLYLINE
  5
367
100
AcDbEntity
  8
RACCORDO
100
AcDbPolyline
 62
250
  6
CONTINUOUS
 90
3
 70
0
 10
209.9519652734
 20
139.1684876634
 10
209.9532245732
 20
139.1689986806
 10
209.9688406571
 20
139.1768458457
  0
LINE
  5
368
100
AcDbEntity
  8
RACCORDO
100
AcDbLine
 62
250
  6
CONTINUOUS
 10
210.0432968193
 20
139.2282069341
 11
211.5047266722
 21
139.7525824952
  0
LINE
  5
369
100
AcDbEntity
  8
RACCORDO
100
AcDbLine
 62
250
  6
CONTINUOUS
 10
210.4661490848
 20
138.4858786049
 11
211.9528566164
 21
139.0193240486
  0
LINE
  5
36A
100
AcDbEntity
  8
RACCORDO
100
AcDbLine
 62
7
  6
CONTINUOUS
 10
212.7676775207
 20
138.8571755709
 11
212.4324958263
 21
138.7423863801
  0
LINE
  5
36B
100
AcDbEntity
  8
RACCORDO
100
AcDbLine
 62
7
  6
CONTINUOUS
 10
214.2002627792
 20
137.7216998968
 11
214.5354444736
 21
137.8364890875
  0
LINE
  5
36C
100
AcDbEntity
  8
RACCORDO
100
AcDbLine
 62
250
  6
CONTINUOUS
 10
256.6691854449
 20
168.216810138
 11
143.532100455
 21
233.5407450704
  0
LINE
  5
36D
100
AcDbEntity
  8
ASSI
100
AcDbLine
 62
250
  6
CONTINUOUS
 10
256.6691854449
 20
168.216810138
 11
143.532100455
 21
233.5407450704
  0
LINE
  5
36E
100
AcDbEntity
  8
RACCORDO
100
AcDbLine
 62
250
  6
CONTINUOUS
 10
257.3762922261
 20
168.6250452764
 11
143.532100455
 21
234.3572548022
  0
LINE
  5
36F
100
AcDbEntity
  8
ASSI
100
AcDbLine
 62
250
  6
CONTINUOUS
 10
257.3762922261
 20
168.6250452764
 11
143.532100455
 21
234.3572548022
  0
LINE
  5
370
100
AcDbEntity
  8
RACCORDO
100
AcDbLine
 62
7
  6
CONTINUOUS
 10
219.1316385513
 20
135.1827042309
 11
218.7964568569
 21
135.0679150401
  0
LINE
  5
371
100
AcDbEntity
  8
RACCORDO
100
AcDbLine
 62
7
  6
CONTINUOUS
 10
220.4935131318
 20
134.023012373
 11
220.8994055043
 21
134.1620177476
  0
LWPOLYLINE
  5
372
100
AcDbEntity
  8
RACCORDO
100
AcDbPolyline
 62
250
  6
CONTINUOUS
 90
9
 70
0
 10
260.8855343216
 20
171.1751002586
 10
260.8817276409
 20
171.1771277364
 10
260.87055239
 20
171.1814454448
 10
260.8584775032
 20
171.1838602783
 10
260.8456309032
 20
171.1843466397
 10
260.8321487
 20
171.1828993649
 10
260.8181737332
 20
171.17953378
 10
260.8038540566
 20
171.1742855335
 10
260.789341381
 20
171.1672102204
  0
LWPOLYLINE
  5
373
100
AcDbEntity
  8
RACCORDO
100
AcDbPolyline
 62
7
  6
CONTINUOUS
 90
13
 70
0
 10
150.2636723672
 20
235.0467770728
 10
150.2299796586
 20
235.0649365216
 10
150.1889729662
 20
235.0836194646
 10
150.1480557244
 20
235.0985821119
 10
150.1073350893
 20
235.1098297735
 10
150.0669657898
 20
235.1173717977
 10
150.027220979
 20
235.1212144382
 10
149.9882670127
 20
235.121407196
 10
149.9503113676
 20
235.1180244774
 10
149.9137701708
 20
235.1112067907
 10
149.8789323757
 20
235.1011581916
 10
149.8459211099
 20
235.088089659
 10
149.8279000781
 20
235.0793357396
  0
LINE
  5
374
100
AcDbEntity
  8
SUPERFICI
100
AcDbLine
 62
7
  6
CONTINUOUS
 10
260.4875620633
 20
170.421453487
 11
146.6433702922
 21
236.1536630128
  0
LINE
  5
375
100
AcDbEntity
  8
ASSI
100
AcDbLine
 62
7
  6
CONTINUOUS
 10
260.4875620633
 20
170.421453487
 11
146.6433702922
 21
236.1536630128
  0
LINE
  5
376
100
AcDbEntity
  8
RACCORDO
100
AcDbLine
 62
250
  6
CONTINUOUS
 10
150.167371552
 20
235.0389491808
 11
260.789341381
 21
171.1672102204
  0
LINE
  5
377
100
AcDbEntity
  8
RACCORDO
100
AcDbLine
 62
7
  6
CONTINUOUS
 10
150.2636744045
 20
235.0467758966
 11
260.8856442336
 21
171.1750369361
  0
LWPOLYLINE
  5
378
100
AcDbEntity
  8
RACCORDO
100
AcDbPolyline
 62
250
  6
CONTINUOUS
 90
5
 70
0
 10
260.789341381
 20
171.1672102204
 10
260.8218660456
 20
171.1474732697
 10
260.8540436873
 20
171.1255181927
 10
260.885741432
 20
171.1014780561
 10
260.9167506318
 20
171.07556149
  0
LWPOLYLINE
  5
379
100
AcDbEntity
  8
RACCORDO
100
AcDbPolyline
 62
250
  6
CONTINUOUS
 90
10
 70
0
 10
240.8830265549
 20
163.9618396515
 10
240.8838337813
 20
163.9409577119
 10
240.8862493171
 20
163.9211668614
 10
240.8902547787
 20
163.9026177201
 10
240.8958196819
 20
163.8854514584
 10
240.9029016746
 20
163.8697987218
 10
240.9114468585
 20
163.8557786371
 10
240.9213901997
 20
163.8434979057
 10
240.9326560231
 20
163.8330499912
 10
240.9451513412
 20
163.8245185932
  0
LWPOLYLINE
  5
37A
100
AcDbEntity
  8
ASSI
100
AcDbPolyline
 62
250
  6
CONTINUOUS
 90
10
 70
0
 10
240.8830265549
 20
163.9618396515
 10
240.8838337813
 20
163.9409577119
 10
240.8862493171
 20
163.9211668614
 10
240.8902547787
 20
163.9026177201
 10
240.8958196819
 20
163.8854514584
 10
240.9029016746
 20
163.8697987218
 10
240.9114468585
 20
163.8557786371
 10
240.9213901997
 20
163.8434979057
 10
240.9326560231
 20
163.8330499912
 10
240.9451513412
 20
163.8245185932
  0
LINE
  5
37B
100
AcDbEntity
  8
RACCORDO
100
AcDbLine
 62
7
  6
CONTINUOUS
 10
241.4315546923
 20
162.9820516464
 11
241.4315546923
 21
120.1581856287
  0
LINE
  5
37C
100
AcDbEntity
  8
ASSI
100
AcDbLine
 62
7
  6
CONTINUOUS
 10
241.4315546923
 20
162.9820516464
 11
241.4315546923
 21
120.1581856287
  0
LINE
  5
37D
100
AcDbEntity
  8
RACCORDO
100
AcDbLine
 62
250
  6
CONTINUOUS
 10
241.519422658
 20
162.8595692684
 11
241.519422658
 21
120.0357032507
  0
LINE
  5
37E
100
AcDbEntity
  8
ASSI
100
AcDbLine
 62
250
  6
CONTINUOUS
 10
241.519422658
 20
162.8595692684
 11
241.519422658
 21
120.0357032507
  0
LWPOLYLINE
  5
37F
100
AcDbEntity
  8
RACCORDO
100
AcDbPolyline
 62
7
  6
CONTINUOUS
 90
13
 70
0
 10
241.4315546923
 20
120.1581856287
 10
241.4308300979
 20
120.1306639687
 10
241.4287802025
 20
120.1056954737
 10
241.4256186084
 20
120.0834475084
 10
241.4216060968
 20
120.0640954191
 10
241.4169977629
 20
120.0475993178
 10
241.4120548662
 20
120.0339015231
 10
241.4071271539
 20
120.0230829848
 10
241.4026034899
 20
120.0151261035
 10
241.3988639392
 20
120.009853538
 10
241.3962528887
 20
120.0069414148
 10
241.3950030848
 20
120.0058855782
 10
241.3951730853
 20
120.00602589
  0
LWPOLYLINE
  5
380
100
AcDbEntity
  8
ASSI
100
AcDbPolyline
 62
7
  6
CONTINUOUS
 90
13
 70
0
 10
241.4315546923
 20
120.1581856287
 10
241.4308300979
 20
120.1306639687
 10
241.4287802025
 20
120.1056954737
 10
241.4256186084
 20
120.0834475084
 10
241.4216060968
 20
120.0640954191
 10
241.4169977629
 20
120.0475993178
 10
241.4120548662
 20
120.0339015231
 10
241.4071271539
 20
120.0230829848
 10
241.4026034899
 20
120.0151261035
 10
241.3988639392
 20
120.009853538
 10
241.3962528887
 20
120.0069414148
 10
241.3950030848
 20
120.0058855782
 10
241.3951730853
 20
120.00602589
  0
LWPOLYLINE
  5
381
100
AcDbEntity
  8
RACCORDO
100
AcDbPolyline
 62
250
  6
CONTINUOUS
 90
25
 70
0
 10
241.519422658
 20
120.0357032507
 10
241.5180552811
 20
119.988383728
 10
241.5140123831
 20
119.9431253041
 10
241.5072939641
 20
119.899927979
 10
241.4978458426
 20
119.8585895439
 10
241.4857221999
 20
119.8193122075
 10
241.4710855801
 20
119.7827025962
 10
241.4539086319
 20
119.748835392
 10
241.4342187065
 20
119.7176359129
 10
241.4122604015
 20
119.6894867387
 10
241.38800149
 20
119.6644197896
 10
241.3614741988
 20
119.6424031455
 10
241.3330198055
 20
119.6237236259
 10
241.3026119366
 20
119.6084259556
 10
241.2702769657
 20
119.5964654099
 10
241.2364352898
 20
119.5879946342
 10
241.2010757179
 20
119.5830579023
 10
241.1642094411
 20
119.5816109405
 10
241.1262904303
 20
119.5836735738
 10
241.0872681697
 20
119.58930661
 10
241.047193175
 20
119.5984492414
 10
241.0066709644
 20
119.6109388695
 10
240.9659033772
 20
119.6267212948
 10
240.924688574
 20
119.6458507168
 10
240.8830265549
 20
119.6683271355
  0
LWPOLYLINE
  5
382
100
AcDbEntity
  8
ASSI
100
AcDbPolyline
 62
250
  6
CONTINUOUS
 90
25
 70
0
 10
241.519422658
 20
120.0357032507
 10
241.5180552811
 20
119.988383728
 10
241.5140123831
 20
119.9431253041
 10
241.5072939641
 20
119.899927979
 10
241.4978458426
 20
119.8585895439
 10
241.4857221999
 20
119.8193122075
 10
241.4710855801
 20
119.7827025962
 10
241.4539086319
 20
119.748835392
 10
241.4342187065
 20
119.7176359129
 10
241.4122604015
 20
119.6894867387
 10
241.38800149
 20
119.6644197896
 10
241.3614741988
 20
119.6424031455
 10
241.3330198055
 20
119.6237236259
 10
241.3026119366
 20
119.6084259556
 10
241.2702769657
 20
119.5964654099
 10
241.2364352898
 20
119.5879946342
 10
241.2010757179
 20
119.5830579023
 10
241.1642094411
 20
119.5816109405
 10
241.1262904303
 20
119.5836735738
 10
241.0872681697
 20
119.58930661
 10
241.047193175
 20
119.5984492414
 10
241.0066709644
 20
119.6109388695
 10
240.9659033772
 20
119.6267212948
 10
240.924688574
 20
119.6458507168
 10
240.8830265549
 20
119.6683271355
  0
LWPOLYLINE
  5
383
100
AcDbEntity
  8
RACCORDO
100
AcDbPolyline
 62
250
  6
CONTINUOUS
 90
19
 70
0
 10
240.8830265549
 20
119.6683271355
 10
240.8838337813
 20
119.69014124
 10
240.8862493171
 20
119.7127214908
 10
240.8902547787
 20
119.7358960386
 10
240.8958196819
 20
119.7594885111
 10
240.9029016746
 20
119.7833193553
 10
240.9114468585
 20
119.8072072042
 10
240.9213901996
 20
119.8309702567
 10
240.9326560231
 20
119.8544276618
 10
240.9451585892
 20
119.8774008943
 10
240.9588027459
 20
119.8997151141
 10
240.9734846529
 20
119.9212004965
 10
240.9890925721
 20
119.9416935249
 10
241.0055077176
 20
119.9610382348
 10
241.0226051604
 20
119.9790874013
 10
241.0402547787
 20
119.9957036594
 10
241.058322248
 20
120.0107605494
 10
241.0766700642
 20
120.0241434792
 10
241.0951585892
 20
120.0357505966
  0
LWPOLYLINE
  5
384
100
AcDbEntity
  8
ASSI
100
AcDbPolyline
 62
250
  6
CONTINUOUS
 90
19
 70
0
 10
240.8830265549
 20
119.6683271355
 10
240.8838337813
 20
119.69014124
 10
240.8862493171
 20
119.7127214908
 10
240.8902547787
 20
119.7358960386
 10
240.8958196819
 20
119.7594885111
 10
240.9029016746
 20
119.7833193553
 10
240.9114468585
 20
119.8072072042
 10
240.9213901996
 20
119.8309702567
 10
240.9326560231
 20
119.8544276618
 10
240.9451585892
 20
119.8774008943
 10
240.9588027459
 20
119.8997151141
 10
240.9734846529
 20
119.9212004965
 10
240.9890925721
 20
119.9416935249
 10
241.0055077176
 20
119.9610382348
 10
241.0226051604
 20
119.9790874013
 10
241.0402547787
 20
119.9957036594
 10
241.058322248
 20
120.0107605494
 10
241.0766700642
 20
120.0241434792
 10
241.0951585892
 20
120.0357505966
  0
LINE
  5
385
100
AcDbEntity
  8
DRAFT
100
AcDbLine
 62
7
  6
CONTINUOUS
 10
237.0427459875
 20
124.5711055795
 11
237.0921507935
 21
124.8125295604
  0
LWPOLYLINE
  5
386
100
AcDbEntity
  8
RACCORDO
100
AcDbPolyline
 62
250
  6
CONTINUOUS
 90
21
 70
0
 10
260.9167506318
 20
171.07556149
 10
260.9470367944
 20
171.0478523277
 10
260.9767230681
 20
171.0182580498
 10
261.0057767238
 20
170.9867834055
 10
261.0339749212
 20
170.9536411836
 10
261.0611493501
 20
170.9190267798
 10
261.0871793929
 20
170.8830969336
 10
261.1119680605
 20
170.8459857026
 10
261.1353984656
 20
170.8078739364
 10
261.1573457492
 20
170.7689813971
 10
261.1777618519
 20
170.7294100484
 10
261.1966387429
 20
170.6891629681
 10
261.2138270981
 20
170.6485399456
 10
261.2293101503
 20
170.6075675727
 10
261.243189502
 20
170.5658311418
 10
261.2553639465
 20
170.5232900171
 10
261.2655975634
 20
170.4803634482
 10
261.2737255473
 20
170.4373443605
 10
261.2796088553
 20
170.3944882432
 10
261.2831226819
 20
170.352014709
 10
261.2841465124
 20
170.310182594
  0
LINE
  5
387
100
AcDbEntity
  8
RACCORDO
100
AcDbLine
 62
7
  6
CONTINUOUS
 10
235.3243838405
 20
125.8332160437
 11
234.918491468
 21
125.6942106691
  0
LWPOLYLINE
  5
388
100
AcDbEntity
  8
RACCORDO
100
AcDbPolyline
 62
250
  6
CONTINUOUS
 90
8
 70
0
 10
150.2597570832
 20
235.0488670552
 10
150.248581815
 20
235.0531846212
 10
150.2365069555
 20
235.0555993224
 10
150.2236604301
 20
235.0560855766
 10
150.2101783397
 20
235.0546382322
 10
150.1962035183
 20
235.051272623
 10
150.1818840204
 20
235.0460244053
 10
150.167371552
 20
235.0389491808
  0
LWPOLYLINE
  5
389
100
AcDbEntity
  8
CURVE
100
AcDbPolyline
 62
250
  6
CONTINUOUS
 90
32
 70
0
 10
258.0625481382
 20
106.8088983221
 10
258.0586587985
 20
106.8377333739
 10
258.0549186211
 20
106.8667029312
 10
258.0513489536
 20
106.8958159543
 10
258.0479711438
 20
106.9250814031
 10
258.0448065395
 20
106.9545082379
 10
258.0418764885
 20
106.9841054188
 10
258.0392023385
 20
107.0138819058
 10
258.0368054372
 20
107.0438466592
 10
258.0347071325
 20
107.074008639
 10
258.0329287721
 20
107.1043768054
 10
258.0314917038
 20
107.1349601185
 10
258.0304172753
 20
107.1657675384
 10
258.0297268344
 20
107.1968080252
 10
258.0294417288
 20
107.2280905391
 10
258.0295833064
 20
107.2596240402
 10
258.0301729149
 20
107.2914174887
 10
258.031231902
 20
107.3234798445
 10
258.0327816156
 20
107.355820068
 10
258.0348434033
 20
107.3884471191
 10
258.036511242
 20
107.4103029798
 10
258.0384394265
 20
107.4322870366
 10
258.0406524846
 20
107.4543967223
 10
258.0431749441
 20
107.4766294695
 10
258.0460313328
 20
107.4989827109
 10
258.0492461783
 20
107.5214538791
 10
258.0528440085
 20
107.5440404069
 10
258.0568493511
 20
107.566739727
 10
258.0612867339
 20
107.5895492719
 10
258.0661806847
 20
107.6124664743
 10
258.0715557311
 20
107.6354887671
 10
258.077436401
 20
107.6586135827
  0
LWPOLYLINE
  5
38A
100
AcDbEntity
  8
CURVE
100
AcDbPolyline
 62
250
  6
CONTINUOUS
 90
59
 70
0
 10
258.6751301673
 20
107.6855353123
 10
258.6749559111
 20
107.6924245055
 10
258.6746997793
 20
107.6993146525
 10
258.6743576571
 20
107.7061950042
 10
258.6739254297
 20
107.7130548113
 10
258.6733989823
 20
107.7198833248
 10
258.6727742003
 20
107.7266697956
 10
258.6720469689
 20
107.7334034745
 10
258.6712131733
 20
107.7400736124
 10
258.6702686988
 20
107.7466694601
 10
258.6692094306
 20
107.7531802685
 10
258.668031254
 20
107.7595952884
 10
258.6667300543
 20
107.7659037708
 10
258.6653017167
 20
107.7720949665
 10
258.6637421264
 20
107.7781581263
 10
258.6620471687
 20
107.7840825012
 10
258.6602127289
 20
107.7898573419
 10
258.6582346922
 20
107.7954718994
 10
258.6561089438
 20
107.8009154245
 10
258.653831369
 20
107.806177168
 10
258.6513978531
 20
107.8112463809
 10
258.6488042814
 20
107.816112314
 10
258.6460465389
 20
107.8207642182
 10
258.6431205111
 20
107.8251913443
 10
258.6400220832
 20
107.8293829431
 10
258.6367471404
 20
107.8333282657
 10
258.633291568
 20
107.8370165627
 10
258.6296512512
 20
107.8404370851
 10
258.6258220752
 20
107.8435790838
 10
258.6217458801
 20
107.8464713373
 10
258.6174798891
 20
107.8490713515
 10
258.6130325764
 20
107.8513840992
 10
258.6084124159
 20
107.8534145531
 10
258.6036278818
 20
107.8551676858
 10
258.5986874482
 20
107.8566484699
 10
258.5935995892
 20
107.8578618782
 10
258.5883727788
 20
107.8588128834
 10
258.5830154912
 20
107.8595064582
 10
258.5775362005
 20
107.8599475751
 10
258.5719433808
 20
107.8601412069
 10
258.566245506
 20
107.8600923264
 10
258.5604510505
 20
107.859805906
 10
258.5545684881
 20
107.8592869186
 10
258.5486062931
 20
107.8585403369
 10
258.5425729396
 20
107.8575711334
 10
258.5364769015
 20
107.8563842809
 10
258.5303266531
 20
107.8549847521
 10
258.5241306683
 20
107.8533775195
 10
258.5178974214
 20
107.8515675561
 10
258.5116353863
 20
107.8495598343
 10
258.5053530373
 20
107.8473593268
 10
258.4990588483
 20
107.8449710065
 10
258.4927612935
 20
107.8423998459
 10
258.486468847
 20
107.8396508177
 10
258.4801899828
 20
107.8367288945
 10
258.4739331751
 20
107.8336390492
 10
258.4677068979
 20
107.8303862543
 10
258.4615196254
 20
107.8269754826
 10
258.4553798316
 20
107.8234117067
  0
LINE
  5
38B
100
AcDbEntity
  8
RACCORDO
100
AcDbLine
 62
250
  6
CONTINUOUS
 10
256.6691854449
 20
97.183896057
 11
256.6691854449
 21
168.216810138
  0
LINE
  5
38C
100
AcDbEntity
  8
ASSI
100
AcDbLine
 62
250
  6
CONTINUOUS
 10
256.6691854449
 20
97.183896057
 11
256.6691854449
 21
168.216810138
  0
LINE
  5
38D
100
AcDbEntity
  8
RACCORDO
100
AcDbLine
 62
250
  6
CONTINUOUS
 10
257.3762922261
 20
96.7756609186
 11
257.3762922261
 21
168.6250452764
  0
LINE
  5
38E
100
AcDbEntity
  8
ASSI
100
AcDbLine
 62
250
  6
CONTINUOUS
 10
257.3762922261
 20
96.7756609186
 11
257.3762922261
 21
168.6250452764
  0
LINE
  5
38F
100
AcDbEntity
  8
RACCORDO
100
AcDbLine
 62
7
  6
CONTINUOUS
 10
236.7569690991
 20
124.6977403696
 11
237.0921507935
 21
124.8125295604
  0
LINE
  5
390
100
AcDbEntity
  8
RACCORDO
100
AcDbLine
 62
7
  6
CONTINUOUS
 10
241.4315546923
 20
122.0708021421
 11
241.3531631768
 21
122.043955513
  0
LWPOLYLINE
  5
391
100
AcDbEntity
  8
RACCORDO
100
AcDbPolyline
 62
7
  6
CONTINUOUS
 90
23
 70
0
 10
261.3390715003
 20
170.3895364863
 10
261.338812601
 20
170.4083662058
 10
261.3362779384
 20
170.4519370666
 10
261.3311402469
 20
170.4957804331
 10
261.3234961138
 20
170.5397736198
 10
261.3134341367
 20
170.5838093912
 10
261.3010401652
 20
170.6277685428
 10
261.2863902496
 20
170.6715148761
 10
261.2695814626
 20
170.7148679177
 10
261.250693436
 20
170.7576797884
 10
261.2298044088
 20
170.7998014247
 10
261.2070300628
 20
170.8410256808
 10
261.1824509932
 20
170.8812043229
 10
261.1561567699
 20
170.9201853414
 10
261.1282764365
 20
170.9577564054
 10
261.0988966493
 20
170.9937740762
 10
261.0681084785
 20
171.0280948336
 10
261.0360323449
 20
171.0605317431
 10
261.0027491773
 20
171.0909510928
 10
260.9683195422
 20
171.1192242518
 10
260.932799808
 20
171.1452160651
 10
260.8962499077
 20
171.1687830932
 10
260.8855343217
 20
171.1751002585
  0
LINE
  5
392
100
AcDbEntity
  8
CURVE
100
AcDbLine
 62
250
  6
CONTINUOUS
 10
258.0459414397
 20
103.1225932566
 11
258.0459414397
 21
103.4634238748
  0
LINE
  5
393
100
AcDbEntity
  8
CURVE
100
AcDbLine
 62
250
  6
CONTINUOUS
 10
258.0460262925
 20
106.1982882316
 11
258.0460262925
 21
105.8685754892
  0
LINE
  5
394
100
AcDbEntity
  8
CURVE
100
AcDbLine
 62
250
  6
CONTINUOUS
 10
258.0460262925
 20
105.1502171797
 11
258.0460262925
 21
104.8129978095
  0
LINE
  5
395
100
AcDbEntity
  8
CURVE
100
AcDbLine
 62
250
  6
CONTINUOUS
 10
258.0460262925
 20
104.134935574
 11
258.0460262925
 21
103.794386638
  0
LINE
  5
396
100
AcDbEntity
  8
CURVE
100
AcDbLine
 62
250
  6
CONTINUOUS
 10
258.0460262925
 20
102.9961587566
 11
258.0460262925
 21
102.655560016
  0
LINE
  5
397
100
AcDbEntity
  8
CURVE
100
AcDbLine
 62
250
  6
CONTINUOUS
 10
258.0460262925
 20
102.0235671158
 11
258.0460262925
 21
101.65331989
  0
LINE
  5
398
100
AcDbEntity
  8
CURVE
100
AcDbLine
 62
250
  6
CONTINUOUS
 10
258.6751301673
 20
107.4907537346
 11
258.6751301673
 21
107.6855353123
  0
LINE
  5
399
100
AcDbEntity
  8
CURVE
100
AcDbLine
 62
250
  6
CONTINUOUS
 10
258.9067253673
 20
107.8185208231
 11
258.9067253673
 21
107.6357753461
  0
LINE
  5
39A
100
AcDbEntity
  8
CURVE
100
AcDbLine
 62
250
  6
CONTINUOUS
 10
258.9593749086
 20
106.7110000647
 11
258.9593749086
 21
106.3846789398
  0
LINE
  5
39B
100
AcDbEntity
  8
CURVE
100
AcDbLine
 62
250
  6
CONTINUOUS
 10
259.1778206994
 20
106.4410875882
 11
259.1778206994
 21
106.9052427759
  0
LINE
  5
39C
100
AcDbEntity
  8
CURVE
100
AcDbLine
 62
250
  6
CONTINUOUS
 10
259.4601254912
 20
108.805077293
 11
259.4601254912
 21
108.4772374172
  0
LINE
  5
39D
100
AcDbEntity
  8
CURVE
100
AcDbLine
 62
250
  6
CONTINUOUS
 10
259.4601254912
 20
107.9553016419
 11
259.4601254912
 21
107.61584197
  0
LINE
  5
39E
100
AcDbEntity
  8
CURVE
100
AcDbLine
 62
250
  6
CONTINUOUS
 10
259.4601253036
 20
104.2799559139
 11
259.4601253036
 21
103.9391252957
  0
LINE
  5
39F
100
AcDbEntity
  8
CURVE
100
AcDbLine
 62
250
  6
CONTINUOUS
 10
259.4601253036
 20
102.9874344776
 11
259.4601253036
 21
103.2877918477
  0
LINE
  5
3A0
100
AcDbEntity
  8
CURVE
100
AcDbLine
 62
250
  6
CONTINUOUS
 10
259.4601253036
 20
104.4634363804
 11
259.4601253036
 21
104.7895003172
  0
LINE
  5
3A1
100
AcDbEntity
  8
CURVE
100
AcDbLine
 62
250
  6
CONTINUOUS
 10
259.4601253036
 20
105.2628881508
 11
259.4601253036
 21
105.3106892196
  0
LINE
  5
3A2
100
AcDbEntity
  8
CURVE
100
AcDbLine
 62
250
  6
CONTINUOUS
 10
259.4601253036
 20
105.7859630995
 11
259.4601253036
 21
106.1193858829
  0
LINE
  5
3A3
100
AcDbEntity
  8
CURVE
100
AcDbLine
 62
250
  6
CONTINUOUS
 10
259.4601253036
 20
106.1729055095
 11
259.4601253036
 21
106.5100391503
  0
LINE
  5
3A4
100
AcDbEntity
  8
CURVE
100
AcDbLine
 62
250
  6
CONTINUOUS
 10
259.4601253036
 20
107.1565358284
 11
259.4601253036
 21
107.5157574396
  0
LINE
  5
3A5
100
AcDbEntity
  8
SUPERFICI
100
AcDbLine
 62
7
  6
CONTINUOUS
 10
260.4875620633
 20
98.5720691293
 11
260.4875620633
 21
170.421453487
  0
LINE
  5
3A6
100
AcDbEntity
  8
ASSI
100
AcDbLine
 62
7
  6
CONTINUOUS
 10
260.4875620633
 20
98.5720691293
 11
260.4875620633
 21
170.421453487
  0
LINE
  5
3A7
100
AcDbEntity
  8
RACCORDO
100
AcDbLine
 62
250
  6
CONTINUOUS
 10
261.2841465124
 20
170.310182594
 11
261.2841465124
 21
102.1813797819
  0
LINE
  5
3A8
100
AcDbEntity
  8
RACCORDO
100
AcDbLine
 62
7
  6
CONTINUOUS
 10
261.3390716381
 20
170.389672055
 11
261.3390716381
 21
102.2608692448
  0
LWPOLYLINE
  5
3A9
100
AcDbEntity
  8
RACCORDO
100
AcDbPolyline
 62
250
  6
CONTINUOUS
 90
13
 70
0
 10
261.2841465124
 20
102.1813797819
 10
261.2833473227
 20
102.145433087
 10
261.2805065775
 20
102.1108623046
 10
261.2756440528
 20
102.0778013401
 10
261.2687922215
 20
102.0463988427
 10
261.259985957
 20
102.0167493533
 10
261.2492473386
 20
101.9889059138
 10
261.2366037353
 20
101.9629627949
 10
261.2221100965
 20
101.9390531634
 10
261.2058304064
 20
101.917286905
 10
261.1878203057
 20
101.8977452575
 10
261.1681584679
 20
101.8805204392
 10
261.1497836252
 20
101.8674842894
  0
LWPOLYLINE
  5
3AA
100
AcDbEntity
  8
RACCORDO
100
AcDbPolyline
 62
250
  6
CONTINUOUS
 90
9
 70
0
 10
261.3390716381
 20
102.2608658824
 10
261.3389242547
 20
102.2564368173
 10
261.3370764845
 20
102.2445987894
 10
261.3331309607
 20
102.2329331209
 10
261.3271294752
 20
102.2215634045
 10
261.3191356066
 20
102.2106101032
 10
261.3092340423
 20
102.2001892648
 10
261.2975296783
 20
102.1904112927
 10
261.2841465124
 20
102.1813797819
  0
LWPOLYLINE
  5
3AB
100
AcDbEntity
  8
RACCORDO
100
AcDbPolyline
 62
250
  6
CONTINUOUS
 90
9
 70
0
 10
261.3390715003
 20
170.389536486
 10
261.3389242214
 20
170.385239127
 10
261.3370763697
 20
170.3734011339
 10
261.3331307834
 20
170.3617355209
 10
261.3271292636
 20
170.3503658777
 10
261.3191353924
 20
170.3394126586
 10
261.30923386
 20
170.3289919058
 10
261.2975295668
 20
170.3192140208
 10
261.2841465124
 20
170.310182594
  0
LWPOLYLINE
  5
3AC
100
AcDbEntity
  8
CURVE
100
AcDbPolyline
 62
250
  6
CONTINUOUS
 90
22
 70
0
 10
258.2786073507
 20
107.5288082022
 10
258.2773913293
 20
107.5151550533
 10
258.2763437453
 20
107.5015714051
 10
258.2754645443
 20
107.4880612726
 10
258.2747536716
 20
107.4746286705
 10
258.2742110727
 20
107.4612776139
 10
258.2738366931
 20
107.4480121176
 10
258.2736304781
 20
107.4348361964
 10
258.2735923732
 20
107.4217538653
 10
258.2737223239
 20
107.408769139
 10
258.2740202755
 20
107.3958860326
 10
258.2744861736
 20
107.3831085608
 10
258.2751199636
 20
107.3704407385
 10
258.2759215909
 20
107.3578865807
 10
258.2768910009
 20
107.3454501021
 10
258.2780281391
 20
107.3331353178
 10
258.2792292247
 20
107.3218349627
 10
258.2805610765
 20
107.3106328509
 10
258.2820105121
 20
107.2995193038
 10
258.2835643492
 20
107.2884846429
 10
258.2852094055
 20
107.2775191898
 10
258.2869324986
 20
107.266613266
  0
LINE
  5
3AD
100
AcDbEntity
  8
RACCORDO
100
AcDbLine
 62
250
  6
CONTINUOUS
 10
241.0951585892
 20
120.0357505966
 11
241.4315546923
 21
120.2299814905
  0
LINE
  5
3AE
100
AcDbEntity
  8
ASSI
100
AcDbLine
 62
250
  6
CONTINUOUS
 10
241.0951585892
 20
120.0357505966
 11
241.4315546923
 21
120.2299814905
  0
LWPOLYLINE
  5
3AF
100
AcDbEntity
  8
RACCORDO
100
AcDbPolyline
 62
250
  6
CONTINUOUS
 90
12
 70
0
 10
241.3951730853
 20
120.00602589
 10
241.3837314676
 20
119.9999053876
 10
241.3596830345
 20
119.9898944783
 10
241.3341552484
 20
119.9828796034
 10
241.3072908807
 20
119.9789000069
 10
241.2792401535
 20
119.9779779517
 10
241.2501599168
 20
119.9801186074
 10
241.220212812
 20
119.9853100146
 10
241.1895663553
 20
119.9935231384
 10
241.1583919494
 20
120.0047120402
 10
241.1268639213
 20
120.0188141484
 10
241.0951585892
 20
120.0357505966
  0
LWPOLYLINE
  5
3B0
100
AcDbEntity
  8
ASSI
100
AcDbPolyline
 62
250
  6
CONTINUOUS
 90
12
 70
0
 10
241.3951730853
 20
120.00602589
 10
241.3837314676
 20
119.9999053876
 10
241.3596830345
 20
119.9898944783
 10
241.3341552484
 20
119.9828796034
 10
241.3072908807
 20
119.9789000069
 10
241.2792401535
 20
119.9779779517
 10
241.2501599168
 20
119.9801186074
 10
241.220212812
 20
119.9853100146
 10
241.1895663553
 20
119.9935231384
 10
241.1583919494
 20
120.0047120402
 10
241.1268639213
 20
120.0188141484
 10
241.0951585892
 20
120.0357505966
  0
LWPOLYLINE
  5
3B1
100
AcDbEntity
  8
CURVE
100
AcDbPolyline
 62
250
  6
CONTINUOUS
 90
73
 70
0
 10
258.077436401
 20
107.6586135827
 10
258.0810606746
 20
107.6715452927
 10
258.0850831747
 20
107.6845246638
 10
258.0894734486
 20
107.6975346574
 10
258.0942010435
 20
107.7105582346
 10
258.0992355067
 20
107.7235783567
 10
258.1045463856
 20
107.736577985
 10
258.1101032274
 20
107.7495400808
 10
258.1180830485
 20
107.7672348807
 10
258.1264604553
 20
107.7848072323
 10
258.1352274069
 20
107.8022373995
 10
258.1443758621
 20
107.8195056463
 10
258.1538977798
 20
107.8365922369
 10
258.163785119
 20
107.8534774351
 10
258.1740298386
 20
107.8701415051
 10
258.1852553285
 20
107.8875216307
 10
258.1968502404
 20
107.9046040835
 10
258.2087923736
 20
107.9213612092
 10
258.221059527
 20
107.9377653531
 10
258.2336294997
 20
107.9537888609
 10
258.2464800906
 20
107.969404078
 10
258.259589099
 20
107.98458335
 10
258.2729343238
 20
107.9992990224
 10
258.2853825662
 20
108.012387234
 10
258.2979955857
 20
108.0250555103
 10
258.3107575689
 20
108.0372984467
 10
258.3236527022
 20
108.0491106384
 10
258.336665172
 20
108.0604866806
 10
258.3512602735
 20
108.072625749
 10
258.3659629008
 20
108.084227178
 10
258.3807549373
 20
108.0952997848
 10
258.3956182666
 20
108.1058523862
 10
258.4105347721
 20
108.1158937995
 10
258.4258691138
 20
108.1256651175
 10
258.441220995
 20
108.1348862869
 10
258.4565710789
 20
108.1435355591
 10
258.4719000289
 20
108.1515911854
 10
258.4871885083
 20
108.1590314172
 10
258.5024171803
 20
108.1658345057
 10
258.5156750136
 20
108.1712465537
 10
258.5288648771
 20
108.1761436316
 10
258.5419793598
 20
108.1805149348
 10
258.5550110507
 20
108.1843496588
 10
258.5679525389
 20
108.187636999
 10
258.5807964133
 20
108.1903661507
 10
258.593543157
 20
108.1925282416
 10
258.6061558557
 20
108.1941109216
 10
258.618605679
 20
108.1951048015
 10
258.6308637965
 20
108.1955004922
 10
258.6429013777
 20
108.1952886044
 10
258.6546895924
 20
108.194459749
 10
258.66619961
 20
108.1930045367
 10
258.6774026003
 20
108.1909135784
 10
258.6882697329
 20
108.1881774849
 10
258.6987721773
 20
108.184786867
 10
258.708156923
 20
108.1810634834
 10
258.7172461154
 20
108.1768097687
 10
258.7260815591
 20
108.1720645558
 10
258.7347050588
 20
108.1668666775
 10
258.7431584193
 20
108.1612549667
 10
258.7514834451
 20
108.1552682564
 10
258.759721941
 20
108.1489453793
 10
258.7679157116
 20
108.1423251683
 10
258.7711571039
 20
108.139614748
 10
258.7743457432
 20
108.1368197094
 10
258.7774293372
 20
108.1338961952
 10
258.7803555934
 20
108.1308003484
 10
258.7830722195
 20
108.1274883115
 10
258.7855269231
 20
108.1239162275
 10
258.7876674117
 20
108.120040239
 10
258.789441393
 20
108.1158164889
 10
258.7907965745
 20
108.1112011198
 10
258.7916806638
 20
108.1061502747
  0
LWPOLYLINE
  5
3B2
100
AcDbEntity
  8
CURVE
100
AcDbPolyline
 62
250
  6
CONTINUOUS
 90
44
 70
0
 10
258.8000367544
 20
108.1109749767
 10
258.8024533556
 20
108.1189868244
 10
258.8050809238
 20
108.1269817609
 10
258.8079133145
 20
108.1349577289
 10
258.810944383
 20
108.1429126709
 10
258.8141679848
 20
108.1508445297
 10
258.8175779753
 20
108.1587512477
 10
258.82116821
 20
108.1666307677
 10
258.8249325442
 20
108.1744810323
 10
258.8288648334
 20
108.182299984
 10
258.832958933
 20
108.1900855656
 10
258.8372086983
 20
108.1978357196
 10
258.841607985
 20
108.2055483886
 10
258.8461506482
 20
108.2132215153
 10
258.8508305436
 20
108.2208530424
 10
258.8556415264
 20
108.2284409123
 10
258.8605774522
 20
108.2359830679
 10
258.8656321763
 20
108.2434774516
 10
258.8707995542
 20
108.2509220061
 10
258.8760734412
 20
108.258314674
 10
258.8814476929
 20
108.2656533979
 10
258.8869161646
 20
108.2729361206
 10
258.8924727117
 20
108.2801607845
 10
258.8981111897
 20
108.2873253323
 10
258.903825454
 20
108.2944277067
 10
258.90960936
 20
108.3014658503
 10
258.9154567631
 20
108.3084377056
 10
258.9213615188
 20
108.3153412154
 10
258.9273174824
 20
108.3221743222
 10
258.9333185095
 20
108.3289349686
 10
258.9393584553
 20
108.3356210974
 10
258.9454311754
 20
108.342230651
 10
258.9515305252
 20
108.3487615722
 10
258.95765036
 20
108.3552118035
 10
258.9637845353
 20
108.3615792876
 10
258.9699269066
 20
108.3678619671
 10
258.9760713292
 20
108.3740577846
 10
258.9822116585
 20
108.3801646828
 10
258.9883417501
 20
108.3861806043
 10
258.9944554592
 20
108.3921034916
 10
259.0005466414
 20
108.3979312875
 10
259.0116347204
 20
108.4083646756
 10
259.0226493963
 20
108.4185342872
 10
259.0336134549
 20
108.4285022651
  0
LWPOLYLINE
  5
3B3
100
AcDbEntity
  8
CURVE
100
AcDbPolyline
 62
250
  6
CONTINUOUS
 90
49
 70
0
 10
258.4553798316
 20
107.8234117067
 10
258.4499578278
 20
107.8200818829
 10
258.4445241427
 20
107.8165437286
 10
258.4390851673
 20
107.8128029102
 10
258.4336472923
 20
107.8088650945
 10
258.4282169087
 20
107.8047359481
 10
258.4228004072
 20
107.8004211376
 10
258.4174041788
 20
107.7959263297
 10
258.4120346142
 20
107.7912571909
 10
258.4066981042
 20
107.786419388
 10
258.4014010398
 20
107.7814185876
 10
258.3961498118
 20
107.7762604562
 10
258.3909508109
 20
107.7709506606
 10
258.3858104281
 20
107.7654948674
 10
258.3807350541
 20
107.7598987432
 10
258.3757310799
 20
107.7541679547
 10
258.3708048962
 20
107.7483081684
 10
258.3659628939
 20
107.7423250511
 10
258.3612114639
 20
107.7362242694
 10
258.3565569969
 20
107.7300114898
 10
258.3520058839
 20
107.7236923791
 10
258.3475645156
 20
107.7172726039
 10
258.3432392828
 20
107.7107578308
 10
258.3390365766
 20
107.7041537265
 10
258.3349627875
 20
107.6974659575
 10
258.3310021062
 20
107.6906631575
 10
258.3271786304
 20
107.6837886217
 10
258.3234927712
 20
107.676849469
 10
258.3199449398
 20
107.669852818
 10
258.3165355474
 20
107.6628057877
 10
258.3132650051
 20
107.655715497
 10
258.3101337241
 20
107.6485890647
 10
258.3071421156
 20
107.6414336095
 10
258.3042905907
 20
107.6342562504
 10
258.3015795607
 20
107.6270641062
 10
258.2990094367
 20
107.6198642957
 10
258.2965806298
 20
107.6126639378
 10
258.2942935512
 20
107.6054701514
 10
258.2921486121
 20
107.5982900552
 10
258.2901462237
 20
107.591130768
 10
258.2882867971
 20
107.5839994089
 10
258.2865707435
 20
107.5769030965
 10
258.2849984741
 20
107.5698489497
 10
258.2835704
 20
107.5628440874
 10
258.2822869324
 20
107.5558956284
 10
258.2811484825
 20
107.5490106915
 10
258.2801554615
 20
107.5421963956
 10
258.2793082804
 20
107.5354598596
 10
258.2786073506
 20
107.5288082022
  0
LINE
  5
3B4
100
AcDbEntity
  8
CURVE
100
AcDbLine
 62
250
  6
CONTINUOUS
 10
258.7916806638
 20
108.1061502747
 11
258.8000367544
 21
108.1109749767
  0
LINE
  5
3B5
100
AcDbEntity
  8
CURVE
100
AcDbLine
 62
250
  6
CONTINUOUS
 10
258.9067253673
 20
107.6357753461
 11
259.4601254912
 21
107.9553016419
  0
LINE
  5
3B6
100
AcDbEntity
  8
CURVE
100
AcDbLine
 62
250
  6
CONTINUOUS
 10
258.2869324986
 20
107.266613266
 11
258.6751301673
 21
107.4907537346
  0
LINE
  5
3B7
100
AcDbEntity
  8
CURVE
100
AcDbLine
 62
250
  6
CONTINUOUS
 10
259.4601254912
 20
107.61584197
 11
258.0625481382
 21
106.8088983221
  0
LWPOLYLINE
  5
3B8
100
AcDbEntity
  8
CURVE
100
AcDbPolyline
 62
250
  6
CONTINUOUS
 90
48
 70
0
 10
259.0313244333
 20
108.0806160123
 10
259.0269717775
 20
108.0761569667
 10
259.0226329424
 20
108.071591939
 10
259.0183122071
 20
108.0669245338
 10
259.0140138504
 20
108.0621583556
 10
259.0097421514
 20
108.057297009
 10
259.0055013891
 20
108.0523440984
 10
259.0012958425
 20
108.0473032285
 10
258.9971297905
 20
108.0421780038
 10
258.9930075121
 20
108.0369720288
 10
258.9889332864
 20
108.0316889081
 10
258.9849113924
 20
108.0263322463
 10
258.9809461089
 20
108.0209056478
 10
258.9770417151
 20
108.0154127172
 10
258.9732024898
 20
108.0098570592
 10
258.9694327122
 20
108.0042422781
 10
258.9657366611
 20
107.9985719786
 10
258.9621186156
 20
107.9928497653
 10
258.9585828546
 20
107.9870792425
 10
258.9551336572
 20
107.9812640151
 10
258.9517753023
 20
107.9754076873
 10
258.948512069
 20
107.9695138639
 10
258.9453482361
 20
107.9635861493
 10
258.9422880828
 20
107.9576281481
 10
258.939335888
 20
107.9516434649
 10
258.9364959307
 20
107.9456357042
 10
258.9337724898
 20
107.9396084705
 10
258.9311698444
 20
107.9335653683
 10
258.9286922735
 20
107.9275100024
 10
258.926344056
 20
107.9214459771
 10
258.9241294709
 20
107.915376897
 10
258.9221018679
 20
107.9094574273
 10
258.9202044646
 20
107.9035414346
 10
258.9184363169
 20
107.8976337747
 10
258.9167964806
 20
107.8917393036
 10
258.9152840116
 20
107.8858628773
 10
258.9138979658
 20
107.8800093517
 10
258.912637399
 20
107.8741835828
 10
258.9115013671
 20
107.8683904266
 10
258.910488926
 20
107.862634739
 10
258.9095991315
 20
107.8569213759
 10
258.9088310394
 20
107.8512551934
 10
258.9081837057
 20
107.8456410474
 10
258.9076561862
 20
107.8400837938
 10
258.9072475367
 20
107.8345882886
 10
258.9069568132
 20
107.8291593878
 10
258.9067830714
 20
107.8238019473
 10
258.9067253673
 20
107.8185208231
  0
LINE
  5
3B9
100
AcDbEntity
  8
CURVE
100
AcDbLine
 62
250
  6
CONTINUOUS
 10
258.5367449637
 20
104.32990299
 11
259.4601253036
 21
105.2628881508
  0
LINE
  5
3BA
100
AcDbEntity
  8
CURVE
100
AcDbLine
 62
250
  6
CONTINUOUS
 10
258.8311382654
 20
104.9254810046
 11
258.0460262925
 21
104.134935574
  0
LINE
  5
3BB
100
AcDbEntity
  8
CURVE
100
AcDbLine
 62
250
  6
CONTINUOUS
 10
258.0460262925
 20
101.65331989
 11
259.4601253036
 21
102.9874344776
  0
LINE
  5
3BC
100
AcDbEntity
  8
CURVE
100
AcDbLine
 62
250
  6
CONTINUOUS
 10
259.4601253036
 20
107.5157574396
 11
258.0460262925
 21
106.1982882316
  0
LWPOLYLINE
  5
3BD
100
AcDbEntity
  8
CURVE
100
AcDbPolyline
 62
250
  6
CONTINUOUS
 90
7
 70
0
 10
259.1500285258
 20
108.1945296526
 10
259.1300668172
 20
108.1760408829
 10
259.1101613353
 20
108.1573937602
 10
259.090323218
 20
108.1385579982
 10
259.0705636033
 20
108.1195033105
 10
259.0508936291
 20
108.1001994107
 10
259.0313244333
 20
108.0806160123
  0
LINE
  5
3BE
100
AcDbEntity
  8
CURVE
100
AcDbLine
 62
250
  6
CONTINUOUS
 10
259.190076071
 20
108.2311532791
 11
259.1500285258
 21
108.1945296526
  0
LINE
  5
3BF
100
AcDbEntity
  8
CURVE
100
AcDbLine
 62
250
  6
CONTINUOUS
 10
259.4601254912
 20
108.4772374172
 11
259.2703558116
 21
108.3038328998
  0
LINE
  5
3C0
100
AcDbEntity
  8
CURVE
100
AcDbLine
 62
250
  6
CONTINUOUS
 10
259.2703558116
 20
108.3038328998
 11
259.190076071
 21
108.2311532791
  0
LINE
  5
3C1
100
AcDbEntity
  8
CURVE
100
AcDbLine
 62
250
  6
CONTINUOUS
 10
259.0193948393
 20
102.8968212839
 11
258.0460262925
 21
102.0235671158
  0
LINE
  5
3C2
100
AcDbEntity
  8
CURVE
100
AcDbLine
 62
250
  6
CONTINUOUS
 10
259.0336134549
 20
108.4285022651
 11
259.0554808628
 21
108.4480818918
  0
LINE
  5
3C3
100
AcDbEntity
  8
CURVE
100
AcDbLine
 62
250
  6
CONTINUOUS
 10
259.1778206994
 20
106.9052427759
 11
259.4601253036
 21
107.1565358284
  0
LINE
  5
3C4
100
AcDbEntity
  8
CURVE
100
AcDbLine
 62
250
  6
CONTINUOUS
 10
259.0554808628
 20
108.4480818918
 11
259.1796198975
 21
108.5582093665
  0
LINE
  5
3C5
100
AcDbEntity
  8
CURVE
100
AcDbLine
 62
250
  6
CONTINUOUS
 10
259.409639603
 20
108.7603771672
 11
259.4601254912
 21
108.805077293
  0
LINE
  5
3C6
100
AcDbEntity
  8
CURVE
100
AcDbLine
 62
250
  6
CONTINUOUS
 10
259.1796198975
 20
108.5582093665
 11
259.409639603
 21
108.7603771672
  0
LINE
  5
3C7
100
AcDbEntity
  8
CURVE
100
AcDbLine
 62
250
  6
CONTINUOUS
 10
258.4345850043
 20
106.2513768062
 11
258.9593749086
 21
106.7110000647
  0
LINE
  5
3C8
100
AcDbEntity
  8
CURVE
100
AcDbLine
 62
250
  6
CONTINUOUS
 10
259.4601253036
 20
106.1193858829
 11
258.0460262925
 21
105.1502171797
  0
LWPOLYLINE
  5
3C9
100
AcDbEntity
  8
RACCORDO
100
AcDbPolyline
 62
7
  6
CONTINUOUS
 90
13
 70
0
 10
261.1494523414
 20
101.8672728934
 10
261.1660192106
 20
101.8784901109
 10
261.1938466062
 20
101.9005567169
 10
261.2199777956
 20
101.9257218722
 10
261.2441667098
 20
101.9539851647
 10
261.2660854774
 20
101.9852053355
 10
261.2854047269
 20
102.0190893548
 10
261.3019562652
 20
102.0554924605
 10
261.3156070161
 20
102.0942980537
 10
261.3262160507
 20
102.1352683262
 10
261.3336978285
 20
102.1782743587
 10
261.3379886871
 20
102.2232369948
 10
261.3390716381
 20
102.2608658824
  0
LINE
  5
3CA
100
AcDbEntity
  8
CURVE
100
AcDbLine
 62
250
  6
CONTINUOUS
 10
258.5405951601
 20
105.1850117128
 11
259.4601253036
 21
105.7859630995
  0
LINE
  5
3CB
100
AcDbEntity
  8
RACCORDO
100
AcDbLine
 62
250
  6
CONTINUOUS
 10
261.2841465124
 20
102.1813797819
 11
260.4875620633
 21
101.6719732616
  0
LINE
  5
3CC
100
AcDbEntity
  8
RACCORDO
100
AcDbLine
 62
7
  6
CONTINUOUS
 10
261.1497835818
 20
101.8674842616
 11
260.4875620633
 21
101.4440012778
  0
LINE
  5
3CD
100
AcDbEntity
  8
CURVE
100
AcDbLine
 62
250
  6
CONTINUOUS
 10
258.0459414397
 20
103.4634238748
 11
259.4601253036
 21
104.2799559139
  0
LINE
  5
3CE
100
AcDbEntity
  8
CURVE
100
AcDbLine
 62
250
  6
CONTINUOUS
 10
259.4601253036
 20
103.9391252957
 11
258.0459414397
 21
103.1225932566
  0
LINE
  5
3CF
100
AcDbEntity
  8
RACCORDO
100
AcDbLine
 62
7
  6
CONTINUOUS
 10
260.4875620633
 20
98.5720691293
 11
257.3762922261
 21
96.7756609186
  0
LINE
  5
3D0
100
AcDbEntity
  8
ASSI
100
AcDbLine
 62
7
  6
CONTINUOUS
 10
260.4875620633
 20
98.5720691293
 11
257.3762922261
 21
96.7756609186
  0
LINE
  5
3D1
100
AcDbEntity
  8
CURVE
100
AcDbLine
 62
250
  6
CONTINUOUS
 10
259.4601253036
 20
104.7895003172
 11
258.5367449637
 21
104.32990299
  0
LINE
  5
3D2
100
AcDbEntity
  8
CURVE
100
AcDbLine
 62
250
  6
CONTINUOUS
 10
258.0460262925
 20
103.794386638
 11
259.4601253036
 21
104.4634363804
  0
ELLIPSE
  5
3D3
100
AcDbEntity
  8
RACCORDO
100
AcDbEllipse
 62
7
  6
CONTINUOUS
 10
161.9752115247
 20
182.7159064257
 30
0.0
 11
-0.1002790871
 21
0.1736773754
 31
0.0
 40
0.5757524875
 41
-0.7840766935
 42
-0.0522143436
  0
ELLIPSE
  5
3D4
100
AcDbEntity
  8
RACCORDO
100
AcDbEllipse
 62
7
  6
CONTINUOUS
 10
212.1797929889
 20
153.7284102994
 30
0.0
 11
-0.1002790871
 21
0.1736773754
 31
0.0
 40
0.5757524875
 41
-0.7840766935
 42
-0.0522143436
  0
ELLIPSE
  5
3D5
100
AcDbEntity
  8
DRAFT
100
AcDbEllipse
 62
7
  6
CONTINUOUS
 10
161.0868008292
 20
181.7674862137
 30
0.0
 11
0.1999444062
 21
-0.00862956
 31
0.0
 40
0.5464172455
 41
-0.744365984
 42
0.023578887
  0
ELLIPSE
  5
3D6
100
AcDbEntity
  8
RACCORDO
100
AcDbEllipse
 62
7
  6
CONTINUOUS
 10
222.4103485245
 20
143.2701120573
 30
0.0
 11
12.3661684272
 21
4.0475911847
 31
0.0
 40
0.0365167727
 41
3.129640857
 42
3.1455976358
  0
ELLIPSE
  5
3D7
100
AcDbEntity
  8
RACCORDO
100
AcDbEllipse
 62
7
  6
CONTINUOUS
 10
172.2057670602
 20
172.2576081835
 30
0.0
 11
12.3661684272
 21
4.0475911847
 31
0.0
 40
0.0365167727
 41
3.129640857
 42
3.1455976358
  0
ELLIPSE
  5
3D8
100
AcDbEntity
  8
DRAFT
100
AcDbEllipse
 62
7
  6
CONTINUOUS
 10
211.2913822935
 20
152.7799900874
 30
0.0
 11
0.1999444062
 21
-0.00862956
 31
0.0
 40
0.5464172455
 41
-0.744365984
 42
0.023578887
  0
ENDSEC
  0
SECTION
  2
OBJECTS
  0
DICTIONARY
  5
C
100
AcDbDictionary
280
0
281
1
  3
ACAD_GROUP
350
D
  3
ACAD_MLINESTYLE
350
17
  3
ACAD_LAYOUT
350
1A
  3
ACAD_PLOTSETTINGS
350
19
  3
ACAD_PLOTSTYLENAME
350
E
  0
DICTIONARY
  5
D
102
{ACAD_REACTORS
330
C
102
}
100
AcDbDictionary
280
0
281
1
  0
ACDBDICTIONARYWDFLT
  5
E
102
{ACAD_REACTORS
330
C
102
}
100
AcDbDictionary
281
1
  3
Normal
350
F
100
AcDbDictionaryWithDefault
340
F
  0
DICTIONARY
  5
17
102
{ACAD_REACTORS
330
C
102
}
100
AcDbDictionary
280
0
281
1
  3
Standard
350
18
  0
DICTIONARY
  5
19
102
{ACAD_REACTORS
330
C
102
}
100
AcDbDictionary
281
1
  0
DICTIONARY
  5
1A
102
{ACAD_REACTORS
330
C
102
}
100
AcDbDictionary
281
1
  3
Model
350
3D9
  3
Layout1
350
3DA
  0
ACDBPLACEHOLDER
  5
F
102
{ACAD_REACTORS
330
E
102
}
  0
MLINESTYLE
  5
18
102
{ACAD_REACTORS
330
17
102
}
100
AcDbMlineStyle
  2
STANDARD
 70
0
  3

 62
256
 51
90.0
 52
90.0
 71
2
 49
0.5
 62
256
  6
BYLAYER
 49
-0.5
 62
256
  6
BYLAYER
  0
LAYOUT
  5
3D9
102
{ACAD_REACTORS
330
1A
102
}
100
AcDbPlotSettings
  1

  2
none_device
  4
ISO_A3_(420.00_x_297.00_MM)
  6

 40
0.0
 41
0.0
 42
0.0
 43
0.0
 44
420.0
 45
297.0
 46
0.0
 47
0.0
 48
0.0
 49
0.0
140
0.0
141
0.0
142
1.0
143
1.0
 70
1024
 72
1
 73
0
 74
0
  7

 75
0
147
1.0
148
0.0
149
0.0
100
AcDbLayout
  1
Model
 70
0
 71
0
 10
0.0
 20
0.0
 11
420.0
 21
297.0
 12
0.0
 22
0.0
 32
0.0
 14
0.0
 24
0.0
 34
0.0
 15
0.0
 25
0.0
 35
0.0
146
0.0
 13
0.0
 23
0.0
 33
0.0
 16
1.0
 26
0.0
 36
0.0
 17
0.0
 27
1.0
 37
0.0
 76
0
330
214
345
0
346
0
  0
LAYOUT
  5
3DA
102
{ACAD_REACTORS
330
1A
102
}
100
AcDbPlotSettings
  1

  2
none_device
  4
ISO_A3_(420.00_x_297.00_MM)
  6

 40
0.0
 41
0.0
 42
0.0
 43
0.0
 44
420.0
 45
297.0
 46
0.0
 47
0.0
 48
0.0
 49
0.0
140
0.0
141
0.0
142
1.0
143
1.0
 70
0
 72
1
 73
0
 74
0
  7

 75
0
147
1.0
148
0.0
149
0.0
100
AcDbLayout
  1
Layout1
 70
0
 71
1
 10
0.0
 20
0.0
 11
420.0
 21
297.0
 12
0.0
 22
0.0
 32
0.0
 14
0.0
 24
0.0
 34
0.0
 15
0.0
 25
0.0
 35
0.0
146
0.0
 13
0.0
 23
0.0
 33
0.0
 16
1.0
 26
0.0
 36
0.0
 17
0.0
 27
1.0
 37
0.0
 76
0
330
215
345
0
346
0
  0
ENDSEC
  0
EOF
