  0
SECTION
  2
HEADER
  9
$ACADVER
  1
AC1024
  9
$DWGCODEPAGE
  3
ANSI_1252
  9
$EXTMAX
 10
420.0
 20
297.0
 30
0.0
  9
$EXTMIN
 10
0.0
 20
-0.0
 30
0.0
  9
$LIMMIN
 10
0.0
 20
-0.0
  9
$LIMMAX
 10
420.0
 20
297.0
  9
$VIEWCTR
 10
210.0
 20
148.5
  9
$VIEWSIZE
 40
297.0
  9
$CLAYER
  8
0
  9
$LTSCALE
 40
23.1
  9
$CELTYPE
  6
BYLAYER
  9
$DIMSCALE
 40
1.0
  9
$DIMASZ
 40
3.0
  9
$DIMEXO
 40
0.5
  9
$DIMDLI
 40
15.96
  9
$DIMEXE
 40
1.5
  9
$DIMCEN
 40
3.78
  9
$DIMLFAC
 40
1.0
  9
$DIMBLK
  1
_FILLED
  9
$DIMALT
 70
0
  9
$DIMALTF
 40
0.0393700787
  9
$DIMTXT
 40
3.0
  9
$DIMTOL
 70
1
  9
$DIMLIM
 70
0
  9
$DIMTFAC
 40
1.0
  9
$DIMTP
 40
0.01
  9
$DIMTM
 40
0.01
  9
$DIMGAP
 40
0.625
  9
$DIMDSEP
 70
44
  9
$AUNITS
 70
0
  9
$PDMODE
 70
3
  9
$PDSIZE
 40
3.0
  9
$HANDSEED
  5
477
  9
$TILEMODE
 70
1
  9
$MEASUREMENT
 70
1
  9
$INSUNITS
 70
4
  0
ENDSEC
  0
SECTION
  2
CLASSES
  0
CLASS
  1
ACDBDICTIONARYWDFLT
  2
AcDbDictionaryWithDefault
  3
AutoCAD 2000
 90
0
 91
1
280
0
281
0
  0
CLASS
  1
ACDBPLACEHOLDER
  2
AcDbPlaceHolder
  3
AutoCAD 2000
 90
0
 91
1
280
0
281
0
  0
CLASS
  1
LAYOUT
  2
AcDbLayout
  3
AutoCAD 2000
 90
0
 91
0
280
0
281
0
  0
ENDSEC
  0
SECTION
  2
TABLES
  0
TABLE
  2
VPORT
  5
8
100
AcDbSymbolTable
 70
2
  0
VPORT
  5
1F4
100
AcDbSymbolTableRecord
100
AcDbViewportTableRecord
  2
*ACTIVE
 70
0
 10
0.0
 20
0.0
 11
1.0
 21
1.0
 12
210.0
 22
148.5
 13
0.0
 23
0.0
 14
1.0
 24
1.0
 15
0.0
 25
0.0
 16
0.0
 26
0.0
 36
1.0
 17
0.0
 27
0.0
 37
0.0
 40
297.0
 41
1.4141414141
 42
50.0
 43
0.0
 44
0.0
 50
0.0
 51
0.0
 71
0
 72
100
 73
1
 74
1
 75
0
 76
0
 77
0
 78
0
  0
ENDTAB
  0
TABLE
  2
LTYPE
  5
5
100
AcDbSymbolTable
 70
6
  0
LTYPE
  5
14
100
AcDbSymbolTableRecord
100
AcDbLinetypeTableRecord
  2
BYBLOCK
 70
0
  3

 72
65
 73
0
 40
0.0
  0
LTYPE
  5
15
100
AcDbSymbolTableRecord
100
AcDbLinetypeTableRecord
  2
BYLAYER
 70
0
  3

 72
65
 73
0
 40
0.0
  0
LTYPE
  5
16
100
AcDbSymbolTableRecord
100
AcDbLinetypeTableRecord
  2
CONTINUOUS
 70
64
  3
Solid line
 72
65
 73
0
 40
0.0
  0
LTYPE
  5
1F5
100
AcDbSymbolTableRecord
100
AcDbLinetypeTableRecord
  2
CENTER
 70
64
  3
____ _ ____ _ ____ _ ____ _ ____ _ ____ _ ____
 72
65
 73
4
 40
0.6
 49
0.375
 74
0
 49
-0.075
 74
0
 49
0.075
 74
0
 49
-0.075
 74
0
  0
LTYPE
  5
1F6
100
AcDbSymbolTableRecord
100
AcDbLinetypeTableRecord
  2
HIDDEN
 70
64
  3
- - - - - - - - - - - - - - - - - - - -
 72
65
 73
2
 40
0.2
 49
0.1
 74
0
 49
-0.1
 74
0
  0
LTYPE
  5
1F7
100
AcDbSymbolTableRecord
100
AcDbLinetypeTableRecord
  2
PHANTOM
 70
64
  3
_____ _ _ _____ _ _ _____ _ _ _____
 72
65
 73
6
 40
0.8
 49
0.45
 74
0
 49
-0.05
 74
0
 49
0.1
 74
0
 49
-0.05
 74
0
 49
0.1
 74
0
 49
-0.05
 74
0
  0
LTYPE
  5
1F8
100
AcDbSymbolTableRecord
100
AcDbLinetypeTableRecord
  2
DOT
 70
64
  3
. . . . . . . . . . . . . . . . . . . .
 72
65
 73
2
 40
0.2
 49
0.1
 74
0
 49
-0.1
 74
0
  0
LTYPE
  5
1F9
100
AcDbSymbolTableRecord
100
AcDbLinetypeTableRecord
  2
DASHED
 70
64
  3
- - - - - - - - - - - - - - - - - - - -
 72
65
 73
2
 40
0.2
 49
0.1
 74
0
 49
-0.1
 74
0
  0
ENDTAB
  0
TABLE
  2
LAYER
  5
2
100
AcDbSymbolTable
 70
36
  0
LAYER
  5
10
100
AcDbSymbolTableRecord
100
AcDbLayerTableRecord
  2
0
 70
0
 62
7
  6
CONTINUOUS
370
-3
390
F
  0
LAYER
  5
1FA
100
AcDbSymbolTableRecord
100
AcDbLayerTableRecord
  2
DEFAULT_1
 70
0
 62
7
  6
CENTER
370
-3
390
F
  0
LAYER
  5
1FB
100
AcDbSymbolTableRecord
100
AcDbLayerTableRecord
  2
DEFAULT_2
 70
0
 62
7
  6
HIDDEN
370
-3
390
F
  0
LAYER
  5
1FC
100
AcDbSymbolTableRecord
100
AcDbLayerTableRecord
  2
DEFAULT_3
 70
0
 62
7
  6
PHANTOM
370
-3
390
F
  0
LAYER
  5
1FD
100
AcDbSymbolTableRecord
100
AcDbLayerTableRecord
  2
ASSI
 70
0
 62
7
  6
CONTINUOUS
370
-3
390
F
  0
LAYER
  5
1FE
100
AcDbSymbolTableRecord
100
AcDbLayerTableRecord
  2
COORDINATE
 70
0
 62
7
  6
CONTINUOUS
370
-3
390
F
  0
LAYER
  5
1FF
100
AcDbSymbolTableRecord
100
AcDbLayerTableRecord
  2
COPY_PUBLISH
 70
0
 62
7
  6
CONTINUOUS
370
-3
390
F
  0
LAYER
  5
200
100
AcDbSymbolTableRecord
100
AcDbLayerTableRecord
  2
COSMETICI
 70
0
 62
7
  6
CONTINUOUS
370
-3
390
F
  0
LAYER
  5
201
100
AcDbSymbolTableRecord
100
AcDbLayerTableRecord
  2
CURVE
 70
0
 62
7
  6
CONTINUOUS
370
-3
390
F
  0
LAYER
  5
202
100
AcDbSymbolTableRecord
100
AcDbLayerTableRecord
  2
DRAFT
 70
0
 62
7
  6
CONTINUOUS
370
-3
390
F
  0
LAYER
  5
203
100
AcDbSymbolTableRecord
100
AcDbLayerTableRecord
  2
IMPORT_IGES
 70
0
 62
7
  6
CONTINUOUS
370
-3
390
F
  0
LAYER
  5
204
100
AcDbSymbolTableRecord
100
AcDbLayerTableRecord
  2
INTF_1
 70
0
 62
7
  6
CONTINUOUS
370
-3
390
F
  0
LAYER
  5
205
100
AcDbSymbolTableRecord
100
AcDbLayerTableRecord
  2
INTF_11
 70
0
 62
7
  6
CONTINUOUS
370
-3
390
F
  0
LAYER
  5
206
100
AcDbSymbolTableRecord
100
AcDbLayerTableRecord
  2
INTF_13
 70
0
 62
7
  6
CONTINUOUS
370
-3
390
F
  0
LAYER
  5
207
100
AcDbSymbolTableRecord
100
AcDbLayerTableRecord
  2
INTF_2
 70
0
 62
7
  6
CONTINUOUS
370
-3
390
F
  0
LAYER
  5
208
100
AcDbSymbolTableRecord
100
AcDbLayerTableRecord
  2
INTF_8
 70
0
 62
7
  6
CONTINUOUS
370
-3
390
F
  0
LAYER
  5
209
100
AcDbSymbolTableRecord
100
AcDbLayerTableRecord
  2
NOTE
 70
0
 62
7
  6
CONTINUOUS
370
-3
390
F
  0
LAYER
  5
20A
100
AcDbSymbolTableRecord
100
AcDbLayerTableRecord
  2
PIANI
 70
0
 62
7
  6
CONTINUOUS
370
-3
390
F
  0
LAYER
  5
20B
100
AcDbSymbolTableRecord
100
AcDbLayerTableRecord
  2
PUNTI
 70
0
 62
7
  6
CONTINUOUS
370
-3
390
F
  0
LAYER
  5
20C
100
AcDbSymbolTableRecord
100
AcDbLayerTableRecord
  2
RACCORDO
 70
0
 62
7
  6
CONTINUOUS
370
-3
390
F
  0
LAYER
  5
20D
100
AcDbSymbolTableRecord
100
AcDbLayerTableRecord
  2
SIMBOLI
 70
0
 62
7
  6
CONTINUOUS
370
-3
390
F
  0
LAYER
  5
20E
100
AcDbSymbolTableRecord
100
AcDbLayerTableRecord
  2
SMUSSO
 70
0
 62
7
  6
CONTINUOUS
370
-3
390
F
  0
LAYER
  5
20F
100
AcDbSymbolTableRecord
100
AcDbLayerTableRecord
  2
SNAPLINE
 70
0
 62
7
  6
CONTINUOUS
370
-3
390
F
  0
LAYER
  5
210
100
AcDbSymbolTableRecord
100
AcDbLayerTableRecord
  2
SUPERFICI
 70
0
 62
7
  6
CONTINUOUS
370
-3
390
F
  0
LAYER
  5
211
100
AcDbSymbolTableRecord
100
AcDbLayerTableRecord
  2
TRASH
 70
0
 62
7
  6
CONTINUOUS
370
-3
390
F
  0
ENDTAB
  0
TABLE
  2
STYLE
  5
3
100
AcDbSymbolTable
 70
1
  0
STYLE
  5
11
100
AcDbSymbolTableRecord
100
AcDbTextStyleTableRecord
  2
STANDARD
 70
0
 40
0.0
 41
0.8
 50
0.0
 71
0
 42
0.2
  3
txt
  4

  0
STYLE
  5
212
100
AcDbSymbolTableRecord
100
AcDbTextStyleTableRecord
  2
TEXTSTYLE_1
 70
0
 40
0.0
 41
0.8
 50
0.0
 71
0
 42
0.2
  3
gdt
  4

  0
ENDTAB
  0
TABLE
  2
VIEW
  5
6
100
AcDbSymbolTable
 70
0
  0
ENDTAB
  0
TABLE
  2
UCS
  5
7
100
AcDbSymbolTable
 70
0
  0
ENDTAB
  0
TABLE
  2
APPID
  5
9
100
AcDbSymbolTable
 70
1
  0
APPID
  5
213
100
AcDbSymbolTableRecord
100
AcDbRegAppTableRecord
  2
ACAD
 70
0
  0
ENDTAB
  0
TABLE
  2
BLOCK_RECORD
  5
1
100
AcDbSymbolTable
 70
0
  0
BLOCK_RECORD
  5
214
100
AcDbSymbolTableRecord
100
AcDbBlockTableRecord
  2
*Model_Space
  0
BLOCK_RECORD
  5
215
100
AcDbSymbolTableRecord
100
AcDbBlockTableRecord
  2
*Paper_Space
  0
BLOCK_RECORD
  5
216
100
AcDbSymbolTableRecord
100
AcDbBlockTableRecord
  2
_FILLED
  0
ENDTAB
  0
TABLE
  2
DIMSTYLE
  5
A
100
AcDbSymbolTable
 70
1
100
AcDbDimStyleTable
 71
0
  0
DIMSTYLE
105
217
100
AcDbSymbolTableRecord
100
AcDbDimStyleTableRecord
  2
STANDARD
 70
0
  3

  4

 40
1.0
 41
3.0
 42
0.5
 43
0.38
 44
1.5
 45
0.0
 46
0.0
 47
0.01
 48
0.01
140
3.0
141
0.09
142
0.0
143
25.4
144
1.0
145
0.0
146
1.0
147
0.625
 71
1
 72
0
 73
0
 74
0
 75
0
 76
0
 77
1
 78
8
 79
2
170
0
171
1
172
0
173
0
174
0
175
0
176
0
177
0
178
0
270
2
179
2
271
2
272
2
273
2
274
2
275
0
280
0
281
0
282
0
283
1
284
8
285
0
286
0
287
3
288
0
340
11
278
44
341
216
342
216
343
216
344
216
  0
ENDTAB
  0
ENDSEC
  0
SECTION
  2
BLOCKS
  0
BLOCK
  5
20
100
AcDbEntity
  8
0
100
AcDbBlockBegin
  2
*Model_Space
 70
0
 10
0.0
 20
0.0
 30
0.0
  3
*Model_Space
  1

  0
ENDBLK
  5
21
100
AcDbEntity
  8
0
100
AcDbBlockEnd
  0
BLOCK
  5
1C
100
AcDbEntity
  8
0
100
AcDbBlockBegin
  2
*Paper_Space
 70
0
 10
0.0
 20
0.0
 30
0.0
  3
*Paper_Space
  1

  0
ENDBLK
  5
1D
100
AcDbEntity
  8
0
100
AcDbBlockEnd
  0
BLOCK
  5
218
100
AcDbEntity
  8
0
100
AcDbBlockBegin
  2
_FILLED
 70
64
 10
0.0
 20
0.0
  3
_FILLED
  1

  0
SOLID
  5
219
100
AcDbEntity
  8
0
  6
BYBLOCK
 62
0
100
AcDbTrace
 10
0.0
 20
0.0
 11
-1.0
 21
0.3166666667
 12
-1.0
 22
-0.3166666667
 13
-1.0
 23
-0.3166666667
  0
ENDBLK
  5
21A
100
AcDbEntity
  8
0
  6
BYBLOCK
 62
0
100
AcDbBlockEnd
  0
ENDSEC
  0
SECTION
  2
ENTITIES
  0
LINE
  5
21B
100
AcDbEntity
  8
RACCORDO
100
AcDbLine
 62
7
  6
CONTINUOUS
 10
173.5862821005
 20
226.8117867701
 11
170.4750122633
 21
225.0153785594
  0
LINE
  5
21C
100
AcDbEntity
  8
0
100
AcDbLine
 62
7
  6
CONTINUOUS
 10
173.5862821005
 20
226.8117867701
 11
170.4750122633
 21
225.0153785594
  0
LINE
  5
21D
100
AcDbEntity
  8
RACCORDO
100
AcDbLine
 62
7
  6
CONTINUOUS
 10
176.7712103722
 20
225.7376677077
 11
176.0732834191
 21
225.3758233782
  0
LINE
  5
21E
100
AcDbEntity
  8
RACCORDO
100
AcDbLine
 62
250
  6
CONTINUOUS
 10
177.1102833603
 20
225.6970729381
 11
176.2707470019
 21
225.2618103803
  0
LWPOLYLINE
  5
21F
100
AcDbEntity
  8
RACCORDO
100
AcDbPolyline
 62
250
  6
CONTINUOUS
 90
13
 70
0
 10
176.7712103722
 20
225.7376677077
 10
176.7840696051
 20
225.7438446372
 10
176.8088193391
 20
225.7532062974
 10
176.8348729663
 20
225.759915357
 10
176.8621303947
 20
225.7639303442
 10
176.8904781976
 20
225.7652194072
 10
176.9198465727
 20
225.7637578907
 10
176.9501477504
 20
225.759520441
 10
176.9812310586
 20
225.7524985036
 10
177.012926236
 20
225.7427075653
 10
177.0450850481
 20
225.7301792668
 10
177.0775840779
 20
225.7149503842
 10
177.1102833603
 20
225.6970729381
  0
LINE
  5
220
100
AcDbEntity
  8
CURVE
100
AcDbLine
 62
250
  6
CONTINUOUS
 10
335.1935195651
 20
64.326187647
 11
336.1668881118
 21
64.5674489149
  0
LINE
  5
221
100
AcDbEntity
  8
CURVE
100
AcDbLine
 62
250
  6
CONTINUOUS
 10
336.1068681811
 20
68.0553065708
 11
335.5820782769
 21
67.9220044372
  0
LINE
  5
222
100
AcDbEntity
  8
CURVE
100
AcDbLine
 62
250
  6
CONTINUOUS
 10
336.6076185761
 20
68.1806667813
 11
336.3253139719
 21
68.1117152192
  0
LINE
  5
223
100
AcDbEntity
  8
CURVE
100
AcDbLine
 62
250
  6
CONTINUOUS
 10
335.1935195651
 20
67.5392031202
 11
336.6076185761
 21
67.8435331405
  0
LINE
  5
224
100
AcDbEntity
  8
CURVE
100
AcDbLine
 62
250
  6
CONTINUOUS
 10
336.6076185761
 20
64.9584194787
 11
335.1935195651
 21
64.6667863876
  0
LINE
  5
225
100
AcDbEntity
  8
CURVE
100
AcDbLine
 62
250
  6
CONTINUOUS
 10
335.1935195651
 20
66.4836254405
 11
335.9786315379
 21
66.5961086356
  0
LINE
  5
226
100
AcDbEntity
  8
RACCORDO
100
AcDbLine
 62
7
  6
CONTINUOUS
 10
170.3285656539
 20
224.691671959
 11
170.3285656539
 21
153.0814262087
  0
LINE
  5
227
100
AcDbEntity
  8
0
100
AcDbLine
 62
7
  6
CONTINUOUS
 10
170.3285656539
 20
224.691671959
 11
170.3285656539
 21
153.0814262087
  0
LINE
  5
228
100
AcDbEntity
  8
RACCORDO
100
AcDbLine
 62
250
  6
CONTINUOUS
 10
170.4750122633
 20
224.1988688277
 11
170.4750122633
 21
153.1659547467
  0
LINE
  5
229
100
AcDbEntity
  8
0
100
AcDbLine
 62
250
  6
CONTINUOUS
 10
170.4750122633
 20
224.1988688277
 11
170.4750122633
 21
153.1659547467
  0
LWPOLYLINE
  5
22A
100
AcDbEntity
  8
RACCORDO
100
AcDbPolyline
 62
7
  6
CONTINUOUS
 90
15
 70
0
 10
170.328565654
 20
224.6916655506
 10
170.3287237064
 20
224.7060815361
 10
170.3305837835
 20
224.7423285961
 10
170.3344286404
 20
224.776442594
 10
170.3401199368
 20
224.8083899354
 10
170.3475432831
 20
224.838272244
 10
170.3565668381
 20
224.8660193177
 10
170.3670674744
 20
224.8916106395
 10
170.378985119
 20
224.91522605
 10
170.3922327224
 20
224.9368574667
 10
170.4066932623
 20
224.9564477495
 10
170.4222938113
 20
224.9741027909
 10
170.4389491487
 20
224.9898430524
 10
170.456553659
 20
225.0036063814
 10
170.4750122633
 20
225.0153785594
  0
LWPOLYLINE
  5
22B
100
AcDbEntity
  8
0
100
AcDbPolyline
 62
7
  6
CONTINUOUS
 90
15
 70
0
 10
170.328565654
 20
224.6916655506
 10
170.3287237064
 20
224.7060815361
 10
170.3305837835
 20
224.7423285961
 10
170.3344286404
 20
224.776442594
 10
170.3401199368
 20
224.8083899354
 10
170.3475432831
 20
224.838272244
 10
170.3565668381
 20
224.8660193177
 10
170.3670674744
 20
224.8916106395
 10
170.378985119
 20
224.91522605
 10
170.3922327224
 20
224.9368574667
 10
170.4066932623
 20
224.9564477495
 10
170.4222938113
 20
224.9741027909
 10
170.4389491487
 20
224.9898430524
 10
170.456553659
 20
225.0036063814
 10
170.4750122633
 20
225.0153785594
  0
LWPOLYLINE
  5
22C
100
AcDbEntity
  8
RACCORDO
100
AcDbPolyline
 62
7
  6
CONTINUOUS
 90
7
 70
0
 10
188.273843092
 20
190.370918282
 10
188.2815629246
 20
190.3798061121
 10
188.2879880248
 20
190.3891110579
 10
188.2929765764
 20
190.3986249071
 10
188.2964959259
 20
190.4083502134
 10
188.2985787268
 20
190.418284423
 10
188.2991890553
 20
190.4271727098
  0
LWPOLYLINE
  5
22D
100
AcDbEntity
  8
RACCORDO
100
AcDbPolyline
 62
250
  6
CONTINUOUS
 90
25
 70
0
 10
186.7623306562
 20
195.067604306
 10
186.7774124782
 20
195.0834855241
 10
186.7911594208
 20
195.1011673016
 10
186.8035163759
 20
195.1205800819
 10
186.8144358995
 20
195.1416493955
 10
186.8238772117
 20
195.1642966311
 10
186.8318042244
 20
195.1884354898
 10
186.8381868779
 20
195.2139744191
 10
186.8430010648
 20
195.2408169376
 10
186.8462285332
 20
195.2688612624
 10
186.8478571023
 20
195.2980018415
 10
186.847880543
 20
195.3281277925
 10
186.8462989485
 20
195.3591229187
 10
186.8431189273
 20
195.3908675214
 10
186.8383528032
 20
195.4232434539
 10
186.8320179633
 20
195.4561327029
 10
186.8241408701
 20
195.4894000759
 10
186.8147492061
 20
195.5229304271
 10
186.8038652976
 20
195.5566344453
 10
186.7915183972
 20
195.5904023092
 10
186.7777557977
 20
195.6240876699
 10
186.762632468
 20
195.6575459608
 10
186.7462059868
 20
195.6906436723
 10
186.7285342234
 20
195.7232585569
 10
186.7096822791
 20
195.7552645629
  0
LWPOLYLINE
  5
22E
100
AcDbEntity
  8
RACCORDO
100
AcDbPolyline
 62
7
  6
CONTINUOUS
 90
10
 70
0
 10
188.2533334151
 20
196.6996042295
 10
188.2628723472
 20
196.7059690732
 10
188.2715565316
 20
196.7123560212
 10
188.2792955441
 20
196.7187772748
 10
188.285932473
 20
196.7251613527
 10
188.2912952686
 20
196.7313402689
 10
188.2952994377
 20
196.7372047662
 10
188.2979222289
 20
196.7427382473
 10
188.2991180623
 20
196.7478962083
 10
188.2991890561
 20
196.7493946115
  0
LWPOLYLINE
  5
22F
100
AcDbEntity
  8
RACCORDO
100
AcDbPolyline
 62
7
  6
CONTINUOUS
 90
26
 70
0
 10
188.2794549813
 20
195.9369507474
 10
188.3032410849
 20
195.952059457
 10
188.3260411268
 20
195.9694240078
 10
188.3476532518
 20
195.9890239755
 10
188.3678429132
 20
196.0107721859
 10
188.3864665647
 20
196.0346402193
 10
188.4034509365
 20
196.0607135646
 10
188.4186441047
 20
196.0890147431
 10
188.4318220533
 20
196.1194121919
 10
188.4428181777
 20
196.1518192007
 10
188.4515370619
 20
196.186393361
 10
188.4577673969
 20
196.2228834128
 10
188.4613372915
 20
196.2605759872
 10
188.4622502764
 20
196.2994183038
 10
188.4604964241
 20
196.3393005438
 10
188.4561710425
 20
196.3793346902
 10
188.449441215
 20
196.4191871688
 10
188.4403967321
 20
196.458967697
 10
188.4291933154
 20
196.4983686808
 10
188.4159797371
 20
196.5371905142
 10
188.400842853
 20
196.5754019905
 10
188.3838797079
 20
196.6128954699
 10
188.3652003669
 20
196.6495236748
 10
188.3448816238
 20
196.6851977365
 10
188.3229599725
 20
196.7198715333
 10
188.2994881377
 20
196.7534431463
  0
LINE
  5
230
100
AcDbEntity
  8
RACCORDO
100
AcDbLine
 62
7
  6
CONTINUOUS
 10
188.2533334151
 20
196.6996042295
 11
186.7816271634
 21
195.7940746764
  0
LWPOLYLINE
  5
231
100
AcDbEntity
  8
RACCORDO
100
AcDbPolyline
 62
250
  6
CONTINUOUS
 90
4
 70
0
 10
186.723820209
 20
195.0387463886
 10
186.7284010772
 20
195.0414733651
 10
186.7459729327
 20
195.053583344
 10
186.7623306562
 20
195.067604306
  0
LINE
  5
232
100
AcDbEntity
  8
RACCORDO
100
AcDbLine
 62
250
  6
CONTINUOUS
 10
186.0490391189
 20
201.3470616341
 11
186.3853882172
 21
201.5412653879
  0
LINE
  5
233
100
AcDbEntity
  8
0
100
AcDbLine
 62
250
  6
CONTINUOUS
 10
186.0490391189
 20
201.3470616341
 11
186.3853882172
 21
201.5412653879
  0
LINE
  5
234
100
AcDbEntity
  8
ASSI
100
AcDbLine
 62
7
  6
CONTINUOUS
 10
188.2794551277
 20
195.936950494
 11
186.723820209
 21
195.0387463886
  0
LINE
  5
235
100
AcDbEntity
  8
RACCORDO
100
AcDbLine
 62
7
  6
CONTINUOUS
 10
186.7816271634
 20
195.7940746764
 11
186.6955844895
 21
195.7476420286
  0
LWPOLYLINE
  5
236
100
AcDbEntity
  8
RACCORDO
100
AcDbPolyline
 62
7
  6
CONTINUOUS
 90
16
 70
0
 10
186.1732886916
 20
201.6217037507
 10
186.1731059404
 20
201.6216265223
 10
186.1739407784
 20
201.6219662215
 10
186.1761070849
 20
201.6225540935
 10
186.179801157
 20
201.6231741898
 10
186.1851769923
 20
201.623601447
 10
186.1923442428
 20
201.6236024653
 10
186.2012951121
 20
201.6229483424
 10
186.2118833407
 20
201.6214512072
 10
186.2239821669
 20
201.6189630732
 10
186.2374713207
 20
201.6153650397
 10
186.252245921
 20
201.6105571349
 10
186.2682992392
 20
201.6044168145
 10
186.285586015
 20
201.5968331499
 10
186.3039580772
 20
201.5877499144
 10
186.3232959396
 20
201.5771166908
  0
LWPOLYLINE
  5
237
100
AcDbEntity
  8
0
100
AcDbPolyline
 62
7
  6
CONTINUOUS
 90
16
 70
0
 10
186.1732886916
 20
201.6217037507
 10
186.1731059404
 20
201.6216265223
 10
186.1739407784
 20
201.6219662215
 10
186.1761070849
 20
201.6225540935
 10
186.179801157
 20
201.6231741898
 10
186.1851769923
 20
201.623601447
 10
186.1923442428
 20
201.6236024653
 10
186.2012951121
 20
201.6229483424
 10
186.2118833407
 20
201.6214512072
 10
186.2239821669
 20
201.6189630732
 10
186.2374713207
 20
201.6153650397
 10
186.252245921
 20
201.6105571349
 10
186.2682992392
 20
201.6044168145
 10
186.285586015
 20
201.5968331499
 10
186.3039580772
 20
201.5877499144
 10
186.3232959396
 20
201.5771166908
  0
LINE
  5
238
100
AcDbEntity
  8
CURVE
100
AcDbLine
 62
250
  6
CONTINUOUS
 10
336.6076185761
 20
66.9813168506
 11
335.6880884326
 21
66.8556393438
  0
LWPOLYLINE
  5
239
100
AcDbEntity
  8
RACCORDO
100
AcDbPolyline
 62
7
  6
CONTINUOUS
 90
4
 70
0
 10
188.2430570162
 20
190.3469656991
 10
188.2546137739
 20
190.3545327776
 10
188.2648757991
 20
190.3625169719
 10
188.273843092
 20
190.370918282
  0
LINE
  5
23A
100
AcDbEntity
  8
RACCORDO
100
AcDbLine
 62
7
  6
CONTINUOUS
 10
188.2430570162
 20
190.3469656991
 11
188.1735805976
 21
190.3054255938
  0
LINE
  5
23B
100
AcDbEntity
  8
RACCORDO
100
AcDbLine
 62
7
  6
CONTINUOUS
 10
186.6955844895
 20
195.7476420286
 11
186.685435222
 21
195.7425467804
  0
LWPOLYLINE
  5
23C
100
AcDbEntity
  8
RACCORDO
100
AcDbPolyline
 62
7
  6
CONTINUOUS
 90
3
 70
0
 10
186.700052754
 20
195.0262711924
 10
186.7102431661
 20
195.0313222205
 10
186.7238200627
 20
195.0387466421
  0
LWPOLYLINE
  5
23D
100
AcDbEntity
  8
RACCORDO
100
AcDbPolyline
 62
7
  6
CONTINUOUS
 90
3
 70
0
 10
186.7000513433
 20
195.0262154074
 10
186.6955832586
 20
195.0241884068
 10
186.685435222
 20
195.0203630495
  0
LWPOLYLINE
  5
23E
100
AcDbEntity
  8
RACCORDO
100
AcDbPolyline
 62
7
  6
CONTINUOUS
 90
8
 70
0
 10
313.9044623716
 20
86.3683680006
 10
313.9171478206
 20
86.3719700438
 10
313.9292973289
 20
86.3740585269
 10
313.9409108967
 20
86.3746334497
 10
313.9520759221
 20
86.3736744819
 10
313.9627050069
 20
86.3712019538
 10
313.9725359564
 20
86.367276857
 10
313.9763015862
 20
86.3652581322
  0
LWPOLYLINE
  5
23F
100
AcDbEntity
  8
RACCORDO
100
AcDbPolyline
 62
250
  6
CONTINUOUS
 90
28
 70
0
 10
188.2430570162
 20
159.3982023788
 10
188.2454298951
 20
159.3691946385
 10
188.2491931051
 20
159.3394179062
 10
188.2543585318
 20
159.3089804322
 10
188.2609618136
 20
159.2779625662
 10
188.2689793788
 20
159.2465068091
 10
188.2783103077
 20
159.2148213397
 10
188.2889137807
 20
159.1830575143
 10
188.3007731429
 20
159.1512972011
 10
188.3137990055
 20
159.1196455293
 10
188.3279269803
 20
159.0882629989
 10
188.3431340602
 20
159.0572071659
 10
188.3594033617
 20
159.0264292174
 10
188.3767338961
 20
158.9959808111
 10
188.3950588481
 20
158.9660291165
 10
188.4142694315
 20
158.9366995021
 10
188.4343093587
 20
158.9080934733
 10
188.4551286064
 20
158.8803108695
 10
188.4766145434
 20
158.8534649052
 10
188.4986504211
 20
158.8277020483
 10
188.5212164275
 20
158.8030439644
 10
188.5443527039
 20
158.7794286771
 10
188.5680577496
 20
158.7569030119
 10
188.5922126708
 20
158.7356237668
 10
188.6166866355
 20
158.7157051751
 10
188.6413832441
 20
158.6972369781
 10
188.6662440123
 20
158.6802915804
 10
188.6911869604
 20
158.6649439321
  0
LWPOLYLINE
  5
240
100
AcDbEntity
  8
RACCORDO
100
AcDbPolyline
 62
250
  6
CONTINUOUS
 90
12
 70
0
 10
186.2611711533
 20
201.7144377492
 10
186.2617643175
 20
201.6964757647
 10
186.2635404928
 20
201.679299202
 10
186.2664897463
 20
201.6630041195
 10
186.2705955844
 20
201.6476816459
 10
186.2758350456
 20
201.6334174706
 10
186.2821788288
 20
201.6202913648
 10
186.2895914569
 20
201.6083767348
 10
186.2980314756
 20
201.5977402122
 10
186.3074516847
 20
201.5884412807
 10
186.3177994028
 20
201.5805319437
 10
186.3232959396
 20
201.5771166908
  0
LWPOLYLINE
  5
241
100
AcDbEntity
  8
0
100
AcDbPolyline
 62
250
  6
CONTINUOUS
 90
12
 70
0
 10
186.2611711533
 20
201.7144377492
 10
186.2617643175
 20
201.6964757647
 10
186.2635404928
 20
201.679299202
 10
186.2664897463
 20
201.6630041195
 10
186.2705955844
 20
201.6476816459
 10
186.2758350456
 20
201.6334174706
 10
186.2821788288
 20
201.6202913648
 10
186.2895914569
 20
201.6083767348
 10
186.2980314756
 20
201.5977402122
 10
186.3074516847
 20
201.5884412807
 10
186.3177994028
 20
201.5805319437
 10
186.3232959396
 20
201.5771166908
  0
LWPOLYLINE
  5
242
100
AcDbEntity
  8
RACCORDO
100
AcDbPolyline
 62
7
  6
CONTINUOUS
 90
25
 70
0
 10
186.685435222
 20
158.8906427503
 10
186.6863758216
 20
158.8578344866
 10
186.6890931933
 20
158.8244084204
 10
186.6935873371
 20
158.7903645516
 10
186.6998926162
 20
158.7555522391
 10
186.7079746673
 20
158.720122124
 10
186.7177304013
 20
158.6845261298
 10
186.7291812575
 20
158.6487621315
 10
186.7423057964
 20
158.6128322542
 10
186.75693661
 20
158.5771947958
 10
186.7730929934
 20
158.5418535023
 10
186.7907556514
 20
158.5068046277
 10
186.8096992907
 20
158.4724952328
 10
186.8299403205
 20
158.43893479
 10
186.8514623316
 20
158.4061138269
 10
186.8739908032
 20
158.3744509861
 10
186.897538628
 20
158.3439611032
 10
186.9220929133
 20
158.3146293426
 10
186.9473404607
 20
158.2868298413
 10
186.9732901507
 20
158.2605822272
 10
186.9999331029
 20
158.2358668724
 10
187.0269294769
 20
158.2129990298
 10
187.0541659929
 20
158.1920837837
 10
187.0817559308
 20
158.1730160498
 10
187.1096992907
 20
158.1557958282
  0
LWPOLYLINE
  5
243
100
AcDbEntity
  8
0
100
AcDbPolyline
 62
7
  6
CONTINUOUS
 90
25
 70
0
 10
186.685435222
 20
158.8906427503
 10
186.6863758216
 20
158.8578344866
 10
186.6890931933
 20
158.8244084204
 10
186.6935873371
 20
158.7903645516
 10
186.6998926162
 20
158.7555522391
 10
186.7079746673
 20
158.720122124
 10
186.7177304013
 20
158.6845261298
 10
186.7291812575
 20
158.6487621315
 10
186.7423057964
 20
158.6128322542
 10
186.75693661
 20
158.5771947958
 10
186.7730929934
 20
158.5418535023
 10
186.7907556514
 20
158.5068046277
 10
186.8096992907
 20
158.4724952328
 10
186.8299403205
 20
158.43893479
 10
186.8514623316
 20
158.4061138269
 10
186.8739908032
 20
158.3744509861
 10
186.897538628
 20
158.3439611032
 10
186.9220929133
 20
158.3146293426
 10
186.9473404607
 20
158.2868298413
 10
186.9732901507
 20
158.2605822272
 10
186.9999331029
 20
158.2358668724
 10
187.0269294769
 20
158.2129990298
 10
187.0541659929
 20
158.1920837837
 10
187.0817559308
 20
158.1730160498
 10
187.1096992907
 20
158.1557958282
  0
LINE
  5
244
100
AcDbEntity
  8
RACCORDO
100
AcDbLine
 62
250
  6
CONTINUOUS
 10
185.6247750502
 20
158.5231956163
 11
185.6247750502
 21
201.3470616341
  0
LINE
  5
245
100
AcDbEntity
  8
0
100
AcDbLine
 62
250
  6
CONTINUOUS
 10
185.6247750502
 20
158.5231956163
 11
185.6247750502
 21
201.3470616341
  0
LINE
  5
246
100
AcDbEntity
  8
RACCORDO
100
AcDbLine
 62
250
  6
CONTINUOUS
 10
186.0490391189
 20
158.5231956163
 11
186.0490391189
 21
201.3470616341
  0
LINE
  5
247
100
AcDbEntity
  8
0
100
AcDbLine
 62
250
  6
CONTINUOUS
 10
186.0490391189
 20
158.5231956163
 11
186.0490391189
 21
201.3470616341
  0
LINE
  5
248
100
AcDbEntity
  8
RACCORDO
100
AcDbLine
 62
7
  6
CONTINUOUS
 10
186.685435222
 20
201.3680220078
 11
186.685435222
 21
158.8906427503
  0
LINE
  5
249
100
AcDbEntity
  8
0
100
AcDbLine
 62
7
  6
CONTINUOUS
 10
186.685435222
 20
201.3680220078
 11
186.685435222
 21
158.8906427503
  0
LINE
  5
24A
100
AcDbEntity
  8
RACCORDO
100
AcDbLine
 62
250
  6
CONTINUOUS
 10
186.7071710012
 20
158.8224657293
 11
186.7071710012
 21
165.1470611461
  0
LINE
  5
24B
100
AcDbEntity
  8
RACCORDO
100
AcDbLine
 62
250
  6
CONTINUOUS
 10
186.7071710012
 20
165.871097684
 11
186.7071710012
 21
195.0298732767
  0
LINE
  5
24C
100
AcDbEntity
  8
RACCORDO
100
AcDbLine
 62
250
  6
CONTINUOUS
 10
186.7071710012
 20
195.7539098146
 11
186.7071710012
 21
201.3554720414
  0
LINE
  5
24D
100
AcDbEntity
  8
RACCORDO
100
AcDbLine
 62
7
  6
CONTINUOUS
 10
186.7816271634
 20
201.3124819865
 11
186.7816271634
 21
195.7940746764
  0
LINE
  5
24E
100
AcDbEntity
  8
DRAFT
100
AcDbLine
 62
7
  6
CONTINUOUS
 10
186.7816271634
 20
195.0727384418
 11
186.7816271634
 21
165.9112625457
  0
LINE
  5
24F
100
AcDbEntity
  8
RACCORDO
100
AcDbLine
 62
7
  6
CONTINUOUS
 10
186.7816271634
 20
165.1899263112
 11
186.7816271634
 21
158.8738268176
  0
LINE
  5
250
100
AcDbEntity
  8
DRAFT
100
AcDbLine
 62
250
  6
CONTINUOUS
 10
188.1735805976
 20
172.345243208
 11
188.1735805976
 21
190.3054255938
  0
LINE
  5
251
100
AcDbEntity
  8
RACCORDO
100
AcDbLine
 62
7
  6
CONTINUOUS
 10
188.2297126375
 20
172.4195586368
 11
188.2297126375
 21
190.3389870654
  0
LINE
  5
252
100
AcDbEntity
  8
RACCORDO
100
AcDbLine
 62
250
  6
CONTINUOUS
 10
188.2430570162
 20
200.4686707055
 11
188.2430570162
 21
196.6932810662
  0
LINE
  5
253
100
AcDbEntity
  8
RACCORDO
100
AcDbLine
 62
250
  6
CONTINUOUS
 10
188.2430570162
 20
195.9159346806
 11
188.2430570162
 21
190.3469656991
  0
LINE
  5
254
100
AcDbEntity
  8
DRAFT
100
AcDbLine
 62
250
  6
CONTINUOUS
 10
188.2430570162
 20
169.1208537383
 11
188.2430570162
 21
166.8104689356
  0
LINE
  5
255
100
AcDbEntity
  8
RACCORDO
100
AcDbLine
 62
250
  6
CONTINUOUS
 10
188.2430570162
 20
166.03312255
 11
188.2430570162
 21
159.3982023788
  0
LINE
  5
256
100
AcDbEntity
  8
RACCORDO
100
AcDbLine
 62
7
  6
CONTINUOUS
 10
188.2991890561
 20
200.4362607691
 11
188.2991890561
 21
196.7493971243
  0
LINE
  5
257
100
AcDbEntity
  8
RACCORDO
100
AcDbLine
 62
7
  6
CONTINUOUS
 10
188.2991890561
 20
195.9494856464
 11
188.2991890561
 21
190.4271831065
  0
LINE
  5
258
100
AcDbEntity
  8
RACCORDO
100
AcDbLine
 62
7
  6
CONTINUOUS
 10
188.2991890561
 20
169.1578722907
 11
188.2991890561
 21
166.8665849937
  0
LINE
  5
259
100
AcDbEntity
  8
RACCORDO
100
AcDbLine
 62
7
  6
CONTINUOUS
 10
188.2991890561
 20
166.0666735158
 11
188.2991890561
 21
159.4784197863
  0
LINE
  5
25A
100
AcDbEntity
  8
DRAFT
100
AcDbLine
 62
7
  6
CONTINUOUS
 10
189.6301603276
 20
173.1264270975
 11
189.6301603276
 21
170.035635327
  0
LWPOLYLINE
  5
25B
100
AcDbEntity
  8
RACCORDO
100
AcDbPolyline
 62
250
  6
CONTINUOUS
 90
28
 70
0
 10
185.6247750502
 20
201.3470616341
 10
185.6258439022
 20
201.3891185548
 10
185.6290366547
 20
201.4296116853
 10
185.6343533077
 20
201.4685410258
 10
185.6418281012
 20
201.50606149
 10
185.6514267952
 20
201.5420181641
 10
185.6630466699
 20
201.5759463063
 10
185.6767046417
 20
201.6077868307
 10
185.6923837941
 20
201.6375988232
 10
185.709930659
 20
201.6650947992
 10
185.7293666983
 20
201.6902575467
 10
185.7506704499
 20
201.7131042778
 10
185.7736240591
 20
201.7333991448
 10
185.798243089
 20
201.7511144861
 10
185.8245119764
 20
201.7662779633
 10
185.8521661765
 20
201.7787367127
 10
185.881222264
 20
201.7884633695
 10
185.9116636641
 20
201.7954852985
 10
185.9431761074
 20
201.7997317304
 10
185.9757634617
 20
201.80117526
 10
186.0094218592
 20
201.7998432925
 10
186.0438254273
 20
201.795747273
 10
186.079016376
 20
201.7888432836
 10
186.1149524953
 20
201.7791752423
 10
186.151181283
 20
201.7668863483
 10
186.1875519048
 20
201.7520243346
 10
186.2242151949
 20
201.7345414682
 10
186.2611711533
 20
201.7144377492
  0
LWPOLYLINE
  5
25C
100
AcDbEntity
  8
0
100
AcDbPolyline
 62
250
  6
CONTINUOUS
 90
28
 70
0
 10
185.6247750502
 20
201.3470616341
 10
185.6258439022
 20
201.3891185548
 10
185.6290366547
 20
201.4296116853
 10
185.6343533077
 20
201.4685410258
 10
185.6418281012
 20
201.50606149
 10
185.6514267952
 20
201.5420181641
 10
185.6630466699
 20
201.5759463063
 10
185.6767046417
 20
201.6077868307
 10
185.6923837941
 20
201.6375988232
 10
185.709930659
 20
201.6650947992
 10
185.7293666983
 20
201.6902575467
 10
185.7506704499
 20
201.7131042778
 10
185.7736240591
 20
201.7333991448
 10
185.798243089
 20
201.7511144861
 10
185.8245119764
 20
201.7662779633
 10
185.8521661765
 20
201.7787367127
 10
185.881222264
 20
201.7884633695
 10
185.9116636641
 20
201.7954852985
 10
185.9431761074
 20
201.7997317304
 10
185.9757634617
 20
201.80117526
 10
186.0094218592
 20
201.7998432925
 10
186.0438254273
 20
201.795747273
 10
186.079016376
 20
201.7888432836
 10
186.1149524953
 20
201.7791752423
 10
186.151181283
 20
201.7668863483
 10
186.1875519048
 20
201.7520243346
 10
186.2242151949
 20
201.7345414682
 10
186.2611711533
 20
201.7144377492
  0
LWPOLYLINE
  5
25D
100
AcDbEntity
  8
RACCORDO
100
AcDbPolyline
 62
250
  6
CONTINUOUS
 90
13
 70
0
 10
186.0490391189
 20
201.3470616341
 10
186.0499475013
 20
201.3785769799
 10
186.0526687595
 20
201.4089084023
 10
186.0571912421
 20
201.4379260164
 10
186.0634955844
 20
201.4655055636
 10
186.0715547916
 20
201.4915289422
 10
186.0813343535
 20
201.5158847133
 10
186.0927924005
 20
201.538468593
 10
186.1058798631
 20
201.5591838576
 10
186.1205406718
 20
201.5779417676
 10
186.1367120221
 20
201.5946619925
 10
186.154324673
 20
201.6092729639
 10
186.1732886916
 20
201.6217037507
  0
LWPOLYLINE
  5
25E
100
AcDbEntity
  8
0
100
AcDbPolyline
 62
250
  6
CONTINUOUS
 90
13
 70
0
 10
186.0490391189
 20
201.3470616341
 10
186.0499475013
 20
201.3785769799
 10
186.0526687595
 20
201.4089084023
 10
186.0571912421
 20
201.4379260164
 10
186.0634955844
 20
201.4655055636
 10
186.0715547916
 20
201.4915289422
 10
186.0813343535
 20
201.5158847133
 10
186.0927924005
 20
201.538468593
 10
186.1058798631
 20
201.5591838576
 10
186.1205406718
 20
201.5779417676
 10
186.1367120221
 20
201.5946619925
 10
186.154324673
 20
201.6092729639
 10
186.1732886916
 20
201.6217037507
  0
LWPOLYLINE
  5
25F
100
AcDbEntity
  8
RACCORDO
100
AcDbPolyline
 62
250
  6
CONTINUOUS
 90
22
 70
0
 10
186.2611711533
 20
157.4209252332
 10
186.2617643175
 20
157.4395721888
 10
186.2635404928
 20
157.4587998342
 10
186.2664897463
 20
157.4785006407
 10
186.2705955844
 20
157.4985644332
 10
186.2758350456
 20
157.518879007
 10
186.2821788288
 20
157.5393307547
 10
186.289591457
 20
157.5598053018
 10
186.2980314756
 20
157.5801881464
 10
186.3074516848
 20
157.6003652994
 10
186.3177994028
 20
157.6202239218
 10
186.3290167611
 20
157.6396529562
 10
186.3410410276
 20
157.6585437477
 10
186.3538049578
 20
157.6767906511
 10
186.3672371705
 20
157.6942916225
 10
186.3812625474
 20
157.7109487893
 10
186.3958026529
 20
157.7266689979
 10
186.4107761729
 20
157.7413643345
 10
186.4260993692
 20
157.7549526167
 10
186.4416865485
 20
157.7673578535
 10
186.4574505409
 20
157.7785106697
 10
186.4733031876
 20
157.7883486942
  0
LWPOLYLINE
  5
260
100
AcDbEntity
  8
0
100
AcDbPolyline
 62
250
  6
CONTINUOUS
 90
22
 70
0
 10
186.2611711533
 20
157.4209252332
 10
186.2617643175
 20
157.4395721888
 10
186.2635404928
 20
157.4587998342
 10
186.2664897463
 20
157.4785006407
 10
186.2705955844
 20
157.4985644332
 10
186.2758350456
 20
157.518879007
 10
186.2821788288
 20
157.5393307547
 10
186.289591457
 20
157.5598053018
 10
186.2980314756
 20
157.5801881464
 10
186.3074516848
 20
157.6003652994
 10
186.3177994028
 20
157.6202239218
 10
186.3290167611
 20
157.6396529562
 10
186.3410410276
 20
157.6585437477
 10
186.3538049578
 20
157.6767906511
 10
186.3672371705
 20
157.6942916225
 10
186.3812625474
 20
157.7109487893
 10
186.3958026529
 20
157.7266689979
 10
186.4107761729
 20
157.7413643345
 10
186.4260993692
 20
157.7549526167
 10
186.4416865485
 20
157.7673578535
 10
186.4574505409
 20
157.7785106697
 10
186.4733031876
 20
157.7883486942
  0
LWPOLYLINE
  5
261
100
AcDbEntity
  8
RACCORDO
100
AcDbPolyline
 62
250
  6
CONTINUOUS
 90
9
 70
0
 10
188.2991890345
 20
159.4783660718
 10
188.2990037377
 20
159.4734497899
 10
188.297043509
 20
159.4615504307
 10
188.2929634092
 20
159.4498318168
 10
188.2868071546
 20
159.4384195046
 10
188.2786407055
 20
159.4274357682
 10
188.2685515599
 20
159.4169982901
 10
188.2566478166
 20
159.4072189006
 10
188.2430570162
 20
159.3982023787
  0
LINE
  5
262
100
AcDbEntity
  8
DRAFT
100
AcDbLine
 62
7
  6
CONTINUOUS
 10
191.2243700117
 20
157.2406849902
 11
191.2737748177
 21
157.4821089711
  0
LWPOLYLINE
  5
263
100
AcDbEntity
  8
RACCORDO
100
AcDbPolyline
 62
250
  6
CONTINUOUS
 90
25
 70
0
 10
186.7623306562
 20
165.1847921754
 10
186.7774124782
 20
165.2006733935
 10
186.7911594208
 20
165.218355171
 10
186.8035163759
 20
165.2377679513
 10
186.8144358995
 20
165.2588372649
 10
186.8238772117
 20
165.2814845005
 10
186.8318042244
 20
165.3056233592
 10
186.8381868779
 20
165.3311622885
 10
186.8430010648
 20
165.358004807
 10
186.8462285332
 20
165.3860491318
 10
186.8478571023
 20
165.4151897109
 10
186.847880543
 20
165.4453156619
 10
186.8462989485
 20
165.476310788
 10
186.8431189273
 20
165.5080553908
 10
186.8383528032
 20
165.5404313233
 10
186.8320179633
 20
165.5733205723
 10
186.8241408701
 20
165.6065879453
 10
186.8147492061
 20
165.6401182964
 10
186.8038652976
 20
165.6738223147
 10
186.7915183972
 20
165.7075901786
 10
186.7777557977
 20
165.7412755393
 10
186.762632468
 20
165.7747338302
 10
186.7462059868
 20
165.8078315417
 10
186.7285342234
 20
165.8404464263
 10
186.7096822791
 20
165.8724524323
  0
LWPOLYLINE
  5
264
100
AcDbEntity
  8
RACCORDO
100
AcDbPolyline
 62
7
  6
CONTINUOUS
 90
25
 70
0
 10
186.7970019408
 20
158.8133168878
 10
186.8045329237
 20
158.7710926308
 10
186.8074326644
 20
158.7554729074
 10
186.8106285877
 20
158.7391883478
 10
186.8141441819
 20
158.7221978095
 10
186.8180889192
 20
158.7044875208
 10
186.8224986029
 20
158.6861003585
 10
186.8274064607
 20
158.66701588
 10
186.8329324179
 20
158.6471280369
 10
186.8391348458
 20
158.6264231466
 10
186.8460465485
 20
158.6049608825
 10
186.8537618147
 20
158.5827522135
 10
186.862303438
 20
158.5598913484
 10
186.8717339698
 20
158.5363689825
 10
186.8822237076
 20
158.5120555688
 10
186.8938206106
 20
158.4870225696
 10
186.9065797528
 20
158.4613480312
 10
186.9207094782
 20
158.4349420806
 10
186.9362779342
 20
158.4078898077
 10
186.9533206056
 20
158.3803647574
 10
186.9720105901
 20
158.3524538664
 10
186.9924932544
 20
158.3241940237
 10
187.0146808722
 20
158.2959630184
 10
187.0383558247
 20
158.2683607815
 10
187.0634554338
 20
158.2416294726
  0
LINE
  5
265
100
AcDbEntity
  8
DRAFT
100
AcDbLine
 62
7
  6
CONTINUOUS
 10
197.5764270891
 20
153.5080432005
 11
197.6377358483
 21
153.8076376311
  0
LWPOLYLINE
  5
266
100
AcDbEntity
  8
RACCORDO
100
AcDbPolyline
 62
7
  6
CONTINUOUS
 90
10
 70
0
 10
188.2533334151
 20
166.8167920989
 10
188.2628723472
 20
166.8231569426
 10
188.2715565316
 20
166.8295438906
 10
188.2792955441
 20
166.8359651442
 10
188.285932473
 20
166.8423492221
 10
188.2912952686
 20
166.8485281383
 10
188.2952994377
 20
166.8543926355
 10
188.2979222289
 20
166.8599261166
 10
188.2991180623
 20
166.8650840777
 10
188.2991890561
 20
166.8665824809
  0
LINE
  5
267
100
AcDbEntity
  8
DRAFT
100
AcDbLine
 62
7
  6
CONTINUOUS
 10
188.2430570162
 20
169.1208537383
 11
189.6301603276
 21
170.035635327
  0
LWPOLYLINE
  5
268
100
AcDbEntity
  8
RACCORDO
100
AcDbPolyline
 62
7
  6
CONTINUOUS
 90
26
 70
0
 10
188.2794549813
 20
166.0541386168
 10
188.3032410849
 20
166.0692473264
 10
188.3260411268
 20
166.0866118772
 10
188.3476532518
 20
166.1062118449
 10
188.3678429132
 20
166.1279600553
 10
188.3864665647
 20
166.1518280887
 10
188.4034509365
 20
166.177901434
 10
188.4186441047
 20
166.2062026124
 10
188.4318220533
 20
166.2366000613
 10
188.4428181777
 20
166.2690070701
 10
188.4515370619
 20
166.3035812304
 10
188.4577673969
 20
166.3400712821
 10
188.4613372915
 20
166.3777638566
 10
188.4622502764
 20
166.4166061732
 10
188.4604964241
 20
166.4564884132
 10
188.4561710425
 20
166.4965225595
 10
188.449441215
 20
166.5363750382
 10
188.4403967321
 20
166.5761555664
 10
188.4291933154
 20
166.6155565501
 10
188.4159797371
 20
166.6543783836
 10
188.400842853
 20
166.6925898599
 10
188.3838797079
 20
166.7300833393
 10
188.3652003669
 20
166.7667115442
 10
188.3448816238
 20
166.8023856058
 10
188.3229599725
 20
166.8370594027
 10
188.2994881377
 20
166.8706310157
  0
LINE
  5
269
100
AcDbEntity
  8
RACCORDO
100
AcDbLine
 62
7
  6
CONTINUOUS
 10
188.2533334151
 20
166.8167920989
 11
186.7816271634
 21
165.9112625457
  0
LINE
  5
26A
100
AcDbEntity
  8
DRAFT
100
AcDbLine
 62
7
  6
CONTINUOUS
 10
189.6301603276
 20
173.1264270975
 11
188.1735805976
 21
172.345243208
  0
LINE
  5
26B
100
AcDbEntity
  8
RACCORDO
100
AcDbLine
 62
7
  6
CONTINUOUS
 10
188.8231997286
 20
173.5504841375
 11
188.2297126375
 21
173.2760663234
  0
LINE
  5
26C
100
AcDbEntity
  8
RACCORDO
100
AcDbLine
 62
250
  6
CONTINUOUS
 10
188.9177354409
 20
173.5377722983
 11
188.2297126375
 21
173.219642862
  0
LWPOLYLINE
  5
26D
100
AcDbEntity
  8
RACCORDO
100
AcDbPolyline
 62
7
  6
CONTINUOUS
 90
8
 70
0
 10
297.6410064043
 20
95.693640004
 10
297.6536918533
 20
95.6972420472
 10
297.6658413617
 20
95.6993305303
 10
297.6774549294
 20
95.6999054531
 10
297.6886199548
 20
95.6989464853
 10
297.6992490396
 20
95.6964739572
 10
297.7090799892
 20
95.6925488604
 10
297.7128456189
 20
95.6905301356
  0
LWPOLYLINE
  5
26E
100
AcDbEntity
  8
RACCORDO
100
AcDbPolyline
 62
7
  6
CONTINUOUS
 90
6
 70
0
 10
186.7832015718
 20
158.8663646823
 10
186.7864475821
 20
158.8575428623
 10
186.789435949
 20
158.8478426854
 10
186.7921943692
 20
158.837254212
 10
186.7946840979
 20
158.8257380064
 10
186.7970019408
 20
158.8133168878
  0
LWPOLYLINE
  5
26F
100
AcDbEntity
  8
RACCORDO
100
AcDbPolyline
 62
250
  6
CONTINUOUS
 90
7
 70
0
 10
186.731450012
 20
158.6425511649
 10
186.725684825
 20
158.6655405155
 10
186.7189923239
 20
158.6976950389
 10
186.7137528417
 20
158.7295982648
 10
186.7100137917
 20
158.7610914311
 10
186.7078082899
 20
158.7920888327
 10
186.7071710012
 20
158.8224657293
  0
LWPOLYLINE
  5
270
100
AcDbEntity
  8
RACCORDO
100
AcDbPolyline
 62
250
  6
CONTINUOUS
 90
4
 70
0
 10
186.723820209
 20
165.155934258
 10
186.7284010772
 20
165.1586612345
 10
186.7459729327
 20
165.1707712134
 10
186.7623306562
 20
165.1847921754
  0
LWPOLYLINE
  5
271
100
AcDbEntity
  8
RACCORDO
100
AcDbPolyline
 62
7
  6
CONTINUOUS
 90
3
 70
0
 10
170.331499919
 20
153.0831172348
 10
170.3290014869
 20
153.0816561184
 10
170.3285823203
 20
153.0814165852
  0
LWPOLYLINE
  5
272
100
AcDbEntity
  8
0
100
AcDbPolyline
 62
7
  6
CONTINUOUS
 90
3
 70
0
 10
170.331499919
 20
153.0831172348
 10
170.3290014869
 20
153.0816561184
 10
170.3285823203
 20
153.0814165852
  0
LWPOLYLINE
  5
273
100
AcDbEntity
  8
RACCORDO
100
AcDbPolyline
 62
7
  6
CONTINUOUS
 90
4
 70
0
 10
170.4225000988
 20
153.1358480512
 10
170.3824947091
 20
153.1124724497
 10
170.3667477412
 20
153.1034590697
 10
170.3438783121
 20
153.0902134121
  0
LWPOLYLINE
  5
274
100
AcDbEntity
  8
0
100
AcDbPolyline
 62
7
  6
CONTINUOUS
 90
4
 70
0
 10
170.4225000988
 20
153.1358480512
 10
170.3824947091
 20
153.1124724497
 10
170.3667477412
 20
153.1034590697
 10
170.3438783121
 20
153.0902134121
  0
LINE
  5
275
100
AcDbEntity
  8
ASSI
100
AcDbLine
 62
7
  6
CONTINUOUS
 10
188.2794551277
 20
166.0541383633
 11
186.723820209
 21
165.155934258
  0
LINE
  5
276
100
AcDbEntity
  8
RACCORDO
100
AcDbLine
 62
250
  6
CONTINUOUS
 10
186.0490391189
 20
158.5231956163
 11
186.685435222
 21
158.8906427503
  0
LINE
  5
277
100
AcDbEntity
  8
0
100
AcDbLine
 62
250
  6
CONTINUOUS
 10
186.0490391189
 20
158.5231956163
 11
186.685435222
 21
158.8906427503
  0
LINE
  5
278
100
AcDbEntity
  8
RACCORDO
100
AcDbLine
 62
250
  6
CONTINUOUS
 10
186.7071710012
 20
158.8224657293
 11
186.7832015718
 21
158.8663646823
  0
LINE
  5
279
100
AcDbEntity
  8
RACCORDO
100
AcDbLine
 62
250
  6
CONTINUOUS
 10
186.4733031876
 20
157.7883486942
 11
187.1096992907
 21
158.1557958282
  0
LINE
  5
27A
100
AcDbEntity
  8
0
100
AcDbLine
 62
250
  6
CONTINUOUS
 10
186.4733031876
 20
157.7883486942
 11
187.1096992907
 21
158.1557958282
  0
LINE
  5
27B
100
AcDbEntity
  8
RACCORDO
100
AcDbLine
 62
250
  6
CONTINUOUS
 10
187.1794772597
 20
158.1155069034
 11
187.2058266146
 21
158.1307206403
  0
LINE
  5
27C
100
AcDbEntity
  8
RACCORDO
100
AcDbLine
 62
7
  6
CONTINUOUS
 10
170.3438783121
 20
153.0902134121
 11
170.331499919
 21
153.0831172348
  0
LINE
  5
27D
100
AcDbEntity
  8
0
100
AcDbLine
 62
7
  6
CONTINUOUS
 10
170.3438783121
 20
153.0902134121
 11
170.331499919
 21
153.0831172348
  0
LWPOLYLINE
  5
27E
100
AcDbEntity
  8
RACCORDO
100
AcDbPolyline
 62
7
  6
CONTINUOUS
 90
3
 70
0
 10
170.4750122633
 20
153.1659547467
 10
170.4471002974
 20
153.1501115792
 10
170.4225000988
 20
153.1358480512
  0
LWPOLYLINE
  5
27F
100
AcDbEntity
  8
0
100
AcDbPolyline
 62
7
  6
CONTINUOUS
 90
3
 70
0
 10
170.4750122633
 20
153.1659547467
 10
170.4471002974
 20
153.1501115792
 10
170.4225000988
 20
153.1358480512
  0
LINE
  5
280
100
AcDbEntity
  8
RACCORDO
100
AcDbLine
 62
7
  6
CONTINUOUS
 10
186.7816271634
 20
165.9112625457
 11
186.6955844895
 21
165.864829898
  0
LINE
  5
281
100
AcDbEntity
  8
RACCORDO
100
AcDbLine
 62
7
  6
CONTINUOUS
 10
186.6955844895
 20
165.864829898
 11
186.685435222
 21
165.8597346498
  0
LWPOLYLINE
  5
282
100
AcDbEntity
  8
RACCORDO
100
AcDbPolyline
 62
7
  6
CONTINUOUS
 90
3
 70
0
 10
186.700052754
 20
165.1434590617
 10
186.7102431661
 20
165.1485100898
 10
186.7238200627
 20
165.1559345115
  0
LWPOLYLINE
  5
283
100
AcDbEntity
  8
RACCORDO
100
AcDbPolyline
 62
7
  6
CONTINUOUS
 90
3
 70
0
 10
186.7000513433
 20
165.1434032768
 10
186.6955832586
 20
165.1413762761
 10
186.685435222
 20
165.1375509189
  0
LWPOLYLINE
  5
284
100
AcDbEntity
  8
RACCORDO
100
AcDbPolyline
 62
7
  6
CONTINUOUS
 90
8
 70
0
 10
291.3477560518
 20
99.3923275278
 10
291.3604415007
 20
99.395929571
 10
291.3725910091
 20
99.398018054
 10
291.3842045769
 20
99.3985929769
 10
291.3953696022
 20
99.397634009
 10
291.405998687
 20
99.395161481
 10
291.4158296366
 20
99.3912363842
 10
291.4195952664
 20
99.3892176594
  0
LINE
  5
285
100
AcDbEntity
  8
DRAFT
100
AcDbLine
 62
7
  6
CONTINUOUS
 10
213.7810763315
 20
144.216725463
 11
213.8304811375
 21
144.4581494439
  0
LWPOLYLINE
  5
286
100
AcDbEntity
  8
RACCORDO
100
AcDbPolyline
 62
250
  6
CONTINUOUS
 90
3
 70
0
 10
186.6904450125
 20
158.8141681707
 10
186.6915549172
 20
158.8146185641
 10
186.7071710012
 20
158.8224657293
  0
LWPOLYLINE
  5
287
100
AcDbEntity
  8
RACCORDO
100
AcDbPolyline
 62
250
  6
CONTINUOUS
 90
27
 70
0
 10
188.2406322125
 20
166.8089792449
 10
188.2624647679
 20
166.775279779
 10
188.2830267696
 20
166.7406665237
 10
188.3022248808
 20
166.7052949124
 10
188.3199727829
 20
166.6693219
 10
188.3361885288
 20
166.6329113301
 10
188.3507958014
 20
166.5962334059
 10
188.3637280188
 20
166.5594554546
 10
188.3749276042
 20
166.5227413822
 10
188.3843438849
 20
166.4862571382
 10
188.391934383
 20
166.4501672083
 10
188.397664836
 20
166.4146343762
 10
188.4015093388
 20
166.3798193534
 10
188.4034506275
 20
166.3458784597
 10
188.4034799087
 20
166.3129654026
 10
188.4015973078
 20
166.281230801
 10
188.3978125816
 20
166.2508224798
 10
188.3921430886
 20
166.2218716301
 10
188.3846111257
 20
166.1944966909
 10
188.37525174
 20
166.1688302433
 10
188.3641032325
 20
166.1449815074
 10
188.3511957229
 20
166.1230322465
 10
188.3365588481
 20
166.1030672686
 10
188.3202666528
 20
166.0852180724
 10
188.3024335396
 20
166.0696145887
 10
188.283162169
 20
166.0563323282
 10
188.2794551277
 20
166.0541383633
  0
LWPOLYLINE
  5
288
100
AcDbEntity
  8
RACCORDO
100
AcDbPolyline
 62
250
  6
CONTINUOUS
 90
12
 70
0
 10
217.6213568989
 20
183.6074595351
 10
217.6219500631
 20
183.5894975506
 10
217.6237262385
 20
183.5723209879
 10
217.6266754919
 20
183.5560259055
 10
217.63078133
 20
183.5407034318
 10
217.6360207913
 20
183.5264392565
 10
217.6423645744
 20
183.5133131507
 10
217.6497772026
 20
183.5013985207
 10
217.6582172212
 20
183.4907619981
 10
217.6676374304
 20
183.4814630666
 10
217.6779851484
 20
183.4735537296
 10
217.6834816852
 20
183.4701384767
  0
LWPOLYLINE
  5
289
100
AcDbEntity
  8
0
100
AcDbPolyline
 62
250
  6
CONTINUOUS
 90
12
 70
0
 10
217.6213568989
 20
183.6074595351
 10
217.6219500631
 20
183.5894975506
 10
217.6237262385
 20
183.5723209879
 10
217.6266754919
 20
183.5560259055
 10
217.63078133
 20
183.5407034318
 10
217.6360207913
 20
183.5264392565
 10
217.6423645744
 20
183.5133131507
 10
217.6497772026
 20
183.5013985207
 10
217.6582172212
 20
183.4907619981
 10
217.6676374304
 20
183.4814630666
 10
217.6779851484
 20
183.4735537296
 10
217.6834816852
 20
183.4701384767
  0
LINE
  5
28A
100
AcDbEntity
  8
RACCORDO
100
AcDbLine
 62
7
  6
CONTINUOUS
 10
218.1698850363
 20
182.62767153
 11
218.1698850363
 21
139.8038055122
  0
LINE
  5
28B
100
AcDbEntity
  8
0
100
AcDbLine
 62
7
  6
CONTINUOUS
 10
218.1698850363
 20
182.62767153
 11
218.1698850363
 21
139.8038055122
  0
LINE
  5
28C
100
AcDbEntity
  8
RACCORDO
100
AcDbLine
 62
250
  6
CONTINUOUS
 10
218.257753002
 20
182.505189152
 11
218.257753002
 21
139.6813231342
  0
LINE
  5
28D
100
AcDbEntity
  8
0
100
AcDbLine
 62
250
  6
CONTINUOUS
 10
218.257753002
 20
182.505189152
 11
218.257753002
 21
139.6813231342
  0
LWPOLYLINE
  5
28E
100
AcDbEntity
  8
RACCORDO
100
AcDbPolyline
 62
7
  6
CONTINUOUS
 90
16
 70
0
 10
218.1698850363
 20
139.8038055122
 10
218.1694197446
 20
139.7816417612
 10
218.1680883938
 20
139.7611185533
 10
218.1659974806
 20
139.7423122966
 10
218.1632724982
 20
139.7253193517
 10
218.160035169
 20
139.7101229504
 10
218.1563984832
 20
139.6966677647
 10
218.1525060896
 20
139.6849956214
 10
218.1485205872
 20
139.6751374809
 10
218.1446265893
 20
139.6671090567
 10
218.1410559671
 20
139.6609383676
 10
218.1380115738
 20
139.6565226845
 10
218.135638768
 20
139.6536504165
 10
218.1340541865
 20
139.652077086
 10
218.1333461004
 20
139.6515268558
 10
218.1335034294
 20
139.6516457735
  0
LWPOLYLINE
  5
28F
100
AcDbEntity
  8
0
100
AcDbPolyline
 62
7
  6
CONTINUOUS
 90
16
 70
0
 10
218.1698850363
 20
139.8038055122
 10
218.1694197446
 20
139.7816417612
 10
218.1680883938
 20
139.7611185533
 10
218.1659974806
 20
139.7423122966
 10
218.1632724982
 20
139.7253193517
 10
218.160035169
 20
139.7101229504
 10
218.1563984832
 20
139.6966677647
 10
218.1525060896
 20
139.6849956214
 10
218.1485205872
 20
139.6751374809
 10
218.1446265893
 20
139.6671090567
 10
218.1410559671
 20
139.6609383676
 10
218.1380115738
 20
139.6565226845
 10
218.135638768
 20
139.6536504165
 10
218.1340541865
 20
139.652077086
 10
218.1333461004
 20
139.6515268558
 10
218.1335034294
 20
139.6516457735
  0
LWPOLYLINE
  5
290
100
AcDbEntity
  8
RACCORDO
100
AcDbPolyline
 62
250
  6
CONTINUOUS
 90
28
 70
0
 10
218.257753002
 20
139.6813231342
 10
218.25668415
 20
139.6392662135
 10
218.2534913975
 20
139.5987730829
 10
218.2481747445
 20
139.5598437425
 10
218.240699951
 20
139.5223232782
 10
218.231101257
 20
139.4863666041
 10
218.2194813823
 20
139.4524384619
 10
218.2058234105
 20
139.4205979375
 10
218.1901442581
 20
139.3907859451
 10
218.1725973933
 20
139.363289969
 10
218.1531613539
 20
139.3381272215
 10
218.1318576023
 20
139.3152804904
 10
218.1089039931
 20
139.2949856235
 10
218.0842849632
 20
139.2772702821
 10
218.0580160758
 20
139.2621068049
 10
218.0303618757
 20
139.2496480556
 10
218.0013057882
 20
139.2399213987
 10
217.9708643881
 20
139.2328994697
 10
217.9393519448
 20
139.2286530379
 10
217.9067645906
 20
139.2272095082
 10
217.8731061931
 20
139.2285414758
 10
217.8387026249
 20
139.2326374953
 10
217.8035116762
 20
139.2395414846
 10
217.7675755569
 20
139.249209526
 10
217.7313467692
 20
139.26149842
 10
217.6949761474
 20
139.2763604336
 10
217.6583128573
 20
139.2938433
 10
217.6213568989
 20
139.3139470191
  0
LWPOLYLINE
  5
291
100
AcDbEntity
  8
0
100
AcDbPolyline
 62
250
  6
CONTINUOUS
 90
28
 70
0
 10
218.257753002
 20
139.6813231342
 10
218.25668415
 20
139.6392662135
 10
218.2534913975
 20
139.5987730829
 10
218.2481747445
 20
139.5598437425
 10
218.240699951
 20
139.5223232782
 10
218.231101257
 20
139.4863666041
 10
218.2194813823
 20
139.4524384619
 10
218.2058234105
 20
139.4205979375
 10
218.1901442581
 20
139.3907859451
 10
218.1725973933
 20
139.363289969
 10
218.1531613539
 20
139.3381272215
 10
218.1318576023
 20
139.3152804904
 10
218.1089039931
 20
139.2949856235
 10
218.0842849632
 20
139.2772702821
 10
218.0580160758
 20
139.2621068049
 10
218.0303618757
 20
139.2496480556
 10
218.0013057882
 20
139.2399213987
 10
217.9708643881
 20
139.2328994697
 10
217.9393519448
 20
139.2286530379
 10
217.9067645906
 20
139.2272095082
 10
217.8731061931
 20
139.2285414758
 10
217.8387026249
 20
139.2326374953
 10
217.8035116762
 20
139.2395414846
 10
217.7675755569
 20
139.249209526
 10
217.7313467692
 20
139.26149842
 10
217.6949761474
 20
139.2763604336
 10
217.6583128573
 20
139.2938433
 10
217.6213568989
 20
139.3139470191
  0
LWPOLYLINE
  5
292
100
AcDbEntity
  8
RACCORDO
100
AcDbPolyline
 62
250
  6
CONTINUOUS
 90
22
 70
0
 10
217.6213568989
 20
139.3139470191
 10
217.6219500631
 20
139.3325939747
 10
217.6237262385
 20
139.3518216201
 10
217.6266754919
 20
139.3715224266
 10
217.63078133
 20
139.3915862191
 10
217.6360207912
 20
139.4119007929
 10
217.6423645744
 20
139.4323525406
 10
217.6497772026
 20
139.4528270877
 10
217.6582172212
 20
139.4732099323
 10
217.6676374304
 20
139.4933870852
 10
217.6779851484
 20
139.5132457077
 10
217.6892025067
 20
139.5326747421
 10
217.7012267732
 20
139.5515655336
 10
217.7139907034
 20
139.569812437
 10
217.7274229161
 20
139.5873134084
 10
217.741448293
 20
139.6039705752
 10
217.7559883985
 20
139.6196907838
 10
217.7709619185
 20
139.6343861204
 10
217.7862851149
 20
139.6479744026
 10
217.8018722941
 20
139.6603796394
 10
217.8176362865
 20
139.6715324556
 10
217.8334889333
 20
139.6813704801
  0
LWPOLYLINE
  5
293
100
AcDbEntity
  8
0
100
AcDbPolyline
 62
250
  6
CONTINUOUS
 90
22
 70
0
 10
217.6213568989
 20
139.3139470191
 10
217.6219500631
 20
139.3325939747
 10
217.6237262385
 20
139.3518216201
 10
217.6266754919
 20
139.3715224266
 10
217.63078133
 20
139.3915862191
 10
217.6360207912
 20
139.4119007929
 10
217.6423645744
 20
139.4323525406
 10
217.6497772026
 20
139.4528270877
 10
217.6582172212
 20
139.4732099323
 10
217.6676374304
 20
139.4933870852
 10
217.6779851484
 20
139.5132457077
 10
217.6892025067
 20
139.5326747421
 10
217.7012267732
 20
139.5515655336
 10
217.7139907034
 20
139.569812437
 10
217.7274229161
 20
139.5873134084
 10
217.741448293
 20
139.6039705752
 10
217.7559883985
 20
139.6196907838
 10
217.7709619185
 20
139.6343861204
 10
217.7862851149
 20
139.6479744026
 10
217.8018722941
 20
139.6603796394
 10
217.8176362865
 20
139.6715324556
 10
217.8334889333
 20
139.6813704801
  0
LINE
  5
294
100
AcDbEntity
  8
RACCORDO
100
AcDbLine
 62
250
  6
CONTINUOUS
 10
236.2536205832
 20
172.3595655078
 11
236.5899696814
 21
172.5537692617
  0
LINE
  5
295
100
AcDbEntity
  8
0
100
AcDbLine
 62
250
  6
CONTINUOUS
 10
236.2536205832
 20
172.3595655078
 11
236.5899696814
 21
172.5537692617
  0
LWPOLYLINE
  5
296
100
AcDbEntity
  8
RACCORDO
100
AcDbPolyline
 62
7
  6
CONTINUOUS
 90
16
 70
0
 10
236.3778701558
 20
172.6342076245
 10
236.3776874046
 20
172.634130396
 10
236.3785222427
 20
172.6344700953
 10
236.3806885491
 20
172.6350579673
 10
236.3843826213
 20
172.6356780636
 10
236.3897584566
 20
172.6361053208
 10
236.396925707
 20
172.636106339
 10
236.4058765763
 20
172.6354522161
 10
236.4164648049
 20
172.633955081
 10
236.4285636312
 20
172.6314669469
 10
236.4420527849
 20
172.6278689134
 10
236.4568273853
 20
172.6230610087
 10
236.4728807034
 20
172.6169206882
 10
236.4901674792
 20
172.6093370236
 10
236.5085395415
 20
172.6002537882
 10
236.5278774039
 20
172.5896205646
  0
LWPOLYLINE
  5
297
100
AcDbEntity
  8
0
100
AcDbPolyline
 62
7
  6
CONTINUOUS
 90
16
 70
0
 10
236.3778701558
 20
172.6342076245
 10
236.3776874046
 20
172.634130396
 10
236.3785222427
 20
172.6344700953
 10
236.3806885491
 20
172.6350579673
 10
236.3843826213
 20
172.6356780636
 10
236.3897584566
 20
172.6361053208
 10
236.396925707
 20
172.636106339
 10
236.4058765763
 20
172.6354522161
 10
236.4164648049
 20
172.633955081
 10
236.4285636312
 20
172.6314669469
 10
236.4420527849
 20
172.6278689134
 10
236.4568273853
 20
172.6230610087
 10
236.4728807034
 20
172.6169206882
 10
236.4901674792
 20
172.6093370236
 10
236.5085395415
 20
172.6002537882
 10
236.5278774039
 20
172.5896205646
  0
LINE
  5
298
100
AcDbEntity
  8
RACCORDO
100
AcDbLine
 62
250
  6
CONTINUOUS
 10
186.7816271634
 20
158.8738268176
 11
188.2430570162
 21
159.3982023788
  0
LINE
  5
299
100
AcDbEntity
  8
RACCORDO
100
AcDbLine
 62
250
  6
CONTINUOUS
 10
187.2044794288
 20
158.1314984885
 11
188.6911869604
 21
158.6649439321
  0
LINE
  5
29A
100
AcDbEntity
  8
RACCORDO
100
AcDbLine
 62
7
  6
CONTINUOUS
 10
189.5060078647
 20
158.5027954544
 11
189.1708261703
 21
158.3880062636
  0
LINE
  5
29B
100
AcDbEntity
  8
RACCORDO
100
AcDbLine
 62
7
  6
CONTINUOUS
 10
190.9385931233
 20
157.3673197803
 11
191.2737748177
 21
157.4821089711
  0
LWPOLYLINE
  5
29C
100
AcDbEntity
  8
RACCORDO
100
AcDbPolyline
 62
7
  6
CONTINUOUS
 90
15
 70
0
 10
334.1702190614
 20
58.4813281928
 10
334.1828030071
 20
58.4742413766
 10
334.2151103521
 20
58.4577221578
 10
334.2465774542
 20
58.4439968425
 10
334.277100164
 20
58.4329590144
 10
334.3066779902
 20
58.4244407191
 10
334.3352082212
 20
58.4183767308
 10
334.3626364487
 20
58.4146850595
 10
334.3890410261
 20
58.4131964197
 10
334.414391017
 20
58.4138507703
 10
334.4386043964
 20
58.4165903238
 10
334.461682258
 20
58.4212677118
 10
334.4835992711
 20
58.4277986421
 10
334.5043085598
 20
58.4361572205
 10
334.5237854986
 20
58.4462885496
  0
LWPOLYLINE
  5
29D
100
AcDbEntity
  8
0
100
AcDbPolyline
 62
7
  6
CONTINUOUS
 90
15
 70
0
 10
334.1702190614
 20
58.4813281928
 10
334.1828030071
 20
58.4742413766
 10
334.2151103521
 20
58.4577221578
 10
334.2465774542
 20
58.4439968425
 10
334.277100164
 20
58.4329590144
 10
334.3066779902
 20
58.4244407191
 10
334.3352082212
 20
58.4183767308
 10
334.3626364487
 20
58.4146850595
 10
334.3890410261
 20
58.4131964197
 10
334.414391017
 20
58.4138507703
 10
334.4386043964
 20
58.4165903238
 10
334.461682258
 20
58.4212677118
 10
334.4835992711
 20
58.4277986421
 10
334.5043085598
 20
58.4361572205
 10
334.5237854986
 20
58.4462885496
  0
LINE
  5
29E
100
AcDbEntity
  8
RACCORDO
100
AcDbLine
 62
7
  6
CONTINUOUS
 10
170.3285656545
 20
153.0814262077
 11
334.1702079473
 21
58.4813153659
  0
LINE
  5
29F
100
AcDbEntity
  8
0
100
AcDbLine
 62
7
  6
CONTINUOUS
 10
170.3285656545
 20
153.0814262077
 11
334.1702079473
 21
58.4813153659
  0
LINE
  5
2A0
100
AcDbEntity
  8
RACCORDO
100
AcDbLine
 62
250
  6
CONTINUOUS
 10
170.4750122633
 20
153.1659547467
 11
333.8166787174
 21
58.854523688
  0
LINE
  5
2A1
100
AcDbEntity
  8
0
100
AcDbLine
 62
250
  6
CONTINUOUS
 10
170.4750122633
 20
153.1659547467
 11
333.8166787174
 21
58.854523688
  0
LWPOLYLINE
  5
2A2
100
AcDbEntity
  8
RACCORDO
100
AcDbPolyline
 62
7
  6
CONTINUOUS
 90
5
 70
0
 10
187.0634554338
 20
158.2416294726
 10
187.0899361338
 20
158.2159622732
 10
187.1175437308
 20
158.1918204116
 10
187.146113537
 20
158.1694719544
 10
187.1755849713
 20
158.1490381435
  0
LWPOLYLINE
  5
2A3
100
AcDbEntity
  8
RACCORDO
100
AcDbPolyline
 62
7
  6
CONTINUOUS
 90
12
 70
0
 10
170.4750122633
 20
224.1988688277
 10
170.4473337899
 20
224.2498034422
 10
170.4226791941
 20
224.3003814978
 10
170.4010513047
 20
224.3504161779
 10
170.3824287932
 20
224.3998240764
 10
170.3667475902
 20
224.4483432322
 10
170.3539142798
 20
224.495536728
 10
170.3438380977
 20
224.5411999702
 10
170.3364096077
 20
224.5852648139
 10
170.331499919
 20
224.6275199349
 10
170.3289836731
 20
224.6678061578
 10
170.328565654
 20
224.6916655506
  0
LWPOLYLINE
  5
2A4
100
AcDbEntity
  8
0
100
AcDbPolyline
 62
7
  6
CONTINUOUS
 90
12
 70
0
 10
170.4750122633
 20
224.1988688277
 10
170.4473337899
 20
224.2498034422
 10
170.4226791941
 20
224.3003814978
 10
170.4010513047
 20
224.3504161779
 10
170.3824287932
 20
224.3998240764
 10
170.3667475902
 20
224.4483432322
 10
170.3539142798
 20
224.495536728
 10
170.3438380977
 20
224.5411999702
 10
170.3364096077
 20
224.5852648139
 10
170.331499919
 20
224.6275199349
 10
170.3289836731
 20
224.6678061578
 10
170.328565654
 20
224.6916655506
  0
LWPOLYLINE
  5
2A5
100
AcDbEntity
  8
RACCORDO
100
AcDbPolyline
 62
250
  6
CONTINUOUS
 90
6
 70
0
 10
218.1867200372
 20
139.7465958149
 10
218.1801072884
 20
139.7589738503
 10
218.1751150944
 20
139.7716026026
 10
218.1717713734
 20
139.7844114466
 10
218.1700948249
 20
139.7973287501
 10
218.1698850363
 20
139.8038055122
  0
LWPOLYLINE
  5
2A6
100
AcDbEntity
  8
0
100
AcDbPolyline
 62
250
  6
CONTINUOUS
 90
6
 70
0
 10
218.1867200372
 20
139.7465958149
 10
218.1801072884
 20
139.7589738503
 10
218.1751150944
 20
139.7716026026
 10
218.1717713734
 20
139.7844114466
 10
218.1700948249
 20
139.7973287501
 10
218.1698850363
 20
139.8038055122
  0
LWPOLYLINE
  5
2A7
100
AcDbEntity
  8
RACCORDO
100
AcDbPolyline
 62
7
  6
CONTINUOUS
 90
7
 70
0
 10
238.4784245562
 20
161.3834221558
 10
238.4861443888
 20
161.3923099858
 10
238.4925694891
 20
161.4016149317
 10
238.4975580406
 20
161.4111287809
 10
238.5010773902
 20
161.4208540871
 10
238.5031601911
 20
161.4307882967
 10
238.5037705196
 20
161.4396765836
  0
LWPOLYLINE
  5
2A8
100
AcDbEntity
  8
RACCORDO
100
AcDbPolyline
 62
250
  6
CONTINUOUS
 90
25
 70
0
 10
236.9669121204
 20
166.0801081797
 10
236.9819939425
 20
166.0959893978
 10
236.995740885
 20
166.1136711753
 10
237.0080978402
 20
166.1330839557
 10
237.0190173637
 20
166.1541532692
 10
237.0284586759
 20
166.1768005048
 10
237.0363856886
 20
166.2009393636
 10
237.0427683421
 20
166.2264782928
 10
237.047582529
 20
166.2533208113
 10
237.0508099975
 20
166.2813651361
 10
237.0524385666
 20
166.3105057152
 10
237.0524620073
 20
166.3406316662
 10
237.0508804128
 20
166.3716267924
 10
237.0477003915
 20
166.4033713951
 10
237.0429342675
 20
166.4357473277
 10
237.0365994275
 20
166.4686365766
 10
237.0287223343
 20
166.5019039496
 10
237.0193306704
 20
166.5354343008
 10
237.0084467618
 20
166.569138319
 10
236.9960998614
 20
166.6029061829
 10
236.9823372619
 20
166.6365915436
 10
236.9672139323
 20
166.6700498345
 10
236.950787451
 20
166.703147546
 10
236.9331156876
 20
166.7357624307
 10
236.9142637434
 20
166.7677684366
  0
LWPOLYLINE
  5
2A9
100
AcDbEntity
  8
RACCORDO
100
AcDbPolyline
 62
7
  6
CONTINUOUS
 90
10
 70
0
 10
238.4579148793
 20
167.7121081032
 10
238.4674538115
 20
167.718472947
 10
238.4761379958
 20
167.7248598949
 10
238.4838770084
 20
167.7312811485
 10
238.4905139372
 20
167.7376652265
 10
238.4958767328
 20
167.7438441427
 10
238.4998809019
 20
167.7497086399
 10
238.5025036932
 20
167.755242121
 10
238.5036995265
 20
167.7604000821
 10
238.5037705204
 20
167.7618984853
  0
LWPOLYLINE
  5
2AA
100
AcDbEntity
  8
RACCORDO
100
AcDbPolyline
 62
7
  6
CONTINUOUS
 90
4
 70
0
 10
238.4476384805
 20
161.3594695728
 10
238.4591952381
 20
161.3670366514
 10
238.4694572634
 20
161.3750208457
 10
238.4784245562
 20
161.3834221558
  0
LWPOLYLINE
  5
2AB
100
AcDbEntity
  8
RACCORDO
100
AcDbPolyline
 62
7
  6
CONTINUOUS
 90
26
 70
0
 10
238.4840364456
 20
166.9494546211
 10
238.5078225491
 20
166.9645633308
 10
238.530622591
 20
166.9819278815
 10
238.5522347161
 20
167.0015278492
 10
238.5724243775
 20
167.0232760597
 10
238.591048029
 20
167.047144093
 10
238.6080324008
 20
167.0732174383
 10
238.623225569
 20
167.1015186168
 10
238.6364035175
 20
167.1319160656
 10
238.647399642
 20
167.1643230745
 10
238.6561185261
 20
167.1988972348
 10
238.6623488612
 20
167.2353872865
 10
238.6659187557
 20
167.2730798609
 10
238.6668317407
 20
167.3119221775
 10
238.6650778883
 20
167.3518044175
 10
238.6607525067
 20
167.3918385639
 10
238.6540226793
 20
167.4316910425
 10
238.6449781963
 20
167.4714715708
 10
238.6337747797
 20
167.5108725545
 10
238.6205612014
 20
167.5496943879
 10
238.6054243172
 20
167.5879058642
 10
238.5884611721
 20
167.6253993436
 10
238.5697818311
 20
167.6620275485
 10
238.5494630881
 20
167.6977016102
 10
238.5275414368
 20
167.732375407
 10
238.5040696019
 20
167.76594702
  0
LINE
  5
2AC
100
AcDbEntity
  8
RACCORDO
100
AcDbLine
 62
7
  6
CONTINUOUS
 10
238.4579148793
 20
167.7121081032
 11
236.9862086276
 21
166.8065785501
  0
LINE
  5
2AD
100
AcDbEntity
  8
RACCORDO
100
AcDbLine
 62
7
  6
CONTINUOUS
 10
238.4476384805
 20
161.3594695728
 11
238.3781620618
 21
161.3179294676
  0
LWPOLYLINE
  5
2AE
100
AcDbEntity
  8
RACCORDO
100
AcDbPolyline
 62
250
  6
CONTINUOUS
 90
4
 70
0
 10
236.9284016733
 20
166.0512502624
 10
236.9329825415
 20
166.0539772388
 10
236.9505543969
 20
166.0660872178
 10
236.9669121204
 20
166.0801081797
  0
LINE
  5
2AF
100
AcDbEntity
  8
ASSI
100
AcDbLine
 62
7
  6
CONTINUOUS
 10
238.4840365919
 20
166.9494543677
 11
236.9284016733
 21
166.0512502624
  0
LINE
  5
2B0
100
AcDbEntity
  8
RACCORDO
100
AcDbLine
 62
7
  6
CONTINUOUS
 10
236.9862086276
 20
166.8065785501
 11
236.9001659538
 21
166.7601459023
  0
LINE
  5
2B1
100
AcDbEntity
  8
RACCORDO
100
AcDbLine
 62
7
  6
CONTINUOUS
 10
236.9001659538
 20
166.7601459023
 11
236.8900166862
 21
166.7550506541
  0
LWPOLYLINE
  5
2B2
100
AcDbEntity
  8
RACCORDO
100
AcDbPolyline
 62
7
  6
CONTINUOUS
 90
3
 70
0
 10
236.9046342183
 20
166.0387750661
 10
236.9148246303
 20
166.0438260942
 10
236.928401527
 20
166.0512505158
  0
LWPOLYLINE
  5
2B3
100
AcDbEntity
  8
RACCORDO
100
AcDbPolyline
 62
7
  6
CONTINUOUS
 90
3
 70
0
 10
236.9046328075
 20
166.0387192811
 10
236.9001647228
 20
166.0366922805
 10
236.8900166862
 20
166.0328669233
  0
LINE
  5
2B4
100
AcDbEntity
  8
RACCORDO
100
AcDbLine
 62
7
  6
CONTINUOUS
 10
195.8699688954
 20
154.8283241144
 11
195.534787201
 21
154.7135349237
  0
LINE
  5
2B5
100
AcDbEntity
  8
RACCORDO
100
AcDbLine
 62
7
  6
CONTINUOUS
 10
197.2318434758
 20
153.6686322565
 11
197.6377358483
 21
153.8076376311
  0
LWPOLYLINE
  5
2B6
100
AcDbEntity
  8
RACCORDO
100
AcDbPolyline
 62
7
  6
CONTINUOUS
 90
8
 70
0
 10
263.6998809074
 20
115.3558641269
 10
263.7125663563
 20
115.3594661701
 10
263.7247158647
 20
115.3615546531
 10
263.7363294325
 20
115.362129576
 10
263.7474944578
 20
115.3611706081
 10
263.7581235426
 20
115.3586980801
 10
263.7679544922
 20
115.3547729833
 10
263.771720122
 20
115.3527542585
  0
LWPOLYLINE
  5
2B7
100
AcDbEntity
  8
RACCORDO
100
AcDbPolyline
 62
250
  6
CONTINUOUS
 90
28
 70
0
 10
186.2611711533
 20
157.4209252332
 10
186.2242131405
 20
157.4434984907
 10
186.1875474004
 20
157.4683553838
 10
186.1511739331
 20
157.4954959123
 10
186.1149414531
 20
157.5250469621
 10
186.0790012458
 20
157.5568816474
 10
186.0438071673
 20
157.5906193107
 10
186.00940193
 20
157.6262548227
 10
185.9757428215
 20
157.6637933126
 10
185.9431555603
 20
157.7028695104
 10
185.9116443208
 20
157.7435057872
 10
185.8812049285
 20
157.7856797718
 10
185.8521505781
 20
157.8289590805
 10
185.8244974435
 20
157.8733523452
 10
185.7982293509
 20
157.9188509339
 10
185.7736109735
 20
157.9649965675
 10
185.7506577223
 20
158.011799486
 10
185.7293541864
 20
158.0592494493
 10
185.7099188057
 20
158.1068574576
 10
185.6923733801
 20
158.1546153897
 10
185.6766961098
 20
158.2025313667
 10
185.6630400344
 20
158.2501407524
 10
185.6514220823
 20
158.2974825106
 10
185.6418253252
 20
158.3445176774
 10
185.634352018
 20
158.3906647243
 10
185.6290362455
 20
158.4357298082
 10
185.6258439229
 20
158.4799067723
 10
185.6247750502
 20
158.5231956163
  0
LWPOLYLINE
  5
2B8
100
AcDbEntity
  8
0
100
AcDbPolyline
 62
250
  6
CONTINUOUS
 90
28
 70
0
 10
186.2611711533
 20
157.4209252332
 10
186.2242131405
 20
157.4434984907
 10
186.1875474004
 20
157.4683553838
 10
186.1511739331
 20
157.4954959123
 10
186.1149414531
 20
157.5250469621
 10
186.0790012458
 20
157.5568816474
 10
186.0438071673
 20
157.5906193107
 10
186.00940193
 20
157.6262548227
 10
185.9757428215
 20
157.6637933126
 10
185.9431555603
 20
157.7028695104
 10
185.9116443208
 20
157.7435057872
 10
185.8812049285
 20
157.7856797718
 10
185.8521505781
 20
157.8289590805
 10
185.8244974435
 20
157.8733523452
 10
185.7982293509
 20
157.9188509339
 10
185.7736109735
 20
157.9649965675
 10
185.7506577223
 20
158.011799486
 10
185.7293541864
 20
158.0592494493
 10
185.7099188057
 20
158.1068574576
 10
185.6923733801
 20
158.1546153897
 10
185.6766961098
 20
158.2025313667
 10
185.6630400344
 20
158.2501407524
 10
185.6514220823
 20
158.2974825106
 10
185.6418253252
 20
158.3445176774
 10
185.634352018
 20
158.3906647243
 10
185.6290362455
 20
158.4357298082
 10
185.6258439229
 20
158.4799067723
 10
185.6247750502
 20
158.5231956163
  0
LWPOLYLINE
  5
2B9
100
AcDbEntity
  8
RACCORDO
100
AcDbPolyline
 62
250
  6
CONTINUOUS
 90
27
 70
0
 10
188.2406322125
 20
196.6917913755
 10
188.2624647679
 20
196.6580919096
 10
188.2830267696
 20
196.6234786543
 10
188.3022248808
 20
196.588107043
 10
188.3199727829
 20
196.5521340306
 10
188.3361885288
 20
196.5157234608
 10
188.3507958014
 20
196.4790455365
 10
188.3637280188
 20
196.4422675852
 10
188.3749276042
 20
196.4055535128
 10
188.3843438849
 20
196.3690692688
 10
188.391934383
 20
196.3329793389
 10
188.397664836
 20
196.2974465068
 10
188.4015093388
 20
196.262631484
 10
188.4034506275
 20
196.2286905903
 10
188.4034799087
 20
196.1957775332
 10
188.4015973078
 20
196.1640429316
 10
188.3978125816
 20
196.1336346104
 10
188.3921430886
 20
196.1046837607
 10
188.3846111257
 20
196.0773088215
 10
188.37525174
 20
196.0516423739
 10
188.3641032325
 20
196.027793638
 10
188.3511957229
 20
196.0058443771
 10
188.3365588481
 20
195.9858793992
 10
188.3202666528
 20
195.968030203
 10
188.3024335396
 20
195.9524267193
 10
188.283162169
 20
195.9391444588
 10
188.2794551277
 20
195.936950494
  0
LWPOLYLINE
  5
2BA
100
AcDbEntity
  8
RACCORDO
100
AcDbPolyline
 62
250
  6
CONTINUOUS
 90
28
 70
0
 10
238.4476384805
 20
130.4107062525
 10
238.4500179195
 20
130.3816217832
 10
238.4537852392
 20
130.3518417416
 10
238.4589409542
 20
130.3214794237
 10
238.4654970452
 20
130.2906707228
 10
238.4734257927
 20
130.2595086409
 10
238.4826668549
 20
130.2280413765
 10
238.4932227117
 20
130.1963293248
 10
238.5050640568
 20
130.1645393942
 10
238.5180666542
 20
130.132878243
 10
238.5321525679
 20
130.1015237865
 10
238.547305154
 20
130.070514995
 10
238.5634830659
 20
130.0398481133
 10
238.5806407844
 20
130.0096352008
 10
238.5987357573
 20
129.979970362
 10
238.6177506437
 20
129.9508300441
 10
238.6376460302
 20
129.9223226952
 10
238.6583757846
 20
129.8945510195
 10
238.6799314587
 20
129.8675000453
 10
238.7023364982
 20
129.8412060651
 10
238.7254815889
 20
129.8158714737
 10
238.7491487237
 20
129.7917212922
 10
238.7732670125
 20
129.7688294802
 10
238.7977597539
 20
129.747302102
 10
238.8223670873
 20
129.7273527933
 10
238.8469351442
 20
129.7090632473
 10
238.8714320489
 20
129.6924195606
 10
238.8957684247
 20
129.6774478058
  0
LWPOLYLINE
  5
2BB
100
AcDbEntity
  8
RACCORDO
100
AcDbPolyline
 62
250
  6
CONTINUOUS
 90
12
 70
0
 10
236.4657526175
 20
172.7269416229
 10
236.4663457817
 20
172.7089796384
 10
236.4681219571
 20
172.6918030758
 10
236.4710712105
 20
172.6755079933
 10
236.4751770486
 20
172.6601855196
 10
236.4804165099
 20
172.6459213444
 10
236.4867602931
 20
172.6327952385
 10
236.4941729212
 20
172.6208806085
 10
236.5026129398
 20
172.6102440859
 10
236.512033149
 20
172.6009451544
 10
236.522380867
 20
172.5930358174
 10
236.5278774039
 20
172.5896205646
  0
LWPOLYLINE
  5
2BC
100
AcDbEntity
  8
0
100
AcDbPolyline
 62
250
  6
CONTINUOUS
 90
12
 70
0
 10
236.4657526175
 20
172.7269416229
 10
236.4663457817
 20
172.7089796384
 10
236.4681219571
 20
172.6918030758
 10
236.4710712105
 20
172.6755079933
 10
236.4751770486
 20
172.6601855196
 10
236.4804165099
 20
172.6459213444
 10
236.4867602931
 20
172.6327952385
 10
236.4941729212
 20
172.6208806085
 10
236.5026129398
 20
172.6102440859
 10
236.512033149
 20
172.6009451544
 10
236.522380867
 20
172.5930358174
 10
236.5278774039
 20
172.5896205646
  0
LWPOLYLINE
  5
2BD
100
AcDbEntity
  8
RACCORDO
100
AcDbPolyline
 62
7
  6
CONTINUOUS
 90
25
 70
0
 10
236.8900166862
 20
129.903146624
 10
236.8909572858
 20
129.8703383604
 10
236.8936746575
 20
129.8369122942
 10
236.8981688014
 20
129.8028684254
 10
236.9044740804
 20
129.7680561128
 10
236.9125561316
 20
129.7326259977
 10
236.9223118655
 20
129.6970300035
 10
236.9337627217
 20
129.6612660053
 10
236.9468872606
 20
129.6253361279
 10
236.9615180742
 20
129.5896986695
 10
236.9776744576
 20
129.554357376
 10
236.9953371156
 20
129.5193085015
 10
237.014280755
 20
129.4849991065
 10
237.0345217847
 20
129.4514386638
 10
237.0560437958
 20
129.4186177006
 10
237.0785722674
 20
129.3869548599
 10
237.1021200922
 20
129.3564649769
 10
237.1266743775
 20
129.3271332163
 10
237.1519219249
 20
129.2993337151
 10
237.177871615
 20
129.273086101
 10
237.2045145671
 20
129.2483707461
 10
237.2315109412
 20
129.2255029035
 10
237.2587474572
 20
129.2045876574
 10
237.2863373951
 20
129.1855199236
 10
237.314280755
 20
129.1682997019
  0
LWPOLYLINE
  5
2BE
100
AcDbEntity
  8
0
100
AcDbPolyline
 62
7
  6
CONTINUOUS
 90
25
 70
0
 10
236.8900166862
 20
129.903146624
 10
236.8909572858
 20
129.8703383604
 10
236.8936746575
 20
129.8369122942
 10
236.8981688014
 20
129.8028684254
 10
236.9044740804
 20
129.7680561128
 10
236.9125561316
 20
129.7326259977
 10
236.9223118655
 20
129.6970300035
 10
236.9337627217
 20
129.6612660053
 10
236.9468872606
 20
129.6253361279
 10
236.9615180742
 20
129.5896986695
 10
236.9776744576
 20
129.554357376
 10
236.9953371156
 20
129.5193085015
 10
237.014280755
 20
129.4849991065
 10
237.0345217847
 20
129.4514386638
 10
237.0560437958
 20
129.4186177006
 10
237.0785722674
 20
129.3869548599
 10
237.1021200922
 20
129.3564649769
 10
237.1266743775
 20
129.3271332163
 10
237.1519219249
 20
129.2993337151
 10
237.177871615
 20
129.273086101
 10
237.2045145671
 20
129.2483707461
 10
237.2315109412
 20
129.2255029035
 10
237.2587474572
 20
129.2045876574
 10
237.2863373951
 20
129.1855199236
 10
237.314280755
 20
129.1682997019
  0
LINE
  5
2BF
100
AcDbEntity
  8
RACCORDO
100
AcDbLine
 62
250
  6
CONTINUOUS
 10
235.8293565145
 20
129.53569949
 11
235.8293565145
 21
172.3595655078
  0
LINE
  5
2C0
100
AcDbEntity
  8
0
100
AcDbLine
 62
250
  6
CONTINUOUS
 10
235.8293565145
 20
129.53569949
 11
235.8293565145
 21
172.3595655078
  0
LINE
  5
2C1
100
AcDbEntity
  8
RACCORDO
100
AcDbLine
 62
250
  6
CONTINUOUS
 10
236.2536205832
 20
129.53569949
 11
236.2536205832
 21
172.3595655078
  0
LINE
  5
2C2
100
AcDbEntity
  8
0
100
AcDbLine
 62
250
  6
CONTINUOUS
 10
236.2536205832
 20
129.53569949
 11
236.2536205832
 21
172.3595655078
  0
LINE
  5
2C3
100
AcDbEntity
  8
RACCORDO
100
AcDbLine
 62
7
  6
CONTINUOUS
 10
236.8900166862
 20
172.3805258816
 11
236.8900166862
 21
129.903146624
  0
LINE
  5
2C4
100
AcDbEntity
  8
0
100
AcDbLine
 62
7
  6
CONTINUOUS
 10
236.8900166862
 20
172.3805258816
 11
236.8900166862
 21
129.903146624
  0
LINE
  5
2C5
100
AcDbEntity
  8
RACCORDO
100
AcDbLine
 62
250
  6
CONTINUOUS
 10
236.9117524654
 20
129.834969603
 11
236.9117524654
 21
136.1595650198
  0
LINE
  5
2C6
100
AcDbEntity
  8
RACCORDO
100
AcDbLine
 62
250
  6
CONTINUOUS
 10
236.9117524654
 20
136.8836015577
 11
236.9117524654
 21
166.0423771504
  0
LINE
  5
2C7
100
AcDbEntity
  8
RACCORDO
100
AcDbLine
 62
250
  6
CONTINUOUS
 10
236.9117524654
 20
166.7664136884
 11
236.9117524654
 21
172.3679759151
  0
LINE
  5
2C8
100
AcDbEntity
  8
RACCORDO
100
AcDbLine
 62
7
  6
CONTINUOUS
 10
236.9862086276
 20
172.3249858602
 11
236.9862086276
 21
166.8065785501
  0
LINE
  5
2C9
100
AcDbEntity
  8
DRAFT
100
AcDbLine
 62
7
  6
CONTINUOUS
 10
236.9862086276
 20
166.0852423156
 11
236.9862086276
 21
136.9237664195
  0
LINE
  5
2CA
100
AcDbEntity
  8
RACCORDO
100
AcDbLine
 62
7
  6
CONTINUOUS
 10
236.9862086276
 20
136.2024301849
 11
236.9862086276
 21
129.8863306913
  0
LINE
  5
2CB
100
AcDbEntity
  8
DRAFT
100
AcDbLine
 62
250
  6
CONTINUOUS
 10
238.3781620618
 20
143.3577470817
 11
238.3781620618
 21
161.3179294676
  0
LINE
  5
2CC
100
AcDbEntity
  8
RACCORDO
100
AcDbLine
 62
7
  6
CONTINUOUS
 10
238.4342941017
 20
143.4320625106
 11
238.4342941017
 21
161.3514909391
  0
LINE
  5
2CD
100
AcDbEntity
  8
RACCORDO
100
AcDbLine
 62
250
  6
CONTINUOUS
 10
238.4476384805
 20
171.4811745792
 11
238.4476384805
 21
167.7057849399
  0
LINE
  5
2CE
100
AcDbEntity
  8
RACCORDO
100
AcDbLine
 62
250
  6
CONTINUOUS
 10
238.4476384805
 20
166.9284385543
 11
238.4476384805
 21
161.3594695728
  0
LINE
  5
2CF
100
AcDbEntity
  8
DRAFT
100
AcDbLine
 62
250
  6
CONTINUOUS
 10
238.4476384805
 20
140.133357612
 11
238.4476384805
 21
137.8229728093
  0
LINE
  5
2D0
100
AcDbEntity
  8
RACCORDO
100
AcDbLine
 62
250
  6
CONTINUOUS
 10
238.4476384805
 20
137.0456264237
 11
238.4476384805
 21
130.4107062525
  0
LINE
  5
2D1
100
AcDbEntity
  8
RACCORDO
100
AcDbLine
 62
7
  6
CONTINUOUS
 10
238.5037705204
 20
171.4487646428
 11
238.5037705204
 21
167.7619009981
  0
LINE
  5
2D2
100
AcDbEntity
  8
RACCORDO
100
AcDbLine
 62
7
  6
CONTINUOUS
 10
238.5037705204
 20
166.9619895202
 11
238.5037705204
 21
161.4396869802
  0
LINE
  5
2D3
100
AcDbEntity
  8
RACCORDO
100
AcDbLine
 62
7
  6
CONTINUOUS
 10
238.5037705204
 20
140.1703761645
 11
238.5037705204
 21
137.8790888674
  0
LINE
  5
2D4
100
AcDbEntity
  8
RACCORDO
100
AcDbLine
 62
7
  6
CONTINUOUS
 10
238.5037705204
 20
137.0791773896
 11
238.5037705204
 21
130.4909236605
  0
LWPOLYLINE
  5
2D5
100
AcDbEntity
  8
RACCORDO
100
AcDbPolyline
 62
250
  6
CONTINUOUS
 90
28
 70
0
 10
235.8293565145
 20
172.3595655078
 10
235.8304253664
 20
172.4016224285
 10
235.8336181189
 20
172.4421155591
 10
235.8389347719
 20
172.4810448995
 10
235.8464095654
 20
172.5185653637
 10
235.8560082594
 20
172.5545220379
 10
235.8676281342
 20
172.58845018
 10
235.8812861059
 20
172.6202907044
 10
235.8969652584
 20
172.6501026969
 10
235.9145121232
 20
172.677598673
 10
235.9339481625
 20
172.7027614205
 10
235.9552519142
 20
172.7256081516
 10
235.9782055233
 20
172.7459030185
 10
236.0028245533
 20
172.7636183599
 10
236.0290934407
 20
172.778781837
 10
236.0567476407
 20
172.7912405864
 10
236.0858037282
 20
172.8009672432
 10
236.1162451283
 20
172.8079891723
 10
236.1477575716
 20
172.8122356041
 10
236.1803449259
 20
172.8136791338
 10
236.2140033234
 20
172.8123471662
 10
236.2484068915
 20
172.8082511467
 10
236.2835978402
 20
172.8013471573
 10
236.3195339596
 20
172.791679116
 10
236.3557627472
 20
172.779390222
 10
236.392133369
 20
172.7645282083
 10
236.4287966591
 20
172.747045342
 10
236.4657526175
 20
172.7269416229
  0
LWPOLYLINE
  5
2D6
100
AcDbEntity
  8
0
100
AcDbPolyline
 62
250
  6
CONTINUOUS
 90
28
 70
0
 10
235.8293565145
 20
172.3595655078
 10
235.8304253664
 20
172.4016224285
 10
235.8336181189
 20
172.4421155591
 10
235.8389347719
 20
172.4810448995
 10
235.8464095654
 20
172.5185653637
 10
235.8560082594
 20
172.5545220379
 10
235.8676281342
 20
172.58845018
 10
235.8812861059
 20
172.6202907044
 10
235.8969652584
 20
172.6501026969
 10
235.9145121232
 20
172.677598673
 10
235.9339481625
 20
172.7027614205
 10
235.9552519142
 20
172.7256081516
 10
235.9782055233
 20
172.7459030185
 10
236.0028245533
 20
172.7636183599
 10
236.0290934407
 20
172.778781837
 10
236.0567476407
 20
172.7912405864
 10
236.0858037282
 20
172.8009672432
 10
236.1162451283
 20
172.8079891723
 10
236.1477575716
 20
172.8122356041
 10
236.1803449259
 20
172.8136791338
 10
236.2140033234
 20
172.8123471662
 10
236.2484068915
 20
172.8082511467
 10
236.2835978402
 20
172.8013471573
 10
236.3195339596
 20
172.791679116
 10
236.3557627472
 20
172.779390222
 10
236.392133369
 20
172.7645282083
 10
236.4287966591
 20
172.747045342
 10
236.4657526175
 20
172.7269416229
  0
LWPOLYLINE
  5
2D7
100
AcDbEntity
  8
RACCORDO
100
AcDbPolyline
 62
250
  6
CONTINUOUS
 90
13
 70
0
 10
236.2536205832
 20
172.3595655078
 10
236.2545289656
 20
172.3910808536
 10
236.2572502238
 20
172.421412276
 10
236.2617727063
 20
172.4504298901
 10
236.2680770487
 20
172.4780094374
 10
236.2761362558
 20
172.504032816
 10
236.2859158178
 20
172.5283885871
 10
236.2973738648
 20
172.5509724668
 10
236.3104613274
 20
172.5716877313
 10
236.325122136
 20
172.5904456413
 10
236.3412934863
 20
172.6071658663
 10
236.3589061372
 20
172.6217768376
 10
236.3778701558
 20
172.6342076245
  0
LWPOLYLINE
  5
2D8
100
AcDbEntity
  8
0
100
AcDbPolyline
 62
250
  6
CONTINUOUS
 90
13
 70
0
 10
236.2536205832
 20
172.3595655078
 10
236.2545289656
 20
172.3910808536
 10
236.2572502238
 20
172.421412276
 10
236.2617727063
 20
172.4504298901
 10
236.2680770487
 20
172.4780094374
 10
236.2761362558
 20
172.504032816
 10
236.2859158178
 20
172.5283885871
 10
236.2973738648
 20
172.5509724668
 10
236.3104613274
 20
172.5716877313
 10
236.325122136
 20
172.5904456413
 10
236.3412934863
 20
172.6071658663
 10
236.3589061372
 20
172.6217768376
 10
236.3778701558
 20
172.6342076245
  0
LWPOLYLINE
  5
2D9
100
AcDbEntity
  8
RACCORDO
100
AcDbPolyline
 62
250
  6
CONTINUOUS
 90
22
 70
0
 10
236.4657526175
 20
128.4334291069
 10
236.4663457817
 20
128.4520760625
 10
236.4681219571
 20
128.471303708
 10
236.4710712105
 20
128.4910045144
 10
236.4751770486
 20
128.511068307
 10
236.4804165099
 20
128.5313828808
 10
236.4867602931
 20
128.5518346284
 10
236.4941729212
 20
128.5723091756
 10
236.5026129398
 20
128.5926920202
 10
236.512033149
 20
128.6128691731
 10
236.5223808671
 20
128.6327277955
 10
236.5335982253
 20
128.65215683
 10
236.5456224918
 20
128.6710476214
 10
236.558386422
 20
128.6892945249
 10
236.5718186347
 20
128.7067954963
 10
236.5858440117
 20
128.7234526631
 10
236.6003841172
 20
128.7391728716
 10
236.6153576371
 20
128.7538682082
 10
236.6306808335
 20
128.7674564904
 10
236.6462680128
 20
128.7798617272
 10
236.6620320051
 20
128.7910145434
 10
236.6778846519
 20
128.8008525679
  0
LWPOLYLINE
  5
2DA
100
AcDbEntity
  8
0
100
AcDbPolyline
 62
250
  6
CONTINUOUS
 90
22
 70
0
 10
236.4657526175
 20
128.4334291069
 10
236.4663457817
 20
128.4520760625
 10
236.4681219571
 20
128.471303708
 10
236.4710712105
 20
128.4910045144
 10
236.4751770486
 20
128.511068307
 10
236.4804165099
 20
128.5313828808
 10
236.4867602931
 20
128.5518346284
 10
236.4941729212
 20
128.5723091756
 10
236.5026129398
 20
128.5926920202
 10
236.512033149
 20
128.6128691731
 10
236.5223808671
 20
128.6327277955
 10
236.5335982253
 20
128.65215683
 10
236.5456224918
 20
128.6710476214
 10
236.558386422
 20
128.6892945249
 10
236.5718186347
 20
128.7067954963
 10
236.5858440117
 20
128.7234526631
 10
236.6003841172
 20
128.7391728716
 10
236.6153576371
 20
128.7538682082
 10
236.6306808335
 20
128.7674564904
 10
236.6462680128
 20
128.7798617272
 10
236.6620320051
 20
128.7910145434
 10
236.6778846519
 20
128.8008525679
  0
LWPOLYLINE
  5
2DB
100
AcDbEntity
  8
RACCORDO
100
AcDbPolyline
 62
250
  6
CONTINUOUS
 90
9
 70
0
 10
238.5037704987
 20
130.490869907
 10
238.5035851611
 20
130.4859531165
 10
238.5016248437
 20
130.4740537984
 10
238.4975446771
 20
130.4623352477
 10
238.4913883873
 20
130.4509230173
 10
238.4832219377
 20
130.4399393708
 10
238.4731328281
 20
130.4295019848
 10
238.4612291616
 20
130.4197226877
 10
238.4476384804
 20
130.4107062537
  0
LINE
  5
2DC
100
AcDbEntity
  8
RACCORDO
100
AcDbLine
 62
250
  6
CONTINUOUS
 10
217.8334889333
 20
139.6813704801
 11
218.1698850363
 21
139.875601374
  0
LINE
  5
2DD
100
AcDbEntity
  8
0
100
AcDbLine
 62
250
  6
CONTINUOUS
 10
217.8334889333
 20
139.6813704801
 11
218.1698850363
 21
139.875601374
  0
LINE
  5
2DE
100
AcDbEntity
  8
RACCORDO
100
AcDbLine
 62
7
  6
CONTINUOUS
 10
212.0627141845
 20
145.4788359272
 11
211.656821812
 21
145.3398305526
  0
LINE
  5
2DF
100
AcDbEntity
  8
RACCORDO
100
AcDbLine
 62
7
  6
CONTINUOUS
 10
213.4952994431
 20
144.3433602531
 11
213.8304811375
 21
144.4581494439
  0
LWPOLYLINE
  5
2E0
100
AcDbEntity
  8
RACCORDO
100
AcDbPolyline
 62
7
  6
CONTINUOUS
 90
8
 70
0
 10
247.4364249401
 20
124.6811361303
 10
247.449110389
 20
124.6847381735
 10
247.4612598974
 20
124.6868266565
 10
247.4728734652
 20
124.6874015794
 10
247.4840384906
 20
124.6864426115
 10
247.4946675753
 20
124.6839700835
 10
247.5044985249
 20
124.6800449867
 10
247.5082641547
 20
124.6780262619
  0
LWPOLYLINE
  5
2E1
100
AcDbEntity
  8
RACCORDO
100
AcDbPolyline
 62
250
  6
CONTINUOUS
 90
8
 70
0
 10
289.1721156256
 20
100.6868842237
 10
289.1684234733
 20
100.6888605363
 10
289.1585728756
 20
100.6928131964
 10
289.1480018126
 20
100.6952722273
 10
289.1367984148
 20
100.6962171282
 10
289.1250560849
 20
100.6956400216
 10
289.1128727187
 20
100.6935457186
 10
289.1003498889
 20
100.6899516796
  0
LWPOLYLINE
  5
2E2
100
AcDbEntity
  8
RACCORDO
100
AcDbPolyline
 62
250
  6
CONTINUOUS
 90
8
 70
0
 10
238.9675344463
 20
129.6743801857
 10
238.9638420097
 20
129.6763566622
 10
238.9539914114
 20
129.6803093226
 10
238.9434203478
 20
129.6827683539
 10
238.9322169497
 20
129.683713255
 10
238.9204746198
 20
129.6831361483
 10
238.9082912539
 20
129.6810418452
 10
238.8957684247
 20
129.6774478058
  0
LWPOLYLINE
  5
2E3
100
AcDbEntity
  8
RACCORDO
100
AcDbPolyline
 62
250
  6
CONTINUOUS
 90
8
 70
0
 10
188.7629526971
 20
158.6618764763
 10
188.7592605448
 20
158.6638527888
 10
188.7494099471
 20
158.6678054489
 10
188.7388388841
 20
158.6702644798
 10
188.7276354863
 20
158.6712093808
 10
188.7158931564
 20
158.6706322741
 10
188.7037097902
 20
158.6685379712
 10
188.6911869604
 20
158.6649439321
  0
LWPOLYLINE
  5
2E4
100
AcDbEntity
  8
RACCORDO
100
AcDbPolyline
 62
250
  6
CONTINUOUS
 90
22
 70
0
 10
286.0339379787
 20
100.5482033637
 10
286.0503837897
 20
100.5393927297
 10
286.0679239574
 20
100.5313163395
 10
286.0864603901
 20
100.5240193595
 10
286.1058894246
 20
100.5175425974
 10
286.1261024058
 20
100.5119222739
 10
286.1469862945
 20
100.5071898201
 10
286.1684242995
 20
100.5033717019
 10
286.1902965309
 20
100.5004892716
 10
286.2124806702
 20
100.498558649
 10
286.2348526548
 20
100.4975906309
 10
286.2572873714
 20
100.4975906309
 10
286.2796593559
 20
100.498558649
 10
286.3018434952
 20
100.5004892716
 10
286.3237157266
 20
100.5033717019
 10
286.3451537317
 20
100.5071898201
 10
286.3660376204
 20
100.5119222739
 10
286.3862506016
 20
100.5175425974
 10
286.405679636
 20
100.5240193595
 10
286.4242160687
 20
100.5313163395
 10
286.4417562365
 20
100.5393927297
 10
286.4582020474
 20
100.5482033637
  0
LWPOLYLINE
  5
2E5
100
AcDbEntity
  8
0
100
AcDbPolyline
 62
250
  6
CONTINUOUS
 90
22
 70
0
 10
286.0339379787
 20
100.5482033637
 10
286.0503837897
 20
100.5393927297
 10
286.0679239574
 20
100.5313163395
 10
286.0864603901
 20
100.5240193595
 10
286.1058894246
 20
100.5175425974
 10
286.1261024058
 20
100.5119222739
 10
286.1469862945
 20
100.5071898201
 10
286.1684242995
 20
100.5033717019
 10
286.1902965309
 20
100.5004892716
 10
286.2124806702
 20
100.498558649
 10
286.2348526548
 20
100.4975906309
 10
286.2572873714
 20
100.4975906309
 10
286.2796593559
 20
100.498558649
 10
286.3018434952
 20
100.5004892716
 10
286.3237157266
 20
100.5033717019
 10
286.3451537317
 20
100.5071898201
 10
286.3660376204
 20
100.5119222739
 10
286.3862506016
 20
100.5175425974
 10
286.405679636
 20
100.5240193595
 10
286.4242160687
 20
100.5313163395
 10
286.4417562365
 20
100.5393927297
 10
286.4582020474
 20
100.5482033637
  0
LWPOLYLINE
  5
2E6
100
AcDbEntity
  8
RACCORDO
100
AcDbPolyline
 62
250
  6
CONTINUOUS
 90
22
 70
0
 10
235.8293565145
 20
129.53569949
 10
235.8458023254
 20
129.526888856
 10
235.8633424932
 20
129.5188124658
 10
235.8818789259
 20
129.5115154858
 10
235.9013079603
 20
129.5050387237
 10
235.9215209415
 20
129.4994184002
 10
235.9424048302
 20
129.4946859464
 10
235.9638428353
 20
129.4908678281
 10
235.9857150667
 20
129.4879853978
 10
236.007899206
 20
129.4860547752
 10
236.0302711905
 20
129.4850867572
 10
236.0527059071
 20
129.4850867572
 10
236.0750778917
 20
129.4860547752
 10
236.097262031
 20
129.4879853978
 10
236.1191342624
 20
129.4908678281
 10
236.1405722674
 20
129.4946859464
 10
236.1614561561
 20
129.4994184002
 10
236.1816691373
 20
129.5050387237
 10
236.2010981718
 20
129.5115154858
 10
236.2196346045
 20
129.5188124658
 10
236.2371747722
 20
129.526888856
 10
236.2536205832
 20
129.53569949
  0
LWPOLYLINE
  5
2E7
100
AcDbEntity
  8
0
100
AcDbPolyline
 62
250
  6
CONTINUOUS
 90
22
 70
0
 10
235.8293565145
 20
129.53569949
 10
235.8458023254
 20
129.526888856
 10
235.8633424932
 20
129.5188124658
 10
235.8818789259
 20
129.5115154858
 10
235.9013079603
 20
129.5050387237
 10
235.9215209415
 20
129.4994184002
 10
235.9424048302
 20
129.4946859464
 10
235.9638428353
 20
129.4908678281
 10
235.9857150667
 20
129.4879853978
 10
236.007899206
 20
129.4860547752
 10
236.0302711905
 20
129.4850867572
 10
236.0527059071
 20
129.4850867572
 10
236.0750778917
 20
129.4860547752
 10
236.097262031
 20
129.4879853978
 10
236.1191342624
 20
129.4908678281
 10
236.1405722674
 20
129.4946859464
 10
236.1614561561
 20
129.4994184002
 10
236.1816691373
 20
129.5050387237
 10
236.2010981718
 20
129.5115154858
 10
236.2196346045
 20
129.5188124658
 10
236.2371747722
 20
129.526888856
 10
236.2536205832
 20
129.53569949
  0
LWPOLYLINE
  5
2E8
100
AcDbEntity
  8
RACCORDO
100
AcDbPolyline
 62
250
  6
CONTINUOUS
 90
22
 70
0
 10
185.6247750502
 20
158.5231956163
 10
185.6412208612
 20
158.5143849823
 10
185.6587610289
 20
158.5063085921
 10
185.6772974616
 20
158.4990116121
 10
185.6967264961
 20
158.49253485
 10
185.7169394773
 20
158.4869145265
 10
185.737823366
 20
158.4821820727
 10
185.759261371
 20
158.4783639544
 10
185.7811336024
 20
158.4754815241
 10
185.8033177417
 20
158.4735509015
 10
185.8256897263
 20
158.4725828834
 10
185.8481244429
 20
158.4725828834
 10
185.8704964274
 20
158.4735509015
 10
185.8926805667
 20
158.4754815241
 10
185.9145527981
 20
158.4783639544
 10
185.9359908032
 20
158.4821820727
 10
185.9568746919
 20
158.4869145265
 10
185.9770876731
 20
158.49253485
 10
185.9965167075
 20
158.4990116121
 10
186.0150531403
 20
158.5063085921
 10
186.032593308
 20
158.5143849823
 10
186.0490391189
 20
158.5231956163
  0
LWPOLYLINE
  5
2E9
100
AcDbEntity
  8
0
100
AcDbPolyline
 62
250
  6
CONTINUOUS
 90
22
 70
0
 10
185.6247750502
 20
158.5231956163
 10
185.6412208612
 20
158.5143849823
 10
185.6587610289
 20
158.5063085921
 10
185.6772974616
 20
158.4990116121
 10
185.6967264961
 20
158.49253485
 10
185.7169394773
 20
158.4869145265
 10
185.737823366
 20
158.4821820727
 10
185.759261371
 20
158.4783639544
 10
185.7811336024
 20
158.4754815241
 10
185.8033177417
 20
158.4735509015
 10
185.8256897263
 20
158.4725828834
 10
185.8481244429
 20
158.4725828834
 10
185.8704964274
 20
158.4735509015
 10
185.8926805667
 20
158.4754815241
 10
185.9145527981
 20
158.4783639544
 10
185.9359908032
 20
158.4821820727
 10
185.9568746919
 20
158.4869145265
 10
185.9770876731
 20
158.49253485
 10
185.9965167075
 20
158.4990116121
 10
186.0150531403
 20
158.5063085921
 10
186.032593308
 20
158.5143849823
 10
186.0490391189
 20
158.5231956163
  0
LINE
  5
2EA
100
AcDbEntity
  8
RACCORDO
100
AcDbLine
 62
250
  6
CONTINUOUS
 10
318.0305198274
 20
81.3389547665
 11
286.6703340818
 21
99.4459329806
  0
LINE
  5
2EB
100
AcDbEntity
  8
0
100
AcDbLine
 62
250
  6
CONTINUOUS
 10
318.0305198274
 20
81.3389547665
 11
286.6703340818
 21
99.4459329806
  0
LINE
  5
2EC
100
AcDbEntity
  8
RACCORDO
100
AcDbLine
 62
250
  6
CONTINUOUS
 10
267.8259383632
 20
110.3264508928
 11
236.4657526175
 21
128.4334291069
  0
LINE
  5
2ED
100
AcDbEntity
  8
0
100
AcDbLine
 62
250
  6
CONTINUOUS
 10
267.8259383632
 20
110.3264508928
 11
236.4657526175
 21
128.4334291069
  0
LINE
  5
2EE
100
AcDbEntity
  8
RACCORDO
100
AcDbLine
 62
250
  6
CONTINUOUS
 10
217.6213568989
 20
139.3139470191
 11
186.2611711533
 21
157.4209252332
  0
LINE
  5
2EF
100
AcDbEntity
  8
0
100
AcDbLine
 62
250
  6
CONTINUOUS
 10
217.6213568989
 20
139.3139470191
 11
186.2611711533
 21
157.4209252332
  0
LINE
  5
2F0
100
AcDbEntity
  8
RACCORDO
100
AcDbLine
 62
250
  6
CONTINUOUS
 10
318.2426518618
 20
81.7063782276
 11
286.8824661161
 21
99.8133564417
  0
LINE
  5
2F1
100
AcDbEntity
  8
0
100
AcDbLine
 62
250
  6
CONTINUOUS
 10
318.2426518618
 20
81.7063782276
 11
286.8824661161
 21
99.8133564417
  0
LINE
  5
2F2
100
AcDbEntity
  8
RACCORDO
100
AcDbLine
 62
250
  6
CONTINUOUS
 10
268.0380703975
 20
110.6938743538
 11
236.6778846519
 21
128.8008525679
  0
LINE
  5
2F3
100
AcDbEntity
  8
0
100
AcDbLine
 62
250
  6
CONTINUOUS
 10
268.0380703975
 20
110.6938743538
 11
236.6778846519
 21
128.8008525679
  0
LINE
  5
2F4
100
AcDbEntity
  8
RACCORDO
100
AcDbLine
 62
250
  6
CONTINUOUS
 10
217.8334889333
 20
139.6813704801
 11
186.4733031876
 21
157.7883486942
  0
LINE
  5
2F5
100
AcDbEntity
  8
0
100
AcDbLine
 62
250
  6
CONTINUOUS
 10
217.8334889333
 20
139.6813704801
 11
186.4733031876
 21
157.7883486942
  0
LINE
  5
2F6
100
AcDbEntity
  8
RACCORDO
100
AcDbLine
 62
7
  6
CONTINUOUS
 10
187.1096992907
 20
158.1557958282
 11
218.1698850363
 21
140.2220338542
  0
LINE
  5
2F7
100
AcDbEntity
  8
0
100
AcDbLine
 62
7
  6
CONTINUOUS
 10
187.1096992907
 20
158.1557958282
 11
218.1698850363
 21
140.2220338542
  0
LINE
  5
2F8
100
AcDbEntity
  8
RACCORDO
100
AcDbLine
 62
7
  6
CONTINUOUS
 10
237.314280755
 20
129.1682997019
 11
268.3744665006
 21
111.234537728
  0
LINE
  5
2F9
100
AcDbEntity
  8
0
100
AcDbLine
 62
7
  6
CONTINUOUS
 10
237.314280755
 20
129.1682997019
 11
268.3744665006
 21
111.234537728
  0
LINE
  5
2FA
100
AcDbEntity
  8
RACCORDO
100
AcDbLine
 62
7
  6
CONTINUOUS
 10
287.5188622192
 20
100.1808035757
 11
318.5790479648
 21
82.2470416017
  0
LINE
  5
2FB
100
AcDbEntity
  8
0
100
AcDbLine
 62
7
  6
CONTINUOUS
 10
287.5188622192
 20
100.1808035757
 11
318.5790479648
 21
82.2470416017
  0
LINE
  5
2FC
100
AcDbEntity
  8
RACCORDO
100
AcDbLine
 62
7
  6
CONTINUOUS
 10
187.2044794288
 20
158.1314984885
 11
218.1698850363
 21
140.2524613784
  0
LINE
  5
2FD
100
AcDbEntity
  8
RACCORDO
100
AcDbLine
 62
7
  6
CONTINUOUS
 10
237.4090608931
 20
129.1440023622
 11
268.3744665006
 21
111.2649652521
  0
LINE
  5
2FE
100
AcDbEntity
  8
RACCORDO
100
AcDbLine
 62
7
  6
CONTINUOUS
 10
287.6136423573
 20
100.1565062359
 11
318.5790479648
 21
82.2774691258
  0
LINE
  5
2FF
100
AcDbEntity
  8
RACCORDO
100
AcDbLine
 62
250
  6
CONTINUOUS
 10
312.0659847405
 20
87.3648383001
 11
297.6410064043
 21
95.693640004
  0
LINE
  5
300
100
AcDbEntity
  8
RACCORDO
100
AcDbLine
 62
250
  6
CONTINUOUS
 10
261.8614032763
 20
116.3523344264
 11
247.4364249401
 21
124.6811361303
  0
LINE
  5
301
100
AcDbEntity
  8
RACCORDO
100
AcDbLine
 62
250
  6
CONTINUOUS
 10
211.656821812
 20
145.3398305526
 11
197.2318434758
 21
153.6686322565
  0
LINE
  5
302
100
AcDbEntity
  8
RACCORDO
100
AcDbLine
 62
7
  6
CONTINUOUS
 10
312.1076969245
 20
87.3791234115
 11
297.7128163527
 21
95.6905470435
  0
LINE
  5
303
100
AcDbEntity
  8
RACCORDO
100
AcDbLine
 62
7
  6
CONTINUOUS
 10
261.9031154603
 20
116.3666195378
 11
247.5082348884
 21
124.6780431697
  0
LINE
  5
304
100
AcDbEntity
  8
RACCORDO
100
AcDbLine
 62
7
  6
CONTINUOUS
 10
211.698533996
 20
145.354115664
 11
197.3036534242
 21
153.665539296
  0
LINE
  5
305
100
AcDbEntity
  8
RACCORDO
100
AcDbLine
 62
250
  6
CONTINUOUS
 10
188.6911869604
 20
158.6649439321
 11
189.1708261703
 21
158.3880062636
  0
LINE
  5
306
100
AcDbEntity
  8
RACCORDO
100
AcDbLine
 62
250
  6
CONTINUOUS
 10
190.9385931233
 20
157.3673197803
 11
195.534787201
 21
154.7135349237
  0
LINE
  5
307
100
AcDbEntity
  8
RACCORDO
100
AcDbLine
 62
250
  6
CONTINUOUS
 10
213.4952994431
 20
144.3433602531
 11
218.0914935208
 21
141.6895753965
  0
LINE
  5
308
100
AcDbEntity
  8
RACCORDO
100
AcDbLine
 62
250
  6
CONTINUOUS
 10
238.8957684247
 20
129.6774478058
 11
239.3754076345
 21
129.4005101373
  0
LINE
  5
309
100
AcDbEntity
  8
RACCORDO
100
AcDbLine
 62
250
  6
CONTINUOUS
 10
241.1431745875
 20
128.379823654
 11
245.7393686652
 21
125.7260387974
  0
LINE
  5
30A
100
AcDbEntity
  8
RACCORDO
100
AcDbLine
 62
250
  6
CONTINUOUS
 10
263.6998809074
 20
115.3558641269
 11
268.2960749851
 21
112.7020792702
  0
LINE
  5
30B
100
AcDbEntity
  8
RACCORDO
100
AcDbLine
 62
250
  6
CONTINUOUS
 10
289.1003498889
 20
100.6899516796
 11
289.5799890988
 21
100.4130140111
  0
LINE
  5
30C
100
AcDbEntity
  8
RACCORDO
100
AcDbLine
 62
250
  6
CONTINUOUS
 10
291.3477560518
 20
99.3923275278
 11
295.9439501295
 21
96.7385426711
  0
LINE
  5
30D
100
AcDbEntity
  8
RACCORDO
100
AcDbLine
 62
250
  6
CONTINUOUS
 10
313.9044623716
 20
86.3683680006
 11
318.5006564493
 21
83.714583144
  0
LINE
  5
30E
100
AcDbEntity
  8
RACCORDO
100
AcDbLine
 62
7
  6
CONTINUOUS
 10
188.7629526971
 20
158.6618764763
 11
189.2125383543
 21
158.402291375
  0
LINE
  5
30F
100
AcDbEntity
  8
RACCORDO
100
AcDbLine
 62
7
  6
CONTINUOUS
 10
191.0104030716
 20
157.3642268198
 11
195.576499385
 21
154.7278200351
  0
LINE
  5
310
100
AcDbEntity
  8
RACCORDO
100
AcDbLine
 62
7
  6
CONTINUOUS
 10
213.5671093915
 20
144.3402672926
 11
218.1332057048
 21
141.7038605079
  0
LINE
  5
311
100
AcDbEntity
  8
RACCORDO
100
AcDbLine
 62
7
  6
CONTINUOUS
 10
238.9675344463
 20
129.6743801857
 11
239.4171198185
 21
129.4147952487
  0
LINE
  5
312
100
AcDbEntity
  8
RACCORDO
100
AcDbLine
 62
7
  6
CONTINUOUS
 10
241.2149845359
 20
128.3767306935
 11
245.7810808492
 21
125.7403239088
  0
LINE
  5
313
100
AcDbEntity
  8
RACCORDO
100
AcDbLine
 62
7
  6
CONTINUOUS
 10
263.7716908557
 20
115.3527711663
 11
268.337787169
 21
112.7163643816
  0
LINE
  5
314
100
AcDbEntity
  8
RACCORDO
100
AcDbLine
 62
7
  6
CONTINUOUS
 10
289.1721156256
 20
100.6868842237
 11
289.6217012828
 21
100.4272991225
  0
LINE
  5
315
100
AcDbEntity
  8
RACCORDO
100
AcDbLine
 62
7
  6
CONTINUOUS
 10
291.4195660001
 20
99.3892345672
 11
295.9856623134
 21
96.7528277825
  0
LINE
  5
316
100
AcDbEntity
  8
RACCORDO
100
AcDbLine
 62
7
  6
CONTINUOUS
 10
313.97627232
 20
86.3652750401
 11
318.5423686333
 21
83.7288682554
  0
LINE
  5
317
100
AcDbEntity
  8
DRAFT
100
AcDbLine
 62
7
  6
CONTINUOUS
 10
189.5060078647
 20
158.5027954544
 11
191.2737748177
 21
157.4821089711
  0
LINE
  5
318
100
AcDbEntity
  8
DRAFT
100
AcDbLine
 62
7
  6
CONTINUOUS
 10
195.8699688954
 20
154.8283241144
 11
197.6377358483
 21
153.8076376311
  0
LINE
  5
319
100
AcDbEntity
  8
DRAFT
100
AcDbLine
 62
7
  6
CONTINUOUS
 10
212.0627141845
 20
145.4788359272
 11
213.8304811375
 21
144.4581494439
  0
LINE
  5
31A
100
AcDbEntity
  8
DRAFT
100
AcDbLine
 62
7
  6
CONTINUOUS
 10
239.7105893289
 20
129.5152993281
 11
241.4783562819
 21
128.4946128448
  0
LINE
  5
31B
100
AcDbEntity
  8
DRAFT
100
AcDbLine
 62
7
  6
CONTINUOUS
 10
246.0745503596
 20
125.8408279882
 11
247.8423173126
 21
124.8201415049
  0
LINE
  5
31C
100
AcDbEntity
  8
DRAFT
100
AcDbLine
 62
7
  6
CONTINUOUS
 10
262.2672956488
 20
116.491339801
 11
264.0350626018
 21
115.4706533177
  0
LINE
  5
31D
100
AcDbEntity
  8
DRAFT
100
AcDbLine
 62
7
  6
CONTINUOUS
 10
289.9151707932
 20
100.5278032019
 11
291.6829377461
 21
99.5071167185
  0
LINE
  5
31E
100
AcDbEntity
  8
DRAFT
100
AcDbLine
 62
7
  6
CONTINUOUS
 10
296.2791318239
 20
96.8533318619
 11
298.0468987768
 21
95.8326453786
  0
LINE
  5
31F
100
AcDbEntity
  8
DRAFT
100
AcDbLine
 62
7
  6
CONTINUOUS
 10
312.471877113
 20
87.5038436747
 11
314.239644066
 21
86.4831571914
  0
LINE
  5
320
100
AcDbEntity
  8
RACCORDO
100
AcDbLine
 62
7
  6
CONTINUOUS
 10
187.1755849713
 20
158.1490381435
 11
187.2058266146
 21
158.1307206403
  0
LINE
  5
321
100
AcDbEntity
  8
RACCORDO
100
AcDbLine
 62
7
  6
CONTINUOUS
 10
237.3801664355
 20
129.1615420172
 11
237.4104080788
 21
129.143224514
  0
LWPOLYLINE
  5
322
100
AcDbEntity
  8
RACCORDO
100
AcDbPolyline
 62
7
  6
CONTINUOUS
 90
4
 70
0
 10
287.6149895431
 20
100.1557283877
 10
287.5847478998
 20
100.174045891
 10
287.5552764655
 20
100.1944797019
 10
287.5267066593
 20
100.2168281591
  0
LWPOLYLINE
  5
323
100
AcDbEntity
  8
RACCORDO
100
AcDbPolyline
 62
250
  6
CONTINUOUS
 90
28
 70
0
 10
236.4657526175
 20
128.4334291069
 10
236.4287946048
 20
128.4560023645
 10
236.3921288647
 20
128.4808592575
 10
236.3557553973
 20
128.507999786
 10
236.3195229173
 20
128.5375508359
 10
236.28358271
 20
128.5693855212
 10
236.2483886315
 20
128.6031231844
 10
236.2139833943
 20
128.6387586964
 10
236.1803242858
 20
128.6762971864
 10
236.1477370245
 20
128.7153733841
 10
236.116225785
 20
128.7560096609
 10
236.0857863927
 20
128.7981836456
 10
236.0567320424
 20
128.8414629543
 10
236.0290789078
 20
128.8858562189
 10
236.0028108152
 20
128.9313548077
 10
235.9781924377
 20
128.9775004412
 10
235.9552391866
 20
129.0243033597
 10
235.9339356507
 20
129.071753323
 10
235.9145002699
 20
129.1193613313
 10
235.8969548444
 20
129.1671192634
 10
235.881277574
 20
129.2150352405
 10
235.8676214986
 20
129.2626446261
 10
235.8560035466
 20
129.3099863843
 10
235.8464067894
 20
129.3570215512
 10
235.8389334822
 20
129.403168598
 10
235.8336177098
 20
129.448233682
 10
235.8304253872
 20
129.492410646
 10
235.8293565145
 20
129.53569949
  0
LWPOLYLINE
  5
324
100
AcDbEntity
  8
0
100
AcDbPolyline
 62
250
  6
CONTINUOUS
 90
28
 70
0
 10
236.4657526175
 20
128.4334291069
 10
236.4287946048
 20
128.4560023645
 10
236.3921288647
 20
128.4808592575
 10
236.3557553973
 20
128.507999786
 10
236.3195229173
 20
128.5375508359
 10
236.28358271
 20
128.5693855212
 10
236.2483886315
 20
128.6031231844
 10
236.2139833943
 20
128.6387586964
 10
236.1803242858
 20
128.6762971864
 10
236.1477370245
 20
128.7153733841
 10
236.116225785
 20
128.7560096609
 10
236.0857863927
 20
128.7981836456
 10
236.0567320424
 20
128.8414629543
 10
236.0290789078
 20
128.8858562189
 10
236.0028108152
 20
128.9313548077
 10
235.9781924377
 20
128.9775004412
 10
235.9552391866
 20
129.0243033597
 10
235.9339356507
 20
129.071753323
 10
235.9145002699
 20
129.1193613313
 10
235.8969548444
 20
129.1671192634
 10
235.881277574
 20
129.2150352405
 10
235.8676214986
 20
129.2626446261
 10
235.8560035466
 20
129.3099863843
 10
235.8464067894
 20
129.3570215512
 10
235.8389334822
 20
129.403168598
 10
235.8336177098
 20
129.448233682
 10
235.8304253872
 20
129.492410646
 10
235.8293565145
 20
129.53569949
  0
LWPOLYLINE
  5
325
100
AcDbEntity
  8
RACCORDO
100
AcDbPolyline
 62
250
  6
CONTINUOUS
 90
28
 70
0
 10
286.6703340818
 20
99.4459329806
 10
286.633376069
 20
99.4685062382
 10
286.5967103289
 20
99.4933631312
 10
286.5603368616
 20
99.5205036597
 10
286.5241043816
 20
99.5500547096
 10
286.4881641743
 20
99.5818893949
 10
286.4529700958
 20
99.6156270581
 10
286.4185648585
 20
99.6512625702
 10
286.38490575
 20
99.6888010601
 10
286.3523184888
 20
99.7278772579
 10
286.3208072493
 20
99.7685135347
 10
286.290367857
 20
99.8106875193
 10
286.2613135066
 20
99.853966828
 10
286.233660372
 20
99.8983600926
 10
286.2073922794
 20
99.9438586814
 10
286.182773902
 20
99.9900043149
 10
286.1598206508
 20
100.0368072334
 10
286.1385171149
 20
100.0842571968
 10
286.1190817341
 20
100.131865205
 10
286.1015363086
 20
100.1796231371
 10
286.0858590383
 20
100.2275391142
 10
286.0722029629
 20
100.2751484998
 10
286.0605850108
 20
100.3224902581
 10
286.0509882537
 20
100.3695254249
 10
286.0435149464
 20
100.4156724717
 10
286.038199174
 20
100.4607375557
 10
286.0350068514
 20
100.5049145197
 10
286.0339379787
 20
100.5482033637
  0
LWPOLYLINE
  5
326
100
AcDbEntity
  8
0
100
AcDbPolyline
 62
250
  6
CONTINUOUS
 90
28
 70
0
 10
286.6703340818
 20
99.4459329806
 10
286.633376069
 20
99.4685062382
 10
286.5967103289
 20
99.4933631312
 10
286.5603368616
 20
99.5205036597
 10
286.5241043816
 20
99.5500547096
 10
286.4881641743
 20
99.5818893949
 10
286.4529700958
 20
99.6156270581
 10
286.4185648585
 20
99.6512625702
 10
286.38490575
 20
99.6888010601
 10
286.3523184888
 20
99.7278772579
 10
286.3208072493
 20
99.7685135347
 10
286.290367857
 20
99.8106875193
 10
286.2613135066
 20
99.853966828
 10
286.233660372
 20
99.8983600926
 10
286.2073922794
 20
99.9438586814
 10
286.182773902
 20
99.9900043149
 10
286.1598206508
 20
100.0368072334
 10
286.1385171149
 20
100.0842571968
 10
286.1190817341
 20
100.131865205
 10
286.1015363086
 20
100.1796231371
 10
286.0858590383
 20
100.2275391142
 10
286.0722029629
 20
100.2751484998
 10
286.0605850108
 20
100.3224902581
 10
286.0509882537
 20
100.3695254249
 10
286.0435149464
 20
100.4156724717
 10
286.038199174
 20
100.4607375557
 10
286.0350068514
 20
100.5049145197
 10
286.0339379787
 20
100.5482033637
  0
LWPOLYLINE
  5
327
100
AcDbEntity
  8
RACCORDO
100
AcDbPolyline
 62
7
  6
CONTINUOUS
 90
27
 70
0
 10
188.7629526971
 20
158.6618764763
 10
188.7371631922
 20
158.6777121027
 10
188.7123589252
 20
158.6946897701
 10
188.6869287334
 20
158.7138589037
 10
188.6611230386
 20
158.735150156
 10
188.6351068774
 20
158.7585263041
 10
188.6090391915
 20
158.7839398598
 10
188.5831347163
 20
158.8112676007
 10
188.5575569048
 20
158.8404084999
 10
188.5324597619
 20
158.871255881
 10
188.5080265698
 20
158.9036449748
 10
188.4844010354
 20
158.9374326292
 10
188.461720549
 20
158.9724673425
 10
188.4401373284
 20
159.0085492576
 10
188.4197618842
 20
159.0455174488
 10
188.4007123777
 20
159.0831786637
 10
188.383123966
 20
159.1212660613
 10
188.3670729753
 20
159.1595935392
 10
188.3526316205
 20
159.1979614088
 10
188.3398891157
 20
159.23606877
 10
188.3288744164
 20
159.2737261965
 10
188.3196085381
 20
159.3107377901
 10
188.312119134
 20
159.3467904129
 10
188.306378872
 20
159.3817146878
 10
188.3023494977
 20
159.4153441847
 10
188.2999833025
 20
159.447364333
 10
188.2991890345
 20
159.4783660718
  0
LWPOLYLINE
  5
328
100
AcDbEntity
  8
RACCORDO
100
AcDbPolyline
 62
7
  6
CONTINUOUS
 90
27
 70
0
 10
289.1721156256
 20
100.6868842237
 10
289.1463261207
 20
100.7027198501
 10
289.1215218537
 20
100.7196975176
 10
289.0960916618
 20
100.7388666512
 10
289.0702859671
 20
100.7601579035
 10
289.0442698059
 20
100.7835340516
 10
289.01820212
 20
100.8089476073
 10
288.9922976448
 20
100.8362753482
 10
288.9667198333
 20
100.8654162473
 10
288.9416226904
 20
100.8962636284
 10
288.9171894983
 20
100.9286527222
 10
288.8935639639
 20
100.9624403767
 10
288.8708834774
 20
100.99747509
 10
288.8493002569
 20
101.033557005
 10
288.8289248127
 20
101.0705251962
 10
288.8098753062
 20
101.1081864112
 10
288.7922868945
 20
101.1462738088
 10
288.7762359038
 20
101.1846012867
 10
288.761794549
 20
101.2229691562
 10
288.7490520441
 20
101.2610765174
 10
288.7380373449
 20
101.2987339439
 10
288.7287714666
 20
101.3357455376
 10
288.7212820625
 20
101.3717981603
 10
288.7155418005
 20
101.4067224353
 10
288.7115124262
 20
101.4403519321
 10
288.709146231
 20
101.4723720804
 10
288.708351963
 20
101.5033738193
  0
LWPOLYLINE
  5
329
100
AcDbEntity
  8
RACCORDO
100
AcDbPolyline
 62
7
  6
CONTINUOUS
 90
27
 70
0
 10
238.9675344463
 20
129.6743801857
 10
238.9416859559
 20
129.690254019
 10
238.9168684901
 20
129.7072451216
 10
238.8914288951
 20
129.7264268994
 10
238.8656166254
 20
129.7477298323
 10
238.8395973427
 20
129.771115423
 10
238.8135298689
 20
129.7965358395
 10
238.7876274368
 20
129.8238688758
 10
238.7620536539
 20
129.8530127559
 10
238.736962777
 20
129.883859877
 10
238.7125367741
 20
129.9162469019
 10
238.6889187564
 20
129.9500312504
 10
238.6662458832
 20
129.9850613575
 10
238.6446696426
 20
130.0211386578
 10
238.6243001405
 20
130.0581031267
 10
238.6052557224
 20
130.0957613443
 10
238.5876719586
 20
130.1338459796
 10
238.5716252092
 20
130.1721709614
 10
238.5571877472
 20
130.2105365891
 10
238.5444491259
 20
130.2486411799
 10
238.5334381896
 20
130.2862953195
 10
238.524175969
 20
130.3233028027
 10
238.516690262
 20
130.3593496529
 10
238.5109534512
 20
130.3942669811
 10
238.5069270129
 20
130.4278889932
 10
238.5045631531
 20
130.4599005378
 10
238.5037704987
 20
130.490869907
  0
LWPOLYLINE
  5
32A
100
AcDbEntity
  8
RACCORDO
100
AcDbPolyline
 62
250
  6
CONTINUOUS
 90
25
 70
0
 10
186.4733031876
 20
157.7883486942
 10
186.4455549832
 20
157.8054190355
 10
186.417925594
 20
157.8245140357
 10
186.3905333336
 20
157.8455519283
 10
186.3634954997
 20
157.8684426277
 10
186.3369278736
 20
157.8930881131
 10
186.3109442241
 20
157.9193828483
 10
186.2856558032
 20
157.9472142524
 10
186.2611709162
 20
157.9764631326
 10
186.2375944534
 20
158.0070041849
 10
186.2150273908
 20
158.0387065894
 10
186.1935663342
 20
158.0714346168
 10
186.173303153
 20
158.1050481588
 10
186.154324619
 20
158.13940327
 10
186.1367119946
 20
158.174352844
 10
186.120540669
 20
158.209747288
 10
186.1058798832
 20
158.2454350743
 10
186.0927924397
 20
158.28126335
 10
186.0813343989
 20
158.3170786567
 10
186.0715548296
 20
158.3527276224
 10
186.0634956102
 20
158.3880575969
 10
186.057191257
 20
158.4229172709
 10
186.0526687667
 20
158.4571573629
 10
186.0499475032
 20
158.4906312582
 10
186.0490391189
 20
158.5231956163
  0
LWPOLYLINE
  5
32B
100
AcDbEntity
  8
0
100
AcDbPolyline
 62
250
  6
CONTINUOUS
 90
25
 70
0
 10
186.4733031876
 20
157.7883486942
 10
186.4455549832
 20
157.8054190355
 10
186.417925594
 20
157.8245140357
 10
186.3905333336
 20
157.8455519283
 10
186.3634954997
 20
157.8684426277
 10
186.3369278736
 20
157.8930881131
 10
186.3109442241
 20
157.9193828483
 10
186.2856558032
 20
157.9472142524
 10
186.2611709162
 20
157.9764631326
 10
186.2375944534
 20
158.0070041849
 10
186.2150273908
 20
158.0387065894
 10
186.1935663342
 20
158.0714346168
 10
186.173303153
 20
158.1050481588
 10
186.154324619
 20
158.13940327
 10
186.1367119946
 20
158.174352844
 10
186.120540669
 20
158.209747288
 10
186.1058798832
 20
158.2454350743
 10
186.0927924397
 20
158.28126335
 10
186.0813343989
 20
158.3170786567
 10
186.0715548296
 20
158.3527276224
 10
186.0634956102
 20
158.3880575969
 10
186.057191257
 20
158.4229172709
 10
186.0526687667
 20
158.4571573629
 10
186.0499475032
 20
158.4906312582
 10
186.0490391189
 20
158.5231956163
  0
LWPOLYLINE
  5
32C
100
AcDbEntity
  8
RACCORDO
100
AcDbPolyline
 62
250
  6
CONTINUOUS
 90
25
 70
0
 10
236.6778846519
 20
128.8008525679
 10
236.6501364474
 20
128.8179229092
 10
236.6225070582
 20
128.8370179094
 10
236.5951147978
 20
128.858055802
 10
236.568076964
 20
128.8809465014
 10
236.5415093379
 20
128.9055919868
 10
236.5155256883
 20
128.931886722
 10
236.4902372674
 20
128.9597181261
 10
236.4657523804
 20
128.9889670063
 10
236.4421759177
 20
129.0195080587
 10
236.419608855
 20
129.0512104631
 10
236.3981477984
 20
129.0839384905
 10
236.3778846172
 20
129.1175520325
 10
236.3589060832
 20
129.1519071437
 10
236.3412934589
 20
129.1868567178
 10
236.3251221333
 20
129.2222511618
 10
236.3104613475
 20
129.2579389481
 10
236.297373904
 20
129.2937672237
 10
236.2859158632
 20
129.3295825305
 10
236.2761362939
 20
129.3652314961
 10
236.2680770744
 20
129.4005614707
 10
236.2617727213
 20
129.4354211446
 10
236.257250231
 20
129.4696612366
 10
236.2545289675
 20
129.5031351319
 10
236.2536205832
 20
129.53569949
  0
LWPOLYLINE
  5
32D
100
AcDbEntity
  8
0
100
AcDbPolyline
 62
250
  6
CONTINUOUS
 90
25
 70
0
 10
236.6778846519
 20
128.8008525679
 10
236.6501364474
 20
128.8179229092
 10
236.6225070582
 20
128.8370179094
 10
236.5951147978
 20
128.858055802
 10
236.568076964
 20
128.8809465014
 10
236.5415093379
 20
128.9055919868
 10
236.5155256883
 20
128.931886722
 10
236.4902372674
 20
128.9597181261
 10
236.4657523804
 20
128.9889670063
 10
236.4421759177
 20
129.0195080587
 10
236.419608855
 20
129.0512104631
 10
236.3981477984
 20
129.0839384905
 10
236.3778846172
 20
129.1175520325
 10
236.3589060832
 20
129.1519071437
 10
236.3412934589
 20
129.1868567178
 10
236.3251221333
 20
129.2222511618
 10
236.3104613475
 20
129.2579389481
 10
236.297373904
 20
129.2937672237
 10
236.2859158632
 20
129.3295825305
 10
236.2761362939
 20
129.3652314961
 10
236.2680770744
 20
129.4005614707
 10
236.2617727213
 20
129.4354211446
 10
236.257250231
 20
129.4696612366
 10
236.2545289675
 20
129.5031351319
 10
236.2536205832
 20
129.53569949
  0
LWPOLYLINE
  5
32E
100
AcDbEntity
  8
RACCORDO
100
AcDbPolyline
 62
250
  6
CONTINUOUS
 90
25
 70
0
 10
286.8824661161
 20
99.8133564417
 10
286.8547179117
 20
99.830426783
 10
286.8270885225
 20
99.8495217831
 10
286.7996962621
 20
99.8705596758
 10
286.7726584282
 20
99.8934503751
 10
286.7460908021
 20
99.9180958606
 10
286.7201071525
 20
99.9443905958
 10
286.6948187317
 20
99.9722219999
 10
286.6703338446
 20
100.0014708801
 10
286.6467573819
 20
100.0320119324
 10
286.6241903193
 20
100.0637143369
 10
286.6027292627
 20
100.0964423643
 10
286.5824660815
 20
100.1300559063
 10
286.5634875475
 20
100.1644110175
 10
286.5458749231
 20
100.1993605915
 10
286.5297035975
 20
100.2347550355
 10
286.5150428117
 20
100.2704428218
 10
286.5019553682
 20
100.3062710974
 10
286.4904973274
 20
100.3420864042
 10
286.4807177581
 20
100.3777353698
 10
286.4726585386
 20
100.4130653444
 10
286.4663541855
 20
100.4479250184
 10
286.4618316952
 20
100.4821651104
 10
286.4591104317
 20
100.5156390057
 10
286.4582020474
 20
100.5482033637
  0
LWPOLYLINE
  5
32F
100
AcDbEntity
  8
0
100
AcDbPolyline
 62
250
  6
CONTINUOUS
 90
25
 70
0
 10
286.8824661161
 20
99.8133564417
 10
286.8547179117
 20
99.830426783
 10
286.8270885225
 20
99.8495217831
 10
286.7996962621
 20
99.8705596758
 10
286.7726584282
 20
99.8934503751
 10
286.7460908021
 20
99.9180958606
 10
286.7201071525
 20
99.9443905958
 10
286.6948187317
 20
99.9722219999
 10
286.6703338446
 20
100.0014708801
 10
286.6467573819
 20
100.0320119324
 10
286.6241903193
 20
100.0637143369
 10
286.6027292627
 20
100.0964423643
 10
286.5824660815
 20
100.1300559063
 10
286.5634875475
 20
100.1644110175
 10
286.5458749231
 20
100.1993605915
 10
286.5297035975
 20
100.2347550355
 10
286.5150428117
 20
100.2704428218
 10
286.5019553682
 20
100.3062710974
 10
286.4904973274
 20
100.3420864042
 10
286.4807177581
 20
100.3777353698
 10
286.4726585386
 20
100.4130653444
 10
286.4663541855
 20
100.4479250184
 10
286.4618316952
 20
100.4821651104
 10
286.4591104317
 20
100.5156390057
 10
286.4582020474
 20
100.5482033637
  0
LWPOLYLINE
  5
330
100
AcDbEntity
  8
RACCORDO
100
AcDbPolyline
 62
250
  6
CONTINUOUS
 90
7
 70
0
 10
218.257753002
 20
139.6813231342
 10
218.2424935194
 20
139.6908187393
 10
218.2285057024
 20
139.7009462123
 10
218.2158677766
 20
139.7116489163
 10
218.2046504183
 20
139.7228669973
 10
218.1949163596
 20
139.7345377193
 10
218.1867200372
 20
139.7465958149
  0
LWPOLYLINE
  5
331
100
AcDbEntity
  8
0
100
AcDbPolyline
 62
250
  6
CONTINUOUS
 90
7
 70
0
 10
218.257753002
 20
139.6813231342
 10
218.2424935194
 20
139.6908187393
 10
218.2285057024
 20
139.7009462123
 10
218.2158677766
 20
139.7116489163
 10
218.2046504183
 20
139.7228669973
 10
218.1949163596
 20
139.7345377193
 10
218.1867200372
 20
139.7465958149
  0
LWPOLYLINE
  5
332
100
AcDbEntity
  8
RACCORDO
100
AcDbPolyline
 62
250
  6
CONTINUOUS
 90
7
 70
0
 10
268.4623344662
 20
110.6938270079
 10
268.4470749836
 20
110.7033226131
 10
268.4330871666
 20
110.7134500861
 10
268.4204492408
 20
110.72415279
 10
268.4092318825
 20
110.735370871
 10
268.3994978238
 20
110.747041593
 10
268.3913015015
 20
110.7590996886
  0
LWPOLYLINE
  5
333
100
AcDbEntity
  8
0
100
AcDbPolyline
 62
250
  6
CONTINUOUS
 90
7
 70
0
 10
268.4623344662
 20
110.6938270079
 10
268.4470749836
 20
110.7033226131
 10
268.4330871666
 20
110.7134500861
 10
268.4204492408
 20
110.72415279
 10
268.4092318825
 20
110.735370871
 10
268.3994978238
 20
110.747041593
 10
268.3913015015
 20
110.7590996886
  0
LWPOLYLINE
  5
334
100
AcDbEntity
  8
RACCORDO
100
AcDbPolyline
 62
250
  6
CONTINUOUS
 90
7
 70
0
 10
318.6669159305
 20
81.7063308817
 10
318.6516564479
 20
81.7158264868
 10
318.6376686309
 20
81.7259539598
 10
318.6250307051
 20
81.7366566637
 10
318.6138133468
 20
81.7478747448
 10
318.6040792881
 20
81.7595454668
 10
318.5958829657
 20
81.7716035624
  0
LWPOLYLINE
  5
335
100
AcDbEntity
  8
0
100
AcDbPolyline
 62
250
  6
CONTINUOUS
 90
7
 70
0
 10
318.6669159305
 20
81.7063308817
 10
318.6516564479
 20
81.7158264868
 10
318.6376686309
 20
81.7259539598
 10
318.6250307051
 20
81.7366566637
 10
318.6138133468
 20
81.7478747448
 10
318.6040792881
 20
81.7595454668
 10
318.5958829657
 20
81.7716035624
  0
LWPOLYLINE
  5
336
100
AcDbEntity
  8
RACCORDO
100
AcDbPolyline
 62
7
  6
CONTINUOUS
 90
5
 70
0
 10
237.268036898
 20
129.2541333463
 10
237.294517598
 20
129.2284661469
 10
237.3221251951
 20
129.2043242854
 10
237.3506950012
 20
129.1819758282
 10
237.3801664355
 20
129.1615420172
  0
LWPOLYLINE
  5
337
100
AcDbEntity
  8
RACCORDO
100
AcDbPolyline
 62
250
  6
CONTINUOUS
 90
27
 70
0
 10
238.4452136767
 20
137.8214831186
 10
238.4670462322
 20
137.7877836527
 10
238.4876082339
 20
137.7531703974
 10
238.506806345
 20
137.7177987861
 10
238.5245542472
 20
137.6818257737
 10
238.5407699931
 20
137.6454152039
 10
238.5553772656
 20
137.6087372796
 10
238.568309483
 20
137.5719593283
 10
238.5795090685
 20
137.535245256
 10
238.5889253491
 20
137.4987610119
 10
238.5965158473
 20
137.462671082
 10
238.6022463003
 20
137.4271382499
 10
238.6060908031
 20
137.3923232271
 10
238.6080320918
 20
137.3583823334
 10
238.608061373
 20
137.3254692764
 10
238.606178772
 20
137.2937346747
 10
238.6023940458
 20
137.2633263536
 10
238.5967245529
 20
137.2343755038
 10
238.5891925899
 20
137.2070005646
 10
238.5798332043
 20
137.1813341171
 10
238.5686846967
 20
137.1574853811
 10
238.5557771872
 20
137.1355361202
 10
238.5411403124
 20
137.1155711423
 10
238.5248481171
 20
137.0977219461
 10
238.5070150038
 20
137.0821184624
 10
238.4877436332
 20
137.068836202
 10
238.4840365919
 20
137.0666422371
  0
LWPOLYLINE
  5
338
100
AcDbEntity
  8
RACCORDO
100
AcDbPolyline
 62
7
  6
CONTINUOUS
 90
6
 70
0
 10
236.9877830361
 20
129.878868556
 10
236.9910290464
 20
129.870046736
 10
236.9940174132
 20
129.8603465592
 10
236.9967758334
 20
129.8497580857
 10
236.9992655622
 20
129.8382418801
 10
237.001583405
 20
129.8258207615
  0
LWPOLYLINE
  5
339
100
AcDbEntity
  8
RACCORDO
100
AcDbPolyline
 62
250
  6
CONTINUOUS
 90
7
 70
0
 10
236.9360427838
 20
129.6550240829
 10
236.9302778543
 20
129.6779947423
 10
236.9235478886
 20
129.7103395504
 10
236.9182998131
 20
129.7423459018
 10
236.9145720863
 20
129.7738342944
 10
236.9123820006
 20
129.8047482409
 10
236.9117524654
 20
129.834969603
  0
LWPOLYLINE
  5
33A
100
AcDbEntity
  8
RACCORDO
100
AcDbPolyline
 62
7
  6
CONTINUOUS
 90
25
 70
0
 10
237.001583405
 20
129.8258207615
 10
237.009114388
 20
129.7835965046
 10
237.0120141286
 20
129.7679767812
 10
237.0152100519
 20
129.7516922215
 10
237.0187256462
 20
129.7347016832
 10
237.0226703835
 20
129.7169913945
 10
237.0270800671
 20
129.6986042322
 10
237.0319879249
 20
129.6795197537
 10
237.0375138821
 20
129.6596319106
 10
237.04371631
 20
129.6389270204
 10
237.0506280127
 20
129.6174647562
 10
237.0583432789
 20
129.5952560872
 10
237.0668849023
 20
129.5723952222
 10
237.076315434
 20
129.5488728562
 10
237.0868051718
 20
129.5245594425
 10
237.0984020749
 20
129.4995264433
 10
237.111161217
 20
129.473851905
 10
237.1252909424
 20
129.4474459543
 10
237.1408593985
 20
129.4203936815
 10
237.1579020698
 20
129.3928686312
 10
237.1765920543
 20
129.3649577401
 10
237.1970747186
 20
129.3366978974
 10
237.2192623365
 20
129.3084668921
 10
237.242937289
 20
129.2808646552
 10
237.268036898
 20
129.2541333463
  0
LINE
  5
33B
100
AcDbEntity
  8
DRAFT
100
AcDbLine
 62
7
  6
CONTINUOUS
 10
239.8347417919
 20
144.1389309712
 11
239.8347417919
 21
141.0481392007
  0
LINE
  5
33C
100
AcDbEntity
  8
DRAFT
100
AcDbLine
 62
7
  6
CONTINUOUS
 10
241.4289514759
 20
128.2531888639
 11
241.4783562819
 21
128.4946128448
  0
LWPOLYLINE
  5
33D
100
AcDbEntity
  8
RACCORDO
100
AcDbPolyline
 62
250
  6
CONTINUOUS
 90
25
 70
0
 10
236.9669121204
 20
136.1972960491
 10
236.9819939425
 20
136.2131772672
 10
236.995740885
 20
136.2308590447
 10
237.0080978402
 20
136.2502718251
 10
237.0190173637
 20
136.2713411386
 10
237.0284586759
 20
136.2939883742
 10
237.0363856886
 20
136.318127233
 10
237.0427683421
 20
136.3436661622
 10
237.047582529
 20
136.3705086807
 10
237.0508099975
 20
136.3985530055
 10
237.0524385666
 20
136.4276935846
 10
237.0524620073
 20
136.4578195356
 10
237.0508804128
 20
136.4888146618
 10
237.0477003915
 20
136.5205592645
 10
237.0429342675
 20
136.5529351971
 10
237.0365994275
 20
136.585824446
 10
237.0287223343
 20
136.619091819
 10
237.0193306704
 20
136.6526221702
 10
237.0084467618
 20
136.6863261884
 10
236.9960998614
 20
136.7200940523
 10
236.9823372619
 20
136.753779413
 10
236.9672139323
 20
136.7872377039
 10
236.950787451
 20
136.8203354154
 10
236.9331156876
 20
136.8529503
 10
236.9142637434
 20
136.884956306
  0
LINE
  5
33E
100
AcDbEntity
  8
DRAFT
100
AcDbLine
 62
7
  6
CONTINUOUS
 10
239.8347417919
 20
144.1389309712
 11
238.3781620618
 21
143.3577470817
  0
LWPOLYLINE
  5
33F
100
AcDbEntity
  8
RACCORDO
100
AcDbPolyline
 62
250
  6
CONTINUOUS
 90
13
 70
0
 10
218.1335034294
 20
139.6516457735
 10
218.1132257251
 20
139.6414232694
 10
218.0917646944
 20
139.633477948
 10
218.0691976634
 20
139.627835432
 10
218.0456212395
 20
139.6245198918
 10
218.0211363972
 20
139.6235455417
 10
217.9958480065
 20
139.6249165619
 10
217.9698643593
 20
139.628627084
 10
217.9432967173
 20
139.6346612223
 10
217.9162588627
 20
139.6429931352
 10
217.8888665815
 20
139.6535871413
 10
217.8612371671
 20
139.6663978757
 10
217.8334889333
 20
139.6813704801
  0
LWPOLYLINE
  5
340
100
AcDbEntity
  8
0
100
AcDbPolyline
 62
250
  6
CONTINUOUS
 90
13
 70
0
 10
218.1335034294
 20
139.6516457735
 10
218.1132257251
 20
139.6414232694
 10
218.0917646944
 20
139.633477948
 10
218.0691976634
 20
139.627835432
 10
218.0456212395
 20
139.6245198918
 10
218.0211363972
 20
139.6235455417
 10
217.9958480065
 20
139.6249165619
 10
217.9698643593
 20
139.628627084
 10
217.9432967173
 20
139.6346612223
 10
217.9162588627
 20
139.6429931352
 10
217.8888665815
 20
139.6535871413
 10
217.8612371671
 20
139.6663978757
 10
217.8334889333
 20
139.6813704801
  0
LINE
  5
341
100
AcDbEntity
  8
RACCORDO
100
AcDbLine
 62
7
  6
CONTINUOUS
 10
239.0277811928
 20
144.5629880112
 11
238.4342941017
 21
144.2885701972
  0
LINE
  5
342
100
AcDbEntity
  8
RACCORDO
100
AcDbLine
 62
250
  6
CONTINUOUS
 10
239.1223169051
 20
144.550276172
 11
238.4342941017
 21
144.2321467357
  0
LINE
  5
343
100
AcDbEntity
  8
RACCORDO
100
AcDbLine
 62
7
  6
CONTINUOUS
 10
218.1698850363
 20
141.7164220256
 11
218.0914935208
 21
141.6895753965
  0
LWPOLYLINE
  5
344
100
AcDbEntity
  8
RACCORDO
100
AcDbPolyline
 62
7
  6
CONTINUOUS
 90
8
 70
0
 10
241.1431745875
 20
128.379823654
 10
241.1558600365
 20
128.3834256973
 10
241.1680095448
 20
128.3855141803
 10
241.1796231126
 20
128.3860891031
 10
241.190788138
 20
128.3851301353
 10
241.2014172228
 20
128.3826576072
 10
241.2112481723
 20
128.3787325104
 10
241.2150138021
 20
128.3767137856
  0
LWPOLYLINE
  5
345
100
AcDbEntity
  8
RACCORDO
100
AcDbPolyline
 62
7
  6
CONTINUOUS
 90
3
 70
0
 10
287.5267066593
 20
100.2168281591
 10
287.4990990623
 20
100.2409700207
 10
287.4726183623
 20
100.26663722
  0
LINE
  5
346
100
AcDbEntity
  8
DRAFT
100
AcDbLine
 62
7
  6
CONTINUOUS
 10
247.7810085534
 20
124.5205470742
 11
247.8423173126
 21
124.8201415049
  0
LWPOLYLINE
  5
347
100
AcDbEntity
  8
RACCORDO
100
AcDbPolyline
 62
7
  6
CONTINUOUS
 90
10
 70
0
 10
238.4579148793
 20
137.8292959726
 10
238.4674538115
 20
137.8356608163
 10
238.4761379958
 20
137.8420477643
 10
238.4838770084
 20
137.8484690179
 10
238.4905139372
 20
137.8548530959
 10
238.4958767328
 20
137.8610320121
 10
238.4998809019
 20
137.8668965093
 10
238.5025036932
 20
137.8724299904
 10
238.5036995265
 20
137.8775879515
 10
238.5037705204
 20
137.8790863546
  0
LINE
  5
348
100
AcDbEntity
  8
DRAFT
100
AcDbLine
 62
7
  6
CONTINUOUS
 10
238.4476384805
 20
140.133357612
 11
239.8347417919
 21
141.0481392007
  0
LWPOLYLINE
  5
349
100
AcDbEntity
  8
RACCORDO
100
AcDbPolyline
 62
7
  6
CONTINUOUS
 90
26
 70
0
 10
238.4840364456
 20
137.0666424905
 10
238.5078225491
 20
137.0817512002
 10
238.530622591
 20
137.0991157509
 10
238.5522347161
 20
137.1187157186
 10
238.5724243775
 20
137.140463929
 10
238.591048029
 20
137.1643319624
 10
238.6080324008
 20
137.1904053077
 10
238.623225569
 20
137.2187064862
 10
238.6364035175
 20
137.249103935
 10
238.647399642
 20
137.2815109438
 10
238.6561185261
 20
137.3160851041
 10
238.6623488612
 20
137.3525751559
 10
238.6659187557
 20
137.3902677303
 10
238.6668317407
 20
137.4291100469
 10
238.6650778883
 20
137.4689922869
 10
238.6607525067
 20
137.5090264333
 10
238.6540226793
 20
137.5488789119
 10
238.6449781963
 20
137.5886594401
 10
238.6337747797
 20
137.6280604239
 10
238.6205612014
 20
137.6668822573
 10
238.6054243172
 20
137.7050937336
 10
238.5884611721
 20
137.742587213
 10
238.5697818311
 20
137.7792154179
 10
238.5494630881
 20
137.8148894796
 10
238.5275414368
 20
137.8495632764
 10
238.5040696019
 20
137.8831348894
  0
LINE
  5
34A
100
AcDbEntity
  8
RACCORDO
100
AcDbLine
 62
7
  6
CONTINUOUS
 10
238.4579148793
 20
137.8292959726
 11
236.9862086276
 21
136.9237664195
  0
LWPOLYLINE
  5
34B
100
AcDbEntity
  8
RACCORDO
100
AcDbPolyline
 62
250
  6
CONTINUOUS
 90
4
 70
0
 10
236.9284016733
 20
136.1684381318
 10
236.9329825415
 20
136.1711651082
 10
236.9505543969
 20
136.1832750871
 10
236.9669121204
 20
136.1972960491
  0
LINE
  5
34C
100
AcDbEntity
  8
ASSI
100
AcDbLine
 62
7
  6
CONTINUOUS
 10
238.4840365919
 20
137.0666422371
 11
236.9284016733
 21
136.1684381318
  0
LINE
  5
34D
100
AcDbEntity
  8
RACCORDO
100
AcDbLine
 62
7
  6
CONTINUOUS
 10
236.9862086276
 20
136.9237664195
 11
236.9001659538
 21
136.8773337717
  0
LINE
  5
34E
100
AcDbEntity
  8
RACCORDO
100
AcDbLine
 62
7
  6
CONTINUOUS
 10
236.9001659538
 20
136.8773337717
 11
236.8900166862
 21
136.8722385235
  0
LWPOLYLINE
  5
34F
100
AcDbEntity
  8
RACCORDO
100
AcDbPolyline
 62
7
  6
CONTINUOUS
 90
3
 70
0
 10
236.9046342183
 20
136.1559629355
 10
236.9148246303
 20
136.1610139636
 10
236.928401527
 20
136.1684383852
  0
LWPOLYLINE
  5
350
100
AcDbEntity
  8
RACCORDO
100
AcDbPolyline
 62
7
  6
CONTINUOUS
 90
3
 70
0
 10
236.9046328075
 20
136.1559071505
 10
236.9001647228
 20
136.1538801499
 10
236.8900166862
 20
136.1500547927
  0
LINE
  5
351
100
AcDbEntity
  8
RACCORDO
100
AcDbLine
 62
7
  6
CONTINUOUS
 10
188.9177354409
 20
173.5377722983
 11
189.6301603276
 21
173.1264270975
  0
LINE
  5
352
100
AcDbEntity
  8
RACCORDO
100
AcDbLine
 62
7
  6
CONTINUOUS
 10
239.1223169051
 20
144.550276172
 11
239.8347417919
 21
144.1389309712
  0
LINE
  5
353
100
AcDbEntity
  8
RACCORDO
100
AcDbLine
 62
7
  6
CONTINUOUS
 10
289.3268983694
 20
115.5627800458
 11
290.0393232561
 21
115.1514348449
  0
LWPOLYLINE
  5
354
100
AcDbEntity
  8
RACCORDO
100
AcDbPolyline
 62
7
  6
CONTINUOUS
 90
25
 70
0
 10
287.4726183623
 20
100.26663722
 10
287.4475187532
 20
100.293368529
 10
287.4238438007
 20
100.3209707658
 10
287.4016561828
 20
100.3492017711
 10
287.3811735186
 20
100.3774616138
 10
287.362483534
 20
100.4053725049
 10
287.3454408627
 20
100.4328975552
 10
287.3298724067
 20
100.4599498281
 10
287.3157426813
 20
100.4863557787
 10
287.3029835391
 20
100.512030317
 10
287.2913866361
 20
100.5370633162
 10
287.2808968983
 20
100.56137673
 10
287.2714663665
 20
100.5848990959
 10
287.2629247432
 20
100.6077599609
 10
287.2552094769
 20
100.6299686299
 10
287.2482977743
 20
100.6514308941
 10
287.2420953464
 20
100.6721357843
 10
287.2365693891
 20
100.6920236274
 10
287.2316615314
 20
100.7111081059
 10
287.2272518477
 20
100.7294952683
 10
287.2233071104
 20
100.747205557
 10
287.2197915162
 20
100.7641960952
 10
287.2165955929
 20
100.7804806549
 10
287.2136958522
 20
100.7961003783
 10
287.2061648692
 20
100.8383246352
  0
LWPOLYLINE
  5
355
100
AcDbEntity
  8
RACCORDO
100
AcDbPolyline
 62
250
  6
CONTINUOUS
 90
27
 70
0
 10
238.4452136767
 20
167.7042952493
 10
238.4670462322
 20
167.6705957833
 10
238.4876082339
 20
167.635982528
 10
238.506806345
 20
167.6006109167
 10
238.5245542472
 20
167.5646379043
 10
238.5407699931
 20
167.5282273345
 10
238.5553772656
 20
167.4915494102
 10
238.568309483
 20
167.4547714589
 10
238.5795090685
 20
167.4180573866
 10
238.5889253491
 20
167.3815731425
 10
238.5965158473
 20
167.3454832126
 10
238.6022463003
 20
167.3099503806
 10
238.6060908031
 20
167.2751353577
 10
238.6080320918
 20
167.241194464
 10
238.608061373
 20
167.208281407
 10
238.606178772
 20
167.1765468053
 10
238.6023940458
 20
167.1461384842
 10
238.5967245529
 20
167.1171876344
 10
238.5891925899
 20
167.0898126953
 10
238.5798332043
 20
167.0641462477
 10
238.5686846967
 20
167.0402975117
 10
238.5557771872
 20
167.0183482508
 10
238.5411403124
 20
166.9983832729
 10
238.5248481171
 20
166.9805340767
 10
238.5070150038
 20
166.964930593
 10
238.4877436332
 20
166.9516483326
 10
238.4840365919
 20
166.9494543677
  0
LWPOLYLINE
  5
356
100
AcDbEntity
  8
RACCORDO
100
AcDbPolyline
 62
250
  6
CONTINUOUS
 90
6
 70
0
 10
268.3913015015
 20
110.7590996886
 10
268.3846887527
 20
110.7714777241
 10
268.3796965586
 20
110.7841064764
 10
268.3763528376
 20
110.7969153204
 10
268.3746762891
 20
110.8098326239
 10
268.3744665006
 20
110.8163093859
  0
LWPOLYLINE
  5
357
100
AcDbEntity
  8
0
100
AcDbPolyline
 62
250
  6
CONTINUOUS
 90
6
 70
0
 10
268.3913015015
 20
110.7590996886
 10
268.3846887527
 20
110.7714777241
 10
268.3796965586
 20
110.7841064764
 10
268.3763528376
 20
110.7969153204
 10
268.3746762891
 20
110.8098326239
 10
268.3744665006
 20
110.8163093859
  0
LINE
  5
358
100
AcDbEntity
  8
RACCORDO
100
AcDbLine
 62
250
  6
CONTINUOUS
 10
236.2536205832
 20
129.53569949
 11
236.8900166862
 21
129.903146624
  0
LINE
  5
359
100
AcDbEntity
  8
0
100
AcDbLine
 62
250
  6
CONTINUOUS
 10
236.2536205832
 20
129.53569949
 11
236.8900166862
 21
129.903146624
  0
LINE
  5
35A
100
AcDbEntity
  8
RACCORDO
100
AcDbLine
 62
250
  6
CONTINUOUS
 10
236.9877830361
 20
129.878868556
 11
236.9117524654
 21
129.834969603
  0
LINE
  5
35B
100
AcDbEntity
  8
RACCORDO
100
AcDbLine
 62
250
  6
CONTINUOUS
 10
236.6778846519
 20
128.8008525679
 11
237.314280755
 21
129.1682997019
  0
LINE
  5
35C
100
AcDbEntity
  8
0
100
AcDbLine
 62
250
  6
CONTINUOUS
 10
236.6778846519
 20
128.8008525679
 11
237.314280755
 21
129.1682997019
  0
LINE
  5
35D
100
AcDbEntity
  8
RACCORDO
100
AcDbLine
 62
250
  6
CONTINUOUS
 10
237.4104080788
 20
129.143224514
 11
237.3840587239
 21
129.1280107772
  0
LWPOLYLINE
  5
35E
100
AcDbEntity
  8
RACCORDO
100
AcDbPolyline
 62
250
  6
CONTINUOUS
 90
3
 70
0
 10
236.8950264767
 20
129.8266720443
 10
236.8961363814
 20
129.8271224378
 10
236.9117524654
 20
129.834969603
  0
LINE
  5
35F
100
AcDbEntity
  8
RACCORDO
100
AcDbLine
 62
250
  6
CONTINUOUS
 10
238.4476384805
 20
130.4107062525
 11
236.9862086276
 21
129.8863306913
  0
LINE
  5
360
100
AcDbEntity
  8
RACCORDO
100
AcDbLine
 62
250
  6
CONTINUOUS
 10
238.8957684247
 20
129.6774478058
 11
237.4090608931
 21
129.1440023622
  0
LINE
  5
361
100
AcDbEntity
  8
RACCORDO
100
AcDbLine
 62
7
  6
CONTINUOUS
 10
239.7105893289
 20
129.5152993281
 11
239.3754076345
 21
129.4005101373
  0
LWPOLYLINE
  5
362
100
AcDbEntity
  8
RACCORDO
100
AcDbPolyline
 62
250
  6
CONTINUOUS
 90
24
 70
0
 10
217.7675865991
 20
183.5033378061
 10
217.8035268064
 20
183.4715031208
 10
217.8387208849
 20
183.4377654576
 10
217.8731261222
 20
183.4021299456
 10
217.9067852307
 20
183.3645914556
 10
217.9393724919
 20
183.3255152579
 10
217.9708837314
 20
183.2848789811
 10
218.0013231237
 20
183.2427049964
 10
218.0303774741
 20
183.1994256877
 10
218.0580306087
 20
183.1550324231
 10
218.0842987013
 20
183.1095338343
 10
218.1089170787
 20
183.0633882008
 10
218.1318703299
 20
183.0165852823
 10
218.1531738658
 20
182.969135319
 10
218.1726092466
 20
182.9215273107
 10
218.1901546721
 20
182.8737693786
 10
218.2058319424
 20
182.8258534015
 10
218.2194880178
 20
182.7782440159
 10
218.2311059699
 20
182.7309022576
 10
218.240702727
 20
182.6838670908
 10
218.2481760343
 20
182.637720044
 10
218.2534918067
 20
182.59265496
 10
218.2566841293
 20
182.548477996
 10
218.257753002
 20
182.505189152
  0
LWPOLYLINE
  5
363
100
AcDbEntity
  8
0
100
AcDbPolyline
 62
250
  6
CONTINUOUS
 90
24
 70
0
 10
217.7675865991
 20
183.5033378061
 10
217.8035268064
 20
183.4715031208
 10
217.8387208849
 20
183.4377654576
 10
217.8731261222
 20
183.4021299456
 10
217.9067852307
 20
183.3645914556
 10
217.9393724919
 20
183.3255152579
 10
217.9708837314
 20
183.2848789811
 10
218.0013231237
 20
183.2427049964
 10
218.0303774741
 20
183.1994256877
 10
218.0580306087
 20
183.1550324231
 10
218.0842987013
 20
183.1095338343
 10
218.1089170787
 20
183.0633882008
 10
218.1318703299
 20
183.0165852823
 10
218.1531738658
 20
182.969135319
 10
218.1726092466
 20
182.9215273107
 10
218.1901546721
 20
182.8737693786
 10
218.2058319424
 20
182.8258534015
 10
218.2194880178
 20
182.7782440159
 10
218.2311059699
 20
182.7309022576
 10
218.240702727
 20
182.6838670908
 10
218.2481760343
 20
182.637720044
 10
218.2534918067
 20
182.59265496
 10
218.2566841293
 20
182.548477996
 10
218.257753002
 20
182.505189152
  0
LWPOLYLINE
  5
364
100
AcDbEntity
  8
RACCORDO
100
AcDbPolyline
 62
250
  6
CONTINUOUS
 90
12
 70
0
 10
267.8259383632
 20
154.6199634088
 10
267.8265315274
 20
154.6020014243
 10
267.8283077027
 20
154.5848248617
 10
267.8312569562
 20
154.5685297792
 10
267.8353627943
 20
154.5532073055
 10
267.8406022555
 20
154.5389431303
 10
267.8469460387
 20
154.5258170244
 10
267.8543586668
 20
154.5139023944
 10
267.8627986855
 20
154.5032658718
 10
267.8722188946
 20
154.4939669403
 10
267.8825666127
 20
154.4860576033
 10
267.8880631495
 20
154.4826423505
  0
LWPOLYLINE
  5
365
100
AcDbEntity
  8
0
100
AcDbPolyline
 62
250
  6
CONTINUOUS
 90
12
 70
0
 10
267.8259383632
 20
154.6199634088
 10
267.8265315274
 20
154.6020014243
 10
267.8283077027
 20
154.5848248617
 10
267.8312569562
 20
154.5685297792
 10
267.8353627943
 20
154.5532073055
 10
267.8406022555
 20
154.5389431303
 10
267.8469460387
 20
154.5258170244
 10
267.8543586668
 20
154.5139023944
 10
267.8627986855
 20
154.5032658718
 10
267.8722188946
 20
154.4939669403
 10
267.8825666127
 20
154.4860576033
 10
267.8880631495
 20
154.4826423505
  0
LINE
  5
366
100
AcDbEntity
  8
RACCORDO
100
AcDbLine
 62
7
  6
CONTINUOUS
 10
268.3744665006
 20
153.6401754037
 11
268.3744665006
 21
110.8163093859
  0
LINE
  5
367
100
AcDbEntity
  8
0
100
AcDbLine
 62
7
  6
CONTINUOUS
 10
268.3744665006
 20
153.6401754037
 11
268.3744665006
 21
110.8163093859
  0
LINE
  5
368
100
AcDbEntity
  8
RACCORDO
100
AcDbLine
 62
250
  6
CONTINUOUS
 10
268.4623344662
 20
153.5176930257
 11
268.4623344662
 21
110.6938270079
  0
LINE
  5
369
100
AcDbEntity
  8
0
100
AcDbLine
 62
250
  6
CONTINUOUS
 10
268.4623344662
 20
153.5176930257
 11
268.4623344662
 21
110.6938270079
  0
LWPOLYLINE
  5
36A
100
AcDbEntity
  8
RACCORDO
100
AcDbPolyline
 62
7
  6
CONTINUOUS
 90
16
 70
0
 10
268.3744665006
 20
110.8163093859
 10
268.3740012088
 20
110.794145635
 10
268.372669858
 20
110.773622427
 10
268.3705789449
 20
110.7548161703
 10
268.3678539624
 20
110.7378232254
 10
268.3646166333
 20
110.7226268241
 10
268.3609799474
 20
110.7091716385
 10
268.3570875538
 20
110.6974994951
 10
268.3531020515
 20
110.6876413546
 10
268.3492080536
 20
110.6796129304
 10
268.3456374313
 20
110.6734422413
 10
268.342593038
 20
110.6690265583
 10
268.3402202323
 20
110.6661542903
 10
268.3386356507
 20
110.6645809597
 10
268.3379275646
 20
110.6640307295
 10
268.3380848936
 20
110.6641496472
  0
LWPOLYLINE
  5
36B
100
AcDbEntity
  8
0
100
AcDbPolyline
 62
7
  6
CONTINUOUS
 90
16
 70
0
 10
268.3744665006
 20
110.8163093859
 10
268.3740012088
 20
110.794145635
 10
268.372669858
 20
110.773622427
 10
268.3705789449
 20
110.7548161703
 10
268.3678539624
 20
110.7378232254
 10
268.3646166333
 20
110.7226268241
 10
268.3609799474
 20
110.7091716385
 10
268.3570875538
 20
110.6974994951
 10
268.3531020515
 20
110.6876413546
 10
268.3492080536
 20
110.6796129304
 10
268.3456374313
 20
110.6734422413
 10
268.342593038
 20
110.6690265583
 10
268.3402202323
 20
110.6661542903
 10
268.3386356507
 20
110.6645809597
 10
268.3379275646
 20
110.6640307295
 10
268.3380848936
 20
110.6641496472
  0
LWPOLYLINE
  5
36C
100
AcDbEntity
  8
RACCORDO
100
AcDbPolyline
 62
250
  6
CONTINUOUS
 90
28
 70
0
 10
268.4623344662
 20
110.6938270079
 10
268.4612656143
 20
110.6517700872
 10
268.4580728618
 20
110.6112769567
 10
268.4527562087
 20
110.5723476162
 10
268.4452814153
 20
110.534827152
 10
268.4356827213
 20
110.4988704778
 10
268.4240628465
 20
110.4649423357
 10
268.4104048748
 20
110.4331018113
 10
268.3947257223
 20
110.4032898188
 10
268.3771788575
 20
110.3757938428
 10
268.3577428182
 20
110.3506310953
 10
268.3364390665
 20
110.3277843641
 10
268.3134854574
 20
110.3074894972
 10
268.2888664274
 20
110.2897741558
 10
268.26259754
 20
110.2746106787
 10
268.23494334
 20
110.2621519293
 10
268.2058872525
 20
110.2524252725
 10
268.1754458524
 20
110.2454033434
 10
268.1439334091
 20
110.2411569116
 10
268.1113460548
 20
110.239713382
 10
268.0776876573
 20
110.2410453495
 10
268.0432840892
 20
110.245141369
 10
268.0080931405
 20
110.2520453584
 10
267.9721570211
 20
110.2617133997
 10
267.9359282335
 20
110.2740022937
 10
267.8995576117
 20
110.2888643074
 10
267.8628943216
 20
110.3063471737
 10
267.8259383632
 20
110.3264508928
  0
LWPOLYLINE
  5
36D
100
AcDbEntity
  8
0
100
AcDbPolyline
 62
250
  6
CONTINUOUS
 90
28
 70
0
 10
268.4623344662
 20
110.6938270079
 10
268.4612656143
 20
110.6517700872
 10
268.4580728618
 20
110.6112769567
 10
268.4527562087
 20
110.5723476162
 10
268.4452814153
 20
110.534827152
 10
268.4356827213
 20
110.4988704778
 10
268.4240628465
 20
110.4649423357
 10
268.4104048748
 20
110.4331018113
 10
268.3947257223
 20
110.4032898188
 10
268.3771788575
 20
110.3757938428
 10
268.3577428182
 20
110.3506310953
 10
268.3364390665
 20
110.3277843641
 10
268.3134854574
 20
110.3074894972
 10
268.2888664274
 20
110.2897741558
 10
268.26259754
 20
110.2746106787
 10
268.23494334
 20
110.2621519293
 10
268.2058872525
 20
110.2524252725
 10
268.1754458524
 20
110.2454033434
 10
268.1439334091
 20
110.2411569116
 10
268.1113460548
 20
110.239713382
 10
268.0776876573
 20
110.2410453495
 10
268.0432840892
 20
110.245141369
 10
268.0080931405
 20
110.2520453584
 10
267.9721570211
 20
110.2617133997
 10
267.9359282335
 20
110.2740022937
 10
267.8995576117
 20
110.2888643074
 10
267.8628943216
 20
110.3063471737
 10
267.8259383632
 20
110.3264508928
  0
LWPOLYLINE
  5
36E
100
AcDbEntity
  8
RACCORDO
100
AcDbPolyline
 62
250
  6
CONTINUOUS
 90
22
 70
0
 10
267.8259383632
 20
110.3264508928
 10
267.8265315274
 20
110.3450978484
 10
267.8283077027
 20
110.3643254939
 10
267.8312569562
 20
110.3840263003
 10
267.8353627943
 20
110.4040900929
 10
267.8406022555
 20
110.4244046666
 10
267.8469460387
 20
110.4448564143
 10
267.8543586668
 20
110.4653309615
 10
267.8627986855
 20
110.4857138061
 10
267.8722188946
 20
110.505890959
 10
267.8825666127
 20
110.5257495814
 10
267.8937839709
 20
110.5451786158
 10
267.9058082374
 20
110.5640694073
 10
267.9185721676
 20
110.5823163108
 10
267.9320043803
 20
110.5998172821
 10
267.9460297573
 20
110.616474449
 10
267.9605698628
 20
110.6321946575
 10
267.9755433827
 20
110.6468899941
 10
267.9908665791
 20
110.6604782764
 10
268.0064537584
 20
110.6728835131
 10
268.0222177507
 20
110.6840363293
 10
268.0380703975
 20
110.6938743538
  0
LWPOLYLINE
  5
36F
100
AcDbEntity
  8
0
100
AcDbPolyline
 62
250
  6
CONTINUOUS
 90
22
 70
0
 10
267.8259383632
 20
110.3264508928
 10
267.8265315274
 20
110.3450978484
 10
267.8283077027
 20
110.3643254939
 10
267.8312569562
 20
110.3840263003
 10
267.8353627943
 20
110.4040900929
 10
267.8406022555
 20
110.4244046666
 10
267.8469460387
 20
110.4448564143
 10
267.8543586668
 20
110.4653309615
 10
267.8627986855
 20
110.4857138061
 10
267.8722188946
 20
110.505890959
 10
267.8825666127
 20
110.5257495814
 10
267.8937839709
 20
110.5451786158
 10
267.9058082374
 20
110.5640694073
 10
267.9185721676
 20
110.5823163108
 10
267.9320043803
 20
110.5998172821
 10
267.9460297573
 20
110.616474449
 10
267.9605698628
 20
110.6321946575
 10
267.9755433827
 20
110.6468899941
 10
267.9908665791
 20
110.6604782764
 10
268.0064537584
 20
110.6728835131
 10
268.0222177507
 20
110.6840363293
 10
268.0380703975
 20
110.6938743538
  0
LINE
  5
370
100
AcDbEntity
  8
DRAFT
100
AcDbLine
 62
7
  6
CONTINUOUS
 10
263.9856577958
 20
115.2292293368
 11
264.0350626018
 21
115.4706533177
  0
LINE
  5
371
100
AcDbEntity
  8
RACCORDO
100
AcDbLine
 62
250
  6
CONTINUOUS
 10
286.4582020474
 20
143.3720693815
 11
286.7945511457
 21
143.5662731354
  0
LINE
  5
372
100
AcDbEntity
  8
0
100
AcDbLine
 62
250
  6
CONTINUOUS
 10
286.4582020474
 20
143.3720693815
 11
286.7945511457
 21
143.5662731354
  0
LWPOLYLINE
  5
373
100
AcDbEntity
  8
RACCORDO
100
AcDbPolyline
 62
7
  6
CONTINUOUS
 90
16
 70
0
 10
286.5824516201
 20
143.6467114982
 10
286.5822688689
 20
143.6466342697
 10
286.5831037069
 20
143.646973969
 10
286.5852700134
 20
143.647561841
 10
286.5889640855
 20
143.6481819373
 10
286.5943399208
 20
143.6486091945
 10
286.6015071713
 20
143.6486102127
 10
286.6104580406
 20
143.6479560898
 10
286.6210462692
 20
143.6464589547
 10
286.6331450954
 20
143.6439708207
 10
286.6466342492
 20
143.6403727872
 10
286.6614088495
 20
143.6355648824
 10
286.6774621677
 20
143.629424562
 10
286.6947489435
 20
143.6218408973
 10
286.7131210057
 20
143.6127576619
 10
286.7324588681
 20
143.6021244383
  0
LWPOLYLINE
  5
374
100
AcDbEntity
  8
0
100
AcDbPolyline
 62
7
  6
CONTINUOUS
 90
16
 70
0
 10
286.5824516201
 20
143.6467114982
 10
286.5822688689
 20
143.6466342697
 10
286.5831037069
 20
143.646973969
 10
286.5852700134
 20
143.647561841
 10
286.5889640855
 20
143.6481819373
 10
286.5943399208
 20
143.6486091945
 10
286.6015071713
 20
143.6486102127
 10
286.6104580406
 20
143.6479560898
 10
286.6210462692
 20
143.6464589547
 10
286.6331450954
 20
143.6439708207
 10
286.6466342492
 20
143.6403727872
 10
286.6614088495
 20
143.6355648824
 10
286.6774621677
 20
143.629424562
 10
286.6947489435
 20
143.6218408973
 10
286.7131210057
 20
143.6127576619
 10
286.7324588681
 20
143.6021244383
  0
LINE
  5
375
100
AcDbEntity
  8
RACCORDO
100
AcDbLine
 62
7
  6
CONTINUOUS
 10
241.1431745875
 20
128.379823654
 11
241.4783562819
 21
128.4946128448
  0
LINE
  5
376
100
AcDbEntity
  8
RACCORDO
100
AcDbLine
 62
7
  6
CONTINUOUS
 10
246.0745503596
 20
125.8408279882
 11
245.7393686652
 21
125.7260387974
  0
LINE
  5
377
100
AcDbEntity
  8
RACCORDO
100
AcDbLine
 62
7
  6
CONTINUOUS
 10
247.4364249401
 20
124.6811361303
 11
247.8423173126
 21
124.8201415049
  0
LWPOLYLINE
  5
378
100
AcDbEntity
  8
RACCORDO
100
AcDbPolyline
 62
7
  6
CONTINUOUS
 90
8
 70
0
 10
213.4952994431
 20
144.3433602531
 10
213.5079848921
 20
144.3469622964
 10
213.5201344005
 20
144.3490507794
 10
213.5317479682
 20
144.3496257023
 10
213.5429129936
 20
144.3486667344
 10
213.5535420784
 20
144.3461942063
 10
213.563373028
 20
144.3422691096
 10
213.5671386577
 20
144.3402503847
  0
LWPOLYLINE
  5
379
100
AcDbEntity
  8
RACCORDO
100
AcDbPolyline
 62
250
  6
CONTINUOUS
 90
22
 70
0
 10
286.0339379787
 20
143.3720693815
 10
286.0503837897
 20
143.3632587475
 10
286.0679239574
 20
143.3551823573
 10
286.0864603901
 20
143.3478853773
 10
286.1058894246
 20
143.3414086152
 10
286.1261024058
 20
143.3357882917
 10
286.1469862945
 20
143.3310558379
 10
286.1684242996
 20
143.3272377196
 10
286.190296531
 20
143.3243552894
 10
286.2124806703
 20
143.3224246668
 10
286.2348526548
 20
143.3214566487
 10
286.2572873714
 20
143.3214566487
 10
286.2796593559
 20
143.3224246668
 10
286.3018434952
 20
143.3243552894
 10
286.3237157266
 20
143.3272377197
 10
286.3451537317
 20
143.3310558379
 10
286.3660376204
 20
143.3357882917
 10
286.3862506016
 20
143.3414086152
 10
286.405679636
 20
143.3478853773
 10
286.4242160687
 20
143.3551823573
 10
286.4417562365
 20
143.3632587475
 10
286.4582020474
 20
143.3720693815
  0
LWPOLYLINE
  5
37A
100
AcDbEntity
  8
0
100
AcDbPolyline
 62
250
  6
CONTINUOUS
 90
22
 70
0
 10
286.0339379787
 20
143.3720693815
 10
286.0503837897
 20
143.3632587475
 10
286.0679239574
 20
143.3551823573
 10
286.0864603901
 20
143.3478853773
 10
286.1058894246
 20
143.3414086152
 10
286.1261024058
 20
143.3357882917
 10
286.1469862945
 20
143.3310558379
 10
286.1684242996
 20
143.3272377196
 10
286.190296531
 20
143.3243552894
 10
286.2124806703
 20
143.3224246668
 10
286.2348526548
 20
143.3214566487
 10
286.2572873714
 20
143.3214566487
 10
286.2796593559
 20
143.3224246668
 10
286.3018434952
 20
143.3243552894
 10
286.3237157266
 20
143.3272377197
 10
286.3451537317
 20
143.3310558379
 10
286.3660376204
 20
143.3357882917
 10
286.3862506016
 20
143.3414086152
 10
286.405679636
 20
143.3478853773
 10
286.4242160687
 20
143.3551823573
 10
286.4417562365
 20
143.3632587475
 10
286.4582020474
 20
143.3720693815
  0
LWPOLYLINE
  5
37B
100
AcDbEntity
  8
RACCORDO
100
AcDbPolyline
 62
7
  6
CONTINUOUS
 90
28
 70
0
 10
217.6834816852
 20
183.4701384767
 10
217.7069675146
 20
183.4558147299
 10
217.7314103186
 20
183.4393215462
 10
217.7566463664
 20
183.4206310274
 10
217.7825122731
 20
183.3997311051
 10
217.808815205
 20
183.3766515022
 10
217.8353502918
 20
183.3514564715
 10
217.8619628443
 20
183.3241834422
 10
217.8884541527
 20
183.2949317115
 10
217.914575021
 20
183.2638890511
 10
217.9401607322
 20
183.2311787046
 10
217.9650482569
 20
183.19694234
 10
217.989018027
 20
183.1614316756
 10
218.0119296054
 20
183.1248220743
 10
218.0336529404
 20
183.0872964476
 10
218.0540169645
 20
183.0491451809
 10
218.072923508
 20
183.010569169
 10
218.0902838548
 20
182.9717792436
 10
218.1059806867
 20
182.933098633
 10
218.1199672145
 20
182.8947407666
 10
218.1322124631
 20
182.8569149382
 10
218.1426694937
 20
182.8199462475
 10
218.1513514384
 20
182.7840434986
 10
218.1582936091
 20
182.7493851141
 10
218.163530929
 20
182.7162505497
 10
218.1671385518
 20
182.6848426874
 10
218.1692190481
 20
182.6552743937
 10
218.1698850363
 20
182.62767153
  0
LWPOLYLINE
  5
37C
100
AcDbEntity
  8
0
100
AcDbPolyline
 62
7
  6
CONTINUOUS
 90
28
 70
0
 10
217.6834816852
 20
183.4701384767
 10
217.7069675146
 20
183.4558147299
 10
217.7314103186
 20
183.4393215462
 10
217.7566463664
 20
183.4206310274
 10
217.7825122731
 20
183.3997311051
 10
217.808815205
 20
183.3766515022
 10
217.8353502918
 20
183.3514564715
 10
217.8619628443
 20
183.3241834422
 10
217.8884541527
 20
183.2949317115
 10
217.914575021
 20
183.2638890511
 10
217.9401607322
 20
183.2311787046
 10
217.9650482569
 20
183.19694234
 10
217.989018027
 20
183.1614316756
 10
218.0119296054
 20
183.1248220743
 10
218.0336529404
 20
183.0872964476
 10
218.0540169645
 20
183.0491451809
 10
218.072923508
 20
183.010569169
 10
218.0902838548
 20
182.9717792436
 10
218.1059806867
 20
182.933098633
 10
218.1199672145
 20
182.8947407666
 10
218.1322124631
 20
182.8569149382
 10
218.1426694937
 20
182.8199462475
 10
218.1513514384
 20
182.7840434986
 10
218.1582936091
 20
182.7493851141
 10
218.163530929
 20
182.7162505497
 10
218.1671385518
 20
182.6848426874
 10
218.1692190481
 20
182.6552743937
 10
218.1698850363
 20
182.62767153
  0
LWPOLYLINE
  5
37D
100
AcDbEntity
  8
RACCORDO
100
AcDbPolyline
 62
250
  6
CONTINUOUS
 90
5
 70
0
 10
217.6213568989
 20
183.6074595351
 10
217.6583149117
 20
183.5848862775
 10
217.6949806518
 20
183.5600293845
 10
217.7313541191
 20
183.532888856
 10
217.7675865991
 20
183.5033378061
  0
LWPOLYLINE
  5
37E
100
AcDbEntity
  8
0
100
AcDbPolyline
 62
250
  6
CONTINUOUS
 90
5
 70
0
 10
217.6213568989
 20
183.6074595351
 10
217.6583149117
 20
183.5848862775
 10
217.6949806518
 20
183.5600293845
 10
217.7313541191
 20
183.532888856
 10
217.7675865991
 20
183.5033378061
  0
LWPOLYLINE
  5
37F
100
AcDbEntity
  8
RACCORDO
100
AcDbPolyline
 62
250
  6
CONTINUOUS
 90
12
 70
0
 10
218.257753002
 20
182.505189152
 10
218.2424935194
 20
182.5146847571
 10
218.2285057024
 20
182.5248122301
 10
218.2158677766
 20
182.5355149341
 10
218.2046504183
 20
182.5467330151
 10
218.1949163596
 20
182.5584037371
 10
218.1867200372
 20
182.5704618327
 10
218.1801072885
 20
182.5828398681
 10
218.1751150944
 20
182.5954686204
 10
218.1717713734
 20
182.6082774644
 10
218.1700948249
 20
182.6211947679
 10
218.1698850363
 20
182.62767153
  0
LWPOLYLINE
  5
380
100
AcDbEntity
  8
0
100
AcDbPolyline
 62
250
  6
CONTINUOUS
 90
12
 70
0
 10
218.257753002
 20
182.505189152
 10
218.2424935194
 20
182.5146847571
 10
218.2285057024
 20
182.5248122301
 10
218.2158677766
 20
182.5355149341
 10
218.2046504183
 20
182.5467330151
 10
218.1949163596
 20
182.5584037371
 10
218.1867200372
 20
182.5704618327
 10
218.1801072885
 20
182.5828398681
 10
218.1751150944
 20
182.5954686204
 10
218.1717713734
 20
182.6082774644
 10
218.1700948249
 20
182.6211947679
 10
218.1698850363
 20
182.62767153
  0
LWPOLYLINE
  5
381
100
AcDbEntity
  8
RACCORDO
100
AcDbPolyline
 62
250
  6
CONTINUOUS
 90
12
 70
0
 10
268.4623344662
 20
153.5176930257
 10
268.4470749836
 20
153.5271886309
 10
268.4330871667
 20
153.5373161039
 10
268.4204492408
 20
153.5480188078
 10
268.4092318825
 20
153.5592368888
 10
268.3994978238
 20
153.5709076108
 10
268.3913015015
 20
153.5829657064
 10
268.3846887527
 20
153.5953437418
 10
268.3796965586
 20
153.6079724941
 10
268.3763528376
 20
153.6207813381
 10
268.3746762891
 20
153.6336986416
 10
268.3744665006
 20
153.6401754037
  0
LWPOLYLINE
  5
382
100
AcDbEntity
  8
0
100
AcDbPolyline
 62
250
  6
CONTINUOUS
 90
12
 70
0
 10
268.4623344662
 20
153.5176930257
 10
268.4470749836
 20
153.5271886309
 10
268.4330871667
 20
153.5373161039
 10
268.4204492408
 20
153.5480188078
 10
268.4092318825
 20
153.5592368888
 10
268.3994978238
 20
153.5709076108
 10
268.3913015015
 20
153.5829657064
 10
268.3846887527
 20
153.5953437418
 10
268.3796965586
 20
153.6079724941
 10
268.3763528376
 20
153.6207813381
 10
268.3746762891
 20
153.6336986416
 10
268.3744665006
 20
153.6401754037
  0
LWPOLYLINE
  5
383
100
AcDbEntity
  8
RACCORDO
100
AcDbPolyline
 62
250
  6
CONTINUOUS
 90
27
 70
0
 10
288.649795141
 20
108.8339869924
 10
288.6716276964
 20
108.8002875264
 10
288.6921896981
 20
108.7656742711
 10
288.7113878093
 20
108.7303026599
 10
288.7291357114
 20
108.6943296474
 10
288.7453514573
 20
108.6579190776
 10
288.7599587299
 20
108.6212411534
 10
288.7728909473
 20
108.584463202
 10
288.7840905327
 20
108.5477491297
 10
288.7935068134
 20
108.5112648857
 10
288.8010973115
 20
108.4751749557
 10
288.8068277645
 20
108.4396421237
 10
288.8106722673
 20
108.4048271008
 10
288.812613556
 20
108.3708862071
 10
288.8126428372
 20
108.3379731501
 10
288.8107602363
 20
108.3062385484
 10
288.8069755101
 20
108.2758302273
 10
288.8013060171
 20
108.2468793775
 10
288.7937740542
 20
108.2195044384
 10
288.7844146685
 20
108.1938379908
 10
288.7732661609
 20
108.1699892548
 10
288.7603586514
 20
108.1480399939
 10
288.7457217766
 20
108.1280750161
 10
288.7294295813
 20
108.1102258198
 10
288.7115964681
 20
108.0946223361
 10
288.6923250975
 20
108.0813400757
 10
288.6886180561
 20
108.0791461108
  0
LWPOLYLINE
  5
384
100
AcDbEntity
  8
RACCORDO
100
AcDbPolyline
 62
7
  6
CONTINUOUS
 90
10
 70
0
 10
288.6624963436
 20
138.7246119769
 10
288.6720352757
 20
138.7309768207
 10
288.6807194601
 20
138.7373637687
 10
288.6884584726
 20
138.7437850223
 10
288.6950954015
 20
138.7501691002
 10
288.7004581971
 20
138.7563480164
 10
288.7044623662
 20
138.7622125136
 10
288.7070851574
 20
138.7677459947
 10
288.7082809908
 20
138.7729039558
 10
288.7083519846
 20
138.774402359
  0
LWPOLYLINE
  5
385
100
AcDbEntity
  8
RACCORDO
100
AcDbPolyline
 62
7
  6
CONTINUOUS
 90
26
 70
0
 10
288.6886179098
 20
137.9619584949
 10
288.7124040133
 20
137.9770672045
 10
288.7352040553
 20
137.9944317553
 10
288.7568161803
 20
138.0140317229
 10
288.7770058417
 20
138.0357799334
 10
288.7956294932
 20
138.0596479668
 10
288.812613865
 20
138.0857213121
 10
288.8278070332
 20
138.1140224905
 10
288.8409849818
 20
138.1444199394
 10
288.8519811062
 20
138.1768269482
 10
288.8606999904
 20
138.2114011085
 10
288.8669303254
 20
138.2478911602
 10
288.87050022
 20
138.2855837347
 10
288.8714132049
 20
138.3244260513
 10
288.8696593526
 20
138.3643082913
 10
288.865333971
 20
138.4043424376
 10
288.8586041435
 20
138.4441949163
 10
288.8495596605
 20
138.4839754445
 10
288.8383562439
 20
138.5233764282
 10
288.8251426656
 20
138.5621982617
 10
288.8100057815
 20
138.600409738
 10
288.7930426364
 20
138.6379032173
 10
288.7743632954
 20
138.6745314222
 10
288.7540445523
 20
138.7102054839
 10
288.732122901
 20
138.7448792808
 10
288.7086510661
 20
138.7784508938
  0
LINE
  5
386
100
AcDbEntity
  8
RACCORDO
100
AcDbLine
 62
7
  6
CONTINUOUS
 10
288.6624963436
 20
138.7246119769
 11
287.1907900919
 21
137.8190824238
  0
LWPOLYLINE
  5
387
100
AcDbEntity
  8
RACCORDO
100
AcDbPolyline
 62
250
  6
CONTINUOUS
 90
4
 70
0
 10
287.1329831375
 20
137.0637541361
 10
287.1375640057
 20
137.0664811125
 10
287.1551358612
 20
137.0785910915
 10
287.1714935847
 20
137.0926120535
  0
LINE
  5
388
100
AcDbEntity
  8
ASSI
100
AcDbLine
 62
7
  6
CONTINUOUS
 10
288.6886180561
 20
137.9619582414
 11
287.1329831375
 21
137.0637541361
  0
LINE
  5
389
100
AcDbEntity
  8
RACCORDO
100
AcDbLine
 62
7
  6
CONTINUOUS
 10
287.1907900919
 20
137.8190824238
 11
287.104747418
 21
137.7726497761
  0
LINE
  5
38A
100
AcDbEntity
  8
RACCORDO
100
AcDbLine
 62
7
  6
CONTINUOUS
 10
287.104747418
 20
137.7726497761
 11
287.0945981505
 21
137.7675545279
  0
LWPOLYLINE
  5
38B
100
AcDbEntity
  8
RACCORDO
100
AcDbPolyline
 62
7
  6
CONTINUOUS
 90
3
 70
0
 10
287.1092156825
 20
137.0512789398
 10
287.1194060945
 20
137.0563299679
 10
287.1329829912
 20
137.0637543895
  0
LWPOLYLINE
  5
38C
100
AcDbEntity
  8
RACCORDO
100
AcDbPolyline
 62
7
  6
CONTINUOUS
 90
3
 70
0
 10
287.1092142718
 20
137.0512231549
 10
287.1047461871
 20
137.0491961542
 10
287.0945981505
 20
137.045370797
  0
LWPOLYLINE
  5
38D
100
AcDbEntity
  8
RACCORDO
100
AcDbPolyline
 62
250
  6
CONTINUOUS
 90
22
 70
0
 10
235.8293565145
 20
172.3595655078
 10
235.8458023254
 20
172.3507548738
 10
235.8633424932
 20
172.3426784836
 10
235.8818789259
 20
172.3353815036
 10
235.9013079604
 20
172.3289047415
 10
235.9215209416
 20
172.323284418
 10
235.9424048303
 20
172.3185519642
 10
235.9638428353
 20
172.3147338459
 10
235.9857150667
 20
172.3118514156
 10
236.007899206
 20
172.309920793
 10
236.0302711906
 20
172.308952775
 10
236.0527059071
 20
172.308952775
 10
236.0750778917
 20
172.309920793
 10
236.097262031
 20
172.3118514156
 10
236.1191342624
 20
172.3147338459
 10
236.1405722674
 20
172.3185519642
 10
236.1614561561
 20
172.323284418
 10
236.1816691373
 20
172.3289047415
 10
236.2010981718
 20
172.3353815036
 10
236.2196346045
 20
172.3426784836
 10
236.2371747722
 20
172.3507548738
 10
236.2536205832
 20
172.3595655078
  0
LWPOLYLINE
  5
38E
100
AcDbEntity
  8
0
100
AcDbPolyline
 62
250
  6
CONTINUOUS
 90
22
 70
0
 10
235.8293565145
 20
172.3595655078
 10
235.8458023254
 20
172.3507548738
 10
235.8633424932
 20
172.3426784836
 10
235.8818789259
 20
172.3353815036
 10
235.9013079604
 20
172.3289047415
 10
235.9215209416
 20
172.323284418
 10
235.9424048303
 20
172.3185519642
 10
235.9638428353
 20
172.3147338459
 10
235.9857150667
 20
172.3118514156
 10
236.007899206
 20
172.309920793
 10
236.0302711906
 20
172.308952775
 10
236.0527059071
 20
172.308952775
 10
236.0750778917
 20
172.309920793
 10
236.097262031
 20
172.3118514156
 10
236.1191342624
 20
172.3147338459
 10
236.1405722674
 20
172.3185519642
 10
236.1614561561
 20
172.323284418
 10
236.1816691373
 20
172.3289047415
 10
236.2010981718
 20
172.3353815036
 10
236.2196346045
 20
172.3426784836
 10
236.2371747722
 20
172.3507548738
 10
236.2536205832
 20
172.3595655078
  0
LWPOLYLINE
  5
38F
100
AcDbEntity
  8
RACCORDO
100
AcDbPolyline
 62
250
  6
CONTINUOUS
 90
22
 70
0
 10
185.6247750502
 20
201.3470616341
 10
185.6412208612
 20
201.3382510001
 10
185.6587610289
 20
201.3301746098
 10
185.6772974616
 20
201.3228776298
 10
185.6967264961
 20
201.3164008678
 10
185.7169394773
 20
201.3107805443
 10
185.737823366
 20
201.3060480905
 10
185.7592613711
 20
201.3022299722
 10
185.7811336025
 20
201.2993475419
 10
185.8033177418
 20
201.2974169193
 10
185.8256897263
 20
201.2964489012
 10
185.8481244429
 20
201.2964489012
 10
185.8704964274
 20
201.2974169193
 10
185.8926805668
 20
201.2993475419
 10
185.9145527981
 20
201.3022299722
 10
185.9359908032
 20
201.3060480905
 10
185.9568746919
 20
201.3107805443
 10
185.9770876731
 20
201.3164008678
 10
185.9965167075
 20
201.3228776299
 10
186.0150531403
 20
201.3301746098
 10
186.032593308
 20
201.3382510001
 10
186.0490391189
 20
201.3470616341
  0
LWPOLYLINE
  5
390
100
AcDbEntity
  8
0
100
AcDbPolyline
 62
250
  6
CONTINUOUS
 90
22
 70
0
 10
185.6247750502
 20
201.3470616341
 10
185.6412208612
 20
201.3382510001
 10
185.6587610289
 20
201.3301746098
 10
185.6772974616
 20
201.3228776298
 10
185.6967264961
 20
201.3164008678
 10
185.7169394773
 20
201.3107805443
 10
185.737823366
 20
201.3060480905
 10
185.7592613711
 20
201.3022299722
 10
185.7811336025
 20
201.2993475419
 10
185.8033177418
 20
201.2974169193
 10
185.8256897263
 20
201.2964489012
 10
185.8481244429
 20
201.2964489012
 10
185.8704964274
 20
201.2974169193
 10
185.8926805668
 20
201.2993475419
 10
185.9145527981
 20
201.3022299722
 10
185.9359908032
 20
201.3060480905
 10
185.9568746919
 20
201.3107805443
 10
185.9770876731
 20
201.3164008678
 10
185.9965167075
 20
201.3228776299
 10
186.0150531403
 20
201.3301746098
 10
186.032593308
 20
201.3382510001
 10
186.0490391189
 20
201.3470616341
  0
LINE
  5
391
100
AcDbEntity
  8
RACCORDO
100
AcDbLine
 62
7
  6
CONTINUOUS
 10
186.3232959396
 20
201.5771166908
 11
217.6834816852
 21
183.4701384767
  0
LINE
  5
392
100
AcDbEntity
  8
0
100
AcDbLine
 62
7
  6
CONTINUOUS
 10
186.3232959396
 20
201.5771166908
 11
217.6834816852
 21
183.4701384767
  0
LINE
  5
393
100
AcDbEntity
  8
RACCORDO
100
AcDbLine
 62
7
  6
CONTINUOUS
 10
236.5278774039
 20
172.5896205646
 11
267.8880631495
 21
154.4826423505
  0
LINE
  5
394
100
AcDbEntity
  8
0
100
AcDbLine
 62
7
  6
CONTINUOUS
 10
236.5278774039
 20
172.5896205646
 11
267.8880631495
 21
154.4826423505
  0
LINE
  5
395
100
AcDbEntity
  8
RACCORDO
100
AcDbLine
 62
7
  6
CONTINUOUS
 10
286.7324588681
 20
143.6021244383
 11
318.0926446137
 21
125.4951462242
  0
LINE
  5
396
100
AcDbEntity
  8
0
100
AcDbLine
 62
7
  6
CONTINUOUS
 10
286.7324588681
 20
143.6021244383
 11
318.0926446137
 21
125.4951462242
  0
LINE
  5
397
100
AcDbEntity
  8
RACCORDO
100
AcDbLine
 62
250
  6
CONTINUOUS
 10
186.2611711533
 20
201.7144377492
 11
217.6213568989
 21
183.6074595351
  0
LINE
  5
398
100
AcDbEntity
  8
0
100
AcDbLine
 62
250
  6
CONTINUOUS
 10
186.2611711533
 20
201.7144377492
 11
217.6213568989
 21
183.6074595351
  0
LINE
  5
399
100
AcDbEntity
  8
RACCORDO
100
AcDbLine
 62
250
  6
CONTINUOUS
 10
236.4657526175
 20
172.7269416229
 11
267.8259383632
 21
154.6199634088
  0
LINE
  5
39A
100
AcDbEntity
  8
0
100
AcDbLine
 62
250
  6
CONTINUOUS
 10
236.4657526175
 20
172.7269416229
 11
267.8259383632
 21
154.6199634088
  0
LINE
  5
39B
100
AcDbEntity
  8
RACCORDO
100
AcDbLine
 62
250
  6
CONTINUOUS
 10
286.6703340818
 20
143.7394454966
 11
318.0305198274
 21
125.6324672826
  0
LINE
  5
39C
100
AcDbEntity
  8
0
100
AcDbLine
 62
250
  6
CONTINUOUS
 10
286.6703340818
 20
143.7394454966
 11
318.0305198274
 21
125.6324672826
  0
LWPOLYLINE
  5
39D
100
AcDbEntity
  8
RACCORDO
100
AcDbPolyline
 62
7
  6
CONTINUOUS
 90
28
 70
0
 10
267.8880631495
 20
154.4826423505
 10
267.9115489789
 20
154.4683186036
 10
267.9359917829
 20
154.4518254199
 10
267.9612278306
 20
154.4331349011
 10
267.9870937373
 20
154.4122349789
 10
268.0133966693
 20
154.3891553759
 10
268.039931756
 20
154.3639603452
 10
268.0665443085
 20
154.336687316
 10
268.093035617
 20
154.3074355852
 10
268.1191564852
 20
154.2763929248
 10
268.1447421965
 20
154.2436825783
 10
268.1696297211
 20
154.2094462137
 10
268.1935994912
 20
154.1739355493
 10
268.2165110697
 20
154.1373259481
 10
268.2382344047
 20
154.0998003213
 10
268.2585984287
 20
154.0616490546
 10
268.2775049722
 20
154.0230730427
 10
268.294865319
 20
153.9842831173
 10
268.310562151
 20
153.9456025067
 10
268.3245486787
 20
153.9072446403
 10
268.3367939274
 20
153.8694188119
 10
268.3472509579
 20
153.8324501213
 10
268.3559329026
 20
153.7965473723
 10
268.3628750734
 20
153.7618889878
 10
268.3681123932
 20
153.7287544234
 10
268.371720016
 20
153.6973465611
 10
268.3738005124
 20
153.6677782674
 10
268.3744665006
 20
153.6401754037
  0
LWPOLYLINE
  5
39E
100
AcDbEntity
  8
0
100
AcDbPolyline
 62
7
  6
CONTINUOUS
 90
28
 70
0
 10
267.8880631495
 20
154.4826423505
 10
267.9115489789
 20
154.4683186036
 10
267.9359917829
 20
154.4518254199
 10
267.9612278306
 20
154.4331349011
 10
267.9870937373
 20
154.4122349789
 10
268.0133966693
 20
154.3891553759
 10
268.039931756
 20
154.3639603452
 10
268.0665443085
 20
154.336687316
 10
268.093035617
 20
154.3074355852
 10
268.1191564852
 20
154.2763929248
 10
268.1447421965
 20
154.2436825783
 10
268.1696297211
 20
154.2094462137
 10
268.1935994912
 20
154.1739355493
 10
268.2165110697
 20
154.1373259481
 10
268.2382344047
 20
154.0998003213
 10
268.2585984287
 20
154.0616490546
 10
268.2775049722
 20
154.0230730427
 10
268.294865319
 20
153.9842831173
 10
268.310562151
 20
153.9456025067
 10
268.3245486787
 20
153.9072446403
 10
268.3367939274
 20
153.8694188119
 10
268.3472509579
 20
153.8324501213
 10
268.3559329026
 20
153.7965473723
 10
268.3628750734
 20
153.7618889878
 10
268.3681123932
 20
153.7287544234
 10
268.371720016
 20
153.6973465611
 10
268.3738005124
 20
153.6677782674
 10
268.3744665006
 20
153.6401754037
  0
LWPOLYLINE
  5
39F
100
AcDbEntity
  8
RACCORDO
100
AcDbPolyline
 62
7
  6
CONTINUOUS
 90
28
 70
0
 10
318.0926446137
 20
125.4951462242
 10
318.1161304431
 20
125.4808224773
 10
318.1405732471
 20
125.4643292936
 10
318.1658092949
 20
125.4456387748
 10
318.1916752015
 20
125.4247388526
 10
318.2179781335
 20
125.4016592497
 10
318.2445132203
 20
125.3764642189
 10
318.2711257728
 20
125.3491911897
 10
318.2976170812
 20
125.319939459
 10
318.3237379495
 20
125.2888967985
 10
318.3493236607
 20
125.2561864521
 10
318.3742111853
 20
125.2219500874
 10
318.3981809555
 20
125.186439423
 10
318.4210925339
 20
125.1498298218
 10
318.4428158689
 20
125.112304195
 10
318.463179893
 20
125.0741529283
 10
318.4820864365
 20
125.0355769165
 10
318.4994467833
 20
124.996786991
 10
318.5151436152
 20
124.9581063804
 10
318.5291301429
 20
124.919748514
 10
318.5413753916
 20
124.8819226856
 10
318.5518324222
 20
124.844953995
 10
318.5605143669
 20
124.8090512461
 10
318.5674565376
 20
124.7743928616
 10
318.5726938575
 20
124.7412582972
 10
318.5763014803
 20
124.7098504348
 10
318.5783819766
 20
124.6802821412
 10
318.5790479648
 20
124.6526792774
  0
LWPOLYLINE
  5
3A0
100
AcDbEntity
  8
0
100
AcDbPolyline
 62
7
  6
CONTINUOUS
 90
28
 70
0
 10
318.0926446137
 20
125.4951462242
 10
318.1161304431
 20
125.4808224773
 10
318.1405732471
 20
125.4643292936
 10
318.1658092949
 20
125.4456387748
 10
318.1916752015
 20
125.4247388526
 10
318.2179781335
 20
125.4016592497
 10
318.2445132203
 20
125.3764642189
 10
318.2711257728
 20
125.3491911897
 10
318.2976170812
 20
125.319939459
 10
318.3237379495
 20
125.2888967985
 10
318.3493236607
 20
125.2561864521
 10
318.3742111853
 20
125.2219500874
 10
318.3981809555
 20
125.186439423
 10
318.4210925339
 20
125.1498298218
 10
318.4428158689
 20
125.112304195
 10
318.463179893
 20
125.0741529283
 10
318.4820864365
 20
125.0355769165
 10
318.4994467833
 20
124.996786991
 10
318.5151436152
 20
124.9581063804
 10
318.5291301429
 20
124.919748514
 10
318.5413753916
 20
124.8819226856
 10
318.5518324222
 20
124.844953995
 10
318.5605143669
 20
124.8090512461
 10
318.5674565376
 20
124.7743928616
 10
318.5726938575
 20
124.7412582972
 10
318.5763014803
 20
124.7098504348
 10
318.5783819766
 20
124.6802821412
 10
318.5790479648
 20
124.6526792774
  0
LWPOLYLINE
  5
3A1
100
AcDbEntity
  8
RACCORDO
100
AcDbPolyline
 62
250
  6
CONTINUOUS
 90
5
 70
0
 10
267.8259383632
 20
154.6199634088
 10
267.8628963759
 20
154.5973901513
 10
267.899562116
 20
154.5725332582
 10
267.9359355834
 20
154.5453927297
 10
267.9721680634
 20
154.5158416799
  0
LWPOLYLINE
  5
3A2
100
AcDbEntity
  8
0
100
AcDbPolyline
 62
250
  6
CONTINUOUS
 90
5
 70
0
 10
267.8259383632
 20
154.6199634088
 10
267.8628963759
 20
154.5973901513
 10
267.899562116
 20
154.5725332582
 10
267.9359355834
 20
154.5453927297
 10
267.9721680634
 20
154.5158416799
  0
LWPOLYLINE
  5
3A3
100
AcDbEntity
  8
RACCORDO
100
AcDbPolyline
 62
250
  6
CONTINUOUS
 90
5
 70
0
 10
318.0305198274
 20
125.6324672826
 10
318.0674778402
 20
125.609894025
 10
318.1041435803
 20
125.5850371319
 10
318.1405170476
 20
125.5578966034
 10
318.1767495276
 20
125.5283455536
  0
LWPOLYLINE
  5
3A4
100
AcDbEntity
  8
0
100
AcDbPolyline
 62
250
  6
CONTINUOUS
 90
5
 70
0
 10
318.0305198274
 20
125.6324672826
 10
318.0674778402
 20
125.609894025
 10
318.1041435803
 20
125.5850371319
 10
318.1405170476
 20
125.5578966034
 10
318.1767495276
 20
125.5283455536
  0
LWPOLYLINE
  5
3A5
100
AcDbEntity
  8
RACCORDO
100
AcDbPolyline
 62
250
  6
CONTINUOUS
 90
12
 70
0
 10
318.6669159305
 20
124.5301968994
 10
318.6516564479
 20
124.5396925046
 10
318.6376686309
 20
124.5498199776
 10
318.6250307051
 20
124.5605226815
 10
318.6138133468
 20
124.5717407625
 10
318.6040792881
 20
124.5834114845
 10
318.5958829657
 20
124.5954695801
 10
318.5892702169
 20
124.6078476156
 10
318.5842780229
 20
124.6204763679
 10
318.5809343019
 20
124.6332852119
 10
318.5792577534
 20
124.6462025154
 10
318.5790479648
 20
124.6526792774
  0
LWPOLYLINE
  5
3A6
100
AcDbEntity
  8
0
100
AcDbPolyline
 62
250
  6
CONTINUOUS
 90
12
 70
0
 10
318.6669159305
 20
124.5301968994
 10
318.6516564479
 20
124.5396925046
 10
318.6376686309
 20
124.5498199776
 10
318.6250307051
 20
124.5605226815
 10
318.6138133468
 20
124.5717407625
 10
318.6040792881
 20
124.5834114845
 10
318.5958829657
 20
124.5954695801
 10
318.5892702169
 20
124.6078476156
 10
318.5842780229
 20
124.6204763679
 10
318.5809343019
 20
124.6332852119
 10
318.5792577534
 20
124.6462025154
 10
318.5790479648
 20
124.6526792774
  0
LWPOLYLINE
  5
3A7
100
AcDbEntity
  8
RACCORDO
100
AcDbPolyline
 62
250
  6
CONTINUOUS
 90
24
 70
0
 10
267.9721680634
 20
154.5158416799
 10
268.0081082707
 20
154.4840069945
 10
268.0433023492
 20
154.4502693313
 10
268.0777075864
 20
154.4146338193
 10
268.1113666949
 20
154.3770953294
 10
268.1439539562
 20
154.3380191316
 10
268.1754651957
 20
154.2973828548
 10
268.205904588
 20
154.2552088702
 10
268.2349589383
 20
154.2119295614
 10
268.2626120729
 20
154.1675362968
 10
268.2888801655
 20
154.1220377081
 10
268.313498543
 20
154.0758920745
 10
268.3364517941
 20
154.029089156
 10
268.35775533
 20
153.9816391927
 10
268.3771907108
 20
153.9340311844
 10
268.3947361363
 20
153.8862732523
 10
268.4104134067
 20
153.8383572753
 10
268.4240694821
 20
153.7907478896
 10
268.4356874341
 20
153.7434061314
 10
268.4452841913
 20
153.6963709646
 10
268.4527574985
 20
153.6502239177
 10
268.4580732709
 20
153.6051588337
 10
268.4612655935
 20
153.5609818697
 10
268.4623344662
 20
153.5176930257
  0
LWPOLYLINE
  5
3A8
100
AcDbEntity
  8
0
100
AcDbPolyline
 62
250
  6
CONTINUOUS
 90
24
 70
0
 10
267.9721680634
 20
154.5158416799
 10
268.0081082707
 20
154.4840069945
 10
268.0433023492
 20
154.4502693313
 10
268.0777075864
 20
154.4146338193
 10
268.1113666949
 20
154.3770953294
 10
268.1439539562
 20
154.3380191316
 10
268.1754651957
 20
154.2973828548
 10
268.205904588
 20
154.2552088702
 10
268.2349589383
 20
154.2119295614
 10
268.2626120729
 20
154.1675362968
 10
268.2888801655
 20
154.1220377081
 10
268.313498543
 20
154.0758920745
 10
268.3364517941
 20
154.029089156
 10
268.35775533
 20
153.9816391927
 10
268.3771907108
 20
153.9340311844
 10
268.3947361363
 20
153.8862732523
 10
268.4104134067
 20
153.8383572753
 10
268.4240694821
 20
153.7907478896
 10
268.4356874341
 20
153.7434061314
 10
268.4452841913
 20
153.6963709646
 10
268.4527574985
 20
153.6502239177
 10
268.4580732709
 20
153.6051588337
 10
268.4612655935
 20
153.5609818697
 10
268.4623344662
 20
153.5176930257
  0
LWPOLYLINE
  5
3A9
100
AcDbEntity
  8
RACCORDO
100
AcDbPolyline
 62
7
  6
CONTINUOUS
 90
12
 70
0
 10
333.8166787174
 20
58.854523688
 10
333.8467166278
 20
58.8049513829
 10
333.8782454957
 20
58.7583424459
 10
333.9109417664
 20
58.7146985104
 10
333.9444846794
 20
58.6739054646
 10
333.9785968397
 20
58.6360281127
 10
334.0130504516
 20
58.601317908
 10
334.0475977073
 20
58.569783957
 10
334.0820140478
 20
58.5413015599
 10
334.1161427818
 20
58.5159171495
 10
334.1497908631
 20
58.4936060582
 10
334.1702190614
 20
58.4813281928
  0
LWPOLYLINE
  5
3AA
100
AcDbEntity
  8
0
100
AcDbPolyline
 62
7
  6
CONTINUOUS
 90
12
 70
0
 10
333.8166787174
 20
58.854523688
 10
333.8467166278
 20
58.8049513829
 10
333.8782454957
 20
58.7583424459
 10
333.9109417664
 20
58.7146985104
 10
333.9444846794
 20
58.6739054646
 10
333.9785968397
 20
58.6360281127
 10
334.0130504516
 20
58.601317908
 10
334.0475977073
 20
58.569783957
 10
334.0820140478
 20
58.5413015599
 10
334.1161427818
 20
58.5159171495
 10
334.1497908631
 20
58.4936060582
 10
334.1702190614
 20
58.4813281928
  0
LWPOLYLINE
  5
3AB
100
AcDbEntity
  8
RACCORDO
100
AcDbPolyline
 62
250
  6
CONTINUOUS
 90
7
 70
0
 10
287.1406129405
 20
100.6675589124
 10
287.1348477535
 20
100.690548263
 10
287.1281552524
 20
100.7227027864
 10
287.1229157702
 20
100.7546060123
 10
287.1191767202
 20
100.7860991786
 10
287.1169712184
 20
100.8170965801
 10
287.1163339297
 20
100.8474734767
  0
LWPOLYLINE
  5
3AC
100
AcDbEntity
  8
RACCORDO
100
AcDbPolyline
 62
7
  6
CONTINUOUS
 90
6
 70
0
 10
287.2061648692
 20
100.8383246352
 10
287.2038470264
 20
100.8507457539
 10
287.2013572977
 20
100.8622619595
 10
287.1985988775
 20
100.8728504329
 10
287.1956105106
 20
100.8825506098
 10
287.1923645003
 20
100.8913724298
  0
LWPOLYLINE
  5
3AD
100
AcDbEntity
  8
RACCORDO
100
AcDbPolyline
 62
250
  6
CONTINUOUS
 90
28
 70
0
 10
288.6522199447
 20
101.4232101262
 10
288.6545928236
 20
101.3942023859
 10
288.6583560336
 20
101.3644256537
 10
288.6635214603
 20
101.3339881797
 10
288.6701247421
 20
101.3029703136
 10
288.6781423073
 20
101.2715145566
 10
288.6874732362
 20
101.2398290871
 10
288.6980767092
 20
101.2080652618
 10
288.7099360714
 20
101.1763049486
 10
288.722961934
 20
101.1446532767
 10
288.7370899088
 20
101.1132707464
 10
288.7522969887
 20
101.0822149134
 10
288.7685662901
 20
101.0514369649
 10
288.7858968246
 20
101.0209885586
 10
288.8042217766
 20
100.991036864
 10
288.82343236
 20
100.9617072496
 10
288.8434722872
 20
100.9331012208
 10
288.8642915348
 20
100.905318617
 10
288.8857774719
 20
100.8784726526
 10
288.9078133496
 20
100.8527097958
 10
288.930379356
 20
100.8280517118
 10
288.9535156324
 20
100.8044364246
 10
288.9772206781
 20
100.7819107594
 10
289.0013755993
 20
100.7606315143
 10
289.025849564
 20
100.7407129225
 10
289.0505461726
 20
100.7222447255
 10
289.0754069408
 20
100.7052993279
 10
289.1003498889
 20
100.6899516796
  0
LWPOLYLINE
  5
3AE
100
AcDbEntity
  8
RACCORDO
100
AcDbPolyline
 62
250
  6
CONTINUOUS
 90
12
 70
0
 10
286.6703340818
 20
143.7394454966
 10
286.670927246
 20
143.7214835121
 10
286.6727034213
 20
143.7043069495
 10
286.6756526748
 20
143.688011867
 10
286.6797585129
 20
143.6726893934
 10
286.6849979741
 20
143.6584252181
 10
286.6913417573
 20
143.6452991122
 10
286.6987543854
 20
143.6333844823
 10
286.7071944041
 20
143.6227479596
 10
286.7166146132
 20
143.6134490281
 10
286.7269623313
 20
143.6055396911
 10
286.7324588681
 20
143.6021244383
  0
LWPOLYLINE
  5
3AF
100
AcDbEntity
  8
0
100
AcDbPolyline
 62
250
  6
CONTINUOUS
 90
12
 70
0
 10
286.6703340818
 20
143.7394454966
 10
286.670927246
 20
143.7214835121
 10
286.6727034213
 20
143.7043069495
 10
286.6756526748
 20
143.688011867
 10
286.6797585129
 20
143.6726893934
 10
286.6849979741
 20
143.6584252181
 10
286.6913417573
 20
143.6452991122
 10
286.6987543854
 20
143.6333844823
 10
286.7071944041
 20
143.6227479596
 10
286.7166146132
 20
143.6134490281
 10
286.7269623313
 20
143.6055396911
 10
286.7324588681
 20
143.6021244383
  0
LWPOLYLINE
  5
3B0
100
AcDbEntity
  8
RACCORDO
100
AcDbPolyline
 62
7
  6
CONTINUOUS
 90
25
 70
0
 10
287.0945981505
 20
100.9156504977
 10
287.0955387501
 20
100.8828422341
 10
287.0982561218
 20
100.8494161679
 10
287.1027502656
 20
100.8153722991
 10
287.1090555447
 20
100.7805599866
 10
287.1171375958
 20
100.7451298715
 10
287.1268933297
 20
100.7095338772
 10
287.1383441859
 20
100.673769879
 10
287.1514687249
 20
100.6378400016
 10
287.1660995385
 20
100.6022025433
 10
287.1822559218
 20
100.5668612497
 10
287.1999185799
 20
100.5318123752
 10
287.2188622192
 20
100.4975029802
 10
287.239103249
 20
100.4639425375
 10
287.2606252601
 20
100.4311215743
 10
287.2831537317
 20
100.3994587336
 10
287.3067015564
 20
100.3689688506
 10
287.3312558418
 20
100.3396370901
 10
287.3565033892
 20
100.3118375888
 10
287.3824530792
 20
100.2855899747
 10
287.4090960313
 20
100.2608746199
 10
287.4360924054
 20
100.2380067772
 10
287.4633289214
 20
100.2170915312
 10
287.4909188593
 20
100.1980237973
 10
287.5188622192
 20
100.1808035757
  0
LWPOLYLINE
  5
3B1
100
AcDbEntity
  8
0
100
AcDbPolyline
 62
7
  6
CONTINUOUS
 90
25
 70
0
 10
287.0945981505
 20
100.9156504977
 10
287.0955387501
 20
100.8828422341
 10
287.0982561218
 20
100.8494161679
 10
287.1027502656
 20
100.8153722991
 10
287.1090555447
 20
100.7805599866
 10
287.1171375958
 20
100.7451298715
 10
287.1268933297
 20
100.7095338772
 10
287.1383441859
 20
100.673769879
 10
287.1514687249
 20
100.6378400016
 10
287.1660995385
 20
100.6022025433
 10
287.1822559218
 20
100.5668612497
 10
287.1999185799
 20
100.5318123752
 10
287.2188622192
 20
100.4975029802
 10
287.239103249
 20
100.4639425375
 10
287.2606252601
 20
100.4311215743
 10
287.2831537317
 20
100.3994587336
 10
287.3067015564
 20
100.3689688506
 10
287.3312558418
 20
100.3396370901
 10
287.3565033892
 20
100.3118375888
 10
287.3824530792
 20
100.2855899747
 10
287.4090960313
 20
100.2608746199
 10
287.4360924054
 20
100.2380067772
 10
287.4633289214
 20
100.2170915312
 10
287.4909188593
 20
100.1980237973
 10
287.5188622192
 20
100.1808035757
  0
LINE
  5
3B2
100
AcDbEntity
  8
RACCORDO
100
AcDbLine
 62
250
  6
CONTINUOUS
 10
286.0339379787
 20
100.5482033637
 11
286.0339379787
 21
143.3720693815
  0
LINE
  5
3B3
100
AcDbEntity
  8
0
100
AcDbLine
 62
250
  6
CONTINUOUS
 10
286.0339379787
 20
100.5482033637
 11
286.0339379787
 21
143.3720693815
  0
LINE
  5
3B4
100
AcDbEntity
  8
RACCORDO
100
AcDbLine
 62
250
  6
CONTINUOUS
 10
286.4582020474
 20
100.5482033637
 11
286.4582020474
 21
143.3720693815
  0
LINE
  5
3B5
100
AcDbEntity
  8
0
100
AcDbLine
 62
250
  6
CONTINUOUS
 10
286.4582020474
 20
100.5482033637
 11
286.4582020474
 21
143.3720693815
  0
LINE
  5
3B6
100
AcDbEntity
  8
RACCORDO
100
AcDbLine
 62
7
  6
CONTINUOUS
 10
287.0945981505
 20
143.3930297553
 11
287.0945981505
 21
100.9156504977
  0
LINE
  5
3B7
100
AcDbEntity
  8
0
100
AcDbLine
 62
7
  6
CONTINUOUS
 10
287.0945981505
 20
143.3930297553
 11
287.0945981505
 21
100.9156504977
  0
LINE
  5
3B8
100
AcDbEntity
  8
RACCORDO
100
AcDbLine
 62
250
  6
CONTINUOUS
 10
287.1163339297
 20
100.8474734767
 11
287.1163339297
 21
107.1720688935
  0
LINE
  5
3B9
100
AcDbEntity
  8
RACCORDO
100
AcDbLine
 62
250
  6
CONTINUOUS
 10
287.1163339297
 20
107.8961054315
 11
287.1163339297
 21
137.0548810241
  0
LINE
  5
3BA
100
AcDbEntity
  8
RACCORDO
100
AcDbLine
 62
250
  6
CONTINUOUS
 10
287.1163339297
 20
137.7789175621
 11
287.1163339297
 21
143.3804797888
  0
LINE
  5
3BB
100
AcDbEntity
  8
RACCORDO
100
AcDbLine
 62
7
  6
CONTINUOUS
 10
287.1907900919
 20
100.8988345651
 11
287.1907900919
 21
107.2149340587
  0
LINE
  5
3BC
100
AcDbEntity
  8
DRAFT
100
AcDbLine
 62
7
  6
CONTINUOUS
 10
287.1907900919
 20
107.9362702932
 11
287.1907900919
 21
137.0977461893
  0
LINE
  5
3BD
100
AcDbEntity
  8
RACCORDO
100
AcDbLine
 62
7
  6
CONTINUOUS
 10
287.1907900919
 20
137.8190824238
 11
287.1907900919
 21
143.3374897339
  0
LWPOLYLINE
  5
3BE
100
AcDbEntity
  8
RACCORDO
100
AcDbPolyline
 62
250
  6
CONTINUOUS
 90
28
 70
0
 10
286.0339379787
 20
143.3720693815
 10
286.0350068307
 20
143.4141263022
 10
286.0381995832
 20
143.4546194328
 10
286.0435162362
 20
143.4935487732
 10
286.0509910297
 20
143.5310692375
 10
286.0605897237
 20
143.5670259116
 10
286.0722095984
 20
143.6009540538
 10
286.0858675702
 20
143.6327945782
 10
286.1015467226
 20
143.6626065706
 10
286.1190935874
 20
143.6901025467
 10
286.1385296268
 20
143.7152652942
 10
286.1598333784
 20
143.7381120253
 10
286.1827869875
 20
143.7584068923
 10
286.2074060175
 20
143.7761222336
 10
286.2336749049
 20
143.7912857108
 10
286.261329105
 20
143.8037444601
 10
286.2903851925
 20
143.813471117
 10
286.3208265925
 20
143.820493046
 10
286.3523390359
 20
143.8247394778
 10
286.3849263901
 20
143.8261830075
 10
286.4185847876
 20
143.8248510399
 10
286.4529883558
 20
143.8207550205
 10
286.4881793045
 20
143.8138510311
 10
286.5241154238
 20
143.8041829898
 10
286.5603442115
 20
143.7918940957
 10
286.5967148333
 20
143.7770320821
 10
286.6333781234
 20
143.7595492157
 10
286.6703340818
 20
143.7394454966
  0
LWPOLYLINE
  5
3BF
100
AcDbEntity
  8
0
100
AcDbPolyline
 62
250
  6
CONTINUOUS
 90
28
 70
0
 10
286.0339379787
 20
143.3720693815
 10
286.0350068307
 20
143.4141263022
 10
286.0381995832
 20
143.4546194328
 10
286.0435162362
 20
143.4935487732
 10
286.0509910297
 20
143.5310692375
 10
286.0605897237
 20
143.5670259116
 10
286.0722095984
 20
143.6009540538
 10
286.0858675702
 20
143.6327945782
 10
286.1015467226
 20
143.6626065706
 10
286.1190935874
 20
143.6901025467
 10
286.1385296268
 20
143.7152652942
 10
286.1598333784
 20
143.7381120253
 10
286.1827869875
 20
143.7584068923
 10
286.2074060175
 20
143.7761222336
 10
286.2336749049
 20
143.7912857108
 10
286.261329105
 20
143.8037444601
 10
286.2903851925
 20
143.813471117
 10
286.3208265925
 20
143.820493046
 10
286.3523390359
 20
143.8247394778
 10
286.3849263901
 20
143.8261830075
 10
286.4185847876
 20
143.8248510399
 10
286.4529883558
 20
143.8207550205
 10
286.4881793045
 20
143.8138510311
 10
286.5241154238
 20
143.8041829898
 10
286.5603442115
 20
143.7918940957
 10
286.5967148333
 20
143.7770320821
 10
286.6333781234
 20
143.7595492157
 10
286.6703340818
 20
143.7394454966
  0
LWPOLYLINE
  5
3C0
100
AcDbEntity
  8
RACCORDO
100
AcDbPolyline
 62
250
  6
CONTINUOUS
 90
13
 70
0
 10
286.4582020474
 20
143.3720693815
 10
286.4591104298
 20
143.4035847273
 10
286.461831688
 20
143.4339161497
 10
286.4663541706
 20
143.4629337638
 10
286.4726585129
 20
143.4905133111
 10
286.4807177201
 20
143.5165366897
 10
286.490497282
 20
143.5408924608
 10
286.501955329
 20
143.5634763405
 10
286.5150427916
 20
143.584191605
 10
286.5297036003
 20
143.6029495151
 10
286.5458749506
 20
143.61966974
 10
286.5634876015
 20
143.6342807113
 10
286.5824516201
 20
143.6467114982
  0
LWPOLYLINE
  5
3C1
100
AcDbEntity
  8
0
100
AcDbPolyline
 62
250
  6
CONTINUOUS
 90
13
 70
0
 10
286.4582020474
 20
143.3720693815
 10
286.4591104298
 20
143.4035847273
 10
286.461831688
 20
143.4339161497
 10
286.4663541706
 20
143.4629337638
 10
286.4726585129
 20
143.4905133111
 10
286.4807177201
 20
143.5165366897
 10
286.490497282
 20
143.5408924608
 10
286.501955329
 20
143.5634763405
 10
286.5150427916
 20
143.584191605
 10
286.5297036003
 20
143.6029495151
 10
286.5458749506
 20
143.61966974
 10
286.5634876015
 20
143.6342807113
 10
286.5824516201
 20
143.6467114982
  0
LWPOLYLINE
  5
3C2
100
AcDbEntity
  8
RACCORDO
100
AcDbPolyline
 62
7
  6
CONTINUOUS
 90
7
 70
0
 10
288.6830060205
 20
132.3959260295
 10
288.6907258531
 20
132.4048138596
 10
288.6971509533
 20
132.4141188054
 10
288.7021395048
 20
132.4236326546
 10
288.7056588544
 20
132.4333579609
 10
288.7077416553
 20
132.4432921705
 10
288.7083519838
 20
132.4521804573
  0
LWPOLYLINE
  5
3C3
100
AcDbEntity
  8
RACCORDO
100
AcDbPolyline
 62
250
  6
CONTINUOUS
 90
25
 70
0
 10
287.1714935847
 20
137.0926120535
 10
287.1865754067
 20
137.1084932715
 10
287.2003223492
 20
137.1261750491
 10
287.2126793044
 20
137.1455878294
 10
287.223598828
 20
137.166657143
 10
287.2330401402
 20
137.1893043786
 10
287.2409671529
 20
137.2134432373
 10
287.2473498064
 20
137.2389821665
 10
287.2521639933
 20
137.265824685
 10
287.2553914617
 20
137.2938690098
 10
287.2570200308
 20
137.3230095889
 10
287.2570434715
 20
137.3531355399
 10
287.255461877
 20
137.3841306661
 10
287.2522818558
 20
137.4158752688
 10
287.2475157317
 20
137.4482512014
 10
287.2411808918
 20
137.4811404503
 10
287.2333037986
 20
137.5144078234
 10
287.2239121346
 20
137.5479381745
 10
287.213028226
 20
137.5816421928
 10
287.2006813257
 20
137.6154100567
 10
287.1869187262
 20
137.6490954173
 10
287.1717953965
 20
137.6825537083
 10
287.1553689153
 20
137.7156514197
 10
287.1376971519
 20
137.7482663044
 10
287.1188452076
 20
137.7802723104
  0
LWPOLYLINE
  5
3C4
100
AcDbEntity
  8
RACCORDO
100
AcDbPolyline
 62
7
  6
CONTINUOUS
 90
4
 70
0
 10
288.6522199447
 20
132.3719734466
 10
288.6637767023
 20
132.3795405251
 10
288.6740387276
 20
132.3875247194
 10
288.6830060205
 20
132.3959260295
  0
LINE
  5
3C5
100
AcDbEntity
  8
RACCORDO
100
AcDbLine
 62
7
  6
CONTINUOUS
 10
288.5827435261
 20
132.3304333413
 11
288.6522199447
 21
132.3719734466
  0
LINE
  5
3C6
100
AcDbEntity
  8
RACCORDO
100
AcDbLine
 62
7
  6
CONTINUOUS
 10
262.2672956488
 20
116.491339801
 11
261.8614032763
 21
116.3523344264
  0
LINE
  5
3C7
100
AcDbEntity
  8
RACCORDO
100
AcDbLine
 62
7
  6
CONTINUOUS
 10
263.6998809074
 20
115.3558641269
 11
264.0350626018
 21
115.4706533177
  0
LWPOLYLINE
  5
3C8
100
AcDbEntity
  8
RACCORDO
100
AcDbPolyline
 62
7
  6
CONTINUOUS
 90
8
 70
0
 10
197.2318434758
 20
153.6686322565
 10
197.2445289248
 20
153.6722342998
 10
197.2566784332
 20
153.6743227828
 10
197.2682920009
 20
153.6748977057
 10
197.2794570263
 20
153.6739387378
 10
197.2900861111
 20
153.6714662097
 10
197.2999170607
 20
153.667541113
 10
197.3036826904
 20
153.6655223881
  0
LWPOLYLINE
  5
3C9
100
AcDbEntity
  8
RACCORDO
100
AcDbPolyline
 62
7
  6
CONTINUOUS
 90
8
 70
0
 10
190.9385931233
 20
157.3673197803
 10
190.9512785722
 20
157.3709218235
 10
190.9634280806
 20
157.3730103066
 10
190.9750416484
 20
157.3735852294
 10
190.9862066737
 20
157.3726262616
 10
190.9968357585
 20
157.3701537335
 10
191.0066667081
 20
157.3662286367
 10
191.0104323379
 20
157.3642099119
  0
LWPOLYLINE
  5
3CA
100
AcDbEntity
  8
RACCORDO
100
AcDbPolyline
 62
250
  6
CONTINUOUS
 90
9
 70
0
 10
338.0330276864
 20
132.8457278365
 10
338.0292209134
 20
132.8477553674
 10
338.0180456625
 20
132.8520730758
 10
338.0059707758
 20
132.8544879093
 10
337.9931241758
 20
132.8549742707
 10
337.9796419725
 20
132.8535269959
 10
337.9656670057
 20
132.850161411
 10
337.9513473291
 20
132.8449131645
 10
337.9368346535
 20
132.8378378514
  0
LINE
  5
3CB
100
AcDbEntity
  8
RACCORDO
100
AcDbLine
 62
250
  6
CONTINUOUS
 10
333.8166787174
 20
129.887437769
 11
170.4750122633
 21
224.1988688277
  0
LINE
  5
3CC
100
AcDbEntity
  8
0
100
AcDbLine
 62
250
  6
CONTINUOUS
 10
333.8166787174
 20
129.887437769
 11
170.4750122633
 21
224.1988688277
  0
LINE
  5
3CD
100
AcDbEntity
  8
RACCORDO
100
AcDbLine
 62
250
  6
CONTINUOUS
 10
334.5237854986
 20
130.2956729074
 11
170.4750122633
 21
225.0153785594
  0
LINE
  5
3CE
100
AcDbEntity
  8
0
100
AcDbLine
 62
250
  6
CONTINUOUS
 10
334.5237854986
 20
130.2956729074
 11
170.4750122633
 21
225.0153785594
  0
LINE
  5
3CF
100
AcDbEntity
  8
SUPERFICI
100
AcDbLine
 62
7
  6
CONTINUOUS
 10
337.6350553358
 20
132.092081118
 11
173.5862821005
 21
226.8117867701
  0
LINE
  5
3D0
100
AcDbEntity
  8
0
100
AcDbLine
 62
7
  6
CONTINUOUS
 10
337.6350553358
 20
132.092081118
 11
173.5862821005
 21
226.8117867701
  0
LWPOLYLINE
  5
3D1
100
AcDbEntity
  8
RACCORDO
100
AcDbPolyline
 62
250
  6
CONTINUOUS
 90
24
 70
0
 10
318.1767495276
 20
125.5283455536
 10
318.2126897349
 20
125.4965108683
 10
318.2478838134
 20
125.462773205
 10
318.2822890507
 20
125.427137693
 10
318.3159481592
 20
125.3895992031
 10
318.3485354204
 20
125.3505230053
 10
318.3800466599
 20
125.3098867285
 10
318.4104860522
 20
125.2677127439
 10
318.4395404026
 20
125.2244334352
 10
318.4671935371
 20
125.1800401705
 10
318.4934616298
 20
125.1345415818
 10
318.5180800072
 20
125.0883959483
 10
318.5410332584
 20
125.0415930297
 10
318.5623367943
 20
124.9941430664
 10
318.581772175
 20
124.9465350581
 10
318.5993176006
 20
124.898777126
 10
318.6149948709
 20
124.850861149
 10
318.6286509463
 20
124.8032517634
 10
318.6402688984
 20
124.7559100051
 10
318.6498656555
 20
124.7088748383
 10
318.6573389627
 20
124.6627277915
 10
318.6626547352
 20
124.6176627075
 10
318.6658470578
 20
124.5734857435
 10
318.6669159305
 20
124.5301968994
  0
LWPOLYLINE
  5
3D2
100
AcDbEntity
  8
0
100
AcDbPolyline
 62
250
  6
CONTINUOUS
 90
24
 70
0
 10
318.1767495276
 20
125.5283455536
 10
318.2126897349
 20
125.4965108683
 10
318.2478838134
 20
125.462773205
 10
318.2822890507
 20
125.427137693
 10
318.3159481592
 20
125.3895992031
 10
318.3485354204
 20
125.3505230053
 10
318.3800466599
 20
125.3098867285
 10
318.4104860522
 20
125.2677127439
 10
318.4395404026
 20
125.2244334352
 10
318.4671935371
 20
125.1800401705
 10
318.4934616298
 20
125.1345415818
 10
318.5180800072
 20
125.0883959483
 10
318.5410332584
 20
125.0415930297
 10
318.5623367943
 20
124.9941430664
 10
318.581772175
 20
124.9465350581
 10
318.5993176006
 20
124.898777126
 10
318.6149948709
 20
124.850861149
 10
318.6286509463
 20
124.8032517634
 10
318.6402688984
 20
124.7559100051
 10
318.6498656555
 20
124.7088748383
 10
318.6573389627
 20
124.6627277915
 10
318.6626547352
 20
124.6176627075
 10
318.6658470578
 20
124.5734857435
 10
318.6669159305
 20
124.5301968994
  0
LWPOLYLINE
  5
3D3
100
AcDbEntity
  8
RACCORDO
100
AcDbPolyline
 62
250
  6
CONTINUOUS
 90
27
 70
0
 10
288.649795141
 20
138.716799123
 10
288.6716276964
 20
138.6830996571
 10
288.6921896981
 20
138.6484864017
 10
288.7113878093
 20
138.6131147905
 10
288.7291357114
 20
138.577141778
 10
288.7453514573
 20
138.5407312082
 10
288.7599587299
 20
138.504053284
 10
288.7728909473
 20
138.4672753326
 10
288.7840905327
 20
138.4305612603
 10
288.7935068134
 20
138.3940770163
 10
288.8010973115
 20
138.3579870863
 10
288.8068277645
 20
138.3224542543
 10
288.8106722673
 20
138.2876392314
 10
288.812613556
 20
138.2536983378
 10
288.8126428372
 20
138.2207852807
 10
288.8107602363
 20
138.1890506791
 10
288.8069755101
 20
138.1586423579
 10
288.8013060171
 20
138.1296915082
 10
288.7937740542
 20
138.102316569
 10
288.7844146685
 20
138.0766501214
 10
288.7732661609
 20
138.0528013854
 10
288.7603586514
 20
138.0308521246
 10
288.7457217766
 20
138.0108871467
 10
288.7294295813
 20
137.9930379505
 10
288.7115964681
 20
137.9774344667
 10
288.6923250975
 20
137.9641522063
 10
288.6886180561
 20
137.9619582414
  0
LWPOLYLINE
  5
3D4
100
AcDbEntity
  8
RACCORDO
100
AcDbPolyline
 62
250
  6
CONTINUOUS
 90
6
 70
0
 10
318.5958829657
 20
81.7716035624
 10
318.5892702169
 20
81.7839815978
 10
318.5842780229
 20
81.7966103501
 10
318.5809343019
 20
81.8094191941
 10
318.5792577534
 20
81.8223364976
 10
318.5790479648
 20
81.8288132597
  0
LWPOLYLINE
  5
3D5
100
AcDbEntity
  8
0
100
AcDbPolyline
 62
250
  6
CONTINUOUS
 90
6
 70
0
 10
318.5958829657
 20
81.7716035624
 10
318.5892702169
 20
81.7839815978
 10
318.5842780229
 20
81.7966103501
 10
318.5809343019
 20
81.8094191941
 10
318.5792577534
 20
81.8223364976
 10
318.5790479648
 20
81.8288132597
  0
LINE
  5
3D6
100
AcDbEntity
  8
DRAFT
100
AcDbLine
 62
250
  6
CONTINUOUS
 10
288.5827435261
 20
114.3702509555
 11
288.5827435261
 21
132.3304333413
  0
LINE
  5
3D7
100
AcDbEntity
  8
RACCORDO
100
AcDbLine
 62
7
  6
CONTINUOUS
 10
288.638875566
 20
114.4445663843
 11
288.638875566
 21
132.3639948129
  0
LINE
  5
3D8
100
AcDbEntity
  8
RACCORDO
100
AcDbLine
 62
250
  6
CONTINUOUS
 10
288.6522199447
 20
142.4936784529
 11
288.6522199447
 21
138.7182888137
  0
LINE
  5
3D9
100
AcDbEntity
  8
RACCORDO
100
AcDbLine
 62
250
  6
CONTINUOUS
 10
288.6522199447
 20
137.9409424281
 11
288.6522199447
 21
132.3719734466
  0
LINE
  5
3DA
100
AcDbEntity
  8
DRAFT
100
AcDbLine
 62
250
  6
CONTINUOUS
 10
288.6522199447
 20
111.1458614858
 11
288.6522199447
 21
108.8354766831
  0
LINE
  5
3DB
100
AcDbEntity
  8
RACCORDO
100
AcDbLine
 62
250
  6
CONTINUOUS
 10
288.6522199447
 20
108.0581302974
 11
288.6522199447
 21
101.4232101262
  0
LINE
  5
3DC
100
AcDbEntity
  8
RACCORDO
100
AcDbLine
 62
7
  6
CONTINUOUS
 10
288.7083519846
 20
142.4612685166
 11
288.7083519846
 21
138.7744048718
  0
LINE
  5
3DD
100
AcDbEntity
  8
RACCORDO
100
AcDbLine
 62
7
  6
CONTINUOUS
 10
288.7083519846
 20
137.9744933939
 11
288.7083519846
 21
132.452190854
  0
LINE
  5
3DE
100
AcDbEntity
  8
RACCORDO
100
AcDbLine
 62
7
  6
CONTINUOUS
 10
288.7083519846
 20
111.1828800382
 11
288.7083519846
 21
108.8915927412
  0
LINE
  5
3DF
100
AcDbEntity
  8
RACCORDO
100
AcDbLine
 62
7
  6
CONTINUOUS
 10
288.7083519846
 20
108.0916812633
 11
288.7083519846
 21
101.5034275337
  0
LINE
  5
3E0
100
AcDbEntity
  8
DRAFT
100
AcDbLine
 62
7
  6
CONTINUOUS
 10
290.0393232561
 20
115.1514348449
 11
290.0393232561
 21
112.0606430744
  0
LWPOLYLINE
  5
3E1
100
AcDbEntity
  8
RACCORDO
100
AcDbPolyline
 62
250
  6
CONTINUOUS
 90
22
 70
0
 10
286.6703340818
 20
99.4459329806
 10
286.670927246
 20
99.4645799363
 10
286.6727034213
 20
99.4838075817
 10
286.6756526748
 20
99.5035083881
 10
286.6797585129
 20
99.5235721807
 10
286.6849979741
 20
99.5438867545
 10
286.6913417573
 20
99.5643385022
 10
286.6987543854
 20
99.5848130493
 10
286.7071944041
 20
99.6051958939
 10
286.7166146133
 20
99.6253730468
 10
286.7269623313
 20
99.6452316692
 10
286.7381796896
 20
99.6646607037
 10
286.7502039561
 20
99.6835514951
 10
286.7629678862
 20
99.7017983986
 10
286.776400099
 20
99.71929937
 10
286.7904254759
 20
99.7359565368
 10
286.8049655814
 20
99.7516767454
 10
286.8199391014
 20
99.7663720819
 10
286.8352622977
 20
99.7799603642
 10
286.850849477
 20
99.792365601
 10
286.8666134694
 20
99.8035184171
 10
286.8824661161
 20
99.8133564417
  0
LWPOLYLINE
  5
3E2
100
AcDbEntity
  8
0
100
AcDbPolyline
 62
250
  6
CONTINUOUS
 90
22
 70
0
 10
286.6703340818
 20
99.4459329806
 10
286.670927246
 20
99.4645799363
 10
286.6727034213
 20
99.4838075817
 10
286.6756526748
 20
99.5035083881
 10
286.6797585129
 20
99.5235721807
 10
286.6849979741
 20
99.5438867545
 10
286.6913417573
 20
99.5643385022
 10
286.6987543854
 20
99.5848130493
 10
286.7071944041
 20
99.6051958939
 10
286.7166146133
 20
99.6253730468
 10
286.7269623313
 20
99.6452316692
 10
286.7381796896
 20
99.6646607037
 10
286.7502039561
 20
99.6835514951
 10
286.7629678862
 20
99.7017983986
 10
286.776400099
 20
99.71929937
 10
286.7904254759
 20
99.7359565368
 10
286.8049655814
 20
99.7516767454
 10
286.8199391014
 20
99.7663720819
 10
286.8352622977
 20
99.7799603642
 10
286.850849477
 20
99.792365601
 10
286.8666134694
 20
99.8035184171
 10
286.8824661161
 20
99.8133564417
  0
LWPOLYLINE
  5
3E3
100
AcDbEntity
  8
RACCORDO
100
AcDbPolyline
 62
250
  6
CONTINUOUS
 90
9
 70
0
 10
288.708351963
 20
101.5033738193
 10
288.7081666662
 20
101.4984575373
 10
288.7062064375
 20
101.4865581782
 10
288.7021263377
 20
101.4748395642
 10
288.6959700831
 20
101.463427252
 10
288.687803634
 20
101.4524435156
 10
288.6777144884
 20
101.4420060376
 10
288.6658107451
 20
101.4322266481
 10
288.6522199447
 20
101.4232101262
  0
LINE
  5
3E4
100
AcDbEntity
  8
RACCORDO
100
AcDbLine
 62
250
  6
CONTINUOUS
 10
268.0380703975
 20
110.6938743538
 11
268.3744665006
 21
110.8881052477
  0
LINE
  5
3E5
100
AcDbEntity
  8
0
100
AcDbLine
 62
250
  6
CONTINUOUS
 10
268.0380703975
 20
110.6938743538
 11
268.3744665006
 21
110.8881052477
  0
LWPOLYLINE
  5
3E6
100
AcDbEntity
  8
RACCORDO
100
AcDbPolyline
 62
250
  6
CONTINUOUS
 90
13
 70
0
 10
268.3380848936
 20
110.6641496472
 10
268.3178071894
 20
110.6539271431
 10
268.2963461586
 20
110.6459818217
 10
268.2737791277
 20
110.6403393058
 10
268.2502027038
 20
110.6370237655
 10
268.2257178615
 20
110.6360494154
 10
268.2004294708
 20
110.6374204356
 10
268.1744458235
 20
110.6411309577
 10
268.1478781815
 20
110.647165096
 10
268.1208403269
 20
110.655497009
 10
268.0934480458
 20
110.666091015
 10
268.0658186314
 20
110.6789017494
 10
268.0380703975
 20
110.6938743538
  0
LWPOLYLINE
  5
3E7
100
AcDbEntity
  8
0
100
AcDbPolyline
 62
250
  6
CONTINUOUS
 90
13
 70
0
 10
268.3380848936
 20
110.6641496472
 10
268.3178071894
 20
110.6539271431
 10
268.2963461586
 20
110.6459818217
 10
268.2737791277
 20
110.6403393058
 10
268.2502027038
 20
110.6370237655
 10
268.2257178615
 20
110.6360494154
 10
268.2004294708
 20
110.6374204356
 10
268.1744458235
 20
110.6411309577
 10
268.1478781815
 20
110.647165096
 10
268.1208403269
 20
110.655497009
 10
268.0934480458
 20
110.666091015
 10
268.0658186314
 20
110.6789017494
 10
268.0380703975
 20
110.6938743538
  0
LINE
  5
3E8
100
AcDbEntity
  8
RACCORDO
100
AcDbLine
 62
7
  6
CONTINUOUS
 10
289.2323626571
 20
115.575491885
 11
288.638875566
 21
115.3010740709
  0
LINE
  5
3E9
100
AcDbEntity
  8
RACCORDO
100
AcDbLine
 62
250
  6
CONTINUOUS
 10
289.3268983694
 20
115.5627800458
 11
288.638875566
 21
115.2446506095
  0
LINE
  5
3EA
100
AcDbEntity
  8
RACCORDO
100
AcDbLine
 62
7
  6
CONTINUOUS
 10
268.3744665006
 20
112.7289258993
 11
268.2960749851
 21
112.7020792702
  0
LWPOLYLINE
  5
3EB
100
AcDbEntity
  8
RACCORDO
100
AcDbPolyline
 62
250
  6
CONTINUOUS
 90
9
 70
0
 10
177.2065862128
 20
225.7048996538
 10
177.2026688915
 20
225.7069908125
 10
177.1914936233
 20
225.7113083785
 10
177.1794187638
 20
225.7137230797
 10
177.1665722384
 20
225.7142093339
 10
177.1530901479
 20
225.7127619895
 10
177.1391153266
 20
225.7093963802
 10
177.1247958287
 20
225.7041481626
 10
177.1102833603
 20
225.6970729381
  0
LWPOLYLINE
  5
3EC
100
AcDbEntity
  8
RACCORDO
100
AcDbPolyline
 62
7
  6
CONTINUOUS
 90
16
 70
0
 10
177.2065883887
 20
225.7048983974
 10
177.1810611577
 20
225.7188931026
 10
177.1482326947
 20
225.7347411927
 10
177.1154230036
 20
225.7482051868
 10
177.0826931413
 20
225.759285543
 10
177.0501196167
 20
225.7679826349
 10
177.0178129835
 20
225.774299651
 10
176.9858409784
 20
225.7782513063
 10
176.954296302
 20
225.77985075
 10
176.923362243
 20
225.7791292819
 10
176.8931407546
 20
225.7761378363
 10
176.8637476718
 20
225.77093527
 10
176.8354103228
 20
225.763628128
 10
176.8082712136
 20
225.7543498834
 10
176.7823831646
 20
225.7432198108
 10
176.7709566352
 20
225.7375352596
  0
LINE
  5
3ED
100
AcDbEntity
  8
RACCORDO
100
AcDbLine
 62
250
  6
CONTINUOUS
 10
177.1102833603
 20
225.6970729381
 11
337.9368346535
 21
132.8378378514
  0
LINE
  5
3EE
100
AcDbEntity
  8
RACCORDO
100
AcDbLine
 62
7
  6
CONTINUOUS
 10
177.2065862128
 20
225.7048996538
 11
338.0331375061
 21
132.8456645671
  0
LWPOLYLINE
  5
3EF
100
AcDbEntity
  8
RACCORDO
100
AcDbPolyline
 62
250
  6
CONTINUOUS
 90
4
 70
0
 10
337.9368346535
 20
132.8378378514
 10
337.9694381159
 20
132.8180488386
 10
338.0018337912
 20
132.7959308058
 10
338.0338825838
 20
132.7715887869
  0
LINE
  5
3F0
100
AcDbEntity
  8
DRAFT
100
AcDbLine
 62
7
  6
CONTINUOUS
 10
291.6335329402
 20
99.2656927377
 11
291.6829377461
 21
99.5071167185
  0
LWPOLYLINE
  5
3F1
100
AcDbEntity
  8
RACCORDO
100
AcDbPolyline
 62
250
  6
CONTINUOUS
 90
25
 70
0
 10
287.1714935847
 20
107.2097999228
 10
287.1865754067
 20
107.2256811409
 10
287.2003223492
 20
107.2433629185
 10
287.2126793044
 20
107.2627756988
 10
287.223598828
 20
107.2838450124
 10
287.2330401402
 20
107.306492248
 10
287.2409671529
 20
107.3306311067
 10
287.2473498064
 20
107.3561700359
 10
287.2521639933
 20
107.3830125544
 10
287.2553914617
 20
107.4110568792
 10
287.2570200308
 20
107.4401974583
 10
287.2570434715
 20
107.4703234093
 10
287.255461877
 20
107.5013185355
 10
287.2522818558
 20
107.5330631382
 10
287.2475157317
 20
107.5654390708
 10
287.2411808918
 20
107.5983283197
 10
287.2333037986
 20
107.6315956928
 10
287.2239121346
 20
107.6651260439
 10
287.213028226
 20
107.6988300622
 10
287.2006813257
 20
107.7325979261
 10
287.1869187262
 20
107.7662832867
 10
287.1717953965
 20
107.7997415777
 10
287.1553689153
 20
107.8328392891
 10
287.1376971519
 20
107.8654541738
 10
287.1188452076
 20
107.8974601798
  0
LWPOLYLINE
  5
3F2
100
AcDbEntity
  8
RACCORDO
100
AcDbPolyline
 62
7
  6
CONTINUOUS
 90
10
 70
0
 10
288.6624963436
 20
108.8417998463
 10
288.6720352757
 20
108.8481646901
 10
288.6807194601
 20
108.854551638
 10
288.6884584726
 20
108.8609728916
 10
288.6950954015
 20
108.8673569696
 10
288.7004581971
 20
108.8735358858
 10
288.7044623662
 20
108.879400383
 10
288.7070851574
 20
108.8849338641
 10
288.7082809908
 20
108.8900918252
 10
288.7083519846
 20
108.8915902284
  0
LINE
  5
3F3
100
AcDbEntity
  8
DRAFT
100
AcDbLine
 62
7
  6
CONTINUOUS
 10
288.6522199447
 20
111.1458614858
 11
290.0393232561
 21
112.0606430744
  0
LWPOLYLINE
  5
3F4
100
AcDbEntity
  8
RACCORDO
100
AcDbPolyline
 62
7
  6
CONTINUOUS
 90
26
 70
0
 10
288.6886179098
 20
108.0791463642
 10
288.7124040133
 20
108.0942550739
 10
288.7352040553
 20
108.1116196246
 10
288.7568161803
 20
108.1312195923
 10
288.7770058417
 20
108.1529678028
 10
288.7956294932
 20
108.1768358362
 10
288.812613865
 20
108.2029091814
 10
288.8278070332
 20
108.2312103599
 10
288.8409849818
 20
108.2616078087
 10
288.8519811062
 20
108.2940148176
 10
288.8606999904
 20
108.3285889779
 10
288.8669303254
 20
108.3650790296
 10
288.87050022
 20
108.4027716041
 10
288.8714132049
 20
108.4416139206
 10
288.8696593526
 20
108.4814961606
 10
288.865333971
 20
108.521530307
 10
288.8586041435
 20
108.5613827856
 10
288.8495596605
 20
108.6011633139
 10
288.8383562439
 20
108.6405642976
 10
288.8251426656
 20
108.679386131
 10
288.8100057815
 20
108.7175976073
 10
288.7930426364
 20
108.7550910867
 10
288.7743632954
 20
108.7917192916
 10
288.7540445523
 20
108.8273933533
 10
288.732122901
 20
108.8620671502
 10
288.7086510661
 20
108.8956387631
  0
LINE
  5
3F5
100
AcDbEntity
  8
RACCORDO
100
AcDbLine
 62
7
  6
CONTINUOUS
 10
288.6624963436
 20
108.8417998463
 11
287.1907900919
 21
107.9362702932
  0
LWPOLYLINE
  5
3F6
100
AcDbEntity
  8
RACCORDO
100
AcDbPolyline
 62
250
  6
CONTINUOUS
 90
4
 70
0
 10
287.1329831375
 20
107.1809420055
 10
287.1375640057
 20
107.1836689819
 10
287.1551358612
 20
107.1957789609
 10
287.1714935847
 20
107.2097999228
  0
LINE
  5
3F7
100
AcDbEntity
  8
ASSI
100
AcDbLine
 62
7
  6
CONTINUOUS
 10
288.6886180561
 20
108.0791461108
 11
287.1329831375
 21
107.1809420055
  0
LINE
  5
3F8
100
AcDbEntity
  8
RACCORDO
100
AcDbLine
 62
7
  6
CONTINUOUS
 10
287.1907900919
 20
107.9362702932
 11
287.104747418
 21
107.8898376455
  0
LINE
  5
3F9
100
AcDbEntity
  8
DRAFT
100
AcDbLine
 62
7
  6
CONTINUOUS
 10
290.0393232561
 20
115.1514348449
 11
288.5827435261
 21
114.3702509555
  0
LINE
  5
3FA
100
AcDbEntity
  8
RACCORDO
100
AcDbLine
 62
7
  6
CONTINUOUS
 10
287.104747418
 20
107.8898376455
 11
287.0945981505
 21
107.8847423973
  0
LWPOLYLINE
  5
3FB
100
AcDbEntity
  8
RACCORDO
100
AcDbPolyline
 62
7
  6
CONTINUOUS
 90
3
 70
0
 10
287.1092156825
 20
107.1684668092
 10
287.1194060945
 20
107.1735178373
 10
287.1329829912
 20
107.1809422589
  0
LWPOLYLINE
  5
3FC
100
AcDbEntity
  8
RACCORDO
100
AcDbPolyline
 62
7
  6
CONTINUOUS
 90
3
 70
0
 10
287.1092142718
 20
107.1684110243
 10
287.1047461871
 20
107.1663840236
 10
287.0945981505
 20
107.1625586664
  0
LWPOLYLINE
  5
3FD
100
AcDbEntity
  8
RACCORDO
100
AcDbPolyline
 62
250
  6
CONTINUOUS
 90
22
 70
0
 10
338.0338825838
 20
132.7715887869
 10
338.0654200515
 20
132.7451589755
 10
338.0963427172
 20
132.7167442472
 10
338.1266028738
 20
132.6863965295
 10
338.1561038477
 20
132.6541998046
 10
338.1846803617
 20
132.6203198215
 10
338.2121843178
 20
132.5849330664
 10
338.2384912992
 20
132.5482022393
 10
338.2634978188
 20
132.5102719533
 10
338.2870984096
 20
132.4713050376
 10
338.3091865447
 20
132.4314820228
 10
338.3296778728
 20
132.3909577731
 10
338.3485049456
 20
132.3498601462
 10
338.3655760922
 20
132.3083833031
 10
338.3808242012
 20
132.266682462
 10
338.3942095441
 20
132.2248278998
 10
338.4056676936
 20
132.1829538453
 10
338.4151129252
 20
132.1412908676
 10
338.422475464
 20
132.100056365
 10
338.4277059759
 20
132.0594464503
 10
338.4307701836
 20
132.0196362353
 10
338.4316397849
 20
131.980810225
  0
LINE
  5
3FE
100
AcDbEntity
  8
DRAFT
100
AcDbLine
 62
7
  6
CONTINUOUS
 10
297.9855900176
 20
95.533050948
 11
298.0468987768
 21
95.8326453786
  0
LINE
  5
3FF
100
AcDbEntity
  8
RACCORDO
100
AcDbLine
 62
250
  6
CONTINUOUS
 10
337.1401443969
 20
132.3778364914
 11
337.9368346535
 21
132.8378378514
  0
LINE
  5
400
100
AcDbEntity
  8
RACCORDO
100
AcDbLine
 62
7
  6
CONTINUOUS
 10
337.6350553358
 20
132.092081118
 11
334.504361804
 21
130.2843964813
  0
LINE
  5
401
100
AcDbEntity
  8
0
100
AcDbLine
 62
7
  6
CONTINUOUS
 10
337.6350553358
 20
132.092081118
 11
334.504361804
 21
130.2843964813
  0
LINE
  5
402
100
AcDbEntity
  8
RACCORDO
100
AcDbLine
 62
250
  6
CONTINUOUS
 10
337.6350553358
 20
131.5208699573
 11
338.4316397849
 21
131.980810225
  0
LINE
  5
403
100
AcDbEntity
  8
RACCORDO
100
AcDbLine
 62
250
  6
CONTINUOUS
 10
286.4582020474
 20
100.5482033637
 11
287.0945981505
 21
100.9156504977
  0
LINE
  5
404
100
AcDbEntity
  8
0
100
AcDbLine
 62
250
  6
CONTINUOUS
 10
286.4582020474
 20
100.5482033637
 11
287.0945981505
 21
100.9156504977
  0
LINE
  5
405
100
AcDbEntity
  8
RACCORDO
100
AcDbLine
 62
250
  6
CONTINUOUS
 10
287.1163339297
 20
100.8474734767
 11
287.1923645003
 21
100.8913724298
  0
LINE
  5
406
100
AcDbEntity
  8
RACCORDO
100
AcDbLine
 62
250
  6
CONTINUOUS
 10
286.8824661161
 20
99.8133564417
 11
287.5188622192
 21
100.1808035757
  0
LINE
  5
407
100
AcDbEntity
  8
0
100
AcDbLine
 62
250
  6
CONTINUOUS
 10
286.8824661161
 20
99.8133564417
 11
287.5188622192
 21
100.1808035757
  0
LINE
  5
408
100
AcDbEntity
  8
RACCORDO
100
AcDbLine
 62
250
  6
CONTINUOUS
 10
287.5886401882
 20
100.1405146509
 11
287.6149895431
 21
100.1557283877
  0
LINE
  5
409
100
AcDbEntity
  8
RACCORDO
100
AcDbLine
 62
7
  6
CONTINUOUS
 10
333.9444187635
 20
129.9612570914
 11
334.504361804
 21
130.2843964813
  0
LINE
  5
40A
100
AcDbEntity
  8
0
100
AcDbLine
 62
7
  6
CONTINUOUS
 10
333.9444187635
 20
129.9612570914
 11
334.504361804
 21
130.2843964813
  0
LWPOLYLINE
  5
40B
100
AcDbEntity
  8
RACCORDO
100
AcDbPolyline
 62
7
  6
CONTINUOUS
 90
3
 70
0
 10
333.8166787174
 20
129.887437769
 10
333.8469501204
 20
129.9046432459
 10
333.9444187635
 20
129.9612570914
  0
LWPOLYLINE
  5
40C
100
AcDbEntity
  8
0
100
AcDbPolyline
 62
7
  6
CONTINUOUS
 90
3
 70
0
 10
333.8166787174
 20
129.887437769
 10
333.8469501204
 20
129.9046432459
 10
333.9444187635
 20
129.9612570914
  0
LWPOLYLINE
  5
40D
100
AcDbEntity
  8
RACCORDO
100
AcDbPolyline
 62
250
  6
CONTINUOUS
 90
3
 70
0
 10
287.099607941
 20
100.8391759181
 10
287.1007178457
 20
100.8396263116
 10
287.1163339297
 20
100.8474734767
  0
LINE
  5
40E
100
AcDbEntity
  8
RACCORDO
100
AcDbLine
 62
250
  6
CONTINUOUS
 10
287.1907900919
 20
100.8988345651
 11
288.6522199447
 21
101.4232101262
  0
LINE
  5
40F
100
AcDbEntity
  8
RACCORDO
100
AcDbLine
 62
250
  6
CONTINUOUS
 10
287.6136423573
 20
100.1565062359
 11
289.1003498889
 21
100.6899516796
  0
LINE
  5
410
100
AcDbEntity
  8
RACCORDO
100
AcDbLine
 62
7
  6
CONTINUOUS
 10
289.9151707932
 20
100.5278032019
 11
289.5799890988
 21
100.4130140111
  0
LINE
  5
411
100
AcDbEntity
  8
RACCORDO
100
AcDbLine
 62
7
  6
CONTINUOUS
 10
291.3477560518
 20
99.3923275278
 11
291.6829377461
 21
99.5071167185
  0
LWPOLYLINE
  5
412
100
AcDbEntity
  8
RACCORDO
100
AcDbPolyline
 62
250
  6
CONTINUOUS
 90
12
 70
0
 10
318.0305198274
 20
125.6324672826
 10
318.0311129916
 20
125.6145052981
 10
318.032889167
 20
125.5973287354
 10
318.0358384204
 20
125.5810336529
 10
318.0399442585
 20
125.5657111793
 10
318.0451837197
 20
125.551447004
 10
318.0515275029
 20
125.5383208981
 10
318.0589401311
 20
125.5264062682
 10
318.0673801497
 20
125.5157697455
 10
318.0768003589
 20
125.506470814
 10
318.0871480769
 20
125.498561477
 10
318.0926446137
 20
125.4951462242
  0
LWPOLYLINE
  5
413
100
AcDbEntity
  8
0
100
AcDbPolyline
 62
250
  6
CONTINUOUS
 90
12
 70
0
 10
318.0305198274
 20
125.6324672826
 10
318.0311129916
 20
125.6145052981
 10
318.032889167
 20
125.5973287354
 10
318.0358384204
 20
125.5810336529
 10
318.0399442585
 20
125.5657111793
 10
318.0451837197
 20
125.551447004
 10
318.0515275029
 20
125.5383208981
 10
318.0589401311
 20
125.5264062682
 10
318.0673801497
 20
125.5157697455
 10
318.0768003589
 20
125.506470814
 10
318.0871480769
 20
125.498561477
 10
318.0926446137
 20
125.4951462242
  0
LINE
  5
414
100
AcDbEntity
  8
RACCORDO
100
AcDbLine
 62
7
  6
CONTINUOUS
 10
318.5790479648
 20
124.6526792774
 11
318.5790479648
 21
81.8288132597
  0
LINE
  5
415
100
AcDbEntity
  8
0
100
AcDbLine
 62
7
  6
CONTINUOUS
 10
318.5790479648
 20
124.6526792774
 11
318.5790479648
 21
81.8288132597
  0
LINE
  5
416
100
AcDbEntity
  8
RACCORDO
100
AcDbLine
 62
250
  6
CONTINUOUS
 10
318.6669159305
 20
124.5301968994
 11
318.6669159305
 21
81.7063308817
  0
LINE
  5
417
100
AcDbEntity
  8
0
100
AcDbLine
 62
250
  6
CONTINUOUS
 10
318.6669159305
 20
124.5301968994
 11
318.6669159305
 21
81.7063308817
  0
LINE
  5
418
100
AcDbEntity
  8
RACCORDO
100
AcDbLine
 62
7
  6
CONTINUOUS
 10
296.2791318239
 20
96.8533318619
 11
295.9439501295
 21
96.7385426711
  0
LINE
  5
419
100
AcDbEntity
  8
RACCORDO
100
AcDbLine
 62
7
  6
CONTINUOUS
 10
297.6410064043
 20
95.693640004
 11
298.0468987768
 21
95.8326453786
  0
LWPOLYLINE
  5
41A
100
AcDbEntity
  8
RACCORDO
100
AcDbPolyline
 62
7
  6
CONTINUOUS
 90
16
 70
0
 10
318.5790479648
 20
81.8288132597
 10
318.5785826731
 20
81.8066495087
 10
318.5772513222
 20
81.7861263007
 10
318.5751604091
 20
81.7673200441
 10
318.5724354267
 20
81.7503270992
 10
318.5691980975
 20
81.7351306978
 10
318.5655614117
 20
81.7216755122
 10
318.561669018
 20
81.7100033688
 10
318.5576835157
 20
81.7001452283
 10
318.5537895178
 20
81.6921168042
 10
318.5502188956
 20
81.685946115
 10
318.5471745023
 20
81.681530432
 10
318.5448016965
 20
81.678658164
 10
318.543217115
 20
81.6770848334
 10
318.5425090289
 20
81.6765346032
 10
318.5426663578
 20
81.676653521
  0
LWPOLYLINE
  5
41B
100
AcDbEntity
  8
0
100
AcDbPolyline
 62
7
  6
CONTINUOUS
 90
16
 70
0
 10
318.5790479648
 20
81.8288132597
 10
318.5785826731
 20
81.8066495087
 10
318.5772513222
 20
81.7861263007
 10
318.5751604091
 20
81.7673200441
 10
318.5724354267
 20
81.7503270992
 10
318.5691980975
 20
81.7351306978
 10
318.5655614117
 20
81.7216755122
 10
318.561669018
 20
81.7100033688
 10
318.5576835157
 20
81.7001452283
 10
318.5537895178
 20
81.6921168042
 10
318.5502188956
 20
81.685946115
 10
318.5471745023
 20
81.681530432
 10
318.5448016965
 20
81.678658164
 10
318.543217115
 20
81.6770848334
 10
318.5425090289
 20
81.6765346032
 10
318.5426663578
 20
81.676653521
  0
LWPOLYLINE
  5
41C
100
AcDbEntity
  8
RACCORDO
100
AcDbPolyline
 62
250
  6
CONTINUOUS
 90
28
 70
0
 10
318.6669159305
 20
81.7063308817
 10
318.6658470785
 20
81.664273961
 10
318.662654326
 20
81.6237808304
 10
318.657337673
 20
81.58485149
 10
318.6498628795
 20
81.5473310257
 10
318.6402641855
 20
81.5113743516
 10
318.6286443108
 20
81.4774462094
 10
318.614986339
 20
81.445605685
 10
318.5993071866
 20
81.4157936926
 10
318.5817603217
 20
81.3882977165
 10
318.5623242824
 20
81.363134969
 10
318.5410205308
 20
81.3402882379
 10
318.5180669216
 20
81.3199933709
 10
318.4934478917
 20
81.3022780296
 10
318.4671790043
 20
81.2871145524
 10
318.4395248042
 20
81.274655803
 10
318.4104687167
 20
81.2649291462
 10
318.3800273166
 20
81.2579072172
 10
318.3485148733
 20
81.2536607854
 10
318.315927519
 20
81.2522172557
 10
318.2822691215
 20
81.2535492232
 10
318.2478655534
 20
81.2576452427
 10
318.2126746047
 20
81.2645492321
 10
318.1767384854
 20
81.2742172734
 10
318.1405096977
 20
81.2865061674
 10
318.1041390759
 20
81.3013681811
 10
318.0674757858
 20
81.3188510475
 10
318.0305198274
 20
81.3389547665
  0
LWPOLYLINE
  5
41D
100
AcDbEntity
  8
0
100
AcDbPolyline
 62
250
  6
CONTINUOUS
 90
28
 70
0
 10
318.6669159305
 20
81.7063308817
 10
318.6658470785
 20
81.664273961
 10
318.662654326
 20
81.6237808304
 10
318.657337673
 20
81.58485149
 10
318.6498628795
 20
81.5473310257
 10
318.6402641855
 20
81.5113743516
 10
318.6286443108
 20
81.4774462094
 10
318.614986339
 20
81.445605685
 10
318.5993071866
 20
81.4157936926
 10
318.5817603217
 20
81.3882977165
 10
318.5623242824
 20
81.363134969
 10
318.5410205308
 20
81.3402882379
 10
318.5180669216
 20
81.3199933709
 10
318.4934478917
 20
81.3022780296
 10
318.4671790043
 20
81.2871145524
 10
318.4395248042
 20
81.274655803
 10
318.4104687167
 20
81.2649291462
 10
318.3800273166
 20
81.2579072172
 10
318.3485148733
 20
81.2536607854
 10
318.315927519
 20
81.2522172557
 10
318.2822691215
 20
81.2535492232
 10
318.2478655534
 20
81.2576452427
 10
318.2126746047
 20
81.2645492321
 10
318.1767384854
 20
81.2742172734
 10
318.1405096977
 20
81.2865061674
 10
318.1041390759
 20
81.3013681811
 10
318.0674757858
 20
81.3188510475
 10
318.0305198274
 20
81.3389547665
  0
LWPOLYLINE
  5
41E
100
AcDbEntity
  8
RACCORDO
100
AcDbPolyline
 62
250
  6
CONTINUOUS
 90
22
 70
0
 10
318.0305198274
 20
81.3389547665
 10
318.0311129916
 20
81.3576017222
 10
318.032889167
 20
81.3768293676
 10
318.0358384204
 20
81.396530174
 10
318.0399442585
 20
81.4165939666
 10
318.0451837197
 20
81.4369085404
 10
318.0515275029
 20
81.4573602881
 10
318.0589401311
 20
81.4778348352
 10
318.0673801497
 20
81.4982176798
 10
318.0768003589
 20
81.5183948327
 10
318.0871480769
 20
81.5382534551
 10
318.0983654352
 20
81.5576824896
 10
318.1103897017
 20
81.576573281
 10
318.1231536319
 20
81.5948201845
 10
318.1365858446
 20
81.6123211559
 10
318.1506112215
 20
81.6289783227
 10
318.165151327
 20
81.6446985313
 10
318.180124847
 20
81.6593938678
 10
318.1954480434
 20
81.6729821501
 10
318.2110352226
 20
81.6853873869
 10
318.226799215
 20
81.6965402031
 10
318.2426518618
 20
81.7063782276
  0
LWPOLYLINE
  5
41F
100
AcDbEntity
  8
0
100
AcDbPolyline
 62
250
  6
CONTINUOUS
 90
22
 70
0
 10
318.0305198274
 20
81.3389547665
 10
318.0311129916
 20
81.3576017222
 10
318.032889167
 20
81.3768293676
 10
318.0358384204
 20
81.396530174
 10
318.0399442585
 20
81.4165939666
 10
318.0451837197
 20
81.4369085404
 10
318.0515275029
 20
81.4573602881
 10
318.0589401311
 20
81.4778348352
 10
318.0673801497
 20
81.4982176798
 10
318.0768003589
 20
81.5183948327
 10
318.0871480769
 20
81.5382534551
 10
318.0983654352
 20
81.5576824896
 10
318.1103897017
 20
81.576573281
 10
318.1231536319
 20
81.5948201845
 10
318.1365858446
 20
81.6123211559
 10
318.1506112215
 20
81.6289783227
 10
318.165151327
 20
81.6446985313
 10
318.180124847
 20
81.6593938678
 10
318.1954480434
 20
81.6729821501
 10
318.2110352226
 20
81.6853873869
 10
318.226799215
 20
81.6965402031
 10
318.2426518618
 20
81.7063782276
  0
LINE
  5
420
100
AcDbEntity
  8
DRAFT
100
AcDbLine
 62
7
  6
CONTINUOUS
 10
314.19023926
 20
86.2417332105
 11
314.239644066
 21
86.4831571914
  0
LINE
  5
421
100
AcDbEntity
  8
RACCORDO
100
AcDbLine
 62
7
  6
CONTINUOUS
 10
312.471877113
 20
87.5038436747
 11
312.0659847405
 21
87.3648383001
  0
LWPOLYLINE
  5
422
100
AcDbEntity
  8
CURVE
100
AcDbPolyline
 62
250
  6
CONTINUOUS
 90
32
 70
0
 10
335.2100414107
 20
68.4795259531
 10
335.2061520711
 20
68.5083610049
 10
335.2024118936
 20
68.5373305622
 10
335.1988422261
 20
68.5664435853
 10
335.1954644164
 20
68.5957090341
 10
335.1922998121
 20
68.6251358689
 10
335.189369761
 20
68.6547330498
 10
335.186695611
 20
68.6845095369
 10
335.1842987098
 20
68.7144742902
 10
335.182200405
 20
68.74463627
 10
335.1804220446
 20
68.7750044364
 10
335.1789849763
 20
68.8055877495
 10
335.1779105478
 20
68.8363951694
 10
335.1772201069
 20
68.8674356562
 10
335.1769350014
 20
68.8987181701
 10
335.1770765789
 20
68.9302516712
 10
335.1776661874
 20
68.9620451197
 10
335.1787251745
 20
68.9941074755
 10
335.1802748881
 20
69.026447699
 10
335.1823366758
 20
69.0590747501
 10
335.1840045145
 20
69.0809306108
 10
335.185932699
 20
69.1029146676
 10
335.1881457571
 20
69.1250243533
 10
335.1906682167
 20
69.1472571005
 10
335.1935246053
 20
69.1696103419
 10
335.1967394509
 20
69.1920815101
 10
335.2003372811
 20
69.2146680379
 10
335.2043426237
 20
69.237367358
 10
335.2087800065
 20
69.2601769029
 10
335.2136739572
 20
69.2830941054
 10
335.2190490036
 20
69.3061163981
 10
335.2249296735
 20
69.3292412137
  0
LWPOLYLINE
  5
423
100
AcDbEntity
  8
CURVE
100
AcDbPolyline
 62
250
  6
CONTINUOUS
 90
59
 70
0
 10
335.8226234398
 20
69.3561629433
 10
335.8224491837
 20
69.3630521365
 10
335.8221930518
 20
69.3699422835
 10
335.8218509296
 20
69.3768226352
 10
335.8214187022
 20
69.3836824423
 10
335.8208922548
 20
69.3905109558
 10
335.8202674728
 20
69.3972974266
 10
335.8195402414
 20
69.4040311055
 10
335.8187064458
 20
69.4107012434
 10
335.8177619713
 20
69.4172970911
 10
335.8167027031
 20
69.4238078995
 10
335.8155245266
 20
69.4302229194
 10
335.8142233268
 20
69.4365314018
 10
335.8127949892
 20
69.4427225975
 10
335.8112353989
 20
69.4487857573
 10
335.8095404412
 20
69.4547101322
 10
335.8077060014
 20
69.4604849729
 10
335.8057279647
 20
69.4660995304
 10
335.8036022163
 20
69.4715430555
 10
335.8013246416
 20
69.476804799
 10
335.7988911257
 20
69.4818740119
 10
335.7962975539
 20
69.486739945
 10
335.7935398115
 20
69.4913918492
 10
335.7906137837
 20
69.4958189753
 10
335.7875153557
 20
69.5000105741
 10
335.7842404129
 20
69.5039558967
 10
335.7807848405
 20
69.5076441937
 10
335.7771445237
 20
69.5110647161
 10
335.7733153477
 20
69.5142067148
 10
335.7692391526
 20
69.5170989683
 10
335.7649731617
 20
69.5196989825
 10
335.7605258489
 20
69.5220117302
 10
335.7559056884
 20
69.5240421841
 10
335.7511211543
 20
69.5257953168
 10
335.7461807207
 20
69.5272761009
 10
335.7410928617
 20
69.5284895092
 10
335.7358660513
 20
69.5294405144
 10
335.7305087638
 20
69.5301340892
 10
335.725029473
 20
69.5305752061
 10
335.7194366533
 20
69.5307688379
 10
335.7137387786
 20
69.5307199574
 10
335.707944323
 20
69.530433537
 10
335.7020617607
 20
69.5299145496
 10
335.6960995657
 20
69.5291679679
 10
335.6900662121
 20
69.5281987644
 10
335.683970174
 20
69.5270119119
 10
335.6778199256
 20
69.5256123831
 10
335.6716239408
 20
69.5240051505
 10
335.6653906939
 20
69.5221951871
 10
335.6591286589
 20
69.5201874653
 10
335.6528463098
 20
69.5179869578
 10
335.6465521208
 20
69.5155986375
 10
335.640254566
 20
69.5130274769
 10
335.6339621195
 20
69.5102784487
 10
335.6276832553
 20
69.5073565255
 10
335.6214264476
 20
69.5042666802
 10
335.6152001705
 20
69.5010138853
 10
335.6090128979
 20
69.4976031136
 10
335.6028731042
 20
69.4940393377
  0
LINE
  5
424
100
AcDbEntity
  8
RACCORDO
100
AcDbLine
 62
250
  6
CONTINUOUS
 10
333.8166787174
 20
58.854523688
 11
333.8166787174
 21
129.887437769
  0
LINE
  5
425
100
AcDbEntity
  8
0
100
AcDbLine
 62
250
  6
CONTINUOUS
 10
333.8166787174
 20
58.854523688
 11
333.8166787174
 21
129.887437769
  0
LINE
  5
426
100
AcDbEntity
  8
RACCORDO
100
AcDbLine
 62
250
  6
CONTINUOUS
 10
334.5237854986
 20
58.4462885496
 11
334.5237854986
 21
130.2956729074
  0
LINE
  5
427
100
AcDbEntity
  8
0
100
AcDbLine
 62
250
  6
CONTINUOUS
 10
334.5237854986
 20
58.4462885496
 11
334.5237854986
 21
130.2956729074
  0
LINE
  5
428
100
AcDbEntity
  8
RACCORDO
100
AcDbLine
 62
7
  6
CONTINUOUS
 10
313.9044623716
 20
86.3683680006
 11
314.239644066
 21
86.4831571914
  0
LINE
  5
429
100
AcDbEntity
  8
RACCORDO
100
AcDbLine
 62
7
  6
CONTINUOUS
 10
318.5790479648
 20
83.7414297731
 11
318.5006564493
 21
83.714583144
  0
LWPOLYLINE
  5
42A
100
AcDbEntity
  8
RACCORDO
100
AcDbPolyline
 62
7
  6
CONTINUOUS
 90
23
 70
0
 10
338.4865647789
 20
132.0601671268
 10
338.4863044609
 20
132.0790548093
 10
338.4837662163
 20
132.1226356607
 10
338.4786238746
 20
132.166481369
 10
338.4709747519
 20
132.2104721083
 10
338.4609102842
 20
132.254504163
 10
338.4485142013
 20
132.29845761
 10
338.4338640147
 20
132.342195656
 10
338.4170573261
 20
132.3855385741
 10
338.3981721002
 20
132.4283378451
 10
338.3772892701
 20
132.4704451272
 10
338.354521958
 20
132.5116557571
 10
338.3299503138
 20
132.5518221742
 10
338.3036647993
 20
132.5907923523
 10
338.2757921891
 20
132.6283547577
 10
338.2464195472
 20
132.6643670113
 10
338.2156374126
 20
132.698684751
 10
338.1835646228
 20
132.7311216601
 10
338.1502820967
 20
132.7615442482
 10
338.1158509494
 20
132.7898222137
 10
338.0803275759
 20
132.8158199079
 10
338.0437711227
 20
132.8393938882
 10
338.0330276865
 20
132.8457278365
  0
LINE
  5
42B
100
AcDbEntity
  8
CURVE
100
AcDbLine
 62
250
  6
CONTINUOUS
 10
335.1934347122
 20
64.7932208876
 11
335.1934347122
 21
65.1340515058
  0
LINE
  5
42C
100
AcDbEntity
  8
CURVE
100
AcDbLine
 62
250
  6
CONTINUOUS
 10
335.1935195651
 20
67.8689158626
 11
335.1935195651
 21
67.5392031202
  0
LINE
  5
42D
100
AcDbEntity
  8
CURVE
100
AcDbLine
 62
250
  6
CONTINUOUS
 10
335.1935195651
 20
66.8208448107
 11
335.1935195651
 21
66.4836254405
  0
LINE
  5
42E
100
AcDbEntity
  8
CURVE
100
AcDbLine
 62
250
  6
CONTINUOUS
 10
335.1935195651
 20
65.805563205
 11
335.1935195651
 21
65.465014269
  0
LINE
  5
42F
100
AcDbEntity
  8
CURVE
100
AcDbLine
 62
250
  6
CONTINUOUS
 10
335.1935195651
 20
64.6667863876
 11
335.1935195651
 21
64.326187647
  0
LINE
  5
430
100
AcDbEntity
  8
CURVE
100
AcDbLine
 62
250
  6
CONTINUOUS
 10
335.1935195651
 20
63.6941947469
 11
335.1935195651
 21
63.323947521
  0
LINE
  5
431
100
AcDbEntity
  8
CURVE
100
AcDbLine
 62
250
  6
CONTINUOUS
 10
335.8226234398
 20
69.1613813656
 11
335.8226234398
 21
69.3561629433
  0
LINE
  5
432
100
AcDbEntity
  8
CURVE
100
AcDbLine
 62
250
  6
CONTINUOUS
 10
336.0542186399
 20
69.4891484541
 11
336.0542186399
 21
69.3064029771
  0
LINE
  5
433
100
AcDbEntity
  8
CURVE
100
AcDbLine
 62
250
  6
CONTINUOUS
 10
336.1068681811
 20
68.3816276957
 11
336.1068681811
 21
68.0553065708
  0
LINE
  5
434
100
AcDbEntity
  8
CURVE
100
AcDbLine
 62
250
  6
CONTINUOUS
 10
336.3253139719
 20
68.1117152192
 11
336.3253139719
 21
68.5758704069
  0
LINE
  5
435
100
AcDbEntity
  8
CURVE
100
AcDbLine
 62
250
  6
CONTINUOUS
 10
336.6076187637
 20
70.475704924
 11
336.6076187637
 21
70.1478650482
  0
LINE
  5
436
100
AcDbEntity
  8
CURVE
100
AcDbLine
 62
250
  6
CONTINUOUS
 10
336.6076187637
 20
69.6259292729
 11
336.6076187637
 21
69.286469601
  0
LINE
  5
437
100
AcDbEntity
  8
CURVE
100
AcDbLine
 62
250
  6
CONTINUOUS
 10
336.6076185761
 20
65.9505835449
 11
336.6076185761
 21
65.6097529267
  0
LINE
  5
438
100
AcDbEntity
  8
CURVE
100
AcDbLine
 62
250
  6
CONTINUOUS
 10
336.6076185761
 20
64.6580621086
 11
336.6076185761
 21
64.9584194787
  0
LINE
  5
439
100
AcDbEntity
  8
CURVE
100
AcDbLine
 62
250
  6
CONTINUOUS
 10
336.6076185761
 20
66.1340640114
 11
336.6076185761
 21
66.4601279482
  0
LINE
  5
43A
100
AcDbEntity
  8
CURVE
100
AcDbLine
 62
250
  6
CONTINUOUS
 10
336.6076185761
 20
66.9335157818
 11
336.6076185761
 21
66.9813168506
  0
LINE
  5
43B
100
AcDbEntity
  8
CURVE
100
AcDbLine
 62
250
  6
CONTINUOUS
 10
336.6076185761
 20
67.4565907305
 11
336.6076185761
 21
67.7900135139
  0
LINE
  5
43C
100
AcDbEntity
  8
CURVE
100
AcDbLine
 62
250
  6
CONTINUOUS
 10
336.6076185761
 20
67.8435331405
 11
336.6076185761
 21
68.1806667813
  0
LINE
  5
43D
100
AcDbEntity
  8
CURVE
100
AcDbLine
 62
250
  6
CONTINUOUS
 10
336.6076185761
 20
68.8271634594
 11
336.6076185761
 21
69.1863850707
  0
LINE
  5
43E
100
AcDbEntity
  8
SUPERFICI
100
AcDbLine
 62
7
  6
CONTINUOUS
 10
337.6350553358
 20
60.2426967603
 11
337.6350553358
 21
132.092081118
  0
LINE
  5
43F
100
AcDbEntity
  8
0
100
AcDbLine
 62
7
  6
CONTINUOUS
 10
337.6350553358
 20
60.2426967603
 11
337.6350553358
 21
132.092081118
  0
LINE
  5
440
100
AcDbEntity
  8
RACCORDO
100
AcDbLine
 62
250
  6
CONTINUOUS
 10
338.4316397849
 20
131.980810225
 11
338.4316397849
 21
63.8520074129
  0
LINE
  5
441
100
AcDbEntity
  8
RACCORDO
100
AcDbLine
 62
7
  6
CONTINUOUS
 10
338.4865649107
 20
132.060299686
 11
338.4865649107
 21
63.9314968758
  0
LWPOLYLINE
  5
442
100
AcDbEntity
  8
RACCORDO
100
AcDbPolyline
 62
250
  6
CONTINUOUS
 90
13
 70
0
 10
338.4316397849
 20
63.8520074129
 10
338.4308094457
 20
63.8154690492
 10
338.4278661249
 20
63.7803301835
 10
338.4228260858
 20
63.7467348384
 10
338.4157167235
 20
63.7148331305
 10
338.4065719716
 20
63.6847394875
 10
338.395422601
 20
63.6565404746
 10
338.3823033072
 20
63.6303415986
 10
338.3672715566
 20
63.6062736485
 10
338.3503995023
 20
63.584453196
 10
338.3317605792
 20
63.5649739464
 10
338.3114313642
 20
63.5479152902
 10
338.2972769146
 20
63.5381119312
  0
LWPOLYLINE
  5
443
100
AcDbEntity
  8
RACCORDO
100
AcDbPolyline
 62
250
  6
CONTINUOUS
 90
9
 70
0
 10
338.4865649107
 20
63.9314968758
 10
338.4864175273
 20
63.9270644483
 10
338.484569757
 20
63.9152264204
 10
338.4806242332
 20
63.9035607519
 10
338.4746227477
 20
63.8921910355
 10
338.4666288791
 20
63.8812377342
 10
338.4567273148
 20
63.8708168958
 10
338.4450229509
 20
63.8610389237
 10
338.4316397849
 20
63.8520074129
  0
LWPOLYLINE
  5
444
100
AcDbEntity
  8
RACCORDO
100
AcDbPolyline
 62
250
  6
CONTINUOUS
 90
9
 70
0
 10
338.4865647789
 20
132.0601671265
 10
338.486417494
 20
132.055866758
 10
338.4845696422
 20
132.0440287649
 10
338.4806240559
 20
132.0323631519
 10
338.4746225361
 20
132.0209935087
 10
338.466628665
 20
132.0100402896
 10
338.4567271326
 20
131.9996195368
 10
338.4450228393
 20
131.9898416518
 10
338.4316397849
 20
131.980810225
  0
LWPOLYLINE
  5
445
100
AcDbEntity
  8
CURVE
100
AcDbPolyline
 62
250
  6
CONTINUOUS
 90
22
 70
0
 10
335.4261006232
 20
69.1994358332
 10
335.4248846018
 20
69.1857826843
 10
335.4238370179
 20
69.1721990361
 10
335.4229578168
 20
69.1586889036
 10
335.4222469441
 20
69.1452563015
 10
335.4217043452
 20
69.1319052449
 10
335.4213299656
 20
69.1186397486
 10
335.4211237506
 20
69.1054638274
 10
335.4210856457
 20
69.0923814963
 10
335.4212155964
 20
69.07939677
 10
335.4215135481
 20
69.0665136636
 10
335.4219794462
 20
69.0537361918
 10
335.4226132361
 20
69.0410683695
 10
335.4234148634
 20
69.0285142117
 10
335.4243842734
 20
69.0160777331
 10
335.4255214116
 20
69.0037629488
 10
335.4267224973
 20
68.9924625937
 10
335.428054349
 20
68.9812604819
 10
335.4295037846
 20
68.9701469348
 10
335.4310576217
 20
68.9591122739
 10
335.432702678
 20
68.9481468208
 10
335.4344257712
 20
68.937240897
  0
LINE
  5
446
100
AcDbEntity
  8
RACCORDO
100
AcDbLine
 62
250
  6
CONTINUOUS
 10
318.2426518618
 20
81.7063782276
 11
318.5790479648
 21
81.9006091215
  0
LINE
  5
447
100
AcDbEntity
  8
0
100
AcDbLine
 62
250
  6
CONTINUOUS
 10
318.2426518618
 20
81.7063782276
 11
318.5790479648
 21
81.9006091215
  0
LWPOLYLINE
  5
448
100
AcDbEntity
  8
RACCORDO
100
AcDbPolyline
 62
250
  6
CONTINUOUS
 90
13
 70
0
 10
318.5426663578
 20
81.676653521
 10
318.5223886536
 20
81.6664310169
 10
318.5009276229
 20
81.6584856954
 10
318.4783605919
 20
81.6528431795
 10
318.454784168
 20
81.6495276392
 10
318.4302993257
 20
81.6485532891
 10
318.405010935
 20
81.6499243093
 10
318.3790272878
 20
81.6536348314
 10
318.3524596458
 20
81.6596689697
 10
318.3254217911
 20
81.6680008827
 10
318.29802951
 20
81.6785948887
 10
318.2704000956
 20
81.6914056232
 10
318.2426518618
 20
81.7063782276
  0
LWPOLYLINE
  5
449
100
AcDbEntity
  8
0
100
AcDbPolyline
 62
250
  6
CONTINUOUS
 90
13
 70
0
 10
318.5426663578
 20
81.676653521
 10
318.5223886536
 20
81.6664310169
 10
318.5009276229
 20
81.6584856954
 10
318.4783605919
 20
81.6528431795
 10
318.454784168
 20
81.6495276392
 10
318.4302993257
 20
81.6485532891
 10
318.405010935
 20
81.6499243093
 10
318.3790272878
 20
81.6536348314
 10
318.3524596458
 20
81.6596689697
 10
318.3254217911
 20
81.6680008827
 10
318.29802951
 20
81.6785948887
 10
318.2704000956
 20
81.6914056232
 10
318.2426518618
 20
81.7063782276
  0
LWPOLYLINE
  5
44A
100
AcDbEntity
  8
CURVE
100
AcDbPolyline
 62
250
  6
CONTINUOUS
 90
73
 70
0
 10
335.2249296735
 20
69.3292412137
 10
335.2285539472
 20
69.3421729237
 10
335.2325764472
 20
69.3551522948
 10
335.2369667211
 20
69.3681622884
 10
335.241694316
 20
69.3811858656
 10
335.2467287792
 20
69.3942059877
 10
335.2520396581
 20
69.407205616
 10
335.2575964999
 20
69.4201677118
 10
335.265576321
 20
69.4378625117
 10
335.2739537279
 20
69.4554348633
 10
335.2827206794
 20
69.4728650305
 10
335.2918691346
 20
69.4901332773
 10
335.3013910523
 20
69.5072198679
 10
335.3112783915
 20
69.5241050661
 10
335.3215231111
 20
69.5407691361
 10
335.332748601
 20
69.5581492617
 10
335.344343513
 20
69.5752317145
 10
335.3562856461
 20
69.5919888402
 10
335.3685527995
 20
69.6083929841
 10
335.3811227722
 20
69.6244164919
 10
335.3939733632
 20
69.640031709
 10
335.4070823715
 20
69.6552109811
 10
335.4204275963
 20
69.6699266534
 10
335.4328758387
 20
69.683014865
 10
335.4454888582
 20
69.6956831413
 10
335.4582508414
 20
69.7079260777
 10
335.4711459747
 20
69.7197382694
 10
335.4841584445
 20
69.7311143116
 10
335.498753546
 20
69.74325338
 10
335.5134561733
 20
69.754854809
 10
335.5282482099
 20
69.7659274158
 10
335.5431115391
 20
69.7764800172
 10
335.5580280446
 20
69.7865214305
 10
335.5733623863
 20
69.7962927485
 10
335.5887142675
 20
69.8055139179
 10
335.6040643514
 20
69.8141631901
 10
335.6193933014
 20
69.8222188164
 10
335.6346817808
 20
69.8296590482
 10
335.6499104528
 20
69.8364621367
 10
335.6631682861
 20
69.8418741847
 10
335.6763581496
 20
69.8467712626
 10
335.6894726323
 20
69.8511425658
 10
335.7025043233
 20
69.8549772898
 10
335.7154458114
 20
69.85826463
 10
335.7282896858
 20
69.8609937817
 10
335.7410364295
 20
69.8631558726
 10
335.7536491283
 20
69.8647385526
 10
335.7660989515
 20
69.8657324325
 10
335.778357069
 20
69.8661281232
 10
335.7903946502
 20
69.8659162354
 10
335.8021828649
 20
69.86508738
 10
335.8136928826
 20
69.8636321677
 10
335.8248958729
 20
69.8615412094
 10
335.8357630054
 20
69.8588051159
 10
335.8462654498
 20
69.855414498
 10
335.8556501955
 20
69.8516911144
 10
335.8647393879
 20
69.8474373997
 10
335.8735748316
 20
69.8426921868
 10
335.8821983313
 20
69.8374943085
 10
335.8906516918
 20
69.8318825977
 10
335.8989767176
 20
69.8258958874
 10
335.9072152135
 20
69.8195730103
 10
335.9154089842
 20
69.8129527993
 10
335.9186503764
 20
69.810242379
 10
335.9218390157
 20
69.8074473404
 10
335.9249226097
 20
69.8045238262
 10
335.927848866
 20
69.8014279794
 10
335.9305654921
 20
69.7981159425
 10
335.9330201956
 20
69.7945438585
 10
335.9351606842
 20
69.79066787
 10
335.9369346655
 20
69.7864441199
 10
335.938289847
 20
69.7818287508
 10
335.9391739363
 20
69.7767779057
  0
LWPOLYLINE
  5
44B
100
AcDbEntity
  8
CURVE
100
AcDbPolyline
 62
250
  6
CONTINUOUS
 90
44
 70
0
 10
335.9475300269
 20
69.7816026077
 10
335.9499466281
 20
69.7896144554
 10
335.9525741963
 20
69.7976093919
 10
335.955406587
 20
69.8055853599
 10
335.9584376555
 20
69.8135403019
 10
335.9616612573
 20
69.8214721607
 10
335.9650712479
 20
69.8293788787
 10
335.9686614825
 20
69.8372583987
 10
335.9724258167
 20
69.8451086633
 10
335.9763581059
 20
69.852927615
 10
335.9804522055
 20
69.8607131966
 10
335.9847019709
 20
69.8684633506
 10
335.9891012575
 20
69.8761760196
 10
335.9936439208
 20
69.8838491463
 10
335.9983238161
 20
69.8914806734
 10
336.003134799
 20
69.8990685434
 10
336.0080707247
 20
69.9066106989
 10
336.0131254488
 20
69.9141050826
 10
336.0182928267
 20
69.9215496371
 10
336.0235667138
 20
69.928942305
 10
336.0289409654
 20
69.9362810289
 10
336.0344094371
 20
69.9435637516
 10
336.0399659842
 20
69.9507884155
 10
336.0456044622
 20
69.9579529634
 10
336.0513187265
 20
69.9650553377
 10
336.0571026325
 20
69.9720934813
 10
336.0629500356
 20
69.9790653366
 10
336.0688547913
 20
69.9859688464
 10
336.074810755
 20
69.9928019532
 10
336.080811782
 20
69.9995625996
 10
336.0868517279
 20
70.0062487284
 10
336.092924448
 20
70.012858282
 10
336.0990237977
 20
70.0193892032
 10
336.1051436325
 20
70.0258394345
 10
336.1112778079
 20
70.0322069186
 10
336.1174201791
 20
70.0384895981
 10
336.1235646017
 20
70.0446854156
 10
336.1297049311
 20
70.0507923138
 10
336.1358350226
 20
70.0568082353
 10
336.1419487318
 20
70.0627311226
 10
336.1480399139
 20
70.0685589185
 10
336.1591279929
 20
70.0789923066
 10
336.1701426688
 20
70.0891619182
 10
336.1811067274
 20
70.0991298961
  0
LINE
  5
44C
100
AcDbEntity
  8
CURVE
100
AcDbLine
 62
250
  6
CONTINUOUS
 10
335.9391739363
 20
69.7767779057
 11
335.9475300269
 21
69.7816026077
  0
LWPOLYLINE
  5
44D
100
AcDbEntity
  8
CURVE
100
AcDbPolyline
 62
250
  6
CONTINUOUS
 90
48
 70
0
 10
336.1788177058
 20
69.7512436433
 10
336.17446505
 20
69.7467845977
 10
336.1701262149
 20
69.74221957
 10
336.1658054796
 20
69.7375521648
 10
336.1615071229
 20
69.7327859866
 10
336.1572354239
 20
69.72792464
 10
336.1529946616
 20
69.7229717294
 10
336.148789115
 20
69.7179308595
 10
336.144623063
 20
69.7128056348
 10
336.1405007847
 20
69.7075996598
 10
336.136426559
 20
69.7023165391
 10
336.1324046649
 20
69.6969598773
 10
336.1284393814
 20
69.6915332788
 10
336.1245349876
 20
69.6860403482
 10
336.1206957623
 20
69.6804846902
 10
336.1169259847
 20
69.6748699091
 10
336.1132299336
 20
69.6691996096
 10
336.1096118881
 20
69.6634773963
 10
336.1060761271
 20
69.6577068735
 10
336.1026269297
 20
69.6518916461
 10
336.0992685748
 20
69.6460353183
 10
336.0960053415
 20
69.6401414949
 10
336.0928415087
 20
69.6342137803
 10
336.0897813553
 20
69.6282557791
 10
336.0868291605
 20
69.6222710959
 10
336.0839892032
 20
69.6162633352
 10
336.0812657623
 20
69.6102361015
 10
336.0786631169
 20
69.6041929993
 10
336.076185546
 20
69.5981376334
 10
336.0738373285
 20
69.5920736081
 10
336.0716227434
 20
69.586004528
 10
336.0695951404
 20
69.5800850583
 10
336.0676977371
 20
69.5741690656
 10
336.0659295894
 20
69.5682614057
 10
336.0642897531
 20
69.5623669346
 10
336.0627772841
 20
69.5564905083
 10
336.0613912383
 20
69.5506369827
 10
336.0601306715
 20
69.5448112138
 10
336.0589946396
 20
69.5390180576
 10
336.0579821985
 20
69.53326237
 10
336.057092404
 20
69.5275490069
 10
336.0563243119
 20
69.5218828244
 10
336.0556769782
 20
69.5162686784
 10
336.0551494587
 20
69.5107114248
 10
336.0547408093
 20
69.5052159196
 10
336.0544500857
 20
69.4997870188
 10
336.054276344
 20
69.4944295783
 10
336.0542186399
 20
69.4891484541
  0
LINE
  5
44E
100
AcDbEntity
  8
CURVE
100
AcDbLine
 62
250
  6
CONTINUOUS
 10
335.6842382362
 20
66.000530621
 11
336.6076185761
 21
66.9335157818
  0
LINE
  5
44F
100
AcDbEntity
  8
CURVE
100
AcDbLine
 62
250
  6
CONTINUOUS
 10
335.9786315379
 20
66.5961086356
 11
335.1935195651
 21
65.805563205
  0
LINE
  5
450
100
AcDbEntity
  8
CURVE
100
AcDbLine
 62
250
  6
CONTINUOUS
 10
335.1935195651
 20
63.323947521
 11
336.6076185761
 21
64.6580621086
  0
LINE
  5
451
100
AcDbEntity
  8
CURVE
100
AcDbLine
 62
250
  6
CONTINUOUS
 10
336.6076185761
 20
69.1863850707
 11
335.1935195651
 21
67.8689158626
  0
LWPOLYLINE
  5
452
100
AcDbEntity
  8
CURVE
100
AcDbPolyline
 62
250
  6
CONTINUOUS
 90
7
 70
0
 10
336.2975217983
 20
69.8651572836
 10
336.2775600897
 20
69.8466685139
 10
336.2576546079
 20
69.8280213912
 10
336.2378164906
 20
69.8091856292
 10
336.2180568758
 20
69.7901309415
 10
336.1983869016
 20
69.7708270417
 10
336.1788177058
 20
69.7512436433
  0
LINE
  5
453
100
AcDbEntity
  8
CURVE
100
AcDbLine
 62
250
  6
CONTINUOUS
 10
336.3375693435
 20
69.9017809101
 11
336.2975217983
 21
69.8651572836
  0
LINE
  5
454
100
AcDbEntity
  8
CURVE
100
AcDbLine
 62
250
  6
CONTINUOUS
 10
336.6076187637
 20
70.1478650482
 11
336.4178490842
 21
69.9744605308
  0
LINE
  5
455
100
AcDbEntity
  8
CURVE
100
AcDbLine
 62
250
  6
CONTINUOUS
 10
336.4178490842
 20
69.9744605308
 11
336.3375693435
 21
69.9017809101
  0
LINE
  5
456
100
AcDbEntity
  8
CURVE
100
AcDbLine
 62
250
  6
CONTINUOUS
 10
336.1668881118
 20
64.5674489149
 11
335.1935195651
 21
63.6941947469
  0
LINE
  5
457
100
AcDbEntity
  8
CURVE
100
AcDbLine
 62
250
  6
CONTINUOUS
 10
336.1811067274
 20
70.0991298961
 11
336.2029741354
 21
70.1187095228
  0
LINE
  5
458
100
AcDbEntity
  8
CURVE
100
AcDbLine
 62
250
  6
CONTINUOUS
 10
336.3253139719
 20
68.5758704069
 11
336.6076185761
 21
68.8271634594
  0
LINE
  5
459
100
AcDbEntity
  8
CURVE
100
AcDbLine
 62
250
  6
CONTINUOUS
 10
336.2029741354
 20
70.1187095228
 11
336.3271131701
 21
70.2288369975
  0
LINE
  5
45A
100
AcDbEntity
  8
CURVE
100
AcDbLine
 62
250
  6
CONTINUOUS
 10
336.5571328755
 20
70.4310047982
 11
336.6076187637
 21
70.475704924
  0
LINE
  5
45B
100
AcDbEntity
  8
CURVE
100
AcDbLine
 62
250
  6
CONTINUOUS
 10
336.3271131701
 20
70.2288369975
 11
336.5571328755
 21
70.4310047982
  0
LINE
  5
45C
100
AcDbEntity
  8
CURVE
100
AcDbLine
 62
250
  6
CONTINUOUS
 10
335.5820782769
 20
67.9220044372
 11
336.1068681811
 21
68.3816276957
  0
LINE
  5
45D
100
AcDbEntity
  8
CURVE
100
AcDbLine
 62
250
  6
CONTINUOUS
 10
336.6076185761
 20
67.7900135139
 11
335.1935195651
 21
66.8208448107
  0
LWPOLYLINE
  5
45E
100
AcDbEntity
  8
RACCORDO
100
AcDbPolyline
 62
7
  6
CONTINUOUS
 90
16
 70
0
 10
338.2970446412
 20
63.537964058
 10
338.3077009954
 20
63.5450326114
 10
338.3303046466
 20
63.5619098926
 10
338.3519281209
 20
63.5808011721
 10
338.3724414241
 20
63.6017200273
 10
338.3916569627
 20
63.624609709
 10
338.4093675728
 20
63.649327111
 10
338.4254641923
 20
63.6758006313
 10
338.4398519199
 20
63.7039669645
 10
338.4524117635
 20
63.733683191
 10
338.4630852106
 20
63.7648762254
 10
338.4718255537
 20
63.7974941217
 10
338.4785747108
 20
63.8314419066
 10
338.4832934479
 20
63.8666541664
 10
338.485950482
 20
63.9030785102
 10
338.4865649106
 20
63.9314997136
  0
LINE
  5
45F
100
AcDbEntity
  8
CURVE
100
AcDbLine
 62
250
  6
CONTINUOUS
 10
335.6880884326
 20
66.8556393438
 11
336.6076185761
 21
67.4565907305
  0
LINE
  5
460
100
AcDbEntity
  8
RACCORDO
100
AcDbLine
 62
250
  6
CONTINUOUS
 10
338.4316397849
 20
63.8520074129
 11
337.6350553358
 21
63.3426008926
  0
LINE
  5
461
100
AcDbEntity
  8
RACCORDO
100
AcDbLine
 62
7
  6
CONTINUOUS
 10
338.2972768629
 20
63.5381118981
 11
337.6350553358
 21
63.1146289088
  0
LWPOLYLINE
  5
462
100
AcDbEntity
  8
CURVE
100
AcDbPolyline
 62
250
  6
CONTINUOUS
 90
49
 70
0
 10
335.6028731042
 20
69.4940393377
 10
335.5974511003
 20
69.4907095139
 10
335.5920174152
 20
69.4871713596
 10
335.5865784398
 20
69.4834305412
 10
335.5811405648
 20
69.4794927255
 10
335.5757101812
 20
69.4753635791
 10
335.5702936798
 20
69.4710487686
 10
335.5648974513
 20
69.4665539607
 10
335.5595278867
 20
69.4618848219
 10
335.5541913768
 20
69.457047019
 10
335.5488943123
 20
69.4520462186
 10
335.5436430843
 20
69.4468880872
 10
335.5384440834
 20
69.4415782916
 10
335.5333037006
 20
69.4361224984
 10
335.5282283267
 20
69.4305263742
 10
335.5232243524
 20
69.4247955857
 10
335.5182981688
 20
69.4189357994
 10
335.5134561665
 20
69.4129526821
 10
335.5087047364
 20
69.4068519004
 10
335.5040502695
 20
69.4006391208
 10
335.4994991564
 20
69.3943200101
 10
335.4950577881
 20
69.3879002349
 10
335.4907325554
 20
69.3813854618
 10
335.4865298491
 20
69.3747813575
 10
335.4824560601
 20
69.3680935885
 10
335.4784953788
 20
69.3612907885
 10
335.4746719029
 20
69.3544162527
 10
335.4709860437
 20
69.3474771
 10
335.4674382123
 20
69.340480449
 10
335.4640288199
 20
69.3334334187
 10
335.4607582776
 20
69.326343128
 10
335.4576269966
 20
69.3192166957
 10
335.4546353881
 20
69.3120612405
 10
335.4517838633
 20
69.3048838814
 10
335.4490728332
 20
69.2976917372
 10
335.4465027092
 20
69.2904919267
 10
335.4440739023
 20
69.2832915689
 10
335.4417868237
 20
69.2760977824
 10
335.4396418846
 20
69.2689176862
 10
335.4376394962
 20
69.261758399
 10
335.4357800696
 20
69.2546270399
 10
335.434064016
 20
69.2475307275
 10
335.4324917466
 20
69.2404765807
 10
335.4310636725
 20
69.2334717184
 10
335.4297802049
 20
69.2265232594
 10
335.4286417551
 20
69.2196383225
 10
335.427648734
 20
69.2128240266
 10
335.426801553
 20
69.2060874906
 10
335.4261006231
 20
69.1994358332
  0
LINE
  5
463
100
AcDbEntity
  8
CURVE
100
AcDbLine
 62
250
  6
CONTINUOUS
 10
336.0542186399
 20
69.3064029771
 11
336.6076187637
 21
69.6259292729
  0
LINE
  5
464
100
AcDbEntity
  8
CURVE
100
AcDbLine
 62
250
  6
CONTINUOUS
 10
335.4344257712
 20
68.937240897
 11
335.8226234398
 21
69.1613813656
  0
LINE
  5
465
100
AcDbEntity
  8
CURVE
100
AcDbLine
 62
250
  6
CONTINUOUS
 10
336.6076187637
 20
69.286469601
 11
335.2100414107
 21
68.4795259531
  0
LINE
  5
466
100
AcDbEntity
  8
CURVE
100
AcDbLine
 62
250
  6
CONTINUOUS
 10
335.1934347122
 20
65.1340515058
 11
336.6076185761
 21
65.9505835449
  0
LINE
  5
467
100
AcDbEntity
  8
CURVE
100
AcDbLine
 62
250
  6
CONTINUOUS
 10
336.6076185761
 20
65.6097529267
 11
335.1934347122
 21
64.7932208876
  0
LINE
  5
468
100
AcDbEntity
  8
RACCORDO
100
AcDbLine
 62
7
  6
CONTINUOUS
 10
337.6350553358
 20
60.2426967603
 11
334.5237854986
 21
58.4462885496
  0
LINE
  5
469
100
AcDbEntity
  8
0
100
AcDbLine
 62
7
  6
CONTINUOUS
 10
337.6350553358
 20
60.2426967603
 11
334.5237854986
 21
58.4462885496
  0
LINE
  5
46A
100
AcDbEntity
  8
CURVE
100
AcDbLine
 62
250
  6
CONTINUOUS
 10
336.6076185761
 20
66.4601279482
 11
335.6842382362
 21
66.000530621
  0
LINE
  5
46B
100
AcDbEntity
  8
CURVE
100
AcDbLine
 62
250
  6
CONTINUOUS
 10
335.1935195651
 20
65.465014269
 11
336.6076185761
 21
66.1340640114
  0
ELLIPSE
  5
46C
100
AcDbEntity
  8
RACCORDO
100
AcDbEllipse
 62
7
  6
CONTINUOUS
 10
289.3272862614
 20
115.3990379304
 30
0.0
 11
-0.1002790871
 21
0.1736773754
 31
0.0
 40
0.5757524875
 41
-0.7840766935
 42
-0.0522143436
  0
ELLIPSE
  5
46D
100
AcDbEntity
  8
RACCORDO
100
AcDbEllipse
 62
7
  6
CONTINUOUS
 10
188.918123333
 20
173.374030183
 30
0.0
 11
-0.1002790871
 21
0.1736773754
 31
0.0
 40
0.5757524875
 41
-0.7840766935
 42
-0.0522143436
  0
ELLIPSE
  5
46E
100
AcDbEntity
  8
RACCORDO
100
AcDbEllipse
 62
7
  6
CONTINUOUS
 10
239.1227047972
 20
144.3865340567
 30
0.0
 11
-0.1002790871
 21
0.1736773754
 31
0.0
 40
0.5757524875
 41
-0.7840766935
 42
-0.0522143436
  0
ELLIPSE
  5
46F
100
AcDbEntity
  8
DRAFT
100
AcDbEllipse
 62
7
  6
CONTINUOUS
 10
188.0297126375
 20
172.425609971
 30
0.0
 11
0.1999444062
 21
-0.00862956
 31
0.0
 40
0.5464172455
 41
-0.744365984
 42
0.023578887
  0
ELLIPSE
  5
470
100
AcDbEntity
  8
DRAFT
100
AcDbEllipse
 62
7
  6
CONTINUOUS
 10
238.2342941017
 20
143.4381138447
 30
0.0
 11
0.1999444062
 21
-0.00862956
 31
0.0
 40
0.5464172455
 41
-0.744365984
 42
0.023578887
  0
ELLIPSE
  5
471
100
AcDbEntity
  8
RACCORDO
100
AcDbEllipse
 62
7
  6
CONTINUOUS
 10
299.557841797
 20
104.9407396883
 30
0.0
 11
12.3661684272
 21
4.0475911847
 31
0.0
 40
0.0365167727
 41
3.129640857
 42
3.1455976358
  0
ELLIPSE
  5
472
100
AcDbEntity
  8
RACCORDO
100
AcDbEllipse
 62
7
  6
CONTINUOUS
 10
249.3532603327
 20
133.9282358145
 30
0.0
 11
12.3661684272
 21
4.0475911847
 31
0.0
 40
0.0365167727
 41
3.129640857
 42
3.1455976358
  0
ELLIPSE
  5
473
100
AcDbEntity
  8
RACCORDO
100
AcDbEllipse
 62
7
  6
CONTINUOUS
 10
199.1486788685
 20
162.9157319408
 30
0.0
 11
12.3661684272
 21
4.0475911847
 31
0.0
 40
0.0365167727
 41
3.129640857
 42
3.1455976358
  0
ELLIPSE
  5
474
100
AcDbEntity
  8
DRAFT
100
AcDbEllipse
 62
7
  6
CONTINUOUS
 10
288.438875566
 20
114.4506177184
 30
0.0
 11
0.1999444062
 21
-0.00862956
 31
0.0
 40
0.5464172455
 41
-0.744365984
 42
0.023578887
  0
ENDSEC
  0
SECTION
  2
OBJECTS
  0
DICTIONARY
  5
C
100
AcDbDictionary
280
0
281
1
  3
ACAD_GROUP
350
D
  3
ACAD_MLINESTYLE
350
17
  3
ACAD_LAYOUT
350
1A
  3
ACAD_PLOTSETTINGS
350
19
  3
ACAD_PLOTSTYLENAME
350
E
  0
DICTIONARY
  5
D
102
{ACAD_REACTORS
330
C
102
}
100
AcDbDictionary
280
0
281
1
  0
ACDBDICTIONARYWDFLT
  5
E
102
{ACAD_REACTORS
330
C
102
}
100
AcDbDictionary
281
1
  3
Normal
350
F
100
AcDbDictionaryWithDefault
340
F
  0
DICTIONARY
  5
17
102
{ACAD_REACTORS
330
C
102
}
100
AcDbDictionary
280
0
281
1
  3
Standard
350
18
  0
DICTIONARY
  5
19
102
{ACAD_REACTORS
330
C
102
}
100
AcDbDictionary
281
1
  0
DICTIONARY
  5
1A
102
{ACAD_REACTORS
330
C
102
}
100
AcDbDictionary
281
1
  3
Model
350
475
  3
Layout1
350
476
  0
ACDBPLACEHOLDER
  5
F
102
{ACAD_REACTORS
330
E
102
}
  0
MLINESTYLE
  5
18
102
{ACAD_REACTORS
330
17
102
}
100
AcDbMlineStyle
  2
STANDARD
 70
0
  3

 62
256
 51
90.0
 52
90.0
 71
2
 49
0.5
 62
256
  6
BYLAYER
 49
-0.5
 62
256
  6
BYLAYER
  0
LAYOUT
  5
475
102
{ACAD_REACTORS
330
1A
102
}
100
AcDbPlotSettings
  1

  2
none_device
  4
ISO_A3_(420.00_x_297.00_MM)
  6

 40
0.0
 41
0.0
 42
0.0
 43
0.0
 44
420.0
 45
297.0
 46
0.0
 47
0.0
 48
0.0
 49
0.0
140
0.0
141
0.0
142
1.0
143
1.0
 70
1024
 72
1
 73
0
 74
0
  7

 75
0
147
1.0
148
0.0
149
0.0
100
AcDbLayout
  1
Model
 70
0
 71
0
 10
0.0
 20
0.0
 11
420.0
 21
297.0
 12
0.0
 22
0.0
 32
0.0
 14
0.0
 24
0.0
 34
0.0
 15
0.0
 25
0.0
 35
0.0
146
0.0
 13
0.0
 23
0.0
 33
0.0
 16
1.0
 26
0.0
 36
0.0
 17
0.0
 27
1.0
 37
0.0
 76
0
330
214
345
0
346
0
  0
LAYOUT
  5
476
102
{ACAD_REACTORS
330
1A
102
}
100
AcDbPlotSettings
  1

  2
none_device
  4
ISO_A3_(420.00_x_297.00_MM)
  6

 40
0.0
 41
0.0
 42
0.0
 43
0.0
 44
420.0
 45
297.0
 46
0.0
 47
0.0
 48
0.0
 49
0.0
140
0.0
141
0.0
142
1.0
143
1.0
 70
0
 72
1
 73
0
 74
0
  7

 75
0
147
1.0
148
0.0
149
0.0
100
AcDbLayout
  1
Layout1
 70
0
 71
1
 10
0.0
 20
0.0
 11
420.0
 21
297.0
 12
0.0
 22
0.0
 32
0.0
 14
0.0
 24
0.0
 34
0.0
 15
0.0
 25
0.0
 35
0.0
146
0.0
 13
0.0
 23
0.0
 33
0.0
 16
1.0
 26
0.0
 36
0.0
 17
0.0
 27
1.0
 37
0.0
 76
0
330
215
345
0
346
0
  0
ENDSEC
  0
EOF
