  0
SECTION
  2
HEADER
  9
$ACADVER
  1
AC1024
  9
$DWGCODEPAGE
  3
ANSI_1252
  9
$EXTMAX
 10
420.0
 20
297.0
 30
0.0
  9
$EXTMIN
 10
0.0
 20
-0.0
 30
0.0
  9
$LIMMIN
 10
0.0
 20
-0.0
  9
$LIMMAX
 10
420.0
 20
297.0
  9
$VIEWCTR
 10
210.0
 20
148.5
  9
$VIEWSIZE
 40
297.0
  9
$CLAYER
  8
0
  9
$LTSCALE
 40
23.1
  9
$CELTYPE
  6
BYLAYER
  9
$DIMSCALE
 40
1.0
  9
$DIMASZ
 40
3.0
  9
$DIMEXO
 40
0.5
  9
$DIMDLI
 40
15.96
  9
$DIMEXE
 40
1.5
  9
$DIMCEN
 40
3.78
  9
$DIMLFAC
 40
1.0
  9
$DIMBLK
  1
_FILLED
  9
$DIMALT
 70
0
  9
$DIMALTF
 40
0.0393700787
  9
$DIMTXT
 40
3.0
  9
$DIMTOL
 70
1
  9
$DIMLIM
 70
0
  9
$DIMTFAC
 40
1.0
  9
$DIMTP
 40
0.01
  9
$DIMTM
 40
0.01
  9
$DIMGAP
 40
0.625
  9
$DIMDSEP
 70
44
  9
$AUNITS
 70
0
  9
$PDMODE
 70
3
  9
$PDSIZE
 40
3.0
  9
$HANDSEED
  5
3BC
  9
$TILEMODE
 70
1
  9
$MEASUREMENT
 70
1
  9
$INSUNITS
 70
4
  0
ENDSEC
  0
SECTION
  2
CLASSES
  0
CLASS
  1
ACDBDICTIONARYWDFLT
  2
AcDbDictionaryWithDefault
  3
AutoCAD 2000
 90
0
 91
1
280
0
281
0
  0
CLASS
  1
ACDBPLACEHOLDER
  2
AcDbPlaceHolder
  3
AutoCAD 2000
 90
0
 91
1
280
0
281
0
  0
CLASS
  1
LAYOUT
  2
AcDbLayout
  3
AutoCAD 2000
 90
0
 91
0
280
0
281
0
  0
ENDSEC
  0
SECTION
  2
TABLES
  0
TABLE
  2
VPORT
  5
8
100
AcDbSymbolTable
 70
2
  0
VPORT
  5
1F4
100
AcDbSymbolTableRecord
100
AcDbViewportTableRecord
  2
*ACTIVE
 70
0
 10
0.0
 20
0.0
 11
1.0
 21
1.0
 12
210.0
 22
148.5
 13
0.0
 23
0.0
 14
1.0
 24
1.0
 15
0.0
 25
0.0
 16
0.0
 26
0.0
 36
1.0
 17
0.0
 27
0.0
 37
0.0
 40
297.0
 41
1.4141414141
 42
50.0
 43
0.0
 44
0.0
 50
0.0
 51
0.0
 71
0
 72
100
 73
1
 74
1
 75
0
 76
0
 77
0
 78
0
  0
ENDTAB
  0
TABLE
  2
LTYPE
  5
5
100
AcDbSymbolTable
 70
6
  0
LTYPE
  5
14
100
AcDbSymbolTableRecord
100
AcDbLinetypeTableRecord
  2
BYBLOCK
 70
0
  3

 72
65
 73
0
 40
0.0
  0
LTYPE
  5
15
100
AcDbSymbolTableRecord
100
AcDbLinetypeTableRecord
  2
BYLAYER
 70
0
  3

 72
65
 73
0
 40
0.0
  0
LTYPE
  5
16
100
AcDbSymbolTableRecord
100
AcDbLinetypeTableRecord
  2
CONTINUOUS
 70
64
  3
Solid line
 72
65
 73
0
 40
0.0
  0
LTYPE
  5
1F5
100
AcDbSymbolTableRecord
100
AcDbLinetypeTableRecord
  2
CENTER
 70
64
  3
____ _ ____ _ ____ _ ____ _ ____ _ ____ _ ____
 72
65
 73
4
 40
0.6
 49
0.375
 74
0
 49
-0.075
 74
0
 49
0.075
 74
0
 49
-0.075
 74
0
  0
LTYPE
  5
1F6
100
AcDbSymbolTableRecord
100
AcDbLinetypeTableRecord
  2
HIDDEN
 70
64
  3
- - - - - - - - - - - - - - - - - - - -
 72
65
 73
2
 40
0.2
 49
0.1
 74
0
 49
-0.1
 74
0
  0
LTYPE
  5
1F7
100
AcDbSymbolTableRecord
100
AcDbLinetypeTableRecord
  2
PHANTOM
 70
64
  3
_____ _ _ _____ _ _ _____ _ _ _____
 72
65
 73
6
 40
0.8
 49
0.45
 74
0
 49
-0.05
 74
0
 49
0.1
 74
0
 49
-0.05
 74
0
 49
0.1
 74
0
 49
-0.05
 74
0
  0
LTYPE
  5
1F8
100
AcDbSymbolTableRecord
100
AcDbLinetypeTableRecord
  2
DOT
 70
64
  3
. . . . . . . . . . . . . . . . . . . .
 72
65
 73
2
 40
0.2
 49
0.1
 74
0
 49
-0.1
 74
0
  0
LTYPE
  5
1F9
100
AcDbSymbolTableRecord
100
AcDbLinetypeTableRecord
  2
DASHED
 70
64
  3
- - - - - - - - - - - - - - - - - - - -
 72
65
 73
2
 40
0.2
 49
0.1
 74
0
 49
-0.1
 74
0
  0
ENDTAB
  0
TABLE
  2
LAYER
  5
2
100
AcDbSymbolTable
 70
36
  0
LAYER
  5
10
100
AcDbSymbolTableRecord
100
AcDbLayerTableRecord
  2
0
 70
0
 62
7
  6
CONTINUOUS
370
-3
390
F
  0
LAYER
  5
1FA
100
AcDbSymbolTableRecord
100
AcDbLayerTableRecord
  2
DEFAULT_1
 70
0
 62
7
  6
CENTER
370
-3
390
F
  0
LAYER
  5
1FB
100
AcDbSymbolTableRecord
100
AcDbLayerTableRecord
  2
DEFAULT_2
 70
0
 62
7
  6
HIDDEN
370
-3
390
F
  0
LAYER
  5
1FC
100
AcDbSymbolTableRecord
100
AcDbLayerTableRecord
  2
DEFAULT_3
 70
0
 62
7
  6
PHANTOM
370
-3
390
F
  0
LAYER
  5
1FD
100
AcDbSymbolTableRecord
100
AcDbLayerTableRecord
  2
ASSI
 70
0
 62
7
  6
CONTINUOUS
370
-3
390
F
  0
LAYER
  5
1FE
100
AcDbSymbolTableRecord
100
AcDbLayerTableRecord
  2
COORDINATE
 70
0
 62
7
  6
CONTINUOUS
370
-3
390
F
  0
LAYER
  5
1FF
100
AcDbSymbolTableRecord
100
AcDbLayerTableRecord
  2
COPY_PUBLISH
 70
0
 62
7
  6
CONTINUOUS
370
-3
390
F
  0
LAYER
  5
200
100
AcDbSymbolTableRecord
100
AcDbLayerTableRecord
  2
COSMETICI
 70
0
 62
7
  6
CONTINUOUS
370
-3
390
F
  0
LAYER
  5
201
100
AcDbSymbolTableRecord
100
AcDbLayerTableRecord
  2
CURVE
 70
0
 62
7
  6
CONTINUOUS
370
-3
390
F
  0
LAYER
  5
202
100
AcDbSymbolTableRecord
100
AcDbLayerTableRecord
  2
DRAFT
 70
0
 62
7
  6
CONTINUOUS
370
-3
390
F
  0
LAYER
  5
203
100
AcDbSymbolTableRecord
100
AcDbLayerTableRecord
  2
IMPORT_IGES
 70
0
 62
7
  6
CONTINUOUS
370
-3
390
F
  0
LAYER
  5
204
100
AcDbSymbolTableRecord
100
AcDbLayerTableRecord
  2
INTF_1
 70
0
 62
7
  6
CONTINUOUS
370
-3
390
F
  0
LAYER
  5
205
100
AcDbSymbolTableRecord
100
AcDbLayerTableRecord
  2
INTF_11
 70
0
 62
7
  6
CONTINUOUS
370
-3
390
F
  0
LAYER
  5
206
100
AcDbSymbolTableRecord
100
AcDbLayerTableRecord
  2
INTF_13
 70
0
 62
7
  6
CONTINUOUS
370
-3
390
F
  0
LAYER
  5
207
100
AcDbSymbolTableRecord
100
AcDbLayerTableRecord
  2
INTF_2
 70
0
 62
7
  6
CONTINUOUS
370
-3
390
F
  0
LAYER
  5
208
100
AcDbSymbolTableRecord
100
AcDbLayerTableRecord
  2
INTF_8
 70
0
 62
7
  6
CONTINUOUS
370
-3
390
F
  0
LAYER
  5
209
100
AcDbSymbolTableRecord
100
AcDbLayerTableRecord
  2
NOTE
 70
0
 62
7
  6
CONTINUOUS
370
-3
390
F
  0
LAYER
  5
20A
100
AcDbSymbolTableRecord
100
AcDbLayerTableRecord
  2
PIANI
 70
0
 62
7
  6
CONTINUOUS
370
-3
390
F
  0
LAYER
  5
20B
100
AcDbSymbolTableRecord
100
AcDbLayerTableRecord
  2
PUNTI
 70
0
 62
7
  6
CONTINUOUS
370
-3
390
F
  0
LAYER
  5
20C
100
AcDbSymbolTableRecord
100
AcDbLayerTableRecord
  2
RACCORDO
 70
0
 62
7
  6
CONTINUOUS
370
-3
390
F
  0
LAYER
  5
20D
100
AcDbSymbolTableRecord
100
AcDbLayerTableRecord
  2
RGB____0____0____0__
 70
0
 62
7
  6
CONTINUOUS
370
-3
390
F
  0
LAYER
  5
20E
100
AcDbSymbolTableRecord
100
AcDbLayerTableRecord
  2
SIMBOLI
 70
0
 62
7
  6
CONTINUOUS
370
-3
390
F
  0
LAYER
  5
20F
100
AcDbSymbolTableRecord
100
AcDbLayerTableRecord
  2
SMUSSO
 70
0
 62
7
  6
CONTINUOUS
370
-3
390
F
  0
LAYER
  5
210
100
AcDbSymbolTableRecord
100
AcDbLayerTableRecord
  2
SUPERFICI
 70
0
 62
7
  6
CONTINUOUS
370
-3
390
F
  0
LAYER
  5
211
100
AcDbSymbolTableRecord
100
AcDbLayerTableRecord
  2
TRASH
 70
0
 62
7
  6
CONTINUOUS
370
-3
390
F
  0
ENDTAB
  0
TABLE
  2
STYLE
  5
3
100
AcDbSymbolTable
 70
1
  0
STYLE
  5
11
100
AcDbSymbolTableRecord
100
AcDbTextStyleTableRecord
  2
STANDARD
 70
0
 40
0.0
 41
0.8
 50
0.0
 71
0
 42
0.2
  3
txt
  4

  0
STYLE
  5
212
100
AcDbSymbolTableRecord
100
AcDbTextStyleTableRecord
  2
TEXTSTYLE_1
 70
0
 40
0.0
 41
0.8
 50
0.0
 71
0
 42
0.2
  3
gdt
  4

  0
ENDTAB
  0
TABLE
  2
VIEW
  5
6
100
AcDbSymbolTable
 70
0
  0
ENDTAB
  0
TABLE
  2
UCS
  5
7
100
AcDbSymbolTable
 70
0
  0
ENDTAB
  0
TABLE
  2
APPID
  5
9
100
AcDbSymbolTable
 70
1
  0
APPID
  5
213
100
AcDbSymbolTableRecord
100
AcDbRegAppTableRecord
  2
ACAD
 70
0
  0
ENDTAB
  0
TABLE
  2
BLOCK_RECORD
  5
1
100
AcDbSymbolTable
 70
0
  0
BLOCK_RECORD
  5
214
100
AcDbSymbolTableRecord
100
AcDbBlockTableRecord
  2
*Model_Space
  0
BLOCK_RECORD
  5
215
100
AcDbSymbolTableRecord
100
AcDbBlockTableRecord
  2
*Paper_Space
  0
BLOCK_RECORD
  5
216
100
AcDbSymbolTableRecord
100
AcDbBlockTableRecord
  2
_FILLED
  0
ENDTAB
  0
TABLE
  2
DIMSTYLE
  5
A
100
AcDbSymbolTable
 70
1
100
AcDbDimStyleTable
 71
0
  0
DIMSTYLE
105
217
100
AcDbSymbolTableRecord
100
AcDbDimStyleTableRecord
  2
STANDARD
 70
0
  3

  4

 40
1.0
 41
3.0
 42
0.5
 43
0.38
 44
1.5
 45
0.0
 46
0.0
 47
0.01
 48
0.01
140
3.0
141
0.0
142
0.0
143
25.4
144
1.0
145
0.0
146
1.0
147
0.625
 71
1
 72
0
 73
0
 74
0
 75
0
 76
0
 77
1
 78
8
 79
2
170
0
171
1
172
0
173
0
174
0
175
0
176
0
177
0
178
0
270
2
179
2
271
2
272
2
273
2
274
2
275
0
280
0
281
0
282
0
283
1
284
8
285
0
286
0
287
3
288
0
340
11
278
44
341
216
342
216
343
216
344
216
  0
ENDTAB
  0
ENDSEC
  0
SECTION
  2
BLOCKS
  0
BLOCK
  5
20
100
AcDbEntity
  8
0
100
AcDbBlockBegin
  2
*Model_Space
 70
0
 10
0.0
 20
0.0
 30
0.0
  3
*Model_Space
  1

  0
ENDBLK
  5
21
100
AcDbEntity
  8
0
100
AcDbBlockEnd
  0
BLOCK
  5
1C
100
AcDbEntity
  8
0
100
AcDbBlockBegin
  2
*Paper_Space
 70
0
 10
0.0
 20
0.0
 30
0.0
  3
*Paper_Space
  1

  0
ENDBLK
  5
1D
100
AcDbEntity
  8
0
100
AcDbBlockEnd
  0
BLOCK
  5
218
100
AcDbEntity
  8
0
100
AcDbBlockBegin
  2
_FILLED
 70
64
 10
0.0
 20
0.0
 30
0.0
  3
_FILLED
  1

  0
SOLID
  5
219
100
AcDbEntity
  8
0
  6
BYBLOCK
 62
0
100
AcDbTrace
 10
0.0
 20
0.0
 30
0.0
 11
-1.0
 21
0.3166666667
 31
0.0
 12
-1.0
 22
-0.3166666667
 32
0.0
 13
-1.0
 23
-0.3166666667
 33
0.0
  0
ENDBLK
  5
21A
100
AcDbEntity
  8
0
  6
BYBLOCK
 62
0
100
AcDbBlockEnd
  0
ENDSEC
  0
SECTION
  2
ENTITIES
  0
LINE
  5
21B
100
AcDbEntity
  8
RACCORDO
100
AcDbLine
 62
7
  6
CONTINUOUS
 10
184.7649176947
 20
234.7346761461
 30
0.0
 11
181.6536478575
 21
233.1790412275
 31
0.0
  0
LINE
  5
21C
100
AcDbEntity
  8
0
100
AcDbLine
 62
7
  6
CONTINUOUS
 10
184.7649176947
 20
234.7346761461
 30
0.0
 11
181.6536478575
 21
233.1790412275
 31
0.0
  0
LINE
  5
21D
100
AcDbEntity
  8
RACCORDO
100
AcDbLine
 62
7
  6
CONTINUOUS
 10
187.5418769668
 20
233.34619651
 30
0.0
 11
187.9884968595
 21
233.5441516623
 31
0.0
  0
LINE
  5
21E
100
AcDbEntity
  8
RACCORDO
100
AcDbLine
 62
250
  6
CONTINUOUS
 10
187.710374301
 20
233.2619478429
 30
0.0
 11
188.2889189544
 21
233.5183759529
 31
0.0
  0
LINE
  5
21F
100
AcDbEntity
  8
CURVE
100
AcDbLine
 62
250
  6
CONTINUOUS
 10
244.9373373802
 20
72.5681055119
 30
0.0
 11
245.4621272844
 21
72.6504953518
 31
0.0
  0
LINE
  5
220
100
AcDbEntity
  8
CURVE
100
AcDbLine
 62
250
  6
CONTINUOUS
 10
245.5221472151
 20
68.9441963291
 30
0.0
 11
244.5487786684
 21
68.7977292696
 31
0.0
  0
LINE
  5
221
100
AcDbEntity
  8
CURVE
100
AcDbLine
 62
250
  6
CONTINUOUS
 10
245.6805730752
 20
72.6857674719
 30
0.0
 11
245.9628776794
 21
72.7271640398
 31
0.0
  0
LINE
  5
222
100
AcDbEntity
  8
CURVE
100
AcDbLine
 62
250
  6
CONTINUOUS
 10
245.9628776794
 20
72.3695682942
 30
0.0
 11
244.5487786684
 21
72.2057566059
 31
0.0
  0
LINE
  5
223
100
AcDbEntity
  8
CURVE
100
AcDbLine
 62
250
  6
CONTINUOUS
 10
244.5487786684
 20
69.159000427
 30
0.0
 11
245.9628776794
 21
69.3093445543
 31
0.0
  0
LINE
  5
224
100
AcDbEntity
  8
CURVE
100
AcDbLine
 62
250
  6
CONTINUOUS
 10
245.3338906412
 20
71.1171502102
 30
0.0
 11
244.5487786684
 21
71.0861113325
 31
0.0
  0
LINE
  5
225
100
AcDbEntity
  8
CURVE
100
AcDbLine
 62
250
  6
CONTINUOUS
 10
245.0433475359
 20
71.4250991962
 30
0.0
 11
245.9628776794
 21
71.4550203531
 31
0.0
  0
LINE
  5
226
100
AcDbEntity
  8
RACCORDO
100
AcDbLine
 62
250
  6
CONTINUOUS
 10
196.5205679319
 20
209.344532878
 30
0.0
 11
196.9645805987
 21
209.5665392114
 31
0.0
  0
LINE
  5
227
100
AcDbEntity
  8
0
100
AcDbLine
 62
250
  6
CONTINUOUS
 10
196.5205679319
 20
209.344532878
 30
0.0
 11
196.9645805987
 21
209.5665392114
 31
0.0
  0
LINE
  5
228
100
AcDbEntity
  8
RACCORDO
100
AcDbLine
 62
7
  6
CONTINUOUS
 10
228.6414138493
 20
87.6262695568
 30
0.0
 11
228.5630223338
 21
87.6066071742
 31
0.0
  0
LINE
  5
229
100
AcDbEntity
  8
RACCORDO
100
AcDbLine
 62
7
  6
CONTINUOUS
 10
181.5097331716
 20
93.6949042687
 30
0.0
 11
243.5757456923
 21
62.6618980083
 31
0.0
  0
LINE
  5
22A
100
AcDbEntity
  8
0
100
AcDbLine
 62
7
  6
CONTINUOUS
 10
181.5097331716
 20
93.6949042687
 30
0.0
 11
243.5757456923
 21
62.6618980083
 31
0.0
  0
LINE
  5
22B
100
AcDbEntity
  8
RACCORDO
100
AcDbLine
 62
250
  6
CONTINUOUS
 10
181.6536478575
 20
93.8284105295
 30
0.0
 11
243.1719378207
 21
63.0692655479
 31
0.0
  0
LINE
  5
22C
100
AcDbEntity
  8
0
100
AcDbLine
 62
250
  6
CONTINUOUS
 10
181.6536478575
 20
93.8284105295
 30
0.0
 11
243.1719378207
 21
63.0692655479
 31
0.0
  0
LINE
  5
22D
100
AcDbEntity
  8
ASSI
100
AcDbLine
 62
7
  6
CONTINUOUS
 10
198.3104286527
 20
203.1084423854
 30
0.0
 11
198.7192976018
 21
203.31287686
 31
0.0
  0
LINE
  5
22E
100
AcDbEntity
  8
RACCORDO
100
AcDbLine
 62
7
  6
CONTINUOUS
 10
223.9668282561
 20
89.9047042131
 30
0.0
 11
224.234954777
 21
89.9719564685
 31
0.0
  0
LINE
  5
22F
100
AcDbEntity
  8
RACCORDO
100
AcDbLine
 62
7
  6
CONTINUOUS
 10
222.4671878241
 20
90.855839945
 30
0.0
 11
222.128350625
 21
90.7708518365
 31
0.0
  0
LINE
  5
230
100
AcDbEntity
  8
RACCORDO
100
AcDbLine
 62
7
  6
CONTINUOUS
 10
198.7145858292
 20
197.3982076776
 30
0.0
 11
198.6451094105
 21
197.3622352088
 31
0.0
  0
LINE
  5
231
100
AcDbEntity
  8
RACCORDO
100
AcDbLine
 62
250
  6
CONTINUOUS
 10
228.0928857119
 20
85.655982993
 30
0.0
 11
196.7326999663
 21
101.3360758658
 31
0.0
  0
LINE
  5
232
100
AcDbEntity
  8
0
100
AcDbLine
 62
250
  6
CONTINUOUS
 10
228.0928857119
 20
85.655982993
 30
0.0
 11
196.7326999663
 21
101.3360758658
 31
0.0
  0
LINE
  5
233
100
AcDbEntity
  8
RACCORDO
100
AcDbLine
 62
250
  6
CONTINUOUS
 10
228.3050177462
 20
86.0218566313
 30
0.0
 11
196.9448320006
 21
101.7019495042
 31
0.0
  0
LINE
  5
234
100
AcDbEntity
  8
0
100
AcDbLine
 62
250
  6
CONTINUOUS
 10
228.3050177462
 20
86.0218566313
 30
0.0
 11
196.9448320006
 21
101.7019495042
 31
0.0
  0
LINE
  5
235
100
AcDbEntity
  8
RACCORDO
100
AcDbLine
 62
7
  6
CONTINUOUS
 10
197.5812281037
 20
102.0201475557
 30
0.0
 11
228.6414138493
 21
86.4900546829
 31
0.0
  0
LINE
  5
236
100
AcDbEntity
  8
0
100
AcDbLine
 62
7
  6
CONTINUOUS
 10
197.5812281037
 20
102.0201475557
 30
0.0
 11
228.6414138493
 21
86.4900546829
 31
0.0
  0
LINE
  5
237
100
AcDbEntity
  8
RACCORDO
100
AcDbLine
 62
250
  6
CONTINUOUS
 10
222.128350625
 20
90.7708518365
 30
0.0
 11
207.7033722888
 21
97.9833410046
 31
0.0
  0
LINE
  5
238
100
AcDbEntity
  8
RACCORDO
100
AcDbLine
 62
7
  6
CONTINUOUS
 10
222.162558397
 20
90.779431927
 30
0.0
 11
207.7646201242
 21
97.9784010634
 31
0.0
  0
LINE
  5
239
100
AcDbEntity
  8
RACCORDO
100
AcDbLine
 62
250
  6
CONTINUOUS
 10
201.4101219362
 20
101.183057373
 30
0.0
 11
206.006316014
 21
98.8849603342
 31
0.0
  0
LINE
  5
23A
100
AcDbEntity
  8
RACCORDO
100
AcDbLine
 62
250
  6
CONTINUOUS
 10
223.9668282561
 20
89.9047042131
 30
0.0
 11
228.5630223338
 21
87.6066071742
 31
0.0
  0
LINE
  5
23B
100
AcDbEntity
  8
RACCORDO
100
AcDbLine
 62
7
  6
CONTINUOUS
 10
201.4713697717
 20
101.1781174318
 30
0.0
 11
206.0405237859
 21
98.8935404247
 31
0.0
  0
LINE
  5
23C
100
AcDbEntity
  8
RACCORDO
100
AcDbLine
 62
7
  6
CONTINUOUS
 10
224.0280760915
 20
89.8997642719
 30
0.0
 11
228.5972301058
 21
87.6151872647
 31
0.0
  0
LINE
  5
23D
100
AcDbEntity
  8
RACCORDO
100
AcDbLine
 62
7
  6
CONTINUOUS
 10
207.7033722888
 20
97.9833410046
 30
0.0
 11
208.0422094879
 21
98.0683291131
 31
0.0
  0
LINE
  5
23E
100
AcDbEntity
  8
RACCORDO
100
AcDbLine
 62
7
  6
CONTINUOUS
 10
206.2744425349
 20
98.9522125895
 30
0.0
 11
206.006316014
 21
98.8849603342
 31
0.0
  0
LINE
  5
23F
100
AcDbEntity
  8
RACCORDO
100
AcDbLine
 62
7
  6
CONTINUOUS
 10
201.4101219362
 20
101.183057373
 30
0.0
 11
201.6782484572
 21
101.2503096284
 31
0.0
  0
LINE
  5
240
100
AcDbEntity
  8
RACCORDO
100
AcDbLine
 62
7
  6
CONTINUOUS
 10
199.2739658705
 20
102.3361484275
 30
0.0
 11
199.7555814558
 21
102.0953406349
 31
0.0
  0
LINE
  5
241
100
AcDbEntity
  8
DRAFT
100
AcDbLine
 62
7
  6
CONTINUOUS
 10
224.234954777
 20
89.9719564685
 30
0.0
 11
222.4671878241
 21
90.855839945
 31
0.0
  0
LINE
  5
242
100
AcDbEntity
  8
DRAFT
100
AcDbLine
 62
7
  6
CONTINUOUS
 10
208.0422094879
 20
98.0683291131
 30
0.0
 11
206.2744425349
 21
98.9522125895
 31
0.0
  0
LINE
  5
243
100
AcDbEntity
  8
DRAFT
100
AcDbLine
 62
7
  6
CONTINUOUS
 10
201.6782484572
 20
101.2503096284
 30
0.0
 11
199.9104815042
 21
102.1341931049
 31
0.0
  0
LINE
  5
244
100
AcDbEntity
  8
RACCORDO
100
AcDbLine
 62
250
  6
CONTINUOUS
 10
199.2739658705
 20
102.3361484275
 30
0.0
 11
197.7528606839
 21
101.9343312656
 31
0.0
  0
LINE
  5
245
100
AcDbEntity
  8
RACCORDO
100
AcDbLine
 62
250
  6
CONTINUOUS
 10
198.8511136051
 20
103.0759899216
 30
0.0
 11
197.2531559763
 21
102.6538713167
 31
0.0
  0
LINE
  5
246
100
AcDbEntity
  8
DRAFT
100
AcDbLine
 62
7
  6
CONTINUOUS
 10
199.7555814558
 20
102.0953406349
 30
0.0
 11
199.9104815042
 21
102.1341931049
 31
0.0
  0
LINE
  5
247
100
AcDbEntity
  8
RACCORDO
100
AcDbLine
 62
7
  6
CONTINUOUS
 10
181.5072012481
 20
232.8754380481
 30
0.0
 11
181.5072012481
 21
93.6990010069
 31
0.0
  0
LINE
  5
248
100
AcDbEntity
  8
0
100
AcDbLine
 62
7
  6
CONTINUOUS
 10
181.5072012481
 20
232.8754380481
 30
0.0
 11
181.5072012481
 21
93.6990010069
 31
0.0
  0
LINE
  5
249
100
AcDbEntity
  8
RACCORDO
100
AcDbLine
 62
250
  6
CONTINUOUS
 10
181.6536478575
 20
232.392475135
 30
0.0
 11
181.6536478575
 21
93.8284105295
 31
0.0
  0
LINE
  5
24A
100
AcDbEntity
  8
0
100
AcDbLine
 62
250
  6
CONTINUOUS
 10
181.6536478575
 20
232.392475135
 30
0.0
 11
181.6536478575
 21
93.8284105295
 31
0.0
  0
LINE
  5
24B
100
AcDbEntity
  8
DRAFT
100
AcDbLine
 62
7
  6
CONTINUOUS
 10
198.8511136051
 20
174.9633989962
 30
0.0
 11
200.1016891406
 21
175.6925990773
 31
0.0
  0
LINE
  5
24C
100
AcDbEntity
  8
RACCORDO
100
AcDbLine
 62
7
  6
CONTINUOUS
 10
246.9903144391
 20
203.6219777739
 30
0.0
 11
243.8790446019
 21
202.0663428553
 31
0.0
  0
LINE
  5
24D
100
AcDbEntity
  8
0
100
AcDbLine
 62
7
  6
CONTINUOUS
 10
246.9903144391
 20
203.6219777739
 30
0.0
 11
243.8790446019
 21
202.0663428553
 31
0.0
  0
LINE
  5
24E
100
AcDbEntity
  8
RACCORDO
100
AcDbLine
 62
250
  6
CONTINUOUS
 10
247.2920937568
 20
204.0167885517
 30
0.0
 11
246.7430753804
 21
203.7455973032
 31
0.0
  0
LINE
  5
24F
100
AcDbEntity
  8
RACCORDO
100
AcDbLine
 62
250
  6
CONTINUOUS
 10
247.7868988882
 20
203.1633759391
 30
0.0
 11
246.9903144391
 21
202.7698977959
 31
0.0
  0
LINE
  5
250
100
AcDbEntity
  8
DRAFT
100
AcDbLine
 62
7
  6
CONTINUOUS
 10
200.1016891406
 20
178.9709844236
 30
0.0
 11
198.6451094105
 21
178.3119713537
 31
0.0
  0
LINE
  5
251
100
AcDbEntity
  8
RACCORDO
100
AcDbLine
 62
7
  6
CONTINUOUS
 10
199.2708897916
 20
179.3533894285
 30
0.0
 11
198.7012414505
 21
179.1316753421
 31
0.0
  0
LINE
  5
252
100
AcDbEntity
  8
RACCORDO
100
AcDbLine
 62
250
  6
CONTINUOUS
 10
199.3539089148
 20
179.3448745365
 30
0.0
 11
198.7012414505
 21
179.0908483941
 31
0.0
  0
LINE
  5
253
100
AcDbEntity
  8
RACCORDO
100
AcDbLine
 62
7
  6
CONTINUOUS
 10
199.3539089148
 20
117.8570708678
 30
0.0
 11
200.1016891406
 21
117.4831807549
 31
0.0
  0
LINE
  5
254
100
AcDbEntity
  8
ASSI
100
AcDbLine
 62
7
  6
CONTINUOUS
 10
198.3104286527
 20
171.4119126069
 30
0.0
 11
198.7192976018
 21
171.6163470815
 31
0.0
  0
LINE
  5
255
100
AcDbEntity
  8
RACCORDO
100
AcDbLine
 62
250
  6
CONTINUOUS
 10
196.0963038632
 20
102.4336967808
 30
0.0
 11
196.0963038632
 21
147.8567292093
 31
0.0
  0
LINE
  5
256
100
AcDbEntity
  8
0
100
AcDbLine
 62
250
  6
CONTINUOUS
 10
196.0963038632
 20
102.4336967808
 30
0.0
 11
196.0963038632
 21
147.8567292093
 31
0.0
  0
LINE
  5
257
100
AcDbEntity
  8
RACCORDO
100
AcDbLine
 62
250
  6
CONTINUOUS
 10
196.0963038632
 20
163.9215004495
 30
0.0
 11
196.0963038632
 21
209.344532878
 31
0.0
  0
LINE
  5
258
100
AcDbEntity
  8
0
100
AcDbLine
 62
250
  6
CONTINUOUS
 10
196.0963038632
 20
163.9215004495
 30
0.0
 11
196.0963038632
 21
209.344532878
 31
0.0
  0
LINE
  5
259
100
AcDbEntity
  8
RACCORDO
100
AcDbLine
 62
250
  6
CONTINUOUS
 10
196.5205679319
 20
102.4336967808
 30
0.0
 11
196.5205679319
 21
147.8567292093
 31
0.0
  0
LINE
  5
25A
100
AcDbEntity
  8
0
100
AcDbLine
 62
250
  6
CONTINUOUS
 10
196.5205679319
 20
102.4336967808
 30
0.0
 11
196.5205679319
 21
147.8567292093
 31
0.0
  0
LINE
  5
25B
100
AcDbEntity
  8
RACCORDO
100
AcDbLine
 62
250
  6
CONTINUOUS
 10
196.5205679319
 20
163.9215004495
 30
0.0
 11
196.5205679319
 21
209.344532878
 31
0.0
  0
LINE
  5
25C
100
AcDbEntity
  8
0
100
AcDbLine
 62
250
  6
CONTINUOUS
 10
196.5205679319
 20
163.9215004495
 30
0.0
 11
196.5205679319
 21
209.344532878
 31
0.0
  0
LINE
  5
25D
100
AcDbEntity
  8
RACCORDO
100
AcDbLine
 62
250
  6
CONTINUOUS
 10
197.1786998142
 20
164.0952805694
 30
0.0
 11
197.2547303848
 21
164.133589001
 31
0.0
  0
LINE
  5
25E
100
AcDbEntity
  8
RACCORDO
100
AcDbLine
 62
250
  6
CONTINUOUS
 10
196.5205679319
 20
163.9215004495
 30
0.0
 11
197.156964035
 21
164.239698501
 31
0.0
  0
LINE
  5
25F
100
AcDbEntity
  8
0
100
AcDbLine
 62
250
  6
CONTINUOUS
 10
196.5205679319
 20
163.9215004495
 30
0.0
 11
197.156964035
 21
164.239698501
 31
0.0
  0
LINE
  5
260
100
AcDbEntity
  8
RACCORDO
100
AcDbLine
 62
250
  6
CONTINUOUS
 10
196.9448320006
 20
163.1897531728
 30
0.0
 11
197.5812281037
 21
163.5079512244
 31
0.0
  0
LINE
  5
261
100
AcDbEntity
  8
0
100
AcDbLine
 62
250
  6
CONTINUOUS
 10
196.9448320006
 20
163.1897531728
 30
0.0
 11
197.5812281037
 21
163.5079512244
 31
0.0
  0
LINE
  5
262
100
AcDbEntity
  8
RACCORDO
100
AcDbLine
 62
7
  6
CONTINUOUS
 10
197.156964035
 20
209.4703474932
 30
0.0
 11
197.156964035
 21
164.239698501
 31
0.0
  0
LINE
  5
263
100
AcDbEntity
  8
0
100
AcDbLine
 62
7
  6
CONTINUOUS
 10
197.156964035
 20
209.4703474932
 30
0.0
 11
197.156964035
 21
164.239698501
 31
0.0
  0
LINE
  5
264
100
AcDbEntity
  8
RACCORDO
100
AcDbLine
 62
7
  6
CONTINUOUS
 10
197.156964035
 20
147.9825438245
 30
0.0
 11
197.156964035
 21
102.7518948323
 31
0.0
  0
LINE
  5
265
100
AcDbEntity
  8
0
100
AcDbLine
 62
7
  6
CONTINUOUS
 10
197.156964035
 20
147.9825438245
 30
0.0
 11
197.156964035
 21
102.7518948323
 31
0.0
  0
LINE
  5
266
100
AcDbEntity
  8
RACCORDO
100
AcDbLine
 62
250
  6
CONTINUOUS
 10
197.1786998142
 20
102.6074769008
 30
0.0
 11
197.1786998142
 21
109.359240751
 31
0.0
  0
LINE
  5
267
100
AcDbEntity
  8
RACCORDO
100
AcDbLine
 62
250
  6
CONTINUOUS
 10
197.1786998142
 20
110.1272222109
 30
0.0
 11
197.1786998142
 21
141.0557705295
 31
0.0
  0
LINE
  5
268
100
AcDbEntity
  8
RACCORDO
100
AcDbLine
 62
250
  6
CONTINUOUS
 10
197.1786998142
 20
141.8237519894
 30
0.0
 11
197.1786998142
 21
147.9716759349
 31
0.0
  0
LINE
  5
269
100
AcDbEntity
  8
RACCORDO
100
AcDbLine
 62
250
  6
CONTINUOUS
 10
197.1786998142
 20
164.0952805694
 30
0.0
 11
197.1786998142
 21
170.8470444197
 31
0.0
  0
LINE
  5
26A
100
AcDbEntity
  8
RACCORDO
100
AcDbLine
 62
250
  6
CONTINUOUS
 10
197.1786998142
 20
171.6150258796
 30
0.0
 11
197.1786998142
 21
202.5435741982
 31
0.0
  0
LINE
  5
26B
100
AcDbEntity
  8
RACCORDO
100
AcDbLine
 62
250
  6
CONTINUOUS
 10
197.1786998142
 20
203.3115556581
 30
0.0
 11
197.1786998142
 21
209.4594796036
 31
0.0
  0
LINE
  5
26C
100
AcDbEntity
  8
RACCORDO
100
AcDbLine
 62
7
  6
CONTINUOUS
 10
197.2531559763
 20
209.4222515225
 30
0.0
 11
197.2531559763
 21
203.3460742999
 31
0.0
  0
LINE
  5
26D
100
AcDbEntity
  8
DRAFT
100
AcDbLine
 62
7
  6
CONTINUOUS
 10
197.2531559763
 20
202.5809570365
 30
0.0
 11
197.2531559763
 21
171.6495445213
 31
0.0
  0
LINE
  5
26E
100
AcDbEntity
  8
RACCORDO
100
AcDbLine
 62
7
  6
CONTINUOUS
 10
197.2531559763
 20
170.884427258
 30
0.0
 11
197.2531559763
 21
164.1416749854
 31
0.0
  0
LINE
  5
26F
100
AcDbEntity
  8
RACCORDO
100
AcDbLine
 62
7
  6
CONTINUOUS
 10
197.2531559763
 20
147.9344478538
 30
0.0
 11
197.2531559763
 21
141.8582706312
 31
0.0
  0
LINE
  5
270
100
AcDbEntity
  8
DRAFT
100
AcDbLine
 62
7
  6
CONTINUOUS
 10
197.2531559763
 20
141.0931533678
 30
0.0
 11
197.2531559763
 21
110.1617408527
 31
0.0
  0
LINE
  5
271
100
AcDbEntity
  8
RACCORDO
100
AcDbLine
 62
7
  6
CONTINUOUS
 10
197.2531559763
 20
109.3966235893
 30
0.0
 11
197.2531559763
 21
102.6538713167
 31
0.0
  0
LINE
  5
272
100
AcDbEntity
  8
DRAFT
100
AcDbLine
 62
250
  6
CONTINUOUS
 10
198.6451094105
 20
116.824167685
 30
0.0
 11
198.6451094105
 21
135.8744315401
 31
0.0
  0
LINE
  5
273
100
AcDbEntity
  8
DRAFT
100
AcDbLine
 62
250
  6
CONTINUOUS
 10
198.6451094105
 20
178.3119713537
 30
0.0
 11
198.6451094105
 21
197.3622352088
 31
0.0
  0
LINE
  5
274
100
AcDbEntity
  8
RACCORDO
100
AcDbLine
 62
7
  6
CONTINUOUS
 10
198.7012414505
 20
116.8873733268
 30
0.0
 11
198.7012414505
 21
135.9034947546
 31
0.0
  0
LINE
  5
275
100
AcDbEntity
  8
RACCORDO
100
AcDbLine
 62
7
  6
CONTINUOUS
 10
198.7012414505
 20
178.3751769955
 30
0.0
 11
198.7012414505
 21
197.3912984233
 31
0.0
  0
LINE
  5
276
100
AcDbEntity
  8
RACCORDO
100
AcDbLine
 62
250
  6
CONTINUOUS
 10
198.7145858292
 20
208.6915365961
 30
0.0
 11
198.7145858292
 21
204.1297084861
 31
0.0
  0
LINE
  5
277
100
AcDbEntity
  8
RACCORDO
100
AcDbLine
 62
250
  6
CONTINUOUS
 10
198.7145858292
 20
203.3106777644
 30
0.0
 11
198.7145858292
 21
197.3982076776
 31
0.0
  0
LINE
  5
278
100
AcDbEntity
  8
RACCORDO
100
AcDbLine
 62
250
  6
CONTINUOUS
 10
198.7145858292
 20
171.6141479859
 30
0.0
 11
198.7145858292
 21
164.5277282321
 31
0.0
  0
LINE
  5
279
100
AcDbEntity
  8
RACCORDO
100
AcDbLine
 62
250
  6
CONTINUOUS
 10
198.7145858292
 20
147.2037329274
 30
0.0
 11
198.7145858292
 21
142.6419048174
 31
0.0
  0
LINE
  5
27A
100
AcDbEntity
  8
RACCORDO
100
AcDbLine
 62
250
  6
CONTINUOUS
 10
198.7145858292
 20
141.8228740957
 30
0.0
 11
198.7145858292
 21
135.9104040089
 31
0.0
  0
LINE
  5
27B
100
AcDbEntity
  8
DRAFT
100
AcDbLine
 62
250
  6
CONTINUOUS
 10
198.7145858292
 20
113.3959871292
 30
0.0
 11
198.7145858292
 21
110.9453750389
 31
0.0
  0
LINE
  5
27C
100
AcDbEntity
  8
RACCORDO
100
AcDbLine
 62
7
  6
CONTINUOUS
 10
198.7707178691
 20
208.6634705761
 30
0.0
 11
198.7707178691
 21
204.1736101583
 31
0.0
  0
LINE
  5
27D
100
AcDbEntity
  8
RACCORDO
100
AcDbLine
 62
7
  6
CONTINUOUS
 10
198.7707178691
 20
203.3444819786
 30
0.0
 11
198.7707178691
 21
197.4676735147
 31
0.0
  0
LINE
  5
27E
100
AcDbEntity
  8
RACCORDO
100
AcDbLine
 62
7
  6
CONTINUOUS
 10
198.7707178691
 20
171.6479885618
 30
0.0
 11
198.7707178691
 21
164.5971940693
 31
0.0
  0
LINE
  5
27F
100
AcDbEntity
  8
RACCORDO
100
AcDbLine
 62
7
  6
CONTINUOUS
 10
198.7707178691
 20
147.1756669074
 30
0.0
 11
198.7707178691
 21
142.6858064896
 31
0.0
  0
LINE
  5
280
100
AcDbEntity
  8
RACCORDO
100
AcDbLine
 62
7
  6
CONTINUOUS
 10
198.7707178691
 20
141.8566783099
 30
0.0
 11
198.7707178691
 21
135.979869846
 31
0.0
  0
LINE
  5
281
100
AcDbEntity
  8
RACCORDO
100
AcDbLine
 62
7
  6
CONTINUOUS
 10
198.7707178691
 20
113.4287172498
 30
0.0
 11
198.7707178691
 21
110.9892767111
 31
0.0
  0
LINE
  5
282
100
AcDbEntity
  8
DRAFT
100
AcDbLine
 62
7
  6
CONTINUOUS
 10
198.8511136051
 20
174.9633989962
 30
0.0
 11
198.8511136051
 21
172.3470844638
 31
0.0
  0
LINE
  5
283
100
AcDbEntity
  8
RACCORDO
100
AcDbLine
 62
7
  6
CONTINUOUS
 10
198.8511136051
 20
110.2425344754
 30
0.0
 11
198.8511136051
 21
103.0759899216
 31
0.0
  0
LINE
  5
284
100
AcDbEntity
  8
DRAFT
100
AcDbLine
 62
7
  6
CONTINUOUS
 10
200.1016891406
 20
178.9709844236
 30
0.0
 11
200.1016891406
 21
175.6925990773
 31
0.0
  0
LINE
  5
285
100
AcDbEntity
  8
DRAFT
100
AcDbLine
 62
7
  6
CONTINUOUS
 10
200.1016891406
 20
117.4831807549
 30
0.0
 11
200.1016891406
 21
114.2047954087
 31
0.0
  0
LINE
  5
286
100
AcDbEntity
  8
DRAFT
100
AcDbLine
 62
7
  6
CONTINUOUS
 10
201.6782484572
 20
162.7381132971
 30
0.0
 11
201.6467213477
 21
162.5782453124
 31
0.0
  0
LINE
  5
287
100
AcDbEntity
  8
DRAFT
100
AcDbLine
 62
7
  6
CONTINUOUS
 10
208.0422094879
 20
159.5561327818
 30
0.0
 11
208.0011521321
 21
159.3479387281
 31
0.0
  0
LINE
  5
288
100
AcDbEntity
  8
RACCORDO
100
AcDbLine
 62
250
  6
CONTINUOUS
 10
196.5205679319
 20
147.8567292093
 30
0.0
 11
196.9645805987
 21
148.0787355427
 31
0.0
  0
LINE
  5
289
100
AcDbEntity
  8
0
100
AcDbLine
 62
250
  6
CONTINUOUS
 10
196.5205679319
 20
147.8567292093
 30
0.0
 11
196.9645805987
 21
148.0787355427
 31
0.0
  0
LINE
  5
28A
100
AcDbEntity
  8
RACCORDO
100
AcDbLine
 62
7
  6
CONTINUOUS
 10
196.810667922
 20
148.155691881
 30
0.0
 11
228.1708536676
 21
132.4755990082
 31
0.0
  0
LINE
  5
28B
100
AcDbEntity
  8
0
100
AcDbLine
 62
7
  6
CONTINUOUS
 10
196.810667922
 20
148.155691881
 30
0.0
 11
228.1708536676
 21
132.4755990082
 31
0.0
  0
LINE
  5
28C
100
AcDbEntity
  8
RACCORDO
100
AcDbLine
 62
250
  6
CONTINUOUS
 10
196.7326999663
 20
148.3179540211
 30
0.0
 11
228.0928857119
 21
132.6378611483
 31
0.0
  0
LINE
  5
28D
100
AcDbEntity
  8
0
100
AcDbLine
 62
250
  6
CONTINUOUS
 10
196.7326999663
 20
148.3179540211
 30
0.0
 11
228.0928857119
 21
132.6378611483
 31
0.0
  0
LINE
  5
28E
100
AcDbEntity
  8
DRAFT
100
AcDbLine
 62
7
  6
CONTINUOUS
 10
201.6782484572
 20
101.2503096284
 30
0.0
 11
201.6467213477
 21
101.0904416437
 31
0.0
  0
LINE
  5
28F
100
AcDbEntity
  8
ASSI
100
AcDbLine
 62
7
  6
CONTINUOUS
 10
198.3104286527
 20
141.6206387167
 30
0.0
 11
198.7192976018
 21
141.8250731913
 31
0.0
  0
LINE
  5
290
100
AcDbEntity
  8
RACCORDO
100
AcDbLine
 62
7
  6
CONTINUOUS
 10
228.6414138493
 20
149.1140732255
 30
0.0
 11
228.5630223338
 21
149.0944108429
 31
0.0
  0
LINE
  5
291
100
AcDbEntity
  8
RACCORDO
100
AcDbLine
 62
7
  6
CONTINUOUS
 10
223.9668282561
 20
151.3925078818
 30
0.0
 11
224.234954777
 21
151.4597601372
 31
0.0
  0
LINE
  5
292
100
AcDbEntity
  8
DRAFT
100
AcDbLine
 62
7
  6
CONTINUOUS
 10
208.0422094879
 20
98.0683291131
 30
0.0
 11
208.0011521321
 21
97.8601350594
 31
0.0
  0
LINE
  5
293
100
AcDbEntity
  8
RACCORDO
100
AcDbLine
 62
7
  6
CONTINUOUS
 10
198.7145858292
 20
135.9104040089
 30
0.0
 11
198.6451094105
 21
135.8744315401
 31
0.0
  0
LINE
  5
294
100
AcDbEntity
  8
RACCORDO
100
AcDbLine
 62
7
  6
CONTINUOUS
 10
222.4671878241
 20
152.3436436137
 30
0.0
 11
222.128350625
 21
152.2586555052
 31
0.0
  0
LINE
  5
295
100
AcDbEntity
  8
RACCORDO
100
AcDbLine
 62
250
  6
CONTINUOUS
 10
228.0928857119
 20
147.1437866617
 30
0.0
 11
196.7326999663
 21
162.8238795345
 31
0.0
  0
LINE
  5
296
100
AcDbEntity
  8
0
100
AcDbLine
 62
250
  6
CONTINUOUS
 10
228.0928857119
 20
147.1437866617
 30
0.0
 11
196.7326999663
 21
162.8238795345
 31
0.0
  0
LINE
  5
297
100
AcDbEntity
  8
RACCORDO
100
AcDbLine
 62
250
  6
CONTINUOUS
 10
228.3050177462
 20
147.5096603
 30
0.0
 11
196.9448320006
 21
163.1897531728
 31
0.0
  0
LINE
  5
298
100
AcDbEntity
  8
0
100
AcDbLine
 62
250
  6
CONTINUOUS
 10
228.3050177462
 20
147.5096603
 30
0.0
 11
196.9448320006
 21
163.1897531728
 31
0.0
  0
LINE
  5
299
100
AcDbEntity
  8
RACCORDO
100
AcDbLine
 62
7
  6
CONTINUOUS
 10
197.5812281037
 20
163.5079512244
 30
0.0
 11
228.6414138493
 21
147.9778583516
 31
0.0
  0
LINE
  5
29A
100
AcDbEntity
  8
0
100
AcDbLine
 62
7
  6
CONTINUOUS
 10
197.5812281037
 20
163.5079512244
 30
0.0
 11
228.6414138493
 21
147.9778583516
 31
0.0
  0
LINE
  5
29B
100
AcDbEntity
  8
RACCORDO
100
AcDbLine
 62
250
  6
CONTINUOUS
 10
222.128350625
 20
152.2586555052
 30
0.0
 11
207.7033722888
 21
159.4711446733
 31
0.0
  0
LINE
  5
29C
100
AcDbEntity
  8
RACCORDO
100
AcDbLine
 62
7
  6
CONTINUOUS
 10
222.162558397
 20
152.2672355957
 30
0.0
 11
207.7646201242
 21
159.466204732
 31
0.0
  0
LINE
  5
29D
100
AcDbEntity
  8
RACCORDO
100
AcDbLine
 62
250
  6
CONTINUOUS
 10
199.1627157734
 20
163.7945641231
 30
0.0
 11
199.6423549833
 21
163.5547445182
 31
0.0
  0
LINE
  5
29E
100
AcDbEntity
  8
RACCORDO
100
AcDbLine
 62
250
  6
CONTINUOUS
 10
201.4101219362
 20
162.6708610417
 30
0.0
 11
206.006316014
 21
160.3727640029
 31
0.0
  0
LINE
  5
29F
100
AcDbEntity
  8
RACCORDO
100
AcDbLine
 62
250
  6
CONTINUOUS
 10
223.9668282561
 20
151.3925078818
 30
0.0
 11
228.5630223338
 21
149.0944108429
 31
0.0
  0
LINE
  5
2A0
100
AcDbEntity
  8
RACCORDO
100
AcDbLine
 62
7
  6
CONTINUOUS
 10
199.2238839103
 20
163.789663972
 30
0.0
 11
199.6765627552
 21
163.5633246087
 31
0.0
  0
LINE
  5
2A1
100
AcDbEntity
  8
RACCORDO
100
AcDbLine
 62
7
  6
CONTINUOUS
 10
201.4713697717
 20
162.6659211005
 30
0.0
 11
206.0405237859
 21
160.3813440934
 31
0.0
  0
LINE
  5
2A2
100
AcDbEntity
  8
RACCORDO
100
AcDbLine
 62
7
  6
CONTINUOUS
 10
224.0280760915
 20
151.3875679405
 30
0.0
 11
228.5972301058
 21
149.1029909334
 31
0.0
  0
LINE
  5
2A3
100
AcDbEntity
  8
DRAFT
100
AcDbLine
 62
7
  6
CONTINUOUS
 10
224.234954777
 20
151.4597601372
 30
0.0
 11
222.4671878241
 21
152.3436436137
 31
0.0
  0
LINE
  5
2A4
100
AcDbEntity
  8
DRAFT
100
AcDbLine
 62
7
  6
CONTINUOUS
 10
208.0422094879
 20
159.5561327818
 30
0.0
 11
206.2744425349
 21
160.4400162582
 31
0.0
  0
LINE
  5
2A5
100
AcDbEntity
  8
DRAFT
100
AcDbLine
 62
7
  6
CONTINUOUS
 10
201.6782484572
 20
162.7381132971
 30
0.0
 11
199.9104815042
 21
163.6219967736
 31
0.0
  0
LWPOLYLINE
  5
2A6
100
AcDbEntity
  8
RACCORDO
100
AcDbPolyline
 62
7
  6
CONTINUOUS
 90
26
 70
0
 10
199.2238839117
 20
163.7896639713
 10
199.2170297031
 20
163.7931692556
 10
199.1916140297
 20
163.80746722
 10
199.1651398022
 20
163.8244907282
 10
199.1378906557
 20
163.8442627417
 10
199.1102113843
 20
163.8667115169
 10
199.0823321456
 20
163.8917928191
 10
199.0544669641
 20
163.919451139
 10
199.0268930458
 20
163.9495358632
 10
198.999831241
 20
163.9819089105
 10
198.9734869308
 20
164.0164246556
 10
198.9480855726
 20
164.0528755519
 10
198.9238128009
 20
164.0910650683
 10
198.9008483408
 20
164.1307783646
 10
198.8793750158
 20
164.1717510772
 10
198.8595307091
 20
164.2137551255
 10
198.8414552369
 20
164.2565270264
 10
198.8252924618
 20
164.2997248603
 10
198.8111186263
 20
164.3431138593
 10
198.7990186708
 20
164.3863920585
 10
198.7890824301
 20
164.429104321
 10
198.7813118838
 20
164.471001723
 10
198.7756959154
 20
164.5118306636
 10
198.7722125745
 20
164.5511210645
 10
198.7707723656
 20
164.5885593166
 10
198.7707178393
 20
164.5971394561
  0
LINE
  5
2A7
100
AcDbEntity
  8
DRAFT
100
AcDbLine
 62
7
  6
CONTINUOUS
 10
224.234954777
 20
151.4597601372
 30
0.0
 11
224.2034276676
 21
151.2998921525
 31
0.0
  0
LINE
  5
2A8
100
AcDbEntity
  8
RACCORDO
100
AcDbLine
 62
250
  6
CONTINUOUS
 10
228.3050177462
 20
147.5096603
 30
0.0
 11
228.6404071907
 21
147.6773550223
 31
0.0
  0
LINE
  5
2A9
100
AcDbEntity
  8
0
100
AcDbLine
 62
250
  6
CONTINUOUS
 10
228.3050177462
 20
147.5096603
 30
0.0
 11
228.6404071907
 21
147.6773550223
 31
0.0
  0
LINE
  5
2AA
100
AcDbEntity
  8
RACCORDO
100
AcDbLine
 62
7
  6
CONTINUOUS
 10
207.7033722888
 20
159.4711446733
 30
0.0
 11
208.0422094879
 21
159.5561327818
 31
0.0
  0
LINE
  5
2AB
100
AcDbEntity
  8
RACCORDO
100
AcDbLine
 62
7
  6
CONTINUOUS
 10
228.6414138493
 20
193.1341099193
 30
0.0
 11
228.6414138493
 21
147.7110774908
 31
0.0
  0
LINE
  5
2AC
100
AcDbEntity
  8
0
100
AcDbLine
 62
7
  6
CONTINUOUS
 10
228.6414138493
 20
193.1341099193
 30
0.0
 11
228.6414138493
 21
147.7110774908
 31
0.0
  0
LINE
  5
2AD
100
AcDbEntity
  8
RACCORDO
100
AcDbLine
 62
7
  6
CONTINUOUS
 10
228.6414138493
 20
131.6463062506
 30
0.0
 11
228.6414138493
 21
86.2232738221
 31
0.0
  0
LINE
  5
2AE
100
AcDbEntity
  8
0
100
AcDbLine
 62
7
  6
CONTINUOUS
 10
228.6414138493
 20
131.6463062506
 30
0.0
 11
228.6414138493
 21
86.2232738221
 31
0.0
  0
LINE
  5
2AF
100
AcDbEntity
  8
RACCORDO
100
AcDbLine
 62
250
  6
CONTINUOUS
 10
228.729281815
 20
193.0280439021
 30
0.0
 11
228.729281815
 21
147.6050114736
 31
0.0
  0
LINE
  5
2B0
100
AcDbEntity
  8
0
100
AcDbLine
 62
250
  6
CONTINUOUS
 10
228.729281815
 20
193.0280439021
 30
0.0
 11
228.729281815
 21
147.6050114736
 31
0.0
  0
LINE
  5
2B1
100
AcDbEntity
  8
RACCORDO
100
AcDbLine
 62
250
  6
CONTINUOUS
 10
228.729281815
 20
131.5402402334
 30
0.0
 11
228.729281815
 21
86.1172078049
 31
0.0
  0
LINE
  5
2B2
100
AcDbEntity
  8
0
100
AcDbLine
 62
250
  6
CONTINUOUS
 10
228.729281815
 20
131.5402402334
 30
0.0
 11
228.729281815
 21
86.1172078049
 31
0.0
  0
LINE
  5
2B3
100
AcDbEntity
  8
RACCORDO
100
AcDbLine
 62
250
  6
CONTINUOUS
 10
197.7528606839
 20
163.4221349343
 30
0.0
 11
199.1627157734
 21
163.7945641231
 31
0.0
  0
LINE
  5
2B4
100
AcDbEntity
  8
RACCORDO
100
AcDbLine
 62
7
  6
CONTINUOUS
 10
206.2744425349
 20
160.4400162582
 30
0.0
 11
206.006316014
 21
160.3727640029
 31
0.0
  0
LINE
  5
2B5
100
AcDbEntity
  8
RACCORDO
100
AcDbLine
 62
7
  6
CONTINUOUS
 10
201.4101219362
 20
162.6708610417
 30
0.0
 11
201.6782484572
 21
162.7381132971
 31
0.0
  0
LINE
  5
2B6
100
AcDbEntity
  8
RACCORDO
100
AcDbLine
 62
7
  6
CONTINUOUS
 10
199.9104815042
 20
163.6219967736
 30
0.0
 11
199.6423549833
 21
163.5547445182
 31
0.0
  0
LINE
  5
2B7
100
AcDbEntity
  8
DRAFT
100
AcDbLine
 62
7
  6
CONTINUOUS
 10
224.234954777
 20
89.9719564685
 30
0.0
 11
224.2034276676
 21
89.8120884838
 31
0.0
  0
LINE
  5
2B8
100
AcDbEntity
  8
DRAFT
100
AcDbLine
 62
7
  6
CONTINUOUS
 10
198.7145858292
 20
113.3959871292
 30
0.0
 11
200.1016891406
 21
114.2047954087
 31
0.0
  0
LINE
  5
2B9
100
AcDbEntity
  8
DRAFT
100
AcDbLine
 62
7
  6
CONTINUOUS
 10
200.1016891406
 20
117.4831807549
 30
0.0
 11
198.6451094105
 21
116.824167685
 31
0.0
  0
LINE
  5
2BA
100
AcDbEntity
  8
RACCORDO
100
AcDbLine
 62
7
  6
CONTINUOUS
 10
199.2708897916
 20
117.8655857598
 30
0.0
 11
198.7012414505
 21
117.6438716734
 31
0.0
  0
LINE
  5
2BB
100
AcDbEntity
  8
RACCORDO
100
AcDbLine
 62
250
  6
CONTINUOUS
 10
199.3539089148
 20
117.8570708678
 30
0.0
 11
198.7012414505
 21
117.6030447254
 31
0.0
  0
LINE
  5
2BC
100
AcDbEntity
  8
RACCORDO
100
AcDbLine
 62
250
  6
CONTINUOUS
 10
197.2531559763
 20
164.1416749854
 30
0.0
 11
198.7145858292
 21
164.5277282321
 31
0.0
  0
LINE
  5
2BD
100
AcDbEntity
  8
RACCORDO
100
AcDbLine
 62
7
  6
CONTINUOUS
 10
199.3539089148
 20
179.3448745365
 30
0.0
 11
200.1016891406
 21
178.9709844236
 31
0.0
  0
LINE
  5
2BE
100
AcDbEntity
  8
RACCORDO
100
AcDbLine
 62
250
  6
CONTINUOUS
 10
243.1719378207
 20
63.0692655479
 30
0.0
 11
243.1719378207
 21
201.6333301534
 31
0.0
  0
LINE
  5
2BF
100
AcDbEntity
  8
0
100
AcDbLine
 62
250
  6
CONTINUOUS
 10
243.1719378207
 20
63.0692655479
 30
0.0
 11
243.1719378207
 21
201.6333301534
 31
0.0
  0
LINE
  5
2C0
100
AcDbEntity
  8
RACCORDO
100
AcDbLine
 62
250
  6
CONTINUOUS
 10
243.8790446019
 20
62.636252846
 30
0.0
 11
243.8790446019
 21
202.0663428553
 31
0.0
  0
LINE
  5
2C1
100
AcDbEntity
  8
0
100
AcDbLine
 62
250
  6
CONTINUOUS
 10
243.8790446019
 20
62.636252846
 30
0.0
 11
243.8790446019
 21
202.0663428553
 31
0.0
  0
LINE
  5
2C2
100
AcDbEntity
  8
CURVE
100
AcDbLine
 62
250
  6
CONTINUOUS
 10
244.5486938155
 20
69.6546354347
 30
0.0
 11
244.5486938155
 21
69.2931183261
 31
0.0
  0
LINE
  5
2C3
100
AcDbEntity
  8
CURVE
100
AcDbLine
 62
250
  6
CONTINUOUS
 10
244.5487786684
 20
67.7346588377
 30
0.0
 11
244.5487786684
 21
68.1273779757
 31
0.0
  0
LINE
  5
2C4
100
AcDbEntity
  8
CURVE
100
AcDbLine
 62
250
  6
CONTINUOUS
 10
244.5487786684
 20
68.7977292696
 30
0.0
 11
244.5487786684
 21
69.159000427
 31
0.0
  0
LINE
  5
2C5
100
AcDbEntity
  8
CURVE
100
AcDbLine
 62
250
  6
CONTINUOUS
 10
244.5487786684
 20
70.0056762252
 30
0.0
 11
244.5487786684
 21
70.3668945551
 31
0.0
  0
LINE
  5
2C6
100
AcDbEntity
  8
CURVE
100
AcDbLine
 62
250
  6
CONTINUOUS
 10
244.5487786684
 20
71.0861113325
 30
0.0
 11
244.5487786684
 21
71.4437980108
 31
0.0
  0
LINE
  5
2C7
100
AcDbEntity
  8
CURVE
100
AcDbLine
 62
250
  6
CONTINUOUS
 10
244.5487786684
 20
72.2057566059
 30
0.0
 11
244.5487786684
 21
72.5554810466
 31
0.0
  0
LINE
  5
2C8
100
AcDbEntity
  8
CURVE
100
AcDbLine
 62
250
  6
CONTINUOUS
 10
245.1778825431
 20
74.0622644439
 30
0.0
 11
245.1778825431
 21
73.8556607263
 31
0.0
  0
LINE
  5
2C9
100
AcDbEntity
  8
CURVE
100
AcDbLine
 62
250
  6
CONTINUOUS
 10
245.4094777432
 20
73.9834457057
 30
0.0
 11
245.4094777432
 21
74.1772827993
 31
0.0
  0
LINE
  5
2CA
100
AcDbEntity
  8
CURVE
100
AcDbLine
 62
250
  6
CONTINUOUS
 10
245.4621272844
 20
72.6504953518
 30
0.0
 11
245.4621272844
 21
72.996622323
 31
0.0
  0
LINE
  5
2CB
100
AcDbEntity
  8
CURVE
100
AcDbLine
 62
250
  6
CONTINUOUS
 10
245.6805730752
 20
73.1780942537
 30
0.0
 11
245.6805730752
 21
72.6857674719
 31
0.0
  0
LINE
  5
2CC
100
AcDbEntity
  8
CURVE
100
AcDbLine
 62
250
  6
CONTINUOUS
 10
245.9628776794
 20
73.7939237399
 30
0.0
 11
245.9628776794
 21
73.412899409
 31
0.0
  0
LINE
  5
2CD
100
AcDbEntity
  8
CURVE
100
AcDbLine
 62
250
  6
CONTINUOUS
 10
245.9628776794
 20
72.7271640398
 30
0.0
 11
245.9628776794
 21
72.3695682942
 31
0.0
  0
LINE
  5
2CE
100
AcDbEntity
  8
CURVE
100
AcDbLine
 62
250
  6
CONTINUOUS
 10
245.9628776794
 20
72.312800329
 30
0.0
 11
245.9628776794
 21
71.9591406688
 31
0.0
  0
LINE
  5
2CF
100
AcDbEntity
  8
CURVE
100
AcDbLine
 62
250
  6
CONTINUOUS
 10
245.9628776794
 20
71.4550203531
 30
0.0
 11
245.9628776794
 21
71.4043180298
 31
0.0
  0
LINE
  5
2D0
100
AcDbEntity
  8
CURVE
100
AcDbLine
 62
250
  6
CONTINUOUS
 10
245.9628776794
 20
70.9021982327
 30
0.0
 11
245.9628776794
 21
70.5563440595
 31
0.0
  0
LINE
  5
2D1
100
AcDbEntity
  8
CURVE
100
AcDbLine
 62
250
  6
CONTINUOUS
 10
245.9628776794
 20
69.3093445543
 30
0.0
 11
245.9628776794
 21
68.990757191
 31
0.0
  0
LINE
  5
2D2
100
AcDbEntity
  8
CURVE
100
AcDbLine
 62
250
  6
CONTINUOUS
 10
245.9628776794
 20
70.000210258
 30
0.0
 11
245.9628776794
 21
70.3617273667
 31
0.0
  0
LINE
  5
2D3
100
AcDbEntity
  8
CURVE
100
AcDbLine
 62
250
  6
CONTINUOUS
 10
245.962877867
 20
73.9000828139
 30
0.0
 11
245.962877867
 21
74.2601457676
 31
0.0
  0
LINE
  5
2D4
100
AcDbEntity
  8
CURVE
100
AcDbLine
 62
250
  6
CONTINUOUS
 10
245.962877867
 20
74.8137600919
 30
0.0
 11
245.962877867
 21
75.1614979936
 31
0.0
  0
LINE
  5
2D5
100
AcDbEntity
  8
ASSI
100
AcDbLine
 62
7
  6
CONTINUOUS
 10
198.3104286527
 20
109.9241089382
 30
0.0
 11
198.7192976018
 21
110.1285434128
 31
0.0
  0
LWPOLYLINE
  5
2D6
100
AcDbEntity
  8
RACCORDO
100
AcDbPolyline
 62
7
  6
CONTINUOUS
 90
23
 70
0
 10
247.8418239243
 20
203.2321167024
 10
247.8415232434
 20
203.2532146357
 10
247.83888331
 20
203.2986866755
 10
247.8336080563
 20
203.3443723649
 10
247.8257787398
 20
203.3901211681
 10
247.8154712033
 20
203.435814221
 10
247.8027594983
 20
203.4813126861
 10
247.7877109599
 20
203.5264581027
 10
247.770406977
 20
203.5710721833
 10
247.7509095187
 20
203.6150027839
 10
247.7292939993
 20
203.658067905
 10
247.705672836
 20
203.7000339042
 10
247.6800916401
 20
203.740778731
 10
247.6526567409
 20
203.780091257
 10
247.6235829705
 20
203.81762827
 10
247.5929581128
 20
203.8532573559
 10
247.5608829906
 20
203.8868298591
 10
247.527607522
 20
203.9180531707
 10
247.4932345919
 20
203.946821664
 10
247.4578342693
 20
203.9730414911
 10
247.4216122297
 20
203.9965318598
 10
247.3847055301
 20
204.0171865138
 10
247.37776095
 20
204.0207139953
  0
LINE
  5
2D7
100
AcDbEntity
  8
SUPERFICI
100
AcDbLine
 62
7
  6
CONTINUOUS
 10
246.9903144391
 20
64.1918877646
 30
0.0
 11
246.9903144391
 21
203.6219777739
 31
0.0
  0
LINE
  5
2D8
100
AcDbEntity
  8
0
100
AcDbLine
 62
7
  6
CONTINUOUS
 10
246.9903144391
 20
64.1918877646
 30
0.0
 11
246.9903144391
 21
203.6219777739
 31
0.0
  0
LINE
  5
2D9
100
AcDbEntity
  8
RACCORDO
100
AcDbLine
 62
250
  6
CONTINUOUS
 10
247.7868988882
 20
203.1633759391
 30
0.0
 11
247.7868988882
 21
67.6796857278
 31
0.0
  0
LINE
  5
2DA
100
AcDbEntity
  8
RACCORDO
100
AcDbLine
 62
7
  6
CONTINUOUS
 10
247.841824014
 20
203.2322113967
 30
0.0
 11
247.841824014
 21
67.7485211852
 31
0.0
  0
LINE
  5
2DB
100
AcDbEntity
  8
RACCORDO
100
AcDbLine
 62
250
  6
CONTINUOUS
 10
197.2547303848
 20
102.6457853323
 30
0.0
 11
197.1786998142
 21
102.6074769008
 31
0.0
  0
LINE
  5
2DC
100
AcDbEntity
  8
RACCORDO
100
AcDbLine
 62
250
  6
CONTINUOUS
 10
196.5205679319
 20
102.4336967808
 30
0.0
 11
197.156964035
 21
102.7518948323
 31
0.0
  0
LINE
  5
2DD
100
AcDbEntity
  8
0
100
AcDbLine
 62
250
  6
CONTINUOUS
 10
196.5205679319
 20
102.4336967808
 30
0.0
 11
197.156964035
 21
102.7518948323
 31
0.0
  0
LINE
  5
2DE
100
AcDbEntity
  8
RACCORDO
100
AcDbLine
 62
250
  6
CONTINUOUS
 10
196.9448320006
 20
101.7019495042
 30
0.0
 11
197.5812281037
 21
102.0201475557
 31
0.0
  0
LINE
  5
2DF
100
AcDbEntity
  8
0
100
AcDbLine
 62
250
  6
CONTINUOUS
 10
196.9448320006
 20
101.7019495042
 30
0.0
 11
197.5812281037
 21
102.0201475557
 31
0.0
  0
LINE
  5
2E0
100
AcDbEntity
  8
RACCORDO
100
AcDbLine
 62
7
  6
CONTINUOUS
 10
196.810667922
 20
209.6434955497
 30
0.0
 11
228.1708536676
 21
193.9634026769
 31
0.0
  0
LINE
  5
2E1
100
AcDbEntity
  8
0
100
AcDbLine
 62
7
  6
CONTINUOUS
 10
196.810667922
 20
209.6434955497
 30
0.0
 11
228.1708536676
 21
193.9634026769
 31
0.0
  0
LINE
  5
2E2
100
AcDbEntity
  8
RACCORDO
100
AcDbLine
 62
250
  6
CONTINUOUS
 10
196.7326999663
 20
209.8057576898
 30
0.0
 11
228.0928857119
 21
194.125664817
 31
0.0
  0
LINE
  5
2E3
100
AcDbEntity
  8
0
100
AcDbLine
 62
250
  6
CONTINUOUS
 10
196.7326999663
 20
209.8057576898
 30
0.0
 11
228.0928857119
 21
194.125664817
 31
0.0
  0
LINE
  5
2E4
100
AcDbEntity
  8
RACCORDO
100
AcDbLine
 62
250
  6
CONTINUOUS
 10
228.3050177462
 20
86.0218566313
 30
0.0
 11
228.6404071907
 21
86.1895513536
 31
0.0
  0
LINE
  5
2E5
100
AcDbEntity
  8
0
100
AcDbLine
 62
250
  6
CONTINUOUS
 10
228.3050177462
 20
86.0218566313
 30
0.0
 11
228.6404071907
 21
86.1895513536
 31
0.0
  0
LINE
  5
2E6
100
AcDbEntity
  8
RACCORDO
100
AcDbLine
 62
250
  6
CONTINUOUS
 10
243.1719378207
 20
201.6333301534
 30
0.0
 11
181.6536478575
 21
232.392475135
 31
0.0
  0
LINE
  5
2E7
100
AcDbEntity
  8
0
100
AcDbLine
 62
250
  6
CONTINUOUS
 10
243.1719378207
 20
201.6333301534
 30
0.0
 11
181.6536478575
 21
232.392475135
 31
0.0
  0
LINE
  5
2E8
100
AcDbEntity
  8
RACCORDO
100
AcDbLine
 62
250
  6
CONTINUOUS
 10
243.8790446019
 20
202.0663428553
 30
0.0
 11
181.6536478575
 21
233.1790412275
 31
0.0
  0
LINE
  5
2E9
100
AcDbEntity
  8
0
100
AcDbLine
 62
250
  6
CONTINUOUS
 10
243.8790446019
 20
202.0663428553
 30
0.0
 11
181.6536478575
 21
233.1790412275
 31
0.0
  0
LWPOLYLINE
  5
2EA
100
AcDbEntity
  8
RACCORDO
100
AcDbPolyline
 62
7
  6
CONTINUOUS
 90
14
 70
0
 10
188.3746820772
 20
233.5222534774
 10
188.366224547
 20
233.5263993357
 10
188.3318660428
 20
233.5415601361
 10
188.297333396
 20
233.5541317921
 10
188.2627326885
 20
233.5640856544
 10
188.2281819714
 20
233.5713884043
 10
188.1937681072
 20
233.5760303013
 10
188.1596269375
 20
233.5780014441
 10
188.1259768828
 20
233.577304006
 10
188.0929605773
 20
233.5739681967
 10
188.0607303575
 20
233.5680461868
 10
188.0295468807
 20
233.5596375192
 10
187.9995937674
 20
233.5488646308
 10
187.9881783766
 20
233.5440089097
  0
LINE
  5
2EB
100
AcDbEntity
  8
SUPERFICI
100
AcDbLine
 62
7
  6
CONTINUOUS
 10
246.9903144391
 20
203.6219777739
 30
0.0
 11
184.7649176947
 21
234.7346761461
 31
0.0
  0
LINE
  5
2EC
100
AcDbEntity
  8
0
100
AcDbLine
 62
7
  6
CONTINUOUS
 10
246.9903144391
 20
203.6219777739
 30
0.0
 11
184.7649176947
 21
234.7346761461
 31
0.0
  0
LINE
  5
2ED
100
AcDbEntity
  8
RACCORDO
100
AcDbLine
 62
250
  6
CONTINUOUS
 10
188.2889189544
 20
233.5183759529
 30
0.0
 11
247.2920937568
 21
204.0167885517
 31
0.0
  0
LINE
  5
2EE
100
AcDbEntity
  8
RACCORDO
100
AcDbLine
 62
7
  6
CONTINUOUS
 10
188.374659694
 20
233.5222646737
 30
0.0
 11
247.3778344948
 21
204.0206772733
 31
0.0
  0
LINE
  5
2EF
100
AcDbEntity
  8
CURVE
100
AcDbLine
 62
250
  6
CONTINUOUS
 10
245.9628776794
 20
71.4043180298
 30
0.0
 11
245.0394973395
 21
70.5185230952
 31
0.0
  0
LINE
  5
2F0
100
AcDbEntity
  8
CURVE
100
AcDbLine
 62
250
  6
CONTINUOUS
 10
244.5487786684
 20
70.3668945551
 30
0.0
 11
245.3338906412
 21
71.1171502102
 31
0.0
  0
LINE
  5
2F1
100
AcDbEntity
  8
CURVE
100
AcDbLine
 62
250
  6
CONTINUOUS
 10
245.9628776794
 20
68.990757191
 30
0.0
 11
244.5487786684
 21
67.7346588377
 31
0.0
  0
LINE
  5
2F2
100
AcDbEntity
  8
CURVE
100
AcDbLine
 62
250
  6
CONTINUOUS
 10
244.5487786684
 20
72.5554810466
 30
0.0
 11
245.9628776794
 21
73.7939237399
 31
0.0
  0
LINE
  5
2F3
100
AcDbEntity
  8
CURVE
100
AcDbLine
 62
250
  6
CONTINUOUS
 10
245.9628776794
 20
73.412899409
 30
0.0
 11
245.6805730752
 21
73.1780942537
 31
0.0
  0
LINE
  5
2F4
100
AcDbEntity
  8
CURVE
100
AcDbLine
 62
250
  6
CONTINUOUS
 10
245.4621272844
 20
72.996622323
 30
0.0
 11
244.9373373802
 21
72.5681055119
 31
0.0
  0
LINE
  5
2F5
100
AcDbEntity
  8
CURVE
100
AcDbLine
 62
250
  6
CONTINUOUS
 10
245.3027891302
 20
74.4994824392
 30
0.0
 11
245.2944330396
 21
74.4953043939
 31
0.0
  0
LINE
  5
2F6
100
AcDbEntity
  8
CURVE
100
AcDbLine
 62
250
  6
CONTINUOUS
 10
245.962877867
 20
74.2601457676
 30
0.0
 11
245.4094777432
 21
73.9834457057
 31
0.0
  0
LINE
  5
2F7
100
AcDbEntity
  8
CURVE
100
AcDbLine
 62
250
  6
CONTINUOUS
 10
245.1778825431
 20
73.8556607263
 30
0.0
 11
244.7896848745
 21
73.661561892
 31
0.0
  0
LINE
  5
2F8
100
AcDbEntity
  8
CURVE
100
AcDbLine
 62
250
  6
CONTINUOUS
 10
244.5487786684
 20
68.1273779757
 30
0.0
 11
245.5221472151
 21
68.9441963291
 31
0.0
  0
LINE
  5
2F9
100
AcDbEntity
  8
CURVE
100
AcDbLine
 62
250
  6
CONTINUOUS
 10
244.5487786684
 20
71.4437980108
 30
0.0
 11
245.9628776794
 21
72.312800329
 31
0.0
  0
LWPOLYLINE
  5
2FA
100
AcDbEntity
  8
RACCORDO
100
AcDbPolyline
 62
7
  6
CONTINUOUS
 90
14
 70
0
 10
247.6172466367
 20
67.3076679203
 10
247.6422290929
 20
67.3229025018
 10
247.6732413757
 20
67.3457240888
 10
247.7022380649
 20
67.3717927742
 10
247.7288302332
 20
67.4007925347
 10
247.752840819
 20
67.432518652
 10
247.7741412514
 20
67.4667774213
 10
247.7925693876
 20
67.5032195156
 10
247.8080724239
 20
67.5416038421
 10
247.8206582094
 20
67.581802116
 10
247.8303260236
 20
67.6236689245
 10
247.8370685101
 20
67.6670786297
 10
247.8408841358
 20
67.7118774171
 10
247.841824013
 20
67.7485309207
  0
LINE
  5
2FB
100
AcDbEntity
  8
CURVE
100
AcDbLine
 62
250
  6
CONTINUOUS
 10
245.9628776794
 20
71.9591406688
 30
0.0
 11
245.0433475359
 21
71.4250991962
 31
0.0
  0
LINE
  5
2FC
100
AcDbEntity
  8
RACCORDO
100
AcDbLine
 62
250
  6
CONTINUOUS
 10
246.9903144391
 20
67.2337390104
 30
0.0
 11
247.7868988882
 21
67.6796857278
 31
0.0
  0
LINE
  5
2FD
100
AcDbEntity
  8
RACCORDO
100
AcDbLine
 62
7
  6
CONTINUOUS
 10
246.9903144391
 20
66.956693878
 30
0.0
 11
247.6173814472
 21
67.3077407434
 31
0.0
  0
LINE
  5
2FE
100
AcDbEntity
  8
CURVE
100
AcDbLine
 62
250
  6
CONTINUOUS
 10
244.565300514
 20
73.2012941374
 30
0.0
 11
245.962877867
 21
73.9000828139
 31
0.0
  0
LINE
  5
2FF
100
AcDbEntity
  8
CURVE
100
AcDbLine
 62
250
  6
CONTINUOUS
 10
245.9628776794
 20
70.3617273667
 30
0.0
 11
244.5486938155
 21
69.6546354347
 31
0.0
  0
LINE
  5
300
100
AcDbEntity
  8
CURVE
100
AcDbLine
 62
250
  6
CONTINUOUS
 10
244.5486938155
 20
69.2931183261
 30
0.0
 11
245.9628776794
 21
70.000210258
 31
0.0
  0
LINE
  5
301
100
AcDbEntity
  8
RACCORDO
100
AcDbLine
 62
7
  6
CONTINUOUS
 10
246.9903144391
 20
64.1918877646
 30
0.0
 11
243.8790446019
 21
62.636252846
 31
0.0
  0
LINE
  5
302
100
AcDbEntity
  8
0
100
AcDbLine
 62
7
  6
CONTINUOUS
 10
246.9903144391
 20
64.1918877646
 30
0.0
 11
243.8790446019
 21
62.636252846
 31
0.0
  0
LINE
  5
303
100
AcDbEntity
  8
CURVE
100
AcDbLine
 62
250
  6
CONTINUOUS
 10
245.0394973395
 20
70.5185230952
 30
0.0
 11
245.9628776794
 21
70.9021982327
 31
0.0
  0
LINE
  5
304
100
AcDbEntity
  8
CURVE
100
AcDbLine
 62
250
  6
CONTINUOUS
 10
245.9628776794
 20
70.5563440595
 30
0.0
 11
244.5487786684
 21
70.0056762252
 31
0.0
  0
ARC
  5
305
100
AcDbEntity
  8
RACCORDO
100
AcDbCircle
 62
7
  6
CONTINUOUS
 10
534.1663682943
 20
-516.4062484547
 30
0.0
 40
711.4056211888
100
AcDbArc
 50
118.1339037262
 51
118.2674588981
  0
ARC
  5
306
100
AcDbEntity
  8
RACCORDO
100
AcDbCircle
 62
7
  6
CONTINUOUS
 10
534.1663682825
 20
-484.7097186542
 30
0.0
 40
711.4056211639
100
AcDbArc
 50
118.1339037262
 51
118.2674588981
  0
ARC
  5
307
100
AcDbEntity
  8
RACCORDO
100
AcDbCircle
 62
7
  6
CONTINUOUS
 10
534.1663682791
 20
-423.2219149792
 30
0.0
 40
711.4056211567
100
AcDbArc
 50
118.1339037262
 51
118.2674588981
  0
ARC
  5
308
100
AcDbEntity
  8
RACCORDO
100
AcDbCircle
 62
7
  6
CONTINUOUS
 10
533.6063566766
 20
-453.8746297264
 30
0.0
 40
710.2210699421
100
AcDbArc
 50
118.1339923758
 51
118.2675484534
  0
ARC
  5
309
100
AcDbEntity
  8
RACCORDO
100
AcDbCircle
 62
250
  6
CONTINUOUS
 10
197.9112397776
 20
171.8830840896
 30
0.0
 40
0.9709031166
100
AcDbArc
 50
20.3583380795
 51
34.419237024
  0
ARC
  5
30A
100
AcDbEntity
  8
RACCORDO
100
AcDbCircle
 62
7
  6
CONTINUOUS
 10
198.0859191966
 20
171.9703866051
 30
0.0
 40
0.8531265933
100
AcDbArc
 50
26.2104838808
 51
30.398835574
  0
ARC
  5
30B
100
AcDbEntity
  8
RACCORDO
100
AcDbCircle
 62
7
  6
CONTINUOUS
 10
198.0898805159
 20
171.9722834527
 30
0.0
 40
0.848734807
100
AcDbArc
 50
22.3484663197
 51
26.2137098437
  0
ARC
  5
30C
100
AcDbEntity
  8
RACCORDO
100
AcDbCircle
 62
250
  6
CONTINUOUS
 10
197.8355186431
 20
102.6045464421
 30
0.0
 40
0.6568253223
100
AcDbArc
 50
179.7443692667
 51
182.5722742586
  0
ARC
  5
30D
100
AcDbEntity
  8
RACCORDO
100
AcDbCircle
 62
250
  6
CONTINUOUS
 10
197.8355140555
 20
164.0923508192
 30
0.0
 40
0.6568207312
100
AcDbArc
 50
179.744429256
 51
182.5742067489
  0
ARC
  5
30E
100
AcDbEntity
  8
RACCORDO
100
AcDbCircle
 62
250
  6
CONTINUOUS
 10
247.4882358884
 20
67.5384240504
 30
0.0
 40
0.2643713554
100
AcDbArc
 50
299.2418030157
 51
302.1997299155
  0
ARC
  5
30F
100
AcDbEntity
  8
RACCORDO
100
AcDbCircle
 62
250
  6
CONTINUOUS
 10
197.0879679247
 20
164.2832882879
 30
0.0
 40
0.2087562645
100
AcDbArc
 50
294.0124475616
 51
295.7617995359
  0
ARC
  5
310
100
AcDbEntity
  8
RACCORDO
100
AcDbCircle
 62
250
  6
CONTINUOUS
 10
197.0879679248
 20
102.7954846169
 30
0.0
 40
0.2087562623
100
AcDbArc
 50
294.0124477906
 51
295.7617997847
  0
SPLINE
  5
311
100
AcDbEntity
  8
RACCORDO
100
AcDbSpline
 62
7
  6
CONTINUOUS
 70
0
 71
3
 72
13
 73
9
 74
0
 42
0.0000001
 43
0.0000001
 44
0.0000000001
 40
0.0
 40
0.0
 40
0.0
 40
0.0
 40
0.2667644416
 40
0.524456749
 40
0.6467337169
 40
0.7655316155
 40
0.8828960812
 40
1.0
 40
1.0
 40
1.0
 40
1.0
 10
198.7696070825
 20
110.9926670013
 30
0.0
 10
198.8217225371
 20
110.9233271194
 30
0.0
 10
198.9029910978
 20
110.7701370098
 30
0.0
 10
198.9424453272
 20
110.5590627709
 30
0.0
 10
198.9244870878
 20
110.3966969434
 30
0.0
 10
198.8845323676
 20
110.2858086634
 30
0.0
 10
198.8163213816
 20
110.191346376
 30
0.0
 10
198.7533550698
 20
110.1455724739
 30
0.0
 10
198.719297471
 20
110.1285436745
 30
0.0
  0
SPLINE
  5
312
100
AcDbEntity
  8
RACCORDO
100
AcDbSpline
 62
7
  6
CONTINUOUS
 70
0
 71
3
 72
13
 73
9
 74
0
 42
0.0000001
 43
0.0000001
 44
0.0000000001
 40
0.0
 40
0.0
 40
0.0
 40
0.0
 40
0.2667644416
 40
0.524456749
 40
0.6467337169
 40
0.7655316155
 40
0.8828960812
 40
1.0
 40
1.0
 40
1.0
 40
1.0
 10
198.7696070825
 20
142.6891967798
 30
0.0
 10
198.8217225371
 20
142.6198568979
 30
0.0
 10
198.9029910978
 20
142.4666667883
 30
0.0
 10
198.9424453272
 20
142.2555925494
 30
0.0
 10
198.9244870878
 20
142.0932267219
 30
0.0
 10
198.8845323676
 20
141.982338442
 30
0.0
 10
198.8163213816
 20
141.8878761545
 30
0.0
 10
198.7533550698
 20
141.8421022524
 30
0.0
 10
198.719297471
 20
141.825073453
 30
0.0
  0
SPLINE
  5
313
100
AcDbEntity
  8
RACCORDO
100
AcDbSpline
 62
7
  6
CONTINUOUS
 70
0
 71
3
 72
13
 73
9
 74
0
 42
0.0000001
 43
0.0000001
 44
0.0000000001
 40
0.0
 40
0.0
 40
0.0
 40
0.0
 40
0.2667644416
 40
0.524456749
 40
0.6467337169
 40
0.7655316155
 40
0.8828960812
 40
1.0
 40
1.0
 40
1.0
 40
1.0
 10
198.7696070825
 20
204.1770004485
 30
0.0
 10
198.8217225371
 20
204.1076605666
 30
0.0
 10
198.9029910978
 20
203.954470457
 30
0.0
 10
198.9424453272
 20
203.7433962181
 30
0.0
 10
198.9244870878
 20
203.5810303906
 30
0.0
 10
198.8845323676
 20
203.4701421107
 30
0.0
 10
198.8163213816
 20
203.3756798232
 30
0.0
 10
198.7533550698
 20
203.3299059211
 30
0.0
 10
198.719297471
 20
203.3128771217
 30
0.0
  0
SPLINE
  5
314
100
AcDbEntity
  8
RACCORDO
100
AcDbSpline
 62
7
  6
CONTINUOUS
 70
0
 71
3
 72
12
 73
8
 74
0
 42
0.0000001
 43
0.0000001
 44
0.0000000001
 40
0.0
 40
0.0
 40
0.0
 40
0.0
 40
0.2676080865
 40
0.5205353803
 40
0.7610987256
 40
0.8805563811
 40
1.0
 40
1.0
 40
1.0
 40
1.0
 10
198.8748654992
 20
172.2950052348
 30
0.0
 10
198.9007154028
 20
172.2321177346
 30
0.0
 10
198.9365814257
 20
172.1030906213
 30
0.0
 10
198.9362592288
 20
171.9068630329
 30
0.0
 10
198.8786266416
 20
171.7566756382
 30
0.0
 10
198.7973955399
 20
171.6643853717
 30
0.0
 10
198.7464414338
 20
171.6299193247
 30
0.0
 10
198.719297471
 20
171.6163473432
 30
0.0
  0
SPLINE
  5
315
100
AcDbEntity
  8
RACCORDO
100
AcDbSpline
 62
7
  6
CONTINUOUS
 70
0
 71
3
 72
9
 73
5
 74
0
 42
0.0000001
 43
0.0000001
 44
0.0000000001
 40
0.0
 40
0.0
 40
0.0
 40
0.0
 40
0.2665497695
 40
1.0
 40
1.0
 40
1.0
 40
1.0
 10
198.7145858292
 20
197.3982076776
 30
0.0
 10
198.7175189003
 20
197.3997263196
 30
0.0
 10
198.7283663574
 20
197.4057091834
 30
0.0
 10
198.7386022643
 20
197.4128859489
 30
0.0
 10
198.745371905
 20
197.4189498865
 30
0.0
  0
SPLINE
  5
316
100
AcDbEntity
  8
RACCORDO
100
AcDbSpline
 62
7
  6
CONTINUOUS
 70
0
 71
3
 72
9
 73
5
 74
0
 42
0.0000001
 43
0.0000001
 44
0.0000000001
 40
0.0
 40
0.0
 40
0.0
 40
0.0
 40
0.5375362364
 40
1.0
 40
1.0
 40
1.0
 40
1.0
 10
198.745371905
 20
197.4189498865
 30
0.0
 10
198.7528692714
 20
197.4256656879
 30
0.0
 10
198.7654396528
 20
197.440143402
 30
0.0
 10
198.7707153536
 20
197.4590048394
 30
0.0
 10
198.7707178199
 20
197.4676645114
 30
0.0
  0
SPLINE
  5
317
100
AcDbEntity
  8
RACCORDO
100
AcDbSpline
 62
7
  6
CONTINUOUS
 70
0
 71
3
 72
9
 73
5
 74
0
 42
0.0000001
 43
0.0000001
 44
0.0000000001
 40
0.0
 40
0.0
 40
0.0
 40
0.0
 40
0.2665497695
 40
1.0
 40
1.0
 40
1.0
 40
1.0
 10
198.7145858292
 20
135.9104040089
 30
0.0
 10
198.7175189003
 20
135.9119226509
 30
0.0
 10
198.7283663574
 20
135.9179055148
 30
0.0
 10
198.7386022643
 20
135.9250822802
 30
0.0
 10
198.745371905
 20
135.9311462178
 30
0.0
  0
SPLINE
  5
318
100
AcDbEntity
  8
RACCORDO
100
AcDbSpline
 62
7
  6
CONTINUOUS
 70
0
 71
3
 72
9
 73
5
 74
0
 42
0.0000001
 43
0.0000001
 44
0.0000000001
 40
0.0
 40
0.0
 40
0.0
 40
0.0
 40
0.5375362364
 40
1.0
 40
1.0
 40
1.0
 40
1.0
 10
198.745371905
 20
135.9311462178
 30
0.0
 10
198.7528692714
 20
135.9378620192
 30
0.0
 10
198.7654396528
 20
135.9523397333
 30
0.0
 10
198.7707153536
 20
135.9712011707
 30
0.0
 10
198.7707178199
 20
135.9798608428
 30
0.0
  0
SPLINE
  5
319
100
AcDbEntity
  8
RACCORDO
100
AcDbSpline
 62
250
  6
CONTINUOUS
 70
0
 71
3
 72
10
 73
6
 74
0
 42
0.0000001
 43
0.0000001
 44
0.0000000001
 40
0.0
 40
0.0
 40
0.0
 40
0.0
 40
0.2278865567
 40
0.4665379362
 40
1.0
 40
1.0
 40
1.0
 40
1.0
 10
187.9884972257
 20
233.5441506589
 30
0.0
 10
188.0100499143
 20
233.5537056415
 30
0.0
 10
188.057092119
 20
233.5672433837
 30
0.0
 10
188.1613799182
 20
233.5696453279
 30
0.0
 10
188.2397007712
 20
233.5433432552
 30
0.0
 10
188.2889189544
 20
233.5183759529
 30
0.0
  0
SPLINE
  5
31A
100
AcDbEntity
  8
RACCORDO
100
AcDbSpline
 62
250
  6
CONTINUOUS
 70
0
 71
3
 72
9
 73
5
 74
0
 42
0.0000001
 43
0.0000001
 44
0.0000000001
 40
0.0
 40
0.0
 40
0.0
 40
0.0
 40
0.2443271685
 40
1.0
 40
1.0
 40
1.0
 40
1.0
 10
247.2920937568
 20
204.0167885517
 30
0.0
 10
247.2974616297
 20
204.0141431173
 30
0.0
 10
247.3192578012
 20
204.0029648554
 30
0.0
 10
247.3403547707
 20
203.9904360849
 30
0.0
 10
247.3558687559
 20
203.9803419003
 30
0.0
  0
SPLINE
  5
31B
100
AcDbEntity
  8
RACCORDO
100
AcDbSpline
 62
250
  6
CONTINUOUS
 70
0
 71
3
 72
9
 73
5
 74
0
 42
0.0000001
 43
0.0000001
 44
0.0000000001
 40
0.0
 40
0.0
 40
0.0
 40
0.0
 40
0.2452060573
 40
1.0
 40
1.0
 40
1.0
 40
1.0
 10
247.3558687559
 20
203.9803419003
 30
0.0
 10
247.3611690439
 20
203.9768932644
 30
0.0
 10
247.3825867111
 20
203.9625261369
 30
0.0
 10
247.4032081917
 20
203.94697959
 30
0.0
 10
247.4183057775
 20
203.9346936279
 30
0.0
  0
SPLINE
  5
31C
100
AcDbEntity
  8
RACCORDO
100
AcDbSpline
 62
250
  6
CONTINUOUS
 70
0
 71
3
 72
11
 73
7
 74
0
 42
0.0000001
 43
0.0000001
 44
0.0000000001
 40
0.0
 40
0.0
 40
0.0
 40
0.0
 40
0.2436660458
 40
0.5025440253
 40
0.7600518412
 40
1.0
 40
1.0
 40
1.0
 40
1.0
 10
247.4183057775
 20
203.9346936279
 30
0.0
 10
247.4736868847
 20
203.8896261459
 30
0.0
 10
247.5756652027
 20
203.7812060359
 30
0.0
 10
247.69186657
 20
203.5895603675
 30
0.0
 10
247.7677510128
 20
203.3798277938
 30
0.0
 10
247.7873150179
 20
203.2336865531
 30
0.0
 10
247.7868988882
 20
203.1633759391
 30
0.0
  0
SPLINE
  5
31D
100
AcDbEntity
  8
RACCORDO
100
AcDbSpline
 62
250
  6
CONTINUOUS
 70
0
 71
3
 72
11
 73
7
 74
0
 42
0.0000001
 43
0.0000001
 44
0.0000000001
 40
0.0
 40
0.0
 40
0.0
 40
0.0
 40
0.2875345484
 40
0.547429893
 40
0.7821972441
 40
1.0
 40
1.0
 40
1.0
 40
1.0
 10
247.7868988882
 20
67.6796857278
 30
0.0
 10
247.7871352444
 20
67.6400160088
 30
0.0
 10
247.781528057
 20
67.5642070026
 30
0.0
 10
247.7518373373
 20
67.4595251203
 30
0.0
 10
247.7018232419
 20
67.3734938944
 30
0.0
 10
247.6545402618
 20
67.3307263661
 30
0.0
 10
247.6291120572
 20
67.3147141521
 30
0.0
  0
LINE
  5
31E
100
AcDbEntity
  8
RACCORDO
100
AcDbLine
 62
7
  6
CONTINUOUS
 10
197.1786998142
 20
141.0557705295
 30
0.0
 11
197.2531559763
 21
141.0931533678
 31
0.0
  0
LINE
  5
31F
100
AcDbEntity
  8
RACCORDO
100
AcDbLine
 62
7
  6
CONTINUOUS
 10
197.1786998142
 20
110.1272222109
 30
0.0
 11
197.2531559763
 21
110.1617408527
 31
0.0
  0
LINE
  5
320
100
AcDbEntity
  8
RACCORDO
100
AcDbLine
 62
7
  6
CONTINUOUS
 10
197.1786998142
 20
141.8237519894
 30
0.0
 11
197.2531559763
 21
141.8582706312
 31
0.0
  0
LINE
  5
321
100
AcDbEntity
  8
RACCORDO
100
AcDbLine
 62
7
  6
CONTINUOUS
 10
197.1786998142
 20
109.359240751
 30
0.0
 11
197.2531559763
 21
109.3966235893
 31
0.0
  0
SPLINE
  5
322
100
AcDbEntity
  8
RACCORDO
100
AcDbSpline
 62
7
  6
CONTINUOUS
 70
0
 71
3
 72
8
 73
4
 74
0
 42
0.0000001
 43
0.0000001
 44
0.0000000001
 40
0.0
 40
0.0
 40
0.0
 40
0.0
 40
1.0
 40
1.0
 40
1.0
 40
1.0
 10
197.2531559763
 20
202.5809570365
 30
0.0
 10
197.6057413818
 20
202.7564620618
 30
0.0
 10
197.9581577974
 20
202.9323068819
 30
0.0
 10
198.310428653
 20
203.1084424156
 30
0.0
  0
SPLINE
  5
323
100
AcDbEntity
  8
RACCORDO
100
AcDbSpline
 62
7
  6
CONTINUOUS
 70
0
 71
3
 72
8
 73
4
 74
0
 42
0.0000001
 43
0.0000001
 44
0.0000000001
 40
0.0
 40
0.0
 40
0.0
 40
0.0
 40
1.0
 40
1.0
 40
1.0
 40
1.0
 10
197.2531559763
 20
170.884427258
 30
0.0
 10
197.6057413818
 20
171.0599322833
 30
0.0
 10
197.9581577974
 20
171.2357771034
 30
0.0
 10
198.310428653
 20
171.4119126371
 30
0.0
  0
SPLINE
  5
324
100
AcDbEntity
  8
RACCORDO
100
AcDbSpline
 62
7
  6
CONTINUOUS
 70
0
 71
3
 72
8
 73
4
 74
0
 42
0.0000001
 43
0.0000001
 44
0.0000000001
 40
0.0
 40
0.0
 40
0.0
 40
0.0
 40
1.0
 40
1.0
 40
1.0
 40
1.0
 10
197.2531559763
 20
109.3966235893
 30
0.0
 10
197.6057413787
 20
109.5721286131
 30
0.0
 10
197.9581577702
 20
109.7479734739
 30
0.0
 10
198.3104286528
 20
109.9241089463
 30
0.0
  0
SPLINE
  5
325
100
AcDbEntity
  8
RACCORDO
100
AcDbSpline
 62
7
  6
CONTINUOUS
 70
0
 71
3
 72
8
 73
4
 74
0
 42
0.0000001
 43
0.0000001
 44
0.0000000001
 40
0.0
 40
0.0
 40
0.0
 40
0.0
 40
1.0
 40
1.0
 40
1.0
 40
1.0
 10
197.2531559763
 20
141.0931533678
 30
0.0
 10
197.6057413818
 20
141.2686583931
 30
0.0
 10
197.9581577974
 20
141.4445032132
 30
0.0
 10
198.310428653
 20
141.6206387469
 30
0.0
  0
SPLINE
  5
326
100
AcDbEntity
  8
RACCORDO
100
AcDbSpline
 62
7
  6
CONTINUOUS
 70
0
 71
3
 72
9
 73
5
 74
0
 42
0.0000001
 43
0.0000001
 44
0.0000000001
 40
0.0
 40
0.0
 40
0.0
 40
0.0
 40
0.5207459007
 40
1.0
 40
1.0
 40
1.0
 40
1.0
 10
201.4101219362
 20
101.183057373
 30
0.0
 10
201.420629566
 20
101.1856929265
 30
0.0
 10
201.4417147461
 20
101.1880561158
 30
0.0
 10
201.4624140665
 20
101.1825893768
 30
0.0
 10
201.4713340496
 20
101.1781358386
 30
0.0
  0
SPLINE
  5
327
100
AcDbEntity
  8
RACCORDO
100
AcDbSpline
 62
7
  6
CONTINUOUS
 70
0
 71
3
 72
11
 73
7
 74
0
 42
0.0000001
 43
0.0000001
 44
0.0000000001
 40
0.0
 40
0.0
 40
0.0
 40
0.0
 40
0.3816265061
 40
0.6765191874
 40
0.8805000485
 40
1.0
 40
1.0
 40
1.0
 40
1.0
 10
198.7145858292
 20
110.9453745054
 30
0.0
 10
198.7227510767
 20
110.9497409774
 30
0.0
 10
198.737251877
 20
110.957367343
 30
0.0
 10
198.7552145031
 20
110.9692721945
 30
0.0
 10
198.7662489365
 20
110.979120619
 30
0.0
 10
198.7707190648
 20
110.9863748557
 30
0.0
 10
198.7707177797
 20
110.9892742961
 30
0.0
  0
SPLINE
  5
328
100
AcDbEntity
  8
RACCORDO
100
AcDbSpline
 62
7
  6
CONTINUOUS
 70
0
 71
3
 72
11
 73
7
 74
0
 42
0.0000001
 43
0.0000001
 44
0.0000000001
 40
0.0
 40
0.0
 40
0.0
 40
0.0
 40
0.3816265061
 40
0.6765191874
 40
0.8805000485
 40
1.0
 40
1.0
 40
1.0
 40
1.0
 10
198.7145858292
 20
142.6419042839
 30
0.0
 10
198.7227510767
 20
142.646270756
 30
0.0
 10
198.737251877
 20
142.6538971215
 30
0.0
 10
198.7552145031
 20
142.665801973
 30
0.0
 10
198.7662489365
 20
142.6756503975
 30
0.0
 10
198.7707190648
 20
142.6829046343
 30
0.0
 10
198.7707177797
 20
142.6858040746
 30
0.0
  0
SPLINE
  5
329
100
AcDbEntity
  8
RACCORDO
100
AcDbSpline
 62
7
  6
CONTINUOUS
 70
0
 71
3
 72
9
 73
5
 74
0
 42
0.0000001
 43
0.0000001
 44
0.0000000001
 40
0.0
 40
0.0
 40
0.0
 40
0.0
 40
0.5207459007
 40
1.0
 40
1.0
 40
1.0
 40
1.0
 10
223.9668282561
 20
89.9047042131
 30
0.0
 10
223.9773358858
 20
89.9073397666
 30
0.0
 10
223.998421066
 20
89.9097029559
 30
0.0
 10
224.0191203863
 20
89.9042362169
 30
0.0
 10
224.0280403694
 20
89.8997826787
 30
0.0
  0
LINE
  5
32A
100
AcDbEntity
  8
RACCORDO
100
AcDbLine
 62
7
  6
CONTINUOUS
 10
197.1786998142
 20
110.1272222027
 30
0.0
 11
197.1570085094
 21
110.1173015096
 31
0.0
  0
SPLINE
  5
32B
100
AcDbEntity
  8
RACCORDO
100
AcDbSpline
 62
7
  6
CONTINUOUS
 70
0
 71
3
 72
8
 73
4
 74
0
 42
0.0000001
 43
0.0000001
 44
0.0000000001
 40
0.0
 40
0.0
 40
0.0
 40
0.0
 40
1.0
 40
1.0
 40
1.0
 40
1.0
 10
197.1786998142
 20
109.3592407592
 30
0.0
 10
197.1717875881
 20
109.3557707871
 30
0.0
 10
197.1644591061
 20
109.3530785073
 30
0.0
 10
197.1570085729
 20
109.3510026628
 30
0.0
  0
LINE
  5
32C
100
AcDbEntity
  8
RACCORDO
100
AcDbLine
 62
7
  6
CONTINUOUS
 10
197.1786998142
 20
170.8470444197
 30
0.0
 11
197.2531559763
 21
170.884427258
 31
0.0
  0
SPLINE
  5
32D
100
AcDbEntity
  8
RACCORDO
100
AcDbSpline
 62
250
  6
CONTINUOUS
 70
0
 71
3
 72
9
 73
5
 74
0
 42
0.0000001
 43
0.0000001
 44
0.0000000001
 40
0.0
 40
0.0
 40
0.0
 40
0.0
 40
0.4337317805
 40
1.0
 40
1.0
 40
1.0
 40
1.0
 10
198.7707089968
 20
164.5971394583
 30
0.0
 10
198.7706958416
 20
164.5837515745
 30
0.0
 10
198.756605345
 20
164.5531900652
 30
0.0
 10
198.7301075415
 20
164.5357648339
 30
0.0
 10
198.7145858292
 20
164.5277282321
 30
0.0
  0
SPLINE
  5
32E
100
AcDbEntity
  8
RACCORDO
100
AcDbSpline
 62
250
  6
CONTINUOUS
 70
0
 71
3
 72
9
 73
5
 74
0
 42
0.0000001
 43
0.0000001
 44
0.0000000001
 40
0.0
 40
0.0
 40
0.0
 40
0.0
 40
0.4796079131
 40
1.0
 40
1.0
 40
1.0
 40
1.0
 10
199.2238828155
 20
163.7896617806
 30
0.0
 10
199.2149623002
 20
163.7941120744
 30
0.0
 10
199.19427234
 20
163.7995419727
 30
0.0
 10
199.1732074939
 20
163.7971956862
 30
0.0
 10
199.1627157734
 20
163.7945641231
 30
0.0
  0
LINE
  5
32F
100
AcDbEntity
  8
RACCORDO
100
AcDbLine
 62
7
  6
CONTINUOUS
 10
197.1786998142
 20
141.8237519813
 30
0.0
 11
197.1570085094
 21
141.8138312881
 31
0.0
  0
SPLINE
  5
330
100
AcDbEntity
  8
RACCORDO
100
AcDbSpline
 62
7
  6
CONTINUOUS
 70
0
 71
3
 72
8
 73
4
 74
0
 42
0.0000001
 43
0.0000001
 44
0.0000000001
 40
0.0
 40
0.0
 40
0.0
 40
0.0
 40
1.0
 40
1.0
 40
1.0
 40
1.0
 10
197.1786998142
 20
141.0557705377
 30
0.0
 10
197.1717875881
 20
141.0523005656
 30
0.0
 10
197.1644591061
 20
141.0496082858
 30
0.0
 10
197.1570085729
 20
141.0475324413
 30
0.0
  0
LINE
  5
331
100
AcDbEntity
  8
RACCORDO
100
AcDbLine
 62
7
  6
CONTINUOUS
 10
197.1786998142
 20
203.3115556499
 30
0.0
 11
197.1570085094
 21
203.3016349568
 31
0.0
  0
LINE
  5
332
100
AcDbEntity
  8
RACCORDO
100
AcDbLine
 62
7
  6
CONTINUOUS
 10
197.1786998142
 20
202.5435741982
 30
0.0
 11
197.2531559763
 21
202.5809570365
 31
0.0
  0
LINE
  5
333
100
AcDbEntity
  8
RACCORDO
100
AcDbLine
 62
7
  6
CONTINUOUS
 10
197.1786998142
 20
171.6150258796
 30
0.0
 11
197.2531559763
 21
171.6495445213
 31
0.0
  0
SPLINE
  5
334
100
AcDbEntity
  8
RACCORDO
100
AcDbSpline
 62
7
  6
CONTINUOUS
 70
0
 71
3
 72
8
 73
4
 74
0
 42
0.0000001
 43
0.0000001
 44
0.0000000001
 40
0.0
 40
0.0
 40
0.0
 40
0.0
 40
1.0
 40
1.0
 40
1.0
 40
1.0
 10
197.1786998142
 20
202.5435742064
 30
0.0
 10
197.1717875881
 20
202.5401042343
 30
0.0
 10
197.1644591061
 20
202.5374119545
 30
0.0
 10
197.1570085729
 20
202.53533611
 30
0.0
  0
LINE
  5
335
100
AcDbEntity
  8
RACCORDO
100
AcDbLine
 62
7
  6
CONTINUOUS
 10
197.1786998142
 20
171.6150258714
 30
0.0
 11
197.1570085094
 21
171.6051051783
 31
0.0
  0
SPLINE
  5
336
100
AcDbEntity
  8
RACCORDO
100
AcDbSpline
 62
7
  6
CONTINUOUS
 70
0
 71
3
 72
8
 73
4
 74
0
 42
0.0000001
 43
0.0000001
 44
0.0000000001
 40
0.0
 40
0.0
 40
0.0
 40
0.0
 40
1.0
 40
1.0
 40
1.0
 40
1.0
 10
197.1786998142
 20
170.8470444279
 30
0.0
 10
197.1717875881
 20
170.8435744558
 30
0.0
 10
197.1644591061
 20
170.840882176
 30
0.0
 10
197.1570085729
 20
170.8388063315
 30
0.0
  0
SPLINE
  5
337
100
AcDbEntity
  8
RACCORDO
100
AcDbSpline
 62
7
  6
CONTINUOUS
 70
0
 71
3
 72
9
 73
5
 74
0
 42
0.0000001
 43
0.0000001
 44
0.0000000001
 40
0.0
 40
0.0
 40
0.0
 40
0.0
 40
0.5207459007
 40
1.0
 40
1.0
 40
1.0
 40
1.0
 10
223.9668282561
 20
151.3925078818
 30
0.0
 10
223.9773358858
 20
151.3951434353
 30
0.0
 10
223.998421066
 20
151.3975066246
 30
0.0
 10
224.0191203863
 20
151.3920398856
 30
0.0
 10
224.0280403694
 20
151.3875863474
 30
0.0
  0
SPLINE
  5
338
100
AcDbEntity
  8
RACCORDO
100
AcDbSpline
 62
7
  6
CONTINUOUS
 70
0
 71
3
 72
11
 73
7
 74
0
 42
0.0000001
 43
0.0000001
 44
0.0000000001
 40
0.0
 40
0.0
 40
0.0
 40
0.0
 40
0.3816265061
 40
0.6765191874
 40
0.8805000485
 40
1.0
 40
1.0
 40
1.0
 40
1.0
 10
198.7145858292
 20
204.1297079526
 30
0.0
 10
198.7227510767
 20
204.1340744247
 30
0.0
 10
198.737251877
 20
204.1417007902
 30
0.0
 10
198.7552145031
 20
204.1536056417
 30
0.0
 10
198.7662489365
 20
204.1634540662
 30
0.0
 10
198.7707190648
 20
204.170708303
 30
0.0
 10
198.7707177797
 20
204.1736077433
 30
0.0
  0
SPLINE
  5
339
100
AcDbEntity
  8
RACCORDO
100
AcDbSpline
 62
7
  6
CONTINUOUS
 70
0
 71
3
 72
9
 73
5
 74
0
 42
0.0000001
 43
0.0000001
 44
0.0000000001
 40
0.0
 40
0.0
 40
0.0
 40
0.0
 40
0.5207459007
 40
1.0
 40
1.0
 40
1.0
 40
1.0
 10
207.7033722888
 20
159.4711446733
 30
0.0
 10
207.7138799185
 20
159.4737802268
 30
0.0
 10
207.7349650987
 20
159.4761434161
 30
0.0
 10
207.755664419
 20
159.4706766771
 30
0.0
 10
207.7645844021
 20
159.4662231389
 30
0.0
  0
SPLINE
  5
33A
100
AcDbEntity
  8
RACCORDO
100
AcDbSpline
 62
7
  6
CONTINUOUS
 70
0
 71
3
 72
9
 73
5
 74
0
 42
0.0000001
 43
0.0000001
 44
0.0000000001
 40
0.0
 40
0.0
 40
0.0
 40
0.0
 40
0.5207459007
 40
1.0
 40
1.0
 40
1.0
 40
1.0
 10
201.4101219362
 20
162.6708610417
 30
0.0
 10
201.420629566
 20
162.6734965952
 30
0.0
 10
201.4417147461
 20
162.6758597845
 30
0.0
 10
201.4624140665
 20
162.6703930455
 30
0.0
 10
201.4713340496
 20
162.6659395073
 30
0.0
  0
SPLINE
  5
33B
100
AcDbEntity
  8
RACCORDO
100
AcDbSpline
 62
7
  6
CONTINUOUS
 70
0
 71
3
 72
11
 73
7
 74
0
 42
0.0000001
 43
0.0000001
 44
0.0000000001
 40
0.0
 40
0.0
 40
0.0
 40
0.0
 40
0.2794030678
 40
0.5215346868
 40
0.7534413288
 40
1.0
 40
1.0
 40
1.0
 40
1.0
 10
198.7121611014
 20
172.4318814641
 30
0.0
 10
198.722600914
 20
172.4374642894
 30
0.0
 10
198.7438026725
 20
172.4453981943
 30
0.0
 10
198.7767866833
 20
172.4435384776
 30
0.0
 10
198.8039504434
 20
172.4275305802
 30
0.0
 10
198.8164754773
 20
172.4110935856
 30
0.0
 10
198.8217647419
 20
172.4020843434
 30
0.0
  0
SPLINE
  5
33C
100
AcDbEntity
  8
RACCORDO
100
AcDbSpline
 62
7
  6
CONTINUOUS
 70
0
 71
3
 72
9
 73
5
 74
0
 42
0.0000001
 43
0.0000001
 44
0.0000000001
 40
0.0
 40
0.0
 40
0.0
 40
0.0
 40
0.5207459007
 40
1.0
 40
1.0
 40
1.0
 40
1.0
 10
207.7033722888
 20
97.9833410046
 30
0.0
 10
207.7138799185
 20
97.9859765581
 30
0.0
 10
207.7349650987
 20
97.9883397474
 30
0.0
 10
207.755664419
 20
97.9828730084
 30
0.0
 10
207.7645844021
 20
97.9784194702
 30
0.0
  0
SPLINE
  5
33D
100
AcDbEntity
  8
RACCORDO
100
AcDbSpline
 62
7
  6
CONTINUOUS
 70
0
 71
3
 72
14
 73
10
 74
0
 42
0.0000001
 43
0.0000001
 44
0.0000000001
 40
0.0
 40
0.0
 40
0.0
 40
0.0
 40
0.257219941
 40
0.5184046366
 40
0.6473449705
 40
0.7730535905
 40
0.8929755115
 40
0.9490584017
 40
1.0
 40
1.0
 40
1.0
 40
1.0
 10
197.4530476443
 20
102.1085652446
 30
0.0
 10
197.423479256
 20
102.1483629949
 30
0.0
 10
197.3710384976
 20
102.2340672104
 30
0.0
 10
197.3233270928
 20
102.3498929491
 30
0.0
 10
197.2958292073
 20
102.4455168946
 30
0.0
 10
197.2805261613
 20
102.5161210716
 30
0.0
 10
197.2712799037
 20
102.5735671379
 30
0.0
 10
197.2635973816
 20
102.6165887753
 30
0.0
 10
197.2584426507
 20
102.6366950065
 30
0.0
 10
197.2547303848
 20
102.6457853323
 30
0.0
  0
SPLINE
  5
33E
100
AcDbEntity
  8
RACCORDO
100
AcDbSpline
 62
7
  6
CONTINUOUS
 70
0
 71
3
 72
14
 73
10
 74
0
 42
0.0000001
 43
0.0000001
 44
0.0000000001
 40
0.0
 40
0.0
 40
0.0
 40
0.0
 40
0.257219941
 40
0.5184046366
 40
0.6473449705
 40
0.7730535905
 40
0.8929755115
 40
0.9490584017
 40
1.0
 40
1.0
 40
1.0
 40
1.0
 10
197.4530476443
 20
163.5963689133
 30
0.0
 10
197.423479256
 20
163.6361666636
 30
0.0
 10
197.3710384976
 20
163.7218708791
 30
0.0
 10
197.3233270928
 20
163.8376966178
 30
0.0
 10
197.2958292073
 20
163.9333205633
 30
0.0
 10
197.2805261613
 20
164.0039247403
 30
0.0
 10
197.2712799037
 20
164.0613708066
 30
0.0
 10
197.2635973816
 20
164.104392444
 30
0.0
 10
197.2584426507
 20
164.1244986752
 30
0.0
 10
197.2547303848
 20
164.133589001
 30
0.0
  0
LINE
  5
33F
100
AcDbEntity
  8
RACCORDO
100
AcDbLine
 62
7
  6
CONTINUOUS
 10
197.1786998142
 20
203.3115556581
 30
0.0
 11
197.2531559763
 21
203.3460742999
 31
0.0
  0
SPLINE
  5
340
100
AcDbEntity
  8
RACCORDO
100
AcDbSpline
 62
250
  6
CONTINUOUS
 70
0
 71
3
 72
11
 73
7
 74
0
 42
0.0000001
 43
0.0000001
 44
0.0000000001
 40
0.0
 40
0.0
 40
0.0
 40
0.0
 40
0.242522122
 40
0.5069715653
 40
0.768291501
 40
1.0
 40
1.0
 40
1.0
 40
1.0
 10
198.7145853976
 20
164.5277281181
 30
0.0
 10
198.7183902108
 20
164.4558166013
 30
0.0
 10
198.7499051389
 20
164.3065503603
 30
0.0
 10
198.8466355447
 20
164.0980916787
 30
0.0
 10
198.9839080287
 20
163.9178178144
 30
0.0
 10
199.1012824299
 20
163.8255407916
 30
0.0
 10
199.162715747
 20
163.7945641162
 30
0.0
  0
SPLINE
  5
341
100
AcDbEntity
  8
RACCORDO
100
AcDbSpline
 62
250
  6
CONTINUOUS
 70
0
 71
3
 72
9
 73
5
 74
0
 42
0.0000001
 43
0.0000001
 44
0.0000000001
 40
0.0
 40
0.0
 40
0.0
 40
0.0
 40
0.4346037984
 40
1.0
 40
1.0
 40
1.0
 40
1.0
 10
247.8418154152
 20
67.7485211849
 30
0.0
 10
247.841817436
 20
67.7352915509
 30
0.0
 10
247.8281230737
 20
67.7051052455
 30
0.0
 10
247.8021256488
 20
67.6877085566
 30
0.0
 10
247.7868988882
 20
67.6796857278
 30
0.0
  0
SPLINE
  5
342
100
AcDbEntity
  8
RACCORDO
100
AcDbSpline
 62
250
  6
CONTINUOUS
 70
0
 71
3
 72
13
 73
9
 74
0
 42
0.0000001
 43
0.0000001
 44
0.0000000001
 40
0.0
 40
0.0
 40
0.0
 40
0.0
 40
0.30178518
 40
0.5717311204
 40
0.6916111729
 40
0.8013680327
 40
0.9029873713
 40
1.0
 40
1.0
 40
1.0
 40
1.0
 10
198.8214956268
 20
172.2208519848
 30
0.0
 10
198.8447201047
 20
172.1582373214
 30
0.0
 10
198.8766085207
 20
172.0346580366
 30
0.0
 10
198.877945435
 20
171.8792580356
 30
0.0
 10
198.8507789117
 20
171.7714856329
 30
0.0
 10
198.8188150133
 20
171.7048540808
 30
0.0
 10
198.7751287103
 20
171.6514874873
 30
0.0
 10
198.738497048
 20
171.6259526332
 30
0.0
 10
198.7192972051
 20
171.6163478749
 30
0.0
  0
SPLINE
  5
343
100
AcDbEntity
  8
RACCORDO
100
AcDbSpline
 62
250
  6
CONTINUOUS
 70
0
 71
3
 72
13
 73
9
 74
0
 42
0.0000001
 43
0.0000001
 44
0.0000000001
 40
0.0
 40
0.0
 40
0.0
 40
0.0
 40
0.0930517476
 40
0.1935079522
 40
0.3048708169
 40
0.4281397945
 40
0.7041224658
 40
1.0
 40
1.0
 40
1.0
 40
1.0
 10
197.1812110921
 20
170.8483051015
 30
0.0
 10
197.2032826157
 20
170.8619204116
 30
0.0
 10
197.2444217378
 20
170.8985478239
 30
0.0
 10
197.2881211488
 20
170.9726373695
 30
0.0
 10
197.3143606296
 20
171.063098827
 30
0.0
 10
197.3257091933
 20
171.2057085977
 30
0.0
 10
197.2915427537
 20
171.3994618917
 30
0.0
 10
197.2245853704
 20
171.5460595396
 30
0.0
 10
197.1812110921
 20
171.6161902059
 30
0.0
  0
SPLINE
  5
344
100
AcDbEntity
  8
RACCORDO
100
AcDbSpline
 62
250
  6
CONTINUOUS
 70
0
 71
3
 72
13
 73
9
 74
0
 42
0.0000001
 43
0.0000001
 44
0.0000000001
 40
0.0
 40
0.0
 40
0.0
 40
0.0
 40
0.2961807466
 40
0.5743264913
 40
0.6978588585
 40
0.808550835
 40
0.9077537397
 40
1.0
 40
1.0
 40
1.0
 40
1.0
 10
198.7121610255
 20
204.1284107496
 30
0.0
 10
198.7624885755
 20
204.0550932129
 30
0.0
 10
198.8405491695
 20
203.8988166862
 30
0.0
 10
198.8818448821
 20
203.6896655365
 30
0.0
 10
198.8701664748
 20
203.5353247034
 30
0.0
 10
198.8407463505
 20
203.4385659918
 30
0.0
 10
198.7909208217
 20
203.3610824932
 30
0.0
 10
198.7440677632
 20
203.3252691142
 30
0.0
 10
198.7192972082
 20
203.3128776472
 30
0.0
  0
SPLINE
  5
345
100
AcDbEntity
  8
RACCORDO
100
AcDbSpline
 62
250
  6
CONTINUOUS
 70
0
 71
3
 72
9
 73
5
 74
0
 42
0.0000001
 43
0.0000001
 44
0.0000000001
 40
0.0
 40
0.0
 40
0.0
 40
0.0
 40
0.4657356928
 40
1.0
 40
1.0
 40
1.0
 40
1.0
 10
247.3777597793
 20
204.020711653
 30
0.0
 10
247.3655347825
 20
204.0268171882
 30
0.0
 10
247.3351562771
 20
204.0322308559
 30
0.0
 10
247.3062917578
 20
204.0234322074
 30
0.0
 10
247.2920937568
 20
204.0167885517
 30
0.0
  0
SPLINE
  5
346
100
AcDbEntity
  8
RACCORDO
100
AcDbSpline
 62
250
  6
CONTINUOUS
 70
0
 71
3
 72
9
 73
5
 74
0
 42
0.0000001
 43
0.0000001
 44
0.0000000001
 40
0.0
 40
0.0
 40
0.0
 40
0.0
 40
0.4346492082
 40
1.0
 40
1.0
 40
1.0
 40
1.0
 10
247.8418153404
 20
203.2321167059
 30
0.0
 10
247.8417924691
 20
203.218898675
 30
0.0
 10
247.8280775968
 20
203.1887678216
 30
0.0
 10
247.8021095055
 20
203.1713902622
 30
0.0
 10
247.7868988882
 20
203.1633759391
 30
0.0
  0
SPLINE
  5
347
100
AcDbEntity
  8
RACCORDO
100
AcDbSpline
 62
250
  6
CONTINUOUS
 70
0
 71
3
 72
9
 73
5
 74
0
 42
0.0000001
 43
0.0000001
 44
0.0000000001
 40
0.0
 40
0.0
 40
0.0
 40
0.0
 40
0.4657240118
 40
1.0
 40
1.0
 40
1.0
 40
1.0
 10
188.3746584986
 20
233.5222622844
 30
0.0
 10
188.3624294605
 20
233.5283866172
 30
0.0
 10
188.332023984
 20
233.5338299236
 30
0.0
 10
188.3031301144
 20
233.5250257658
 30
0.0
 10
188.2889189544
 20
233.5183759529
 30
0.0
  0
SPLINE
  5
348
100
AcDbEntity
  8
RACCORDO
100
AcDbSpline
 62
250
  6
CONTINUOUS
 70
0
 71
3
 72
13
 73
9
 74
0
 42
0.0000001
 43
0.0000001
 44
0.0000000001
 40
0.0
 40
0.0
 40
0.0
 40
0.0
 40
0.0930517473
 40
0.1935079516
 40
0.3048708159
 40
0.428139793
 40
0.7041224631
 40
1.0
 40
1.0
 40
1.0
 40
1.0
 10
197.1812110921
 20
202.54483488
 30
0.0
 10
197.2032826157
 20
202.55845019
 30
0.0
 10
197.2444217376
 20
202.5950776022
 30
0.0
 10
197.2881211486
 20
202.6691671475
 30
0.0
 10
197.3143606295
 20
202.7596286047
 30
0.0
 10
197.3257091934
 20
202.9022383747
 30
0.0
 10
197.2915427541
 20
203.0959916691
 30
0.0
 10
197.2245853708
 20
203.2425893175
 30
0.0
 10
197.1812110921
 20
203.3127199844
 30
0.0
  0
SPLINE
  5
349
100
AcDbEntity
  8
RACCORDO
100
AcDbSpline
 62
250
  6
CONTINUOUS
 70
0
 71
3
 72
13
 73
9
 74
0
 42
0.0000001
 43
0.0000001
 44
0.0000000001
 40
0.0
 40
0.0
 40
0.0
 40
0.0
 40
0.2961807445
 40
0.5743264873
 40
0.697858854
 40
0.8085508301
 40
0.9077537344
 40
1.0
 40
1.0
 40
1.0
 40
1.0
 10
198.7121610255
 20
142.6406070809
 30
0.0
 10
198.7624885751
 20
142.5672895448
 30
0.0
 10
198.8405491687
 20
142.4110130191
 30
0.0
 10
198.8818448816
 20
142.201861871
 30
0.0
 10
198.8701664756
 20
142.0475210387
 30
0.0
 10
198.8407463522
 20
141.9507623273
 30
0.0
 10
198.7909208244
 20
141.8732788264
 30
0.0
 10
198.7440677644
 20
141.8374654465
 30
0.0
 10
198.7192972082
 20
141.8250739785
 30
0.0
  0
SPLINE
  5
34A
100
AcDbEntity
  8
RACCORDO
100
AcDbSpline
 62
250
  6
CONTINUOUS
 70
0
 71
3
 72
13
 73
9
 74
0
 42
0.0000001
 43
0.0000001
 44
0.0000000001
 40
0.0
 40
0.0
 40
0.0
 40
0.0
 40
0.0930517476
 40
0.1935079522
 40
0.3048708169
 40
0.4281397945
 40
0.7041224658
 40
1.0
 40
1.0
 40
1.0
 40
1.0
 10
197.1812110921
 20
141.0570312113
 30
0.0
 10
197.2032826157
 20
141.0706465214
 30
0.0
 10
197.2444217378
 20
141.1072739337
 30
0.0
 10
197.2881211488
 20
141.1813634793
 30
0.0
 10
197.3143606296
 20
141.2718249368
 30
0.0
 10
197.3257091933
 20
141.4144347075
 30
0.0
 10
197.2915427537
 20
141.6081880016
 30
0.0
 10
197.2245853704
 20
141.7547856494
 30
0.0
 10
197.1812110921
 20
141.8249163157
 30
0.0
  0
SPLINE
  5
34B
100
AcDbEntity
  8
RACCORDO
100
AcDbSpline
 62
250
  6
CONTINUOUS
 70
0
 71
3
 72
9
 73
5
 74
0
 42
0.0000001
 43
0.0000001
 44
0.0000000001
 40
0.0
 40
0.0
 40
0.0
 40
0.0
 40
0.5253798616
 40
1.0
 40
1.0
 40
1.0
 40
1.0
 10
198.7121610255
 20
110.9440773024
 30
0.0
 10
198.7716263171
 20
110.857447838
 30
0.0
 10
198.8584036241
 20
110.6736337372
 30
0.0
 10
198.8829951004
 20
110.4688260286
 30
0.0
 10
198.8700632316
 20
110.3747877649
 30
0.0
  0
SPLINE
  5
34C
100
AcDbEntity
  8
RACCORDO
100
AcDbSpline
 62
250
  6
CONTINUOUS
 70
0
 71
3
 72
10
 73
6
 74
0
 42
0.0000001
 43
0.0000001
 44
0.0000000001
 40
0.0
 40
0.0
 40
0.0
 40
0.0
 40
0.53726952
 40
0.7744600719
 40
1.0
 40
1.0
 40
1.0
 40
1.0
 10
198.8700632316
 20
110.3747877649
 30
0.0
 10
198.8627695199
 20
110.3217491829
 30
0.0
 10
198.8400074626
 20
110.2447956197
 30
0.0
 10
198.7776985074
 20
110.1657058673
 30
0.0
 10
198.73939705
 20
110.1385991658
 30
0.0
 10
198.7192972061
 20
110.1285442042
 30
0.0
  0
SPLINE
  5
34D
100
AcDbEntity
  8
RACCORDO
100
AcDbSpline
 62
250
  6
CONTINUOUS
 70
0
 71
3
 72
13
 73
9
 74
0
 42
0.0000001
 43
0.0000001
 44
0.0000000001
 40
0.0
 40
0.0
 40
0.0
 40
0.0
 40
0.0930517473
 40
0.1935079516
 40
0.3048708159
 40
0.428139793
 40
0.7041224631
 40
1.0
 40
1.0
 40
1.0
 40
1.0
 10
197.1812110921
 20
109.3605014328
 30
0.0
 10
197.2032826157
 20
109.3741167428
 30
0.0
 10
197.2444217376
 20
109.410744155
 30
0.0
 10
197.2881211486
 20
109.4848337003
 30
0.0
 10
197.3143606295
 20
109.5752951575
 30
0.0
 10
197.3257091934
 20
109.7179049275
 30
0.0
 10
197.2915427541
 20
109.9116582219
 30
0.0
 10
197.2245853708
 20
110.0582558703
 30
0.0
 10
197.1812110921
 20
110.1283865372
 30
0.0
  0
SPLINE
  5
34E
100
AcDbEntity
  8
RACCORDO
100
AcDbSpline
 62
7
  6
CONTINUOUS
 70
0
 71
3
 72
11
 73
7
 74
0
 42
0.0000001
 43
0.0000001
 44
0.0000000001
 40
0.0
 40
0.0
 40
0.0
 40
0.0
 40
0.4446926342
 40
0.7564465832
 40
0.9260164682
 40
1.0
 40
1.0
 40
1.0
 40
1.0
 10
228.6414138493
 20
86.2232738221
 30
0.0
 10
228.6414138493
 20
86.1883192926
 30
0.0
 10
228.6368539911
 20
86.1285686917
 30
0.0
 10
228.6159518221
 20
86.0582241038
 30
0.0
 10
228.5934435992
 20
86.0201219542
 30
0.0
 10
228.5785473434
 20
86.0074162789
 30
0.0
 10
228.5733459035
 20
86.004815559
 30
0.0
  0
SPLINE
  5
34F
100
AcDbEntity
  8
RACCORDO
100
AcDbSpline
 62
7
  6
CONTINUOUS
 70
0
 71
3
 72
10
 73
6
 74
0
 42
0.0000001
 43
0.0000001
 44
0.0000000001
 40
0.0
 40
0.0
 40
0.0
 40
0.0
 40
0.2529318546
 40
0.5529976087
 40
1.0
 40
1.0
 40
1.0
 40
1.0
 10
196.6765038433
 20
148.1812534895
 30
0.0
 10
196.687032579
 20
148.1865178574
 30
0.0
 10
196.7142193316
 20
148.1876902363
 30
0.0
 10
196.7595542727
 20
148.1784495767
 30
0.0
 10
196.792060657
 20
148.1649955135
 30
0.0
 10
196.810667922
 20
148.155691881
 30
0.0
  0
SPLINE
  5
350
100
AcDbEntity
  8
RACCORDO
100
AcDbSpline
 62
7
  6
CONTINUOUS
 70
0
 71
3
 72
12
 73
8
 74
0
 42
0.0000001
 43
0.0000001
 44
0.0000000001
 40
0.0
 40
0.0
 40
0.0
 40
0.0
 40
0.0963191537
 40
0.2121521003
 40
0.4783480819
 40
0.7552166664
 40
1.0
 40
1.0
 40
1.0
 40
1.0
 10
228.1708536676
 20
132.4755990082
 30
0.0
 10
228.1993133437
 20
132.4613691702
 30
0.0
 10
228.2586362312
 20
132.4232141234
 30
0.0
 10
228.3768498164
 20
132.3176718279
 30
0.0
 10
228.5072721595
 20
132.1401031824
 30
0.0
 10
228.6112650222
 20
131.8995946365
 30
0.0
 10
228.6414138493
 20
131.7271700505
 30
0.0
 10
228.6414138493
 20
131.6463062506
 30
0.0
  0
SPLINE
  5
351
100
AcDbEntity
  8
RACCORDO
100
AcDbSpline
 62
7
  6
CONTINUOUS
 70
0
 71
3
 72
12
 73
8
 74
0
 42
0.0000001
 43
0.0000001
 44
0.0000000001
 40
0.0
 40
0.0
 40
0.0
 40
0.0
 40
0.0963191537
 40
0.2121521003
 40
0.4783480819
 40
0.7552166664
 40
1.0
 40
1.0
 40
1.0
 40
1.0
 10
228.1708536676
 20
193.9634026769
 30
0.0
 10
228.1993133437
 20
193.9491728389
 30
0.0
 10
228.2586362312
 20
193.9110177921
 30
0.0
 10
228.3768498164
 20
193.8054754966
 30
0.0
 10
228.5072721595
 20
193.6279068511
 30
0.0
 10
228.6112650222
 20
193.3873983052
 30
0.0
 10
228.6414138493
 20
193.2149737192
 30
0.0
 10
228.6414138493
 20
193.1341099193
 30
0.0
  0
SPLINE
  5
352
100
AcDbEntity
  8
RACCORDO
100
AcDbSpline
 62
7
  6
CONTINUOUS
 70
0
 71
3
 72
11
 73
7
 74
0
 42
0.0000001
 43
0.0000001
 44
0.0000000001
 40
0.0
 40
0.0
 40
0.0
 40
0.0
 40
0.4446926342
 40
0.7564465832
 40
0.9260164682
 40
1.0
 40
1.0
 40
1.0
 40
1.0
 10
228.6414138493
 20
147.7110774908
 30
0.0
 10
228.6414138493
 20
147.6761229613
 30
0.0
 10
228.6368539911
 20
147.6163723604
 30
0.0
 10
228.6159518221
 20
147.5460277725
 30
0.0
 10
228.5934435992
 20
147.5079256229
 30
0.0
 10
228.5785473434
 20
147.4952199476
 30
0.0
 10
228.5733459035
 20
147.4926192277
 30
0.0
  0
SPLINE
  5
353
100
AcDbEntity
  8
RACCORDO
100
AcDbSpline
 62
7
  6
CONTINUOUS
 70
0
 71
3
 72
10
 73
6
 74
0
 42
0.0000001
 43
0.0000001
 44
0.0000000001
 40
0.0
 40
0.0
 40
0.0
 40
0.0
 40
0.2529318546
 40
0.5529976087
 40
1.0
 40
1.0
 40
1.0
 40
1.0
 10
196.6765038433
 20
209.6690571582
 30
0.0
 10
196.687032579
 20
209.6743215261
 30
0.0
 10
196.7142193316
 20
209.675493905
 30
0.0
 10
196.7595542727
 20
209.6662532454
 30
0.0
 10
196.792060657
 20
209.6527991822
 30
0.0
 10
196.810667922
 20
209.6434955497
 30
0.0
  0
SPLINE
  5
354
100
AcDbEntity
  8
RACCORDO
100
AcDbSpline
 62
7
  6
CONTINUOUS
 70
0
 71
3
 72
11
 73
7
 74
0
 42
0.0000001
 43
0.0000001
 44
0.0000000001
 40
0.0
 40
0.0
 40
0.0
 40
0.0
 40
0.2671636344
 40
0.5218455569
 40
0.7641179007
 40
1.0
 40
1.0
 40
1.0
 40
1.0
 10
181.5072006629
 20
232.8754381792
 30
0.0
 10
181.5071980809
 20
232.9069666804
 30
0.0
 10
181.5118579987
 20
232.9687332096
 30
0.0
 10
181.5367812054
 20
233.0562339117
 30
0.0
 10
181.5828091177
 20
233.1311157931
 30
0.0
 10
181.6287497715
 20
233.1665921845
 30
0.0
 10
181.6536478575
 20
233.1790412275
 30
0.0
  0
SPLINE
  5
355
100
AcDbEntity
  8
RACCORDO
100
AcDbSpline
 62
7
  6
CONTINUOUS
 70
0
 71
3
 72
11
 73
7
 74
0
 42
0.0000001
 43
0.0000001
 44
0.0000000001
 40
0.0
 40
0.0
 40
0.0
 40
0.0
 40
0.2677610698
 40
0.5242483793
 40
0.7677876105
 40
1.0
 40
1.0
 40
1.0
 40
1.0
 10
243.5757444357
 20
62.6618929363
 30
0.0
 10
243.6008726123
 20
62.6493289173
 30
0.0
 10
243.6518456625
 20
62.6280083002
 30
0.0
 10
243.7309352913
 20
62.6101631288
 30
0.0
 10
243.8085737002
 20
62.6105064283
 30
0.0
 10
243.8572525337
 20
62.6253568119
 30
0.0
 10
243.8790446019
 20
62.636252846
 30
0.0
  0
SPLINE
  5
356
100
AcDbEntity
  8
RACCORDO
100
AcDbSpline
 62
7
  6
CONTINUOUS
 70
0
 71
3
 72
11
 73
7
 74
0
 42
0.0000001
 43
0.0000001
 44
0.0000000001
 40
0.0
 40
0.0
 40
0.0
 40
0.0
 40
0.2467998972
 40
0.5117850334
 40
0.7703179873
 40
1.0
 40
1.0
 40
1.0
 40
1.0
 10
197.156964035
 20
102.7518948323
 30
0.0
 10
197.156964035
 20
102.6794236071
 30
0.0
 10
197.1819723195
 20
102.5288823745
 30
0.0
 10
197.2725389988
 20
102.3195222704
 30
0.0
 10
197.4056359042
 20
102.1404874394
 30
0.0
 10
197.5209037597
 20
102.0503097277
 30
0.0
 10
197.5812281037
 20
102.0201475557
 30
0.0
  0
SPLINE
  5
357
100
AcDbEntity
  8
RACCORDO
100
AcDbSpline
 62
7
  6
CONTINUOUS
 70
0
 71
3
 72
11
 73
7
 74
0
 42
0.0000001
 43
0.0000001
 44
0.0000000001
 40
0.0
 40
0.0
 40
0.0
 40
0.0
 40
0.2467998972
 40
0.5117850334
 40
0.7703179873
 40
1.0
 40
1.0
 40
1.0
 40
1.0
 10
197.156964035
 20
164.239698501
 30
0.0
 10
197.156964035
 20
164.1672272758
 30
0.0
 10
197.1819723195
 20
164.0166860432
 30
0.0
 10
197.2725389988
 20
163.8073259391
 30
0.0
 10
197.4056359042
 20
163.6282911081
 30
0.0
 10
197.5209037597
 20
163.5381133964
 30
0.0
 10
197.5812281037
 20
163.5079512244
 30
0.0
  0
SPLINE
  5
358
100
AcDbEntity
  8
RACCORDO
100
AcDbSpline
 62
250
  6
CONTINUOUS
 70
0
 71
3
 72
10
 73
6
 74
0
 42
0.0000001
 43
0.0000001
 44
0.0000000001
 40
0.0
 40
0.0
 40
0.0
 40
0.0
 40
0.2277246587
 40
0.4658846912
 40
1.0
 40
1.0
 40
1.0
 40
1.0
 10
228.573345935
 20
86.0048154961
 30
0.0
 10
228.5545028521
 20
85.9953935426
 30
0.0
 10
228.5129649311
 20
85.9815883073
 30
0.0
 10
228.4197116943
 20
85.9768836409
 30
0.0
 10
228.3492135182
 20
85.9997587454
 30
0.0
 10
228.3050177462
 20
86.0218566313
 30
0.0
  0
SPLINE
  5
359
100
AcDbEntity
  8
RACCORDO
100
AcDbSpline
 62
250
  6
CONTINUOUS
 70
0
 71
3
 72
9
 73
5
 74
0
 42
0.0000001
 43
0.0000001
 44
0.0000000001
 40
0.0
 40
0.0
 40
0.0
 40
0.0
 40
0.2390978454
 40
1.0
 40
1.0
 40
1.0
 40
1.0
 10
228.0928857119
 20
194.125664817
 30
0.0
 10
228.1069311595
 20
194.1186420932
 30
0.0
 10
228.1647118416
 20
194.0873560082
 30
0.0
 10
228.2185645967
 20
194.0490347437
 30
0.0
 10
228.2570737326
 20
194.0171844239
 30
0.0
  0
SPLINE
  5
35A
100
AcDbEntity
  8
RACCORDO
100
AcDbSpline
 62
250
  6
CONTINUOUS
 70
0
 71
3
 72
11
 73
7
 74
0
 42
0.0000001
 43
0.0000001
 44
0.0000000001
 40
0.0
 40
0.0
 40
0.0
 40
0.0
 40
0.243865927
 40
0.5029562507
 40
0.7604676935
 40
1.0
 40
1.0
 40
1.0
 40
1.0
 10
228.2570737326
 20
194.0171844239
 30
0.0
 10
228.3276129329
 20
193.9588425255
 30
0.0
 10
228.4574990014
 20
193.8191375093
 30
0.0
 10
228.605896712
 20
193.573253631
 30
0.0
 10
228.7034014725
 20
193.3048399247
 30
0.0
 10
228.729281815
 20
193.1179571059
 30
0.0
 10
228.729281815
 20
193.0280439021
 30
0.0
  0
SPLINE
  5
35B
100
AcDbEntity
  8
RACCORDO
100
AcDbSpline
 62
250
  6
CONTINUOUS
 70
0
 71
3
 72
10
 73
6
 74
0
 42
0.0000001
 43
0.0000001
 44
0.0000000001
 40
0.0
 40
0.0
 40
0.0
 40
0.0
 40
0.2277246587
 40
0.4658846912
 40
1.0
 40
1.0
 40
1.0
 40
1.0
 10
228.573345935
 20
147.4926191648
 30
0.0
 10
228.5545028521
 20
147.4831972113
 30
0.0
 10
228.5129649311
 20
147.469391976
 30
0.0
 10
228.4197116943
 20
147.4646873096
 30
0.0
 10
228.3492135182
 20
147.4875624141
 30
0.0
 10
228.3050177462
 20
147.5096603
 30
0.0
  0
SPLINE
  5
35C
100
AcDbEntity
  8
RACCORDO
100
AcDbSpline
 62
250
  6
CONTINUOUS
 70
0
 71
3
 72
15
 73
11
 74
0
 42
0.0000001
 43
0.0000001
 44
0.0000000001
 40
0.0
 40
0.0
 40
0.0
 40
0.0
 40
0.148795512
 40
0.2840524463
 40
0.4066328842
 40
0.5199159528
 40
0.6296860878
 40
0.7427990383
 40
0.8650891307
 40
1.0
 40
1.0
 40
1.0
 40
1.0
 10
196.0963038632
 20
209.344532878
 30
0.0
 10
196.0963038632
 20
209.3933507393
 30
0.0
 10
196.1033977678
 20
209.4868130445
 30
0.0
 10
196.138572905
 20
209.6164733821
 30
0.0
 10
196.1972303499
 20
209.724701615
 30
0.0
 10
196.2782043614
 20
209.8066039011
 30
0.0
 10
196.3784193483
 20
209.8572448789
 30
0.0
 10
196.4922687298
 20
209.8737527182
 30
0.0
 10
196.6138708918
 20
209.8565988936
 30
0.0
 10
196.6931103902
 20
209.8255524779
 30
0.0
 10
196.7326999663
 20
209.8057576898
 30
0.0
  0
SPLINE
  5
35D
100
AcDbEntity
  8
RACCORDO
100
AcDbSpline
 62
250
  6
CONTINUOUS
 70
0
 71
3
 72
11
 73
7
 74
0
 42
0.0000001
 43
0.0000001
 44
0.0000000001
 40
0.0
 40
0.0
 40
0.0
 40
0.0
 40
0.2296746965
 40
0.4882148095
 40
0.7532079038
 40
1.0
 40
1.0
 40
1.0
 40
1.0
 10
196.7326999663
 20
162.8238795345
 30
0.0
 10
196.6422162958
 20
162.8691213698
 30
0.0
 10
196.4693151606
 20
163.0043877815
 30
0.0
 10
196.2696614677
 20
163.2729389531
 30
0.0
 10
196.1338167302
 20
163.5869856669
 30
0.0
 10
196.0963038632
 20
163.8127970036
 30
0.0
 10
196.0963038632
 20
163.9215004495
 30
0.0
  0
SPLINE
  5
35E
100
AcDbEntity
  8
RACCORDO
100
AcDbSpline
 62
250
  6
CONTINUOUS
 70
0
 71
3
 72
15
 73
11
 74
0
 42
0.0000001
 43
0.0000001
 44
0.0000000001
 40
0.0
 40
0.0
 40
0.0
 40
0.0
 40
0.148795512
 40
0.2840524463
 40
0.4066328842
 40
0.5199159528
 40
0.6296860878
 40
0.7427990383
 40
0.8650891307
 40
1.0
 40
1.0
 40
1.0
 40
1.0
 10
228.729281815
 20
147.6050114736
 30
0.0
 10
228.729281815
 20
147.5561936122
 30
0.0
 10
228.7221879104
 20
147.462731307
 30
0.0
 10
228.6870127731
 20
147.3330709695
 30
0.0
 10
228.6283553282
 20
147.2248427365
 30
0.0
 10
228.5473813168
 20
147.1429404505
 30
0.0
 10
228.4471663298
 20
147.0922994727
 30
0.0
 10
228.3333169484
 20
147.0757916333
 30
0.0
 10
228.2117147864
 20
147.092945458
 30
0.0
 10
228.132475288
 20
147.1239918737
 30
0.0
 10
228.0928857119
 20
147.1437866617
 30
0.0
  0
SPLINE
  5
35F
100
AcDbEntity
  8
RACCORDO
100
AcDbSpline
 62
250
  6
CONTINUOUS
 70
0
 71
3
 72
15
 73
11
 74
0
 42
0.0000001
 43
0.0000001
 44
0.0000000001
 40
0.0
 40
0.0
 40
0.0
 40
0.0
 40
0.148795512
 40
0.2840524463
 40
0.4066328842
 40
0.5199159528
 40
0.6296860878
 40
0.7427990383
 40
0.8650891307
 40
1.0
 40
1.0
 40
1.0
 40
1.0
 10
228.729281815
 20
86.1172078049
 30
0.0
 10
228.729281815
 20
86.0683899435
 30
0.0
 10
228.7221879104
 20
85.9749276384
 30
0.0
 10
228.6870127731
 20
85.8452673008
 30
0.0
 10
228.6283553282
 20
85.7370390678
 30
0.0
 10
228.5473813168
 20
85.6551367818
 30
0.0
 10
228.4471663298
 20
85.604495804
 30
0.0
 10
228.3333169484
 20
85.5879879646
 30
0.0
 10
228.2117147864
 20
85.6051417893
 30
0.0
 10
228.132475288
 20
85.636188205
 30
0.0
 10
228.0928857119
 20
85.655982993
 30
0.0
  0
SPLINE
  5
360
100
AcDbEntity
  8
RACCORDO
100
AcDbSpline
 62
250
  6
CONTINUOUS
 70
0
 71
3
 72
9
 73
5
 74
0
 42
0.0000001
 43
0.0000001
 44
0.0000000001
 40
0.0
 40
0.0
 40
0.0
 40
0.0
 40
0.2390978454
 40
1.0
 40
1.0
 40
1.0
 40
1.0
 10
228.0928857119
 20
132.6378611483
 30
0.0
 10
228.1069311595
 20
132.6308384245
 30
0.0
 10
228.1647118416
 20
132.5995523395
 30
0.0
 10
228.2185645967
 20
132.561231075
 30
0.0
 10
228.2570737326
 20
132.5293807552
 30
0.0
  0
SPLINE
  5
361
100
AcDbEntity
  8
RACCORDO
100
AcDbSpline
 62
250
  6
CONTINUOUS
 70
0
 71
3
 72
11
 73
7
 74
0
 42
0.0000001
 43
0.0000001
 44
0.0000000001
 40
0.0
 40
0.0
 40
0.0
 40
0.0
 40
0.243865927
 40
0.5029562507
 40
0.7604676935
 40
1.0
 40
1.0
 40
1.0
 40
1.0
 10
228.2570737326
 20
132.5293807552
 30
0.0
 10
228.3276129329
 20
132.4710388568
 30
0.0
 10
228.4574990014
 20
132.3313338406
 30
0.0
 10
228.605896712
 20
132.0854499623
 30
0.0
 10
228.7034014725
 20
131.817036256
 30
0.0
 10
228.729281815
 20
131.6301534372
 30
0.0
 10
228.729281815
 20
131.5402402334
 30
0.0
  0
SPLINE
  5
362
100
AcDbEntity
  8
RACCORDO
100
AcDbSpline
 62
250
  6
CONTINUOUS
 70
0
 71
3
 72
11
 73
7
 74
0
 42
0.0000001
 43
0.0000001
 44
0.0000000001
 40
0.0
 40
0.0
 40
0.0
 40
0.0
 40
0.3024673256
 40
0.5655230414
 40
0.7934184043
 40
1.0
 40
1.0
 40
1.0
 40
1.0
 10
228.729281815
 20
86.1172078049
 30
0.0
 10
228.7162613213
 20
86.1237180517
 30
0.0
 10
228.6927226798
 20
86.1376926189
 30
0.0
 10
228.6641395757
 20
86.1635069532
 30
0.0
 10
228.6458104576
 20
86.1922615087
 30
0.0
 10
228.6414138493
 20
86.2133313217
 30
0.0
 10
228.6414138493
 20
86.2232738221
 30
0.0
  0
SPLINE
  5
363
100
AcDbEntity
  8
RACCORDO
100
AcDbSpline
 62
250
  6
CONTINUOUS
 70
0
 71
3
 72
11
 73
7
 74
0
 42
0.0000001
 43
0.0000001
 44
0.0000000001
 40
0.0
 40
0.0
 40
0.0
 40
0.0
 40
0.2468124806
 40
0.5117852459
 40
0.7703059488
 40
1.0
 40
1.0
 40
1.0
 40
1.0
 10
228.0928857119
 20
85.655982993
 30
0.0
 10
228.0928857119
 20
85.6922204573
 30
0.0
 10
228.1053913213
 20
85.7674908342
 30
0.0
 10
228.150672083
 20
85.8721700616
 30
0.0
 10
228.2172210577
 20
85.9616846623
 30
0.0
 10
228.2748539899
 20
86.0067747532
 30
0.0
 10
228.3050177462
 20
86.0218566313
 30
0.0
  0
SPLINE
  5
364
100
AcDbEntity
  8
RACCORDO
100
AcDbSpline
 62
250
  6
CONTINUOUS
 70
0
 71
3
 72
11
 73
7
 74
0
 42
0.0000001
 43
0.0000001
 44
0.0000000001
 40
0.0
 40
0.0
 40
0.0
 40
0.0
 40
0.2468124806
 40
0.5117852459
 40
0.7703059488
 40
1.0
 40
1.0
 40
1.0
 40
1.0
 10
196.7326999663
 20
101.3360758658
 30
0.0
 10
196.7326999663
 20
101.3723133301
 30
0.0
 10
196.7452055757
 20
101.447583707
 30
0.0
 10
196.7904863373
 20
101.5522629344
 30
0.0
 10
196.8570353121
 20
101.6417775351
 30
0.0
 10
196.9146682443
 20
101.686867626
 30
0.0
 10
196.9448320006
 20
101.7019495042
 30
0.0
  0
SPLINE
  5
365
100
AcDbEntity
  8
RACCORDO
100
AcDbSpline
 62
250
  6
CONTINUOUS
 70
0
 71
3
 72
11
 73
7
 74
0
 42
0.0000001
 43
0.0000001
 44
0.0000000001
 40
0.0
 40
0.0
 40
0.0
 40
0.0
 40
0.2353891693
 40
0.5
 40
0.7646108307
 40
1.0
 40
1.0
 40
1.0
 40
1.0
 10
196.0963038632
 20
102.4336967808
 30
0.0
 10
196.126900205
 20
102.4183986099
 30
0.0
 10
196.1972117738
 20
102.3965787437
 30
0.0
 10
196.3084358976
 20
102.3861556518
 30
0.0
 10
196.4196600213
 20
102.3965787437
 30
0.0
 10
196.4899715901
 20
102.4183986099
 30
0.0
 10
196.5205679319
 20
102.4336967808
 30
0.0
  0
SPLINE
  5
366
100
AcDbEntity
  8
RACCORDO
100
AcDbSpline
 62
250
  6
CONTINUOUS
 70
0
 71
3
 72
11
 73
7
 74
0
 42
0.0000001
 43
0.0000001
 44
0.0000000001
 40
0.0
 40
0.0
 40
0.0
 40
0.0
 40
0.2353891693
 40
0.5
 40
0.7646108307
 40
1.0
 40
1.0
 40
1.0
 40
1.0
 10
196.0963038632
 20
147.8567292093
 30
0.0
 10
196.126900205
 20
147.8414310384
 30
0.0
 10
196.1972117738
 20
147.8196111722
 30
0.0
 10
196.3084358976
 20
147.8091880803
 30
0.0
 10
196.4196600213
 20
147.8196111722
 30
0.0
 10
196.4899715901
 20
147.8414310384
 30
0.0
 10
196.5205679319
 20
147.8567292093
 30
0.0
  0
SPLINE
  5
367
100
AcDbEntity
  8
RACCORDO
100
AcDbSpline
 62
250
  6
CONTINUOUS
 70
0
 71
3
 72
11
 73
7
 74
0
 42
0.0000001
 43
0.0000001
 44
0.0000000001
 40
0.0
 40
0.0
 40
0.0
 40
0.0
 40
0.289692749
 40
0.5496093836
 40
0.7828339023
 40
1.0
 40
1.0
 40
1.0
 40
1.0
 10
196.7326999663
 20
148.3179540211
 30
0.0
 10
196.7326999663
 20
148.2997116915
 30
0.0
 10
196.7356493289
 20
148.2649717869
 30
0.0
 10
196.7504883366
 20
148.2174559602
 30
0.0
 10
196.7752973066
 20
148.1794205457
 30
0.0
 10
196.7984371019
 20
148.1618089893
 30
0.0
 10
196.8106697524
 20
148.1556955426
 30
0.0
  0
SPLINE
  5
368
100
AcDbEntity
  8
RACCORDO
100
AcDbSpline
 62
250
  6
CONTINUOUS
 70
0
 71
3
 72
11
 73
7
 74
0
 42
0.0000001
 43
0.0000001
 44
0.0000000001
 40
0.0
 40
0.0
 40
0.0
 40
0.0
 40
0.289692749
 40
0.5496093836
 40
0.7828339023
 40
1.0
 40
1.0
 40
1.0
 40
1.0
 10
228.0928857119
 20
132.6378611483
 30
0.0
 10
228.0928857119
 20
132.6196188187
 30
0.0
 10
228.0958350745
 20
132.5848789141
 30
0.0
 10
228.1106740822
 20
132.5373630874
 30
0.0
 10
228.1354830522
 20
132.4993276728
 30
0.0
 10
228.1586228475
 20
132.4817161165
 30
0.0
 10
228.170855498
 20
132.4756026698
 30
0.0
  0
SPLINE
  5
369
100
AcDbEntity
  8
RACCORDO
100
AcDbSpline
 62
250
  6
CONTINUOUS
 70
0
 71
3
 72
11
 73
7
 74
0
 42
0.0000001
 43
0.0000001
 44
0.0000000001
 40
0.0
 40
0.0
 40
0.0
 40
0.0
 40
0.3024673256
 40
0.5655230414
 40
0.7934184043
 40
1.0
 40
1.0
 40
1.0
 40
1.0
 10
228.729281815
 20
131.5402402334
 30
0.0
 10
228.7162613213
 20
131.5467504802
 30
0.0
 10
228.6927226798
 20
131.5607250474
 30
0.0
 10
228.6641395757
 20
131.5865393817
 30
0.0
 10
228.6458104576
 20
131.6152939372
 30
0.0
 10
228.6414138493
 20
131.6363637502
 30
0.0
 10
228.6414138493
 20
131.6463062506
 30
0.0
  0
SPLINE
  5
36A
100
AcDbEntity
  8
RACCORDO
100
AcDbSpline
 62
250
  6
CONTINUOUS
 70
0
 71
3
 72
11
 73
7
 74
0
 42
0.0000001
 43
0.0000001
 44
0.0000000001
 40
0.0
 40
0.0
 40
0.0
 40
0.0
 40
0.289692749
 40
0.5496093836
 40
0.7828339023
 40
1.0
 40
1.0
 40
1.0
 40
1.0
 10
228.0928857119
 20
194.125664817
 30
0.0
 10
228.0928857119
 20
194.1074224874
 30
0.0
 10
228.0958350745
 20
194.0726825828
 30
0.0
 10
228.1106740822
 20
194.0251667561
 30
0.0
 10
228.1354830522
 20
193.9871313415
 30
0.0
 10
228.1586228475
 20
193.9695197852
 30
0.0
 10
228.170855498
 20
193.9634063384
 30
0.0
  0
SPLINE
  5
36B
100
AcDbEntity
  8
RACCORDO
100
AcDbSpline
 62
250
  6
CONTINUOUS
 70
0
 71
3
 72
15
 73
11
 74
0
 42
0.0000001
 43
0.0000001
 44
0.0000000001
 40
0.0
 40
0.0
 40
0.0
 40
0.0
 40
0.148795512
 40
0.2840524463
 40
0.4066328842
 40
0.5199159528
 40
0.6296860878
 40
0.7427990383
 40
0.8650891307
 40
1.0
 40
1.0
 40
1.0
 40
1.0
 10
196.0963038632
 20
147.8567292093
 30
0.0
 10
196.0963038632
 20
147.9055470706
 30
0.0
 10
196.1033977678
 20
147.9990093758
 30
0.0
 10
196.138572905
 20
148.1286697134
 30
0.0
 10
196.1972303499
 20
148.2368979463
 30
0.0
 10
196.2782043614
 20
148.3188002324
 30
0.0
 10
196.3784193483
 20
148.3694412102
 30
0.0
 10
196.4922687298
 20
148.3859490495
 30
0.0
 10
196.6138708918
 20
148.3687952249
 30
0.0
 10
196.6931103902
 20
148.3377488092
 30
0.0
 10
196.7326999663
 20
148.3179540211
 30
0.0
  0
SPLINE
  5
36C
100
AcDbEntity
  8
RACCORDO
100
AcDbSpline
 62
250
  6
CONTINUOUS
 70
0
 71
3
 72
11
 73
7
 74
0
 42
0.0000001
 43
0.0000001
 44
0.0000000001
 40
0.0
 40
0.0
 40
0.0
 40
0.0
 40
0.3024673256
 40
0.5655230414
 40
0.7934184043
 40
1.0
 40
1.0
 40
1.0
 40
1.0
 10
228.729281815
 20
193.0280439021
 30
0.0
 10
228.7162613213
 20
193.0345541489
 30
0.0
 10
228.6927226798
 20
193.0485287161
 30
0.0
 10
228.6641395757
 20
193.0743430504
 30
0.0
 10
228.6458104576
 20
193.1030976059
 30
0.0
 10
228.6414138493
 20
193.1241674189
 30
0.0
 10
228.6414138493
 20
193.1341099193
 30
0.0
  0
SPLINE
  5
36D
100
AcDbEntity
  8
RACCORDO
100
AcDbSpline
 62
250
  6
CONTINUOUS
 70
0
 71
3
 72
11
 73
7
 74
0
 42
0.0000001
 43
0.0000001
 44
0.0000000001
 40
0.0
 40
0.0
 40
0.0
 40
0.0
 40
0.3024673256
 40
0.5655230414
 40
0.7934184043
 40
1.0
 40
1.0
 40
1.0
 40
1.0
 10
228.729281815
 20
147.6050114736
 30
0.0
 10
228.7162613213
 20
147.6115217204
 30
0.0
 10
228.6927226798
 20
147.6254962876
 30
0.0
 10
228.6641395757
 20
147.6513106219
 30
0.0
 10
228.6458104576
 20
147.6800651774
 30
0.0
 10
228.6414138493
 20
147.7011349904
 30
0.0
 10
228.6414138493
 20
147.7110774908
 30
0.0
  0
SPLINE
  5
36E
100
AcDbEntity
  8
RACCORDO
100
AcDbSpline
 62
250
  6
CONTINUOUS
 70
0
 71
3
 72
11
 73
7
 74
0
 42
0.0000001
 43
0.0000001
 44
0.0000000001
 40
0.0
 40
0.0
 40
0.0
 40
0.0
 40
0.2468124806
 40
0.5117852459
 40
0.7703059488
 40
1.0
 40
1.0
 40
1.0
 40
1.0
 10
228.0928857119
 20
147.1437866617
 30
0.0
 10
228.0928857119
 20
147.180024126
 30
0.0
 10
228.1053913213
 20
147.2552945029
 30
0.0
 10
228.150672083
 20
147.3599737303
 30
0.0
 10
228.2172210577
 20
147.449488331
 30
0.0
 10
228.2748539899
 20
147.4945784219
 30
0.0
 10
228.3050177462
 20
147.5096603
 30
0.0
  0
SPLINE
  5
36F
100
AcDbEntity
  8
RACCORDO
100
AcDbSpline
 62
250
  6
CONTINUOUS
 70
0
 71
3
 72
11
 73
7
 74
0
 42
0.0000001
 43
0.0000001
 44
0.0000000001
 40
0.0
 40
0.0
 40
0.0
 40
0.0
 40
0.2468124806
 40
0.5117852459
 40
0.7703059488
 40
1.0
 40
1.0
 40
1.0
 40
1.0
 10
196.7326999663
 20
162.8238795345
 30
0.0
 10
196.7326999663
 20
162.8601169988
 30
0.0
 10
196.7452055757
 20
162.9353873757
 30
0.0
 10
196.7904863373
 20
163.0400666031
 30
0.0
 10
196.8570353121
 20
163.1295812038
 30
0.0
 10
196.9146682443
 20
163.1746712947
 30
0.0
 10
196.9448320006
 20
163.1897531728
 30
0.0
  0
SPLINE
  5
370
100
AcDbEntity
  8
RACCORDO
100
AcDbSpline
 62
250
  6
CONTINUOUS
 70
0
 71
3
 72
11
 73
7
 74
0
 42
0.0000001
 43
0.0000001
 44
0.0000000001
 40
0.0
 40
0.0
 40
0.0
 40
0.0
 40
0.2353891693
 40
0.5
 40
0.7646108307
 40
1.0
 40
1.0
 40
1.0
 40
1.0
 10
196.0963038632
 20
163.9215004495
 30
0.0
 10
196.126900205
 20
163.9062022786
 30
0.0
 10
196.1972117738
 20
163.8843824124
 30
0.0
 10
196.3084358976
 20
163.8739593205
 30
0.0
 10
196.4196600213
 20
163.8843824124
 30
0.0
 10
196.4899715901
 20
163.9062022786
 30
0.0
 10
196.5205679319
 20
163.9215004495
 30
0.0
  0
SPLINE
  5
371
100
AcDbEntity
  8
RACCORDO
100
AcDbSpline
 62
250
  6
CONTINUOUS
 70
0
 71
3
 72
11
 73
7
 74
0
 42
0.0000001
 43
0.0000001
 44
0.0000000001
 40
0.0
 40
0.0
 40
0.0
 40
0.0
 40
0.2353891693
 40
0.5
 40
0.7646108307
 40
1.0
 40
1.0
 40
1.0
 40
1.0
 10
196.0963038632
 20
209.344532878
 30
0.0
 10
196.126900205
 20
209.3292347071
 30
0.0
 10
196.1972117738
 20
209.3074148409
 30
0.0
 10
196.3084358976
 20
209.296991749
 30
0.0
 10
196.4196600213
 20
209.3074148409
 30
0.0
 10
196.4899715901
 20
209.3292347071
 30
0.0
 10
196.5205679319
 20
209.344532878
 30
0.0
  0
SPLINE
  5
372
100
AcDbEntity
  8
RACCORDO
100
AcDbSpline
 62
250
  6
CONTINUOUS
 70
0
 71
3
 72
11
 73
7
 74
0
 42
0.0000001
 43
0.0000001
 44
0.0000000001
 40
0.0
 40
0.0
 40
0.0
 40
0.0
 40
0.289692749
 40
0.5496093836
 40
0.7828339023
 40
1.0
 40
1.0
 40
1.0
 40
1.0
 10
196.7326999663
 20
209.8057576898
 30
0.0
 10
196.7326999663
 20
209.7875153602
 30
0.0
 10
196.7356493289
 20
209.7527754556
 30
0.0
 10
196.7504883366
 20
209.7052596289
 30
0.0
 10
196.7752973066
 20
209.6672242144
 30
0.0
 10
196.7984371019
 20
209.649612658
 30
0.0
 10
196.8106697524
 20
209.6434992113
 30
0.0
  0
SPLINE
  5
373
100
AcDbEntity
  8
RACCORDO
100
AcDbSpline
 62
250
  6
CONTINUOUS
 70
0
 71
3
 72
11
 73
7
 74
0
 42
0.0000001
 43
0.0000001
 44
0.0000000001
 40
0.0
 40
0.0
 40
0.0
 40
0.0
 40
0.2296746965
 40
0.4882148095
 40
0.7532079038
 40
1.0
 40
1.0
 40
1.0
 40
1.0
 10
196.7326999663
 20
101.3360758658
 30
0.0
 10
196.6422162958
 20
101.3813177011
 30
0.0
 10
196.4693151606
 20
101.5165841128
 30
0.0
 10
196.2696614677
 20
101.7851352844
 30
0.0
 10
196.1338167302
 20
102.0991819982
 30
0.0
 10
196.0963038632
 20
102.3249933349
 30
0.0
 10
196.0963038632
 20
102.4336967808
 30
0.0
  0
SPLINE
  5
374
100
AcDbEntity
  8
RACCORDO
100
AcDbSpline
 62
250
  6
CONTINUOUS
 70
0
 71
3
 72
11
 73
7
 74
0
 42
0.0000001
 43
0.0000001
 44
0.0000000001
 40
0.0
 40
0.0
 40
0.0
 40
0.0
 40
0.2296820139
 40
0.4882149669
 40
0.7532001009
 40
1.0
 40
1.0
 40
1.0
 40
1.0
 10
196.9448320006
 20
101.7019495042
 30
0.0
 10
196.8845076563
 20
101.7321116763
 30
0.0
 10
196.7692398008
 20
101.8222893882
 30
0.0
 10
196.6361428958
 20
102.0013242187
 30
0.0
 10
196.5455762167
 20
102.2106843225
 30
0.0
 10
196.5205679319
 20
102.361225555
 30
0.0
 10
196.5205679319
 20
102.4336967808
 30
0.0
  0
SPLINE
  5
375
100
AcDbEntity
  8
RACCORDO
100
AcDbSpline
 62
7
  6
CONTINUOUS
 70
0
 71
3
 72
13
 73
9
 74
0
 42
0.0000001
 43
0.0000001
 44
0.0000000001
 40
0.0
 40
0.0
 40
0.0
 40
0.0
 40
0.3785328688
 40
0.6794579263
 40
0.7971239734
 40
0.8907341656
 40
0.958515007
 40
1.0
 40
1.0
 40
1.0
 40
1.0
 10
181.6536478575
 20
93.8284105295
 30
0.0
 10
181.6335176178
 20
93.8138212415
 30
0.0
 10
181.5977160576
 20
93.7871943592
 30
0.0
 10
181.5568455171
 20
93.7543735433
 30
0.0
 10
181.5319047335
 20
93.7318541554
 30
0.0
 10
181.5189616109
 20
93.7187197965
 30
0.0
 10
181.5107305691
 20
93.7084802389
 30
0.0
 10
181.5072028707
 20
93.7017253012
 30
0.0
 10
181.5072006629
 20
93.6990006716
 30
0.0
  0
SPLINE
  5
376
100
AcDbEntity
  8
RACCORDO
100
AcDbSpline
 62
7
  6
CONTINUOUS
 70
0
 71
3
 72
9
 73
5
 74
0
 42
0.0000001
 43
0.0000001
 44
0.0000000001
 40
0.0
 40
0.0
 40
0.0
 40
0.0
 40
0.5116132474
 40
1.0
 40
1.0
 40
1.0
 40
1.0
 10
181.6536478575
 20
232.392475135
 30
0.0
 10
181.6101306138
 20
232.4675312779
 30
0.0
 10
181.5397259667
 20
232.6230720111
 30
0.0
 10
181.5072074454
 20
232.7926176308
 30
0.0
 10
181.5072006629
 20
232.8754381792
 30
0.0
  0
SPLINE
  5
377
100
AcDbEntity
  8
RACCORDO
100
AcDbSpline
 62
7
  6
CONTINUOUS
 70
0
 71
3
 72
11
 73
7
 74
0
 42
0.0000001
 43
0.0000001
 44
0.0000000001
 40
0.0
 40
0.0
 40
0.0
 40
0.0
 40
0.2029536213
 40
0.451426483
 40
0.7327326107
 40
1.0
 40
1.0
 40
1.0
 40
1.0
 10
243.1719378207
 20
201.6333301534
 30
0.0
 10
243.2173912694
 20
201.6662723073
 30
0.0
 10
243.3203965936
 20
201.7369093423
 30
0.0
 10
243.49101042
 20
201.8463499127
 30
0.0
 10
243.6801019518
 20
201.959715248
 30
0.0
 10
243.8129246928
 20
202.0332829007
 30
0.0
 10
243.8790446019
 20
202.0663428553
 30
0.0
  0
SPLINE
  5
378
100
AcDbEntity
  8
RACCORDO
100
AcDbSpline
 62
7
  6
CONTINUOUS
 70
0
 71
3
 72
9
 73
5
 74
0
 42
0.0000001
 43
0.0000001
 44
0.0000000001
 40
0.0
 40
0.0
 40
0.0
 40
0.0
 40
0.5070072305
 40
1.0
 40
1.0
 40
1.0
 40
1.0
 10
243.1719378207
 20
63.0692655479
 30
0.0
 10
243.2210331261
 20
62.9845886716
 30
0.0
 10
243.3369497237
 20
62.8283414478
 30
0.0
 10
243.490617605
 20
62.7044561167
 30
0.0
 10
243.5757444357
 20
62.6618929363
 30
0.0
  0
SPLINE
  5
379
100
AcDbEntity
  8
RACCORDO
100
AcDbSpline
 62
250
  6
CONTINUOUS
 70
0
 71
3
 72
11
 73
7
 74
0
 42
0.0000001
 43
0.0000001
 44
0.0000000001
 40
0.0
 40
0.0
 40
0.0
 40
0.0
 40
0.2296820139
 40
0.4882149669
 40
0.7532001009
 40
1.0
 40
1.0
 40
1.0
 40
1.0
 10
196.9448320006
 20
163.1897531728
 30
0.0
 10
196.8845076563
 20
163.219915345
 30
0.0
 10
196.7692398008
 20
163.3100930569
 30
0.0
 10
196.6361428958
 20
163.4891278874
 30
0.0
 10
196.5455762167
 20
163.6984879912
 30
0.0
 10
196.5205679319
 20
163.8490292237
 30
0.0
 10
196.5205679319
 20
163.9215004495
 30
0.0
  0
SPLINE
  5
37A
100
AcDbEntity
  8
RACCORDO
100
AcDbSpline
 62
250
  6
CONTINUOUS
 70
0
 71
3
 72
11
 73
7
 74
0
 42
0.0000001
 43
0.0000001
 44
0.0000000001
 40
0.0
 40
0.0
 40
0.0
 40
0.0
 40
0.2897397522
 40
0.5495873727
 40
0.7828463249
 40
1.0
 40
1.0
 40
1.0
 40
1.0
 10
196.5205679319
 20
147.8567292093
 30
0.0
 10
196.5205679319
 20
147.8932203336
 30
0.0
 10
196.5264573129
 20
147.9627009099
 30
0.0
 10
196.5561526091
 20
148.057727808
 30
0.0
 10
196.6057521585
 20
148.1338074102
 30
0.0
 10
196.652042061
 20
148.169022142
 30
0.0
 10
196.6765038119
 20
148.1812535524
 30
0.0
  0
SPLINE
  5
37B
100
AcDbEntity
  8
RACCORDO
100
AcDbSpline
 62
250
  6
CONTINUOUS
 70
0
 71
3
 72
11
 73
7
 74
0
 42
0.0000001
 43
0.0000001
 44
0.0000000001
 40
0.0
 40
0.0
 40
0.0
 40
0.0
 40
0.2897397522
 40
0.5495873727
 40
0.7828463249
 40
1.0
 40
1.0
 40
1.0
 40
1.0
 10
196.5205679319
 20
209.344532878
 30
0.0
 10
196.5205679319
 20
209.3810240023
 30
0.0
 10
196.5264573129
 20
209.4505045786
 30
0.0
 10
196.5561526091
 20
209.5455314767
 30
0.0
 10
196.6057521585
 20
209.6216110789
 30
0.0
 10
196.652042061
 20
209.6568258107
 30
0.0
 10
196.6765038119
 20
209.6690572211
 30
0.0
  0
SPLINE
  5
37C
100
AcDbEntity
  8
0
100
AcDbSpline
 62
7
  6
CONTINUOUS
 70
0
 71
3
 72
11
 73
7
 74
0
 42
0.0000001
 43
0.0000001
 44
0.0000000001
 40
0.0
 40
0.0
 40
0.0
 40
0.0
 40
0.4446926342
 40
0.7564465832
 40
0.9260164682
 40
1.0
 40
1.0
 40
1.0
 40
1.0
 10
228.6414138493
 20
86.2232738221
 30
0.0
 10
228.6414138493
 20
86.1883192926
 30
0.0
 10
228.6368539911
 20
86.1285686917
 30
0.0
 10
228.6159518221
 20
86.0582241038
 30
0.0
 10
228.5934435992
 20
86.0201219542
 30
0.0
 10
228.5785473434
 20
86.0074162789
 30
0.0
 10
228.5733459035
 20
86.004815559
 30
0.0
  0
SPLINE
  5
37D
100
AcDbEntity
  8
0
100
AcDbSpline
 62
7
  6
CONTINUOUS
 70
0
 71
3
 72
10
 73
6
 74
0
 42
0.0000001
 43
0.0000001
 44
0.0000000001
 40
0.0
 40
0.0
 40
0.0
 40
0.0
 40
0.2529318546
 40
0.5529976087
 40
1.0
 40
1.0
 40
1.0
 40
1.0
 10
196.6765038433
 20
148.1812534895
 30
0.0
 10
196.687032579
 20
148.1865178574
 30
0.0
 10
196.7142193316
 20
148.1876902363
 30
0.0
 10
196.7595542727
 20
148.1784495767
 30
0.0
 10
196.792060657
 20
148.1649955135
 30
0.0
 10
196.810667922
 20
148.155691881
 30
0.0
  0
SPLINE
  5
37E
100
AcDbEntity
  8
0
100
AcDbSpline
 62
7
  6
CONTINUOUS
 70
0
 71
3
 72
12
 73
8
 74
0
 42
0.0000001
 43
0.0000001
 44
0.0000000001
 40
0.0
 40
0.0
 40
0.0
 40
0.0
 40
0.0963191537
 40
0.2121521003
 40
0.4783480819
 40
0.7552166664
 40
1.0
 40
1.0
 40
1.0
 40
1.0
 10
228.1708536676
 20
132.4755990082
 30
0.0
 10
228.1993133437
 20
132.4613691702
 30
0.0
 10
228.2586362312
 20
132.4232141234
 30
0.0
 10
228.3768498164
 20
132.3176718279
 30
0.0
 10
228.5072721595
 20
132.1401031824
 30
0.0
 10
228.6112650222
 20
131.8995946365
 30
0.0
 10
228.6414138493
 20
131.7271700505
 30
0.0
 10
228.6414138493
 20
131.6463062506
 30
0.0
  0
SPLINE
  5
37F
100
AcDbEntity
  8
0
100
AcDbSpline
 62
7
  6
CONTINUOUS
 70
0
 71
3
 72
12
 73
8
 74
0
 42
0.0000001
 43
0.0000001
 44
0.0000000001
 40
0.0
 40
0.0
 40
0.0
 40
0.0
 40
0.0963191537
 40
0.2121521003
 40
0.4783480819
 40
0.7552166664
 40
1.0
 40
1.0
 40
1.0
 40
1.0
 10
228.1708536676
 20
193.9634026769
 30
0.0
 10
228.1993133437
 20
193.9491728389
 30
0.0
 10
228.2586362312
 20
193.9110177921
 30
0.0
 10
228.3768498164
 20
193.8054754966
 30
0.0
 10
228.5072721595
 20
193.6279068511
 30
0.0
 10
228.6112650222
 20
193.3873983052
 30
0.0
 10
228.6414138493
 20
193.2149737192
 30
0.0
 10
228.6414138493
 20
193.1341099193
 30
0.0
  0
SPLINE
  5
380
100
AcDbEntity
  8
0
100
AcDbSpline
 62
7
  6
CONTINUOUS
 70
0
 71
3
 72
11
 73
7
 74
0
 42
0.0000001
 43
0.0000001
 44
0.0000000001
 40
0.0
 40
0.0
 40
0.0
 40
0.0
 40
0.4446926342
 40
0.7564465832
 40
0.9260164682
 40
1.0
 40
1.0
 40
1.0
 40
1.0
 10
228.6414138493
 20
147.7110774908
 30
0.0
 10
228.6414138493
 20
147.6761229613
 30
0.0
 10
228.6368539911
 20
147.6163723604
 30
0.0
 10
228.6159518221
 20
147.5460277725
 30
0.0
 10
228.5934435992
 20
147.5079256229
 30
0.0
 10
228.5785473434
 20
147.4952199476
 30
0.0
 10
228.5733459035
 20
147.4926192277
 30
0.0
  0
SPLINE
  5
381
100
AcDbEntity
  8
0
100
AcDbSpline
 62
7
  6
CONTINUOUS
 70
0
 71
3
 72
10
 73
6
 74
0
 42
0.0000001
 43
0.0000001
 44
0.0000000001
 40
0.0
 40
0.0
 40
0.0
 40
0.0
 40
0.2529318546
 40
0.5529976087
 40
1.0
 40
1.0
 40
1.0
 40
1.0
 10
196.6765038433
 20
209.6690571582
 30
0.0
 10
196.687032579
 20
209.6743215261
 30
0.0
 10
196.7142193316
 20
209.675493905
 30
0.0
 10
196.7595542727
 20
209.6662532454
 30
0.0
 10
196.792060657
 20
209.6527991822
 30
0.0
 10
196.810667922
 20
209.6434955497
 30
0.0
  0
SPLINE
  5
382
100
AcDbEntity
  8
0
100
AcDbSpline
 62
7
  6
CONTINUOUS
 70
0
 71
3
 72
11
 73
7
 74
0
 42
0.0000001
 43
0.0000001
 44
0.0000000001
 40
0.0
 40
0.0
 40
0.0
 40
0.0
 40
0.2671636344
 40
0.5218455569
 40
0.7641179007
 40
1.0
 40
1.0
 40
1.0
 40
1.0
 10
181.5072006629
 20
232.8754381792
 30
0.0
 10
181.5071980809
 20
232.9069666804
 30
0.0
 10
181.5118579987
 20
232.9687332096
 30
0.0
 10
181.5367812054
 20
233.0562339117
 30
0.0
 10
181.5828091177
 20
233.1311157931
 30
0.0
 10
181.6287497715
 20
233.1665921845
 30
0.0
 10
181.6536478575
 20
233.1790412275
 30
0.0
  0
SPLINE
  5
383
100
AcDbEntity
  8
0
100
AcDbSpline
 62
7
  6
CONTINUOUS
 70
0
 71
3
 72
11
 73
7
 74
0
 42
0.0000001
 43
0.0000001
 44
0.0000000001
 40
0.0
 40
0.0
 40
0.0
 40
0.0
 40
0.2677610698
 40
0.5242483793
 40
0.7677876105
 40
1.0
 40
1.0
 40
1.0
 40
1.0
 10
243.5757444357
 20
62.6618929363
 30
0.0
 10
243.6008726123
 20
62.6493289173
 30
0.0
 10
243.6518456625
 20
62.6280083002
 30
0.0
 10
243.7309352913
 20
62.6101631288
 30
0.0
 10
243.8085737002
 20
62.6105064283
 30
0.0
 10
243.8572525337
 20
62.6253568119
 30
0.0
 10
243.8790446019
 20
62.636252846
 30
0.0
  0
SPLINE
  5
384
100
AcDbEntity
  8
0
100
AcDbSpline
 62
7
  6
CONTINUOUS
 70
0
 71
3
 72
11
 73
7
 74
0
 42
0.0000001
 43
0.0000001
 44
0.0000000001
 40
0.0
 40
0.0
 40
0.0
 40
0.0
 40
0.2467998972
 40
0.5117850334
 40
0.7703179873
 40
1.0
 40
1.0
 40
1.0
 40
1.0
 10
197.156964035
 20
102.7518948323
 30
0.0
 10
197.156964035
 20
102.6794236071
 30
0.0
 10
197.1819723195
 20
102.5288823745
 30
0.0
 10
197.2725389988
 20
102.3195222704
 30
0.0
 10
197.4056359042
 20
102.1404874394
 30
0.0
 10
197.5209037597
 20
102.0503097277
 30
0.0
 10
197.5812281037
 20
102.0201475557
 30
0.0
  0
SPLINE
  5
385
100
AcDbEntity
  8
0
100
AcDbSpline
 62
7
  6
CONTINUOUS
 70
0
 71
3
 72
11
 73
7
 74
0
 42
0.0000001
 43
0.0000001
 44
0.0000000001
 40
0.0
 40
0.0
 40
0.0
 40
0.0
 40
0.2467998972
 40
0.5117850334
 40
0.7703179873
 40
1.0
 40
1.0
 40
1.0
 40
1.0
 10
197.156964035
 20
164.239698501
 30
0.0
 10
197.156964035
 20
164.1672272758
 30
0.0
 10
197.1819723195
 20
164.0166860432
 30
0.0
 10
197.2725389988
 20
163.8073259391
 30
0.0
 10
197.4056359042
 20
163.6282911081
 30
0.0
 10
197.5209037597
 20
163.5381133964
 30
0.0
 10
197.5812281037
 20
163.5079512244
 30
0.0
  0
SPLINE
  5
386
100
AcDbEntity
  8
0
100
AcDbSpline
 62
250
  6
CONTINUOUS
 70
0
 71
3
 72
10
 73
6
 74
0
 42
0.0000001
 43
0.0000001
 44
0.0000000001
 40
0.0
 40
0.0
 40
0.0
 40
0.0
 40
0.2277246587
 40
0.4658846912
 40
1.0
 40
1.0
 40
1.0
 40
1.0
 10
228.573345935
 20
86.0048154961
 30
0.0
 10
228.5545028521
 20
85.9953935426
 30
0.0
 10
228.5129649311
 20
85.9815883073
 30
0.0
 10
228.4197116943
 20
85.9768836409
 30
0.0
 10
228.3492135182
 20
85.9997587454
 30
0.0
 10
228.3050177462
 20
86.0218566313
 30
0.0
  0
SPLINE
  5
387
100
AcDbEntity
  8
0
100
AcDbSpline
 62
250
  6
CONTINUOUS
 70
0
 71
3
 72
11
 73
7
 74
0
 42
0.0000001
 43
0.0000001
 44
0.0000000001
 40
0.0
 40
0.0
 40
0.0
 40
0.0
 40
0.3024673256
 40
0.5655230414
 40
0.7934184043
 40
1.0
 40
1.0
 40
1.0
 40
1.0
 10
228.729281815
 20
86.1172078049
 30
0.0
 10
228.7162613213
 20
86.1237180517
 30
0.0
 10
228.6927226798
 20
86.1376926189
 30
0.0
 10
228.6641395757
 20
86.1635069532
 30
0.0
 10
228.6458104576
 20
86.1922615087
 30
0.0
 10
228.6414138493
 20
86.2133313217
 30
0.0
 10
228.6414138493
 20
86.2232738221
 30
0.0
  0
SPLINE
  5
388
100
AcDbEntity
  8
0
100
AcDbSpline
 62
250
  6
CONTINUOUS
 70
0
 71
3
 72
11
 73
7
 74
0
 42
0.0000001
 43
0.0000001
 44
0.0000000001
 40
0.0
 40
0.0
 40
0.0
 40
0.0
 40
0.2468124806
 40
0.5117852459
 40
0.7703059488
 40
1.0
 40
1.0
 40
1.0
 40
1.0
 10
228.0928857119
 20
85.655982993
 30
0.0
 10
228.0928857119
 20
85.6922204573
 30
0.0
 10
228.1053913213
 20
85.7674908342
 30
0.0
 10
228.150672083
 20
85.8721700616
 30
0.0
 10
228.2172210577
 20
85.9616846623
 30
0.0
 10
228.2748539899
 20
86.0067747532
 30
0.0
 10
228.3050177462
 20
86.0218566313
 30
0.0
  0
SPLINE
  5
389
100
AcDbEntity
  8
0
100
AcDbSpline
 62
250
  6
CONTINUOUS
 70
0
 71
3
 72
11
 73
7
 74
0
 42
0.0000001
 43
0.0000001
 44
0.0000000001
 40
0.0
 40
0.0
 40
0.0
 40
0.0
 40
0.2468124806
 40
0.5117852459
 40
0.7703059488
 40
1.0
 40
1.0
 40
1.0
 40
1.0
 10
196.7326999663
 20
101.3360758658
 30
0.0
 10
196.7326999663
 20
101.3723133301
 30
0.0
 10
196.7452055757
 20
101.447583707
 30
0.0
 10
196.7904863373
 20
101.5522629344
 30
0.0
 10
196.8570353121
 20
101.6417775351
 30
0.0
 10
196.9146682443
 20
101.686867626
 30
0.0
 10
196.9448320006
 20
101.7019495042
 30
0.0
  0
SPLINE
  5
38A
100
AcDbEntity
  8
0
100
AcDbSpline
 62
250
  6
CONTINUOUS
 70
0
 71
3
 72
11
 73
7
 74
0
 42
0.0000001
 43
0.0000001
 44
0.0000000001
 40
0.0
 40
0.0
 40
0.0
 40
0.0
 40
0.2353891693
 40
0.5
 40
0.7646108307
 40
1.0
 40
1.0
 40
1.0
 40
1.0
 10
196.0963038632
 20
147.8567292093
 30
0.0
 10
196.126900205
 20
147.8414310384
 30
0.0
 10
196.1972117738
 20
147.8196111722
 30
0.0
 10
196.3084358976
 20
147.8091880803
 30
0.0
 10
196.4196600213
 20
147.8196111722
 30
0.0
 10
196.4899715901
 20
147.8414310384
 30
0.0
 10
196.5205679319
 20
147.8567292093
 30
0.0
  0
SPLINE
  5
38B
100
AcDbEntity
  8
0
100
AcDbSpline
 62
250
  6
CONTINUOUS
 70
0
 71
3
 72
11
 73
7
 74
0
 42
0.0000001
 43
0.0000001
 44
0.0000000001
 40
0.0
 40
0.0
 40
0.0
 40
0.0
 40
0.289692749
 40
0.5496093836
 40
0.7828339023
 40
1.0
 40
1.0
 40
1.0
 40
1.0
 10
196.7326999663
 20
148.3179540211
 30
0.0
 10
196.7326999663
 20
148.2997116915
 30
0.0
 10
196.7356493289
 20
148.2649717869
 30
0.0
 10
196.7504883366
 20
148.2174559602
 30
0.0
 10
196.7752973066
 20
148.1794205457
 30
0.0
 10
196.7984371019
 20
148.1618089893
 30
0.0
 10
196.8106697524
 20
148.1556955426
 30
0.0
  0
SPLINE
  5
38C
100
AcDbEntity
  8
0
100
AcDbSpline
 62
7
  6
CONTINUOUS
 70
0
 71
3
 72
13
 73
9
 74
0
 42
0.0000001
 43
0.0000001
 44
0.0000000001
 40
0.0
 40
0.0
 40
0.0
 40
0.0
 40
0.3785328688
 40
0.6794579263
 40
0.7971239734
 40
0.8907341656
 40
0.958515007
 40
1.0
 40
1.0
 40
1.0
 40
1.0
 10
181.6536478575
 20
93.8284105295
 30
0.0
 10
181.6335176178
 20
93.8138212415
 30
0.0
 10
181.5977160576
 20
93.7871943592
 30
0.0
 10
181.5568455171
 20
93.7543735433
 30
0.0
 10
181.5319047335
 20
93.7318541554
 30
0.0
 10
181.5189616109
 20
93.7187197965
 30
0.0
 10
181.5107305691
 20
93.7084802389
 30
0.0
 10
181.5072028707
 20
93.7017253012
 30
0.0
 10
181.5072006629
 20
93.6990006716
 30
0.0
  0
SPLINE
  5
38D
100
AcDbEntity
  8
0
100
AcDbSpline
 62
7
  6
CONTINUOUS
 70
0
 71
3
 72
9
 73
5
 74
0
 42
0.0000001
 43
0.0000001
 44
0.0000000001
 40
0.0
 40
0.0
 40
0.0
 40
0.0
 40
0.5116132474
 40
1.0
 40
1.0
 40
1.0
 40
1.0
 10
181.6536478575
 20
232.392475135
 30
0.0
 10
181.6101306138
 20
232.4675312779
 30
0.0
 10
181.5397259667
 20
232.6230720111
 30
0.0
 10
181.5072074454
 20
232.7926176308
 30
0.0
 10
181.5072006629
 20
232.8754381792
 30
0.0
  0
SPLINE
  5
38E
100
AcDbEntity
  8
0
100
AcDbSpline
 62
7
  6
CONTINUOUS
 70
0
 71
3
 72
11
 73
7
 74
0
 42
0.0000001
 43
0.0000001
 44
0.0000000001
 40
0.0
 40
0.0
 40
0.0
 40
0.0
 40
0.2029536213
 40
0.451426483
 40
0.7327326107
 40
1.0
 40
1.0
 40
1.0
 40
1.0
 10
243.1719378207
 20
201.6333301534
 30
0.0
 10
243.2173912694
 20
201.6662723073
 30
0.0
 10
243.3203965936
 20
201.7369093423
 30
0.0
 10
243.49101042
 20
201.8463499127
 30
0.0
 10
243.6801019518
 20
201.959715248
 30
0.0
 10
243.8129246928
 20
202.0332829007
 30
0.0
 10
243.8790446019
 20
202.0663428553
 30
0.0
  0
SPLINE
  5
38F
100
AcDbEntity
  8
0
100
AcDbSpline
 62
7
  6
CONTINUOUS
 70
0
 71
3
 72
9
 73
5
 74
0
 42
0.0000001
 43
0.0000001
 44
0.0000000001
 40
0.0
 40
0.0
 40
0.0
 40
0.0
 40
0.5070072305
 40
1.0
 40
1.0
 40
1.0
 40
1.0
 10
243.1719378207
 20
63.0692655479
 30
0.0
 10
243.2210331261
 20
62.9845886716
 30
0.0
 10
243.3369497237
 20
62.8283414478
 30
0.0
 10
243.490617605
 20
62.7044561167
 30
0.0
 10
243.5757444357
 20
62.6618929363
 30
0.0
  0
SPLINE
  5
390
100
AcDbEntity
  8
0
100
AcDbSpline
 62
250
  6
CONTINUOUS
 70
0
 71
3
 72
11
 73
7
 74
0
 42
0.0000001
 43
0.0000001
 44
0.0000000001
 40
0.0
 40
0.0
 40
0.0
 40
0.0
 40
0.2353891693
 40
0.5
 40
0.7646108307
 40
1.0
 40
1.0
 40
1.0
 40
1.0
 10
196.0963038632
 20
163.9215004495
 30
0.0
 10
196.126900205
 20
163.9062022786
 30
0.0
 10
196.1972117738
 20
163.8843824124
 30
0.0
 10
196.3084358976
 20
163.8739593205
 30
0.0
 10
196.4196600213
 20
163.8843824124
 30
0.0
 10
196.4899715901
 20
163.9062022786
 30
0.0
 10
196.5205679319
 20
163.9215004495
 30
0.0
  0
SPLINE
  5
391
100
AcDbEntity
  8
0
100
AcDbSpline
 62
250
  6
CONTINUOUS
 70
0
 71
3
 72
11
 73
7
 74
0
 42
0.0000001
 43
0.0000001
 44
0.0000000001
 40
0.0
 40
0.0
 40
0.0
 40
0.0
 40
0.3024673256
 40
0.5655230414
 40
0.7934184043
 40
1.0
 40
1.0
 40
1.0
 40
1.0
 10
228.729281815
 20
193.0280439021
 30
0.0
 10
228.7162613213
 20
193.0345541489
 30
0.0
 10
228.6927226798
 20
193.0485287161
 30
0.0
 10
228.6641395757
 20
193.0743430504
 30
0.0
 10
228.6458104576
 20
193.1030976059
 30
0.0
 10
228.6414138493
 20
193.1241674189
 30
0.0
 10
228.6414138493
 20
193.1341099193
 30
0.0
  0
SPLINE
  5
392
100
AcDbEntity
  8
0
100
AcDbSpline
 62
250
  6
CONTINUOUS
 70
0
 71
3
 72
11
 73
7
 74
0
 42
0.0000001
 43
0.0000001
 44
0.0000000001
 40
0.0
 40
0.0
 40
0.0
 40
0.0
 40
0.3024673256
 40
0.5655230414
 40
0.7934184043
 40
1.0
 40
1.0
 40
1.0
 40
1.0
 10
228.729281815
 20
131.5402402334
 30
0.0
 10
228.7162613213
 20
131.5467504802
 30
0.0
 10
228.6927226798
 20
131.5607250474
 30
0.0
 10
228.6641395757
 20
131.5865393817
 30
0.0
 10
228.6458104576
 20
131.6152939372
 30
0.0
 10
228.6414138493
 20
131.6363637502
 30
0.0
 10
228.6414138493
 20
131.6463062506
 30
0.0
  0
SPLINE
  5
393
100
AcDbEntity
  8
0
100
AcDbSpline
 62
250
  6
CONTINUOUS
 70
0
 71
3
 72
11
 73
7
 74
0
 42
0.0000001
 43
0.0000001
 44
0.0000000001
 40
0.0
 40
0.0
 40
0.0
 40
0.0
 40
0.2353891693
 40
0.5
 40
0.7646108307
 40
1.0
 40
1.0
 40
1.0
 40
1.0
 10
196.0963038632
 20
102.4336967808
 30
0.0
 10
196.126900205
 20
102.4183986099
 30
0.0
 10
196.1972117738
 20
102.3965787437
 30
0.0
 10
196.3084358976
 20
102.3861556518
 30
0.0
 10
196.4196600213
 20
102.3965787437
 30
0.0
 10
196.4899715901
 20
102.4183986099
 30
0.0
 10
196.5205679319
 20
102.4336967808
 30
0.0
  0
SPLINE
  5
394
100
AcDbEntity
  8
0
100
AcDbSpline
 62
250
  6
CONTINUOUS
 70
0
 71
3
 72
9
 73
5
 74
0
 42
0.0000001
 43
0.0000001
 44
0.0000000001
 40
0.0
 40
0.0
 40
0.0
 40
0.0
 40
0.2390978454
 40
1.0
 40
1.0
 40
1.0
 40
1.0
 10
228.0928857119
 20
194.125664817
 30
0.0
 10
228.1069311595
 20
194.1186420932
 30
0.0
 10
228.1647118416
 20
194.0873560082
 30
0.0
 10
228.2185645967
 20
194.0490347437
 30
0.0
 10
228.2570737326
 20
194.0171844239
 30
0.0
  0
SPLINE
  5
395
100
AcDbEntity
  8
0
100
AcDbSpline
 62
250
  6
CONTINUOUS
 70
0
 71
3
 72
11
 73
7
 74
0
 42
0.0000001
 43
0.0000001
 44
0.0000000001
 40
0.0
 40
0.0
 40
0.0
 40
0.0
 40
0.243865927
 40
0.5029562507
 40
0.7604676935
 40
1.0
 40
1.0
 40
1.0
 40
1.0
 10
228.2570737326
 20
194.0171844239
 30
0.0
 10
228.3276129329
 20
193.9588425255
 30
0.0
 10
228.4574990014
 20
193.8191375093
 30
0.0
 10
228.605896712
 20
193.573253631
 30
0.0
 10
228.7034014725
 20
193.3048399247
 30
0.0
 10
228.729281815
 20
193.1179571059
 30
0.0
 10
228.729281815
 20
193.0280439021
 30
0.0
  0
SPLINE
  5
396
100
AcDbEntity
  8
0
100
AcDbSpline
 62
250
  6
CONTINUOUS
 70
0
 71
3
 72
15
 73
11
 74
0
 42
0.0000001
 43
0.0000001
 44
0.0000000001
 40
0.0
 40
0.0
 40
0.0
 40
0.0
 40
0.148795512
 40
0.2840524463
 40
0.4066328842
 40
0.5199159528
 40
0.6296860878
 40
0.7427990383
 40
0.8650891307
 40
1.0
 40
1.0
 40
1.0
 40
1.0
 10
196.0963038632
 20
209.344532878
 30
0.0
 10
196.0963038632
 20
209.3933507393
 30
0.0
 10
196.1033977678
 20
209.4868130445
 30
0.0
 10
196.138572905
 20
209.6164733821
 30
0.0
 10
196.1972303499
 20
209.724701615
 30
0.0
 10
196.2782043614
 20
209.8066039011
 30
0.0
 10
196.3784193483
 20
209.8572448789
 30
0.0
 10
196.4922687298
 20
209.8737527182
 30
0.0
 10
196.6138708918
 20
209.8565988936
 30
0.0
 10
196.6931103902
 20
209.8255524779
 30
0.0
 10
196.7326999663
 20
209.8057576898
 30
0.0
  0
SPLINE
  5
397
100
AcDbEntity
  8
0
100
AcDbSpline
 62
250
  6
CONTINUOUS
 70
0
 71
3
 72
11
 73
7
 74
0
 42
0.0000001
 43
0.0000001
 44
0.0000000001
 40
0.0
 40
0.0
 40
0.0
 40
0.0
 40
0.2296746965
 40
0.4882148095
 40
0.7532079038
 40
1.0
 40
1.0
 40
1.0
 40
1.0
 10
196.7326999663
 20
162.8238795345
 30
0.0
 10
196.6422162958
 20
162.8691213698
 30
0.0
 10
196.4693151606
 20
163.0043877815
 30
0.0
 10
196.2696614677
 20
163.2729389531
 30
0.0
 10
196.1338167302
 20
163.5869856669
 30
0.0
 10
196.0963038632
 20
163.8127970036
 30
0.0
 10
196.0963038632
 20
163.9215004495
 30
0.0
  0
SPLINE
  5
398
100
AcDbEntity
  8
0
100
AcDbSpline
 62
250
  6
CONTINUOUS
 70
0
 71
3
 72
15
 73
11
 74
0
 42
0.0000001
 43
0.0000001
 44
0.0000000001
 40
0.0
 40
0.0
 40
0.0
 40
0.0
 40
0.148795512
 40
0.2840524463
 40
0.4066328842
 40
0.5199159528
 40
0.6296860878
 40
0.7427990383
 40
0.8650891307
 40
1.0
 40
1.0
 40
1.0
 40
1.0
 10
228.729281815
 20
147.6050114736
 30
0.0
 10
228.729281815
 20
147.5561936122
 30
0.0
 10
228.7221879104
 20
147.462731307
 30
0.0
 10
228.6870127731
 20
147.3330709695
 30
0.0
 10
228.6283553282
 20
147.2248427365
 30
0.0
 10
228.5473813168
 20
147.1429404505
 30
0.0
 10
228.4471663298
 20
147.0922994727
 30
0.0
 10
228.3333169484
 20
147.0757916333
 30
0.0
 10
228.2117147864
 20
147.092945458
 30
0.0
 10
228.132475288
 20
147.1239918737
 30
0.0
 10
228.0928857119
 20
147.1437866617
 30
0.0
  0
SPLINE
  5
399
100
AcDbEntity
  8
0
100
AcDbSpline
 62
250
  6
CONTINUOUS
 70
0
 71
3
 72
15
 73
11
 74
0
 42
0.0000001
 43
0.0000001
 44
0.0000000001
 40
0.0
 40
0.0
 40
0.0
 40
0.0
 40
0.148795512
 40
0.2840524463
 40
0.4066328842
 40
0.5199159528
 40
0.6296860878
 40
0.7427990383
 40
0.8650891307
 40
1.0
 40
1.0
 40
1.0
 40
1.0
 10
228.729281815
 20
86.1172078049
 30
0.0
 10
228.729281815
 20
86.0683899435
 30
0.0
 10
228.7221879104
 20
85.9749276384
 30
0.0
 10
228.6870127731
 20
85.8452673008
 30
0.0
 10
228.6283553282
 20
85.7370390678
 30
0.0
 10
228.5473813168
 20
85.6551367818
 30
0.0
 10
228.4471663298
 20
85.604495804
 30
0.0
 10
228.3333169484
 20
85.5879879646
 30
0.0
 10
228.2117147864
 20
85.6051417893
 30
0.0
 10
228.132475288
 20
85.636188205
 30
0.0
 10
228.0928857119
 20
85.655982993
 30
0.0
  0
SPLINE
  5
39A
100
AcDbEntity
  8
0
100
AcDbSpline
 62
250
  6
CONTINUOUS
 70
0
 71
3
 72
9
 73
5
 74
0
 42
0.0000001
 43
0.0000001
 44
0.0000000001
 40
0.0
 40
0.0
 40
0.0
 40
0.0
 40
0.2390978454
 40
1.0
 40
1.0
 40
1.0
 40
1.0
 10
228.0928857119
 20
132.6378611483
 30
0.0
 10
228.1069311595
 20
132.6308384245
 30
0.0
 10
228.1647118416
 20
132.5995523395
 30
0.0
 10
228.2185645967
 20
132.561231075
 30
0.0
 10
228.2570737326
 20
132.5293807552
 30
0.0
  0
SPLINE
  5
39B
100
AcDbEntity
  8
0
100
AcDbSpline
 62
250
  6
CONTINUOUS
 70
0
 71
3
 72
11
 73
7
 74
0
 42
0.0000001
 43
0.0000001
 44
0.0000000001
 40
0.0
 40
0.0
 40
0.0
 40
0.0
 40
0.243865927
 40
0.5029562507
 40
0.7604676935
 40
1.0
 40
1.0
 40
1.0
 40
1.0
 10
228.2570737326
 20
132.5293807552
 30
0.0
 10
228.3276129329
 20
132.4710388568
 30
0.0
 10
228.4574990014
 20
132.3313338406
 30
0.0
 10
228.605896712
 20
132.0854499623
 30
0.0
 10
228.7034014725
 20
131.817036256
 30
0.0
 10
228.729281815
 20
131.6301534372
 30
0.0
 10
228.729281815
 20
131.5402402334
 30
0.0
  0
SPLINE
  5
39C
100
AcDbEntity
  8
0
100
AcDbSpline
 62
250
  6
CONTINUOUS
 70
0
 71
3
 72
15
 73
11
 74
0
 42
0.0000001
 43
0.0000001
 44
0.0000000001
 40
0.0
 40
0.0
 40
0.0
 40
0.0
 40
0.148795512
 40
0.2840524463
 40
0.4066328842
 40
0.5199159528
 40
0.6296860878
 40
0.7427990383
 40
0.8650891307
 40
1.0
 40
1.0
 40
1.0
 40
1.0
 10
196.0963038632
 20
147.8567292093
 30
0.0
 10
196.0963038632
 20
147.9055470706
 30
0.0
 10
196.1033977678
 20
147.9990093758
 30
0.0
 10
196.138572905
 20
148.1286697134
 30
0.0
 10
196.1972303499
 20
148.2368979463
 30
0.0
 10
196.2782043614
 20
148.3188002324
 30
0.0
 10
196.3784193483
 20
148.3694412102
 30
0.0
 10
196.4922687298
 20
148.3859490495
 30
0.0
 10
196.6138708918
 20
148.3687952249
 30
0.0
 10
196.6931103902
 20
148.3377488092
 30
0.0
 10
196.7326999663
 20
148.3179540211
 30
0.0
  0
SPLINE
  5
39D
100
AcDbEntity
  8
0
100
AcDbSpline
 62
250
  6
CONTINUOUS
 70
0
 71
3
 72
11
 73
7
 74
0
 42
0.0000001
 43
0.0000001
 44
0.0000000001
 40
0.0
 40
0.0
 40
0.0
 40
0.0
 40
0.2296746965
 40
0.4882148095
 40
0.7532079038
 40
1.0
 40
1.0
 40
1.0
 40
1.0
 10
196.7326999663
 20
101.3360758658
 30
0.0
 10
196.6422162958
 20
101.3813177011
 30
0.0
 10
196.4693151606
 20
101.5165841128
 30
0.0
 10
196.2696614677
 20
101.7851352844
 30
0.0
 10
196.1338167302
 20
102.0991819982
 30
0.0
 10
196.0963038632
 20
102.3249933349
 30
0.0
 10
196.0963038632
 20
102.4336967808
 30
0.0
  0
SPLINE
  5
39E
100
AcDbEntity
  8
0
100
AcDbSpline
 62
250
  6
CONTINUOUS
 70
0
 71
3
 72
11
 73
7
 74
0
 42
0.0000001
 43
0.0000001
 44
0.0000000001
 40
0.0
 40
0.0
 40
0.0
 40
0.0
 40
0.289692749
 40
0.5496093836
 40
0.7828339023
 40
1.0
 40
1.0
 40
1.0
 40
1.0
 10
228.0928857119
 20
132.6378611483
 30
0.0
 10
228.0928857119
 20
132.6196188187
 30
0.0
 10
228.0958350745
 20
132.5848789141
 30
0.0
 10
228.1106740822
 20
132.5373630874
 30
0.0
 10
228.1354830522
 20
132.4993276728
 30
0.0
 10
228.1586228475
 20
132.4817161165
 30
0.0
 10
228.170855498
 20
132.4756026698
 30
0.0
  0
SPLINE
  5
39F
100
AcDbEntity
  8
0
100
AcDbSpline
 62
250
  6
CONTINUOUS
 70
0
 71
3
 72
11
 73
7
 74
0
 42
0.0000001
 43
0.0000001
 44
0.0000000001
 40
0.0
 40
0.0
 40
0.0
 40
0.0
 40
0.289692749
 40
0.5496093836
 40
0.7828339023
 40
1.0
 40
1.0
 40
1.0
 40
1.0
 10
228.0928857119
 20
194.125664817
 30
0.0
 10
228.0928857119
 20
194.1074224874
 30
0.0
 10
228.0958350745
 20
194.0726825828
 30
0.0
 10
228.1106740822
 20
194.0251667561
 30
0.0
 10
228.1354830522
 20
193.9871313415
 30
0.0
 10
228.1586228475
 20
193.9695197852
 30
0.0
 10
228.170855498
 20
193.9634063384
 30
0.0
  0
SPLINE
  5
3A0
100
AcDbEntity
  8
0
100
AcDbSpline
 62
250
  6
CONTINUOUS
 70
0
 71
3
 72
11
 73
7
 74
0
 42
0.0000001
 43
0.0000001
 44
0.0000000001
 40
0.0
 40
0.0
 40
0.0
 40
0.0
 40
0.3024673256
 40
0.5655230414
 40
0.7934184043
 40
1.0
 40
1.0
 40
1.0
 40
1.0
 10
228.729281815
 20
147.6050114736
 30
0.0
 10
228.7162613213
 20
147.6115217204
 30
0.0
 10
228.6927226798
 20
147.6254962876
 30
0.0
 10
228.6641395757
 20
147.6513106219
 30
0.0
 10
228.6458104576
 20
147.6800651774
 30
0.0
 10
228.6414138493
 20
147.7011349904
 30
0.0
 10
228.6414138493
 20
147.7110774908
 30
0.0
  0
SPLINE
  5
3A1
100
AcDbEntity
  8
0
100
AcDbSpline
 62
250
  6
CONTINUOUS
 70
0
 71
3
 72
11
 73
7
 74
0
 42
0.0000001
 43
0.0000001
 44
0.0000000001
 40
0.0
 40
0.0
 40
0.0
 40
0.0
 40
0.2468124806
 40
0.5117852459
 40
0.7703059488
 40
1.0
 40
1.0
 40
1.0
 40
1.0
 10
228.0928857119
 20
147.1437866617
 30
0.0
 10
228.0928857119
 20
147.180024126
 30
0.0
 10
228.1053913213
 20
147.2552945029
 30
0.0
 10
228.150672083
 20
147.3599737303
 30
0.0
 10
228.2172210577
 20
147.449488331
 30
0.0
 10
228.2748539899
 20
147.4945784219
 30
0.0
 10
228.3050177462
 20
147.5096603
 30
0.0
  0
SPLINE
  5
3A2
100
AcDbEntity
  8
0
100
AcDbSpline
 62
250
  6
CONTINUOUS
 70
0
 71
3
 72
11
 73
7
 74
0
 42
0.0000001
 43
0.0000001
 44
0.0000000001
 40
0.0
 40
0.0
 40
0.0
 40
0.0
 40
0.2468124806
 40
0.5117852459
 40
0.7703059488
 40
1.0
 40
1.0
 40
1.0
 40
1.0
 10
196.7326999663
 20
162.8238795345
 30
0.0
 10
196.7326999663
 20
162.8601169988
 30
0.0
 10
196.7452055757
 20
162.9353873757
 30
0.0
 10
196.7904863373
 20
163.0400666031
 30
0.0
 10
196.8570353121
 20
163.1295812038
 30
0.0
 10
196.9146682443
 20
163.1746712947
 30
0.0
 10
196.9448320006
 20
163.1897531728
 30
0.0
  0
SPLINE
  5
3A3
100
AcDbEntity
  8
0
100
AcDbSpline
 62
250
  6
CONTINUOUS
 70
0
 71
3
 72
10
 73
6
 74
0
 42
0.0000001
 43
0.0000001
 44
0.0000000001
 40
0.0
 40
0.0
 40
0.0
 40
0.0
 40
0.2277246587
 40
0.4658846912
 40
1.0
 40
1.0
 40
1.0
 40
1.0
 10
228.573345935
 20
147.4926191648
 30
0.0
 10
228.5545028521
 20
147.4831972113
 30
0.0
 10
228.5129649311
 20
147.469391976
 30
0.0
 10
228.4197116943
 20
147.4646873096
 30
0.0
 10
228.3492135182
 20
147.4875624141
 30
0.0
 10
228.3050177462
 20
147.5096603
 30
0.0
  0
SPLINE
  5
3A4
100
AcDbEntity
  8
0
100
AcDbSpline
 62
250
  6
CONTINUOUS
 70
0
 71
3
 72
11
 73
7
 74
0
 42
0.0000001
 43
0.0000001
 44
0.0000000001
 40
0.0
 40
0.0
 40
0.0
 40
0.0
 40
0.2353891693
 40
0.5
 40
0.7646108307
 40
1.0
 40
1.0
 40
1.0
 40
1.0
 10
196.0963038632
 20
209.344532878
 30
0.0
 10
196.126900205
 20
209.3292347071
 30
0.0
 10
196.1972117738
 20
209.3074148409
 30
0.0
 10
196.3084358976
 20
209.296991749
 30
0.0
 10
196.4196600213
 20
209.3074148409
 30
0.0
 10
196.4899715901
 20
209.3292347071
 30
0.0
 10
196.5205679319
 20
209.344532878
 30
0.0
  0
SPLINE
  5
3A5
100
AcDbEntity
  8
0
100
AcDbSpline
 62
250
  6
CONTINUOUS
 70
0
 71
3
 72
11
 73
7
 74
0
 42
0.0000001
 43
0.0000001
 44
0.0000000001
 40
0.0
 40
0.0
 40
0.0
 40
0.0
 40
0.289692749
 40
0.5496093836
 40
0.7828339023
 40
1.0
 40
1.0
 40
1.0
 40
1.0
 10
196.7326999663
 20
209.8057576898
 30
0.0
 10
196.7326999663
 20
209.7875153602
 30
0.0
 10
196.7356493289
 20
209.7527754556
 30
0.0
 10
196.7504883366
 20
209.7052596289
 30
0.0
 10
196.7752973066
 20
209.6672242144
 30
0.0
 10
196.7984371019
 20
209.649612658
 30
0.0
 10
196.8106697524
 20
209.6434992113
 30
0.0
  0
SPLINE
  5
3A6
100
AcDbEntity
  8
0
100
AcDbSpline
 62
250
  6
CONTINUOUS
 70
0
 71
3
 72
11
 73
7
 74
0
 42
0.0000001
 43
0.0000001
 44
0.0000000001
 40
0.0
 40
0.0
 40
0.0
 40
0.0
 40
0.2296820139
 40
0.4882149669
 40
0.7532001009
 40
1.0
 40
1.0
 40
1.0
 40
1.0
 10
196.9448320006
 20
101.7019495042
 30
0.0
 10
196.8845076563
 20
101.7321116763
 30
0.0
 10
196.7692398008
 20
101.8222893882
 30
0.0
 10
196.6361428958
 20
102.0013242187
 30
0.0
 10
196.5455762167
 20
102.2106843225
 30
0.0
 10
196.5205679319
 20
102.361225555
 30
0.0
 10
196.5205679319
 20
102.4336967808
 30
0.0
  0
SPLINE
  5
3A7
100
AcDbEntity
  8
0
100
AcDbSpline
 62
250
  6
CONTINUOUS
 70
0
 71
3
 72
11
 73
7
 74
0
 42
0.0000001
 43
0.0000001
 44
0.0000000001
 40
0.0
 40
0.0
 40
0.0
 40
0.0
 40
0.2897397522
 40
0.5495873727
 40
0.7828463249
 40
1.0
 40
1.0
 40
1.0
 40
1.0
 10
196.5205679319
 20
147.8567292093
 30
0.0
 10
196.5205679319
 20
147.8932203336
 30
0.0
 10
196.5264573129
 20
147.9627009099
 30
0.0
 10
196.5561526091
 20
148.057727808
 30
0.0
 10
196.6057521585
 20
148.1338074102
 30
0.0
 10
196.652042061
 20
148.169022142
 30
0.0
 10
196.6765038119
 20
148.1812535524
 30
0.0
  0
SPLINE
  5
3A8
100
AcDbEntity
  8
0
100
AcDbSpline
 62
250
  6
CONTINUOUS
 70
0
 71
3
 72
11
 73
7
 74
0
 42
0.0000001
 43
0.0000001
 44
0.0000000001
 40
0.0
 40
0.0
 40
0.0
 40
0.0
 40
0.2897397522
 40
0.5495873727
 40
0.7828463249
 40
1.0
 40
1.0
 40
1.0
 40
1.0
 10
196.5205679319
 20
209.344532878
 30
0.0
 10
196.5205679319
 20
209.3810240023
 30
0.0
 10
196.5264573129
 20
209.4505045786
 30
0.0
 10
196.5561526091
 20
209.5455314767
 30
0.0
 10
196.6057521585
 20
209.6216110789
 30
0.0
 10
196.652042061
 20
209.6568258107
 30
0.0
 10
196.6765038119
 20
209.6690572211
 30
0.0
  0
SPLINE
  5
3A9
100
AcDbEntity
  8
0
100
AcDbSpline
 62
250
  6
CONTINUOUS
 70
0
 71
3
 72
11
 73
7
 74
0
 42
0.0000001
 43
0.0000001
 44
0.0000000001
 40
0.0
 40
0.0
 40
0.0
 40
0.0
 40
0.2296820139
 40
0.4882149669
 40
0.7532001009
 40
1.0
 40
1.0
 40
1.0
 40
1.0
 10
196.9448320006
 20
163.1897531728
 30
0.0
 10
196.8845076563
 20
163.219915345
 30
0.0
 10
196.7692398008
 20
163.3100930569
 30
0.0
 10
196.6361428958
 20
163.4891278874
 30
0.0
 10
196.5455762167
 20
163.6984879912
 30
0.0
 10
196.5205679319
 20
163.8490292237
 30
0.0
 10
196.5205679319
 20
163.9215004495
 30
0.0
  0
SPLINE
  5
3AA
100
AcDbEntity
  8
CURVE
100
AcDbSpline
 62
250
  6
CONTINUOUS
 70
0
 71
3
 72
17
 73
13
 74
0
 42
0.0000001
 43
0.0000001
 44
0.0000000001
 40
0.0
 40
0.0
 40
0.0
 40
0.0
 40
0.0559780952
 40
0.1687540387
 40
0.321006234
 40
0.4122750837
 40
0.516613223
 40
0.6013931059
 40
0.6776022439
 40
0.8103422694
 40
0.9200404832
 40
1.0
 40
1.0
 40
1.0
 40
1.0
 10
245.2944330396
 20
74.4953043939
 30
0.0
 10
245.2923293314
 20
74.5142204597
 30
0.0
 10
245.2596904292
 20
74.5486568789
 30
0.0
 10
245.1974715762
 20
74.6017201539
 30
0.0
 10
245.1016953119
 20
74.6158099802
 30
0.0
 10
245.0017789894
 20
74.5934615792
 30
0.0
 10
244.9188505274
 20
74.5545912298
 30
0.0
 10
244.8413960166
 20
74.5021939294
 30
0.0
 10
244.7590945567
 20
74.4279117037
 30
0.0
 10
244.6784373317
 20
74.3253553623
 30
0.0
 10
244.615361263
 20
74.2059566165
 30
0.0
 10
244.5881571323
 20
74.1319448451
 30
0.0
 10
244.5801887768
 20
74.1009083959
 30
0.0
  0
SPLINE
  5
3AB
100
AcDbEntity
  8
CURVE
100
AcDbSpline
 62
250
  6
CONTINUOUS
 70
0
 71
3
 72
9
 73
5
 74
0
 42
0.0000001
 43
0.0000001
 44
0.0000000001
 40
0.0
 40
0.0
 40
0.0
 40
0.0
 40
0.2957417834
 40
1.0
 40
1.0
 40
1.0
 40
1.0
 10
244.5801887768
 20
74.1009083959
 30
0.0
 10
244.5556221466
 20
74.0053431575
 30
0.0
 10
244.5155770751
 20
73.6859725231
 30
0.0
 10
244.5402407502
 20
73.3973860417
 30
0.0
 10
244.565300514
 20
73.2012941374
 30
0.0
  0
SPLINE
  5
3AC
100
AcDbEntity
  8
CURVE
100
AcDbSpline
 62
250
  6
CONTINUOUS
 70
0
 71
3
 72
9
 73
5
 74
0
 42
0.0000001
 43
0.0000001
 44
0.0000000001
 40
0.0
 40
0.0
 40
0.0
 40
0.0
 40
0.3559141631
 40
1.0
 40
1.0
 40
1.0
 40
1.0
 10
245.4094777432
 20
74.1772827993
 30
0.0
 10
245.4094777432
 20
74.2087864488
 30
0.0
 10
245.4250536069
 20
74.3072019321
 30
0.0
 10
245.4904954109
 20
74.3994547095
 30
0.0
 10
245.5340768091
 20
74.441276809
 30
0.0
  0
SPLINE
  5
3AD
100
AcDbEntity
  8
CURVE
100
AcDbSpline
 62
250
  6
CONTINUOUS
 70
0
 71
3
 72
9
 73
5
 74
0
 42
0.0000001
 43
0.0000001
 44
0.0000000001
 40
0.0
 40
0.0
 40
0.0
 40
0.0
 40
0.5586214172
 40
1.0
 40
1.0
 40
1.0
 40
1.0
 10
245.5340768091
 20
74.441276809
 30
0.0
 10
245.6121371847
 20
74.5162241121
 30
0.0
 10
245.756682966
 20
74.6357312025
 30
0.0
 10
245.8995568278
 20
74.759803027
 30
0.0
 10
245.962877867
 20
74.8137600919
 30
0.0
  0
SPLINE
  5
3AE
100
AcDbEntity
  8
CURVE
100
AcDbSpline
 62
250
  6
CONTINUOUS
 70
0
 71
3
 72
9
 73
5
 74
0
 42
0.0000001
 43
0.0000001
 44
0.0000000001
 40
0.0
 40
0.0
 40
0.0
 40
0.0
 40
0.1980298616
 40
1.0
 40
1.0
 40
1.0
 40
1.0
 10
245.962877867
 20
75.1614979936
 30
0.0
 10
245.9376655164
 20
75.1405052516
 30
0.0
 10
245.8100634411
 20
75.0356589801
 30
0.0
 10
245.6822533245
 20
74.9316693632
 30
0.0
 10
245.5801716054
 20
74.8465667654
 30
0.0
  0
SPLINE
  5
3AF
100
AcDbEntity
  8
CURVE
100
AcDbSpline
 62
250
  6
CONTINUOUS
 70
0
 71
3
 72
9
 73
5
 74
0
 42
0.0000001
 43
0.0000001
 44
0.0000000001
 40
0.0
 40
0.0
 40
0.0
 40
0.0
 40
0.2427307434
 40
1.0
 40
1.0
 40
1.0
 40
1.0
 10
245.5801716055
 20
74.8465667652
 30
0.0
 10
245.5544645627
 20
74.8251355418
 30
0.0
 10
245.4506870111
 20
74.7404966702
 30
0.0
 10
245.3335767235
 20
74.6094391125
 30
0.0
 10
245.3027891302
 20
74.4994824392
 30
0.0
  0
SPLINE
  5
3B0
100
AcDbEntity
  8
CURVE
100
AcDbSpline
 62
250
  6
CONTINUOUS
 70
0
 71
3
 72
9
 73
5
 74
0
 42
0.0000001
 43
0.0000001
 44
0.0000000001
 40
0.0
 40
0.0
 40
0.0
 40
0.0
 40
0.5206208722
 40
1.0
 40
1.0
 40
1.0
 40
1.0
 10
244.9581322075
 20
74.2332160416
 30
0.0
 10
245.0192645046
 20
74.2649374798
 30
0.0
 10
245.1528074062
 20
74.2788158731
 30
0.0
 10
245.1766254375
 20
74.13056732
 30
0.0
 10
245.1778825431
 20
74.0622644439
 30
0.0
  0
SPLINE
  5
3B1
100
AcDbEntity
  8
CURVE
100
AcDbSpline
 62
250
  6
CONTINUOUS
 70
0
 71
3
 72
9
 73
5
 74
0
 42
0.0000001
 43
0.0000001
 44
0.0000000001
 40
0.0
 40
0.0
 40
0.0
 40
0.0
 40
0.2704041687
 40
1.0
 40
1.0
 40
1.0
 40
1.0
 10
244.7896848745
 20
73.661561892
 30
0.0
 10
244.7861694394
 20
73.685036543
 30
0.0
 10
244.7746078297
 20
73.7728612231
 30
0.0
 10
244.7748584348
 20
73.8687512488
 30
0.0
 10
244.7813597265
 20
73.9406065875
 30
0.0
  0
SPLINE
  5
3B2
100
AcDbEntity
  8
CURVE
100
AcDbSpline
 62
250
  6
CONTINUOUS
 70
0
 71
3
 72
9
 73
5
 74
0
 42
0.0000001
 43
0.0000001
 44
0.0000000001
 40
0.0
 40
0.0
 40
0.0
 40
0.0
 40
0.5013654753
 40
1.0
 40
1.0
 40
1.0
 40
1.0
 10
244.7813597264
 20
73.9406065874
 30
0.0
 10
244.786381064
 20
73.9961047761
 30
0.0
 10
244.8244788679
 20
74.1223260657
 30
0.0
 10
244.9148199435
 20
74.2107302368
 30
0.0
 10
244.9581322075
 20
74.2332160416
 30
0.0
  0
ELLIPSE
  5
3B3
100
AcDbEntity
  8
RACCORDO
100
AcDbEllipse
 62
7
  6
CONTINUOUS
 10
199.3542968069
 20
179.1712378124
 30
0.0
 11
-0.0897812751
 21
0.1793232728
 31
0.0
 40
0.610731003
 41
-0.6839490949
 42
-0.0569064621
  0
ELLIPSE
  5
3B4
100
AcDbEntity
  8
RACCORDO
100
AcDbEllipse
 62
7
  6
CONTINUOUS
 10
199.3542968069
 20
117.6834341437
 30
0.0
 11
-0.0897812751
 21
0.1793232728
 31
0.0
 40
0.610731003
 41
-0.6839490949
 42
-0.0569064621
  0
ELLIPSE
  5
3B5
100
AcDbEntity
  8
RACCORDO
100
AcDbEllipse
 62
7
  6
CONTINUOUS
 10
199.2754423011
 20
102.8656705882
 30
0.0
 11
-0.2603455863
 21
0.5477627232
 31
0.0
 40
0.6117149473
 41
0.9102517513
 42
2.4775686209
  0
ELLIPSE
  5
3B6
100
AcDbEntity
  8
DRAFT
100
AcDbEllipse
 62
7
  6
CONTINUOUS
 10
198.5012414505
 20
116.8937919427
 30
0.0
 11
0.1999631714
 21
-0.0082132501
 31
0.0
 40
0.4672909446
 41
-0.7487538058
 42
0.0191910652
  0
ELLIPSE
  5
3B7
100
AcDbEntity
  8
RACCORDO
100
AcDbEllipse
 62
7
  6
CONTINUOUS
 10
209.6202076815
 20
105.5983575205
 30
0.0
 11
12.366472715
 21
2.9494793153
 31
0.0
 40
0.0405726368
 41
3.1319161338
 42
3.1478729126
  0
ELLIPSE
  5
3B8
100
AcDbEntity
  8
DRAFT
100
AcDbEllipse
 62
7
  6
CONTINUOUS
 10
198.5012414505
 20
178.3815956114
 30
0.0
 11
0.1999631714
 21
-0.0082132501
 31
0.0
 40
0.4672909446
 41
-0.7487538058
 42
0.0191910652
  0
ELLIPSE
  5
3B9
100
AcDbEntity
  8
RACCORDO
100
AcDbEllipse
 62
7
  6
CONTINUOUS
 10
209.6202076815
 20
167.0861611892
 30
0.0
 11
12.366472715
 21
2.9494793153
 31
0.0
 40
0.0405726368
 41
3.1319161338
 42
3.1478729126
  0
ENDSEC
  0
SECTION
  2
OBJECTS
  0
DICTIONARY
  5
C
100
AcDbDictionary
280
0
281
1
  3
ACAD_GROUP
350
D
  3
ACAD_MLINESTYLE
350
17
  3
ACAD_LAYOUT
350
1A
  3
ACAD_PLOTSETTINGS
350
19
  3
ACAD_PLOTSTYLENAME
350
E
  0
DICTIONARY
  5
D
102
{ACAD_REACTORS
330
C
102
}
100
AcDbDictionary
280
0
281
1
  0
ACDBDICTIONARYWDFLT
  5
E
102
{ACAD_REACTORS
330
C
102
}
100
AcDbDictionary
281
1
  3
Normal
350
F
100
AcDbDictionaryWithDefault
340
F
  0
DICTIONARY
  5
17
102
{ACAD_REACTORS
330
C
102
}
100
AcDbDictionary
280
0
281
1
  3
Standard
350
18
  0
DICTIONARY
  5
19
102
{ACAD_REACTORS
330
C
102
}
100
AcDbDictionary
281
1
  0
DICTIONARY
  5
1A
102
{ACAD_REACTORS
330
C
102
}
100
AcDbDictionary
281
1
  3
Model
350
3BA
  3
Layout1
350
3BB
  0
ACDBPLACEHOLDER
  5
F
102
{ACAD_REACTORS
330
E
102
}
  0
MLINESTYLE
  5
18
102
{ACAD_REACTORS
330
17
102
}
100
AcDbMlineStyle
  2
STANDARD
 70
0
  3

 62
256
 51
90.0
 52
90.0
 71
2
 49
0.5
 62
256
  6
BYLAYER
 49
-0.5
 62
256
  6
BYLAYER
  0
LAYOUT
  5
3BA
102
{ACAD_REACTORS
330
1A
102
}
100
AcDbPlotSettings
  1

  2
none_device
  4
ISO_A3_(420.00_x_297.00_MM)
  6

 40
0.0
 41
0.0
 42
0.0
 43
0.0
 44
420.0
 45
297.0
 46
0.0
 47
0.0
 48
0.0
 49
0.0
140
0.0
141
0.0
142
1.0
143
1.0
 70
1024
 72
1
 73
0
 74
0
  7

 75
0
147
1.0
148
0.0
149
0.0
100
AcDbLayout
  1
Model
 70
0
 71
0
 10
0.0
 20
0.0
 11
420.0
 21
297.0
 12
0.0
 22
0.0
 32
0.0
 14
0.0
 24
0.0
 34
0.0
 15
0.0
 25
0.0
 35
0.0
146
0.0
 13
0.0
 23
0.0
 33
0.0
 16
1.0
 26
0.0
 36
0.0
 17
0.0
 27
1.0
 37
0.0
 76
0
330
214
345
0
346
0
  0
LAYOUT
  5
3BB
102
{ACAD_REACTORS
330
1A
102
}
100
AcDbPlotSettings
  1

  2
none_device
  4
ISO_A3_(420.00_x_297.00_MM)
  6

 40
0.0
 41
0.0
 42
0.0
 43
0.0
 44
420.0
 45
297.0
 46
0.0
 47
0.0
 48
0.0
 49
0.0
140
0.0
141
0.0
142
1.0
143
1.0
 70
0
 72
1
 73
0
 74
0
  7

 75
0
147
1.0
148
0.0
149
0.0
100
AcDbLayout
  1
Layout1
 70
0
 71
1
 10
0.0
 20
0.0
 11
420.0
 21
297.0
 12
0.0
 22
0.0
 32
0.0
 14
0.0
 24
0.0
 34
0.0
 15
0.0
 25
0.0
 35
0.0
146
0.0
 13
0.0
 23
0.0
 33
0.0
 16
1.0
 26
0.0
 36
0.0
 17
0.0
 27
1.0
 37
0.0
 76
0
330
215
345
0
346
0
  0
ENDSEC
  0
EOF
