  0
SECTION
  2
HEADER
  9
$ACADVER
  1
AC1024
  9
$DWGCODEPAGE
  3
ANSI_1252
  9
$EXTMAX
 10
420.0
 20
297.0
 30
0.0
  9
$EXTMIN
 10
0.0
 20
-0.0
 30
0.0
  9
$LIMMIN
 10
0.0
 20
-0.0
  9
$LIMMAX
 10
420.0
 20
297.0
  9
$VIEWCTR
 10
210.0
 20
148.5
  9
$VIEWSIZE
 40
297.0
  9
$CLAYER
  8
0
  9
$LTSCALE
 40
23.1
  9
$CELTYPE
  6
BYLAYER
  9
$DIMSCALE
 40
1.0
  9
$DIMASZ
 40
3.0
  9
$DIMEXO
 40
0.5
  9
$DIMDLI
 40
15.96
  9
$DIMEXE
 40
1.5
  9
$DIMCEN
 40
3.78
  9
$DIMLFAC
 40
1.0
  9
$DIMBLK
  1
_FILLED
  9
$DIMALT
 70
0
  9
$DIMALTF
 40
0.0393700787
  9
$DIMTXT
 40
3.0
  9
$DIMTOL
 70
1
  9
$DIMLIM
 70
0
  9
$DIMTFAC
 40
1.0
  9
$DIMTP
 40
0.01
  9
$DIMTM
 40
0.01
  9
$DIMGAP
 40
0.625
  9
$DIMDSEP
 70
44
  9
$AUNITS
 70
0
  9
$PDMODE
 70
3
  9
$PDSIZE
 40
3.0
  9
$HANDSEED
  5
45E
  9
$TILEMODE
 70
1
  9
$MEASUREMENT
 70
1
  9
$INSUNITS
 70
4
  0
ENDSEC
  0
SECTION
  2
CLASSES
  0
CLASS
  1
ACDBDICTIONARYWDFLT
  2
AcDbDictionaryWithDefault
  3
AutoCAD 2000
 90
0
 91
1
280
0
281
0
  0
CLASS
  1
ACDBPLACEHOLDER
  2
AcDbPlaceHolder
  3
AutoCAD 2000
 90
0
 91
1
280
0
281
0
  0
CLASS
  1
LAYOUT
  2
AcDbLayout
  3
AutoCAD 2000
 90
0
 91
0
280
0
281
0
  0
ENDSEC
  0
SECTION
  2
TABLES
  0
TABLE
  2
VPORT
  5
8
100
AcDbSymbolTable
 70
2
  0
VPORT
  5
1F4
100
AcDbSymbolTableRecord
100
AcDbViewportTableRecord
  2
*ACTIVE
 70
0
 10
0.0
 20
0.0
 11
1.0
 21
1.0
 12
210.0
 22
148.5
 13
0.0
 23
0.0
 14
1.0
 24
1.0
 15
0.0
 25
0.0
 16
0.0
 26
0.0
 36
1.0
 17
0.0
 27
0.0
 37
0.0
 40
297.0
 41
1.4141414141
 42
50.0
 43
0.0
 44
0.0
 50
0.0
 51
0.0
 71
0
 72
100
 73
1
 74
1
 75
0
 76
0
 77
0
 78
0
  0
ENDTAB
  0
TABLE
  2
LTYPE
  5
5
100
AcDbSymbolTable
 70
6
  0
LTYPE
  5
14
100
AcDbSymbolTableRecord
100
AcDbLinetypeTableRecord
  2
BYBLOCK
 70
0
  3

 72
65
 73
0
 40
0.0
  0
LTYPE
  5
15
100
AcDbSymbolTableRecord
100
AcDbLinetypeTableRecord
  2
BYLAYER
 70
0
  3

 72
65
 73
0
 40
0.0
  0
LTYPE
  5
16
100
AcDbSymbolTableRecord
100
AcDbLinetypeTableRecord
  2
CONTINUOUS
 70
64
  3
Solid line
 72
65
 73
0
 40
0.0
  0
LTYPE
  5
1F5
100
AcDbSymbolTableRecord
100
AcDbLinetypeTableRecord
  2
CENTER
 70
64
  3
____ _ ____ _ ____ _ ____ _ ____ _ ____ _ ____
 72
65
 73
4
 40
0.6
 49
0.375
 74
0
 49
-0.075
 74
0
 49
0.075
 74
0
 49
-0.075
 74
0
  0
LTYPE
  5
1F6
100
AcDbSymbolTableRecord
100
AcDbLinetypeTableRecord
  2
HIDDEN
 70
64
  3
- - - - - - - - - - - - - - - - - - - -
 72
65
 73
2
 40
0.2
 49
0.1
 74
0
 49
-0.1
 74
0
  0
LTYPE
  5
1F7
100
AcDbSymbolTableRecord
100
AcDbLinetypeTableRecord
  2
PHANTOM
 70
64
  3
_____ _ _ _____ _ _ _____ _ _ _____
 72
65
 73
6
 40
0.8
 49
0.45
 74
0
 49
-0.05
 74
0
 49
0.1
 74
0
 49
-0.05
 74
0
 49
0.1
 74
0
 49
-0.05
 74
0
  0
LTYPE
  5
1F8
100
AcDbSymbolTableRecord
100
AcDbLinetypeTableRecord
  2
DOT
 70
64
  3
. . . . . . . . . . . . . . . . . . . .
 72
65
 73
2
 40
0.2
 49
0.1
 74
0
 49
-0.1
 74
0
  0
LTYPE
  5
1F9
100
AcDbSymbolTableRecord
100
AcDbLinetypeTableRecord
  2
DASHED
 70
64
  3
- - - - - - - - - - - - - - - - - - - -
 72
65
 73
2
 40
0.2
 49
0.1
 74
0
 49
-0.1
 74
0
  0
ENDTAB
  0
TABLE
  2
LAYER
  5
2
100
AcDbSymbolTable
 70
36
  0
LAYER
  5
10
100
AcDbSymbolTableRecord
100
AcDbLayerTableRecord
  2
0
 70
0
 62
7
  6
CONTINUOUS
370
-3
390
F
  0
LAYER
  5
1FA
100
AcDbSymbolTableRecord
100
AcDbLayerTableRecord
  2
DEFAULT_1
 70
0
 62
7
  6
CENTER
370
-3
390
F
  0
LAYER
  5
1FB
100
AcDbSymbolTableRecord
100
AcDbLayerTableRecord
  2
DEFAULT_2
 70
0
 62
7
  6
HIDDEN
370
-3
390
F
  0
LAYER
  5
1FC
100
AcDbSymbolTableRecord
100
AcDbLayerTableRecord
  2
DEFAULT_3
 70
0
 62
7
  6
PHANTOM
370
-3
390
F
  0
LAYER
  5
1FD
100
AcDbSymbolTableRecord
100
AcDbLayerTableRecord
  2
ASSI
 70
0
 62
7
  6
CONTINUOUS
370
-3
390
F
  0
LAYER
  5
1FE
100
AcDbSymbolTableRecord
100
AcDbLayerTableRecord
  2
COORDINATE
 70
0
 62
7
  6
CONTINUOUS
370
-3
390
F
  0
LAYER
  5
1FF
100
AcDbSymbolTableRecord
100
AcDbLayerTableRecord
  2
COPY_PUBLISH
 70
0
 62
7
  6
CONTINUOUS
370
-3
390
F
  0
LAYER
  5
200
100
AcDbSymbolTableRecord
100
AcDbLayerTableRecord
  2
COSMETICI
 70
0
 62
7
  6
CONTINUOUS
370
-3
390
F
  0
LAYER
  5
201
100
AcDbSymbolTableRecord
100
AcDbLayerTableRecord
  2
CURVE
 70
0
 62
7
  6
CONTINUOUS
370
-3
390
F
  0
LAYER
  5
202
100
AcDbSymbolTableRecord
100
AcDbLayerTableRecord
  2
DRAFT
 70
0
 62
7
  6
CONTINUOUS
370
-3
390
F
  0
LAYER
  5
203
100
AcDbSymbolTableRecord
100
AcDbLayerTableRecord
  2
IMPORT_IGES
 70
0
 62
7
  6
CONTINUOUS
370
-3
390
F
  0
LAYER
  5
204
100
AcDbSymbolTableRecord
100
AcDbLayerTableRecord
  2
INTF_1
 70
0
 62
7
  6
CONTINUOUS
370
-3
390
F
  0
LAYER
  5
205
100
AcDbSymbolTableRecord
100
AcDbLayerTableRecord
  2
INTF_11
 70
0
 62
7
  6
CONTINUOUS
370
-3
390
F
  0
LAYER
  5
206
100
AcDbSymbolTableRecord
100
AcDbLayerTableRecord
  2
INTF_13
 70
0
 62
7
  6
CONTINUOUS
370
-3
390
F
  0
LAYER
  5
207
100
AcDbSymbolTableRecord
100
AcDbLayerTableRecord
  2
INTF_2
 70
0
 62
7
  6
CONTINUOUS
370
-3
390
F
  0
LAYER
  5
208
100
AcDbSymbolTableRecord
100
AcDbLayerTableRecord
  2
INTF_8
 70
0
 62
7
  6
CONTINUOUS
370
-3
390
F
  0
LAYER
  5
209
100
AcDbSymbolTableRecord
100
AcDbLayerTableRecord
  2
NOTE
 70
0
 62
7
  6
CONTINUOUS
370
-3
390
F
  0
LAYER
  5
20A
100
AcDbSymbolTableRecord
100
AcDbLayerTableRecord
  2
PIANI
 70
0
 62
7
  6
CONTINUOUS
370
-3
390
F
  0
LAYER
  5
20B
100
AcDbSymbolTableRecord
100
AcDbLayerTableRecord
  2
PUNTI
 70
0
 62
7
  6
CONTINUOUS
370
-3
390
F
  0
LAYER
  5
20C
100
AcDbSymbolTableRecord
100
AcDbLayerTableRecord
  2
RACCORDO
 70
0
 62
7
  6
CONTINUOUS
370
-3
390
F
  0
LAYER
  5
20D
100
AcDbSymbolTableRecord
100
AcDbLayerTableRecord
  2
SIMBOLI
 70
0
 62
7
  6
CONTINUOUS
370
-3
390
F
  0
LAYER
  5
20E
100
AcDbSymbolTableRecord
100
AcDbLayerTableRecord
  2
SMUSSO
 70
0
 62
7
  6
CONTINUOUS
370
-3
390
F
  0
LAYER
  5
20F
100
AcDbSymbolTableRecord
100
AcDbLayerTableRecord
  2
SUPERFICI
 70
0
 62
7
  6
CONTINUOUS
370
-3
390
F
  0
LAYER
  5
210
100
AcDbSymbolTableRecord
100
AcDbLayerTableRecord
  2
TRASH
 70
0
 62
7
  6
CONTINUOUS
370
-3
390
F
  0
ENDTAB
  0
TABLE
  2
STYLE
  5
3
100
AcDbSymbolTable
 70
1
  0
STYLE
  5
11
100
AcDbSymbolTableRecord
100
AcDbTextStyleTableRecord
  2
STANDARD
 70
0
 40
0.0
 41
0.8
 50
0.0
 71
0
 42
0.2
  3
txt
  4

  0
STYLE
  5
211
100
AcDbSymbolTableRecord
100
AcDbTextStyleTableRecord
  2
TEXTSTYLE_1
 70
0
 40
0.0
 41
0.8
 50
0.0
 71
0
 42
0.2
  3
gdt
  4

  0
ENDTAB
  0
TABLE
  2
VIEW
  5
6
100
AcDbSymbolTable
 70
0
  0
ENDTAB
  0
TABLE
  2
UCS
  5
7
100
AcDbSymbolTable
 70
0
  0
ENDTAB
  0
TABLE
  2
APPID
  5
9
100
AcDbSymbolTable
 70
1
  0
APPID
  5
212
100
AcDbSymbolTableRecord
100
AcDbRegAppTableRecord
  2
ACAD
 70
0
  0
ENDTAB
  0
TABLE
  2
BLOCK_RECORD
  5
1
100
AcDbSymbolTable
 70
0
  0
BLOCK_RECORD
  5
213
100
AcDbSymbolTableRecord
100
AcDbBlockTableRecord
  2
*Model_Space
  0
BLOCK_RECORD
  5
214
100
AcDbSymbolTableRecord
100
AcDbBlockTableRecord
  2
*Paper_Space
  0
BLOCK_RECORD
  5
215
100
AcDbSymbolTableRecord
100
AcDbBlockTableRecord
  2
_FILLED
  0
ENDTAB
  0
TABLE
  2
DIMSTYLE
  5
A
100
AcDbSymbolTable
 70
1
100
AcDbDimStyleTable
 71
0
  0
DIMSTYLE
105
216
100
AcDbSymbolTableRecord
100
AcDbDimStyleTableRecord
  2
STANDARD
 70
0
  3

  4

 40
1.0
 41
3.0
 42
0.5
 43
0.38
 44
1.5
 45
0.0
 46
0.0
 47
0.01
 48
0.01
140
3.0
141
0.09
142
0.0
143
25.4
144
1.0
145
0.0
146
1.0
147
0.625
 71
1
 72
0
 73
0
 74
0
 75
0
 76
0
 77
1
 78
8
 79
2
170
0
171
1
172
0
173
0
174
0
175
0
176
0
177
0
178
0
270
2
179
2
271
2
272
2
273
2
274
2
275
0
280
0
281
0
282
0
283
1
284
8
285
0
286
0
287
3
288
0
340
11
278
44
341
215
342
215
343
215
344
215
  0
ENDTAB
  0
ENDSEC
  0
SECTION
  2
BLOCKS
  0
BLOCK
  5
20
100
AcDbEntity
  8
0
100
AcDbBlockBegin
  2
*Model_Space
 70
0
 10
0.0
 20
0.0
 30
0.0
  3
*Model_Space
  1

  0
ENDBLK
  5
21
100
AcDbEntity
  8
0
100
AcDbBlockEnd
  0
BLOCK
  5
1C
100
AcDbEntity
  8
0
100
AcDbBlockBegin
  2
*Paper_Space
 70
0
 10
0.0
 20
0.0
 30
0.0
  3
*Paper_Space
  1

  0
ENDBLK
  5
1D
100
AcDbEntity
  8
0
100
AcDbBlockEnd
  0
BLOCK
  5
217
100
AcDbEntity
  8
0
100
AcDbBlockBegin
  2
_FILLED
 70
64
 10
0.0
 20
0.0
  3
_FILLED
  1

  0
SOLID
  5
218
100
AcDbEntity
  8
0
  6
BYBLOCK
 62
0
100
AcDbTrace
 10
0.0
 20
0.0
 11
-1.0
 21
0.3166666667
 12
-1.0
 22
-0.3166666667
 13
-1.0
 23
-0.3166666667
  0
ENDBLK
  5
219
100
AcDbEntity
  8
0
  6
BYBLOCK
 62
0
100
AcDbBlockEnd
  0
ENDSEC
  0
SECTION
  2
ENTITIES
  0
LINE
  5
21A
100
AcDbEntity
  8
RACCORDO
100
AcDbLine
 62
7
  6
CONTINUOUS
 10
269.9889497794
 20
193.1875416763
 11
266.8776799421
 21
191.6319067576
  0
LINE
  5
21B
100
AcDbEntity
  8
0
100
AcDbLine
 62
7
  6
CONTINUOUS
 10
269.9889497794
 20
193.1875416763
 11
266.8776799421
 21
191.6319067576
  0
LINE
  5
21C
100
AcDbEntity
  8
RACCORDO
100
AcDbLine
 62
7
  6
CONTINUOUS
 10
272.7659090515
 20
191.7990620402
 11
273.2125289633
 21
191.9970172009
  0
LINE
  5
21D
100
AcDbEntity
  8
RACCORDO
100
AcDbLine
 62
250
  6
CONTINUOUS
 10
272.9344063857
 20
191.7148133731
 11
273.5129510391
 21
191.9712414831
  0
LWPOLYLINE
  5
21E
100
AcDbEntity
  8
RACCORDO
100
AcDbPolyline
 62
250
  6
CONTINUOUS
 90
3
 70
0
 10
273.2125292311
 20
191.9970173196
 10
273.2377764567
 20
192.0066872135
 10
273.2534331504
 20
192.0124577395
  0
LINE
  5
21F
100
AcDbEntity
  8
CURVE
100
AcDbLine
 62
250
  6
CONTINUOUS
 10
330.7461792998
 20
-34.0907418094
 11
329.772810753
 21
-34.2372088689
  0
LINE
  5
220
100
AcDbEntity
  8
CURVE
100
AcDbLine
 62
250
  6
CONTINUOUS
 10
329.772810753
 20
-33.8759377115
 11
331.1869097641
 21
-33.7255935842
  0
LINE
  5
221
100
AcDbEntity
  8
CURVE
100
AcDbLine
 62
250
  6
CONTINUOUS
 10
330.1613694648
 20
-30.4668326267
 11
330.6861593691
 21
-30.3844427867
  0
LINE
  5
222
100
AcDbEntity
  8
CURVE
100
AcDbLine
 62
250
  6
CONTINUOUS
 10
330.9046051599
 20
-30.3491706666
 11
331.1869097641
 21
-30.3077740987
  0
LINE
  5
223
100
AcDbEntity
  8
CURVE
100
AcDbLine
 62
250
  6
CONTINUOUS
 10
331.1869097641
 20
-30.6653698443
 11
329.772810753
 21
-30.8291815327
  0
LINE
  5
224
100
AcDbEntity
  8
CURVE
100
AcDbLine
 62
250
  6
CONTINUOUS
 10
330.5579227259
 20
-31.9177879283
 11
329.772810753
 21
-31.9488268061
  0
LINE
  5
225
100
AcDbEntity
  8
CURVE
100
AcDbLine
 62
250
  6
CONTINUOUS
 10
330.2673796206
 20
-31.6098389423
 11
331.1869097641
 21
-31.5799177855
  0
LINE
  5
226
100
AcDbEntity
  8
RACCORDO
100
AcDbLine
 62
250
  6
CONTINUOUS
 10
281.7446000166
 20
167.7973984081
 11
282.1886126834
 21
168.0194047415
  0
LINE
  5
227
100
AcDbEntity
  8
0
100
AcDbLine
 62
250
  6
CONTINUOUS
 10
281.7446000166
 20
167.7973984081
 11
282.1886126834
 21
168.0194047415
  0
LWPOLYLINE
  5
228
100
AcDbEntity
  8
RACCORDO
100
AcDbPolyline
 62
7
  6
CONTINUOUS
 90
13
 70
0
 10
281.900535928
 20
168.1219226884
 10
281.9041313463
 20
168.1234955892
 10
281.9088037361
 20
168.1249708493
 10
281.9148223341
 20
168.1261937898
 10
281.9223394134
 20
168.1269698045
 10
281.9314481281
 20
168.127097249
 10
281.9421866687
 20
168.126375015
 10
281.9544671082
 20
168.1246241784
 10
281.9681339423
 20
168.1217100062
 10
281.9831110382
 20
168.1175107489
 10
281.9993122615
 20
168.1119197413
 10
282.0165626463
 20
168.1048804658
 10
282.0347000066
 20
168.0963610799
  0
LWPOLYLINE
  5
229
100
AcDbEntity
  8
0
100
AcDbPolyline
 62
7
  6
CONTINUOUS
 90
13
 70
0
 10
281.900535928
 20
168.1219226884
 10
281.9041313463
 20
168.1234955892
 10
281.9088037361
 20
168.1249708493
 10
281.9148223341
 20
168.1261937898
 10
281.9223394134
 20
168.1269698045
 10
281.9314481281
 20
168.127097249
 10
281.9421866687
 20
168.126375015
 10
281.9544671082
 20
168.1246241784
 10
281.9681339423
 20
168.1217100062
 10
281.9831110382
 20
168.1175107489
 10
281.9993122615
 20
168.1119197413
 10
282.0165626463
 20
168.1048804658
 10
282.0347000066
 20
168.0963610799
  0
LINE
  5
22A
100
AcDbEntity
  8
RACCORDO
100
AcDbLine
 62
7
  6
CONTINUOUS
 10
313.865445934
 20
-15.4086685818
 11
313.8436676548
 21
-15.4141310716
  0
LINE
  5
22B
100
AcDbEntity
  8
RACCORDO
100
AcDbLine
 62
7
  6
CONTINUOUS
 10
309.247473577
 20
-13.1160340328
 11
309.4589868617
 21
-13.0629816701
  0
LWPOLYLINE
  5
22C
100
AcDbEntity
  8
RACCORDO
100
AcDbPolyline
 62
7
  6
CONTINUOUS
 90
7
 70
0
 10
309.247473577
 20
-13.1160340328
 10
309.2538163015
 20
-13.1148368221
 10
309.2598910557
 20
-13.1144121955
 10
309.2656978396
 20
-13.1147601529
 10
309.2712803523
 20
-13.1158963897
 10
309.2765948947
 20
-13.1178052106
 10
309.2780795222
 20
-13.1184950231
  0
LWPOLYLINE
  5
22D
100
AcDbEntity
  8
RACCORDO
100
AcDbPolyline
 62
7
  6
CONTINUOUS
 90
13
 70
0
 10
328.7997768097
 20
-40.3730415097
 10
328.8258686422
 20
-40.3853100488
 10
328.856391352
 20
-40.3976576924
 10
328.8859691782
 20
-40.4075276188
 10
328.9144994092
 20
-40.4149741898
 10
328.9419276367
 20
-40.4200705282
 10
328.9683322141
 20
-40.4229894401
 10
328.993682205
 20
-40.4237848237
 10
329.0178955844
 20
-40.4225048167
 10
329.0409734459
 20
-40.4192975327
 10
329.062890459
 20
-40.4142427985
 10
329.0835997478
 20
-40.4073562053
 10
329.1030766866
 20
-40.3986852926
  0
LWPOLYLINE
  5
22E
100
AcDbEntity
  8
0
100
AcDbPolyline
 62
7
  6
CONTINUOUS
 90
13
 70
0
 10
328.7997768097
 20
-40.3730415097
 10
328.8258686422
 20
-40.3853100488
 10
328.856391352
 20
-40.3976576924
 10
328.8859691782
 20
-40.4075276188
 10
328.9144994092
 20
-40.4149741898
 10
328.9419276367
 20
-40.4200705282
 10
328.9683322141
 20
-40.4229894401
 10
328.993682205
 20
-40.4237848237
 10
329.0178955844
 20
-40.4225048167
 10
329.0409734459
 20
-40.4192975327
 10
329.062890459
 20
-40.4142427985
 10
329.0835997478
 20
-40.4073562053
 10
329.1030766866
 20
-40.3986852926
  0
LINE
  5
22F
100
AcDbEntity
  8
RACCORDO
100
AcDbLine
 62
7
  6
CONTINUOUS
 10
266.7337652562
 20
-9.3400338699
 11
328.799777777
 21
-40.3730401302
  0
LINE
  5
230
100
AcDbEntity
  8
0
100
AcDbLine
 62
7
  6
CONTINUOUS
 10
266.7337652562
 20
-9.3400338699
 11
328.799777777
 21
-40.3730401302
  0
LINE
  5
231
100
AcDbEntity
  8
RACCORDO
100
AcDbLine
 62
250
  6
CONTINUOUS
 10
266.8776799421
 20
-9.206527609
 11
328.3959699054
 21
-39.9656725907
  0
LINE
  5
232
100
AcDbEntity
  8
0
100
AcDbLine
 62
250
  6
CONTINUOUS
 10
266.8776799421
 20
-9.206527609
 11
328.3959699054
 21
-39.9656725907
  0
LINE
  5
233
100
AcDbEntity
  8
RACCORDO
100
AcDbLine
 62
7
  6
CONTINUOUS
 10
282.477188061
 20
161.8362368579
 11
282.9789192173
 21
162.1353470698
  0
LWPOLYLINE
  5
234
100
AcDbEntity
  8
RACCORDO
100
AcDbPolyline
 62
7
  6
CONTINUOUS
 90
7
 70
0
 10
284.0068818018
 20
161.6783614986
 10
284.0134658444
 20
161.6822456289
 10
284.019315145
 20
161.6866231302
 10
284.0243461503
 20
161.6914603633
 10
284.0284996851
 20
161.6967511621
 10
284.0316752258
 20
161.7024203912
 10
284.0332012101
 20
161.70633119
  0
LINE
  5
235
100
AcDbEntity
  8
RACCORDO
100
AcDbLine
 62
7
  6
CONTINUOUS
 10
282.9789192173
 20
162.1353470698
 11
283.6604879151
 21
162.5364577867
  0
LINE
  5
236
100
AcDbEntity
  8
RACCORDO
100
AcDbLine
 62
7
  6
CONTINUOUS
 10
283.6604879151
 20
162.5364577867
 11
284.0068818018
 21
162.7384465766
  0
LINE
  5
237
100
AcDbEntity
  8
RACCORDO
100
AcDbLine
 62
7
  6
CONTINUOUS
 10
282.3809961197
 20
160.9425038008
 11
282.477188061
 21
160.9965255388
  0
LWPOLYLINE
  5
238
100
AcDbEntity
  8
RACCORDO
100
AcDbPolyline
 62
7
  6
CONTINUOUS
 90
9
 70
0
 10
284.0068818018
 20
162.7384451376
 10
284.0134658445
 20
162.7421001124
 10
284.0193151451
 20
162.7459636394
 10
284.0243461503
 20
162.7500020791
 10
284.0284996851
 20
162.7541935759
 10
284.0316752257
 20
162.758478684
 10
284.0337851713
 20
162.7627521726
 10
284.034820851
 20
162.7669084242
 10
284.0349478218
 20
162.7689222271
  0
LINE
  5
239
100
AcDbEntity
  8
RACCORDO
100
AcDbLine
 62
7
  6
CONTINUOUS
 10
283.317847473
 20
161.3678369844
 11
284.0068818018
 21
161.6783600595
  0
LINE
  5
23A
100
AcDbEntity
  8
RACCORDO
100
AcDbLine
 62
7
  6
CONTINUOUS
 10
282.8107818338
 20
161.1427168026
 11
283.317847473
 21
161.3678369844
  0
LINE
  5
23B
100
AcDbEntity
  8
RACCORDO
100
AcDbLine
 62
7
  6
CONTINUOUS
 10
282.477188061
 20
160.9965255388
 11
282.8107818338
 21
161.1427168026
  0
LINE
  5
23C
100
AcDbEntity
  8
RACCORDO
100
AcDbLine
 62
7
  6
CONTINUOUS
 10
282.3809961197
 20
161.7973671179
 11
282.477188061
 21
161.8362368579
  0
LINE
  5
23D
100
AcDbEntity
  8
RACCORDO
100
AcDbLine
 62
7
  6
CONTINUOUS
 10
307.6912199088
 20
-12.1790981936
 11
307.408995946
 21
-12.2498864094
  0
LINE
  5
23E
100
AcDbEntity
  8
RACCORDO
100
AcDbLine
 62
7
  6
CONTINUOUS
 10
284.0068818018
 20
155.8864178704
 11
283.9374053832
 21
155.8504454016
  0
LINE
  5
23F
100
AcDbEntity
  8
RACCORDO
100
AcDbLine
 62
7
  6
CONTINUOUS
 10
292.9840176098
 20
-5.0373972413
 11
293.2662415726
 21
-4.9666090255
  0
LINE
  5
240
100
AcDbEntity
  8
RACCORDO
100
AcDbLine
 62
7
  6
CONTINUOUS
 10
291.4984746196
 20
-4.082725549
 11
291.2869613349
 21
-4.1357779117
  0
LINE
  5
241
100
AcDbEntity
  8
RACCORDO
100
AcDbLine
 62
7
  6
CONTINUOUS
 10
286.6907672572
 20
-1.8376808728
 11
286.9022805419
 21
-1.7846285101
  0
LWPOLYLINE
  5
242
100
AcDbEntity
  8
RACCORDO
100
AcDbPolyline
 62
7
  6
CONTINUOUS
 90
7
 70
0
 10
292.9840176098
 20
-5.0373972413
 10
292.9903603342
 20
-5.0362000306
 10
292.9964350884
 20
-5.035775404
 10
293.0022418723
 20
-5.0361233614
 10
293.007824385
 20
-5.0372595982
 10
293.0131389274
 20
-5.0391684191
 10
293.0146235549
 20
-5.0398582316
  0
LWPOLYLINE
  5
243
100
AcDbEntity
  8
RACCORDO
100
AcDbPolyline
 62
7
  6
CONTINUOUS
 90
7
 70
0
 10
286.6907672572
 20
-1.8376808728
 10
286.6971099817
 20
-1.8364836622
 10
286.7031847359
 20
-1.8360590356
 10
286.7089915197
 20
-1.836406993
 10
286.7145740324
 20
-1.8375432298
 10
286.7198885748
 20
-1.8394520507
 10
286.7213732023
 20
-1.8401418632
  0
LWPOLYLINE
  5
244
100
AcDbEntity
  8
RACCORDO
100
AcDbPolyline
 62
250
  6
CONTINUOUS
 90
22
 70
0
 10
281.3203359479
 20
-0.6012413578
 10
281.3367817588
 20
-0.608871099
 10
281.3543219266
 20
-0.6158650075
 10
281.3728583593
 20
-0.6221839705
 10
281.3922873937
 20
-0.6277926496
 10
281.4125003749
 20
-0.632659679
 10
281.4333842636
 20
-0.6367578401
 10
281.4548222687
 20
-0.6400642145
 10
281.4766945001
 20
-0.6425603116
 10
281.4988786394
 20
-0.6442321721
 10
281.5212506239
 20
-0.6450704463
 10
281.5436853405
 20
-0.6450704463
 10
281.5660573251
 20
-0.6442321721
 10
281.5882414644
 20
-0.6425603116
 10
281.6101136958
 20
-0.6400642145
 10
281.6315517008
 20
-0.6367578401
 10
281.6524355895
 20
-0.632659679
 10
281.6726485707
 20
-0.6277926496
 10
281.6920776052
 20
-0.6221839705
 10
281.7106140379
 20
-0.6158650075
 10
281.7281542056
 20
-0.608871099
 10
281.7446000166
 20
-0.6012413578
  0
LWPOLYLINE
  5
245
100
AcDbEntity
  8
0
100
AcDbPolyline
 62
250
  6
CONTINUOUS
 90
22
 70
0
 10
281.3203359479
 20
-0.6012413578
 10
281.3367817588
 20
-0.608871099
 10
281.3543219266
 20
-0.6158650075
 10
281.3728583593
 20
-0.6221839705
 10
281.3922873937
 20
-0.6277926496
 10
281.4125003749
 20
-0.632659679
 10
281.4333842636
 20
-0.6367578401
 10
281.4548222687
 20
-0.6400642145
 10
281.4766945001
 20
-0.6425603116
 10
281.4988786394
 20
-0.6442321721
 10
281.5212506239
 20
-0.6450704463
 10
281.5436853405
 20
-0.6450704463
 10
281.5660573251
 20
-0.6442321721
 10
281.5882414644
 20
-0.6425603116
 10
281.6101136958
 20
-0.6400642145
 10
281.6315517008
 20
-0.6367578401
 10
281.6524355895
 20
-0.632659679
 10
281.6726485707
 20
-0.6277926496
 10
281.6920776052
 20
-0.6221839705
 10
281.7106140379
 20
-0.6158650075
 10
281.7281542056
 20
-0.608871099
 10
281.7446000166
 20
-0.6012413578
  0
LINE
  5
246
100
AcDbEntity
  8
RACCORDO
100
AcDbLine
 62
250
  6
CONTINUOUS
 10
313.3169177966
 20
-17.3789551455
 11
281.9567320509
 21
-1.6988622727
  0
LINE
  5
247
100
AcDbEntity
  8
0
100
AcDbLine
 62
250
  6
CONTINUOUS
 10
313.3169177966
 20
-17.3789551455
 11
281.9567320509
 21
-1.6988622727
  0
LINE
  5
248
100
AcDbEntity
  8
RACCORDO
100
AcDbLine
 62
250
  6
CONTINUOUS
 10
313.5290498309
 20
-17.0130815072
 11
282.1688640853
 21
-1.3329886344
  0
LINE
  5
249
100
AcDbEntity
  8
0
100
AcDbLine
 62
250
  6
CONTINUOUS
 10
313.5290498309
 20
-17.0130815072
 11
282.1688640853
 21
-1.3329886344
  0
LINE
  5
24A
100
AcDbEntity
  8
RACCORDO
100
AcDbLine
 62
7
  6
CONTINUOUS
 10
282.8052601884
 20
-1.0147905828
 11
313.865445934
 21
-16.5448834557
  0
LINE
  5
24B
100
AcDbEntity
  8
0
100
AcDbLine
 62
7
  6
CONTINUOUS
 10
282.8052601884
 20
-1.0147905828
 11
313.865445934
 21
-16.5448834557
  0
LINE
  5
24C
100
AcDbEntity
  8
RACCORDO
100
AcDbLine
 62
250
  6
CONTINUOUS
 10
307.408995946
 20
-12.2498864094
 11
292.9840176098
 21
-5.0373972413
  0
LINE
  5
24D
100
AcDbEntity
  8
RACCORDO
100
AcDbLine
 62
7
  6
CONTINUOUS
 10
307.4260998319
 20
-12.2455963641
 11
293.0146415275
 21
-5.0398672119
  0
LINE
  5
24E
100
AcDbEntity
  8
RACCORDO
100
AcDbLine
 62
250
  6
CONTINUOUS
 10
286.6907672572
 20
-1.8376808728
 11
291.2869613349
 21
-4.1357779117
  0
LINE
  5
24F
100
AcDbEntity
  8
RACCORDO
100
AcDbLine
 62
250
  6
CONTINUOUS
 10
309.247473577
 20
-13.1160340328
 11
313.8436676548
 21
-15.4141310716
  0
LINE
  5
250
100
AcDbEntity
  8
RACCORDO
100
AcDbLine
 62
7
  6
CONTINUOUS
 10
286.7213911749
 20
-1.8401508434
 11
291.3040652209
 21
-4.1314878664
  0
LINE
  5
251
100
AcDbEntity
  8
RACCORDO
100
AcDbLine
 62
7
  6
CONTINUOUS
 10
309.2780974948
 20
-13.1185040034
 11
313.8607715407
 21
-15.4098410264
  0
LINE
  5
252
100
AcDbEntity
  8
RACCORDO
100
AcDbLine
 62
7
  6
CONTINUOUS
 10
284.4979979552
 20
-0.698789711
 11
284.9796135405
 21
-0.9395975037
  0
LINE
  5
253
100
AcDbEntity
  8
DRAFT
100
AcDbLine
 62
7
  6
CONTINUOUS
 10
309.4589868617
 20
-13.0629816701
 11
307.6912199088
 21
-12.1790981936
  0
LINE
  5
254
100
AcDbEntity
  8
DRAFT
100
AcDbLine
 62
7
  6
CONTINUOUS
 10
293.2662415726
 20
-4.9666090255
 11
291.4984746196
 21
-4.082725549
  0
LINE
  5
255
100
AcDbEntity
  8
DRAFT
100
AcDbLine
 62
7
  6
CONTINUOUS
 10
286.9022805419
 20
-1.7846285101
 11
285.1345135889
 21
-0.9007450336
  0
LWPOLYLINE
  5
256
100
AcDbEntity
  8
RACCORDO
100
AcDbPolyline
 62
250
  6
CONTINUOUS
 90
28
 70
0
 10
281.9567320509
 20
-1.6988622727
 10
281.9197740382
 20
-1.6790741953
 10
281.8831082981
 20
-1.6568310181
 10
281.8467348307
 20
-1.6321327409
 10
281.8105023507
 20
-1.6048617859
 10
281.7745621434
 20
-1.575135731
 10
281.7393680649
 20
-1.5433073097
 10
281.7049628277
 20
-1.5093771603
 10
281.6713037192
 20
-1.4733446444
 10
281.6387164579
 20
-1.4355605811
 10
281.6072052184
 20
-1.3960007719
 10
281.5767658261
 20
-1.3546894152
 10
281.5477114758
 20
-1.3120499249
 10
281.5200583412
 20
-1.268071327
 10
281.4937902486
 20
-1.2227645955
 10
281.4691718711
 20
-1.1765860671
 10
281.44621862
 20
-1.1295231474
 10
281.4249150841
 20
-1.0815884308
 10
281.4054797033
 20
-1.0332760371
 10
281.3879342778
 20
-0.9845921293
 10
281.3722570074
 20
-0.9355305444
 10
281.358600932
 20
-0.8865669131
 10
281.34698298
 20
-0.8376580031
 10
281.3373862228
 20
-0.7888470467
 10
281.3299129156
 20
-0.7407393712
 10
281.3245971432
 20
-0.6935367524
 10
281.3214048206
 20
-0.6470374146
 10
281.3203359479
 20
-0.6012413578
  0
LWPOLYLINE
  5
257
100
AcDbEntity
  8
0
100
AcDbPolyline
 62
250
  6
CONTINUOUS
 90
28
 70
0
 10
281.9567320509
 20
-1.6988622727
 10
281.9197740382
 20
-1.6790741953
 10
281.8831082981
 20
-1.6568310181
 10
281.8467348307
 20
-1.6321327409
 10
281.8105023507
 20
-1.6048617859
 10
281.7745621434
 20
-1.575135731
 10
281.7393680649
 20
-1.5433073097
 10
281.7049628277
 20
-1.5093771603
 10
281.6713037192
 20
-1.4733446444
 10
281.6387164579
 20
-1.4355605811
 10
281.6072052184
 20
-1.3960007719
 10
281.5767658261
 20
-1.3546894152
 10
281.5477114758
 20
-1.3120499249
 10
281.5200583412
 20
-1.268071327
 10
281.4937902486
 20
-1.2227645955
 10
281.4691718711
 20
-1.1765860671
 10
281.44621862
 20
-1.1295231474
 10
281.4249150841
 20
-1.0815884308
 10
281.4054797033
 20
-1.0332760371
 10
281.3879342778
 20
-0.9845921293
 10
281.3722570074
 20
-0.9355305444
 10
281.358600932
 20
-0.8865669131
 10
281.34698298
 20
-0.8376580031
 10
281.3373862228
 20
-0.7888470467
 10
281.3299129156
 20
-0.7407393712
 10
281.3245971432
 20
-0.6935367524
 10
281.3214048206
 20
-0.6470374146
 10
281.3203359479
 20
-0.6012413578
  0
LWPOLYLINE
  5
258
100
AcDbEntity
  8
RACCORDO
100
AcDbPolyline
 62
250
  6
CONTINUOUS
 90
12
 70
0
 10
313.9533138996
 20
-16.9177303336
 10
313.938054417
 20
-16.9095074281
 10
313.9240666
 20
-16.9007373443
 10
313.9114286742
 20
-16.8914691279
 10
313.9002113159
 20
-16.8817546107
 10
313.8904772572
 20
-16.8716481201
 10
313.8822809349
 20
-16.8612061757
 10
313.8756681861
 20
-16.8504871732
 10
313.870675992
 20
-16.8395510575
 10
313.867332271
 20
-16.8284589879
 10
313.8656557225
 20
-16.8172729956
 10
313.865445934
 20
-16.8116643165
  0
LWPOLYLINE
  5
259
100
AcDbEntity
  8
0
100
AcDbPolyline
 62
250
  6
CONTINUOUS
 90
12
 70
0
 10
313.9533138996
 20
-16.9177303336
 10
313.938054417
 20
-16.9095074281
 10
313.9240666
 20
-16.9007373443
 10
313.9114286742
 20
-16.8914691279
 10
313.9002113159
 20
-16.8817546107
 10
313.8904772572
 20
-16.8716481201
 10
313.8822809349
 20
-16.8612061757
 10
313.8756681861
 20
-16.8504871732
 10
313.870675992
 20
-16.8395510575
 10
313.867332271
 20
-16.8284589879
 10
313.8656557225
 20
-16.8172729956
 10
313.865445934
 20
-16.8116643165
  0
LWPOLYLINE
  5
25A
100
AcDbEntity
  8
RACCORDO
100
AcDbPolyline
 62
250
  6
CONTINUOUS
 90
25
 70
0
 10
282.1688640853
 20
-1.3329886344
 10
282.1411158808
 20
-1.3180019955
 10
282.1134864916
 20
-1.3008544538
 10
282.0860942312
 20
-1.2816194364
 10
282.0590563974
 20
-1.2603793085
 10
282.0324887713
 20
-1.2372250228
 10
282.0065051217
 20
-1.2122557297
 10
281.9812167008
 20
-1.1855783349
 10
281.9567318138
 20
-1.1573070887
 10
281.9331553511
 20
-1.1275631071
 10
281.9105882884
 20
-1.0964737975
 10
281.8891272318
 20
-1.0641722653
 10
281.8688640506
 20
-1.0307967938
 10
281.8498855166
 20
-0.996490309
 10
281.8322728923
 20
-0.9613997094
 10
281.8161015667
 20
-0.9256751912
 10
281.8014407809
 20
-0.8894696941
 10
281.7883533374
 20
-0.8529382873
 10
281.7768952966
 20
-0.8162374401
 10
281.7671157273
 20
-0.7795243167
 10
281.7590565078
 20
-0.7429561237
 10
281.7527521547
 20
-0.7066894733
 10
281.7482296644
 20
-0.6708796723
 10
281.7455084009
 20
-0.635680057
 10
281.7446000166
 20
-0.6012413578
  0
LWPOLYLINE
  5
25B
100
AcDbEntity
  8
0
100
AcDbPolyline
 62
250
  6
CONTINUOUS
 90
25
 70
0
 10
282.1688640853
 20
-1.3329886344
 10
282.1411158808
 20
-1.3180019955
 10
282.1134864916
 20
-1.3008544538
 10
282.0860942312
 20
-1.2816194364
 10
282.0590563974
 20
-1.2603793085
 10
282.0324887713
 20
-1.2372250228
 10
282.0065051217
 20
-1.2122557297
 10
281.9812167008
 20
-1.1855783349
 10
281.9567318138
 20
-1.1573070887
 10
281.9331553511
 20
-1.1275631071
 10
281.9105882884
 20
-1.0964737975
 10
281.8891272318
 20
-1.0641722653
 10
281.8688640506
 20
-1.0307967938
 10
281.8498855166
 20
-0.996490309
 10
281.8322728923
 20
-0.9613997094
 10
281.8161015667
 20
-0.9256751912
 10
281.8014407809
 20
-0.8894696941
 10
281.7883533374
 20
-0.8529382873
 10
281.7768952966
 20
-0.8162374401
 10
281.7671157273
 20
-0.7795243167
 10
281.7590565078
 20
-0.7429561237
 10
281.7527521547
 20
-0.7066894733
 10
281.7482296644
 20
-0.6708796723
 10
281.7455084009
 20
-0.635680057
 10
281.7446000166
 20
-0.6012413578
  0
LINE
  5
25C
100
AcDbEntity
  8
RACCORDO
100
AcDbLine
 62
250
  6
CONTINUOUS
 10
284.4979979552
 20
-0.698789711
 11
282.9768927686
 21
-1.100606873
  0
LINE
  5
25D
100
AcDbEntity
  8
RACCORDO
100
AcDbLine
 62
250
  6
CONTINUOUS
 10
284.0751456898
 20
0.0410517831
 11
282.477188061
 21
-0.3810668218
  0
LINE
  5
25E
100
AcDbEntity
  8
DRAFT
100
AcDbLine
 62
7
  6
CONTINUOUS
 10
284.9796135405
 20
-0.9395975037
 11
285.1345135889
 21
-0.9007450336
  0
LINE
  5
25F
100
AcDbEntity
  8
DRAFT
100
AcDbLine
 62
7
  6
CONTINUOUS
 10
284.0751456898
 20
133.4162645264
 11
285.3257212253
 21
134.1454646075
  0
LINE
  5
260
100
AcDbEntity
  8
RACCORDO
100
AcDbLine
 62
7
  6
CONTINUOUS
 10
332.2143465238
 20
162.074843304
 11
329.1030766866
 21
160.5192083854
  0
LINE
  5
261
100
AcDbEntity
  8
0
100
AcDbLine
 62
7
  6
CONTINUOUS
 10
332.2143465238
 20
162.074843304
 11
329.1030766866
 21
160.5192083854
  0
LINE
  5
262
100
AcDbEntity
  8
RACCORDO
100
AcDbLine
 62
250
  6
CONTINUOUS
 10
332.5161258415
 20
162.4696540819
 11
331.9671074651
 21
162.1984628334
  0
LINE
  5
263
100
AcDbEntity
  8
RACCORDO
100
AcDbLine
 62
250
  6
CONTINUOUS
 10
333.0109309728
 20
161.6162414693
 11
332.2143465238
 21
161.2227633261
  0
LWPOLYLINE
  5
264
100
AcDbEntity
  8
RACCORDO
100
AcDbPolyline
 62
7
  6
CONTINUOUS
 90
23
 70
0
 10
284.0056692711
 20
131.0412101127
 10
284.0090985001
 20
131.0428611642
 10
284.0124835122
 20
131.0438672111
 10
284.0158243074
 20
131.0442282534
 10
284.0191555244
 20
131.0439040006
 10
284.0224425244
 20
131.0429347431
 10
284.0255813914
 20
131.041441353
 10
284.0285368864
 20
131.0394115749
 10
284.0313442484
 20
131.0368576641
 10
284.0340052782
 20
131.0339372588
 10
284.0365071439
 20
131.0306833796
 10
284.0388626774
 20
131.027063006
 10
284.0411121758
 20
131.0231347144
 10
284.0432608026
 20
131.0189157544
 10
284.0453033943
 20
131.0143888764
 10
284.0472647574
 20
131.0095609084
 10
284.0491508649
 20
131.0044308323
 10
284.0509557439
 20
130.9989996662
 10
284.0526862817
 20
130.9932772922
 10
284.0543445703
 20
130.9872590778
 10
284.0559285177
 20
130.9809496554
 10
284.0574387354
 20
130.9743728048
 10
284.0587043026
 20
130.9683777502
  0
LINE
  5
265
100
AcDbEntity
  8
DRAFT
100
AcDbLine
 62
7
  6
CONTINUOUS
 10
285.3257212253
 20
137.4238499537
 11
283.9374053832
 21
136.79572211
  0
LINE
  5
266
100
AcDbEntity
  8
RACCORDO
100
AcDbLine
 62
7
  6
CONTINUOUS
 10
282.3809961197
 20
130.1008373394
 11
282.477188061
 21
130.1397070794
  0
LINE
  5
267
100
AcDbEntity
  8
RACCORDO
100
AcDbLine
 62
7
  6
CONTINUOUS
 10
284.5302772153
 20
137.7885772892
 11
283.9654714031
 21
137.5687479741
  0
LINE
  5
268
100
AcDbEntity
  8
RACCORDO
100
AcDbLine
 62
250
  6
CONTINUOUS
 10
284.6132963385
 20
137.7800623971
 11
283.9654714031
 21
137.5279210261
  0
LINE
  5
269
100
AcDbEntity
  8
RACCORDO
100
AcDbLine
 62
7
  6
CONTINUOUS
 10
284.6132963385
 20
14.8044550597
 11
285.3257212253
 21
14.4482426163
  0
LWPOLYLINE
  5
26A
100
AcDbEntity
  8
RACCORDO
100
AcDbPolyline
 62
7
  6
CONTINUOUS
 90
22
 70
0
 10
282.6772187907
 20
-0.9262736168
 10
282.6675714877
 20
-0.9133245828
 10
282.6488815032
 20
-0.8860109582
 10
282.6318388319
 20
-0.8589340315
 10
282.6162703758
 20
-0.8321932013
 10
282.6021406504
 20
-0.8059758687
 10
282.5893815083
 20
-0.7803821599
 10
282.5777846052
 20
-0.7553319705
 10
282.5672948674
 20
-0.7309141291
 10
282.5578643357
 20
-0.7072111295
 10
282.5493227123
 20
-0.6840984093
 10
282.5416074461
 20
-0.6615738033
 10
282.5346957434
 20
-0.6397399492
 10
282.5284933155
 20
-0.6186118463
 10
282.5229673583
 20
-0.5982571396
 10
282.5180595005
 20
-0.5786679353
 10
282.5136498169
 20
-0.5597369855
 10
282.5097050796
 20
-0.5414484397
 10
282.5061894853
 20
-0.5238502056
 10
282.502993562
 20
-0.5069260991
 10
282.5000938214
 20
-0.4906383628
 10
282.4925628384
 20
-0.446267976
  0
LWPOLYLINE
  5
26B
100
AcDbEntity
  8
RACCORDO
100
AcDbPolyline
 62
7
  6
CONTINUOUS
 90
24
 70
0
 10
328.3959699054
 20
160.0861956835
 10
328.457715779
 20
160.1296887284
 10
328.4902329543
 20
160.1522309495
 10
328.5237099515
 20
160.1748973197
 10
328.5578878767
 20
160.197515919
 10
328.5923416396
 20
160.2200563961
 10
328.6268486808
 20
160.2423645756
 10
328.6612952762
 20
160.2642598239
 10
328.6954339698
 20
160.2857060538
 10
328.7290642373
 20
160.3066028748
 10
328.7620811765
 20
160.3268454173
 10
328.79440154
 20
160.3464140142
 10
328.8258669884
 20
160.3652523711
 10
328.8563792622
 20
160.3833093104
 10
328.8859691782
 20
160.4005817315
 10
328.9145100219
 20
160.4170335533
 10
328.9419224634
 20
160.4326577547
 10
328.9683322141
 20
160.4474853887
 10
328.9936887506
 20
160.4615170861
 10
329.0178840796
 20
160.4747287513
 10
329.0409734459
 20
160.4871021736
 10
329.062931961
 20
160.4986311965
 10
329.083652992
 20
160.5093288612
 10
329.1030766866
 20
160.5192083854
  0
LWPOLYLINE
  5
26C
100
AcDbEntity
  8
0
100
AcDbPolyline
 62
7
  6
CONTINUOUS
 90
24
 70
0
 10
328.3959699054
 20
160.0861956835
 10
328.457715779
 20
160.1296887284
 10
328.4902329543
 20
160.1522309495
 10
328.5237099515
 20
160.1748973197
 10
328.5578878767
 20
160.197515919
 10
328.5923416396
 20
160.2200563961
 10
328.6268486808
 20
160.2423645756
 10
328.6612952762
 20
160.2642598239
 10
328.6954339698
 20
160.2857060538
 10
328.7290642373
 20
160.3066028748
 10
328.7620811765
 20
160.3268454173
 10
328.79440154
 20
160.3464140142
 10
328.8258669884
 20
160.3652523711
 10
328.8563792622
 20
160.3833093104
 10
328.8859691782
 20
160.4005817315
 10
328.9145100219
 20
160.4170335533
 10
328.9419224634
 20
160.4326577547
 10
328.9683322141
 20
160.4474853887
 10
328.9936887506
 20
160.4615170861
 10
329.0178840796
 20
160.4747287513
 10
329.0409734459
 20
160.4871021736
 10
329.062931961
 20
160.4986311965
 10
329.083652992
 20
160.5093288612
 10
329.1030766866
 20
160.5192083854
  0
LWPOLYLINE
  5
26D
100
AcDbEntity
  8
RACCORDO
100
AcDbPolyline
 62
7
  6
CONTINUOUS
 90
7
 70
0
 10
284.0068818018
 20
129.98183172
 10
284.0134658444
 20
129.9857158504
 10
284.019315145
 20
129.9900933517
 10
284.0243461503
 20
129.9949305848
 10
284.0284996851
 20
130.0002213836
 10
284.0316752258
 20
130.0058906127
 10
284.0332012352
 20
130.0098014887
  0
LINE
  5
26E
100
AcDbEntity
  8
RACCORDO
100
AcDbLine
 62
7
  6
CONTINUOUS
 10
282.3809961197
 20
129.2459740223
 11
282.477188061
 21
129.2999957603
  0
LINE
  5
26F
100
AcDbEntity
  8
RACCORDO
100
AcDbLine
 62
250
  6
CONTINUOUS
 10
282.3967271766
 20
122.5451205865
 11
282.4787624695
 21
122.5864545311
  0
LINE
  5
270
100
AcDbEntity
  8
RACCORDO
100
AcDbLine
 62
250
  6
CONTINUOUS
 10
281.7446000166
 20
122.3743659796
 11
282.3809961197
 21
122.6925640312
  0
LINE
  5
271
100
AcDbEntity
  8
0
100
AcDbLine
 62
250
  6
CONTINUOUS
 10
281.7446000166
 20
122.3743659796
 11
282.3809961197
 21
122.6925640312
  0
LINE
  5
272
100
AcDbEntity
  8
RACCORDO
100
AcDbLine
 62
250
  6
CONTINUOUS
 10
282.1688640853
 20
121.642618703
 11
282.8052601884
 21
121.9608167545
  0
LINE
  5
273
100
AcDbEntity
  8
0
100
AcDbLine
 62
250
  6
CONTINUOUS
 10
282.1688640853
 20
121.642618703
 11
282.8052601884
 21
121.9608167545
  0
LINE
  5
274
100
AcDbEntity
  8
RACCORDO
100
AcDbLine
 62
7
  6
CONTINUOUS
 10
283.317847473
 20
129.6713072059
 11
284.0068818018
 21
129.981830281
  0
LINE
  5
275
100
AcDbEntity
  8
RACCORDO
100
AcDbLine
 62
7
  6
CONTINUOUS
 10
282.8107818338
 20
129.4461870241
 11
283.317847473
 21
129.6713072059
  0
LINE
  5
276
100
AcDbEntity
  8
RACCORDO
100
AcDbLine
 62
7
  6
CONTINUOUS
 10
282.477188061
 20
129.2999957603
 11
282.8107818338
 21
129.4461870241
  0
LINE
  5
277
100
AcDbEntity
  8
RACCORDO
100
AcDbLine
 62
7
  6
CONTINUOUS
 10
284.048793325
 20
161.7578647421
 11
284.0332013056
 21
161.7063266301
  0
LINE
  5
278
100
AcDbEntity
  8
RACCORDO
100
AcDbLine
 62
7
  6
CONTINUOUS
 10
266.7312333327
 20
191.3283035783
 11
266.7312333327
 21
-9.3359371316
  0
LINE
  5
279
100
AcDbEntity
  8
0
100
AcDbLine
 62
7
  6
CONTINUOUS
 10
266.7312333327
 20
191.3283035783
 11
266.7312333327
 21
-9.3359371316
  0
LINE
  5
27A
100
AcDbEntity
  8
RACCORDO
100
AcDbLine
 62
250
  6
CONTINUOUS
 10
266.8776799421
 20
190.8453406652
 11
266.8776799421
 21
-9.206527609
  0
LINE
  5
27B
100
AcDbEntity
  8
0
100
AcDbLine
 62
250
  6
CONTINUOUS
 10
266.8776799421
 20
190.8453406652
 11
266.8776799421
 21
-9.206527609
  0
LWPOLYLINE
  5
27C
100
AcDbEntity
  8
RACCORDO
100
AcDbPolyline
 62
7
  6
CONTINUOUS
 90
15
 70
0
 10
266.7312333329
 20
191.3282955317
 10
266.7313913852
 20
191.3421743686
 10
266.7332514624
 20
191.376989053
 10
266.7370963192
 20
191.4096356803
 10
266.7427876156
 20
191.4400903269
 10
266.7502109619
 20
191.4684608396
 10
266.759234517
 20
191.4946843037
 10
266.7697351532
 20
191.5187450739
 10
266.7816527978
 20
191.5408250968
 10
266.7949004012
 20
191.5609192776
 10
266.8093609411
 20
191.5789762302
 10
266.8249614901
 20
191.5951081515
 10
266.8416168276
 20
191.6093395925
 10
266.8592213378
 20
191.6216098988
 10
266.8776799421
 20
191.6319067576
  0
LWPOLYLINE
  5
27D
100
AcDbEntity
  8
0
100
AcDbPolyline
 62
7
  6
CONTINUOUS
 90
15
 70
0
 10
266.7312333329
 20
191.3282955317
 10
266.7313913852
 20
191.3421743686
 10
266.7332514624
 20
191.376989053
 10
266.7370963192
 20
191.4096356803
 10
266.7427876156
 20
191.4400903269
 10
266.7502109619
 20
191.4684608396
 10
266.759234517
 20
191.4946843037
 10
266.7697351532
 20
191.5187450739
 10
266.7816527978
 20
191.5408250968
 10
266.7949004012
 20
191.5609192776
 10
266.8093609411
 20
191.5789762302
 10
266.8249614901
 20
191.5951081515
 10
266.8416168276
 20
191.6093395925
 10
266.8592213378
 20
191.6216098988
 10
266.8776799421
 20
191.6319067576
  0
LINE
  5
27E
100
AcDbEntity
  8
RACCORDO
100
AcDbLine
 62
250
  6
CONTINUOUS
 10
284.0251989233
 20
161.7442856148
 11
284.0056696306
 21
161.6778122455
  0
LINE
  5
27F
100
AcDbEntity
  8
RACCORDO
100
AcDbLine
 62
250
  6
CONTINUOUS
 10
281.7446000166
 20
106.3095947394
 11
282.1886126834
 21
106.5316010728
  0
LINE
  5
280
100
AcDbEntity
  8
0
100
AcDbLine
 62
250
  6
CONTINUOUS
 10
281.7446000166
 20
106.3095947394
 11
282.1886126834
 21
106.5316010728
  0
LWPOLYLINE
  5
281
100
AcDbEntity
  8
RACCORDO
100
AcDbPolyline
 62
7
  6
CONTINUOUS
 90
13
 70
0
 10
281.900535928
 20
106.6341190197
 10
281.9041313463
 20
106.6356919205
 10
281.9088037361
 20
106.6371671806
 10
281.9148223341
 20
106.6383901211
 10
281.9223394134
 20
106.6391661358
 10
281.9314481281
 20
106.6392935803
 10
281.9421866687
 20
106.6385713463
 10
281.9544671082
 20
106.6368205097
 10
281.9681339423
 20
106.6339063376
 10
281.9831110382
 20
106.6297070802
 10
281.9993122615
 20
106.6241160726
 10
282.0165626463
 20
106.6170767971
 10
282.0347000066
 20
106.6085574112
  0
LWPOLYLINE
  5
282
100
AcDbEntity
  8
0
100
AcDbPolyline
 62
7
  6
CONTINUOUS
 90
13
 70
0
 10
281.900535928
 20
106.6341190197
 10
281.9041313463
 20
106.6356919205
 10
281.9088037361
 20
106.6371671806
 10
281.9148223341
 20
106.6383901211
 10
281.9223394134
 20
106.6391661358
 10
281.9314481281
 20
106.6392935803
 10
281.9421866687
 20
106.6385713463
 10
281.9544671082
 20
106.6368205097
 10
281.9681339423
 20
106.6339063376
 10
281.9831110382
 20
106.6297070802
 10
281.9993122615
 20
106.6241160726
 10
282.0165626463
 20
106.6170767971
 10
282.0347000066
 20
106.6085574112
  0
LINE
  5
283
100
AcDbEntity
  8
RACCORDO
100
AcDbLine
 62
7
  6
CONTINUOUS
 10
313.865445934
 20
46.0791350869
 11
313.8436676548
 21
46.0736725971
  0
LWPOLYLINE
  5
284
100
AcDbEntity
  8
RACCORDO
100
AcDbPolyline
 62
250
  6
CONTINUOUS
 90
22
 70
0
 10
281.3203359479
 20
44.8217910707
 10
281.3367817588
 20
44.8141613294
 10
281.3543219266
 20
44.807167421
 10
281.3728583593
 20
44.800848458
 10
281.3922873938
 20
44.7952397789
 10
281.412500375
 20
44.7903727495
 10
281.4333842637
 20
44.7862745884
 10
281.4548222687
 20
44.782968214
 10
281.4766945001
 20
44.7804721169
 10
281.4988786394
 20
44.7788002564
 10
281.521250624
 20
44.7779619822
 10
281.5436853405
 20
44.7779619822
 10
281.5660573251
 20
44.7788002564
 10
281.5882414644
 20
44.7804721169
 10
281.6101136958
 20
44.782968214
 10
281.6315517008
 20
44.7862745884
 10
281.6524355895
 20
44.7903727495
 10
281.6726485707
 20
44.7952397789
 10
281.6920776052
 20
44.800848458
 10
281.7106140379
 20
44.807167421
 10
281.7281542056
 20
44.8141613294
 10
281.7446000166
 20
44.8217910707
  0
LWPOLYLINE
  5
285
100
AcDbEntity
  8
0
100
AcDbPolyline
 62
250
  6
CONTINUOUS
 90
22
 70
0
 10
281.3203359479
 20
44.8217910707
 10
281.3367817588
 20
44.8141613294
 10
281.3543219266
 20
44.807167421
 10
281.3728583593
 20
44.800848458
 10
281.3922873938
 20
44.7952397789
 10
281.412500375
 20
44.7903727495
 10
281.4333842637
 20
44.7862745884
 10
281.4548222687
 20
44.782968214
 10
281.4766945001
 20
44.7804721169
 10
281.4988786394
 20
44.7788002564
 10
281.521250624
 20
44.7779619822
 10
281.5436853405
 20
44.7779619822
 10
281.5660573251
 20
44.7788002564
 10
281.5882414644
 20
44.7804721169
 10
281.6101136958
 20
44.782968214
 10
281.6315517008
 20
44.7862745884
 10
281.6524355895
 20
44.7903727495
 10
281.6726485707
 20
44.7952397789
 10
281.6920776052
 20
44.800848458
 10
281.7106140379
 20
44.807167421
 10
281.7281542056
 20
44.8141613294
 10
281.7446000166
 20
44.8217910707
  0
LINE
  5
286
100
AcDbEntity
  8
RACCORDO
100
AcDbLine
 62
7
  6
CONTINUOUS
 10
282.0347000066
 20
45.1207537425
 11
313.3948857523
 21
29.4406608697
  0
LINE
  5
287
100
AcDbEntity
  8
0
100
AcDbLine
 62
7
  6
CONTINUOUS
 10
282.0347000066
 20
45.1207537425
 11
313.3948857523
 21
29.4406608697
  0
LINE
  5
288
100
AcDbEntity
  8
RACCORDO
100
AcDbLine
 62
250
  6
CONTINUOUS
 10
281.9567320509
 20
45.2830158826
 11
313.3169177966
 21
29.6029230098
  0
LINE
  5
289
100
AcDbEntity
  8
0
100
AcDbLine
 62
250
  6
CONTINUOUS
 10
281.9567320509
 20
45.2830158826
 11
313.3169177966
 21
29.6029230098
  0
LWPOLYLINE
  5
28A
100
AcDbEntity
  8
RACCORDO
100
AcDbPolyline
 62
7
  6
CONTINUOUS
 90
28
 70
0
 10
313.3948857523
 20
29.4406608697
 10
313.4165072841
 20
29.4290972803
 10
313.4391489508
 20
29.4154212547
 10
313.4626473633
 20
29.3995839204
 10
313.4868223942
 20
29.3815674947
 10
313.5114951835
 20
29.3613748889
 10
313.5365097466
 20
29.3390086905
 10
313.5617183996
 20
29.3144766479
 10
313.5869181256
 20
29.2878575174
 10
313.6118934476
 20
29.2592742861
 10
313.6364832444
 20
29.2288168497
 10
313.6605166325
 20
29.1966077474
 10
313.6837874067
 20
29.1628485698
 10
313.7061518309
 20
29.1276868441
 10
313.7274680813
 20
29.0912912148
 10
313.7475621867
 20
29.0539224409
 10
313.7663230556
 20
29.0157703681
 10
313.7836500718
 20
28.9770334646
 10
313.7994202934
 20
28.9380059659
 10
313.8135686249
 20
28.8988987669
 10
313.8260448114
 20
28.8599216879
 10
313.8367884433
 20
28.8213790473
 10
313.8457884749
 20
28.7834860993
 10
313.853053427
 20
28.7464379243
 10
313.8585945663
 20
28.7105123836
 10
313.8624579866
 20
28.6759268566
 10
313.8647144771
 20
28.6428266726
 10
313.865445934
 20
28.611368112
  0
LWPOLYLINE
  5
28B
100
AcDbEntity
  8
0
100
AcDbPolyline
 62
7
  6
CONTINUOUS
 90
28
 70
0
 10
313.3948857523
 20
29.4406608697
 10
313.4165072841
 20
29.4290972803
 10
313.4391489508
 20
29.4154212547
 10
313.4626473633
 20
29.3995839204
 10
313.4868223942
 20
29.3815674947
 10
313.5114951835
 20
29.3613748889
 10
313.5365097466
 20
29.3390086905
 10
313.5617183996
 20
29.3144766479
 10
313.5869181256
 20
29.2878575174
 10
313.6118934476
 20
29.2592742861
 10
313.6364832444
 20
29.2288168497
 10
313.6605166325
 20
29.1966077474
 10
313.6837874067
 20
29.1628485698
 10
313.7061518309
 20
29.1276868441
 10
313.7274680813
 20
29.0912912148
 10
313.7475621867
 20
29.0539224409
 10
313.7663230556
 20
29.0157703681
 10
313.7836500718
 20
28.9770334646
 10
313.7994202934
 20
28.9380059659
 10
313.8135686249
 20
28.8988987669
 10
313.8260448114
 20
28.8599216879
 10
313.8367884433
 20
28.8213790473
 10
313.8457884749
 20
28.7834860993
 10
313.853053427
 20
28.7464379243
 10
313.8585945663
 20
28.7105123836
 10
313.8624579866
 20
28.6759268566
 10
313.8647144771
 20
28.6428266726
 10
313.865445934
 20
28.611368112
  0
LWPOLYLINE
  5
28C
100
AcDbEntity
  8
RACCORDO
100
AcDbPolyline
 62
250
  6
CONTINUOUS
 90
5
 70
0
 10
313.3169177966
 20
29.6029230098
 10
313.3538758093
 20
29.5831349325
 10
313.3905415494
 20
29.5608917552
 10
313.4269150168
 20
29.536193478
 10
313.4631474968
 20
29.508922523
  0
LWPOLYLINE
  5
28D
100
AcDbEntity
  8
0
100
AcDbPolyline
 62
250
  6
CONTINUOUS
 90
5
 70
0
 10
313.3169177966
 20
29.6029230098
 10
313.3538758093
 20
29.5831349325
 10
313.3905415494
 20
29.5608917552
 10
313.4269150168
 20
29.536193478
 10
313.4631474968
 20
29.508922523
  0
LWPOLYLINE
  5
28E
100
AcDbEntity
  8
RACCORDO
100
AcDbPolyline
 62
250
  6
CONTINUOUS
 90
12
 70
0
 10
313.9533138996
 20
28.5053020949
 10
313.938054417
 20
28.5135250003
 10
313.9240666001
 20
28.5222950842
 10
313.9114286742
 20
28.5315633006
 10
313.9002113159
 20
28.5412778178
 10
313.8904772572
 20
28.5513843084
 10
313.8822809349
 20
28.5618262527
 10
313.8756681861
 20
28.5725452553
 10
313.870675992
 20
28.583481371
 10
313.867332271
 20
28.5945734406
 10
313.8656557226
 20
28.6057594329
 10
313.865445934
 20
28.611368112
  0
LWPOLYLINE
  5
28F
100
AcDbEntity
  8
0
100
AcDbPolyline
 62
250
  6
CONTINUOUS
 90
12
 70
0
 10
313.9533138996
 20
28.5053020949
 10
313.938054417
 20
28.5135250003
 10
313.9240666001
 20
28.5222950842
 10
313.9114286742
 20
28.5315633006
 10
313.9002113159
 20
28.5412778178
 10
313.8904772572
 20
28.5513843084
 10
313.8822809349
 20
28.5618262527
 10
313.8756681861
 20
28.5725452553
 10
313.870675992
 20
28.583481371
 10
313.867332271
 20
28.5945734406
 10
313.8656557226
 20
28.6057594329
 10
313.865445934
 20
28.611368112
  0
LWPOLYLINE
  5
290
100
AcDbEntity
  8
RACCORDO
100
AcDbPolyline
 62
7
  6
CONTINUOUS
 90
14
 70
0
 10
328.3959699054
 20
-39.9656725907
 10
328.4260078158
 20
-40.0151417187
 10
328.4575366837
 20
-40.0618075984
 10
328.4902329543
 20
-40.1056688152
 10
328.5237758673
 20
-40.1468440089
 10
328.5578880277
 20
-40.1852572388
 10
328.5923416396
 20
-40.2206312867
 10
328.6268888953
 20
-40.2529462887
 10
328.6613052357
 20
-40.2823222089
 10
328.6954339698
 20
-40.3086953052
 10
328.7290820511
 20
-40.3320776479
 10
328.7620941951
 20
-40.3525884277
 10
328.79440154
 20
-40.3703194011
 10
328.7997768097
 20
-40.3730415097
  0
LWPOLYLINE
  5
291
100
AcDbEntity
  8
0
100
AcDbPolyline
 62
7
  6
CONTINUOUS
 90
14
 70
0
 10
328.3959699054
 20
-39.9656725907
 10
328.4260078158
 20
-40.0151417187
 10
328.4575366837
 20
-40.0618075984
 10
328.4902329543
 20
-40.1056688152
 10
328.5237758673
 20
-40.1468440089
 10
328.5578880277
 20
-40.1852572388
 10
328.5923416396
 20
-40.2206312867
 10
328.6268888953
 20
-40.2529462887
 10
328.6613052357
 20
-40.2823222089
 10
328.6954339698
 20
-40.3086953052
 10
328.7290820511
 20
-40.3320776479
 10
328.7620941951
 20
-40.3525884277
 10
328.79440154
 20
-40.3703194011
 10
328.7997768097
 20
-40.3730415097
  0
LINE
  5
292
100
AcDbEntity
  8
RACCORDO
100
AcDbLine
 62
250
  6
CONTINUOUS
 10
284.025196053
 20
130.0477450324
 11
284.0056696306
 21
129.9812824669
  0
LINE
  5
293
100
AcDbEntity
  8
RACCORDO
100
AcDbLine
 62
7
  6
CONTINUOUS
 10
284.048555055
 20
130.0604873111
 11
284.0332013307
 21
130.0097969289
  0
LINE
  5
294
100
AcDbEntity
  8
RACCORDO
100
AcDbLine
 62
7
  6
CONTINUOUS
 10
282.477188061
 20
100.3516826515
 11
282.9790252812
 21
100.6505588335
  0
LWPOLYLINE
  5
295
100
AcDbEntity
  8
RACCORDO
100
AcDbPolyline
 62
7
  6
CONTINUOUS
 90
7
 70
0
 10
284.0068818018
 20
100.1880340566
 10
284.0134655711
 20
100.1919183996
 10
284.0193147085
 20
100.1962968746
 10
284.0243456506
 20
100.2011358528
 10
284.0284992112
 20
100.2064292324
 10
284.0316748457
 20
100.2121018315
 10
284.0331784645
 20
100.2159464992
  0
LINE
  5
296
100
AcDbEntity
  8
RACCORDO
100
AcDbLine
 62
7
  6
CONTINUOUS
 10
282.9790252812
 20
100.6505588335
 11
283.6605691129
 21
101.0513496086
  0
LINE
  5
297
100
AcDbEntity
  8
RACCORDO
100
AcDbLine
 62
7
  6
CONTINUOUS
 10
283.6605691129
 20
101.0513496086
 11
284.0068818018
 21
101.2531666595
  0
LINE
  5
298
100
AcDbEntity
  8
RACCORDO
100
AcDbLine
 62
7
  6
CONTINUOUS
 10
282.3809961197
 20
99.4515118806
 11
282.477188061
 21
99.5054724079
  0
LWPOLYLINE
  5
299
100
AcDbEntity
  8
RACCORDO
100
AcDbPolyline
 62
7
  6
CONTINUOUS
 90
9
 70
0
 10
284.0068818018
 20
101.2531652421
 10
284.0134655712
 20
101.2568196578
 10
284.0193147086
 20
101.2606818717
 10
284.0243456506
 20
101.2647182552
 10
284.0284992112
 20
101.2689069134
 10
284.0316748456
 20
101.2731884574
 10
284.0337849273
 20
101.2774578081
 10
284.0348207674
 20
101.281609379
 10
284.0349478218
 20
101.2836213048
  0
LINE
  5
29A
100
AcDbEntity
  8
RACCORDO
100
AcDbLine
 62
7
  6
CONTINUOUS
 10
284.0068818018
 20
94.3986142017
 11
283.9374053832
 21
94.3626417329
  0
LINE
  5
29B
100
AcDbEntity
  8
RACCORDO
100
AcDbLine
 62
7
  6
CONTINUOUS
 10
283.3179641875
 20
99.8772953361
 11
284.0068818018
 21
100.1880326392
  0
LINE
  5
29C
100
AcDbEntity
  8
RACCORDO
100
AcDbLine
 62
7
  6
CONTINUOUS
 10
282.81086449
 20
99.651904953
 11
283.3179641875
 21
99.8772953361
  0
LINE
  5
29D
100
AcDbEntity
  8
RACCORDO
100
AcDbLine
 62
7
  6
CONTINUOUS
 10
282.477188061
 20
99.5054724079
 11
282.81086449
 21
99.651904953
  0
LINE
  5
29E
100
AcDbEntity
  8
RACCORDO
100
AcDbLine
 62
7
  6
CONTINUOUS
 10
282.3809961197
 20
100.3127517007
 11
282.477188061
 21
100.3516826515
  0
LINE
  5
29F
100
AcDbEntity
  8
RACCORDO
100
AcDbLine
 62
7
  6
CONTINUOUS
 10
309.247473577
 20
48.3717696359
 11
309.440298149
 21
48.4201344427
  0
LINE
  5
2A0
100
AcDbEntity
  8
RACCORDO
100
AcDbLine
 62
7
  6
CONTINUOUS
 10
307.6725311961
 20
49.3040179191
 11
307.408995946
 21
49.2379172593
  0
LWPOLYLINE
  5
2A1
100
AcDbEntity
  8
RACCORDO
100
AcDbPolyline
 62
7
  6
CONTINUOUS
 90
7
 70
0
 10
309.247473577
 20
48.3717696359
 10
309.2538163015
 20
48.3729668466
 10
309.2598910557
 20
48.3733914732
 10
309.2656978396
 20
48.3730435158
 10
309.2712803523
 20
48.371907279
 10
309.2765948947
 20
48.3699984581
 10
309.2780795222
 20
48.3693086456
  0
LWPOLYLINE
  5
2A2
100
AcDbEntity
  8
RACCORDO
100
AcDbPolyline
 62
250
  6
CONTINUOUS
 90
24
 70
0
 10
313.4631474968
 20
29.508922523
 10
313.4990877041
 20
29.4791964681
 10
313.5342817826
 20
29.4473680468
 10
313.5686870198
 20
29.4134378974
 10
313.6023461283
 20
29.3774053816
 10
313.6349333896
 20
29.3396213182
 10
313.6664446291
 20
29.300061509
 10
313.6968840214
 20
29.2587501523
 10
313.7259383717
 20
29.216110662
 10
313.7535915063
 20
29.1721320641
 10
313.7798595989
 20
29.1268253326
 10
313.8044779764
 20
29.0806468042
 10
313.8274312275
 20
29.0335838845
 10
313.8487347634
 20
28.9856491679
 10
313.8681701442
 20
28.9373367742
 10
313.8857155697
 20
28.8886528664
 10
313.9013928401
 20
28.8395912815
 10
313.9150489155
 20
28.7906276502
 10
313.9266668675
 20
28.7417187402
 10
313.9362636247
 20
28.6929077838
 10
313.9437369319
 20
28.6448001083
 10
313.9490527043
 20
28.5975974895
 10
313.9522450269
 20
28.5510981517
 10
313.9533138996
 20
28.5053020949
  0
LWPOLYLINE
  5
2A3
100
AcDbEntity
  8
0
100
AcDbPolyline
 62
250
  6
CONTINUOUS
 90
24
 70
0
 10
313.4631474968
 20
29.508922523
 10
313.4990877041
 20
29.4791964681
 10
313.5342817826
 20
29.4473680468
 10
313.5686870198
 20
29.4134378974
 10
313.6023461283
 20
29.3774053816
 10
313.6349333896
 20
29.3396213182
 10
313.6664446291
 20
29.300061509
 10
313.6968840214
 20
29.2587501523
 10
313.7259383717
 20
29.216110662
 10
313.7535915063
 20
29.1721320641
 10
313.7798595989
 20
29.1268253326
 10
313.8044779764
 20
29.0806468042
 10
313.8274312275
 20
29.0335838845
 10
313.8487347634
 20
28.9856491679
 10
313.8681701442
 20
28.9373367742
 10
313.8857155697
 20
28.8886528664
 10
313.9013928401
 20
28.8395912815
 10
313.9150489155
 20
28.7906276502
 10
313.9266668675
 20
28.7417187402
 10
313.9362636247
 20
28.6929077838
 10
313.9437369319
 20
28.6448001083
 10
313.9490527043
 20
28.5975974895
 10
313.9522450269
 20
28.5510981517
 10
313.9533138996
 20
28.5053020949
  0
LWPOLYLINE
  5
2A4
100
AcDbEntity
  8
RACCORDO
100
AcDbPolyline
 62
7
  6
CONTINUOUS
 90
22
 70
0
 10
282.6772187907
 20
60.5615300519
 10
282.6675714877
 20
60.5744790859
 10
282.6488815032
 20
60.6017927105
 10
282.6318388319
 20
60.6288696372
 10
282.6162703758
 20
60.6556104674
 10
282.6021406504
 20
60.6818278
 10
282.5893815083
 20
60.7074215088
 10
282.5777846052
 20
60.7324716982
 10
282.5672948674
 20
60.7568895396
 10
282.5578643357
 20
60.7805925392
 10
282.5493227123
 20
60.8037052594
 10
282.5416074461
 20
60.8262298654
 10
282.5346957434
 20
60.8480637195
 10
282.5284933155
 20
60.8691918224
 10
282.5229673583
 20
60.8895465291
 10
282.5180595005
 20
60.9091357333
 10
282.5136498169
 20
60.9280666832
 10
282.5097050796
 20
60.946355229
 10
282.5061894853
 20
60.9639534631
 10
282.502993562
 20
60.9808775696
 10
282.5000938214
 20
60.9971653059
 10
282.4925628384
 20
61.0415356927
  0
LWPOLYLINE
  5
2A5
100
AcDbEntity
  8
RACCORDO
100
AcDbPolyline
 62
7
  6
CONTINUOUS
 90
10
 70
0
 10
284.0344940984
 20
8.1005205102
 10
284.0501522828
 20
8.0332861642
 10
284.0658768053
 20
7.956031836
 10
284.0790864136
 20
7.8791399977
 10
284.0897490645
 20
7.8027487821
 10
284.0978356036
 20
7.7270014767
 10
284.1033209067
 20
7.6520435147
 10
284.1061848694
 20
7.578002088
 10
284.1064099406
 20
7.5050233051
 10
284.1039848131
 20
7.433272841
  0
LWPOLYLINE
  5
2A6
100
AcDbEntity
  8
RACCORDO
100
AcDbPolyline
 62
7
  6
CONTINUOUS
 90
15
 70
0
 10
284.0344940917
 20
39.7970503161
 10
284.0503866434
 20
39.7287461416
 10
284.0662759571
 20
39.6504303474
 10
284.0795793735
 20
39.5724912576
 10
284.090263666
 20
39.4950726133
 10
284.098298628
 20
39.4183238482
 10
284.103658332
 20
39.3423968731
 10
284.1063221638
 20
39.267423812
 10
284.1062722505
 20
39.1935570116
 10
284.1034974923
 20
39.1209699771
 10
284.097990985
 20
39.0497828044
 10
284.0897512955
 20
38.980144353
 10
284.078793294
 20
38.9122560142
 10
284.065135946
 20
38.8462617097
 10
284.048793325
 20
38.7822574047
  0
LWPOLYLINE
  5
2A7
100
AcDbEntity
  8
RACCORDO
100
AcDbPolyline
 62
250
  6
CONTINUOUS
 90
10
 70
0
 10
284.0056696306
 20
8.0656013029
 10
284.0223127091
 20
7.9931727104
 10
284.0369784495
 20
7.9200821437
 10
284.0495537312
 20
7.8464699083
 10
284.059973281
 20
7.7721089882
 10
284.0680544152
 20
7.6975436684
 10
284.0736226923
 20
7.6240484446
 10
284.0766698334
 20
7.5524003392
 10
284.0772699207
 20
7.4820570481
 10
284.0754034434
 20
7.4123142974
  0
LWPOLYLINE
  5
2A8
100
AcDbEntity
  8
RACCORDO
100
AcDbPolyline
 62
250
  6
CONTINUOUS
 90
15
 70
0
 10
284.0056696306
 20
39.7621310814
 10
284.0223137948
 20
39.6896974476
 10
284.0369803242
 20
39.616601837
 10
284.0495560823
 20
39.5429845839
 10
284.0599757785
 20
39.4686186943
 10
284.0680567144
 20
39.3940484945
 10
284.0736244487
 20
39.3205485339
 10
284.0766707089
 20
39.2488959652
 10
284.0772695794
 20
39.1785484031
 10
284.0754015191
 20
39.1088013243
 10
284.0710099859
 20
39.0399440008
 10
284.0640315835
 20
38.972020302
 10
284.0542240128
 20
38.9040927517
 10
284.0413249135
 20
38.8360830823
 10
284.0251989233
 20
38.7686782774
  0
LWPOLYLINE
  5
2A9
100
AcDbEntity
  8
RACCORDO
100
AcDbPolyline
 62
7
  6
CONTINUOUS
 90
6
 70
0
 10
282.4925628384
 20
-0.446267976
 10
282.4902449956
 20
-0.4330926092
 10
282.4877552668
 20
-0.4207912384
 10
282.4849968466
 20
-0.4093843315
 10
282.4820084798
 20
-0.3988406191
 10
282.4787624695
 20
-0.3891528063
  0
LWPOLYLINE
  5
2AA
100
AcDbEntity
  8
RACCORDO
100
AcDbPolyline
 62
250
  6
CONTINUOUS
 90
27
 70
0
 10
284.0086438191
 20
61.4771061163
 10
284.012041661
 20
61.4427044298
 10
284.0170804886
 20
61.4077634675
 10
284.0237943086
 20
61.3723619529
 10
284.0321456421
 20
61.3367151902
 10
284.0419894607
 20
61.3011781961
 10
284.053281739
 20
61.2658328523
 10
284.0659581359
 20
61.2308838777
 10
284.0797463768
 20
61.1968555803
 10
284.0944802168
 20
61.1639163359
 10
284.1100776823
 20
61.1320966585
 10
284.1263118728
 20
61.1016709797
 10
284.1429988772
 20
61.0727418827
 10
284.160043899
 20
61.0452835291
 10
284.1773341922
 20
61.0193404133
 10
284.1947476919
 20
60.9949037571
 10
284.2121680923
 20
60.971971738
 10
284.2294955949
 20
60.9505743162
 10
284.2465345085
 20
60.9307795015
 10
284.2632747648
 20
60.9124279474
 10
284.2799252396
 20
60.8952249005
 10
284.2963178564
 20
60.8792655932
 10
284.3124977592
 20
60.8643909306
 10
284.3290631088
 20
60.8500365024
 10
284.3460385721
 20
60.8362502631
 10
284.3633709565
 20
60.8230920277
 10
284.3816103755
 20
60.8101913882
  0
LINE
  5
2AB
100
AcDbEntity
  8
RACCORDO
100
AcDbLine
 62
250
  6
CONTINUOUS
 10
284.0068818018
 20
61.5108227727
 11
284.0086438191
 21
61.4771061163
  0
LWPOLYLINE
  5
2AC
100
AcDbEntity
  8
RACCORDO
100
AcDbPolyline
 62
250
  6
CONTINUOUS
 90
13
 70
0
 10
281.9567320509
 20
45.2830158826
 10
281.9573252151
 20
45.2638970169
 10
281.9591013905
 20
45.2454782358
 10
281.9620506439
 20
45.2278625446
 10
281.966156482
 20
45.2111484575
 10
281.9713959433
 20
45.1954294463
 10
281.9777397265
 20
45.1807934183
 10
281.9851523546
 20
45.1673222239
 10
281.9935923732
 20
45.1550911995
 10
282.0030125824
 20
45.1441687461
 10
282.0133603004
 20
45.1346159464
 10
282.0245776587
 20
45.1264862235
 10
282.0347000066
 20
45.1207537425
  0
LWPOLYLINE
  5
2AD
100
AcDbEntity
  8
0
100
AcDbPolyline
 62
250
  6
CONTINUOUS
 90
13
 70
0
 10
281.9567320509
 20
45.2830158826
 10
281.9573252151
 20
45.2638970169
 10
281.9591013905
 20
45.2454782358
 10
281.9620506439
 20
45.2278625446
 10
281.966156482
 20
45.2111484575
 10
281.9713959433
 20
45.1954294463
 10
281.9777397265
 20
45.1807934183
 10
281.9851523546
 20
45.1673222239
 10
281.9935923732
 20
45.1550911995
 10
282.0030125824
 20
45.1441687461
 10
282.0133603004
 20
45.1346159464
 10
282.0245776587
 20
45.1264862235
 10
282.0347000066
 20
45.1207537425
  0
LWPOLYLINE
  5
2AE
100
AcDbEntity
  8
RACCORDO
100
AcDbPolyline
 62
250
  6
CONTINUOUS
 90
13
 70
0
 10
281.9567320509
 20
106.7708195513
 10
281.9573252151
 20
106.7517006856
 10
281.9591013905
 20
106.7332819045
 10
281.9620506439
 20
106.7156662133
 10
281.966156482
 20
106.6989521262
 10
281.9713959433
 20
106.683233115
 10
281.9777397265
 20
106.668597087
 10
281.9851523546
 20
106.6551258926
 10
281.9935923732
 20
106.6428948682
 10
282.0030125824
 20
106.6319724148
 10
282.0133603004
 20
106.6224196151
 10
282.0245776587
 20
106.6142898922
 10
282.0347000066
 20
106.6085574112
  0
LWPOLYLINE
  5
2AF
100
AcDbEntity
  8
0
100
AcDbPolyline
 62
250
  6
CONTINUOUS
 90
13
 70
0
 10
281.9567320509
 20
106.7708195513
 10
281.9573252151
 20
106.7517006856
 10
281.9591013905
 20
106.7332819045
 10
281.9620506439
 20
106.7156662133
 10
281.966156482
 20
106.6989521262
 10
281.9713959433
 20
106.683233115
 10
281.9777397265
 20
106.668597087
 10
281.9851523546
 20
106.6551258926
 10
281.9935923732
 20
106.6428948682
 10
282.0030125824
 20
106.6319724148
 10
282.0133603004
 20
106.6224196151
 10
282.0245776587
 20
106.6142898922
 10
282.0347000066
 20
106.6085574112
  0
LWPOLYLINE
  5
2B0
100
AcDbEntity
  8
RACCORDO
100
AcDbPolyline
 62
7
  6
CONTINUOUS
 90
25
 70
0
 10
282.3809961197
 20
-0.2830433062
 10
282.3819367192
 20
-0.3177370927
 10
282.3846540909
 20
-0.3528864135
 10
282.3891482348
 20
-0.3884912687
 10
282.3954535138
 20
-0.4247075789
 10
282.403535565
 20
-0.4613794235
 10
282.4132912989
 20
-0.4980390403
 10
282.4247421551
 20
-0.5346862726
 10
282.437866694
 20
-0.571321277
 10
282.4524975076
 20
-0.6074767614
 10
282.468653891
 20
-0.6431465832
 10
282.486316549
 20
-0.6783368849
 10
282.5052601884
 20
-0.712598802
 10
282.5255012181
 20
-0.745920442
 10
282.5470232292
 20
-0.7783136974
 10
282.5695517008
 20
-0.8093653809
 10
282.5930995256
 20
-0.8390583072
 10
282.6176538109
 20
-0.8674096616
 10
282.6429013583
 20
-0.8940578127
 10
282.6688510484
 20
-0.9189809428
 10
282.6954940005
 20
-0.9422008695
 10
282.7224903746
 20
-0.9634214148
 10
282.7497268906
 20
-0.9825438524
 10
282.7773168285
 20
-0.9996669084
 10
282.8052601884
 20
-1.0147905828
  0
LWPOLYLINE
  5
2B1
100
AcDbEntity
  8
0
100
AcDbPolyline
 62
7
  6
CONTINUOUS
 90
25
 70
0
 10
282.3809961197
 20
-0.2830433062
 10
282.3819367192
 20
-0.3177370927
 10
282.3846540909
 20
-0.3528864135
 10
282.3891482348
 20
-0.3884912687
 10
282.3954535138
 20
-0.4247075789
 10
282.403535565
 20
-0.4613794235
 10
282.4132912989
 20
-0.4980390403
 10
282.4247421551
 20
-0.5346862726
 10
282.437866694
 20
-0.571321277
 10
282.4524975076
 20
-0.6074767614
 10
282.468653891
 20
-0.6431465832
 10
282.486316549
 20
-0.6783368849
 10
282.5052601884
 20
-0.712598802
 10
282.5255012181
 20
-0.745920442
 10
282.5470232292
 20
-0.7783136974
 10
282.5695517008
 20
-0.8093653809
 10
282.5930995256
 20
-0.8390583072
 10
282.6176538109
 20
-0.8674096616
 10
282.6429013583
 20
-0.8940578127
 10
282.6688510484
 20
-0.9189809428
 10
282.6954940005
 20
-0.9422008695
 10
282.7224903746
 20
-0.9634214148
 10
282.7497268906
 20
-0.9825438524
 10
282.7773168285
 20
-0.9996669084
 10
282.8052601884
 20
-1.0147905828
  0
LWPOLYLINE
  5
2B2
100
AcDbEntity
  8
RACCORDO
100
AcDbPolyline
 62
7
  6
CONTINUOUS
 90
25
 70
0
 10
282.3809961197
 20
61.2047603625
 10
282.3819367192
 20
61.170066576
 10
282.3846540909
 20
61.1349172552
 10
282.3891482348
 20
61.0993124
 10
282.3954535138
 20
61.0630960897
 10
282.403535565
 20
61.0264242452
 10
282.4132912989
 20
60.9897646284
 10
282.4247421551
 20
60.9531173961
 10
282.437866694
 20
60.9164823917
 10
282.4524975076
 20
60.8803269073
 10
282.468653891
 20
60.8446570855
 10
282.486316549
 20
60.8094667838
 10
282.5052601884
 20
60.7752048667
 10
282.5255012181
 20
60.7418832267
 10
282.5470232292
 20
60.7094899713
 10
282.5695517008
 20
60.6784382878
 10
282.5930995256
 20
60.6487453615
 10
282.6176538109
 20
60.6203940071
 10
282.6429013583
 20
60.593745856
 10
282.6688510484
 20
60.5688227259
 10
282.6954940005
 20
60.5456027991
 10
282.7224903746
 20
60.5243822539
 10
282.7497268906
 20
60.5052598163
 10
282.7773168285
 20
60.4881367603
 10
282.8052601884
 20
60.4730130859
  0
LWPOLYLINE
  5
2B3
100
AcDbEntity
  8
0
100
AcDbPolyline
 62
7
  6
CONTINUOUS
 90
25
 70
0
 10
282.3809961197
 20
61.2047603625
 10
282.3819367192
 20
61.170066576
 10
282.3846540909
 20
61.1349172552
 10
282.3891482348
 20
61.0993124
 10
282.3954535138
 20
61.0630960897
 10
282.403535565
 20
61.0264242452
 10
282.4132912989
 20
60.9897646284
 10
282.4247421551
 20
60.9531173961
 10
282.437866694
 20
60.9164823917
 10
282.4524975076
 20
60.8803269073
 10
282.468653891
 20
60.8446570855
 10
282.486316549
 20
60.8094667838
 10
282.5052601884
 20
60.7752048667
 10
282.5255012181
 20
60.7418832267
 10
282.5470232292
 20
60.7094899713
 10
282.5695517008
 20
60.6784382878
 10
282.5930995256
 20
60.6487453615
 10
282.6176538109
 20
60.6203940071
 10
282.6429013583
 20
60.593745856
 10
282.6688510484
 20
60.5688227259
 10
282.6954940005
 20
60.5456027991
 10
282.7224903746
 20
60.5243822539
 10
282.7497268906
 20
60.5052598163
 10
282.7773168285
 20
60.4881367603
 10
282.8052601884
 20
60.4730130859
  0
LWPOLYLINE
  5
2B4
100
AcDbEntity
  8
RACCORDO
100
AcDbPolyline
 62
7
  6
CONTINUOUS
 90
25
 70
0
 10
282.3809961197
 20
122.6925640312
 10
282.3819367192
 20
122.6578702447
 10
282.3846540909
 20
122.6227209238
 10
282.3891482348
 20
122.5871160687
 10
282.3954535138
 20
122.5508997584
 10
282.403535565
 20
122.5142279139
 10
282.4132912989
 20
122.4775682971
 10
282.4247421551
 20
122.4409210648
 10
282.437866694
 20
122.4042860604
 10
282.4524975076
 20
122.3681305759
 10
282.468653891
 20
122.3324607542
 10
282.486316549
 20
122.2972704525
 10
282.5052601884
 20
122.2630085354
 10
282.5255012181
 20
122.2296868954
 10
282.5470232292
 20
122.19729364
 10
282.5695517008
 20
122.1662419565
 10
282.5930995256
 20
122.1365490302
 10
282.6176538109
 20
122.1081976758
 10
282.6429013583
 20
122.0815495247
 10
282.6688510484
 20
122.0566263946
 10
282.6954940005
 20
122.0334064678
 10
282.7224903746
 20
122.0121859226
 10
282.7497268906
 20
121.993063485
 10
282.7773168285
 20
121.975940429
 10
282.8052601884
 20
121.9608167545
  0
LWPOLYLINE
  5
2B5
100
AcDbEntity
  8
0
100
AcDbPolyline
 62
7
  6
CONTINUOUS
 90
25
 70
0
 10
282.3809961197
 20
122.6925640312
 10
282.3819367192
 20
122.6578702447
 10
282.3846540909
 20
122.6227209238
 10
282.3891482348
 20
122.5871160687
 10
282.3954535138
 20
122.5508997584
 10
282.403535565
 20
122.5142279139
 10
282.4132912989
 20
122.4775682971
 10
282.4247421551
 20
122.4409210648
 10
282.437866694
 20
122.4042860604
 10
282.4524975076
 20
122.3681305759
 10
282.468653891
 20
122.3324607542
 10
282.486316549
 20
122.2972704525
 10
282.5052601884
 20
122.2630085354
 10
282.5255012181
 20
122.2296868954
 10
282.5470232292
 20
122.19729364
 10
282.5695517008
 20
122.1662419565
 10
282.5930995256
 20
122.1365490302
 10
282.6176538109
 20
122.1081976758
 10
282.6429013583
 20
122.0815495247
 10
282.6688510484
 20
122.0566263946
 10
282.6954940005
 20
122.0334064678
 10
282.7224903746
 20
122.0121859226
 10
282.7497268906
 20
121.993063485
 10
282.7773168285
 20
121.975940429
 10
282.8052601884
 20
121.9608167545
  0
LINE
  5
2B6
100
AcDbEntity
  8
RACCORDO
100
AcDbLine
 62
250
  6
CONTINUOUS
 10
281.3203359479
 20
-0.6012413578
 11
281.3203359479
 21
44.8217910707
  0
LINE
  5
2B7
100
AcDbEntity
  8
0
100
AcDbLine
 62
250
  6
CONTINUOUS
 10
281.3203359479
 20
-0.6012413578
 11
281.3203359479
 21
44.8217910707
  0
LINE
  5
2B8
100
AcDbEntity
  8
RACCORDO
100
AcDbLine
 62
250
  6
CONTINUOUS
 10
281.3203359479
 20
60.8865623109
 11
281.3203359479
 21
106.3095947394
  0
LINE
  5
2B9
100
AcDbEntity
  8
0
100
AcDbLine
 62
250
  6
CONTINUOUS
 10
281.3203359479
 20
60.8865623109
 11
281.3203359479
 21
106.3095947394
  0
LINE
  5
2BA
100
AcDbEntity
  8
RACCORDO
100
AcDbLine
 62
250
  6
CONTINUOUS
 10
281.3203359479
 20
122.3743659796
 11
281.3203359479
 21
167.7973984081
  0
LINE
  5
2BB
100
AcDbEntity
  8
0
100
AcDbLine
 62
250
  6
CONTINUOUS
 10
281.3203359479
 20
122.3743659796
 11
281.3203359479
 21
167.7973984081
  0
LINE
  5
2BC
100
AcDbEntity
  8
RACCORDO
100
AcDbLine
 62
250
  6
CONTINUOUS
 10
281.7446000166
 20
-0.6012413578
 11
281.7446000166
 21
44.8217910707
  0
LINE
  5
2BD
100
AcDbEntity
  8
0
100
AcDbLine
 62
250
  6
CONTINUOUS
 10
281.7446000166
 20
-0.6012413578
 11
281.7446000166
 21
44.8217910707
  0
LINE
  5
2BE
100
AcDbEntity
  8
RACCORDO
100
AcDbLine
 62
250
  6
CONTINUOUS
 10
281.7446000166
 20
60.8865623109
 11
281.7446000166
 21
106.3095947394
  0
LINE
  5
2BF
100
AcDbEntity
  8
0
100
AcDbLine
 62
250
  6
CONTINUOUS
 10
281.7446000166
 20
60.8865623109
 11
281.7446000166
 21
106.3095947394
  0
LINE
  5
2C0
100
AcDbEntity
  8
RACCORDO
100
AcDbLine
 62
250
  6
CONTINUOUS
 10
281.7446000166
 20
122.3743659796
 11
281.7446000166
 21
167.7973984081
  0
LINE
  5
2C1
100
AcDbEntity
  8
0
100
AcDbLine
 62
250
  6
CONTINUOUS
 10
281.7446000166
 20
122.3743659796
 11
281.7446000166
 21
167.7973984081
  0
LINE
  5
2C2
100
AcDbEntity
  8
RACCORDO
100
AcDbLine
 62
7
  6
CONTINUOUS
 10
282.3809961197
 20
167.9232130234
 11
282.3809961197
 21
122.6925640312
  0
LINE
  5
2C3
100
AcDbEntity
  8
0
100
AcDbLine
 62
7
  6
CONTINUOUS
 10
282.3809961197
 20
167.9232130234
 11
282.3809961197
 21
122.6925640312
  0
LINE
  5
2C4
100
AcDbEntity
  8
RACCORDO
100
AcDbLine
 62
7
  6
CONTINUOUS
 10
282.3809961197
 20
106.4354093547
 11
282.3809961197
 21
61.2047603625
  0
LINE
  5
2C5
100
AcDbEntity
  8
0
100
AcDbLine
 62
7
  6
CONTINUOUS
 10
282.3809961197
 20
106.4354093547
 11
282.3809961197
 21
61.2047603625
  0
LINE
  5
2C6
100
AcDbEntity
  8
RACCORDO
100
AcDbLine
 62
7
  6
CONTINUOUS
 10
282.3809961197
 20
44.947605686
 11
282.3809961197
 21
-0.2830433062
  0
LINE
  5
2C7
100
AcDbEntity
  8
0
100
AcDbLine
 62
7
  6
CONTINUOUS
 10
282.3809961197
 20
44.947605686
 11
282.3809961197
 21
-0.2830433062
  0
LINE
  5
2C8
100
AcDbEntity
  8
RACCORDO
100
AcDbLine
 62
7
  6
CONTINUOUS
 10
282.477188061
 20
167.8751170527
 11
282.477188061
 21
161.8362368579
  0
LINE
  5
2C9
100
AcDbEntity
  8
DRAFT
100
AcDbLine
 62
7
  6
CONTINUOUS
 10
282.477188061
 20
160.9965255388
 11
282.477188061
 21
130.1397070794
  0
LINE
  5
2CA
100
AcDbEntity
  8
RACCORDO
100
AcDbLine
 62
7
  6
CONTINUOUS
 10
282.477188061
 20
129.2999957603
 11
282.477188061
 21
122.5945405156
  0
LINE
  5
2CB
100
AcDbEntity
  8
RACCORDO
100
AcDbLine
 62
7
  6
CONTINUOUS
 10
282.477188061
 20
106.387313384
 11
282.477188061
 21
100.3516826515
  0
LINE
  5
2CC
100
AcDbEntity
  8
DRAFT
100
AcDbLine
 62
7
  6
CONTINUOUS
 10
282.477188061
 20
99.5054724079
 11
282.477188061
 21
68.6551528729
  0
LINE
  5
2CD
100
AcDbEntity
  8
RACCORDO
100
AcDbLine
 62
7
  6
CONTINUOUS
 10
282.477188061
 20
67.8089426293
 11
282.477188061
 21
61.1067368469
  0
LINE
  5
2CE
100
AcDbEntity
  8
RACCORDO
100
AcDbLine
 62
7
  6
CONTINUOUS
 10
282.477188061
 20
44.8995097153
 11
282.477188061
 21
38.8606295206
  0
LINE
  5
2CF
100
AcDbEntity
  8
DRAFT
100
AcDbLine
 62
7
  6
CONTINUOUS
 10
282.477188061
 20
38.0209182014
 11
282.477188061
 21
7.164099742
  0
LINE
  5
2D0
100
AcDbEntity
  8
RACCORDO
100
AcDbLine
 62
7
  6
CONTINUOUS
 10
282.477188061
 20
6.3243884229
 11
282.477188061
 21
-0.3810668218
  0
LINE
  5
2D1
100
AcDbEntity
  8
DRAFT
100
AcDbLine
 62
250
  6
CONTINUOUS
 10
283.9374053832
 20
13.8201147727
 11
283.9374053832
 21
32.8748380642
  0
LINE
  5
2D2
100
AcDbEntity
  8
DRAFT
100
AcDbLine
 62
250
  6
CONTINUOUS
 10
283.9374053832
 20
75.3079184413
 11
283.9374053832
 21
94.3626417329
  0
LINE
  5
2D3
100
AcDbEntity
  8
DRAFT
100
AcDbLine
 62
250
  6
CONTINUOUS
 10
283.9374053832
 20
136.79572211
 11
283.9374053832
 21
155.8504454016
  0
LINE
  5
2D4
100
AcDbEntity
  8
RACCORDO
100
AcDbLine
 62
7
  6
CONTINUOUS
 10
283.9654714031
 20
13.8517175935
 11
283.9654714031
 21
32.8893696715
  0
LINE
  5
2D5
100
AcDbEntity
  8
RACCORDO
100
AcDbLine
 62
7
  6
CONTINUOUS
 10
283.9654714031
 20
75.3395212622
 11
283.9654714031
 21
94.3771733402
  0
LINE
  5
2D6
100
AcDbEntity
  8
RACCORDO
100
AcDbLine
 62
7
  6
CONTINUOUS
 10
283.9654714031
 20
136.8273249309
 11
283.9654714031
 21
155.8649770089
  0
LINE
  5
2D7
100
AcDbEntity
  8
RACCORDO
100
AcDbLine
 62
250
  6
CONTINUOUS
 10
284.0068818018
 20
167.1102701823
 11
284.0068818018
 21
162.7384465766
  0
LINE
  5
2D8
100
AcDbEntity
  8
RACCORDO
100
AcDbLine
 62
250
  6
CONTINUOUS
 10
284.0068818018
 20
161.6783600595
 11
284.0068818018
 21
155.8864178704
  0
LINE
  5
2D9
100
AcDbEntity
  8
RACCORDO
100
AcDbLine
 62
250
  6
CONTINUOUS
 10
284.0068818018
 20
129.981830281
 11
284.0068818018
 21
122.9986264414
  0
LINE
  5
2DA
100
AcDbEntity
  8
RACCORDO
100
AcDbLine
 62
250
  6
CONTINUOUS
 10
284.0068818018
 20
105.6224665136
 11
284.0068818018
 21
101.2531666595
  0
LINE
  5
2DB
100
AcDbEntity
  8
RACCORDO
100
AcDbLine
 62
250
  6
CONTINUOUS
 10
284.0068818018
 20
100.1880326392
 11
284.0068818018
 21
94.3986142017
  0
LINE
  5
2DC
100
AcDbEntity
  8
DRAFT
100
AcDbLine
 62
250
  6
CONTINUOUS
 10
284.0068818018
 20
71.8886567585
 11
284.0068818018
 21
69.556636881
  0
LINE
  5
2DD
100
AcDbEntity
  8
RACCORDO
100
AcDbLine
 62
250
  6
CONTINUOUS
 10
284.0068818018
 20
68.4915028607
 11
284.0068818018
 21
61.5108227727
  0
LINE
  5
2DE
100
AcDbEntity
  8
RACCORDO
100
AcDbLine
 62
250
  6
CONTINUOUS
 10
284.0068818018
 20
44.1346628449
 11
284.0068818018
 21
39.7628392392
  0
LINE
  5
2DF
100
AcDbEntity
  8
RACCORDO
100
AcDbLine
 62
250
  6
CONTINUOUS
 10
284.0068818018
 20
38.7027527221
 11
284.0068818018
 21
32.910810533
  0
LINE
  5
2E0
100
AcDbEntity
  8
DRAFT
100
AcDbLine
 62
250
  6
CONTINUOUS
 10
284.0068818018
 20
10.4008530898
 11
284.0068818018
 21
8.0663094607
  0
LINE
  5
2E1
100
AcDbEntity
  8
RACCORDO
100
AcDbLine
 62
7
  6
CONTINUOUS
 10
284.0349478218
 20
167.0962371723
 11
284.0349478218
 21
162.7689204578
  0
LINE
  5
2E2
100
AcDbEntity
  8
RACCORDO
100
AcDbLine
 62
7
  6
CONTINUOUS
 10
284.0349478218
 20
161.7120995928
 11
284.0349478218
 21
155.921150789
  0
LINE
  5
2E3
100
AcDbEntity
  8
RACCORDO
100
AcDbLine
 62
7
  6
CONTINUOUS
 10
284.0349478218
 20
130.0155629761
 11
284.0349710248
 21
123.0277845514
  0
LINE
  5
2E4
100
AcDbEntity
  8
RACCORDO
100
AcDbLine
 62
7
  6
CONTINUOUS
 10
284.0349478218
 20
105.6084335036
 11
284.0349478218
 21
101.2836195289
  0
LINE
  5
2E5
100
AcDbEntity
  8
RACCORDO
100
AcDbLine
 62
7
  6
CONTINUOUS
 10
284.0349478218
 20
100.2217545642
 11
284.0349478218
 21
94.4333471203
  0
LINE
  5
2E6
100
AcDbEntity
  8
RACCORDO
100
AcDbLine
 62
7
  6
CONTINUOUS
 10
284.0349478218
 20
71.9050218188
 11
284.0349478218
 21
69.5870897504
  0
LINE
  5
2E7
100
AcDbEntity
  8
RACCORDO
100
AcDbLine
 62
7
  6
CONTINUOUS
 10
284.0349478218
 20
68.5252247857
 11
284.0349710248
 21
61.5399808827
  0
LINE
  5
2E8
100
AcDbEntity
  8
RACCORDO
100
AcDbLine
 62
7
  6
CONTINUOUS
 10
284.0349478218
 20
44.1206298349
 11
284.0349478218
 21
39.7933131204
  0
LINE
  5
2E9
100
AcDbEntity
  8
RACCORDO
100
AcDbLine
 62
7
  6
CONTINUOUS
 10
284.0349478218
 20
38.7364922554
 11
284.0349478218
 21
32.9455434516
  0
LINE
  5
2EA
100
AcDbEntity
  8
RACCORDO
100
AcDbLine
 62
7
  6
CONTINUOUS
 10
284.0349478218
 20
10.4172181501
 11
284.0349478218
 21
8.0967833419
  0
LINE
  5
2EB
100
AcDbEntity
  8
DRAFT
100
AcDbLine
 62
7
  6
CONTINUOUS
 10
284.0751456898
 20
133.4162645264
 11
284.0751456898
 21
130.8773814915
  0
LINE
  5
2EC
100
AcDbEntity
  8
RACCORDO
100
AcDbLine
 62
7
  6
CONTINUOUS
 10
284.0751456898
 20
7.1984373333
 11
284.0751456898
 21
0.0410517831
  0
LWPOLYLINE
  5
2ED
100
AcDbEntity
  8
RACCORDO
100
AcDbPolyline
 62
250
  6
CONTINUOUS
 90
28
 70
0
 10
281.3203359479
 20
167.7973984081
 10
281.3214047998
 20
167.8421281188
 10
281.3245975523
 20
167.8854379196
 10
281.3299142054
 20
167.9273278107
 10
281.3373889988
 20
167.967965958
 10
281.3469876928
 20
168.0071841956
 10
281.3586075676
 20
168.0444780254
 10
281.3722655393
 20
168.0797866774
 10
281.3879446918
 20
168.1131709216
 10
281.4054915566
 20
168.1443085703
 10
281.4249275959
 20
168.1731837797
 10
281.4462313476
 20
168.1998123934
 10
281.4691849567
 20
168.2239197554
 10
281.4938039867
 20
168.2454782752
 10
281.5200728741
 20
168.2645155432
 10
281.5477270741
 20
168.2808396747
 10
281.5767831616
 20
168.2944235076
 10
281.6072245617
 20
168.3052942039
 10
281.638737005
 20
168.3133413652
 10
281.6713243593
 20
168.318536358
 10
281.7049827568
 20
168.3209078157
 10
281.7393863249
 20
168.3204312399
 10
281.7745772736
 20
168.3170647928
 10
281.810513393
 20
168.3108503121
 10
281.8467421806
 20
168.3018888131
 10
281.8831128024
 20
168.2902139672
 10
281.9197760925
 20
168.2757921028
 10
281.9567320509
 20
168.25862322
  0
LWPOLYLINE
  5
2EE
100
AcDbEntity
  8
0
100
AcDbPolyline
 62
250
  6
CONTINUOUS
 90
28
 70
0
 10
281.3203359479
 20
167.7973984081
 10
281.3214047998
 20
167.8421281188
 10
281.3245975523
 20
167.8854379196
 10
281.3299142054
 20
167.9273278107
 10
281.3373889988
 20
167.967965958
 10
281.3469876928
 20
168.0071841956
 10
281.3586075676
 20
168.0444780254
 10
281.3722655393
 20
168.0797866774
 10
281.3879446918
 20
168.1131709216
 10
281.4054915566
 20
168.1443085703
 10
281.4249275959
 20
168.1731837797
 10
281.4462313476
 20
168.1998123934
 10
281.4691849567
 20
168.2239197554
 10
281.4938039867
 20
168.2454782752
 10
281.5200728741
 20
168.2645155432
 10
281.5477270741
 20
168.2808396747
 10
281.5767831616
 20
168.2944235076
 10
281.6072245617
 20
168.3052942039
 10
281.638737005
 20
168.3133413652
 10
281.6713243593
 20
168.318536358
 10
281.7049827568
 20
168.3209078157
 10
281.7393863249
 20
168.3204312399
 10
281.7745772736
 20
168.3170647928
 10
281.810513393
 20
168.3108503121
 10
281.8467421806
 20
168.3018888131
 10
281.8831128024
 20
168.2902139672
 10
281.9197760925
 20
168.2757921028
 10
281.9567320509
 20
168.25862322
  0
LWPOLYLINE
  5
2EF
100
AcDbEntity
  8
RACCORDO
100
AcDbPolyline
 62
250
  6
CONTINUOUS
 90
28
 70
0
 10
281.3203359479
 20
106.3095947394
 10
281.3214047998
 20
106.3543244501
 10
281.3245975523
 20
106.3976342509
 10
281.3299142054
 20
106.439524142
 10
281.3373889988
 20
106.4801622893
 10
281.3469876928
 20
106.5193805269
 10
281.3586075676
 20
106.5566743567
 10
281.3722655393
 20
106.5919830087
 10
281.3879446918
 20
106.6253672529
 10
281.4054915566
 20
106.6565049016
 10
281.4249275959
 20
106.685380111
 10
281.4462313476
 20
106.7120087247
 10
281.4691849567
 20
106.7361160867
 10
281.4938039867
 20
106.7576746065
 10
281.5200728741
 20
106.7767118745
 10
281.5477270741
 20
106.793036006
 10
281.5767831616
 20
106.8066198389
 10
281.6072245617
 20
106.8174905352
 10
281.638737005
 20
106.8255376965
 10
281.6713243593
 20
106.8307326893
 10
281.7049827568
 20
106.833104147
 10
281.7393863249
 20
106.8326275712
 10
281.7745772736
 20
106.8292611241
 10
281.810513393
 20
106.8230466434
 10
281.8467421806
 20
106.8140851444
 10
281.8831128024
 20
106.8024102985
 10
281.9197760925
 20
106.7879884341
 10
281.9567320509
 20
106.7708195513
  0
LWPOLYLINE
  5
2F0
100
AcDbEntity
  8
0
100
AcDbPolyline
 62
250
  6
CONTINUOUS
 90
28
 70
0
 10
281.3203359479
 20
106.3095947394
 10
281.3214047998
 20
106.3543244501
 10
281.3245975523
 20
106.3976342509
 10
281.3299142054
 20
106.439524142
 10
281.3373889988
 20
106.4801622893
 10
281.3469876928
 20
106.5193805269
 10
281.3586075676
 20
106.5566743567
 10
281.3722655393
 20
106.5919830087
 10
281.3879446918
 20
106.6253672529
 10
281.4054915566
 20
106.6565049016
 10
281.4249275959
 20
106.685380111
 10
281.4462313476
 20
106.7120087247
 10
281.4691849567
 20
106.7361160867
 10
281.4938039867
 20
106.7576746065
 10
281.5200728741
 20
106.7767118745
 10
281.5477270741
 20
106.793036006
 10
281.5767831616
 20
106.8066198389
 10
281.6072245617
 20
106.8174905352
 10
281.638737005
 20
106.8255376965
 10
281.6713243593
 20
106.8307326893
 10
281.7049827568
 20
106.833104147
 10
281.7393863249
 20
106.8326275712
 10
281.7745772736
 20
106.8292611241
 10
281.810513393
 20
106.8230466434
 10
281.8467421806
 20
106.8140851444
 10
281.8831128024
 20
106.8024102985
 10
281.9197760925
 20
106.7879884341
 10
281.9567320509
 20
106.7708195513
  0
LWPOLYLINE
  5
2F1
100
AcDbEntity
  8
RACCORDO
100
AcDbPolyline
 62
250
  6
CONTINUOUS
 90
28
 70
0
 10
281.3203359479
 20
44.8217910707
 10
281.3214047998
 20
44.8665207814
 10
281.3245975523
 20
44.9098305822
 10
281.3299142054
 20
44.9517204733
 10
281.3373889988
 20
44.9923586206
 10
281.3469876928
 20
45.0315768582
 10
281.3586075676
 20
45.068870688
 10
281.3722655393
 20
45.10417934
 10
281.3879446918
 20
45.1375635842
 10
281.4054915566
 20
45.1687012329
 10
281.4249275959
 20
45.1975764423
 10
281.4462313476
 20
45.224205056
 10
281.4691849567
 20
45.248312418
 10
281.4938039867
 20
45.2698709378
 10
281.5200728741
 20
45.2889082059
 10
281.5477270741
 20
45.3052323373
 10
281.5767831616
 20
45.3188161702
 10
281.6072245617
 20
45.3296868665
 10
281.638737005
 20
45.3377340278
 10
281.6713243593
 20
45.3429290206
 10
281.7049827568
 20
45.3453004783
 10
281.7393863249
 20
45.3448239025
 10
281.7745772736
 20
45.3414574554
 10
281.810513393
 20
45.3352429748
 10
281.8467421806
 20
45.3262814757
 10
281.8831128024
 20
45.3146066298
 10
281.9197760925
 20
45.3001847654
 10
281.9567320509
 20
45.2830158826
  0
LWPOLYLINE
  5
2F2
100
AcDbEntity
  8
0
100
AcDbPolyline
 62
250
  6
CONTINUOUS
 90
28
 70
0
 10
281.3203359479
 20
44.8217910707
 10
281.3214047998
 20
44.8665207814
 10
281.3245975523
 20
44.9098305822
 10
281.3299142054
 20
44.9517204733
 10
281.3373889988
 20
44.9923586206
 10
281.3469876928
 20
45.0315768582
 10
281.3586075676
 20
45.068870688
 10
281.3722655393
 20
45.10417934
 10
281.3879446918
 20
45.1375635842
 10
281.4054915566
 20
45.1687012329
 10
281.4249275959
 20
45.1975764423
 10
281.4462313476
 20
45.224205056
 10
281.4691849567
 20
45.248312418
 10
281.4938039867
 20
45.2698709378
 10
281.5200728741
 20
45.2889082059
 10
281.5477270741
 20
45.3052323373
 10
281.5767831616
 20
45.3188161702
 10
281.6072245617
 20
45.3296868665
 10
281.638737005
 20
45.3377340278
 10
281.6713243593
 20
45.3429290206
 10
281.7049827568
 20
45.3453004783
 10
281.7393863249
 20
45.3448239025
 10
281.7745772736
 20
45.3414574554
 10
281.810513393
 20
45.3352429748
 10
281.8467421806
 20
45.3262814757
 10
281.8831128024
 20
45.3146066298
 10
281.9197760925
 20
45.3001847654
 10
281.9567320509
 20
45.2830158826
  0
LWPOLYLINE
  5
2F3
100
AcDbEntity
  8
RACCORDO
100
AcDbPolyline
 62
250
  6
CONTINUOUS
 90
15
 70
0
 10
281.7446000166
 20
167.7973984081
 10
281.745508399
 20
167.830928688
 10
281.7482296572
 20
167.8634070117
 10
281.7527521397
 20
167.8946943008
 10
281.7590564821
 20
167.924656578
 10
281.7671156892
 20
167.9531655382
 10
281.7768952512
 20
167.9800990988
 10
281.7883532982
 20
168.0053419391
 10
281.8014407608
 20
168.0287859476
 10
281.8161015694
 20
168.0503306951
 10
281.8322729197
 20
168.0698839142
 10
281.8498855706
 20
168.0873619077
 10
281.8688641199
 20
168.1026898603
 10
281.8891272934
 20
168.1158021358
 10
281.900535928
 20
168.1219226884
  0
LWPOLYLINE
  5
2F4
100
AcDbEntity
  8
0
100
AcDbPolyline
 62
250
  6
CONTINUOUS
 90
15
 70
0
 10
281.7446000166
 20
167.7973984081
 10
281.745508399
 20
167.830928688
 10
281.7482296572
 20
167.8634070117
 10
281.7527521397
 20
167.8946943008
 10
281.7590564821
 20
167.924656578
 10
281.7671156892
 20
167.9531655382
 10
281.7768952512
 20
167.9800990988
 10
281.7883532982
 20
168.0053419391
 10
281.8014407608
 20
168.0287859476
 10
281.8161015694
 20
168.0503306951
 10
281.8322729197
 20
168.0698839142
 10
281.8498855706
 20
168.0873619077
 10
281.8688641199
 20
168.1026898603
 10
281.8891272934
 20
168.1158021358
 10
281.900535928
 20
168.1219226884
  0
LWPOLYLINE
  5
2F5
100
AcDbEntity
  8
RACCORDO
100
AcDbPolyline
 62
250
  6
CONTINUOUS
 90
15
 70
0
 10
281.7446000166
 20
106.3095947394
 10
281.745508399
 20
106.3431250193
 10
281.7482296572
 20
106.375603343
 10
281.7527521397
 20
106.4068906322
 10
281.7590564821
 20
106.4368529093
 10
281.7671156892
 20
106.4653618695
 10
281.7768952512
 20
106.4922954301
 10
281.7883532982
 20
106.5175382704
 10
281.8014407608
 20
106.5409822789
 10
281.8161015694
 20
106.5625270264
 10
281.8322729197
 20
106.5820802455
 10
281.8498855706
 20
106.599558239
 10
281.8688641199
 20
106.6148861916
 10
281.8891272934
 20
106.6279984671
 10
281.900535928
 20
106.6341190197
  0
LWPOLYLINE
  5
2F6
100
AcDbEntity
  8
0
100
AcDbPolyline
 62
250
  6
CONTINUOUS
 90
15
 70
0
 10
281.7446000166
 20
106.3095947394
 10
281.745508399
 20
106.3431250193
 10
281.7482296572
 20
106.375603343
 10
281.7527521397
 20
106.4068906322
 10
281.7590564821
 20
106.4368529093
 10
281.7671156892
 20
106.4653618695
 10
281.7768952512
 20
106.4922954301
 10
281.7883532982
 20
106.5175382704
 10
281.8014407608
 20
106.5409822789
 10
281.8161015694
 20
106.5625270264
 10
281.8322729197
 20
106.5820802455
 10
281.8498855706
 20
106.599558239
 10
281.8688641199
 20
106.6148861916
 10
281.8891272934
 20
106.6279984671
 10
281.900535928
 20
106.6341190197
  0
LWPOLYLINE
  5
2F7
100
AcDbEntity
  8
RACCORDO
100
AcDbPolyline
 62
250
  6
CONTINUOUS
 90
15
 70
0
 10
281.7446000166
 20
44.8217910707
 10
281.745508399
 20
44.8553213507
 10
281.7482296572
 20
44.8877996743
 10
281.7527521397
 20
44.9190869635
 10
281.7590564821
 20
44.9490492406
 10
281.7671156892
 20
44.9775582008
 10
281.7768952512
 20
45.0044917614
 10
281.7883532982
 20
45.0297346017
 10
281.8014407608
 20
45.0531786102
 10
281.8161015694
 20
45.0747233577
 10
281.8322729197
 20
45.0942765768
 10
281.8498855706
 20
45.1117545703
 10
281.8688641199
 20
45.1270825229
 10
281.8891272934
 20
45.1401947984
 10
281.900535928
 20
45.146315351
  0
LWPOLYLINE
  5
2F8
100
AcDbEntity
  8
0
100
AcDbPolyline
 62
250
  6
CONTINUOUS
 90
15
 70
0
 10
281.7446000166
 20
44.8217910707
 10
281.745508399
 20
44.8553213507
 10
281.7482296572
 20
44.8877996743
 10
281.7527521397
 20
44.9190869635
 10
281.7590564821
 20
44.9490492406
 10
281.7671156892
 20
44.9775582008
 10
281.7768952512
 20
45.0044917614
 10
281.7883532982
 20
45.0297346017
 10
281.8014407608
 20
45.0531786102
 10
281.8161015694
 20
45.0747233577
 10
281.8322729197
 20
45.0942765768
 10
281.8498855706
 20
45.1117545703
 10
281.8688641199
 20
45.1270825229
 10
281.8891272934
 20
45.1401947984
 10
281.900535928
 20
45.146315351
  0
LWPOLYLINE
  5
2F9
100
AcDbEntity
  8
RACCORDO
100
AcDbPolyline
 62
250
  6
CONTINUOUS
 90
22
 70
0
 10
281.9567320509
 20
121.2767450647
 10
281.9573252151
 20
121.2964570946
 10
281.9591013905
 20
121.3166520511
 10
281.9620506439
 20
121.3372169957
 10
281.966156482
 20
121.3580369209
 10
281.9713959433
 20
121.3789953933
 10
281.9777397265
 20
121.3999752046
 10
281.9851523546
 20
121.4208590271
 10
281.9935923732
 20
121.4415300701
 10
282.0030125824
 20
121.4618727327
 10
282.0133603005
 20
121.4817732504
 10
282.0245776587
 20
121.5011203316
 10
282.0366019252
 20
121.5198057795
 10
282.0493658554
 20
121.5377250974
 10
282.0627980681
 20
121.5547780733
 10
282.0768234451
 20
121.5708693401
 10
282.0913635506
 20
121.5859089087
 10
282.1063370705
 20
121.599812672
 10
282.1216602669
 20
121.6125028743
 10
282.1372474462
 20
121.623908547
 10
282.1530114385
 20
121.6339659048
 10
282.1688640853
 20
121.642618703
  0
LWPOLYLINE
  5
2FA
100
AcDbEntity
  8
0
100
AcDbPolyline
 62
250
  6
CONTINUOUS
 90
22
 70
0
 10
281.9567320509
 20
121.2767450647
 10
281.9573252151
 20
121.2964570946
 10
281.9591013905
 20
121.3166520511
 10
281.9620506439
 20
121.3372169957
 10
281.966156482
 20
121.3580369209
 10
281.9713959433
 20
121.3789953933
 10
281.9777397265
 20
121.3999752046
 10
281.9851523546
 20
121.4208590271
 10
281.9935923732
 20
121.4415300701
 10
282.0030125824
 20
121.4618727327
 10
282.0133603005
 20
121.4817732504
 10
282.0245776587
 20
121.5011203316
 10
282.0366019252
 20
121.5198057795
 10
282.0493658554
 20
121.5377250974
 10
282.0627980681
 20
121.5547780733
 10
282.0768234451
 20
121.5708693401
 10
282.0913635506
 20
121.5859089087
 10
282.1063370705
 20
121.599812672
 10
282.1216602669
 20
121.6125028743
 10
282.1372474462
 20
121.623908547
 10
282.1530114385
 20
121.6339659048
 10
282.1688640853
 20
121.642618703
  0
LWPOLYLINE
  5
2FB
100
AcDbEntity
  8
RACCORDO
100
AcDbPolyline
 62
250
  6
CONTINUOUS
 90
22
 70
0
 10
281.9567320509
 20
59.788941396
 10
281.9573252151
 20
59.8086534259
 10
281.9591013905
 20
59.8288483824
 10
281.9620506439
 20
59.849413327
 10
281.966156482
 20
59.8702332522
 10
281.9713959433
 20
59.8911917246
 10
281.9777397265
 20
59.9121715359
 10
281.9851523546
 20
59.9330553584
 10
281.9935923732
 20
59.9537264014
 10
282.0030125824
 20
59.974069064
 10
282.0133603005
 20
59.9939695817
 10
282.0245776587
 20
60.0133166629
 10
282.0366019252
 20
60.0320021108
 10
282.0493658554
 20
60.0499214287
 10
282.0627980681
 20
60.0669744046
 10
282.0768234451
 20
60.0830656714
 10
282.0913635506
 20
60.09810524
 10
282.1063370705
 20
60.1120090033
 10
282.1216602669
 20
60.1246992056
 10
282.1372474462
 20
60.1361048783
 10
282.1530114385
 20
60.1461622361
 10
282.1688640853
 20
60.1548150343
  0
LWPOLYLINE
  5
2FC
100
AcDbEntity
  8
0
100
AcDbPolyline
 62
250
  6
CONTINUOUS
 90
22
 70
0
 10
281.9567320509
 20
59.788941396
 10
281.9573252151
 20
59.8086534259
 10
281.9591013905
 20
59.8288483824
 10
281.9620506439
 20
59.849413327
 10
281.966156482
 20
59.8702332522
 10
281.9713959433
 20
59.8911917246
 10
281.9777397265
 20
59.9121715359
 10
281.9851523546
 20
59.9330553584
 10
281.9935923732
 20
59.9537264014
 10
282.0030125824
 20
59.974069064
 10
282.0133603005
 20
59.9939695817
 10
282.0245776587
 20
60.0133166629
 10
282.0366019252
 20
60.0320021108
 10
282.0493658554
 20
60.0499214287
 10
282.0627980681
 20
60.0669744046
 10
282.0768234451
 20
60.0830656714
 10
282.0913635506
 20
60.09810524
 10
282.1063370705
 20
60.1120090033
 10
282.1216602669
 20
60.1246992056
 10
282.1372474462
 20
60.1361048783
 10
282.1530114385
 20
60.1461622361
 10
282.1688640853
 20
60.1548150343
  0
LWPOLYLINE
  5
2FD
100
AcDbEntity
  8
RACCORDO
100
AcDbPolyline
 62
250
  6
CONTINUOUS
 90
22
 70
0
 10
281.9567320509
 20
-1.6988622727
 10
281.9573252151
 20
-1.6791502427
 10
281.9591013905
 20
-1.6589552863
 10
281.9620506439
 20
-1.6383903417
 10
281.966156482
 20
-1.6175704164
 10
281.9713959433
 20
-1.5966119441
 10
281.9777397265
 20
-1.5756321328
 10
281.9851523546
 20
-1.5547483103
 10
281.9935923732
 20
-1.5340772673
 10
282.0030125824
 20
-1.5137346047
 10
282.0133603005
 20
-1.493834087
 10
282.0245776587
 20
-1.4744870058
 10
282.0366019252
 20
-1.4558015579
 10
282.0493658554
 20
-1.43788224
 10
282.0627980681
 20
-1.4208292641
 10
282.0768234451
 20
-1.4047379973
 10
282.0913635506
 20
-1.3896984287
 10
282.1063370705
 20
-1.3757946654
 10
282.1216602669
 20
-1.3631044631
 10
282.1372474462
 20
-1.3516987904
 10
282.1530114385
 20
-1.3416414326
 10
282.1688640853
 20
-1.3329886344
  0
LWPOLYLINE
  5
2FE
100
AcDbEntity
  8
0
100
AcDbPolyline
 62
250
  6
CONTINUOUS
 90
22
 70
0
 10
281.9567320509
 20
-1.6988622727
 10
281.9573252151
 20
-1.6791502427
 10
281.9591013905
 20
-1.6589552863
 10
281.9620506439
 20
-1.6383903417
 10
281.966156482
 20
-1.6175704164
 10
281.9713959433
 20
-1.5966119441
 10
281.9777397265
 20
-1.5756321328
 10
281.9851523546
 20
-1.5547483103
 10
281.9935923732
 20
-1.5340772673
 10
282.0030125824
 20
-1.5137346047
 10
282.0133603005
 20
-1.493834087
 10
282.0245776587
 20
-1.4744870058
 10
282.0366019252
 20
-1.4558015579
 10
282.0493658554
 20
-1.43788224
 10
282.0627980681
 20
-1.4208292641
 10
282.0768234451
 20
-1.4047379973
 10
282.0913635506
 20
-1.3896984287
 10
282.1063370705
 20
-1.3757946654
 10
282.1216602669
 20
-1.3631044631
 10
282.1372474462
 20
-1.3516987904
 10
282.1530114385
 20
-1.3416414326
 10
282.1688640853
 20
-1.3329886344
  0
LWPOLYLINE
  5
2FF
100
AcDbEntity
  8
RACCORDO
100
AcDbPolyline
 62
250
  6
CONTINUOUS
 90
9
 70
0
 10
284.0349478009
 20
123.0333270813
 10
284.0348551645
 20
123.0312074501
 10
284.0338750546
 20
123.0260552067
 10
284.031835008
 20
123.0209812223
 10
284.0287568824
 20
123.0160398611
 10
284.0246736579
 20
123.0112840664
 10
284.0196290834
 20
123.0067647931
 10
284.0136772079
 20
123.0025304621
 10
284.0068818018
 20
122.9986264414
  0
LWPOLYLINE
  5
300
100
AcDbEntity
  8
RACCORDO
100
AcDbPolyline
 62
250
  6
CONTINUOUS
 90
9
 70
0
 10
284.0349478009
 20
61.5455234126
 10
284.0348551645
 20
61.5434037814
 10
284.0338750546
 20
61.538251538
 10
284.031835008
 20
61.5331775536
 10
284.0287568824
 20
61.5282361924
 10
284.0246736579
 20
61.5234803977
 10
284.0196290834
 20
61.5189611244
 10
284.0136772079
 20
61.5147267934
 10
284.0068818018
 20
61.5108227727
  0
LWPOLYLINE
  5
301
100
AcDbEntity
  8
RACCORDO
100
AcDbPolyline
 62
7
  6
CONTINUOUS
 90
9
 70
0
 10
284.0349478215
 20
155.9211542897
 10
284.0348364712
 20
155.9189806109
 10
284.0338750551
 20
155.9138466375
 10
284.0318276743
 20
155.9087928448
 10
284.0287279144
 20
155.9038167531
 10
284.0246736587
 20
155.8990754963
 10
284.0196975354
 20
155.8946214526
 10
284.0137669164
 20
155.890402244
 10
284.0068818018
 20
155.8864178704
  0
LWPOLYLINE
  5
302
100
AcDbEntity
  8
RACCORDO
100
AcDbPolyline
 62
7
  6
CONTINUOUS
 90
9
 70
0
 10
284.0349478215
 20
94.433350621
 10
284.0348364712
 20
94.4311769422
 10
284.0338750551
 20
94.4260429688
 10
284.0318276743
 20
94.4209891761
 10
284.0287279144
 20
94.4160130844
 10
284.0246736587
 20
94.4112718276
 10
284.0196975354
 20
94.406817784
 10
284.0137669164
 20
94.4025985753
 10
284.0068818018
 20
94.3986142017
  0
LINE
  5
303
100
AcDbEntity
  8
DRAFT
100
AcDbLine
 62
7
  6
CONTINUOUS
 10
286.9022805419
 20
121.1909788273
 11
286.876078425
 21
121.0581128689
  0
LINE
  5
304
100
AcDbEntity
  8
RACCORDO
100
AcDbLine
 62
250
  6
CONTINUOUS
 10
284.0255653611
 20
100.2548620808
 11
284.0056696267
 21
100.1874843749
  0
LINE
  5
305
100
AcDbEntity
  8
RACCORDO
100
AcDbLine
 62
7
  6
CONTINUOUS
 10
284.0489206335
 20
100.2676613258
 11
284.0331785642
 21
100.2159417838
  0
LINE
  5
306
100
AcDbEntity
  8
RACCORDO
100
AcDbLine
 62
250
  6
CONTINUOUS
 10
313.5290498309
 20
105.9625258302
 11
313.864438156
 21
106.1302199927
  0
LINE
  5
307
100
AcDbEntity
  8
0
100
AcDbLine
 62
250
  6
CONTINUOUS
 10
313.5290498309
 20
105.9625258302
 11
313.864438156
 21
106.1302199927
  0
LWPOLYLINE
  5
308
100
AcDbEntity
  8
RACCORDO
100
AcDbPolyline
 62
250
  6
CONTINUOUS
 90
12
 70
0
 10
313.7973779882
 20
105.9454847579
 10
313.787325592
 20
105.9407648545
 10
313.7647585611
 20
105.9322426219
 10
313.7411821372
 20
105.9260751116
 10
313.7166972949
 20
105.9222887535
 10
313.6914089042
 20
105.9208997721
 10
313.6654252569
 20
105.9219141184
 10
313.6388576149
 20
105.9253274517
 10
313.6118197603
 20
105.9311251548
 10
313.5844274792
 20
105.9392823986
 10
313.5567980648
 20
105.9497642523
 10
313.5290498309
 20
105.9625258302
  0
LWPOLYLINE
  5
309
100
AcDbEntity
  8
0
100
AcDbPolyline
 62
250
  6
CONTINUOUS
 90
12
 70
0
 10
313.7973779882
 20
105.9454847579
 10
313.787325592
 20
105.9407648545
 10
313.7647585611
 20
105.9322426219
 10
313.7411821372
 20
105.9260751116
 10
313.7166972949
 20
105.9222887535
 10
313.6914089042
 20
105.9208997721
 10
313.6654252569
 20
105.9219141184
 10
313.6388576149
 20
105.9253274517
 10
313.6118197603
 20
105.9311251548
 10
313.5844274792
 20
105.9392823986
 10
313.5567980648
 20
105.9497642523
 10
313.5290498309
 20
105.9625258302
  0
LINE
  5
30A
100
AcDbEntity
  8
RACCORDO
100
AcDbLine
 62
7
  6
CONTINUOUS
 10
292.9840176098
 20
56.4504064274
 11
293.2475528599
 21
56.5165070872
  0
LINE
  5
30B
100
AcDbEntity
  8
DRAFT
100
AcDbLine
 62
7
  6
CONTINUOUS
 10
291.3435745712
 20
57.3662256497
 11
291.4797859069
 21
57.4003905637
  0
LWPOLYLINE
  5
30C
100
AcDbEntity
  8
RACCORDO
100
AcDbPolyline
 62
7
  6
CONTINUOUS
 90
7
 70
0
 10
292.9840176098
 20
56.4504064274
 10
292.9903603342
 20
56.4516036381
 10
292.9964350884
 20
56.4520282647
 10
293.0022418723
 20
56.4516803073
 10
293.007824385
 20
56.4505440705
 10
293.0131389274
 20
56.4486352496
 10
293.0146235549
 20
56.4479454371
  0
LWPOLYLINE
  5
30D
100
AcDbEntity
  8
RACCORDO
100
AcDbPolyline
 62
250
  6
CONTINUOUS
 90
22
 70
0
 10
281.3203359479
 20
60.8865623109
 10
281.3367817588
 20
60.8789325696
 10
281.3543219266
 20
60.8719386612
 10
281.3728583593
 20
60.8656196982
 10
281.3922873937
 20
60.8600110191
 10
281.4125003749
 20
60.8551439897
 10
281.4333842636
 20
60.8510458286
 10
281.4548222687
 20
60.8477394542
 10
281.4766945001
 20
60.8452433571
 10
281.4988786394
 20
60.8435714966
 10
281.5212506239
 20
60.8427332224
 10
281.5436853405
 20
60.8427332224
 10
281.5660573251
 20
60.8435714966
 10
281.5882414644
 20
60.8452433571
 10
281.6101136958
 20
60.8477394542
 10
281.6315517008
 20
60.8510458286
 10
281.6524355895
 20
60.8551439897
 10
281.6726485707
 20
60.8600110191
 10
281.6920776052
 20
60.8656196982
 10
281.7106140379
 20
60.8719386612
 10
281.7281542056
 20
60.8789325696
 10
281.7446000166
 20
60.8865623109
  0
LWPOLYLINE
  5
30E
100
AcDbEntity
  8
0
100
AcDbPolyline
 62
250
  6
CONTINUOUS
 90
22
 70
0
 10
281.3203359479
 20
60.8865623109
 10
281.3367817588
 20
60.8789325696
 10
281.3543219266
 20
60.8719386612
 10
281.3728583593
 20
60.8656196982
 10
281.3922873937
 20
60.8600110191
 10
281.4125003749
 20
60.8551439897
 10
281.4333842636
 20
60.8510458286
 10
281.4548222687
 20
60.8477394542
 10
281.4766945001
 20
60.8452433571
 10
281.4988786394
 20
60.8435714966
 10
281.5212506239
 20
60.8427332224
 10
281.5436853405
 20
60.8427332224
 10
281.5660573251
 20
60.8435714966
 10
281.5882414644
 20
60.8452433571
 10
281.6101136958
 20
60.8477394542
 10
281.6315517008
 20
60.8510458286
 10
281.6524355895
 20
60.8551439897
 10
281.6726485707
 20
60.8600110191
 10
281.6920776052
 20
60.8656196982
 10
281.7106140379
 20
60.8719386612
 10
281.7281542056
 20
60.8789325696
 10
281.7446000166
 20
60.8865623109
  0
LWPOLYLINE
  5
30F
100
AcDbEntity
  8
RACCORDO
100
AcDbPolyline
 62
250
  6
CONTINUOUS
 90
6
 70
0
 10
284.4729508407
 20
60.771872953
 10
284.4714843999
 20
60.7725645162
 10
284.464826302
 20
60.7748180793
 10
284.4576922587
 20
60.7758683187
 10
284.4501751657
 20
60.7757015588
 10
284.4423729066
 20
60.7743199711
  0
LINE
  5
310
100
AcDbEntity
  8
RACCORDO
100
AcDbLine
 62
250
  6
CONTINUOUS
 10
313.3169177966
 20
44.1088485232
 11
281.9567320509
 21
59.788941396
  0
LINE
  5
311
100
AcDbEntity
  8
0
100
AcDbLine
 62
250
  6
CONTINUOUS
 10
313.3169177966
 20
44.1088485232
 11
281.9567320509
 21
59.788941396
  0
LINE
  5
312
100
AcDbEntity
  8
RACCORDO
100
AcDbLine
 62
250
  6
CONTINUOUS
 10
313.5290498309
 20
44.4747221615
 11
282.1688640853
 21
60.1548150343
  0
LINE
  5
313
100
AcDbEntity
  8
0
100
AcDbLine
 62
250
  6
CONTINUOUS
 10
313.5290498309
 20
44.4747221615
 11
282.1688640853
 21
60.1548150343
  0
LINE
  5
314
100
AcDbEntity
  8
RACCORDO
100
AcDbLine
 62
7
  6
CONTINUOUS
 10
282.8052601884
 20
60.4730130859
 11
313.865445934
 21
44.942920213
  0
LINE
  5
315
100
AcDbEntity
  8
0
100
AcDbLine
 62
7
  6
CONTINUOUS
 10
282.8052601884
 20
60.4730130859
 11
313.865445934
 21
44.942920213
  0
LINE
  5
316
100
AcDbEntity
  8
RACCORDO
100
AcDbLine
 62
250
  6
CONTINUOUS
 10
307.408995946
 20
49.2379172593
 11
292.9840176098
 21
56.4504064274
  0
LINE
  5
317
100
AcDbEntity
  8
RACCORDO
100
AcDbLine
 62
7
  6
CONTINUOUS
 10
307.4260998319
 20
49.2422073046
 11
293.0146415275
 21
56.4479364568
  0
LINE
  5
318
100
AcDbEntity
  8
RACCORDO
100
AcDbLine
 62
250
  6
CONTINUOUS
 10
284.4423729066
 20
60.7743199711
 11
284.9230003042
 21
60.5340062724
  0
LINE
  5
319
100
AcDbEntity
  8
RACCORDO
100
AcDbLine
 62
250
  6
CONTINUOUS
 10
309.247473577
 20
48.3717696359
 11
313.8436676548
 21
46.0736725971
  0
LINE
  5
31A
100
AcDbEntity
  8
RACCORDO
100
AcDbLine
 62
7
  6
CONTINUOUS
 10
284.4729508407
 20
60.771872953
 11
284.9401041902
 21
60.5382963176
  0
LINE
  5
31B
100
AcDbEntity
  8
RACCORDO
100
AcDbLine
 62
7
  6
CONTINUOUS
 10
309.2780974948
 20
48.3692996653
 11
313.8607715407
 21
46.0779626423
  0
LINE
  5
31C
100
AcDbEntity
  8
DRAFT
100
AcDbLine
 62
7
  6
CONTINUOUS
 10
286.7473804935
 20
59.6643226886
 11
291.3435745712
 21
57.3662256497
  0
LINE
  5
31D
100
AcDbEntity
  8
DRAFT
100
AcDbLine
 62
7
  6
CONTINUOUS
 10
309.440298149
 20
48.4201344427
 11
307.6725311961
 21
49.3040179191
  0
LINE
  5
31E
100
AcDbEntity
  8
DRAFT
100
AcDbLine
 62
7
  6
CONTINUOUS
 10
293.2475528599
 20
56.5165070872
 11
291.4797859069
 21
57.4003905637
  0
LINE
  5
31F
100
AcDbEntity
  8
DRAFT
100
AcDbLine
 62
7
  6
CONTINUOUS
 10
286.8835918292
 20
59.6984876026
 11
285.1158248762
 21
60.5823710791
  0
LWPOLYLINE
  5
320
100
AcDbEntity
  8
RACCORDO
100
AcDbPolyline
 62
7
  6
CONTINUOUS
 90
25
 70
0
 10
284.4729508407
 20
60.771872953
 10
284.466621468
 20
60.7751004385
 10
284.4396385651
 20
60.7902334881
 10
284.4122434255
 20
60.8078618688
 10
284.3846466046
 20
60.8279471651
 10
284.3570419339
 20
60.8504277862
 10
284.3296009311
 20
60.8752377122
 10
284.3025045562
 20
60.9022814893
 10
284.2759354577
 20
60.9314396913
 10
284.250064517
 20
60.9625792379
 10
284.2250513895
 20
60.9955589359
 10
284.201044451
 20
61.0302296309
 10
284.1781862746
 20
61.0664342622
 10
284.1566245967
 20
61.1039781369
 10
284.1365049718
 20
61.142644904
 10
284.1179365585
 20
61.1822502476
 10
284.101036751
 20
61.2225681644
 10
284.0859323469
 20
61.2633019696
 10
284.0726929387
 20
61.3042349582
 10
284.0613828685
 20
61.3451403644
 10
284.0520705436
 20
61.3856995342
 10
284.0447745632
 20
61.4256934579
 10
284.039500844
 20
61.4649261059
 10
284.0362450888
 20
61.5031033946
 10
284.0349710248
 20
61.5399808827
  0
LWPOLYLINE
  5
321
100
AcDbEntity
  8
RACCORDO
100
AcDbPolyline
 62
250
  6
CONTINUOUS
 90
28
 70
0
 10
281.9567320509
 20
59.788941396
 10
281.9197740382
 20
59.8087294734
 10
281.8831082981
 20
59.8309726506
 10
281.8467348307
 20
59.8556709278
 10
281.8105023507
 20
59.8829418828
 10
281.7745621434
 20
59.9126679377
 10
281.7393680649
 20
59.944496359
 10
281.7049628277
 20
59.9784265084
 10
281.6713037192
 20
60.0144590242
 10
281.6387164579
 20
60.0522430876
 10
281.6072052184
 20
60.0918028968
 10
281.5767658261
 20
60.1331142535
 10
281.5477114758
 20
60.1757537438
 10
281.5200583412
 20
60.2197323417
 10
281.4937902486
 20
60.2650390732
 10
281.4691718711
 20
60.3112176016
 10
281.44621862
 20
60.3582805213
 10
281.4249150841
 20
60.4062152379
 10
281.4054797033
 20
60.4545276316
 10
281.3879342778
 20
60.5032115394
 10
281.3722570074
 20
60.5522731243
 10
281.358600932
 20
60.6012367556
 10
281.34698298
 20
60.6501456656
 10
281.3373862228
 20
60.698956622
 10
281.3299129156
 20
60.7470642975
 10
281.3245971432
 20
60.7942669163
 10
281.3214048206
 20
60.8407662541
 10
281.3203359479
 20
60.8865623109
  0
LWPOLYLINE
  5
322
100
AcDbEntity
  8
0
100
AcDbPolyline
 62
250
  6
CONTINUOUS
 90
28
 70
0
 10
281.9567320509
 20
59.788941396
 10
281.9197740382
 20
59.8087294734
 10
281.8831082981
 20
59.8309726506
 10
281.8467348307
 20
59.8556709278
 10
281.8105023507
 20
59.8829418828
 10
281.7745621434
 20
59.9126679377
 10
281.7393680649
 20
59.944496359
 10
281.7049628277
 20
59.9784265084
 10
281.6713037192
 20
60.0144590242
 10
281.6387164579
 20
60.0522430876
 10
281.6072052184
 20
60.0918028968
 10
281.5767658261
 20
60.1331142535
 10
281.5477114758
 20
60.1757537438
 10
281.5200583412
 20
60.2197323417
 10
281.4937902486
 20
60.2650390732
 10
281.4691718711
 20
60.3112176016
 10
281.44621862
 20
60.3582805213
 10
281.4249150841
 20
60.4062152379
 10
281.4054797033
 20
60.4545276316
 10
281.3879342778
 20
60.5032115394
 10
281.3722570074
 20
60.5522731243
 10
281.358600932
 20
60.6012367556
 10
281.34698298
 20
60.6501456656
 10
281.3373862228
 20
60.698956622
 10
281.3299129156
 20
60.7470642975
 10
281.3245971432
 20
60.7942669163
 10
281.3214048206
 20
60.8407662541
 10
281.3203359479
 20
60.8865623109
  0
LWPOLYLINE
  5
323
100
AcDbEntity
  8
RACCORDO
100
AcDbPolyline
 62
250
  6
CONTINUOUS
 90
12
 70
0
 10
313.9533138996
 20
44.5700733351
 10
313.938054417
 20
44.5782962406
 10
313.9240666001
 20
44.5870663244
 10
313.9114286742
 20
44.5963345408
 10
313.9002113159
 20
44.606049058
 10
313.8904772572
 20
44.6161555486
 10
313.8822809349
 20
44.626597493
 10
313.8756681861
 20
44.6373164955
 10
313.870675992
 20
44.6482526112
 10
313.867332271
 20
44.6593446808
 10
313.8656557225
 20
44.6705306731
 10
313.865445934
 20
44.6761393522
  0
LWPOLYLINE
  5
324
100
AcDbEntity
  8
0
100
AcDbPolyline
 62
250
  6
CONTINUOUS
 90
12
 70
0
 10
313.9533138996
 20
44.5700733351
 10
313.938054417
 20
44.5782962406
 10
313.9240666001
 20
44.5870663244
 10
313.9114286742
 20
44.5963345408
 10
313.9002113159
 20
44.606049058
 10
313.8904772572
 20
44.6161555486
 10
313.8822809349
 20
44.626597493
 10
313.8756681861
 20
44.6373164955
 10
313.870675992
 20
44.6482526112
 10
313.867332271
 20
44.6593446808
 10
313.8656557225
 20
44.6705306731
 10
313.865445934
 20
44.6761393522
  0
LWPOLYLINE
  5
325
100
AcDbEntity
  8
RACCORDO
100
AcDbPolyline
 62
250
  6
CONTINUOUS
 90
25
 70
0
 10
282.1688640853
 20
60.1548150343
 10
282.1411158808
 20
60.1698016732
 10
282.1134864916
 20
60.1869492148
 10
282.0860942312
 20
60.2061842323
 10
282.0590563974
 20
60.2274243602
 10
282.0324887713
 20
60.2505786459
 10
282.0065051217
 20
60.275547939
 10
281.9812167008
 20
60.3022253338
 10
281.9567318138
 20
60.33049658
 10
281.9331553511
 20
60.3602405616
 10
281.9105882884
 20
60.3913298712
 10
281.8891272318
 20
60.4236314034
 10
281.8688640506
 20
60.4570068749
 10
281.8498855166
 20
60.4913133597
 10
281.8322728923
 20
60.5264039593
 10
281.8161015667
 20
60.5621284775
 10
281.8014407809
 20
60.5983339746
 10
281.7883533374
 20
60.6348653814
 10
281.7768952966
 20
60.6715662286
 10
281.7671157273
 20
60.708279352
 10
281.7590565078
 20
60.744847545
 10
281.7527521547
 20
60.7811141954
 10
281.7482296644
 20
60.8169239964
 10
281.7455084009
 20
60.8521236117
 10
281.7446000166
 20
60.8865623109
  0
LWPOLYLINE
  5
326
100
AcDbEntity
  8
0
100
AcDbPolyline
 62
250
  6
CONTINUOUS
 90
25
 70
0
 10
282.1688640853
 20
60.1548150343
 10
282.1411158808
 20
60.1698016732
 10
282.1134864916
 20
60.1869492148
 10
282.0860942312
 20
60.2061842323
 10
282.0590563974
 20
60.2274243602
 10
282.0324887713
 20
60.2505786459
 10
282.0065051217
 20
60.275547939
 10
281.9812167008
 20
60.3022253338
 10
281.9567318138
 20
60.33049658
 10
281.9331553511
 20
60.3602405616
 10
281.9105882884
 20
60.3913298712
 10
281.8891272318
 20
60.4236314034
 10
281.8688640506
 20
60.4570068749
 10
281.8498855166
 20
60.4913133597
 10
281.8322728923
 20
60.5264039593
 10
281.8161015667
 20
60.5621284775
 10
281.8014407809
 20
60.5983339746
 10
281.7883533374
 20
60.6348653814
 10
281.7768952966
 20
60.6715662286
 10
281.7671157273
 20
60.708279352
 10
281.7590565078
 20
60.744847545
 10
281.7527521547
 20
60.7811141954
 10
281.7482296644
 20
60.8169239964
 10
281.7455084009
 20
60.8521236117
 10
281.7446000166
 20
60.8865623109
  0
LWPOLYLINE
  5
327
100
AcDbEntity
  8
RACCORDO
100
AcDbPolyline
 62
250
  6
CONTINUOUS
 90
4
 70
0
 10
284.3816103755
 20
60.8101913882
 10
284.4009546948
 20
60.7975730743
 10
284.4212135883
 20
60.7855566982
 10
284.4423729066
 20
60.7743199711
  0
LWPOLYLINE
  5
328
100
AcDbEntity
  8
RACCORDO
100
AcDbPolyline
 62
7
  6
CONTINUOUS
 90
15
 70
0
 10
284.0344912662
 20
69.5908332342
 10
284.0505391311
 20
69.5221819397
 10
284.0665836502
 20
69.4434680484
 10
284.0800174854
 20
69.3651305773
 10
284.0908068108
 20
69.2873154509
 10
284.098920885
 20
69.210174357
 10
284.1043333315
 20
69.1338614717
 10
284.1070231898
 20
69.0585108867
 10
284.1069722928
 20
68.9842772703
 10
284.1041693871
 20
68.9113367537
 10
284.0986074918
 20
68.8398111257
 10
284.0902852162
 20
68.7698515272
 10
284.0792178443
 20
68.7016625272
 10
284.0654248369
 20
68.6353901385
 10
284.0489206335
 20
68.5711315473
  0
LWPOLYLINE
  5
329
100
AcDbEntity
  8
RACCORDO
100
AcDbPolyline
 62
250
  6
CONTINUOUS
 90
15
 70
0
 10
284.0056696267
 20
69.5559291775
 10
284.0224955537
 20
69.4830387941
 10
284.0373108241
 20
69.4095283995
 10
284.0500052249
 20
69.3355397272
 10
284.0605186988
 20
69.2608319072
 10
284.0686687854
 20
69.1859651224
 10
284.0742816695
 20
69.1122578245
 10
284.0773557911
 20
69.0405486645
 10
284.077980096
 20
68.9702263266
 10
284.076137546
 20
68.9004390352
 10
284.0717655854
 20
68.8314901116
 10
284.0647938882
 20
68.7634172336
 10
284.0549465231
 20
68.6951263509
 10
284.0419226446
 20
68.6265085156
 10
284.0255653611
 20
68.5583323023
  0
LWPOLYLINE
  5
32A
100
AcDbEntity
  8
RACCORDO
100
AcDbPolyline
 62
7
  6
CONTINUOUS
 90
6
 70
0
 10
282.4925628384
 20
61.0415356927
 10
282.4902449956
 20
61.0547110595
 10
282.4877552668
 20
61.0670124303
 10
282.4849968466
 20
61.0784193372
 10
282.4820084798
 20
61.0889630496
 10
282.4787624695
 20
61.0986508624
  0
LWPOLYLINE
  5
32B
100
AcDbEntity
  8
RACCORDO
100
AcDbPolyline
 62
250
  6
CONTINUOUS
 90
27
 70
0
 10
284.0086438191
 20
122.964909785
 10
284.012041661
 20
122.9305080985
 10
284.0170804886
 20
122.8955671362
 10
284.0237943086
 20
122.8601656215
 10
284.0321456421
 20
122.8245188589
 10
284.0419894607
 20
122.7889818647
 10
284.053281739
 20
122.753636521
 10
284.0659581359
 20
122.7186875464
 10
284.0797463768
 20
122.684659249
 10
284.0944802168
 20
122.6517200046
 10
284.1100776823
 20
122.6199003271
 10
284.1263118728
 20
122.5894746484
 10
284.1429988772
 20
122.5605455514
 10
284.160043899
 20
122.5330871978
 10
284.1773341922
 20
122.507144082
 10
284.1947476919
 20
122.4827074258
 10
284.2121680923
 20
122.4597754067
 10
284.2294955949
 20
122.4383779849
 10
284.2465345085
 20
122.4185831702
 10
284.2632747648
 20
122.4002316161
 10
284.2799252396
 20
122.3830285692
 10
284.2963178564
 20
122.3670692619
 10
284.3124977592
 20
122.3521945993
 10
284.3290631088
 20
122.3378401711
 10
284.3460385721
 20
122.3240539318
 10
284.3633709565
 20
122.3108956964
 10
284.3816103755
 20
122.2979950569
  0
LINE
  5
32C
100
AcDbEntity
  8
RACCORDO
100
AcDbLine
 62
250
  6
CONTINUOUS
 10
284.0680615089
 20
130.6730740101
 11
284.0736275068
 21
130.5995743836
  0
LINE
  5
32D
100
AcDbEntity
  8
RACCORDO
100
AcDbLine
 62
7
  6
CONTINUOUS
 10
284.0991752959
 20
130.6871433306
 11
284.1041243584
 21
130.6123503086
  0
LINE
  5
32E
100
AcDbEntity
  8
RACCORDO
100
AcDbLine
 62
250
  6
CONTINUOUS
 10
284.0068818018
 20
122.9986264414
 11
284.0086438191
 21
122.964909785
  0
LWPOLYLINE
  5
32F
100
AcDbEntity
  8
RACCORDO
100
AcDbPolyline
 62
250
  6
CONTINUOUS
 90
9
 70
0
 10
284.0736275068
 20
130.5995743836
 10
284.0766721776
 20
130.5279161851
 10
284.0772690077
 20
130.4575617819
 10
284.0753985707
 20
130.3878134181
 10
284.0710051878
 20
130.318963723
 10
284.0640259907
 20
130.2510524038
 10
284.0542185297
 20
130.1831373499
 10
284.0413202449
 20
130.1151387991
 10
284.025196053
 20
130.0477450324
  0
LWPOLYLINE
  5
330
100
AcDbEntity
  8
RACCORDO
100
AcDbPolyline
 62
7
  6
CONTINUOUS
 90
9
 70
0
 10
284.1041243584
 20
130.6123503086
 10
284.1064472718
 20
130.5385031654
 10
284.1061274117
 20
130.4657480782
 10
284.1031547221
 20
130.3942523576
 10
284.0975229867
 20
130.3241311154
 10
284.089231275
 20
130.2555269778
 10
284.0782944786
 20
130.1886338832
 10
284.0647311846
 20
130.1235900955
 10
284.048555055
 20
130.0604873111
  0
LWPOLYLINE
  5
331
100
AcDbEntity
  8
RACCORDO
100
AcDbPolyline
 62
250
  6
CONTINUOUS
 90
13
 70
0
 10
281.9567320509
 20
168.25862322
 10
281.9573252151
 20
168.2395043543
 10
281.9591013905
 20
168.2210855732
 10
281.9620506439
 20
168.203469882
 10
281.966156482
 20
168.1867557949
 10
281.9713959433
 20
168.1710367837
 10
281.9777397265
 20
168.1564007557
 10
281.9851523546
 20
168.1429295613
 10
281.9935923732
 20
168.1306985369
 10
282.0030125824
 20
168.1197760835
 10
282.0133603004
 20
168.1102232838
 10
282.0245776587
 20
168.1020935609
 10
282.0347000066
 20
168.0963610799
  0
LWPOLYLINE
  5
332
100
AcDbEntity
  8
0
100
AcDbPolyline
 62
250
  6
CONTINUOUS
 90
13
 70
0
 10
281.9567320509
 20
168.25862322
 10
281.9573252151
 20
168.2395043543
 10
281.9591013905
 20
168.2210855732
 10
281.9620506439
 20
168.203469882
 10
281.966156482
 20
168.1867557949
 10
281.9713959433
 20
168.1710367837
 10
281.9777397265
 20
168.1564007557
 10
281.9851523546
 20
168.1429295613
 10
281.9935923732
 20
168.1306985369
 10
282.0030125824
 20
168.1197760835
 10
282.0133603004
 20
168.1102232838
 10
282.0245776587
 20
168.1020935609
 10
282.0347000066
 20
168.0963610799
  0
LINE
  5
333
100
AcDbEntity
  8
DRAFT
100
AcDbLine
 62
7
  6
CONTINUOUS
 10
285.3257212253
 20
137.4238499537
 11
285.3257212253
 21
134.1454646075
  0
LINE
  5
334
100
AcDbEntity
  8
DRAFT
100
AcDbLine
 62
7
  6
CONTINUOUS
 10
285.3257212253
 20
75.936046285
 11
285.3257212253
 21
72.6576609388
  0
LINE
  5
335
100
AcDbEntity
  8
DRAFT
100
AcDbLine
 62
7
  6
CONTINUOUS
 10
285.3257212253
 20
14.4482426163
 11
285.3257212253
 21
11.1698572701
  0
LWPOLYLINE
  5
336
100
AcDbEntity
  8
RACCORDO
100
AcDbPolyline
 62
7
  6
CONTINUOUS
 90
9
 70
0
 10
284.0349478215
 20
32.9455469523
 10
284.0348364712
 20
32.9433732735
 10
284.0338750551
 20
32.9382393001
 10
284.0318276743
 20
32.9331855074
 10
284.0287279144
 20
32.9282094157
 10
284.0246736587
 20
32.9234681589
 10
284.0196975354
 20
32.9190141153
 10
284.0137669164
 20
32.9147949066
 10
284.0068818018
 20
32.910810533
  0
LWPOLYLINE
  5
337
100
AcDbEntity
  8
RACCORDO
100
AcDbPolyline
 62
250
  6
CONTINUOUS
 90
5
 70
0
 10
284.0754034434
 20
7.4123142974
 10
284.0710141437
 20
7.3434643578
 10
284.064038635
 20
7.2755478512
 10
284.0542332949
 20
7.2076187806
 10
284.0413342159
 20
7.1395968302
  0
LWPOLYLINE
  5
338
100
AcDbEntity
  8
RACCORDO
100
AcDbPolyline
 62
7
  6
CONTINUOUS
 90
4
 70
0
 10
284.1039848131
 20
7.433272841
 10
284.0989023148
 20
7.3628667022
 10
284.0911603021
 20
7.2939477798
 10
284.0807714742
 20
7.2267079527
  0
LINE
  5
339
100
AcDbEntity
  8
DRAFT
100
AcDbLine
 62
7
  6
CONTINUOUS
 10
286.8835918292
 20
59.6984876026
 11
286.8673009424
 21
59.6043624641
  0
LINE
  5
33A
100
AcDbEntity
  8
DRAFT
100
AcDbLine
 62
7
  6
CONTINUOUS
 10
293.2662415726
 20
118.0089983119
 11
293.2305092094
 21
117.8278062845
  0
LINE
  5
33B
100
AcDbEntity
  8
RACCORDO
100
AcDbLine
 62
250
  6
CONTINUOUS
 10
284.0255653611
 20
68.5583323023
 11
284.0056696267
 21
68.4909545964
  0
LINE
  5
33C
100
AcDbEntity
  8
RACCORDO
100
AcDbLine
 62
7
  6
CONTINUOUS
 10
284.0489206335
 20
68.5711315473
 11
284.0331785642
 21
68.5194120053
  0
LINE
  5
33D
100
AcDbEntity
  8
RACCORDO
100
AcDbLine
 62
250
  6
CONTINUOUS
 10
282.9768927686
 20
60.3871967957
 11
284.4423729066
 21
60.7743199711
  0
LINE
  5
33E
100
AcDbEntity
  8
RACCORDO
100
AcDbLine
 62
250
  6
CONTINUOUS
 10
282.477188061
 20
61.1067368469
 11
284.0068818018
 21
61.5108227727
  0
LINE
  5
33F
100
AcDbEntity
  8
DRAFT
100
AcDbLine
 62
7
  6
CONTINUOUS
 10
286.7473804935
 20
59.6643226886
 11
286.8835918292
 21
59.6984876026
  0
LINE
  5
340
100
AcDbEntity
  8
RACCORDO
100
AcDbLine
 62
7
  6
CONTINUOUS
 10
285.1158248762
 20
60.5823710791
 11
284.9230003042
 21
60.5340062724
  0
LWPOLYLINE
  5
341
100
AcDbEntity
  8
RACCORDO
100
AcDbPolyline
 62
7
  6
CONTINUOUS
 90
15
 70
0
 10
284.0344912662
 20
101.2873630127
 10
284.0505391311
 20
101.2187117182
 10
284.0665836502
 20
101.1399978269
 10
284.0800174854
 20
101.0616603558
 10
284.0908068108
 20
100.9838452294
 10
284.098920885
 20
100.9067041355
 10
284.1043333315
 20
100.8303912502
 10
284.1070231898
 20
100.7550406652
 10
284.1069722928
 20
100.6808070488
 10
284.1041693871
 20
100.6078665322
 10
284.0986074918
 20
100.5363409042
 10
284.0902852162
 20
100.4663813057
 10
284.0792178443
 20
100.3981923057
 10
284.0654248369
 20
100.331919917
 10
284.0489206335
 20
100.2676613258
  0
LWPOLYLINE
  5
342
100
AcDbEntity
  8
RACCORDO
100
AcDbPolyline
 62
250
  6
CONTINUOUS
 90
15
 70
0
 10
284.0056696267
 20
101.252458956
 10
284.0224955537
 20
101.1795685726
 10
284.0373108241
 20
101.106058178
 10
284.0500052249
 20
101.0320695057
 10
284.0605186988
 20
100.9573616857
 10
284.0686687854
 20
100.8824949009
 10
284.0742816695
 20
100.8087876031
 10
284.0773557911
 20
100.737078443
 10
284.077980096
 20
100.6667561051
 10
284.076137546
 20
100.5969688138
 10
284.0717655854
 20
100.5280198901
 10
284.0647938882
 20
100.4599470121
 10
284.0549465231
 20
100.3916561294
 10
284.0419226446
 20
100.3230382941
 10
284.0255653611
 20
100.2548620808
  0
LWPOLYLINE
  5
343
100
AcDbEntity
  8
RACCORDO
100
AcDbPolyline
 62
7
  6
CONTINUOUS
 90
6
 70
0
 10
282.4925628384
 20
122.5293393614
 10
282.4902449956
 20
122.5425147282
 10
282.4877552668
 20
122.554816099
 10
282.4849968466
 20
122.5662230059
 10
282.4820084798
 20
122.5767667183
 10
282.4787624695
 20
122.5864545311
  0
LINE
  5
344
100
AcDbEntity
  8
DRAFT
100
AcDbLine
 62
7
  6
CONTINUOUS
 10
293.2475528599
 20
56.5165070872
 11
293.2180796488
 21
56.3462173962
  0
LWPOLYLINE
  5
345
100
AcDbEntity
  8
RACCORDO
100
AcDbPolyline
 62
7
  6
CONTINUOUS
 90
4
 70
0
 10
284.0807714742
 20
7.2267079527
 10
284.0677525843
 20
7.1612855947
 10
284.0521161942
 20
7.0977743541
 10
284.0460476652
 20
7.0760844741
  0
LWPOLYLINE
  5
346
100
AcDbEntity
  8
RACCORDO
100
AcDbPolyline
 62
250
  6
CONTINUOUS
 90
3
 70
0
 10
284.0413342159
 20
7.1395968302
 10
284.0252053581
 20
7.0721727205
 10
284.0056692711
 20
7.0056740167
  0
LINE
  5
347
100
AcDbEntity
  8
RACCORDO
100
AcDbLine
 62
250
  6
CONTINUOUS
 10
284.0251989233
 20
38.7686782774
 11
284.0056696306
 21
38.7022049081
  0
LINE
  5
348
100
AcDbEntity
  8
RACCORDO
100
AcDbLine
 62
7
  6
CONTINUOUS
 10
284.048793325
 20
38.7822574047
 11
284.0332013056
 21
38.7307192927
  0
LINE
  5
349
100
AcDbEntity
  8
RACCORDO
100
AcDbLine
 62
7
  6
CONTINUOUS
 10
282.477188061
 20
68.6551528729
 11
282.9790252812
 21
68.954029055
  0
LWPOLYLINE
  5
34A
100
AcDbEntity
  8
RACCORDO
100
AcDbPolyline
 62
7
  6
CONTINUOUS
 90
7
 70
0
 10
284.0068818018
 20
68.4915042781
 10
284.0134655711
 20
68.4953886211
 10
284.0193147085
 20
68.4997670961
 10
284.0243456506
 20
68.5046060743
 10
284.0284992112
 20
68.5098994539
 10
284.0316748457
 20
68.515572053
 10
284.0331784645
 20
68.5194167207
  0
LINE
  5
34B
100
AcDbEntity
  8
RACCORDO
100
AcDbLine
 62
7
  6
CONTINUOUS
 10
282.9790252812
 20
68.954029055
 11
283.6605691129
 21
69.3548198301
  0
LINE
  5
34C
100
AcDbEntity
  8
DRAFT
100
AcDbLine
 62
7
  6
CONTINUOUS
 10
284.0068818018
 20
71.8886567585
 11
285.3257212253
 21
72.6576609388
  0
LINE
  5
34D
100
AcDbEntity
  8
RACCORDO
100
AcDbLine
 62
7
  6
CONTINUOUS
 10
283.6605691129
 20
69.3548198301
 11
284.0068818018
 21
69.556636881
  0
LINE
  5
34E
100
AcDbEntity
  8
RACCORDO
100
AcDbLine
 62
7
  6
CONTINUOUS
 10
282.3809961197
 20
67.7549821021
 11
282.477188061
 21
67.8089426293
  0
LWPOLYLINE
  5
34F
100
AcDbEntity
  8
RACCORDO
100
AcDbPolyline
 62
7
  6
CONTINUOUS
 90
9
 70
0
 10
284.0068818018
 20
69.5566354636
 10
284.0134655712
 20
69.5602898793
 10
284.0193147086
 20
69.5641520932
 10
284.0243456506
 20
69.5681884767
 10
284.0284992112
 20
69.5723771349
 10
284.0316748456
 20
69.5766586789
 10
284.0337849273
 20
69.5809280296
 10
284.0348207674
 20
69.5850796004
 10
284.0349478218
 20
69.5870915263
  0
LINE
  5
350
100
AcDbEntity
  8
DRAFT
100
AcDbLine
 62
7
  6
CONTINUOUS
 10
285.3257212253
 20
75.936046285
 11
283.9374053832
 21
75.3079184413
  0
LINE
  5
351
100
AcDbEntity
  8
RACCORDO
100
AcDbLine
 62
7
  6
CONTINUOUS
 10
283.3179641875
 20
68.1807655576
 11
284.0068818018
 21
68.4915028607
  0
LINE
  5
352
100
AcDbEntity
  8
RACCORDO
100
AcDbLine
 62
7
  6
CONTINUOUS
 10
282.81086449
 20
67.9553751745
 11
283.3179641875
 21
68.1807655576
  0
LINE
  5
353
100
AcDbEntity
  8
RACCORDO
100
AcDbLine
 62
7
  6
CONTINUOUS
 10
282.477188061
 20
67.8089426293
 11
282.81086449
 21
67.9553751745
  0
LINE
  5
354
100
AcDbEntity
  8
RACCORDO
100
AcDbLine
 62
7
  6
CONTINUOUS
 10
282.3809961197
 20
68.6162219222
 11
282.477188061
 21
68.6551528729
  0
LINE
  5
355
100
AcDbEntity
  8
RACCORDO
100
AcDbLine
 62
7
  6
CONTINUOUS
 10
284.5302772153
 20
76.3007736205
 11
283.9654714031
 21
76.0809443054
  0
LINE
  5
356
100
AcDbEntity
  8
RACCORDO
100
AcDbLine
 62
250
  6
CONTINUOUS
 10
284.6132963385
 20
76.2922587284
 11
283.9654714031
 21
76.0401173574
  0
LINE
  5
357
100
AcDbEntity
  8
RACCORDO
100
AcDbLine
 62
7
  6
CONTINUOUS
 10
284.6132963385
 20
76.2922587284
 11
285.3257212253
 21
75.936046285
  0
LWPOLYLINE
  5
358
100
AcDbEntity
  8
RACCORDO
100
AcDbPolyline
 62
250
  6
CONTINUOUS
 90
3
 70
0
 10
284.0056692711
 20
131.0412101127
 10
284.0223184078
 20
130.9687535844
 10
284.0369875106
 20
130.8956407325
  0
LINE
  5
359
100
AcDbEntity
  8
RACCORDO
100
AcDbLine
 62
7
  6
CONTINUOUS
 10
284.058703204
 20
130.9683768682
 11
284.0687882968
 21
130.9158561359
  0
LWPOLYLINE
  5
35A
100
AcDbEntity
  8
RACCORDO
100
AcDbPolyline
 62
250
  6
CONTINUOUS
 90
4
 70
0
 10
284.0369875106
 20
130.8956407325
 10
284.0495639025
 20
130.8220119035
 10
284.0599824811
 20
130.7476423771
 10
284.0680615089
 20
130.6730740101
  0
LWPOLYLINE
  5
35B
100
AcDbEntity
  8
RACCORDO
100
AcDbPolyline
 62
7
  6
CONTINUOUS
 90
4
 70
0
 10
284.0687882968
 20
130.9158561359
 10
284.0814808909
 20
130.8390411507
 10
284.0916193605
 20
130.7627557057
 10
284.0991752959
 20
130.6871433306
  0
LINE
  5
35C
100
AcDbEntity
  8
DRAFT
100
AcDbLine
 62
7
  6
CONTINUOUS
 10
286.9022805419
 20
-1.7846285101
 11
286.876078425
 21
-1.9174944685
  0
LINE
  5
35D
100
AcDbEntity
  8
DRAFT
100
AcDbLine
 62
7
  6
CONTINUOUS
 10
309.4589868617
 20
109.9126256673
 11
309.4327847449
 21
109.779759709
  0
LWPOLYLINE
  5
35E
100
AcDbEntity
  8
RACCORDO
100
AcDbPolyline
 62
7
  6
CONTINUOUS
 90
15
 70
0
 10
284.0460496332
 20
7.0760844577
 10
284.0442552991
 20
7.0700612792
 10
284.0420702113
 20
7.0632714843
 10
284.0397825799
 20
7.0566892734
 10
284.0373856035
 20
7.0503226403
 10
284.0348360728
 20
7.0441824304
 10
284.0321219364
 20
7.0382193513
 10
284.0292552457
 20
7.0324826954
 10
284.026228945
 20
7.0271311846
 10
284.0230049767
 20
7.0221345259
 10
284.0196213984
 20
7.0175230122
 10
284.016185327
 20
7.0135462444
 10
284.0127324682
 20
7.0102874227
 10
284.0092271162
 20
7.0076633468
 10
284.0056692711
 20
7.0056740167
  0
LINE
  5
35F
100
AcDbEntity
  8
RACCORDO
100
AcDbLine
 62
250
  6
CONTINUOUS
 10
282.3967271766
 20
61.0573169178
 11
282.4787624695
 21
61.0986508624
  0
LINE
  5
360
100
AcDbEntity
  8
RACCORDO
100
AcDbLine
 62
250
  6
CONTINUOUS
 10
281.7446000166
 20
60.8865623109
 11
282.3809961197
 21
61.2047603625
  0
LINE
  5
361
100
AcDbEntity
  8
0
100
AcDbLine
 62
250
  6
CONTINUOUS
 10
281.7446000166
 20
60.8865623109
 11
282.3809961197
 21
61.2047603625
  0
LINE
  5
362
100
AcDbEntity
  8
RACCORDO
100
AcDbLine
 62
250
  6
CONTINUOUS
 10
282.1688640853
 20
60.1548150343
 11
282.8052601884
 21
60.4730130859
  0
LINE
  5
363
100
AcDbEntity
  8
0
100
AcDbLine
 62
250
  6
CONTINUOUS
 10
282.1688640853
 20
60.1548150343
 11
282.8052601884
 21
60.4730130859
  0
LWPOLYLINE
  5
364
100
AcDbEntity
  8
RACCORDO
100
AcDbPolyline
 62
7
  6
CONTINUOUS
 90
15
 70
0
 10
284.0344940917
 20
162.7726576535
 10
284.0503866434
 20
162.704353479
 10
284.0662759571
 20
162.6260376848
 10
284.0795793735
 20
162.548098595
 10
284.090263666
 20
162.4706799507
 10
284.098298628
 20
162.3939311856
 10
284.103658332
 20
162.3180042105
 10
284.1063221638
 20
162.2430311494
 10
284.1062722505
 20
162.169164349
 10
284.1034974923
 20
162.0965773145
 10
284.097990985
 20
162.0253901418
 10
284.0897512955
 20
161.9557516904
 10
284.078793294
 20
161.8878633516
 10
284.065135946
 20
161.8218690471
 10
284.048793325
 20
161.7578647421
  0
LWPOLYLINE
  5
365
100
AcDbEntity
  8
RACCORDO
100
AcDbPolyline
 62
250
  6
CONTINUOUS
 90
15
 70
0
 10
284.0056696306
 20
162.7377384188
 10
284.0223137948
 20
162.665304785
 10
284.0369803242
 20
162.5922091744
 10
284.0495560823
 20
162.5185919213
 10
284.0599757785
 20
162.4442260317
 10
284.0680567144
 20
162.3696558318
 10
284.0736244487
 20
162.2961558713
 10
284.0766707089
 20
162.2245033026
 10
284.0772695794
 20
162.1541557405
 10
284.0754015191
 20
162.0844086617
 10
284.0710099859
 20
162.0155513381
 10
284.0640315835
 20
161.9476276394
 10
284.0542240128
 20
161.8797000891
 10
284.0413249135
 20
161.8116904197
 10
284.0251989233
 20
161.7442856148
  0
LWPOLYLINE
  5
366
100
AcDbEntity
  8
RACCORDO
100
AcDbPolyline
 62
250
  6
CONTINUOUS
 90
13
 70
0
 10
313.3169177966
 20
29.6029230098
 10
313.3175109608
 20
29.5838041441
 10
313.3192871361
 20
29.5653853629
 10
313.3222363896
 20
29.5477696718
 10
313.3263422277
 20
29.5310555846
 10
313.3315816889
 20
29.5153365735
 10
313.3379254721
 20
29.5007005454
 10
313.3453381002
 20
29.487229351
 10
313.3537781189
 20
29.4749983267
 10
313.363198328
 20
29.4640758733
 10
313.3735460461
 20
29.4545230736
 10
313.3847634044
 20
29.4463933507
 10
313.3948857523
 20
29.4406608697
  0
LWPOLYLINE
  5
367
100
AcDbEntity
  8
0
100
AcDbPolyline
 62
250
  6
CONTINUOUS
 90
13
 70
0
 10
313.3169177966
 20
29.6029230098
 10
313.3175109608
 20
29.5838041441
 10
313.3192871361
 20
29.5653853629
 10
313.3222363896
 20
29.5477696718
 10
313.3263422277
 20
29.5310555846
 10
313.3315816889
 20
29.5153365735
 10
313.3379254721
 20
29.5007005454
 10
313.3453381002
 20
29.487229351
 10
313.3537781189
 20
29.4749983267
 10
313.363198328
 20
29.4640758733
 10
313.3735460461
 20
29.4545230736
 10
313.3847634044
 20
29.4463933507
 10
313.3948857523
 20
29.4406608697
  0
LWPOLYLINE
  5
368
100
AcDbEntity
  8
RACCORDO
100
AcDbPolyline
 62
250
  6
CONTINUOUS
 90
13
 70
0
 10
313.3169177966
 20
91.0907266785
 10
313.3175109608
 20
91.0716078127
 10
313.3192871361
 20
91.0531890316
 10
313.3222363896
 20
91.0355733405
 10
313.3263422277
 20
91.0188592533
 10
313.3315816889
 20
91.0031402422
 10
313.3379254721
 20
90.9885042141
 10
313.3453381002
 20
90.9750330197
 10
313.3537781189
 20
90.9628019954
 10
313.363198328
 20
90.951879542
 10
313.3735460461
 20
90.9423267423
 10
313.3847634044
 20
90.9341970194
 10
313.3948857523
 20
90.9284645384
  0
LWPOLYLINE
  5
369
100
AcDbEntity
  8
0
100
AcDbPolyline
 62
250
  6
CONTINUOUS
 90
13
 70
0
 10
313.3169177966
 20
91.0907266785
 10
313.3175109608
 20
91.0716078127
 10
313.3192871361
 20
91.0531890316
 10
313.3222363896
 20
91.0355733405
 10
313.3263422277
 20
91.0188592533
 10
313.3315816889
 20
91.0031402422
 10
313.3379254721
 20
90.9885042141
 10
313.3453381002
 20
90.9750330197
 10
313.3537781189
 20
90.9628019954
 10
313.363198328
 20
90.951879542
 10
313.3735460461
 20
90.9423267423
 10
313.3847634044
 20
90.9341970194
 10
313.3948857523
 20
90.9284645384
  0
LWPOLYLINE
  5
36A
100
AcDbEntity
  8
RACCORDO
100
AcDbPolyline
 62
250
  6
CONTINUOUS
 90
13
 70
0
 10
313.3169177966
 20
152.5785303472
 10
313.3175109608
 20
152.5594114814
 10
313.3192871361
 20
152.5409927003
 10
313.3222363896
 20
152.5233770092
 10
313.3263422277
 20
152.506662922
 10
313.3315816889
 20
152.4909439109
 10
313.3379254721
 20
152.4763078828
 10
313.3453381002
 20
152.4628366884
 10
313.3537781189
 20
152.4506056641
 10
313.363198328
 20
152.4396832107
 10
313.3735460461
 20
152.430130411
 10
313.3847634044
 20
152.4220006881
 10
313.3948857523
 20
152.4162682071
  0
LWPOLYLINE
  5
36B
100
AcDbEntity
  8
0
100
AcDbPolyline
 62
250
  6
CONTINUOUS
 90
13
 70
0
 10
313.3169177966
 20
152.5785303472
 10
313.3175109608
 20
152.5594114814
 10
313.3192871361
 20
152.5409927003
 10
313.3222363896
 20
152.5233770092
 10
313.3263422277
 20
152.506662922
 10
313.3315816889
 20
152.4909439109
 10
313.3379254721
 20
152.4763078828
 10
313.3453381002
 20
152.4628366884
 10
313.3537781189
 20
152.4506056641
 10
313.363198328
 20
152.4396832107
 10
313.3735460461
 20
152.430130411
 10
313.3847634044
 20
152.4220006881
 10
313.3948857523
 20
152.4162682071
  0
LINE
  5
36C
100
AcDbEntity
  8
RACCORDO
100
AcDbLine
 62
7
  6
CONTINUOUS
 10
313.865445934
 20
151.5869754494
 11
313.865445934
 21
106.1639430209
  0
LINE
  5
36D
100
AcDbEntity
  8
0
100
AcDbLine
 62
7
  6
CONTINUOUS
 10
313.865445934
 20
151.5869754494
 11
313.865445934
 21
106.1639430209
  0
LINE
  5
36E
100
AcDbEntity
  8
RACCORDO
100
AcDbLine
 62
7
  6
CONTINUOUS
 10
313.865445934
 20
90.0991717807
 11
313.865445934
 21
44.6761393522
  0
LINE
  5
36F
100
AcDbEntity
  8
0
100
AcDbLine
 62
7
  6
CONTINUOUS
 10
313.865445934
 20
90.0991717807
 11
313.865445934
 21
44.6761393522
  0
LINE
  5
370
100
AcDbEntity
  8
RACCORDO
100
AcDbLine
 62
7
  6
CONTINUOUS
 10
313.865445934
 20
28.611368112
 11
313.865445934
 21
-16.8116643165
  0
LINE
  5
371
100
AcDbEntity
  8
0
100
AcDbLine
 62
7
  6
CONTINUOUS
 10
313.865445934
 20
28.611368112
 11
313.865445934
 21
-16.8116643165
  0
LINE
  5
372
100
AcDbEntity
  8
RACCORDO
100
AcDbLine
 62
250
  6
CONTINUOUS
 10
313.9533138996
 20
151.4809094323
 11
313.9533138996
 21
106.0578770038
  0
LINE
  5
373
100
AcDbEntity
  8
0
100
AcDbLine
 62
250
  6
CONTINUOUS
 10
313.9533138996
 20
151.4809094323
 11
313.9533138996
 21
106.0578770038
  0
LINE
  5
374
100
AcDbEntity
  8
RACCORDO
100
AcDbLine
 62
250
  6
CONTINUOUS
 10
313.9533138996
 20
89.9931057636
 11
313.9533138996
 21
44.5700733351
  0
LINE
  5
375
100
AcDbEntity
  8
0
100
AcDbLine
 62
250
  6
CONTINUOUS
 10
313.9533138996
 20
89.9931057636
 11
313.9533138996
 21
44.5700733351
  0
LINE
  5
376
100
AcDbEntity
  8
RACCORDO
100
AcDbLine
 62
250
  6
CONTINUOUS
 10
313.9533138996
 20
28.5053020949
 11
313.9533138996
 21
-16.9177303336
  0
LINE
  5
377
100
AcDbEntity
  8
0
100
AcDbLine
 62
250
  6
CONTINUOUS
 10
313.9533138996
 20
28.5053020949
 11
313.9533138996
 21
-16.9177303336
  0
LWPOLYLINE
  5
378
100
AcDbEntity
  8
RACCORDO
100
AcDbPolyline
 62
7
  6
CONTINUOUS
 90
16
 70
0
 10
313.865445934
 20
106.1639430209
 10
313.8648206332
 20
106.1358034882
 10
313.8630119277
 20
106.1093995667
 10
313.8601333956
 20
106.0848547123
 10
313.8563248643
 20
106.0623240179
 10
313.8517204604
 20
106.0418129392
 10
313.8464362288
 20
106.0232594109
 10
313.8406426768
 20
106.0067748046
 10
313.8345089857
 20
105.9923823495
 10
313.8281798031
 20
105.9800185144
 10
313.8218775745
 20
105.9697357656
 10
313.8158442374
 20
105.9615278075
 10
313.8102640048
 20
105.9552466469
 10
313.8052860997
 20
105.9506809019
 10
313.8010010807
 20
105.9475495857
 10
313.7973779882
 20
105.9454847579
  0
LWPOLYLINE
  5
379
100
AcDbEntity
  8
0
100
AcDbPolyline
 62
7
  6
CONTINUOUS
 90
16
 70
0
 10
313.865445934
 20
106.1639430209
 10
313.8648206332
 20
106.1358034882
 10
313.8630119277
 20
106.1093995667
 10
313.8601333956
 20
106.0848547123
 10
313.8563248643
 20
106.0623240179
 10
313.8517204604
 20
106.0418129392
 10
313.8464362288
 20
106.0232594109
 10
313.8406426768
 20
106.0067748046
 10
313.8345089857
 20
105.9923823495
 10
313.8281798031
 20
105.9800185144
 10
313.8218775745
 20
105.9697357656
 10
313.8158442374
 20
105.9615278075
 10
313.8102640048
 20
105.9552466469
 10
313.8052860997
 20
105.9506809019
 10
313.8010010807
 20
105.9475495857
 10
313.7973779882
 20
105.9454847579
  0
LWPOLYLINE
  5
37A
100
AcDbEntity
  8
RACCORDO
100
AcDbPolyline
 62
7
  6
CONTINUOUS
 90
16
 70
0
 10
313.865445934
 20
44.6761393522
 10
313.8648206332
 20
44.6479998195
 10
313.8630119277
 20
44.621595898
 10
313.8601333956
 20
44.5970510437
 10
313.8563248643
 20
44.5745203492
 10
313.8517204604
 20
44.5540092705
 10
313.8464362288
 20
44.5354557422
 10
313.8406426768
 20
44.5189711359
 10
313.8345089857
 20
44.5045786808
 10
313.8281798031
 20
44.4922148457
 10
313.8218775745
 20
44.481932097
 10
313.8158442374
 20
44.4737241388
 10
313.8102640048
 20
44.4674429782
 10
313.8052860997
 20
44.4628772333
 10
313.8010010807
 20
44.459745917
 10
313.7973779882
 20
44.4576810892
  0
LWPOLYLINE
  5
37B
100
AcDbEntity
  8
0
100
AcDbPolyline
 62
7
  6
CONTINUOUS
 90
16
 70
0
 10
313.865445934
 20
44.6761393522
 10
313.8648206332
 20
44.6479998195
 10
313.8630119277
 20
44.621595898
 10
313.8601333956
 20
44.5970510437
 10
313.8563248643
 20
44.5745203492
 10
313.8517204604
 20
44.5540092705
 10
313.8464362288
 20
44.5354557422
 10
313.8406426768
 20
44.5189711359
 10
313.8345089857
 20
44.5045786808
 10
313.8281798031
 20
44.4922148457
 10
313.8218775745
 20
44.481932097
 10
313.8158442374
 20
44.4737241388
 10
313.8102640048
 20
44.4674429782
 10
313.8052860997
 20
44.4628772333
 10
313.8010010807
 20
44.459745917
 10
313.7973779882
 20
44.4576810892
  0
LWPOLYLINE
  5
37C
100
AcDbEntity
  8
RACCORDO
100
AcDbPolyline
 62
7
  6
CONTINUOUS
 90
16
 70
0
 10
313.865445934
 20
-16.8116643165
 10
313.8648206332
 20
-16.8398038492
 10
313.8630119277
 20
-16.8662077707
 10
313.8601333956
 20
-16.890752625
 10
313.8563248643
 20
-16.9132833195
 10
313.8517204604
 20
-16.9337943982
 10
313.8464362288
 20
-16.9523479265
 10
313.8406426768
 20
-16.9688325328
 10
313.8345089857
 20
-16.9832249879
 10
313.8281798031
 20
-16.995588823
 10
313.8218775745
 20
-17.0058715717
 10
313.8158442374
 20
-17.0140795299
 10
313.8102640048
 20
-17.0203606905
 10
313.8052860997
 20
-17.0249264354
 10
313.8010010807
 20
-17.0280577517
 10
313.7973779882
 20
-17.0301225795
  0
LWPOLYLINE
  5
37D
100
AcDbEntity
  8
0
100
AcDbPolyline
 62
7
  6
CONTINUOUS
 90
16
 70
0
 10
313.865445934
 20
-16.8116643165
 10
313.8648206332
 20
-16.8398038492
 10
313.8630119277
 20
-16.8662077707
 10
313.8601333956
 20
-16.890752625
 10
313.8563248643
 20
-16.9132833195
 10
313.8517204604
 20
-16.9337943982
 10
313.8464362288
 20
-16.9523479265
 10
313.8406426768
 20
-16.9688325328
 10
313.8345089857
 20
-16.9832249879
 10
313.8281798031
 20
-16.995588823
 10
313.8218775745
 20
-17.0058715717
 10
313.8158442374
 20
-17.0140795299
 10
313.8102640048
 20
-17.0203606905
 10
313.8052860997
 20
-17.0249264354
 10
313.8010010807
 20
-17.0280577517
 10
313.7973779882
 20
-17.0301225795
  0
LWPOLYLINE
  5
37E
100
AcDbEntity
  8
RACCORDO
100
AcDbPolyline
 62
250
  6
CONTINUOUS
 90
28
 70
0
 10
313.9533138996
 20
106.0578770038
 10
313.9522450477
 20
106.0131472931
 10
313.9490522952
 20
105.9698374923
 10
313.9437356422
 20
105.9279476012
 10
313.9362608487
 20
105.8873094539
 10
313.9266621547
 20
105.8480912163
 10
313.9150422799
 20
105.8107973865
 10
313.9013843082
 20
105.7754887345
 10
313.8857051557
 20
105.7421044903
 10
313.8681582909
 20
105.7109668415
 10
313.8487222516
 20
105.6820916322
 10
313.8274184999
 20
105.6554630185
 10
313.8044648908
 20
105.6313556565
 10
313.7798458608
 20
105.6097971367
 10
313.7535769734
 20
105.5907598686
 10
313.7259227734
 20
105.5744357372
 10
313.6968666859
 20
105.5608519043
 10
313.6664252858
 20
105.549981208
 10
313.6349128425
 20
105.5419340467
 10
313.6023254882
 20
105.5367390539
 10
313.5686670907
 20
105.5343675962
 10
313.5342635226
 20
105.534844172
 10
313.4990725739
 20
105.5382106191
 10
313.4631364545
 20
105.5444250997
 10
313.4269076669
 20
105.5533865988
 10
313.3905370451
 20
105.5650614447
 10
313.353873755
 20
105.5794833091
 10
313.3169177966
 20
105.5966521919
  0
LWPOLYLINE
  5
37F
100
AcDbEntity
  8
0
100
AcDbPolyline
 62
250
  6
CONTINUOUS
 90
28
 70
0
 10
313.9533138996
 20
106.0578770038
 10
313.9522450477
 20
106.0131472931
 10
313.9490522952
 20
105.9698374923
 10
313.9437356422
 20
105.9279476012
 10
313.9362608487
 20
105.8873094539
 10
313.9266621547
 20
105.8480912163
 10
313.9150422799
 20
105.8107973865
 10
313.9013843082
 20
105.7754887345
 10
313.8857051557
 20
105.7421044903
 10
313.8681582909
 20
105.7109668415
 10
313.8487222516
 20
105.6820916322
 10
313.8274184999
 20
105.6554630185
 10
313.8044648908
 20
105.6313556565
 10
313.7798458608
 20
105.6097971367
 10
313.7535769734
 20
105.5907598686
 10
313.7259227734
 20
105.5744357372
 10
313.6968666859
 20
105.5608519043
 10
313.6664252858
 20
105.549981208
 10
313.6349128425
 20
105.5419340467
 10
313.6023254882
 20
105.5367390539
 10
313.5686670907
 20
105.5343675962
 10
313.5342635226
 20
105.534844172
 10
313.4990725739
 20
105.5382106191
 10
313.4631364545
 20
105.5444250997
 10
313.4269076669
 20
105.5533865988
 10
313.3905370451
 20
105.5650614447
 10
313.353873755
 20
105.5794833091
 10
313.3169177966
 20
105.5966521919
  0
LWPOLYLINE
  5
380
100
AcDbEntity
  8
RACCORDO
100
AcDbPolyline
 62
250
  6
CONTINUOUS
 90
28
 70
0
 10
313.9533138996
 20
44.5700733351
 10
313.9522450477
 20
44.5253436244
 10
313.9490522952
 20
44.4820338236
 10
313.9437356422
 20
44.4401439325
 10
313.9362608487
 20
44.3995057852
 10
313.9266621547
 20
44.3602875476
 10
313.9150422799
 20
44.3229937178
 10
313.9013843082
 20
44.2876850658
 10
313.8857051557
 20
44.2543008216
 10
313.8681582909
 20
44.2231631729
 10
313.8487222516
 20
44.1942879635
 10
313.8274184999
 20
44.1676593498
 10
313.8044648908
 20
44.1435519878
 10
313.7798458608
 20
44.121993468
 10
313.7535769734
 20
44.1029562
 10
313.7259227734
 20
44.0866320685
 10
313.6968666859
 20
44.0730482356
 10
313.6664252858
 20
44.0621775393
 10
313.6349128425
 20
44.054130378
 10
313.6023254882
 20
44.0489353852
 10
313.5686670907
 20
44.0465639275
 10
313.5342635226
 20
44.0470405033
 10
313.4990725739
 20
44.0504069504
 10
313.4631364545
 20
44.0566214311
 10
313.4269076669
 20
44.0655829301
 10
313.3905370451
 20
44.077257776
 10
313.353873755
 20
44.0916796404
 10
313.3169177966
 20
44.1088485232
  0
LWPOLYLINE
  5
381
100
AcDbEntity
  8
0
100
AcDbPolyline
 62
250
  6
CONTINUOUS
 90
28
 70
0
 10
313.9533138996
 20
44.5700733351
 10
313.9522450477
 20
44.5253436244
 10
313.9490522952
 20
44.4820338236
 10
313.9437356422
 20
44.4401439325
 10
313.9362608487
 20
44.3995057852
 10
313.9266621547
 20
44.3602875476
 10
313.9150422799
 20
44.3229937178
 10
313.9013843082
 20
44.2876850658
 10
313.8857051557
 20
44.2543008216
 10
313.8681582909
 20
44.2231631729
 10
313.8487222516
 20
44.1942879635
 10
313.8274184999
 20
44.1676593498
 10
313.8044648908
 20
44.1435519878
 10
313.7798458608
 20
44.121993468
 10
313.7535769734
 20
44.1029562
 10
313.7259227734
 20
44.0866320685
 10
313.6968666859
 20
44.0730482356
 10
313.6664252858
 20
44.0621775393
 10
313.6349128425
 20
44.054130378
 10
313.6023254882
 20
44.0489353852
 10
313.5686670907
 20
44.0465639275
 10
313.5342635226
 20
44.0470405033
 10
313.4990725739
 20
44.0504069504
 10
313.4631364545
 20
44.0566214311
 10
313.4269076669
 20
44.0655829301
 10
313.3905370451
 20
44.077257776
 10
313.353873755
 20
44.0916796404
 10
313.3169177966
 20
44.1088485232
  0
LWPOLYLINE
  5
382
100
AcDbEntity
  8
RACCORDO
100
AcDbPolyline
 62
250
  6
CONTINUOUS
 90
28
 70
0
 10
313.9533138996
 20
-16.9177303336
 10
313.9522450477
 20
-16.9624600443
 10
313.9490522952
 20
-17.0057698451
 10
313.9437356422
 20
-17.0476597362
 10
313.9362608487
 20
-17.0882978835
 10
313.9266621547
 20
-17.1275161211
 10
313.9150422799
 20
-17.1648099509
 10
313.9013843082
 20
-17.2001186029
 10
313.8857051557
 20
-17.2335028471
 10
313.8681582909
 20
-17.2646404958
 10
313.8487222516
 20
-17.2935157052
 10
313.8274184999
 20
-17.3201443189
 10
313.8044648908
 20
-17.3442516809
 10
313.7798458608
 20
-17.3658102007
 10
313.7535769734
 20
-17.3848474687
 10
313.7259227734
 20
-17.4011716002
 10
313.6968666859
 20
-17.4147554331
 10
313.6664252858
 20
-17.4256261294
 10
313.6349128425
 20
-17.4336732907
 10
313.6023254882
 20
-17.4388682835
 10
313.5686670907
 20
-17.4412397412
 10
313.5342635226
 20
-17.4407631654
 10
313.4990725739
 20
-17.4373967183
 10
313.4631364545
 20
-17.4311822376
 10
313.4269076669
 20
-17.4222207386
 10
313.3905370451
 20
-17.4105458927
 10
313.353873755
 20
-17.3961240283
 10
313.3169177966
 20
-17.3789551455
  0
LWPOLYLINE
  5
383
100
AcDbEntity
  8
0
100
AcDbPolyline
 62
250
  6
CONTINUOUS
 90
28
 70
0
 10
313.9533138996
 20
-16.9177303336
 10
313.9522450477
 20
-16.9624600443
 10
313.9490522952
 20
-17.0057698451
 10
313.9437356422
 20
-17.0476597362
 10
313.9362608487
 20
-17.0882978835
 10
313.9266621547
 20
-17.1275161211
 10
313.9150422799
 20
-17.1648099509
 10
313.9013843082
 20
-17.2001186029
 10
313.8857051557
 20
-17.2335028471
 10
313.8681582909
 20
-17.2646404958
 10
313.8487222516
 20
-17.2935157052
 10
313.8274184999
 20
-17.3201443189
 10
313.8044648908
 20
-17.3442516809
 10
313.7798458608
 20
-17.3658102007
 10
313.7535769734
 20
-17.3848474687
 10
313.7259227734
 20
-17.4011716002
 10
313.6968666859
 20
-17.4147554331
 10
313.6664252858
 20
-17.4256261294
 10
313.6349128425
 20
-17.4336732907
 10
313.6023254882
 20
-17.4388682835
 10
313.5686670907
 20
-17.4412397412
 10
313.5342635226
 20
-17.4407631654
 10
313.4990725739
 20
-17.4373967183
 10
313.4631364545
 20
-17.4311822376
 10
313.4269076669
 20
-17.4222207386
 10
313.3905370451
 20
-17.4105458927
 10
313.353873755
 20
-17.3961240283
 10
313.3169177966
 20
-17.3789551455
  0
LWPOLYLINE
  5
384
100
AcDbEntity
  8
RACCORDO
100
AcDbPolyline
 62
250
  6
CONTINUOUS
 90
22
 70
0
 10
313.3169177966
 20
105.5966521919
 10
313.3175109608
 20
105.6163642218
 10
313.3192871361
 20
105.6365591783
 10
313.3222363896
 20
105.6571241229
 10
313.3263422277
 20
105.6779440481
 10
313.3315816889
 20
105.6989025205
 10
313.3379254721
 20
105.7198823318
 10
313.3453381002
 20
105.7407661543
 10
313.3537781189
 20
105.7614371973
 10
313.363198328
 20
105.7817798598
 10
313.3735460461
 20
105.8016803776
 10
313.3847634043
 20
105.8210274588
 10
313.3967876709
 20
105.8397129066
 10
313.409551601
 20
105.8576322246
 10
313.4229838137
 20
105.8746852005
 10
313.4370091907
 20
105.8907764672
 10
313.4515492962
 20
105.9058160359
 10
313.4665228161
 20
105.9197197992
 10
313.4818460125
 20
105.9324100015
 10
313.4974331918
 20
105.9438156742
 10
313.5131971841
 20
105.953873032
 10
313.5290498309
 20
105.9625258302
  0
LWPOLYLINE
  5
385
100
AcDbEntity
  8
0
100
AcDbPolyline
 62
250
  6
CONTINUOUS
 90
22
 70
0
 10
313.3169177966
 20
105.5966521919
 10
313.3175109608
 20
105.6163642218
 10
313.3192871361
 20
105.6365591783
 10
313.3222363896
 20
105.6571241229
 10
313.3263422277
 20
105.6779440481
 10
313.3315816889
 20
105.6989025205
 10
313.3379254721
 20
105.7198823318
 10
313.3453381002
 20
105.7407661543
 10
313.3537781189
 20
105.7614371973
 10
313.363198328
 20
105.7817798598
 10
313.3735460461
 20
105.8016803776
 10
313.3847634043
 20
105.8210274588
 10
313.3967876709
 20
105.8397129066
 10
313.409551601
 20
105.8576322246
 10
313.4229838137
 20
105.8746852005
 10
313.4370091907
 20
105.8907764672
 10
313.4515492962
 20
105.9058160359
 10
313.4665228161
 20
105.9197197992
 10
313.4818460125
 20
105.9324100015
 10
313.4974331918
 20
105.9438156742
 10
313.5131971841
 20
105.953873032
 10
313.5290498309
 20
105.9625258302
  0
LWPOLYLINE
  5
386
100
AcDbEntity
  8
RACCORDO
100
AcDbPolyline
 62
250
  6
CONTINUOUS
 90
22
 70
0
 10
313.3169177966
 20
44.1088485232
 10
313.3175109608
 20
44.1285605531
 10
313.3192871361
 20
44.1487555096
 10
313.3222363896
 20
44.1693204542
 10
313.3263422277
 20
44.1901403794
 10
313.3315816889
 20
44.2110988518
 10
313.3379254721
 20
44.2320786631
 10
313.3453381002
 20
44.2529624856
 10
313.3537781189
 20
44.2736335286
 10
313.363198328
 20
44.2939761911
 10
313.3735460461
 20
44.3138767089
 10
313.3847634043
 20
44.3332237901
 10
313.3967876709
 20
44.3519092379
 10
313.409551601
 20
44.3698285559
 10
313.4229838137
 20
44.3868815318
 10
313.4370091907
 20
44.4029727985
 10
313.4515492962
 20
44.4180123672
 10
313.4665228161
 20
44.4319161305
 10
313.4818460125
 20
44.4446063328
 10
313.4974331918
 20
44.4560120055
 10
313.5131971841
 20
44.4660693633
 10
313.5290498309
 20
44.4747221615
  0
LWPOLYLINE
  5
387
100
AcDbEntity
  8
0
100
AcDbPolyline
 62
250
  6
CONTINUOUS
 90
22
 70
0
 10
313.3169177966
 20
44.1088485232
 10
313.3175109608
 20
44.1285605531
 10
313.3192871361
 20
44.1487555096
 10
313.3222363896
 20
44.1693204542
 10
313.3263422277
 20
44.1901403794
 10
313.3315816889
 20
44.2110988518
 10
313.3379254721
 20
44.2320786631
 10
313.3453381002
 20
44.2529624856
 10
313.3537781189
 20
44.2736335286
 10
313.363198328
 20
44.2939761911
 10
313.3735460461
 20
44.3138767089
 10
313.3847634043
 20
44.3332237901
 10
313.3967876709
 20
44.3519092379
 10
313.409551601
 20
44.3698285559
 10
313.4229838137
 20
44.3868815318
 10
313.4370091907
 20
44.4029727985
 10
313.4515492962
 20
44.4180123672
 10
313.4665228161
 20
44.4319161305
 10
313.4818460125
 20
44.4446063328
 10
313.4974331918
 20
44.4560120055
 10
313.5131971841
 20
44.4660693633
 10
313.5290498309
 20
44.4747221615
  0
LWPOLYLINE
  5
388
100
AcDbEntity
  8
RACCORDO
100
AcDbPolyline
 62
250
  6
CONTINUOUS
 90
22
 70
0
 10
313.3169177966
 20
-17.3789551455
 10
313.3175109608
 20
-17.3592431156
 10
313.3192871361
 20
-17.3390481591
 10
313.3222363896
 20
-17.3184832145
 10
313.3263422277
 20
-17.2976632893
 10
313.3315816889
 20
-17.2767048169
 10
313.3379254721
 20
-17.2557250056
 10
313.3453381002
 20
-17.2348411831
 10
313.3537781189
 20
-17.2141701401
 10
313.363198328
 20
-17.1938274776
 10
313.3735460461
 20
-17.1739269598
 10
313.3847634043
 20
-17.1545798786
 10
313.3967876709
 20
-17.1358944308
 10
313.409551601
 20
-17.1179751128
 10
313.4229838137
 20
-17.1009221369
 10
313.4370091907
 20
-17.0848308702
 10
313.4515492962
 20
-17.0697913015
 10
313.4665228161
 20
-17.0558875382
 10
313.4818460125
 20
-17.0431973359
 10
313.4974331918
 20
-17.0317916632
 10
313.5131971841
 20
-17.0217343054
 10
313.5290498309
 20
-17.0130815072
  0
LWPOLYLINE
  5
389
100
AcDbEntity
  8
0
100
AcDbPolyline
 62
250
  6
CONTINUOUS
 90
22
 70
0
 10
313.3169177966
 20
-17.3789551455
 10
313.3175109608
 20
-17.3592431156
 10
313.3192871361
 20
-17.3390481591
 10
313.3222363896
 20
-17.3184832145
 10
313.3263422277
 20
-17.2976632893
 10
313.3315816889
 20
-17.2767048169
 10
313.3379254721
 20
-17.2557250056
 10
313.3453381002
 20
-17.2348411831
 10
313.3537781189
 20
-17.2141701401
 10
313.363198328
 20
-17.1938274776
 10
313.3735460461
 20
-17.1739269598
 10
313.3847634043
 20
-17.1545798786
 10
313.3967876709
 20
-17.1358944308
 10
313.409551601
 20
-17.1179751128
 10
313.4229838137
 20
-17.1009221369
 10
313.4370091907
 20
-17.0848308702
 10
313.4515492962
 20
-17.0697913015
 10
313.4665228161
 20
-17.0558875382
 10
313.4818460125
 20
-17.0431973359
 10
313.4974331918
 20
-17.0317916632
 10
313.5131971841
 20
-17.0217343054
 10
313.5290498309
 20
-17.0130815072
  0
LINE
  5
38A
100
AcDbEntity
  8
DRAFT
100
AcDbLine
 62
7
  6
CONTINUOUS
 10
309.440298149
 20
48.4201344427
 11
309.4192819408
 21
48.2987074423
  0
LINE
  5
38B
100
AcDbEntity
  8
DRAFT
100
AcDbLine
 62
7
  6
CONTINUOUS
 10
293.2662415726
 20
-4.9666090255
 11
293.2305092094
 21
-5.1478010528
  0
LWPOLYLINE
  5
38C
100
AcDbEntity
  8
RACCORDO
100
AcDbPolyline
 62
7
  6
CONTINUOUS
 90
22
 70
0
 10
282.6772187907
 20
122.0493337206
 10
282.6675714877
 20
122.0622827546
 10
282.6488815032
 20
122.0895963792
 10
282.6318388319
 20
122.1166733059
 10
282.6162703758
 20
122.1434141361
 10
282.6021406504
 20
122.1696314687
 10
282.5893815083
 20
122.1952251775
 10
282.5777846052
 20
122.2202753669
 10
282.5672948674
 20
122.2446932083
 10
282.5578643357
 20
122.2683962079
 10
282.5493227123
 20
122.2915089281
 10
282.5416074461
 20
122.3140335341
 10
282.5346957434
 20
122.3358673882
 10
282.5284933155
 20
122.3569954911
 10
282.5229673583
 20
122.3773501978
 10
282.5180595005
 20
122.396939402
 10
282.5136498169
 20
122.4158703519
 10
282.5097050796
 20
122.4341588977
 10
282.5061894853
 20
122.4517571318
 10
282.502993562
 20
122.4686812383
 10
282.5000938214
 20
122.4849689746
 10
282.4925628384
 20
122.5293393614
  0
LWPOLYLINE
  5
38D
100
AcDbEntity
  8
CURVE
100
AcDbPolyline
 62
250
  6
CONTINUOUS
 90
73
 70
0
 10
330.5184651243
 20
-28.5396337446
 10
330.517581035
 20
-28.5341769422
 10
330.5162258535
 20
-28.5291290811
 10
330.5144518722
 20
-28.5244495217
 10
330.5123113836
 20
-28.520097624
 10
330.50985668
 20
-28.5160327484
 10
330.5071400539
 20
-28.5122142549
 10
330.5042137977
 20
-28.5086015039
 10
330.5011302037
 20
-28.5051538556
 10
330.4979415644
 20
-28.50183067
 10
330.4947001721
 20
-28.4985913076
 10
330.4865064015
 20
-28.4906480483
 10
330.4782679056
 20
-28.4830151409
 10
330.4699428797
 20
-28.475729075
 10
330.4614895193
 20
-28.4688263401
 10
330.4528660196
 20
-28.462343426
 10
330.4440305759
 20
-28.4563168222
 10
330.4349413835
 20
-28.4507830185
 10
330.4255566378
 20
-28.4457785044
 10
330.4150541934
 20
-28.4410012883
 10
330.4041870608
 20
-28.4368773201
 10
330.3929840705
 20
-28.4333998821
 10
330.3814740529
 20
-28.4305622568
 10
330.3696858382
 20
-28.4283577264
 10
330.3576482569
 20
-28.4267795735
 10
330.3453901395
 20
-28.4258210803
 10
330.3329403162
 20
-28.4254755293
 10
330.3203276175
 20
-28.4257362029
 10
330.3075808738
 20
-28.4265963834
 10
330.2947369994
 20
-28.4280471217
 10
330.2817955112
 20
-28.4300789523
 10
330.2687638203
 20
-28.4326812482
 10
330.2556493376
 20
-28.4358433823
 10
330.2424594741
 20
-28.4395547274
 10
330.2292016408
 20
-28.4438046564
 10
330.2139729688
 20
-28.4493084697
 10
330.1986844894
 20
-28.4554813729
 10
330.1833555394
 20
-28.4623024715
 10
330.1680054555
 20
-28.4697508708
 10
330.1526535743
 20
-28.4778056761
 10
330.1373192326
 20
-28.486445993
 10
330.1224027271
 20
-28.4954197763
 10
330.1075393978
 20
-28.5049417528
 10
330.0927473613
 20
-28.5150233115
 10
330.078044734
 20
-28.5256758414
 10
330.0634496325
 20
-28.5369107317
 10
330.0504371627
 20
-28.5475142223
 10
330.0375420294
 20
-28.5585935264
 10
330.0247800462
 20
-28.5701446893
 10
330.0121670267
 20
-28.5821637562
 10
329.9997187843
 20
-28.5946467721
 10
329.9863735595
 20
-28.6087551773
 10
329.9732645511
 20
-28.6233818782
 10
329.9604139601
 20
-28.6385000379
 10
329.9478439875
 20
-28.6540828196
 10
329.9355768341
 20
-28.6701033863
 10
329.9236347009
 20
-28.6865349013
 10
329.912039789
 20
-28.7033505277
 10
329.9008142991
 20
-28.7205234286
 10
329.8905695795
 20
-28.7370470829
 10
329.8806822403
 20
-28.7538454676
 10
329.8711603226
 20
-28.7708985529
 10
329.8620118674
 20
-28.788186309
 10
329.8532449158
 20
-28.8056887062
 10
329.844867509
 20
-28.8233857147
 10
329.8368876879
 20
-28.8412573047
 10
329.8313308461
 20
-28.8543813616
 10
329.8260199672
 20
-28.8675728831
 10
329.820985504
 20
-28.8808172201
 10
329.8162579091
 20
-28.8940997236
 10
329.8118676352
 20
-28.9074057445
 10
329.8078451351
 20
-28.9207206339
 10
329.8042208615
 20
-28.9340297426
  0
LWPOLYLINE
  5
38E
100
AcDbEntity
  8
CURVE
100
AcDbPolyline
 62
250
  6
CONTINUOUS
 90
22
 70
0
 10
330.0137169591
 20
-29.3733762466
 10
330.0119938659
 20
-29.3616146647
 10
330.0103488097
 20
-29.3497987143
 10
330.0087949726
 20
-29.3379196115
 10
330.007345537
 20
-29.3259685726
 10
330.0060136852
 20
-29.3139368137
 10
330.0048125996
 20
-29.301815551
 10
330.0036754614
 20
-29.2886254786
 10
330.0027060514
 20
-29.2753251838
 10
330.0019044241
 20
-29.2619189314
 10
330.0012706341
 20
-29.2484109859
 10
330.000804736
 20
-29.2348056122
 10
330.0005067844
 20
-29.2211070749
 10
330.0003768337
 20
-29.2073196387
 10
330.0004149386
 20
-29.1934475682
 10
330.0006211536
 20
-29.1794951282
 10
330.0009955332
 20
-29.1654665834
 10
330.0015381321
 20
-29.1513661985
 10
330.0022490048
 20
-29.1371982381
 10
330.0031282058
 20
-29.1229669669
 10
330.0041757898
 20
-29.1086766497
 10
330.0053918112
 20
-29.0943315511
  0
LINE
  5
38F
100
AcDbEntity
  8
RACCORDO
100
AcDbLine
 62
7
  6
CONTINUOUS
 10
282.477188061
 20
38.8606295206
 11
282.9789192173
 21
39.1597397324
  0
LWPOLYLINE
  5
390
100
AcDbEntity
  8
RACCORDO
100
AcDbPolyline
 62
7
  6
CONTINUOUS
 90
7
 70
0
 10
284.0068818018
 20
38.7027541612
 10
284.0134658444
 20
38.7066382915
 10
284.019315145
 20
38.7110157928
 10
284.0243461503
 20
38.7158530259
 10
284.0284996851
 20
38.7211438247
 10
284.0316752258
 20
38.7268130538
 10
284.0332012101
 20
38.7307238526
  0
LINE
  5
391
100
AcDbEntity
  8
RACCORDO
100
AcDbLine
 62
7
  6
CONTINUOUS
 10
282.9789192173
 20
39.1597397324
 11
283.6604879151
 21
39.5608504493
  0
LINE
  5
392
100
AcDbEntity
  8
RACCORDO
100
AcDbLine
 62
7
  6
CONTINUOUS
 10
283.6604879151
 20
39.5608504493
 11
284.0068818018
 21
39.7628392392
  0
LINE
  5
393
100
AcDbEntity
  8
RACCORDO
100
AcDbLine
 62
7
  6
CONTINUOUS
 10
282.3809961197
 20
37.9668964634
 11
282.477188061
 21
38.0209182014
  0
LWPOLYLINE
  5
394
100
AcDbEntity
  8
RACCORDO
100
AcDbPolyline
 62
7
  6
CONTINUOUS
 90
9
 70
0
 10
284.0068818018
 20
39.7628378002
 10
284.0134658445
 20
39.7664927751
 10
284.0193151451
 20
39.770356302
 10
284.0243461503
 20
39.7743947417
 10
284.0284996851
 20
39.7785862385
 10
284.0316752257
 20
39.7828713466
 10
284.0337851713
 20
39.7871448352
 10
284.034820851
 20
39.7913010868
 10
284.0349478218
 20
39.7933148897
  0
LINE
  5
395
100
AcDbEntity
  8
RACCORDO
100
AcDbLine
 62
250
  6
CONTINUOUS
 10
281.7446000166
 20
44.8217910707
 11
282.1886126834
 21
45.0437974041
  0
LINE
  5
396
100
AcDbEntity
  8
0
100
AcDbLine
 62
250
  6
CONTINUOUS
 10
281.7446000166
 20
44.8217910707
 11
282.1886126834
 21
45.0437974041
  0
LWPOLYLINE
  5
397
100
AcDbEntity
  8
RACCORDO
100
AcDbPolyline
 62
7
  6
CONTINUOUS
 90
13
 70
0
 10
281.900535928
 20
45.146315351
 10
281.9041313463
 20
45.1478882518
 10
281.9088037361
 20
45.1493635119
 10
281.9148223341
 20
45.1505864524
 10
281.9223394134
 20
45.1513624671
 10
281.9314481281
 20
45.1514899116
 10
281.9421866687
 20
45.1507676776
 10
281.9544671082
 20
45.149016841
 10
281.9681339423
 20
45.1461026689
 10
281.9831110382
 20
45.1419034115
 10
281.9993122615
 20
45.1363124039
 10
282.0165626463
 20
45.1292731284
 10
282.0347000066
 20
45.1207537425
  0
LWPOLYLINE
  5
398
100
AcDbEntity
  8
0
100
AcDbPolyline
 62
7
  6
CONTINUOUS
 90
13
 70
0
 10
281.900535928
 20
45.146315351
 10
281.9041313463
 20
45.1478882518
 10
281.9088037361
 20
45.1493635119
 10
281.9148223341
 20
45.1505864524
 10
281.9223394134
 20
45.1513624671
 10
281.9314481281
 20
45.1514899116
 10
281.9421866687
 20
45.1507676776
 10
281.9544671082
 20
45.149016841
 10
281.9681339423
 20
45.1461026689
 10
281.9831110382
 20
45.1419034115
 10
281.9993122615
 20
45.1363124039
 10
282.0165626463
 20
45.1292731284
 10
282.0347000066
 20
45.1207537425
  0
LWPOLYLINE
  5
399
100
AcDbEntity
  8
RACCORDO
100
AcDbPolyline
 62
250
  6
CONTINUOUS
 90
22
 70
0
 10
281.3203359479
 20
106.3095947394
 10
281.3367817588
 20
106.3019649981
 10
281.3543219266
 20
106.2949710896
 10
281.3728583593
 20
106.2886521267
 10
281.3922873938
 20
106.2830434476
 10
281.412500375
 20
106.2781764182
 10
281.4333842637
 20
106.2740782571
 10
281.4548222687
 20
106.2707718827
 10
281.4766945001
 20
106.2682757856
 10
281.4988786394
 20
106.2666039251
 10
281.521250624
 20
106.2657656509
 10
281.5436853405
 20
106.2657656509
 10
281.5660573251
 20
106.2666039251
 10
281.5882414644
 20
106.2682757856
 10
281.6101136958
 20
106.2707718827
 10
281.6315517008
 20
106.2740782571
 10
281.6524355895
 20
106.2781764182
 10
281.6726485707
 20
106.2830434476
 10
281.6920776052
 20
106.2886521267
 10
281.7106140379
 20
106.2949710897
 10
281.7281542056
 20
106.3019649981
 10
281.7446000166
 20
106.3095947394
  0
LWPOLYLINE
  5
39A
100
AcDbEntity
  8
0
100
AcDbPolyline
 62
250
  6
CONTINUOUS
 90
22
 70
0
 10
281.3203359479
 20
106.3095947394
 10
281.3367817588
 20
106.3019649981
 10
281.3543219266
 20
106.2949710896
 10
281.3728583593
 20
106.2886521267
 10
281.3922873938
 20
106.2830434476
 10
281.412500375
 20
106.2781764182
 10
281.4333842637
 20
106.2740782571
 10
281.4548222687
 20
106.2707718827
 10
281.4766945001
 20
106.2682757856
 10
281.4988786394
 20
106.2666039251
 10
281.521250624
 20
106.2657656509
 10
281.5436853405
 20
106.2657656509
 10
281.5660573251
 20
106.2666039251
 10
281.5882414644
 20
106.2682757856
 10
281.6101136958
 20
106.2707718827
 10
281.6315517008
 20
106.2740782571
 10
281.6524355895
 20
106.2781764182
 10
281.6726485707
 20
106.2830434476
 10
281.6920776052
 20
106.2886521267
 10
281.7106140379
 20
106.2949710897
 10
281.7281542056
 20
106.3019649981
 10
281.7446000166
 20
106.3095947394
  0
LINE
  5
39B
100
AcDbEntity
  8
RACCORDO
100
AcDbLine
 62
7
  6
CONTINUOUS
 10
282.0347000066
 20
106.6085574112
 11
313.3948857523
 21
90.9284645384
  0
LINE
  5
39C
100
AcDbEntity
  8
0
100
AcDbLine
 62
7
  6
CONTINUOUS
 10
282.0347000066
 20
106.6085574112
 11
313.3948857523
 21
90.9284645384
  0
LINE
  5
39D
100
AcDbEntity
  8
RACCORDO
100
AcDbLine
 62
250
  6
CONTINUOUS
 10
281.9567320509
 20
106.7708195513
 11
313.3169177966
 21
91.0907266785
  0
LINE
  5
39E
100
AcDbEntity
  8
0
100
AcDbLine
 62
250
  6
CONTINUOUS
 10
281.9567320509
 20
106.7708195513
 11
313.3169177966
 21
91.0907266785
  0
LWPOLYLINE
  5
39F
100
AcDbEntity
  8
RACCORDO
100
AcDbPolyline
 62
7
  6
CONTINUOUS
 90
28
 70
0
 10
313.3948857523
 20
90.9284645384
 10
313.4165072841
 20
90.916900949
 10
313.4391489508
 20
90.9032249234
 10
313.4626473633
 20
90.8873875891
 10
313.4868223942
 20
90.8693711634
 10
313.5114951835
 20
90.8491785576
 10
313.5365097466
 20
90.8268123592
 10
313.5617183996
 20
90.8022803166
 10
313.5869181256
 20
90.7756611861
 10
313.6118934476
 20
90.7470779548
 10
313.6364832444
 20
90.7166205184
 10
313.6605166325
 20
90.6844114161
 10
313.6837874067
 20
90.6506522385
 10
313.7061518309
 20
90.6154905128
 10
313.7274680813
 20
90.5790948835
 10
313.7475621867
 20
90.5417261096
 10
313.7663230556
 20
90.5035740368
 10
313.7836500718
 20
90.4648371332
 10
313.7994202934
 20
90.4258096346
 10
313.8135686249
 20
90.3867024356
 10
313.8260448114
 20
90.3477253566
 10
313.8367884433
 20
90.309182716
 10
313.8457884749
 20
90.271289768
 10
313.853053427
 20
90.234241593
 10
313.8585945663
 20
90.1983160523
 10
313.8624579866
 20
90.1637305253
 10
313.8647144771
 20
90.1306303413
 10
313.865445934
 20
90.0991717807
  0
LWPOLYLINE
  5
3A0
100
AcDbEntity
  8
0
100
AcDbPolyline
 62
7
  6
CONTINUOUS
 90
28
 70
0
 10
313.3948857523
 20
90.9284645384
 10
313.4165072841
 20
90.916900949
 10
313.4391489508
 20
90.9032249234
 10
313.4626473633
 20
90.8873875891
 10
313.4868223942
 20
90.8693711634
 10
313.5114951835
 20
90.8491785576
 10
313.5365097466
 20
90.8268123592
 10
313.5617183996
 20
90.8022803166
 10
313.5869181256
 20
90.7756611861
 10
313.6118934476
 20
90.7470779548
 10
313.6364832444
 20
90.7166205184
 10
313.6605166325
 20
90.6844114161
 10
313.6837874067
 20
90.6506522385
 10
313.7061518309
 20
90.6154905128
 10
313.7274680813
 20
90.5790948835
 10
313.7475621867
 20
90.5417261096
 10
313.7663230556
 20
90.5035740368
 10
313.7836500718
 20
90.4648371332
 10
313.7994202934
 20
90.4258096346
 10
313.8135686249
 20
90.3867024356
 10
313.8260448114
 20
90.3477253566
 10
313.8367884433
 20
90.309182716
 10
313.8457884749
 20
90.271289768
 10
313.853053427
 20
90.234241593
 10
313.8585945663
 20
90.1983160523
 10
313.8624579866
 20
90.1637305253
 10
313.8647144771
 20
90.1306303413
 10
313.865445934
 20
90.0991717807
  0
LWPOLYLINE
  5
3A1
100
AcDbEntity
  8
RACCORDO
100
AcDbPolyline
 62
250
  6
CONTINUOUS
 90
5
 70
0
 10
313.3169177966
 20
91.0907266785
 10
313.3538758093
 20
91.0709386011
 10
313.3905415494
 20
91.0486954239
 10
313.4269150168
 20
91.0239971467
 10
313.4631474968
 20
90.9967261917
  0
LWPOLYLINE
  5
3A2
100
AcDbEntity
  8
0
100
AcDbPolyline
 62
250
  6
CONTINUOUS
 90
5
 70
0
 10
313.3169177966
 20
91.0907266785
 10
313.3538758093
 20
91.0709386011
 10
313.3905415494
 20
91.0486954239
 10
313.4269150168
 20
91.0239971467
 10
313.4631474968
 20
90.9967261917
  0
LWPOLYLINE
  5
3A3
100
AcDbEntity
  8
RACCORDO
100
AcDbPolyline
 62
250
  6
CONTINUOUS
 90
12
 70
0
 10
313.9533138996
 20
89.9931057636
 10
313.938054417
 20
90.001328669
 10
313.9240666001
 20
90.0100987529
 10
313.9114286742
 20
90.0193669693
 10
313.9002113159
 20
90.0290814865
 10
313.8904772572
 20
90.0391879771
 10
313.8822809349
 20
90.0496299214
 10
313.8756681861
 20
90.060348924
 10
313.870675992
 20
90.0712850397
 10
313.867332271
 20
90.0823771093
 10
313.8656557226
 20
90.0935631016
 10
313.865445934
 20
90.0991717807
  0
LWPOLYLINE
  5
3A4
100
AcDbEntity
  8
0
100
AcDbPolyline
 62
250
  6
CONTINUOUS
 90
12
 70
0
 10
313.9533138996
 20
89.9931057636
 10
313.938054417
 20
90.001328669
 10
313.9240666001
 20
90.0100987529
 10
313.9114286742
 20
90.0193669693
 10
313.9002113159
 20
90.0290814865
 10
313.8904772572
 20
90.0391879771
 10
313.8822809349
 20
90.0496299214
 10
313.8756681861
 20
90.060348924
 10
313.870675992
 20
90.0712850397
 10
313.867332271
 20
90.0823771093
 10
313.8656557226
 20
90.0935631016
 10
313.865445934
 20
90.0991717807
  0
LWPOLYLINE
  5
3A5
100
AcDbEntity
  8
RACCORDO
100
AcDbPolyline
 62
250
  6
CONTINUOUS
 90
24
 70
0
 10
313.4631474968
 20
90.9967261917
 10
313.4990877041
 20
90.9670001368
 10
313.5342817826
 20
90.9351717155
 10
313.5686870198
 20
90.9012415661
 10
313.6023461283
 20
90.8652090503
 10
313.6349333896
 20
90.8274249869
 10
313.6664446291
 20
90.7878651777
 10
313.6968840214
 20
90.746553821
 10
313.7259383717
 20
90.7039143307
 10
313.7535915063
 20
90.6599357328
 10
313.7798595989
 20
90.6146290013
 10
313.8044779764
 20
90.5684504729
 10
313.8274312275
 20
90.5213875532
 10
313.8487347634
 20
90.4734528366
 10
313.8681701442
 20
90.4251404429
 10
313.8857155697
 20
90.3764565351
 10
313.9013928401
 20
90.3273949502
 10
313.9150489155
 20
90.2784313189
 10
313.9266668675
 20
90.2295224089
 10
313.9362636247
 20
90.1807114525
 10
313.9437369319
 20
90.132603777
 10
313.9490527043
 20
90.0854011582
 10
313.9522450269
 20
90.0389018204
 10
313.9533138996
 20
89.9931057636
  0
LWPOLYLINE
  5
3A6
100
AcDbEntity
  8
0
100
AcDbPolyline
 62
250
  6
CONTINUOUS
 90
24
 70
0
 10
313.4631474968
 20
90.9967261917
 10
313.4990877041
 20
90.9670001368
 10
313.5342817826
 20
90.9351717155
 10
313.5686870198
 20
90.9012415661
 10
313.6023461283
 20
90.8652090503
 10
313.6349333896
 20
90.8274249869
 10
313.6664446291
 20
90.7878651777
 10
313.6968840214
 20
90.746553821
 10
313.7259383717
 20
90.7039143307
 10
313.7535915063
 20
90.6599357328
 10
313.7798595989
 20
90.6146290013
 10
313.8044779764
 20
90.5684504729
 10
313.8274312275
 20
90.5213875532
 10
313.8487347634
 20
90.4734528366
 10
313.8681701442
 20
90.4251404429
 10
313.8857155697
 20
90.3764565351
 10
313.9013928401
 20
90.3273949502
 10
313.9150489155
 20
90.2784313189
 10
313.9266668675
 20
90.2295224089
 10
313.9362636247
 20
90.1807114525
 10
313.9437369319
 20
90.132603777
 10
313.9490527043
 20
90.0854011582
 10
313.9522450269
 20
90.0389018204
 10
313.9533138996
 20
89.9931057636
  0
LINE
  5
3A7
100
AcDbEntity
  8
RACCORDO
100
AcDbLine
 62
250
  6
CONTINUOUS
 10
328.3959699054
 20
-39.9656725907
 11
328.3959699054
 21
160.0861956835
  0
LINE
  5
3A8
100
AcDbEntity
  8
0
100
AcDbLine
 62
250
  6
CONTINUOUS
 10
328.3959699054
 20
-39.9656725907
 11
328.3959699054
 21
160.0861956835
  0
LINE
  5
3A9
100
AcDbEntity
  8
RACCORDO
100
AcDbLine
 62
250
  6
CONTINUOUS
 10
329.1030766866
 20
-40.3986852926
 11
329.1030766866
 21
160.5192083854
  0
LINE
  5
3AA
100
AcDbEntity
  8
0
100
AcDbLine
 62
250
  6
CONTINUOUS
 10
329.1030766866
 20
-40.3986852926
 11
329.1030766866
 21
160.5192083854
  0
LINE
  5
3AB
100
AcDbEntity
  8
CURVE
100
AcDbLine
 62
250
  6
CONTINUOUS
 10
329.7727259002
 20
-33.3803027038
 11
329.7727259002
 21
-33.7418198125
  0
LINE
  5
3AC
100
AcDbEntity
  8
CURVE
100
AcDbLine
 62
250
  6
CONTINUOUS
 10
329.772810753
 20
-35.3002793008
 11
329.772810753
 21
-34.9075601629
  0
LINE
  5
3AD
100
AcDbEntity
  8
CURVE
100
AcDbLine
 62
250
  6
CONTINUOUS
 10
329.772810753
 20
-34.2372088689
 11
329.772810753
 21
-33.8759377115
  0
LINE
  5
3AE
100
AcDbEntity
  8
CURVE
100
AcDbLine
 62
250
  6
CONTINUOUS
 10
329.772810753
 20
-33.0292619133
 11
329.772810753
 21
-32.6680435834
  0
LINE
  5
3AF
100
AcDbEntity
  8
CURVE
100
AcDbLine
 62
250
  6
CONTINUOUS
 10
329.772810753
 20
-31.9488268061
 11
329.772810753
 21
-31.5911401278
  0
LINE
  5
3B0
100
AcDbEntity
  8
CURVE
100
AcDbLine
 62
250
  6
CONTINUOUS
 10
329.772810753
 20
-30.8291815327
 11
329.772810753
 21
-30.4794570919
  0
LINE
  5
3B1
100
AcDbEntity
  8
CURVE
100
AcDbLine
 62
250
  6
CONTINUOUS
 10
330.4019146278
 20
-28.9726736946
 11
330.4019146278
 21
-29.1792774123
  0
LINE
  5
3B2
100
AcDbEntity
  8
CURVE
100
AcDbLine
 62
250
  6
CONTINUOUS
 10
330.6335098278
 20
-29.0514924328
 11
330.6335098278
 21
-28.8576553392
  0
LINE
  5
3B3
100
AcDbEntity
  8
CURVE
100
AcDbLine
 62
250
  6
CONTINUOUS
 10
330.6861593691
 20
-30.3844427867
 11
330.6861593691
 21
-30.0383158155
  0
LINE
  5
3B4
100
AcDbEntity
  8
CURVE
100
AcDbLine
 62
250
  6
CONTINUOUS
 10
330.9046051599
 20
-29.8568438848
 11
330.9046051599
 21
-30.3491706666
  0
LINE
  5
3B5
100
AcDbEntity
  8
CURVE
100
AcDbLine
 62
250
  6
CONTINUOUS
 10
331.1869097641
 20
-33.0347278805
 11
331.1869097641
 21
-32.6732107719
  0
LINE
  5
3B6
100
AcDbEntity
  8
CURVE
100
AcDbLine
 62
250
  6
CONTINUOUS
 10
331.1869099517
 20
-29.1348553246
 11
331.1869099517
 21
-28.7747923709
  0
LINE
  5
3B7
100
AcDbEntity
  8
CURVE
100
AcDbLine
 62
250
  6
CONTINUOUS
 10
331.1869099517
 20
-28.2211780466
 11
331.1869099517
 21
-27.873440145
  0
LINE
  5
3B8
100
AcDbEntity
  8
CURVE
100
AcDbLine
 62
250
  6
CONTINUOUS
 10
331.1869097641
 20
-29.2410143986
 11
331.1869097641
 21
-29.6220387295
  0
LINE
  5
3B9
100
AcDbEntity
  8
CURVE
100
AcDbLine
 62
250
  6
CONTINUOUS
 10
331.1869097641
 20
-30.3077740987
 11
331.1869097641
 21
-30.6653698443
  0
LINE
  5
3BA
100
AcDbEntity
  8
CURVE
100
AcDbLine
 62
250
  6
CONTINUOUS
 10
331.1869097641
 20
-30.7221378096
 11
331.1869097641
 21
-31.0757974697
  0
LINE
  5
3BB
100
AcDbEntity
  8
CURVE
100
AcDbLine
 62
250
  6
CONTINUOUS
 10
331.1869097641
 20
-31.5799177855
 11
331.1869097641
 21
-31.6306201088
  0
LINE
  5
3BC
100
AcDbEntity
  8
CURVE
100
AcDbLine
 62
250
  6
CONTINUOUS
 10
331.1869097641
 20
-32.1327399058
 11
331.1869097641
 21
-32.478594079
  0
LINE
  5
3BD
100
AcDbEntity
  8
CURVE
100
AcDbLine
 62
250
  6
CONTINUOUS
 10
331.1869097641
 20
-33.7255935842
 11
331.1869097641
 21
-34.0441809476
  0
LINE
  5
3BE
100
AcDbEntity
  8
SUPERFICI
100
AcDbLine
 62
7
  6
CONTINUOUS
 10
332.2143465238
 20
-38.8430503739
 11
332.2143465238
 21
162.074843304
  0
LINE
  5
3BF
100
AcDbEntity
  8
0
100
AcDbLine
 62
7
  6
CONTINUOUS
 10
332.2143465238
 20
-38.8430503739
 11
332.2143465238
 21
162.074843304
  0
LINE
  5
3C0
100
AcDbEntity
  8
RACCORDO
100
AcDbLine
 62
250
  6
CONTINUOUS
 10
333.0109309728
 20
161.6162414693
 11
333.0109309728
 21
-35.3552524108
  0
LINE
  5
3C1
100
AcDbEntity
  8
RACCORDO
100
AcDbLine
 62
7
  6
CONTINUOUS
 10
333.0658560986
 20
161.6850769268
 11
333.0658560986
 21
-35.2864169533
  0
LWPOLYLINE
  5
3C2
100
AcDbEntity
  8
CURVE
100
AcDbPolyline
 62
250
  6
CONTINUOUS
 90
48
 70
0
 10
330.6335098278
 20
-28.8576553392
 10
330.6335675319
 20
-28.8520601684
 10
330.6337412737
 20
-28.8463970956
 10
330.6340319972
 20
-28.8406713778
 10
330.6344406467
 20
-28.8348882716
 10
330.6349681662
 20
-28.8290530341
 10
330.6356154999
 20
-28.8231709219
 10
330.636383592
 20
-28.817247192
 10
330.6372733865
 20
-28.8112871012
 10
330.6382858276
 20
-28.8052959063
 10
330.6394218595
 20
-28.7992788641
 10
330.6406824263
 20
-28.7932412316
 10
330.6420684721
 20
-28.7871882655
 10
330.6435809411
 20
-28.7811252227
 10
330.6452207773
 20
-28.77505736
 10
330.6469889251
 20
-28.7689899343
 10
330.6488863284
 20
-28.7629282024
 10
330.6509139314
 20
-28.7568774211
 10
330.6531285165
 20
-28.7506889716
 10
330.655476734
 20
-28.7445209082
 10
330.6579543049
 20
-28.738376573
 10
330.6605569503
 20
-28.7322593085
 10
330.6632803911
 20
-28.7261724566
 10
330.6661203485
 20
-28.7201193598
 10
330.6690725433
 20
-28.7141033602
 10
330.6721326966
 20
-28.7081278001
 10
330.6752965295
 20
-28.7021960216
 10
330.6785597628
 20
-28.696311367
 10
330.6819181177
 20
-28.6904771786
 10
330.6853673151
 20
-28.6846967985
 10
330.6889030761
 20
-28.6789735691
 10
330.6925211216
 20
-28.6733108325
 10
330.6962171727
 20
-28.6677119309
 10
330.6999869503
 20
-28.6621802066
 10
330.7038261756
 20
-28.6567190018
 10
330.7077305694
 20
-28.6513316588
 10
330.7116958529
 20
-28.6460215197
 10
330.7157177469
 20
-28.6407919268
 10
330.7197919726
 20
-28.6356462224
 10
330.723914251
 20
-28.6305877486
 10
330.7280803029
 20
-28.6256198477
 10
330.7322858496
 20
-28.620745862
 10
330.7365266119
 20
-28.6159691335
 10
330.7407983109
 20
-28.6112930047
 10
330.7450966675
 20
-28.6067208176
 10
330.7494174029
 20
-28.6022559146
 10
330.753756238
 20
-28.5979016378
 10
330.7581088938
 20
-28.5936613296
  0
LWPOLYLINE
  5
3C3
100
AcDbEntity
  8
RACCORDO
100
AcDbPolyline
 62
250
  6
CONTINUOUS
 90
9
 70
0
 10
333.0658560127
 20
161.6849842279
 10
333.0657086819
 20
161.6812381459
 10
333.0638608302
 20
161.6709868036
 10
333.0599152439
 20
161.6608847373
 10
333.053913724
 20
161.6510389718
 10
333.0459198529
 20
161.6415538169
 10
333.0360183205
 20
161.6325297617
 10
333.0243140273
 20
161.6240624104
 10
333.0109309728
 20
161.6162414693
  0
LINE
  5
3C4
100
AcDbEntity
  8
DRAFT
100
AcDbLine
 62
7
  6
CONTINUOUS
 10
309.4589868617
 20
-13.0629816701
 11
309.4327847449
 21
-13.1958476284
  0
LINE
  5
3C5
100
AcDbEntity
  8
RACCORDO
100
AcDbLine
 62
7
  6
CONTINUOUS
 10
284.0068818018
 20
32.910810533
 11
283.9374053832
 21
32.8748380642
  0
LINE
  5
3C6
100
AcDbEntity
  8
RACCORDO
100
AcDbLine
 62
7
  6
CONTINUOUS
 10
283.317847473
 20
38.392229647
 11
284.0068818018
 21
38.7027527221
  0
LINE
  5
3C7
100
AcDbEntity
  8
RACCORDO
100
AcDbLine
 62
7
  6
CONTINUOUS
 10
282.8107818338
 20
38.1671094652
 11
283.317847473
 21
38.392229647
  0
LINE
  5
3C8
100
AcDbEntity
  8
RACCORDO
100
AcDbLine
 62
7
  6
CONTINUOUS
 10
282.477188061
 20
38.0209182014
 11
282.8107818338
 21
38.1671094652
  0
LINE
  5
3C9
100
AcDbEntity
  8
RACCORDO
100
AcDbLine
 62
7
  6
CONTINUOUS
 10
282.3809961197
 20
38.8217597805
 11
282.477188061
 21
38.8606295206
  0
LINE
  5
3CA
100
AcDbEntity
  8
RACCORDO
100
AcDbLine
 62
7
  6
CONTINUOUS
 10
313.865445934
 20
107.5669387556
 11
313.8436676548
 21
107.5614762658
  0
LINE
  5
3CB
100
AcDbEntity
  8
RACCORDO
100
AcDbLine
 62
7
  6
CONTINUOUS
 10
309.247473577
 20
109.8595733046
 11
309.4589868617
 21
109.9126256673
  0
LINE
  5
3CC
100
AcDbEntity
  8
RACCORDO
100
AcDbLine
 62
7
  6
CONTINUOUS
 10
307.6912199088
 20
110.7965091438
 11
307.408995946
 21
110.725720928
  0
LWPOLYLINE
  5
3CD
100
AcDbEntity
  8
RACCORDO
100
AcDbPolyline
 62
7
  6
CONTINUOUS
 90
7
 70
0
 10
309.247473577
 20
109.8595733046
 10
309.2538163015
 20
109.8607705153
 10
309.2598910557
 20
109.8611951419
 10
309.2656978396
 20
109.8608471845
 10
309.2712803523
 20
109.8597109477
 10
309.2765948947
 20
109.8578021268
 10
309.2780795222
 20
109.8571123143
  0
LINE
  5
3CE
100
AcDbEntity
  8
RACCORDO
100
AcDbLine
 62
250
  6
CONTINUOUS
 10
313.3169177966
 20
105.5966521919
 11
281.9567320509
 21
121.2767450647
  0
LINE
  5
3CF
100
AcDbEntity
  8
0
100
AcDbLine
 62
250
  6
CONTINUOUS
 10
313.3169177966
 20
105.5966521919
 11
281.9567320509
 21
121.2767450647
  0
LINE
  5
3D0
100
AcDbEntity
  8
RACCORDO
100
AcDbLine
 62
250
  6
CONTINUOUS
 10
313.5290498309
 20
105.9625258302
 11
282.1688640853
 21
121.642618703
  0
LINE
  5
3D1
100
AcDbEntity
  8
0
100
AcDbLine
 62
250
  6
CONTINUOUS
 10
313.5290498309
 20
105.9625258302
 11
282.1688640853
 21
121.642618703
  0
LINE
  5
3D2
100
AcDbEntity
  8
RACCORDO
100
AcDbLine
 62
7
  6
CONTINUOUS
 10
282.8052601884
 20
121.9608167545
 11
313.865445934
 21
106.4307238817
  0
LINE
  5
3D3
100
AcDbEntity
  8
0
100
AcDbLine
 62
7
  6
CONTINUOUS
 10
282.8052601884
 20
121.9608167545
 11
313.865445934
 21
106.4307238817
  0
LWPOLYLINE
  5
3D4
100
AcDbEntity
  8
RACCORDO
100
AcDbPolyline
 62
250
  6
CONTINUOUS
 90
28
 70
0
 10
281.9567320509
 20
121.2767450647
 10
281.9197740382
 20
121.296533142
 10
281.8831082981
 20
121.3187763193
 10
281.8467348307
 20
121.3434745965
 10
281.8105023507
 20
121.3707455515
 10
281.7745621434
 20
121.4004716064
 10
281.7393680649
 20
121.4323000277
 10
281.7049628277
 20
121.4662301771
 10
281.6713037192
 20
121.5022626929
 10
281.6387164579
 20
121.5400467563
 10
281.6072052184
 20
121.5796065655
 10
281.5767658261
 20
121.6209179222
 10
281.5477114758
 20
121.6635574125
 10
281.5200583412
 20
121.7075360104
 10
281.4937902486
 20
121.7528427419
 10
281.4691718711
 20
121.7990212703
 10
281.44621862
 20
121.84608419
 10
281.4249150841
 20
121.8940189066
 10
281.4054797033
 20
121.9423313003
 10
281.3879342778
 20
121.9910152081
 10
281.3722570074
 20
122.040076793
 10
281.358600932
 20
122.0890404243
 10
281.34698298
 20
122.1379493343
 10
281.3373862228
 20
122.1867602907
 10
281.3299129156
 20
122.2348679662
 10
281.3245971432
 20
122.282070585
 10
281.3214048206
 20
122.3285699228
 10
281.3203359479
 20
122.3743659796
  0
LWPOLYLINE
  5
3D5
100
AcDbEntity
  8
0
100
AcDbPolyline
 62
250
  6
CONTINUOUS
 90
28
 70
0
 10
281.9567320509
 20
121.2767450647
 10
281.9197740382
 20
121.296533142
 10
281.8831082981
 20
121.3187763193
 10
281.8467348307
 20
121.3434745965
 10
281.8105023507
 20
121.3707455515
 10
281.7745621434
 20
121.4004716064
 10
281.7393680649
 20
121.4323000277
 10
281.7049628277
 20
121.4662301771
 10
281.6713037192
 20
121.5022626929
 10
281.6387164579
 20
121.5400467563
 10
281.6072052184
 20
121.5796065655
 10
281.5767658261
 20
121.6209179222
 10
281.5477114758
 20
121.6635574125
 10
281.5200583412
 20
121.7075360104
 10
281.4937902486
 20
121.7528427419
 10
281.4691718711
 20
121.7990212703
 10
281.44621862
 20
121.84608419
 10
281.4249150841
 20
121.8940189066
 10
281.4054797033
 20
121.9423313003
 10
281.3879342778
 20
121.9910152081
 10
281.3722570074
 20
122.040076793
 10
281.358600932
 20
122.0890404243
 10
281.34698298
 20
122.1379493343
 10
281.3373862228
 20
122.1867602907
 10
281.3299129156
 20
122.2348679662
 10
281.3245971432
 20
122.282070585
 10
281.3214048206
 20
122.3285699228
 10
281.3203359479
 20
122.3743659796
  0
LWPOLYLINE
  5
3D6
100
AcDbEntity
  8
RACCORDO
100
AcDbPolyline
 62
250
  6
CONTINUOUS
 90
12
 70
0
 10
313.9533138996
 20
106.0578770038
 10
313.938054417
 20
106.0660999092
 10
313.9240666001
 20
106.0748699931
 10
313.9114286742
 20
106.0841382095
 10
313.9002113159
 20
106.0938527267
 10
313.8904772572
 20
106.1039592173
 10
313.8822809349
 20
106.1144011617
 10
313.8756681861
 20
106.1251201642
 10
313.870675992
 20
106.1360562799
 10
313.867332271
 20
106.1471483495
 10
313.8656557225
 20
106.1583343418
 10
313.865445934
 20
106.1639430209
  0
LWPOLYLINE
  5
3D7
100
AcDbEntity
  8
0
100
AcDbPolyline
 62
250
  6
CONTINUOUS
 90
12
 70
0
 10
313.9533138996
 20
106.0578770038
 10
313.938054417
 20
106.0660999092
 10
313.9240666001
 20
106.0748699931
 10
313.9114286742
 20
106.0841382095
 10
313.9002113159
 20
106.0938527267
 10
313.8904772572
 20
106.1039592173
 10
313.8822809349
 20
106.1144011617
 10
313.8756681861
 20
106.1251201642
 10
313.870675992
 20
106.1360562799
 10
313.867332271
 20
106.1471483495
 10
313.8656557225
 20
106.1583343418
 10
313.865445934
 20
106.1639430209
  0
LWPOLYLINE
  5
3D8
100
AcDbEntity
  8
RACCORDO
100
AcDbPolyline
 62
250
  6
CONTINUOUS
 90
25
 70
0
 10
282.1688640853
 20
121.642618703
 10
282.1411158808
 20
121.6576053419
 10
282.1134864916
 20
121.6747528835
 10
282.0860942312
 20
121.693987901
 10
282.0590563974
 20
121.7152280289
 10
282.0324887713
 20
121.7383823146
 10
282.0065051217
 20
121.7633516077
 10
281.9812167008
 20
121.7900290025
 10
281.9567318138
 20
121.8183002487
 10
281.9331553511
 20
121.8480442303
 10
281.9105882884
 20
121.8791335399
 10
281.8891272318
 20
121.9114350721
 10
281.8688640506
 20
121.9448105436
 10
281.8498855166
 20
121.9791170284
 10
281.8322728923
 20
122.014207628
 10
281.8161015667
 20
122.0499321462
 10
281.8014407809
 20
122.0861376433
 10
281.7883533374
 20
122.1226690501
 10
281.7768952966
 20
122.1593698973
 10
281.7671157273
 20
122.1960830207
 10
281.7590565078
 20
122.2326512137
 10
281.7527521547
 20
122.2689178641
 10
281.7482296644
 20
122.3047276651
 10
281.7455084009
 20
122.3399272804
 10
281.7446000166
 20
122.3743659796
  0
LWPOLYLINE
  5
3D9
100
AcDbEntity
  8
0
100
AcDbPolyline
 62
250
  6
CONTINUOUS
 90
25
 70
0
 10
282.1688640853
 20
121.642618703
 10
282.1411158808
 20
121.6576053419
 10
282.1134864916
 20
121.6747528835
 10
282.0860942312
 20
121.693987901
 10
282.0590563974
 20
121.7152280289
 10
282.0324887713
 20
121.7383823146
 10
282.0065051217
 20
121.7633516077
 10
281.9812167008
 20
121.7900290025
 10
281.9567318138
 20
121.8183002487
 10
281.9331553511
 20
121.8480442303
 10
281.9105882884
 20
121.8791335399
 10
281.8891272318
 20
121.9114350721
 10
281.8688640506
 20
121.9448105436
 10
281.8498855166
 20
121.9791170284
 10
281.8322728923
 20
122.014207628
 10
281.8161015667
 20
122.0499321462
 10
281.8014407809
 20
122.0861376433
 10
281.7883533374
 20
122.1226690501
 10
281.7768952966
 20
122.1593698973
 10
281.7671157273
 20
122.1960830207
 10
281.7590565078
 20
122.2326512137
 10
281.7527521547
 20
122.2689178641
 10
281.7482296644
 20
122.3047276651
 10
281.7455084009
 20
122.3399272804
 10
281.7446000166
 20
122.3743659796
  0
LWPOLYLINE
  5
3DA
100
AcDbEntity
  8
RACCORDO
100
AcDbPolyline
 62
250
  6
CONTINUOUS
 90
4
 70
0
 10
284.3816103755
 20
122.2979950569
 10
284.4009546948
 20
122.285376743
 10
284.4212135883
 20
122.2733603669
 10
284.4423729066
 20
122.2621236398
  0
LWPOLYLINE
  5
3DB
100
AcDbEntity
  8
RACCORDO
100
AcDbPolyline
 62
7
  6
CONTINUOUS
 90
12
 70
0
 10
266.8776799421
 20
190.8453406652
 10
266.8500014688
 20
190.8959895117
 10
266.8253468729
 20
190.9460925274
 10
266.8037189836
 20
190.9954879349
 10
266.785096472
 20
191.0441233293
 10
266.769415269
 20
191.0917520379
 10
266.7565819587
 20
191.1379362365
 10
266.7465057765
 20
191.1824867753
 10
266.7390772865
 20
191.2253566208
 10
266.7341675978
 20
191.2663392397
 10
266.731651352
 20
191.3052875002
 10
266.7312333329
 20
191.3282955317
  0
LWPOLYLINE
  5
3DC
100
AcDbEntity
  8
0
100
AcDbPolyline
 62
7
  6
CONTINUOUS
 90
12
 70
0
 10
266.8776799421
 20
190.8453406652
 10
266.8500014688
 20
190.8959895117
 10
266.8253468729
 20
190.9460925274
 10
266.8037189836
 20
190.9954879349
 10
266.785096472
 20
191.0441233293
 10
266.769415269
 20
191.0917520379
 10
266.7565819587
 20
191.1379362365
 10
266.7465057765
 20
191.1824867753
 10
266.7390772865
 20
191.2253566208
 10
266.7341675978
 20
191.2663392397
 10
266.731651352
 20
191.3052875002
 10
266.7312333329
 20
191.3282955317
  0
LWPOLYLINE
  5
3DD
100
AcDbEntity
  8
RACCORDO
100
AcDbPolyline
 62
7
  6
CONTINUOUS
 90
23
 70
0
 10
333.0658560127
 20
161.6849842281
 10
333.0655537108
 20
161.70614774
 10
333.0629097623
 20
161.7516318948
 10
333.0576293658
 20
161.797319636
 10
333.049795136
 20
161.8430639109
 10
333.0394854901
 20
161.8887506904
 10
333.0267721147
 20
161.9342402986
 10
333.0117248074
 20
161.9793737494
 10
332.994424251
 20
162.0239747321
 10
332.9749305273
 20
162.0678906811
 10
332.9533221934
 20
162.1109408363
 10
332.9297081292
 20
162.1528938293
 10
332.9041338043
 20
162.1936288114
 10
332.8767060964
 20
162.2329336738
 10
332.8476379648
 20
162.2704651169
 10
332.8170179038
 20
162.3060922899
 10
332.7849461629
 20
162.3396646522
 10
332.751672242
 20
162.3708896906
 10
332.7172990152
 20
162.3996617509
 10
332.6818962905
 20
162.4258859061
 10
332.6456702306
 20
162.4493814831
 10
332.6087575592
 20
162.4700417312
 10
332.6017923967
 20
162.4735798435
  0
LWPOLYLINE
  5
3DE
100
AcDbEntity
  8
RACCORDO
100
AcDbPolyline
 62
250
  6
CONTINUOUS
 90
15
 70
0
 10
333.0109309728
 20
-35.3552524108
 10
333.0100959172
 20
-35.3942522669
 10
333.007139904
 20
-35.4319668823
 10
333.0020843437
 20
-35.4682431201
 10
332.9949649586
 20
-35.5029072947
 10
332.985819101
 20
-35.5358522824
 10
332.9746678867
 20
-35.5670235028
 10
332.9615357076
 20
-35.596318542
 10
332.9464834646
 20
-35.6235714169
 10
332.929589948
 20
-35.6486364255
 10
332.9109338503
 20
-35.6714012614
 10
332.8905886658
 20
-35.691779392
 10
332.8686426743
 20
-35.7096846028
 10
332.8451989566
 20
-35.7250369118
 10
332.8414792494
 20
-35.7271605926
  0
LWPOLYLINE
  5
3DF
100
AcDbEntity
  8
RACCORDO
100
AcDbPolyline
 62
250
  6
CONTINUOUS
 90
9
 70
0
 10
333.0658560986
 20
-35.2864169822
 10
333.0657087358
 20
-35.2902550326
 10
333.063861016
 20
-35.3005064236
 10
333.0599155307
 20
-35.3106085677
 10
333.0539140664
 20
-35.3204544355
 10
333.0459201992
 20
-35.3299397051
 10
333.0360186151
 20
-35.3389638799
 10
333.0243142076
 20
-35.3474313526
 10
333.0109309728
 20
-35.3552524108
  0
LWPOLYLINE
  5
3E0
100
AcDbEntity
  8
CURVE
100
AcDbPolyline
 62
250
  6
CONTINUOUS
 90
49
 70
0
 10
330.0053918111
 20
-29.0943315511
 10
330.0060927409
 20
-29.0873549824
 10
330.006939922
 20
-29.0803048267
 10
330.007932943
 20
-29.0731885886
 10
330.0090713929
 20
-29.0660137728
 10
330.0103548605
 20
-29.0587878839
 10
330.0117829346
 20
-29.0515184268
 10
330.013355204
 20
-29.044212906
 10
330.0150712576
 20
-29.0368788263
 10
330.0169306842
 20
-29.0295236923
 10
330.0189330726
 20
-29.0221550087
 10
330.0210780117
 20
-29.0147802802
 10
330.0233650902
 20
-29.0074070116
 10
330.0257938971
 20
-29.0000427074
 10
330.0283640212
 20
-28.9926948724
 10
330.0310750512
 20
-28.9853710112
 10
330.0339265761
 20
-28.9780786286
 10
330.0369181846
 20
-28.9708252291
 10
330.0400494656
 20
-28.9636183177
 10
330.0433200079
 20
-28.9564653988
 10
330.0467294003
 20
-28.9493739771
 10
330.0502772317
 20
-28.9423515575
 10
330.0539630909
 20
-28.9354056445
 10
330.0577865667
 20
-28.9285437428
 10
330.061747248
 20
-28.9217733572
 10
330.065821037
 20
-28.9151377012
 10
330.0700237433
 20
-28.9086052822
 10
330.0743489761
 20
-28.9021813921
 10
330.0787903444
 20
-28.8958713231
 10
330.0833414574
 20
-28.8896803672
 10
330.0879959244
 20
-28.8836138163
 10
330.0927473544
 20
-28.8776769626
 10
330.0975893567
 20
-28.8718750981
 10
330.1025155404
 20
-28.8662135148
 10
330.1075195146
 20
-28.8606975047
 10
330.1125948886
 20
-28.8553323599
 10
330.1177352714
 20
-28.8501233725
 10
330.1229342723
 20
-28.8450758344
 10
330.1281855003
 20
-28.8401950378
 10
330.1334825647
 20
-28.8354862746
 10
330.1388190747
 20
-28.8309548368
 10
330.1441886393
 20
-28.8266060166
 10
330.1495848677
 20
-28.822445106
 10
330.1550013692
 20
-28.8184773969
 10
330.1604317528
 20
-28.8147081815
 10
330.1658696278
 20
-28.8111427518
 10
330.1713086032
 20
-28.8077863997
 10
330.1767422883
 20
-28.8046444174
 10
330.1821642921
 20
-28.8017220969
  0
LINE
  5
3E1
100
AcDbEntity
  8
RACCORDO
100
AcDbLine
 62
250
  6
CONTINUOUS
 10
313.5290498309
 20
44.4747221615
 11
313.864438156
 21
44.642416324
  0
LINE
  5
3E2
100
AcDbEntity
  8
0
100
AcDbLine
 62
250
  6
CONTINUOUS
 10
313.5290498309
 20
44.4747221615
 11
313.864438156
 21
44.642416324
  0
LWPOLYLINE
  5
3E3
100
AcDbEntity
  8
RACCORDO
100
AcDbPolyline
 62
250
  6
CONTINUOUS
 90
12
 70
0
 10
313.7973779882
 20
44.4576810892
 10
313.787325592
 20
44.4529611858
 10
313.7647585611
 20
44.4444389532
 10
313.7411821372
 20
44.4382714429
 10
313.7166972949
 20
44.4344850848
 10
313.6914089042
 20
44.4330961034
 10
313.6654252569
 20
44.4341104497
 10
313.6388576149
 20
44.437523783
 10
313.6118197603
 20
44.4433214862
 10
313.5844274792
 20
44.4514787299
 10
313.5567980648
 20
44.4619605836
 10
313.5290498309
 20
44.4747221615
  0
LWPOLYLINE
  5
3E4
100
AcDbEntity
  8
0
100
AcDbPolyline
 62
250
  6
CONTINUOUS
 90
12
 70
0
 10
313.7973779882
 20
44.4576810892
 10
313.787325592
 20
44.4529611858
 10
313.7647585611
 20
44.4444389532
 10
313.7411821372
 20
44.4382714429
 10
313.7166972949
 20
44.4344850848
 10
313.6914089042
 20
44.4330961034
 10
313.6654252569
 20
44.4341104497
 10
313.6388576149
 20
44.437523783
 10
313.6118197603
 20
44.4433214862
 10
313.5844274792
 20
44.4514787299
 10
313.5567980648
 20
44.4619605836
 10
313.5290498309
 20
44.4747221615
  0
LWPOLYLINE
  5
3E5
100
AcDbEntity
  8
RACCORDO
100
AcDbPolyline
 62
250
  6
CONTINUOUS
 90
22
 70
0
 10
281.3203359479
 20
122.3743659796
 10
281.3367817588
 20
122.3667362383
 10
281.3543219266
 20
122.3597423299
 10
281.3728583593
 20
122.3534233669
 10
281.3922873937
 20
122.3478146878
 10
281.4125003749
 20
122.3429476584
 10
281.4333842636
 20
122.3388494973
 10
281.4548222687
 20
122.3355431229
 10
281.4766945001
 20
122.3330470258
 10
281.4988786394
 20
122.3313751653
 10
281.5212506239
 20
122.3305368911
 10
281.5436853405
 20
122.3305368911
 10
281.5660573251
 20
122.3313751653
 10
281.5882414644
 20
122.3330470258
 10
281.6101136958
 20
122.3355431229
 10
281.6315517008
 20
122.3388494973
 10
281.6524355895
 20
122.3429476584
 10
281.6726485707
 20
122.3478146878
 10
281.6920776052
 20
122.3534233669
 10
281.7106140379
 20
122.3597423299
 10
281.7281542056
 20
122.3667362383
 10
281.7446000166
 20
122.3743659796
  0
LWPOLYLINE
  5
3E6
100
AcDbEntity
  8
0
100
AcDbPolyline
 62
250
  6
CONTINUOUS
 90
22
 70
0
 10
281.3203359479
 20
122.3743659796
 10
281.3367817588
 20
122.3667362383
 10
281.3543219266
 20
122.3597423299
 10
281.3728583593
 20
122.3534233669
 10
281.3922873937
 20
122.3478146878
 10
281.4125003749
 20
122.3429476584
 10
281.4333842636
 20
122.3388494973
 10
281.4548222687
 20
122.3355431229
 10
281.4766945001
 20
122.3330470258
 10
281.4988786394
 20
122.3313751653
 10
281.5212506239
 20
122.3305368911
 10
281.5436853405
 20
122.3305368911
 10
281.5660573251
 20
122.3313751653
 10
281.5882414644
 20
122.3330470258
 10
281.6101136958
 20
122.3355431229
 10
281.6315517008
 20
122.3388494973
 10
281.6524355895
 20
122.3429476584
 10
281.6726485707
 20
122.3478146878
 10
281.6920776052
 20
122.3534233669
 10
281.7106140379
 20
122.3597423299
 10
281.7281542056
 20
122.3667362383
 10
281.7446000166
 20
122.3743659796
  0
LWPOLYLINE
  5
3E7
100
AcDbEntity
  8
RACCORDO
100
AcDbPolyline
 62
250
  6
CONTINUOUS
 90
6
 70
0
 10
284.4729508407
 20
122.2596766217
 10
284.4714843999
 20
122.2603681849
 10
284.464826302
 20
122.2626217479
 10
284.4576922587
 20
122.2636719874
 10
284.4501751657
 20
122.2635052275
 10
284.4423729066
 20
122.2621236398
  0
LINE
  5
3E8
100
AcDbEntity
  8
RACCORDO
100
AcDbLine
 62
250
  6
CONTINUOUS
 10
307.408995946
 20
110.725720928
 11
292.9840176098
 21
117.9382100961
  0
LINE
  5
3E9
100
AcDbEntity
  8
RACCORDO
100
AcDbLine
 62
7
  6
CONTINUOUS
 10
307.4260998319
 20
110.7300109733
 11
293.0146415275
 21
117.9357401255
  0
LINE
  5
3EA
100
AcDbEntity
  8
RACCORDO
100
AcDbLine
 62
250
  6
CONTINUOUS
 10
284.4423729066
 20
122.2621236398
 11
284.9230003042
 21
122.021809941
  0
LINE
  5
3EB
100
AcDbEntity
  8
RACCORDO
100
AcDbLine
 62
250
  6
CONTINUOUS
 10
286.6907672572
 20
121.1379264646
 11
291.2869613349
 21
118.8398294257
  0
LINE
  5
3EC
100
AcDbEntity
  8
RACCORDO
100
AcDbLine
 62
250
  6
CONTINUOUS
 10
309.247473577
 20
109.8595733046
 11
313.8436676548
 21
107.5614762658
  0
LINE
  5
3ED
100
AcDbEntity
  8
RACCORDO
100
AcDbLine
 62
7
  6
CONTINUOUS
 10
284.4729508407
 20
122.2596766217
 11
284.9401041902
 21
122.0260999863
  0
LINE
  5
3EE
100
AcDbEntity
  8
RACCORDO
100
AcDbLine
 62
7
  6
CONTINUOUS
 10
286.7213911749
 20
121.1354564939
 11
291.3040652209
 21
118.844119471
  0
LINE
  5
3EF
100
AcDbEntity
  8
RACCORDO
100
AcDbLine
 62
7
  6
CONTINUOUS
 10
309.2780974948
 20
109.857103334
 11
313.8607715407
 21
107.565766311
  0
LINE
  5
3F0
100
AcDbEntity
  8
DRAFT
100
AcDbLine
 62
7
  6
CONTINUOUS
 10
309.4589868617
 20
109.9126256673
 11
307.6912199088
 21
110.7965091438
  0
LINE
  5
3F1
100
AcDbEntity
  8
DRAFT
100
AcDbLine
 62
7
  6
CONTINUOUS
 10
293.2662415726
 20
118.0089983119
 11
291.4984746196
 21
118.8928817884
  0
LINE
  5
3F2
100
AcDbEntity
  8
DRAFT
100
AcDbLine
 62
7
  6
CONTINUOUS
 10
286.9022805419
 20
121.1909788273
 11
285.1345135889
 21
122.0748623037
  0
LWPOLYLINE
  5
3F3
100
AcDbEntity
  8
RACCORDO
100
AcDbPolyline
 62
7
  6
CONTINUOUS
 90
25
 70
0
 10
284.4729508407
 20
122.2596766217
 10
284.466621468
 20
122.2629041072
 10
284.4396385651
 20
122.2780371568
 10
284.4122434255
 20
122.2956655375
 10
284.3846466046
 20
122.3157508338
 10
284.3570419339
 20
122.3382314549
 10
284.3296009311
 20
122.3630413809
 10
284.3025045562
 20
122.390085158
 10
284.2759354577
 20
122.41924336
 10
284.250064517
 20
122.4503829066
 10
284.2250513895
 20
122.4833626046
 10
284.201044451
 20
122.5180332996
 10
284.1781862746
 20
122.5542379309
 10
284.1566245967
 20
122.5917818056
 10
284.1365049718
 20
122.6304485727
 10
284.1179365585
 20
122.6700539163
 10
284.101036751
 20
122.7103718331
 10
284.0859323469
 20
122.7511056383
 10
284.0726929387
 20
122.7920386269
 10
284.0613828685
 20
122.8329440331
 10
284.0520705436
 20
122.8735032029
 10
284.0447745632
 20
122.9134971266
 10
284.039500844
 20
122.9527297746
 10
284.0362450888
 20
122.9909070633
 10
284.0349710248
 20
123.0277845514
  0
LINE
  5
3F4
100
AcDbEntity
  8
DRAFT
100
AcDbLine
 62
7
  6
CONTINUOUS
 10
284.0068818018
 20
10.4008530898
 11
285.3257212253
 21
11.1698572701
  0
LINE
  5
3F5
100
AcDbEntity
  8
RACCORDO
100
AcDbLine
 62
250
  6
CONTINUOUS
 10
282.9768927686
 20
121.8750004644
 11
284.4423729066
 21
122.2621236398
  0
LINE
  5
3F6
100
AcDbEntity
  8
RACCORDO
100
AcDbLine
 62
250
  6
CONTINUOUS
 10
282.477188061
 20
122.5945405156
 11
284.0068818018
 21
122.9986264414
  0
LINE
  5
3F7
100
AcDbEntity
  8
RACCORDO
100
AcDbLine
 62
7
  6
CONTINUOUS
 10
292.9840176098
 20
117.9382100961
 11
293.2662415726
 21
118.0089983119
  0
LINE
  5
3F8
100
AcDbEntity
  8
RACCORDO
100
AcDbLine
 62
7
  6
CONTINUOUS
 10
291.4984746196
 20
118.8928817884
 11
291.2869613349
 21
118.8398294257
  0
LINE
  5
3F9
100
AcDbEntity
  8
RACCORDO
100
AcDbLine
 62
7
  6
CONTINUOUS
 10
286.6907672572
 20
121.1379264646
 11
286.9022805419
 21
121.1909788273
  0
LINE
  5
3FA
100
AcDbEntity
  8
RACCORDO
100
AcDbLine
 62
7
  6
CONTINUOUS
 10
285.1345135889
 20
122.0748623037
 11
284.9230003042
 21
122.021809941
  0
LWPOLYLINE
  5
3FB
100
AcDbEntity
  8
RACCORDO
100
AcDbPolyline
 62
7
  6
CONTINUOUS
 90
7
 70
0
 10
292.9840176098
 20
117.9382100961
 10
292.9903603342
 20
117.9394073068
 10
292.9964350884
 20
117.9398319334
 10
293.0022418723
 20
117.939483976
 10
293.007824385
 20
117.9383477392
 10
293.0131389274
 20
117.9364389183
 10
293.0146235549
 20
117.9357491058
  0
LWPOLYLINE
  5
3FC
100
AcDbEntity
  8
RACCORDO
100
AcDbPolyline
 62
7
  6
CONTINUOUS
 90
7
 70
0
 10
286.6907672572
 20
121.1379264646
 10
286.6971099817
 20
121.1391236752
 10
286.7031847359
 20
121.1395483018
 10
286.7089915197
 20
121.1392003444
 10
286.7145740324
 20
121.1380641076
 10
286.7198885748
 20
121.1361552867
 10
286.7213732023
 20
121.1354654742
  0
LINE
  5
3FD
100
AcDbEntity
  8
RACCORDO
100
AcDbLine
 62
7
  6
CONTINUOUS
 10
284.6132963385
 20
137.7800623971
 11
285.3257212253
 21
137.4238499537
  0
LWPOLYLINE
  5
3FE
100
AcDbEntity
  8
CURVE
100
AcDbPolyline
 62
250
  6
CONTINUOUS
 90
32
 70
0
 10
329.8042208615
 20
-28.9340297426
 10
329.7983401916
 20
-28.9578969305
 10
329.7929651452
 20
-28.9817122209
 10
329.7880711944
 20
-29.0054701331
 10
329.7836338116
 20
-29.0291651862
 10
329.779628469
 20
-29.0527918994
 10
329.7760306388
 20
-29.0763447918
 10
329.7728157933
 20
-29.0998183826
 10
329.7699594046
 20
-29.1232071909
 10
329.7674369451
 20
-29.1465057358
 10
329.765223887
 20
-29.1697085367
 10
329.7632957025
 20
-29.1928101125
 10
329.7616278638
 20
-29.2158049824
 10
329.7595660761
 20
-29.2501805009
 10
329.7580163625
 20
-29.2843093561
 10
329.7569573754
 20
-29.318198652
 10
329.7563677669
 20
-29.3518554922
 10
329.7562261893
 20
-29.3852869806
 10
329.7565112949
 20
-29.4185002211
 10
329.7572017358
 20
-29.4515023172
 10
329.7582761643
 20
-29.484300373
 10
329.7597132326
 20
-29.5169014921
 10
329.761491593
 20
-29.5493127783
 10
329.7635898977
 20
-29.5815413355
 10
329.765986799
 20
-29.6135942673
 10
329.768660949
 20
-29.6454786777
 10
329.771591
 20
-29.6772016704
 10
329.7747556043
 20
-29.7087703492
 10
329.7781334141
 20
-29.7401918179
 10
329.7817030816
 20
-29.7714731802
 10
329.785443259
 20
-29.80262154
 10
329.7893325987
 20
-29.8336440011
  0
LWPOLYLINE
  5
3FF
100
AcDbEntity
  8
RACCORDO
100
AcDbPolyline
 62
7
  6
CONTINUOUS
 90
12
 70
0
 10
266.8776799421
 20
-9.206527609
 10
266.8497679762
 20
-9.2267358301
 10
266.8251677776
 20
-9.2454037993
 10
266.8037189836
 20
-9.2624118298
 10
266.7851623879
 20
-9.2776179993
 10
266.7694154201
 20
-9.2910211199
 10
266.7565819587
 20
-9.3027514462
 10
266.7465459909
 20
-9.3128240889
 10
266.7390872461
 20
-9.321225412
 10
266.7341675978
 20
-9.3280621192
 10
266.7316691657
 20
-9.3333930226
 10
266.7312499939
 20
-9.3359467105
  0
LWPOLYLINE
  5
400
100
AcDbEntity
  8
0
100
AcDbPolyline
 62
7
  6
CONTINUOUS
 90
12
 70
0
 10
266.8776799421
 20
-9.206527609
 10
266.8497679762
 20
-9.2267358301
 10
266.8251677776
 20
-9.2454037993
 10
266.8037189836
 20
-9.2624118298
 10
266.7851623879
 20
-9.2776179993
 10
266.7694154201
 20
-9.2910211199
 10
266.7565819587
 20
-9.3027514462
 10
266.7465459909
 20
-9.3128240889
 10
266.7390872461
 20
-9.321225412
 10
266.7341675978
 20
-9.3280621192
 10
266.7316691657
 20
-9.3333930226
 10
266.7312499939
 20
-9.3359467105
  0
LINE
  5
401
100
AcDbEntity
  8
RACCORDO
100
AcDbLine
 62
7
  6
CONTINUOUS
 10
282.477188061
 20
7.164099742
 11
282.9789192173
 21
7.4632099539
  0
LINE
  5
402
100
AcDbEntity
  8
RACCORDO
100
AcDbLine
 62
7
  6
CONTINUOUS
 10
282.9789192173
 20
7.4632099539
 11
283.6604879151
 21
7.8643206708
  0
LINE
  5
403
100
AcDbEntity
  8
RACCORDO
100
AcDbLine
 62
7
  6
CONTINUOUS
 10
283.6604879151
 20
7.8643206708
 11
284.0068818018
 21
8.0663094607
  0
LINE
  5
404
100
AcDbEntity
  8
RACCORDO
100
AcDbLine
 62
7
  6
CONTINUOUS
 10
282.3809961197
 20
6.2703666849
 11
282.477188061
 21
6.3243884229
  0
LWPOLYLINE
  5
405
100
AcDbEntity
  8
RACCORDO
100
AcDbPolyline
 62
7
  6
CONTINUOUS
 90
9
 70
0
 10
284.0068818018
 20
8.0663080217
 10
284.0134658445
 20
8.0699629965
 10
284.0193151451
 20
8.0738265235
 10
284.0243461503
 20
8.0778649632
 10
284.0284996851
 20
8.08205646
 10
284.0316752257
 20
8.0863415681
 10
284.0337851713
 20
8.0906150567
 10
284.034820851
 20
8.0947713083
 10
284.0349478218
 20
8.0967851112
  0
LINE
  5
406
100
AcDbEntity
  8
DRAFT
100
AcDbLine
 62
7
  6
CONTINUOUS
 10
285.3257212253
 20
14.4482426163
 11
283.9374053832
 21
13.8201147727
  0
LINE
  5
407
100
AcDbEntity
  8
RACCORDO
100
AcDbLine
 62
7
  6
CONTINUOUS
 10
282.3809961197
 20
7.125230002
 11
282.477188061
 21
7.164099742
  0
LINE
  5
408
100
AcDbEntity
  8
RACCORDO
100
AcDbLine
 62
7
  6
CONTINUOUS
 10
284.5302772153
 20
14.8129699518
 11
283.9654714031
 21
14.5931406367
  0
LINE
  5
409
100
AcDbEntity
  8
RACCORDO
100
AcDbLine
 62
250
  6
CONTINUOUS
 10
284.6132963385
 20
14.8044550597
 11
283.9654714031
 21
14.5523136887
  0
LINE
  5
40A
100
AcDbEntity
  8
RACCORDO
100
AcDbLine
 62
250
  6
CONTINUOUS
 10
282.4787624695
 20
-0.3891528063
 11
282.3967271766
 21
-0.4304867509
  0
LINE
  5
40B
100
AcDbEntity
  8
RACCORDO
100
AcDbLine
 62
250
  6
CONTINUOUS
 10
281.7446000166
 20
-0.6012413578
 11
282.3809961197
 21
-0.2830433062
  0
LINE
  5
40C
100
AcDbEntity
  8
0
100
AcDbLine
 62
250
  6
CONTINUOUS
 10
281.7446000166
 20
-0.6012413578
 11
282.3809961197
 21
-0.2830433062
  0
LINE
  5
40D
100
AcDbEntity
  8
RACCORDO
100
AcDbLine
 62
250
  6
CONTINUOUS
 10
282.1688640853
 20
-1.3329886344
 11
282.8052601884
 21
-1.0147905828
  0
LINE
  5
40E
100
AcDbEntity
  8
0
100
AcDbLine
 62
250
  6
CONTINUOUS
 10
282.1688640853
 20
-1.3329886344
 11
282.8052601884
 21
-1.0147905828
  0
LWPOLYLINE
  5
40F
100
AcDbEntity
  8
RACCORDO
100
AcDbPolyline
 62
7
  6
CONTINUOUS
 90
28
 70
0
 10
313.3948857523
 20
152.4162682071
 10
313.4165072841
 20
152.4047046177
 10
313.4391489508
 20
152.3910285921
 10
313.4626473633
 20
152.3751912578
 10
313.4868223942
 20
152.3571748321
 10
313.5114951835
 20
152.3369822263
 10
313.5365097466
 20
152.3146160279
 10
313.5617183996
 20
152.2900839853
 10
313.5869181256
 20
152.2634648548
 10
313.6118934476
 20
152.2348816235
 10
313.6364832444
 20
152.2044241871
 10
313.6605166325
 20
152.1722150848
 10
313.6837874067
 20
152.1384559072
 10
313.7061518309
 20
152.1032941815
 10
313.7274680813
 20
152.0668985522
 10
313.7475621867
 20
152.0295297783
 10
313.7663230556
 20
151.9913777055
 10
313.7836500718
 20
151.9526408019
 10
313.7994202934
 20
151.9136133033
 10
313.8135686249
 20
151.8745061042
 10
313.8260448114
 20
151.8355290253
 10
313.8367884433
 20
151.7969863847
 10
313.8457884749
 20
151.7590934367
 10
313.853053427
 20
151.7220452617
 10
313.8585945663
 20
151.686119721
 10
313.8624579866
 20
151.651534194
 10
313.8647144771
 20
151.61843401
 10
313.865445934
 20
151.5869754494
  0
LWPOLYLINE
  5
410
100
AcDbEntity
  8
0
100
AcDbPolyline
 62
7
  6
CONTINUOUS
 90
28
 70
0
 10
313.3948857523
 20
152.4162682071
 10
313.4165072841
 20
152.4047046177
 10
313.4391489508
 20
152.3910285921
 10
313.4626473633
 20
152.3751912578
 10
313.4868223942
 20
152.3571748321
 10
313.5114951835
 20
152.3369822263
 10
313.5365097466
 20
152.3146160279
 10
313.5617183996
 20
152.2900839853
 10
313.5869181256
 20
152.2634648548
 10
313.6118934476
 20
152.2348816235
 10
313.6364832444
 20
152.2044241871
 10
313.6605166325
 20
152.1722150848
 10
313.6837874067
 20
152.1384559072
 10
313.7061518309
 20
152.1032941815
 10
313.7274680813
 20
152.0668985522
 10
313.7475621867
 20
152.0295297783
 10
313.7663230556
 20
151.9913777055
 10
313.7836500718
 20
151.9526408019
 10
313.7994202934
 20
151.9136133033
 10
313.8135686249
 20
151.8745061042
 10
313.8260448114
 20
151.8355290253
 10
313.8367884433
 20
151.7969863847
 10
313.8457884749
 20
151.7590934367
 10
313.853053427
 20
151.7220452617
 10
313.8585945663
 20
151.686119721
 10
313.8624579866
 20
151.651534194
 10
313.8647144771
 20
151.61843401
 10
313.865445934
 20
151.5869754494
  0
LWPOLYLINE
  5
411
100
AcDbEntity
  8
RACCORDO
100
AcDbPolyline
 62
250
  6
CONTINUOUS
 90
5
 70
0
 10
313.3169177966
 20
152.5785303472
 10
313.3538758093
 20
152.5587422698
 10
313.3905415494
 20
152.5364990926
 10
313.4269150168
 20
152.5118008154
 10
313.4631474968
 20
152.4845298604
  0
LWPOLYLINE
  5
412
100
AcDbEntity
  8
0
100
AcDbPolyline
 62
250
  6
CONTINUOUS
 90
5
 70
0
 10
313.3169177966
 20
152.5785303472
 10
313.3538758093
 20
152.5587422698
 10
313.3905415494
 20
152.5364990926
 10
313.4269150168
 20
152.5118008154
 10
313.4631474968
 20
152.4845298604
  0
LWPOLYLINE
  5
413
100
AcDbEntity
  8
RACCORDO
100
AcDbPolyline
 62
250
  6
CONTINUOUS
 90
12
 70
0
 10
313.9533138996
 20
151.4809094323
 10
313.938054417
 20
151.4891323377
 10
313.9240666001
 20
151.4979024216
 10
313.9114286742
 20
151.507170638
 10
313.9002113159
 20
151.5168851552
 10
313.8904772572
 20
151.5269916458
 10
313.8822809349
 20
151.5374335901
 10
313.8756681861
 20
151.5481525927
 10
313.870675992
 20
151.5590887084
 10
313.867332271
 20
151.570180778
 10
313.8656557226
 20
151.5813667703
 10
313.865445934
 20
151.5869754494
  0
LWPOLYLINE
  5
414
100
AcDbEntity
  8
0
100
AcDbPolyline
 62
250
  6
CONTINUOUS
 90
12
 70
0
 10
313.9533138996
 20
151.4809094323
 10
313.938054417
 20
151.4891323377
 10
313.9240666001
 20
151.4979024216
 10
313.9114286742
 20
151.507170638
 10
313.9002113159
 20
151.5168851552
 10
313.8904772572
 20
151.5269916458
 10
313.8822809349
 20
151.5374335901
 10
313.8756681861
 20
151.5481525927
 10
313.870675992
 20
151.5590887084
 10
313.867332271
 20
151.570180778
 10
313.8656557226
 20
151.5813667703
 10
313.865445934
 20
151.5869754494
  0
LWPOLYLINE
  5
415
100
AcDbEntity
  8
RACCORDO
100
AcDbPolyline
 62
250
  6
CONTINUOUS
 90
24
 70
0
 10
313.4631474968
 20
152.4845298604
 10
313.4990877041
 20
152.4548038055
 10
313.5342817826
 20
152.4229753842
 10
313.5686870198
 20
152.3890452348
 10
313.6023461283
 20
152.3530127189
 10
313.6349333896
 20
152.3152286556
 10
313.6664446291
 20
152.2756688464
 10
313.6968840214
 20
152.2343574897
 10
313.7259383717
 20
152.1917179994
 10
313.7535915063
 20
152.1477394015
 10
313.7798595989
 20
152.10243267
 10
313.8044779764
 20
152.0562541416
 10
313.8274312275
 20
152.0091912219
 10
313.8487347634
 20
151.9612565053
 10
313.8681701442
 20
151.9129441116
 10
313.8857155697
 20
151.8642602038
 10
313.9013928401
 20
151.8151986189
 10
313.9150489155
 20
151.7662349876
 10
313.9266668675
 20
151.7173260776
 10
313.9362636247
 20
151.6685151212
 10
313.9437369319
 20
151.6204074457
 10
313.9490527043
 20
151.5732048269
 10
313.9522450269
 20
151.5267054891
 10
313.9533138996
 20
151.4809094323
  0
LWPOLYLINE
  5
416
100
AcDbEntity
  8
0
100
AcDbPolyline
 62
250
  6
CONTINUOUS
 90
24
 70
0
 10
313.4631474968
 20
152.4845298604
 10
313.4990877041
 20
152.4548038055
 10
313.5342817826
 20
152.4229753842
 10
313.5686870198
 20
152.3890452348
 10
313.6023461283
 20
152.3530127189
 10
313.6349333896
 20
152.3152286556
 10
313.6664446291
 20
152.2756688464
 10
313.6968840214
 20
152.2343574897
 10
313.7259383717
 20
152.1917179994
 10
313.7535915063
 20
152.1477394015
 10
313.7798595989
 20
152.10243267
 10
313.8044779764
 20
152.0562541416
 10
313.8274312275
 20
152.0091912219
 10
313.8487347634
 20
151.9612565053
 10
313.8681701442
 20
151.9129441116
 10
313.8857155697
 20
151.8642602038
 10
313.9013928401
 20
151.8151986189
 10
313.9150489155
 20
151.7662349876
 10
313.9266668675
 20
151.7173260776
 10
313.9362636247
 20
151.6685151212
 10
313.9437369319
 20
151.6204074457
 10
313.9490527043
 20
151.5732048269
 10
313.9522450269
 20
151.5267054891
 10
313.9533138996
 20
151.4809094323
  0
LWPOLYLINE
  5
417
100
AcDbEntity
  8
RACCORDO
100
AcDbPolyline
 62
250
  6
CONTINUOUS
 90
22
 70
0
 10
281.3203359479
 20
167.7973984081
 10
281.3367817588
 20
167.7897686668
 10
281.3543219266
 20
167.7827747583
 10
281.3728583593
 20
167.7764557954
 10
281.3922873938
 20
167.7708471163
 10
281.412500375
 20
167.7659800869
 10
281.4333842637
 20
167.7618819258
 10
281.4548222687
 20
167.7585755514
 10
281.4766945001
 20
167.7560794543
 10
281.4988786394
 20
167.7544075938
 10
281.521250624
 20
167.7535693196
 10
281.5436853405
 20
167.7535693196
 10
281.5660573251
 20
167.7544075938
 10
281.5882414644
 20
167.7560794543
 10
281.6101136958
 20
167.7585755514
 10
281.6315517008
 20
167.7618819258
 10
281.6524355895
 20
167.7659800869
 10
281.6726485707
 20
167.7708471163
 10
281.6920776052
 20
167.7764557954
 10
281.7106140379
 20
167.7827747583
 10
281.7281542056
 20
167.7897686668
 10
281.7446000166
 20
167.7973984081
  0
LWPOLYLINE
  5
418
100
AcDbEntity
  8
0
100
AcDbPolyline
 62
250
  6
CONTINUOUS
 90
22
 70
0
 10
281.3203359479
 20
167.7973984081
 10
281.3367817588
 20
167.7897686668
 10
281.3543219266
 20
167.7827747583
 10
281.3728583593
 20
167.7764557954
 10
281.3922873938
 20
167.7708471163
 10
281.412500375
 20
167.7659800869
 10
281.4333842637
 20
167.7618819258
 10
281.4548222687
 20
167.7585755514
 10
281.4766945001
 20
167.7560794543
 10
281.4988786394
 20
167.7544075938
 10
281.521250624
 20
167.7535693196
 10
281.5436853405
 20
167.7535693196
 10
281.5660573251
 20
167.7544075938
 10
281.5882414644
 20
167.7560794543
 10
281.6101136958
 20
167.7585755514
 10
281.6315517008
 20
167.7618819258
 10
281.6524355895
 20
167.7659800869
 10
281.6726485707
 20
167.7708471163
 10
281.6920776052
 20
167.7764557954
 10
281.7106140379
 20
167.7827747583
 10
281.7281542056
 20
167.7897686668
 10
281.7446000166
 20
167.7973984081
  0
LINE
  5
419
100
AcDbEntity
  8
RACCORDO
100
AcDbLine
 62
7
  6
CONTINUOUS
 10
282.0347000066
 20
168.0963610799
 11
313.3948857523
 21
152.4162682071
  0
LINE
  5
41A
100
AcDbEntity
  8
0
100
AcDbLine
 62
7
  6
CONTINUOUS
 10
282.0347000066
 20
168.0963610799
 11
313.3948857523
 21
152.4162682071
  0
LINE
  5
41B
100
AcDbEntity
  8
RACCORDO
100
AcDbLine
 62
250
  6
CONTINUOUS
 10
281.9567320509
 20
168.25862322
 11
313.3169177966
 21
152.5785303472
  0
LINE
  5
41C
100
AcDbEntity
  8
0
100
AcDbLine
 62
250
  6
CONTINUOUS
 10
281.9567320509
 20
168.25862322
 11
313.3169177966
 21
152.5785303472
  0
LINE
  5
41D
100
AcDbEntity
  8
RACCORDO
100
AcDbLine
 62
250
  6
CONTINUOUS
 10
313.5290498309
 20
-17.0130815072
 11
313.864438156
 21
-16.8453873447
  0
LINE
  5
41E
100
AcDbEntity
  8
0
100
AcDbLine
 62
250
  6
CONTINUOUS
 10
313.5290498309
 20
-17.0130815072
 11
313.864438156
 21
-16.8453873447
  0
LINE
  5
41F
100
AcDbEntity
  8
RACCORDO
100
AcDbLine
 62
250
  6
CONTINUOUS
 10
328.3959699054
 20
160.0861956835
 11
266.8776799421
 21
190.8453406652
  0
LINE
  5
420
100
AcDbEntity
  8
0
100
AcDbLine
 62
250
  6
CONTINUOUS
 10
328.3959699054
 20
160.0861956835
 11
266.8776799421
 21
190.8453406652
  0
LINE
  5
421
100
AcDbEntity
  8
RACCORDO
100
AcDbLine
 62
250
  6
CONTINUOUS
 10
329.1030766866
 20
160.5192083854
 11
266.8776799421
 21
191.6319067576
  0
LINE
  5
422
100
AcDbEntity
  8
0
100
AcDbLine
 62
250
  6
CONTINUOUS
 10
329.1030766866
 20
160.5192083854
 11
266.8776799421
 21
191.6319067576
  0
LWPOLYLINE
  5
423
100
AcDbEntity
  8
RACCORDO
100
AcDbPolyline
 62
250
  6
CONTINUOUS
 90
3
 70
0
 10
332.580983708
 20
162.4325028597
 10
332.6130017574
 20
162.4102758534
 10
332.644546815
 20
162.3857555543
  0
LWPOLYLINE
  5
424
100
AcDbEntity
  8
RACCORDO
100
AcDbPolyline
 62
250
  6
CONTINUOUS
 90
21
 70
0
 10
332.644546815
 20
162.3857555543
 10
332.6755014562
 20
162.3590423866
 10
332.7057810418
 20
162.3302157142
 10
332.7352736616
 20
162.2993743432
 10
332.7638321908
 20
162.2666627931
 10
332.7913229598
 20
162.2322358891
 10
332.8176273386
 20
162.1962429701
 10
332.8426351105
 20
162.1588332879
 10
332.8662356892
 20
162.120175266
 10
332.8883149688
 20
162.0804638089
 10
332.9087987317
 20
162.0398392075
 10
332.9276372128
 20
161.9983904331
 10
332.9447444445
 20
161.9562846693
 10
332.9600361224
 20
161.9137038938
 10
332.9734559895
 20
161.8707590178
 10
332.9849381989
 20
161.827593915
 10
332.9943999985
 20
161.7844362754
 10
333.0017696621
 20
161.7415261992
 10
333.0070004675
 20
161.6990711676
 10
333.0100625501
 20
161.6572460605
 10
333.0109309728
 20
161.6162414693
  0
LWPOLYLINE
  5
425
100
AcDbEntity
  8
CURVE
100
AcDbPolyline
 62
250
  6
CONTINUOUS
 90
7
 70
0
 10
330.7581088938
 20
-28.5936613296
 10
330.7776780896
 20
-28.575089526
 10
330.7973480638
 20
-28.5568255157
 10
330.8171076785
 20
-28.5388359218
 10
330.8369457958
 20
-28.5210873673
 10
330.8568512777
 20
-28.5035464753
 10
330.8768129863
 20
-28.4861798691
  0
LWPOLYLINE
  5
426
100
AcDbEntity
  8
RACCORDO
100
AcDbPolyline
 62
250
  6
CONTINUOUS
 90
12
 70
0
 10
313.7973779882
 20
-17.0301225795
 10
313.787325592
 20
-17.0348424829
 10
313.7647585611
 20
-17.0433647155
 10
313.7411821372
 20
-17.0495322258
 10
313.7166972949
 20
-17.0533185839
 10
313.6914089042
 20
-17.0547075653
 10
313.6654252569
 20
-17.053693219
 10
313.6388576149
 20
-17.0502798857
 10
313.6118197603
 20
-17.0444821825
 10
313.5844274792
 20
-17.0363249388
 10
313.5567980648
 20
-17.0258430851
 10
313.5290498309
 20
-17.0130815072
  0
LWPOLYLINE
  5
427
100
AcDbEntity
  8
0
100
AcDbPolyline
 62
250
  6
CONTINUOUS
 90
12
 70
0
 10
313.7973779882
 20
-17.0301225795
 10
313.787325592
 20
-17.0348424829
 10
313.7647585611
 20
-17.0433647155
 10
313.7411821372
 20
-17.0495322258
 10
313.7166972949
 20
-17.0533185839
 10
313.6914089042
 20
-17.0547075653
 10
313.6654252569
 20
-17.053693219
 10
313.6388576149
 20
-17.0502798857
 10
313.6118197603
 20
-17.0444821825
 10
313.5844274792
 20
-17.0363249388
 10
313.5567980648
 20
-17.0258430851
 10
313.5290498309
 20
-17.0130815072
  0
LWPOLYLINE
  5
428
100
AcDbEntity
  8
RACCORDO
100
AcDbPolyline
 62
250
  6
CONTINUOUS
 90
8
 70
0
 10
332.6017923967
 20
162.4735798435
 10
332.5973365638
 20
162.475622739
 10
332.5852616878
 20
162.4795416834
 10
332.5724151166
 20
162.4815018814
 10
332.5589329568
 20
162.4814825581
 10
332.5449580458
 20
162.4794839131
 10
332.5306384378
 20
162.475527116
 10
332.5161258415
 20
162.4696540819
  0
LWPOLYLINE
  5
429
100
AcDbEntity
  8
RACCORDO
100
AcDbPolyline
 62
250
  6
CONTINUOUS
 90
8
 70
0
 10
273.5986917787
 20
191.9751302038
 10
273.5941613022
 20
191.9772103328
 10
273.5820864426
 20
191.9811291887
 10
273.5692399173
 20
191.9830893114
 10
273.5557578268
 20
191.9830699347
 10
273.5417830054
 20
191.9810712638
 10
273.5274635075
 20
191.9771144734
 10
273.5129510391
 20
191.9712414831
  0
LWPOLYLINE
  5
42A
100
AcDbEntity
  8
RACCORDO
100
AcDbPolyline
 62
7
  6
CONTINUOUS
 90
14
 70
0
 10
273.5987126418
 20
191.9751197682
 10
273.5901557422
 20
191.97931344
 10
273.5557610814
 20
191.994482031
 10
273.5211962536
 20
192.0070543844
 10
273.48656824
 20
192.0170009846
 10
273.4519986681
 20
192.0242906273
 10
273.4175748714
 20
192.02891738
 10
273.3834317642
 20
192.0308713557
 10
273.3497886101
 20
192.0301552238
 10
273.3167881286
 20
192.02680405
 10
273.2845827972
 20
192.0208715107
 10
273.2534331504
 20
192.0124577395
 10
273.2235217647
 20
192.0016871472
 10
273.212211729
 20
191.9968742935
  0
LINE
  5
42B
100
AcDbEntity
  8
SUPERFICI
100
AcDbLine
 62
7
  6
CONTINUOUS
 10
332.2143465238
 20
162.074843304
 11
269.9889497794
 21
193.1875416763
  0
LINE
  5
42C
100
AcDbEntity
  8
0
100
AcDbLine
 62
7
  6
CONTINUOUS
 10
332.2143465238
 20
162.074843304
 11
269.9889497794
 21
193.1875416763
  0
LINE
  5
42D
100
AcDbEntity
  8
RACCORDO
100
AcDbLine
 62
250
  6
CONTINUOUS
 10
273.5129510391
 20
191.9712414831
 11
332.5161258415
 21
162.4696540819
  0
LINE
  5
42E
100
AcDbEntity
  8
RACCORDO
100
AcDbLine
 62
7
  6
CONTINUOUS
 10
273.5986917787
 20
191.9751302038
 11
332.6018665794
 21
162.4735428034
  0
LWPOLYLINE
  5
42F
100
AcDbEntity
  8
RACCORDO
100
AcDbPolyline
 62
250
  6
CONTINUOUS
 90
3
 70
0
 10
332.5161258415
 20
162.4696540819
 10
332.5486454125
 20
162.4523256325
 10
332.580983708
 20
162.4325028597
  0
LINE
  5
430
100
AcDbEntity
  8
CURVE
100
AcDbLine
 62
250
  6
CONTINUOUS
 10
331.1869097641
 20
-31.6306201088
 11
330.2635294241
 21
-32.5164150433
  0
LINE
  5
431
100
AcDbEntity
  8
CURVE
100
AcDbLine
 62
250
  6
CONTINUOUS
 10
329.772810753
 20
-32.6680435834
 11
330.5579227259
 21
-31.9177879283
  0
LINE
  5
432
100
AcDbEntity
  8
CURVE
100
AcDbLine
 62
250
  6
CONTINUOUS
 10
331.1869097641
 20
-34.0441809476
 11
329.772810753
 21
-35.3002793008
  0
LINE
  5
433
100
AcDbEntity
  8
CURVE
100
AcDbLine
 62
250
  6
CONTINUOUS
 10
329.772810753
 20
-30.4794570919
 11
331.1869097641
 21
-29.2410143986
  0
LINE
  5
434
100
AcDbEntity
  8
CURVE
100
AcDbLine
 62
250
  6
CONTINUOUS
 10
330.8768129863
 20
-28.4861798691
 11
330.9168605315
 21
-28.451836006
  0
LINE
  5
435
100
AcDbEntity
  8
CURVE
100
AcDbLine
 62
250
  6
CONTINUOUS
 10
330.9971402721
 20
-28.3837711248
 11
331.1869099517
 21
-28.2211780466
  0
LWPOLYLINE
  5
436
100
AcDbEntity
  8
CURVE
100
AcDbPolyline
 62
250
  6
CONTINUOUS
 90
44
 70
0
 10
330.7603979154
 20
-28.2249177077
 10
330.7494338568
 20
-28.2342579785
 10
330.7384191808
 20
-28.2438064301
 10
330.7273311019
 20
-28.2536264153
 10
330.7212399197
 20
-28.2591230839
 10
330.7151262106
 20
-28.2647180827
 10
330.708996119
 20
-28.2704099205
 10
330.7028557897
 20
-28.2761971056
 10
330.6967113671
 20
-28.2820781469
 10
330.6905689958
 20
-28.2880515527
 10
330.6844348205
 20
-28.2941158318
 10
330.6783149857
 20
-28.3002694927
 10
330.6722156359
 20
-28.3065110441
 10
330.6661429158
 20
-28.3128389945
 10
330.66010297
 20
-28.3192518525
 10
330.6541019429
 20
-28.3257481268
 10
330.6481459793
 20
-28.3323263259
 10
330.6422412236
 20
-28.3389849584
 10
330.6363938205
 20
-28.3457225329
 10
330.6306099145
 20
-28.352537558
 10
330.6248956502
 20
-28.3594285423
 10
330.6192571722
 20
-28.3663939945
 10
330.6137006251
 20
-28.3734324231
 10
330.6082321534
 20
-28.3805423366
 10
330.6028579017
 20
-28.3877222438
 10
330.5975840147
 20
-28.3949706532
 10
330.5924166368
 20
-28.4022860734
 10
330.5873619127
 20
-28.4096670129
 10
330.5824259869
 20
-28.4171119805
 10
330.5776150041
 20
-28.4246194846
 10
330.5729351087
 20
-28.432188034
 10
330.5683924455
 20
-28.4398161371
 10
330.5639931588
 20
-28.4475023026
 10
330.5597433935
 20
-28.4552450391
 10
330.5556492939
 20
-28.4630428552
 10
330.5517170047
 20
-28.4708942594
 10
330.5479526705
 20
-28.4787977604
 10
330.5443624358
 20
-28.4867518668
 10
330.5409524453
 20
-28.4947550872
 10
330.5377288435
 20
-28.5028059301
 10
330.5346977749
 20
-28.5109029042
 10
330.5318653843
 20
-28.519044518
 10
330.529237816
 20
-28.5272292802
 10
330.5268212148
 20
-28.5354556993
  0
LINE
  5
437
100
AcDbEntity
  8
CURVE
100
AcDbLine
 62
250
  6
CONTINUOUS
 10
330.9168605315
 20
-28.451836006
 11
330.9971402721
 21
-28.3837711248
  0
LINE
  5
438
100
AcDbEntity
  8
CURVE
100
AcDbLine
 62
250
  6
CONTINUOUS
 10
329.772810753
 20
-34.9075601629
 11
330.7461792998
 21
-34.0907418094
  0
LINE
  5
439
100
AcDbEntity
  8
CURVE
100
AcDbLine
 62
250
  6
CONTINUOUS
 10
330.7822653233
 20
-28.2066082964
 11
330.7603979154
 21
-28.2249177077
  0
LINE
  5
43A
100
AcDbEntity
  8
CURVE
100
AcDbLine
 62
250
  6
CONTINUOUS
 10
331.1869097641
 20
-29.6220387295
 11
330.9046051599
 21
-29.8568438848
  0
LINE
  5
43B
100
AcDbEntity
  8
CURVE
100
AcDbLine
 62
250
  6
CONTINUOUS
 10
330.906404358
 20
-28.1037538598
 11
330.7822653233
 21
-28.2066082964
  0
LINE
  5
43C
100
AcDbEntity
  8
CURVE
100
AcDbLine
 62
250
  6
CONTINUOUS
 10
331.1869099517
 20
-27.873440145
 11
331.1364240635
 21
-27.9151771053
  0
LINE
  5
43D
100
AcDbEntity
  8
CURVE
100
AcDbLine
 62
250
  6
CONTINUOUS
 10
331.1364240635
 20
-27.9151771053
 11
330.906404358
 21
-28.1037538598
  0
LINE
  5
43E
100
AcDbEntity
  8
CURVE
100
AcDbLine
 62
250
  6
CONTINUOUS
 10
330.6861593691
 20
-30.0383158155
 11
330.1613694648
 21
-30.4668326267
  0
LINE
  5
43F
100
AcDbEntity
  8
CURVE
100
AcDbLine
 62
250
  6
CONTINUOUS
 10
329.772810753
 20
-31.5911401278
 11
331.1869097641
 21
-30.7221378096
  0
LWPOLYLINE
  5
440
100
AcDbEntity
  8
RACCORDO
100
AcDbPolyline
 62
7
  6
CONTINUOUS
 90
16
 70
0
 10
332.8414896171
 20
-35.7271522016
 10
332.8652822604
 20
-35.71268265
 10
332.891253749
 20
-35.6940186769
 10
332.9158153044
 20
-35.6731388236
 10
332.9388310452
 20
-35.6501373155
 10
332.9601789296
 20
-35.6251144983
 10
332.9797833189
 20
-35.598125218
 10
332.997547833
 20
-35.5692704928
 10
333.0133973581
 20
-35.5386442694
 10
333.0272965036
 20
-35.5062468885
 10
333.0391685276
 20
-35.4721471491
 10
333.0489483747
 20
-35.4364118784
 10
333.0565893236
 20
-35.3989829833
 10
333.0620061762
 20
-35.3598670216
 10
333.0651058644
 20
-35.3191846365
 10
333.0658560986
 20
-35.2864169823
  0
LINE
  5
441
100
AcDbEntity
  8
CURVE
100
AcDbLine
 62
250
  6
CONTINUOUS
 10
331.1869097641
 20
-31.0757974697
 11
330.2673796206
 21
-31.6098389423
  0
LINE
  5
442
100
AcDbEntity
  8
RACCORDO
100
AcDbLine
 62
250
  6
CONTINUOUS
 10
332.2143465238
 20
-35.8011991281
 11
333.0109309728
 21
-35.3552524108
  0
LINE
  5
443
100
AcDbEntity
  8
RACCORDO
100
AcDbLine
 62
7
  6
CONTINUOUS
 10
332.2143465238
 20
-36.0782442605
 11
332.8414135244
 21
-35.7271973993
  0
LWPOLYLINE
  5
444
100
AcDbEntity
  8
CURVE
100
AcDbPolyline
 62
250
  6
CONTINUOUS
 90
59
 70
0
 10
330.1821642921
 20
-28.8017220969
 10
330.1883040859
 20
-28.7986323269
 10
330.1944913584
 20
-28.7957101857
 10
330.2007176356
 20
-28.792959995
 10
330.2069744433
 20
-28.7903860766
 10
330.2132533075
 20
-28.7879927521
 10
330.219545754
 20
-28.7857843434
 10
330.2258433088
 20
-28.7837651722
 10
330.2321374978
 20
-28.7819395601
 10
330.2384198468
 20
-28.780311829
 10
330.2446818819
 20
-28.7788863006
 10
330.2509151288
 20
-28.7776672967
 10
330.2571111136
 20
-28.7766591388
 10
330.263261362
 20
-28.7758661489
 10
330.2693574001
 20
-28.7752926486
 10
330.2753907536
 20
-28.7749429597
 10
330.2813529486
 20
-28.7748214039
 10
330.287235511
 20
-28.7749323029
 10
330.2930299665
 20
-28.7752799785
 10
330.2987278412
 20
-28.7758687524
 10
330.304320661
 20
-28.7767029464
 10
330.3097999517
 20
-28.7777868822
 10
330.3151572393
 20
-28.7791248815
 10
330.3203840497
 20
-28.7807212661
 10
330.3254719087
 20
-28.7825803577
 10
330.3304123423
 20
-28.784706478
 10
330.3351968764
 20
-28.7871039488
 10
330.3398170369
 20
-28.7897770918
 10
330.3442643496
 20
-28.7927302288
 10
330.3485303406
 20
-28.7959676815
 10
330.3526065357
 20
-28.7994937716
 10
330.3564357116
 20
-28.8032569923
 10
330.3600760285
 20
-28.8072944078
 10
330.3635316009
 20
-28.8115950792
 10
330.3668065437
 20
-28.8161480676
 10
330.3699049716
 20
-28.8209424341
 10
330.3728309994
 20
-28.8259672398
 10
330.3755887419
 20
-28.8312115456
 10
330.3781823136
 20
-28.8366644128
 10
330.3806158295
 20
-28.8423149024
 10
330.3828934043
 20
-28.8481520754
 10
330.3850191527
 20
-28.854164993
 10
330.3869971894
 20
-28.8603427163
 10
330.3888316292
 20
-28.8666743062
 10
330.3905265869
 20
-28.8731488239
 10
330.3920861772
 20
-28.8797553305
 10
330.3935145148
 20
-28.8864828871
 10
330.3948157145
 20
-28.8933205546
 10
330.3959938911
 20
-28.9002573943
 10
330.3970531593
 20
-28.9072824672
 10
330.3979976338
 20
-28.9143848343
 10
330.3988314294
 20
-28.9215535568
 10
330.3995586608
 20
-28.9287776957
 10
330.4001834428
 20
-28.9360463122
 10
330.4007098902
 20
-28.9433484672
 10
330.4011421176
 20
-28.9506732218
 10
330.4014842398
 20
-28.9580096372
 10
330.4017403716
 20
-28.9653467745
 10
330.4019146278
 20
-28.9726736946
  0
LINE
  5
445
100
AcDbEntity
  8
CURVE
100
AcDbLine
 62
250
  6
CONTINUOUS
 10
330.5268212148
 20
-28.5354556993
 11
330.5184651243
 21
-28.5396337446
  0
LINE
  5
446
100
AcDbEntity
  8
CURVE
100
AcDbLine
 62
250
  6
CONTINUOUS
 10
331.1869099517
 20
-28.7747923709
 11
330.6335098278
 21
-29.0514924328
  0
LINE
  5
447
100
AcDbEntity
  8
CURVE
100
AcDbLine
 62
250
  6
CONTINUOUS
 10
330.4019146278
 20
-29.1792774123
 11
330.0137169591
 21
-29.3733762466
  0
LINE
  5
448
100
AcDbEntity
  8
CURVE
100
AcDbLine
 62
250
  6
CONTINUOUS
 10
329.7893325987
 20
-29.8336440011
 11
331.1869099517
 21
-29.1348553246
  0
LINE
  5
449
100
AcDbEntity
  8
CURVE
100
AcDbLine
 62
250
  6
CONTINUOUS
 10
331.1869097641
 20
-32.6732107719
 11
329.7727259002
 21
-33.3803027038
  0
LINE
  5
44A
100
AcDbEntity
  8
CURVE
100
AcDbLine
 62
250
  6
CONTINUOUS
 10
329.7727259002
 20
-33.7418198125
 11
331.1869097641
 21
-33.0347278805
  0
LINE
  5
44B
100
AcDbEntity
  8
RACCORDO
100
AcDbLine
 62
7
  6
CONTINUOUS
 10
332.2143465238
 20
-38.8430503739
 11
329.1030766866
 21
-40.3986852926
  0
LINE
  5
44C
100
AcDbEntity
  8
0
100
AcDbLine
 62
7
  6
CONTINUOUS
 10
332.2143465238
 20
-38.8430503739
 11
329.1030766866
 21
-40.3986852926
  0
LINE
  5
44D
100
AcDbEntity
  8
CURVE
100
AcDbLine
 62
250
  6
CONTINUOUS
 10
330.2635294241
 20
-32.5164150433
 11
331.1869097641
 21
-32.1327399058
  0
LINE
  5
44E
100
AcDbEntity
  8
CURVE
100
AcDbLine
 62
250
  6
CONTINUOUS
 10
331.1869097641
 20
-32.478594079
 11
329.772810753
 21
-33.0292619133
  0
LWPOLYLINE
  5
44F
100
AcDbEntity
  8
RACCORDO
100
AcDbPolyline
 62
250
  6
CONTINUOUS
 90
9
 70
0
 10
273.2650090723
 20
192.0139958009
 10
273.2933053366
 20
192.0185445221
 10
273.3226214554
 20
192.020306931
 10
273.352876081
 20
192.0192444929
 10
273.3839142238
 20
192.0153295065
 10
273.4155786707
 20
192.0085555517
 10
273.4477263545
 20
191.9989335036
 10
273.4802304103
 20
191.986483954
 10
273.5129510391
 20
191.9712414831
  0
ELLIPSE
  5
450
100
AcDbEntity
  8
RACCORDO
100
AcDbEllipse
 62
7
  6
CONTINUOUS
 10
284.6136842306
 20
14.6308183356
 30
0.0
 11
-0.0897812751
 21
0.1793232728
 31
0.0
 40
0.610731003
 41
-0.6839490949
 42
-0.0569064621
  0
ELLIPSE
  5
451
100
AcDbEntity
  8
RACCORDO
100
AcDbEllipse
 62
7
  6
CONTINUOUS
 10
284.6136842306
 20
137.606425673
 30
0.0
 11
-0.0897812751
 21
0.1793232728
 31
0.0
 40
0.610731003
 41
-0.6839490949
 42
-0.0569064621
  0
ELLIPSE
  5
452
100
AcDbEntity
  8
RACCORDO
100
AcDbEllipse
 62
7
  6
CONTINUOUS
 10
284.6136842306
 20
76.1186220043
 30
0.0
 11
-0.0897812751
 21
0.1793232728
 31
0.0
 40
0.610731003
 41
-0.6839490949
 42
-0.0569064621
  0
ELLIPSE
  5
453
100
AcDbEntity
  8
RACCORDO
100
AcDbEllipse
 62
7
  6
CONTINUOUS
 10
284.4994743858
 20
-0.1692675503
 30
0.0
 11
-0.2603455863
 21
0.5477627232
 31
0.0
 40
0.6117149473
 41
0.9102517513
 42
2.4775686209
  0
ELLIPSE
  5
454
100
AcDbEntity
  8
DRAFT
100
AcDbEllipse
 62
7
  6
CONTINUOUS
 10
283.8654714031
 20
136.8305342389
 30
0.0
 11
0.0999815857
 21
-0.0041066251
 31
0.0
 40
0.4672909446
 41
-0.7487538058
 42
0.0191910549
  0
ELLIPSE
  5
455
100
AcDbEntity
  8
RACCORDO
100
AcDbEllipse
 62
7
  6
CONTINUOUS
 10
294.8442397661
 20
125.5390267194
 30
0.0
 11
12.366472715
 21
2.9494793153
 31
0.0
 40
0.0405726368
 41
3.1319161338
 42
3.1478729126
  0
ELLIPSE
  5
456
100
AcDbEntity
  8
DRAFT
100
AcDbEllipse
 62
7
  6
CONTINUOUS
 10
283.8654714031
 20
13.8549269015
 30
0.0
 11
0.0999815857
 21
-0.0041066251
 31
0.0
 40
0.4672909446
 41
-0.7487538058
 42
0.0191910549
  0
ELLIPSE
  5
457
100
AcDbEntity
  8
RACCORDO
100
AcDbEllipse
 62
7
  6
CONTINUOUS
 10
355.5090211923
 20
167.5331899594
 30
0.0
 11
75.5351881245
 21
39.1240932237
 31
0.0
 40
0.017156689
 41
2.8043873586
 42
2.8743854295
  0
ELLIPSE
  5
458
100
AcDbEntity
  8
RACCORDO
100
AcDbEllipse
 62
7
  6
CONTINUOUS
 10
355.5090211923
 20
44.557582622
 30
0.0
 11
75.5351881245
 21
39.1240932237
 31
0.0
 40
0.017156689
 41
-2.8921578677
 42
-2.8221597969
  0
ELLIPSE
  5
459
100
AcDbEntity
  8
RACCORDO
100
AcDbEllipse
 62
7
  6
CONTINUOUS
 10
294.8442397661
 20
64.0512230507
 30
0.0
 11
12.366472715
 21
2.9494793153
 31
0.0
 40
0.0405726368
 41
3.1319161338
 42
3.1478729126
  0
ELLIPSE
  5
45A
100
AcDbEntity
  8
RACCORDO
100
AcDbEllipse
 62
7
  6
CONTINUOUS
 10
294.8442397661
 20
2.563419382
 30
0.0
 11
12.366472715
 21
2.9494793153
 31
0.0
 40
0.0405726368
 41
3.1319161338
 42
3.1478729126
  0
ELLIPSE
  5
45B
100
AcDbEntity
  8
DRAFT
100
AcDbEllipse
 62
7
  6
CONTINUOUS
 10
283.8654714031
 20
75.3427305702
 30
0.0
 11
0.0999815857
 21
-0.0041066251
 31
0.0
 40
0.4672909446
 41
-0.7487538058
 42
0.0191910549
  0
ENDSEC
  0
SECTION
  2
OBJECTS
  0
DICTIONARY
  5
C
100
AcDbDictionary
280
0
281
1
  3
ACAD_GROUP
350
D
  3
ACAD_MLINESTYLE
350
17
  3
ACAD_LAYOUT
350
1A
  3
ACAD_PLOTSETTINGS
350
19
  3
ACAD_PLOTSTYLENAME
350
E
  0
DICTIONARY
  5
D
102
{ACAD_REACTORS
330
C
102
}
100
AcDbDictionary
280
0
281
1
  0
ACDBDICTIONARYWDFLT
  5
E
102
{ACAD_REACTORS
330
C
102
}
100
AcDbDictionary
281
1
  3
Normal
350
F
100
AcDbDictionaryWithDefault
340
F
  0
DICTIONARY
  5
17
102
{ACAD_REACTORS
330
C
102
}
100
AcDbDictionary
280
0
281
1
  3
Standard
350
18
  0
DICTIONARY
  5
19
102
{ACAD_REACTORS
330
C
102
}
100
AcDbDictionary
281
1
  0
DICTIONARY
  5
1A
102
{ACAD_REACTORS
330
C
102
}
100
AcDbDictionary
281
1
  3
Model
350
45C
  3
Layout1
350
45D
  0
ACDBPLACEHOLDER
  5
F
102
{ACAD_REACTORS
330
E
102
}
  0
MLINESTYLE
  5
18
102
{ACAD_REACTORS
330
17
102
}
100
AcDbMlineStyle
  2
STANDARD
 70
0
  3

 62
256
 51
90.0
 52
90.0
 71
2
 49
0.5
 62
256
  6
BYLAYER
 49
-0.5
 62
256
  6
BYLAYER
  0
LAYOUT
  5
45C
102
{ACAD_REACTORS
330
1A
102
}
100
AcDbPlotSettings
  1

  2
none_device
  4
ISO_A3_(420.00_x_297.00_MM)
  6

 40
0.0
 41
0.0
 42
0.0
 43
0.0
 44
420.0
 45
297.0
 46
0.0
 47
0.0
 48
0.0
 49
0.0
140
0.0
141
0.0
142
1.0
143
1.0
 70
1024
 72
1
 73
0
 74
0
  7

 75
0
147
1.0
148
0.0
149
0.0
100
AcDbLayout
  1
Model
 70
0
 71
0
 10
0.0
 20
0.0
 11
420.0
 21
297.0
 12
0.0
 22
0.0
 32
0.0
 14
0.0
 24
0.0
 34
0.0
 15
0.0
 25
0.0
 35
0.0
146
0.0
 13
0.0
 23
0.0
 33
0.0
 16
1.0
 26
0.0
 36
0.0
 17
0.0
 27
1.0
 37
0.0
 76
0
330
213
345
0
346
0
  0
LAYOUT
  5
45D
102
{ACAD_REACTORS
330
1A
102
}
100
AcDbPlotSettings
  1

  2
none_device
  4
ISO_A3_(420.00_x_297.00_MM)
  6

 40
0.0
 41
0.0
 42
0.0
 43
0.0
 44
420.0
 45
297.0
 46
0.0
 47
0.0
 48
0.0
 49
0.0
140
0.0
141
0.0
142
1.0
143
1.0
 70
0
 72
1
 73
0
 74
0
  7

 75
0
147
1.0
148
0.0
149
0.0
100
AcDbLayout
  1
Layout1
 70
0
 71
1
 10
0.0
 20
0.0
 11
420.0
 21
297.0
 12
0.0
 22
0.0
 32
0.0
 14
0.0
 24
0.0
 34
0.0
 15
0.0
 25
0.0
 35
0.0
146
0.0
 13
0.0
 23
0.0
 33
0.0
 16
1.0
 26
0.0
 36
0.0
 17
0.0
 27
1.0
 37
0.0
 76
0
330
214
345
0
346
0
  0
ENDSEC
  0
EOF
