  0
SECTION
  2
HEADER
  9
$ACADVER
  1
AC1024
  9
$DWGCODEPAGE
  3
ANSI_1252
  9
$EXTMAX
 10
297.0
 20
210.0
 30
0.0
  9
$EXTMIN
 10
0.0
 20
0.0
 30
0.0
  9
$LIMMIN
 10
0.0
 20
0.0
  9
$LIMMAX
 10
297.0
 20
210.0
  9
$VIEWCTR
 10
148.5
 20
105.0
  9
$VIEWSIZE
 40
210.0
  9
$CLAYER
  8
0
  9
$LTSCALE
 40
16.335
  9
$CELTYPE
  6
BYLAYER
  9
$DIMSCALE
 40
1.0
  9
$DIMASZ
 40
3.0
  9
$DIMEXO
 40
0.5
  9
$DIMDLI
 40
11.286
  9
$DIMEXE
 40
1.5
  9
$DIMCEN
 40
2.673
  9
$DIMLFAC
 40
1.0
  9
$DIMBLK
  1
_FILLED
  9
$DIMALT
 70
0
  9
$DIMALTF
 40
0.0393700787
  9
$DIMTXT
 40
3.0
  9
$DIMTOL
 70
1
  9
$DIMLIM
 70
0
  9
$DIMTFAC
 40
1.0
  9
$DIMTP
 40
0.01
  9
$DIMTM
 40
0.01
  9
$DIMGAP
 40
0.625
  9
$DIMDSEP
 70
44
  9
$AUNITS
 70
0
  9
$PDMODE
 70
3
  9
$PDSIZE
 40
3.0
  9
$HANDSEED
  5
36E
  9
$TILEMODE
 70
1
  9
$MEASUREMENT
 70
1
  9
$INSUNITS
 70
4
  0
ENDSEC
  0
SECTION
  2
CLASSES
  0
CLASS
  1
ACDBDICTIONARYWDFLT
  2
AcDbDictionaryWithDefault
  3
AutoCAD 2000
 90
0
 91
1
280
0
281
0
  0
CLASS
  1
ACDBPLACEHOLDER
  2
AcDbPlaceHolder
  3
AutoCAD 2000
 90
0
 91
1
280
0
281
0
  0
CLASS
  1
LAYOUT
  2
AcDbLayout
  3
AutoCAD 2000
 90
0
 91
0
280
0
281
0
  0
ENDSEC
  0
SECTION
  2
TABLES
  0
TABLE
  2
VPORT
  5
8
100
AcDbSymbolTable
 70
2
  0
VPORT
  5
1F4
100
AcDbSymbolTableRecord
100
AcDbViewportTableRecord
  2
*ACTIVE
 70
0
 10
0.0
 20
0.0
 11
1.0
 21
1.0
 12
148.5
 22
105.0
 13
0.0
 23
0.0
 14
1.0
 24
1.0
 15
0.0
 25
0.0
 16
0.0
 26
0.0
 36
1.0
 17
0.0
 27
0.0
 37
0.0
 40
210.0
 41
1.4142857143
 42
50.0
 43
0.0
 44
0.0
 50
0.0
 51
0.0
 71
0
 72
100
 73
1
 74
1
 75
0
 76
0
 77
0
 78
0
  0
ENDTAB
  0
TABLE
  2
LTYPE
  5
5
100
AcDbSymbolTable
 70
6
  0
LTYPE
  5
14
100
AcDbSymbolTableRecord
100
AcDbLinetypeTableRecord
  2
BYBLOCK
 70
0
  3

 72
65
 73
0
 40
0.0
  0
LTYPE
  5
15
100
AcDbSymbolTableRecord
100
AcDbLinetypeTableRecord
  2
BYLAYER
 70
0
  3

 72
65
 73
0
 40
0.0
  0
LTYPE
  5
16
100
AcDbSymbolTableRecord
100
AcDbLinetypeTableRecord
  2
CONTINUOUS
 70
64
  3
Solid line
 72
65
 73
0
 40
0.0
  0
LTYPE
  5
1F5
100
AcDbSymbolTableRecord
100
AcDbLinetypeTableRecord
  2
CENTER
 70
64
  3
____ _ ____ _ ____ _ ____ _ ____ _ ____ _ ____
 72
65
 73
4
 40
0.6
 49
0.375
 74
0
 49
-0.075
 74
0
 49
0.075
 74
0
 49
-0.075
 74
0
  0
LTYPE
  5
1F6
100
AcDbSymbolTableRecord
100
AcDbLinetypeTableRecord
  2
HIDDEN
 70
64
  3
- - - - - - - - - - - - - - - - - - - -
 72
65
 73
2
 40
0.2
 49
0.1
 74
0
 49
-0.1
 74
0
  0
LTYPE
  5
1F7
100
AcDbSymbolTableRecord
100
AcDbLinetypeTableRecord
  2
PHANTOM
 70
64
  3
_____ _ _ _____ _ _ _____ _ _ _____
 72
65
 73
6
 40
0.8
 49
0.45
 74
0
 49
-0.05
 74
0
 49
0.1
 74
0
 49
-0.05
 74
0
 49
0.1
 74
0
 49
-0.05
 74
0
  0
LTYPE
  5
1F8
100
AcDbSymbolTableRecord
100
AcDbLinetypeTableRecord
  2
DOT
 70
64
  3
. . . . . . . . . . . . . . . . . . . .
 72
65
 73
2
 40
0.2
 49
0.1
 74
0
 49
-0.1
 74
0
  0
LTYPE
  5
1F9
100
AcDbSymbolTableRecord
100
AcDbLinetypeTableRecord
  2
DASHED
 70
64
  3
- - - - - - - - - - - - - - - - - - - -
 72
65
 73
2
 40
0.2
 49
0.1
 74
0
 49
-0.1
 74
0
  0
ENDTAB
  0
TABLE
  2
LAYER
  5
2
100
AcDbSymbolTable
 70
36
  0
LAYER
  5
10
100
AcDbSymbolTableRecord
100
AcDbLayerTableRecord
  2
0
 70
0
 62
7
  6
CONTINUOUS
370
-3
390
F
  0
LAYER
  5
1FA
100
AcDbSymbolTableRecord
100
AcDbLayerTableRecord
  2
DEFAULT_1
 70
0
 62
7
  6
CENTER
370
-3
390
F
  0
LAYER
  5
1FB
100
AcDbSymbolTableRecord
100
AcDbLayerTableRecord
  2
DEFAULT_2
 70
0
 62
7
  6
HIDDEN
370
-3
390
F
  0
LAYER
  5
1FC
100
AcDbSymbolTableRecord
100
AcDbLayerTableRecord
  2
DEFAULT_3
 70
0
 62
7
  6
PHANTOM
370
-3
390
F
  0
LAYER
  5
1FD
100
AcDbSymbolTableRecord
100
AcDbLayerTableRecord
  2
ASSI
 70
0
 62
7
  6
CONTINUOUS
370
-3
390
F
  0
LAYER
  5
1FE
100
AcDbSymbolTableRecord
100
AcDbLayerTableRecord
  2
COORDINATE
 70
0
 62
7
  6
CONTINUOUS
370
-3
390
F
  0
LAYER
  5
1FF
100
AcDbSymbolTableRecord
100
AcDbLayerTableRecord
  2
COPY_PUBLISH
 70
0
 62
7
  6
CONTINUOUS
370
-3
390
F
  0
LAYER
  5
200
100
AcDbSymbolTableRecord
100
AcDbLayerTableRecord
  2
COSMETICI
 70
0
 62
7
  6
CONTINUOUS
370
-3
390
F
  0
LAYER
  5
201
100
AcDbSymbolTableRecord
100
AcDbLayerTableRecord
  2
CURVE
 70
0
 62
7
  6
CONTINUOUS
370
-3
390
F
  0
LAYER
  5
202
100
AcDbSymbolTableRecord
100
AcDbLayerTableRecord
  2
DRAFT
 70
0
 62
7
  6
CONTINUOUS
370
-3
390
F
  0
LAYER
  5
203
100
AcDbSymbolTableRecord
100
AcDbLayerTableRecord
  2
IMPORT_IGES
 70
0
 62
7
  6
CONTINUOUS
370
-3
390
F
  0
LAYER
  5
204
100
AcDbSymbolTableRecord
100
AcDbLayerTableRecord
  2
INTF_1
 70
0
 62
7
  6
CONTINUOUS
370
-3
390
F
  0
LAYER
  5
205
100
AcDbSymbolTableRecord
100
AcDbLayerTableRecord
  2
INTF_11
 70
0
 62
7
  6
CONTINUOUS
370
-3
390
F
  0
LAYER
  5
206
100
AcDbSymbolTableRecord
100
AcDbLayerTableRecord
  2
INTF_13
 70
0
 62
7
  6
CONTINUOUS
370
-3
390
F
  0
LAYER
  5
207
100
AcDbSymbolTableRecord
100
AcDbLayerTableRecord
  2
INTF_2
 70
0
 62
7
  6
CONTINUOUS
370
-3
390
F
  0
LAYER
  5
208
100
AcDbSymbolTableRecord
100
AcDbLayerTableRecord
  2
INTF_CYAN
 70
0
 62
7
  6
CONTINUOUS
370
-3
390
F
  0
LAYER
  5
209
100
AcDbSymbolTableRecord
100
AcDbLayerTableRecord
  2
NOTE
 70
0
 62
7
  6
CONTINUOUS
370
-3
390
F
  0
LAYER
  5
20A
100
AcDbSymbolTableRecord
100
AcDbLayerTableRecord
  2
PIANI
 70
0
 62
7
  6
CONTINUOUS
370
-3
390
F
  0
LAYER
  5
20B
100
AcDbSymbolTableRecord
100
AcDbLayerTableRecord
  2
PUNTI
 70
0
 62
7
  6
CONTINUOUS
370
-3
390
F
  0
LAYER
  5
20C
100
AcDbSymbolTableRecord
100
AcDbLayerTableRecord
  2
RACCORDO
 70
0
 62
7
  6
CONTINUOUS
370
-3
390
F
  0
LAYER
  5
20D
100
AcDbSymbolTableRecord
100
AcDbLayerTableRecord
  2
SIMBOLI
 70
0
 62
7
  6
CONTINUOUS
370
-3
390
F
  0
LAYER
  5
20E
100
AcDbSymbolTableRecord
100
AcDbLayerTableRecord
  2
SMUSSO
 70
0
 62
7
  6
CONTINUOUS
370
-3
390
F
  0
LAYER
  5
20F
100
AcDbSymbolTableRecord
100
AcDbLayerTableRecord
  2
SNAPLINE
 70
0
 62
7
  6
CONTINUOUS
370
-3
390
F
  0
LAYER
  5
210
100
AcDbSymbolTableRecord
100
AcDbLayerTableRecord
  2
SUPERFICI
 70
0
 62
7
  6
CONTINUOUS
370
-3
390
F
  0
LAYER
  5
211
100
AcDbSymbolTableRecord
100
AcDbLayerTableRecord
  2
TRASH
 70
0
 62
7
  6
CONTINUOUS
370
-3
390
F
  0
ENDTAB
  0
TABLE
  2
STYLE
  5
3
100
AcDbSymbolTable
 70
1
  0
STYLE
  5
11
100
AcDbSymbolTableRecord
100
AcDbTextStyleTableRecord
  2
STANDARD
 70
0
 40
0.0
 41
0.8
 50
0.0
 71
0
 42
0.2
  3
txt
  4

  0
STYLE
  5
212
100
AcDbSymbolTableRecord
100
AcDbTextStyleTableRecord
  2
TEXTSTYLE_1
 70
0
 40
0.0
 41
0.8
 50
0.0
 71
0
 42
0.2
  3
gdt
  4

  0
ENDTAB
  0
TABLE
  2
VIEW
  5
6
100
AcDbSymbolTable
 70
0
  0
ENDTAB
  0
TABLE
  2
UCS
  5
7
100
AcDbSymbolTable
 70
0
  0
ENDTAB
  0
TABLE
  2
APPID
  5
9
100
AcDbSymbolTable
 70
1
  0
APPID
  5
213
100
AcDbSymbolTableRecord
100
AcDbRegAppTableRecord
  2
ACAD
 70
0
  0
ENDTAB
  0
TABLE
  2
BLOCK_RECORD
  5
1
100
AcDbSymbolTable
 70
0
  0
BLOCK_RECORD
  5
214
100
AcDbSymbolTableRecord
100
AcDbBlockTableRecord
  2
*Model_Space
  0
BLOCK_RECORD
  5
215
100
AcDbSymbolTableRecord
100
AcDbBlockTableRecord
  2
*Paper_Space
  0
BLOCK_RECORD
  5
216
100
AcDbSymbolTableRecord
100
AcDbBlockTableRecord
  2
_FILLED
  0
ENDTAB
  0
TABLE
  2
DIMSTYLE
  5
A
100
AcDbSymbolTable
 70
1
100
AcDbDimStyleTable
 71
0
  0
DIMSTYLE
105
217
100
AcDbSymbolTableRecord
100
AcDbDimStyleTableRecord
  2
STANDARD
 70
0
  3

  4

 40
1.0
 41
3.0
 42
0.5
 43
0.38
 44
1.5
 45
0.0
 46
0.0
 47
0.01
 48
0.01
140
3.0
141
0.09
142
0.0
143
25.4
144
1.0
145
0.0
146
1.0
147
0.625
 71
1
 72
0
 73
0
 74
0
 75
0
 76
0
 77
1
 78
8
 79
2
170
0
171
1
172
0
173
0
174
0
175
0
176
0
177
0
178
0
270
2
179
2
271
2
272
2
273
2
274
2
275
0
280
0
281
0
282
0
283
1
284
8
285
0
286
0
287
3
288
0
340
11
278
44
341
216
342
216
343
216
344
216
  0
ENDTAB
  0
ENDSEC
  0
SECTION
  2
BLOCKS
  0
BLOCK
  5
20
100
AcDbEntity
  8
0
100
AcDbBlockBegin
  2
*Model_Space
 70
0
 10
0.0
 20
0.0
 30
0.0
  3
*Model_Space
  1

  0
ENDBLK
  5
21
100
AcDbEntity
  8
0
100
AcDbBlockEnd
  0
BLOCK
  5
1C
100
AcDbEntity
  8
0
100
AcDbBlockBegin
  2
*Paper_Space
 70
0
 10
0.0
 20
0.0
 30
0.0
  3
*Paper_Space
  1

  0
ENDBLK
  5
1D
100
AcDbEntity
  8
0
100
AcDbBlockEnd
  0
BLOCK
  5
218
100
AcDbEntity
  8
0
100
AcDbBlockBegin
  2
_FILLED
 70
64
 10
0.0
 20
0.0
  3
_FILLED
  1

  0
SOLID
  5
219
100
AcDbEntity
  8
0
  6
BYBLOCK
 62
0
100
AcDbTrace
 10
0.0
 20
0.0
 11
-1.0
 21
0.3166666667
 12
-1.0
 22
-0.3166666667
 13
-1.0
 23
-0.3166666667
  0
ENDBLK
  5
21A
100
AcDbEntity
  8
0
  6
BYBLOCK
 62
0
100
AcDbBlockEnd
  0
ENDSEC
  0
SECTION
  2
ENTITIES
  0
LINE
  5
21B
100
AcDbEntity
  8
RACCORDO
100
AcDbLine
 62
7
  6
CONTINUOUS
 10
-31.9406839893
 20
52.7209443201
 11
-29.6779422895
 21
54.0274230188
  0
LINE
  5
21C
100
AcDbEntity
  8
RACCORDO
100
AcDbLine
 62
250
  6
CONTINUOUS
 10
-31.1906477491
 20
52.6466325536
 11
-28.9279060493
 21
53.9531112522
  0
LINE
  5
21D
100
AcDbEntity
  8
RACCORDO
100
AcDbLine
 62
250
  6
CONTINUOUS
 10
-27.3041013197
 20
53.0155467524
 11
-27.1901879852
 21
53.07460579
  0
LINE
  5
21E
100
AcDbEntity
  8
RACCORDO
100
AcDbLine
 62
250
  6
CONTINUOUS
 10
-17.3843878464
 20
29.9990021115
 11
-17.0480387481
 21
30.1932058654
  0
LINE
  5
21F
100
AcDbEntity
  8
RACCORDO
100
AcDbLine
 62
7
  6
CONTINUOUS
 10
-32.3977545303
 20
51.8302017317
 11
-32.3977545303
 21
-17.5697717957
  0
LINE
  5
220
100
AcDbEntity
  8
RACCORDO
100
AcDbLine
 62
250
  6
CONTINUOUS
 10
-32.2513079209
 20
51.6260644351
 11
-32.2513079209
 21
-17.7739090923
  0
LINE
  5
221
100
AcDbEntity
  8
RACCORDO
100
AcDbLine
 62
250
  6
CONTINUOUS
 10
-15.8309150501
 20
29.0158045621
 11
-15.6367670819
 21
29.1358685779
  0
LINE
  5
222
100
AcDbEntity
  8
RACCORDO
100
AcDbLine
 62
7
  6
CONTINUOUS
 10
-15.8290020956
 20
28.951020902
 11
-15.6764453726
 21
29.0453642679
  0
LINE
  5
223
100
AcDbEntity
  8
RACCORDO
100
AcDbLine
 62
250
  6
CONTINUOUS
 10
-16.4908835551
 20
25.0192922588
 11
-15.8629204905
 21
25.3986608149
  0
LINE
  5
224
100
AcDbEntity
  8
RACCORDO
100
AcDbLine
 62
250
  6
CONTINUOUS
 10
-15.8629204905
 20
26.4391626544
 11
-16.4908835608
 21
26.068198375
  0
LINE
  5
225
100
AcDbEntity
  8
RACCORDO
100
AcDbLine
 62
250
  6
CONTINUOUS
 10
-16.490883561
 20
26.0681983751
 11
-16.7091461685
 21
25.9449973831
  0
LINE
  5
226
100
AcDbEntity
  8
RACCORDO
100
AcDbLine
 62
250
  6
CONTINUOUS
 10
-16.7091461665
 20
24.8989076434
 11
-16.4908835551
 21
25.0192922588
  0
LINE
  5
227
100
AcDbEntity
  8
RACCORDO
100
AcDbLine
 62
7
  6
CONTINUOUS
 10
-12.8765821163
 20
27.009079204
 11
-12.8034425633
 21
27.0475877398
  0
LINE
  5
228
100
AcDbEntity
  8
RACCORDO
100
AcDbLine
 62
7
  6
CONTINUOUS
 10
-15.806515562
 20
26.5124291169
 11
-14.6816808372
 21
26.9506327301
  0
LINE
  5
229
100
AcDbEntity
  8
RACCORDO
100
AcDbLine
 62
7
  6
CONTINUOUS
 10
-31.4406598291
 20
-19.227522393
 11
28.6634165717
 21
-53.9308628259
  0
LINE
  5
22A
100
AcDbEntity
  8
RACCORDO
100
AcDbLine
 62
250
  6
CONTINUOUS
 10
-31.5442011397
 20
-18.9986539625
 11
28.5598752612
 21
-53.7019943953
  0
LINE
  5
22B
100
AcDbEntity
  8
RACCORDO
100
AcDbLine
 62
7
  6
CONTINUOUS
 10
-16.5128469647
 20
20.4461447353
 11
-15.8851341355
 21
20.8601154427
  0
LINE
  5
22C
100
AcDbEntity
  8
RACCORDO
100
AcDbLine
 62
7
  6
CONTINUOUS
 10
-12.8765821163
 20
24.2330802629
 11
-12.8034425633
 21
24.2805185651
  0
LINE
  5
22D
100
AcDbEntity
  8
RACCORDO
100
AcDbLine
 62
7
  6
CONTINUOUS
 10
-16.7311930021
 20
20.3114139213
 11
-16.5128469647
 21
20.4461447353
  0
LINE
  5
22E
100
AcDbEntity
  8
RACCORDO
100
AcDbLine
 62
7
  6
CONTINUOUS
 10
-16.5128469647
 20
23.808358375
 11
-15.8851341355
 21
24.145009462
  0
LINE
  5
22F
100
AcDbEntity
  8
RACCORDO
100
AcDbLine
 62
7
  6
CONTINUOUS
 10
-16.7311930021
 20
23.6995999086
 11
-16.5128469647
 21
23.808358375
  0
LINE
  5
230
100
AcDbEntity
  8
RACCORDO
100
AcDbLine
 62
7
  6
CONTINUOUS
 10
-16.7479917433
 20
23.0269349344
 11
-14.6816808372
 21
24.0528963539
  0
LINE
  5
231
100
AcDbEntity
  8
RACCORDO
100
AcDbLine
 62
7
  6
CONTINUOUS
 10
-15.8267787695
 20
25.4285642582
 11
-15.8261039544
 21
25.4313241785
  0
LINE
  5
232
100
AcDbEntity
  8
RACCORDO
100
AcDbLine
 62
7
  6
CONTINUOUS
 10
-12.7491311025
 20
27.1036406115
 11
-12.5827148694
 21
27.6149838215
  0
LINE
  5
233
100
AcDbEntity
  8
RACCORDO
100
AcDbLine
 62
250
  6
CONTINUOUS
 10
-15.8309150501
 20
16.1155741888
 11
-15.6367670819
 21
16.2356382046
  0
LINE
  5
234
100
AcDbEntity
  8
RACCORDO
100
AcDbLine
 62
7
  6
CONTINUOUS
 10
-15.8290020956
 20
16.0507905287
 11
-15.6764453726
 21
16.1451338946
  0
LINE
  5
235
100
AcDbEntity
  8
RACCORDO
100
AcDbLine
 62
250
  6
CONTINUOUS
 10
-15.8290020956
 20
18.5683700094
 11
-15.778166899
 21
18.5977217156
  0
LINE
  5
236
100
AcDbEntity
  8
RACCORDO
100
AcDbLine
 62
250
  6
CONTINUOUS
 10
-15.8309150501
 20
18.24071106
 11
-15.6367670819
 21
18.3528100485
  0
LINE
  5
237
100
AcDbEntity
  8
RACCORDO
100
AcDbLine
 62
250
  6
CONTINUOUS
 10
14.1879299336
 20
-32.0341125034
 11
-17.1722558121
 21
-13.9271342894
  0
LINE
  5
238
100
AcDbEntity
  8
RACCORDO
100
AcDbLine
 62
250
  6
CONTINUOUS
 10
-17.8086519151
 20
-12.8248639062
 11
-17.8086519151
 21
29.9990021115
  0
LINE
  5
239
100
AcDbEntity
  8
RACCORDO
100
AcDbLine
 62
250
  6
CONTINUOUS
 10
-17.3843878464
 20
-12.8248639062
 11
-17.3843878464
 21
29.9990021115
  0
LINE
  5
23A
100
AcDbEntity
  8
RACCORDO
100
AcDbLine
 62
7
  6
CONTINUOUS
 10
-16.7479917433
 20
30.0199624853
 11
-16.7479917433
 21
-12.4574167723
  0
LINE
  5
23B
100
AcDbEntity
  8
RACCORDO
100
AcDbLine
 62
250
  6
CONTINUOUS
 10
-16.7311930021
 20
-12.5180049902
 11
-16.731193002
 21
-7.8347212105
  0
LINE
  5
23C
100
AcDbEntity
  8
RACCORDO
100
AcDbLine
 62
250
  6
CONTINUOUS
 10
-16.7311930019
 20
-6.6135367721
 11
-16.7311930021
 21
-5.4890468253
  0
LINE
  5
23D
100
AcDbEntity
  8
RACCORDO
100
AcDbLine
 62
250
  6
CONTINUOUS
 10
-16.7311930021
 20
-2.100860838
 11
-16.7311930021
 21
20.3114139213
  0
LINE
  5
23E
100
AcDbEntity
  8
RACCORDO
100
AcDbLine
 62
250
  6
CONTINUOUS
 10
-16.7311930021
 20
23.6995999086
 11
-16.731193002
 21
24.8240898612
  0
LINE
  5
23F
100
AcDbEntity
  8
RACCORDO
100
AcDbLine
 62
250
  6
CONTINUOUS
 10
-16.7311930019
 20
26.0452742996
 11
-16.7311930021
 21
30.0102631026
  0
LINE
  5
240
100
AcDbEntity
  8
RACCORDO
100
AcDbLine
 62
7
  6
CONTINUOUS
 10
-16.5128469463
 20
26.1682753189
 11
-16.5128447602
 21
29.8841915643
  0
LINE
  5
241
100
AcDbEntity
  8
RACCORDO
100
AcDbLine
 62
7
  6
CONTINUOUS
 10
-16.5128469617
 20
-7.7142329425
 11
-16.5128402947
 21
-12.3919316514
  0
LINE
  5
242
100
AcDbEntity
  8
RACCORDO
100
AcDbLine
 62
7
  6
CONTINUOUS
 10
-16.5128469647
 20
-5.3543160113
 11
-16.5128469463
 21
-6.4905357529
  0
LINE
  5
243
100
AcDbEntity
  8
DRAFT
100
AcDbLine
 62
7
  6
CONTINUOUS
 10
-16.5128469647
 20
-1.9921023716
 11
-16.5128469647
 21
20.4461447353
  0
LINE
  5
244
100
AcDbEntity
  8
RACCORDO
100
AcDbLine
 62
7
  6
CONTINUOUS
 10
-16.5128469647
 20
23.808358375
 11
-16.5128469617
 21
24.9445781292
  0
LWPOLYLINE
  5
245
100
AcDbEntity
  8
RACCORDO
100
AcDbPolyline
 62
7
  6
CONTINUOUS
 90
5
 70
0
 10
-15.8290020995
 20
25.403877214
 10
-15.8288581292
 20
25.4108115339
 10
-15.8283676597
 20
25.4179864889
 10
-15.8276351379
 20
25.4239073721
 10
-15.8267787695
 20
25.4285642582
  0
LINE
  5
246
100
AcDbEntity
  8
RACCORDO
100
AcDbLine
 62
7
  6
CONTINUOUS
 10
-12.7491311025
 20
24.3462392708
 11
-12.4694223134
 21
25.3186127018
  0
LINE
  5
247
100
AcDbEntity
  8
RACCORDO
100
AcDbLine
 62
250
  6
CONTINUOUS
 10
14.4000619679
 20
-31.6666890424
 11
-16.9601237777
 21
-13.5597108283
  0
LINE
  5
248
100
AcDbEntity
  8
RACCORDO
100
AcDbLine
 62
7
  6
CONTINUOUS
 10
-16.3237276746
 20
-13.1922636943
 11
14.736458071
 21
-31.1260256683
  0
LINE
  5
249
100
AcDbEntity
  8
RACCORDO
100
AcDbLine
 62
7
  6
CONTINUOUS
 10
-16.0195193217
 20
-13.2482184881
 11
3.2673298543
 21
-24.3842034813
  0
LINE
  5
24A
100
AcDbEntity
  8
RACCORDO
100
AcDbLine
 62
7
  6
CONTINUOUS
 10
7.4662158222
 20
-26.8085876148
 11
14.736458071
 21
-31.0063343717
  0
LINE
  5
24B
100
AcDbEntity
  8
RACCORDO
100
AcDbLine
 62
7
  6
CONTINUOUS
 10
4.1729702764
 20
-24.5043822129
 11
4.1822975177
 21
-24.5097676452
  0
LINE
  5
24C
100
AcDbEntity
  8
RACCORDO
100
AcDbLine
 62
250
  6
CONTINUOUS
 10
-15.3665288138
 20
-13.0139190016
 11
3.9203203622
 21
-24.1499039949
  0
LINE
  5
24D
100
AcDbEntity
  8
RACCORDO
100
AcDbLine
 62
250
  6
CONTINUOUS
 10
8.1424072878
 20
-26.5876840705
 11
14.736458071
 21
-30.3950063499
  0
LINE
  5
24E
100
AcDbEntity
  8
RACCORDO
100
AcDbLine
 62
7
  6
CONTINUOUS
 10
-15.2947903737
 20
-13.0169707332
 11
3.9908768633
 21
-24.1522732306
  0
LINE
  5
24F
100
AcDbEntity
  8
RACCORDO
100
AcDbLine
 62
7
  6
CONTINUOUS
 10
8.2154706835
 20
-26.5915007558
 11
14.736458071
 21
-30.3566371462
  0
LINE
  5
250
100
AcDbEntity
  8
RACCORDO
100
AcDbLine
 62
7
  6
CONTINUOUS
 10
8.8202917605
 20
-26.0398117259
 11
5.4922542862
 21
-24.1182445983
  0
LWPOLYLINE
  5
251
100
AcDbEntity
  8
RACCORDO
100
AcDbPolyline
 62
7
  6
CONTINUOUS
 90
26
 70
0
 10
-15.2947903729
 20
-13.0169707336
 10
-15.3095659253
 20
-13.008169976
 10
-15.3408449553
 20
-12.9878102809
 10
-15.3729470652
 20
-12.9645003305
 10
-15.4055823793
 20
-12.9382834708
 10
-15.4384186543
 20
-12.9092812895
 10
-15.4712190469
 20
-12.8775903544
 10
-15.5037592613
 20
-12.8433203428
 10
-15.5357675019
 20
-12.806657316
 10
-15.5670269571
 20
-12.7677679038
 10
-15.5973248842
 20
-12.7268450385
 10
-15.6264211768
 20
-12.6841476549
 10
-15.6541224032
 20
-12.6399082604
 10
-15.6802602351
 20
-12.5943619446
 10
-15.7046536242
 20
-12.5477970832
 10
-15.7271590965
 20
-12.5004673613
 10
-15.7476449945
 20
-12.4526518668
 10
-15.7659719253
 20
-12.404704891
 10
-15.7820660448
 20
-12.3568595601
 10
-15.7958388588
 20
-12.3094458087
 10
-15.8071916198
 20
-12.2629805102
 10
-15.8161322855
 20
-12.2177125348
 10
-15.8226818299
 20
-12.1739105131
 10
-15.8268711853
 20
-12.1321250959
 10
-15.8288173888
 20
-12.0926862914
 10
-15.8290021443
 20
-12.0768023685
  0
LWPOLYLINE
  5
252
100
AcDbEntity
  8
RACCORDO
100
AcDbPolyline
 62
7
  6
CONTINUOUS
 90
10
 70
0
 10
-15.8001172741
 20
-6.1628058642
 10
-15.8060508418
 20
-6.1479177499
 10
-15.812076298
 20
-6.1309139758
 10
-15.8171593407
 20
-6.1143570399
 10
-15.8212910938
 20
-6.0984363548
 10
-15.8244680512
 20
-6.0834199936
 10
-15.8267465014
 20
-6.0694252818
 10
-15.8281936814
 20
-6.0565865223
 10
-15.8288904935
 20
-6.0451743153
 10
-15.8290020964
 20
-6.0387658557
  0
LINE
  5
253
100
AcDbEntity
  8
RACCORDO
100
AcDbLine
 62
250
  6
CONTINUOUS
 10
-15.8851341355
 20
25.3236368862
 11
-15.8851341355
 21
24.145009462
  0
LINE
  5
254
100
AcDbEntity
  8
RACCORDO
100
AcDbLine
 62
250
  6
CONTINUOUS
 10
-15.8851341355
 20
-4.9403453039
 11
-15.8851341355
 21
-6.1189727281
  0
LINE
  5
255
100
AcDbEntity
  8
RACCORDO
100
AcDbLine
 62
250
  6
CONTINUOUS
 10
-15.8851341355
 20
-12.1569391668
 11
-15.8851341355
 21
-7.3351741855
  0
LINE
  5
256
100
AcDbEntity
  8
RACCORDO
100
AcDbLine
 62
250
  6
CONTINUOUS
 10
-15.8851341355
 20
-1.6554512847
 11
-15.8851341355
 21
20.8601154427
  0
LINE
  5
257
100
AcDbEntity
  8
RACCORDO
100
AcDbLine
 62
250
  6
CONTINUOUS
 10
-15.8851341355
 20
26.5398383436
 11
-15.8851341355
 21
29.5217593167
  0
LINE
  5
258
100
AcDbEntity
  8
RACCORDO
100
AcDbLine
 62
7
  6
CONTINUOUS
 10
-15.8309150501
 20
29.4904538963
 11
-15.8309150501
 21
29.0158045621
  0
LINE
  5
259
100
AcDbEntity
  8
RACCORDO
100
AcDbLine
 62
7
  6
CONTINUOUS
 10
-15.8309150501
 20
18.24071106
 11
-15.8309150501
 21
16.1155741888
  0
LINE
  5
25A
100
AcDbEntity
  8
RACCORDO
100
AcDbLine
 62
7
  6
CONTINUOUS
 10
-15.8309150501
 20
3.2176579671
 11
-15.8309150501
 21
1.0925210958
  0
LINE
  5
25B
100
AcDbEntity
  8
RACCORDO
100
AcDbLine
 62
7
  6
CONTINUOUS
 10
-15.8309150501
 20
-9.6825724063
 11
-15.8309150501
 21
-11.8077092775
  0
LINE
  5
25C
100
AcDbEntity
  8
RACCORDO
100
AcDbLine
 62
7
  6
CONTINUOUS
 10
-15.8290020956
 20
28.9646977014
 11
-15.8290020956
 21
26.6200557505
  0
LINE
  5
25D
100
AcDbEntity
  8
RACCORDO
100
AcDbLine
 62
7
  6
CONTINUOUS
 10
-15.8290020956
 20
25.4038542941
 11
-15.8290020956
 21
24.2193248908
  0
LINE
  5
25E
100
AcDbEntity
  8
RACCORDO
100
AcDbLine
 62
7
  6
CONTINUOUS
 10
-15.8290020956
 20
20.9462348287
 11
-15.8290020956
 21
18.3236847377
  0
LINE
  5
25F
100
AcDbEntity
  8
RACCORDO
100
AcDbLine
 62
7
  6
CONTINUOUS
 10
-15.8290020956
 20
16.0644673281
 11
-15.8290020956
 21
3.3006316448
  0
LINE
  5
260
100
AcDbEntity
  8
RACCORDO
100
AcDbLine
 62
7
  6
CONTINUOUS
 10
-15.8290020956
 20
1.0414142351
 11
-15.8290020956
 21
-1.5811358559
  0
LINE
  5
261
100
AcDbEntity
  8
RACCORDO
100
AcDbLine
 62
7
  6
CONTINUOUS
 10
-15.8290020956
 20
-4.854225918
 11
-15.8290020956
 21
-6.0387553212
  0
LINE
  5
262
100
AcDbEntity
  8
RACCORDO
100
AcDbLine
 62
7
  6
CONTINUOUS
 10
-15.8290020956
 20
-7.2549567777
 11
-15.8290020956
 21
-9.5995987286
  0
LINE
  5
263
100
AcDbEntity
  8
RACCORDO
100
AcDbLine
 62
7
  6
CONTINUOUS
 10
-15.8290020956
 20
-11.8588161382
 11
-15.8290020956
 21
-12.0767217578
  0
LINE
  5
264
100
AcDbEntity
  8
RACCORDO
100
AcDbLine
 62
7
  6
CONTINUOUS
 10
-15.6367670819
 20
29.3783552927
 11
-15.6367670819
 21
29.1358685779
  0
LINE
  5
265
100
AcDbEntity
  8
RACCORDO
100
AcDbLine
 62
7
  6
CONTINUOUS
 10
-15.6367670819
 20
18.3528100485
 11
-15.6367670819
 21
16.2356382046
  0
LINE
  5
266
100
AcDbEntity
  8
RACCORDO
100
AcDbLine
 62
7
  6
CONTINUOUS
 10
-15.6367670819
 20
3.3297569555
 11
-15.6367670819
 21
1.2125851116
  0
LINE
  5
267
100
AcDbEntity
  8
RACCORDO
100
AcDbLine
 62
7
  6
CONTINUOUS
 10
-15.6367670819
 20
-9.5704734178
 11
-15.6367670819
 21
-11.6876452618
  0
LINE
  5
268
100
AcDbEntity
  8
RACCORDO
100
AcDbLine
 62
250
  6
CONTINUOUS
 10
-14.6816808372
 20
1.1501719834
 11
-14.6816808372
 21
-1.7475643927
  0
LINE
  5
269
100
AcDbEntity
  8
RACCORDO
100
AcDbLine
 62
250
  6
CONTINUOUS
 10
-14.6816808372
 20
24.0528963539
 11
-14.6816808372
 21
26.9506327301
  0
LINE
  5
26A
100
AcDbEntity
  8
RACCORDO
100
AcDbLine
 62
250
  6
CONTINUOUS
 10
-14.0729194082
 20
1.2448156408
 11
-14.0729194082
 21
-1.6035776673
  0
LINE
  5
26B
100
AcDbEntity
  8
RACCORDO
100
AcDbLine
 62
250
  6
CONTINUOUS
 10
-14.0729194082
 20
24.1968830794
 11
-14.0729194082
 21
27.0452763874
  0
LINE
  5
26C
100
AcDbEntity
  8
DRAFT
100
AcDbLine
 62
7
  6
CONTINUOUS
 10
-12.8765821163
 20
1.2086184573
 11
-12.8765821163
 21
-1.5673804838
  0
LINE
  5
26D
100
AcDbEntity
  8
DRAFT
100
AcDbLine
 62
7
  6
CONTINUOUS
 10
-12.8765821163
 20
24.2330802629
 11
-12.8765821163
 21
27.009079204
  0
LINE
  5
26E
100
AcDbEntity
  8
RACCORDO
100
AcDbLine
 62
250
  6
CONTINUOUS
 10
-12.8034425633
 20
27.0475877398
 11
-12.8034425633
 21
24.2805185651
  0
LINE
  5
26F
100
AcDbEntity
  8
RACCORDO
100
AcDbLine
 62
250
  6
CONTINUOUS
 10
-12.8034425633
 20
-1.5199421816
 11
-12.8034425633
 21
1.2471269932
  0
LINE
  5
270
100
AcDbEntity
  8
RACCORDO
100
AcDbLine
 62
250
  6
CONTINUOUS
 10
-12.7491311025
 20
27.1036406115
 11
-12.7491311025
 21
24.3462392708
  0
LINE
  5
271
100
AcDbEntity
  8
RACCORDO
100
AcDbLine
 62
250
  6
CONTINUOUS
 10
-12.7491311025
 20
-1.4542214759
 11
-12.7491311025
 21
1.3031798648
  0
LINE
  5
272
100
AcDbEntity
  8
RACCORDO
100
AcDbLine
 62
250
  6
CONTINUOUS
 10
-12.4694223134
 20
27.5495701195
 11
-12.4694223134
 21
25.3186127018
  0
LINE
  5
273
100
AcDbEntity
  8
RACCORDO
100
AcDbLine
 62
250
  6
CONTINUOUS
 10
-12.4694223134
 20
-0.4818480448
 11
-12.4694223134
 21
2.162634423
  0
LINE
  5
274
100
AcDbEntity
  8
RACCORDO
100
AcDbLine
 62
7
  6
CONTINUOUS
 10
-12.4618261899
 20
27.545184213
 11
-12.4618261899
 21
25.3716006838
  0
LINE
  5
275
100
AcDbEntity
  8
RACCORDO
100
AcDbLine
 62
7
  6
CONTINUOUS
 10
-12.4618261899
 20
-0.4288600628
 11
-12.4618261899
 21
2.2099087224
  0
LWPOLYLINE
  5
276
100
AcDbEntity
  8
RACCORDO
100
AcDbPolyline
 62
7
  6
CONTINUOUS
 90
5
 70
0
 10
-15.8290020995
 20
-7.2549338577
 10
-15.8288581292
 20
-7.2479995378
 10
-15.8283676597
 20
-7.2408245828
 10
-15.8276351379
 20
-7.2349036996
 10
-15.8267787695
 20
-7.2302468135
  0
LINE
  5
277
100
AcDbEntity
  8
RACCORDO
100
AcDbLine
 62
7
  6
CONTINUOUS
 10
-15.8267787695
 20
-7.2302468135
 11
-15.8261039544
 21
-7.2274868932
  0
LINE
  5
278
100
AcDbEntity
  8
RACCORDO
100
AcDbLine
 62
7
  6
CONTINUOUS
 10
-12.4694223134
 20
2.162634423
 11
-12.7491311025
 21
1.3031798648
  0
LINE
  5
279
100
AcDbEntity
  8
RACCORDO
100
AcDbLine
 62
7
  6
CONTINUOUS
 10
-15.8290020956
 20
-9.2962101453
 11
-15.778166899
 21
-9.3255617507
  0
LINE
  5
27A
100
AcDbEntity
  8
RACCORDO
100
AcDbLine
 62
7
  6
CONTINUOUS
 10
-15.8875807394
 20
-4.7700644546
 11
-16.7479917433
 21
-4.2732739244
  0
LINE
  5
27B
100
AcDbEntity
  8
RACCORDO
100
AcDbLine
 62
7
  6
CONTINUOUS
 10
-12.4694223134
 20
-0.4818480448
 11
-12.7491311025
 21
-1.4542214759
  0
LINE
  5
27C
100
AcDbEntity
  8
RACCORDO
100
AcDbLine
 62
250
  6
CONTINUOUS
 10
-15.8309150501
 20
1.0925210958
 11
-15.6367670819
 21
1.2125851116
  0
LINE
  5
27D
100
AcDbEntity
  8
RACCORDO
100
AcDbLine
 62
7
  6
CONTINUOUS
 10
-15.8290020956
 20
1.0277374357
 11
-15.6764453726
 21
1.1220808016
  0
LINE
  5
27E
100
AcDbEntity
  8
RACCORDO
100
AcDbLine
 62
250
  6
CONTINUOUS
 10
-15.8290020956
 20
3.5453169164
 11
-15.778166899
 21
3.5746686226
  0
LINE
  5
27F
100
AcDbEntity
  8
RACCORDO
100
AcDbLine
 62
250
  6
CONTINUOUS
 10
-15.8309150501
 20
3.2176579671
 11
-15.6367670819
 21
3.3297569555
  0
LINE
  5
280
100
AcDbEntity
  8
RACCORDO
100
AcDbLine
 62
7
  6
CONTINUOUS
 10
-16.5128469647
 20
-5.3543160113
 11
-15.8851341355
 21
-4.9403453039
  0
LINE
  5
281
100
AcDbEntity
  8
RACCORDO
100
AcDbLine
 62
7
  6
CONTINUOUS
 10
-12.8034425633
 20
-1.5199421816
 11
-12.8765821163
 21
-1.5673804838
  0
LINE
  5
282
100
AcDbEntity
  8
RACCORDO
100
AcDbLine
 62
7
  6
CONTINUOUS
 10
-16.7311930021
 20
-5.4890468253
 11
-16.5128469647
 21
-5.3543160113
  0
LINE
  5
283
100
AcDbEntity
  8
RACCORDO
100
AcDbLine
 62
7
  6
CONTINUOUS
 10
-16.5128469647
 20
-1.9921023716
 11
-15.8851341355
 21
-1.6554512847
  0
LINE
  5
284
100
AcDbEntity
  8
RACCORDO
100
AcDbLine
 62
7
  6
CONTINUOUS
 10
-12.8034425633
 20
1.2471269932
 11
-12.8765821163
 21
1.2086184573
  0
LINE
  5
285
100
AcDbEntity
  8
RACCORDO
100
AcDbLine
 62
7
  6
CONTINUOUS
 10
-16.7311930021
 20
-2.100860838
 11
-16.5128469647
 21
-1.9921023716
  0
LINE
  5
286
100
AcDbEntity
  8
RACCORDO
100
AcDbLine
 62
7
  6
CONTINUOUS
 10
-14.6816808372
 20
-1.7475643927
 11
-16.7479917433
 21
-2.7735258122
  0
LINE
  5
287
100
AcDbEntity
  8
RACCORDO
100
AcDbLine
 62
7
  6
CONTINUOUS
 10
-14.6816808372
 20
1.1501719834
 11
-15.8290020956
 21
0.7032082563
  0
LINE
  5
288
100
AcDbEntity
  8
RACCORDO
100
AcDbLine
 62
7
  6
CONTINUOUS
 10
-15.8290020956
 20
3.604020228
 11
-15.778166899
 21
3.5746686226
  0
LINE
  5
289
100
AcDbEntity
  8
RACCORDO
100
AcDbLine
 62
7
  6
CONTINUOUS
 10
-12.9119374554
 20
2.583111824
 11
-12.6082727993
 21
2.4077796574
  0
LWPOLYLINE
  5
28A
100
AcDbEntity
  8
RACCORDO
100
AcDbPolyline
 62
7
  6
CONTINUOUS
 90
10
 70
0
 10
-15.8001172741
 20
26.4960052075
 10
-15.8060508418
 20
26.5108933218
 10
-15.812076298
 20
26.5278970959
 10
-15.8171593407
 20
26.5444540318
 10
-15.8212910938
 20
26.5603747169
 10
-15.8244680512
 20
26.5753910782
 10
-15.8267465014
 20
26.58938579
 10
-15.8281936814
 20
26.6022245494
 10
-15.8288904935
 20
26.6136367564
 10
-15.8290020964
 20
26.620045216
  0
LINE
  5
28B
100
AcDbEntity
  8
RACCORDO
100
AcDbLine
 62
250
  6
CONTINUOUS
 10
-16.4908835551
 20
-7.6395188129
 11
-15.8629204905
 21
-7.2601502568
  0
LINE
  5
28C
100
AcDbEntity
  8
RACCORDO
100
AcDbLine
 62
250
  6
CONTINUOUS
 10
-15.8629204905
 20
-6.2196484173
 11
-16.4908835608
 21
-6.5906126967
  0
LINE
  5
28D
100
AcDbEntity
  8
RACCORDO
100
AcDbLine
 62
250
  6
CONTINUOUS
 10
28.9134286518
 20
17.9432921207
 11
31.1761703516
 21
19.2497708194
  0
LINE
  5
28E
100
AcDbEntity
  8
RACCORDO
100
AcDbLine
 62
250
  6
CONTINUOUS
 10
31.6365031434
 20
18.8622478546
 11
31.8500193026
 21
18.9855300496
  0
LINE
  5
28F
100
AcDbEntity
  8
RACCORDO
100
AcDbLine
 62
250
  6
CONTINUOUS
 10
-15.8290020956
 20
-9.3549134569
 11
-15.778166899
 21
-9.3255617507
  0
LINE
  5
290
100
AcDbEntity
  8
RACCORDO
100
AcDbLine
 62
250
  6
CONTINUOUS
 10
-15.8309150501
 20
-9.6825724063
 11
-15.6367670819
 21
-9.5704734178
  0
LINE
  5
291
100
AcDbEntity
  8
RACCORDO
100
AcDbLine
 62
250
  6
CONTINUOUS
 10
32.1313441186
 20
18.005240924
 11
32.344824434
 21
18.1285024232
  0
LINE
  5
292
100
AcDbEntity
  8
RACCORDO
100
AcDbLine
 62
250
  6
CONTINUOUS
 10
-16.490883561
 20
-6.5906126966
 11
-16.7091461685
 21
-6.7138136886
  0
LINE
  5
293
100
AcDbEntity
  8
RACCORDO
100
AcDbLine
 62
250
  6
CONTINUOUS
 10
-16.7091461665
 20
-7.7599034284
 11
-16.4908835551
 21
-7.6395188129
  0
LINE
  5
294
100
AcDbEntity
  8
RACCORDO
100
AcDbLine
 62
7
  6
CONTINUOUS
 10
-12.8765821163
 20
-1.5673804838
 11
-14.0729194082
 21
-1.6035776673
  0
LINE
  5
295
100
AcDbEntity
  8
RACCORDO
100
AcDbLine
 62
7
  6
CONTINUOUS
 10
3.2673298543
 20
-24.3842034813
 11
3.2673298543
 21
-24.5038947779
  0
LINE
  5
296
100
AcDbEntity
  8
RACCORDO
100
AcDbLine
 62
7
  6
CONTINUOUS
 10
4.0315704594
 20
-24.2434031932
 11
4.0315704594
 21
-24.2594705458
  0
LINE
  5
297
100
AcDbEntity
  8
RACCORDO
100
AcDbLine
 62
250
  6
CONTINUOUS
 10
-15.8309150501
 20
-11.8077092775
 11
-15.6367670819
 21
-11.6876452618
  0
LINE
  5
298
100
AcDbEntity
  8
RACCORDO
100
AcDbLine
 62
7
  6
CONTINUOUS
 10
-15.8290020956
 20
-11.8724929376
 11
-15.6764453726
 21
-11.7781495717
  0
LINE
  5
299
100
AcDbEntity
  8
RACCORDO
100
AcDbLine
 62
250
  6
CONTINUOUS
 10
29.9740888236
 20
16.1061748155
 11
32.2368305234
 21
17.4126535142
  0
LINE
  5
29A
100
AcDbEntity
  8
RACCORDO
100
AcDbLine
 62
250
  6
CONTINUOUS
 10
-17.3843878464
 20
-12.8248639062
 11
-16.7479917433
 21
-12.4574167723
  0
LINE
  5
29B
100
AcDbEntity
  8
RACCORDO
100
AcDbLine
 62
250
  6
CONTINUOUS
 10
-16.5128400619
 20
-12.3919311572
 11
-16.7311930021
 21
-12.5180049902
  0
LINE
  5
29C
100
AcDbEntity
  8
RACCORDO
100
AcDbLine
 62
250
  6
CONTINUOUS
 10
-16.9601237777
 20
-13.5597108283
 11
-16.3237276746
 21
-13.1922636943
  0
LINE
  5
29D
100
AcDbEntity
  8
RACCORDO
100
AcDbLine
 62
250
  6
CONTINUOUS
 10
-16.0179476049
 20
-13.2491259777
 11
-16.1215968023
 21
-13.3089715267
  0
LINE
  5
29E
100
AcDbEntity
  8
RACCORDO
100
AcDbLine
 62
7
  6
CONTINUOUS
 10
-12.8765821163
 20
1.2086184573
 11
-14.0729194082
 21
1.2448156408
  0
LINE
  5
29F
100
AcDbEntity
  8
RACCORDO
100
AcDbLine
 62
7
  6
CONTINUOUS
 10
-12.9119374554
 20
2.583111824
 11
-13.2604053451
 21
2.6196026511
  0
LINE
  5
2A0
100
AcDbEntity
  8
RACCORDO
100
AcDbLine
 62
250
  6
CONTINUOUS
 10
-15.8851341355
 20
-12.1569391668
 11
-16.424375089
 21
-12.3504241822
  0
LINE
  5
2A1
100
AcDbEntity
  8
RACCORDO
100
AcDbLine
 62
250
  6
CONTINUOUS
 10
-15.3665288138
 20
-13.0139190016
 11
-16.0195193217
 21
-13.2482184881
  0
LINE
  5
2A2
100
AcDbEntity
  8
RACCORDO
100
AcDbLine
 62
250
  6
CONTINUOUS
 10
-13.2604053451
 20
2.6196026511
 11
-15.6367670819
 21
1.9558966048
  0
LINE
  5
2A3
100
AcDbEntity
  8
RACCORDO
100
AcDbLine
 62
7
  6
CONTINUOUS
 10
-13.4576588831
 20
2.6068882504
 11
-15.6367670819
 21
1.9982741389
  0
LINE
  5
2A4
100
AcDbEntity
  8
RACCORDO
100
AcDbLine
 62
7
  6
CONTINUOUS
 10
-15.8290020956
 20
18.627073321
 11
-15.778166899
 21
18.5977217156
  0
LINE
  5
2A5
100
AcDbEntity
  8
RACCORDO
100
AcDbLine
 62
7
  6
CONTINUOUS
 10
-16.7479917433
 20
21.5271868222
 11
-15.8875807394
 21
21.030396292
  0
LINE
  5
2A6
100
AcDbEntity
  8
RACCORDO
100
AcDbLine
 62
7
  6
CONTINUOUS
 10
14.736458071
 20
11.2796120075
 11
14.736458071
 21
-31.5442540103
  0
LINE
  5
2A7
100
AcDbEntity
  8
RACCORDO
100
AcDbLine
 62
250
  6
CONTINUOUS
 10
14.8243260366
 20
11.1571296295
 11
14.8243260366
 21
-31.6667363883
  0
LINE
  5
2A8
100
AcDbEntity
  8
RACCORDO
100
AcDbLine
 62
250
  6
CONTINUOUS
 10
8.7054051185
 20
-26.8743827583
 11
8.8385033645
 21
-26.1903861608
  0
LINE
  5
2A9
100
AcDbEntity
  8
RACCORDO
100
AcDbLine
 62
7
  6
CONTINUOUS
 10
8.7297069858
 20
-26.8884143519
 11
8.8709907128
 21
-26.1623522769
  0
LINE
  5
2AA
100
AcDbEntity
  8
RACCORDO
100
AcDbLine
 62
7
  6
CONTINUOUS
 10
-17.1101310257
 20
30.2290571683
 11
14.2500547199
 21
12.1220789542
  0
LINE
  5
2AB
100
AcDbEntity
  8
RACCORDO
100
AcDbLine
 62
250
  6
CONTINUOUS
 10
-17.1722558121
 20
30.3663782267
 11
14.1879299336
 21
12.2594000126
  0
LINE
  5
2AC
100
AcDbEntity
  8
DRAFT
100
AcDbLine
 62
7
  6
CONTINUOUS
 10
7.3823074018
 20
-26.8798312411
 11
7.4662158222
 21
-26.8085876148
  0
LINE
  5
2AD
100
AcDbEntity
  8
RACCORDO
100
AcDbLine
 62
250
  6
CONTINUOUS
 10
4.0315704594
 20
-24.2594705458
 11
3.4377872191
 21
-24.602314724
  0
LINE
  5
2AE
100
AcDbEntity
  8
RACCORDO
100
AcDbLine
 62
250
  6
CONTINUOUS
 10
4.1729702764
 20
-24.5043822129
 11
3.7205729459
 21
-24.7655916586
  0
LINE
  5
2AF
100
AcDbEntity
  8
RACCORDO
100
AcDbLine
 62
7
  6
CONTINUOUS
 10
3.147496211
 20
-24.4347043341
 11
3.2673298543
 21
-24.3842034813
  0
LINE
  5
2B0
100
AcDbEntity
  8
RACCORDO
100
AcDbLine
 62
7
  6
CONTINUOUS
 10
4.1822975177
 20
-24.5097676452
 11
5.2271595724
 21
-24.105241516
  0
LINE
  5
2B1
100
AcDbEntity
  8
RACCORDO
100
AcDbLine
 62
7
  6
CONTINUOUS
 10
3.9203203622
 20
-24.1499039949
 11
3.2673298543
 21
-24.3842034813
  0
LINE
  5
2B2
100
AcDbEntity
  8
RACCORDO
100
AcDbLine
 62
7
  6
CONTINUOUS
 10
-14.0729194082
 20
24.1968830794
 11
-12.8765821163
 21
24.2330802629
  0
LINE
  5
2B3
100
AcDbEntity
  8
RACCORDO
100
AcDbLine
 62
250
  6
CONTINUOUS
 10
29.2669820424
 20
-53.2937987118
 11
29.2669820424
 21
16.1061748155
  0
LINE
  5
2B4
100
AcDbEntity
  8
RACCORDO
100
AcDbLine
 62
250
  6
CONTINUOUS
 10
29.9740888236
 20
-53.2937987118
 11
29.9740888236
 21
16.1061748155
  0
LINE
  5
2B5
100
AcDbEntity
  8
RACCORDO
100
AcDbLine
 62
7
  6
CONTINUOUS
 10
8.2861703476
 20
-26.6323218558
 11
8.8385033645
 21
-26.1903861608
  0
LINE
  5
2B6
100
AcDbEntity
  8
RACCORDO
100
AcDbLine
 62
7
  6
CONTINUOUS
 10
8.1424072878
 20
-26.5876840705
 11
7.4662158222
 21
-26.8085876148
  0
LINE
  5
2B7
100
AcDbEntity
  8
RACCORDO
100
AcDbLine
 62
7
  6
CONTINUOUS
 10
-14.0729194082
 20
27.0452763874
 11
-12.8765821163
 21
27.009079204
  0
LINE
  5
2B8
100
AcDbEntity
  8
RACCORDO
100
AcDbLine
 62
250
  6
CONTINUOUS
 10
28.5598752612
 20
17.3309196857
 11
-31.5442011397
 21
52.0342601185
  0
LWPOLYLINE
  5
2B9
100
AcDbEntity
  8
RACCORDO
100
AcDbPolyline
 62
7
  6
CONTINUOUS
 90
20
 70
0
 10
32.3997492722
 20
18.2077960636
 10
32.3990456806
 20
18.238919548
 10
32.3950862818
 20
18.28881621
 10
32.3877862125
 20
18.339026047
 10
32.377273992
 20
18.3893613402
 10
32.363683254
 20
18.4396348685
 10
32.3471321017
 20
18.4896610348
 10
32.3277309797
 20
18.5392291102
 10
32.3056376721
 20
18.5880402831
 10
32.2809683074
 20
18.6358699654
 10
32.2538481716
 20
18.6824897969
 10
32.2244668389
 20
18.7275732226
 10
32.1929497465
 20
18.770902046
 10
32.1594387676
 20
18.8122537422
 10
32.1241343729
 20
18.8513208628
 10
32.0871644531
 20
18.8879009087
 10
32.0486300395
 20
18.921805539
 10
32.0086423693
 20
18.9528167885
 10
31.9673047645
 20
18.9807304347
 10
31.9461564811
 20
18.993452107
  0
LINE
  5
2BA
100
AcDbEntity
  8
RACCORDO
100
AcDbLine
 62
7
  6
CONTINUOUS
 10
32.2368305234
 20
-51.9873200132
 11
32.2368305234
 21
17.4126535142
  0
LINE
  5
2BB
100
AcDbEntity
  8
RACCORDO
100
AcDbLine
 62
250
  6
CONTINUOUS
 10
32.344824434
 20
18.1285024232
 11
32.344824434
 21
-50.0430604422
  0
LINE
  5
2BC
100
AcDbEntity
  8
RACCORDO
100
AcDbLine
 62
7
  6
CONTINUOUS
 10
32.3997495598
 20
18.2079918842
 11
32.3997495598
 21
-49.9635709776
  0
LINE
  5
2BD
100
AcDbEntity
  8
RACCORDO
100
AcDbLine
 62
250
  6
CONTINUOUS
 10
-13.7434192804
 20
28.2851600014
 11
-15.8290020956
 21
27.7026670656
  0
LINE
  5
2BE
100
AcDbEntity
  8
RACCORDO
100
AcDbLine
 62
7
  6
CONTINUOUS
 10
-13.7928863044
 20
28.3137216411
 11
-15.8290020956
 21
27.7450445997
  0
LWPOLYLINE
  5
2BF
100
AcDbEntity
  8
RACCORDO
100
AcDbPolyline
 62
7
  6
CONTINUOUS
 90
12
 70
0
 10
-27.093885629
 20
53.0824327923
 10
-27.1274918573
 20
53.1005472085
 10
-27.1684260132
 20
53.1192058777
 10
-27.2092904115
 20
53.1341680122
 10
-27.2499725268
 20
53.1454288755
 10
-27.2903130009
 20
53.1529880591
 10
-27.3300441947
 20
53.1568561926
 10
-27.3690009799
 20
53.1570776528
 10
-27.4069754775
 20
53.1537155782
 10
-27.4435559808
 20
53.1469137652
 10
-27.4784535053
 20
53.1368748282
 10
-27.4996906492
 20
53.12847758
  0
LINE
  5
2C0
100
AcDbEntity
  8
RACCORDO
100
AcDbLine
 62
250
  6
CONTINUOUS
 10
28.9134286518
 20
17.9432921207
 11
-31.1906477491
 21
52.6466325536
  0
LINE
  5
2C1
100
AcDbEntity
  8
RACCORDO
100
AcDbLine
 62
7
  6
CONTINUOUS
 10
31.1761703516
 20
19.2497708194
 11
-28.9279060493
 21
53.9531112522
  0
LINE
  5
2C2
100
AcDbEntity
  8
RACCORDO
100
AcDbLine
 62
250
  6
CONTINUOUS
 10
-27.1901879852
 20
53.07460579
 11
31.8500193026
 21
18.9855300496
  0
LINE
  5
2C3
100
AcDbEntity
  8
RACCORDO
100
AcDbLine
 62
7
  6
CONTINUOUS
 10
-27.0938851327
 20
53.0824325058
 11
31.9463221553
 21
18.9933567653
  0
LINE
  5
2C4
100
AcDbEntity
  8
RACCORDO
100
AcDbLine
 62
250
  6
CONTINUOUS
 10
14.4000619679
 20
-31.6666890424
 11
14.736458071
 21
-31.4724581485
  0
LWPOLYLINE
  5
2C5
100
AcDbEntity
  8
RACCORDO
100
AcDbPolyline
 62
7
  6
CONTINUOUS
 90
12
 70
0
 10
32.2368305234
 20
-50.3379143139
 10
32.2546666319
 20
-50.3237624029
 10
32.2808317438
 20
-50.298528813
 10
32.3050293597
 20
-50.2702083175
 10
32.3269412285
 20
-50.2389530974
 10
32.3462386431
 20
-50.205049413
 10
32.3627568402
 20
-50.1686409644
 10
32.3763739525
 20
-50.1298514
 10
32.3869490374
 20
-50.0889134126
 10
32.3943998313
 20
-50.0459597115
 10
32.3986719751
 20
-50.0010843942
 10
32.3997495597
 20
-49.9635721463
  0
LINE
  5
2C6
100
AcDbEntity
  8
RACCORDO
100
AcDbLine
 62
250
  6
CONTINUOUS
 10
32.344824434
 20
-50.0430604422
 11
32.2368305234
 21
-50.112121296
  0
LINE
  5
2C7
100
AcDbEntity
  8
RACCORDO
100
AcDbLine
 62
250
  6
CONTINUOUS
 10
29.9740888236
 20
-53.2937987118
 11
32.2368305234
 21
-51.9873200132
  0
LINE
  5
2C8
100
AcDbEntity
  8
RACCORDO
100
AcDbLine
 62
7
  6
CONTINUOUS
 10
29.663464892
 20
-53.9804040036
 11
31.9262065918
 21
-52.6739253049
  0
ARC
  5
2C9
100
AcDbEntity
  8
RACCORDO
100
AcDbCircle
 62
7
  6
CONTINUOUS
 10
-16.2857630659
 20
25.7982482089
 40
0.5878393387
100
AcDbArc
 50
320.9392398821
 51
325.7098873687
  0
ARC
  5
2CA
100
AcDbEntity
  8
RACCORDO
100
AcDbCircle
 62
7
  6
CONTINUOUS
 10
-16.2857630659
 20
-6.8605628628
 40
0.5878393387
100
AcDbArc
 50
320.9392398821
 51
325.7098873687
  0
ARC
  5
2CB
100
AcDbEntity
  8
RACCORDO
100
AcDbCircle
 62
7
  6
CONTINUOUS
 10
-15.3413360906
 20
-11.8076601772
 40
0.4895789619
100
AcDbArc
 50
180.005746243
 51
181.2746751289
  0
ARC
  5
2CC
100
AcDbEntity
  8
RACCORDO
100
AcDbCircle
 62
7
  6
CONTINUOUS
 10
-15.3413360907
 20
1.0925701961
 40
0.4895789619
100
AcDbArc
 50
180.0057462429
 51
181.274675129
  0
ARC
  5
2CD
100
AcDbEntity
  8
RACCORDO
100
AcDbCircle
 62
7
  6
CONTINUOUS
 10
-15.3413360907
 20
16.1156232891
 40
0.4895789619
100
AcDbArc
 50
180.005746243
 51
181.274675129
  0
ARC
  5
2CE
100
AcDbEntity
  8
RACCORDO
100
AcDbCircle
 62
7
  6
CONTINUOUS
 10
-15.3413360907
 20
29.0158536624
 40
0.4895789619
100
AcDbArc
 50
180.0057462429
 51
181.274675129
  0
ARC
  5
2CF
100
AcDbEntity
  8
RACCORDO
100
AcDbCircle
 62
250
  6
CONTINUOUS
 10
-16.2259602477
 20
25.6930657137
 40
0.4674100017
100
AcDbArc
 50
320.959884462
 51
326.2795181686
  0
ARC
  5
2D0
100
AcDbEntity
  8
RACCORDO
100
AcDbCircle
 62
250
  6
CONTINUOUS
 10
-16.2259602477
 20
-6.965745358
 40
0.4674100017
100
AcDbArc
 50
320.959884462
 51
326.2795181686
  0
ARC
  5
2D1
100
AcDbEntity
  8
RACCORDO
100
AcDbCircle
 62
250
  6
CONTINUOUS
 10
-16.8325499216
 20
25.006443433
 40
0.2086289776
100
AcDbArc
 50
293.921318016
 51
299.066458702
  0
ARC
  5
2D2
100
AcDbEntity
  8
RACCORDO
100
AcDbCircle
 62
250
  6
CONTINUOUS
 10
-16.8325499217
 20
-7.6523676387
 40
0.2086289776
100
AcDbArc
 50
293.921318019
 51
299.0664586905
  0
ARC
  5
2D3
100
AcDbEntity
  8
RACCORDO
100
AcDbCircle
 62
250
  6
CONTINUOUS
 10
-16.8325499173
 20
26.2276278612
 40
0.2086289667
100
AcDbArc
 50
293.9213174237
 51
299.0664590121
  0
ARC
  5
2D4
100
AcDbEntity
  8
RACCORDO
100
AcDbCircle
 62
250
  6
CONTINUOUS
 10
-16.8325499173
 20
-6.4311832105
 40
0.2086289667
100
AcDbArc
 50
293.9213174231
 51
299.0664590114
  0
ARC
  5
2D5
100
AcDbEntity
  8
RACCORDO
100
AcDbCircle
 62
250
  6
CONTINUOUS
 10
-16.830656122
 20
-12.3392752835
 40
0.204541488
100
AcDbArc
 50
295.0838861278
 51
299.0959471034
  0
ARC
  5
2D6
100
AcDbEntity
  8
RACCORDO
100
AcDbCircle
 62
250
  6
CONTINUOUS
 10
-15.9714543159
 20
-5.974226216
 40
0.1685310838
100
AcDbArc
 50
300.8099117503
 51
306.3556111255
  0
ARC
  5
2D7
100
AcDbEntity
  8
RACCORDO
100
AcDbCircle
 62
250
  6
CONTINUOUS
 10
-15.9714543159
 20
26.6845848557
 40
0.1685310838
100
AcDbArc
 50
300.8099117502
 51
306.3556111255
  0
ARC
  5
2D8
100
AcDbEntity
  8
RACCORDO
100
AcDbCircle
 62
250
  6
CONTINUOUS
 10
-15.9314648358
 20
-7.1469435548
 40
0.1323407898
100
AcDbArc
 50
301.1940488675
 51
308.4471608652
  0
ARC
  5
2D9
100
AcDbEntity
  8
RACCORDO
100
AcDbCircle
 62
250
  6
CONTINUOUS
 10
-15.9314648358
 20
25.511867517
 40
0.1323407898
100
AcDbArc
 50
301.1940488676
 51
308.4471608651
  0
ARC
  5
2DA
100
AcDbEntity
  8
RACCORDO
100
AcDbCircle
 62
250
  6
CONTINUOUS
 10
-15.9295921056
 20
-7.1492946521
 40
0.129335003
100
AcDbArc
 50
308.445037373
 51
320.8306481189
  0
ARC
  5
2DB
100
AcDbEntity
  8
RACCORDO
100
AcDbCircle
 62
250
  6
CONTINUOUS
 10
-15.9295921056
 20
25.5095164196
 40
0.129335003
100
AcDbArc
 50
308.445037373
 51
320.8306481189
  0
ARC
  5
2DC
100
AcDbEntity
  8
RACCORDO
100
AcDbCircle
 62
250
  6
CONTINUOUS
 10
-15.7752107495
 20
25.3356271064
 40
0.1085420214
100
AcDbArc
 50
156.9392833032
 51
162.6756418535
  0
ARC
  5
2DD
100
AcDbEntity
  8
RACCORDO
100
AcDbCircle
 62
250
  6
CONTINUOUS
 10
-15.7752107495
 20
-7.3231839653
 40
0.1085420214
100
AcDbArc
 50
156.9392833031
 51
162.6756418536
  0
SPLINE
  5
2DE
100
AcDbEntity
  8
RACCORDO
100
AcDbSpline
 62
7
  6
CONTINUOUS
 70
0
 71
3
 72
11
 73
7
 74
0
 42
0.0000001
 43
0.0000001
 44
0.0000000001
 40
0.0
 40
0.0
 40
0.0
 40
0.0
 40
0.2230144958
 40
0.4622934403
 40
0.7222627249
 40
1.0
 40
1.0
 40
1.0
 40
1.0
 10
-15.8000928329
 20
25.4670692348
 30
0.0
 10
-15.7553776584
 20
25.5326045062
 30
0.0
 10
-15.6898826786
 20
25.6878053873
 30
0.0
 10
-15.6653343482
 20
25.9462168811
 30
0.0
 10
-15.7019759538
 20
26.2220744166
 30
0.0
 10
-15.7619289946
 20
26.4048799781
 30
0.0
 10
-15.8001175074
 20
26.4960057643
 30
0.0
  0
SPLINE
  5
2DF
100
AcDbEntity
  8
RACCORDO
100
AcDbSpline
 62
7
  6
CONTINUOUS
 70
0
 71
3
 72
11
 73
7
 74
0
 42
0.0000001
 43
0.0000001
 44
0.0000000001
 40
0.0
 40
0.0
 40
0.0
 40
0.0
 40
0.2230144958
 40
0.4622934403
 40
0.7222627249
 40
1.0
 40
1.0
 40
1.0
 40
1.0
 10
-15.8000928329
 20
-7.191741837
 30
0.0
 10
-15.7553776584
 20
-7.1262065655
 30
0.0
 10
-15.6898826786
 20
-6.9710056845
 30
0.0
 10
-15.6653343482
 20
-6.7125941906
 30
0.0
 10
-15.7019759538
 20
-6.4367366552
 30
0.0
 10
-15.7619289946
 20
-6.2539310936
 30
0.0
 10
-15.8001175074
 20
-6.1628053074
 30
0.0
  0
SPLINE
  5
2E0
100
AcDbEntity
  8
RACCORDO
100
AcDbSpline
 62
7
  6
CONTINUOUS
 70
0
 71
3
 72
9
 73
5
 74
0
 42
0.0000001
 43
0.0000001
 44
0.0000000001
 40
0.0
 40
0.0
 40
0.0
 40
0.0
 40
0.410404962
 40
1.0
 40
1.0
 40
1.0
 40
1.0
 10
-15.8290020318
 20
-11.8588159925
 30
0.0
 10
-15.8290060557
 20
-11.8533022306
 30
0.0
 10
-15.8300097792
 20
-11.8398903141
 30
0.0
 10
-15.83061848
 20
-11.8264703054
 30
0.0
 10
-15.8307939011
 20
-11.818551078
 30
0.0
  0
SPLINE
  5
2E1
100
AcDbEntity
  8
RACCORDO
100
AcDbSpline
 62
250
  6
CONTINUOUS
 70
0
 71
3
 72
8
 73
4
 74
0
 42
0.0000001
 43
0.0000001
 44
0.0000000001
 40
0.0
 40
0.0
 40
0.0
 40
0.0
 40
1.0
 40
1.0
 40
1.0
 40
1.0
 10
-15.8290109439
 20
-7.2549567779
 30
0.0
 10
-15.8290104372
 20
-7.2606248049
 30
0.0
 10
-15.8297452974
 20
-7.2663342681
 30
0.0
 10
-15.831147629
 20
-7.2718260798
 30
0.0
  0
SPLINE
  5
2E2
100
AcDbEntity
  8
RACCORDO
100
AcDbSpline
 62
250
  6
CONTINUOUS
 70
0
 71
3
 72
9
 73
5
 74
0
 42
0.0000001
 43
0.0000001
 44
0.0000000001
 40
0.0
 40
0.0
 40
0.0
 40
0.0
 40
0.2426013818
 40
1.0
 40
1.0
 40
1.0
 40
1.0
 10
-15.831147629
 20
-7.2718260798
 30
0.0
 10
-15.831654947
 20
-7.2738128387
 30
0.0
 10
-15.8341022157
 20
-7.2819101854
 30
0.0
 10
-15.8379346202
 20
-7.2895637278
 30
0.0
 10
-15.8413830196
 20
-7.2949572245
 30
0.0
  0
SPLINE
  5
2E3
100
AcDbEntity
  8
RACCORDO
100
AcDbSpline
 62
250
  6
CONTINUOUS
 70
0
 71
3
 72
9
 73
5
 74
0
 42
0.0000001
 43
0.0000001
 44
0.0000000001
 40
0.0
 40
0.0
 40
0.0
 40
0.0
 40
0.2291991529
 40
1.0
 40
1.0
 40
1.0
 40
1.0
 10
-15.8413830196
 20
-7.2949572245
 30
0.0
 10
-15.8438415662
 20
-7.2988025338
 30
0.0
 10
-15.855827058
 20
-7.3147790267
 30
0.0
 10
-15.8719602201
 20
-7.3272974722
 30
0.0
 10
-15.8851341355
 20
-7.3351741855
 30
0.0
  0
SPLINE
  5
2E4
100
AcDbEntity
  8
RACCORDO
100
AcDbSpline
 62
250
  6
CONTINUOUS
 70
0
 71
3
 72
11
 73
7
 74
0
 42
0.0000001
 43
0.0000001
 44
0.0000000001
 40
0.0
 40
0.0
 40
0.0
 40
0.0
 40
0.2188757909
 40
0.4548140969
 40
0.7144789266
 40
1.0
 40
1.0
 40
1.0
 40
1.0
 10
-27.4990454126
 20
53.128267449
 30
0.0
 10
-27.4768319898
 20
53.1360900719
 30
0.0
 10
-27.4280472704
 20
53.1454696014
 30
0.0
 10
-27.3506825381
 20
53.1400453016
 30
0.0
 10
-27.269516587
 20
53.1163021848
 30
0.0
 10
-27.2166954807
 20
53.0901350904
 30
0.0
 10
-27.1901879293
 20
53.074605819
 30
0.0
  0
SPLINE
  5
2E5
100
AcDbEntity
  8
RACCORDO
100
AcDbSpline
 62
250
  6
CONTINUOUS
 70
0
 71
3
 72
10
 73
6
 74
0
 42
0.0000001
 43
0.0000001
 44
0.0000000001
 40
0.0
 40
0.0
 40
0.0
 40
0.0
 40
0.219366241
 40
0.4536381613
 40
1.0
 40
1.0
 40
1.0
 40
1.0
 10
-15.8290109852
 20
-12.0768023651
 30
0.0
 10
-15.8290192624
 20
-12.0842415374
 30
0.0
 10
-15.8316993487
 20
-12.0997294021
 30
0.0
 10
-15.8478256914
 20
-12.1300358814
 30
0.0
 10
-15.8692315554
 20
-12.1474309745
 30
0.0
 10
-15.8851341357
 20
-12.1569391626
 30
0.0
  0
SPLINE
  5
2E6
100
AcDbEntity
  8
RACCORDO
100
AcDbSpline
 62
250
  6
CONTINUOUS
 70
0
 71
3
 72
9
 73
5
 74
0
 42
0.0000001
 43
0.0000001
 44
0.0000000001
 40
0.0
 40
0.0
 40
0.0
 40
0.0
 40
0.466941608
 40
1.0
 40
1.0
 40
1.0
 40
1.0
 10
-15.2947918281
 20
-13.0169732564
 30
0.0
 10
-15.3047074287
 20
-13.0112675806
 30
0.0
 10
-15.3295145735
 20
-13.0048415334
 30
0.0
 10
-15.3541734144
 20
-13.0096876686
 30
0.0
 10
-15.3665288138
 20
-13.0139190016
 30
0.0
  0
SPLINE
  5
2E7
100
AcDbEntity
  8
RACCORDO
100
AcDbSpline
 62
250
  6
CONTINUOUS
 70
0
 71
3
 72
9
 73
5
 74
0
 42
0.0000001
 43
0.0000001
 44
0.0000000001
 40
0.0
 40
0.0
 40
0.0
 40
0.0
 40
0.4594654609
 40
1.0
 40
1.0
 40
1.0
 40
1.0
 10
-15.8290109438
 20
-6.0387658555
 30
0.0
 10
-15.8290118281
 20
-6.0518287788
 30
0.0
 10
-15.8381663496
 20
-6.080477194
 30
0.0
 10
-15.8591843452
 20
-6.1008285181
 30
0.0
 10
-15.8715499099
 20
-6.1099532799
 30
0.0
  0
SPLINE
  5
2E8
100
AcDbEntity
  8
RACCORDO
100
AcDbSpline
 62
250
  6
CONTINUOUS
 70
0
 71
3
 72
12
 73
8
 74
0
 42
0.0000001
 43
0.0000001
 44
0.0000000001
 40
0.0
 40
0.0
 40
0.0
 40
0.0
 40
0.1108859897
 40
0.1986610334
 40
0.3115369274
 40
0.6115556797
 40
1.0
 40
1.0
 40
1.0
 40
1.0
 10
-15.8001175195
 20
-6.162805967
 30
0.0
 10
-15.7988735472
 20
-6.1657877017
 30
0.0
 10
-15.8013024104
 20
-6.1722183866
 30
0.0
 10
-15.8068283335
 20
-6.1790900603
 30
0.0
 10
-15.8173280613
 20
-6.1894331834
 30
0.0
 10
-15.8360968117
 20
-6.2033142007
 30
0.0
 10
-15.853145586
 20
-6.2139435376
 30
0.0
 10
-15.8629204909
 20
-6.2196484164
 30
0.0
  0
SPLINE
  5
2E9
100
AcDbEntity
  8
RACCORDO
100
AcDbSpline
 62
7
  6
CONTINUOUS
 70
0
 71
3
 72
9
 73
5
 74
0
 42
0.0000001
 43
0.0000001
 44
0.0000000001
 40
0.0
 40
0.0
 40
0.0
 40
0.0
 40
0.410404962
 40
1.0
 40
1.0
 40
1.0
 40
1.0
 10
-15.8290020318
 20
1.0414143808
 30
0.0
 10
-15.8290060557
 20
1.0469281427
 30
0.0
 10
-15.8300097792
 20
1.0603400593
 30
0.0
 10
-15.83061848
 20
1.0737600679
 30
0.0
 10
-15.8307939011
 20
1.0816792953
 30
0.0
  0
SPLINE
  5
2EA
100
AcDbEntity
  8
RACCORDO
100
AcDbSpline
 62
7
  6
CONTINUOUS
 70
0
 71
3
 72
9
 73
5
 74
0
 42
0.0000001
 43
0.0000001
 44
0.0000000001
 40
0.0
 40
0.0
 40
0.0
 40
0.0
 40
0.410404962
 40
1.0
 40
1.0
 40
1.0
 40
1.0
 10
-15.8290020318
 20
16.0644674738
 30
0.0
 10
-15.8290060557
 20
16.0699812357
 30
0.0
 10
-15.8300097792
 20
16.0833931523
 30
0.0
 10
-15.83061848
 20
16.0968131609
 30
0.0
 10
-15.8307939011
 20
16.1047323883
 30
0.0
  0
LINE
  5
2EB
100
AcDbEntity
  8
RACCORDO
100
AcDbLine
 62
250
  6
CONTINUOUS
 10
-16.5128469457
 20
26.1682753187
 11
-16.7311930019
 21
26.0452742996
  0
LINE
  5
2EC
100
AcDbEntity
  8
RACCORDO
100
AcDbLine
 62
250
  6
CONTINUOUS
 10
-16.731193002
 20
24.8240898612
 11
-16.5128469615
 21
24.9445781292
  0
LINE
  5
2ED
100
AcDbEntity
  8
RACCORDO
100
AcDbLine
 62
250
  6
CONTINUOUS
 10
-16.5128469457
 20
-6.490535753
 11
-16.7311930019
 21
-6.6135367721
  0
SPLINE
  5
2EE
100
AcDbEntity
  8
RACCORDO
100
AcDbSpline
 62
250
  6
CONTINUOUS
 70
0
 71
3
 72
12
 73
8
 74
0
 42
0.0000001
 43
0.0000001
 44
0.0000000001
 40
0.0
 40
0.0
 40
0.0
 40
0.0
 40
0.1995697026
 40
0.3123381752
 40
0.4343564037
 40
0.703883739
 40
1.0
 40
1.0
 40
1.0
 40
1.0
 10
-16.7091461665
 20
-7.7599034284
 30
0.0
 10
-16.6636506455
 20
-7.7034787964
 30
0.0
 10
-16.6136616691
 20
-7.5974785926
 30
0.0
 10
-16.582480193
 20
-7.4426973982
 30
0.0
 10
-16.5716876776
 20
-7.2592215267
 30
0.0
 10
-16.6037131754
 20
-7.0094600745
 30
0.0
 10
-16.6677086514
 20
-6.8130564924
 30
0.0
 10
-16.7091461685
 20
-6.7138136886
 30
0.0
  0
SPLINE
  5
2EF
100
AcDbEntity
  8
RACCORDO
100
AcDbSpline
 62
250
  6
CONTINUOUS
 70
0
 71
3
 72
12
 73
8
 74
0
 42
0.0000001
 43
0.0000001
 44
0.0000000001
 40
0.0
 40
0.0
 40
0.0
 40
0.0
 40
0.1995697026
 40
0.3123381752
 40
0.4343564037
 40
0.703883739
 40
1.0
 40
1.0
 40
1.0
 40
1.0
 10
-16.7091461665
 20
24.8989076434
 30
0.0
 10
-16.6636506455
 20
24.9553322753
 30
0.0
 10
-16.6136616691
 20
25.0613324791
 30
0.0
 10
-16.582480193
 20
25.2161136735
 30
0.0
 10
-16.5716876776
 20
25.399589545
 30
0.0
 10
-16.6037131754
 20
25.6493509972
 30
0.0
 10
-16.6677086514
 20
25.8457545793
 30
0.0
 10
-16.7091461685
 20
25.9449973831
 30
0.0
  0
SPLINE
  5
2F0
100
AcDbEntity
  8
RACCORDO
100
AcDbSpline
 62
250
  6
CONTINUOUS
 70
0
 71
3
 72
9
 73
5
 74
0
 42
0.0000001
 43
0.0000001
 44
0.0000000001
 40
0.0
 40
0.0
 40
0.0
 40
0.0
 40
0.2403637369
 40
1.0
 40
1.0
 40
1.0
 40
1.0
 10
-16.424375089
 20
-12.3504241822
 30
0.0
 10
-16.4317501906
 20
-12.3530701081
 30
0.0
 10
-16.4621540772
 20
-12.3648515601
 30
0.0
 10
-16.4913961103
 20
-12.3795488577
 30
0.0
 10
-16.5128402947
 20
-12.3919316514
 30
0.0
  0
LINE
  5
2F1
100
AcDbEntity
  8
RACCORDO
100
AcDbLine
 62
250
  6
CONTINUOUS
 10
-16.5128469617
 20
-7.7142329425
 11
-15.8851341355
 21
-7.3351741855
  0
LINE
  5
2F2
100
AcDbEntity
  8
RACCORDO
100
AcDbLine
 62
250
  6
CONTINUOUS
 10
-15.8851341355
 20
-6.1189727281
 11
-16.5128469463
 21
-6.4905357529
  0
LINE
  5
2F3
100
AcDbEntity
  8
RACCORDO
100
AcDbLine
 62
250
  6
CONTINUOUS
 10
-15.8851341355
 20
26.5398383436
 11
-16.5128469463
 21
26.1682753189
  0
LINE
  5
2F4
100
AcDbEntity
  8
RACCORDO
100
AcDbLine
 62
250
  6
CONTINUOUS
 10
-16.5128469617
 20
24.9445781292
 11
-15.8851341355
 21
25.3236368862
  0
SPLINE
  5
2F5
100
AcDbEntity
  8
RACCORDO
100
AcDbSpline
 62
250
  6
CONTINUOUS
 70
0
 71
3
 72
11
 73
7
 74
0
 42
0.0000001
 43
0.0000001
 44
0.0000000001
 40
0.0
 40
0.0
 40
0.0
 40
0.0
 40
0.2854394968
 40
0.5512091852
 40
0.7902934462
 40
1.0
 40
1.0
 40
1.0
 40
1.0
 10
-15.8629204905
 20
26.4391626544
 30
0.0
 10
-15.8282133781
 20
26.3563442182
 30
0.0
 10
-15.7719826912
 20
26.1915605146
 30
0.0
 10
-15.7285665242
 20
25.9455886727
 30
0.0
 10
-15.7302962637
 20
25.7194220559
 30
0.0
 10
-15.7646385941
 20
25.5802952203
 30
0.0
 10
-15.7907207308
 20
25.5196980574
 30
0.0
  0
SPLINE
  5
2F6
100
AcDbEntity
  8
RACCORDO
100
AcDbSpline
 62
250
  6
CONTINUOUS
 70
0
 71
3
 72
9
 73
5
 74
0
 42
0.0000001
 43
0.0000001
 44
0.0000000001
 40
0.0
 40
0.0
 40
0.0
 40
0.0
 40
0.2565241967
 40
1.0
 40
1.0
 40
1.0
 40
1.0
 10
-15.7907207308
 20
25.5196980574
 30
0.0
 10
-15.7940311479
 20
25.5120068975
 30
0.0
 10
-15.807569024
 20
25.482303796
 30
0.0
 10
-15.8237044404
 20
25.4537636783
 30
0.0
 10
-15.8371893024
 20
25.4335868863
 30
0.0
  0
SPLINE
  5
2F7
100
AcDbEntity
  8
RACCORDO
100
AcDbSpline
 62
7
  6
CONTINUOUS
 70
0
 71
3
 72
12
 73
8
 74
0
 42
0.0000001
 43
0.0000001
 44
0.0000000001
 40
0.0
 40
0.0
 40
0.0
 40
0.0
 40
0.1996508159
 40
0.3124415066
 40
0.4344637656
 40
0.7039516472
 40
1.0
 40
1.0
 40
1.0
 40
1.0
 10
-16.4908835551
 20
25.0192922588
 30
0.0
 10
-16.4453533274
 20
25.075961639
 30
0.0
 10
-16.3953419231
 20
25.1822981432
 30
0.0
 10
-16.364137738
 20
25.3375207244
 30
0.0
 10
-16.3533387531
 20
25.5214531605
 30
0.0
 10
-16.3853762415
 20
25.7718082361
 30
0.0
 10
-16.4494163386
 20
25.9687007218
 30
0.0
 10
-16.4908835608
 20
26.068198375
 30
0.0
  0
SPLINE
  5
2F8
100
AcDbEntity
  8
RACCORDO
100
AcDbSpline
 62
250
  6
CONTINUOUS
 70
0
 71
3
 72
11
 73
7
 74
0
 42
0.0000001
 43
0.0000001
 44
0.0000000001
 40
0.0
 40
0.0
 40
0.0
 40
0.0
 40
0.2854394968
 40
0.5512091852
 40
0.7902934462
 40
1.0
 40
1.0
 40
1.0
 40
1.0
 10
-15.8629204905
 20
-6.2196484173
 30
0.0
 10
-15.8282133781
 20
-6.3024668535
 30
0.0
 10
-15.7719826912
 20
-6.4672505571
 30
0.0
 10
-15.7285665242
 20
-6.713222399
 30
0.0
 10
-15.7302962637
 20
-6.9393890158
 30
0.0
 10
-15.7646385941
 20
-7.0785158514
 30
0.0
 10
-15.7907207308
 20
-7.1391130143
 30
0.0
  0
SPLINE
  5
2F9
100
AcDbEntity
  8
RACCORDO
100
AcDbSpline
 62
250
  6
CONTINUOUS
 70
0
 71
3
 72
9
 73
5
 74
0
 42
0.0000001
 43
0.0000001
 44
0.0000000001
 40
0.0
 40
0.0
 40
0.0
 40
0.0
 40
0.2565241967
 40
1.0
 40
1.0
 40
1.0
 40
1.0
 10
-15.7907207308
 20
-7.1391130143
 30
0.0
 10
-15.7940311479
 20
-7.1468041742
 30
0.0
 10
-15.807569024
 20
-7.1765072757
 30
0.0
 10
-15.8237044404
 20
-7.2050473934
 30
0.0
 10
-15.8371893024
 20
-7.2252241854
 30
0.0
  0
SPLINE
  5
2FA
100
AcDbEntity
  8
RACCORDO
100
AcDbSpline
 62
7
  6
CONTINUOUS
 70
0
 71
3
 72
12
 73
8
 74
0
 42
0.0000001
 43
0.0000001
 44
0.0000000001
 40
0.0
 40
0.0
 40
0.0
 40
0.0
 40
0.1996508159
 40
0.3124415066
 40
0.4344637656
 40
0.7039516472
 40
1.0
 40
1.0
 40
1.0
 40
1.0
 10
-16.4908835551
 20
-7.6395188129
 30
0.0
 10
-16.4453533274
 20
-7.5828494327
 30
0.0
 10
-16.3953419231
 20
-7.4765129285
 30
0.0
 10
-16.364137738
 20
-7.3212903473
 30
0.0
 10
-16.3533387531
 20
-7.1373579112
 30
0.0
 10
-16.3853762415
 20
-6.8870028356
 30
0.0
 10
-16.4494163386
 20
-6.69011035
 30
0.0
 10
-16.4908835608
 20
-6.5906126967
 30
0.0
  0
SPLINE
  5
2FB
100
AcDbEntity
  8
RACCORDO
100
AcDbSpline
 62
250
  6
CONTINUOUS
 70
0
 71
3
 72
9
 73
5
 74
0
 42
0.0000001
 43
0.0000001
 44
0.0000000001
 40
0.0
 40
0.0
 40
0.0
 40
0.0
 40
0.4513856185
 40
1.0
 40
1.0
 40
1.0
 40
1.0
 10
-27.0938899292
 20
53.0824253452
 30
0.0
 10
-27.1069046875
 20
53.0899420414
 30
0.0
 10
-27.1421327947
 20
53.0957859652
 30
0.0
 10
-27.1741630747
 20
53.0833738445
 30
0.0
 10
-27.1901879852
 20
53.07460579
 30
0.0
  0
SPLINE
  5
2FC
100
AcDbEntity
  8
RACCORDO
100
AcDbSpline
 62
250
  6
CONTINUOUS
 70
0
 71
3
 72
9
 73
5
 74
0
 42
0.0000001
 43
0.0000001
 44
0.0000000001
 40
0.0
 40
0.0
 40
0.0
 40
0.0
 40
0.4514332196
 40
1.0
 40
1.0
 40
1.0
 40
1.0
 10
31.9461522011
 20
18.9934446792
 30
0.0
 10
31.9331385436
 20
19.0009114941
 30
0.0
 10
31.8979767067
 20
19.0066724252
 30
0.0
 10
31.8660135871
 20
18.9942813471
 30
0.0
 10
31.8500193026
 20
18.9855300496
 30
0.0
  0
SPLINE
  5
2FD
100
AcDbEntity
  8
RACCORDO
100
AcDbSpline
 62
250
  6
CONTINUOUS
 70
0
 71
3
 72
9
 73
5
 74
0
 42
0.0000001
 43
0.0000001
 44
0.0000000001
 40
0.0
 40
0.0
 40
0.0
 40
0.0
 40
0.4514493194
 40
1.0
 40
1.0
 40
1.0
 40
1.0
 10
32.3997407009
 20
18.2077960715
 30
0.0
 10
32.3996988745
 20
18.1927928448
 30
0.0
 10
32.387107804
 20
18.1594642562
 30
0.0
 10
32.3603985126
 20
18.1379783068
 30
0.0
 10
32.344824434
 20
18.1285024232
 30
0.0
  0
SPLINE
  5
2FE
100
AcDbEntity
  8
RACCORDO
100
AcDbSpline
 62
250
  6
CONTINUOUS
 70
0
 71
3
 72
9
 73
5
 74
0
 42
0.0000001
 43
0.0000001
 44
0.0000000001
 40
0.0
 40
0.0
 40
0.0
 40
0.0
 40
0.4514006863
 40
1.0
 40
1.0
 40
1.0
 40
1.0
 10
32.3997409612
 20
-49.9635721466
 30
0.0
 10
32.3997426876
 20
-49.9786018254
 30
0.0
 10
32.3871911685
 20
-50.0120314059
 30
0.0
 10
32.3604289746
 20
-50.0335660236
 30
0.0
 10
32.344824434
 20
-50.0430604422
 30
0.0
  0
LINE
  5
2FF
100
AcDbEntity
  8
RACCORDO
100
AcDbLine
 62
250
  6
CONTINUOUS
 10
-16.731193002
 20
-7.8347212105
 11
-16.5128469615
 21
-7.7142329426
  0
SPLINE
  5
300
100
AcDbEntity
  8
RACCORDO
100
AcDbSpline
 62
7
  6
CONTINUOUS
 70
0
 71
3
 72
9
 73
5
 74
0
 42
0.0000001
 43
0.0000001
 44
0.0000000001
 40
0.0
 40
0.0
 40
0.0
 40
0.0
 40
0.410404962
 40
1.0
 40
1.0
 40
1.0
 40
1.0
 10
-15.8290020318
 20
28.9646978471
 30
0.0
 10
-15.8290060557
 20
28.970211609
 30
0.0
 10
-15.8300097792
 20
28.9836235256
 30
0.0
 10
-15.83061848
 20
28.9970435342
 30
0.0
 10
-15.8307939011
 20
29.0049627616
 30
0.0
  0
SPLINE
  5
301
100
AcDbEntity
  8
RACCORDO
100
AcDbSpline
 62
250
  6
CONTINUOUS
 70
0
 71
3
 72
9
 73
5
 74
0
 42
0.0000001
 43
0.0000001
 44
0.0000000001
 40
0.0
 40
0.0
 40
0.0
 40
0.0
 40
0.4594654609
 40
1.0
 40
1.0
 40
1.0
 40
1.0
 10
-15.8290109438
 20
26.6200452162
 30
0.0
 10
-15.8290118281
 20
26.6069822929
 30
0.0
 10
-15.8381663496
 20
26.5783338777
 30
0.0
 10
-15.8591843452
 20
26.5579825536
 30
0.0
 10
-15.8715499099
 20
26.5488577918
 30
0.0
  0
SPLINE
  5
302
100
AcDbEntity
  8
RACCORDO
100
AcDbSpline
 62
250
  6
CONTINUOUS
 70
0
 71
3
 72
12
 73
8
 74
0
 42
0.0000001
 43
0.0000001
 44
0.0000000001
 40
0.0
 40
0.0
 40
0.0
 40
0.0
 40
0.1108859897
 40
0.1986610334
 40
0.3115369274
 40
0.6115556797
 40
1.0
 40
1.0
 40
1.0
 40
1.0
 10
-15.8001175195
 20
26.4960051047
 30
0.0
 10
-15.7988735472
 20
26.49302337
 30
0.0
 10
-15.8013024104
 20
26.4865926851
 30
0.0
 10
-15.8068283335
 20
26.4797210114
 30
0.0
 10
-15.8173280613
 20
26.4693778884
 30
0.0
 10
-15.8360968117
 20
26.4554968711
 30
0.0
 10
-15.853145586
 20
26.4448675342
 30
0.0
 10
-15.8629204909
 20
26.4391626553
 30
0.0
  0
SPLINE
  5
303
100
AcDbEntity
  8
RACCORDO
100
AcDbSpline
 62
250
  6
CONTINUOUS
 70
0
 71
3
 72
8
 73
4
 74
0
 42
0.0000001
 43
0.0000001
 44
0.0000000001
 40
0.0
 40
0.0
 40
0.0
 40
0.0
 40
1.0
 40
1.0
 40
1.0
 40
1.0
 10
-15.8290109439
 20
25.4038542938
 30
0.0
 10
-15.8290104372
 20
25.3981862668
 30
0.0
 10
-15.8297452974
 20
25.3924768037
 30
0.0
 10
-15.831147629
 20
25.386984992
 30
0.0
  0
SPLINE
  5
304
100
AcDbEntity
  8
RACCORDO
100
AcDbSpline
 62
250
  6
CONTINUOUS
 70
0
 71
3
 72
9
 73
5
 74
0
 42
0.0000001
 43
0.0000001
 44
0.0000000001
 40
0.0
 40
0.0
 40
0.0
 40
0.0
 40
0.2426013818
 40
1.0
 40
1.0
 40
1.0
 40
1.0
 10
-15.831147629
 20
25.386984992
 30
0.0
 10
-15.831654947
 20
25.384998233
 30
0.0
 10
-15.8341022157
 20
25.3769008864
 30
0.0
 10
-15.8379346202
 20
25.3692473439
 30
0.0
 10
-15.8413830196
 20
25.3638538473
 30
0.0
  0
SPLINE
  5
305
100
AcDbEntity
  8
RACCORDO
100
AcDbSpline
 62
250
  6
CONTINUOUS
 70
0
 71
3
 72
9
 73
5
 74
0
 42
0.0000001
 43
0.0000001
 44
0.0000000001
 40
0.0
 40
0.0
 40
0.0
 40
0.0
 40
0.2291991529
 40
1.0
 40
1.0
 40
1.0
 40
1.0
 10
-15.8413830196
 20
25.3638538473
 30
0.0
 10
-15.8438415662
 20
25.3600085379
 30
0.0
 10
-15.855827058
 20
25.3440320451
 30
0.0
 10
-15.8719602201
 20
25.3315135995
 30
0.0
 10
-15.8851341355
 20
25.3236368862
 30
0.0
  0
SPLINE
  5
306
100
AcDbEntity
  8
RACCORDO
100
AcDbSpline
 62
7
  6
CONTINUOUS
 70
0
 71
3
 72
9
 73
5
 74
0
 42
0.0000001
 43
0.0000001
 44
0.0000000001
 40
0.0
 40
0.0
 40
0.0
 40
0.0
 40
0.2290040852
 40
1.0
 40
1.0
 40
1.0
 40
1.0
 10
-15.8309150501
 20
18.24071106
 30
0.0
 10
-15.8309150501
 20
18.2470465693
 30
0.0
 10
-15.8303978332
 20
18.2747094987
 30
0.0
 10
-15.8290074493
 20
18.302354666
 30
0.0
 10
-15.8290020028
 20
18.3236846417
 30
0.0
  0
SPLINE
  5
307
100
AcDbEntity
  8
RACCORDO
100
AcDbSpline
 62
7
  6
CONTINUOUS
 70
0
 71
3
 72
9
 73
5
 74
0
 42
0.0000001
 43
0.0000001
 44
0.0000000001
 40
0.0
 40
0.0
 40
0.0
 40
0.0
 40
0.2290040852
 40
1.0
 40
1.0
 40
1.0
 40
1.0
 10
-15.8309150501
 20
3.2176579671
 30
0.0
 10
-15.8309150501
 20
3.2239934763
 30
0.0
 10
-15.8303978332
 20
3.2516564058
 30
0.0
 10
-15.8290074493
 20
3.279301573
 30
0.0
 10
-15.8290020028
 20
3.3006315488
 30
0.0
  0
SPLINE
  5
308
100
AcDbEntity
  8
RACCORDO
100
AcDbSpline
 62
7
  6
CONTINUOUS
 70
0
 71
3
 72
9
 73
5
 74
0
 42
0.0000001
 43
0.0000001
 44
0.0000000001
 40
0.0
 40
0.0
 40
0.0
 40
0.0
 40
0.2290040852
 40
1.0
 40
1.0
 40
1.0
 40
1.0
 10
-15.8309150501
 20
-9.6825724063
 30
0.0
 10
-15.8309150501
 20
-9.676236897
 30
0.0
 10
-15.8303978332
 20
-9.6485739676
 30
0.0
 10
-15.8290074493
 20
-9.6209288003
 30
0.0
 10
-15.8290020028
 20
-9.5995988246
 30
0.0
  0
SPLINE
  5
309
100
AcDbEntity
  8
RACCORDO
100
AcDbSpline
 62
250
  6
CONTINUOUS
 70
0
 71
3
 72
11
 73
7
 74
0
 42
0.0000001
 43
0.0000001
 44
0.0000000001
 40
0.0
 40
0.0
 40
0.0
 40
0.0
 40
0.2854973969
 40
0.5450977788
 40
0.7810685523
 40
1.0
 40
1.0
 40
1.0
 40
1.0
 10
32.344824434
 20
-50.0430604422
 30
0.0
 10
32.3450184826
 20
-50.0737562
 30
0.0
 10
32.341279267
 20
-50.1325315057
 30
0.0
 10
32.3212843748
 20
-50.2146309625
 30
0.0
 10
32.2873499225
 20
-50.2843031259
 30
0.0
 10
32.2548867225
 20
-50.3218711893
 30
0.0
 10
32.2370239862
 20
-50.3372015511
 30
0.0
  0
SPLINE
  5
30A
100
AcDbEntity
  8
RACCORDO
100
AcDbSpline
 62
250
  6
CONTINUOUS
 70
0
 71
3
 72
9
 73
5
 74
0
 42
0.0000001
 43
0.0000001
 44
0.0000000001
 40
0.0
 40
0.0
 40
0.0
 40
0.0
 40
0.2406730542
 40
1.0
 40
1.0
 40
1.0
 40
1.0
 10
31.8500193026
 20
18.9855300496
 30
0.0
 10
31.8594392962
 20
18.9801695788
 30
0.0
 10
31.8980216894
 20
18.9569219488
 30
0.0
 10
31.9343865382
 20
18.9300636577
 30
0.0
 10
31.9606694191
 20
18.9081883438
 30
0.0
  0
SPLINE
  5
30B
100
AcDbEntity
  8
RACCORDO
100
AcDbSpline
 62
250
  6
CONTINUOUS
 70
0
 71
3
 72
11
 73
7
 74
0
 42
0.0000001
 43
0.0000001
 44
0.0000000001
 40
0.0
 40
0.0
 40
0.0
 40
0.0
 40
0.2496523013
 40
0.5119995324
 40
0.7679407756
 40
1.0
 40
1.0
 40
1.0
 40
1.0
 10
31.9606694191
 20
18.9081883438
 30
0.0
 10
32.0177729639
 20
18.8606609066
 30
0.0
 10
32.122917602
 20
18.748414647
 30
0.0
 10
32.2440992344
 20
18.5530863474
 30
0.0
 10
32.3238719038
 20
18.3430820849
 30
0.0
 10
32.3452574765
 20
18.1975600356
 30
0.0
 10
32.344824487
 20
18.1285024538
 30
0.0
  0
SPLINE
  5
30C
100
AcDbEntity
  8
RACCORDO
100
AcDbSpline
 62
250
  6
CONTINUOUS
 70
0
 71
3
 72
9
 73
5
 74
0
 42
0.0000001
 43
0.0000001
 44
0.0000000001
 40
0.0
 40
0.0
 40
0.0
 40
0.0
 40
0.2589898375
 40
1.0
 40
1.0
 40
1.0
 40
1.0
 10
-16.7200232195
 20
-12.648295322
 30
0.0
 10
-16.7219033362
 20
-12.6371561095
 30
0.0
 10
-16.7283217345
 20
-12.5940128641
 30
0.0
 10
-16.7313332384
 20
-12.5503264532
 30
0.0
 10
-16.7311929472
 20
-12.5180049585
 30
0.0
  0
SPLINE
  5
30D
100
AcDbEntity
  8
RACCORDO
100
AcDbSpline
 62
7
  6
CONTINUOUS
 70
0
 71
3
 72
11
 73
7
 74
0
 42
0.0000001
 43
0.0000001
 44
0.0000000001
 40
0.0
 40
0.0
 40
0.0
 40
0.0
 40
0.2296272682
 40
0.4838983107
 40
0.7467144078
 40
1.0
 40
1.0
 40
1.0
 40
1.0
 10
-16.5128469647
 20
-12.3919351428
 30
0.0
 10
-16.5118532039
 20
-12.4560108471
 30
0.0
 10
-16.4908056542
 20
-12.5908783193
 30
0.0
 10
-16.4184588812
 20
-12.7873469947
 30
0.0
 10
-16.3102305295
 20
-12.9744385048
 30
0.0
 10
-16.216510915
 20
-13.0848321081
 30
0.0
 10
-16.1668045851
 20
-13.1350891846
 30
0.0
  0
SPLINE
  5
30E
100
AcDbEntity
  8
RACCORDO
100
AcDbSpline
 62
250
  6
CONTINUOUS
 70
0
 71
3
 72
11
 73
7
 74
0
 42
0.0000001
 43
0.0000001
 44
0.0000000001
 40
0.0
 40
0.0
 40
0.0
 40
0.0
 40
0.23321748
 40
0.4952218994
 40
0.7605023858
 40
1.0
 40
1.0
 40
1.0
 40
1.0
 10
-15.8851346865
 20
-12.1569393645
 30
0.0
 10
-15.881258615
 20
-12.2372479145
 30
0.0
 10
-15.8443534339
 20
-12.4064514746
 30
0.0
 10
-15.732321105
 20
-12.6453782543
 30
0.0
 10
-15.5729656404
 20
-12.8584429933
 30
0.0
 10
-15.4378950878
 20
-12.9723956342
 30
0.0
 10
-15.3665288666
 20
-13.0139190206
 30
0.0
  0
SPLINE
  5
30F
100
AcDbEntity
  8
RACCORDO
100
AcDbSpline
 62
7
  6
CONTINUOUS
 70
0
 71
3
 72
9
 73
5
 74
0
 42
0.0000001
 43
0.0000001
 44
0.0000000001
 40
0.0
 40
0.0
 40
0.0
 40
0.0
 40
0.5131166136
 40
1.0
 40
1.0
 40
1.0
 40
1.0
 10
-16.1669258298
 20
-13.1353334491
 30
0.0
 10
-16.1440418965
 20
-13.1574563452
 30
0.0
 10
-16.0980114511
 20
-13.1993420381
 30
0.0
 10
-16.0456856114
 20
-13.2331207841
 30
0.0
 10
-16.0195304131
 20
-13.2482224678
 30
0.0
  0
SPLINE
  5
310
100
AcDbEntity
  8
RACCORDO
100
AcDbSpline
 62
250
  6
CONTINUOUS
 70
0
 71
3
 72
11
 73
7
 74
0
 42
0.0000001
 43
0.0000001
 44
0.0000000001
 40
0.0
 40
0.0
 40
0.0
 40
0.0
 40
0.2415384313
 40
0.4972040881
 40
0.75447863
 40
1.0
 40
1.0
 40
1.0
 40
1.0
 10
-16.424375089
 20
-12.3504241822
 30
0.0
 10
-16.4350056158
 20
-12.4182026904
 30
0.0
 10
-16.4372361523
 20
-12.5611462547
 30
0.0
 10
-16.3918409144
 20
-12.7722341471
 30
0.0
 10
-16.3020471496
 20
-12.9698093105
 30
0.0
 10
-16.215438635
 20
-13.0852339939
 30
0.0
 10
-16.1669258298
 20
-13.1353334491
 30
0.0
  0
SPLINE
  5
311
100
AcDbEntity
  8
RACCORDO
100
AcDbSpline
 62
250
  6
CONTINUOUS
 70
0
 71
3
 72
9
 73
5
 74
0
 42
0.0000001
 43
0.0000001
 44
0.0000000001
 40
0.0
 40
0.0
 40
0.0
 40
0.0
 40
0.2817561227
 40
1.0
 40
1.0
 40
1.0
 40
1.0
 10
-16.731193002
 20
24.8240898613
 30
0.0
 10
-16.7312260164
 20
24.8314891459
 30
0.0
 10
-16.7298474847
 20
24.8576041607
 30
0.0
 10
-16.7210232079
 20
24.8842543522
 30
0.0
 10
-16.7091461665
 20
24.8989076433
 30
0.0
  0
SPLINE
  5
312
100
AcDbEntity
  8
RACCORDO
100
AcDbSpline
 62
7
  6
CONTINUOUS
 70
0
 71
3
 72
9
 73
5
 74
0
 42
0.0000001
 43
0.0000001
 44
0.0000000001
 40
0.0
 40
0.0
 40
0.0
 40
0.0
 40
0.282109818
 40
1.0
 40
1.0
 40
1.0
 40
1.0
 10
-16.5128469651
 20
24.9445781277
 30
0.0
 10
-16.5128469666
 20
24.9519726301
 30
0.0
 10
-16.5113705615
 20
24.9780288657
 30
0.0
 10
-16.5026691038
 20
25.0046233242
 30
0.0
 10
-16.4908835535
 20
25.0192922594
 30
0.0
  0
SPLINE
  5
313
100
AcDbEntity
  8
RACCORDO
100
AcDbSpline
 62
250
  6
CONTINUOUS
 70
0
 71
3
 72
9
 73
5
 74
0
 42
0.0000001
 43
0.0000001
 44
0.0000000001
 40
0.0
 40
0.0
 40
0.0
 40
0.0
 40
0.2414041837
 40
1.0
 40
1.0
 40
1.0
 40
1.0
 10
-15.8629204905
 20
25.3986608149
 30
0.0
 10
-15.8641289976
 20
25.3971654937
 30
0.0
 10
-15.8688987316
 20
25.3907811268
 30
0.0
 10
-15.872705942
 20
25.3836997683
 30
0.0
 10
-15.8750792079
 20
25.378143708
 30
0.0
  0
SPLINE
  5
314
100
AcDbEntity
  8
RACCORDO
100
AcDbSpline
 62
250
  6
CONTINUOUS
 70
0
 71
3
 72
9
 73
5
 74
0
 42
0.0000001
 43
0.0000001
 44
0.0000000001
 40
0.0
 40
0.0
 40
0.0
 40
0.0
 40
0.2345680105
 40
1.0
 40
1.0
 40
1.0
 40
1.0
 10
-15.878828685
 20
25.3679488303
 30
0.0
 10
-15.8798768845
 20
25.3646019223
 30
0.0
 10
-15.8837002365
 20
25.3501319039
 30
0.0
 10
-15.885084677
 20
25.3350813492
 30
0.0
 10
-15.8851341355
 20
25.3236368862
 30
0.0
  0
SPLINE
  5
315
100
AcDbEntity
  8
RACCORDO
100
AcDbSpline
 62
250
  6
CONTINUOUS
 70
0
 71
3
 72
9
 73
5
 74
0
 42
0.0000001
 43
0.0000001
 44
0.0000000001
 40
0.0
 40
0.0
 40
0.0
 40
0.0
 40
0.2666309382
 40
1.0
 40
1.0
 40
1.0
 40
1.0
 10
-16.7091461679
 20
25.9449973831
 30
0.0
 10
-16.7127102448
 20
25.9534329112
 30
0.0
 10
-16.7247054271
 20
25.9855882054
 30
0.0
 10
-16.7313051988
 20
26.0200866781
 30
0.0
 10
-16.7311930036
 20
26.0452743008
 30
0.0
  0
SPLINE
  5
316
100
AcDbEntity
  8
RACCORDO
100
AcDbSpline
 62
7
  6
CONTINUOUS
 70
0
 71
3
 72
9
 73
5
 74
0
 42
0.0000001
 43
0.0000001
 44
0.0000000001
 40
0.0
 40
0.0
 40
0.0
 40
0.0
 40
0.2664825557
 40
1.0
 40
1.0
 40
1.0
 40
1.0
 10
-16.4908835528
 20
26.0681983793
 30
0.0
 10
-16.4943964991
 20
26.0766274666
 30
0.0
 10
-16.5062335951
 20
26.1087589447
 30
0.0
 10
-16.5128469966
 20
26.1431391203
 30
0.0
 10
-16.5128469673
 20
26.1682753095
 30
0.0
  0
SPLINE
  5
317
100
AcDbEntity
  8
RACCORDO
100
AcDbSpline
 62
250
  6
CONTINUOUS
 70
0
 71
3
 72
9
 73
5
 74
0
 42
0.0000001
 43
0.0000001
 44
0.0000000001
 40
0.0
 40
0.0
 40
0.0
 40
0.0
 40
0.2312747786
 40
1.0
 40
1.0
 40
1.0
 40
1.0
 10
-15.8851341355
 20
26.5398383436
 30
0.0
 10
-15.8850996817
 20
26.5318619514
 30
0.0
 10
-15.8827898154
 20
26.4973885375
 30
0.0
 10
-15.8730671234
 20
26.4636568847
 30
0.0
 10
-15.8629204905
 20
26.4391626544
 30
0.0
  0
SPLINE
  5
318
100
AcDbEntity
  8
RACCORDO
100
AcDbSpline
 62
250
  6
CONTINUOUS
 70
0
 71
3
 72
9
 73
5
 74
0
 42
0.0000001
 43
0.0000001
 44
0.0000000001
 40
0.0
 40
0.0
 40
0.0
 40
0.0
 40
0.2817561227
 40
1.0
 40
1.0
 40
1.0
 40
1.0
 10
-16.731193002
 20
-7.8347212104
 30
0.0
 10
-16.7312260164
 20
-7.8273219258
 30
0.0
 10
-16.7298474847
 20
-7.801206911
 30
0.0
 10
-16.7210232079
 20
-7.7745567195
 30
0.0
 10
-16.7091461665
 20
-7.7599034284
 30
0.0
  0
SPLINE
  5
319
100
AcDbEntity
  8
RACCORDO
100
AcDbSpline
 62
7
  6
CONTINUOUS
 70
0
 71
3
 72
9
 73
5
 74
0
 42
0.0000001
 43
0.0000001
 44
0.0000000001
 40
0.0
 40
0.0
 40
0.0
 40
0.0
 40
0.282109818
 40
1.0
 40
1.0
 40
1.0
 40
1.0
 10
-16.5128469651
 20
-7.714232944
 30
0.0
 10
-16.5128469666
 20
-7.7068384416
 30
0.0
 10
-16.5113705615
 20
-7.680782206
 30
0.0
 10
-16.5026691038
 20
-7.6541877475
 30
0.0
 10
-16.4908835535
 20
-7.6395188123
 30
0.0
  0
SPLINE
  5
31A
100
AcDbEntity
  8
RACCORDO
100
AcDbSpline
 62
250
  6
CONTINUOUS
 70
0
 71
3
 72
9
 73
5
 74
0
 42
0.0000001
 43
0.0000001
 44
0.0000000001
 40
0.0
 40
0.0
 40
0.0
 40
0.0
 40
0.2414041837
 40
1.0
 40
1.0
 40
1.0
 40
1.0
 10
-15.8629204905
 20
-7.2601502568
 30
0.0
 10
-15.8641289976
 20
-7.261645578
 30
0.0
 10
-15.8688987316
 20
-7.2680299449
 30
0.0
 10
-15.872705942
 20
-7.2751113034
 30
0.0
 10
-15.8750792079
 20
-7.2806673637
 30
0.0
  0
SPLINE
  5
31B
100
AcDbEntity
  8
RACCORDO
100
AcDbSpline
 62
250
  6
CONTINUOUS
 70
0
 71
3
 72
9
 73
5
 74
0
 42
0.0000001
 43
0.0000001
 44
0.0000000001
 40
0.0
 40
0.0
 40
0.0
 40
0.0
 40
0.2345680105
 40
1.0
 40
1.0
 40
1.0
 40
1.0
 10
-15.878828685
 20
-7.2908622414
 30
0.0
 10
-15.8798768845
 20
-7.2942091494
 30
0.0
 10
-15.8837002365
 20
-7.3086791679
 30
0.0
 10
-15.885084677
 20
-7.3237297225
 30
0.0
 10
-15.8851341355
 20
-7.3351741855
 30
0.0
  0
SPLINE
  5
31C
100
AcDbEntity
  8
RACCORDO
100
AcDbSpline
 62
250
  6
CONTINUOUS
 70
0
 71
3
 72
9
 73
5
 74
0
 42
0.0000001
 43
0.0000001
 44
0.0000000001
 40
0.0
 40
0.0
 40
0.0
 40
0.0
 40
0.2666309382
 40
1.0
 40
1.0
 40
1.0
 40
1.0
 10
-16.7091461679
 20
-6.7138136886
 30
0.0
 10
-16.7127102448
 20
-6.7053781605
 30
0.0
 10
-16.7247054271
 20
-6.6732228664
 30
0.0
 10
-16.7313051988
 20
-6.6387243936
 30
0.0
 10
-16.7311930036
 20
-6.6135367709
 30
0.0
  0
SPLINE
  5
31D
100
AcDbEntity
  8
RACCORDO
100
AcDbSpline
 62
7
  6
CONTINUOUS
 70
0
 71
3
 72
9
 73
5
 74
0
 42
0.0000001
 43
0.0000001
 44
0.0000000001
 40
0.0
 40
0.0
 40
0.0
 40
0.0
 40
0.2664825557
 40
1.0
 40
1.0
 40
1.0
 40
1.0
 10
-16.4908835528
 20
-6.5906126924
 30
0.0
 10
-16.4943964991
 20
-6.5821836052
 30
0.0
 10
-16.5062335951
 20
-6.550052127
 30
0.0
 10
-16.5128469966
 20
-6.5156719514
 30
0.0
 10
-16.5128469673
 20
-6.4905357622
 30
0.0
  0
SPLINE
  5
31E
100
AcDbEntity
  8
RACCORDO
100
AcDbSpline
 62
250
  6
CONTINUOUS
 70
0
 71
3
 72
9
 73
5
 74
0
 42
0.0000001
 43
0.0000001
 44
0.0000000001
 40
0.0
 40
0.0
 40
0.0
 40
0.0
 40
0.2312747786
 40
1.0
 40
1.0
 40
1.0
 40
1.0
 10
-15.8851341355
 20
-6.1189727281
 30
0.0
 10
-15.8850996817
 20
-6.1269491203
 30
0.0
 10
-15.8827898154
 20
-6.1614225342
 30
0.0
 10
-15.8730671234
 20
-6.195154187
 30
0.0
 10
-15.8629204905
 20
-6.2196484173
 30
0.0
  0
SPLINE
  5
31F
100
AcDbEntity
  8
RACCORDO
100
AcDbSpline
 62
250
  6
CONTINUOUS
 70
0
 71
3
 72
9
 73
5
 74
0
 42
0.0000001
 43
0.0000001
 44
0.0000000001
 40
0.0
 40
0.0
 40
0.0
 40
0.0
 40
0.2617004777
 40
1.0
 40
1.0
 40
1.0
 40
1.0
 10
-16.7478942492
 20
25.9243759518
 30
0.0
 10
-16.7444678346
 20
25.9260856288
 30
0.0
 10
-16.7314160534
 20
25.9327000877
 30
0.0
 10
-16.7185264306
 20
25.9396387126
 30
0.0
 10
-16.7091461688
 20
25.9449973839
 30
0.0
  0
SPLINE
  5
320
100
AcDbEntity
  8
RACCORDO
100
AcDbSpline
 62
250
  6
CONTINUOUS
 70
0
 71
3
 72
9
 73
5
 74
0
 42
0.0000001
 43
0.0000001
 44
0.0000000001
 40
0.0
 40
0.0
 40
0.0
 40
0.0
 40
0.2554750794
 40
1.0
 40
1.0
 40
1.0
 40
1.0
 10
-16.7478942508
 20
24.8843848461
 30
0.0
 10
-16.7444507218
 20
24.88516267
 30
0.0
 10
-16.7310778825
 20
24.888650625
 30
0.0
 10
-16.7181609833
 20
24.8939497617
 30
0.0
 10
-16.7091461671
 20
24.8989076426
 30
0.0
  0
SPLINE
  5
321
100
AcDbEntity
  8
RACCORDO
100
AcDbSpline
 62
250
  6
CONTINUOUS
 70
0
 71
3
 72
9
 73
5
 74
0
 42
0.0000001
 43
0.0000001
 44
0.0000000001
 40
0.0
 40
0.0
 40
0.0
 40
0.0
 40
0.2617004777
 40
1.0
 40
1.0
 40
1.0
 40
1.0
 10
-16.7478942492
 20
-6.7344351199
 30
0.0
 10
-16.7444678346
 20
-6.7327254429
 30
0.0
 10
-16.7314160534
 20
-6.726110984
 30
0.0
 10
-16.7185264306
 20
-6.7191723592
 30
0.0
 10
-16.7091461688
 20
-6.7138136878
 30
0.0
  0
SPLINE
  5
322
100
AcDbEntity
  8
RACCORDO
100
AcDbSpline
 62
250
  6
CONTINUOUS
 70
0
 71
3
 72
9
 73
5
 74
0
 42
0.0000001
 43
0.0000001
 44
0.0000000001
 40
0.0
 40
0.0
 40
0.0
 40
0.0
 40
0.2554750794
 40
1.0
 40
1.0
 40
1.0
 40
1.0
 10
-16.7478942508
 20
-7.7744262256
 30
0.0
 10
-16.7444507218
 20
-7.7736484018
 30
0.0
 10
-16.7310778825
 20
-7.7701604467
 30
0.0
 10
-16.7181609833
 20
-7.76486131
 30
0.0
 10
-16.7091461671
 20
-7.7599034291
 30
0.0
  0
SPLINE
  5
323
100
AcDbEntity
  8
RACCORDO
100
AcDbSpline
 62
7
  6
CONTINUOUS
 70
0
 71
3
 72
20
 73
16
 74
0
 42
0.0000001
 43
0.0000001
 44
0.0000000001
 40
0.0
 40
0.0
 40
0.0
 40
0.0
 40
0.2757727259
 40
0.50836285
 40
0.695274062
 40
0.7706296415
 40
0.8332877189
 40
0.8838514662
 40
0.9235712241
 40
0.9535785015
 40
0.9748577967
 40
0.9885181107
 40
0.9958208003
 40
0.9979569105
 40
1.0
 40
1.0
 40
1.0
 40
1.0
 10
14.736458071
 20
-31.5442540103
 30
0.0
 10
14.736458071
 20
-31.5589603311
 30
0.0
 10
14.7353774371
 20
-31.5860912289
 30
0.0
 10
14.7304287432
 20
-31.6228970064
 30
0.0
 10
14.724098229
 20
-31.6485793644
 30
0.0
 10
14.7184637385
 20
-31.6649753547
 30
0.0
 10
14.7146236605
 20
-31.6742750286
 30
0.0
 10
14.7109961597
 20
-31.6815945634
 30
0.0
 10
14.7077595879
 20
-31.6871195016
 30
0.0
 10
14.7049340439
 20
-31.6911277444
 30
0.0
 10
14.7028711581
 20
-31.6937769147
 30
0.0
 10
14.7011199514
 20
-31.6955302664
 30
0.0
 10
14.7005377488
 20
-31.6962032034
 30
0.0
 10
14.6996547416
 20
-31.6967251722
 30
0.0
 10
14.6999821093
 20
-31.6964682283
 30
0.0
 10
14.700076464
 20
-31.696413749
 30
0.0
  0
SPLINE
  5
324
100
AcDbEntity
  8
RACCORDO
100
AcDbSpline
 62
7
  6
CONTINUOUS
 70
0
 71
3
 72
13
 73
9
 74
0
 42
0.0000001
 43
0.0000001
 44
0.0000000001
 40
0.0
 40
0.0
 40
0.0
 40
0.0
 40
0.1142582662
 40
0.2375415353
 40
0.5000060652
 40
0.7624672751
 40
0.8857466677
 40
1.0
 40
1.0
 40
1.0
 40
1.0
 10
31.1761703516
 20
19.2497708194
 30
0.0
 10
31.2487806206
 20
19.2078465601
 30
0.0
 10
31.3922171998
 20
19.1073088943
 30
0.0
 10
31.6607262986
 20
18.8559652312
 30
0.0
 10
31.9443823838
 20
18.4685399519
 30
0.0
 10
32.1380741418
 20
18.0291765505
 30
0.0
 10
32.2214845239
 20
17.6709768813
 30
0.0
 10
32.2368305234
 20
17.4964943609
 30
0.0
 10
32.2368305234
 20
17.4126535142
 30
0.0
  0
SPLINE
  5
325
100
AcDbEntity
  8
RACCORDO
100
AcDbSpline
 62
7
  6
CONTINUOUS
 70
0
 71
3
 72
13
 73
9
 74
0
 42
0.0000001
 43
0.0000001
 44
0.0000000001
 40
0.0
 40
0.0
 40
0.0
 40
0.0
 40
0.1052352258
 40
0.227747113
 40
0.5000045008
 40
0.77226164
 40
0.8947712382
 40
1.0
 40
1.0
 40
1.0
 40
1.0
 10
14.2500547199
 20
12.1220789542
 30
0.0
 10
14.280652268
 20
12.1044123134
 30
0.0
 10
14.3433240823
 20
12.0599477971
 30
0.0
 10
14.4657009653
 20
11.9444634012
 30
0.0
 10
14.5986419623
 20
11.7616849419
 30
0.0
 10
14.6904645517
 20
11.5551670876
 30
0.0
 10
14.7292880048
 20
11.3914463118
 30
0.0
 10
14.736458071
 20
11.3149414116
 30
0.0
 10
14.736458071
 20
11.2796120075
 30
0.0
  0
SPLINE
  5
326
100
AcDbEntity
  8
RACCORDO
100
AcDbSpline
 62
7
  6
CONTINUOUS
 70
0
 71
3
 72
20
 73
16
 74
0
 42
0.0000001
 43
0.0000001
 44
0.0000000001
 40
0.0
 40
0.0
 40
0.0
 40
0.0
 40
0.0020537476
 40
0.0041858775
 40
0.0114890855
 40
0.0251534448
 40
0.0464399265
 40
0.0764579368
 40
0.1161871997
 40
0.1667538342
 40
0.2294050284
 40
0.3047612497
 40
0.4916765252
 40
0.7242211468
 40
1.0
 40
1.0
 40
1.0
 40
1.0
 10
-17.2601382738
 20
30.2736442282
 30
0.0
 10
-17.2602331502
 20
30.2735894478
 30
0.0
 10
-17.2606206931
 20
30.2734336223
 30
0.0
 10
-17.2597280817
 20
30.2739381396
 30
0.0
 10
-17.2588527021
 20
30.2741060336
 30
0.0
 10
-17.2564580761
 20
30.274746571
 30
0.0
 10
-17.2531297509
 20
30.275208336
 30
0.0
 10
-17.2482429587
 20
30.2756516267
 30
0.0
 10
-17.2418366422
 20
30.2756924553
 30
0.0
 10
-17.2336811661
 20
30.2751743484
 30
0.0
 10
-17.2237044586
 20
30.2738494571
 30
0.0
 10
-17.2066830663
 20
30.270528178
 30
0.0
 10
-17.1812708069
 20
30.2631669118
 30
0.0
 10
-17.1469120945
 20
30.2490476591
 30
0.0
 10
-17.1228711048
 20
30.2364131303
 30
0.0
 10
-17.1101310257
 20
30.2290571683
 30
0.0
  0
SPLINE
  5
327
100
AcDbEntity
  8
RACCORDO
100
AcDbSpline
 62
7
  6
CONTINUOUS
 70
0
 71
3
 72
11
 73
7
 74
0
 42
0.0000001
 43
0.0000001
 44
0.0000000001
 40
0.0
 40
0.0
 40
0.0
 40
0.0
 40
0.2897992983
 40
0.5490484752
 40
0.7822275293
 40
1.0
 40
1.0
 40
1.0
 40
1.0
 10
32.2368305234
 20
-51.9873200132
 30
0.0
 10
32.2368305234
 20
-52.0633399872
 30
0.0
 10
32.2253505876
 20
-52.207863558
 30
0.0
 10
32.1667594035
 20
-52.4064150192
 30
0.0
 10
32.0682714493
 20
-52.5675522935
 30
0.0
 10
31.9756785218
 20
-52.64536078
 30
0.0
 10
31.9262068255
 20
-52.67392517
 30
0.0
  0
SPLINE
  5
328
100
AcDbEntity
  8
RACCORDO
100
AcDbSpline
 62
7
  6
CONTINUOUS
 70
0
 71
3
 72
11
 73
7
 74
0
 42
0.0000001
 43
0.0000001
 44
0.0000000001
 40
0.0
 40
0.0
 40
0.0
 40
0.0
 40
0.2479418697
 40
0.4956563892
 40
0.7449335159
 40
1.0
 40
1.0
 40
1.0
 40
1.0
 10
29.663464892
 20
-53.9804040036
 30
0.0
 10
29.5885431142
 20
-54.0236628991
 30
0.0
 10
29.4239782085
 20
-54.0868091902
 30
0.0
 10
29.1611345958
 20
-54.1035403643
 30
0.0
 10
28.9016235293
 20
-54.0495857234
 30
0.0
 10
28.7404912282
 20
-53.9753647666
 30
0.0
 10
28.6634165717
 20
-53.9308628259
 30
0.0
  0
SPLINE
  5
329
100
AcDbEntity
  8
RACCORDO
100
AcDbSpline
 62
7
  6
CONTINUOUS
 70
0
 71
3
 72
11
 73
7
 74
0
 42
0.0000001
 43
0.0000001
 44
0.0000000001
 40
0.0
 40
0.0
 40
0.0
 40
0.0
 40
0.2433580204
 40
0.5000106766
 40
0.7566583707
 40
1.0
 40
1.0
 40
1.0
 40
1.0
 10
-31.4406598291
 20
-19.227522393
 30
0.0
 10
-31.5803112622
 20
-19.1468894058
 30
0.0
 10
-31.8403476274
 20
-18.9331169889
 30
0.0
 10
-32.1401812352
 20
-18.5262039862
 30
0.0
 10
-32.3426488477
 20
-18.0630904975
 30
0.0
 10
-32.3977545303
 20
-17.7310191167
 30
0.0
 10
-32.3977545303
 20
-17.5697717957
 30
0.0
  0
SPLINE
  5
32A
100
AcDbEntity
  8
RACCORDO
100
AcDbSpline
 62
7
  6
CONTINUOUS
 70
0
 71
3
 72
11
 73
7
 74
0
 42
0.0000001
 43
0.0000001
 44
0.0000000001
 40
0.0
 40
0.0
 40
0.0
 40
0.0
 40
0.2550641648
 40
0.5043391559
 40
0.7520499656
 40
1.0
 40
1.0
 40
1.0
 40
1.0
 10
-32.3977545303
 20
51.8302017317
 30
0.0
 10
-32.3977545303
 20
51.9191903316
 30
0.0
 10
-32.3814627593
 20
52.0958231839
 30
0.0
 10
-32.2984409305
 20
52.3475106993
 30
0.0
 10
-32.1525497317
 20
52.5667518978
 30
0.0
 10
-32.015599671
 20
52.6776889444
 30
0.0
 10
-31.9406839893
 20
52.7209443201
 30
0.0
  0
SPLINE
  5
32B
100
AcDbEntity
  8
RACCORDO
100
AcDbSpline
 62
7
  6
CONTINUOUS
 70
0
 71
3
 72
11
 73
7
 74
0
 42
0.0000001
 43
0.0000001
 44
0.0000000001
 40
0.0
 40
0.0
 40
0.0
 40
0.0
 40
0.2177671249
 40
0.4509439291
 40
0.7101951296
 40
1.0
 40
1.0
 40
1.0
 40
1.0
 10
-29.6779425232
 20
54.0274228838
 30
0.0
 10
-29.628464611
 20
54.0559908628
 30
0.0
 10
-29.5147696413
 20
54.0972839872
 30
0.0
 10
-29.3259493656
 20
54.102008788
 30
0.0
 10
-29.1246723059
 20
54.0534630706
 30
0.0
 10
-28.9937513716
 20
53.9911295161
 30
0.0
 10
-28.9279060493
 20
53.9531112522
 30
0.0
  0
SPLINE
  5
32C
100
AcDbEntity
  8
RACCORDO
100
AcDbSpline
 62
7
  6
CONTINUOUS
 70
0
 71
3
 72
11
 73
7
 74
0
 42
0.0000001
 43
0.0000001
 44
0.0000000001
 40
0.0
 40
0.0
 40
0.0
 40
0.0
 40
0.2372200919
 40
0.4999938933
 40
0.7627710182
 40
1.0
 40
1.0
 40
1.0
 40
1.0
 10
-16.7479917433
 20
-12.4574167723
 30
0.0
 10
-16.7479917433
 20
-12.5269624653
 30
0.0
 10
-16.721906873
 20
-12.6736403624
 30
0.0
 10
-16.6309784366
 20
-12.8797516549
 30
0.0
 10
-16.4979432073
 20
-13.0615555418
 30
0.0
 10
-16.3839572984
 20
-13.1574878644
 30
0.0
 10
-16.3237276746
 20
-13.1922636943
 30
0.0
  0
SPLINE
  5
32D
100
AcDbEntity
  8
RACCORDO
100
AcDbSpline
 62
250
  6
CONTINUOUS
 70
0
 71
3
 72
15
 73
11
 74
0
 42
0.0000001
 43
0.0000001
 44
0.0000000001
 40
0.0
 40
0.0
 40
0.0
 40
0.0
 40
0.1448897593
 40
0.2745399076
 40
0.3911224642
 40
0.5000110968
 40
0.6088977165
 40
0.7254749075
 40
0.8551178339
 40
1.0
 40
1.0
 40
1.0
 40
1.0
 10
-31.5442011397
 20
52.0342601185
 30
0.0
 10
-31.5880905427
 20
52.0596013098
 30
0.0
 10
-31.675375924
 20
52.1011448438
 30
0.0
 10
-31.8095224678
 20
52.1335398739
 30
0.0
 10
-31.9354830373
 20
52.130328109
 30
0.0
 10
-32.0475943223
 20
52.0896946622
 30
0.0
 10
-32.1388470317
 20
52.0129317192
 30
0.0
 10
-32.2046158251
 20
51.9054624857
 30
0.0
 10
-32.2436399953
 20
51.7730994993
 30
0.0
 10
-32.2513079209
 20
51.6767417127
 30
0.0
 10
-32.2513079209
 20
51.6260644351
 30
0.0
  0
SPLINE
  5
32E
100
AcDbEntity
  8
RACCORDO
100
AcDbSpline
 62
250
  6
CONTINUOUS
 70
0
 71
3
 72
11
 73
7
 74
0
 42
0.0000001
 43
0.0000001
 44
0.0000000001
 40
0.0
 40
0.0
 40
0.0
 40
0.0
 40
0.2372185779
 40
0.499993893
 40
0.7627725258
 40
1.0
 40
1.0
 40
1.0
 40
1.0
 10
29.2669820424
 20
16.1061748155
 30
0.0
 10
29.2669820424
 20
16.2220835603
 30
0.0
 10
29.2235073861
 20
16.4665466861
 30
0.0
 10
29.0719599807
 20
16.81006635
 30
0.0
 10
28.8502338748
 20
17.1130732641
 30
0.0
 10
28.6602573263
 20
17.2729603394
 30
0.0
 10
28.5598752612
 20
17.3309196857
 30
0.0
  0
SPLINE
  5
32F
100
AcDbEntity
  8
RACCORDO
100
AcDbSpline
 62
250
  6
CONTINUOUS
 70
0
 71
3
 72
15
 73
11
 74
0
 42
0.0000001
 43
0.0000001
 44
0.0000000001
 40
0.0
 40
0.0
 40
0.0
 40
0.0
 40
0.1448897593
 40
0.2745399076
 40
0.3911224642
 40
0.5000110968
 40
0.6088977165
 40
0.7254749075
 40
0.8551178339
 40
1.0
 40
1.0
 40
1.0
 40
1.0
 10
28.5598752612
 20
-53.7019943953
 30
0.0
 10
28.6037646642
 20
-53.7273355866
 30
0.0
 10
28.6910500455
 20
-53.7688791206
 30
0.0
 10
28.8251965893
 20
-53.8012741507
 30
0.0
 10
28.9511571588
 20
-53.7980623857
 30
0.0
 10
29.0632684438
 20
-53.757428939
 30
0.0
 10
29.1545211533
 20
-53.680665996
 30
0.0
 10
29.2202899466
 20
-53.5731967625
 30
0.0
 10
29.2593141168
 20
-53.4408337761
 30
0.0
 10
29.2669820424
 20
-53.3444759895
 30
0.0
 10
29.2669820424
 20
-53.2937987118
 30
0.0
  0
SPLINE
  5
330
100
AcDbEntity
  8
RACCORDO
100
AcDbSpline
 62
250
  6
CONTINUOUS
 70
0
 71
3
 72
11
 73
7
 74
0
 42
0.0000001
 43
0.0000001
 44
0.0000000001
 40
0.0
 40
0.0
 40
0.0
 40
0.0
 40
0.2372185779
 40
0.499993893
 40
0.7627725258
 40
1.0
 40
1.0
 40
1.0
 40
1.0
 10
-32.2513079209
 20
-17.7739090923
 30
0.0
 10
-32.2513079209
 20
-17.8898178371
 30
0.0
 10
-32.2078332646
 20
-18.1342809629
 30
0.0
 10
-32.0562858592
 20
-18.4778006268
 30
0.0
 10
-31.8345597533
 20
-18.7808075409
 30
0.0
 10
-31.6445832047
 20
-18.9406946162
 30
0.0
 10
-31.5442011397
 20
-18.9986539625
 30
0.0
  0
SPLINE
  5
331
100
AcDbEntity
  8
RACCORDO
100
AcDbSpline
 62
250
  6
CONTINUOUS
 70
0
 71
3
 72
15
 73
11
 74
0
 42
0.0000001
 43
0.0000001
 44
0.0000000001
 40
0.0
 40
0.0
 40
0.0
 40
0.0
 40
0.1448814637
 40
0.2745245367
 40
0.3911020652
 40
0.4999889107
 40
0.6088777754
 40
0.7254606475
 40
0.8551109087
 40
1.0
 40
1.0
 40
1.0
 40
1.0
 10
-17.8086519151
 20
29.9990021115
 30
0.0
 10
-17.8086519151
 20
30.0446114408
 30
0.0
 10
-17.8017510288
 20
30.1313333152
 30
0.0
 10
-17.7666290636
 20
30.2504598314
 30
0.0
 10
-17.7074374436
 20
30.3471826269
 30
0.0
 10
-17.6253095752
 20
30.41626916
 30
0.0
 10
-17.5244093085
 20
30.4528396778
 30
0.0
 10
-17.4110445386
 20
30.4557297828
 30
0.0
 10
-17.2903127021
 20
30.4265745095
 30
0.0
 10
-17.2117560931
 20
30.3891851939
 30
0.0
 10
-17.1722558121
 20
30.3663782267
 30
0.0
  0
SPLINE
  5
332
100
AcDbEntity
  8
RACCORDO
100
AcDbSpline
 62
250
  6
CONTINUOUS
 70
0
 71
3
 72
11
 73
7
 74
0
 42
0.0000001
 43
0.0000001
 44
0.0000000001
 40
0.0
 40
0.0
 40
0.0
 40
0.0
 40
0.2177724717
 40
0.4509515175
 40
0.7102006915
 40
1.0
 40
1.0
 40
1.0
 40
1.0
 10
29.663464892
 20
-53.9804040036
 30
0.0
 10
29.7129366208
 20
-53.9518396306
 30
0.0
 10
29.805529617
 20
-53.874031161
 30
0.0
 10
29.9040176498
 20
-53.7128938592
 30
0.0
 10
29.9626088796
 20
-53.5143423365
 30
0.0
 10
29.9740888236
 20
-53.3698187143
 30
0.0
 10
29.9740888236
 20
-53.2937987118
 30
0.0
  0
SPLINE
  5
333
100
AcDbEntity
  8
RACCORDO
100
AcDbSpline
 62
250
  6
CONTINUOUS
 70
0
 71
3
 72
11
 73
7
 74
0
 42
0.0000001
 43
0.0000001
 44
0.0000000001
 40
0.0
 40
0.0
 40
0.0
 40
0.0
 40
0.2372269357
 40
0.5000061159
 40
0.7627819622
 40
1.0
 40
1.0
 40
1.0
 40
1.0
 10
-17.1722558121
 20
-13.9271342894
 30
0.0
 10
-17.2625994635
 20
-13.8749709973
 30
0.0
 10
-17.4335783558
 20
-13.7310726519
 30
0.0
 10
-17.6331320702
 20
-13.4583662877
 30
0.0
 10
-17.7695247504
 20
-13.1491983307
 30
0.0
 10
-17.8086519151
 20
-12.9291815366
 30
0.0
 10
-17.8086519151
 20
-12.8248639062
 30
0.0
  0
SPLINE
  5
334
100
AcDbEntity
  8
RACCORDO
100
AcDbSpline
 62
250
  6
CONTINUOUS
 70
0
 71
3
 72
15
 73
11
 74
0
 42
0.0000001
 43
0.0000001
 44
0.0000000001
 40
0.0
 40
0.0
 40
0.0
 40
0.0
 40
0.1448814637
 40
0.2745245367
 40
0.3911020652
 40
0.4999889107
 40
0.6088777754
 40
0.7254606475
 40
0.8551109087
 40
1.0
 40
1.0
 40
1.0
 40
1.0
 10
14.8243260366
 20
-31.6667363883
 30
0.0
 10
14.8243260366
 20
-31.7123457176
 30
0.0
 10
14.8174251503
 20
-31.799067592
 30
0.0
 10
14.7823031851
 20
-31.9181941082
 30
0.0
 10
14.7231115651
 20
-32.0149169036
 30
0.0
 10
14.6409836967
 20
-32.0840034368
 30
0.0
 10
14.54008343
 20
-32.1205739546
 30
0.0
 10
14.4267186601
 20
-32.1234640595
 30
0.0
 10
14.3059868236
 20
-32.0943087863
 30
0.0
 10
14.2274302146
 20
-32.0569194707
 30
0.0
 10
14.1879299336
 20
-32.0341125034
 30
0.0
  0
SPLINE
  5
335
100
AcDbEntity
  8
RACCORDO
100
AcDbSpline
 62
250
  6
CONTINUOUS
 70
0
 71
3
 72
11
 73
7
 74
0
 42
0.0000001
 43
0.0000001
 44
0.0000000001
 40
0.0
 40
0.0
 40
0.0
 40
0.0
 40
0.2372383085
 40
0.5
 40
0.7627616915
 40
1.0
 40
1.0
 40
1.0
 40
1.0
 10
-17.8086519151
 20
-12.8248639062
 30
0.0
 10
-17.7785357176
 20
-12.8422526213
 30
0.0
 10
-17.7084999569
 20
-12.8676281508
 30
0.0
 10
-17.5965198808
 20
-12.8797859888
 30
0.0
 10
-17.4845398047
 20
-12.8676281508
 30
0.0
 10
-17.414504044
 20
-12.8422526213
 30
0.0
 10
-17.3843878464
 20
-12.8248639062
 30
0.0
  0
SPLINE
  5
336
100
AcDbEntity
  8
RACCORDO
100
AcDbSpline
 62
250
  6
CONTINUOUS
 70
0
 71
3
 72
11
 73
7
 74
0
 42
0.0000001
 43
0.0000001
 44
0.0000000001
 40
0.0
 40
0.0
 40
0.0
 40
0.0
 40
0.2372324595
 40
0.4999938932
 40
0.7627586504
 40
1.0
 40
1.0
 40
1.0
 40
1.0
 10
-17.1722558121
 20
-13.9271342894
 30
0.0
 10
-17.1722558121
 20
-13.8923596266
 30
0.0
 10
-17.1592119405
 20
-13.8190209391
 30
0.0
 10
-17.1137502692
 20
-13.7159662069
 30
0.0
 10
-17.0472321727
 20
-13.6250669261
 30
0.0
 10
-16.9902401625
 20
-13.5770996514
 30
0.0
 10
-16.9601237777
 20
-13.5597108283
 30
0.0
  0
SPLINE
  5
337
100
AcDbEntity
  8
RACCORDO
100
AcDbSpline
 62
250
  6
CONTINUOUS
 70
0
 71
3
 72
11
 73
7
 74
0
 42
0.0000001
 43
0.0000001
 44
0.0000000001
 40
0.0
 40
0.0
 40
0.0
 40
0.0
 40
0.2372324595
 40
0.4999938932
 40
0.7627586504
 40
1.0
 40
1.0
 40
1.0
 40
1.0
 10
14.1879299336
 20
-32.0341125034
 30
0.0
 10
14.1879299336
 20
-31.9993378407
 30
0.0
 10
14.2009738051
 20
-31.9259991532
 30
0.0
 10
14.2464354764
 20
-31.822944421
 30
0.0
 10
14.3129535729
 20
-31.7320451402
 30
0.0
 10
14.3699455831
 20
-31.6840778655
 30
0.0
 10
14.4000619679
 20
-31.6666890424
 30
0.0
  0
SPLINE
  5
338
100
AcDbEntity
  8
RACCORDO
100
AcDbSpline
 62
250
  6
CONTINUOUS
 70
0
 71
3
 72
11
 73
7
 74
0
 42
0.0000001
 43
0.0000001
 44
0.0000000001
 40
0.0
 40
0.0
 40
0.0
 40
0.0
 40
0.2896952569
 40
0.5490778583
 40
0.7822096781
 40
1.0
 40
1.0
 40
1.0
 40
1.0
 10
14.8243260366
 20
-31.6667363883
 30
0.0
 10
14.8111623057
 20
-31.6591358151
 30
0.0
 10
14.7872797004
 20
-31.6426854726
 30
0.0
 10
14.7587367738
 20
-31.6126863202
 30
0.0
 10
14.7406809229
 20
-31.5794999476
 30
0.0
 10
14.736458071
 20
-31.5556815451
 30
0.0
 10
14.736458071
 20
-31.5442540103
 30
0.0
  0
SPLINE
  5
339
100
AcDbEntity
  8
RACCORDO
100
AcDbSpline
 62
250
  6
CONTINUOUS
 70
0
 71
3
 72
11
 73
7
 74
0
 42
0.0000001
 43
0.0000001
 44
0.0000000001
 40
0.0
 40
0.0
 40
0.0
 40
0.0
 40
0.2896952569
 40
0.5490778583
 40
0.7822096781
 40
1.0
 40
1.0
 40
1.0
 40
1.0
 10
14.8243260366
 20
11.1571296295
 30
0.0
 10
14.8111623057
 20
11.1647302027
 30
0.0
 10
14.7872797004
 20
11.1811805451
 30
0.0
 10
14.7587367738
 20
11.2111796976
 30
0.0
 10
14.7406809229
 20
11.2443660701
 30
0.0
 10
14.736458071
 20
11.2681844727
 30
0.0
 10
14.736458071
 20
11.2796120075
 30
0.0
  0
SPLINE
  5
33A
100
AcDbEntity
  8
RACCORDO
100
AcDbSpline
 62
250
  6
CONTINUOUS
 70
0
 71
3
 72
11
 73
7
 74
0
 42
0.0000001
 43
0.0000001
 44
0.0000000001
 40
0.0
 40
0.0
 40
0.0
 40
0.0
 40
0.2897008281
 40
0.5490847291
 40
0.7822142041
 40
1.0
 40
1.0
 40
1.0
 40
1.0
 10
14.1879299336
 20
12.2594000126
 30
0.0
 10
14.1879299336
 20
12.2442013698
 30
0.0
 10
14.1902337915
 20
12.2152967574
 30
0.0
 10
14.2019391865
 20
12.1755829716
 30
0.0
 10
14.2216472842
 20
12.1433567194
 30
0.0
 10
14.2401598948
 20
12.1277921095
 30
0.0
 10
14.2500547199
 20
12.1220789542
 30
0.0
  0
SPLINE
  5
33B
100
AcDbEntity
  8
RACCORDO
100
AcDbSpline
 62
250
  6
CONTINUOUS
 70
0
 71
3
 72
11
 73
7
 74
0
 42
0.0000001
 43
0.0000001
 44
0.0000000001
 40
0.0
 40
0.0
 40
0.0
 40
0.0
 40
0.2897008281
 40
0.5490847291
 40
0.7822142041
 40
1.0
 40
1.0
 40
1.0
 40
1.0
 10
-17.1722558121
 20
30.3663782267
 30
0.0
 10
-17.1722558121
 20
30.3511795838
 30
0.0
 10
-17.1699519541
 20
30.3222749714
 30
0.0
 10
-17.1582465592
 20
30.2825611857
 30
0.0
 10
-17.1385384614
 20
30.2503349335
 30
0.0
 10
-17.1200258508
 20
30.2347703236
 30
0.0
 10
-17.1101310257
 20
30.2290571683
 30
0.0
  0
SPLINE
  5
33C
100
AcDbEntity
  8
RACCORDO
100
AcDbSpline
 62
250
  6
CONTINUOUS
 70
0
 71
3
 72
9
 73
5
 74
0
 42
0.0000001
 43
0.0000001
 44
0.0000000001
 40
0.0
 40
0.0
 40
0.0
 40
0.0
 40
0.2404978468
 40
1.0
 40
1.0
 40
1.0
 40
1.0
 10
14.1879299336
 20
12.2594000126
 30
0.0
 10
14.199918371
 20
12.2524780391
 30
0.0
 10
14.2490532284
 20
12.2224669694
 30
0.0
 10
14.2953565913
 20
12.1879076428
 30
0.0
 10
14.3288410261
 20
12.1598002573
 30
0.0
  0
SPLINE
  5
33D
100
AcDbEntity
  8
RACCORDO
100
AcDbSpline
 62
250
  6
CONTINUOUS
 70
0
 71
3
 72
11
 73
7
 74
0
 42
0.0000001
 43
0.0000001
 44
0.0000000001
 40
0.0
 40
0.0
 40
0.0
 40
0.0
 40
0.2496447031
 40
0.5122344882
 40
0.7683055535
 40
1.0
 40
1.0
 40
1.0
 40
1.0
 10
14.3288410261
 20
12.1598002573
 30
0.0
 10
14.4020074202
 20
12.0983831823
 30
0.0
 10
14.5368023313
 20
11.9536135898
 30
0.0
 10
14.6926099968
 20
11.702341761
 30
0.0
 10
14.7958421879
 20
11.4326187727
 30
0.0
 10
14.8243260366
 20
11.2457877882
 30
0.0
 10
14.8243260366
 20
11.1571296295
 30
0.0
  0
SPLINE
  5
33E
100
AcDbEntity
  8
RACCORDO
100
AcDbSpline
 62
250
  6
CONTINUOUS
 70
0
 71
3
 72
11
 73
7
 74
0
 42
0.0000001
 43
0.0000001
 44
0.0000000001
 40
0.0
 40
0.0
 40
0.0
 40
0.0
 40
0.2372383085
 40
0.5
 40
0.7627616915
 40
1.0
 40
1.0
 40
1.0
 40
1.0
 10
-17.8086519151
 20
29.9990021115
 30
0.0
 10
-17.7785357176
 20
29.9816133965
 30
0.0
 10
-17.7084999569
 20
29.956237867
 30
0.0
 10
-17.5965198808
 20
29.944080029
 30
0.0
 10
-17.4845398047
 20
29.956237867
 30
0.0
 10
-17.414504044
 20
29.9816133965
 30
0.0
 10
-17.3843878464
 20
29.9990021115
 30
0.0
  0
SPLINE
  5
33F
100
AcDbEntity
  8
RACCORDO
100
AcDbSpline
 62
250
  6
CONTINUOUS
 70
0
 71
3
 72
11
 73
7
 74
0
 42
0.0000001
 43
0.0000001
 44
0.0000000001
 40
0.0
 40
0.0
 40
0.0
 40
0.0
 40
0.28980486
 40
0.5490560634
 40
0.782232876
 40
1.0
 40
1.0
 40
1.0
 40
1.0
 10
-31.1906477491
 20
52.6466325536
 30
0.0
 10
-31.2564930468
 20
52.6846508032
 30
0.0
 10
-31.3874139324
 20
52.7469843391
 30
0.0
 10
-31.588690916
 20
52.7955300653
 30
0.0
 10
-31.7775111286
 20
52.7908053189
 30
0.0
 10
-31.8912060786
 20
52.7495122625
 30
0.0
 10
-31.9406839893
 20
52.7209443201
 30
0.0
  0
SPLINE
  5
340
100
AcDbEntity
  8
RACCORDO
100
AcDbSpline
 62
250
  6
CONTINUOUS
 70
0
 71
3
 72
13
 73
9
 74
0
 42
0.0000001
 43
0.0000001
 44
0.0000000001
 40
0.0
 40
0.0
 40
0.0
 40
0.0
 40
0.1142533322
 40
0.2375327248
 40
0.4999939348
 40
0.7624584648
 40
0.8857417339
 40
1.0
 40
1.0
 40
1.0
 40
1.0
 10
29.9740888236
 20
16.1061748155
 30
0.0
 10
29.9740888236
 20
16.1900156622
 30
0.0
 10
29.9587428241
 20
16.3644981826
 30
0.0
 10
29.8753324421
 20
16.7226978519
 30
0.0
 10
29.681640684
 20
17.1620612532
 30
0.0
 10
29.3979845987
 20
17.5494865326
 30
0.0
 10
29.1294754999
 20
17.8008301957
 30
0.0
 10
28.9860389208
 20
17.9013678614
 30
0.0
 10
28.9134286518
 20
17.9432921207
 30
0.0
  0
SPLINE
  5
341
100
AcDbEntity
  8
RACCORDO
100
AcDbSpline
 62
250
  6
CONTINUOUS
 70
0
 71
3
 72
11
 73
7
 74
0
 42
0.0000001
 43
0.0000001
 44
0.0000000001
 40
0.0
 40
0.0
 40
0.0
 40
0.0
 40
0.2372289825
 40
0.5000061071
 40
0.7627799084
 40
1.0
 40
1.0
 40
1.0
 40
1.0
 10
-16.9601237777
 20
-13.5597108283
 30
0.0
 10
-17.0203534017
 20
-13.5249349983
 30
0.0
 10
-17.1343393106
 20
-13.4290026755
 30
0.0
 10
-17.2673745398
 20
-13.2471987885
 30
0.0
 10
-17.3583029761
 20
-13.0410874962
 30
0.0
 10
-17.3843878464
 20
-12.8944095992
 30
0.0
 10
-17.3843878464
 20
-12.8248639062
 30
0.0
  0
SPLINE
  5
342
100
AcDbEntity
  8
RACCORDO
100
AcDbSpline
 62
250
  6
CONTINUOUS
 70
0
 71
3
 72
11
 73
7
 74
0
 42
0.0000001
 43
0.0000001
 44
0.0000000001
 40
0.0
 40
0.0
 40
0.0
 40
0.0
 40
0.2897723604
 40
0.5490642332
 40
0.7822230546
 40
1.0
 40
1.0
 40
1.0
 40
1.0
 10
-17.3843878464
 20
29.9990021115
 30
0.0
 10
-17.3843878464
 20
30.0294070466
 30
0.0
 10
-17.3797912535
 20
30.0872164853
 30
0.0
 10
-17.3563638816
 20
30.1666398537
 30
0.0
 10
-17.3169574392
 20
30.2310900573
 30
0.0
 10
-17.2799258198
 20
30.2622159144
 30
0.0
 10
-17.2601368722
 20
30.2736418008
 30
0.0
  0
SPLINE
  5
343
100
AcDbEntity
  8
RACCORDO
100
AcDbSpline
 62
250
  6
CONTINUOUS
 70
0
 71
3
 72
11
 73
7
 74
0
 42
0.0000001
 43
0.0000001
 44
0.0000000001
 40
0.0
 40
0.0
 40
0.0
 40
0.0
 40
0.2177715952
 40
0.4509281936
 40
0.7102220749
 40
1.0
 40
1.0
 40
1.0
 40
1.0
 10
14.7000750624
 20
-31.6964113215
 30
0.0
 10
14.6802836421
 20
-31.7078386356
 30
0.0
 10
14.6348063275
 20
-31.7243498204
 30
0.0
 10
14.5592767071
 20
-31.7262517882
 30
0.0
 10
14.4787680855
 20
-31.7068242247
 30
0.0
 10
14.4263974329
 20
-31.6818948098
 30
0.0
 10
14.4000619679
 20
-31.6666890424
 30
0.0
  0
SPLINE
  5
344
100
AcDbEntity
  8
RACCORDO
100
AcDbSpline
 62
250
  6
CONTINUOUS
 70
0
 71
3
 72
11
 73
7
 74
0
 42
0.0000001
 43
0.0000001
 44
0.0000000001
 40
0.0
 40
0.0
 40
0.0
 40
0.0
 40
0.2372324595
 40
0.4999938932
 40
0.7627586504
 40
1.0
 40
1.0
 40
1.0
 40
1.0
 10
28.5598752612
 20
17.3309196857
 30
0.0
 10
28.5598752612
 20
17.3888774569
 30
0.0
 10
28.5816150471
 20
17.5111086027
 30
0.0
 10
28.6573844992
 20
17.6828664897
 30
0.0
 10
28.7682479934
 20
17.8343652911
 30
0.0
 10
28.8632346771
 20
17.9143107489
 30
0.0
 10
28.9134286518
 20
17.9432921207
 30
0.0
  0
SPLINE
  5
345
100
AcDbEntity
  8
RACCORDO
100
AcDbSpline
 62
250
  6
CONTINUOUS
 70
0
 71
3
 72
11
 73
7
 74
0
 42
0.0000001
 43
0.0000001
 44
0.0000000001
 40
0.0
 40
0.0
 40
0.0
 40
0.0
 40
0.2372383085
 40
0.5
 40
0.7627616915
 40
1.0
 40
1.0
 40
1.0
 40
1.0
 10
29.2669820424
 20
16.1061748155
 30
0.0
 10
29.3171757049
 20
16.0771936239
 30
0.0
 10
29.4339019728
 20
16.0349010747
 30
0.0
 10
29.620535433
 20
16.0146380114
 30
0.0
 10
29.8071688931
 20
16.0349010747
 30
0.0
 10
29.923895161
 20
16.0771936239
 30
0.0
 10
29.9740888236
 20
16.1061748155
 30
0.0
  0
SPLINE
  5
346
100
AcDbEntity
  8
RACCORDO
100
AcDbSpline
 62
250
  6
CONTINUOUS
 70
0
 71
3
 72
11
 73
7
 74
0
 42
0.0000001
 43
0.0000001
 44
0.0000000001
 40
0.0
 40
0.0
 40
0.0
 40
0.0
 40
0.2372383085
 40
0.5
 40
0.7627616915
 40
1.0
 40
1.0
 40
1.0
 40
1.0
 10
29.2669820424
 20
-53.2937987118
 30
0.0
 10
29.3171757049
 20
-53.3227799035
 30
0.0
 10
29.4339019728
 20
-53.3650724527
 30
0.0
 10
29.620535433
 20
-53.385335516
 30
0.0
 10
29.8071688931
 20
-53.3650724527
 30
0.0
 10
29.923895161
 20
-53.3227799035
 30
0.0
 10
29.9740888236
 20
-53.2937987118
 30
0.0
  0
SPLINE
  5
347
100
AcDbEntity
  8
RACCORDO
100
AcDbSpline
 62
250
  6
CONTINUOUS
 70
0
 71
3
 72
11
 73
7
 74
0
 42
0.0000001
 43
0.0000001
 44
0.0000000001
 40
0.0
 40
0.0
 40
0.0
 40
0.0
 40
0.2897008281
 40
0.5490847291
 40
0.7822142041
 40
1.0
 40
1.0
 40
1.0
 40
1.0
 10
28.5598752612
 20
-53.7019943953
 30
0.0
 10
28.5598752612
 20
-53.7273254667
 30
0.0
 10
28.5637150244
 20
-53.7754998207
 30
0.0
 10
28.583224016
 20
-53.8416894636
 30
0.0
 10
28.6160708456
 20
-53.895399884
 30
0.0
 10
28.6469251966
 20
-53.9213409004
 30
0.0
 10
28.6634165717
 20
-53.9308628259
 30
0.0
  0
SPLINE
  5
348
100
AcDbEntity
  8
RACCORDO
100
AcDbSpline
 62
250
  6
CONTINUOUS
 70
0
 71
3
 72
11
 73
7
 74
0
 42
0.0000001
 43
0.0000001
 44
0.0000000001
 40
0.0
 40
0.0
 40
0.0
 40
0.0
 40
0.2897008281
 40
0.5490847291
 40
0.7822142041
 40
1.0
 40
1.0
 40
1.0
 40
1.0
 10
-31.5442011397
 20
-18.9986539625
 30
0.0
 10
-31.5442011397
 20
-19.0239850338
 30
0.0
 10
-31.5403613764
 20
-19.0721593878
 30
0.0
 10
-31.5208523848
 20
-19.1383490307
 30
0.0
 10
-31.4880055553
 20
-19.1920594511
 30
0.0
 10
-31.4571512042
 20
-19.2180004675
 30
0.0
 10
-31.4406598291
 20
-19.227522393
 30
0.0
  0
SPLINE
  5
349
100
AcDbEntity
  8
RACCORDO
100
AcDbSpline
 62
250
  6
CONTINUOUS
 70
0
 71
3
 72
11
 73
7
 74
0
 42
0.0000001
 43
0.0000001
 44
0.0000000001
 40
0.0
 40
0.0
 40
0.0
 40
0.0
 40
0.2896952569
 40
0.5490778583
 40
0.7822096781
 40
1.0
 40
1.0
 40
1.0
 40
1.0
 10
-32.2513079209
 20
-17.7739090923
 30
0.0
 10
-32.2732474724
 20
-17.7612414703
 30
0.0
 10
-32.3130518145
 20
-17.7338242329
 30
0.0
 10
-32.3606233589
 20
-17.6838256455
 30
0.0
 10
-32.3907164438
 20
-17.6285150245
 30
0.0
 10
-32.3977545303
 20
-17.588817687
 30
0.0
 10
-32.3977545303
 20
-17.5697717957
 30
0.0
  0
SPLINE
  5
34A
100
AcDbEntity
  8
RACCORDO
100
AcDbSpline
 62
250
  6
CONTINUOUS
 70
0
 71
3
 72
11
 73
7
 74
0
 42
0.0000001
 43
0.0000001
 44
0.0000000001
 40
0.0
 40
0.0
 40
0.0
 40
0.0
 40
0.2896952569
 40
0.5490778583
 40
0.7822096781
 40
1.0
 40
1.0
 40
1.0
 40
1.0
 10
-32.2513079209
 20
51.6260644351
 30
0.0
 10
-32.2732474724
 20
51.6387320571
 30
0.0
 10
-32.3130518145
 20
51.6661492945
 30
0.0
 10
-32.3606233589
 20
51.7161478819
 30
0.0
 10
-32.3907164438
 20
51.7714585029
 30
0.0
 10
-32.3977545303
 20
51.8111558404
 30
0.0
 10
-32.3977545303
 20
51.8302017317
 30
0.0
  0
SPLINE
  5
34B
100
AcDbEntity
  8
RACCORDO
100
AcDbSpline
 62
250
  6
CONTINUOUS
 70
0
 71
3
 72
11
 73
7
 74
0
 42
0.0000001
 43
0.0000001
 44
0.0000000001
 40
0.0
 40
0.0
 40
0.0
 40
0.0
 40
0.2372324595
 40
0.4999938932
 40
0.7627586504
 40
1.0
 40
1.0
 40
1.0
 40
1.0
 10
-31.5442011397
 20
52.0342601185
 30
0.0
 10
-31.5442011397
 20
52.0922178897
 30
0.0
 10
-31.5224613538
 20
52.2144490356
 30
0.0
 10
-31.4466919017
 20
52.3862069226
 30
0.0
 10
-31.3358284074
 20
52.5377057239
 30
0.0
 10
-31.2408417237
 20
52.6176511817
 30
0.0
 10
-31.1906477491
 20
52.6466325536
 30
0.0
  0
ELLIPSE
  5
34C
100
AcDbEntity
  8
RACCORDO
100
AcDbEllipse
 62
7
  6
CONTINUOUS
 10
5.3420377723
 20
-24.1992771171
 30
0.0
 11
0.2064437841
 21
0.0041480952
 31
0.0
 40
0.5572920691
 41
0.744792064
 42
2.1496790728
  0
ELLIPSE
  5
34D
100
AcDbEntity
  8
RACCORDO
100
AcDbEllipse
 62
7
  6
CONTINUOUS
 10
-16.0290020956
 20
24.2253762249
 30
0.0
 11
0.1999444062
 21
-0.00862956
 31
0.0
 40
0.5464172455
 41
-0.744365984
 42
0.0235788101
  0
ELLIPSE
  5
34E
100
AcDbEntity
  8
RACCORDO
100
AcDbEllipse
 62
7
  6
CONTINUOUS
 10
-16.0290020956
 20
-1.5750845217
 30
0.0
 11
0.1999444062
 21
-0.00862956
 31
0.0
 40
0.5464172455
 41
-0.744365984
 42
0.0235788101
  0
ELLIPSE
  5
34F
100
AcDbEntity
  8
RACCORDO
100
AcDbEllipse
 62
7
  6
CONTINUOUS
 10
-13.2558262727
 20
2.4556049889
 30
0.0
 11
0.3265376868
 21
-0.048333426
 31
0.0
 40
0.4912731492
 41
1.6573724174
 42
2.3076389184
  0
ELLIPSE
  5
350
100
AcDbEntity
  8
RACCORDO
100
AcDbEllipse
 62
7
  6
CONTINUOUS
 10
-12.9618261899
 20
-0.4439883982
 30
0.0
 11
0.4997887139
 21
0.0239535316
 31
0.0
 40
0.6067642562
 41
-0.203605314
 42
-0.0290723622
  0
ELLIPSE
  5
351
100
AcDbEntity
  8
RACCORDO
100
AcDbEllipse
 62
7
  6
CONTINUOUS
 10
-12.9618261899
 20
25.3564723485
 30
0.0
 11
0.4997887139
 21
0.0239535316
 31
0.0
 40
0.6067642562
 41
-0.203605314
 42
-0.0290723621
  0
ELLIPSE
  5
352
100
AcDbEntity
  8
RACCORDO
100
AcDbEllipse
 62
7
  6
CONTINUOUS
 10
-12.9460926531
 20
-1.4390776172
 30
0.0
 11
0.1999154856
 21
0.0095814127
 31
0.0
 40
0.6067642562
 41
-0.8057439059
 42
-0.203605314
  0
ELLIPSE
  5
353
100
AcDbEntity
  8
RACCORDO
100
AcDbEllipse
 62
7
  6
CONTINUOUS
 10
-12.9460926531
 20
24.3613831294
 30
0.0
 11
0.1999154856
 21
0.0095814127
 31
0.0
 40
0.6067642562
 41
-0.8057439059
 42
-0.203605314
  0
ELLIPSE
  5
354
100
AcDbEntity
  8
RACCORDO
100
AcDbEllipse
 62
7
  6
CONTINUOUS
 10
-16.8701246762
 20
-2.0179426366
 30
0.0
 11
0.1999444062
 21
-0.00862956
 31
0.0
 40
0.5464172455
 41
-0.8899056226
 42
-0.7792725691
  0
ELLIPSE
  5
355
100
AcDbEntity
  8
RACCORDO
100
AcDbEllipse
 62
7
  6
CONTINUOUS
 10
-16.8701246762
 20
23.7825181101
 30
0.0
 11
0.1999444062
 21
-0.00862956
 31
0.0
 40
0.5464172455
 41
-0.8899056226
 42
-0.7792725691
  0
ELLIPSE
  5
356
100
AcDbEntity
  8
RACCORDO
100
AcDbEllipse
 62
7
  6
CONTINUOUS
 10
-15.7782099806
 20
-11.60592816
 30
0.0
 11
-0.1000352924
 21
0.1732550566
 31
0.0
 40
0.5771558487
 41
-3.1241453804
 42
-2.3563950755
  0
ELLIPSE
  5
357
100
AcDbEntity
  8
RACCORDO
100
AcDbEllipse
 62
7
  6
CONTINUOUS
 10
-15.7782099806
 20
-9.4888558056
 30
0.0
 11
-0.1000048364
 21
0.1732022883
 31
0.0
 40
0.5775075436
 41
-2.3560905478
 42
-0.7855988075
  0
ELLIPSE
  5
358
100
AcDbEntity
  8
RACCORDO
100
AcDbEllipse
 62
7
  6
CONTINUOUS
 10
-15.7782099806
 20
29.2175856796
 30
0.0
 11
-0.1000352924
 21
0.1732550566
 31
0.0
 40
0.5771558487
 41
-3.1241453804
 42
-2.3563950755
  0
ELLIPSE
  5
359
100
AcDbEntity
  8
RACCORDO
100
AcDbEllipse
 62
7
  6
CONTINUOUS
 10
-15.7782099806
 20
1.2943022133
 30
0.0
 11
-0.1000352924
 21
0.1732550566
 31
0.0
 40
0.5771558487
 41
-3.1241453804
 42
-2.3563950755
  0
ELLIPSE
  5
35A
100
AcDbEntity
  8
RACCORDO
100
AcDbEllipse
 62
7
  6
CONTINUOUS
 10
-15.7782099806
 20
3.4113745678
 30
0.0
 11
-0.1000048364
 21
0.1732022883
 31
0.0
 40
0.5775075436
 41
-2.3560905478
 42
-0.7855988075
  0
ELLIPSE
  5
35B
100
AcDbEntity
  8
RACCORDO
100
AcDbEllipse
 62
7
  6
CONTINUOUS
 10
-15.7782099806
 20
16.3173553063
 30
0.0
 11
-0.1000352924
 21
0.1732550566
 31
0.0
 40
0.5771558487
 41
-3.1241453804
 42
-2.3563950755
  0
ELLIPSE
  5
35C
100
AcDbEntity
  8
RACCORDO
100
AcDbEllipse
 62
7
  6
CONTINUOUS
 10
-15.7782099806
 20
18.4344276608
 30
0.0
 11
-0.1000048364
 21
0.1732022883
 31
0.0
 40
0.5775075436
 41
-2.3560905478
 42
-0.7855988075
  0
ELLIPSE
  5
35D
100
AcDbEntity
  8
RACCORDO
100
AcDbEllipse
 62
7
  6
CONTINUOUS
 10
4.173013358
 20
-24.3410881581
 30
0.0
 11
-0.1000048364
 21
0.1732022883
 31
0.0
 40
0.5775075436
 41
7.0686874129
 42
8.6391791532
  0
ELLIPSE
  5
35E
100
AcDbEntity
  8
RACCORDO
100
AcDbEllipse
 62
7
  6
CONTINUOUS
 10
8.1137202606
 20
-26.7636951644
 30
0.0
 11
0.1026656474
 21
0.17165654
 31
0.0
 40
0.5873179545
 41
0.0090366616
 42
0.5937702454
  0
ELLIPSE
  5
35F
100
AcDbEntity
  8
RACCORDO
100
AcDbEllipse
 62
7
  6
CONTINUOUS
 10
-14.0729194082
 20
23.5892389416
 30
0.0
 11
0.9995774279
 21
0.0479070633
 31
0.0
 40
0.6067642562
 41
1.541723938
 42
2.1962224075
  0
ELLIPSE
  5
360
100
AcDbEntity
  8
RACCORDO
100
AcDbEllipse
 62
7
  6
CONTINUOUS
 10
-14.0729194082
 20
-2.211221805
 30
0.0
 11
0.9995774279
 21
0.0479070633
 31
0.0
 40
0.6067642562
 41
1.541723938
 42
2.1962224075
  0
ELLIPSE
  5
361
100
AcDbEntity
  8
RACCORDO
100
AcDbEllipse
 62
7
  6
CONTINUOUS
 10
3.8926176221
 20
-24.3264834038
 30
0.0
 11
0.0974277822
 21
0.1746820465
 31
0.0
 40
0.5671693725
 41
5.4894081695
 42
6.8594916323
  0
ELLIPSE
  5
362
100
AcDbEntity
  8
RACCORDO
100
AcDbEllipse
 62
7
  6
CONTINUOUS
 10
8.6747870282
 20
-26.1235647683
 30
0.0
 11
0.2030379687
 21
0.0044557609
 31
0.0
 40
0.5761003798
 41
-0.6456206012
 42
0.7592664076
  0
ELLIPSE
  5
363
100
AcDbEntity
  8
RACCORDO
100
AcDbEllipse
 62
7
  6
CONTINUOUS
 10
-12.9618261899
 20
2.2250370578
 30
0.0
 11
0.4998610155
 21
-0.0215739
 31
0.0
 40
0.5464172455
 41
-0.1509540384
 42
0.8089770502
  0
ELLIPSE
  5
364
100
AcDbEntity
  8
RACCORDO
100
AcDbEllipse
 62
7
  6
CONTINUOUS
 10
-12.9460926531
 20
1.3281409187
 30
0.0
 11
0.1999444062
 21
-0.00862956
 31
0.0
 40
0.5464172455
 41
-0.7530926303
 42
-0.1509540384
  0
ELLIPSE
  5
365
100
AcDbEntity
  8
RACCORDO
100
AcDbEllipse
 62
7
  6
CONTINUOUS
 10
-12.9460926531
 20
27.1286016654
 30
0.0
 11
0.1999444062
 21
-0.00862956
 31
0.0
 40
0.5464172455
 41
-0.7530926303
 42
-0.1509540384
  0
ELLIPSE
  5
366
100
AcDbEntity
  8
RACCORDO
100
AcDbEllipse
 62
7
  6
CONTINUOUS
 10
-16.0290020956
 20
-4.8602772521
 30
0.0
 11
0.1999154856
 21
0.0095814127
 31
0.0
 40
0.6067642562
 41
-0.7970172597
 42
0.7563257746
  0
ELLIPSE
  5
367
100
AcDbEntity
  8
RACCORDO
100
AcDbEllipse
 62
7
  6
CONTINUOUS
 10
-16.8701246762
 20
-5.4058299127
 30
0.0
 11
0.1999154856
 21
0.0095814127
 31
0.0
 40
0.6067642562
 41
-0.9425568983
 42
-0.8319238447
  0
ELLIPSE
  5
368
100
AcDbEntity
  8
RACCORDO
100
AcDbEllipse
 62
7
  6
CONTINUOUS
 10
-16.0290020956
 20
20.9401834946
 30
0.0
 11
0.1999154856
 21
0.0095814127
 31
0.0
 40
0.6067642562
 41
-0.7970172597
 42
0.7563257746
  0
ELLIPSE
  5
369
100
AcDbEntity
  8
RACCORDO
100
AcDbEllipse
 62
7
  6
CONTINUOUS
 10
-16.8701246762
 20
20.394630834
 30
0.0
 11
0.1999154856
 21
0.0095814127
 31
0.0
 40
0.6067642562
 41
-0.9425568983
 42
-0.8319238447
  0
ELLIPSE
  5
36A
100
AcDbEntity
  8
RACCORDO
100
AcDbEllipse
 62
7
  6
CONTINUOUS
 10
-14.0729194082
 20
26.4981455911
 30
0.0
 11
0.9997220309
 21
-0.0431478001
 31
0.0
 40
0.5464172455
 41
1.5943752136
 42
2.2488736831
  0
ELLIPSE
  5
36B
100
AcDbEntity
  8
RACCORDO
100
AcDbEllipse
 62
7
  6
CONTINUOUS
 10
-14.0729194082
 20
0.6976848444
 30
0.0
 11
0.9997220309
 21
-0.0431478001
 31
0.0
 40
0.5464172455
 41
1.5943752136
 42
2.2488736831
  0
ENDSEC
  0
SECTION
  2
OBJECTS
  0
DICTIONARY
  5
C
100
AcDbDictionary
280
0
281
1
  3
ACAD_GROUP
350
D
  3
ACAD_MLINESTYLE
350
17
  3
ACAD_LAYOUT
350
1A
  3
ACAD_PLOTSETTINGS
350
19
  3
ACAD_PLOTSTYLENAME
350
E
  0
DICTIONARY
  5
D
102
{ACAD_REACTORS
330
C
102
}
100
AcDbDictionary
280
0
281
1
  0
ACDBDICTIONARYWDFLT
  5
E
102
{ACAD_REACTORS
330
C
102
}
100
AcDbDictionary
281
1
  3
Normal
350
F
100
AcDbDictionaryWithDefault
340
F
  0
DICTIONARY
  5
17
102
{ACAD_REACTORS
330
C
102
}
100
AcDbDictionary
280
0
281
1
  3
Standard
350
18
  0
DICTIONARY
  5
19
102
{ACAD_REACTORS
330
C
102
}
100
AcDbDictionary
281
1
  0
DICTIONARY
  5
1A
102
{ACAD_REACTORS
330
C
102
}
100
AcDbDictionary
281
1
  3
Model
350
36C
  3
Layout1
350
36D
  0
ACDBPLACEHOLDER
  5
F
102
{ACAD_REACTORS
330
E
102
}
  0
MLINESTYLE
  5
18
102
{ACAD_REACTORS
330
17
102
}
100
AcDbMlineStyle
  2
STANDARD
 70
0
  3

 62
256
 51
90.0
 52
90.0
 71
2
 49
0.5
 62
256
  6
BYLAYER
 49
-0.5
 62
256
  6
BYLAYER
  0
LAYOUT
  5
36C
102
{ACAD_REACTORS
330
1A
102
}
100
AcDbPlotSettings
  1

  2
none_device
  4
ISO_A4_(297.00_x_210.00_MM)
  6

 40
0.0
 41
0.0
 42
0.0
 43
0.0
 44
297.0
 45
210.0
 46
0.0
 47
0.0
 48
0.0
 49
0.0
140
0.0
141
0.0
142
1.0
143
1.0
 70
1024
 72
1
 73
0
 74
0
  7

 75
0
147
1.0
148
0.0
149
0.0
100
AcDbLayout
  1
Model
 70
0
 71
0
 10
0.0
 20
0.0
 11
297.0
 21
210.0
 12
0.0
 22
0.0
 32
0.0
 14
0.0
 24
0.0
 34
0.0
 15
0.0
 25
0.0
 35
0.0
146
0.0
 13
0.0
 23
0.0
 33
0.0
 16
1.0
 26
0.0
 36
0.0
 17
0.0
 27
1.0
 37
0.0
 76
0
330
214
345
0
346
0
  0
LAYOUT
  5
36D
102
{ACAD_REACTORS
330
1A
102
}
100
AcDbPlotSettings
  1

  2
none_device
  4
ISO_A4_(297.00_x_210.00_MM)
  6

 40
0.0
 41
0.0
 42
0.0
 43
0.0
 44
297.0
 45
210.0
 46
0.0
 47
0.0
 48
0.0
 49
0.0
140
0.0
141
0.0
142
1.0
143
1.0
 70
0
 72
1
 73
0
 74
0
  7

 75
0
147
1.0
148
0.0
149
0.0
100
AcDbLayout
  1
Layout1
 70
0
 71
1
 10
0.0
 20
0.0
 11
297.0
 21
210.0
 12
0.0
 22
0.0
 32
0.0
 14
0.0
 24
0.0
 34
0.0
 15
0.0
 25
0.0
 35
0.0
146
0.0
 13
0.0
 23
0.0
 33
0.0
 16
1.0
 26
0.0
 36
0.0
 17
0.0
 27
1.0
 37
0.0
 76
0
330
215
345
0
346
0
  0
ENDSEC
  0
EOF
