  0
SECTION
  2
HEADER
  9
$ACADVER
  1
AC1024
  9
$DWGCODEPAGE
  3
ANSI_1252
  9
$EXTMAX
 10
297.0
 20
210.0
 30
0.0
  9
$EXTMIN
 10
0.0
 20
0.0
 30
0.0
  9
$LIMMIN
 10
0.0
 20
0.0
  9
$LIMMAX
 10
297.0
 20
210.0
  9
$VIEWCTR
 10
148.5
 20
105.0
  9
$VIEWSIZE
 40
210.0
  9
$CLAYER
  8
0
  9
$LTSCALE
 40
16.335
  9
$CELTYPE
  6
BYLAYER
  9
$DIMSCALE
 40
1.0
  9
$DIMASZ
 40
3.0
  9
$DIMEXO
 40
0.5
  9
$DIMDLI
 40
11.286
  9
$DIMEXE
 40
1.5
  9
$DIMCEN
 40
2.673
  9
$DIMLFAC
 40
1.0
  9
$DIMBLK
  1
_FILLED
  9
$DIMALT
 70
0
  9
$DIMALTF
 40
0.0393700787
  9
$DIMTXT
 40
3.0
  9
$DIMTOL
 70
1
  9
$DIMLIM
 70
0
  9
$DIMTFAC
 40
1.0
  9
$DIMTP
 40
0.01
  9
$DIMTM
 40
0.01
  9
$DIMGAP
 40
0.625
  9
$DIMDSEP
 70
44
  9
$AUNITS
 70
0
  9
$PDMODE
 70
3
  9
$PDSIZE
 40
3.0
  9
$HANDSEED
  5
342
  9
$TILEMODE
 70
1
  9
$MEASUREMENT
 70
1
  9
$INSUNITS
 70
4
  0
ENDSEC
  0
SECTION
  2
CLASSES
  0
CLASS
  1
ACDBDICTIONARYWDFLT
  2
AcDbDictionaryWithDefault
  3
AutoCAD 2000
 90
0
 91
1
280
0
281
0
  0
CLASS
  1
ACDBPLACEHOLDER
  2
AcDbPlaceHolder
  3
AutoCAD 2000
 90
0
 91
1
280
0
281
0
  0
CLASS
  1
LAYOUT
  2
AcDbLayout
  3
AutoCAD 2000
 90
0
 91
0
280
0
281
0
  0
ENDSEC
  0
SECTION
  2
TABLES
  0
TABLE
  2
VPORT
  5
8
100
AcDbSymbolTable
 70
2
  0
VPORT
  5
1F4
100
AcDbSymbolTableRecord
100
AcDbViewportTableRecord
  2
*ACTIVE
 70
0
 10
0.0
 20
0.0
 11
1.0
 21
1.0
 12
148.5
 22
105.0
 13
0.0
 23
0.0
 14
1.0
 24
1.0
 15
0.0
 25
0.0
 16
0.0
 26
0.0
 36
1.0
 17
0.0
 27
0.0
 37
0.0
 40
210.0
 41
1.4142857143
 42
50.0
 43
0.0
 44
0.0
 50
0.0
 51
0.0
 71
0
 72
100
 73
1
 74
1
 75
0
 76
0
 77
0
 78
0
  0
ENDTAB
  0
TABLE
  2
LTYPE
  5
5
100
AcDbSymbolTable
 70
6
  0
LTYPE
  5
14
100
AcDbSymbolTableRecord
100
AcDbLinetypeTableRecord
  2
BYBLOCK
 70
0
  3

 72
65
 73
0
 40
0.0
  0
LTYPE
  5
15
100
AcDbSymbolTableRecord
100
AcDbLinetypeTableRecord
  2
BYLAYER
 70
0
  3

 72
65
 73
0
 40
0.0
  0
LTYPE
  5
16
100
AcDbSymbolTableRecord
100
AcDbLinetypeTableRecord
  2
CONTINUOUS
 70
64
  3
Solid line
 72
65
 73
0
 40
0.0
  0
LTYPE
  5
1F5
100
AcDbSymbolTableRecord
100
AcDbLinetypeTableRecord
  2
CENTER
 70
64
  3
____ _ ____ _ ____ _ ____ _ ____ _ ____ _ ____
 72
65
 73
4
 40
0.6
 49
0.375
 74
0
 49
-0.075
 74
0
 49
0.075
 74
0
 49
-0.075
 74
0
  0
LTYPE
  5
1F6
100
AcDbSymbolTableRecord
100
AcDbLinetypeTableRecord
  2
HIDDEN
 70
64
  3
- - - - - - - - - - - - - - - - - - - -
 72
65
 73
2
 40
0.2
 49
0.1
 74
0
 49
-0.1
 74
0
  0
LTYPE
  5
1F7
100
AcDbSymbolTableRecord
100
AcDbLinetypeTableRecord
  2
PHANTOM
 70
64
  3
_____ _ _ _____ _ _ _____ _ _ _____
 72
65
 73
6
 40
0.8
 49
0.45
 74
0
 49
-0.05
 74
0
 49
0.1
 74
0
 49
-0.05
 74
0
 49
0.1
 74
0
 49
-0.05
 74
0
  0
LTYPE
  5
1F8
100
AcDbSymbolTableRecord
100
AcDbLinetypeTableRecord
  2
DOT
 70
64
  3
. . . . . . . . . . . . . . . . . . . .
 72
65
 73
2
 40
0.2
 49
0.1
 74
0
 49
-0.1
 74
0
  0
LTYPE
  5
1F9
100
AcDbSymbolTableRecord
100
AcDbLinetypeTableRecord
  2
DASHED
 70
64
  3
- - - - - - - - - - - - - - - - - - - -
 72
65
 73
2
 40
0.2
 49
0.1
 74
0
 49
-0.1
 74
0
  0
ENDTAB
  0
TABLE
  2
LAYER
  5
2
100
AcDbSymbolTable
 70
36
  0
LAYER
  5
10
100
AcDbSymbolTableRecord
100
AcDbLayerTableRecord
  2
0
 70
0
 62
7
  6
CONTINUOUS
370
-3
390
F
  0
LAYER
  5
1FA
100
AcDbSymbolTableRecord
100
AcDbLayerTableRecord
  2
DEFAULT_1
 70
0
 62
7
  6
CENTER
370
-3
390
F
  0
LAYER
  5
1FB
100
AcDbSymbolTableRecord
100
AcDbLayerTableRecord
  2
DEFAULT_2
 70
0
 62
7
  6
HIDDEN
370
-3
390
F
  0
LAYER
  5
1FC
100
AcDbSymbolTableRecord
100
AcDbLayerTableRecord
  2
DEFAULT_3
 70
0
 62
7
  6
PHANTOM
370
-3
390
F
  0
LAYER
  5
1FD
100
AcDbSymbolTableRecord
100
AcDbLayerTableRecord
  2
ASSI
 70
0
 62
7
  6
CONTINUOUS
370
-3
390
F
  0
LAYER
  5
1FE
100
AcDbSymbolTableRecord
100
AcDbLayerTableRecord
  2
COORDINATE
 70
0
 62
7
  6
CONTINUOUS
370
-3
390
F
  0
LAYER
  5
1FF
100
AcDbSymbolTableRecord
100
AcDbLayerTableRecord
  2
COPY_PUBLISH
 70
0
 62
7
  6
CONTINUOUS
370
-3
390
F
  0
LAYER
  5
200
100
AcDbSymbolTableRecord
100
AcDbLayerTableRecord
  2
COSMETICI
 70
0
 62
7
  6
CONTINUOUS
370
-3
390
F
  0
LAYER
  5
201
100
AcDbSymbolTableRecord
100
AcDbLayerTableRecord
  2
CURVE
 70
0
 62
7
  6
CONTINUOUS
370
-3
390
F
  0
LAYER
  5
202
100
AcDbSymbolTableRecord
100
AcDbLayerTableRecord
  2
DRAFT
 70
0
 62
7
  6
CONTINUOUS
370
-3
390
F
  0
LAYER
  5
203
100
AcDbSymbolTableRecord
100
AcDbLayerTableRecord
  2
IMPORT_IGES
 70
0
 62
7
  6
CONTINUOUS
370
-3
390
F
  0
LAYER
  5
204
100
AcDbSymbolTableRecord
100
AcDbLayerTableRecord
  2
INTF_1
 70
0
 62
7
  6
CONTINUOUS
370
-3
390
F
  0
LAYER
  5
205
100
AcDbSymbolTableRecord
100
AcDbLayerTableRecord
  2
INTF_11
 70
0
 62
7
  6
CONTINUOUS
370
-3
390
F
  0
LAYER
  5
206
100
AcDbSymbolTableRecord
100
AcDbLayerTableRecord
  2
INTF_13
 70
0
 62
7
  6
CONTINUOUS
370
-3
390
F
  0
LAYER
  5
207
100
AcDbSymbolTableRecord
100
AcDbLayerTableRecord
  2
INTF_2
 70
0
 62
7
  6
CONTINUOUS
370
-3
390
F
  0
LAYER
  5
208
100
AcDbSymbolTableRecord
100
AcDbLayerTableRecord
  2
INTF_4
 70
0
 62
7
  6
CONTINUOUS
370
-3
390
F
  0
LAYER
  5
209
100
AcDbSymbolTableRecord
100
AcDbLayerTableRecord
  2
INTF_CYAN
 70
0
 62
7
  6
CONTINUOUS
370
-3
390
F
  0
LAYER
  5
20A
100
AcDbSymbolTableRecord
100
AcDbLayerTableRecord
  2
NOTE
 70
0
 62
7
  6
CONTINUOUS
370
-3
390
F
  0
LAYER
  5
20B
100
AcDbSymbolTableRecord
100
AcDbLayerTableRecord
  2
PIANI
 70
0
 62
7
  6
CONTINUOUS
370
-3
390
F
  0
LAYER
  5
20C
100
AcDbSymbolTableRecord
100
AcDbLayerTableRecord
  2
PUNTI
 70
0
 62
7
  6
CONTINUOUS
370
-3
390
F
  0
LAYER
  5
20D
100
AcDbSymbolTableRecord
100
AcDbLayerTableRecord
  2
RACCORDO
 70
0
 62
7
  6
CONTINUOUS
370
-3
390
F
  0
LAYER
  5
20E
100
AcDbSymbolTableRecord
100
AcDbLayerTableRecord
  2
RGB____0____0____0__
 70
0
 62
7
  6
CONTINUOUS
370
-3
390
F
  0
LAYER
  5
20F
100
AcDbSymbolTableRecord
100
AcDbLayerTableRecord
  2
SIMBOLI
 70
0
 62
7
  6
CONTINUOUS
370
-3
390
F
  0
LAYER
  5
210
100
AcDbSymbolTableRecord
100
AcDbLayerTableRecord
  2
SMUSSO
 70
0
 62
7
  6
CONTINUOUS
370
-3
390
F
  0
LAYER
  5
211
100
AcDbSymbolTableRecord
100
AcDbLayerTableRecord
  2
SNAPLINE
 70
0
 62
7
  6
CONTINUOUS
370
-3
390
F
  0
LAYER
  5
212
100
AcDbSymbolTableRecord
100
AcDbLayerTableRecord
  2
SUPERFICI
 70
0
 62
7
  6
CONTINUOUS
370
-3
390
F
  0
LAYER
  5
213
100
AcDbSymbolTableRecord
100
AcDbLayerTableRecord
  2
TRASH
 70
0
 62
7
  6
CONTINUOUS
370
-3
390
F
  0
ENDTAB
  0
TABLE
  2
STYLE
  5
3
100
AcDbSymbolTable
 70
1
  0
STYLE
  5
11
100
AcDbSymbolTableRecord
100
AcDbTextStyleTableRecord
  2
STANDARD
 70
0
 40
0.0
 41
0.8
 50
0.0
 71
0
 42
0.2
  3
txt
  4

  0
STYLE
  5
214
100
AcDbSymbolTableRecord
100
AcDbTextStyleTableRecord
  2
TEXTSTYLE_1
 70
0
 40
0.0
 41
0.8
 50
0.0
 71
0
 42
0.2
  3
gdt
  4

  0
ENDTAB
  0
TABLE
  2
VIEW
  5
6
100
AcDbSymbolTable
 70
0
  0
ENDTAB
  0
TABLE
  2
UCS
  5
7
100
AcDbSymbolTable
 70
0
  0
ENDTAB
  0
TABLE
  2
APPID
  5
9
100
AcDbSymbolTable
 70
1
  0
APPID
  5
215
100
AcDbSymbolTableRecord
100
AcDbRegAppTableRecord
  2
ACAD
 70
0
  0
ENDTAB
  0
TABLE
  2
BLOCK_RECORD
  5
1
100
AcDbSymbolTable
 70
0
  0
BLOCK_RECORD
  5
216
100
AcDbSymbolTableRecord
100
AcDbBlockTableRecord
  2
*Model_Space
  0
BLOCK_RECORD
  5
217
100
AcDbSymbolTableRecord
100
AcDbBlockTableRecord
  2
*Paper_Space
  0
BLOCK_RECORD
  5
218
100
AcDbSymbolTableRecord
100
AcDbBlockTableRecord
  2
_FILLED
  0
ENDTAB
  0
TABLE
  2
DIMSTYLE
  5
A
100
AcDbSymbolTable
 70
1
100
AcDbDimStyleTable
 71
0
  0
DIMSTYLE
105
219
100
AcDbSymbolTableRecord
100
AcDbDimStyleTableRecord
  2
STANDARD
 70
0
  3

  4

 40
1.0
 41
3.0
 42
0.5
 43
0.38
 44
1.5
 45
0.0
 46
0.0
 47
0.01
 48
0.01
140
3.0
141
0.0
142
0.0
143
25.4
144
1.0
145
0.0
146
1.0
147
0.625
 71
1
 72
0
 73
0
 74
0
 75
0
 76
0
 77
1
 78
8
 79
2
170
0
171
1
172
0
173
0
174
0
175
0
176
0
177
0
178
0
270
2
179
2
271
2
272
2
273
2
274
2
275
0
280
0
281
0
282
0
283
1
284
8
285
0
286
0
287
3
288
0
340
11
278
44
341
218
342
218
343
218
344
218
  0
ENDTAB
  0
ENDSEC
  0
SECTION
  2
BLOCKS
  0
BLOCK
  5
20
100
AcDbEntity
  8
0
100
AcDbBlockBegin
  2
*Model_Space
 70
0
 10
0.0
 20
0.0
 30
0.0
  3
*Model_Space
  1

  0
ENDBLK
  5
21
100
AcDbEntity
  8
0
100
AcDbBlockEnd
  0
BLOCK
  5
1C
100
AcDbEntity
  8
0
100
AcDbBlockBegin
  2
*Paper_Space
 70
0
 10
0.0
 20
0.0
 30
0.0
  3
*Paper_Space
  1

  0
ENDBLK
  5
1D
100
AcDbEntity
  8
0
100
AcDbBlockEnd
  0
BLOCK
  5
21A
100
AcDbEntity
  8
0
100
AcDbBlockBegin
  2
_FILLED
 70
64
 10
0.0
 20
0.0
 30
0.0
  3
_FILLED
  1

  0
SOLID
  5
21B
100
AcDbEntity
  8
0
  6
BYBLOCK
 62
0
100
AcDbTrace
 10
0.0
 20
0.0
 30
0.0
 11
-1.0
 21
0.3166666667
 31
0.0
 12
-1.0
 22
-0.3166666667
 32
0.0
 13
-1.0
 23
-0.3166666667
 33
0.0
  0
ENDBLK
  5
21C
100
AcDbEntity
  8
0
  6
BYBLOCK
 62
0
100
AcDbBlockEnd
  0
ENDSEC
  0
SECTION
  2
ENTITIES
  0
LWPOLYLINE
  5
21D
100
AcDbEntity
  8
ASSI
100
AcDbPolyline
 62
7
  6
CONTINUOUS
 90
15
 70
0
 10
-32.2403411594
 20
52.3675382759
 10
-32.2929367368
 20
52.3273021164
 10
-32.3408398806
 20
52.284382803
 10
-32.3862163504
 20
52.2370339728
 10
-32.4286543833
 20
52.1853983924
 10
-32.4677016544
 20
52.1297802033
 10
-32.5031175944
 20
52.0703277589
 10
-32.5346714572
 20
52.0072210814
 10
-32.5620822857
 20
51.94083588
 10
-32.5852195248
 20
51.8713570956
 10
-32.6039910765
 20
51.7989101498
 10
-32.6182783491
 20
51.7237317478
 10
-32.6280074088
 20
51.6459745653
 10
-32.6331212213
 20
51.5657535733
 10
-32.6339403846
 20
51.5175128195
  0
LINE
  5
21E
100
AcDbEntity
  8
ASSI
100
AcDbLine
 62
7
  6
CONTINUOUS
 10
-32.2408014576
 20
52.3672151412
 30
0.0
 11
-30.0719160509
 21
53.8965262906
 31
0.0
  0
LINE
  5
21F
100
AcDbEntity
  8
ASSI
100
AcDbLine
 62
250
  6
CONTINUOUS
 10
-31.4463062236
 20
52.3221489086
 30
0.0
 11
-29.2846159668
 21
53.8463866582
 31
0.0
  0
LINE
  5
220
100
AcDbEntity
  8
ASSI
100
AcDbLine
 62
250
  6
CONTINUOUS
 10
-28.0015131481
 20
53.9167185672
 30
0.0
 11
-28.7428161426
 21
53.53355823
 31
0.0
  0
LINE
  5
221
100
AcDbEntity
  8
ASSI
100
AcDbLine
 62
7
  6
CONTINUOUS
 10
-28.948262256
 20
53.6521802411
 30
0.0
 11
-28.3310726342
 21
53.9575707201
 31
0.0
  0
LWPOLYLINE
  5
222
100
AcDbEntity
  8
ASSI
100
AcDbPolyline
 62
7
  6
CONTINUOUS
 90
24
 70
0
 10
-32.6339007327
 20
-17.6203773965
 10
-32.6307617257
 20
-17.7065989004
 10
-32.622762556
 20
-17.7932415316
 10
-32.6100827986
 20
-17.8801307777
 10
-32.5928974787
 20
-17.9670357327
 10
-32.5714184481
 20
-18.0535795756
 10
-32.5458271591
 20
-18.1395306176
 10
-32.5162760489
 20
-18.2247392852
 10
-32.4829601172
 20
-18.308870407
 10
-32.4460781084
 20
-18.3916390771
 10
-32.4057479592
 20
-18.4729207392
 10
-32.3620683984
 20
-18.5525792321
 10
-32.3151728944
 20
-18.6303979405
 10
-32.2651804347
 20
-18.7061522445
 10
-32.2121617136
 20
-18.7796903338
 10
-32.1561619692
 20
-18.850844788
 10
-32.0973305595
 20
-18.9193050159
 10
-32.0358580382
 20
-18.9847305291
 10
-31.97179639
 20
-19.0469135803
 10
-31.9052557932
 20
-19.1055833666
 10
-31.8364558935
 20
-19.1603630321
 10
-31.7655124301
 20
-19.2109835876
 10
-31.6924878364
 20
-19.2572022083
 10
-31.6776464671
 20
-19.2658872767
  0
LINE
  5
223
100
AcDbEntity
  8
ASSI
100
AcDbLine
 62
7
  6
CONTINUOUS
 10
-17.60797358
 20
30.1509752015
 30
0.0
 11
-17.6078672268
 21
30.1510324444
 31
0.0
  0
LINE
  5
224
100
AcDbEntity
  8
ASSI
100
AcDbLine
 62
250
  6
CONTINUOUS
 10
-17.7142269613
 20
29.9205735063
 30
0.0
 11
-17.4353991811
 21
30.0705180632
 31
0.0
  0
LWPOLYLINE
  5
225
100
AcDbEntity
  8
ASSI
100
AcDbPolyline
 62
7
  6
CONTINUOUS
 90
11
 70
0
 10
-17.6141384378
 20
30.1485518779
 10
-17.6141036491
 20
30.1485620246
 10
-17.6121176028
 20
30.1487434516
 10
-17.607442193
 20
30.1487346746
 10
-17.599807344
 20
30.1480362841
 10
-17.5890633237
 20
30.1461292154
 10
-17.57557944
 20
30.1426240734
 10
-17.5600323156
 20
30.1373665402
 10
-17.5428423053
 20
30.1302838126
 10
-17.5241771557
 20
30.1212689006
 10
-17.5070685006
 20
30.1118990401
  0
LWPOLYLINE
  5
226
100
AcDbEntity
  8
ASSI
100
AcDbPolyline
 62
7
  6
CONTINUOUS
 90
15
 70
0
 10
28.1900513703
 20
-53.83274582
 10
28.2297490875
 20
-53.8548293314
 10
28.3019349682
 20
-53.8907720001
 10
28.3743007904
 20
-53.9214612083
 10
28.4467192034
 20
-53.9468899704
 10
28.5190245485
 20
-53.9670488687
 10
28.5909512608
 20
-53.9819175845
 10
28.6623441807
 20
-53.9915121396
 10
28.7329762995
 20
-53.9958561621
 10
28.8023775007
 20
-53.9949991181
 10
28.8702731649
 20
-53.9890467673
 10
28.9364156325
 20
-53.9781396581
 10
29.0003117087
 20
-53.9625165158
 10
29.0616270754
 20
-53.9424594982
 10
29.1231288041
 20
-53.9168870452
  0
LINE
  5
227
100
AcDbEntity
  8
ASSI
100
AcDbLine
 62
7
  6
CONTINUOUS
 10
-32.6339403847
 20
51.5175206975
 30
0.0
 11
-32.6339007327
 21
-17.6203773965
 31
0.0
  0
LINE
  5
228
100
AcDbEntity
  8
ASSI
100
AcDbLine
 62
250
  6
CONTINUOUS
 10
-32.4874937753
 20
51.3133834008
 30
0.0
 11
-32.4874937753
 21
-17.8138554132
 31
0.0
  0
LINE
  5
229
100
AcDbEntity
  8
ASSI
100
AcDbLine
 62
7
  6
CONTINUOUS
 10
-32.6339403847
 20
-17.6097181345
 30
0.0
 11
-32.6339402615
 21
-17.6095154653
 31
0.0
  0
LINE
  5
22A
100
AcDbEntity
  8
ASSI
100
AcDbLine
 62
250
  6
CONTINUOUS
 10
-16.3086326143
 20
28.7945272216
 30
0.0
 11
-15.8941991639
 21
29.0678421846
 31
0.0
  0
LINE
  5
22B
100
AcDbEntity
  8
ASSI
100
AcDbLine
 62
7
  6
CONTINUOUS
 10
-15.9322672437
 20
28.9782566704
 30
0.0
 11
-16.2525285572
 21
28.7670473461
 31
0.0
  0
LINE
  5
22C
100
AcDbEntity
  8
ASSI
100
AcDbLine
 62
7
  6
CONTINUOUS
 10
-16.7355353797
 20
24.516041658
 30
0.0
 11
-16.3086326143
 21
24.7711349064
 31
0.0
  0
LINE
  5
22D
100
AcDbEntity
  8
ASSI
100
AcDbLine
 62
7
  6
CONTINUOUS
 10
-13.2073009743
 20
27.125047809
 30
0.0
 11
-13.4439704703
 21
26.9979407322
 31
0.0
  0
LINE
  5
22E
100
AcDbEntity
  8
ASSI
100
AcDbLine
 62
7
  6
CONTINUOUS
 10
-14.9860698466
 20
26.9138817755
 30
0.0
 11
-16.2525005744
 21
26.3979199857
 31
0.0
  0
LINE
  5
22F
100
AcDbEntity
  8
ASSI
100
AcDbLine
 62
7
  6
CONTINUOUS
 10
-14.2445004712
 20
28.2281331395
 30
0.0
 11
-16.2525005744
 21
27.635566735
 31
0.0
  0
LINE
  5
230
100
AcDbEntity
  8
ASSI
100
AcDbLine
 62
250
  6
CONTINUOUS
 10
-14.1689598116
 20
28.1845169094
 30
0.0
 11
-16.2525005744
 21
27.5696582465
 31
0.0
  0
LINE
  5
231
100
AcDbEntity
  8
ASSI
100
AcDbLine
 62
7
  6
CONTINUOUS
 10
-31.6778147489
 20
-19.2657902436
 30
0.0
 11
28.1900588678
 21
-53.8327501492
 31
0.0
  0
LINE
  5
232
100
AcDbEntity
  8
ASSI
100
AcDbLine
 62
250
  6
CONTINUOUS
 10
-31.7813560594
 20
-19.036921813
 30
0.0
 11
28.0865175417
 21
-53.6038817096
 31
0.0
  0
LINE
  5
233
100
AcDbEntity
  8
ASSI
100
AcDbLine
 62
7
  6
CONTINUOUS
 10
-13.2073009743
 20
24.2569388117
 30
0.0
 11
-13.4439704703
 21
24.1107458868
 31
0.0
  0
LINE
  5
234
100
AcDbEntity
  8
ASSI
100
AcDbLine
 62
7
  6
CONTINUOUS
 10
-16.3086326143
 20
19.9343567292
 30
0.0
 11
-16.7355353817
 21
19.6789577775
 31
0.0
  0
LINE
  5
235
100
AcDbEntity
  8
ASSI
100
AcDbLine
 62
7
  6
CONTINUOUS
 10
-14.9860698466
 20
23.9561744606
 30
0.0
 11
-16.9186663069
 21
23.0310872481
 31
0.0
  0
LINE
  5
236
100
AcDbEntity
  8
ASSI
100
AcDbLine
 62
7
  6
CONTINUOUS
 10
-12.9155527041
 20
27.4608153544
 30
0.0
 11
-12.9296000025
 21
27.4167064412
 31
0.0
  0
LINE
  5
237
100
AcDbEntity
  8
ASSI
100
AcDbLine
 62
250
  6
CONTINUOUS
 10
-16.3086326143
 20
15.8942968483
 30
0.0
 11
-15.8941991639
 21
16.1676118113
 31
0.0
  0
LINE
  5
238
100
AcDbEntity
  8
ASSI
100
AcDbLine
 62
7
  6
CONTINUOUS
 10
-15.9322672437
 20
16.0780262971
 30
0.0
 11
-16.2525285572
 21
15.8668169728
 31
0.0
  0
LINE
  5
239
100
AcDbEntity
  8
ASSI
100
AcDbLine
 62
250
  6
CONTINUOUS
 10
-16.0355128703
 20
18.5010150937
 30
0.0
 11
-16.2525005744
 21
18.3846415817
 31
0.0
  0
LINE
  5
23A
100
AcDbEntity
  8
ASSI
100
AcDbLine
 62
250
  6
CONTINUOUS
 10
-15.8941991639
 20
18.256053535
 30
0.0
 11
-16.3086326143
 21
18.0337871337
 31
0.0
  0
LINE
  5
23B
100
AcDbEntity
  8
ASSI
100
AcDbLine
 62
250
  6
CONTINUOUS
 10
-16.2097596231
 20
18.6016229849
 30
0.0
 11
-16.2525005744
 21
18.5832939306
 31
0.0
  0
LINE
  5
23C
100
AcDbEntity
  8
ASSI
100
AcDbLine
 62
250
  6
CONTINUOUS
 10
13.8743187207
 20
-32.1320613178
 30
0.0
 11
-17.5691572384
 21
-13.9769923783
 31
0.0
  0
LINE
  5
23D
100
AcDbEntity
  8
ASSI
100
AcDbLine
 62
250
  6
CONTINUOUS
 10
14.0827485405
 20
-31.7668127747
 30
0.0
 11
-17.3607274186
 21
-13.6117438353
 31
0.0
  0
LINE
  5
23E
100
AcDbEntity
  8
ASSI
100
AcDbLine
 62
7
  6
CONTINUOUS
 10
-16.5166523434
 20
-13.2613437827
 30
0.0
 11
-16.5108422268
 21
-13.2662264782
 31
0.0
  0
LWPOLYLINE
  5
23F
100
AcDbEntity
  8
ASSI
100
AcDbPolyline
 62
7
  6
CONTINUOUS
 90
7
 70
0
 10
-16.5262666259
 20
-13.2527700674
 10
-16.5247349418
 20
-13.2541725897
 10
-16.5231829795
 20
-13.2555799629
 10
-16.5215955364
 20
-13.2570049612
 10
-16.5199593489
 20
-13.2584579614
 10
-16.5182967796
 20
-13.259917521
 10
-16.5166523434
 20
-13.2613437827
  0
LWPOLYLINE
  5
240
100
AcDbEntity
  8
ASSI
100
AcDbPolyline
 62
7
  6
CONTINUOUS
 90
13
 70
0
 10
-16.5453511442
 20
-13.2342148822
 10
-16.5436911339
 20
-13.2359070138
 10
-16.5420330827
 20
-13.2375823156
 10
-16.5403785424
 20
-13.2392393137
 10
-16.5387221325
 20
-13.2408834269
 10
-16.5370706067
 20
-13.2425079871
 10
-16.535443938
 20
-13.2440937234
 10
-16.5338502904
 20
-13.2456334035
 10
-16.5322830865
 20
-13.2471341032
 10
-16.5307404219
 20
-13.2485982328
 10
-16.5292397123
 20
-13.2500100204
 10
-16.5277652784
 20
-13.2513849675
 10
-16.5272144949
 20
-13.2518940182
  0
LINE
  5
241
100
AcDbEntity
  8
ASSI
100
AcDbLine
 62
7
  6
CONTINUOUS
 10
-16.5486732991
 20
-13.2307836801
 30
0.0
 11
-16.5453511442
 21
-13.2342148822
 31
0.0
  0
LINE
  5
242
100
AcDbEntity
  8
ASSI
100
AcDbLine
 62
7
  6
CONTINUOUS
 10
-16.5520019836
 20
-13.2272855298
 30
0.0
 11
-16.5486732991
 21
-13.2307836801
 31
0.0
  0
LINE
  5
243
100
AcDbEntity
  8
ASSI
100
AcDbLine
 62
7
  6
CONTINUOUS
 10
-16.5553362419
 20
-13.2237205819
 30
0.0
 11
-16.5520019836
 21
-13.2272855298
 31
0.0
  0
LINE
  5
244
100
AcDbEntity
  8
ASSI
100
AcDbLine
 62
7
  6
CONTINUOUS
 10
-16.5586762069
 20
-13.2200877246
 30
0.0
 11
-16.5553362419
 21
-13.2237205819
 31
0.0
  0
LINE
  5
245
100
AcDbEntity
  8
ASSI
100
AcDbLine
 62
7
  6
CONTINUOUS
 10
-16.5620195385
 20
-13.2163884655
 30
0.0
 11
-16.5586762069
 21
-13.2200877246
 31
0.0
  0
LINE
  5
246
100
AcDbEntity
  8
ASSI
100
AcDbLine
 62
7
  6
CONTINUOUS
 10
-16.5653647271
 20
-13.2126234238
 30
0.0
 11
-16.5620195385
 21
-13.2163884655
 31
0.0
  0
LINE
  5
247
100
AcDbEntity
  8
ASSI
100
AcDbLine
 62
7
  6
CONTINUOUS
 10
-16.5687115097
 20
-13.2087917784
 30
0.0
 11
-16.5653647271
 21
-13.2126234238
 31
0.0
  0
LINE
  5
248
100
AcDbEntity
  8
ASSI
100
AcDbLine
 62
7
  6
CONTINUOUS
 10
-16.5720607492
 20
-13.2048912912
 30
0.0
 11
-16.5687115097
 21
-13.2087917784
 31
0.0
  0
LINE
  5
249
100
AcDbEntity
  8
ASSI
100
AcDbLine
 62
7
  6
CONTINUOUS
 10
-16.5754124748
 20
-13.2009205349
 30
0.0
 11
-16.5720607492
 21
-13.2048912912
 31
0.0
  0
LINE
  5
24A
100
AcDbEntity
  8
ASSI
100
AcDbLine
 62
7
  6
CONTINUOUS
 10
-16.5787681649
 20
-13.1968761979
 30
0.0
 11
-16.5754124748
 21
-13.2009205349
 31
0.0
  0
LINE
  5
24B
100
AcDbEntity
  8
ASSI
100
AcDbLine
 62
7
  6
CONTINUOUS
 10
-16.5821299448
 20
-13.1927539193
 30
0.0
 11
-16.5787681649
 21
-13.1968761979
 31
0.0
  0
LINE
  5
24C
100
AcDbEntity
  8
ASSI
100
AcDbLine
 62
7
  6
CONTINUOUS
 10
-16.5854985825
 20
-13.1885507268
 30
0.0
 11
-16.5821299448
 21
-13.1927539193
 31
0.0
  0
LINE
  5
24D
100
AcDbEntity
  8
ASSI
100
AcDbLine
 62
7
  6
CONTINUOUS
 10
-16.5888764573
 20
-13.1842613661
 30
0.0
 11
-16.5854985825
 21
-13.1885507268
 31
0.0
  0
LINE
  5
24E
100
AcDbEntity
  8
ASSI
100
AcDbLine
 62
7
  6
CONTINUOUS
 10
-16.5922663836
 20
-13.179879634
 30
0.0
 11
-16.5888764573
 21
-13.1842613661
 31
0.0
  0
LWPOLYLINE
  5
24F
100
AcDbEntity
  8
ASSI
100
AcDbPolyline
 62
7
  6
CONTINUOUS
 90
6
 70
0
 10
-16.9186688513
 20
-6.022162945
 10
-16.9186649963
 20
-6.0229808131
 10
-16.9181289109
 20
-6.0303964838
 10
-16.9169156885
 20
-6.0367062002
 10
-16.9154130852
 20
-6.0415627794
 10
-16.9146442074
 20
-6.0434783557
  0
LWPOLYLINE
  5
250
100
AcDbEntity
  8
ASSI
100
AcDbPolyline
 62
7
  6
CONTINUOUS
 90
6
 70
0
 10
-16.9186688513
 20
19.7782978017
 10
-16.9186649963
 20
19.7774799335
 10
-16.9181289109
 20
19.7700642628
 10
-16.9169156885
 20
19.7637545465
 10
-16.9154130852
 20
19.7588979672
 10
-16.9146442074
 20
19.7569823909
  0
LINE
  5
251
100
AcDbEntity
  8
ASSI
100
AcDbLine
 62
250
  6
CONTINUOUS
 10
-18.1347565067
 20
-12.9973457099
 30
0.0
 11
-18.1347565067
 21
29.9226924638
 31
0.0
  0
LINE
  5
252
100
AcDbEntity
  8
ASSI
100
AcDbLine
 62
250
  6
CONTINUOUS
 10
-17.7142269613
 20
-12.9994646675
 30
0.0
 11
-17.7142269613
 21
29.9205735063
 31
0.0
  0
LINE
  5
253
100
AcDbEntity
  8
ASSI
100
AcDbLine
 62
7
  6
CONTINUOUS
 10
-17.3507354364
 20
30.0216342781
 30
0.0
 11
-17.3507354364
 21
-12.7895899126
 31
0.0
  0
LINE
  5
254
100
AcDbEntity
  8
ASSI
100
AcDbLine
 62
250
  6
CONTINUOUS
 10
-16.9747983469
 20
-6.1041754575
 30
0.0
 11
-16.9747983469
 21
-1.5878583475
 31
0.0
  0
LINE
  5
255
100
AcDbEntity
  8
ASSI
100
AcDbLine
 62
250
  6
CONTINUOUS
 10
-16.9747983469
 20
19.6962852891
 30
0.0
 11
-16.9747983469
 21
24.2126023992
 31
0.0
  0
LINE
  5
256
100
AcDbEntity
  8
ASSI
100
AcDbLine
 62
7
  6
CONTINUOUS
 10
-16.9186663069
 20
-6.0222893083
 30
0.0
 11
-16.9186663069
 21
-1.5093095643
 31
0.0
  0
LINE
  5
257
100
AcDbEntity
  8
ASSI
100
AcDbLine
 62
7
  6
CONTINUOUS
 10
-16.9186663069
 20
19.7781714383
 30
0.0
 11
-16.9186663069
 21
24.2911511824
 31
0.0
  0
LINE
  5
258
100
AcDbEntity
  8
ASSI
100
AcDbLine
 62
250
  6
CONTINUOUS
 10
-16.3086326143
 20
28.7945272216
 30
0.0
 11
-16.3086326143
 21
24.7711349064
 31
0.0
  0
LINE
  5
259
100
AcDbEntity
  8
ASSI
100
AcDbLine
 62
250
  6
CONTINUOUS
 10
-16.3086326143
 20
19.9343567292
 30
0.0
 11
-16.3086326143
 21
18.0337871337
 31
0.0
  0
LINE
  5
25A
100
AcDbEntity
  8
ASSI
100
AcDbLine
 62
250
  6
CONTINUOUS
 10
-16.3086326143
 20
15.8942968483
 30
0.0
 11
-16.3086326143
 21
3.0107340407
 31
0.0
  0
LINE
  5
25B
100
AcDbEntity
  8
ASSI
100
AcDbLine
 62
250
  6
CONTINUOUS
 10
-16.3086326143
 20
0.8712437553
 30
0.0
 11
-16.3086326143
 21
-1.0293258403
 31
0.0
  0
LINE
  5
25C
100
AcDbEntity
  8
ASSI
100
AcDbLine
 62
250
  6
CONTINUOUS
 10
-16.3086326143
 20
-5.8661040174
 30
0.0
 11
-16.3086326143
 21
-9.8894963326
 31
0.0
  0
LINE
  5
25D
100
AcDbEntity
  8
ASSI
100
AcDbLine
 62
250
  6
CONTINUOUS
 10
-16.3086326143
 20
-12.028986618
 30
0.0
 11
-16.3086326143
 21
-13.3781004566
 31
0.0
  0
LINE
  5
25E
100
AcDbEntity
  8
ASSI
100
AcDbLine
 62
7
  6
CONTINUOUS
 10
-16.2633562729
 20
11.5772043898
 30
0.0
 11
-16.2633562729
 21
7.4132059781
 31
0.0
  0
LINE
  5
25F
100
AcDbEntity
  8
ASSI
100
AcDbLine
 62
7
  6
CONTINUOUS
 10
-12.7539679549
 20
25.1800389959
 30
0.0
 11
-12.9296000025
 21
24.5813048032
 31
0.0
  0
LINE
  5
260
100
AcDbEntity
  8
ASSI
100
AcDbLine
 62
250
  6
CONTINUOUS
 10
-16.1840092474
 20
11.6230183678
 30
0.0
 11
-16.2633562729
 21
11.5772043898
 31
0.0
  0
LINE
  5
261
100
AcDbEntity
  8
ASSI
100
AcDbLine
 62
7
  6
CONTINUOUS
 10
-16.9972358937
 20
-13.4018690803
 30
0.0
 11
14.3520500233
 21
-31.50255387
 31
0.0
  0
LINE
  5
262
100
AcDbEntity
  8
ASSI
100
AcDbLine
 62
250
  6
CONTINUOUS
 10
14.3520500233
 20
-31.1195635466
 30
0.0
 11
-16.4153150603
 21
-13.354872553
 31
0.0
  0
LINE
  5
263
100
AcDbEntity
  8
ASSI
100
AcDbLine
 62
7
  6
CONTINUOUS
 10
14.3520500233
 20
-31.081194343
 30
0.0
 11
-16.5272144949
 21
-13.2518940182
 31
0.0
  0
LINE
  5
264
100
AcDbEntity
  8
ASSI
100
AcDbLine
 62
7
  6
CONTINUOUS
 10
-3.4606549929
 20
-20.4803639809
 30
0.0
 11
-5.9756689802
 21
-19.0282264252
 31
0.0
  0
LINE
  5
265
100
AcDbEntity
  8
ASSI
100
AcDbLine
 62
7
  6
CONTINUOUS
 10
5.3380395188
 20
-25.5606199184
 30
0.0
 11
7.8530535061
 21
-27.0127574742
 31
0.0
  0
LWPOLYLINE
  5
266
100
AcDbEntity
  8
ASSI
100
AcDbPolyline
 62
7
  6
CONTINUOUS
 90
87
 70
0
 10
-16.7126976362
 20
-12.9140626401
 10
-16.7126773089
 20
-12.9142272035
 10
-16.7125665959
 20
-12.9150694734
 10
-16.7123596161
 20
-12.9165298245
 10
-16.712072876
 20
-12.9184158697
 10
-16.7117027775
 20
-12.9206986203
 10
-16.711242137
 20
-12.9233723161
 10
-16.7107141241
 20
-12.9262681857
 10
-16.7101230472
 20
-12.9293458901
 10
-16.7094636718
 20
-12.9326170916
 10
-16.7087507756
 20
-12.9359971986
 10
-16.7079880101
 20
-12.9394639577
 10
-16.7071736388
 20
-12.9430206933
 10
-16.7063160778
 20
-12.9466276175
 10
-16.7054180482
 20
-12.9502726315
 10
-16.7044796972
 20
-12.9539548086
 10
-16.7035059727
 20
-12.9576549801
 10
-16.7024990591
 20
-12.9613659304
 10
-16.701459828
 20
-12.9650855761
 10
-16.700391133
 20
-12.9688049924
 10
-16.6992948721
 20
-12.9725191636
 10
-16.6981719638
 20
-12.9762265766
 10
-16.6970234421
 20
-12.9799253322
 10
-16.6958508079
 20
-12.9836121154
 10
-16.6946549961
 20
-12.9872855079
 10
-16.6934357875
 20
-12.9909475492
 10
-16.6921941363
 20
-12.9945966176
 10
-16.6909311438
 20
-12.9982307266
 10
-16.6896464398
 20
-13.0018520793
 10
-16.6883408503
 20
-13.0054593668
 10
-16.6870152831
 20
-13.0090511036
 10
-16.6856691757
 20
-13.0126297346
 10
-16.6843032314
 20
-13.016194207
 10
-16.6829182102
 20
-13.0197433588
 10
-16.6815133691
 20
-13.0232798217
 10
-16.6800892755
 20
-13.0268027996
 10
-16.6786465965
 20
-13.0303112798
 10
-16.6771845157
 20
-13.0338078065
 10
-16.6757032122
 20
-13.0372924112
 10
-16.6742035437
 20
-13.0407635422
 10
-16.6726855693
 20
-13.0442215282
 10
-16.6711494412
 20
-13.0476664503
 10
-16.669595975
 20
-13.0510969143
 10
-16.6680261924
 20
-13.0545111485
 10
-16.6664406298
 20
-13.057908503
 10
-16.6648397593
 20
-13.0612884839
 10
-16.6632245177
 20
-13.0646496516
 10
-16.6615954245
 20
-13.0679914838
 10
-16.6599529738
 20
-13.0713135264
 10
-16.6582980656
 20
-13.0746145341
 10
-16.6566312118
 20
-13.0778940764
 10
-16.654952914
 20
-13.0811517556
 10
-16.6532640579
 20
-13.0843864548
 10
-16.651565147
 20
-13.0875978247
 10
-16.6498566878
 20
-13.0907855192
 10
-16.648139573
 20
-13.0939484962
 10
-16.6464142977
 20
-13.0970864774
 10
-16.6446813714
 20
-13.1001991659
 10
-16.6429417119
 20
-13.1032855536
 10
-16.6411958063
 20
-13.1063454256
 10
-16.6394441657
 20
-13.1093785316
 10
-16.6376877487
 20
-13.1123838665
 10
-16.6359270354
 20
-13.1153612731
 10
-16.6341625369
 20
-13.1183105454
 10
-16.6323952668
 20
-13.1212306585
 10
-16.6306256983
 20
-13.1241215075
 10
-16.6288543423
 20
-13.1269829295
 10
-16.6270822783
 20
-13.1298138624
 10
-16.6253099736
 20
-13.1326142504
 10
-16.6235379381
 20
-13.1353839719
 10
-16.6217673268
 20
-13.1381219163
 10
-16.6199986454
 20
-13.1408280062
 10
-16.6182323583
 20
-13.1435022288
 10
-16.616469569
 20
-13.1461436174
 10
-16.6147113011
 20
-13.1487513618
 10
-16.6129574938
 20
-13.1513262677
 10
-16.6112076011
 20
-13.1538698092
 10
-16.6094620011
 20
-13.1563820792
 10
-16.6077211945
 20
-13.1588629926
 10
-16.6059847721
 20
-13.1613137456
 10
-16.6042532182
 20
-13.1637342453
 10
-16.6025268678
 20
-13.1661246086
 10
-16.6008050443
 20
-13.168486329
 10
-16.5990884225
 20
-13.1708190171
 10
-16.5973770883
 20
-13.1731230875
 10
-16.5956694275
 20
-13.1754011978
 10
-16.5922663836
 20
-13.179879634
  0
LINE
  5
267
100
AcDbEntity
  8
ASSI
100
AcDbLine
 62
7
  6
CONTINUOUS
 10
-16.2525005744
 20
28.7670993206
 30
0.0
 11
-16.2525005744
 21
24.8505179119
 31
0.0
  0
LINE
  5
268
100
AcDbEntity
  8
ASSI
100
AcDbLine
 62
7
  6
CONTINUOUS
 10
-16.2525005744
 20
20.0154085385
 30
0.0
 11
-16.2525005744
 21
18.2216498495
 31
0.0
  0
LINE
  5
269
100
AcDbEntity
  8
ASSI
100
AcDbLine
 62
7
  6
CONTINUOUS
 10
-16.2525005744
 20
15.8668689473
 30
0.0
 11
-16.2525005744
 21
11.7108105987
 31
0.0
  0
LINE
  5
26A
100
AcDbEntity
  8
ASSI
100
AcDbLine
 62
7
  6
CONTINUOUS
 10
-16.2525005744
 20
7.3546551051
 30
0.0
 11
-16.2525005744
 21
3.1985967565
 31
0.0
  0
LINE
  5
26B
100
AcDbEntity
  8
ASSI
100
AcDbLine
 62
7
  6
CONTINUOUS
 10
-16.2525005744
 20
0.8438158543
 30
0.0
 11
-16.2525005744
 21
-0.9499428347
 31
0.0
  0
LINE
  5
26C
100
AcDbEntity
  8
ASSI
100
AcDbLine
 62
7
  6
CONTINUOUS
 10
-16.2525005744
 20
-5.7850522081
 30
0.0
 11
-16.2525005744
 21
-9.7016336168
 31
0.0
  0
LINE
  5
26D
100
AcDbEntity
  8
ASSI
100
AcDbLine
 62
7
  6
CONTINUOUS
 10
-16.2525005744
 20
-12.056414519
 30
0.0
 11
-16.2525005744
 21
-13.410510393
 31
0.0
  0
LINE
  5
26E
100
AcDbEntity
  8
ASSI
100
AcDbLine
 62
7
  6
CONTINUOUS
 10
-16.1840092474
 20
11.6230183678
 30
0.0
 11
-16.1840092474
 21
7.4590199562
 31
0.0
  0
LINE
  5
26F
100
AcDbEntity
  8
ASSI
100
AcDbLine
 62
7
  6
CONTINUOUS
 10
-15.8941991639
 20
29.1806484891
 30
0.0
 11
-15.8941991639
 21
29.0678421846
 31
0.0
  0
LINE
  5
270
100
AcDbEntity
  8
ASSI
100
AcDbLine
 62
7
  6
CONTINUOUS
 10
-15.8941991639
 20
18.256053535
 30
0.0
 11
-15.8941991639
 21
16.1676118113
 31
0.0
  0
LINE
  5
271
100
AcDbEntity
  8
ASSI
100
AcDbLine
 62
7
  6
CONTINUOUS
 10
-15.8941991639
 20
3.233000442
 30
0.0
 11
-15.8941991639
 21
1.1445587183
 31
0.0
  0
LINE
  5
272
100
AcDbEntity
  8
ASSI
100
AcDbLine
 62
7
  6
CONTINUOUS
 10
-15.8941991639
 20
-9.6672299314
 30
0.0
 11
-15.8941991639
 21
-11.7556716551
 31
0.0
  0
LINE
  5
273
100
AcDbEntity
  8
ASSI
100
AcDbLine
 62
250
  6
CONTINUOUS
 10
-14.9860698466
 20
26.9138817755
 30
0.0
 11
-14.9860698466
 21
23.9561744606
 31
0.0
  0
LINE
  5
274
100
AcDbEntity
  8
ASSI
100
AcDbLine
 62
250
  6
CONTINUOUS
 10
-14.9860698466
 20
1.1134210288
 30
0.0
 11
-14.9860698466
 21
-1.8442862861
 31
0.0
  0
LINE
  5
275
100
AcDbEntity
  8
ASSI
100
AcDbLine
 62
250
  6
CONTINUOUS
 10
-14.3773084176
 20
27.0167576336
 30
0.0
 11
-14.3773084176
 21
24.0919289853
 31
0.0
  0
LINE
  5
276
100
AcDbEntity
  8
ASSI
100
AcDbLine
 62
250
  6
CONTINUOUS
 10
-14.3773084176
 20
1.2162968869
 30
0.0
 11
-14.3773084176
 21
-1.7085317613
 31
0.0
  0
LINE
  5
277
100
AcDbEntity
  8
ASSI
100
AcDbLine
 62
7
  6
CONTINUOUS
 10
-13.4439704703
 20
26.9979407322
 30
0.0
 11
-13.4439704703
 21
24.1107458868
 31
0.0
  0
LINE
  5
278
100
AcDbEntity
  8
ASSI
100
AcDbLine
 62
7
  6
CONTINUOUS
 10
-13.4439704703
 20
1.1974799855
 30
0.0
 11
-13.4439704703
 21
-1.6897148599
 31
0.0
  0
LINE
  5
279
100
AcDbEntity
  8
ASSI
100
AcDbLine
 62
250
  6
CONTINUOUS
 10
-13.2073009743
 20
-1.543521935
 30
0.0
 11
-13.2073009743
 21
1.3245870623
 31
0.0
  0
LINE
  5
27A
100
AcDbEntity
  8
ASSI
100
AcDbLine
 62
250
  6
CONTINUOUS
 10
-13.2073009743
 20
24.2569388117
 30
0.0
 11
-13.2073009743
 21
27.125047809
 31
0.0
  0
LINE
  5
27B
100
AcDbEntity
  8
ASSI
100
AcDbLine
 62
250
  6
CONTINUOUS
 10
-12.9296000025
 20
-1.2191559435
 30
0.0
 11
-12.9296000025
 21
1.6162456946
 31
0.0
  0
LINE
  5
27C
100
AcDbEntity
  8
ASSI
100
AcDbLine
 62
250
  6
CONTINUOUS
 10
-12.9296000025
 20
24.5813048032
 30
0.0
 11
-12.9296000025
 21
27.4167064412
 31
0.0
  0
LINE
  5
27D
100
AcDbEntity
  8
ASSI
100
AcDbLine
 62
250
  6
CONTINUOUS
 10
-12.7539679549
 20
-0.6204217508
 30
0.0
 11
-12.7539679549
 21
2.167735281
 31
0.0
  0
LINE
  5
27E
100
AcDbEntity
  8
ASSI
100
AcDbLine
 62
250
  6
CONTINUOUS
 10
-12.7539679549
 20
25.1800389959
 30
0.0
 11
-12.7539679549
 21
27.3675183453
 31
0.0
  0
LINE
  5
27F
100
AcDbEntity
  8
ASSI
100
AcDbLine
 62
7
  6
CONTINUOUS
 10
-12.7463718314
 20
-0.5683870168
 30
0.0
 11
-12.7463718314
 21
2.2159628285
 31
0.0
  0
LINE
  5
280
100
AcDbEntity
  8
ASSI
100
AcDbLine
 62
7
  6
CONTINUOUS
 10
-12.7463718314
 20
25.2320737299
 30
0.0
 11
-12.7463718314
 21
27.3631324388
 31
0.0
  0
LINE
  5
281
100
AcDbEntity
  8
ASSI
100
AcDbLine
 62
7
  6
CONTINUOUS
 10
-12.7539679549
 20
-0.6204217508
 30
0.0
 11
-12.9296000025
 21
-1.2191559435
 31
0.0
  0
LINE
  5
282
100
AcDbEntity
  8
ASSI
100
AcDbLine
 62
7
  6
CONTINUOUS
 10
-12.7539679549
 20
2.167735281
 30
0.0
 11
-12.9296000025
 21
1.6162456946
 31
0.0
  0
LINE
  5
283
100
AcDbEntity
  8
ASSI
100
AcDbLine
 62
250
  6
CONTINUOUS
 10
-16.1840092474
 20
7.4590199562
 30
0.0
 11
-16.2633562729
 21
7.4132059781
 31
0.0
  0
LINE
  5
284
100
AcDbEntity
  8
ASSI
100
AcDbLine
 62
7
  6
CONTINUOUS
 10
-16.2543149676
 20
7.3507923243
 30
0.0
 11
-16.2254257716
 21
7.367472584
 31
0.0
  0
LINE
  5
285
100
AcDbEntity
  8
ASSI
100
AcDbLine
 62
7
  6
CONTINUOUS
 10
-16.2097596231
 20
-9.3216604814
 30
0.0
 11
-16.0355128703
 21
-9.4222683727
 31
0.0
  0
LINE
  5
286
100
AcDbEntity
  8
ASSI
100
AcDbLine
 62
7
  6
CONTINUOUS
 10
-16.9186663069
 20
-5.3383228971
 30
0.0
 11
-16.3110792182
 21
-5.7013818171
 31
0.0
  0
LINE
  5
287
100
AcDbEntity
  8
ASSI
100
AcDbLine
 62
250
  6
CONTINUOUS
 10
-16.9186663069
 20
-5.967036214
 30
0.0
 11
-16.8333985298
 21
-6.0197670864
 31
0.0
  0
LINE
  5
288
100
AcDbEntity
  8
ASSI
100
AcDbLine
 62
250
  6
CONTINUOUS
 10
-16.3086326143
 20
0.8712437553
 30
0.0
 11
-15.8941991639
 21
1.1445587183
 31
0.0
  0
LINE
  5
289
100
AcDbEntity
  8
ASSI
100
AcDbLine
 62
7
  6
CONTINUOUS
 10
-15.9322672437
 20
1.0549732041
 30
0.0
 11
-16.2525285572
 21
0.8437638798
 31
0.0
  0
LINE
  5
28A
100
AcDbEntity
  8
ASSI
100
AcDbLine
 62
250
  6
CONTINUOUS
 10
-16.0355128703
 20
3.4779620007
 30
0.0
 11
-16.2525005744
 21
3.3615884887
 31
0.0
  0
LINE
  5
28B
100
AcDbEntity
  8
ASSI
100
AcDbLine
 62
250
  6
CONTINUOUS
 10
-15.8941991639
 20
3.233000442
 30
0.0
 11
-16.3086326143
 21
3.0107340407
 31
0.0
  0
LINE
  5
28C
100
AcDbEntity
  8
ASSI
100
AcDbLine
 62
250
  6
CONTINUOUS
 10
-16.2097596231
 20
3.5785698919
 30
0.0
 11
-16.2525005744
 21
3.5602408376
 31
0.0
  0
LINE
  5
28D
100
AcDbEntity
  8
ASSI
100
AcDbLine
 62
7
  6
CONTINUOUS
 10
-13.2073009743
 20
-1.543521935
 30
0.0
 11
-13.4439704703
 21
-1.6897148599
 31
0.0
  0
LINE
  5
28E
100
AcDbEntity
  8
ASSI
100
AcDbLine
 62
7
  6
CONTINUOUS
 10
-16.7355353797
 20
-1.2844190886
 30
0.0
 11
-16.3086326143
 21
-1.0293258403
 31
0.0
  0
LINE
  5
28F
100
AcDbEntity
  8
ASSI
100
AcDbLine
 62
7
  6
CONTINUOUS
 10
-13.2073009743
 20
1.3245870623
 30
0.0
 11
-13.4439704703
 21
1.1974799855
 31
0.0
  0
LINE
  5
290
100
AcDbEntity
  8
ASSI
100
AcDbLine
 62
7
  6
CONTINUOUS
 10
-14.9860698466
 20
-1.8442862861
 30
0.0
 11
-16.9186663069
 21
-2.7693734985
 31
0.0
  0
LINE
  5
291
100
AcDbEntity
  8
ASSI
100
AcDbLine
 62
7
  6
CONTINUOUS
 10
-14.9860698466
 20
1.1134210288
 30
0.0
 11
-16.2525005744
 21
0.597459239
 31
0.0
  0
LINE
  5
292
100
AcDbEntity
  8
ASSI
100
AcDbLine
 62
7
  6
CONTINUOUS
 10
-13.6881353692
 20
2.5918572789
 30
0.0
 11
-15.8941991639
 21
1.9408417292
 31
0.0
  0
LINE
  5
293
100
AcDbEntity
  8
ASSI
100
AcDbLine
 62
250
  6
CONTINUOUS
 10
-13.3875672462
 20
2.6146472779
 30
0.0
 11
-15.8941991639
 21
1.8749332407
 31
0.0
  0
LINE
  5
294
100
AcDbEntity
  8
ASSI
100
AcDbLine
 62
7
  6
CONTINUOUS
 10
-16.2097596231
 20
3.5785698919
 30
0.0
 11
-16.0355128703
 21
3.4779620007
 31
0.0
  0
LINE
  5
295
100
AcDbEntity
  8
ASSI
100
AcDbLine
 62
7
  6
CONTINUOUS
 10
-13.2069675164
 20
2.5973104121
 30
0.0
 11
-12.8928184408
 21
2.4159246731
 31
0.0
  0
LINE
  5
296
100
AcDbEntity
  8
ASSI
100
AcDbLine
 62
7
  6
CONTINUOUS
 10
-16.3086326143
 20
-5.8661040174
 30
0.0
 11
-16.7355353817
 21
-6.1215029692
 31
0.0
  0
LINE
  5
297
100
AcDbEntity
  8
ASSI
100
AcDbLine
 62
250
  6
CONTINUOUS
 10
28.4215673775
 20
17.7551890121
 30
0.0
 11
30.8223676298
 21
19.1413676469
 31
0.0
  0
LINE
  5
298
100
AcDbEntity
  8
ASSI
100
AcDbLine
 62
250
  6
CONTINUOUS
 10
32.0996520672
 20
19.2150590163
 30
0.0
 11
31.2588087666
 21
18.7804488705
 31
0.0
  0
LINE
  5
299
100
AcDbEntity
  8
ASSI
100
AcDbLine
 62
7
  6
CONTINUOUS
 10
-13.4439704703
 20
-1.6897148599
 30
0.0
 11
-14.3773084176
 21
-1.7085317613
 31
0.0
  0
LINE
  5
29A
100
AcDbEntity
  8
ASSI
100
AcDbLine
 62
7
  6
CONTINUOUS
 10
-3.3851964292
 20
-20.8399305412
 30
0.0
 11
-3.3641422364
 21
-20.7511929633
 31
0.0
  0
LINE
  5
29B
100
AcDbEntity
  8
ASSI
100
AcDbLine
 62
250
  6
CONTINUOUS
 10
-16.3086326143
 20
-12.028986618
 30
0.0
 11
-15.8941991639
 21
-11.7556716551
 31
0.0
  0
LINE
  5
29C
100
AcDbEntity
  8
ASSI
100
AcDbLine
 62
7
  6
CONTINUOUS
 10
-15.9322672437
 20
-11.8452571692
 30
0.0
 11
-16.2525285572
 21
-12.0564664935
 31
0.0
  0
LINE
  5
29D
100
AcDbEntity
  8
ASSI
100
AcDbLine
 62
250
  6
CONTINUOUS
 10
32.5839750721
 20
18.3761869656
 30
0.0
 11
31.7872179345
 21
17.8652634658
 31
0.0
  0
LINE
  5
29E
100
AcDbEntity
  8
ASSI
100
AcDbLine
 62
250
  6
CONTINUOUS
 10
29.4807739513
 20
15.9205894123
 30
0.0
 11
31.8815742037
 21
17.3067680471
 31
0.0
  0
LINE
  5
29F
100
AcDbEntity
  8
ASSI
100
AcDbLine
 62
250
  6
CONTINUOUS
 10
-17.7142269613
 20
-12.9994646675
 30
0.0
 11
-17.3507354364
 21
-12.7895899126
 31
0.0
  0
LINE
  5
2A0
100
AcDbEntity
  8
ASSI
100
AcDbLine
 62
250
  6
CONTINUOUS
 10
-17.3607274186
 20
-13.6117438353
 30
0.0
 11
-16.9972358937
 21
-13.4018690803
 31
0.0
  0
LINE
  5
2A1
100
AcDbEntity
  8
ASSI
100
AcDbLine
 62
250
  6
CONTINUOUS
 10
-16.0355128703
 20
-9.4222683727
 30
0.0
 11
-16.2525005744
 21
-9.5386418847
 31
0.0
  0
LINE
  5
2A2
100
AcDbEntity
  8
ASSI
100
AcDbLine
 62
250
  6
CONTINUOUS
 10
-15.8941991639
 20
-9.6672299314
 30
0.0
 11
-16.3086326143
 21
-9.8894963326
 31
0.0
  0
LINE
  5
2A3
100
AcDbEntity
  8
ASSI
100
AcDbLine
 62
250
  6
CONTINUOUS
 10
-16.2097596231
 20
-9.3216604814
 30
0.0
 11
-16.2525005744
 21
-9.3399895357
 31
0.0
  0
LINE
  5
2A4
100
AcDbEntity
  8
ASSI
100
AcDbLine
 62
7
  6
CONTINUOUS
 10
-13.4439704703
 20
1.1974799855
 30
0.0
 11
-14.3773084176
 21
1.2162968869
 31
0.0
  0
LINE
  5
2A5
100
AcDbEntity
  8
ASSI
100
AcDbLine
 62
7
  6
CONTINUOUS
 10
-13.2069675164
 20
2.5973104121
 30
0.0
 11
-13.3875672462
 21
2.6146472779
 31
0.0
  0
LINE
  5
2A6
100
AcDbEntity
  8
ASSI
100
AcDbLine
 62
250
  6
CONTINUOUS
 10
-17.3507354364
 20
-12.6474501037
 30
0.0
 11
-16.8201708277
 21
-12.4570782471
 31
0.0
  0
LINE
  5
2A7
100
AcDbEntity
  8
ASSI
100
AcDbLine
 62
250
  6
CONTINUOUS
 10
-16.8244064758
 20
-13.5016586202
 30
0.0
 11
-16.4153150603
 21
-13.354872553
 31
0.0
  0
LINE
  5
2A8
100
AcDbEntity
  8
ASSI
100
AcDbLine
 62
7
  6
CONTINUOUS
 10
-16.2097596231
 20
18.6016229849
 30
0.0
 11
-16.0355128703
 21
18.5010150937
 31
0.0
  0
LINE
  5
2A9
100
AcDbEntity
  8
ASSI
100
AcDbLine
 62
7
  6
CONTINUOUS
 10
-16.9186663069
 20
20.4621378495
 30
0.0
 11
-16.3110792182
 21
20.0990789295
 31
0.0
  0
LINE
  5
2AA
100
AcDbEntity
  8
ASSI
100
AcDbLine
 62
250
  6
CONTINUOUS
 10
-16.9186663069
 20
19.8334245327
 30
0.0
 11
-16.8333985298
 21
19.7806936602
 31
0.0
  0
LINE
  5
2AB
100
AcDbEntity
  8
ASSI
100
AcDbLine
 62
7
  6
CONTINUOUS
 10
14.3520500233
 20
11.2369660446
 30
0.0
 11
14.3520500233
 21
-31.6830721294
 31
0.0
  0
LINE
  5
2AC
100
AcDbEntity
  8
ASSI
100
AcDbLine
 62
250
  6
CONTINUOUS
 10
14.439917989
 20
11.1144836666
 30
0.0
 11
14.439917989
 21
-31.8055545072
 31
0.0
  0
LWPOLYLINE
  5
2AD
100
AcDbEntity
  8
ASSI
100
AcDbPolyline
 62
7
  6
CONTINUOUS
 90
9
 70
0
 10
14.3520500339
 20
-31.6831181424
 10
14.3516209151
 20
-31.7023742167
 10
14.350105058
 20
-31.7230815143
 10
14.3476502537
 20
-31.7415414285
 10
14.3444325623
 20
-31.7576642575
 10
14.3407254507
 20
-31.7711265298
 10
14.3370015018
 20
-31.7814122222
 10
14.3337836515
 20
-31.7883923013
 10
14.333234744
 20
-31.7894252706
  0
LINE
  5
2AE
100
AcDbEntity
  8
ASSI
100
AcDbLine
 62
7
  6
CONTINUOUS
 10
7.9495662626
 20
-27.2835864565
 30
0.0
 11
7.9285120698
 21
-27.3723240345
 31
0.0
  0
LINE
  5
2AF
100
AcDbEntity
  8
ASSI
100
AcDbLine
 62
250
  6
CONTINUOUS
 10
-3.7342989554
 20
-20.6383631178
 30
0.0
 11
-3.4606549929
 21
-20.4803639809
 31
0.0
  0
LINE
  5
2B0
100
AcDbEntity
  8
ASSI
100
AcDbLine
 62
250
  6
CONTINUOUS
 10
-3.3641422364
 20
-20.7511929633
 30
0.0
 11
-3.4515132286
 21
-20.8016400524
 31
0.0
  0
LINE
  5
2B1
100
AcDbEntity
  8
ASSI
100
AcDbLine
 62
7
  6
CONTINUOUS
 10
-6.3161741874
 20
-19.1476207174
 30
0.0
 11
-6.0869478625
 21
-19.0243502179
 31
0.0
  0
LINE
  5
2B2
100
AcDbEntity
  8
ASSI
100
AcDbLine
 62
250
  6
CONTINUOUS
 10
-5.9756689802
 20
-19.0282264252
 30
0.0
 11
-6.2590355986
 21
-19.1806118224
 31
0.0
  0
LINE
  5
2B3
100
AcDbEntity
  8
ASSI
100
AcDbLine
 62
7
  6
CONTINUOUS
 10
-17.5070324521
 20
30.1118782161
 30
0.0
 11
13.9364435072
 21
11.9568092765
 31
0.0
  0
LINE
  5
2B4
100
AcDbEntity
  8
ASSI
100
AcDbLine
 62
250
  6
CONTINUOUS
 10
-17.5691572384
 20
30.2491992745
 30
0.0
 11
13.8743187207
 21
12.094130335
 31
0.0
  0
LWPOLYLINE
  5
2B5
100
AcDbEntity
  8
ASSI
100
AcDbPolyline
 62
7
  6
CONTINUOUS
 90
24
 70
0
 10
13.9364811026
 20
11.9567875803
 10
13.9545741549
 20
11.9457917005
 10
13.9784987911
 20
11.929624302
 10
14.0038333486
 20
11.9105403537
 10
14.0300664742
 20
11.888668024
 10
14.0569137209
 20
11.8640308707
 10
14.0841164132
 20
11.8366615845
 10
14.1112301425
 20
11.8068322025
 10
14.1379785497
 20
11.7747064228
 10
14.1641044237
 20
11.7404642881
 10
14.1892353389
 20
11.7044976151
 10
14.2131452156
 20
11.6670692359
 10
14.235628364
 20
11.6284569916
 10
14.2564075324
 20
11.5891334272
 10
14.2753395817
 20
11.5494128274
 10
14.2923029948
 20
11.5096226527
 10
14.3071354213
 20
11.4702838087
 10
14.3198029143
 20
11.4317107626
 10
14.3302955911
 20
11.3942244084
 10
14.3385905216
 20
11.3583499773
 10
14.3447812002
 20
11.3243348135
 10
14.3489824883
 20
11.2924422003
 10
14.3513298261
 20
11.2631841101
 10
14.352050036
 20
11.2370163966
  0
LINE
  5
2B6
100
AcDbEntity
  8
ASSI
100
AcDbLine
 62
7
  6
CONTINUOUS
 10
4.9975343115
 20
-25.6800142106
 30
0.0
 11
5.2267606365
 21
-25.5567437111
 31
0.0
  0
LINE
  5
2B7
100
AcDbEntity
  8
ASSI
100
AcDbLine
 62
250
  6
CONTINUOUS
 10
5.3380395188
 20
-25.5606199184
 30
0.0
 11
5.0546729003
 21
-25.7130053157
 31
0.0
  0
LINE
  5
2B8
100
AcDbEntity
  8
ASSI
100
AcDbLine
 62
7
  6
CONTINUOUS
 10
-13.4439704703
 20
24.1107458868
 30
0.0
 11
-14.3773084176
 21
24.0919289853
 31
0.0
  0
LINE
  5
2B9
100
AcDbEntity
  8
ASSI
100
AcDbLine
 62
250
  6
CONTINUOUS
 10
28.7926552576
 20
-53.1962454441
 30
0.0
 11
28.7926552576
 21
15.9309933698
 31
0.0
  0
LINE
  5
2BA
100
AcDbEntity
  8
ASSI
100
AcDbLine
 62
250
  6
CONTINUOUS
 10
29.4807739513
 20
-53.2066494017
 30
0.0
 11
29.4807739513
 21
15.9205894123
 31
0.0
  0
LINE
  5
2BB
100
AcDbEntity
  8
ASSI
100
AcDbLine
 62
250
  6
CONTINUOUS
 10
7.5794095436
 20
-27.1707566111
 30
0.0
 11
7.8530535061
 21
-27.0127574742
 31
0.0
  0
LINE
  5
2BC
100
AcDbEntity
  8
ASSI
100
AcDbLine
 62
250
  6
CONTINUOUS
 10
7.9495662626
 20
-27.2835864565
 30
0.0
 11
7.8621952704
 21
-27.3340335456
 31
0.0
  0
LINE
  5
2BD
100
AcDbEntity
  8
ASSI
100
AcDbLine
 62
7
  6
CONTINUOUS
 10
-13.4439704703
 20
26.9979407322
 30
0.0
 11
-14.3773084176
 21
27.0167576336
 31
0.0
  0
LINE
  5
2BE
100
AcDbEntity
  8
ASSI
100
AcDbLine
 62
250
  6
CONTINUOUS
 10
28.0865175417
 20
17.1540597697
 30
0.0
 11
-31.7813560594
 21
51.7210196663
 31
0.0
  0
LINE
  5
2BF
100
AcDbEntity
  8
ASSI
100
AcDbLine
 62
250
  6
CONTINUOUS
 10
28.4215673775
 20
17.7551890121
 30
0.0
 11
-31.4463062236
 21
52.3221489086
 31
0.0
  0
LINE
  5
2C0
100
AcDbEntity
  8
ASSI
100
AcDbLine
 62
7
  6
CONTINUOUS
 10
31.8815742037
 20
-52.0965623127
 30
0.0
 11
31.8815742037
 21
17.3067680471
 31
0.0
  0
LINE
  5
2C1
100
AcDbEntity
  8
ASSI
100
AcDbLine
 62
250
  6
CONTINUOUS
 10
32.5839750721
 20
18.3761869656
 30
0.0
 11
32.5839750721
 21
-51.0204251226
 31
0.0
  0
LINE
  5
2C2
100
AcDbEntity
  8
ASSI
100
AcDbLine
 62
7
  6
CONTINUOUS
 10
32.635346107
 20
18.4534564908
 30
0.0
 11
32.635346107
 21
-50.9431555975
 31
0.0
  0
LINE
  5
2C3
100
AcDbEntity
  8
ASSI
100
AcDbLine
 62
7
  6
CONTINUOUS
 10
30.8223676298
 20
19.1413676469
 30
0.0
 11
-29.2846159668
 21
53.8463866582
 31
0.0
  0
LINE
  5
2C4
100
AcDbEntity
  8
ASSI
100
AcDbLine
 62
250
  6
CONTINUOUS
 10
-28.0015131481
 20
53.9167185672
 30
0.0
 11
32.0996520672
 21
19.2150590163
 31
0.0
  0
LINE
  5
2C5
100
AcDbEntity
  8
ASSI
100
AcDbLine
 62
7
  6
CONTINUOUS
 10
-27.908909738
 20
53.9225771033
 30
0.0
 11
32.1922554774
 21
19.2209175524
 31
0.0
  0
LINE
  5
2C6
100
AcDbEntity
  8
ASSI
100
AcDbLine
 62
250
  6
CONTINUOUS
 10
14.0827485405
 20
-31.7668127747
 30
0.0
 11
14.3520500233
 21
-31.6002726982
 31
0.0
  0
LINE
  5
2C7
100
AcDbEntity
  8
ASSI
100
AcDbLine
 62
7
  6
CONTINUOUS
 10
14.3355472095
 20
-31.7899375985
 30
0.0
 11
14.3354503817
 21
-31.7899974326
 31
0.0
  0
LINE
  5
2C8
100
AcDbEntity
  8
ASSI
100
AcDbLine
 62
7
  6
CONTINUOUS
 10
31.8815742037
 20
-51.7080284094
 30
0.0
 11
32.4545913934
 21
-51.3262112588
 31
0.0
  0
LINE
  5
2C9
100
AcDbEntity
  8
ASSI
100
AcDbLine
 62
250
  6
CONTINUOUS
 10
32.5839750721
 20
-51.0204251226
 30
0.0
 11
31.8815742037
 21
-51.4708423112
 31
0.0
  0
LINE
  5
2CA
100
AcDbEntity
  8
ASSI
100
AcDbLine
 62
250
  6
CONTINUOUS
 10
29.4807739513
 20
-53.2066494017
 30
0.0
 11
31.8815742037
 21
-52.0965623127
 31
0.0
  0
LINE
  5
2CB
100
AcDbEntity
  8
ASSI
100
AcDbLine
 62
7
  6
CONTINUOUS
 10
29.122593055
 20
-53.9171380278
 30
0.0
 11
31.5313854721
 21
-52.8033555048
 31
0.0
  0
ARC
  5
2CC
100
AcDbEntity
  8
ASSI
100
AcDbCircle
 62
7
  6
CONTINUOUS
 10
-16.5117921407
 20
11.5987737436
 30
0.0
 40
0.3297339858
100
AcDbArc
 50
36.5942333944
 51
38.1111338982
  0
ARC
  5
2CD
100
AcDbEntity
  8
ASSI
100
AcDbCircle
 62
250
  6
CONTINUOUS
 10
-17.5290634983
 20
30.0044586421
 30
0.0
 40
0.1664144009
100
AcDbArc
 50
118.3057535334
 51
120.5629411383
  0
ARC
  5
2CE
100
AcDbEntity
  8
ASSI
100
AcDbCircle
 62
250
  6
CONTINUOUS
 10
32.5682882081
 20
-50.9431719413
 30
0.0
 40
0.0670501504
100
AcDbArc
 50
357.2665429445
 51
0.0139656121
  0
SPLINE
  5
2CF
100
AcDbEntity
  8
ASSI
100
AcDbSpline
 62
7
  6
CONTINUOUS
 70
0
 71
3
 72
11
 73
7
 74
0
 42
0.0000001
 43
0.0000001
 44
0.0000000001
 40
0.0
 40
0.0
 40
0.0
 40
0.0
 40
0.2915028108
 40
0.5502118295
 40
0.7818910569
 40
1.0
 40
1.0
 40
1.0
 40
1.0
 10
-29.2846159668
 20
53.8463866582
 30
0.0
 10
-29.35453085
 20
53.8867546355
 30
0.0
 10
-29.4935007335
 20
53.9519802845
 30
0.0
 10
-29.7072420026
 20
53.9990021176
 30
0.0
 10
-29.9062098348
 20
53.9843406063
 30
0.0
 10
-30.0225646971
 20
53.9313562108
 30
0.0
 10
-30.0719052377
 20
53.8965088356
 30
0.0
  0
SPLINE
  5
2D0
100
AcDbEntity
  8
ASSI
100
AcDbSpline
 62
7
  6
CONTINUOUS
 70
0
 71
3
 72
15
 73
11
 74
0
 42
0.0000001
 43
0.0000001
 44
0.0000000001
 40
0.0
 40
0.0
 40
0.0
 40
0.0
 40
0.1142413001
 40
0.2374032818
 40
0.3670261888
 40
0.4999939441
 40
0.6329625441
 40
0.7625879086
 40
0.8857537676
 40
1.0
 40
1.0
 40
1.0
 40
1.0
 10
31.8815742037
 20
17.3067680471
 30
0.0
 10
31.8815742037
 20
17.3905627818
 30
0.0
 10
31.8661410943
 20
17.5648440427
 30
0.0
 10
31.8052220721
 20
17.8277911918
 30
0.0
 10
31.7071824716
 20
18.0939410912
 30
0.0
 10
31.5763133327
 20
18.3535763871
 30
0.0
 10
31.4168960696
 20
18.5967314766
 30
0.0
 10
31.2354204921
 20
18.8147156755
 30
0.0
 10
31.038156691
 20
18.9989539809
 30
0.0
 10
30.8949379629
 20
19.0994664461
 30
0.0
 10
30.8223676298
 20
19.1413676469
 30
0.0
  0
SPLINE
  5
2D1
100
AcDbEntity
  8
ASSI
100
AcDbSpline
 62
7
  6
CONTINUOUS
 70
0
 71
3
 72
10
 73
6
 74
0
 42
0.0000001
 43
0.0000001
 44
0.0000000001
 40
0.0
 40
0.0
 40
0.0
 40
0.0
 40
0.5230006059
 40
0.7714685237
 40
1.0
 40
1.0
 40
1.0
 40
1.0
 10
-16.9115232469
 20
-1.4797928892
 30
0.0
 10
-16.8869982031
 20
-1.4406479823
 30
0.0
 10
-16.8479516207
 20
-1.384310507
 30
0.0
 10
-16.7865092595
 20
-1.3206187299
 30
0.0
 10
-16.7528618656
 20
-1.2947734252
 30
0.0
 10
-16.7355353749
 20
-1.2844190975
 30
0.0
  0
SPLINE
  5
2D2
100
AcDbEntity
  8
ASSI
100
AcDbSpline
 62
7
  6
CONTINUOUS
 70
0
 71
3
 72
10
 73
6
 74
0
 42
0.0000001
 43
0.0000001
 44
0.0000000001
 40
0.0
 40
0.0
 40
0.0
 40
0.0
 40
0.5230006059
 40
0.7714685237
 40
1.0
 40
1.0
 40
1.0
 40
1.0
 10
-16.9115232469
 20
24.3206678575
 30
0.0
 10
-16.8869982031
 20
24.3598127643
 30
0.0
 10
-16.8479516207
 20
24.4161502397
 30
0.0
 10
-16.7865092595
 20
24.4798420168
 30
0.0
 10
-16.7528618656
 20
24.5056873214
 30
0.0
 10
-16.7355353749
 20
24.5160416491
 30
0.0
  0
SPLINE
  5
2D3
100
AcDbEntity
  8
ASSI
100
AcDbSpline
 62
7
  6
CONTINUOUS
 70
0
 71
3
 72
10
 73
6
 74
0
 42
0.0000001
 43
0.0000001
 44
0.0000000001
 40
0.0
 40
0.0
 40
0.0
 40
0.0
 40
0.5055872761
 40
0.7530380316
 40
1.0
 40
1.0
 40
1.0
 40
1.0
 10
32.635346107
 20
-50.9431555975
 30
0.0
 10
32.635346107
 20
-51.0171628932
 30
0.0
 10
32.6160274026
 20
-51.1302424676
 30
0.0
 10
32.5391056502
 20
-51.2565452098
 30
0.0
 10
32.4846747312
 20
-51.3061659015
 30
0.0
 10
32.4545913934
 20
-51.3262112588
 30
0.0
  0
SPLINE
  5
2D4
100
AcDbEntity
  8
ASSI
100
AcDbSpline
 62
7
  6
CONTINUOUS
 70
0
 71
3
 72
11
 73
7
 74
0
 42
0.0000001
 43
0.0000001
 44
0.0000000001
 40
0.0
 40
0.0
 40
0.0
 40
0.0
 40
0.2426742621
 40
0.5000121689
 40
0.757344501
 40
1.0
 40
1.0
 40
1.0
 40
1.0
 10
32.1922554774
 20
19.2209175524
 30
0.0
 10
32.2567091537
 20
19.1837028075
 30
0.0
 10
32.3769160942
 20
19.0845664847
 30
0.0
 10
32.5156848627
 20
18.8959980546
 30
0.0
 10
32.6095992763
 20
18.6815401685
 30
0.0
 10
32.635346107
 20
18.5278766299
 30
0.0
 10
32.635346107
 20
18.4534564908
 30
0.0
  0
SPLINE
  5
2D5
100
AcDbEntity
  8
ASSI
100
AcDbSpline
 62
7
  6
CONTINUOUS
 70
0
 71
3
 72
10
 73
6
 74
0
 42
0.0000001
 43
0.0000001
 44
0.0000000001
 40
0.0
 40
0.0
 40
0.0
 40
0.0
 40
0.2469520892
 40
0.4944084819
 40
1.0
 40
1.0
 40
1.0
 40
1.0
 10
-28.3310726342
 20
53.9575707201
 30
0.0
 10
-28.2986693572
 20
53.9736041269
 30
0.0
 10
-28.2284735326
 20
53.9959367968
 30
0.0
 10
-28.0806127216
 20
53.9994064121
 30
0.0
 10
-27.9730093744
 20
53.95958743
 30
0.0
 10
-27.908909738
 20
53.9225771033
 30
0.0
  0
SPLINE
  5
2D6
100
AcDbEntity
  8
ASSI
100
AcDbSpline
 62
7
  6
CONTINUOUS
 70
0
 71
3
 72
11
 73
7
 74
0
 42
0.0000001
 43
0.0000001
 44
0.0000000001
 40
0.0
 40
0.0
 40
0.0
 40
0.0
 40
0.2181144452
 40
0.4497960477
 40
0.7085029639
 40
1.0
 40
1.0
 40
1.0
 40
1.0
 10
31.5313757913
 20
-52.8033374699
 30
0.0
 10
31.5862170113
 20
-52.7780308503
 30
0.0
 10
31.6902643277
 20
-52.7037629053
 30
0.0
 10
31.802431183
 20
-52.5388054329
 30
0.0
 10
31.8685741952
 20
-52.3302215205
 30
0.0
 10
31.8815742037
 20
-52.1772813923
 30
0.0
 10
31.8815742037
 20
-52.0965623127
 30
0.0
  0
SPLINE
  5
2D7
100
AcDbEntity
  8
ASSI
100
AcDbSpline
 62
7
  6
CONTINUOUS
 70
0
 71
3
 72
10
 73
6
 74
0
 42
0.0000001
 43
0.0000001
 44
0.0000000001
 40
0.0
 40
0.0
 40
0.0
 40
0.0
 40
0.547759363
 40
0.7816754951
 40
1.0
 40
1.0
 40
1.0
 40
1.0
 10
-16.1840092474
 20
7.4590199562
 30
0.0
 10
-16.1840092474
 20
7.4399052983
 30
0.0
 10
-16.1880726543
 20
7.4117448275
 30
0.0
 10
-16.2065311405
 20
7.3816091426
 30
0.0
 10
-16.2188937752
 20
7.3712313177
 30
0.0
 10
-16.2254979463
 20
7.3674327563
 30
0.0
  0
SPLINE
  5
2D8
100
AcDbEntity
  8
ASSI
100
AcDbSpline
 62
7
  6
CONTINUOUS
 70
0
 71
3
 72
9
 73
5
 74
0
 42
0.0000001
 43
0.0000001
 44
0.0000000001
 40
0.0
 40
0.0
 40
0.0
 40
0.0
 40
0.5238523817
 40
1.0
 40
1.0
 40
1.0
 40
1.0
 10
-16.2470561495
 20
11.7953427043
 30
0.0
 10
-16.2277293716
 20
11.7693165223
 30
0.0
 10
-16.1977432006
 20
11.7143014349
 30
0.0
 10
-16.1840092474
 20
11.6524836497
 30
0.0
 10
-16.1840092474
 20
11.6230183678
 30
0.0
  0
SPLINE
  5
2D9
100
AcDbEntity
  8
ASSI
100
AcDbSpline
 62
7
  6
CONTINUOUS
 70
0
 71
3
 72
9
 73
5
 74
0
 42
0.0000001
 43
0.0000001
 44
0.0000000001
 40
0.0
 40
0.0
 40
0.0
 40
0.0
 40
0.4918926802
 40
1.0
 40
1.0
 40
1.0
 40
1.0
 10
-16.2524985974
 20
18.2216493418
 30
0.0
 10
-16.252492937
 20
18.1892357169
 30
0.0
 10
-16.2645379534
 20
18.1232861136
 30
0.0
 10
-16.2917545774
 20
18.0627039619
 30
0.0
 10
-16.3086326143
 20
18.0337871337
 30
0.0
  0
SPLINE
  5
2DA
100
AcDbEntity
  8
ASSI
100
AcDbSpline
 62
250
  6
CONTINUOUS
 70
0
 71
3
 72
15
 73
11
 74
0
 42
0.0000001
 43
0.0000001
 44
0.0000000001
 40
0.0
 40
0.0
 40
0.0
 40
0.0
 40
0.1448930637
 40
0.2745074115
 40
0.3910890502
 40
0.4999657034
 40
0.6088417829
 40
0.7254215549
 40
0.8550690553
 40
1.0
 40
1.0
 40
1.0
 40
1.0
 10
-18.1347565067
 20
29.9226924638
 30
0.0
 10
-18.1347547525
 20
29.9632326508
 30
0.0
 10
-18.128631765
 20
30.0403065267
 30
0.0
 10
-18.0974120103
 20
30.1461777289
 30
0.0
 10
-18.0448302926
 20
30.2321492076
 30
0.0
 10
-17.9718393532
 20
30.2935484806
 30
0.0
 10
-17.8821723754
 20
30.326062889
 30
0.0
 10
-17.7814193572
 20
30.3286218375
 30
0.0
 10
-17.6741035511
 20
30.3027155415
 30
0.0
 10
-17.6042755469
 20
30.2694741514
 30
0.0
 10
-17.5691572384
 20
30.2491992745
 30
0.0
  0
SPLINE
  5
2DB
100
AcDbEntity
  8
ASSI
100
AcDbSpline
 62
250
  6
CONTINUOUS
 70
0
 71
3
 72
9
 73
5
 74
0
 42
0.0000001
 43
0.0000001
 44
0.0000000001
 40
0.0
 40
0.0
 40
0.0
 40
0.0
 40
0.2464745928
 40
1.0
 40
1.0
 40
1.0
 40
1.0
 10
-16.6607795941
 20
-13.0710917452
 30
0.0
 10
-16.6606855302
 20
-13.0649830876
 30
0.0
 10
-16.6600028415
 20
-13.0402030569
 30
0.0
 10
-16.6584003344
 20
-13.0154603185
 30
0.0
 10
-16.6570915318
 20
-12.9968285476
 30
0.0
  0
SPLINE
  5
2DC
100
AcDbEntity
  8
ASSI
100
AcDbSpline
 62
250
  6
CONTINUOUS
 70
0
 71
3
 72
18
 73
14
 74
0
 42
0.0000001
 43
0.0000001
 44
0.0000000001
 40
0.0
 40
0.0
 40
0.0
 40
0.0
 40
0.1447590133
 40
0.2859399858
 40
0.4225384233
 40
0.5541011949
 40
0.6789289793
 40
0.7374700949
 40
0.792132172
 40
0.8427462253
 40
0.8911911912
 40
0.9422346249
 40
1.0
 40
1.0
 40
1.0
 40
1.0
 10
-16.6570915318
 20
-12.9968285476
 30
0.0
 10
-16.6549096654
 20
-12.9657680711
 30
0.0
 10
-16.6504901347
 20
-12.904413624
 30
0.0
 10
-16.6482663848
 20
-12.8135112553
 30
0.0
 10
-16.6510754864
 20
-12.7254510145
 30
0.0
 10
-16.6589005974
 20
-12.6412533559
 30
0.0
 10
-16.6704863642
 20
-12.5743174333
 30
0.0
 10
-16.6856677893
 20
-12.5253077544
 30
0.0
 10
-16.7009958061
 20
-12.49338148
 30
0.0
 10
-16.7221048585
 20
-12.4672863628
 30
0.0
 10
-16.7508810984
 20
-12.4507251674
 30
0.0
 10
-16.7853919123
 20
-12.4472744709
 30
0.0
 10
-16.8084754445
 20
-12.4528829564
 30
0.0
 10
-16.8201708277
 20
-12.4570782471
 30
0.0
  0
SPLINE
  5
2DD
100
AcDbEntity
  8
ASSI
100
AcDbSpline
 62
250
  6
CONTINUOUS
 70
0
 71
3
 72
9
 73
5
 74
0
 42
0.0000001
 43
0.0000001
 44
0.0000000001
 40
0.0
 40
0.0
 40
0.0
 40
0.0
 40
0.2368288345
 40
1.0
 40
1.0
 40
1.0
 40
1.0
 10
-16.9170560562
 20
-6.0360923179
 30
0.0
 10
-16.9140344636
 20
-6.0368693497
 30
0.0
 10
-16.9010638937
 20
-6.0393282288
 30
0.0
 10
-16.8875980477
 20
-6.038525751
 30
0.0
 10
-16.8777270222
 20
-6.0366176157
 30
0.0
  0
SPLINE
  5
2DE
100
AcDbEntity
  8
ASSI
100
AcDbSpline
 62
250
  6
CONTINUOUS
 70
0
 71
3
 72
9
 73
5
 74
0
 42
0.0000001
 43
0.0000001
 44
0.0000000001
 40
0.0
 40
0.0
 40
0.0
 40
0.0
 40
0.2344604412
 40
1.0
 40
1.0
 40
1.0
 40
1.0
 10
-16.8777270222
 20
-6.0366176157
 30
0.0
 10
-16.874079263
 20
-6.0359124795
 30
0.0
 10
-16.8586690653
 20
-6.0321451863
 30
0.0
 10
-16.8439952112
 20
-6.0256719479
 30
0.0
 10
-16.8333985298
 20
-6.0197670864
 30
0.0
  0
SPLINE
  5
2DF
100
AcDbEntity
  8
ASSI
100
AcDbSpline
 62
250
  6
CONTINUOUS
 70
0
 71
3
 72
11
 73
7
 74
0
 42
0.0000001
 43
0.0000001
 44
0.0000000001
 40
0.0
 40
0.0
 40
0.0
 40
0.0
 40
0.2372088344
 40
0.4999770365
 40
0.7627420139
 40
1.0
 40
1.0
 40
1.0
 40
1.0
 10
-17.5691572384
 20
-13.9769923783
 30
0.0
 10
-17.6494428024
 20
-13.9306318682
 30
0.0
 10
-17.8014012174
 20
-13.802761828
 30
0.0
 10
-17.9787590596
 20
-13.5604110094
 30
0.0
 10
-18.099984866
 20
-13.2856282666
 30
0.0
 10
-18.1347513807
 20
-13.0900745133
 30
0.0
 10
-18.1347565067
 20
-12.9973457099
 30
0.0
  0
SPLINE
  5
2E0
100
AcDbEntity
  8
ASSI
100
AcDbSpline
 62
250
  6
CONTINUOUS
 70
0
 71
3
 72
11
 73
7
 74
0
 42
0.0000001
 43
0.0000001
 44
0.0000000001
 40
0.0
 40
0.0
 40
0.0
 40
0.0
 40
0.2918770439
 40
0.5511243195
 40
0.7829698739
 40
1.0
 40
1.0
 40
1.0
 40
1.0
 10
-31.4463062236
 20
52.3221489086
 30
0.0
 10
-31.5173812553
 20
52.3617075843
 30
0.0
 10
-31.6582981029
 20
52.4255642373
 30
0.0
 10
-31.8740446028
 20
52.4706144364
 30
0.0
 10
-32.0740109871
 20
52.4554939265
 30
0.0
 10
-32.1908380254
 20
52.4023501783
 30
0.0
 10
-32.2403128255
 20
52.3675582256
 30
0.0
  0
SPLINE
  5
2E1
100
AcDbEntity
  8
ASSI
100
AcDbSpline
 62
250
  6
CONTINUOUS
 70
0
 71
3
 72
9
 73
5
 74
0
 42
0.0000001
 43
0.0000001
 44
0.0000000001
 40
0.0
 40
0.0
 40
0.0
 40
0.0
 40
0.2368288345
 40
1.0
 40
1.0
 40
1.0
 40
1.0
 10
-16.9170560562
 20
19.7643684287
 30
0.0
 10
-16.9140344636
 20
19.7635913969
 30
0.0
 10
-16.9010638937
 20
19.7611325178
 30
0.0
 10
-16.8875980477
 20
19.7619349957
 30
0.0
 10
-16.8777270222
 20
19.7638431309
 30
0.0
  0
SPLINE
  5
2E2
100
AcDbEntity
  8
ASSI
100
AcDbSpline
 62
250
  6
CONTINUOUS
 70
0
 71
3
 72
9
 73
5
 74
0
 42
0.0000001
 43
0.0000001
 44
0.0000000001
 40
0.0
 40
0.0
 40
0.0
 40
0.0
 40
0.2344604412
 40
1.0
 40
1.0
 40
1.0
 40
1.0
 10
-16.8777270222
 20
19.7638431309
 30
0.0
 10
-16.874079263
 20
19.7645482672
 30
0.0
 10
-16.8586690653
 20
19.7683155604
 30
0.0
 10
-16.8439952112
 20
19.7747887988
 30
0.0
 10
-16.8333985298
 20
19.7806936602
 30
0.0
  0
SPLINE
  5
2E3
100
AcDbEntity
  8
ASSI
100
AcDbSpline
 62
250
  6
CONTINUOUS
 70
0
 71
3
 72
11
 73
7
 74
0
 42
0.0000001
 43
0.0000001
 44
0.0000000001
 40
0.0
 40
0.0
 40
0.0
 40
0.0
 40
0.2371961319
 40
0.4999693619
 40
0.762753566
 40
1.0
 40
1.0
 40
1.0
 40
1.0
 10
-32.4874937753
 20
-17.8138554132
 30
0.0
 10
-32.4874905188
 20
-17.9295998892
 30
0.0
 10
-32.4441742729
 20
-18.1737357982
 30
0.0
 10
-32.2928945044
 20
-18.5168343307
 30
0.0
 10
-32.0714001744
 20
-18.8194249797
 30
0.0
 10
-31.8816113314
 20
-18.9790309943
 30
0.0
 10
-31.7813560594
 20
-19.036921813
 30
0.0
  0
SPLINE
  5
2E4
100
AcDbEntity
  8
ASSI
100
AcDbSpline
 62
250
  6
CONTINUOUS
 70
0
 71
3
 72
9
 73
5
 74
0
 42
0.0000001
 43
0.0000001
 44
0.0000000001
 40
0.0
 40
0.0
 40
0.0
 40
0.0
 40
0.4544792301
 40
1.0
 40
1.0
 40
1.0
 40
1.0
 10
32.6352620686
 20
-50.9463695449
 30
0.0
 10
32.6345923286
 20
-50.9603974537
 30
0.0
 10
32.6224562164
 20
-50.9908806159
 30
0.0
 10
32.5981652986
 20
-51.0113255867
 30
0.0
 10
32.5839750721
 20
-51.0204251226
 30
0.0
  0
SPLINE
  5
2E5
100
AcDbEntity
  8
ASSI
100
AcDbSpline
 62
250
  6
CONTINUOUS
 70
0
 71
3
 72
9
 73
5
 74
0
 42
0.0000001
 43
0.0000001
 44
0.0000000001
 40
0.0
 40
0.0
 40
0.0
 40
0.0
 40
0.4536497345
 40
1.0
 40
1.0
 40
1.0
 40
1.0
 10
32.6353383565
 20
18.4534564901
 30
0.0
 10
32.6353419965
 20
18.4389712062
 30
0.0
 10
32.6237893479
 20
18.4068726786
 30
0.0
 10
32.598660353
 20
18.385603957
 30
0.0
 10
32.5839750721
 20
18.3761869656
 30
0.0
  0
SPLINE
  5
2E6
100
AcDbEntity
  8
ASSI
100
AcDbSpline
 62
250
  6
CONTINUOUS
 70
0
 71
3
 72
9
 73
5
 74
0
 42
0.0000001
 43
0.0000001
 44
0.0000000001
 40
0.0
 40
0.0
 40
0.0
 40
0.0
 40
0.4536351044
 40
1.0
 40
1.0
 40
1.0
 40
1.0
 10
32.1922516007
 20
19.2209108395
 30
0.0
 10
32.1797092268
 20
19.2281568452
 30
0.0
 10
32.1461335248
 20
19.2342001602
 30
0.0
 10
32.1151502092
 20
19.2230696049
 30
0.0
 10
32.0996520672
 20
19.2150590163
 30
0.0
  0
SPLINE
  5
2E7
100
AcDbEntity
  8
ASSI
100
AcDbSpline
 62
250
  6
CONTINUOUS
 70
0
 71
3
 72
9
 73
5
 74
0
 42
0.0000001
 43
0.0000001
 44
0.0000000001
 40
0.0
 40
0.0
 40
0.0
 40
0.0
 40
0.4536351044
 40
1.0
 40
1.0
 40
1.0
 40
1.0
 10
-27.9089136147
 20
53.9225703904
 30
0.0
 10
-27.9214559886
 20
53.9298163961
 30
0.0
 10
-27.9550316905
 20
53.9358597111
 30
0.0
 10
-27.9860150062
 20
53.9247291557
 30
0.0
 10
-28.0015131481
 20
53.9167185672
 30
0.0
  0
SPLINE
  5
2E8
100
AcDbEntity
  8
ASSI
100
AcDbSpline
 62
250
  6
CONTINUOUS
 70
0
 71
3
 72
15
 73
11
 74
0
 42
0.0000001
 43
0.0000001
 44
0.0000000001
 40
0.0
 40
0.0
 40
0.0
 40
0.0
 40
0.1449060871
 40
0.2745322401
 40
0.3911239976
 40
0.4999911801
 40
0.6088537254
 40
0.7254418835
 40
0.8550815055
 40
1.0
 40
1.0
 40
1.0
 40
1.0
 10
-31.7813560594
 20
51.7210196663
 30
0.0
 10
-31.8252027745
 20
51.7463345653
 30
0.0
 10
-31.9123752563
 20
51.7878587309
 30
0.0
 10
-32.0463577021
 20
51.8202671246
 30
0.0
 10
-32.172171483
 20
51.8171626668
 30
0.0
 10
-32.2841614376
 20
51.7765995095
 30
0.0
 10
-32.3753036172
 20
51.6999185105
 30
0.0
 10
-32.4409217897
 20
51.5925233226
 30
0.0
 10
-32.4798612148
 20
51.4602820407
 30
0.0
 10
-32.487492002
 20
51.3640175545
 30
0.0
 10
-32.4874937753
 20
51.3133834008
 30
0.0
  0
SPLINE
  5
2E9
100
AcDbEntity
  8
ASSI
100
AcDbSpline
 62
250
  6
CONTINUOUS
 70
0
 71
3
 72
13
 73
9
 74
0
 42
0.0000001
 43
0.0000001
 44
0.0000000001
 40
0.0
 40
0.0
 40
0.0
 40
0.0
 40
0.1138283961
 40
0.2370237018
 40
0.4999691656
 40
0.7629257133
 40
0.886149009
 40
1.0
 40
1.0
 40
1.0
 40
1.0
 10
29.4807739513
 20
15.9205894123
 30
0.0
 10
29.479441817
 20
16.0037862452
 30
0.0
 10
29.4617335975
 20
16.1769492338
 30
0.0
 10
29.3750429122
 20
16.5328374418
 30
0.0
 10
29.180199293
 20
16.9700488388
 30
0.0
 10
28.8989883928
 20
17.3574222447
 30
0.0
 10
28.6341007843
 20
17.6104824262
 30
0.0
 10
28.4929646796
 20
17.7124261574
 30
0.0
 10
28.4215673775
 20
17.7551890121
 30
0.0
  0
SPLINE
  5
2EA
100
AcDbEntity
  8
ASSI
100
AcDbSpline
 62
250
  6
CONTINUOUS
 70
0
 71
3
 72
11
 73
7
 74
0
 42
0.0000001
 43
0.0000001
 44
0.0000000001
 40
0.0
 40
0.0
 40
0.0
 40
0.0
 40
0.218466408
 40
0.4511131032
 40
0.7098861092
 40
1.0
 40
1.0
 40
1.0
 40
1.0
 10
14.3354503527
 20
-31.789997431
 30
0.0
 10
14.3189705856
 20
-31.800173758
 30
0.0
 10
14.280863377
 20
-31.8151627479
 30
0.0
 10
14.217027308
 20
-31.817584083
 30
0.0
 10
14.1490030305
 20
-31.8012534853
 30
0.0
 10
14.1049035936
 20
-31.7798782057
 30
0.0
 10
14.0827486705
 20
-31.7668126944
 30
0.0
  0
SPLINE
  5
2EB
100
AcDbEntity
  8
ASSI
100
AcDbSpline
 62
250
  6
CONTINUOUS
 70
0
 71
3
 72
11
 73
7
 74
0
 42
0.0000001
 43
0.0000001
 44
0.0000000001
 40
0.0
 40
0.0
 40
0.0
 40
0.0
 40
0.2170146302
 40
0.4488489626
 40
0.7081110881
 40
1.0
 40
1.0
 40
1.0
 40
1.0
 10
29.1231617377
 20
-53.9168717921
 30
0.0
 10
29.1780133912
 20
-53.8914211587
 30
0.0
 10
29.2824210937
 20
-53.8168311709
 30
0.0
 10
29.3954800592
 20
-53.6512497227
 30
0.0
 10
29.4643333999
 20
-53.4419165808
 30
0.0
 10
29.4794928087
 20
-53.2879706135
 30
0.0
 10
29.4807739513
 20
-53.2066494017
 30
0.0
  0
SPLINE
  5
2EC
100
AcDbEntity
  8
ASSI
100
AcDbSpline
 62
250
  6
CONTINUOUS
 70
0
 71
3
 72
11
 73
7
 74
0
 42
0.0000001
 43
0.0000001
 44
0.0000000001
 40
0.0
 40
0.0
 40
0.0
 40
0.0
 40
0.21781102
 40
0.4519571045
 40
0.7115312406
 40
1.0
 40
1.0
 40
1.0
 40
1.0
 10
-28.3310714721
 20
53.9575686042
 30
0.0
 10
-28.3086294068
 20
53.9686759053
 30
0.0
 10
-28.2578937982
 20
53.9839485114
 30
0.0
 10
-28.1751359693
 20
53.9833244339
 30
0.0
 10
-28.0873672441
 20
53.9607355752
 30
0.0
 10
-28.0302330352
 20
53.93330107
 30
0.0
 10
-28.0015131481
 20
53.9167185672
 30
0.0
  0
SPLINE
  5
2ED
100
AcDbEntity
  8
ASSI
100
AcDbSpline
 62
250
  6
CONTINUOUS
 70
0
 71
3
 72
9
 73
5
 74
0
 42
0.0000001
 43
0.0000001
 44
0.0000000001
 40
0.0
 40
0.0
 40
0.0
 40
0.0
 40
0.2771686914
 40
1.0
 40
1.0
 40
1.0
 40
1.0
 10
-16.8333985298
 20
19.7806936602
 30
0.0
 10
-16.822225892
 20
19.7737841856
 30
0.0
 10
-16.7833707524
 20
19.7468614914
 30
0.0
 10
-16.750037859
 20
19.7099956943
 30
0.0
 10
-16.7355353817
 20
19.6789577775
 30
0.0
  0
SPLINE
  5
2EE
100
AcDbEntity
  8
ASSI
100
AcDbSpline
 62
7
  6
CONTINUOUS
 70
0
 71
3
 72
9
 73
5
 74
0
 42
0.0000001
 43
0.0000001
 44
0.0000000001
 40
0.0
 40
0.0
 40
0.0
 40
0.0
 40
0.4918926802
 40
1.0
 40
1.0
 40
1.0
 40
1.0
 10
-16.2524985974
 20
-9.7016341245
 30
0.0
 10
-16.252492937
 20
-9.7340477495
 30
0.0
 10
-16.2645379534
 20
-9.7999973527
 30
0.0
 10
-16.2917545774
 20
-9.8605795045
 30
0.0
 10
-16.3086326143
 20
-9.8894963326
 30
0.0
  0
SPLINE
  5
2EF
100
AcDbEntity
  8
ASSI
100
AcDbSpline
 62
250
  6
CONTINUOUS
 70
0
 71
3
 72
9
 73
5
 74
0
 42
0.0000001
 43
0.0000001
 44
0.0000000001
 40
0.0
 40
0.0
 40
0.0
 40
0.0
 40
0.4676554015
 40
1.0
 40
1.0
 40
1.0
 40
1.0
 10
-16.9186671699
 20
-6.0222893305
 30
0.0
 10
-16.9186671751
 20
-6.0348341197
 30
0.0
 10
-16.9263478602
 20
-6.0619232977
 30
0.0
 10
-16.9450775347
 20
-6.0821890303
 30
0.0
 10
-16.9561598954
 20
-6.0911946738
 30
0.0
  0
SPLINE
  5
2F0
100
AcDbEntity
  8
ASSI
100
AcDbSpline
 62
250
  6
CONTINUOUS
 70
0
 71
3
 72
9
 73
5
 74
0
 42
0.0000001
 43
0.0000001
 44
0.0000000001
 40
0.0
 40
0.0
 40
0.0
 40
0.0
 40
0.243264611
 40
1.0
 40
1.0
 40
1.0
 40
1.0
 10
-16.9561598954
 20
-6.0911946738
 30
0.0
 10
-16.957589943
 20
-6.0923567457
 30
0.0
 10
-16.9635610045
 20
-6.0970193587
 30
0.0
 10
-16.9698800512
 20
-6.1012314274
 30
0.0
 10
-16.9747983469
 20
-6.1041754575
 30
0.0
  0
SPLINE
  5
2F1
100
AcDbEntity
  8
ASSI
100
AcDbSpline
 62
250
  6
CONTINUOUS
 70
0
 71
3
 72
9
 73
5
 74
0
 42
0.0000001
 43
0.0000001
 44
0.0000000001
 40
0.0
 40
0.0
 40
0.0
 40
0.0
 40
0.4676554015
 40
1.0
 40
1.0
 40
1.0
 40
1.0
 10
-16.9186671699
 20
19.7781714162
 30
0.0
 10
-16.9186671751
 20
19.7656266269
 30
0.0
 10
-16.9263478602
 20
19.738537449
 30
0.0
 10
-16.9450775347
 20
19.7182717163
 30
0.0
 10
-16.9561598954
 20
19.7092660728
 30
0.0
  0
SPLINE
  5
2F2
100
AcDbEntity
  8
ASSI
100
AcDbSpline
 62
250
  6
CONTINUOUS
 70
0
 71
3
 72
9
 73
5
 74
0
 42
0.0000001
 43
0.0000001
 44
0.0000000001
 40
0.0
 40
0.0
 40
0.0
 40
0.0
 40
0.243264611
 40
1.0
 40
1.0
 40
1.0
 40
1.0
 10
-16.9561598954
 20
19.7092660728
 30
0.0
 10
-16.957589943
 20
19.708104001
 30
0.0
 10
-16.9635610045
 20
19.703441388
 30
0.0
 10
-16.9698800512
 20
19.6992293192
 30
0.0
 10
-16.9747983469
 20
19.6962852891
 30
0.0
  0
SPLINE
  5
2F3
100
AcDbEntity
  8
ASSI
100
AcDbSpline
 62
250
  6
CONTINUOUS
 70
0
 71
3
 72
11
 73
7
 74
0
 42
0.0000001
 43
0.0000001
 44
0.0000000001
 40
0.0
 40
0.0
 40
0.0
 40
0.0
 40
0.2371961319
 40
0.4999693619
 40
0.762753566
 40
1.0
 40
1.0
 40
1.0
 40
1.0
 10
28.7926552576
 20
15.9309933698
 30
0.0
 10
28.792652001
 20
16.0467378459
 30
0.0
 10
28.7493357552
 20
16.2908737549
 30
0.0
 10
28.5980559866
 20
16.6339722874
 30
0.0
 10
28.3765616566
 20
16.9365629364
 30
0.0
 10
28.1867728136
 20
17.0961689509
 30
0.0
 10
28.0865175417
 20
17.1540597697
 30
0.0
  0
SPLINE
  5
2F4
100
AcDbEntity
  8
ASSI
100
AcDbSpline
 62
250
  6
CONTINUOUS
 70
0
 71
3
 72
15
 73
11
 74
0
 42
0.0000001
 43
0.0000001
 44
0.0000000001
 40
0.0
 40
0.0
 40
0.0
 40
0.0
 40
0.1449060871
 40
0.2745322401
 40
0.3911239976
 40
0.4999911801
 40
0.6088537254
 40
0.7254418835
 40
0.8550815055
 40
1.0
 40
1.0
 40
1.0
 40
1.0
 10
28.0865175417
 20
-53.6038817096
 30
0.0
 10
28.1303642568
 20
-53.6291966086
 30
0.0
 10
28.2175367386
 20
-53.6707207743
 30
0.0
 10
28.3515191843
 20
-53.703129168
 30
0.0
 10
28.4773329652
 20
-53.7000247101
 30
0.0
 10
28.5893229199
 20
-53.6594615528
 30
0.0
 10
28.6804650995
 20
-53.5827805538
 30
0.0
 10
28.7460832719
 20
-53.475385366
 30
0.0
 10
28.785022697
 20
-53.3431440841
 30
0.0
 10
28.7926534842
 20
-53.2468795979
 30
0.0
 10
28.7926552576
 20
-53.1962454441
 30
0.0
  0
SPLINE
  5
2F5
100
AcDbEntity
  8
ASSI
100
AcDbSpline
 62
250
  6
CONTINUOUS
 70
0
 71
3
 72
9
 73
5
 74
0
 42
0.0000001
 43
0.0000001
 44
0.0000000001
 40
0.0
 40
0.0
 40
0.0
 40
0.0
 40
0.2771686914
 40
1.0
 40
1.0
 40
1.0
 40
1.0
 10
-16.8333985298
 20
-6.0197670864
 30
0.0
 10
-16.822225892
 20
-6.0266765611
 30
0.0
 10
-16.7833707524
 20
-6.0535992553
 30
0.0
 10
-16.750037859
 20
-6.0904650523
 30
0.0
 10
-16.7355353817
 20
-6.1215029692
 30
0.0
  0
SPLINE
  5
2F6
100
AcDbEntity
  8
ASSI
100
AcDbSpline
 62
250
  6
CONTINUOUS
 70
0
 71
3
 72
15
 73
11
 74
0
 42
0.0000001
 43
0.0000001
 44
0.0000000001
 40
0.0
 40
0.0
 40
0.0
 40
0.0
 40
0.1448930666
 40
0.2745074101
 40
0.3910890532
 40
0.4999657061
 40
0.6088417823
 40
0.7254215739
 40
0.8550690277
 40
1.0
 40
1.0
 40
1.0
 40
1.0
 10
14.439917989
 20
-31.8055545072
 30
0.0
 10
14.4399166206
 20
-31.8460946947
 30
0.0
 10
14.4337930819
 20
-31.9231685689
 30
0.0
 10
14.4025735324
 20
-32.0290397738
 30
0.0
 10
14.349991765
 20
-32.1150112502
 30
0.0
 10
14.2770008397
 20
-32.1764105232
 30
0.0
 10
14.1873338484
 20
-32.2089249355
 30
0.0
 10
14.0865808656
 20
-32.2114838659
 30
0.0
 10
13.97926495
 20
-32.1855777143
 30
0.0
 10
13.9094372929
 20
-32.1523357529
 30
0.0
 10
13.8743187207
 20
-32.1320613178
 30
0.0
  0
SPLINE
  5
2F7
100
AcDbEntity
  8
ASSI
100
AcDbSpline
 62
250
  6
CONTINUOUS
 70
0
 71
3
 72
9
 73
5
 74
0
 42
0.0000001
 43
0.0000001
 44
0.0000000001
 40
0.0
 40
0.0
 40
0.0
 40
0.0
 40
0.2393733707
 40
1.0
 40
1.0
 40
1.0
 40
1.0
 10
13.8743187207
 20
12.094130335
 30
0.0
 10
13.8867091343
 20
12.0869757079
 30
0.0
 10
13.9376126161
 20
12.0556081365
 30
0.0
 10
13.9850937985
 20
12.018818739
 30
0.0
 10
14.0191689545
 20
11.9887214555
 30
0.0
  0
SPLINE
  5
2F8
100
AcDbEntity
  8
ASSI
100
AcDbSpline
 62
250
  6
CONTINUOUS
 70
0
 71
3
 72
11
 73
7
 74
0
 42
0.0000001
 43
0.0000001
 44
0.0000000001
 40
0.0
 40
0.0
 40
0.0
 40
0.0
 40
0.2513189018
 40
0.513787089
 40
0.7689261217
 40
1.0
 40
1.0
 40
1.0
 40
1.0
 10
14.0191689545
 20
11.9887214555
 30
0.0
 10
14.0816133462
 20
11.93356671
 30
0.0
 10
14.1963234651
 20
11.8057288175
 30
0.0
 10
14.3286688375
 20
11.5862590097
 30
0.0
 10
14.4159818584
 20
11.3524397422
 30
0.0
 10
14.4399147263
 20
11.1910869895
 30
0.0
 10
14.439917989
 20
11.1144836666
 30
0.0
  0
SPLINE
  5
2F9
100
AcDbEntity
  8
ASSI
100
AcDbSpline
 62
7
  6
CONTINUOUS
 70
0
 71
3
 72
9
 73
5
 74
0
 42
0.0000001
 43
0.0000001
 44
0.0000000001
 40
0.0
 40
0.0
 40
0.0
 40
0.0
 40
0.4918926802
 40
1.0
 40
1.0
 40
1.0
 40
1.0
 10
-16.2524985974
 20
3.1985962488
 30
0.0
 10
-16.252492937
 20
3.1661826239
 30
0.0
 10
-16.2645379534
 20
3.1002330206
 30
0.0
 10
-16.2917545774
 20
3.0396508689
 30
0.0
 10
-16.3086326143
 20
3.0107340407
 30
0.0
  0
SPLINE
  5
2FA
100
AcDbEntity
  8
ASSI
100
AcDbSpline
 62
250
  6
CONTINUOUS
 70
0
 71
3
 72
11
 73
7
 74
0
 42
0.0000001
 43
0.0000001
 44
0.0000000001
 40
0.0
 40
0.0
 40
0.0
 40
0.0
 40
0.2884633352
 40
0.5480355163
 40
0.7821837214
 40
1.0
 40
1.0
 40
1.0
 40
1.0
 10
32.5839750721
 20
-51.0204251226
 30
0.0
 10
32.5839750721
 20
-51.0535827327
 30
0.0
 10
32.5791661194
 20
-51.1167688083
 30
0.0
 10
32.5548467178
 20
-51.2040584885
 30
0.0
 10
32.5140143531
 20
-51.2760300501
 30
0.0
 10
32.4754268639
 20
-51.3123281197
 30
0.0
 10
32.4545901439
 20
-51.3262091977
 30
0.0
  0
SPLINE
  5
2FB
100
AcDbEntity
  8
ASSI
100
AcDbSpline
 62
250
  6
CONTINUOUS
 70
0
 71
3
 72
9
 73
5
 74
0
 42
0.0000001
 43
0.0000001
 44
0.0000000001
 40
0.0
 40
0.0
 40
0.0
 40
0.0
 40
0.2404558759
 40
1.0
 40
1.0
 40
1.0
 40
1.0
 10
32.0996520672
 20
19.2150590163
 30
0.0
 10
32.1088224014
 20
19.2097641803
 30
0.0
 10
32.1464108841
 20
19.186798801
 30
0.0
 10
32.1818219922
 20
19.1603374644
 30
0.0
 10
32.2074239811
 20
19.1388118245
 30
0.0
  0
SPLINE
  5
2FC
100
AcDbEntity
  8
ASSI
100
AcDbSpline
 62
250
  6
CONTINUOUS
 70
0
 71
3
 72
11
 73
7
 74
0
 42
0.0000001
 43
0.0000001
 44
0.0000000001
 40
0.0
 40
0.0
 40
0.0
 40
0.0
 40
0.2496981171
 40
0.5122838383
 40
0.768323772
 40
1.0
 40
1.0
 40
1.0
 40
1.0
 10
32.2074239811
 20
19.1388118245
 30
0.0
 10
32.2630370153
 20
19.0920534984
 30
0.0
 10
32.3654822406
 20
18.9818966772
 30
0.0
 10
32.4838918955
 20
18.7907712623
 30
0.0
 10
32.5623352968
 20
18.5856598529
 30
0.0
 10
32.583975072
 20
18.4436006763
 30
0.0
 10
32.5839750721
 20
18.3761869656
 30
0.0
  0
SPLINE
  5
2FD
100
AcDbEntity
  8
ASSI
100
AcDbSpline
 62
7
  6
CONTINUOUS
 70
0
 71
3
 72
9
 73
5
 74
0
 42
0.0000001
 43
0.0000001
 44
0.0000000001
 40
0.0
 40
0.0
 40
0.0
 40
0.0
 40
0.5125958951
 40
1.0
 40
1.0
 40
1.0
 40
1.0
 10
-16.2525015902
 20
11.7108115605
 30
0.0
 10
-16.2525013096
 20
11.6879062202
 30
0.0
 10
-16.2565080477
 20
11.6433292964
 30
0.0
 10
-16.2633562729
 20
11.5989840353
 30
0.0
 10
-16.2633562729
 20
11.5772043898
 30
0.0
  0
SPLINE
  5
2FE
100
AcDbEntity
  8
ASSI
100
AcDbSpline
 62
250
  6
CONTINUOUS
 70
0
 71
3
 72
18
 73
14
 74
0
 42
0.0000001
 43
0.0000001
 44
0.0000000001
 40
0.0
 40
0.0
 40
0.0
 40
0.0
 40
0.0284908781
 40
0.050142655
 40
0.0955048435
 40
0.1492622624
 40
0.208245159
 40
0.2704208856
 40
0.3346606756
 40
0.4667182327
 40
0.6009802575
 40
0.7354809868
 40
1.0
 40
1.0
 40
1.0
 40
1.0
 10
-16.4151279194
 20
-13.3549806058
 30
0.0
 10
-16.413800217
 20
-13.3544207976
 30
0.0
 10
-16.4115601248
 20
-13.3528620825
 30
0.0
 10
-16.4100203067
 20
-13.3479816003
 30
0.0
 10
-16.4129052873
 20
-13.3420557133
 30
0.0
 10
-16.417788533
 20
-13.3358794752
 30
0.0
 10
-16.4240327643
 20
-13.3295364282
 30
0.0
 10
-16.4309830171
 20
-13.3232583905
 30
0.0
 10
-16.441003876
 20
-13.3148541894
 30
0.0
 10
-16.4542011002
 20
-13.3045886921
 30
0.0
 10
-16.470518022
 20
-13.2925577794
 30
0.0
 10
-16.4924981813
 20
-13.2769279958
 30
0.0
 10
-16.5091647853
 20
-13.2655449456
 30
0.0
 10
-16.5203107426
 20
-13.2581468283
 30
0.0
  0
SPLINE
  5
2FF
100
AcDbEntity
  8
ASSI
100
AcDbSpline
 62
250
  6
CONTINUOUS
 70
0
 71
3
 72
9
 73
5
 74
0
 42
0.0000001
 43
0.0000001
 44
0.0000000001
 40
0.0
 40
0.0
 40
0.0
 40
0.0
 40
0.2595401728
 40
1.0
 40
1.0
 40
1.0
 40
1.0
 10
-16.5203107426
 20
-13.2581468283
 30
0.0
 10
-16.5241885436
 20
-13.255572942
 30
0.0
 10
-16.5391802666
 20
-13.2457343211
 30
0.0
 10
-16.5543853875
 20
-13.2362060531
 30
0.0
 10
-16.5658843716
 20
-13.2295659091
 30
0.0
  0
SPLINE
  5
300
100
AcDbEntity
  8
ASSI
100
AcDbSpline
 62
7
  6
CONTINUOUS
 70
0
 71
3
 72
14
 73
10
 74
0
 42
0.0000001
 43
0.0000001
 44
0.0000000001
 40
0.0
 40
0.0
 40
0.0
 40
0.0
 40
0.4062737393
 40
0.5747378489
 40
0.7181102862
 40
0.8344930364
 40
0.9218131483
 40
0.9778836336
 40
1.0
 40
1.0
 40
1.0
 40
1.0
 10
-16.3086326143
 20
15.8942968483
 30
0.0
 10
-16.3011129548
 20
15.8904055972
 30
0.0
 10
-16.2904590313
 20
15.884918728
 30
0.0
 10
-16.2771091094
 20
15.8781851303
 30
0.0
 10
-16.2691058666
 20
15.8741691247
 30
0.0
 10
-16.2626400057
 20
15.8711119519
 30
0.0
 10
-16.2576431635
 20
15.8685575012
 30
0.0
 10
-16.2546559405
 20
15.8676827867
 30
0.0
 10
-16.2529096992
 20
15.8665632393
 30
0.0
 10
-16.2525259678
 20
15.8668185581
 30
0.0
  0
SPLINE
  5
301
100
AcDbEntity
  8
ASSI
100
AcDbSpline
 62
7
  6
CONTINUOUS
 70
0
 71
3
 72
11
 73
7
 74
0
 42
0.0000001
 43
0.0000001
 44
0.0000000001
 40
0.0
 40
0.0
 40
0.0
 40
0.0
 40
0.4057866581
 40
0.6882043783
 40
0.8799511588
 40
1.0
 40
1.0
 40
1.0
 40
1.0
 10
-16.2633562729
 20
7.4132059781
 30
0.0
 10
-16.2633562729
 20
7.4051180694
 30
0.0
 10
-16.262391903
 20
7.3913481516
 30
0.0
 10
-16.2580482696
 20
7.3742701449
 30
0.0
 10
-16.2542575641
 20
7.363127549
 30
0.0
 10
-16.2525010063
 20
7.3570427837
 30
0.0
 10
-16.2525014228
 20
7.3546500386
 30
0.0
  0
SPLINE
  5
302
100
AcDbEntity
  8
ASSI
100
AcDbSpline
 62
250
  6
CONTINUOUS
 70
0
 71
3
 72
11
 73
7
 74
0
 42
0.0000001
 43
0.0000001
 44
0.0000000001
 40
0.0
 40
0.0
 40
0.0
 40
0.0
 40
0.289715264
 40
0.5490728574
 40
0.7822091287
 40
1.0
 40
1.0
 40
1.0
 40
1.0
 10
-32.4874937753
 20
-17.8138554132
 30
0.0
 10
-32.5094348428
 20
-17.8011869187
 30
0.0
 10
-32.5492403458
 20
-17.7737720135
 30
0.0
 10
-32.5968097881
 20
-17.7237706968
 30
0.0
 10
-32.6268997122
 20
-17.6684619496
 30
0.0
 10
-32.6339434146
 20
-17.6287640731
 30
0.0
 10
-32.6339395179
 20
-17.6097181346
 30
0.0
  0
SPLINE
  5
303
100
AcDbEntity
  8
ASSI
100
AcDbSpline
 62
250
  6
CONTINUOUS
 70
0
 71
3
 72
11
 73
7
 74
0
 42
0.0000001
 43
0.0000001
 44
0.0000000001
 40
0.0
 40
0.0
 40
0.0
 40
0.0
 40
0.2897208435
 40
0.5490797446
 40
0.7822136639
 40
1.0
 40
1.0
 40
1.0
 40
1.0
 10
-31.7813560594
 20
-19.036921813
 30
0.0
 10
-31.7813560594
 20
-19.0622546352
 30
0.0
 10
-31.7775188908
 20
-19.1104288312
 30
0.0
 10
-31.7580064812
 20
-19.176618023
 30
0.0
 10
-31.7251596863
 20
-19.2303247645
 30
0.0
 10
-31.6943076842
 20
-19.2562709255
 30
0.0
 10
-31.6778143171
 20
-19.2657894956
 30
0.0
  0
SPLINE
  5
304
100
AcDbEntity
  8
ASSI
100
AcDbSpline
 62
250
  6
CONTINUOUS
 70
0
 71
3
 72
11
 73
7
 74
0
 42
0.0000001
 43
0.0000001
 44
0.0000000001
 40
0.0
 40
0.0
 40
0.0
 40
0.0
 40
0.2897198441
 40
0.5490790273
 40
0.782213757
 40
1.0
 40
1.0
 40
1.0
 40
1.0
 10
28.0865175417
 20
-53.6038817096
 30
0.0
 10
28.0865175441
 20
-53.6292136192
 30
0.0
 10
28.0903544531
 20
-53.6773861673
 30
0.0
 10
28.1098654032
 20
-53.7435733899
 30
0.0
 10
28.1427096763
 20
-53.7972792527
 30
0.0
 10
28.1735594743
 20
-53.8232259584
 30
0.0
 10
28.1900518014
 20
-53.8327450733
 30
0.0
  0
SPLINE
  5
305
100
AcDbEntity
  8
ASSI
100
AcDbSpline
 62
250
  6
CONTINUOUS
 70
0
 71
3
 72
11
 73
7
 74
0
 42
0.0000001
 43
0.0000001
 44
0.0000000001
 40
0.0
 40
0.0
 40
0.0
 40
0.0
 40
0.2357336794
 40
0.496792835
 40
0.7595869266
 40
1.0
 40
1.0
 40
1.0
 40
1.0
 10
28.7926552576
 20
-53.1962454441
 30
0.0
 10
28.8410723939
 20
-53.2242008918
 30
0.0
 10
28.9533212302
 20
-53.2656039806
 30
0.0
 10
29.1334364873
 20
-53.287260918
 30
0.0
 10
29.3152198853
 20
-53.2708165986
 30
0.0
 10
29.4301841891
 20
-53.232950109
 30
0.0
 10
29.4807739513
 20
-53.2066494017
 30
0.0
  0
SPLINE
  5
306
100
AcDbEntity
  8
ASSI
100
AcDbSpline
 62
250
  6
CONTINUOUS
 70
0
 71
3
 72
11
 73
7
 74
0
 42
0.0000001
 43
0.0000001
 44
0.0000000001
 40
0.0
 40
0.0
 40
0.0
 40
0.0
 40
0.2357336649
 40
0.4967928207
 40
0.7595869198
 40
1.0
 40
1.0
 40
1.0
 40
1.0
 10
28.7926552576
 20
15.9309933698
 30
0.0
 10
28.8410723929
 20
15.903037929
 30
0.0
 10
28.9533212266
 20
15.8616348501
 30
0.0
 10
29.1334364791
 20
15.8399779157
 30
0.0
 10
29.3152198779
 20
15.8564222285
 30
0.0
 10
29.4301841859
 20
15.8942887093
 30
0.0
 10
29.4807739513
 20
15.9205894123
 30
0.0
  0
SPLINE
  5
307
100
AcDbEntity
  8
ASSI
100
AcDbSpline
 62
250
  6
CONTINUOUS
 70
0
 71
3
 72
11
 73
7
 74
0
 42
0.0000001
 43
0.0000001
 44
0.0000000001
 40
0.0
 40
0.0
 40
0.0
 40
0.0
 40
0.2357278169
 40
0.4967865576
 40
0.7595836173
 40
1.0
 40
1.0
 40
1.0
 40
1.0
 10
28.0865175417
 20
17.1540597697
 30
0.0
 10
28.0865175417
 20
17.2099661877
 30
0.0
 10
28.106788799
 20
17.3278750867
 30
0.0
 10
28.178092129
 20
17.4946849367
 30
0.0
 10
28.2832237514
 20
17.6438925597
 30
0.0
 10
28.3734966621
 20
17.7245246638
 30
0.0
 10
28.4215673775
 20
17.7551890121
 30
0.0
  0
SPLINE
  5
308
100
AcDbEntity
  8
ASSI
100
AcDbSpline
 62
250
  6
CONTINUOUS
 70
0
 71
3
 72
11
 73
7
 74
0
 42
0.0000001
 43
0.0000001
 44
0.0000000001
 40
0.0
 40
0.0
 40
0.0
 40
0.0
 40
0.2357278093
 40
0.4967865444
 40
0.7595836052
 40
1.0
 40
1.0
 40
1.0
 40
1.0
 10
-31.7813560594
 20
51.7210196663
 30
0.0
 10
-31.7813560649
 20
51.7769260833
 30
0.0
 10
-31.7610848174
 20
51.894834983
 30
0.0
 10
-31.6897814933
 20
52.0616448359
 30
0.0
 10
-31.5846498654
 20
52.2108524613
 30
0.0
 10
-31.494376945
 20
52.2914845629
 30
0.0
 10
-31.4463062236
 20
52.3221489086
 30
0.0
  0
SPLINE
  5
309
100
AcDbEntity
  8
ASSI
100
AcDbSpline
 62
250
  6
CONTINUOUS
 70
0
 71
3
 72
11
 73
7
 74
0
 42
0.0000001
 43
0.0000001
 44
0.0000000001
 40
0.0
 40
0.0
 40
0.0
 40
0.0
 40
0.2897143582
 40
0.5490722229
 40
0.7822092242
 40
1.0
 40
1.0
 40
1.0
 40
1.0
 10
-32.4874937753
 20
51.3133834008
 30
0.0
 10
-32.5094341228
 20
51.3260514825
 30
0.0
 10
-32.5492384458
 20
51.3534654358
 30
0.0
 10
-32.5968070019
 20
51.4034647066
 30
0.0
 10
-32.62689738
 20
51.4587710677
 30
0.0
 10
-32.633942513
 20
51.4984674536
 30
0.0
 10
-32.6339395196
 20
51.5175128196
 30
0.0
  0
SPLINE
  5
30A
100
AcDbEntity
  8
ASSI
100
AcDbSpline
 62
250
  6
CONTINUOUS
 70
0
 71
3
 72
11
 73
7
 74
0
 42
0.0000001
 43
0.0000001
 44
0.0000000001
 40
0.0
 40
0.0
 40
0.0
 40
0.0
 40
0.2375046882
 40
0.4999769756
 40
0.7624459843
 40
1.0
 40
1.0
 40
1.0
 40
1.0
 10
-17.360727312
 20
-13.6117437738
 30
0.0
 10
-17.4113064695
 20
-13.583152308
 30
0.0
 10
-17.5070567695
 20
-13.5037837071
 30
0.0
 10
-17.618424145
 20
-13.3523595207
 30
0.0
 10
-17.6938921441
 20
-13.1801936411
 30
0.0
 10
-17.7147565755
 20
-13.0575752154
 30
0.0
 10
-17.7142268267
 20
-12.9994645898
 30
0.0
  0
SPLINE
  5
30B
100
AcDbEntity
  8
ASSI
100
AcDbSpline
 62
7
  6
CONTINUOUS
 70
0
 71
3
 72
14
 73
10
 74
0
 42
0.0000001
 43
0.0000001
 44
0.0000000001
 40
0.0
 40
0.0
 40
0.0
 40
0.0
 40
0.4062737393
 40
0.5747378489
 40
0.7181102862
 40
0.8344930364
 40
0.9218131483
 40
0.9778836336
 40
1.0
 40
1.0
 40
1.0
 40
1.0
 10
-16.3086326143
 20
28.7945272216
 30
0.0
 10
-16.3011129548
 20
28.7906359705
 30
0.0
 10
-16.2904590313
 20
28.7851491013
 30
0.0
 10
-16.2771091094
 20
28.7784155036
 30
0.0
 10
-16.2691058666
 20
28.774399498
 30
0.0
 10
-16.2626400057
 20
28.7713423253
 30
0.0
 10
-16.2576431635
 20
28.7687878746
 30
0.0
 10
-16.2546559405
 20
28.76791316
 30
0.0
 10
-16.2529096992
 20
28.7667936126
 30
0.0
 10
-16.2525259678
 20
28.7670489315
 30
0.0
  0
SPLINE
  5
30C
100
AcDbEntity
  8
ASSI
100
AcDbSpline
 62
7
  6
CONTINUOUS
 70
0
 71
3
 72
14
 73
10
 74
0
 42
0.0000001
 43
0.0000001
 44
0.0000000001
 40
0.0
 40
0.0
 40
0.0
 40
0.0
 40
0.4062737393
 40
0.5747378489
 40
0.7181102862
 40
0.8344930364
 40
0.9218131483
 40
0.9778836336
 40
1.0
 40
1.0
 40
1.0
 40
1.0
 10
-16.3086326143
 20
0.8712437553
 30
0.0
 10
-16.3011129548
 20
0.8673525042
 30
0.0
 10
-16.2904590313
 20
0.861865635
 30
0.0
 10
-16.2771091094
 20
0.8551320373
 30
0.0
 10
-16.2691058666
 20
0.8511160317
 30
0.0
 10
-16.2626400057
 20
0.8480588589
 30
0.0
 10
-16.2576431635
 20
0.8455044082
 30
0.0
 10
-16.2546559405
 20
0.8446296937
 30
0.0
 10
-16.2529096992
 20
0.8435101463
 30
0.0
 10
-16.2525259678
 20
0.8437654651
 30
0.0
  0
SPLINE
  5
30D
100
AcDbEntity
  8
ASSI
100
AcDbSpline
 62
7
  6
CONTINUOUS
 70
0
 71
3
 72
14
 73
10
 74
0
 42
0.0000001
 43
0.0000001
 44
0.0000000001
 40
0.0
 40
0.0
 40
0.0
 40
0.0
 40
0.4062737393
 40
0.5747378489
 40
0.7181102862
 40
0.8344930364
 40
0.9218131483
 40
0.9778836336
 40
1.0
 40
1.0
 40
1.0
 40
1.0
 10
-16.3086326143
 20
-12.028986618
 30
0.0
 10
-16.3011129548
 20
-12.0328778691
 30
0.0
 10
-16.2904590313
 20
-12.0383647383
 30
0.0
 10
-16.2771091094
 20
-12.045098336
 30
0.0
 10
-16.2691058666
 20
-12.0491143416
 30
0.0
 10
-16.2626400057
 20
-12.0521715144
 30
0.0
 10
-16.2576431635
 20
-12.0547259651
 30
0.0
 10
-16.2546559405
 20
-12.0556006796
 30
0.0
 10
-16.2529096992
 20
-12.056720227
 30
0.0
 10
-16.2525259678
 20
-12.0564649082
 30
0.0
  0
SPLINE
  5
30E
100
AcDbEntity
  8
ASSI
100
AcDbSpline
 62
250
  6
CONTINUOUS
 70
0
 71
3
 72
11
 73
7
 74
0
 42
0.0000001
 43
0.0000001
 44
0.0000000001
 40
0.0
 40
0.0
 40
0.0
 40
0.0
 40
0.2893771317
 40
0.5483716039
 40
0.7816591772
 40
1.0
 40
1.0
 40
1.0
 40
1.0
 10
-17.7142268547
 20
29.9205735635
 30
0.0
 10
-17.7144576147
 20
29.9455983626
 30
0.0
 10
-17.7111107256
 20
29.9932205527
 30
0.0
 10
-17.6923565125
 20
30.0587948963
 30
0.0
 10
-17.6602874263
 20
30.1122055918
 30
0.0
 10
-17.6299416991
 20
30.1381515641
 30
0.0
 10
-17.6136826554
 20
30.1477532725
 30
0.0
  0
SPLINE
  5
30F
100
AcDbEntity
  8
ASSI
100
AcDbSpline
 62
250
  6
CONTINUOUS
 70
0
 71
3
 72
11
 73
7
 74
0
 42
0.0000001
 43
0.0000001
 44
0.0000000001
 40
0.0
 40
0.0
 40
0.0
 40
0.0
 40
0.2895492309
 40
0.5491062864
 40
0.782245896
 40
1.0
 40
1.0
 40
1.0
 40
1.0
 10
13.8743187207
 20
12.094130335
 30
0.0
 10
13.8743187207
 20
12.0789398422
 30
0.0
 10
13.8766357926
 20
12.050036125
 30
0.0
 10
13.8883217529
 20
12.0103179818
 30
0.0
 10
13.9080288031
 20
11.9780758097
 30
0.0
 10
13.9265573917
 20
11.9625338944
 30
0.0
 10
13.9364501444
 20
11.9568207711
 30
0.0
  0
SPLINE
  5
310
100
AcDbEntity
  8
ASSI
100
AcDbSpline
 62
250
  6
CONTINUOUS
 70
0
 71
3
 72
11
 73
7
 74
0
 42
0.0000001
 43
0.0000001
 44
0.0000000001
 40
0.0
 40
0.0
 40
0.0
 40
0.0
 40
0.289543678
 40
0.5490993933
 40
0.7822413331
 40
1.0
 40
1.0
 40
1.0
 40
1.0
 10
14.439917989
 20
11.1144836666
 30
0.0
 10
14.4267613162
 20
11.1220801646
 30
0.0
 10
14.4028860924
 20
11.1385415007
 30
0.0
 10
14.3743296801
 20
11.1685260022
 30
0.0
 10
14.3562595065
 20
11.2017194259
 30
0.0
 10
14.3520643171
 20
11.2255403191
 30
0.0
 10
14.3520632958
 20
11.236966045
 30
0.0
  0
SPLINE
  5
311
100
AcDbEntity
  8
ASSI
100
AcDbSpline
 62
250
  6
CONTINUOUS
 70
0
 71
3
 72
11
 73
7
 74
0
 42
0.0000001
 43
0.0000001
 44
0.0000000001
 40
0.0
 40
0.0
 40
0.0
 40
0.0
 40
0.2895347424
 40
0.5490930747
 40
0.7822422821
 40
1.0
 40
1.0
 40
1.0
 40
1.0
 10
14.439917989
 20
-31.8055545072
 30
0.0
 10
14.426765524
 20
-31.7979604389
 30
0.0
 10
14.4028971972
 20
-31.7815046964
 30
0.0
 10
14.3743459486
 20
-31.7515321767
 30
0.0
 10
14.3562731582
 20
-31.7183527088
 30
0.0
 10
14.3520695549
 20
-31.6945405125
 30
0.0
 10
14.3520633104
 20
-31.6831181399
 30
0.0
  0
SPLINE
  5
312
100
AcDbEntity
  8
ASSI
100
AcDbSpline
 62
250
  6
CONTINUOUS
 70
0
 71
3
 72
11
 73
7
 74
0
 42
0.0000001
 43
0.0000001
 44
0.0000000001
 40
0.0
 40
0.0
 40
0.0
 40
0.0
 40
0.2367266057
 40
0.498902432
 40
0.7616740084
 40
1.0
 40
1.0
 40
1.0
 40
1.0
 10
13.8743187207
 20
-32.1320613178
 30
0.0
 10
13.8743187207
 20
-32.0976960321
 30
0.0
 10
13.8870601929
 20
-32.0252195332
 30
0.0
 10
13.9316418259
 20
-31.9231569508
 30
0.0
 10
13.9969948299
 20
-31.8326844988
 30
0.0
 10
14.0530493027
 20
-31.7845593224
 30
0.0
 10
14.0827485405
 20
-31.7668127747
 30
0.0
  0
SPLINE
  5
313
100
AcDbEntity
  8
ASSI
100
AcDbSpline
 62
250
  6
CONTINUOUS
 70
0
 71
3
 72
11
 73
7
 74
0
 42
0.0000001
 43
0.0000001
 44
0.0000000001
 40
0.0
 40
0.0
 40
0.0
 40
0.0
 40
0.2367266349
 40
0.4989024687
 40
0.761674032
 40
1.0
 40
1.0
 40
1.0
 40
1.0
 10
-17.5691572384
 20
-13.9769923783
 30
0.0
 10
-17.5691572386
 20
-13.9426270884
 30
0.0
 10
-17.5564157645
 20
-13.8701505839
 30
0.0
 10
-17.5118341267
 20
-13.7680879999
 30
0.0
 10
-17.446481123
 20
-13.6776155528
 30
0.0
 10
-17.3904266536
 20
-13.6294903809
 30
0.0
 10
-17.3607274186
 20
-13.6117438353
 30
0.0
  0
SPLINE
  5
314
100
AcDbEntity
  8
ASSI
100
AcDbSpline
 62
250
  6
CONTINUOUS
 70
0
 71
3
 72
11
 73
7
 74
0
 42
0.0000001
 43
0.0000001
 44
0.0000000001
 40
0.0
 40
0.0
 40
0.0
 40
0.0
 40
0.2367324616
 40
0.4989085986
 40
0.761677143
 40
1.0
 40
1.0
 40
1.0
 40
1.0
 10
-18.1347565067
 20
-12.9973457099
 30
0.0
 10
-18.1049948404
 20
-13.014529723
 30
0.0
 10
-18.0358569551
 20
-13.0397360203
 30
0.0
 10
-17.9251761281
 20
-13.0521599414
 30
0.0
 10
-17.8141482245
 20
-13.0407977693
 30
0.0
 10
-17.7444444305
 20
-13.0163132211
 30
0.0
 10
-17.7142269613
 20
-12.9994646675
 30
0.0
  0
SPLINE
  5
315
100
AcDbEntity
  8
ASSI
100
AcDbSpline
 62
250
  6
CONTINUOUS
 70
0
 71
3
 72
11
 73
7
 74
0
 42
0.0000001
 43
0.0000001
 44
0.0000000001
 40
0.0
 40
0.0
 40
0.0
 40
0.0
 40
0.2367324906
 40
0.4989086352
 40
0.7616771671
 40
1.0
 40
1.0
 40
1.0
 40
1.0
 10
-18.1347565067
 20
29.9226924638
 30
0.0
 10
-18.1049948367
 20
29.9055084488
 30
0.0
 10
-18.0358569457
 20
29.8803021508
 30
0.0
 10
-17.9251761149
 20
29.8678782325
 30
0.0
 10
-17.814148216
 20
29.8792404075
 30
0.0
 10
-17.7444444276
 20
29.9037249545
 30
0.0
 10
-17.7142269613
 20
29.9205735063
 30
0.0
  0
SPLINE
  5
316
100
AcDbEntity
  8
ASSI
100
AcDbSpline
 62
250
  6
CONTINUOUS
 70
0
 71
3
 72
11
 73
7
 74
0
 42
0.0000001
 43
0.0000001
 44
0.0000000001
 40
0.0
 40
0.0
 40
0.0
 40
0.0
 40
0.2895411464
 40
0.5491005233
 40
0.7822467201
 40
1.0
 40
1.0
 40
1.0
 40
1.0
 10
-17.5691572384
 20
30.2491992745
 30
0.0
 10
-17.5691572384
 20
30.2340131779
 30
0.0
 10
-17.5668414333
 20
30.2051173971
 30
0.0
 10
-17.5551625207
 20
30.165408724
 30
0.0
 10
-17.5354675933
 20
30.1331708128
 30
0.0
 10
-17.5169496232
 20
30.1176262382
 30
0.0
 10
-17.50706186
 20
30.1119105368
 30
0.0
  0
SPLINE
  5
317
100
AcDbEntity
  8
ASSI
100
AcDbSpline
 62
250
  6
CONTINUOUS
 70
0
 71
3
 72
9
 73
5
 74
0
 42
0.0000001
 43
0.0000001
 44
0.0000000001
 40
0.0
 40
0.0
 40
0.0
 40
0.0
 40
0.2447084606
 40
1.0
 40
1.0
 40
1.0
 40
1.0
 10
-16.4153150811
 20
-13.3548725604
 30
0.0
 10
-16.4216105771
 20
-13.3513330835
 30
0.0
 10
-16.4470578178
 20
-13.3363754267
 30
0.0
 10
-16.4713790218
 20
-13.3195212851
 30
0.0
 10
-16.4890485215
 20
-13.3059308573
 30
0.0
  0
SPLINE
  5
318
100
AcDbEntity
  8
ASSI
100
AcDbSpline
 62
250
  6
CONTINUOUS
 70
0
 71
3
 72
9
 73
5
 74
0
 42
0.0000001
 43
0.0000001
 44
0.0000000001
 40
0.0
 40
0.0
 40
0.0
 40
0.0
 40
0.2436998185
 40
1.0
 40
1.0
 40
1.0
 40
1.0
 10
-16.4890485215
 20
-13.3059308573
 30
0.0
 10
-16.4981483475
 20
-13.298931761
 30
0.0
 10
-16.5347495833
 20
-13.2692566737
 30
0.0
 10
-16.5683510273
 20
-13.2359351871
 30
0.0
 10
-16.5919741851
 20
-13.2092654381
 30
0.0
  0
SPLINE
  5
319
100
AcDbEntity
  8
ASSI
100
AcDbSpline
 62
250
  6
CONTINUOUS
 70
0
 71
3
 72
9
 73
5
 74
0
 42
0.0000001
 43
0.0000001
 44
0.0000000001
 40
0.0
 40
0.0
 40
0.0
 40
0.0
 40
0.2437041868
 40
1.0
 40
1.0
 40
1.0
 40
1.0
 10
-16.5919741851
 20
-13.2092654381
 30
0.0
 10
-16.6055783711
 20
-13.1939067706
 30
0.0
 10
-16.6590260909
 20
-13.1288033763
 30
0.0
 10
-16.7030584054
 20
-13.0561111805
 30
0.0
 10
-16.7307314072
 20
-12.9987669148
 30
0.0
  0
SPLINE
  5
31A
100
AcDbEntity
  8
ASSI
100
AcDbSpline
 62
250
  6
CONTINUOUS
 70
0
 71
3
 72
9
 73
5
 74
0
 42
0.0000001
 43
0.0000001
 44
0.0000000001
 40
0.0
 40
0.0
 40
0.0
 40
0.0
 40
0.2589723529
 40
1.0
 40
1.0
 40
1.0
 40
1.0
 10
-16.7307314072
 20
-12.9987669148
 30
0.0
 10
-16.751495782
 20
-12.9557387738
 30
0.0
 10
-16.8196413288
 20
-12.7843587315
 30
0.0
 10
-16.841353462
 20
-12.592135205
 30
0.0
 10
-16.8201708277
 20
-12.4570782471
 30
0.0
  0
SPLINE
  5
31B
100
AcDbEntity
  8
ASSI
100
AcDbSpline
 62
7
  6
CONTINUOUS
 70
0
 71
3
 72
8
 73
4
 74
0
 42
0.0000001
 43
0.0000001
 44
0.0000000001
 40
0.0
 40
0.0
 40
0.0
 40
0.0
 40
1.0
 40
1.0
 40
1.0
 40
1.0
 10
-16.9747983469
 20
-1.5878583475
 30
0.0
 10
-16.9542769493
 20
-1.5515086085
 30
0.0
 10
-16.9336853318
 20
-1.5151662305
 30
0.0
 10
-16.9115232469
 20
-1.4797928892
 30
0.0
  0
SPLINE
  5
31C
100
AcDbEntity
  8
ASSI
100
AcDbSpline
 62
7
  6
CONTINUOUS
 70
0
 71
3
 72
11
 73
7
 74
0
 42
0.0000001
 43
0.0000001
 44
0.0000000001
 40
0.0
 40
0.0
 40
0.0
 40
0.0
 40
0.2938136896
 40
0.5424347955
 40
0.7727617398
 40
1.0
 40
1.0
 40
1.0
 40
1.0
 10
-16.7355353754
 20
-6.1215029811
 30
0.0
 10
-16.7568774014
 20
-6.1342702649
 30
0.0
 10
-16.8003941518
 20
-6.1523354334
 30
0.0
 10
-16.867307967
 20
-6.1528249531
 30
0.0
 10
-16.9244690537
 20
-6.1329904686
 30
0.0
 10
-16.9581260248
 20
-6.1137665106
 30
0.0
 10
-16.9747983469
 20
-6.1041754575
 30
0.0
  0
SPLINE
  5
31D
100
AcDbEntity
  8
ASSI
100
AcDbSpline
 62
7
  6
CONTINUOUS
 70
0
 71
3
 72
8
 73
4
 74
0
 42
0.0000001
 43
0.0000001
 44
0.0000000001
 40
0.0
 40
0.0
 40
0.0
 40
0.0
 40
1.0
 40
1.0
 40
1.0
 40
1.0
 10
-16.9747983469
 20
24.2126023992
 30
0.0
 10
-16.9542769493
 20
24.2489521382
 30
0.0
 10
-16.9336853318
 20
24.2852945162
 30
0.0
 10
-16.9115232469
 20
24.3206678575
 30
0.0
  0
SPLINE
  5
31E
100
AcDbEntity
  8
ASSI
100
AcDbSpline
 62
7
  6
CONTINUOUS
 70
0
 71
3
 72
11
 73
7
 74
0
 42
0.0000001
 43
0.0000001
 44
0.0000000001
 40
0.0
 40
0.0
 40
0.0
 40
0.0
 40
0.2938136896
 40
0.5424347955
 40
0.7727617398
 40
1.0
 40
1.0
 40
1.0
 40
1.0
 10
-16.7355353754
 20
19.6789577656
 30
0.0
 10
-16.7568774014
 20
19.6661904818
 30
0.0
 10
-16.8003941518
 20
19.6481253132
 30
0.0
 10
-16.867307967
 20
19.6476357935
 30
0.0
 10
-16.9244690537
 20
19.6674702781
 30
0.0
 10
-16.9581260248
 20
19.6866942361
 30
0.0
 10
-16.9747983469
 20
19.6962852891
 30
0.0
  0
SPLINE
  5
31F
100
AcDbEntity
  8
ASSI
100
AcDbSpline
 62
250
  6
CONTINUOUS
 70
0
 71
3
 72
9
 73
5
 74
0
 42
0.0000001
 43
0.0000001
 44
0.0000000001
 40
0.0
 40
0.0
 40
0.0
 40
0.0
 40
0.5542593325
 40
1.0
 40
1.0
 40
1.0
 40
1.0
 10
-16.9747983469
 20
-1.5878583475
 30
0.0
 10
-16.9589842976
 20
-1.5784153365
 30
0.0
 10
-16.9319890291
 20
-1.5574325668
 30
0.0
 10
-16.9186978576
 20
-1.5242501259
 30
0.0
 10
-16.9186672585
 20
-1.5094375293
 30
0.0
  0
SPLINE
  5
320
100
AcDbEntity
  8
ASSI
100
AcDbSpline
 62
250
  6
CONTINUOUS
 70
0
 71
3
 72
9
 73
5
 74
0
 42
0.0000001
 43
0.0000001
 44
0.0000000001
 40
0.0
 40
0.0
 40
0.0
 40
0.0
 40
0.5542593325
 40
1.0
 40
1.0
 40
1.0
 40
1.0
 10
-16.9747983469
 20
24.2126023992
 30
0.0
 10
-16.9589842976
 20
24.2220454101
 30
0.0
 10
-16.9319890291
 20
24.2430281798
 30
0.0
 10
-16.9186978576
 20
24.2762106207
 30
0.0
 10
-16.9186672585
 20
24.2910232174
 30
0.0
  0
ELLIPSE
  5
321
100
AcDbEntity
  8
ASSI
100
AcDbEllipse
 62
7
  6
CONTINUOUS
 10
-16.4525005744
 20
24.8485024396
 30
0.0
 11
0.1999928968
 21
0.0029716584
 31
0.0
 40
0.5672251703
 41
-0.7763729677
 42
-0.0084281621
  0
ELLIPSE
  5
322
100
AcDbEntity
  8
ASSI
100
AcDbEllipse
 62
7
  6
CONTINUOUS
 10
-16.4525005744
 20
-0.9519583071
 30
0.0
 11
0.1999928968
 21
0.0029716584
 31
0.0
 40
0.5672251703
 41
-0.7763729677
 42
-0.0084281621
  0
ELLIPSE
  5
323
100
AcDbEntity
  8
ASSI
100
AcDbEllipse
 62
7
  6
CONTINUOUS
 10
-16.2091120826
 20
18.4377309518
 30
0.0
 11
-0.1008574152
 21
0.1738370796
 31
0.0
 40
0.5747006915
 41
-0.7855842781
 42
-0.479419337
  0
ELLIPSE
  5
324
100
AcDbEntity
  8
ASSI
100
AcDbEllipse
 62
7
  6
CONTINUOUS
 10
-16.2091120826
 20
3.4146778588
 30
0.0
 11
-0.1008574152
 21
0.1738370796
 31
0.0
 40
0.5747006915
 41
-0.7855842781
 42
-0.479419337
  0
ELLIPSE
  5
325
100
AcDbEntity
  8
ASSI
100
AcDbEllipse
 62
7
  6
CONTINUOUS
 10
-16.2091120826
 20
-9.4855525145
 30
0.0
 11
-0.1008574152
 21
0.1738370796
 31
0.0
 40
0.5747006915
 41
-0.7855842781
 42
-0.479419337
  0
ELLIPSE
  5
326
100
AcDbEntity
  8
ASSI
100
AcDbEllipse
 62
7
  6
CONTINUOUS
 10
-6.0221219727
 20
-19.2165743135
 30
0.0
 11
-0.0281079651
 21
0.2043034895
 31
0.0
 40
0.7155932738
 41
-0.5072657112
 42
0.260581316
  0
ELLIPSE
  5
327
100
AcDbEntity
  8
ASSI
100
AcDbEllipse
 62
7
  6
CONTINUOUS
 10
5.2915865263
 20
-25.7489678068
 30
0.0
 11
-0.0281079651
 21
0.2043034895
 31
0.0
 40
0.7155932738
 41
-0.5072657112
 42
0.260581316
  0
ELLIPSE
  5
328
100
AcDbEntity
  8
ASSI
100
AcDbEllipse
 62
7
  6
CONTINUOUS
 10
-13.3829870111
 20
2.3691172078
 30
0.0
 11
0.490042963
 21
-0.0653929739
 31
0.0
 40
0.4924287035
 41
1.6457399462
 42
2.306886864
  0
ELLIPSE
  5
329
100
AcDbEntity
  8
ASSI
100
AcDbEllipse
 62
7
  6
CONTINUOUS
 10
-13.2463718314
 20
25.2219932968
 30
0.0
 11
0.4999124207
 21
0.0156705079
 31
0.0
 40
0.5971709375
 41
-0.1932499618
 42
-0.018717012
  0
ELLIPSE
  5
32A
100
AcDbEntity
  8
ASSI
100
AcDbEllipse
 62
7
  6
CONTINUOUS
 10
-13.2463718314
 20
-0.5784674499
 30
0.0
 11
0.4999124207
 21
0.0156705079
 31
0.0
 40
0.5971709375
 41
-0.1932499618
 42
-0.018717012
  0
ELLIPSE
  5
32B
100
AcDbEntity
  8
ASSI
100
AcDbEllipse
 62
7
  6
CONTINUOUS
 10
-16.0356420626
 20
29.1496588972
 30
0.0
 11
-0.0999440089
 21
0.17351898
 31
0.0
 40
0.5768037941
 41
-3.1066990022
 42
-2.355482613
  0
ELLIPSE
  5
32C
100
AcDbEntity
  8
ASSI
100
AcDbEllipse
 62
7
  6
CONTINUOUS
 10
-16.0356420626
 20
-9.5857119299
 30
0.0
 11
-0.099852121
 21
0.1733609324
 31
0.0
 40
0.5778584463
 41
-2.3545649475
 42
-0.7846820092
  0
ELLIPSE
  5
32D
100
AcDbEntity
  8
ASSI
100
AcDbEllipse
 62
7
  6
CONTINUOUS
 10
-16.0356420626
 20
-11.6738549425
 30
0.0
 11
-0.0999440089
 21
0.17351898
 31
0.0
 40
0.5768037941
 41
-3.1066990022
 42
-2.355482613
  0
ELLIPSE
  5
32E
100
AcDbEntity
  8
ASSI
100
AcDbEllipse
 62
7
  6
CONTINUOUS
 10
-16.0356420626
 20
1.2263754309
 30
0.0
 11
-0.0999440089
 21
0.17351898
 31
0.0
 40
0.5768037941
 41
-3.1066990022
 42
-2.355482613
  0
ELLIPSE
  5
32F
100
AcDbEntity
  8
ASSI
100
AcDbEllipse
 62
7
  6
CONTINUOUS
 10
-16.0356420626
 20
3.3145184434
 30
0.0
 11
-0.099852121
 21
0.1733609324
 31
0.0
 40
0.5778584463
 41
-2.3545649475
 42
-0.7846820092
  0
ELLIPSE
  5
330
100
AcDbEntity
  8
ASSI
100
AcDbEllipse
 62
7
  6
CONTINUOUS
 10
-16.0356420626
 20
18.3375715364
 30
0.0
 11
-0.099852121
 21
0.1733609324
 31
0.0
 40
0.5778584463
 41
-2.3545649475
 42
-0.7846820092
  0
ELLIPSE
  5
331
100
AcDbEntity
  8
ASSI
100
AcDbEllipse
 62
7
  6
CONTINUOUS
 10
-16.0356420626
 20
16.2494285238
 30
0.0
 11
-0.0999440089
 21
0.17351898
 31
0.0
 40
0.5768037941
 41
-3.1066990022
 42
-2.355482613
  0
ELLIPSE
  5
332
100
AcDbEntity
  8
ASSI
100
AcDbEllipse
 62
7
  6
CONTINUOUS
 10
-13.9144077555
 20
24.665213405
 30
0.0
 11
0.9998248414
 21
0.0313410158
 31
0.0
 40
0.5971709375
 41
-0.8041152
 42
-0.1932499618
  0
ELLIPSE
  5
333
100
AcDbEntity
  8
ASSI
100
AcDbEllipse
 62
7
  6
CONTINUOUS
 10
-13.9144077555
 20
-1.1352473416
 30
0.0
 11
0.9998248414
 21
0.0313410158
 31
0.0
 40
0.5971709375
 41
-0.8041152
 42
-0.1932499618
  0
ELLIPSE
  5
334
100
AcDbEntity
  8
ASSI
100
AcDbEllipse
 62
7
  6
CONTINUOUS
 10
-14.3773084176
 20
23.4943806521
 30
0.0
 11
0.9998248414
 21
0.0313410158
 31
0.0
 40
0.5971709375
 41
1.5520792902
 42
2.2065777597
  0
ELLIPSE
  5
335
100
AcDbEntity
  8
ASSI
100
AcDbEllipse
 62
7
  6
CONTINUOUS
 10
-14.3773084176
 20
-2.3060800945
 30
0.0
 11
0.9998248414
 21
0.0313410158
 31
0.0
 40
0.5971709375
 41
1.5520792902
 42
2.2065777597
  0
ELLIPSE
  5
336
100
AcDbEntity
  8
ASSI
100
AcDbEllipse
 62
7
  6
CONTINUOUS
 10
-16.9971281897
 20
-12.9936339432
 30
0.0
 11
-0.2500120911
 21
0.4330057209
 31
0.0
 40
0.5775075436
 41
0.7855021057
 42
2.355993846
  0
ELLIPSE
  5
337
100
AcDbEntity
  8
ASSI
100
AcDbEllipse
 62
7
  6
CONTINUOUS
 10
7.8081096877
 20
-27.2019767407
 30
0.0
 11
-0.029898431
 21
0.2049974972
 31
0.0
 40
0.7091253315
 41
-2.0809987
 42
-0.5105069597
  0
ELLIPSE
  5
338
100
AcDbEntity
  8
ASSI
100
AcDbEllipse
 62
7
  6
CONTINUOUS
 10
-3.5055988112
 20
-20.6695832475
 30
0.0
 11
-0.029898431
 21
0.2049974972
 31
0.0
 40
0.7091253315
 41
-2.0809987
 42
-0.5105069597
  0
ELLIPSE
  5
339
100
AcDbEntity
  8
ASSI
100
AcDbEllipse
 62
7
  6
CONTINUOUS
 10
-16.4525005744
 20
20.0174240109
 30
0.0
 11
0.1999918324
 21
-0.0030772199
 31
0.0
 40
0.5873737521
 41
-0.7589073568
 42
0.7944356775
  0
ELLIPSE
  5
33A
100
AcDbEntity
  8
ASSI
100
AcDbEllipse
 62
7
  6
CONTINUOUS
 10
-13.9144077555
 20
27.5333224023
 30
0.0
 11
0.999867518
 21
-0.0292282715
 31
0.0
 40
0.5568983954
 41
-0.7691202671
 42
-0.1582550289
  0
ELLIPSE
  5
33B
100
AcDbEntity
  8
ASSI
100
AcDbEllipse
 62
7
  6
CONTINUOUS
 10
-13.2463718314
 20
2.2260432616
 30
0.0
 11
0.499933759
 21
-0.0146141357
 31
0.0
 40
0.5568983954
 41
-0.1582550289
 42
0.8016760597
  0
ELLIPSE
  5
33C
100
AcDbEntity
  8
ASSI
100
AcDbEllipse
 62
7
  6
CONTINUOUS
 10
-13.9144077555
 20
1.7328616556
 30
0.0
 11
0.999867518
 21
-0.0292282715
 31
0.0
 40
0.5568983954
 41
-0.7691202671
 42
-0.1582550289
  0
ELLIPSE
  5
33D
100
AcDbEntity
  8
ASSI
100
AcDbEllipse
 62
7
  6
CONTINUOUS
 10
-16.4525005744
 20
-5.7830367358
 30
0.0
 11
0.1999918324
 21
-0.0030772199
 31
0.0
 40
0.5873737521
 41
-0.7589073568
 42
0.7944356775
  0
ELLIPSE
  5
33E
100
AcDbEntity
  8
ASSI
100
AcDbEllipse
 62
7
  6
CONTINUOUS
 10
-14.3773084176
 20
26.4595310327
 30
0.0
 11
0.999867518
 21
-0.0292282715
 31
0.0
 40
0.5568983954
 41
1.5870742231
 42
2.2415726926
  0
ELLIPSE
  5
33F
100
AcDbEntity
  8
ASSI
100
AcDbEllipse
 62
7
  6
CONTINUOUS
 10
-14.3773084176
 20
0.659070286
 30
0.0
 11
0.999867518
 21
-0.0292282715
 31
0.0
 40
0.5568983954
 41
1.5870742231
 42
2.2415726926
  0
ENDSEC
  0
SECTION
  2
OBJECTS
  0
DICTIONARY
  5
C
100
AcDbDictionary
280
0
281
1
  3
ACAD_GROUP
350
D
  3
ACAD_MLINESTYLE
350
17
  3
ACAD_LAYOUT
350
1A
  3
ACAD_PLOTSETTINGS
350
19
  3
ACAD_PLOTSTYLENAME
350
E
  0
DICTIONARY
  5
D
102
{ACAD_REACTORS
330
C
102
}
100
AcDbDictionary
280
0
281
1
  0
ACDBDICTIONARYWDFLT
  5
E
102
{ACAD_REACTORS
330
C
102
}
100
AcDbDictionary
281
1
  3
Normal
350
F
100
AcDbDictionaryWithDefault
340
F
  0
DICTIONARY
  5
17
102
{ACAD_REACTORS
330
C
102
}
100
AcDbDictionary
280
0
281
1
  3
Standard
350
18
  0
DICTIONARY
  5
19
102
{ACAD_REACTORS
330
C
102
}
100
AcDbDictionary
281
1
  0
DICTIONARY
  5
1A
102
{ACAD_REACTORS
330
C
102
}
100
AcDbDictionary
281
1
  3
Model
350
340
  3
Layout1
350
341
  0
ACDBPLACEHOLDER
  5
F
102
{ACAD_REACTORS
330
E
102
}
  0
MLINESTYLE
  5
18
102
{ACAD_REACTORS
330
17
102
}
100
AcDbMlineStyle
  2
STANDARD
 70
0
  3

 62
256
 51
90.0
 52
90.0
 71
2
 49
0.5
 62
256
  6
BYLAYER
 49
-0.5
 62
256
  6
BYLAYER
  0
LAYOUT
  5
340
102
{ACAD_REACTORS
330
1A
102
}
100
AcDbPlotSettings
  1

  2
none_device
  4
ISO_A4_(297.00_x_210.00_MM)
  6

 40
0.0
 41
0.0
 42
0.0
 43
0.0
 44
297.0
 45
210.0
 46
0.0
 47
0.0
 48
0.0
 49
0.0
140
0.0
141
0.0
142
1.0
143
1.0
 70
1024
 72
1
 73
0
 74
0
  7

 75
0
147
1.0
148
0.0
149
0.0
100
AcDbLayout
  1
Model
 70
0
 71
0
 10
0.0
 20
0.0
 11
297.0
 21
210.0
 12
0.0
 22
0.0
 32
0.0
 14
0.0
 24
0.0
 34
0.0
 15
0.0
 25
0.0
 35
0.0
146
0.0
 13
0.0
 23
0.0
 33
0.0
 16
1.0
 26
0.0
 36
0.0
 17
0.0
 27
1.0
 37
0.0
 76
0
330
216
345
0
346
0
  0
LAYOUT
  5
341
102
{ACAD_REACTORS
330
1A
102
}
100
AcDbPlotSettings
  1

  2
none_device
  4
ISO_A4_(297.00_x_210.00_MM)
  6

 40
0.0
 41
0.0
 42
0.0
 43
0.0
 44
297.0
 45
210.0
 46
0.0
 47
0.0
 48
0.0
 49
0.0
140
0.0
141
0.0
142
1.0
143
1.0
 70
0
 72
1
 73
0
 74
0
  7

 75
0
147
1.0
148
0.0
149
0.0
100
AcDbLayout
  1
Layout1
 70
0
 71
1
 10
0.0
 20
0.0
 11
297.0
 21
210.0
 12
0.0
 22
0.0
 32
0.0
 14
0.0
 24
0.0
 34
0.0
 15
0.0
 25
0.0
 35
0.0
146
0.0
 13
0.0
 23
0.0
 33
0.0
 16
1.0
 26
0.0
 36
0.0
 17
0.0
 27
1.0
 37
0.0
 76
0
330
217
345
0
346
0
  0
ENDSEC
  0
EOF
