  0
SECTION
  2
HEADER
  9
$ACADVER
  1
AC1024
  9
$DWGCODEPAGE
  3
ANSI_1252
  9
$EXTMAX
 10
297.0
 20
210.0
 30
0.0
  9
$EXTMIN
 10
0.0
 20
0.0
 30
0.0
  9
$LIMMIN
 10
0.0
 20
0.0
  9
$LIMMAX
 10
297.0
 20
210.0
  9
$VIEWCTR
 10
148.5
 20
105.0
  9
$VIEWSIZE
 40
210.0
  9
$CLAYER
  8
0
  9
$LTSCALE
 40
16.335
  9
$CELTYPE
  6
BYLAYER
  9
$DIMSCALE
 40
1.0
  9
$DIMASZ
 40
3.0
  9
$DIMEXO
 40
0.5
  9
$DIMDLI
 40
11.286
  9
$DIMEXE
 40
1.5
  9
$DIMCEN
 40
2.673
  9
$DIMLFAC
 40
1.0
  9
$DIMBLK
  1
_FILLED
  9
$DIMALT
 70
0
  9
$DIMALTF
 40
0.0393700787
  9
$DIMTXT
 40
3.0
  9
$DIMTOL
 70
1
  9
$DIMLIM
 70
0
  9
$DIMTFAC
 40
1.0
  9
$DIMTP
 40
0.01
  9
$DIMTM
 40
0.01
  9
$DIMGAP
 40
0.625
  9
$DIMDSEP
 70
44
  9
$AUNITS
 70
0
  9
$PDMODE
 70
3
  9
$PDSIZE
 40
3.0
  9
$HANDSEED
  5
353
  9
$TILEMODE
 70
1
  9
$MEASUREMENT
 70
1
  9
$INSUNITS
 70
4
  0
ENDSEC
  0
SECTION
  2
CLASSES
  0
CLASS
  1
ACDBDICTIONARYWDFLT
  2
AcDbDictionaryWithDefault
  3
AutoCAD 2000
 90
0
 91
1
280
0
281
0
  0
CLASS
  1
ACDBPLACEHOLDER
  2
AcDbPlaceHolder
  3
AutoCAD 2000
 90
0
 91
1
280
0
281
0
  0
CLASS
  1
LAYOUT
  2
AcDbLayout
  3
AutoCAD 2000
 90
0
 91
0
280
0
281
0
  0
ENDSEC
  0
SECTION
  2
TABLES
  0
TABLE
  2
VPORT
  5
8
100
AcDbSymbolTable
 70
2
  0
VPORT
  5
1F4
100
AcDbSymbolTableRecord
100
AcDbViewportTableRecord
  2
*ACTIVE
 70
0
 10
0.0
 20
0.0
 11
1.0
 21
1.0
 12
148.5
 22
105.0
 13
0.0
 23
0.0
 14
1.0
 24
1.0
 15
0.0
 25
0.0
 16
0.0
 26
0.0
 36
1.0
 17
0.0
 27
0.0
 37
0.0
 40
210.0
 41
1.4142857143
 42
50.0
 43
0.0
 44
0.0
 50
0.0
 51
0.0
 71
0
 72
100
 73
1
 74
1
 75
0
 76
0
 77
0
 78
0
  0
ENDTAB
  0
TABLE
  2
LTYPE
  5
5
100
AcDbSymbolTable
 70
6
  0
LTYPE
  5
14
100
AcDbSymbolTableRecord
100
AcDbLinetypeTableRecord
  2
BYBLOCK
 70
0
  3

 72
65
 73
0
 40
0.0
  0
LTYPE
  5
15
100
AcDbSymbolTableRecord
100
AcDbLinetypeTableRecord
  2
BYLAYER
 70
0
  3

 72
65
 73
0
 40
0.0
  0
LTYPE
  5
16
100
AcDbSymbolTableRecord
100
AcDbLinetypeTableRecord
  2
CONTINUOUS
 70
64
  3
Solid line
 72
65
 73
0
 40
0.0
  0
LTYPE
  5
1F5
100
AcDbSymbolTableRecord
100
AcDbLinetypeTableRecord
  2
CENTER
 70
64
  3
____ _ ____ _ ____ _ ____ _ ____ _ ____ _ ____
 72
65
 73
4
 40
0.6
 49
0.375
 74
0
 49
-0.075
 74
0
 49
0.075
 74
0
 49
-0.075
 74
0
  0
LTYPE
  5
1F6
100
AcDbSymbolTableRecord
100
AcDbLinetypeTableRecord
  2
HIDDEN
 70
64
  3
- - - - - - - - - - - - - - - - - - - -
 72
65
 73
2
 40
0.2
 49
0.1
 74
0
 49
-0.1
 74
0
  0
LTYPE
  5
1F7
100
AcDbSymbolTableRecord
100
AcDbLinetypeTableRecord
  2
PHANTOM
 70
64
  3
_____ _ _ _____ _ _ _____ _ _ _____
 72
65
 73
6
 40
0.8
 49
0.45
 74
0
 49
-0.05
 74
0
 49
0.1
 74
0
 49
-0.05
 74
0
 49
0.1
 74
0
 49
-0.05
 74
0
  0
LTYPE
  5
1F8
100
AcDbSymbolTableRecord
100
AcDbLinetypeTableRecord
  2
DOT
 70
64
  3
. . . . . . . . . . . . . . . . . . . .
 72
65
 73
2
 40
0.2
 49
0.1
 74
0
 49
-0.1
 74
0
  0
LTYPE
  5
1F9
100
AcDbSymbolTableRecord
100
AcDbLinetypeTableRecord
  2
DASHED
 70
64
  3
- - - - - - - - - - - - - - - - - - - -
 72
65
 73
2
 40
0.2
 49
0.1
 74
0
 49
-0.1
 74
0
  0
ENDTAB
  0
TABLE
  2
LAYER
  5
2
100
AcDbSymbolTable
 70
36
  0
LAYER
  5
10
100
AcDbSymbolTableRecord
100
AcDbLayerTableRecord
  2
0
 70
0
 62
7
  6
CONTINUOUS
370
-3
390
F
  0
LAYER
  5
1FA
100
AcDbSymbolTableRecord
100
AcDbLayerTableRecord
  2
DEFAULT_1
 70
0
 62
7
  6
CENTER
370
-3
390
F
  0
LAYER
  5
1FB
100
AcDbSymbolTableRecord
100
AcDbLayerTableRecord
  2
DEFAULT_2
 70
0
 62
7
  6
HIDDEN
370
-3
390
F
  0
LAYER
  5
1FC
100
AcDbSymbolTableRecord
100
AcDbLayerTableRecord
  2
DEFAULT_3
 70
0
 62
7
  6
PHANTOM
370
-3
390
F
  0
LAYER
  5
1FD
100
AcDbSymbolTableRecord
100
AcDbLayerTableRecord
  2
ASSI
 70
0
 62
7
  6
CONTINUOUS
370
-3
390
F
  0
LAYER
  5
1FE
100
AcDbSymbolTableRecord
100
AcDbLayerTableRecord
  2
COORDINATE
 70
0
 62
7
  6
CONTINUOUS
370
-3
390
F
  0
LAYER
  5
1FF
100
AcDbSymbolTableRecord
100
AcDbLayerTableRecord
  2
COPY_PUBLISH
 70
0
 62
7
  6
CONTINUOUS
370
-3
390
F
  0
LAYER
  5
200
100
AcDbSymbolTableRecord
100
AcDbLayerTableRecord
  2
COSMETICI
 70
0
 62
7
  6
CONTINUOUS
370
-3
390
F
  0
LAYER
  5
201
100
AcDbSymbolTableRecord
100
AcDbLayerTableRecord
  2
CURVE
 70
0
 62
7
  6
CONTINUOUS
370
-3
390
F
  0
LAYER
  5
202
100
AcDbSymbolTableRecord
100
AcDbLayerTableRecord
  2
DRAFT
 70
0
 62
7
  6
CONTINUOUS
370
-3
390
F
  0
LAYER
  5
203
100
AcDbSymbolTableRecord
100
AcDbLayerTableRecord
  2
IMPORT_IGES
 70
0
 62
7
  6
CONTINUOUS
370
-3
390
F
  0
LAYER
  5
204
100
AcDbSymbolTableRecord
100
AcDbLayerTableRecord
  2
INTF_1
 70
0
 62
7
  6
CONTINUOUS
370
-3
390
F
  0
LAYER
  5
205
100
AcDbSymbolTableRecord
100
AcDbLayerTableRecord
  2
INTF_11
 70
0
 62
7
  6
CONTINUOUS
370
-3
390
F
  0
LAYER
  5
206
100
AcDbSymbolTableRecord
100
AcDbLayerTableRecord
  2
INTF_13
 70
0
 62
7
  6
CONTINUOUS
370
-3
390
F
  0
LAYER
  5
207
100
AcDbSymbolTableRecord
100
AcDbLayerTableRecord
  2
INTF_2
 70
0
 62
7
  6
CONTINUOUS
370
-3
390
F
  0
LAYER
  5
208
100
AcDbSymbolTableRecord
100
AcDbLayerTableRecord
  2
INTF_CYAN
 70
0
 62
7
  6
CONTINUOUS
370
-3
390
F
  0
LAYER
  5
209
100
AcDbSymbolTableRecord
100
AcDbLayerTableRecord
  2
NOTE
 70
0
 62
7
  6
CONTINUOUS
370
-3
390
F
  0
LAYER
  5
20A
100
AcDbSymbolTableRecord
100
AcDbLayerTableRecord
  2
PIANI
 70
0
 62
7
  6
CONTINUOUS
370
-3
390
F
  0
LAYER
  5
20B
100
AcDbSymbolTableRecord
100
AcDbLayerTableRecord
  2
PUNTI
 70
0
 62
7
  6
CONTINUOUS
370
-3
390
F
  0
LAYER
  5
20C
100
AcDbSymbolTableRecord
100
AcDbLayerTableRecord
  2
RACCORDO
 70
0
 62
7
  6
CONTINUOUS
370
-3
390
F
  0
LAYER
  5
20D
100
AcDbSymbolTableRecord
100
AcDbLayerTableRecord
  2
SIMBOLI
 70
0
 62
7
  6
CONTINUOUS
370
-3
390
F
  0
LAYER
  5
20E
100
AcDbSymbolTableRecord
100
AcDbLayerTableRecord
  2
SMUSSO
 70
0
 62
7
  6
CONTINUOUS
370
-3
390
F
  0
LAYER
  5
20F
100
AcDbSymbolTableRecord
100
AcDbLayerTableRecord
  2
SNAPLINE
 70
0
 62
7
  6
CONTINUOUS
370
-3
390
F
  0
LAYER
  5
210
100
AcDbSymbolTableRecord
100
AcDbLayerTableRecord
  2
SUPERFICI
 70
0
 62
7
  6
CONTINUOUS
370
-3
390
F
  0
LAYER
  5
211
100
AcDbSymbolTableRecord
100
AcDbLayerTableRecord
  2
TRASH
 70
0
 62
7
  6
CONTINUOUS
370
-3
390
F
  0
ENDTAB
  0
TABLE
  2
STYLE
  5
3
100
AcDbSymbolTable
 70
1
  0
STYLE
  5
11
100
AcDbSymbolTableRecord
100
AcDbTextStyleTableRecord
  2
STANDARD
 70
0
 40
0.0
 41
0.8
 50
0.0
 71
0
 42
0.2
  3
txt
  4

  0
STYLE
  5
212
100
AcDbSymbolTableRecord
100
AcDbTextStyleTableRecord
  2
TEXTSTYLE_1
 70
0
 40
0.0
 41
0.8
 50
0.0
 71
0
 42
0.2
  3
gdt
  4

  0
ENDTAB
  0
TABLE
  2
VIEW
  5
6
100
AcDbSymbolTable
 70
0
  0
ENDTAB
  0
TABLE
  2
UCS
  5
7
100
AcDbSymbolTable
 70
0
  0
ENDTAB
  0
TABLE
  2
APPID
  5
9
100
AcDbSymbolTable
 70
1
  0
APPID
  5
213
100
AcDbSymbolTableRecord
100
AcDbRegAppTableRecord
  2
ACAD
 70
0
  0
ENDTAB
  0
TABLE
  2
BLOCK_RECORD
  5
1
100
AcDbSymbolTable
 70
0
  0
BLOCK_RECORD
  5
214
100
AcDbSymbolTableRecord
100
AcDbBlockTableRecord
  2
*Model_Space
  0
BLOCK_RECORD
  5
215
100
AcDbSymbolTableRecord
100
AcDbBlockTableRecord
  2
*Paper_Space
  0
BLOCK_RECORD
  5
216
100
AcDbSymbolTableRecord
100
AcDbBlockTableRecord
  2
_FILLED
  0
ENDTAB
  0
TABLE
  2
DIMSTYLE
  5
A
100
AcDbSymbolTable
 70
1
100
AcDbDimStyleTable
 71
0
  0
DIMSTYLE
105
217
100
AcDbSymbolTableRecord
100
AcDbDimStyleTableRecord
  2
STANDARD
 70
0
  3

  4

 40
1.0
 41
3.0
 42
0.5
 43
0.38
 44
1.5
 45
0.0
 46
0.0
 47
0.01
 48
0.01
140
3.0
141
0.09
142
0.0
143
25.4
144
1.0
145
0.0
146
1.0
147
0.625
 71
1
 72
0
 73
0
 74
0
 75
0
 76
0
 77
1
 78
8
 79
2
170
0
171
1
172
0
173
0
174
0
175
0
176
0
177
0
178
0
270
2
179
2
271
2
272
2
273
2
274
2
275
0
280
0
281
0
282
0
283
1
284
8
285
0
286
0
287
3
288
0
340
11
278
44
341
216
342
216
343
216
344
216
  0
ENDTAB
  0
ENDSEC
  0
SECTION
  2
BLOCKS
  0
BLOCK
  5
20
100
AcDbEntity
  8
0
100
AcDbBlockBegin
  2
*Model_Space
 70
0
 10
0.0
 20
0.0
 30
0.0
  3
*Model_Space
  1

  0
ENDBLK
  5
21
100
AcDbEntity
  8
0
100
AcDbBlockEnd
  0
BLOCK
  5
1C
100
AcDbEntity
  8
0
100
AcDbBlockBegin
  2
*Paper_Space
 70
0
 10
0.0
 20
0.0
 30
0.0
  3
*Paper_Space
  1

  0
ENDBLK
  5
1D
100
AcDbEntity
  8
0
100
AcDbBlockEnd
  0
BLOCK
  5
218
100
AcDbEntity
  8
0
100
AcDbBlockBegin
  2
_FILLED
 70
64
 10
0.0
 20
0.0
  3
_FILLED
  1

  0
SOLID
  5
219
100
AcDbEntity
  8
0
  6
BYBLOCK
 62
0
100
AcDbTrace
 10
0.0
 20
0.0
 11
-1.0
 21
0.3166666667
 12
-1.0
 22
-0.3166666667
 13
-1.0
 23
-0.3166666667
  0
ENDBLK
  5
21A
100
AcDbEntity
  8
0
  6
BYBLOCK
 62
0
100
AcDbBlockEnd
  0
ENDSEC
  0
SECTION
  2
ENTITIES
  0
LINE
  5
21B
100
AcDbEntity
  8
RACCORDO
100
AcDbLine
 62
7
  6
CONTINUOUS
 10
-31.9406839893
 20
52.7209443201
 11
-29.6779422895
 21
54.0274230188
  0
LINE
  5
21C
100
AcDbEntity
  8
RACCORDO
100
AcDbLine
 62
250
  6
CONTINUOUS
 10
-31.1906477491
 20
52.6466325536
 11
-28.9279060493
 21
53.9531112522
  0
LINE
  5
21D
100
AcDbEntity
  8
RACCORDO
100
AcDbLine
 62
250
  6
CONTINUOUS
 10
-27.3041013197
 20
53.0155467524
 11
-27.1901879852
 21
53.07460579
  0
LINE
  5
21E
100
AcDbEntity
  8
RACCORDO
100
AcDbLine
 62
250
  6
CONTINUOUS
 10
-25.3393391348
 20
34.5920912865
 11
-25.0029900365
 21
34.7862950404
  0
LINE
  5
21F
100
AcDbEntity
  8
RACCORDO
100
AcDbLine
 62
7
  6
CONTINUOUS
 10
-23.7988892006
 20
33.4396108696
 11
-23.7989293057
 21
33.4395855943
  0
LINE
  5
220
100
AcDbEntity
  8
RACCORDO
100
AcDbLine
 62
250
  6
CONTINUOUS
 10
-23.7989293057
 20
33.4395855943
 11
-23.800875864
 21
33.4383825228
  0
LINE
  5
221
100
AcDbEntity
  8
RACCORDO
100
AcDbLine
 62
250
  6
CONTINUOUS
 10
-24.4293616565
 20
33.0574410629
 11
-23.8008758555
 21
33.4383825281
  0
LINE
  5
222
100
AcDbEntity
  8
RACCORDO
100
AcDbLine
 62
250
  6
CONTINUOUS
 10
-23.8056397893
 20
34.0949600139
 11
-24.4293616565
 21
33.7289673184
  0
LINE
  5
223
100
AcDbEntity
  8
RACCORDO
100
AcDbLine
 62
250
  6
CONTINUOUS
 10
-24.4293616565
 20
33.7289673184
 11
-24.6474514677
 21
33.6050425633
  0
LINE
  5
224
100
AcDbEntity
  8
RACCORDO
100
AcDbLine
 62
250
  6
CONTINUOUS
 10
-24.6474514677
 20
32.9375806541
 11
-24.4293616565
 21
33.0574410629
  0
LINE
  5
225
100
AcDbEntity
  8
RACCORDO
100
AcDbLine
 62
7
  6
CONTINUOUS
 10
-32.3977545303
 20
51.8302017317
 11
-32.3977545303
 21
-17.5697717957
  0
LINE
  5
226
100
AcDbEntity
  8
RACCORDO
100
AcDbLine
 62
250
  6
CONTINUOUS
 10
-32.2513079209
 20
51.6260644351
 11
-32.2513079209
 21
-17.7739090923
  0
LINE
  5
227
100
AcDbEntity
  8
RACCORDO
100
AcDbLine
 62
250
  6
CONTINUOUS
 10
-23.5646048107
 20
20.6469279863
 11
-23.8400854239
 21
20.4765666428
  0
LINE
  5
228
100
AcDbEntity
  8
RACCORDO
100
AcDbLine
 62
7
  6
CONTINUOUS
 10
-23.6042831014
 20
20.5564236764
 11
-23.7839533877
 21
20.4453128762
  0
LINE
  5
229
100
AcDbEntity
  8
RACCORDO
100
AcDbLine
 62
250
  6
CONTINUOUS
 10
-23.783953384
 20
22.9697053246
 11
-23.7060046278
 21
23.014712114
  0
LINE
  5
22A
100
AcDbEntity
  8
RACCORDO
100
AcDbLine
 62
250
  6
CONTINUOUS
 10
-23.8400854239
 20
22.6107408473
 11
-23.5646048107
 21
22.7698004469
  0
LINE
  5
22B
100
AcDbEntity
  8
RACCORDO
100
AcDbLine
 62
7
  6
CONTINUOUS
 10
-31.4406598291
 20
-19.227522393
 11
28.6634165717
 21
-53.9308628259
  0
LINE
  5
22C
100
AcDbEntity
  8
RACCORDO
100
AcDbLine
 62
250
  6
CONTINUOUS
 10
-31.5442011397
 20
-18.9986539625
 11
28.5598752612
 21
-53.7019943953
  0
LINE
  5
22D
100
AcDbEntity
  8
RACCORDO
100
AcDbLine
 62
250
  6
CONTINUOUS
 10
-25.7636032035
 20
-8.2317747313
 11
-25.7636032035
 21
34.5920912865
  0
LINE
  5
22E
100
AcDbEntity
  8
RACCORDO
100
AcDbLine
 62
250
  6
CONTINUOUS
 10
-25.3393391348
 20
-8.2317747313
 11
-25.3393391348
 21
34.5920912865
  0
LINE
  5
22F
100
AcDbEntity
  8
RACCORDO
100
AcDbLine
 62
7
  6
CONTINUOUS
 10
-24.7029430317
 20
34.6130516603
 11
-24.7029430317
 21
-7.8643275973
  0
LINE
  5
230
100
AcDbEntity
  8
RACCORDO
100
AcDbLine
 62
250
  6
CONTINUOUS
 10
-24.6861442904
 20
-7.9249158153
 11
-24.6861442904
 21
-6.3428693664
  0
LINE
  5
231
100
AcDbEntity
  8
RACCORDO
100
AcDbLine
 62
250
  6
CONTINUOUS
 10
-24.6861442904
 20
-5.4509724865
 11
-24.6861442904
 21
32.8477039196
  0
LINE
  5
232
100
AcDbEntity
  8
RACCORDO
100
AcDbLine
 62
250
  6
CONTINUOUS
 10
-24.6861442904
 20
33.7396007996
 11
-24.6861442904
 21
34.6033522776
  0
LINE
  5
233
100
AcDbEntity
  8
RACCORDO
100
AcDbLine
 62
7
  6
CONTINUOUS
 10
-23.7314467614
 20
-7.7810781806
 11
-23.7315037953
 21
-7.7809065903
  0
LWPOLYLINE
  5
234
100
AcDbEntity
  8
RACCORDO
100
AcDbPolyline
 62
7
  6
CONTINUOUS
 90
6
 70
0
 10
-23.7623715704
 20
-7.6688564948
 10
-23.7694547042
 20
-7.6337538043
 10
-23.7766735166
 20
-7.5882847682
 10
-23.7813879695
 20
-7.544622436
 10
-23.7836750108
 20
-7.503058871
 10
-23.7839444922
 20
-7.483724409
  0
LINE
  5
235
100
AcDbEntity
  8
RACCORDO
100
AcDbLine
 62
7
  6
CONTINUOUS
 10
-24.4677982531
 20
33.863064124
 11
-24.4677971734
 21
34.4772813887
  0
LINE
  5
236
100
AcDbEntity
  8
RACCORDO
100
AcDbLine
 62
7
  6
CONTINUOUS
 10
-24.467791583
 20
-7.7988424764
 11
-24.4677982531
 21
-6.2228434105
  0
LINE
  5
237
100
AcDbEntity
  8
RACCORDO
100
AcDbLine
 62
7
  6
CONTINUOUS
 10
-24.4677982531
 20
-5.3275091621
 11
-24.4677982531
 21
32.9677298756
  0
LINE
  5
238
100
AcDbEntity
  8
RACCORDO
100
AcDbLine
 62
250
  6
CONTINUOUS
 10
-23.8400854239
 20
-5.8423963518
 11
-23.8400854239
 21
-7.5638499919
  0
LINE
  5
239
100
AcDbEntity
  8
RACCORDO
100
AcDbLine
 62
250
  6
CONTINUOUS
 10
-23.8400854239
 20
-4.9573344264
 11
-23.8400854239
 21
5.7801016606
  0
LINE
  5
23A
100
AcDbEntity
  8
RACCORDO
100
AcDbLine
 62
250
  6
CONTINUOUS
 10
-23.8400854239
 20
7.9142758651
 11
-23.8400854239
 21
20.4765666428
  0
LINE
  5
23B
100
AcDbEntity
  8
RACCORDO
100
AcDbLine
 62
250
  6
CONTINUOUS
 10
-23.8400854239
 20
22.6107408473
 11
-23.8400854239
 21
33.3481769343
  0
LINE
  5
23C
100
AcDbEntity
  8
RACCORDO
100
AcDbLine
 62
7
  6
CONTINUOUS
 10
-23.783953384
 20
33.4283943425
 11
-23.783953384
 21
22.802429422
  0
LINE
  5
23D
100
AcDbEntity
  8
RACCORDO
100
AcDbLine
 62
7
  6
CONTINUOUS
 10
-23.783953384
 20
20.445312883
 11
-23.783953384
 21
8.1059644397
  0
LINE
  5
23E
100
AcDbEntity
  8
RACCORDO
100
AcDbLine
 62
7
  6
CONTINUOUS
 10
-23.783953384
 20
5.7488479007
 11
-23.783953384
 21
-4.8771170198
  0
LINE
  5
23F
100
AcDbEntity
  8
RACCORDO
100
AcDbLine
 62
7
  6
CONTINUOUS
 10
-23.783953384
 20
-5.7621789444
 11
-23.783953384
 21
-7.4836325845
  0
LINE
  5
240
100
AcDbEntity
  8
RACCORDO
100
AcDbLine
 62
7
  6
CONTINUOUS
 10
-23.5646048107
 20
22.7698004469
 11
-23.5646048107
 21
20.6469279863
  0
LINE
  5
241
100
AcDbEntity
  8
RACCORDO
100
AcDbLine
 62
7
  6
CONTINUOUS
 10
-23.5646048107
 20
8.0733354647
 11
-23.5646048107
 21
5.9504630041
  0
LINE
  5
242
100
AcDbEntity
  8
RACCORDO
100
AcDbLine
 62
7
  6
CONTINUOUS
 10
-23.5646048107
 20
-7.6845408774
 11
-23.5646048107
 21
-8.1156907507
  0
LWPOLYLINE
  5
243
100
AcDbEntity
  8
RACCORDO
100
AcDbPolyline
 62
7
  6
CONTINUOUS
 90
5
 70
0
 10
-23.7839533893
 20
33.4284209872
 10
-23.7837962831
 20
33.4356497635
 10
-23.7832662159
 20
33.4430588024
 10
-23.7824805727
 20
33.4491167789
 10
-23.7820212614
 20
33.4514908373
  0
LWPOLYLINE
  5
244
100
AcDbEntity
  8
RACCORDO
100
AcDbPolyline
 62
7
  6
CONTINUOUS
 90
5
 70
0
 10
-23.7839533893
 20
-5.7621522994
 10
-23.7837962831
 20
-5.7549235226
 10
-23.7832662159
 20
-5.7475144836
 10
-23.7824805727
 20
-5.7414565072
 10
-23.7820212614
 20
-5.7390824488
  0
LINE
  5
245
100
AcDbEntity
  8
RACCORDO
100
AcDbLine
 62
7
  6
CONTINUOUS
 10
21.1909065887
 20
-28.6835149089
 11
22.17281155
 21
-28.9273809236
  0
LINE
  5
246
100
AcDbEntity
  8
RACCORDO
100
AcDbLine
 62
250
  6
CONTINUOUS
 10
22.1428812219
 20
-36.6272016784
 11
-25.1272071004
 21
-9.3340451144
  0
LWPOLYLINE
  5
247
100
AcDbEntity
  8
RACCORDO
100
AcDbPolyline
 62
7
  6
CONTINUOUS
 90
12
 70
0
 10
-23.7310554265
 20
-5.0503240285
 10
-23.7357117676
 20
-5.0418185219
 10
-23.7459203591
 20
-5.0216140563
 10
-23.7550098289
 20
-5.0013108349
 10
-23.7629010978
 20
-4.9811576882
 10
-23.7695307853
 20
-4.9614393286
 10
-23.7748327111
 20
-4.9425700523
 10
-23.7788464777
 20
-4.9247658071
 10
-23.7816321798
 20
-4.9082659223
 10
-23.7832658787
 20
-4.8935027049
 10
-23.7839200502
 20
-4.8805862511
 10
-23.7839533845
 20
-4.8771252426
  0
LINE
  5
248
100
AcDbEntity
  8
RACCORDO
100
AcDbLine
 62
7
  6
CONTINUOUS
 10
-18.6050979123
 20
-11.1732745795
 11
-18.6050979123
 21
-11.8750291114
  0
LINE
  5
249
100
AcDbEntity
  8
RACCORDO
100
AcDbLine
 62
250
  6
CONTINUOUS
 10
-23.5646048107
 20
5.9504630041
 11
-23.8400854239
 21
5.7801016606
  0
LINE
  5
24A
100
AcDbEntity
  8
RACCORDO
100
AcDbLine
 62
7
  6
CONTINUOUS
 10
-23.6042831014
 20
5.8599586941
 11
-23.7839533877
 21
5.7488478939
  0
LINE
  5
24B
100
AcDbEntity
  8
RACCORDO
100
AcDbLine
 62
250
  6
CONTINUOUS
 10
-23.783953384
 20
8.2732403424
 11
-23.7060046278
 21
8.3182471318
  0
LINE
  5
24C
100
AcDbEntity
  8
RACCORDO
100
AcDbLine
 62
250
  6
CONTINUOUS
 10
-23.8400854239
 20
7.9142758651
 11
-23.5646048107
 21
8.0733354647
  0
LINE
  5
24D
100
AcDbEntity
  8
RACCORDO
100
AcDbLine
 62
250
  6
CONTINUOUS
 10
22.3550132563
 20
-36.2597782173
 11
-24.915075066
 21
-8.9666216534
  0
LINE
  5
24E
100
AcDbEntity
  8
RACCORDO
100
AcDbLine
 62
7
  6
CONTINUOUS
 10
-24.278678963
 20
-8.5991745194
 11
22.6914093593
 21
-35.7191148432
  0
LINE
  5
24F
100
AcDbEntity
  8
RACCORDO
100
AcDbLine
 62
7
  6
CONTINUOUS
 10
-23.97447061
 20
-8.6551293132
 11
-19.4236790573
 21
-11.2826993209
  0
LINE
  5
250
100
AcDbEntity
  8
DRAFT
100
AcDbLine
 62
7
  6
CONTINUOUS
 10
-16.5118228245
 20
-12.9639686156
 11
3.2673298543
 21
-24.3842034813
  0
LINE
  5
251
100
AcDbEntity
  8
DRAFT
100
AcDbLine
 62
7
  6
CONTINUOUS
 10
7.4662158222
 20
-26.8085876148
 11
15.931660002
 21
-31.6964289873
  0
LINE
  5
252
100
AcDbEntity
  8
RACCORDO
100
AcDbLine
 62
7
  6
CONTINUOUS
 10
18.8435162349
 20
-33.377698282
 11
22.6914093593
 21
-35.5994235466
  0
LINE
  5
253
100
AcDbEntity
  8
RACCORDO
100
AcDbLine
 62
7
  6
CONTINUOUS
 10
4.1822975177
 20
-24.5097676452
 11
4.1729702764
 21
-24.5043822129
  0
LINE
  5
254
100
AcDbEntity
  8
RACCORDO
100
AcDbLine
 62
250
  6
CONTINUOUS
 10
-23.3214801021
 20
-8.4208298267
 11
-18.7242583328
 21
-11.0752080596
  0
LINE
  5
255
100
AcDbEntity
  8
RACCORDO
100
AcDbLine
 62
250
  6
CONTINUOUS
 10
-15.8820615755
 20
-12.7162568462
 11
3.9203203622
 21
-24.1499039949
  0
LINE
  5
256
100
AcDbEntity
  8
RACCORDO
100
AcDbLine
 62
250
  6
CONTINUOUS
 10
8.1424072878
 20
-26.5876840705
 11
16.6310807265
 21
-31.488937726
  0
LINE
  5
257
100
AcDbEntity
  8
RACCORDO
100
AcDbLine
 62
250
  6
CONTINUOUS
 10
19.4732774839
 20
-33.1299865126
 11
22.6914093593
 21
-34.9880955248
  0
LINE
  5
258
100
AcDbEntity
  8
RACCORDO
100
AcDbLine
 62
7
  6
CONTINUOUS
 10
-23.249726362
 20
-8.4238903698
 11
-18.6486849845
 21
-11.0804739601
  0
LINE
  5
259
100
AcDbEntity
  8
RACCORDO
100
AcDbLine
 62
7
  6
CONTINUOUS
 10
-15.814015027
 20
-12.7171768668
 11
3.9908768633
 21
-24.1522732306
  0
LINE
  5
25A
100
AcDbEntity
  8
RACCORDO
100
AcDbLine
 62
7
  6
CONTINUOUS
 10
8.2154706835
 20
-26.5915007558
 11
16.7066540748
 21
-31.4942036264
  0
LINE
  5
25B
100
AcDbEntity
  8
RACCORDO
100
AcDbLine
 62
7
  6
CONTINUOUS
 10
19.5413240323
 20
-33.1309065331
 11
22.6914093593
 21
-34.9497263211
  0
LINE
  5
25C
100
AcDbEntity
  8
RACCORDO
100
AcDbLine
 62
7
  6
CONTINUOUS
 10
-23.783953384
 20
-7.3946225754
 11
-23.7060046278
 21
-7.4396292103
  0
LINE
  5
25D
100
AcDbEntity
  8
RACCORDO
100
AcDbLine
 62
7
  6
CONTINUOUS
 10
8.8202917605
 20
-26.0398117259
 11
5.4922542862
 21
-24.1182445983
  0
LWPOLYLINE
  5
25E
100
AcDbEntity
  8
RACCORDO
100
AcDbPolyline
 62
7
  6
CONTINUOUS
 90
19
 70
0
 10
-23.2497222603
 20
-8.4238832631
 10
-23.2641815901
 20
-8.4152832178
 10
-23.2953611516
 20
-8.3950281985
 10
-23.3271910035
 20
-8.3719577924
 10
-23.3594185236
 20
-8.3461337596
 10
-23.3917646412
 20
-8.3176728705
 10
-23.4240099391
 20
-8.2866727767
 10
-23.4559441078
 20
-8.2532543901
 10
-23.4873338468
 20
-8.2175899688
 10
-23.517970098
 20
-8.1798497945
 10
-23.5476610179
 20
-8.1402113211
 10
-23.5762264182
 20
-8.098872294
 10
-23.6034910542
 20
-8.0560460988
 10
-23.6292908022
 20
-8.0119520403
 10
-23.6534825134
 20
-7.9668097577
 10
-23.6759283123
 20
-7.9208604497
 10
-23.6964999236
 20
-7.8743513448
 10
-23.7150845812
 20
-7.8275299777
 10
-23.7314470188
 20
-7.781078433
  0
LINE
  5
25F
100
AcDbEntity
  8
RACCORDO
100
AcDbLine
 62
250
  6
CONTINUOUS
 10
22.4801939612
 20
-31.6595070072
 11
19.9705997973
 21
-30.2104987895
  0
LINE
  5
260
100
AcDbEntity
  8
RACCORDO
100
AcDbLine
 62
250
  6
CONTINUOUS
 10
-15.384739262
 20
-9.7967691231
 11
-12.8751450981
 21
-11.2457773408
  0
LINE
  5
261
100
AcDbEntity
  8
RACCORDO
100
AcDbLine
 62
250
  6
CONTINUOUS
 10
22.6914093593
 20
-31.0785001289
 11
20.3996707053
 21
-29.7552789523
  0
LINE
  5
262
100
AcDbEntity
  8
RACCORDO
100
AcDbLine
 62
250
  6
CONTINUOUS
 10
-14.9556683541
 20
-9.3415492859
 11
-12.4888079173
 21
-10.765883585
  0
LINE
  5
263
100
AcDbEntity
  8
DRAFT
100
AcDbLine
 62
7
  6
CONTINUOUS
 10
22.6914093593
 20
-29.6970665644
 11
21.0291880416
 21
-28.737320808
  0
LINE
  5
264
100
AcDbEntity
  8
DRAFT
100
AcDbLine
 62
7
  6
CONTINUOUS
 10
-14.3261510178
 20
-8.3235911416
 11
-11.9219879617
 21
-9.711724759
  0
LINE
  5
265
100
AcDbEntity
  8
RACCORDO
100
AcDbLine
 62
250
  6
CONTINUOUS
 10
-11.8520713371
 20
-9.6676339473
 11
-14.2485007394
 21
-8.2839656447
  0
LINE
  5
266
100
AcDbEntity
  8
RACCORDO
100
AcDbLine
 62
250
  6
CONTINUOUS
 10
21.1068383199
 20
-28.6976953111
 11
22.6914093593
 21
-29.61260677
  0
LINE
  5
267
100
AcDbEntity
  8
RACCORDO
100
AcDbLine
 62
250
  6
CONTINUOUS
 10
-11.7763759278
 20
-9.6486191609
 11
-14.1644324706
 21
-8.2697852425
  0
LINE
  5
268
100
AcDbEntity
  8
RACCORDO
100
AcDbLine
 62
250
  6
CONTINUOUS
 10
21.1909065887
 20
-28.6835149089
 11
22.6914093593
 21
-29.5498864029
  0
LINE
  5
269
100
AcDbEntity
  8
RACCORDO
100
AcDbLine
 62
250
  6
CONTINUOUS
 10
-10.8922647296
 20
-9.8360202825
 11
-13.1825275093
 21
-8.5136512573
  0
LINE
  5
26A
100
AcDbEntity
  8
RACCORDO
100
AcDbLine
 62
250
  6
CONTINUOUS
 10
22.17281155
 20
-28.9273809236
 11
22.6914093593
 21
-29.2268127992
  0
LINE
  5
26B
100
AcDbEntity
  8
RACCORDO
100
AcDbLine
 62
7
  6
CONTINUOUS
 10
-10.8475173532
 20
-9.8530806224
 11
-13.1328305132
 21
-8.5335694456
  0
LINE
  5
26C
100
AcDbEntity
  8
RACCORDO
100
AcDbLine
 62
7
  6
CONTINUOUS
 10
22.2225085462
 20
-28.9472991119
 11
22.6914093593
 21
-29.2180365648
  0
LINE
  5
26D
100
AcDbEntity
  8
RACCORDO
100
AcDbLine
 62
7
  6
CONTINUOUS
 10
-10.7494024129
 20
-10.4294463805
 11
-10.7494024129
 21
-10.0788159349
  0
LINE
  5
26E
100
AcDbEntity
  8
RACCORDO
100
AcDbLine
 62
7
  6
CONTINUOUS
 10
-10.8922647296
 20
-9.8360202825
 11
-11.7763759278
 21
-9.6486191609
  0
LINE
  5
26F
100
AcDbEntity
  8
RACCORDO
100
AcDbLine
 62
7
  6
CONTINUOUS
 10
-13.1825275093
 20
-8.5136512573
 11
-14.1644324706
 21
-8.2697852425
  0
LINE
  5
270
100
AcDbEntity
  8
RACCORDO
100
AcDbLine
 62
7
  6
CONTINUOUS
 10
-10.8920356481
 20
-10.7494716326
 11
-10.7494024129
 21
-10.4294463805
  0
LINE
  5
271
100
AcDbEntity
  8
RACCORDO
100
AcDbLine
 62
7
  6
CONTINUOUS
 10
-11.9219879617
 20
-9.711724759
 11
-12.4888079173
 21
-10.765883585
  0
LINE
  5
272
100
AcDbEntity
  8
RACCORDO
100
AcDbLine
 62
7
  6
CONTINUOUS
 10
-14.3261510178
 20
-8.3235911416
 11
-14.9556683541
 21
-9.3415492859
  0
LINE
  5
273
100
AcDbEntity
  8
RACCORDO
100
AcDbLine
 62
7
  6
CONTINUOUS
 10
-23.7988892006
 20
-5.7509624165
 11
-23.7989293057
 21
-5.7509876918
  0
LINE
  5
274
100
AcDbEntity
  8
RACCORDO
100
AcDbLine
 62
250
  6
CONTINUOUS
 10
-23.7989293057
 20
-5.7509876918
 11
-23.800875864
 21
-5.7521907633
  0
LINE
  5
275
100
AcDbEntity
  8
RACCORDO
100
AcDbLine
 62
250
  6
CONTINUOUS
 10
-24.4293616565
 20
-6.1331322231
 11
-23.8008758555
 21
-5.7521907579
  0
LINE
  5
276
100
AcDbEntity
  8
RACCORDO
100
AcDbLine
 62
250
  6
CONTINUOUS
 10
-23.8008758555
 20
-5.0928182469
 11
-24.4293616565
 21
-5.4616059676
  0
LINE
  5
277
100
AcDbEntity
  8
RACCORDO
100
AcDbLine
 62
250
  6
CONTINUOUS
 10
-25.3393391348
 20
-8.2317747313
 11
-24.7029430317
 21
-7.8643275973
  0
LINE
  5
278
100
AcDbEntity
  8
RACCORDO
100
AcDbLine
 62
250
  6
CONTINUOUS
 10
-24.4677913502
 20
-7.7988419823
 11
-24.6861442904
 21
-7.9249158153
  0
LINE
  5
279
100
AcDbEntity
  8
RACCORDO
100
AcDbLine
 62
250
  6
CONTINUOUS
 10
-23.7835519716
 20
-7.4844042285
 11
-23.7060046278
 21
-7.4396292103
  0
LINE
  5
27A
100
AcDbEntity
  8
RACCORDO
100
AcDbLine
 62
250
  6
CONTINUOUS
 10
-23.7315037953
 20
-7.7809065903
 11
-23.5646048107
 21
-7.6845408774
  0
LINE
  5
27B
100
AcDbEntity
  8
RACCORDO
100
AcDbLine
 62
250
  6
CONTINUOUS
 10
-24.915075066
 20
-8.9666216534
 11
-24.278678963
 21
-8.5991745194
  0
LINE
  5
27C
100
AcDbEntity
  8
RACCORDO
100
AcDbLine
 62
250
  6
CONTINUOUS
 10
-23.9728988933
 20
-8.6560368027
 11
-24.0765480906
 21
-8.7158823518
  0
LINE
  5
27D
100
AcDbEntity
  8
RACCORDO
100
AcDbLine
 62
250
  6
CONTINUOUS
 10
-24.4293616565
 20
-5.4616059676
 11
-24.6474514677
 21
-5.5855307228
  0
LINE
  5
27E
100
AcDbEntity
  8
RACCORDO
100
AcDbLine
 62
250
  6
CONTINUOUS
 10
-24.6474514677
 20
-6.2529926319
 11
-24.4293616565
 21
-6.1331322231
  0
LWPOLYLINE
  5
27F
100
AcDbEntity
  8
RACCORDO
100
AcDbPolyline
 62
7
  6
CONTINUOUS
 90
3
 70
0
 10
-23.783928715
 20
5.7488631527
 10
-23.7840709714
 20
5.7489389329
 10
-23.7854600538
 20
5.7496700139
  0
LINE
  5
280
100
AcDbEntity
  8
RACCORDO
100
AcDbLine
 62
7
  6
CONTINUOUS
 10
-23.8269817417
 20
5.7729815696
 11
-23.8400854239
 21
5.7801016606
  0
LWPOLYLINE
  5
281
100
AcDbEntity
  8
RACCORDO
100
AcDbPolyline
 62
7
  6
CONTINUOUS
 90
4
 70
0
 10
-23.7927165304
 20
5.7537231463
 10
-23.7987900108
 20
5.7570525315
 10
-23.8064660137
 20
5.7613743723
 10
-23.815809303
 20
5.7667155578
  0
LINE
  5
282
100
AcDbEntity
  8
RACCORDO
100
AcDbLine
 62
7
  6
CONTINUOUS
 10
-23.7839524454
 20
5.7488462381
 11
-23.8400854239
 21
5.7801016606
  0
LINE
  5
283
100
AcDbEntity
  8
RACCORDO
100
AcDbLine
 62
7
  6
CONTINUOUS
 10
-23.783953384
 20
8.3632537667
 11
-23.7060046278
 21
8.3182471318
  0
LINE
  5
284
100
AcDbEntity
  8
RACCORDO
100
AcDbLine
 62
250
  6
CONTINUOUS
 10
-13.9819073728
 20
-13.7750128646
 11
-10.8920356481
 21
-10.7494716326
  0
LINE
  5
285
100
AcDbEntity
  8
RACCORDO
100
AcDbLine
 62
7
  6
CONTINUOUS
 10
-13.9452178217
 20
-13.7961969516
 11
-11.0016588667
 21
-10.9139222875
  0
LINE
  5
286
100
AcDbEntity
  8
RACCORDO
100
AcDbLine
 62
7
  6
CONTINUOUS
 10
-15.384739262
 20
-9.7967691231
 11
-18.5558844657
 21
-11.9034443386
  0
LINE
  5
287
100
AcDbEntity
  8
RACCORDO
100
AcDbLine
 62
250
  6
CONTINUOUS
 10
28.9134286518
 20
17.9432921207
 11
31.1761703516
 21
19.2497708194
  0
LINE
  5
288
100
AcDbEntity
  8
RACCORDO
100
AcDbLine
 62
250
  6
CONTINUOUS
 10
31.6365031434
 20
18.8622478546
 11
31.8500193026
 21
18.9855300496
  0
LINE
  5
289
100
AcDbEntity
  8
RACCORDO
100
AcDbLine
 62
250
  6
CONTINUOUS
 10
32.1313441186
 20
18.005240924
 11
32.344824434
 21
18.1285024232
  0
LINE
  5
28A
100
AcDbEntity
  8
RACCORDO
100
AcDbLine
 62
250
  6
CONTINUOUS
 10
-23.8400854239
 20
-7.5638499919
 11
-24.3793263774
 21
-7.7573350073
  0
LINE
  5
28B
100
AcDbEntity
  8
RACCORDO
100
AcDbLine
 62
250
  6
CONTINUOUS
 10
-23.3214801021
 20
-8.4208298267
 11
-23.97447061
 21
-8.6551293132
  0
LINE
  5
28C
100
AcDbEntity
  8
RACCORDO
100
AcDbLine
 62
7
  6
CONTINUOUS
 10
3.2673298543
 20
-24.3842034813
 11
3.2673298543
 21
-24.5038947779
  0
LINE
  5
28D
100
AcDbEntity
  8
RACCORDO
100
AcDbLine
 62
7
  6
CONTINUOUS
 10
4.0315704594
 20
-24.2434031932
 11
4.0315704594
 21
-24.2594705458
  0
LINE
  5
28E
100
AcDbEntity
  8
RACCORDO
100
AcDbLine
 62
7
  6
CONTINUOUS
 10
-12.8751450981
 20
-11.2457773408
 11
-15.1725502864
 21
-13.0875505685
  0
LINE
  5
28F
100
AcDbEntity
  8
DRAFT
100
AcDbLine
 62
7
  6
CONTINUOUS
 10
-16.6083550218
 20
-13.0279234313
 11
-16.5118228245
 21
-12.9639686156
  0
LINE
  5
290
100
AcDbEntity
  8
RACCORDO
100
AcDbLine
 62
7
  6
CONTINUOUS
 10
-11.8520713371
 20
-9.6676339473
 11
-11.9219879617
 21
-9.711724759
  0
LINE
  5
291
100
AcDbEntity
  8
RACCORDO
100
AcDbLine
 62
250
  6
CONTINUOUS
 10
29.9740888236
 20
16.1061748155
 11
32.2368305234
 21
17.4126535142
  0
LINE
  5
292
100
AcDbEntity
  8
RACCORDO
100
AcDbLine
 62
7
  6
CONTINUOUS
 10
-19.5308889237
 20
-11.3404889843
 11
-19.4236790573
 21
-11.2826993209
  0
LINE
  5
293
100
AcDbEntity
  8
RACCORDO
100
AcDbLine
 62
7
  6
CONTINUOUS
 10
-14.2485007394
 20
-8.2839656447
 11
-14.3261510178
 21
-8.3235911416
  0
LINE
  5
294
100
AcDbEntity
  8
RACCORDO
100
AcDbLine
 62
7
  6
CONTINUOUS
 10
-16.5118228245
 20
-12.9639686156
 11
-15.8820615755
 21
-12.7162568462
  0
LINE
  5
295
100
AcDbEntity
  8
RACCORDO
100
AcDbLine
 62
7
  6
CONTINUOUS
 10
-19.4236790573
 20
-11.2826993209
 11
-18.7242583328
 21
-11.0752080596
  0
LWPOLYLINE
  5
296
100
AcDbEntity
  8
RACCORDO
100
AcDbPolyline
 62
7
  6
CONTINUOUS
 90
3
 70
0
 10
-23.783928715
 20
20.445328135
 10
-23.7840709714
 20
20.4454039152
 10
-23.7854600538
 20
20.4461349962
  0
LINE
  5
297
100
AcDbEntity
  8
RACCORDO
100
AcDbLine
 62
7
  6
CONTINUOUS
 10
-23.8269817417
 20
20.4694465519
 11
-23.8400854239
 21
20.4765666428
  0
LWPOLYLINE
  5
298
100
AcDbEntity
  8
RACCORDO
100
AcDbPolyline
 62
7
  6
CONTINUOUS
 90
4
 70
0
 10
-23.7927165304
 20
20.4501881286
 10
-23.7987900108
 20
20.4535175138
 10
-23.8064660137
 20
20.4578393546
 10
-23.815809303
 20
20.4631805401
  0
LINE
  5
299
100
AcDbEntity
  8
RACCORDO
100
AcDbLine
 62
7
  6
CONTINUOUS
 10
-23.7839524454
 20
20.4453112204
 11
-23.8400854239
 21
20.4765666428
  0
LINE
  5
29A
100
AcDbEntity
  8
RACCORDO
100
AcDbLine
 62
7
  6
CONTINUOUS
 10
-23.783953384
 20
23.0597187489
 11
-23.7060046278
 21
23.014712114
  0
LINE
  5
29B
100
AcDbEntity
  8
RACCORDO
100
AcDbLine
 62
7
  6
CONTINUOUS
 10
16.750241147
 20
-32.2887587778
 11
16.750241147
 21
-31.5870042459
  0
LINE
  5
29C
100
AcDbEntity
  8
RACCORDO
100
AcDbLine
 62
250
  6
CONTINUOUS
 10
8.7054051185
 20
-26.8743827583
 11
8.8385033645
 21
-26.1903861608
  0
LINE
  5
29D
100
AcDbEntity
  8
RACCORDO
100
AcDbLine
 62
7
  6
CONTINUOUS
 10
8.7297069858
 20
-26.8884143519
 11
8.8709907128
 21
-26.1623522769
  0
LINE
  5
29E
100
AcDbEntity
  8
RACCORDO
100
AcDbLine
 62
7
  6
CONTINUOUS
 10
-25.0650823141
 20
34.8221463432
 11
22.2050060082
 21
7.5289897793
  0
LINE
  5
29F
100
AcDbEntity
  8
RACCORDO
100
AcDbLine
 62
250
  6
CONTINUOUS
 10
-25.1272071004
 20
34.9594674016
 11
22.1428812219
 21
7.6663108376
  0
LINE
  5
2A0
100
AcDbEntity
  8
RACCORDO
100
AcDbLine
 62
7
  6
CONTINUOUS
 10
22.6914093593
 20
6.6865228325
 11
22.6914093593
 21
-36.1373431853
  0
LINE
  5
2A1
100
AcDbEntity
  8
RACCORDO
100
AcDbLine
 62
250
  6
CONTINUOUS
 10
22.779277325
 20
6.5640404545
 11
22.779277325
 21
-36.2598255633
  0
LINE
  5
2A2
100
AcDbEntity
  8
DRAFT
100
AcDbLine
 62
7
  6
CONTINUOUS
 10
7.3823074018
 20
-26.8798312411
 11
7.4662158222
 21
-26.8085876148
  0
LINE
  5
2A3
100
AcDbEntity
  8
RACCORDO
100
AcDbLine
 62
250
  6
CONTINUOUS
 10
3.4377872191
 20
-24.602314724
 11
4.0315704594
 21
-24.2594705458
  0
LINE
  5
2A4
100
AcDbEntity
  8
RACCORDO
100
AcDbLine
 62
250
  6
CONTINUOUS
 10
3.7205729459
 20
-24.7655916586
 11
4.1729702764
 21
-24.5043822129
  0
LINE
  5
2A5
100
AcDbEntity
  8
DRAFT
100
AcDbLine
 62
7
  6
CONTINUOUS
 10
3.147496211
 20
-24.4347043341
 11
3.2673298543
 21
-24.3842034813
  0
LINE
  5
2A6
100
AcDbEntity
  8
RACCORDO
100
AcDbLine
 62
7
  6
CONTINUOUS
 10
4.1822975177
 20
-24.5097676452
 11
5.2271595724
 21
-24.105241516
  0
LINE
  5
2A7
100
AcDbEntity
  8
RACCORDO
100
AcDbLine
 62
7
  6
CONTINUOUS
 10
3.9203203622
 20
-24.1499039949
 11
3.2673298543
 21
-24.3842034813
  0
LINE
  5
2A8
100
AcDbEntity
  8
RACCORDO
100
AcDbLine
 62
250
  6
CONTINUOUS
 10
29.2669820424
 20
-53.2937987118
 11
29.2669820424
 21
16.1061748155
  0
LINE
  5
2A9
100
AcDbEntity
  8
RACCORDO
100
AcDbLine
 62
250
  6
CONTINUOUS
 10
29.9740888236
 20
-53.2937987118
 11
29.9740888236
 21
16.1061748155
  0
LINE
  5
2AA
100
AcDbEntity
  8
RACCORDO
100
AcDbLine
 62
7
  6
CONTINUOUS
 10
8.2861703476
 20
-26.6323218558
 11
8.8385033645
 21
-26.1903861608
  0
LINE
  5
2AB
100
AcDbEntity
  8
RACCORDO
100
AcDbLine
 62
7
  6
CONTINUOUS
 10
8.1424072878
 20
-26.5876840705
 11
7.4662158222
 21
-26.8085876148
  0
LINE
  5
2AC
100
AcDbEntity
  8
RACCORDO
100
AcDbLine
 62
250
  6
CONTINUOUS
 10
28.5598752612
 20
17.3309196857
 11
-31.5442011397
 21
52.0342601185
  0
LWPOLYLINE
  5
2AD
100
AcDbEntity
  8
RACCORDO
100
AcDbPolyline
 62
7
  6
CONTINUOUS
 90
20
 70
0
 10
32.3997492722
 20
18.2077960635
 10
32.3990456806
 20
18.2389195471
 10
32.3950862819
 20
18.2888162091
 10
32.3877862127
 20
18.3390260461
 10
32.3772739922
 20
18.3893613394
 10
32.3636832542
 20
18.4396348678
 10
32.347132102
 20
18.489661034
 10
32.3277309801
 20
18.5392291094
 10
32.3056376725
 20
18.5880402823
 10
32.2809683077
 20
18.6358699647
 10
32.253848172
 20
18.6824897963
 10
32.2244668393
 20
18.7275732221
 10
32.1929497469
 20
18.7709020455
 10
32.159438768
 20
18.8122537417
 10
32.1241343733
 20
18.8513208624
 10
32.0871644534
 20
18.8879009083
 10
32.0486300399
 20
18.9218055386
 10
32.0086423697
 20
18.9528167882
 10
31.9673047648
 20
18.9807304345
 10
31.9461564811
 20
18.993452107
  0
LINE
  5
2AE
100
AcDbEntity
  8
RACCORDO
100
AcDbLine
 62
7
  6
CONTINUOUS
 10
32.2368305234
 20
-51.9873200132
 11
32.2368305234
 21
17.4126535142
  0
LINE
  5
2AF
100
AcDbEntity
  8
RACCORDO
100
AcDbLine
 62
250
  6
CONTINUOUS
 10
32.344824434
 20
18.1285024232
 11
32.344824434
 21
-50.0430604422
  0
LINE
  5
2B0
100
AcDbEntity
  8
RACCORDO
100
AcDbLine
 62
7
  6
CONTINUOUS
 10
32.3997495598
 20
18.2079918842
 11
32.3997495598
 21
-49.9635709776
  0
LINE
  5
2B1
100
AcDbEntity
  8
RACCORDO
100
AcDbLine
 62
7
  6
CONTINUOUS
 10
20.3996707053
 20
-29.7552789523
 11
21.0291880416
 21
-28.737320808
  0
LWPOLYLINE
  5
2B2
100
AcDbEntity
  8
RACCORDO
100
AcDbPolyline
 62
7
  6
CONTINUOUS
 90
12
 70
0
 10
-27.0938856289
 20
53.0824327923
 10
-27.1274918567
 20
53.1005472082
 10
-27.1684260122
 20
53.1192058772
 10
-27.2092904102
 20
53.1341680117
 10
-27.2499725254
 20
53.1454288752
 10
-27.2903129993
 20
53.1529880589
 10
-27.330044193
 20
53.1568561925
 10
-27.3690009783
 20
53.1570776529
 10
-27.406975476
 20
53.1537155785
 10
-27.4435559796
 20
53.1469137654
 10
-27.4784535043
 20
53.1368748285
 10
-27.4996906492
 20
53.12847758
  0
LINE
  5
2B3
100
AcDbEntity
  8
RACCORDO
100
AcDbLine
 62
250
  6
CONTINUOUS
 10
28.9134286518
 20
17.9432921207
 11
-31.1906477491
 21
52.6466325536
  0
LINE
  5
2B4
100
AcDbEntity
  8
RACCORDO
100
AcDbLine
 62
7
  6
CONTINUOUS
 10
31.1761703516
 20
19.2497708194
 11
-28.9279060493
 21
53.9531112522
  0
LINE
  5
2B5
100
AcDbEntity
  8
RACCORDO
100
AcDbLine
 62
250
  6
CONTINUOUS
 10
-27.1901879852
 20
53.07460579
 11
31.8500193026
 21
18.9855300496
  0
LINE
  5
2B6
100
AcDbEntity
  8
RACCORDO
100
AcDbLine
 62
7
  6
CONTINUOUS
 10
-27.0938851327
 20
53.0824325058
 11
31.9463221553
 21
18.9933567653
  0
LINE
  5
2B7
100
AcDbEntity
  8
RACCORDO
100
AcDbLine
 62
7
  6
CONTINUOUS
 10
16.7994545936
 20
-32.317174005
 11
19.9705997973
 21
-30.2104987895
  0
LINE
  5
2B8
100
AcDbEntity
  8
RACCORDO
100
AcDbLine
 62
7
  6
CONTINUOUS
 10
18.7469840376
 20
-33.4416530977
 11
18.8435162349
 21
-33.377698282
  0
LINE
  5
2B9
100
AcDbEntity
  8
DRAFT
100
AcDbLine
 62
7
  6
CONTINUOUS
 10
15.8244501356
 20
-31.7542186507
 11
15.931660002
 21
-31.6964289873
  0
LINE
  5
2BA
100
AcDbEntity
  8
RACCORDO
100
AcDbLine
 62
7
  6
CONTINUOUS
 10
21.0291880416
 20
-28.737320808
 11
21.1068383199
 21
-28.6976953111
  0
LINE
  5
2BB
100
AcDbEntity
  8
RACCORDO
100
AcDbLine
 62
7
  6
CONTINUOUS
 10
18.8435162349
 20
-33.377698282
 11
19.4732774839
 21
-33.1299865126
  0
LINE
  5
2BC
100
AcDbEntity
  8
RACCORDO
100
AcDbLine
 62
7
  6
CONTINUOUS
 10
15.931660002
 20
-31.6964289873
 11
16.6310807265
 21
-31.488937726
  0
LINE
  5
2BD
100
AcDbEntity
  8
RACCORDO
100
AcDbLine
 62
250
  6
CONTINUOUS
 10
21.3734316866
 20
-34.188742531
 11
22.6914093593
 21
-32.8982048818
  0
LINE
  5
2BE
100
AcDbEntity
  8
RACCORDO
100
AcDbLine
 62
7
  6
CONTINUOUS
 10
21.4101212377
 20
-34.209926618
 11
22.6914093593
 21
-32.955314651
  0
LINE
  5
2BF
100
AcDbEntity
  8
RACCORDO
100
AcDbLine
 62
7
  6
CONTINUOUS
 10
20.1827887729
 20
-33.5012802349
 11
22.4801939612
 21
-31.6595070072
  0
LINE
  5
2C0
100
AcDbEntity
  8
RACCORDO
100
AcDbLine
 62
250
  6
CONTINUOUS
 10
22.3550132563
 20
-36.2597782173
 11
22.6914093593
 21
-36.0655473235
  0
LWPOLYLINE
  5
2C1
100
AcDbEntity
  8
RACCORDO
100
AcDbPolyline
 62
7
  6
CONTINUOUS
 90
12
 70
0
 10
32.2368305234
 20
-50.3379143139
 10
32.2546666315
 20
-50.3237624033
 10
32.2808317433
 20
-50.2985288136
 10
32.3050293591
 20
-50.2702083182
 10
32.326941228
 20
-50.2389530982
 10
32.3462386427
 20
-50.2050494138
 10
32.3627568399
 20
-50.1686409652
 10
32.3763739522
 20
-50.1298514008
 10
32.3869490373
 20
-50.0889134132
 10
32.3943998312
 20
-50.045959712
 10
32.3986719751
 20
-50.0010843945
 10
32.3997495597
 20
-49.9635721463
  0
LINE
  5
2C2
100
AcDbEntity
  8
RACCORDO
100
AcDbLine
 62
250
  6
CONTINUOUS
 10
32.344824434
 20
-50.0430604422
 11
32.2368305234
 21
-50.112121296
  0
LINE
  5
2C3
100
AcDbEntity
  8
RACCORDO
100
AcDbLine
 62
250
  6
CONTINUOUS
 10
29.9740888236
 20
-53.2937987118
 11
32.2368305234
 21
-51.9873200132
  0
LINE
  5
2C4
100
AcDbEntity
  8
RACCORDO
100
AcDbLine
 62
7
  6
CONTINUOUS
 10
29.663464892
 20
-53.9804040036
 11
31.9262065918
 21
-52.6739253049
  0
ARC
  5
2C5
100
AcDbEntity
  8
RACCORDO
100
AcDbCircle
 62
250
  6
CONTINUOUS
 10
-28.1053812228
 20
39.6108524066
 40
6.9301536836
100
AcDbArc
 50
299.4043412246
 51
299.9317929855
  0
ARC
  5
2C6
100
AcDbEntity
  8
RACCORDO
100
AcDbCircle
 62
250
  6
CONTINUOUS
 10
-28.1053812223
 20
0.4202791197
 40
6.9301536825
100
AcDbArc
 50
299.4043412245
 51
299.9317929855
  0
ARC
  5
2C7
100
AcDbEntity
  8
RACCORDO
100
AcDbCircle
 62
250
  6
CONTINUOUS
 10
-22.6964461236
 20
-7.4368342818
 40
1.155752057
100
AcDbArc
 50
199.4103601293
 51
201.5909809023
  0
ARC
  5
2C8
100
AcDbEntity
  8
RACCORDO
100
AcDbCircle
 62
250
  6
CONTINUOUS
 10
-24.6775664297
 20
33.6065783553
 40
1.0049085346
100
AcDbArc
 50
26.440512677
 51
28.7451613576
  0
ARC
  5
2C9
100
AcDbEntity
  8
RACCORDO
100
AcDbCircle
 62
250
  6
CONTINUOUS
 10
-24.6771476428
 20
-5.5837766904
 40
1.0044363784
100
AcDbArc
 50
26.4400027586
 51
29.2610818587
  0
ARC
  5
2CA
100
AcDbEntity
  8
RACCORDO
100
AcDbCircle
 62
250
  6
CONTINUOUS
 10
-23.9295825729
 20
-7.5976486266
 40
0.2652268811
100
AcDbArc
 50
302.6495255703
 51
305.3355657179
  0
ARC
  5
2CB
100
AcDbEntity
  8
RACCORDO
100
AcDbCircle
 62
250
  6
CONTINUOUS
 10
-24.7875012095
 20
33.0300574923
 40
0.2086289781
100
AcDbArc
 50
293.9213177737
 51
299.0664584405
  0
ARC
  5
2CC
100
AcDbEntity
  8
RACCORDO
100
AcDbCircle
 62
250
  6
CONTINUOUS
 10
-24.7875012095
 20
-6.1605157938
 40
0.2086289781
100
AcDbArc
 50
293.9213177737
 51
299.0664584406
  0
ARC
  5
2CD
100
AcDbEntity
  8
RACCORDO
100
AcDbCircle
 62
250
  6
CONTINUOUS
 10
-24.7875012057
 20
33.9219543614
 40
0.2086289668
100
AcDbArc
 50
293.9213174242
 51
299.0664589614
  0
ARC
  5
2CE
100
AcDbEntity
  8
RACCORDO
100
AcDbCircle
 62
250
  6
CONTINUOUS
 10
-24.7875012057
 20
-5.2686189246
 40
0.2086289668
100
AcDbArc
 50
293.9213174242
 51
299.0664589617
  0
ARC
  5
2CF
100
AcDbEntity
  8
RACCORDO
100
AcDbCircle
 62
250
  6
CONTINUOUS
 10
-24.7856074103
 20
-7.7461861085
 40
0.204541488
100
AcDbArc
 50
295.0838861278
 51
299.0959471033
  0
SPLINE
  5
2D0
100
AcDbEntity
  8
RACCORDO
100
AcDbSpline
 62
7
  6
CONTINUOUS
 70
0
 71
3
 72
12
 73
8
 74
0
 42
0.0000001
 43
0.0000001
 44
0.0000000001
 40
0.0
 40
0.0
 40
0.0
 40
0.0
 40
0.1211621821
 40
0.2417062547
 40
0.4834171208
 40
0.7343119398
 40
1.0
 40
1.0
 40
1.0
 40
1.0
 10
-23.7989293057
 20
33.4395855943
 30
0.0
 10
-23.7770555612
 20
33.4533655867
 30
0.0
 10
-23.736523658
 20
33.4861776217
 30
0.0
 10
-23.6728917997
 20
33.5683257286
 30
0.0
 10
-23.628204459
 20
33.6951183533
 30
0.0
 10
-23.6281793633
 20
33.8589897174
 30
0.0
 10
-23.6557973499
 20
33.966841953
 30
0.0
 10
-23.6754560654
 20
34.020014245
 30
0.0
  0
SPLINE
  5
2D1
100
AcDbEntity
  8
RACCORDO
100
AcDbSpline
 62
7
  6
CONTINUOUS
 70
0
 71
3
 72
13
 73
9
 74
0
 42
0.0000001
 43
0.0000001
 44
0.0000000001
 40
0.0
 40
0.0
 40
0.0
 40
0.0
 40
0.1190102704
 40
0.237659939
 40
0.3569010954
 40
0.4781189514
 40
0.731456227
 40
1.0
 40
1.0
 40
1.0
 40
1.0
 10
-23.7989293057
 20
-5.7509876918
 30
0.0
 10
-23.7729927142
 20
-5.7346481925
 30
0.0
 10
-23.7255543345
 20
-5.6944700145
 30
0.0
 10
-23.6734773678
 20
-5.6175318581
 30
0.0
 10
-23.6412344518
 20
-5.529962781
 30
0.0
 10
-23.6234369593
 20
-5.4032445803
 30
0.0
 10
-23.6450453897
 20
-5.2361320331
 30
0.0
 10
-23.6972445971
 20
-5.1106680303
 30
0.0
 10
-23.7310554682
 20
-5.0503239539
 30
0.0
  0
SPLINE
  5
2D2
100
AcDbEntity
  8
RACCORDO
100
AcDbSpline
 62
250
  6
CONTINUOUS
 70
0
 71
3
 72
11
 73
7
 74
0
 42
0.0000001
 43
0.0000001
 44
0.0000000001
 40
0.0
 40
0.0
 40
0.0
 40
0.0
 40
0.2188757902
 40
0.454814096
 40
0.7144789269
 40
1.0
 40
1.0
 40
1.0
 40
1.0
 10
-27.4990454086
 20
53.1282674504
 30
0.0
 10
-27.4768319859
 20
53.1360900728
 30
0.0
 10
-27.4280472672
 20
53.1454696015
 30
0.0
 10
-27.350682536
 20
53.1400453012
 30
0.0
 10
-27.2695165861
 20
53.1163021842
 30
0.0
 10
-27.2166954803
 20
53.0901350902
 30
0.0
 10
-27.1901879293
 20
53.074605819
 30
0.0
  0
SPLINE
  5
2D3
100
AcDbEntity
  8
RACCORDO
100
AcDbSpline
 62
250
  6
CONTINUOUS
 70
0
 71
3
 72
10
 73
6
 74
0
 42
0.0000001
 43
0.0000001
 44
0.0000000001
 40
0.0
 40
0.0
 40
0.0
 40
0.0
 40
0.2193700049
 40
0.4536264414
 40
1.0
 40
1.0
 40
1.0
 40
1.0
 10
-23.783962232
 20
-4.8771252424
 30
0.0
 10
-23.7839624794
 20
-4.8845697216
 30
0.0
 10
-23.7866296393
 20
-4.9000711892
 30
0.0
 10
-23.8027506199
 20
-4.9304088626
 30
0.0
 10
-23.8241714405
 20
-4.9478194199
 30
0.0
 10
-23.8400854239
 20
-4.9573344258
 30
0.0
  0
SPLINE
  5
2D4
100
AcDbEntity
  8
RACCORDO
100
AcDbSpline
 62
250
  6
CONTINUOUS
 70
0
 71
3
 72
8
 73
4
 74
0
 42
0.0000001
 43
0.0000001
 44
0.0000000001
 40
0.0
 40
0.0
 40
0.0
 40
0.0
 40
1.0
 40
1.0
 40
1.0
 40
1.0
 10
-23.7310552203
 20
-5.050323913
 30
0.0
 10
-23.7526876223
 20
-5.0668870654
 30
0.0
 10
-23.7782023933
 20
-5.0777115285
 30
0.0
 10
-23.8008758551
 20
-5.0928182477
 30
0.0
  0
SPLINE
  5
2D5
100
AcDbEntity
  8
RACCORDO
100
AcDbSpline
 62
250
  6
CONTINUOUS
 70
0
 71
3
 72
13
 73
9
 74
0
 42
0.0000001
 43
0.0000001
 44
0.0000000001
 40
0.0
 40
0.0
 40
0.0
 40
0.0
 40
0.0912326332
 40
0.1892947675
 40
0.2980049789
 40
0.4190498227
 40
0.694674829
 40
1.0
 40
1.0
 40
1.0
 40
1.0
 10
-24.6474514677
 20
-6.2529926319
 30
0.0
 10
-24.6289768993
 20
-6.2411159501
 30
0.0
 10
-24.5946622815
 20
-6.2097357314
 30
0.0
 10
-24.5583001931
 20
-6.1468849601
 30
0.0
 10
-24.5366456438
 20
-6.0703089827
 30
0.0
 10
-24.5273135365
 20
-5.9483862204
 30
0.0
 10
-24.5563977472
 20
-5.7794801023
 30
0.0
 10
-24.6117198672
 20
-5.6497633297
 30
0.0
 10
-24.6474514677
 20
-5.5855307228
 30
0.0
  0
SPLINE
  5
2D6
100
AcDbEntity
  8
RACCORDO
100
AcDbSpline
 62
250
  6
CONTINUOUS
 70
0
 71
3
 72
13
 73
9
 74
0
 42
0.0000001
 43
0.0000001
 44
0.0000000001
 40
0.0
 40
0.0
 40
0.0
 40
0.0
 40
0.0912326332
 40
0.1892947675
 40
0.2980049789
 40
0.4190498227
 40
0.694674829
 40
1.0
 40
1.0
 40
1.0
 40
1.0
 10
-24.6474514677
 20
32.9375806541
 30
0.0
 10
-24.6289768993
 20
32.9494573359
 30
0.0
 10
-24.5946622815
 20
32.9808375547
 30
0.0
 10
-24.5583001931
 20
33.0436883259
 30
0.0
 10
-24.5366456438
 20
33.1202643033
 30
0.0
 10
-24.5273135365
 20
33.2421870657
 30
0.0
 10
-24.5563977472
 20
33.4110931838
 30
0.0
 10
-24.6117198672
 20
33.5408099564
 30
0.0
 10
-24.6474514677
 20
33.6050425633
 30
0.0
  0
LINE
  5
2D7
100
AcDbEntity
  8
RACCORDO
100
AcDbLine
 62
250
  6
CONTINUOUS
 10
-23.9415279827
 20
34.1734201967
 11
-24.4677982531
 21
33.863064124
  0
SPLINE
  5
2D8
100
AcDbEntity
  8
RACCORDO
100
AcDbSpline
 62
250
  6
CONTINUOUS
 70
0
 71
3
 72
9
 73
5
 74
0
 42
0.0000001
 43
0.0000001
 44
0.0000000001
 40
0.0
 40
0.0
 40
0.0
 40
0.0
 40
0.2403637369
 40
1.0
 40
1.0
 40
1.0
 40
1.0
 10
-24.3793263774
 20
-7.7573350073
 30
0.0
 10
-24.386701479
 20
-7.7599809332
 30
0.0
 10
-24.4171053655
 20
-7.7717623851
 30
0.0
 10
-24.4463473987
 20
-7.7864596827
 30
0.0
 10
-24.467791583
 20
-7.7988424764
 30
0.0
  0
LINE
  5
2D9
100
AcDbEntity
  8
RACCORDO
100
AcDbLine
 62
250
  6
CONTINUOUS
 10
-24.4677982531
 20
-6.2228434105
 11
-23.8400854239
 21
-5.8423963518
  0
LINE
  5
2DA
100
AcDbEntity
  8
RACCORDO
100
AcDbLine
 62
250
  6
CONTINUOUS
 10
-23.8400854239
 20
-4.9573344264
 11
-24.4677982531
 21
-5.3275091621
  0
LINE
  5
2DB
100
AcDbEntity
  8
RACCORDO
100
AcDbLine
 62
250
  6
CONTINUOUS
 10
-24.4677982531
 20
32.9677298756
 11
-23.8400854239
 21
33.3481769343
  0
SPLINE
  5
2DC
100
AcDbEntity
  8
RACCORDO
100
AcDbSpline
 62
7
  6
CONTINUOUS
 70
0
 71
3
 72
13
 73
9
 74
0
 42
0.0000001
 43
0.0000001
 44
0.0000000001
 40
0.0
 40
0.0
 40
0.0
 40
0.0
 40
0.0912942366
 40
0.1894051867
 40
0.2981788272
 40
0.4192364725
 40
0.6947869381
 40
1.0
 40
1.0
 40
1.0
 40
1.0
 10
-24.4293616565
 20
33.0574410629
 30
0.0
 10
-24.4108280771
 20
33.0694756148
 30
0.0
 10
-24.3764281288
 20
33.101168689
 30
0.0
 10
-24.3400114493
 20
33.1644860754
 30
0.0
 10
-24.3183070831
 20
33.2415252902
 30
0.0
 10
-24.3089634051
 20
33.3641157705
 30
0.0
 10
-24.3380893696
 20
33.5339077489
 30
0.0
 10
-24.3935459871
 20
33.6643518168
 30
0.0
 10
-24.4293616565
 20
33.7289673184
 30
0.0
  0
LINE
  5
2DD
100
AcDbEntity
  8
RACCORDO
100
AcDbLine
 62
250
  6
CONTINUOUS
 10
-24.4677982531
 20
33.863064124
 11
-24.6861442904
 21
33.7396007996
  0
LINE
  5
2DE
100
AcDbEntity
  8
RACCORDO
100
AcDbLine
 62
250
  6
CONTINUOUS
 10
-24.6861442904
 20
32.8477039196
 11
-24.4677982531
 21
32.9677298756
  0
LINE
  5
2DF
100
AcDbEntity
  8
RACCORDO
100
AcDbLine
 62
250
  6
CONTINUOUS
 10
-24.4677982531
 20
-5.3275091621
 11
-24.6861442904
 21
-5.4509724865
  0
SPLINE
  5
2E0
100
AcDbEntity
  8
RACCORDO
100
AcDbSpline
 62
250
  6
CONTINUOUS
 70
0
 71
3
 72
9
 73
5
 74
0
 42
0.0000001
 43
0.0000001
 44
0.0000000001
 40
0.0
 40
0.0
 40
0.0
 40
0.0
 40
0.4514006863
 40
1.0
 40
1.0
 40
1.0
 40
1.0
 10
32.3997409612
 20
-49.9635721466
 30
0.0
 10
32.3997426876
 20
-49.9786018254
 30
0.0
 10
32.3871911685
 20
-50.0120314059
 30
0.0
 10
32.3604289746
 20
-50.0335660236
 30
0.0
 10
32.344824434
 20
-50.0430604422
 30
0.0
  0
LINE
  5
2E1
100
AcDbEntity
  8
RACCORDO
100
AcDbLine
 62
250
  6
CONTINUOUS
 10
-24.6861442904
 20
-6.3428693664
 11
-24.4677982531
 21
-6.2228434105
  0
SPLINE
  5
2E2
100
AcDbEntity
  8
RACCORDO
100
AcDbSpline
 62
250
  6
CONTINUOUS
 70
0
 71
3
 72
9
 73
5
 74
0
 42
0.0000001
 43
0.0000001
 44
0.0000000001
 40
0.0
 40
0.0
 40
0.0
 40
0.0
 40
0.4514332196
 40
1.0
 40
1.0
 40
1.0
 40
1.0
 10
31.9461522012
 20
18.9934446792
 30
0.0
 10
31.9331385437
 20
19.0009114941
 30
0.0
 10
31.8979767067
 20
19.0066724252
 30
0.0
 10
31.8660135871
 20
18.9942813471
 30
0.0
 10
31.8500193026
 20
18.9855300496
 30
0.0
  0
SPLINE
  5
2E3
100
AcDbEntity
  8
RACCORDO
100
AcDbSpline
 62
250
  6
CONTINUOUS
 70
0
 71
3
 72
9
 73
5
 74
0
 42
0.0000001
 43
0.0000001
 44
0.0000000001
 40
0.0
 40
0.0
 40
0.0
 40
0.0
 40
0.4514493194
 40
1.0
 40
1.0
 40
1.0
 40
1.0
 10
32.3997407009
 20
18.2077960714
 30
0.0
 10
32.3996988745
 20
18.1927928447
 30
0.0
 10
32.3871078039
 20
18.1594642562
 30
0.0
 10
32.3603985126
 20
18.1379783068
 30
0.0
 10
32.344824434
 20
18.1285024232
 30
0.0
  0
SPLINE
  5
2E4
100
AcDbEntity
  8
RACCORDO
100
AcDbSpline
 62
250
  6
CONTINUOUS
 70
0
 71
3
 72
9
 73
5
 74
0
 42
0.0000001
 43
0.0000001
 44
0.0000000001
 40
0.0
 40
0.0
 40
0.0
 40
0.0
 40
0.4513856185
 40
1.0
 40
1.0
 40
1.0
 40
1.0
 10
-27.0938899292
 20
53.0824253452
 30
0.0
 10
-27.1069046875
 20
53.0899420414
 30
0.0
 10
-27.1421327947
 20
53.0957859652
 30
0.0
 10
-27.1741630747
 20
53.0833738445
 30
0.0
 10
-27.1901879852
 20
53.07460579
 30
0.0
  0
SPLINE
  5
2E5
100
AcDbEntity
  8
RACCORDO
100
AcDbSpline
 62
250
  6
CONTINUOUS
 70
0
 71
3
 72
13
 73
9
 74
0
 42
0.0000001
 43
0.0000001
 44
0.0000000001
 40
0.0
 40
0.0
 40
0.0
 40
0.0
 40
0.3063587195
 40
0.5802866718
 40
0.7005735072
 40
0.8090723528
 40
0.9076526997
 40
1.0
 40
1.0
 40
1.0
 40
1.0
 10
-23.777774198
 20
-5.1365409079
 30
0.0
 10
-23.7475314979
 20
-5.1973565502
 30
0.0
 10
-23.7015655221
 20
-5.3185929476
 30
0.0
 10
-23.6808023654
 20
-5.4747165926
 30
0.0
 10
-23.6934932579
 20
-5.5860062526
 30
0.0
 10
-23.7158713337
 20
-5.6556701509
 30
0.0
 10
-23.7512210864
 20
-5.7127527861
 30
0.0
 10
-23.7835531835
 20
-5.7412778435
 30
0.0
 10
-23.8008758555
 20
-5.7521907579
 30
0.0
  0
SPLINE
  5
2E6
100
AcDbEntity
  8
RACCORDO
100
AcDbSpline
 62
7
  6
CONTINUOUS
 70
0
 71
3
 72
13
 73
9
 74
0
 42
0.0000001
 43
0.0000001
 44
0.0000000001
 40
0.0
 40
0.0
 40
0.0
 40
0.0
 40
0.0912942366
 40
0.1894051867
 40
0.2981788272
 40
0.4192364725
 40
0.6947869381
 40
1.0
 40
1.0
 40
1.0
 40
1.0
 10
-24.4293616565
 20
-6.1331322231
 30
0.0
 10
-24.4108280771
 20
-6.1210976713
 30
0.0
 10
-24.3764281288
 20
-6.089404597
 30
0.0
 10
-24.3400114493
 20
-6.0260872106
 30
0.0
 10
-24.3183070831
 20
-5.9490479959
 30
0.0
 10
-24.3089634051
 20
-5.8264575155
 30
0.0
 10
-24.3380893696
 20
-5.6566655372
 30
0.0
 10
-24.3935459871
 20
-5.5262214693
 30
0.0
 10
-24.4293616565
 20
-5.4616059676
 30
0.0
  0
SPLINE
  5
2E7
100
AcDbEntity
  8
RACCORDO
100
AcDbSpline
 62
250
  6
CONTINUOUS
 70
0
 71
3
 72
9
 73
5
 74
0
 42
0.0000001
 43
0.0000001
 44
0.0000000001
 40
0.0
 40
0.0
 40
0.0
 40
0.0
 40
0.7429058757
 40
1.0
 40
1.0
 40
1.0
 40
1.0
 10
-23.7839622322
 20
33.4283943422
 30
0.0
 10
-23.783961582
 20
33.4211198753
 30
0.0
 10
-23.7856172567
 20
33.4112408616
 30
0.0
 10
-23.7891596483
 20
33.4021083827
 30
0.0
 10
-23.7901785562
 20
33.3998063526
 30
0.0
  0
SPLINE
  5
2E8
100
AcDbEntity
  8
RACCORDO
100
AcDbSpline
 62
250
  6
CONTINUOUS
 70
0
 71
3
 72
8
 73
4
 74
0
 42
0.0000001
 43
0.0000001
 44
0.0000000001
 40
0.0
 40
0.0
 40
0.0
 40
0.0
 40
1.0
 40
1.0
 40
1.0
 40
1.0
 10
-23.7901785562
 20
33.3998063526
 30
0.0
 10
-23.7919279453
 20
33.3958539384
 30
0.0
 10
-23.7940060244
 20
33.3920354659
 30
0.0
 10
-23.796334308
 20
33.3883938954
 30
0.0
  0
SPLINE
  5
2E9
100
AcDbEntity
  8
RACCORDO
100
AcDbSpline
 62
250
  6
CONTINUOUS
 70
0
 71
3
 72
9
 73
5
 74
0
 42
0.0000001
 43
0.0000001
 44
0.0000000001
 40
0.0
 40
0.0
 40
0.0
 40
0.0
 40
0.2291991537
 40
1.0
 40
1.0
 40
1.0
 40
1.0
 10
-23.796334308
 20
33.3883938954
 30
0.0
 10
-23.7987928545
 20
33.3845485861
 30
0.0
 10
-23.8107783463
 20
33.3685720931
 30
0.0
 10
-23.8269115084
 20
33.3560536476
 30
0.0
 10
-23.8400854239
 20
33.3481769343
 30
0.0
  0
SPLINE
  5
2EA
100
AcDbEntity
  8
RACCORDO
100
AcDbSpline
 62
250
  6
CONTINUOUS
 70
0
 71
3
 72
13
 73
9
 74
0
 42
0.0000001
 43
0.0000001
 44
0.0000000001
 40
0.0
 40
0.0
 40
0.0
 40
0.0
 40
0.3063587195
 40
0.5802866718
 40
0.7005735072
 40
0.8090723528
 40
0.9076526997
 40
1.0
 40
1.0
 40
1.0
 40
1.0
 10
-23.777774198
 20
34.0540323782
 30
0.0
 10
-23.7475314979
 20
33.9932167358
 30
0.0
 10
-23.7015655221
 20
33.8719803385
 30
0.0
 10
-23.6808023654
 20
33.7158566935
 30
0.0
 10
-23.6934932579
 20
33.6045670335
 30
0.0
 10
-23.7158713337
 20
33.5349031351
 30
0.0
 10
-23.7512210864
 20
33.4778205
 30
0.0
 10
-23.7835531835
 20
33.4492954426
 30
0.0
 10
-23.8008758555
 20
33.4383825281
 30
0.0
  0
SPLINE
  5
2EB
100
AcDbEntity
  8
RACCORDO
100
AcDbSpline
 62
250
  6
CONTINUOUS
 70
0
 71
3
 72
9
 73
5
 74
0
 42
0.0000001
 43
0.0000001
 44
0.0000000001
 40
0.0
 40
0.0
 40
0.0
 40
0.0
 40
0.4669388369
 40
1.0
 40
1.0
 40
1.0
 40
1.0
 10
-23.2497278152
 20
-8.4238928888
 30
0.0
 10
-23.259644166
 20
-8.4181832939
 30
0.0
 10
-23.2844565697
 20
-8.4117507863
 30
0.0
 10
-23.3091217526
 20
-8.4165974795
 30
0.0
 10
-23.3214801021
 20
-8.4208298267
 30
0.0
  0
SPLINE
  5
2EC
100
AcDbEntity
  8
RACCORDO
100
AcDbSpline
 62
250
  6
CONTINUOUS
 70
0
 71
3
 72
10
 73
6
 74
0
 42
0.0000001
 43
0.0000001
 44
0.0000000001
 40
0.0
 40
0.0
 40
0.0
 40
0.0
 40
0.2193656687
 40
0.4536399887
 40
1.0
 40
1.0
 40
1.0
 40
1.0
 10
-23.783962287
 20
-7.4837243971
 30
0.0
 10
-23.783971806
 20
-7.4911627475
 30
0.0
 10
-23.786653891
 20
-7.5066485064
 30
0.0
 10
-23.8027810597
 20
-7.5369501589
 30
0.0
 10
-23.8241846088
 20
-7.5543428591
 30
0.0
 10
-23.8400854239
 20
-7.5638499919
 30
0.0
  0
SPLINE
  5
2ED
100
AcDbEntity
  8
RACCORDO
100
AcDbSpline
 62
250
  6
CONTINUOUS
 70
0
 71
3
 72
9
 73
5
 74
0
 42
0.0000001
 43
0.0000001
 44
0.0000000001
 40
0.0
 40
0.0
 40
0.0
 40
0.0
 40
0.7429058763
 40
1.0
 40
1.0
 40
1.0
 40
1.0
 10
-23.7839622322
 20
-5.7621789446
 30
0.0
 10
-23.783961582
 20
-5.7694534115
 30
0.0
 10
-23.7856172567
 20
-5.779332425
 30
0.0
 10
-23.7891596483
 20
-5.7884649038
 30
0.0
 10
-23.7901785562
 20
-5.7907669339
 30
0.0
  0
SPLINE
  5
2EE
100
AcDbEntity
  8
RACCORDO
100
AcDbSpline
 62
250
  6
CONTINUOUS
 70
0
 71
3
 72
8
 73
4
 74
0
 42
0.0000001
 43
0.0000001
 44
0.0000000001
 40
0.0
 40
0.0
 40
0.0
 40
0.0
 40
1.0
 40
1.0
 40
1.0
 40
1.0
 10
-23.7901785562
 20
-5.7907669339
 30
0.0
 10
-23.7919279453
 20
-5.794719348
 30
0.0
 10
-23.7940060244
 20
-5.7985378204
 30
0.0
 10
-23.796334308
 20
-5.8021793908
 30
0.0
  0
SPLINE
  5
2EF
100
AcDbEntity
  8
RACCORDO
100
AcDbSpline
 62
250
  6
CONTINUOUS
 70
0
 71
3
 72
9
 73
5
 74
0
 42
0.0000001
 43
0.0000001
 44
0.0000000001
 40
0.0
 40
0.0
 40
0.0
 40
0.0
 40
0.229199152
 40
1.0
 40
1.0
 40
1.0
 40
1.0
 10
-23.796334308
 20
-5.8021793908
 30
0.0
 10
-23.7987928546
 20
-5.8060247001
 30
0.0
 10
-23.8107783464
 20
-5.8220011929
 30
0.0
 10
-23.8269115084
 20
-5.8345196384
 30
0.0
 10
-23.8400854239
 20
-5.8423963518
 30
0.0
  0
SPLINE
  5
2F0
100
AcDbEntity
  8
RACCORDO
100
AcDbSpline
 62
250
  6
CONTINUOUS
 70
0
 71
3
 72
9
 73
5
 74
0
 42
0.0000001
 43
0.0000001
 44
0.0000000001
 40
0.0
 40
0.0
 40
0.0
 40
0.0
 40
0.2406730573
 40
1.0
 40
1.0
 40
1.0
 40
1.0
 10
31.8500193026
 20
18.9855300496
 30
0.0
 10
31.8594392926
 20
18.9801695809
 30
0.0
 10
31.8980216709
 20
18.9569219603
 30
0.0
 10
31.9343865065
 20
18.9300636815
 30
0.0
 10
31.9606693782
 20
18.9081883778
 30
0.0
  0
SPLINE
  5
2F1
100
AcDbEntity
  8
RACCORDO
100
AcDbSpline
 62
250
  6
CONTINUOUS
 70
0
 71
3
 72
11
 73
7
 74
0
 42
0.0000001
 43
0.0000001
 44
0.0000000001
 40
0.0
 40
0.0
 40
0.0
 40
0.0
 40
0.2496522968
 40
0.5119995275
 40
0.7679407728
 40
1.0
 40
1.0
 40
1.0
 40
1.0
 10
31.9606693782
 20
18.9081883778
 30
0.0
 10
32.0177729282
 20
18.8606609422
 30
0.0
 10
32.1229175768
 20
18.7484146814
 30
0.0
 10
32.2440992219
 20
18.5530863745
 30
0.0
 10
32.3238719009
 20
18.3430820999
 30
0.0
 10
32.3452574765
 20
18.1975600405
 30
0.0
 10
32.344824487
 20
18.1285024538
 30
0.0
  0
SPLINE
  5
2F2
100
AcDbEntity
  8
RACCORDO
100
AcDbSpline
 62
250
  6
CONTINUOUS
 70
0
 71
3
 72
11
 73
7
 74
0
 42
0.0000001
 43
0.0000001
 44
0.0000000001
 40
0.0
 40
0.0
 40
0.0
 40
0.0
 40
0.2854973968
 40
0.5450977785
 40
0.7810685522
 40
1.0
 40
1.0
 40
1.0
 40
1.0
 10
32.344824434
 20
-50.0430604422
 30
0.0
 10
32.3450184826
 20
-50.0737561997
 30
0.0
 10
32.3412792671
 20
-50.132531505
 30
0.0
 10
32.3212843752
 20
-50.2146309613
 30
0.0
 10
32.2873499235
 20
-50.2843031243
 30
0.0
 10
32.254886724
 20
-50.3218711878
 30
0.0
 10
32.237023988
 20
-50.3372015496
 30
0.0
  0
SPLINE
  5
2F3
100
AcDbEntity
  8
RACCORDO
100
AcDbSpline
 62
7
  6
CONTINUOUS
 70
0
 71
3
 72
9
 73
5
 74
0
 42
0.0000001
 43
0.0000001
 44
0.0000000001
 40
0.0
 40
0.0
 40
0.0
 40
0.0
 40
0.5073539024
 40
1.0
 40
1.0
 40
1.0
 40
1.0
 10
-23.8400854239
 20
22.6107408473
 30
0.0
 10
-23.8232144484
 20
22.6403143778
 30
0.0
 10
-23.7960052987
 20
22.7022111864
 30
0.0
 10
-23.7839480351
 20
22.7693696308
 30
0.0
 10
-23.7839524429
 20
22.8024299948
 30
0.0
  0
SPLINE
  5
2F4
100
AcDbEntity
  8
RACCORDO
100
AcDbSpline
 62
7
  6
CONTINUOUS
 70
0
 71
3
 72
9
 73
5
 74
0
 42
0.0000001
 43
0.0000001
 44
0.0000000001
 40
0.0
 40
0.0
 40
0.0
 40
0.0
 40
0.5073539024
 40
1.0
 40
1.0
 40
1.0
 40
1.0
 10
-23.8400854239
 20
7.9142758651
 30
0.0
 10
-23.8232144484
 20
7.9438493956
 30
0.0
 10
-23.7960052987
 20
8.0057462042
 30
0.0
 10
-23.7839480351
 20
8.0729046485
 30
0.0
 10
-23.7839524429
 20
8.1059650125
 30
0.0
  0
SPLINE
  5
2F5
100
AcDbEntity
  8
RACCORDO
100
AcDbSpline
 62
7
  6
CONTINUOUS
 70
0
 71
3
 72
9
 73
5
 74
0
 42
0.0000001
 43
0.0000001
 44
0.0000000001
 40
0.0
 40
0.0
 40
0.0
 40
0.0
 40
0.2370318956
 40
1.0
 40
1.0
 40
1.0
 40
1.0
 10
-23.7379288312
 20
-7.7627040897
 30
0.0
 10
-23.7385316046
 20
-7.7609315929
 30
0.0
 10
-23.7410257925
 20
-7.7534371379
 30
0.0
 10
-23.7433382095
 20
-7.7458826907
 30
0.0
 10
-23.7450191819
 20
-7.7400956131
 30
0.0
  0
SPLINE
  5
2F6
100
AcDbEntity
  8
RACCORDO
100
AcDbSpline
 62
7
  6
CONTINUOUS
 70
0
 71
3
 72
9
 73
5
 74
0
 42
0.0000001
 43
0.0000001
 44
0.0000000001
 40
0.0
 40
0.0
 40
0.0
 40
0.0
 40
0.2373529172
 40
1.0
 40
1.0
 40
1.0
 40
1.0
 10
-23.7450191819
 20
-7.7400956131
 30
0.0
 10
-23.7466375887
 20
-7.7345239297
 30
0.0
 10
-23.7531286347
 20
-7.7109528014
 30
0.0
 10
-23.758391113
 20
-7.6870683948
 30
0.0
 10
-23.7623907761
 20
-7.6688599761
 30
0.0
  0
SPLINE
  5
2F7
100
AcDbEntity
  8
RACCORDO
100
AcDbSpline
 62
7
  6
CONTINUOUS
 70
0
 71
3
 72
9
 73
5
 74
0
 42
0.0000001
 43
0.0000001
 44
0.0000000001
 40
0.0
 40
0.0
 40
0.0
 40
0.0
 40
0.2395207679
 40
1.0
 40
1.0
 40
1.0
 40
1.0
 10
-23.7315037894
 20
-7.7809065869
 30
0.0
 10
-23.7319875367
 20
-7.7794431797
 30
0.0
 10
-23.7339278321
 20
-7.7733063692
 30
0.0
 10
-23.7363669011
 20
-7.7673417266
 30
0.0
 10
-23.7379288312
 20
-7.7627040897
 30
0.0
  0
SPLINE
  5
2F8
100
AcDbEntity
  8
RACCORDO
100
AcDbSpline
 62
250
  6
CONTINUOUS
 70
0
 71
3
 72
10
 73
6
 74
0
 42
0.0000001
 43
0.0000001
 44
0.0000000001
 40
0.0
 40
0.0
 40
0.0
 40
0.0
 40
0.3810718026
 40
0.6594060694
 40
1.0
 40
1.0
 40
1.0
 40
1.0
 10
-23.7375215833
 20
-7.7630924017
 30
0.0
 10
-23.7364662377
 20
-7.7713875422
 30
0.0
 10
-23.7442010804
 20
-7.7858380668
 30
0.0
 10
-23.759292873
 20
-7.8012118547
 30
0.0
 10
-23.7700912825
 20
-7.8096877524
 30
0.0
 10
-23.7761848609
 20
-7.8140150759
 30
0.0
  0
SPLINE
  5
2F9
100
AcDbEntity
  8
RACCORDO
100
AcDbSpline
 62
250
  6
CONTINUOUS
 70
0
 71
3
 72
9
 73
5
 74
0
 42
0.0000001
 43
0.0000001
 44
0.0000000001
 40
0.0
 40
0.0
 40
0.0
 40
0.0
 40
0.2589898385
 40
1.0
 40
1.0
 40
1.0
 40
1.0
 10
-24.6749745053
 20
-8.0552061624
 30
0.0
 10
-24.6768546224
 20
-8.0440669485
 30
0.0
 10
-24.6832730221
 20
-8.0009236981
 30
0.0
 10
-24.6862845268
 20
-7.957237282
 30
0.0
 10
-24.6861442355
 20
-7.9249157836
 30
0.0
  0
SPLINE
  5
2FA
100
AcDbEntity
  8
RACCORDO
100
AcDbSpline
 62
7
  6
CONTINUOUS
 70
0
 71
3
 72
11
 73
7
 74
0
 42
0.0000001
 43
0.0000001
 44
0.0000000001
 40
0.0
 40
0.0
 40
0.0
 40
0.0
 40
0.2296272662
 40
0.4838983052
 40
0.7467144017
 40
1.0
 40
1.0
 40
1.0
 40
1.0
 10
-24.4677982531
 20
-7.7988459678
 30
0.0
 10
-24.4668044924
 20
-7.8629216648
 30
0.0
 10
-24.4457569472
 20
-7.9977891215
 30
0.0
 10
-24.3734101882
 20
-8.1942577764
 30
0.0
 10
-24.2651818576
 20
-8.3813492733
 30
0.0
 10
-24.1714622567
 20
-8.4917428695
 30
0.0
 10
-24.1217559371
 20
-8.5419999482
 30
0.0
  0
SPLINE
  5
2FB
100
AcDbEntity
  8
RACCORDO
100
AcDbSpline
 62
7
  6
CONTINUOUS
 70
0
 71
3
 72
10
 73
6
 74
0
 42
0.0000001
 43
0.0000001
 44
0.0000000001
 40
0.0
 40
0.0
 40
0.0
 40
0.0
 40
0.2600119706
 40
0.5133228138
 40
1.0
 40
1.0
 40
1.0
 40
1.0
 10
-24.1217559371
 20
-8.5419999482
 30
0.0
 10
-24.1100373411
 20
-8.5533288282
 30
0.0
 10
-24.0868693404
 20
-8.5756766046
 30
0.0
 10
-24.0386349644
 20
-8.6158361167
 30
0.0
 10
-23.9993077068
 20
-8.6407751403
 30
0.0
 10
-23.9728871641
 20
-8.6560300305
 30
0.0
  0
SPLINE
  5
2FC
100
AcDbEntity
  8
RACCORDO
100
AcDbSpline
 62
250
  6
CONTINUOUS
 70
0
 71
3
 72
10
 73
6
 74
0
 42
0.0000001
 43
0.0000001
 44
0.0000000001
 40
0.0
 40
0.0
 40
0.0
 40
0.0
 40
0.5192192433
 40
0.7711226146
 40
1.0
 40
1.0
 40
1.0
 40
1.0
 10
-23.7711041695
 20
-7.862125831
 30
0.0
 10
-23.7247901359
 20
-7.9792144395
 30
0.0
 10
-23.62882371
 20
-8.1440102818
 30
0.0
 10
-23.4632868434
 20
-8.3220335906
 30
0.0
 10
-23.3694578332
 20
-8.3929204283
 30
0.0
 10
-23.3214801021
 20
-8.4208298267
 30
0.0
  0
SPLINE
  5
2FD
100
AcDbEntity
  8
RACCORDO
100
AcDbSpline
 62
250
  6
CONTINUOUS
 70
0
 71
3
 72
11
 73
7
 74
0
 42
0.0000001
 43
0.0000001
 44
0.0000000001
 40
0.0
 40
0.0
 40
0.0
 40
0.0
 40
0.2415384293
 40
0.4972040836
 40
0.7544786258
 40
1.0
 40
1.0
 40
1.0
 40
1.0
 10
-24.3793263774
 20
-7.7573350073
 30
0.0
 10
-24.3899569029
 20
-7.8251135079
 30
0.0
 10
-24.3921874413
 20
-7.9680570559
 30
0.0
 10
-24.3467922161
 20
-8.1791449267
 30
0.0
 10
-24.2569984713
 20
-8.3767200752
 30
0.0
 10
-24.1703899756
 20
-8.4921447546
 30
0.0
 10
-24.1218771819
 20
-8.5422442126
 30
0.0
  0
SPLINE
  5
2FE
100
AcDbEntity
  8
RACCORDO
100
AcDbSpline
 62
250
  6
CONTINUOUS
 70
0
 71
3
 72
9
 73
5
 74
0
 42
0.0000001
 43
0.0000001
 44
0.0000000001
 40
0.0
 40
0.0
 40
0.0
 40
0.0
 40
0.2402451249
 40
1.0
 40
1.0
 40
1.0
 40
1.0
 10
-23.8400854239
 20
-7.5638499919
 30
0.0
 10
-23.8395963608
 20
-7.5739576573
 30
0.0
 10
-23.8366284795
 20
-7.6159829565
 30
0.0
 10
-23.8301373513
 20
-7.6577319868
 30
0.0
 10
-23.8236052926
 20
-7.6890602845
 30
0.0
  0
SPLINE
  5
2FF
100
AcDbEntity
  8
RACCORDO
100
AcDbSpline
 62
250
  6
CONTINUOUS
 70
0
 71
3
 72
9
 73
5
 74
0
 42
0.0000001
 43
0.0000001
 44
0.0000000001
 40
0.0
 40
0.0
 40
0.0
 40
0.0
 40
0.2432435573
 40
1.0
 40
1.0
 40
1.0
 40
1.0
 10
-23.8236052926
 20
-7.6890602845
 30
0.0
 10
-23.8213372574
 20
-7.6999379702
 30
0.0
 10
-23.8112063728
 20
-7.744486924
 30
0.0
 10
-23.7979915948
 20
-7.7883209145
 30
0.0
 10
-23.7865082175
 20
-7.8209273027
 30
0.0
  0
SPLINE
  5
300
100
AcDbEntity
  8
RACCORDO
100
AcDbSpline
 62
250
  6
CONTINUOUS
 70
0
 71
3
 72
9
 73
5
 74
0
 42
0.0000001
 43
0.0000001
 44
0.0000000001
 40
0.0
 40
0.0
 40
0.0
 40
0.0
 40
0.5481197258
 40
1.0
 40
1.0
 40
1.0
 40
1.0
 10
-24.6861442431
 20
32.8477039456
 30
0.0
 10
-24.6862561955
 20
32.8661630711
 30
0.0
 10
-24.6819419571
 20
32.9005867554
 30
0.0
 10
-24.6602578387
 20
32.9293591689
 30
0.0
 10
-24.6474514193
 20
32.9375806807
 30
0.0
  0
SPLINE
  5
301
100
AcDbEntity
  8
RACCORDO
100
AcDbSpline
 62
7
  6
CONTINUOUS
 70
0
 71
3
 72
9
 73
5
 74
0
 42
0.0000001
 43
0.0000001
 44
0.0000000001
 40
0.0
 40
0.0
 40
0.0
 40
0.0
 40
0.5497383398
 40
1.0
 40
1.0
 40
1.0
 40
1.0
 10
-24.4677982531
 20
32.9677298756
 30
0.0
 10
-24.4677982531
 20
32.9861784651
 30
0.0
 10
-24.4634098635
 20
33.0204058575
 30
0.0
 10
-24.4420345965
 20
33.0492120453
 30
0.0
 10
-24.4293616565
 20
33.0574410629
 30
0.0
  0
SPLINE
  5
302
100
AcDbEntity
  8
RACCORDO
100
AcDbSpline
 62
250
  6
CONTINUOUS
 70
0
 71
3
 72
9
 73
5
 74
0
 42
0.0000001
 43
0.0000001
 44
0.0000000001
 40
0.0
 40
0.0
 40
0.0
 40
0.0
 40
0.4768027601
 40
1.0
 40
1.0
 40
1.0
 40
1.0
 10
-23.8008759122
 20
33.4383824938
 30
0.0
 10
-23.8079786736
 20
33.4339056956
 30
0.0
 10
-23.8210835205
 20
33.4214699813
 30
0.0
 10
-23.8291496025
 20
33.4054848863
 30
0.0
 10
-23.8322627864
 20
33.3968139905
 30
0.0
  0
SPLINE
  5
303
100
AcDbEntity
  8
RACCORDO
100
AcDbSpline
 62
250
  6
CONTINUOUS
 70
0
 71
3
 72
9
 73
5
 74
0
 42
0.0000001
 43
0.0000001
 44
0.0000000001
 40
0.0
 40
0.0
 40
0.0
 40
0.0
 40
0.2328299873
 40
1.0
 40
1.0
 40
1.0
 40
1.0
 10
-23.8322627864
 20
33.3968139905
 30
0.0
 10
-23.8335583296
 20
33.3932056206
 30
0.0
 10
-23.8383135496
 20
33.3774172297
 30
0.0
 10
-23.8400106022
 20
33.3608092897
 30
0.0
 10
-23.8400854802
 20
33.3481769002
 30
0.0
  0
SPLINE
  5
304
100
AcDbEntity
  8
RACCORDO
100
AcDbSpline
 62
250
  6
CONTINUOUS
 70
0
 71
3
 72
9
 73
5
 74
0
 42
0.0000001
 43
0.0000001
 44
0.0000000001
 40
0.0
 40
0.0
 40
0.0
 40
0.0
 40
0.2672202954
 40
1.0
 40
1.0
 40
1.0
 40
1.0
 10
-24.6474514108
 20
33.6050425957
 30
0.0
 10
-24.6536111519
 20
33.6159685343
 30
0.0
 10
-24.674318665
 20
33.6580154591
 30
0.0
 10
-24.6863519698
 20
33.7052065664
 30
0.0
 10
-24.686144234
 20
33.7396008315
 30
0.0
  0
SPLINE
  5
305
100
AcDbEntity
  8
RACCORDO
100
AcDbSpline
 62
7
  6
CONTINUOUS
 70
0
 71
3
 72
9
 73
5
 74
0
 42
0.0000001
 43
0.0000001
 44
0.0000000001
 40
0.0
 40
0.0
 40
0.0
 40
0.0
 40
0.5255231603
 40
1.0
 40
1.0
 40
1.0
 40
1.0
 10
-24.4293616565
 20
33.7289673184
 30
0.0
 10
-24.4412981349
 20
33.7505020698
 30
0.0
 10
-24.4597920943
 20
33.793959865
 30
0.0
 10
-24.467798253
 20
33.8408340919
 30
0.0
 10
-24.4677982531
 20
33.863064124
 30
0.0
  0
SPLINE
  5
306
100
AcDbEntity
  8
RACCORDO
100
AcDbSpline
 62
250
  6
CONTINUOUS
 70
0
 71
3
 72
9
 73
5
 74
0
 42
0.0000001
 43
0.0000001
 44
0.0000000001
 40
0.0
 40
0.0
 40
0.0
 40
0.0
 40
0.5481197258
 40
1.0
 40
1.0
 40
1.0
 40
1.0
 10
-24.6861442431
 20
-6.3428693404
 30
0.0
 10
-24.6862561955
 20
-6.324410215
 30
0.0
 10
-24.6819419571
 20
-6.2899865306
 30
0.0
 10
-24.6602578387
 20
-6.2612141172
 30
0.0
 10
-24.6474514193
 20
-6.2529926053
 30
0.0
  0
SPLINE
  5
307
100
AcDbEntity
  8
RACCORDO
100
AcDbSpline
 62
7
  6
CONTINUOUS
 70
0
 71
3
 72
9
 73
5
 74
0
 42
0.0000001
 43
0.0000001
 44
0.0000000001
 40
0.0
 40
0.0
 40
0.0
 40
0.0
 40
0.5497383397
 40
1.0
 40
1.0
 40
1.0
 40
1.0
 10
-24.4677982531
 20
-6.2228434105
 30
0.0
 10
-24.4677982531
 20
-6.204394821
 30
0.0
 10
-24.4634098636
 20
-6.1701674286
 30
0.0
 10
-24.4420345965
 20
-6.1413612408
 30
0.0
 10
-24.4293616565
 20
-6.1331322231
 30
0.0
  0
SPLINE
  5
308
100
AcDbEntity
  8
RACCORDO
100
AcDbSpline
 62
250
  6
CONTINUOUS
 70
0
 71
3
 72
9
 73
5
 74
0
 42
0.0000001
 43
0.0000001
 44
0.0000000001
 40
0.0
 40
0.0
 40
0.0
 40
0.0
 40
0.4768027601
 40
1.0
 40
1.0
 40
1.0
 40
1.0
 10
-23.8008759122
 20
-5.7521907922
 30
0.0
 10
-23.8079786737
 20
-5.7566675905
 30
0.0
 10
-23.8210835205
 20
-5.7691033048
 30
0.0
 10
-23.8291496025
 20
-5.7850883997
 30
0.0
 10
-23.8322627864
 20
-5.7937592955
 30
0.0
  0
SPLINE
  5
309
100
AcDbEntity
  8
RACCORDO
100
AcDbSpline
 62
250
  6
CONTINUOUS
 70
0
 71
3
 72
9
 73
5
 74
0
 42
0.0000001
 43
0.0000001
 44
0.0000000001
 40
0.0
 40
0.0
 40
0.0
 40
0.0
 40
0.2328299873
 40
1.0
 40
1.0
 40
1.0
 40
1.0
 10
-23.8322627864
 20
-5.7937592955
 30
0.0
 10
-23.8335583296
 20
-5.7973676655
 30
0.0
 10
-23.8383135496
 20
-5.8131560563
 30
0.0
 10
-23.8400106022
 20
-5.8297639964
 30
0.0
 10
-23.8400854802
 20
-5.8423963859
 30
0.0
  0
SPLINE
  5
30A
100
AcDbEntity
  8
RACCORDO
100
AcDbSpline
 62
250
  6
CONTINUOUS
 70
0
 71
3
 72
9
 73
5
 74
0
 42
0.0000001
 43
0.0000001
 44
0.0000000001
 40
0.0
 40
0.0
 40
0.0
 40
0.0
 40
0.2672202954
 40
1.0
 40
1.0
 40
1.0
 40
1.0
 10
-24.6474514108
 20
-5.5855306904
 30
0.0
 10
-24.6536111519
 20
-5.5746047517
 30
0.0
 10
-24.674318665
 20
-5.5325578269
 30
0.0
 10
-24.6863519698
 20
-5.4853667196
 30
0.0
 10
-24.6861442339
 20
-5.4509724545
 30
0.0
  0
SPLINE
  5
30B
100
AcDbEntity
  8
RACCORDO
100
AcDbSpline
 62
7
  6
CONTINUOUS
 70
0
 71
3
 72
9
 73
5
 74
0
 42
0.0000001
 43
0.0000001
 44
0.0000000001
 40
0.0
 40
0.0
 40
0.0
 40
0.0
 40
0.5255231599
 40
1.0
 40
1.0
 40
1.0
 40
1.0
 10
-24.4293616565
 20
-5.4616059676
 30
0.0
 10
-24.4412981349
 20
-5.4400712163
 30
0.0
 10
-24.4597920948
 20
-5.3966134212
 30
0.0
 10
-24.467798253
 20
-5.3497391942
 30
0.0
 10
-24.4677982531
 20
-5.327509162
 30
0.0
  0
SPLINE
  5
30C
100
AcDbEntity
  8
RACCORDO
100
AcDbSpline
 62
250
  6
CONTINUOUS
 70
0
 71
3
 72
9
 73
5
 74
0
 42
0.0000001
 43
0.0000001
 44
0.0000000001
 40
0.0
 40
0.0
 40
0.0
 40
0.0
 40
0.4740694733
 40
1.0
 40
1.0
 40
1.0
 40
1.0
 10
-23.8400854719
 20
-4.9573344547
 30
0.0
 10
-23.8399520523
 20
-4.9797860298
 30
0.0
 10
-23.8316321311
 20
-5.0271119416
 30
0.0
 10
-23.812929036
 20
-5.0710206555
 30
0.0
 10
-23.8008759039
 20
-5.0928182753
 30
0.0
  0
SPLINE
  5
30D
100
AcDbEntity
  8
RACCORDO
100
AcDbSpline
 62
250
  6
CONTINUOUS
 70
0
 71
3
 72
9
 73
5
 74
0
 42
0.0000001
 43
0.0000001
 44
0.0000000001
 40
0.0
 40
0.0
 40
0.0
 40
0.0
 40
0.2548661163
 40
1.0
 40
1.0
 40
1.0
 40
1.0
 10
-24.7028853131
 20
32.9210740305
 30
0.0
 10
-24.6979691089
 20
32.9214901633
 30
0.0
 10
-24.6787754986
 20
32.9240786032
 30
0.0
 10
-24.6600944901
 20
32.9306364668
 30
0.0
 10
-24.6474514675
 20
32.9375806543
 30
0.0
  0
SPLINE
  5
30E
100
AcDbEntity
  8
RACCORDO
100
AcDbSpline
 62
250
  6
CONTINUOUS
 70
0
 71
3
 72
9
 73
5
 74
0
 42
0.0000001
 43
0.0000001
 44
0.0000000001
 40
0.0
 40
0.0
 40
0.0
 40
0.0
 40
0.2548661163
 40
1.0
 40
1.0
 40
1.0
 40
1.0
 10
-24.7028853131
 20
-6.2694992556
 30
0.0
 10
-24.6979691089
 20
-6.2690831228
 30
0.0
 10
-24.6787754986
 20
-6.2664946829
 30
0.0
 10
-24.6600944901
 20
-6.2599368192
 30
0.0
 10
-24.6474514675
 20
-6.2529926318
 30
0.0
  0
SPLINE
  5
30F
100
AcDbEntity
  8
RACCORDO
100
AcDbSpline
 62
7
  6
CONTINUOUS
 70
0
 71
3
 72
20
 73
16
 74
0
 42
0.0000001
 43
0.0000001
 44
0.0000000001
 40
0.0
 40
0.0
 40
0.0
 40
0.0
 40
0.2757727259
 40
0.50836285
 40
0.695274062
 40
0.7706296415
 40
0.8332877189
 40
0.8838514662
 40
0.9235712241
 40
0.9535785015
 40
0.9748577967
 40
0.9885181107
 40
0.9958208003
 40
0.9979569105
 40
1.0
 40
1.0
 40
1.0
 40
1.0
 10
22.6914093593
 20
-36.1373431853
 30
0.0
 10
22.6914093593
 20
-36.152049506
 30
0.0
 10
22.6903287254
 20
-36.1791804038
 30
0.0
 10
22.6853800316
 20
-36.2159861814
 30
0.0
 10
22.6790495174
 20
-36.2416685394
 30
0.0
 10
22.6734150268
 20
-36.2580645296
 30
0.0
 10
22.6695749488
 20
-36.2673642035
 30
0.0
 10
22.6659474481
 20
-36.2746837383
 30
0.0
 10
22.6627108762
 20
-36.2802086766
 30
0.0
 10
22.6598853322
 20
-36.2842169193
 30
0.0
 10
22.6578224465
 20
-36.2868660896
 30
0.0
 10
22.6560712397
 20
-36.2886194414
 30
0.0
 10
22.6554890371
 20
-36.2892923783
 30
0.0
 10
22.65460603
 20
-36.2898143471
 30
0.0
 10
22.6549333976
 20
-36.2895574032
 30
0.0
 10
22.6550277524
 20
-36.2895029239
 30
0.0
  0
SPLINE
  5
310
100
AcDbEntity
  8
RACCORDO
100
AcDbSpline
 62
7
  6
CONTINUOUS
 70
0
 71
3
 72
13
 73
9
 74
0
 42
0.0000001
 43
0.0000001
 44
0.0000000001
 40
0.0
 40
0.0
 40
0.0
 40
0.0
 40
0.1142582662
 40
0.2375415353
 40
0.5000060652
 40
0.7624672751
 40
0.8857466677
 40
1.0
 40
1.0
 40
1.0
 40
1.0
 10
31.1761703516
 20
19.2497708194
 30
0.0
 10
31.2487806206
 20
19.2078465601
 30
0.0
 10
31.3922171998
 20
19.1073088943
 30
0.0
 10
31.6607262986
 20
18.8559652312
 30
0.0
 10
31.9443823838
 20
18.4685399519
 30
0.0
 10
32.1380741418
 20
18.0291765505
 30
0.0
 10
32.2214845239
 20
17.6709768813
 30
0.0
 10
32.2368305234
 20
17.4964943609
 30
0.0
 10
32.2368305234
 20
17.4126535142
 30
0.0
  0
SPLINE
  5
311
100
AcDbEntity
  8
RACCORDO
100
AcDbSpline
 62
7
  6
CONTINUOUS
 70
0
 71
3
 72
13
 73
9
 74
0
 42
0.0000001
 43
0.0000001
 44
0.0000000001
 40
0.0
 40
0.0
 40
0.0
 40
0.0
 40
0.1052352258
 40
0.227747113
 40
0.5000045008
 40
0.77226164
 40
0.8947712382
 40
1.0
 40
1.0
 40
1.0
 40
1.0
 10
22.2050060082
 20
7.5289897793
 30
0.0
 10
22.2356035563
 20
7.5113231385
 30
0.0
 10
22.2982753706
 20
7.4668586221
 30
0.0
 10
22.4206522537
 20
7.3513742263
 30
0.0
 10
22.5535932506
 20
7.168595767
 30
0.0
 10
22.64541584
 20
6.9620779126
 30
0.0
 10
22.6842392931
 20
6.7983571368
 30
0.0
 10
22.6914093593
 20
6.7218522367
 30
0.0
 10
22.6914093593
 20
6.6865228325
 30
0.0
  0
SPLINE
  5
312
100
AcDbEntity
  8
RACCORDO
100
AcDbSpline
 62
7
  6
CONTINUOUS
 70
0
 71
3
 72
20
 73
16
 74
0
 42
0.0000001
 43
0.0000001
 44
0.0000000001
 40
0.0
 40
0.0
 40
0.0
 40
0.0
 40
0.0020537476
 40
0.0041858775
 40
0.0114890855
 40
0.0251534448
 40
0.0464399265
 40
0.0764579368
 40
0.1161871997
 40
0.1667538342
 40
0.2294050284
 40
0.3047612497
 40
0.4916765252
 40
0.7242211468
 40
1.0
 40
1.0
 40
1.0
 40
1.0
 10
-25.2150895621
 20
34.8667334032
 30
0.0
 10
-25.2151844385
 20
34.8666786227
 30
0.0
 10
-25.2155719814
 20
34.8665227972
 30
0.0
 10
-25.2146793701
 20
34.8670273145
 30
0.0
 10
-25.2138039904
 20
34.8671952085
 30
0.0
 10
-25.2114093645
 20
34.867835746
 30
0.0
 10
-25.2080810393
 20
34.868297511
 30
0.0
 10
-25.203194247
 20
34.8687408017
 30
0.0
 10
-25.1967879305
 20
34.8687816302
 30
0.0
 10
-25.1886324545
 20
34.8682635234
 30
0.0
 10
-25.178655747
 20
34.8669386321
 30
0.0
 10
-25.1616343547
 20
34.863617353
 30
0.0
 10
-25.1362220952
 20
34.8562560867
 30
0.0
 10
-25.1018633828
 20
34.842136834
 30
0.0
 10
-25.0778223931
 20
34.8295023052
 30
0.0
 10
-25.0650823141
 20
34.8221463432
 30
0.0
  0
SPLINE
  5
313
100
AcDbEntity
  8
RACCORDO
100
AcDbSpline
 62
7
  6
CONTINUOUS
 70
0
 71
3
 72
11
 73
7
 74
0
 42
0.0000001
 43
0.0000001
 44
0.0000000001
 40
0.0
 40
0.0
 40
0.0
 40
0.0
 40
0.2897992983
 40
0.5490484752
 40
0.7822275293
 40
1.0
 40
1.0
 40
1.0
 40
1.0
 10
32.2368305234
 20
-51.9873200132
 30
0.0
 10
32.2368305234
 20
-52.0633399872
 30
0.0
 10
32.2253505876
 20
-52.207863558
 30
0.0
 10
32.1667594035
 20
-52.4064150192
 30
0.0
 10
32.0682714493
 20
-52.5675522935
 30
0.0
 10
31.9756785218
 20
-52.64536078
 30
0.0
 10
31.9262068255
 20
-52.67392517
 30
0.0
  0
SPLINE
  5
314
100
AcDbEntity
  8
RACCORDO
100
AcDbSpline
 62
7
  6
CONTINUOUS
 70
0
 71
3
 72
11
 73
7
 74
0
 42
0.0000001
 43
0.0000001
 44
0.0000000001
 40
0.0
 40
0.0
 40
0.0
 40
0.0
 40
0.2479418697
 40
0.4956563892
 40
0.7449335159
 40
1.0
 40
1.0
 40
1.0
 40
1.0
 10
29.663464892
 20
-53.9804040036
 30
0.0
 10
29.5885431142
 20
-54.0236628991
 30
0.0
 10
29.4239782085
 20
-54.0868091902
 30
0.0
 10
29.1611345958
 20
-54.1035403643
 30
0.0
 10
28.9016235293
 20
-54.0495857234
 30
0.0
 10
28.7404912282
 20
-53.9753647666
 30
0.0
 10
28.6634165717
 20
-53.9308628259
 30
0.0
  0
SPLINE
  5
315
100
AcDbEntity
  8
RACCORDO
100
AcDbSpline
 62
7
  6
CONTINUOUS
 70
0
 71
3
 72
11
 73
7
 74
0
 42
0.0000001
 43
0.0000001
 44
0.0000000001
 40
0.0
 40
0.0
 40
0.0
 40
0.0
 40
0.2433580204
 40
0.5000106766
 40
0.7566583707
 40
1.0
 40
1.0
 40
1.0
 40
1.0
 10
-31.4406598291
 20
-19.227522393
 30
0.0
 10
-31.5803112622
 20
-19.1468894058
 30
0.0
 10
-31.8403476274
 20
-18.9331169889
 30
0.0
 10
-32.1401812352
 20
-18.5262039862
 30
0.0
 10
-32.3426488477
 20
-18.0630904975
 30
0.0
 10
-32.3977545303
 20
-17.7310191167
 30
0.0
 10
-32.3977545303
 20
-17.5697717957
 30
0.0
  0
SPLINE
  5
316
100
AcDbEntity
  8
RACCORDO
100
AcDbSpline
 62
7
  6
CONTINUOUS
 70
0
 71
3
 72
11
 73
7
 74
0
 42
0.0000001
 43
0.0000001
 44
0.0000000001
 40
0.0
 40
0.0
 40
0.0
 40
0.0
 40
0.2550641648
 40
0.5043391559
 40
0.7520499656
 40
1.0
 40
1.0
 40
1.0
 40
1.0
 10
-32.3977545303
 20
51.8302017317
 30
0.0
 10
-32.3977545303
 20
51.9191903316
 30
0.0
 10
-32.3814627593
 20
52.0958231839
 30
0.0
 10
-32.2984409305
 20
52.3475106993
 30
0.0
 10
-32.1525497317
 20
52.5667518978
 30
0.0
 10
-32.015599671
 20
52.6776889444
 30
0.0
 10
-31.9406839893
 20
52.7209443201
 30
0.0
  0
SPLINE
  5
317
100
AcDbEntity
  8
RACCORDO
100
AcDbSpline
 62
7
  6
CONTINUOUS
 70
0
 71
3
 72
11
 73
7
 74
0
 42
0.0000001
 43
0.0000001
 44
0.0000000001
 40
0.0
 40
0.0
 40
0.0
 40
0.0
 40
0.2177671249
 40
0.4509439291
 40
0.7101951296
 40
1.0
 40
1.0
 40
1.0
 40
1.0
 10
-29.6779425232
 20
54.0274228838
 30
0.0
 10
-29.628464611
 20
54.0559908628
 30
0.0
 10
-29.5147696413
 20
54.0972839872
 30
0.0
 10
-29.3259493656
 20
54.102008788
 30
0.0
 10
-29.1246723059
 20
54.0534630706
 30
0.0
 10
-28.9937513716
 20
53.9911295161
 30
0.0
 10
-28.9279060493
 20
53.9531112522
 30
0.0
  0
SPLINE
  5
318
100
AcDbEntity
  8
RACCORDO
100
AcDbSpline
 62
7
  6
CONTINUOUS
 70
0
 71
3
 72
11
 73
7
 74
0
 42
0.0000001
 43
0.0000001
 44
0.0000000001
 40
0.0
 40
0.0
 40
0.0
 40
0.0
 40
0.2372200919
 40
0.4999938933
 40
0.7627710182
 40
1.0
 40
1.0
 40
1.0
 40
1.0
 10
-24.7029430317
 20
-7.8643275973
 30
0.0
 10
-24.7029430317
 20
-7.9338732903
 30
0.0
 10
-24.6768581614
 20
-8.0805511874
 30
0.0
 10
-24.5859297249
 20
-8.28666248
 30
0.0
 10
-24.4528944956
 20
-8.4684663669
 30
0.0
 10
-24.3389085868
 20
-8.5643986895
 30
0.0
 10
-24.278678963
 20
-8.5991745194
 30
0.0
  0
SPLINE
  5
319
100
AcDbEntity
  8
RACCORDO
100
AcDbSpline
 62
250
  6
CONTINUOUS
 70
0
 71
3
 72
15
 73
11
 74
0
 42
0.0000001
 43
0.0000001
 44
0.0000000001
 40
0.0
 40
0.0
 40
0.0
 40
0.0
 40
0.1448897593
 40
0.2745399076
 40
0.3911224642
 40
0.5000110968
 40
0.6088977165
 40
0.7254749075
 40
0.8551178339
 40
1.0
 40
1.0
 40
1.0
 40
1.0
 10
-31.5442011397
 20
52.0342601185
 30
0.0
 10
-31.5880905427
 20
52.0596013098
 30
0.0
 10
-31.675375924
 20
52.1011448438
 30
0.0
 10
-31.8095224678
 20
52.1335398739
 30
0.0
 10
-31.9354830373
 20
52.130328109
 30
0.0
 10
-32.0475943223
 20
52.0896946622
 30
0.0
 10
-32.1388470317
 20
52.0129317192
 30
0.0
 10
-32.2046158251
 20
51.9054624857
 30
0.0
 10
-32.2436399953
 20
51.7730994993
 30
0.0
 10
-32.2513079209
 20
51.6767417127
 30
0.0
 10
-32.2513079209
 20
51.6260644351
 30
0.0
  0
SPLINE
  5
31A
100
AcDbEntity
  8
RACCORDO
100
AcDbSpline
 62
250
  6
CONTINUOUS
 70
0
 71
3
 72
11
 73
7
 74
0
 42
0.0000001
 43
0.0000001
 44
0.0000000001
 40
0.0
 40
0.0
 40
0.0
 40
0.0
 40
0.2372185779
 40
0.499993893
 40
0.7627725258
 40
1.0
 40
1.0
 40
1.0
 40
1.0
 10
29.2669820424
 20
16.1061748155
 30
0.0
 10
29.2669820424
 20
16.2220835603
 30
0.0
 10
29.2235073861
 20
16.4665466861
 30
0.0
 10
29.0719599807
 20
16.81006635
 30
0.0
 10
28.8502338748
 20
17.1130732641
 30
0.0
 10
28.6602573263
 20
17.2729603394
 30
0.0
 10
28.5598752612
 20
17.3309196857
 30
0.0
  0
SPLINE
  5
31B
100
AcDbEntity
  8
RACCORDO
100
AcDbSpline
 62
250
  6
CONTINUOUS
 70
0
 71
3
 72
15
 73
11
 74
0
 42
0.0000001
 43
0.0000001
 44
0.0000000001
 40
0.0
 40
0.0
 40
0.0
 40
0.0
 40
0.1448897593
 40
0.2745399076
 40
0.3911224642
 40
0.5000110968
 40
0.6088977165
 40
0.7254749075
 40
0.8551178339
 40
1.0
 40
1.0
 40
1.0
 40
1.0
 10
28.5598752612
 20
-53.7019943953
 30
0.0
 10
28.6037646642
 20
-53.7273355866
 30
0.0
 10
28.6910500455
 20
-53.7688791206
 30
0.0
 10
28.8251965893
 20
-53.8012741507
 30
0.0
 10
28.9511571588
 20
-53.7980623857
 30
0.0
 10
29.0632684438
 20
-53.757428939
 30
0.0
 10
29.1545211533
 20
-53.680665996
 30
0.0
 10
29.2202899466
 20
-53.5731967625
 30
0.0
 10
29.2593141168
 20
-53.4408337761
 30
0.0
 10
29.2669820424
 20
-53.3444759895
 30
0.0
 10
29.2669820424
 20
-53.2937987118
 30
0.0
  0
SPLINE
  5
31C
100
AcDbEntity
  8
RACCORDO
100
AcDbSpline
 62
250
  6
CONTINUOUS
 70
0
 71
3
 72
11
 73
7
 74
0
 42
0.0000001
 43
0.0000001
 44
0.0000000001
 40
0.0
 40
0.0
 40
0.0
 40
0.0
 40
0.2372185779
 40
0.499993893
 40
0.7627725258
 40
1.0
 40
1.0
 40
1.0
 40
1.0
 10
-32.2513079209
 20
-17.7739090923
 30
0.0
 10
-32.2513079209
 20
-17.8898178371
 30
0.0
 10
-32.2078332646
 20
-18.1342809629
 30
0.0
 10
-32.0562858592
 20
-18.4778006268
 30
0.0
 10
-31.8345597533
 20
-18.7808075409
 30
0.0
 10
-31.6445832047
 20
-18.9406946162
 30
0.0
 10
-31.5442011397
 20
-18.9986539625
 30
0.0
  0
SPLINE
  5
31D
100
AcDbEntity
  8
RACCORDO
100
AcDbSpline
 62
250
  6
CONTINUOUS
 70
0
 71
3
 72
15
 73
11
 74
0
 42
0.0000001
 43
0.0000001
 44
0.0000000001
 40
0.0
 40
0.0
 40
0.0
 40
0.0
 40
0.1448814637
 40
0.2745245367
 40
0.3911020652
 40
0.4999889107
 40
0.6088777754
 40
0.7254606475
 40
0.8551109087
 40
1.0
 40
1.0
 40
1.0
 40
1.0
 10
-25.7636032035
 20
34.5920912865
 30
0.0
 10
-25.7636032035
 20
34.6377006158
 30
0.0
 10
-25.7567023171
 20
34.7244224901
 30
0.0
 10
-25.7215803519
 20
34.8435490063
 30
0.0
 10
-25.6623887319
 20
34.9402718018
 30
0.0
 10
-25.5802608635
 20
35.0093583349
 30
0.0
 10
-25.4793605968
 20
35.0459288527
 30
0.0
 10
-25.3659958269
 20
35.0488189577
 30
0.0
 10
-25.2452639904
 20
35.0196636844
 30
0.0
 10
-25.1667073815
 20
34.9822743688
 30
0.0
 10
-25.1272071004
 20
34.9594674016
 30
0.0
  0
SPLINE
  5
31E
100
AcDbEntity
  8
RACCORDO
100
AcDbSpline
 62
250
  6
CONTINUOUS
 70
0
 71
3
 72
11
 73
7
 74
0
 42
0.0000001
 43
0.0000001
 44
0.0000000001
 40
0.0
 40
0.0
 40
0.0
 40
0.0
 40
0.2177724717
 40
0.4509515175
 40
0.7102006915
 40
1.0
 40
1.0
 40
1.0
 40
1.0
 10
29.663464892
 20
-53.9804040036
 30
0.0
 10
29.7129366208
 20
-53.9518396306
 30
0.0
 10
29.805529617
 20
-53.874031161
 30
0.0
 10
29.9040176498
 20
-53.7128938592
 30
0.0
 10
29.9626088796
 20
-53.5143423365
 30
0.0
 10
29.9740888236
 20
-53.3698187143
 30
0.0
 10
29.9740888236
 20
-53.2937987118
 30
0.0
  0
SPLINE
  5
31F
100
AcDbEntity
  8
RACCORDO
100
AcDbSpline
 62
250
  6
CONTINUOUS
 70
0
 71
3
 72
11
 73
7
 74
0
 42
0.0000001
 43
0.0000001
 44
0.0000000001
 40
0.0
 40
0.0
 40
0.0
 40
0.0
 40
0.2372269357
 40
0.5000061159
 40
0.7627819622
 40
1.0
 40
1.0
 40
1.0
 40
1.0
 10
-25.1272071004
 20
-9.3340451144
 30
0.0
 10
-25.2175507518
 20
-9.2818818224
 30
0.0
 10
-25.3885296441
 20
-9.137983477
 30
0.0
 10
-25.5880833586
 20
-8.8652771128
 30
0.0
 10
-25.7244760388
 20
-8.5561091558
 30
0.0
 10
-25.7636032035
 20
-8.3360923617
 30
0.0
 10
-25.7636032035
 20
-8.2317747313
 30
0.0
  0
SPLINE
  5
320
100
AcDbEntity
  8
RACCORDO
100
AcDbSpline
 62
250
  6
CONTINUOUS
 70
0
 71
3
 72
15
 73
11
 74
0
 42
0.0000001
 43
0.0000001
 44
0.0000000001
 40
0.0
 40
0.0
 40
0.0
 40
0.0
 40
0.1448814637
 40
0.2745245367
 40
0.3911020652
 40
0.4999889107
 40
0.6088777754
 40
0.7254606475
 40
0.8551109087
 40
1.0
 40
1.0
 40
1.0
 40
1.0
 10
22.779277325
 20
-36.2598255633
 30
0.0
 10
22.779277325
 20
-36.3054348925
 30
0.0
 10
22.7723764387
 20
-36.3921567669
 30
0.0
 10
22.7372544734
 20
-36.5112832831
 30
0.0
 10
22.6780628535
 20
-36.6080060786
 30
0.0
 10
22.595934985
 20
-36.6770926117
 30
0.0
 10
22.4950347184
 20
-36.7136631295
 30
0.0
 10
22.3816699484
 20
-36.7165532345
 30
0.0
 10
22.2609381119
 20
-36.6873979612
 30
0.0
 10
22.182381503
 20
-36.6500086456
 30
0.0
 10
22.1428812219
 20
-36.6272016784
 30
0.0
  0
SPLINE
  5
321
100
AcDbEntity
  8
RACCORDO
100
AcDbSpline
 62
250
  6
CONTINUOUS
 70
0
 71
3
 72
11
 73
7
 74
0
 42
0.0000001
 43
0.0000001
 44
0.0000000001
 40
0.0
 40
0.0
 40
0.0
 40
0.0
 40
0.2372383085
 40
0.5
 40
0.7627616915
 40
1.0
 40
1.0
 40
1.0
 40
1.0
 10
-25.7636032035
 20
-8.2317747313
 30
0.0
 10
-25.7334870059
 20
-8.2491634463
 30
0.0
 10
-25.6634512452
 20
-8.2745389758
 30
0.0
 10
-25.5514711691
 20
-8.2866968138
 30
0.0
 10
-25.439491093
 20
-8.2745389758
 30
0.0
 10
-25.3694553323
 20
-8.2491634463
 30
0.0
 10
-25.3393391348
 20
-8.2317747313
 30
0.0
  0
SPLINE
  5
322
100
AcDbEntity
  8
RACCORDO
100
AcDbSpline
 62
250
  6
CONTINUOUS
 70
0
 71
3
 72
11
 73
7
 74
0
 42
0.0000001
 43
0.0000001
 44
0.0000000001
 40
0.0
 40
0.0
 40
0.0
 40
0.0
 40
0.2372324595
 40
0.4999938932
 40
0.7627586504
 40
1.0
 40
1.0
 40
1.0
 40
1.0
 10
-25.1272071004
 20
-9.3340451144
 30
0.0
 10
-25.1272071004
 20
-9.2992704517
 30
0.0
 10
-25.1141632289
 20
-9.2259317642
 30
0.0
 10
-25.0687015576
 20
-9.122877032
 30
0.0
 10
-25.0021834611
 20
-9.0319777512
 30
0.0
 10
-24.9451914508
 20
-8.9840104765
 30
0.0
 10
-24.915075066
 20
-8.9666216534
 30
0.0
  0
SPLINE
  5
323
100
AcDbEntity
  8
RACCORDO
100
AcDbSpline
 62
250
  6
CONTINUOUS
 70
0
 71
3
 72
11
 73
7
 74
0
 42
0.0000001
 43
0.0000001
 44
0.0000000001
 40
0.0
 40
0.0
 40
0.0
 40
0.0
 40
0.2372324595
 40
0.4999938932
 40
0.7627586504
 40
1.0
 40
1.0
 40
1.0
 40
1.0
 10
22.1428812219
 20
-36.6272016784
 30
0.0
 10
22.1428812219
 20
-36.5924270157
 30
0.0
 10
22.1559250934
 20
-36.5190883281
 30
0.0
 10
22.2013867647
 20
-36.4160335959
 30
0.0
 10
22.2679048613
 20
-36.3251343151
 30
0.0
 10
22.3248968715
 20
-36.2771670405
 30
0.0
 10
22.3550132563
 20
-36.2597782173
 30
0.0
  0
SPLINE
  5
324
100
AcDbEntity
  8
RACCORDO
100
AcDbSpline
 62
250
  6
CONTINUOUS
 70
0
 71
3
 72
11
 73
7
 74
0
 42
0.0000001
 43
0.0000001
 44
0.0000000001
 40
0.0
 40
0.0
 40
0.0
 40
0.0
 40
0.2896952569
 40
0.5490778583
 40
0.7822096781
 40
1.0
 40
1.0
 40
1.0
 40
1.0
 10
22.779277325
 20
-36.2598255633
 30
0.0
 10
22.7661135941
 20
-36.25222499
 30
0.0
 10
22.7422309888
 20
-36.2357746476
 30
0.0
 10
22.7136880622
 20
-36.2057754952
 30
0.0
 10
22.6956322112
 20
-36.1725891226
 30
0.0
 10
22.6914093593
 20
-36.14877072
 30
0.0
 10
22.6914093593
 20
-36.1373431853
 30
0.0
  0
SPLINE
  5
325
100
AcDbEntity
  8
RACCORDO
100
AcDbSpline
 62
250
  6
CONTINUOUS
 70
0
 71
3
 72
11
 73
7
 74
0
 42
0.0000001
 43
0.0000001
 44
0.0000000001
 40
0.0
 40
0.0
 40
0.0
 40
0.0
 40
0.2896952569
 40
0.5490778583
 40
0.7822096781
 40
1.0
 40
1.0
 40
1.0
 40
1.0
 10
22.779277325
 20
6.5640404545
 30
0.0
 10
22.7661135941
 20
6.5716410278
 30
0.0
 10
22.7422309888
 20
6.5880913702
 30
0.0
 10
22.7136880622
 20
6.6180905226
 30
0.0
 10
22.6956322112
 20
6.6512768952
 30
0.0
 10
22.6914093593
 20
6.6750952977
 30
0.0
 10
22.6914093593
 20
6.6865228325
 30
0.0
  0
SPLINE
  5
326
100
AcDbEntity
  8
RACCORDO
100
AcDbSpline
 62
250
  6
CONTINUOUS
 70
0
 71
3
 72
11
 73
7
 74
0
 42
0.0000001
 43
0.0000001
 44
0.0000000001
 40
0.0
 40
0.0
 40
0.0
 40
0.0
 40
0.2897008281
 40
0.5490847291
 40
0.7822142041
 40
1.0
 40
1.0
 40
1.0
 40
1.0
 10
22.1428812219
 20
7.6663108376
 30
0.0
 10
22.1428812219
 20
7.6511121948
 30
0.0
 10
22.1451850799
 20
7.6222075824
 30
0.0
 10
22.1568904748
 20
7.5824937967
 30
0.0
 10
22.1765985725
 20
7.5502675444
 30
0.0
 10
22.1951111832
 20
7.5347029346
 30
0.0
 10
22.2050060082
 20
7.5289897793
 30
0.0
  0
SPLINE
  5
327
100
AcDbEntity
  8
RACCORDO
100
AcDbSpline
 62
250
  6
CONTINUOUS
 70
0
 71
3
 72
11
 73
7
 74
0
 42
0.0000001
 43
0.0000001
 44
0.0000000001
 40
0.0
 40
0.0
 40
0.0
 40
0.0
 40
0.2897008281
 40
0.5490847291
 40
0.7822142041
 40
1.0
 40
1.0
 40
1.0
 40
1.0
 10
-25.1272071004
 20
34.9594674016
 30
0.0
 10
-25.1272071004
 20
34.9442687588
 30
0.0
 10
-25.1249032424
 20
34.9153641464
 30
0.0
 10
-25.1131978475
 20
34.8756503606
 30
0.0
 10
-25.0934897498
 20
34.8434241084
 30
0.0
 10
-25.0749771391
 20
34.8278594986
 30
0.0
 10
-25.0650823141
 20
34.8221463433
 30
0.0
  0
SPLINE
  5
328
100
AcDbEntity
  8
RACCORDO
100
AcDbSpline
 62
250
  6
CONTINUOUS
 70
0
 71
3
 72
9
 73
5
 74
0
 42
0.0000001
 43
0.0000001
 44
0.0000000001
 40
0.0
 40
0.0
 40
0.0
 40
0.0
 40
0.2404978468
 40
1.0
 40
1.0
 40
1.0
 40
1.0
 10
22.1428812219
 20
7.6663108376
 30
0.0
 10
22.1548696593
 20
7.6593888641
 30
0.0
 10
22.2040045167
 20
7.6293777945
 30
0.0
 10
22.2503078797
 20
7.5948184678
 30
0.0
 10
22.2837923145
 20
7.5667110823
 30
0.0
  0
SPLINE
  5
329
100
AcDbEntity
  8
RACCORDO
100
AcDbSpline
 62
250
  6
CONTINUOUS
 70
0
 71
3
 72
11
 73
7
 74
0
 42
0.0000001
 43
0.0000001
 44
0.0000000001
 40
0.0
 40
0.0
 40
0.0
 40
0.0
 40
0.2496447031
 40
0.5122344882
 40
0.7683055535
 40
1.0
 40
1.0
 40
1.0
 40
1.0
 10
22.2837923145
 20
7.5667110823
 30
0.0
 10
22.3569587085
 20
7.5052940074
 30
0.0
 10
22.4917536197
 20
7.3605244148
 30
0.0
 10
22.6475612851
 20
7.109252586
 30
0.0
 10
22.7507934763
 20
6.8395295978
 30
0.0
 10
22.779277325
 20
6.6526986133
 30
0.0
 10
22.779277325
 20
6.5640404545
 30
0.0
  0
SPLINE
  5
32A
100
AcDbEntity
  8
RACCORDO
100
AcDbSpline
 62
250
  6
CONTINUOUS
 70
0
 71
3
 72
11
 73
7
 74
0
 42
0.0000001
 43
0.0000001
 44
0.0000000001
 40
0.0
 40
0.0
 40
0.0
 40
0.0
 40
0.2372383085
 40
0.5
 40
0.7627616915
 40
1.0
 40
1.0
 40
1.0
 40
1.0
 10
-25.7636032035
 20
34.5920912865
 30
0.0
 10
-25.7334870059
 20
34.5747025715
 30
0.0
 10
-25.6634512452
 20
34.5493270419
 30
0.0
 10
-25.5514711691
 20
34.537169204
 30
0.0
 10
-25.439491093
 20
34.5493270419
 30
0.0
 10
-25.3694553323
 20
34.5747025715
 30
0.0
 10
-25.3393391348
 20
34.5920912865
 30
0.0
  0
SPLINE
  5
32B
100
AcDbEntity
  8
RACCORDO
100
AcDbSpline
 62
250
  6
CONTINUOUS
 70
0
 71
3
 72
11
 73
7
 74
0
 42
0.0000001
 43
0.0000001
 44
0.0000000001
 40
0.0
 40
0.0
 40
0.0
 40
0.0
 40
0.28980486
 40
0.5490560634
 40
0.782232876
 40
1.0
 40
1.0
 40
1.0
 40
1.0
 10
-31.1906477491
 20
52.6466325536
 30
0.0
 10
-31.2564930468
 20
52.6846508032
 30
0.0
 10
-31.3874139324
 20
52.7469843391
 30
0.0
 10
-31.588690916
 20
52.7955300653
 30
0.0
 10
-31.7775111286
 20
52.7908053189
 30
0.0
 10
-31.8912060786
 20
52.7495122625
 30
0.0
 10
-31.9406839893
 20
52.7209443201
 30
0.0
  0
SPLINE
  5
32C
100
AcDbEntity
  8
RACCORDO
100
AcDbSpline
 62
250
  6
CONTINUOUS
 70
0
 71
3
 72
13
 73
9
 74
0
 42
0.0000001
 43
0.0000001
 44
0.0000000001
 40
0.0
 40
0.0
 40
0.0
 40
0.0
 40
0.1142533322
 40
0.2375327248
 40
0.4999939348
 40
0.7624584648
 40
0.8857417339
 40
1.0
 40
1.0
 40
1.0
 40
1.0
 10
29.9740888236
 20
16.1061748155
 30
0.0
 10
29.9740888236
 20
16.1900156622
 30
0.0
 10
29.9587428241
 20
16.3644981826
 30
0.0
 10
29.8753324421
 20
16.7226978519
 30
0.0
 10
29.681640684
 20
17.1620612532
 30
0.0
 10
29.3979845987
 20
17.5494865326
 30
0.0
 10
29.1294754999
 20
17.8008301957
 30
0.0
 10
28.9860389208
 20
17.9013678614
 30
0.0
 10
28.9134286518
 20
17.9432921207
 30
0.0
  0
SPLINE
  5
32D
100
AcDbEntity
  8
RACCORDO
100
AcDbSpline
 62
250
  6
CONTINUOUS
 70
0
 71
3
 72
11
 73
7
 74
0
 42
0.0000001
 43
0.0000001
 44
0.0000000001
 40
0.0
 40
0.0
 40
0.0
 40
0.0
 40
0.2372289825
 40
0.5000061071
 40
0.7627799084
 40
1.0
 40
1.0
 40
1.0
 40
1.0
 10
-24.915075066
 20
-8.9666216534
 30
0.0
 10
-24.97530469
 20
-8.9318458233
 30
0.0
 10
-25.0892905989
 20
-8.8359135006
 30
0.0
 10
-25.2223258282
 20
-8.6541096136
 30
0.0
 10
-25.3132542645
 20
-8.4479983212
 30
0.0
 10
-25.3393391347
 20
-8.3013204242
 30
0.0
 10
-25.3393391348
 20
-8.2317747313
 30
0.0
  0
SPLINE
  5
32E
100
AcDbEntity
  8
RACCORDO
100
AcDbSpline
 62
250
  6
CONTINUOUS
 70
0
 71
3
 72
11
 73
7
 74
0
 42
0.0000001
 43
0.0000001
 44
0.0000000001
 40
0.0
 40
0.0
 40
0.0
 40
0.0
 40
0.2897723604
 40
0.5490642332
 40
0.7822230546
 40
1.0
 40
1.0
 40
1.0
 40
1.0
 10
-25.3393391348
 20
34.5920912865
 30
0.0
 10
-25.3393391347
 20
34.6224962216
 30
0.0
 10
-25.3347425418
 20
34.6803056602
 30
0.0
 10
-25.31131517
 20
34.7597290286
 30
0.0
 10
-25.2719087276
 20
34.8241792322
 30
0.0
 10
-25.2348771081
 20
34.8553050893
 30
0.0
 10
-25.2150881605
 20
34.8667309757
 30
0.0
  0
SPLINE
  5
32F
100
AcDbEntity
  8
RACCORDO
100
AcDbSpline
 62
250
  6
CONTINUOUS
 70
0
 71
3
 72
11
 73
7
 74
0
 42
0.0000001
 43
0.0000001
 44
0.0000000001
 40
0.0
 40
0.0
 40
0.0
 40
0.0
 40
0.2177715952
 40
0.4509281936
 40
0.7102220749
 40
1.0
 40
1.0
 40
1.0
 40
1.0
 10
22.6550263508
 20
-36.2895004965
 30
0.0
 10
22.6352349305
 20
-36.3009278106
 30
0.0
 10
22.5897576159
 20
-36.3174389953
 30
0.0
 10
22.5142279954
 20
-36.3193409631
 30
0.0
 10
22.4337193738
 20
-36.2999133997
 30
0.0
 10
22.3813487212
 20
-36.2749839847
 30
0.0
 10
22.3550132563
 20
-36.2597782173
 30
0.0
  0
SPLINE
  5
330
100
AcDbEntity
  8
RACCORDO
100
AcDbSpline
 62
250
  6
CONTINUOUS
 70
0
 71
3
 72
11
 73
7
 74
0
 42
0.0000001
 43
0.0000001
 44
0.0000000001
 40
0.0
 40
0.0
 40
0.0
 40
0.0
 40
0.2372324595
 40
0.4999938932
 40
0.7627586504
 40
1.0
 40
1.0
 40
1.0
 40
1.0
 10
28.5598752612
 20
17.3309196857
 30
0.0
 10
28.5598752612
 20
17.3888774569
 30
0.0
 10
28.5816150471
 20
17.5111086027
 30
0.0
 10
28.6573844992
 20
17.6828664897
 30
0.0
 10
28.7682479934
 20
17.8343652911
 30
0.0
 10
28.8632346771
 20
17.9143107489
 30
0.0
 10
28.9134286518
 20
17.9432921207
 30
0.0
  0
SPLINE
  5
331
100
AcDbEntity
  8
RACCORDO
100
AcDbSpline
 62
250
  6
CONTINUOUS
 70
0
 71
3
 72
11
 73
7
 74
0
 42
0.0000001
 43
0.0000001
 44
0.0000000001
 40
0.0
 40
0.0
 40
0.0
 40
0.0
 40
0.2372383085
 40
0.5
 40
0.7627616915
 40
1.0
 40
1.0
 40
1.0
 40
1.0
 10
29.2669820424
 20
16.1061748155
 30
0.0
 10
29.3171757049
 20
16.0771936239
 30
0.0
 10
29.4339019728
 20
16.0349010747
 30
0.0
 10
29.620535433
 20
16.0146380114
 30
0.0
 10
29.8071688931
 20
16.0349010747
 30
0.0
 10
29.923895161
 20
16.0771936239
 30
0.0
 10
29.9740888236
 20
16.1061748155
 30
0.0
  0
SPLINE
  5
332
100
AcDbEntity
  8
RACCORDO
100
AcDbSpline
 62
250
  6
CONTINUOUS
 70
0
 71
3
 72
11
 73
7
 74
0
 42
0.0000001
 43
0.0000001
 44
0.0000000001
 40
0.0
 40
0.0
 40
0.0
 40
0.0
 40
0.2372383085
 40
0.5
 40
0.7627616915
 40
1.0
 40
1.0
 40
1.0
 40
1.0
 10
29.2669820424
 20
-53.2937987118
 30
0.0
 10
29.3171757049
 20
-53.3227799035
 30
0.0
 10
29.4339019728
 20
-53.3650724527
 30
0.0
 10
29.620535433
 20
-53.385335516
 30
0.0
 10
29.8071688931
 20
-53.3650724527
 30
0.0
 10
29.923895161
 20
-53.3227799035
 30
0.0
 10
29.9740888236
 20
-53.2937987118
 30
0.0
  0
SPLINE
  5
333
100
AcDbEntity
  8
RACCORDO
100
AcDbSpline
 62
250
  6
CONTINUOUS
 70
0
 71
3
 72
11
 73
7
 74
0
 42
0.0000001
 43
0.0000001
 44
0.0000000001
 40
0.0
 40
0.0
 40
0.0
 40
0.0
 40
0.2897008281
 40
0.5490847291
 40
0.7822142041
 40
1.0
 40
1.0
 40
1.0
 40
1.0
 10
28.5598752612
 20
-53.7019943953
 30
0.0
 10
28.5598752612
 20
-53.7273254667
 30
0.0
 10
28.5637150244
 20
-53.7754998207
 30
0.0
 10
28.583224016
 20
-53.8416894636
 30
0.0
 10
28.6160708456
 20
-53.895399884
 30
0.0
 10
28.6469251966
 20
-53.9213409004
 30
0.0
 10
28.6634165717
 20
-53.9308628259
 30
0.0
  0
SPLINE
  5
334
100
AcDbEntity
  8
RACCORDO
100
AcDbSpline
 62
250
  6
CONTINUOUS
 70
0
 71
3
 72
11
 73
7
 74
0
 42
0.0000001
 43
0.0000001
 44
0.0000000001
 40
0.0
 40
0.0
 40
0.0
 40
0.0
 40
0.2897008281
 40
0.5490847291
 40
0.7822142041
 40
1.0
 40
1.0
 40
1.0
 40
1.0
 10
-31.5442011397
 20
-18.9986539625
 30
0.0
 10
-31.5442011397
 20
-19.0239850338
 30
0.0
 10
-31.5403613764
 20
-19.0721593878
 30
0.0
 10
-31.5208523848
 20
-19.1383490307
 30
0.0
 10
-31.4880055553
 20
-19.1920594511
 30
0.0
 10
-31.4571512042
 20
-19.2180004675
 30
0.0
 10
-31.4406598291
 20
-19.227522393
 30
0.0
  0
SPLINE
  5
335
100
AcDbEntity
  8
RACCORDO
100
AcDbSpline
 62
250
  6
CONTINUOUS
 70
0
 71
3
 72
11
 73
7
 74
0
 42
0.0000001
 43
0.0000001
 44
0.0000000001
 40
0.0
 40
0.0
 40
0.0
 40
0.0
 40
0.2896952569
 40
0.5490778583
 40
0.7822096781
 40
1.0
 40
1.0
 40
1.0
 40
1.0
 10
-32.2513079209
 20
-17.7739090923
 30
0.0
 10
-32.2732474724
 20
-17.7612414703
 30
0.0
 10
-32.3130518145
 20
-17.7338242329
 30
0.0
 10
-32.3606233589
 20
-17.6838256455
 30
0.0
 10
-32.3907164438
 20
-17.6285150245
 30
0.0
 10
-32.3977545303
 20
-17.588817687
 30
0.0
 10
-32.3977545303
 20
-17.5697717957
 30
0.0
  0
SPLINE
  5
336
100
AcDbEntity
  8
RACCORDO
100
AcDbSpline
 62
250
  6
CONTINUOUS
 70
0
 71
3
 72
11
 73
7
 74
0
 42
0.0000001
 43
0.0000001
 44
0.0000000001
 40
0.0
 40
0.0
 40
0.0
 40
0.0
 40
0.2896952569
 40
0.5490778583
 40
0.7822096781
 40
1.0
 40
1.0
 40
1.0
 40
1.0
 10
-32.2513079209
 20
51.6260644351
 30
0.0
 10
-32.2732474724
 20
51.6387320571
 30
0.0
 10
-32.3130518145
 20
51.6661492945
 30
0.0
 10
-32.3606233589
 20
51.7161478819
 30
0.0
 10
-32.3907164438
 20
51.7714585029
 30
0.0
 10
-32.3977545303
 20
51.8111558404
 30
0.0
 10
-32.3977545303
 20
51.8302017317
 30
0.0
  0
SPLINE
  5
337
100
AcDbEntity
  8
RACCORDO
100
AcDbSpline
 62
250
  6
CONTINUOUS
 70
0
 71
3
 72
11
 73
7
 74
0
 42
0.0000001
 43
0.0000001
 44
0.0000000001
 40
0.0
 40
0.0
 40
0.0
 40
0.0
 40
0.2372324595
 40
0.4999938932
 40
0.7627586504
 40
1.0
 40
1.0
 40
1.0
 40
1.0
 10
-31.5442011397
 20
52.0342601185
 30
0.0
 10
-31.5442011397
 20
52.0922178897
 30
0.0
 10
-31.5224613538
 20
52.2144490356
 30
0.0
 10
-31.4466919017
 20
52.3862069226
 30
0.0
 10
-31.3358284074
 20
52.5377057239
 30
0.0
 10
-31.2408417237
 20
52.6176511817
 30
0.0
 10
-31.1906477491
 20
52.6466325536
 30
0.0
  0
ELLIPSE
  5
338
100
AcDbEntity
  8
RACCORDO
100
AcDbEllipse
 62
7
  6
CONTINUOUS
 10
5.3420377723
 20
-24.1992771171
 30
0.0
 11
0.2064437841
 21
0.0041480952
 31
0.0
 40
0.5572920691
 41
0.744792064
 42
2.1496790728
  0
ELLIPSE
  5
339
100
AcDbEntity
  8
RACCORDO
100
AcDbEllipse
 62
7
  6
CONTINUOUS
 10
-13.3959451711
 20
-8.9590099085
 30
0.0
 11
0.2706502667
 21
0.4208455709
 31
0.0
 40
0.6067084637
 41
0.0290693803
 42
0.2036506535
  0
ELLIPSE
  5
33A
100
AcDbEntity
  8
RACCORDO
100
AcDbEllipse
 62
7
  6
CONTINUOUS
 10
-14.2497995353
 20
-8.447928703
 30
0.0
 11
0.1082601067
 21
0.1683382284
 31
0.0
 40
0.6067084637
 41
0.2036506535
 42
0.8057892455
  0
ELLIPSE
  5
33B
100
AcDbEntity
  8
RACCORDO
100
AcDbEllipse
 62
7
  6
CONTINUOUS
 10
21.9593938882
 20
-29.3727395749
 30
0.0
 11
0.2706502667
 21
0.4208455709
 31
0.0
 40
0.6067084637
 41
0.0290693803
 42
0.2036506535
  0
ELLIPSE
  5
33C
100
AcDbEntity
  8
RACCORDO
100
AcDbEllipse
 62
7
  6
CONTINUOUS
 10
21.105539524
 20
-28.8616583694
 30
0.0
 11
0.1082601067
 21
0.1683382284
 31
0.0
 40
0.6067084637
 41
0.2036506535
 42
0.8057892455
  0
ELLIPSE
  5
33D
100
AcDbEntity
  8
RACCORDO
100
AcDbEllipse
 62
7
  6
CONTINUOUS
 10
19.4465602314
 20
-33.3071349298
 30
0.0
 11
0.0925036689
 21
0.1774691851
 31
0.0
 40
0.5463614449
 41
-0.023576672
 42
0.5611569146
  0
ELLIPSE
  5
33E
100
AcDbEntity
  8
RACCORDO
100
AcDbEllipse
 62
7
  6
CONTINUOUS
 10
-15.9087788279
 20
-12.8934052634
 30
0.0
 11
0.0925036689
 21
0.1774691851
 31
0.0
 40
0.5463614449
 41
-0.023576672
 42
0.5611569146
  0
ELLIPSE
  5
33F
100
AcDbEntity
  8
RACCORDO
100
AcDbEllipse
 62
7
  6
CONTINUOUS
 10
-23.7060477094
 20
6.0321801058
 30
0.0
 11
-0.1000352924
 21
0.1732550566
 31
0.0
 40
0.5771558487
 41
-3.1241453805
 42
-2.3563950755
  0
ELLIPSE
  5
340
100
AcDbEntity
  8
RACCORDO
100
AcDbEllipse
 62
7
  6
CONTINUOUS
 10
-23.7060477094
 20
8.1549530769
 30
0.0
 11
-0.1000048364
 21
0.1732022883
 31
0.0
 40
0.5775075436
 41
-2.3560905478
 42
-0.7855988075
  0
ELLIPSE
  5
341
100
AcDbEntity
  8
RACCORDO
100
AcDbEllipse
 62
7
  6
CONTINUOUS
 10
-23.7060477094
 20
20.7286450881
 30
0.0
 11
-0.1000352924
 21
0.1732550566
 31
0.0
 40
0.5771558487
 41
-3.1241453805
 42
-2.3563950755
  0
ELLIPSE
  5
342
100
AcDbEntity
  8
RACCORDO
100
AcDbEllipse
 62
7
  6
CONTINUOUS
 10
-23.7060477094
 20
22.8514180592
 30
0.0
 11
-0.1000048364
 21
0.1732022883
 31
0.0
 40
0.5775075436
 41
-2.3560905478
 42
-0.7855988075
  0
ELLIPSE
  5
343
100
AcDbEntity
  8
RACCORDO
100
AcDbEllipse
 62
7
  6
CONTINUOUS
 10
-23.7060477094
 20
-7.6029232652
 30
0.0
 11
-0.1000048364
 21
0.1732022883
 31
0.0
 40
0.5775075436
 41
-2.3560905478
 42
-0.7855988075
  0
ELLIPSE
  5
344
100
AcDbEntity
  8
RACCORDO
100
AcDbEllipse
 62
7
  6
CONTINUOUS
 10
8.1137202606
 20
-26.7636951644
 30
0.0
 11
0.1026656474
 21
0.17165654
 31
0.0
 40
0.5873179545
 41
0.0090366616
 42
0.5937702454
  0
ELLIPSE
  5
345
100
AcDbEntity
  8
RACCORDO
100
AcDbEllipse
 62
7
  6
CONTINUOUS
 10
-11.031776799
 20
-10.6634993357
 30
0.0
 11
0.1214085714
 21
0.3069564856
 31
0.0
 40
0.4912966151
 41
-2.3075747621
 42
-1.6573929486
  0
ELLIPSE
  5
346
100
AcDbEntity
  8
RACCORDO
100
AcDbEllipse
 62
7
  6
CONTINUOUS
 10
4.173013358
 20
-24.3410881581
 30
0.0
 11
-0.1000048364
 21
0.1732022883
 31
0.0
 40
0.5775075436
 41
7.0686874129
 42
8.6391791532
  0
ELLIPSE
  5
347
100
AcDbEntity
  8
RACCORDO
100
AcDbEllipse
 62
7
  6
CONTINUOUS
 10
19.8734668156
 20
-29.451511219
 30
0.0
 11
0.5413005334
 21
0.8416911418
 31
0.0
 40
0.6067084637
 41
-2.196177068
 42
-1.5416785985
  0
ELLIPSE
  5
348
100
AcDbEntity
  8
RACCORDO
100
AcDbEllipse
 62
7
  6
CONTINUOUS
 10
-15.4818722437
 20
-9.0377815526
 30
0.0
 11
0.5413005334
 21
0.8416911418
 31
0.0
 40
0.6067084637
 41
-2.196177068
 42
-1.5416785985
  0
ELLIPSE
  5
349
100
AcDbEntity
  8
RACCORDO
100
AcDbEllipse
 62
7
  6
CONTINUOUS
 10
3.8926176221
 20
-24.3264834038
 30
0.0
 11
0.0974277822
 21
0.1746820465
 31
0.0
 40
0.5671693725
 41
5.4894081695
 42
6.8594916323
  0
ELLIPSE
  5
34A
100
AcDbEntity
  8
RACCORDO
100
AcDbEllipse
 62
7
  6
CONTINUOUS
 10
16.6014082116
 20
-31.6643798116
 30
0.0
 11
0.1082601067
 21
0.1683382284
 31
0.0
 40
0.6067084637
 41
5.5269048721
 42
6.8969883349
  0
ELLIPSE
  5
34B
100
AcDbEntity
  8
RACCORDO
100
AcDbEllipse
 62
7
  6
CONTINUOUS
 10
-11.8532407782
 20
-9.8316716934
 30
0.0
 11
0.0925036689
 21
0.1774691851
 31
0.0
 40
0.5463614449
 41
0.1510045403
 42
0.7531431323
  0
ELLIPSE
  5
34C
100
AcDbEntity
  8
RACCORDO
100
AcDbEllipse
 62
7
  6
CONTINUOUS
 10
-11.0844268554
 20
-10.2936516139
 30
0.0
 11
0.2312591722
 21
0.4436729628
 31
0.0
 40
0.5463614449
 41
5.4742587589
 42
6.4341898475
  0
ELLIPSE
  5
34D
100
AcDbEntity
  8
RACCORDO
100
AcDbEllipse
 62
7
  6
CONTINUOUS
 10
8.6747870282
 20
-26.1235647683
 30
0.0
 11
0.2030379687
 21
0.0044557609
 31
0.0
 40
0.5761003798
 41
-0.6456206012
 42
0.7592664076
  0
ELLIPSE
  5
34E
100
AcDbEntity
  8
RACCORDO
100
AcDbEllipse
 62
7
  6
CONTINUOUS
 10
-18.7539308477
 20
-11.2506501452
 30
0.0
 11
0.1082601067
 21
0.1683382284
 31
0.0
 40
0.6067084637
 41
5.5269048721
 42
6.8969883349
  0
ELLIPSE
  5
34F
100
AcDbEntity
  8
RACCORDO
100
AcDbEllipse
 62
7
  6
CONTINUOUS
 10
22.3927350317
 20
-30.9061051131
 30
0.0
 11
0.4625183445
 21
0.8873459255
 31
0.0
 40
0.5463614449
 41
-2.2488231812
 42
-1.9173631567
  0
ELLIPSE
  5
350
100
AcDbEntity
  8
RACCORDO
100
AcDbEllipse
 62
7
  6
CONTINUOUS
 10
-12.9626040277
 20
-10.4923754467
 30
0.0
 11
0.4625183445
 21
0.8873459255
 31
0.0
 40
0.5463614449
 41
-2.2488231812
 42
-1.5943247117
  0
ENDSEC
  0
SECTION
  2
OBJECTS
  0
DICTIONARY
  5
C
100
AcDbDictionary
280
0
281
1
  3
ACAD_GROUP
350
D
  3
ACAD_MLINESTYLE
350
17
  3
ACAD_LAYOUT
350
1A
  3
ACAD_PLOTSETTINGS
350
19
  3
ACAD_PLOTSTYLENAME
350
E
  0
DICTIONARY
  5
D
102
{ACAD_REACTORS
330
C
102
}
100
AcDbDictionary
280
0
281
1
  0
ACDBDICTIONARYWDFLT
  5
E
102
{ACAD_REACTORS
330
C
102
}
100
AcDbDictionary
281
1
  3
Normal
350
F
100
AcDbDictionaryWithDefault
340
F
  0
DICTIONARY
  5
17
102
{ACAD_REACTORS
330
C
102
}
100
AcDbDictionary
280
0
281
1
  3
Standard
350
18
  0
DICTIONARY
  5
19
102
{ACAD_REACTORS
330
C
102
}
100
AcDbDictionary
281
1
  0
DICTIONARY
  5
1A
102
{ACAD_REACTORS
330
C
102
}
100
AcDbDictionary
281
1
  3
Model
350
351
  3
Layout1
350
352
  0
ACDBPLACEHOLDER
  5
F
102
{ACAD_REACTORS
330
E
102
}
  0
MLINESTYLE
  5
18
102
{ACAD_REACTORS
330
17
102
}
100
AcDbMlineStyle
  2
STANDARD
 70
0
  3

 62
256
 51
90.0
 52
90.0
 71
2
 49
0.5
 62
256
  6
BYLAYER
 49
-0.5
 62
256
  6
BYLAYER
  0
LAYOUT
  5
351
102
{ACAD_REACTORS
330
1A
102
}
100
AcDbPlotSettings
  1

  2
none_device
  4
ISO_A4_(297.00_x_210.00_MM)
  6

 40
0.0
 41
0.0
 42
0.0
 43
0.0
 44
297.0
 45
210.0
 46
0.0
 47
0.0
 48
0.0
 49
0.0
140
0.0
141
0.0
142
1.0
143
1.0
 70
1024
 72
1
 73
0
 74
0
  7

 75
0
147
1.0
148
0.0
149
0.0
100
AcDbLayout
  1
Model
 70
0
 71
0
 10
0.0
 20
0.0
 11
297.0
 21
210.0
 12
0.0
 22
0.0
 32
0.0
 14
0.0
 24
0.0
 34
0.0
 15
0.0
 25
0.0
 35
0.0
146
0.0
 13
0.0
 23
0.0
 33
0.0
 16
1.0
 26
0.0
 36
0.0
 17
0.0
 27
1.0
 37
0.0
 76
0
330
214
345
0
346
0
  0
LAYOUT
  5
352
102
{ACAD_REACTORS
330
1A
102
}
100
AcDbPlotSettings
  1

  2
none_device
  4
ISO_A4_(297.00_x_210.00_MM)
  6

 40
0.0
 41
0.0
 42
0.0
 43
0.0
 44
297.0
 45
210.0
 46
0.0
 47
0.0
 48
0.0
 49
0.0
140
0.0
141
0.0
142
1.0
143
1.0
 70
0
 72
1
 73
0
 74
0
  7

 75
0
147
1.0
148
0.0
149
0.0
100
AcDbLayout
  1
Layout1
 70
0
 71
1
 10
0.0
 20
0.0
 11
297.0
 21
210.0
 12
0.0
 22
0.0
 32
0.0
 14
0.0
 24
0.0
 34
0.0
 15
0.0
 25
0.0
 35
0.0
146
0.0
 13
0.0
 23
0.0
 33
0.0
 16
1.0
 26
0.0
 36
0.0
 17
0.0
 27
1.0
 37
0.0
 76
0
330
215
345
0
346
0
  0
ENDSEC
  0
EOF
