  0
SECTION
  2
HEADER
  9
$ACADVER
  1
AC1024
  9
$DWGCODEPAGE
  3
ANSI_1252
  9
$EXTMAX
 10
297.0
 20
210.0
 30
0.0
  9
$EXTMIN
 10
0.0
 20
0.0
 30
0.0
  9
$LIMMIN
 10
0.0
 20
0.0
  9
$LIMMAX
 10
297.0
 20
210.0
  9
$VIEWCTR
 10
148.5
 20
105.0
  9
$VIEWSIZE
 40
210.0
  9
$CLAYER
  8
0
  9
$LTSCALE
 40
16.335
  9
$CELTYPE
  6
BYLAYER
  9
$DIMSCALE
 40
1.0
  9
$DIMASZ
 40
3.0
  9
$DIMEXO
 40
0.5
  9
$DIMDLI
 40
11.286
  9
$DIMEXE
 40
1.5
  9
$DIMCEN
 40
2.673
  9
$DIMLFAC
 40
1.0
  9
$DIMBLK
  1
_FILLED
  9
$DIMALT
 70
0
  9
$DIMALTF
 40
0.0393700787
  9
$DIMTXT
 40
3.0
  9
$DIMTOL
 70
1
  9
$DIMLIM
 70
0
  9
$DIMTFAC
 40
1.0
  9
$DIMTP
 40
0.01
  9
$DIMTM
 40
0.01
  9
$DIMGAP
 40
0.625
  9
$DIMDSEP
 70
44
  9
$AUNITS
 70
0
  9
$PDMODE
 70
3
  9
$PDSIZE
 40
3.0
  9
$HANDSEED
  5
30C
  9
$TILEMODE
 70
1
  9
$MEASUREMENT
 70
1
  9
$INSUNITS
 70
4
  0
ENDSEC
  0
SECTION
  2
CLASSES
  0
CLASS
  1
ACDBDICTIONARYWDFLT
  2
AcDbDictionaryWithDefault
  3
AutoCAD 2000
 90
0
 91
1
280
0
281
0
  0
CLASS
  1
ACDBPLACEHOLDER
  2
AcDbPlaceHolder
  3
AutoCAD 2000
 90
0
 91
1
280
0
281
0
  0
CLASS
  1
LAYOUT
  2
AcDbLayout
  3
AutoCAD 2000
 90
0
 91
0
280
0
281
0
  0
ENDSEC
  0
SECTION
  2
TABLES
  0
TABLE
  2
VPORT
  5
8
100
AcDbSymbolTable
 70
2
  0
VPORT
  5
1F4
100
AcDbSymbolTableRecord
100
AcDbViewportTableRecord
  2
*ACTIVE
 70
0
 10
0.0
 20
0.0
 11
1.0
 21
1.0
 12
148.5
 22
105.0
 13
0.0
 23
0.0
 14
1.0
 24
1.0
 15
0.0
 25
0.0
 16
0.0
 26
0.0
 36
1.0
 17
0.0
 27
0.0
 37
0.0
 40
210.0
 41
1.4142857143
 42
50.0
 43
0.0
 44
0.0
 50
0.0
 51
0.0
 71
0
 72
100
 73
1
 74
1
 75
0
 76
0
 77
0
 78
0
  0
ENDTAB
  0
TABLE
  2
LTYPE
  5
5
100
AcDbSymbolTable
 70
6
  0
LTYPE
  5
14
100
AcDbSymbolTableRecord
100
AcDbLinetypeTableRecord
  2
BYBLOCK
 70
0
  3

 72
65
 73
0
 40
0.0
  0
LTYPE
  5
15
100
AcDbSymbolTableRecord
100
AcDbLinetypeTableRecord
  2
BYLAYER
 70
0
  3

 72
65
 73
0
 40
0.0
  0
LTYPE
  5
16
100
AcDbSymbolTableRecord
100
AcDbLinetypeTableRecord
  2
CONTINUOUS
 70
64
  3
Solid line
 72
65
 73
0
 40
0.0
  0
LTYPE
  5
1F5
100
AcDbSymbolTableRecord
100
AcDbLinetypeTableRecord
  2
CENTER
 70
64
  3
____ _ ____ _ ____ _ ____ _ ____ _ ____ _ ____
 72
65
 73
4
 40
0.6
 49
0.375
 74
0
 49
-0.075
 74
0
 49
0.075
 74
0
 49
-0.075
 74
0
  0
LTYPE
  5
1F6
100
AcDbSymbolTableRecord
100
AcDbLinetypeTableRecord
  2
HIDDEN
 70
64
  3
- - - - - - - - - - - - - - - - - - - -
 72
65
 73
2
 40
0.2
 49
0.1
 74
0
 49
-0.1
 74
0
  0
LTYPE
  5
1F7
100
AcDbSymbolTableRecord
100
AcDbLinetypeTableRecord
  2
PHANTOM
 70
64
  3
_____ _ _ _____ _ _ _____ _ _ _____
 72
65
 73
6
 40
0.8
 49
0.45
 74
0
 49
-0.05
 74
0
 49
0.1
 74
0
 49
-0.05
 74
0
 49
0.1
 74
0
 49
-0.05
 74
0
  0
LTYPE
  5
1F8
100
AcDbSymbolTableRecord
100
AcDbLinetypeTableRecord
  2
DOT
 70
64
  3
. . . . . . . . . . . . . . . . . . . .
 72
65
 73
2
 40
0.2
 49
0.1
 74
0
 49
-0.1
 74
0
  0
LTYPE
  5
1F9
100
AcDbSymbolTableRecord
100
AcDbLinetypeTableRecord
  2
DASHED
 70
64
  3
- - - - - - - - - - - - - - - - - - - -
 72
65
 73
2
 40
0.2
 49
0.1
 74
0
 49
-0.1
 74
0
  0
ENDTAB
  0
TABLE
  2
LAYER
  5
2
100
AcDbSymbolTable
 70
36
  0
LAYER
  5
10
100
AcDbSymbolTableRecord
100
AcDbLayerTableRecord
  2
0
 70
0
 62
7
  6
CONTINUOUS
370
-3
390
F
  0
LAYER
  5
1FA
100
AcDbSymbolTableRecord
100
AcDbLayerTableRecord
  2
DEFAULT_1
 70
0
 62
7
  6
CENTER
370
-3
390
F
  0
LAYER
  5
1FB
100
AcDbSymbolTableRecord
100
AcDbLayerTableRecord
  2
DEFAULT_2
 70
0
 62
7
  6
HIDDEN
370
-3
390
F
  0
LAYER
  5
1FC
100
AcDbSymbolTableRecord
100
AcDbLayerTableRecord
  2
DEFAULT_3
 70
0
 62
7
  6
PHANTOM
370
-3
390
F
  0
LAYER
  5
1FD
100
AcDbSymbolTableRecord
100
AcDbLayerTableRecord
  2
ASSI
 70
0
 62
7
  6
CONTINUOUS
370
-3
390
F
  0
LAYER
  5
1FE
100
AcDbSymbolTableRecord
100
AcDbLayerTableRecord
  2
COORDINATE
 70
0
 62
7
  6
CONTINUOUS
370
-3
390
F
  0
LAYER
  5
1FF
100
AcDbSymbolTableRecord
100
AcDbLayerTableRecord
  2
COPY_PUBLISH
 70
0
 62
7
  6
CONTINUOUS
370
-3
390
F
  0
LAYER
  5
200
100
AcDbSymbolTableRecord
100
AcDbLayerTableRecord
  2
COSMETICI
 70
0
 62
7
  6
CONTINUOUS
370
-3
390
F
  0
LAYER
  5
201
100
AcDbSymbolTableRecord
100
AcDbLayerTableRecord
  2
CURVE
 70
0
 62
7
  6
CONTINUOUS
370
-3
390
F
  0
LAYER
  5
202
100
AcDbSymbolTableRecord
100
AcDbLayerTableRecord
  2
DRAFT
 70
0
 62
7
  6
CONTINUOUS
370
-3
390
F
  0
LAYER
  5
203
100
AcDbSymbolTableRecord
100
AcDbLayerTableRecord
  2
IMPORT_IGES
 70
0
 62
7
  6
CONTINUOUS
370
-3
390
F
  0
LAYER
  5
204
100
AcDbSymbolTableRecord
100
AcDbLayerTableRecord
  2
INTF_1
 70
0
 62
7
  6
CONTINUOUS
370
-3
390
F
  0
LAYER
  5
205
100
AcDbSymbolTableRecord
100
AcDbLayerTableRecord
  2
INTF_11
 70
0
 62
7
  6
CONTINUOUS
370
-3
390
F
  0
LAYER
  5
206
100
AcDbSymbolTableRecord
100
AcDbLayerTableRecord
  2
INTF_13
 70
0
 62
7
  6
CONTINUOUS
370
-3
390
F
  0
LAYER
  5
207
100
AcDbSymbolTableRecord
100
AcDbLayerTableRecord
  2
INTF_2
 70
0
 62
7
  6
CONTINUOUS
370
-3
390
F
  0
LAYER
  5
208
100
AcDbSymbolTableRecord
100
AcDbLayerTableRecord
  2
INTF_4
 70
0
 62
7
  6
CONTINUOUS
370
-3
390
F
  0
LAYER
  5
209
100
AcDbSymbolTableRecord
100
AcDbLayerTableRecord
  2
INTF_CYAN
 70
0
 62
7
  6
CONTINUOUS
370
-3
390
F
  0
LAYER
  5
20A
100
AcDbSymbolTableRecord
100
AcDbLayerTableRecord
  2
NOTE
 70
0
 62
7
  6
CONTINUOUS
370
-3
390
F
  0
LAYER
  5
20B
100
AcDbSymbolTableRecord
100
AcDbLayerTableRecord
  2
PIANI
 70
0
 62
7
  6
CONTINUOUS
370
-3
390
F
  0
LAYER
  5
20C
100
AcDbSymbolTableRecord
100
AcDbLayerTableRecord
  2
PUNTI
 70
0
 62
7
  6
CONTINUOUS
370
-3
390
F
  0
LAYER
  5
20D
100
AcDbSymbolTableRecord
100
AcDbLayerTableRecord
  2
RACCORDO
 70
0
 62
7
  6
CONTINUOUS
370
-3
390
F
  0
LAYER
  5
20E
100
AcDbSymbolTableRecord
100
AcDbLayerTableRecord
  2
RGB____0____0____0__
 70
0
 62
7
  6
CONTINUOUS
370
-3
390
F
  0
LAYER
  5
20F
100
AcDbSymbolTableRecord
100
AcDbLayerTableRecord
  2
SIMBOLI
 70
0
 62
7
  6
CONTINUOUS
370
-3
390
F
  0
LAYER
  5
210
100
AcDbSymbolTableRecord
100
AcDbLayerTableRecord
  2
SMUSSO
 70
0
 62
7
  6
CONTINUOUS
370
-3
390
F
  0
LAYER
  5
211
100
AcDbSymbolTableRecord
100
AcDbLayerTableRecord
  2
SNAPLINE
 70
0
 62
7
  6
CONTINUOUS
370
-3
390
F
  0
LAYER
  5
212
100
AcDbSymbolTableRecord
100
AcDbLayerTableRecord
  2
SUPERFICI
 70
0
 62
7
  6
CONTINUOUS
370
-3
390
F
  0
LAYER
  5
213
100
AcDbSymbolTableRecord
100
AcDbLayerTableRecord
  2
TRASH
 70
0
 62
7
  6
CONTINUOUS
370
-3
390
F
  0
ENDTAB
  0
TABLE
  2
STYLE
  5
3
100
AcDbSymbolTable
 70
1
  0
STYLE
  5
11
100
AcDbSymbolTableRecord
100
AcDbTextStyleTableRecord
  2
STANDARD
 70
0
 40
0.0
 41
0.8
 50
0.0
 71
0
 42
0.2
  3
txt
  4

  0
STYLE
  5
214
100
AcDbSymbolTableRecord
100
AcDbTextStyleTableRecord
  2
TEXTSTYLE_1
 70
0
 40
0.0
 41
0.8
 50
0.0
 71
0
 42
0.2
  3
gdt
  4

  0
ENDTAB
  0
TABLE
  2
VIEW
  5
6
100
AcDbSymbolTable
 70
0
  0
ENDTAB
  0
TABLE
  2
UCS
  5
7
100
AcDbSymbolTable
 70
0
  0
ENDTAB
  0
TABLE
  2
APPID
  5
9
100
AcDbSymbolTable
 70
1
  0
APPID
  5
215
100
AcDbSymbolTableRecord
100
AcDbRegAppTableRecord
  2
ACAD
 70
0
  0
ENDTAB
  0
TABLE
  2
BLOCK_RECORD
  5
1
100
AcDbSymbolTable
 70
0
  0
BLOCK_RECORD
  5
216
100
AcDbSymbolTableRecord
100
AcDbBlockTableRecord
  2
*Model_Space
  0
BLOCK_RECORD
  5
217
100
AcDbSymbolTableRecord
100
AcDbBlockTableRecord
  2
*Paper_Space
  0
BLOCK_RECORD
  5
218
100
AcDbSymbolTableRecord
100
AcDbBlockTableRecord
  2
_FILLED
  0
ENDTAB
  0
TABLE
  2
DIMSTYLE
  5
A
100
AcDbSymbolTable
 70
1
100
AcDbDimStyleTable
 71
0
  0
DIMSTYLE
105
219
100
AcDbSymbolTableRecord
100
AcDbDimStyleTableRecord
  2
STANDARD
 70
0
  3

  4

 40
1.0
 41
3.0
 42
0.5
 43
0.38
 44
1.5
 45
0.0
 46
0.0
 47
0.01
 48
0.01
140
3.0
141
0.0
142
0.0
143
25.4
144
1.0
145
0.0
146
1.0
147
0.625
 71
1
 72
0
 73
0
 74
0
 75
0
 76
0
 77
1
 78
8
 79
2
170
0
171
1
172
0
173
0
174
0
175
0
176
0
177
0
178
0
270
2
179
2
271
2
272
2
273
2
274
2
275
0
280
0
281
0
282
0
283
1
284
8
285
0
286
0
287
3
288
0
340
11
278
44
341
218
342
218
343
218
344
218
  0
ENDTAB
  0
ENDSEC
  0
SECTION
  2
BLOCKS
  0
BLOCK
  5
20
100
AcDbEntity
  8
0
100
AcDbBlockBegin
  2
*Model_Space
 70
0
 10
0.0
 20
0.0
 30
0.0
  3
*Model_Space
  1

  0
ENDBLK
  5
21
100
AcDbEntity
  8
0
100
AcDbBlockEnd
  0
BLOCK
  5
1C
100
AcDbEntity
  8
0
100
AcDbBlockBegin
  2
*Paper_Space
 70
0
 10
0.0
 20
0.0
 30
0.0
  3
*Paper_Space
  1

  0
ENDBLK
  5
1D
100
AcDbEntity
  8
0
100
AcDbBlockEnd
  0
BLOCK
  5
21A
100
AcDbEntity
  8
0
100
AcDbBlockBegin
  2
_FILLED
 70
64
 10
0.0
 20
0.0
 30
0.0
  3
_FILLED
  1

  0
SOLID
  5
21B
100
AcDbEntity
  8
0
  6
BYBLOCK
 62
0
100
AcDbTrace
 10
0.0
 20
0.0
 30
0.0
 11
-1.0
 21
0.3166666667
 31
0.0
 12
-1.0
 22
-0.3166666667
 32
0.0
 13
-1.0
 23
-0.3166666667
 33
0.0
  0
ENDBLK
  5
21C
100
AcDbEntity
  8
0
  6
BYBLOCK
 62
0
100
AcDbBlockEnd
  0
ENDSEC
  0
SECTION
  2
ENTITIES
  0
LWPOLYLINE
  5
21D
100
AcDbEntity
  8
ASSI
100
AcDbPolyline
 62
7
  6
CONTINUOUS
 90
15
 70
0
 10
-32.2403411594
 20
52.3675382759
 10
-32.2929367368
 20
52.3273021164
 10
-32.3408398806
 20
52.284382803
 10
-32.3862163504
 20
52.2370339728
 10
-32.4286543833
 20
52.1853983924
 10
-32.4677016544
 20
52.1297802033
 10
-32.5031175944
 20
52.0703277589
 10
-32.5346714572
 20
52.0072210814
 10
-32.5620822857
 20
51.94083588
 10
-32.5852195248
 20
51.8713570956
 10
-32.6039910765
 20
51.7989101498
 10
-32.6182783491
 20
51.7237317478
 10
-32.6280074088
 20
51.6459745653
 10
-32.6331212213
 20
51.5657535733
 10
-32.6339403846
 20
51.5175128195
  0
LINE
  5
21E
100
AcDbEntity
  8
ASSI
100
AcDbLine
 62
7
  6
CONTINUOUS
 10
-32.2408014576
 20
52.3672151412
 30
0.0
 11
-30.0719160509
 21
53.8965262906
 31
0.0
  0
LINE
  5
21F
100
AcDbEntity
  8
ASSI
100
AcDbLine
 62
250
  6
CONTINUOUS
 10
-31.4463062236
 20
52.3221489086
 30
0.0
 11
-29.2846159668
 21
53.8463866582
 31
0.0
  0
LINE
  5
220
100
AcDbEntity
  8
ASSI
100
AcDbLine
 62
250
  6
CONTINUOUS
 10
-28.0015131481
 20
53.9167185672
 30
0.0
 11
-28.7428161426
 21
53.53355823
 31
0.0
  0
LINE
  5
221
100
AcDbEntity
  8
ASSI
100
AcDbLine
 62
7
  6
CONTINUOUS
 10
-28.948262256
 20
53.6521802411
 30
0.0
 11
-28.3310726342
 21
53.9575707201
 31
0.0
  0
LINE
  5
222
100
AcDbEntity
  8
ASSI
100
AcDbLine
 62
7
  6
CONTINUOUS
 10
-25.5629248683
 20
34.7440643764
 30
0.0
 11
-25.5628185152
 21
34.7441216193
 31
0.0
  0
LINE
  5
223
100
AcDbEntity
  8
ASSI
100
AcDbLine
 62
250
  6
CONTINUOUS
 10
-25.6691782496
 20
34.5136626812
 30
0.0
 11
-25.3903504694
 21
34.6636072382
 31
0.0
  0
LWPOLYLINE
  5
224
100
AcDbEntity
  8
ASSI
100
AcDbPolyline
 62
7
  6
CONTINUOUS
 90
11
 70
0
 10
-25.5690897261
 20
34.7416410528
 10
-25.5690549374
 20
34.7416511996
 10
-25.5670688912
 20
34.7418326266
 10
-25.5623934813
 20
34.7418238495
 10
-25.5547586323
 20
34.741125459
 10
-25.544014612
 20
34.7392183904
 10
-25.5305307284
 20
34.7357132484
 10
-25.514983604
 20
34.7304557152
 10
-25.4977935936
 20
34.7233729875
 10
-25.479128444
 20
34.7143580755
 10
-25.462019789
 20
34.704988215
  0
LWPOLYLINE
  5
225
100
AcDbEntity
  8
ASSI
100
AcDbPolyline
 62
7
  6
CONTINUOUS
 90
24
 70
0
 10
-32.6339007327
 20
-17.6203773965
 10
-32.6307617257
 20
-17.7065989004
 10
-32.622762556
 20
-17.7932415316
 10
-32.6100827986
 20
-17.8801307777
 10
-32.5928974787
 20
-17.9670357327
 10
-32.5714184481
 20
-18.0535795756
 10
-32.5458271591
 20
-18.1395306176
 10
-32.5162760489
 20
-18.2247392852
 10
-32.4829601172
 20
-18.308870407
 10
-32.4460781084
 20
-18.3916390771
 10
-32.4057479592
 20
-18.4729207392
 10
-32.3620683984
 20
-18.5525792321
 10
-32.3151728944
 20
-18.6303979405
 10
-32.2651804347
 20
-18.7061522445
 10
-32.2121617136
 20
-18.7796903338
 10
-32.1561619692
 20
-18.850844788
 10
-32.0973305595
 20
-18.9193050159
 10
-32.0358580382
 20
-18.9847305291
 10
-31.97179639
 20
-19.0469135803
 10
-31.9052557932
 20
-19.1055833666
 10
-31.8364558935
 20
-19.1603630321
 10
-31.7655124301
 20
-19.2109835876
 10
-31.6924878364
 20
-19.2572022083
 10
-31.6776464671
 20
-19.2658872767
  0
LWPOLYLINE
  5
226
100
AcDbEntity
  8
ASSI
100
AcDbPolyline
 62
7
  6
CONTINUOUS
 90
15
 70
0
 10
28.1900513703
 20
-53.83274582
 10
28.2297490875
 20
-53.8548293314
 10
28.3019349682
 20
-53.8907720001
 10
28.3743007904
 20
-53.9214612083
 10
28.4467192034
 20
-53.9468899704
 10
28.5190245485
 20
-53.9670488687
 10
28.5909512608
 20
-53.9819175845
 10
28.6623441807
 20
-53.9915121396
 10
28.7329762995
 20
-53.9958561621
 10
28.8023775007
 20
-53.9949991181
 10
28.8702731649
 20
-53.9890467673
 10
28.9364156325
 20
-53.9781396581
 10
29.0003117087
 20
-53.9625165158
 10
29.0616270754
 20
-53.9424594982
 10
29.1231288041
 20
-53.9168870452
  0
LINE
  5
227
100
AcDbEntity
  8
ASSI
100
AcDbLine
 62
7
  6
CONTINUOUS
 10
-32.6339403847
 20
51.5175206975
 30
0.0
 11
-32.6339007327
 21
-17.6203773965
 31
0.0
  0
LINE
  5
228
100
AcDbEntity
  8
ASSI
100
AcDbLine
 62
250
  6
CONTINUOUS
 10
-32.4874937753
 20
51.3133834008
 30
0.0
 11
-32.4874937753
 21
-17.8138554132
 31
0.0
  0
LINE
  5
229
100
AcDbEntity
  8
ASSI
100
AcDbLine
 62
7
  6
CONTINUOUS
 10
-32.6339403847
 20
-17.6097181345
 30
0.0
 11
-32.6339402615
 21
-17.6095154653
 31
0.0
  0
LINE
  5
22A
100
AcDbEntity
  8
ASSI
100
AcDbLine
 62
250
  6
CONTINUOUS
 10
-24.2635839027
 20
20.3424267042
 30
0.0
 11
-23.8491504522
 21
20.5987185666
 31
0.0
  0
LINE
  5
22B
100
AcDbEntity
  8
ASSI
100
AcDbLine
 62
7
  6
CONTINUOUS
 10
-23.8888287429
 20
20.5082142566
 30
0.0
 11
-24.2074518665
 21
20.3111729375
 31
0.0
  0
LINE
  5
22C
100
AcDbEntity
  8
ASSI
100
AcDbLine
 62
250
  6
CONTINUOUS
 10
-23.9905502693
 20
22.9294486859
 30
0.0
 11
-24.2074518628
 21
22.8042119943
 31
0.0
  0
LINE
  5
22D
100
AcDbEntity
  8
ASSI
100
AcDbLine
 62
250
  6
CONTINUOUS
 10
-23.8491504522
 20
22.6845370188
 30
0.0
 11
-24.2635839027
 21
22.445247517
 31
0.0
  0
LINE
  5
22E
100
AcDbEntity
  8
ASSI
100
AcDbLine
 62
250
  6
CONTINUOUS
 10
-24.1642793055
 20
23.029757654
 30
0.0
 11
-24.2074518628
 21
23.0096413
 31
0.0
  0
LINE
  5
22F
100
AcDbEntity
  8
ASSI
100
AcDbLine
 62
7
  6
CONTINUOUS
 10
-31.6778147489
 20
-19.2657902436
 30
0.0
 11
28.1900588678
 21
-53.8327501492
 31
0.0
  0
LINE
  5
230
100
AcDbEntity
  8
ASSI
100
AcDbLine
 62
250
  6
CONTINUOUS
 10
-31.7813560594
 20
-19.036921813
 30
0.0
 11
28.0865175417
 21
-53.6038817096
 31
0.0
  0
LINE
  5
231
100
AcDbEntity
  8
ASSI
100
AcDbLine
 62
250
  6
CONTINUOUS
 10
-26.0897077951
 20
-8.404256535
 30
0.0
 11
-26.0897077951
 21
34.5157816388
 31
0.0
  0
LINE
  5
232
100
AcDbEntity
  8
ASSI
100
AcDbLine
 62
250
  6
CONTINUOUS
 10
-25.6691782496
 20
-8.4063754926
 30
0.0
 11
-25.6691782496
 21
34.5136626812
 31
0.0
  0
LINE
  5
233
100
AcDbEntity
  8
ASSI
100
AcDbLine
 62
7
  6
CONTINUOUS
 10
-25.3056867247
 20
34.6147234531
 30
0.0
 11
-25.3056867247
 21
-8.1965007376
 31
0.0
  0
LINE
  5
234
100
AcDbEntity
  8
ASSI
100
AcDbLine
 62
250
  6
CONTINUOUS
 10
-24.1354250019
 20
16.2140661698
 30
0.0
 11
-24.2226042881
 21
16.1637299425
 31
0.0
  0
LINE
  5
235
100
AcDbEntity
  8
ASSI
100
AcDbLine
 62
7
  6
CONTINUOUS
 10
-24.7010355646
 20
-8.3101679326
 30
0.0
 11
-24.7009885249
 21
-8.3102593695
 31
0.0
  0
LINE
  5
236
100
AcDbEntity
  8
ASSI
100
AcDbLine
 62
250
  6
CONTINUOUS
 10
-24.6158166826
 20
-8.3599782251
 30
0.0
 11
-24.6158166238
 21
-8.4531112847
 31
0.0
  0
LINE
  5
237
100
AcDbEntity
  8
ASSI
100
AcDbLine
 62
250
  6
CONTINUOUS
 10
-24.2635839027
 20
34.0130263442
 30
0.0
 11
-24.2635839027
 21
22.445247517
 31
0.0
  0
LINE
  5
238
100
AcDbEntity
  8
ASSI
100
AcDbLine
 62
250
  6
CONTINUOUS
 10
-24.2635839027
 20
20.3424267042
 30
0.0
 11
-24.2635839027
 21
7.7487825347
 31
0.0
  0
LINE
  5
239
100
AcDbEntity
  8
ASSI
100
AcDbLine
 62
250
  6
CONTINUOUS
 10
-24.2635839027
 20
5.6459617219
 30
0.0
 11
-24.2635839027
 21
-7.9886820505
 31
0.0
  0
LINE
  5
23A
100
AcDbEntity
  8
ASSI
100
AcDbLine
 62
7
  6
CONTINUOUS
 10
-24.2226042881
 20
16.1637299425
 30
0.0
 11
-24.2226042881
 21
11.9997315309
 31
0.0
  0
LINE
  5
23B
100
AcDbEntity
  8
ASSI
100
AcDbLine
 62
7
  6
CONTINUOUS
 10
-24.2074518628
 20
33.9806164079
 30
0.0
 11
-24.2074518628
 21
22.6369360916
 31
0.0
  0
LINE
  5
23C
100
AcDbEntity
  8
ASSI
100
AcDbLine
 62
7
  6
CONTINUOUS
 10
-24.2074518628
 20
20.3111729443
 30
0.0
 11
-24.2074518628
 21
16.3092730251
 31
0.0
  0
LINE
  5
23D
100
AcDbEntity
  8
ASSI
100
AcDbLine
 62
7
  6
CONTINUOUS
 10
-24.2074518628
 20
11.9423710286
 30
0.0
 11
-24.2074518628
 21
7.9404711093
 31
0.0
  0
LINE
  5
23E
100
AcDbEntity
  8
ASSI
100
AcDbLine
 62
7
  6
CONTINUOUS
 10
-24.2074518628
 20
5.614707962
 30
0.0
 11
-24.2074518628
 21
-7.7969934758
 31
0.0
  0
LINE
  5
23F
100
AcDbEntity
  8
ASSI
100
AcDbLine
 62
7
  6
CONTINUOUS
 10
-24.1354250019
 20
16.2140661698
 30
0.0
 11
-24.1354250019
 21
12.0500677582
 31
0.0
  0
LINE
  5
240
100
AcDbEntity
  8
ASSI
100
AcDbLine
 62
7
  6
CONTINUOUS
 10
-23.8491504522
 20
22.6845370188
 30
0.0
 11
-23.8491504522
 21
20.5987185666
 31
0.0
  0
LINE
  5
241
100
AcDbEntity
  8
ASSI
100
AcDbLine
 62
7
  6
CONTINUOUS
 10
-23.8491504522
 20
7.9880720365
 30
0.0
 11
-23.8491504522
 21
5.9022535843
 31
0.0
  0
LINE
  5
242
100
AcDbEntity
  8
ASSI
100
AcDbLine
 62
7
  6
CONTINUOUS
 10
-23.8491504522
 20
-7.7493925487
 30
0.0
 11
-23.8491504522
 21
-8.8109158256
 31
0.0
  0
LINE
  5
243
100
AcDbEntity
  8
ASSI
100
AcDbLine
 62
250
  6
CONTINUOUS
 10
-24.1354250019
 20
12.0500677582
 30
0.0
 11
-24.2226042881
 21
11.9997315309
 31
0.0
  0
LINE
  5
244
100
AcDbEntity
  8
ASSI
100
AcDbLine
 62
7
  6
CONTINUOUS
 10
-24.2085116829
 20
11.9402344343
 30
0.0
 11
-24.1768415261
 21
11.9585203859
 31
0.0
  0
LINE
  5
245
100
AcDbEntity
  8
ASSI
100
AcDbLine
 62
7
  6
CONTINUOUS
 10
21.826050993
 20
-28.9581952351
 30
0.0
 11
21.2197473765
 21
-28.8109843898
 31
0.0
  0
LINE
  5
246
100
AcDbEntity
  8
ASSI
100
AcDbLine
 62
250
  6
CONTINUOUS
 10
21.829270009
 20
-36.7251504928
 30
0.0
 11
-25.5241085268
 21
-9.3839032034
 31
0.0
  0
LINE
  5
247
100
AcDbEntity
  8
ASSI
100
AcDbLine
 62
250
  6
CONTINUOUS
 10
22.0376998289
 20
-36.3599019497
 30
0.0
 11
-25.3156787069
 21
-9.0186546603
 31
0.0
  0
LINE
  5
248
100
AcDbEntity
  8
ASSI
100
AcDbLine
 62
250
  6
CONTINUOUS
 10
-24.2635839027
 20
5.6459617219
 30
0.0
 11
-23.8491504522
 21
5.9022535843
 31
0.0
  0
LINE
  5
249
100
AcDbEntity
  8
ASSI
100
AcDbLine
 62
7
  6
CONTINUOUS
 10
-23.8888287429
 20
5.8117492744
 30
0.0
 11
-24.2074518665
 21
5.6147079553
 31
0.0
  0
LINE
  5
24A
100
AcDbEntity
  8
ASSI
100
AcDbLine
 62
250
  6
CONTINUOUS
 10
-23.9905502693
 20
8.2329837036
 30
0.0
 11
-24.2074518628
 21
8.107747012
 31
0.0
  0
LINE
  5
24B
100
AcDbEntity
  8
ASSI
100
AcDbLine
 62
250
  6
CONTINUOUS
 10
-23.8491504522
 20
7.9880720365
 30
0.0
 11
-24.2635839027
 21
7.7487825347
 31
0.0
  0
LINE
  5
24C
100
AcDbEntity
  8
ASSI
100
AcDbLine
 62
250
  6
CONTINUOUS
 10
-24.1642793055
 20
8.3332926718
 30
0.0
 11
-24.2074518628
 21
8.3131763177
 31
0.0
  0
LINE
  5
24D
100
AcDbEntity
  8
ASSI
100
AcDbLine
 62
7
  6
CONTINUOUS
 10
-24.952187182
 20
-8.8087799054
 30
0.0
 11
22.3070013117
 21
-36.0956430449
 31
0.0
  0
LINE
  5
24E
100
AcDbEntity
  8
ASSI
100
AcDbLine
 62
250
  6
CONTINUOUS
 10
22.3070013117
 20
-35.7126527216
 30
0.0
 11
-24.3702663487
 21
-8.7617833781
 31
0.0
  0
LINE
  5
24F
100
AcDbEntity
  8
ASSI
100
AcDbLine
 62
7
  6
CONTINUOUS
 10
22.3070013117
 20
-35.6742835179
 30
0.0
 11
-24.2984564003
 21
-8.7648763386
 31
0.0
  0
LINE
  5
250
100
AcDbEntity
  8
ASSI
100
AcDbLine
 62
7
  6
CONTINUOUS
 10
7.8416159917
 20
-27.0065337251
 30
0.0
 11
5.3488069791
 21
-25.5672170435
 31
0.0
  0
LINE
  5
251
100
AcDbEntity
  8
ASSI
100
AcDbLine
 62
7
  6
CONTINUOUS
 10
-5.9649015199
 20
-19.0348235503
 30
0.0
 11
-3.4720925073
 21
-20.4741402319
 31
0.0
  0
LINE
  5
252
100
AcDbEntity
  8
ASSI
100
AcDbLine
 62
7
  6
CONTINUOUS
 10
-24.1642793055
 20
-7.4041719134
 30
0.0
 11
-23.9905502693
 21
-7.5044808816
 31
0.0
  0
LINE
  5
253
100
AcDbEntity
  8
ASSI
100
AcDbLine
 62
250
  6
CONTINUOUS
 10
-15.7051756023
 20
-9.8656962241
 30
0.0
 11
-13.1436434087
 21
-11.3446928091
 31
0.0
  0
LINE
  5
254
100
AcDbEntity
  8
ASSI
100
AcDbLine
 62
250
  6
CONTINUOUS
 10
19.650163457
 20
-30.2794258905
 30
0.0
 11
22.2116956506
 21
-31.7584224755
 31
0.0
  0
LWPOLYLINE
  5
255
100
AcDbEntity
  8
ASSI
100
AcDbPolyline
 62
7
  6
CONTINUOUS
 90
15
 70
0
 10
-24.2985109266
 20
-8.7648348791
 10
-24.3088903119
 20
-8.758710907
 10
-24.3402620401
 20
-8.7386301927
 10
-24.3723280183
 20
-8.7156789714
 10
-24.4048373351
 20
-8.6899033484
 10
-24.4375457846
 20
-8.6613802374
 10
-24.4702341401
 20
-8.630188766
 10
-24.5026760235
 20
-8.5964435025
 10
-24.5346426613
 20
-8.5602891931
 10
-24.565925232
 20
-8.5218678274
 10
-24.5962949585
 20
-8.4813766465
 10
-24.6255184611
 20
-8.439064023
 10
-24.653408395
 20
-8.3951437915
 10
-24.6797794782
 20
-8.3498574121
 10
-24.7010302315
 20
-8.3101782937
  0
LINE
  5
256
100
AcDbEntity
  8
ASSI
100
AcDbLine
 62
7
  6
CONTINUOUS
 10
-11.1145954556
 20
-9.9386788189
 30
0.0
 11
-11.6799827248
 21
-9.8150925597
 31
0.0
  0
LINE
  5
257
100
AcDbEntity
  8
ASSI
100
AcDbLine
 62
250
  6
CONTINUOUS
 10
-15.283234219
 20
-9.4063598886
 30
0.0
 11
-12.7501767033
 21
-10.8689155515
 31
0.0
  0
LINE
  5
258
100
AcDbEntity
  8
ASSI
100
AcDbLine
 62
250
  6
CONTINUOUS
 10
20.0721048403
 20
-29.820089555
 30
0.0
 11
22.3070013117
 21
-31.1104907678
 31
0.0
  0
LINE
  5
259
100
AcDbEntity
  8
ASSI
100
AcDbLine
 62
7
  6
CONTINUOUS
 10
-14.8002688057
 20
-8.6074748768
 30
0.0
 11
-12.2998041693
 21
-10.0512118197
 31
0.0
  0
LINE
  5
25A
100
AcDbEntity
  8
ASSI
100
AcDbLine
 62
7
  6
CONTINUOUS
 10
20.5550702536
 20
-29.0212045432
 30
0.0
 11
22.3070013117
 21
-30.0327475793
 31
0.0
  0
LINE
  5
25B
100
AcDbEntity
  8
ASSI
100
AcDbLine
 62
250
  6
CONTINUOUS
 10
22.3070013117
 20
-29.7594475776
 30
0.0
 11
20.8000044306
 21
-28.8893264655
 31
0.0
  0
LINE
  5
25C
100
AcDbEntity
  8
ASSI
100
AcDbLine
 62
250
  6
CONTINUOUS
 10
-12.0713993542
 20
-9.9097898957
 30
0.0
 11
-14.5553346287
 21
-8.4755967992
 31
0.0
  0
LINE
  5
25D
100
AcDbEntity
  8
ASSI
100
AcDbLine
 62
250
  6
CONTINUOUS
 10
22.3070013117
 20
-29.4387511855
 30
0.0
 11
21.2197473765
 21
-28.8109843898
 31
0.0
  0
LINE
  5
25E
100
AcDbEntity
  8
ASSI
100
AcDbLine
 62
250
  6
CONTINUOUS
 10
-11.6799827248
 20
-9.8150925597
 30
0.0
 11
-14.1355916828
 21
-8.3972547234
 31
0.0
  0
LINE
  5
25F
100
AcDbEntity
  8
ASSI
100
AcDbLine
 62
250
  6
CONTINUOUS
 10
22.3070013117
 20
-29.2358899214
 30
0.0
 11
21.826050993
 21
-28.9581952351
 31
0.0
  0
LINE
  5
260
100
AcDbEntity
  8
ASSI
100
AcDbLine
 62
250
  6
CONTINUOUS
 10
-11.1145954556
 20
-9.9386788189
 30
0.0
 11
-13.5292880663
 21
-8.5444655687
 31
0.0
  0
LINE
  5
261
100
AcDbEntity
  8
ASSI
100
AcDbLine
 62
7
  6
CONTINUOUS
 10
22.3070013117
 20
-29.227113687
 30
0.0
 11
21.8749222143
 21
-28.9776366314
 31
0.0
  0
LINE
  5
262
100
AcDbEntity
  8
ASSI
100
AcDbLine
 62
7
  6
CONTINUOUS
 10
-11.0690223045
 20
-9.9562159508
 30
0.0
 11
-13.480416845
 21
-8.563906965
 31
0.0
  0
LINE
  5
263
100
AcDbEntity
  8
ASSI
100
AcDbLine
 62
7
  6
CONTINUOUS
 10
-10.9690967362
 20
-10.5457331175
 30
0.0
 11
-10.9690967362
 21
-10.1829966972
 31
0.0
  0
LINE
  5
264
100
AcDbEntity
  8
ASSI
100
AcDbLine
 62
7
  6
CONTINUOUS
 10
-14.8002688057
 20
-8.6074748768
 30
0.0
 11
-15.283234219
 21
-9.4063598886
 31
0.0
  0
LINE
  5
265
100
AcDbEntity
  8
ASSI
100
AcDbLine
 62
7
  6
CONTINUOUS
 10
-13.5292880663
 20
-8.5444655687
 30
0.0
 11
-14.1355916828
 21
-8.3972547234
 31
0.0
  0
LINE
  5
266
100
AcDbEntity
  8
ASSI
100
AcDbLine
 62
7
  6
CONTINUOUS
 10
-11.0443831389
 20
-10.7108042848
 30
0.0
 11
-10.9690967362
 21
-10.5457331175
 31
0.0
  0
LINE
  5
267
100
AcDbEntity
  8
ASSI
100
AcDbLine
 62
7
  6
CONTINUOUS
 10
-12.2998041693
 20
-10.0512118197
 30
0.0
 11
-12.7501767033
 21
-10.8689155515
 31
0.0
  0
LINE
  5
268
100
AcDbEntity
  8
ASSI
100
AcDbLine
 62
250
  6
CONTINUOUS
 10
-25.6691782496
 20
-8.4063754926
 30
0.0
 11
-25.3056867247
 21
-8.1965007376
 31
0.0
  0
LINE
  5
269
100
AcDbEntity
  8
ASSI
100
AcDbLine
 62
250
  6
CONTINUOUS
 10
-23.9905502693
 20
-7.5044808816
 30
0.0
 11
-24.2074518628
 21
-7.6297175732
 31
0.0
  0
LINE
  5
26A
100
AcDbEntity
  8
ASSI
100
AcDbLine
 62
250
  6
CONTINUOUS
 10
-23.8491504522
 20
-7.7493925487
 30
0.0
 11
-24.2635839027
 21
-7.9886820505
 31
0.0
  0
LINE
  5
26B
100
AcDbEntity
  8
ASSI
100
AcDbLine
 62
250
  6
CONTINUOUS
 10
-25.3156787069
 20
-9.0186546603
 30
0.0
 11
-24.952187182
 21
-8.8087799054
 31
0.0
  0
LINE
  5
26C
100
AcDbEntity
  8
ASSI
100
AcDbLine
 62
250
  6
CONTINUOUS
 10
-24.0339343124
 20
-8.9176080769
 30
0.0
 11
-23.8491504522
 21
-8.8109158256
 31
0.0
  0
LWPOLYLINE
  5
26D
100
AcDbEntity
  8
ASSI
100
AcDbPolyline
 62
7
  6
CONTINUOUS
 90
4
 70
0
 10
-24.2393833447
 20
5.6323430882
 10
-24.2299173333
 20
5.62720817
 10
-24.2222031169
 20
5.6229598373
 10
-24.216181138
 20
5.6195556934
  0
LINE
  5
26E
100
AcDbEntity
  8
ASSI
100
AcDbLine
 62
7
  6
CONTINUOUS
 10
-24.2635839027
 20
5.6459617219
 30
0.0
 11
-24.2074499064
 21
5.6147094418
 31
0.0
  0
LINE
  5
26F
100
AcDbEntity
  8
ASSI
100
AcDbLine
 62
7
  6
CONTINUOUS
 10
-24.2635839027
 20
5.6459617219
 30
0.0
 11
-24.2506071971
 21
5.6385524806
 31
0.0
  0
LINE
  5
270
100
AcDbEntity
  8
ASSI
100
AcDbLine
 62
7
  6
CONTINUOUS
 10
-24.1642793055
 20
8.3332926718
 30
0.0
 11
-23.9905502693
 21
8.2329837036
 31
0.0
  0
LINE
  5
271
100
AcDbEntity
  8
ASSI
100
AcDbLine
 62
7
  6
CONTINUOUS
 10
-24.2089321494
 20
5.6155385271
 30
0.0
 11
-24.2075878693
 21
5.6147536848
 31
0.0
  0
LWPOLYLINE
  5
272
100
AcDbEntity
  8
ASSI
100
AcDbPolyline
 62
7
  6
CONTINUOUS
 90
4
 70
0
 10
-14.7150182582
 20
-14.2982334131
 10
-14.6978580868
 20
-14.279653803
 10
-14.5994946027
 20
-14.1796817319
 10
-14.5483565795
 20
-14.1302094164
  0
LINE
  5
273
100
AcDbEntity
  8
ASSI
100
AcDbLine
 62
250
  6
CONTINUOUS
 10
-14.5356754203
 20
-14.0309379316
 30
0.0
 11
-11.0443831389
 21
-10.7108042848
 31
0.0
  0
LINE
  5
274
100
AcDbEntity
  8
ASSI
100
AcDbLine
 62
7
  6
CONTINUOUS
 10
-14.5483452441
 20
-14.1301986399
 30
0.0
 11
-11.2143819403
 21
-10.9596810063
 31
0.0
  0
LINE
  5
275
100
AcDbEntity
  8
ASSI
100
AcDbLine
 62
7
  6
CONTINUOUS
 10
-15.7051756023
 20
-9.8656962241
 30
0.0
 11
-18.7627887632
 21
-11.9611014541
 31
0.0
  0
LINE
  5
276
100
AcDbEntity
  8
ASSI
100
AcDbLine
 62
250
  6
CONTINUOUS
 10
28.4215673775
 20
17.7551890121
 30
0.0
 11
30.8223676298
 21
19.1413676469
 31
0.0
  0
LINE
  5
277
100
AcDbEntity
  8
ASSI
100
AcDbLine
 62
7
  6
CONTINUOUS
 10
-14.5553346287
 20
-8.4755967992
 30
0.0
 11
-14.8002688057
 21
-8.6074748768
 31
0.0
  0
LINE
  5
278
100
AcDbEntity
  8
ASSI
100
AcDbLine
 62
250
  6
CONTINUOUS
 10
32.0996520672
 20
19.2150590163
 30
0.0
 11
31.2588087666
 21
18.7804488705
 31
0.0
  0
LINE
  5
279
100
AcDbEntity
  8
ASSI
100
AcDbLine
 62
250
  6
CONTINUOUS
 10
-24.1642793055
 20
-7.4041719134
 30
0.0
 11
-24.2074518628
 21
-7.4242882675
 31
0.0
  0
LINE
  5
27A
100
AcDbEntity
  8
ASSI
100
AcDbLine
 62
250
  6
CONTINUOUS
 10
-25.3056867247
 20
-8.0543609288
 30
0.0
 11
-24.8888716705
 21
-7.9048035432
 31
0.0
  0
LINE
  5
27B
100
AcDbEntity
  8
ASSI
100
AcDbLine
 62
250
  6
CONTINUOUS
 10
-24.7793577641
 20
-8.9085694452
 30
0.0
 11
-24.3702663487
 21
-8.7617833781
 31
0.0
  0
LINE
  5
27C
100
AcDbEntity
  8
ASSI
100
AcDbLine
 62
7
  6
CONTINUOUS
 10
-3.3965546198
 20
-20.8333724643
 30
0.0
 11
-3.3755797508
 21
-20.7449692142
 31
0.0
  0
LINE
  5
27D
100
AcDbEntity
  8
ASSI
100
AcDbLine
 62
7
  6
CONTINUOUS
 10
-13.1436434087
 20
-11.3446928091
 30
0.0
 11
-15.9949138088
 21
-13.5592377631
 31
0.0
  0
LINE
  5
27E
100
AcDbEntity
  8
ASSI
100
AcDbLine
 62
250
  6
CONTINUOUS
 10
32.5839750721
 20
18.3761869656
 30
0.0
 11
31.7872179345
 21
17.8652634658
 31
0.0
  0
LINE
  5
27F
100
AcDbEntity
  8
ASSI
100
AcDbLine
 62
7
  6
CONTINUOUS
 10
-12.0713993542
 20
-9.9097898957
 30
0.0
 11
-12.2998041693
 21
-10.0512118197
 31
0.0
  0
LINE
  5
280
100
AcDbEntity
  8
ASSI
100
AcDbLine
 62
250
  6
CONTINUOUS
 10
29.4807739513
 20
15.9205894123
 30
0.0
 11
31.8815742037
 21
17.3067680471
 31
0.0
  0
LWPOLYLINE
  5
281
100
AcDbEntity
  8
ASSI
100
AcDbPolyline
 62
7
  6
CONTINUOUS
 90
4
 70
0
 10
-24.2393833447
 20
20.3288080705
 10
-24.2299173333
 20
20.3236731522
 10
-24.2222031169
 20
20.3194248195
 10
-24.216181138
 20
20.3160206756
  0
LINE
  5
282
100
AcDbEntity
  8
ASSI
100
AcDbLine
 62
7
  6
CONTINUOUS
 10
-24.2635839027
 20
20.3424267042
 30
0.0
 11
-24.2074499064
 21
20.3111744241
 31
0.0
  0
LINE
  5
283
100
AcDbEntity
  8
ASSI
100
AcDbLine
 62
7
  6
CONTINUOUS
 10
-24.2635839027
 20
20.3424267042
 30
0.0
 11
-24.2506071971
 21
20.3350174629
 31
0.0
  0
LINE
  5
284
100
AcDbEntity
  8
ASSI
100
AcDbLine
 62
7
  6
CONTINUOUS
 10
-24.1642793055
 20
23.029757654
 30
0.0
 11
-23.9905502693
 21
22.9294486859
 31
0.0
  0
LINE
  5
285
100
AcDbEntity
  8
ASSI
100
AcDbLine
 62
7
  6
CONTINUOUS
 10
-24.2089321494
 20
20.3120035094
 30
0.0
 11
-24.2075878693
 21
20.3112186671
 31
0.0
  0
LINE
  5
286
100
AcDbEntity
  8
ASSI
100
AcDbLine
 62
7
  6
CONTINUOUS
 10
7.9381287482
 20
-27.2773627075
 30
0.0
 11
7.9171538792
 21
-27.3657659576
 31
0.0
  0
LINE
  5
287
100
AcDbEntity
  8
ASSI
100
AcDbLine
 62
250
  6
CONTINUOUS
 10
-3.7454072907
 20
-20.6319493043
 30
0.0
 11
-3.4720925073
 21
-20.4741402319
 31
0.0
  0
LINE
  5
288
100
AcDbEntity
  8
ASSI
100
AcDbLine
 62
250
  6
CONTINUOUS
 10
-3.3755797508
 20
-20.7449692142
 30
0.0
 11
-3.4626215639
 21
-20.7952262388
 31
0.0
  0
LINE
  5
289
100
AcDbEntity
  8
ASSI
100
AcDbLine
 62
7
  6
CONTINUOUS
 10
-6.3050658521
 20
-19.154034531
 30
0.0
 11
-6.0761804021
 21
-19.030947343
 31
0.0
  0
LINE
  5
28A
100
AcDbEntity
  8
ASSI
100
AcDbLine
 62
250
  6
CONTINUOUS
 10
-5.9649015199
 20
-19.0348235503
 30
0.0
 11
-6.2479272633
 21
-19.187025636
 31
0.0
  0
LINE
  5
28B
100
AcDbEntity
  8
ASSI
100
AcDbLine
 62
7
  6
CONTINUOUS
 10
-25.4619837405
 20
34.7049673911
 30
0.0
 11
21.8913947955
 21
7.3637201016
 31
0.0
  0
LINE
  5
28C
100
AcDbEntity
  8
ASSI
100
AcDbLine
 62
250
  6
CONTINUOUS
 10
-25.5241085268
 20
34.8422884494
 30
0.0
 11
21.829270009
 21
7.5010411601
 31
0.0
  0
LWPOLYLINE
  5
28D
100
AcDbEntity
  8
ASSI
100
AcDbPolyline
 62
7
  6
CONTINUOUS
 90
24
 70
0
 10
21.891432391
 20
7.3636984053
 10
21.9095254433
 20
7.3527025256
 10
21.9334500794
 20
7.3365351271
 10
21.958784637
 20
7.3174511788
 10
21.9850177625
 20
7.2955788491
 10
22.0118650092
 20
7.2709416958
 10
22.0390677015
 20
7.2435724096
 10
22.0661814308
 20
7.2137430276
 10
22.092929838
 20
7.1816172479
 10
22.1190557121
 20
7.1473751132
 10
22.1441866273
 20
7.1114084401
 10
22.168096504
 20
7.073980061
 10
22.1905796524
 20
7.0353678166
 10
22.2113588208
 20
6.9960442523
 10
22.23029087
 20
6.9563236525
 10
22.2472542831
 20
6.9165334778
 10
22.2620867097
 20
6.8771946338
 10
22.2747542026
 20
6.8386215876
 10
22.2852468795
 20
6.8011352335
 10
22.29354181
 20
6.7652608024
 10
22.2997324885
 20
6.7312456386
 10
22.3039337767
 20
6.6993530253
 10
22.3062811145
 20
6.6700949351
 10
22.3070013244
 20
6.6439272216
  0
LINE
  5
28E
100
AcDbEntity
  8
ASSI
100
AcDbLine
 62
7
  6
CONTINUOUS
 10
22.3070013117
 20
6.6438768696
 30
0.0
 11
22.3070013117
 21
-36.2761613044
 31
0.0
  0
LINE
  5
28F
100
AcDbEntity
  8
ASSI
100
AcDbLine
 62
250
  6
CONTINUOUS
 10
22.3948692773
 20
6.5213944916
 30
0.0
 11
22.3948692773
 21
-36.3986436821
 31
0.0
  0
LWPOLYLINE
  5
290
100
AcDbEntity
  8
ASSI
100
AcDbPolyline
 62
7
  6
CONTINUOUS
 90
9
 70
0
 10
22.3070013223
 20
-36.2762073173
 10
22.3065722034
 20
-36.2954633916
 10
22.3050563464
 20
-36.3161706892
 10
22.3026015421
 20
-36.3346306034
 10
22.2993838506
 20
-36.3507534324
 10
22.2956767391
 20
-36.3642157047
 10
22.2919527901
 20
-36.3745013972
 10
22.2887349399
 20
-36.3814814762
 10
22.2881860323
 20
-36.3825144456
  0
LINE
  5
291
100
AcDbEntity
  8
ASSI
100
AcDbLine
 62
7
  6
CONTINUOUS
 10
5.0086426468
 20
-25.6864280242
 30
0.0
 11
5.2375280969
 21
-25.5633408362
 31
0.0
  0
LINE
  5
292
100
AcDbEntity
  8
ASSI
100
AcDbLine
 62
250
  6
CONTINUOUS
 10
5.3488069791
 20
-25.5672170435
 30
0.0
 11
5.0657812356
 21
-25.7194191293
 31
0.0
  0
LINE
  5
293
100
AcDbEntity
  8
ASSI
100
AcDbLine
 62
250
  6
CONTINUOUS
 10
28.7926552576
 20
-53.1962454441
 30
0.0
 11
28.7926552576
 21
15.9309933698
 31
0.0
  0
LINE
  5
294
100
AcDbEntity
  8
ASSI
100
AcDbLine
 62
250
  6
CONTINUOUS
 10
29.4807739513
 20
-53.2066494017
 30
0.0
 11
29.4807739513
 21
15.9205894123
 31
0.0
  0
LINE
  5
295
100
AcDbEntity
  8
ASSI
100
AcDbLine
 62
250
  6
CONTINUOUS
 10
7.5683012083
 20
-27.1643427975
 30
0.0
 11
7.8416159917
 21
-27.0065337251
 31
0.0
  0
LINE
  5
296
100
AcDbEntity
  8
ASSI
100
AcDbLine
 62
250
  6
CONTINUOUS
 10
7.9381287482
 20
-27.2773627075
 30
0.0
 11
7.8510869351
 21
-27.327619732
 31
0.0
  0
LINE
  5
297
100
AcDbEntity
  8
ASSI
100
AcDbLine
 62
250
  6
CONTINUOUS
 10
28.0865175417
 20
17.1540597697
 30
0.0
 11
-31.7813560594
 21
51.7210196663
 31
0.0
  0
LINE
  5
298
100
AcDbEntity
  8
ASSI
100
AcDbLine
 62
250
  6
CONTINUOUS
 10
28.4215673775
 20
17.7551890121
 30
0.0
 11
-31.4463062236
 21
52.3221489086
 31
0.0
  0
LINE
  5
299
100
AcDbEntity
  8
ASSI
100
AcDbLine
 62
7
  6
CONTINUOUS
 10
31.8815742037
 20
-52.0965623127
 30
0.0
 11
31.8815742037
 21
17.3067680471
 31
0.0
  0
LINE
  5
29A
100
AcDbEntity
  8
ASSI
100
AcDbLine
 62
250
  6
CONTINUOUS
 10
32.5839750721
 20
18.3761869656
 30
0.0
 11
32.5839750721
 21
-51.0204251226
 31
0.0
  0
LINE
  5
29B
100
AcDbEntity
  8
ASSI
100
AcDbLine
 62
7
  6
CONTINUOUS
 10
32.635346107
 20
18.4534564908
 30
0.0
 11
32.635346107
 21
-50.9431555975
 31
0.0
  0
LINE
  5
29C
100
AcDbEntity
  8
ASSI
100
AcDbLine
 62
7
  6
CONTINUOUS
 10
20.5550702536
 20
-29.0212045432
 30
0.0
 11
20.0721048403
 21
-29.820089555
 31
0.0
  0
LINE
  5
29D
100
AcDbEntity
  8
ASSI
100
AcDbLine
 62
7
  6
CONTINUOUS
 10
30.8223676298
 20
19.1413676469
 30
0.0
 11
-29.2846159668
 21
53.8463866582
 31
0.0
  0
LINE
  5
29E
100
AcDbEntity
  8
ASSI
100
AcDbLine
 62
250
  6
CONTINUOUS
 10
-28.0015131481
 20
53.9167185672
 30
0.0
 11
32.0996520672
 21
19.2150590163
 31
0.0
  0
LINE
  5
29F
100
AcDbEntity
  8
ASSI
100
AcDbLine
 62
7
  6
CONTINUOUS
 10
-27.908909738
 20
53.9225771033
 30
0.0
 11
32.1922554774
 21
19.2209175524
 31
0.0
  0
LINE
  5
2A0
100
AcDbEntity
  8
ASSI
100
AcDbLine
 62
7
  6
CONTINUOUS
 10
19.650163457
 20
-30.2794258905
 30
0.0
 11
16.5925502962
 21
-32.3748311205
 31
0.0
  0
LINE
  5
2A1
100
AcDbEntity
  8
ASSI
100
AcDbLine
 62
7
  6
CONTINUOUS
 10
20.8000044306
 20
-28.8893264655
 30
0.0
 11
20.5550702536
 21
-29.0212045432
 31
0.0
  0
LWPOLYLINE
  5
2A2
100
AcDbEntity
  8
ASSI
100
AcDbPolyline
 62
7
  6
CONTINUOUS
 90
4
 70
0
 10
20.6403208011
 20
-34.7119630795
 10
20.6574809726
 20
-34.6933834694
 10
20.7558444566
 20
-34.5934113983
 10
20.8069824798
 20
-34.5439390828
  0
LINE
  5
2A3
100
AcDbEntity
  8
ASSI
100
AcDbLine
 62
250
  6
CONTINUOUS
 10
20.819663639
 20
-34.444667598
 30
0.0
 11
22.3070013117
 21
-33.0302458157
 31
0.0
  0
LINE
  5
2A4
100
AcDbEntity
  8
ASSI
100
AcDbLine
 62
7
  6
CONTINUOUS
 10
20.8069938153
 20
-34.5439283063
 30
0.0
 11
22.3070013117
 21
-33.1174578312
 31
0.0
  0
LINE
  5
2A5
100
AcDbEntity
  8
ASSI
100
AcDbLine
 62
7
  6
CONTINUOUS
 10
22.2116956506
 20
-31.7584224755
 30
0.0
 11
19.3604252506
 21
-33.9729674295
 31
0.0
  0
LINE
  5
2A6
100
AcDbEntity
  8
ASSI
100
AcDbLine
 62
250
  6
CONTINUOUS
 10
22.0376998289
 20
-36.3599019497
 30
0.0
 11
22.3070013117
 21
-36.1933618731
 31
0.0
  0
LINE
  5
2A7
100
AcDbEntity
  8
ASSI
100
AcDbLine
 62
7
  6
CONTINUOUS
 10
22.2904984979
 20
-36.3830267734
 30
0.0
 11
22.29040167
 21
-36.3830866076
 31
0.0
  0
LINE
  5
2A8
100
AcDbEntity
  8
ASSI
100
AcDbLine
 62
7
  6
CONTINUOUS
 10
31.8815742037
 20
-51.7080284094
 30
0.0
 11
32.4545913934
 21
-51.3262112588
 31
0.0
  0
LINE
  5
2A9
100
AcDbEntity
  8
ASSI
100
AcDbLine
 62
250
  6
CONTINUOUS
 10
32.5839750721
 20
-51.0204251226
 30
0.0
 11
31.8815742037
 21
-51.4708423112
 31
0.0
  0
LINE
  5
2AA
100
AcDbEntity
  8
ASSI
100
AcDbLine
 62
250
  6
CONTINUOUS
 10
29.4807739513
 20
-53.2066494017
 30
0.0
 11
31.8815742037
 21
-52.0965623127
 31
0.0
  0
LINE
  5
2AB
100
AcDbEntity
  8
ASSI
100
AcDbLine
 62
7
  6
CONTINUOUS
 10
29.122593055
 20
-53.9171380278
 30
0.0
 11
31.5313854721
 21
-52.8033555048
 31
0.0
  0
ARC
  5
2AC
100
AcDbEntity
  8
ASSI
100
AcDbCircle
 62
250
  6
CONTINUOUS
 10
24.1563142
 20
-37.937415657
 30
0.0
 40
4.8305433551
100
AcDbArc
 50
135.5217330339
 51
137.6204552134
  0
ARC
  5
2AD
100
AcDbEntity
  8
ASSI
100
AcDbCircle
 62
250
  6
CONTINUOUS
 10
-11.1990248593
 20
-17.5236859906
 30
0.0
 40
4.8305433551
100
AcDbArc
 50
135.5217330339
 51
137.6204552134
  0
ARC
  5
2AE
100
AcDbEntity
  8
ASSI
100
AcDbCircle
 62
250
  6
CONTINUOUS
 10
24.0008189521
 20
-37.7861065796
 30
0.0
 40
4.6135820816
100
AcDbArc
 50
134.5652515087
 51
135.5095066396
  0
ARC
  5
2AF
100
AcDbEntity
  8
ASSI
100
AcDbCircle
 62
250
  6
CONTINUOUS
 10
-11.3545201073
 20
-17.3723769131
 30
0.0
 40
4.6135820815
100
AcDbArc
 50
134.5652515087
 51
135.5095066396
  0
ARC
  5
2B0
100
AcDbEntity
  8
ASSI
100
AcDbCircle
 62
250
  6
CONTINUOUS
 10
23.9079451614
 20
-37.6917659012
 30
0.0
 40
4.4811974016
100
AcDbArc
 50
133.5639967732
 51
134.5656702353
  0
ARC
  5
2B1
100
AcDbEntity
  8
ASSI
100
AcDbCircle
 62
250
  6
CONTINUOUS
 10
-11.447393898
 20
-17.2780362347
 30
0.0
 40
4.4811974015
100
AcDbArc
 50
133.5639967732
 51
134.5656702353
  0
ARC
  5
2B2
100
AcDbEntity
  8
ASSI
100
AcDbCircle
 62
250
  6
CONTINUOUS
 10
-25.1692323751
 20
-8.3598925643
 30
0.0
 40
0.5534156992
100
AcDbArc
 50
359.9911314409
 51
3.0661936647
  0
ARC
  5
2B3
100
AcDbEntity
  8
ASSI
100
AcDbCircle
 62
250
  6
CONTINUOUS
 10
-25.4840147866
 20
34.597547817
 30
0.0
 40
0.166414401
100
AcDbArc
 50
118.3057535335
 51
120.5629411379
  0
ARC
  5
2B4
100
AcDbEntity
  8
ASSI
100
AcDbCircle
 62
250
  6
CONTINUOUS
 10
-27.9424480487
 20
53.8645234088
 30
0.0
 40
0.0670373801
100
AcDbArc
 50
59.9844610007
 51
62.7330769028
  0
SPLINE
  5
2B5
100
AcDbEntity
  8
ASSI
100
AcDbSpline
 62
7
  6
CONTINUOUS
 70
0
 71
3
 72
11
 73
7
 74
0
 42
0.0000001
 43
0.0000001
 44
0.0000000001
 40
0.0
 40
0.0
 40
0.0
 40
0.0
 40
0.2915028108
 40
0.5502118295
 40
0.7818910569
 40
1.0
 40
1.0
 40
1.0
 40
1.0
 10
-29.2846159668
 20
53.8463866582
 30
0.0
 10
-29.35453085
 20
53.8867546355
 30
0.0
 10
-29.4935007335
 20
53.9519802845
 30
0.0
 10
-29.7072420026
 20
53.9990021176
 30
0.0
 10
-29.9062098348
 20
53.9843406063
 30
0.0
 10
-30.0225646971
 20
53.9313562108
 30
0.0
 10
-30.0719052377
 20
53.8965088356
 30
0.0
  0
SPLINE
  5
2B6
100
AcDbEntity
  8
ASSI
100
AcDbSpline
 62
7
  6
CONTINUOUS
 70
0
 71
3
 72
15
 73
11
 74
0
 42
0.0000001
 43
0.0000001
 44
0.0000000001
 40
0.0
 40
0.0
 40
0.0
 40
0.0
 40
0.1142413001
 40
0.2374032818
 40
0.3670261888
 40
0.4999939441
 40
0.6329625441
 40
0.7625879086
 40
0.8857537676
 40
1.0
 40
1.0
 40
1.0
 40
1.0
 10
31.8815742037
 20
17.3067680471
 30
0.0
 10
31.8815742037
 20
17.3905627818
 30
0.0
 10
31.8661410943
 20
17.5648440427
 30
0.0
 10
31.8052220721
 20
17.8277911918
 30
0.0
 10
31.7071824716
 20
18.0939410912
 30
0.0
 10
31.5763133327
 20
18.3535763871
 30
0.0
 10
31.4168960696
 20
18.5967314766
 30
0.0
 10
31.2354204921
 20
18.8147156755
 30
0.0
 10
31.038156691
 20
18.9989539809
 30
0.0
 10
30.8949379629
 20
19.0994664461
 30
0.0
 10
30.8223676298
 20
19.1413676469
 30
0.0
  0
SPLINE
  5
2B7
100
AcDbEntity
  8
ASSI
100
AcDbSpline
 62
7
  6
CONTINUOUS
 70
0
 71
3
 72
10
 73
6
 74
0
 42
0.0000001
 43
0.0000001
 44
0.0000000001
 40
0.0
 40
0.0
 40
0.0
 40
0.0
 40
0.2469520892
 40
0.4944084819
 40
1.0
 40
1.0
 40
1.0
 40
1.0
 10
-28.3310726342
 20
53.9575707201
 30
0.0
 10
-28.2986693572
 20
53.9736041269
 30
0.0
 10
-28.2284735326
 20
53.9959367968
 30
0.0
 10
-28.0806127216
 20
53.9994064121
 30
0.0
 10
-27.9730093744
 20
53.95958743
 30
0.0
 10
-27.908909738
 20
53.9225771033
 30
0.0
  0
SPLINE
  5
2B8
100
AcDbEntity
  8
ASSI
100
AcDbSpline
 62
7
  6
CONTINUOUS
 70
0
 71
3
 72
11
 73
7
 74
0
 42
0.0000001
 43
0.0000001
 44
0.0000000001
 40
0.0
 40
0.0
 40
0.0
 40
0.0
 40
0.2426742621
 40
0.5000121689
 40
0.757344501
 40
1.0
 40
1.0
 40
1.0
 40
1.0
 10
32.1922554774
 20
19.2209175524
 30
0.0
 10
32.2567091537
 20
19.1837028075
 30
0.0
 10
32.3769160942
 20
19.0845664847
 30
0.0
 10
32.5156848627
 20
18.8959980546
 30
0.0
 10
32.6095992763
 20
18.6815401685
 30
0.0
 10
32.635346107
 20
18.5278766299
 30
0.0
 10
32.635346107
 20
18.4534564908
 30
0.0
  0
SPLINE
  5
2B9
100
AcDbEntity
  8
ASSI
100
AcDbSpline
 62
7
  6
CONTINUOUS
 70
0
 71
3
 72
10
 73
6
 74
0
 42
0.0000001
 43
0.0000001
 44
0.0000000001
 40
0.0
 40
0.0
 40
0.0
 40
0.0
 40
0.5055872761
 40
0.7530380316
 40
1.0
 40
1.0
 40
1.0
 40
1.0
 10
32.635346107
 20
-50.9431555975
 30
0.0
 10
32.635346107
 20
-51.0171628932
 30
0.0
 10
32.6160274026
 20
-51.1302424676
 30
0.0
 10
32.5391056502
 20
-51.2565452098
 30
0.0
 10
32.4846747312
 20
-51.3061659015
 30
0.0
 10
32.4545913934
 20
-51.3262112588
 30
0.0
  0
SPLINE
  5
2BA
100
AcDbEntity
  8
ASSI
100
AcDbSpline
 62
7
  6
CONTINUOUS
 70
0
 71
3
 72
11
 73
7
 74
0
 42
0.0000001
 43
0.0000001
 44
0.0000000001
 40
0.0
 40
0.0
 40
0.0
 40
0.0
 40
0.2181144452
 40
0.4497960477
 40
0.7085029639
 40
1.0
 40
1.0
 40
1.0
 40
1.0
 10
31.5313757913
 20
-52.8033374699
 30
0.0
 10
31.5862170113
 20
-52.7780308503
 30
0.0
 10
31.6902643277
 20
-52.7037629053
 30
0.0
 10
31.802431183
 20
-52.5388054329
 30
0.0
 10
31.8685741952
 20
-52.3302215205
 30
0.0
 10
31.8815742037
 20
-52.1772813923
 30
0.0
 10
31.8815742037
 20
-52.0965623127
 30
0.0
  0
SPLINE
  5
2BB
100
AcDbEntity
  8
ASSI
100
AcDbSpline
 62
7
  6
CONTINUOUS
 70
0
 71
3
 72
10
 73
6
 74
0
 42
0.0000001
 43
0.0000001
 44
0.0000000001
 40
0.0
 40
0.0
 40
0.0
 40
0.0
 40
0.5477446603
 40
0.7816752938
 40
1.0
 40
1.0
 40
1.0
 40
1.0
 10
-24.1354250019
 20
12.0500677582
 30
0.0
 10
-24.1354250019
 20
12.030955412
 30
0.0
 10
-24.1394873089
 20
12.0027976938
 30
0.0
 10
-24.1579422114
 20
11.9726640283
 30
0.0
 10
-24.170301902
 20
11.9622845419
 30
0.0
 10
-24.1769047364
 20
11.9584850808
 30
0.0
  0
SPLINE
  5
2BC
100
AcDbEntity
  8
ASSI
100
AcDbSpline
 62
7
  6
CONTINUOUS
 70
0
 71
3
 72
9
 73
5
 74
0
 42
0.0000001
 43
0.0000001
 44
0.0000000001
 40
0.0
 40
0.0
 40
0.0
 40
0.0
 40
0.5224485131
 40
1.0
 40
1.0
 40
1.0
 40
1.0
 10
-24.2073005968
 20
16.3977518078
 30
0.0
 10
-24.1853421897
 20
16.3707467924
 30
0.0
 10
-24.1512783238
 20
16.3123799324
 30
0.0
 10
-24.1354250019
 20
16.2458808899
 30
0.0
 10
-24.1354250019
 20
16.2140661698
 30
0.0
  0
SPLINE
  5
2BD
100
AcDbEntity
  8
ASSI
100
AcDbSpline
 62
250
  6
CONTINUOUS
 70
0
 71
3
 72
15
 73
11
 74
0
 42
0.0000001
 43
0.0000001
 44
0.0000000001
 40
0.0
 40
0.0
 40
0.0
 40
0.0
 40
0.1448930637
 40
0.2745074115
 40
0.3910890502
 40
0.4999657034
 40
0.6088417829
 40
0.7254215549
 40
0.8550690553
 40
1.0
 40
1.0
 40
1.0
 40
1.0
 10
-26.0897077951
 20
34.5157816388
 30
0.0
 10
-26.0897060409
 20
34.5563218257
 30
0.0
 10
-26.0835830533
 20
34.6333957016
 30
0.0
 10
-26.0523632987
 20
34.7392669038
 30
0.0
 10
-25.999781581
 20
34.8252383826
 30
0.0
 10
-25.9267906415
 20
34.8866376556
 30
0.0
 10
-25.8371236637
 20
34.9191520639
 30
0.0
 10
-25.7363706455
 20
34.9217110125
 30
0.0
 10
-25.6290548395
 20
34.8958047164
 30
0.0
 10
-25.5592268353
 20
34.8625633264
 30
0.0
 10
-25.5241085268
 20
34.8422884494
 30
0.0
  0
SPLINE
  5
2BE
100
AcDbEntity
  8
ASSI
100
AcDbSpline
 62
250
  6
CONTINUOUS
 70
0
 71
3
 72
11
 73
7
 74
0
 42
0.0000001
 43
0.0000001
 44
0.0000000001
 40
0.0
 40
0.0
 40
0.0
 40
0.0
 40
0.21781102
 40
0.4519571045
 40
0.7115312406
 40
1.0
 40
1.0
 40
1.0
 40
1.0
 10
-28.3310714721
 20
53.9575686042
 30
0.0
 10
-28.3086294068
 20
53.9686759053
 30
0.0
 10
-28.2578937982
 20
53.9839485114
 30
0.0
 10
-28.1751359693
 20
53.9833244339
 30
0.0
 10
-28.0873672441
 20
53.9607355752
 30
0.0
 10
-28.0302330352
 20
53.93330107
 30
0.0
 10
-28.0015131481
 20
53.9167185672
 30
0.0
  0
SPLINE
  5
2BF
100
AcDbEntity
  8
ASSI
100
AcDbSpline
 62
250
  6
CONTINUOUS
 70
0
 71
3
 72
13
 73
9
 74
0
 42
0.0000001
 43
0.0000001
 44
0.0000000001
 40
0.0
 40
0.0
 40
0.0
 40
0.0
 40
0.1138283961
 40
0.2370237018
 40
0.4999691656
 40
0.7629257133
 40
0.886149009
 40
1.0
 40
1.0
 40
1.0
 40
1.0
 10
29.4807739513
 20
15.9205894123
 30
0.0
 10
29.479441817
 20
16.0037862452
 30
0.0
 10
29.4617335975
 20
16.1769492338
 30
0.0
 10
29.3750429122
 20
16.5328374418
 30
0.0
 10
29.180199293
 20
16.9700488388
 30
0.0
 10
28.8989883928
 20
17.3574222447
 30
0.0
 10
28.6341007843
 20
17.6104824262
 30
0.0
 10
28.4929646796
 20
17.7124261574
 30
0.0
 10
28.4215673775
 20
17.7551890121
 30
0.0
  0
SPLINE
  5
2C0
100
AcDbEntity
  8
ASSI
100
AcDbSpline
 62
250
  6
CONTINUOUS
 70
0
 71
3
 72
11
 73
7
 74
0
 42
0.0000001
 43
0.0000001
 44
0.0000000001
 40
0.0
 40
0.0
 40
0.0
 40
0.0
 40
0.2372088344
 40
0.4999770365
 40
0.7627420139
 40
1.0
 40
1.0
 40
1.0
 40
1.0
 10
-25.5241085268
 20
-9.3839032034
 30
0.0
 10
-25.6043940907
 20
-9.3375426933
 30
0.0
 10
-25.7563525058
 20
-9.2096726531
 30
0.0
 10
-25.933710348
 20
-8.9673218345
 30
0.0
 10
-26.0549361543
 20
-8.6925390917
 30
0.0
 10
-26.0897026691
 20
-8.4969853383
 30
0.0
 10
-26.0897077951
 20
-8.404256535
 30
0.0
  0
SPLINE
  5
2C1
100
AcDbEntity
  8
ASSI
100
AcDbSpline
 62
250
  6
CONTINUOUS
 70
0
 71
3
 72
11
 73
7
 74
0
 42
0.0000001
 43
0.0000001
 44
0.0000000001
 40
0.0
 40
0.0
 40
0.0
 40
0.0
 40
0.2371961319
 40
0.4999693619
 40
0.762753566
 40
1.0
 40
1.0
 40
1.0
 40
1.0
 10
-32.4874937753
 20
-17.8138554132
 30
0.0
 10
-32.4874905188
 20
-17.9295998892
 30
0.0
 10
-32.4441742729
 20
-18.1737357982
 30
0.0
 10
-32.2928945044
 20
-18.5168343307
 30
0.0
 10
-32.0714001744
 20
-18.8194249797
 30
0.0
 10
-31.8816113314
 20
-18.9790309943
 30
0.0
 10
-31.7813560594
 20
-19.036921813
 30
0.0
  0
SPLINE
  5
2C2
100
AcDbEntity
  8
ASSI
100
AcDbSpline
 62
7
  6
CONTINUOUS
 70
0
 71
3
 72
9
 73
5
 74
0
 42
0.0000001
 43
0.0000001
 44
0.0000000001
 40
0.0
 40
0.0
 40
0.0
 40
0.0
 40
0.4926371443
 40
1.0
 40
1.0
 40
1.0
 40
1.0
 10
-24.2074499171
 20
22.6369356205
 30
0.0
 10
-24.2074434821
 20
22.6038760179
 30
0.0
 10
-24.2195061609
 20
22.536718363
 30
0.0
 10
-24.2467127112
 20
22.474821426
 30
0.0
 10
-24.2635839027
 20
22.445247517
 30
0.0
  0
SPLINE
  5
2C3
100
AcDbEntity
  8
ASSI
100
AcDbSpline
 62
7
  6
CONTINUOUS
 70
0
 71
3
 72
9
 73
5
 74
0
 42
0.0000001
 43
0.0000001
 44
0.0000000001
 40
0.0
 40
0.0
 40
0.0
 40
0.0
 40
0.4926371443
 40
1.0
 40
1.0
 40
1.0
 40
1.0
 10
-24.2074499171
 20
7.9404706382
 30
0.0
 10
-24.2074434821
 20
7.9074110356
 30
0.0
 10
-24.2195061609
 20
7.8402533807
 30
0.0
 10
-24.2467127112
 20
7.7783564438
 30
0.0
 10
-24.2635839027
 20
7.7487825347
 30
0.0
  0
SPLINE
  5
2C4
100
AcDbEntity
  8
ASSI
100
AcDbSpline
 62
7
  6
CONTINUOUS
 70
0
 71
3
 72
10
 73
6
 74
0
 42
0.0000001
 43
0.0000001
 44
0.0000000001
 40
0.0
 40
0.0
 40
0.0
 40
0.0
 40
0.5088819435
 40
0.7643935224
 40
1.0
 40
1.0
 40
1.0
 40
1.0
 10
-24.2074512024
 20
16.3092732411
 30
0.0
 10
-24.2074514976
 20
16.2844413522
 30
0.0
 10
-24.211591541
 20
16.2471644256
 30
0.0
 10
-24.2197200161
 20
16.1991278074
 30
0.0
 10
-24.2226042881
 20
16.175226821
 30
0.0
 10
-24.2226042881
 20
16.1637299425
 30
0.0
  0
SPLINE
  5
2C5
100
AcDbEntity
  8
ASSI
100
AcDbSpline
 62
7
  6
CONTINUOUS
 70
0
 71
3
 72
9
 73
5
 74
0
 42
0.0000001
 43
0.0000001
 44
0.0000000001
 40
0.0
 40
0.0
 40
0.0
 40
0.0
 40
0.4926371443
 40
1.0
 40
1.0
 40
1.0
 40
1.0
 10
-24.2074499171
 20
-7.796993947
 30
0.0
 10
-24.2074434821
 20
-7.8300535496
 30
0.0
 10
-24.2195061609
 20
-7.8972112045
 30
0.0
 10
-24.2467127112
 20
-7.9591081414
 30
0.0
 10
-24.2635839027
 20
-7.9886820505
 30
0.0
  0
SPLINE
  5
2C6
100
AcDbEntity
  8
ASSI
100
AcDbSpline
 62
250
  6
CONTINUOUS
 70
0
 71
3
 72
15
 73
11
 74
0
 42
0.0000001
 43
0.0000001
 44
0.0000000001
 40
0.0
 40
0.0
 40
0.0
 40
0.0
 40
0.1449060871
 40
0.2745322401
 40
0.3911239976
 40
0.4999911801
 40
0.6088537254
 40
0.7254418835
 40
0.8550815055
 40
1.0
 40
1.0
 40
1.0
 40
1.0
 10
-31.7813560594
 20
51.7210196663
 30
0.0
 10
-31.8252027745
 20
51.7463345653
 30
0.0
 10
-31.9123752563
 20
51.7878587309
 30
0.0
 10
-32.0463577021
 20
51.8202671246
 30
0.0
 10
-32.172171483
 20
51.8171626668
 30
0.0
 10
-32.2841614376
 20
51.7765995095
 30
0.0
 10
-32.3753036172
 20
51.6999185105
 30
0.0
 10
-32.4409217897
 20
51.5925233226
 30
0.0
 10
-32.4798612148
 20
51.4602820407
 30
0.0
 10
-32.487492002
 20
51.3640175545
 30
0.0
 10
-32.4874937753
 20
51.3133834008
 30
0.0
  0
SPLINE
  5
2C7
100
AcDbEntity
  8
ASSI
100
AcDbSpline
 62
250
  6
CONTINUOUS
 70
0
 71
3
 72
11
 73
7
 74
0
 42
0.0000001
 43
0.0000001
 44
0.0000000001
 40
0.0
 40
0.0
 40
0.0
 40
0.0
 40
0.2371961319
 40
0.4999693619
 40
0.762753566
 40
1.0
 40
1.0
 40
1.0
 40
1.0
 10
28.7926552576
 20
15.9309933698
 30
0.0
 10
28.792652001
 20
16.0467378459
 30
0.0
 10
28.7493357552
 20
16.2908737549
 30
0.0
 10
28.5980559866
 20
16.6339722874
 30
0.0
 10
28.3765616566
 20
16.9365629364
 30
0.0
 10
28.1867728136
 20
17.0961689509
 30
0.0
 10
28.0865175417
 20
17.1540597697
 30
0.0
  0
SPLINE
  5
2C8
100
AcDbEntity
  8
ASSI
100
AcDbSpline
 62
250
  6
CONTINUOUS
 70
0
 71
3
 72
11
 73
7
 74
0
 42
0.0000001
 43
0.0000001
 44
0.0000000001
 40
0.0
 40
0.0
 40
0.0
 40
0.0
 40
0.2283175193
 40
0.4615029791
 40
0.711708012
 40
1.0
 40
1.0
 40
1.0
 40
1.0
 10
-24.8888716705
 20
-7.9048035432
 30
0.0
 10
-24.85710391
 20
-7.9288708116
 30
0.0
 10
-24.793381679
 20
-7.9782192071
 30
0.0
 10
-24.7055086401
 20
-8.0671879877
 30
0.0
 10
-24.6378033469
 20
-8.1859021552
 30
0.0
 10
-24.6193104642
 20
-8.2800389621
 30
0.0
 10
-24.6166089432
 20
-8.3302905605
 30
0.0
  0
SPLINE
  5
2C9
100
AcDbEntity
  8
ASSI
100
AcDbSpline
 62
250
  6
CONTINUOUS
 70
0
 71
3
 72
9
 73
5
 74
0
 42
0.0000001
 43
0.0000001
 44
0.0000000001
 40
0.0
 40
0.0
 40
0.0
 40
0.0
 40
0.4544653006
 40
1.0
 40
1.0
 40
1.0
 40
1.0
 10
-27.9117357795
 20
53.9241117202
 30
0.0
 10
-27.924218831
 20
53.9305455905
 30
0.0
 10
-27.9566869434
 20
53.9352754576
 30
0.0
 10
-27.9865375911
 20
53.9244590451
 30
0.0
 10
-28.0015131481
 20
53.9167185672
 30
0.0
  0
SPLINE
  5
2CA
100
AcDbEntity
  8
ASSI
100
AcDbSpline
 62
250
  6
CONTINUOUS
 70
0
 71
3
 72
9
 73
5
 74
0
 42
0.0000001
 43
0.0000001
 44
0.0000000001
 40
0.0
 40
0.0
 40
0.0
 40
0.0
 40
0.4536351044
 40
1.0
 40
1.0
 40
1.0
 40
1.0
 10
32.1922516007
 20
19.2209108395
 30
0.0
 10
32.1797092268
 20
19.2281568452
 30
0.0
 10
32.1461335248
 20
19.2342001602
 30
0.0
 10
32.1151502092
 20
19.2230696049
 30
0.0
 10
32.0996520672
 20
19.2150590163
 30
0.0
  0
SPLINE
  5
2CB
100
AcDbEntity
  8
ASSI
100
AcDbSpline
 62
250
  6
CONTINUOUS
 70
0
 71
3
 72
15
 73
11
 74
0
 42
0.0000001
 43
0.0000001
 44
0.0000000001
 40
0.0
 40
0.0
 40
0.0
 40
0.0
 40
0.1449060871
 40
0.2745322401
 40
0.3911239976
 40
0.4999911801
 40
0.6088537254
 40
0.7254418835
 40
0.8550815055
 40
1.0
 40
1.0
 40
1.0
 40
1.0
 10
28.0865175417
 20
-53.6038817096
 30
0.0
 10
28.1303642568
 20
-53.6291966086
 30
0.0
 10
28.2175367386
 20
-53.6707207743
 30
0.0
 10
28.3515191843
 20
-53.703129168
 30
0.0
 10
28.4773329652
 20
-53.7000247101
 30
0.0
 10
28.5893229199
 20
-53.6594615528
 30
0.0
 10
28.6804650995
 20
-53.5827805538
 30
0.0
 10
28.7460832719
 20
-53.475385366
 30
0.0
 10
28.785022697
 20
-53.3431440841
 30
0.0
 10
28.7926534842
 20
-53.2468795979
 30
0.0
 10
28.7926552576
 20
-53.1962454441
 30
0.0
  0
SPLINE
  5
2CC
100
AcDbEntity
  8
ASSI
100
AcDbSpline
 62
250
  6
CONTINUOUS
 70
0
 71
3
 72
9
 73
5
 74
0
 42
0.0000001
 43
0.0000001
 44
0.0000000001
 40
0.0
 40
0.0
 40
0.0
 40
0.0
 40
0.4536497345
 40
1.0
 40
1.0
 40
1.0
 40
1.0
 10
32.6353383565
 20
18.4534564901
 30
0.0
 10
32.6353419965
 20
18.4389712062
 30
0.0
 10
32.6237893479
 20
18.4068726786
 30
0.0
 10
32.598660353
 20
18.385603957
 30
0.0
 10
32.5839750721
 20
18.3761869656
 30
0.0
  0
SPLINE
  5
2CD
100
AcDbEntity
  8
ASSI
100
AcDbSpline
 62
250
  6
CONTINUOUS
 70
0
 71
3
 72
9
 73
5
 74
0
 42
0.0000001
 43
0.0000001
 44
0.0000000001
 40
0.0
 40
0.0
 40
0.0
 40
0.0
 40
0.4536497345
 40
1.0
 40
1.0
 40
1.0
 40
1.0
 10
32.6353383565
 20
-50.9431555981
 30
0.0
 10
32.6353419965
 20
-50.9576408821
 30
0.0
 10
32.6237893479
 20
-50.9897394096
 30
0.0
 10
32.598660353
 20
-51.0110081312
 30
0.0
 10
32.5839750721
 20
-51.0204251226
 30
0.0
  0
SPLINE
  5
2CE
100
AcDbEntity
  8
ASSI
100
AcDbSpline
 62
250
  6
CONTINUOUS
 70
0
 71
3
 72
9
 73
5
 74
0
 42
0.0000001
 43
0.0000001
 44
0.0000000001
 40
0.0
 40
0.0
 40
0.0
 40
0.0
 40
0.2404558759
 40
1.0
 40
1.0
 40
1.0
 40
1.0
 10
32.0996520672
 20
19.2150590163
 30
0.0
 10
32.1088224014
 20
19.2097641803
 30
0.0
 10
32.1464108841
 20
19.186798801
 30
0.0
 10
32.1818219922
 20
19.1603374644
 30
0.0
 10
32.2074239811
 20
19.1388118245
 30
0.0
  0
SPLINE
  5
2CF
100
AcDbEntity
  8
ASSI
100
AcDbSpline
 62
250
  6
CONTINUOUS
 70
0
 71
3
 72
11
 73
7
 74
0
 42
0.0000001
 43
0.0000001
 44
0.0000000001
 40
0.0
 40
0.0
 40
0.0
 40
0.0
 40
0.2496981171
 40
0.5122838383
 40
0.768323772
 40
1.0
 40
1.0
 40
1.0
 40
1.0
 10
32.2074239811
 20
19.1388118245
 30
0.0
 10
32.2630370153
 20
19.0920534984
 30
0.0
 10
32.3654822406
 20
18.9818966772
 30
0.0
 10
32.4838918955
 20
18.7907712623
 30
0.0
 10
32.5623352968
 20
18.5856598529
 30
0.0
 10
32.583975072
 20
18.4436006763
 30
0.0
 10
32.5839750721
 20
18.3761869656
 30
0.0
  0
SPLINE
  5
2D0
100
AcDbEntity
  8
ASSI
100
AcDbSpline
 62
250
  6
CONTINUOUS
 70
0
 71
3
 72
11
 73
7
 74
0
 42
0.0000001
 43
0.0000001
 44
0.0000000001
 40
0.0
 40
0.0
 40
0.0
 40
0.0
 40
0.2884633352
 40
0.5480355163
 40
0.7821837214
 40
1.0
 40
1.0
 40
1.0
 40
1.0
 10
32.5839750721
 20
-51.0204251226
 30
0.0
 10
32.5839750721
 20
-51.0535827327
 30
0.0
 10
32.5791661194
 20
-51.1167688083
 30
0.0
 10
32.5548467178
 20
-51.2040584885
 30
0.0
 10
32.5140143531
 20
-51.2760300501
 30
0.0
 10
32.4754268639
 20
-51.3123281197
 30
0.0
 10
32.4545901439
 20
-51.3262091977
 30
0.0
  0
SPLINE
  5
2D1
100
AcDbEntity
  8
ASSI
100
AcDbSpline
 62
250
  6
CONTINUOUS
 70
0
 71
3
 72
11
 73
7
 74
0
 42
0.0000001
 43
0.0000001
 44
0.0000000001
 40
0.0
 40
0.0
 40
0.0
 40
0.0
 40
0.218466408
 40
0.4511131032
 40
0.7098861092
 40
1.0
 40
1.0
 40
1.0
 40
1.0
 10
22.290401641
 20
-36.3830866059
 30
0.0
 10
22.2739218739
 20
-36.3932629329
 30
0.0
 10
22.2358146653
 20
-36.4082519229
 30
0.0
 10
22.1719785964
 20
-36.410673258
 30
0.0
 10
22.1039543188
 20
-36.3943426603
 30
0.0
 10
22.0598548819
 20
-36.3729673807
 30
0.0
 10
22.0376999588
 20
-36.3599018693
 30
0.0
  0
SPLINE
  5
2D2
100
AcDbEntity
  8
ASSI
100
AcDbSpline
 62
250
  6
CONTINUOUS
 70
0
 71
3
 72
9
 73
5
 74
0
 42
0.0000001
 43
0.0000001
 44
0.0000000001
 40
0.0
 40
0.0
 40
0.0
 40
0.0
 40
0.533060698
 40
1.0
 40
1.0
 40
1.0
 40
1.0
 10
-24.3702663487
 20
-8.7617833781
 30
0.0
 10
-24.3579085105
 20
-8.7575512071
 30
0.0
 10
-24.3332444278
 20
-8.7527046082
 30
0.0
 10
-24.3084329375
 20
-8.7591359977
 30
0.0
 10
-24.2985167166
 20
-8.7648449116
 30
0.0
  0
SPLINE
  5
2D3
100
AcDbEntity
  8
ASSI
100
AcDbSpline
 62
250
  6
CONTINUOUS
 70
0
 71
3
 72
9
 73
5
 74
0
 42
0.0000001
 43
0.0000001
 44
0.0000000001
 40
0.0
 40
0.0
 40
0.0
 40
0.0
 40
0.4690514204
 40
1.0
 40
1.0
 40
1.0
 40
1.0
 10
-24.8888708429
 20
-7.9048039936
 30
0.0
 10
-24.8675792542
 20
-7.9714067245
 30
0.0
 10
-24.8092468016
 20
-8.1092692892
 30
0.0
 10
-24.7372540205
 20
-8.2397939465
 30
0.0
 10
-24.701032382
 20
-8.3101699812
 30
0.0
  0
SPLINE
  5
2D4
100
AcDbEntity
  8
ASSI
100
AcDbSpline
 62
7
  6
CONTINUOUS
 70
0
 71
3
 72
11
 73
7
 74
0
 42
0.0000001
 43
0.0000001
 44
0.0000000001
 40
0.0
 40
0.0
 40
0.0
 40
0.0
 40
0.4130759472
 40
0.6927066207
 40
0.8830618845
 40
1.0
 40
1.0
 40
1.0
 40
1.0
 10
-24.2226042881
 20
11.9997315309
 30
0.0
 10
-24.2226042881
 20
11.9916597282
 30
0.0
 10
-24.221333015
 20
11.9780025004
 30
0.0
 10
-24.2154835544
 20
11.9616502558
 30
0.0
 10
-24.2105865337
 20
11.9513400752
 30
0.0
 10
-24.2080118559
 20
11.9458237448
 30
0.0
 10
-24.2075802196
 20
11.9435798268
 30
0.0
  0
SPLINE
  5
2D5
100
AcDbEntity
  8
ASSI
100
AcDbSpline
 62
250
  6
CONTINUOUS
 70
0
 71
3
 72
9
 73
5
 74
0
 42
0.0000001
 43
0.0000001
 44
0.0000000001
 40
0.0
 40
0.0
 40
0.0
 40
0.0
 40
0.2324225972
 40
1.0
 40
1.0
 40
1.0
 40
1.0
 10
-24.6546944585
 20
-8.3932725701
 30
0.0
 10
-24.6522661556
 20
-8.3901202661
 30
0.0
 10
-24.6410163747
 20
-8.3771755106
 30
0.0
 10
-24.6270955612
 20
-8.3667219465
 30
0.0
 10
-24.6158166826
 20
-8.3599782251
 30
0.0
  0
SPLINE
  5
2D6
100
AcDbEntity
  8
ASSI
100
AcDbSpline
 62
250
  6
CONTINUOUS
 70
0
 71
3
 72
15
 73
11
 74
0
 42
0.0000001
 43
0.0000001
 44
0.0000000001
 40
0.0
 40
0.0
 40
0.0
 40
0.0
 40
0.1448930666
 40
0.2745074101
 40
0.3910890532
 40
0.4999657061
 40
0.6088417823
 40
0.7254215739
 40
0.8550690277
 40
1.0
 40
1.0
 40
1.0
 40
1.0
 10
22.3948692773
 20
-36.3986436821
 30
0.0
 10
22.3948679089
 20
-36.4391838696
 30
0.0
 10
22.3887443703
 20
-36.5162577439
 30
0.0
 10
22.3575248207
 20
-36.6221289488
 30
0.0
 10
22.3049430533
 20
-36.7081004252
 30
0.0
 10
22.2319521281
 20
-36.7694996981
 30
0.0
 10
22.1422851367
 20
-36.8020141104
 30
0.0
 10
22.041532154
 20
-36.8045730408
 30
0.0
 10
21.9342162384
 20
-36.7786668892
 30
0.0
 10
21.8643885813
 20
-36.7454249279
 30
0.0
 10
21.829270009
 20
-36.7251504928
 30
0.0
  0
SPLINE
  5
2D7
100
AcDbEntity
  8
ASSI
100
AcDbSpline
 62
250
  6
CONTINUOUS
 70
0
 71
3
 72
11
 73
7
 74
0
 42
0.0000001
 43
0.0000001
 44
0.0000000001
 40
0.0
 40
0.0
 40
0.0
 40
0.0
 40
0.2170146302
 40
0.4488489626
 40
0.7081110881
 40
1.0
 40
1.0
 40
1.0
 40
1.0
 10
29.1231617377
 20
-53.9168717921
 30
0.0
 10
29.1780133912
 20
-53.8914211587
 30
0.0
 10
29.2824210937
 20
-53.8168311709
 30
0.0
 10
29.3954800592
 20
-53.6512497227
 30
0.0
 10
29.4643333999
 20
-53.4419165808
 30
0.0
 10
29.4794928087
 20
-53.2879706135
 30
0.0
 10
29.4807739513
 20
-53.2066494017
 30
0.0
  0
SPLINE
  5
2D8
100
AcDbEntity
  8
ASSI
100
AcDbSpline
 62
250
  6
CONTINUOUS
 70
0
 71
3
 72
11
 73
7
 74
0
 42
0.0000001
 43
0.0000001
 44
0.0000000001
 40
0.0
 40
0.0
 40
0.0
 40
0.0
 40
0.2918770439
 40
0.5511243195
 40
0.7829698739
 40
1.0
 40
1.0
 40
1.0
 40
1.0
 10
-31.4463062236
 20
52.3221489086
 30
0.0
 10
-31.5173812553
 20
52.3617075843
 30
0.0
 10
-31.6582981029
 20
52.4255642373
 30
0.0
 10
-31.8740446028
 20
52.4706144364
 30
0.0
 10
-32.0740109871
 20
52.4554939265
 30
0.0
 10
-32.1908380254
 20
52.4023501783
 30
0.0
 10
-32.2403128255
 20
52.3675582256
 30
0.0
  0
SPLINE
  5
2D9
100
AcDbEntity
  8
ASSI
100
AcDbSpline
 62
250
  6
CONTINUOUS
 70
0
 71
3
 72
9
 73
5
 74
0
 42
0.0000001
 43
0.0000001
 44
0.0000000001
 40
0.0
 40
0.0
 40
0.0
 40
0.0
 40
0.2393733707
 40
1.0
 40
1.0
 40
1.0
 40
1.0
 10
21.829270009
 20
7.5010411601
 30
0.0
 10
21.8416604227
 20
7.4938865329
 30
0.0
 10
21.8925639044
 20
7.4625189615
 30
0.0
 10
21.9400450869
 20
7.4257295641
 30
0.0
 10
21.9741202428
 20
7.3956322806
 30
0.0
  0
SPLINE
  5
2DA
100
AcDbEntity
  8
ASSI
100
AcDbSpline
 62
250
  6
CONTINUOUS
 70
0
 71
3
 72
11
 73
7
 74
0
 42
0.0000001
 43
0.0000001
 44
0.0000000001
 40
0.0
 40
0.0
 40
0.0
 40
0.0
 40
0.2513189018
 40
0.513787089
 40
0.7689261217
 40
1.0
 40
1.0
 40
1.0
 40
1.0
 10
21.9741202428
 20
7.3956322806
 30
0.0
 10
22.0365646346
 20
7.340477535
 30
0.0
 10
22.1512747535
 20
7.2126396425
 30
0.0
 10
22.2836201258
 20
6.9931698347
 30
0.0
 10
22.3709331468
 20
6.7593505673
 30
0.0
 10
22.3948660147
 20
6.5979978146
 30
0.0
 10
22.3948692773
 20
6.5213944916
 30
0.0
  0
SPLINE
  5
2DB
100
AcDbEntity
  8
ASSI
100
AcDbSpline
 62
250
  6
CONTINUOUS
 70
0
 71
3
 72
9
 73
5
 74
0
 42
0.0000001
 43
0.0000001
 44
0.0000000001
 40
0.0
 40
0.0
 40
0.0
 40
0.0
 40
0.4743309636
 40
1.0
 40
1.0
 40
1.0
 40
1.0
 10
-24.3702663487
 20
-8.7617833781
 30
0.0
 10
-24.4381409641
 20
-8.7222939448
 30
0.0
 10
-24.5673045373
 20
-8.6150589782
 30
0.0
 10
-24.669125739
 20
-8.4830629603
 30
0.0
 10
-24.7153057409
 20
-8.4093009962
 30
0.0
  0
SPLINE
  5
2DC
100
AcDbEntity
  8
ASSI
100
AcDbSpline
 62
250
  6
CONTINUOUS
 70
0
 71
3
 72
9
 73
5
 74
0
 42
0.0000001
 43
0.0000001
 44
0.0000000001
 40
0.0
 40
0.0
 40
0.0
 40
0.0
 40
0.5291435699
 40
1.0
 40
1.0
 40
1.0
 40
1.0
 10
-24.7153057409
 20
-8.4093009962
 30
0.0
 10
-24.7656227368
 20
-8.3289311329
 30
0.0
 10
-24.8447220726
 20
-8.1665313517
 30
0.0
 10
-24.8847986581
 20
-7.989081729
 30
0.0
 10
-24.8888716705
 20
-7.9048035432
 30
0.0
  0
SPLINE
  5
2DD
100
AcDbEntity
  8
ASSI
100
AcDbSpline
 62
250
  6
CONTINUOUS
 70
0
 71
3
 72
11
 73
7
 74
0
 42
0.0000001
 43
0.0000001
 44
0.0000000001
 40
0.0
 40
0.0
 40
0.0
 40
0.0
 40
0.2897143582
 40
0.5490722229
 40
0.7822092242
 40
1.0
 40
1.0
 40
1.0
 40
1.0
 10
-32.4874937753
 20
51.3133834008
 30
0.0
 10
-32.5094341228
 20
51.3260514825
 30
0.0
 10
-32.5492384458
 20
51.3534654358
 30
0.0
 10
-32.5968070019
 20
51.4034647066
 30
0.0
 10
-32.62689738
 20
51.4587710677
 30
0.0
 10
-32.633942513
 20
51.4984674536
 30
0.0
 10
-32.6339395196
 20
51.5175128196
 30
0.0
  0
SPLINE
  5
2DE
100
AcDbEntity
  8
ASSI
100
AcDbSpline
 62
250
  6
CONTINUOUS
 70
0
 71
3
 72
11
 73
7
 74
0
 42
0.0000001
 43
0.0000001
 44
0.0000000001
 40
0.0
 40
0.0
 40
0.0
 40
0.0
 40
0.2357278093
 40
0.4967865444
 40
0.7595836052
 40
1.0
 40
1.0
 40
1.0
 40
1.0
 10
-31.7813560594
 20
51.7210196663
 30
0.0
 10
-31.7813560649
 20
51.7769260833
 30
0.0
 10
-31.7610848174
 20
51.894834983
 30
0.0
 10
-31.6897814933
 20
52.0616448359
 30
0.0
 10
-31.5846498654
 20
52.2108524613
 30
0.0
 10
-31.494376945
 20
52.2914845629
 30
0.0
 10
-31.4463062236
 20
52.3221489086
 30
0.0
  0
SPLINE
  5
2DF
100
AcDbEntity
  8
ASSI
100
AcDbSpline
 62
250
  6
CONTINUOUS
 70
0
 71
3
 72
11
 73
7
 74
0
 42
0.0000001
 43
0.0000001
 44
0.0000000001
 40
0.0
 40
0.0
 40
0.0
 40
0.0
 40
0.2357278169
 40
0.4967865576
 40
0.7595836173
 40
1.0
 40
1.0
 40
1.0
 40
1.0
 10
28.0865175417
 20
17.1540597697
 30
0.0
 10
28.0865175417
 20
17.2099661877
 30
0.0
 10
28.106788799
 20
17.3278750867
 30
0.0
 10
28.178092129
 20
17.4946849367
 30
0.0
 10
28.2832237514
 20
17.6438925597
 30
0.0
 10
28.3734966621
 20
17.7245246638
 30
0.0
 10
28.4215673775
 20
17.7551890121
 30
0.0
  0
SPLINE
  5
2E0
100
AcDbEntity
  8
ASSI
100
AcDbSpline
 62
250
  6
CONTINUOUS
 70
0
 71
3
 72
11
 73
7
 74
0
 42
0.0000001
 43
0.0000001
 44
0.0000000001
 40
0.0
 40
0.0
 40
0.0
 40
0.0
 40
0.2357336649
 40
0.4967928207
 40
0.7595869198
 40
1.0
 40
1.0
 40
1.0
 40
1.0
 10
28.7926552576
 20
15.9309933698
 30
0.0
 10
28.8410723929
 20
15.903037929
 30
0.0
 10
28.9533212266
 20
15.8616348501
 30
0.0
 10
29.1334364791
 20
15.8399779157
 30
0.0
 10
29.3152198779
 20
15.8564222285
 30
0.0
 10
29.4301841859
 20
15.8942887093
 30
0.0
 10
29.4807739513
 20
15.9205894123
 30
0.0
  0
SPLINE
  5
2E1
100
AcDbEntity
  8
ASSI
100
AcDbSpline
 62
250
  6
CONTINUOUS
 70
0
 71
3
 72
11
 73
7
 74
0
 42
0.0000001
 43
0.0000001
 44
0.0000000001
 40
0.0
 40
0.0
 40
0.0
 40
0.0
 40
0.2357336794
 40
0.496792835
 40
0.7595869266
 40
1.0
 40
1.0
 40
1.0
 40
1.0
 10
28.7926552576
 20
-53.1962454441
 30
0.0
 10
28.8410723939
 20
-53.2242008918
 30
0.0
 10
28.9533212302
 20
-53.2656039806
 30
0.0
 10
29.1334364873
 20
-53.287260918
 30
0.0
 10
29.3152198853
 20
-53.2708165986
 30
0.0
 10
29.4301841891
 20
-53.232950109
 30
0.0
 10
29.4807739513
 20
-53.2066494017
 30
0.0
  0
SPLINE
  5
2E2
100
AcDbEntity
  8
ASSI
100
AcDbSpline
 62
250
  6
CONTINUOUS
 70
0
 71
3
 72
11
 73
7
 74
0
 42
0.0000001
 43
0.0000001
 44
0.0000000001
 40
0.0
 40
0.0
 40
0.0
 40
0.0
 40
0.2897198441
 40
0.5490790273
 40
0.782213757
 40
1.0
 40
1.0
 40
1.0
 40
1.0
 10
28.0865175417
 20
-53.6038817096
 30
0.0
 10
28.0865175441
 20
-53.6292136192
 30
0.0
 10
28.0903544531
 20
-53.6773861673
 30
0.0
 10
28.1098654032
 20
-53.7435733899
 30
0.0
 10
28.1427096763
 20
-53.7972792527
 30
0.0
 10
28.1735594743
 20
-53.8232259584
 30
0.0
 10
28.1900518014
 20
-53.8327450733
 30
0.0
  0
SPLINE
  5
2E3
100
AcDbEntity
  8
ASSI
100
AcDbSpline
 62
250
  6
CONTINUOUS
 70
0
 71
3
 72
11
 73
7
 74
0
 42
0.0000001
 43
0.0000001
 44
0.0000000001
 40
0.0
 40
0.0
 40
0.0
 40
0.0
 40
0.2897208435
 40
0.5490797446
 40
0.7822136639
 40
1.0
 40
1.0
 40
1.0
 40
1.0
 10
-31.7813560594
 20
-19.036921813
 30
0.0
 10
-31.7813560594
 20
-19.0622546352
 30
0.0
 10
-31.7775188908
 20
-19.1104288312
 30
0.0
 10
-31.7580064812
 20
-19.176618023
 30
0.0
 10
-31.7251596863
 20
-19.2303247645
 30
0.0
 10
-31.6943076842
 20
-19.2562709255
 30
0.0
 10
-31.6778143171
 20
-19.2657894956
 30
0.0
  0
SPLINE
  5
2E4
100
AcDbEntity
  8
ASSI
100
AcDbSpline
 62
250
  6
CONTINUOUS
 70
0
 71
3
 72
11
 73
7
 74
0
 42
0.0000001
 43
0.0000001
 44
0.0000000001
 40
0.0
 40
0.0
 40
0.0
 40
0.0
 40
0.289715264
 40
0.5490728574
 40
0.7822091287
 40
1.0
 40
1.0
 40
1.0
 40
1.0
 10
-32.4874937753
 20
-17.8138554132
 30
0.0
 10
-32.5094348428
 20
-17.8011869187
 30
0.0
 10
-32.5492403458
 20
-17.7737720135
 30
0.0
 10
-32.5968097881
 20
-17.7237706968
 30
0.0
 10
-32.6268997122
 20
-17.6684619496
 30
0.0
 10
-32.6339434146
 20
-17.6287640731
 30
0.0
 10
-32.6339395179
 20
-17.6097181346
 30
0.0
  0
SPLINE
  5
2E5
100
AcDbEntity
  8
ASSI
100
AcDbSpline
 62
250
  6
CONTINUOUS
 70
0
 71
3
 72
11
 73
7
 74
0
 42
0.0000001
 43
0.0000001
 44
0.0000000001
 40
0.0
 40
0.0
 40
0.0
 40
0.0
 40
0.2375046882
 40
0.4999769756
 40
0.7624459843
 40
1.0
 40
1.0
 40
1.0
 40
1.0
 10
-25.3156786004
 20
-9.0186545988
 30
0.0
 10
-25.3662577579
 20
-8.9900631331
 30
0.0
 10
-25.4620080579
 20
-8.9106945322
 30
0.0
 10
-25.5733754334
 20
-8.7592703458
 30
0.0
 10
-25.6488434324
 20
-8.5871044661
 30
0.0
 10
-25.6697078638
 20
-8.4644860405
 30
0.0
 10
-25.669178115
 20
-8.4063754149
 30
0.0
  0
SPLINE
  5
2E6
100
AcDbEntity
  8
ASSI
100
AcDbSpline
 62
250
  6
CONTINUOUS
 70
0
 71
3
 72
11
 73
7
 74
0
 42
0.0000001
 43
0.0000001
 44
0.0000000001
 40
0.0
 40
0.0
 40
0.0
 40
0.0
 40
0.2893771317
 40
0.5483716039
 40
0.7816591772
 40
1.0
 40
1.0
 40
1.0
 40
1.0
 10
-25.6691781431
 20
34.5136627385
 30
0.0
 10
-25.6694089031
 20
34.5386875375
 30
0.0
 10
-25.6660620139
 20
34.5863097276
 30
0.0
 10
-25.6473078008
 20
34.6518840712
 30
0.0
 10
-25.6152387147
 20
34.7052947667
 30
0.0
 10
-25.5848929874
 20
34.7312407391
 30
0.0
 10
-25.5686339437
 20
34.7408424474
 30
0.0
  0
SPLINE
  5
2E7
100
AcDbEntity
  8
ASSI
100
AcDbSpline
 62
250
  6
CONTINUOUS
 70
0
 71
3
 72
11
 73
7
 74
0
 42
0.0000001
 43
0.0000001
 44
0.0000000001
 40
0.0
 40
0.0
 40
0.0
 40
0.0
 40
0.2895411464
 40
0.5491005233
 40
0.7822467201
 40
1.0
 40
1.0
 40
1.0
 40
1.0
 10
-25.5241085268
 20
34.8422884494
 30
0.0
 10
-25.5241085268
 20
34.8271023529
 30
0.0
 10
-25.5217927217
 20
34.798206572
 30
0.0
 10
-25.5101138091
 20
34.758497899
 30
0.0
 10
-25.4904188817
 20
34.7262599877
 30
0.0
 10
-25.4719009115
 20
34.7107154131
 30
0.0
 10
-25.4620131483
 20
34.7049997118
 30
0.0
  0
SPLINE
  5
2E8
100
AcDbEntity
  8
ASSI
100
AcDbSpline
 62
250
  6
CONTINUOUS
 70
0
 71
3
 72
11
 73
7
 74
0
 42
0.0000001
 43
0.0000001
 44
0.0000000001
 40
0.0
 40
0.0
 40
0.0
 40
0.0
 40
0.2367266057
 40
0.498902432
 40
0.7616740084
 40
1.0
 40
1.0
 40
1.0
 40
1.0
 10
21.829270009
 20
-36.7251504928
 30
0.0
 10
21.829270009
 20
-36.6907852071
 30
0.0
 10
21.8420114813
 20
-36.6183087081
 30
0.0
 10
21.8865931142
 20
-36.5162461258
 30
0.0
 10
21.9519461183
 20
-36.4257736737
 30
0.0
 10
22.0080005911
 20
-36.3776484973
 30
0.0
 10
22.0376998289
 20
-36.3599019497
 30
0.0
  0
SPLINE
  5
2E9
100
AcDbEntity
  8
ASSI
100
AcDbSpline
 62
250
  6
CONTINUOUS
 70
0
 71
3
 72
11
 73
7
 74
0
 42
0.0000001
 43
0.0000001
 44
0.0000000001
 40
0.0
 40
0.0
 40
0.0
 40
0.0
 40
0.2367324906
 40
0.4989086352
 40
0.7616771671
 40
1.0
 40
1.0
 40
1.0
 40
1.0
 10
-26.0897077951
 20
34.5157816388
 30
0.0
 10
-26.0599461251
 20
34.4985976237
 30
0.0
 10
-25.9908082341
 20
34.4733913257
 30
0.0
 10
-25.8801274033
 20
34.4609674075
 30
0.0
 10
-25.7690995043
 20
34.4723295825
 30
0.0
 10
-25.6993957159
 20
34.4968141295
 30
0.0
 10
-25.6691782496
 20
34.5136626812
 30
0.0
  0
SPLINE
  5
2EA
100
AcDbEntity
  8
ASSI
100
AcDbSpline
 62
250
  6
CONTINUOUS
 70
0
 71
3
 72
11
 73
7
 74
0
 42
0.0000001
 43
0.0000001
 44
0.0000000001
 40
0.0
 40
0.0
 40
0.0
 40
0.0
 40
0.2367324616
 40
0.4989085986
 40
0.761677143
 40
1.0
 40
1.0
 40
1.0
 40
1.0
 10
-26.0897077951
 20
-8.404256535
 30
0.0
 10
-26.0599461288
 20
-8.4214405481
 30
0.0
 10
-25.9908082434
 20
-8.4466468454
 30
0.0
 10
-25.8801274165
 20
-8.4590707664
 30
0.0
 10
-25.7690995129
 20
-8.4477085944
 30
0.0
 10
-25.6993957189
 20
-8.4232240462
 30
0.0
 10
-25.6691782496
 20
-8.4063754926
 30
0.0
  0
SPLINE
  5
2EB
100
AcDbEntity
  8
ASSI
100
AcDbSpline
 62
250
  6
CONTINUOUS
 70
0
 71
3
 72
11
 73
7
 74
0
 42
0.0000001
 43
0.0000001
 44
0.0000000001
 40
0.0
 40
0.0
 40
0.0
 40
0.0
 40
0.2367266349
 40
0.4989024687
 40
0.761674032
 40
1.0
 40
1.0
 40
1.0
 40
1.0
 10
-25.5241085268
 20
-9.3839032034
 30
0.0
 10
-25.5241085269
 20
-9.3495379135
 30
0.0
 10
-25.5113670528
 20
-9.277061409
 30
0.0
 10
-25.466785415
 20
-9.1749988249
 30
0.0
 10
-25.4014324113
 20
-9.0845263779
 30
0.0
 10
-25.3453779419
 20
-9.036401206
 30
0.0
 10
-25.3156787069
 20
-9.0186546603
 30
0.0
  0
SPLINE
  5
2EC
100
AcDbEntity
  8
ASSI
100
AcDbSpline
 62
250
  6
CONTINUOUS
 70
0
 71
3
 72
11
 73
7
 74
0
 42
0.0000001
 43
0.0000001
 44
0.0000000001
 40
0.0
 40
0.0
 40
0.0
 40
0.0
 40
0.2895347424
 40
0.5490930747
 40
0.7822422821
 40
1.0
 40
1.0
 40
1.0
 40
1.0
 10
22.3948692773
 20
-36.3986436821
 30
0.0
 10
22.3817168124
 20
-36.3910496138
 30
0.0
 10
22.3578484855
 20
-36.3745938714
 30
0.0
 10
22.329297237
 20
-36.3446213517
 30
0.0
 10
22.3112244466
 20
-36.3114418838
 30
0.0
 10
22.3070208432
 20
-36.2876296875
 30
0.0
 10
22.3070145988
 20
-36.2762073149
 30
0.0
  0
SPLINE
  5
2ED
100
AcDbEntity
  8
ASSI
100
AcDbSpline
 62
250
  6
CONTINUOUS
 70
0
 71
3
 72
11
 73
7
 74
0
 42
0.0000001
 43
0.0000001
 44
0.0000000001
 40
0.0
 40
0.0
 40
0.0
 40
0.0
 40
0.289543678
 40
0.5490993933
 40
0.7822413331
 40
1.0
 40
1.0
 40
1.0
 40
1.0
 10
22.3948692773
 20
6.5213944916
 30
0.0
 10
22.3817126045
 20
6.5289909896
 30
0.0
 10
22.3578373807
 20
6.5454523258
 30
0.0
 10
22.3292809685
 20
6.5754368273
 30
0.0
 10
22.3112107948
 20
6.608630251
 30
0.0
 10
22.3070156054
 20
6.6324511442
 30
0.0
 10
22.3070145841
 20
6.64387687
 30
0.0
  0
SPLINE
  5
2EE
100
AcDbEntity
  8
ASSI
100
AcDbSpline
 62
250
  6
CONTINUOUS
 70
0
 71
3
 72
11
 73
7
 74
0
 42
0.0000001
 43
0.0000001
 44
0.0000000001
 40
0.0
 40
0.0
 40
0.0
 40
0.0
 40
0.2895492309
 40
0.5491062864
 40
0.782245896
 40
1.0
 40
1.0
 40
1.0
 40
1.0
 10
21.829270009
 20
7.5010411601
 30
0.0
 10
21.8292700091
 20
7.4858506673
 30
0.0
 10
21.831587081
 20
7.4569469501
 30
0.0
 10
21.8432730412
 20
7.4172288069
 30
0.0
 10
21.8629800915
 20
7.3849866347
 30
0.0
 10
21.8815086801
 20
7.3694447195
 30
0.0
 10
21.8914014328
 20
7.3637315962
 30
0.0
  0
SPLINE
  5
2EF
100
AcDbEntity
  8
ASSI
100
AcDbSpline
 62
250
  6
CONTINUOUS
 70
0
 71
3
 72
11
 73
7
 74
0
 42
0.0000001
 43
0.0000001
 44
0.0000000001
 40
0.0
 40
0.0
 40
0.0
 40
0.0
 40
0.3076887325
 40
0.5718188795
 40
0.7974555343
 40
1.0
 40
1.0
 40
1.0
 40
1.0
 10
20.819663639
 20
-34.444667598
 30
0.0
 10
20.822461724
 20
-34.4550214269
 30
0.0
 10
20.8264084422
 20
-34.4746561805
 30
0.0
 10
20.8268014244
 20
-34.5026652798
 30
0.0
 10
20.8208370817
 20
-34.5264230162
 30
0.0
 10
20.8121120562
 20
-34.5390651948
 30
0.0
 10
20.8069913229
 20
-34.5439256846
 30
0.0
  0
SPLINE
  5
2F0
100
AcDbEntity
  8
ASSI
100
AcDbSpline
 62
250
  6
CONTINUOUS
 70
0
 71
3
 72
11
 73
7
 74
0
 42
0.0000001
 43
0.0000001
 44
0.0000000001
 40
0.0
 40
0.0
 40
0.0
 40
0.0
 40
0.3076887325
 40
0.5718188795
 40
0.7974555343
 40
1.0
 40
1.0
 40
1.0
 40
1.0
 10
-14.5356754203
 20
-14.0309379316
 30
0.0
 10
-14.5328773353
 20
-14.0412917605
 30
0.0
 10
-14.5289306171
 20
-14.0609265141
 30
0.0
 10
-14.5285376349
 20
-14.0889356134
 30
0.0
 10
-14.5345019776
 20
-14.1126933498
 30
0.0
 10
-14.5432270031
 20
-14.1253355284
 30
0.0
 10
-14.5483477364
 20
-14.1301960182
 30
0.0
  0
ELLIPSE
  5
2F1
100
AcDbEntity
  8
ASSI
100
AcDbEllipse
 62
7
  6
CONTINUOUS
 10
-24.1640633709
 20
-7.5676155209
 30
0.0
 11
-0.1008284495
 21
0.1733613851
 31
0.0
 40
0.5764462677
 41
-0.788334703
 42
-0.4791636512
  0
ELLIPSE
  5
2F2
100
AcDbEntity
  8
ASSI
100
AcDbEllipse
 62
7
  6
CONTINUOUS
 10
-24.1640633709
 20
8.1698490642
 30
0.0
 11
-0.1008284495
 21
0.1733613851
 31
0.0
 40
0.5764462677
 41
-0.788334703
 42
-0.4791636512
  0
ELLIPSE
  5
2F3
100
AcDbEntity
  8
ASSI
100
AcDbEllipse
 62
7
  6
CONTINUOUS
 10
-24.1640633709
 20
22.8663140465
 30
0.0
 11
-0.1008284495
 21
0.1733613851
 31
0.0
 40
0.5764462677
 41
-0.788334703
 42
-0.4791636512
  0
ELLIPSE
  5
2F4
100
AcDbEntity
  8
ASSI
100
AcDbEllipse
 62
7
  6
CONTINUOUS
 10
5.3023539867
 20
-25.7555649318
 30
0.0
 11
-0.0281079651
 21
0.2043034895
 31
0.0
 40
0.7155932738
 41
-0.5072657112
 42
0.260581316
  0
ELLIPSE
  5
2F5
100
AcDbEntity
  8
ASSI
100
AcDbEllipse
 62
7
  6
CONTINUOUS
 10
-6.0113545123
 20
-19.2231714386
 30
0.0
 11
-0.0281079651
 21
0.2043034895
 31
0.0
 40
0.7155932738
 41
-0.5072657112
 42
0.260581316
  0
ELLIPSE
  5
2F6
100
AcDbEntity
  8
ASSI
100
AcDbEllipse
 62
7
  6
CONTINUOUS
 10
-24.9520794781
 20
-8.4005447683
 30
0.0
 11
-0.2500120911
 21
0.4330057209
 31
0.0
 40
0.5775075436
 41
0.7855021057
 42
2.355993846
  0
ELLIPSE
  5
2F7
100
AcDbEntity
  8
ASSI
100
AcDbEllipse
 62
7
  6
CONTINUOUS
 10
-23.9905933509
 20
-7.6677749364
 30
0.0
 11
-0.1000048364
 21
0.1732022883
 31
0.0
 40
0.5775075436
 41
-2.3560905478
 42
-0.7855988075
  0
ELLIPSE
  5
2F8
100
AcDbEntity
  8
ASSI
100
AcDbEllipse
 62
7
  6
CONTINUOUS
 10
-23.9905933509
 20
5.983970686
 30
0.0
 11
-0.1000352924
 21
0.1732550566
 31
0.0
 40
0.5771558487
 41
-3.1241453805
 42
-2.3563950755
  0
ELLIPSE
  5
2F9
100
AcDbEntity
  8
ASSI
100
AcDbEllipse
 62
7
  6
CONTINUOUS
 10
-23.9905933509
 20
8.0696896488
 30
0.0
 11
-0.1000048364
 21
0.1732022883
 31
0.0
 40
0.5775075436
 41
-2.3560905478
 42
-0.7855988075
  0
ELLIPSE
  5
2FA
100
AcDbEntity
  8
ASSI
100
AcDbEllipse
 62
7
  6
CONTINUOUS
 10
-23.9905933509
 20
22.7661546311
 30
0.0
 11
-0.1000048364
 21
0.1732022883
 31
0.0
 40
0.5775075436
 41
-2.3560905478
 42
-0.7855988075
  0
ELLIPSE
  5
2FB
100
AcDbEntity
  8
ASSI
100
AcDbEllipse
 62
7
  6
CONTINUOUS
 10
-23.9905933509
 20
20.6804356683
 30
0.0
 11
-0.1000352924
 21
0.1732550566
 31
0.0
 40
0.5771558487
 41
-3.1241453805
 42
-2.3563950755
  0
ELLIPSE
  5
2FC
100
AcDbEntity
  8
ASSI
100
AcDbEllipse
 62
7
  6
CONTINUOUS
 10
7.7966721733
 20
-27.1957529917
 30
0.0
 11
-0.029898431
 21
0.2049974972
 31
0.0
 40
0.7091253315
 41
-2.0809987
 42
-0.5105069597
  0
ELLIPSE
  5
2FD
100
AcDbEntity
  8
ASSI
100
AcDbEllipse
 62
7
  6
CONTINUOUS
 10
-3.5170363257
 20
-20.6633594984
 30
0.0
 11
-0.029898431
 21
0.2049974972
 31
0.0
 40
0.7091253315
 41
-2.0809987
 42
-0.5105069597
  0
ELLIPSE
  5
2FE
100
AcDbEntity
  8
ASSI
100
AcDbEllipse
 62
7
  6
CONTINUOUS
 10
21.6161795201
 20
-29.4056014114
 30
0.0
 11
0.263539042
 21
0.4250943198
 31
0.0
 40
0.5971151412
 41
0.0187151327
 42
0.193296404
  0
ELLIPSE
  5
2FF
100
AcDbEntity
  8
ASSI
100
AcDbEllipse
 62
7
  6
CONTINUOUS
 10
20.8000044306
 20
-29.7057967423
 30
0.0
 11
0.527078084
 21
0.8501886395
 31
0.0
 40
0.5971151412
 41
0.193296404
 42
0.8041616422
  0
ELLIPSE
  5
300
100
AcDbEntity
  8
ASSI
100
AcDbEllipse
 62
7
  6
CONTINUOUS
 10
-13.7391595393
 20
-8.991871745
 30
0.0
 11
0.263539042
 21
0.4250943198
 31
0.0
 40
0.5971151412
 41
0.0187151327
 42
0.193296404
  0
ELLIPSE
  5
301
100
AcDbEntity
  8
ASSI
100
AcDbEllipse
 62
7
  6
CONTINUOUS
 10
-14.5553346287
 20
-9.2920670759
 30
0.0
 11
0.527078084
 21
0.8501886395
 31
0.0
 40
0.5971151412
 41
0.193296404
 42
0.8041616422
  0
ELLIPSE
  5
302
100
AcDbEntity
  8
ASSI
100
AcDbEllipse
 62
7
  6
CONTINUOUS
 10
-23.3541003069
 20
-9.0965774685
 30
0.0
 11
-0.3500169276
 21
0.6062080092
 31
0.0
 40
0.5775075436
 41
0.7855021057
 42
1.1682204935
  0
ELLIPSE
  5
303
100
AcDbEntity
  8
ASSI
100
AcDbEllipse
 62
7
  6
CONTINUOUS
 10
19.5546444556
 20
-29.5213702119
 30
0.0
 11
0.527078084
 21
0.8501886395
 31
0.0
 40
0.5971151412
 41
-2.2065313175
 42
-1.552032848
  0
ELLIPSE
  5
304
100
AcDbEntity
  8
ASSI
100
AcDbEllipse
 62
7
  6
CONTINUOUS
 10
-15.8006946038
 20
-9.1076405455
 30
0.0
 11
0.527078084
 21
0.8501886395
 31
0.0
 40
0.5971151412
 41
-2.2065313175
 42
-1.552032848
  0
ELLIPSE
  5
305
100
AcDbEntity
  8
ASSI
100
AcDbEllipse
 62
7
  6
CONTINUOUS
 10
-11.2547351198
 20
-10.5840608371
 30
0.0
 11
0.1883864656
 21
0.4570855484
 31
0.0
 40
0.4924526612
 41
-2.3068219982
 42
-1.6457596607
  0
ELLIPSE
  5
306
100
AcDbEntity
  8
ASSI
100
AcDbEllipse
 62
7
  6
CONTINUOUS
 10
-11.3103037703
 20
-10.3942626253
 30
0.0
 11
0.2373228725
 21
0.4402558412
 31
0.0
 40
0.5568425968
 41
5.4815590936
 42
6.4414901822
  0
ELLIPSE
  5
307
100
AcDbEntity
  8
ASSI
100
AcDbEllipse
 62
7
  6
CONTINUOUS
 10
-12.0713993542
 20
-10.7262601725
 30
0.0
 11
0.4746457449
 21
0.8805116825
 31
0.0
 40
0.5568425968
 41
0.158304875
 42
0.7691701132
  0
ELLIPSE
  5
308
100
AcDbEntity
  8
ASSI
100
AcDbEllipse
 62
7
  6
CONTINUOUS
 10
22.1226227408
 20
-31.0040886894
 30
0.0
 11
0.4746457449
 21
0.8805116825
 31
0.0
 40
0.5568425968
 41
-2.2415228465
 42
-2.0987964764
  0
ELLIPSE
  5
309
100
AcDbEntity
  8
ASSI
100
AcDbEllipse
 62
7
  6
CONTINUOUS
 10
-13.2327163186
 20
-10.590359023
 30
0.0
 11
0.4746457449
 21
0.8805116825
 31
0.0
 40
0.5568425968
 41
-2.2415228465
 42
-1.587024377
  0
ENDSEC
  0
SECTION
  2
OBJECTS
  0
DICTIONARY
  5
C
100
AcDbDictionary
280
0
281
1
  3
ACAD_GROUP
350
D
  3
ACAD_MLINESTYLE
350
17
  3
ACAD_LAYOUT
350
1A
  3
ACAD_PLOTSETTINGS
350
19
  3
ACAD_PLOTSTYLENAME
350
E
  0
DICTIONARY
  5
D
102
{ACAD_REACTORS
330
C
102
}
100
AcDbDictionary
280
0
281
1
  0
ACDBDICTIONARYWDFLT
  5
E
102
{ACAD_REACTORS
330
C
102
}
100
AcDbDictionary
281
1
  3
Normal
350
F
100
AcDbDictionaryWithDefault
340
F
  0
DICTIONARY
  5
17
102
{ACAD_REACTORS
330
C
102
}
100
AcDbDictionary
280
0
281
1
  3
Standard
350
18
  0
DICTIONARY
  5
19
102
{ACAD_REACTORS
330
C
102
}
100
AcDbDictionary
281
1
  0
DICTIONARY
  5
1A
102
{ACAD_REACTORS
330
C
102
}
100
AcDbDictionary
281
1
  3
Model
350
30A
  3
Layout1
350
30B
  0
ACDBPLACEHOLDER
  5
F
102
{ACAD_REACTORS
330
E
102
}
  0
MLINESTYLE
  5
18
102
{ACAD_REACTORS
330
17
102
}
100
AcDbMlineStyle
  2
STANDARD
 70
0
  3

 62
256
 51
90.0
 52
90.0
 71
2
 49
0.5
 62
256
  6
BYLAYER
 49
-0.5
 62
256
  6
BYLAYER
  0
LAYOUT
  5
30A
102
{ACAD_REACTORS
330
1A
102
}
100
AcDbPlotSettings
  1

  2
none_device
  4
ISO_A4_(297.00_x_210.00_MM)
  6

 40
0.0
 41
0.0
 42
0.0
 43
0.0
 44
297.0
 45
210.0
 46
0.0
 47
0.0
 48
0.0
 49
0.0
140
0.0
141
0.0
142
1.0
143
1.0
 70
1024
 72
1
 73
0
 74
0
  7

 75
0
147
1.0
148
0.0
149
0.0
100
AcDbLayout
  1
Model
 70
0
 71
0
 10
0.0
 20
0.0
 11
297.0
 21
210.0
 12
0.0
 22
0.0
 32
0.0
 14
0.0
 24
0.0
 34
0.0
 15
0.0
 25
0.0
 35
0.0
146
0.0
 13
0.0
 23
0.0
 33
0.0
 16
1.0
 26
0.0
 36
0.0
 17
0.0
 27
1.0
 37
0.0
 76
0
330
216
345
0
346
0
  0
LAYOUT
  5
30B
102
{ACAD_REACTORS
330
1A
102
}
100
AcDbPlotSettings
  1

  2
none_device
  4
ISO_A4_(297.00_x_210.00_MM)
  6

 40
0.0
 41
0.0
 42
0.0
 43
0.0
 44
297.0
 45
210.0
 46
0.0
 47
0.0
 48
0.0
 49
0.0
140
0.0
141
0.0
142
1.0
143
1.0
 70
0
 72
1
 73
0
 74
0
  7

 75
0
147
1.0
148
0.0
149
0.0
100
AcDbLayout
  1
Layout1
 70
0
 71
1
 10
0.0
 20
0.0
 11
297.0
 21
210.0
 12
0.0
 22
0.0
 32
0.0
 14
0.0
 24
0.0
 34
0.0
 15
0.0
 25
0.0
 35
0.0
146
0.0
 13
0.0
 23
0.0
 33
0.0
 16
1.0
 26
0.0
 36
0.0
 17
0.0
 27
1.0
 37
0.0
 76
0
330
217
345
0
346
0
  0
ENDSEC
  0
EOF
