  0
SECTION
  2
HEADER
  9
$ACADVER
  1
AC1024
  9
$DWGCODEPAGE
  3
ANSI_1252
  9
$EXTMAX
 10
297.0
 20
210.0
 30
0.0
  9
$EXTMIN
 10
0.0
 20
0.0
 30
0.0
  9
$LIMMIN
 10
0.0
 20
0.0
  9
$LIMMAX
 10
297.0
 20
210.0
  9
$VIEWCTR
 10
148.5
 20
105.0
  9
$VIEWSIZE
 40
210.0
  9
$CLAYER
  8
0
  9
$LTSCALE
 40
16.335
  9
$CELTYPE
  6
BYLAYER
  9
$DIMSCALE
 40
1.0
  9
$DIMASZ
 40
3.0
  9
$DIMEXO
 40
0.5
  9
$DIMDLI
 40
11.286
  9
$DIMEXE
 40
1.5
  9
$DIMCEN
 40
2.673
  9
$DIMLFAC
 40
1.0
  9
$DIMBLK
  1
_FILLED
  9
$DIMALT
 70
0
  9
$DIMALTF
 40
0.0393700787
  9
$DIMTXT
 40
3.0
  9
$DIMTOL
 70
1
  9
$DIMLIM
 70
0
  9
$DIMTFAC
 40
1.0
  9
$DIMTP
 40
0.01
  9
$DIMTM
 40
0.01
  9
$DIMGAP
 40
0.625
  9
$DIMDSEP
 70
44
  9
$AUNITS
 70
0
  9
$PDMODE
 70
3
  9
$PDSIZE
 40
3.0
  9
$HANDSEED
  5
36B
  9
$TILEMODE
 70
1
  9
$MEASUREMENT
 70
1
  9
$INSUNITS
 70
4
  0
ENDSEC
  0
SECTION
  2
CLASSES
  0
CLASS
  1
ACDBDICTIONARYWDFLT
  2
AcDbDictionaryWithDefault
  3
AutoCAD 2000
 90
0
 91
1
280
0
281
0
  0
CLASS
  1
ACDBPLACEHOLDER
  2
AcDbPlaceHolder
  3
AutoCAD 2000
 90
0
 91
1
280
0
281
0
  0
CLASS
  1
LAYOUT
  2
AcDbLayout
  3
AutoCAD 2000
 90
0
 91
0
280
0
281
0
  0
ENDSEC
  0
SECTION
  2
TABLES
  0
TABLE
  2
VPORT
  5
8
100
AcDbSymbolTable
 70
2
  0
VPORT
  5
1F4
100
AcDbSymbolTableRecord
100
AcDbViewportTableRecord
  2
*ACTIVE
 70
0
 10
0.0
 20
0.0
 11
1.0
 21
1.0
 12
148.5
 22
105.0
 13
0.0
 23
0.0
 14
1.0
 24
1.0
 15
0.0
 25
0.0
 16
0.0
 26
0.0
 36
1.0
 17
0.0
 27
0.0
 37
0.0
 40
210.0
 41
1.4142857143
 42
50.0
 43
0.0
 44
0.0
 50
0.0
 51
0.0
 71
0
 72
100
 73
1
 74
1
 75
0
 76
0
 77
0
 78
0
  0
ENDTAB
  0
TABLE
  2
LTYPE
  5
5
100
AcDbSymbolTable
 70
6
  0
LTYPE
  5
14
100
AcDbSymbolTableRecord
100
AcDbLinetypeTableRecord
  2
BYBLOCK
 70
0
  3

 72
65
 73
0
 40
0.0
  0
LTYPE
  5
15
100
AcDbSymbolTableRecord
100
AcDbLinetypeTableRecord
  2
BYLAYER
 70
0
  3

 72
65
 73
0
 40
0.0
  0
LTYPE
  5
16
100
AcDbSymbolTableRecord
100
AcDbLinetypeTableRecord
  2
CONTINUOUS
 70
64
  3
Solid line
 72
65
 73
0
 40
0.0
  0
LTYPE
  5
1F5
100
AcDbSymbolTableRecord
100
AcDbLinetypeTableRecord
  2
CENTER
 70
64
  3
____ _ ____ _ ____ _ ____ _ ____ _ ____ _ ____
 72
65
 73
4
 40
0.6
 49
0.375
 74
0
 49
-0.075
 74
0
 49
0.075
 74
0
 49
-0.075
 74
0
  0
LTYPE
  5
1F6
100
AcDbSymbolTableRecord
100
AcDbLinetypeTableRecord
  2
HIDDEN
 70
64
  3
- - - - - - - - - - - - - - - - - - - -
 72
65
 73
2
 40
0.2
 49
0.1
 74
0
 49
-0.1
 74
0
  0
LTYPE
  5
1F7
100
AcDbSymbolTableRecord
100
AcDbLinetypeTableRecord
  2
PHANTOM
 70
64
  3
_____ _ _ _____ _ _ _____ _ _ _____
 72
65
 73
6
 40
0.8
 49
0.45
 74
0
 49
-0.05
 74
0
 49
0.1
 74
0
 49
-0.05
 74
0
 49
0.1
 74
0
 49
-0.05
 74
0
  0
LTYPE
  5
1F8
100
AcDbSymbolTableRecord
100
AcDbLinetypeTableRecord
  2
DOT
 70
64
  3
. . . . . . . . . . . . . . . . . . . .
 72
65
 73
2
 40
0.2
 49
0.1
 74
0
 49
-0.1
 74
0
  0
LTYPE
  5
1F9
100
AcDbSymbolTableRecord
100
AcDbLinetypeTableRecord
  2
DASHED
 70
64
  3
- - - - - - - - - - - - - - - - - - - -
 72
65
 73
2
 40
0.2
 49
0.1
 74
0
 49
-0.1
 74
0
  0
ENDTAB
  0
TABLE
  2
LAYER
  5
2
100
AcDbSymbolTable
 70
36
  0
LAYER
  5
10
100
AcDbSymbolTableRecord
100
AcDbLayerTableRecord
  2
0
 70
0
 62
7
  6
CONTINUOUS
370
-3
390
F
  0
LAYER
  5
1FA
100
AcDbSymbolTableRecord
100
AcDbLayerTableRecord
  2
DEFAULT_1
 70
0
 62
7
  6
CENTER
370
-3
390
F
  0
LAYER
  5
1FB
100
AcDbSymbolTableRecord
100
AcDbLayerTableRecord
  2
DEFAULT_2
 70
0
 62
7
  6
HIDDEN
370
-3
390
F
  0
LAYER
  5
1FC
100
AcDbSymbolTableRecord
100
AcDbLayerTableRecord
  2
DEFAULT_3
 70
0
 62
7
  6
PHANTOM
370
-3
390
F
  0
LAYER
  5
1FD
100
AcDbSymbolTableRecord
100
AcDbLayerTableRecord
  2
ASSI
 70
0
 62
7
  6
CONTINUOUS
370
-3
390
F
  0
LAYER
  5
1FE
100
AcDbSymbolTableRecord
100
AcDbLayerTableRecord
  2
COORDINATE
 70
0
 62
7
  6
CONTINUOUS
370
-3
390
F
  0
LAYER
  5
1FF
100
AcDbSymbolTableRecord
100
AcDbLayerTableRecord
  2
COPY_PUBLISH
 70
0
 62
7
  6
CONTINUOUS
370
-3
390
F
  0
LAYER
  5
200
100
AcDbSymbolTableRecord
100
AcDbLayerTableRecord
  2
COSMETICI
 70
0
 62
7
  6
CONTINUOUS
370
-3
390
F
  0
LAYER
  5
201
100
AcDbSymbolTableRecord
100
AcDbLayerTableRecord
  2
CURVE
 70
0
 62
7
  6
CONTINUOUS
370
-3
390
F
  0
LAYER
  5
202
100
AcDbSymbolTableRecord
100
AcDbLayerTableRecord
  2
DRAFT
 70
0
 62
7
  6
CONTINUOUS
370
-3
390
F
  0
LAYER
  5
203
100
AcDbSymbolTableRecord
100
AcDbLayerTableRecord
  2
IMPORT_IGES
 70
0
 62
7
  6
CONTINUOUS
370
-3
390
F
  0
LAYER
  5
204
100
AcDbSymbolTableRecord
100
AcDbLayerTableRecord
  2
INTF_1
 70
0
 62
7
  6
CONTINUOUS
370
-3
390
F
  0
LAYER
  5
205
100
AcDbSymbolTableRecord
100
AcDbLayerTableRecord
  2
INTF_11
 70
0
 62
7
  6
CONTINUOUS
370
-3
390
F
  0
LAYER
  5
206
100
AcDbSymbolTableRecord
100
AcDbLayerTableRecord
  2
INTF_13
 70
0
 62
7
  6
CONTINUOUS
370
-3
390
F
  0
LAYER
  5
207
100
AcDbSymbolTableRecord
100
AcDbLayerTableRecord
  2
INTF_2
 70
0
 62
7
  6
CONTINUOUS
370
-3
390
F
  0
LAYER
  5
208
100
AcDbSymbolTableRecord
100
AcDbLayerTableRecord
  2
INTF_CYAN
 70
0
 62
7
  6
CONTINUOUS
370
-3
390
F
  0
LAYER
  5
209
100
AcDbSymbolTableRecord
100
AcDbLayerTableRecord
  2
NOTE
 70
0
 62
7
  6
CONTINUOUS
370
-3
390
F
  0
LAYER
  5
20A
100
AcDbSymbolTableRecord
100
AcDbLayerTableRecord
  2
PIANI
 70
0
 62
7
  6
CONTINUOUS
370
-3
390
F
  0
LAYER
  5
20B
100
AcDbSymbolTableRecord
100
AcDbLayerTableRecord
  2
PUNTI
 70
0
 62
7
  6
CONTINUOUS
370
-3
390
F
  0
LAYER
  5
20C
100
AcDbSymbolTableRecord
100
AcDbLayerTableRecord
  2
RACCORDO
 70
0
 62
7
  6
CONTINUOUS
370
-3
390
F
  0
LAYER
  5
20D
100
AcDbSymbolTableRecord
100
AcDbLayerTableRecord
  2
SIMBOLI
 70
0
 62
7
  6
CONTINUOUS
370
-3
390
F
  0
LAYER
  5
20E
100
AcDbSymbolTableRecord
100
AcDbLayerTableRecord
  2
SMUSSO
 70
0
 62
7
  6
CONTINUOUS
370
-3
390
F
  0
LAYER
  5
20F
100
AcDbSymbolTableRecord
100
AcDbLayerTableRecord
  2
SNAPLINE
 70
0
 62
7
  6
CONTINUOUS
370
-3
390
F
  0
LAYER
  5
210
100
AcDbSymbolTableRecord
100
AcDbLayerTableRecord
  2
SUPERFICI
 70
0
 62
7
  6
CONTINUOUS
370
-3
390
F
  0
LAYER
  5
211
100
AcDbSymbolTableRecord
100
AcDbLayerTableRecord
  2
TRASH
 70
0
 62
7
  6
CONTINUOUS
370
-3
390
F
  0
ENDTAB
  0
TABLE
  2
STYLE
  5
3
100
AcDbSymbolTable
 70
1
  0
STYLE
  5
11
100
AcDbSymbolTableRecord
100
AcDbTextStyleTableRecord
  2
STANDARD
 70
0
 40
0.0
 41
0.8
 50
0.0
 71
0
 42
0.2
  3
txt
  4

  0
STYLE
  5
212
100
AcDbSymbolTableRecord
100
AcDbTextStyleTableRecord
  2
TEXTSTYLE_1
 70
0
 40
0.0
 41
0.8
 50
0.0
 71
0
 42
0.2
  3
gdt
  4

  0
ENDTAB
  0
TABLE
  2
VIEW
  5
6
100
AcDbSymbolTable
 70
0
  0
ENDTAB
  0
TABLE
  2
UCS
  5
7
100
AcDbSymbolTable
 70
0
  0
ENDTAB
  0
TABLE
  2
APPID
  5
9
100
AcDbSymbolTable
 70
1
  0
APPID
  5
213
100
AcDbSymbolTableRecord
100
AcDbRegAppTableRecord
  2
ACAD
 70
0
  0
ENDTAB
  0
TABLE
  2
BLOCK_RECORD
  5
1
100
AcDbSymbolTable
 70
0
  0
BLOCK_RECORD
  5
214
100
AcDbSymbolTableRecord
100
AcDbBlockTableRecord
  2
*Model_Space
  0
BLOCK_RECORD
  5
215
100
AcDbSymbolTableRecord
100
AcDbBlockTableRecord
  2
*Paper_Space
  0
BLOCK_RECORD
  5
216
100
AcDbSymbolTableRecord
100
AcDbBlockTableRecord
  2
_FILLED
  0
ENDTAB
  0
TABLE
  2
DIMSTYLE
  5
A
100
AcDbSymbolTable
 70
1
100
AcDbDimStyleTable
 71
0
  0
DIMSTYLE
105
217
100
AcDbSymbolTableRecord
100
AcDbDimStyleTableRecord
  2
STANDARD
 70
0
  3

  4

 40
1.0
 41
3.0
 42
0.5
 43
0.38
 44
1.5
 45
0.0
 46
0.0
 47
0.01
 48
0.01
140
3.0
141
0.09
142
0.0
143
25.4
144
1.0
145
0.0
146
1.0
147
0.625
 71
1
 72
0
 73
0
 74
0
 75
0
 76
0
 77
1
 78
8
 79
2
170
0
171
1
172
0
173
0
174
0
175
0
176
0
177
0
178
0
270
2
179
2
271
2
272
2
273
2
274
2
275
0
280
0
281
0
282
0
283
1
284
8
285
0
286
0
287
3
288
0
340
11
278
44
341
216
342
216
343
216
344
216
  0
ENDTAB
  0
ENDSEC
  0
SECTION
  2
BLOCKS
  0
BLOCK
  5
20
100
AcDbEntity
  8
0
100
AcDbBlockBegin
  2
*Model_Space
 70
0
 10
0.0
 20
0.0
 30
0.0
  3
*Model_Space
  1

  0
ENDBLK
  5
21
100
AcDbEntity
  8
0
100
AcDbBlockEnd
  0
BLOCK
  5
1C
100
AcDbEntity
  8
0
100
AcDbBlockBegin
  2
*Paper_Space
 70
0
 10
0.0
 20
0.0
 30
0.0
  3
*Paper_Space
  1

  0
ENDBLK
  5
1D
100
AcDbEntity
  8
0
100
AcDbBlockEnd
  0
BLOCK
  5
218
100
AcDbEntity
  8
0
100
AcDbBlockBegin
  2
_FILLED
 70
64
 10
0.0
 20
0.0
  3
_FILLED
  1

  0
SOLID
  5
219
100
AcDbEntity
  8
0
  6
BYBLOCK
 62
0
100
AcDbTrace
 10
0.0
 20
0.0
 11
-1.0
 21
0.3166666667
 12
-1.0
 22
-0.3166666667
 13
-1.0
 23
-0.3166666667
  0
ENDBLK
  5
21A
100
AcDbEntity
  8
0
  6
BYBLOCK
 62
0
100
AcDbBlockEnd
  0
ENDSEC
  0
SECTION
  2
ENTITIES
  0
LINE
  5
21B
100
AcDbEntity
  8
RACCORDO
100
AcDbLine
 62
7
  6
CONTINUOUS
 10
-55.5949777054
 20
66.3976472985
 11
-53.3322360056
 21
67.7041259971
  0
LINE
  5
21C
100
AcDbEntity
  8
RACCORDO
100
AcDbLine
 62
250
  6
CONTINUOUS
 10
-54.8449414652
 20
66.323335532
 11
-52.5821997654
 21
67.6298142306
  0
LINE
  5
21D
100
AcDbEntity
  8
RACCORDO
100
AcDbLine
 62
250
  6
CONTINUOUS
 10
-50.8876843577
 20
66.6514222715
 11
-50.7737710232
 21
66.7104813091
  0
LINE
  5
21E
100
AcDbEntity
  8
RACCORDO
100
AcDbLine
 62
250
  6
CONTINUOUS
 10
-41.2154582578
 20
43.7777737383
 11
-40.8791091596
 21
43.9719774922
  0
LINE
  5
21F
100
AcDbEntity
  8
RACCORDO
100
AcDbLine
 62
7
  6
CONTINUOUS
 10
-56.0520482464
 20
65.5069047101
 11
-56.0520482464
 21
-3.8930688173
  0
LINE
  5
220
100
AcDbEntity
  8
RACCORDO
100
AcDbLine
 62
250
  6
CONTINUOUS
 10
-55.905601637
 20
65.3027674135
 11
-55.905601637
 21
-4.0972061139
  0
LINE
  5
221
100
AcDbEntity
  8
RACCORDO
100
AcDbLine
 62
7
  6
CONTINUOUS
 10
-40.3439173761
 20
38.7155028844
 11
-39.716204547
 21
39.1294735918
  0
LINE
  5
222
100
AcDbEntity
  8
RACCORDO
100
AcDbLine
 62
7
  6
CONTINUOUS
 10
-40.5622634135
 20
38.5807720704
 11
-40.3439173761
 21
38.7155028844
  0
LINE
  5
223
100
AcDbEntity
  8
RACCORDO
100
AcDbLine
 62
250
  6
CONTINUOUS
 10
-40.3219539665
 20
36.7568881935
 11
-39.693990902
 21
37.1362567496
  0
LINE
  5
224
100
AcDbEntity
  8
RACCORDO
100
AcDbLine
 62
250
  6
CONTINUOUS
 10
-39.693990902
 20
38.1767585892
 11
-40.3219539722
 21
37.8057943098
  0
LINE
  5
225
100
AcDbEntity
  8
RACCORDO
100
AcDbLine
 62
250
  6
CONTINUOUS
 10
-40.3219539724
 20
37.8057943098
 11
-40.5402165799
 21
37.6825933178
  0
LINE
  5
226
100
AcDbEntity
  8
RACCORDO
100
AcDbLine
 62
7
  6
CONTINUOUS
 10
-40.3439173761
 20
42.0777165241
 11
-39.716204547
 21
42.414367611
  0
LINE
  5
227
100
AcDbEntity
  8
RACCORDO
100
AcDbLine
 62
7
  6
CONTINUOUS
 10
-40.5622634135
 20
41.9689580577
 11
-40.3439173761
 21
42.0777165241
  0
LINE
  5
228
100
AcDbEntity
  8
RACCORDO
100
AcDbLine
 62
7
  6
CONTINUOUS
 10
-40.5790621548
 20
40.9925466304
 11
-38.2299085362
 21
42.1589446657
  0
LINE
  5
229
100
AcDbEntity
  8
RACCORDO
100
AcDbLine
 62
7
  6
CONTINUOUS
 10
-39.6578491809
 20
37.1661601929
 11
-39.6571743658
 21
37.1689201132
  0
LINE
  5
22A
100
AcDbEntity
  8
RACCORDO
100
AcDbLine
 62
250
  6
CONTINUOUS
 10
-39.4407239338
 20
29.8664546148
 11
-39.716204547
 21
29.6960932713
  0
LINE
  5
22B
100
AcDbEntity
  8
RACCORDO
100
AcDbLine
 62
250
  6
CONTINUOUS
 10
-39.660072507
 20
32.189227251
 11
-39.5407239338
 21
32.258137858
  0
LINE
  5
22C
100
AcDbEntity
  8
RACCORDO
100
AcDbLine
 62
250
  6
CONTINUOUS
 10
-39.716204547
 20
31.9258731778
 11
-39.4407239338
 21
32.0849327774
  0
LINE
  5
22D
100
AcDbEntity
  8
RACCORDO
100
AcDbLine
 62
250
  6
CONTINUOUS
 10
-40.540216578
 20
36.6365035781
 11
-40.3219539666
 21
36.7568881936
  0
LINE
  5
22E
100
AcDbEntity
  8
RACCORDO
100
AcDbLine
 62
250
  6
CONTINUOUS
 10
-41.6397223266
 20
0.9539077205
 11
-41.6397223266
 21
43.7777737383
  0
LINE
  5
22F
100
AcDbEntity
  8
RACCORDO
100
AcDbLine
 62
250
  6
CONTINUOUS
 10
-41.2154582578
 20
0.9539077205
 11
-41.2154582578
 21
43.7777737383
  0
LINE
  5
230
100
AcDbEntity
  8
RACCORDO
100
AcDbLine
 62
7
  6
CONTINUOUS
 10
-40.5790621548
 20
43.7987341121
 11
-40.5790621548
 21
1.3213548545
  0
LINE
  5
231
100
AcDbEntity
  8
RACCORDO
100
AcDbLine
 62
250
  6
CONTINUOUS
 10
-40.5622634135
 20
1.2607666365
 11
-40.5622634135
 21
3.799138279
  0
LINE
  5
232
100
AcDbEntity
  8
RACCORDO
100
AcDbLine
 62
250
  6
CONTINUOUS
 10
-40.5622634135
 20
7.1873242663
 11
-40.5622634135
 21
7.9852261082
  0
LINE
  5
233
100
AcDbEntity
  8
RACCORDO
100
AcDbLine
 62
250
  6
CONTINUOUS
 10
-40.5622634134
 20
9.2064105466
 11
-40.5622634135
 21
36.561685796
  0
LINE
  5
234
100
AcDbEntity
  8
RACCORDO
100
AcDbLine
 62
250
  6
CONTINUOUS
 10
-40.5622634134
 20
37.7828702343
 11
-40.5622634135
 21
38.5807720704
  0
LINE
  5
235
100
AcDbEntity
  8
RACCORDO
100
AcDbLine
 62
250
  6
CONTINUOUS
 10
-40.5622634135
 20
41.9689580577
 11
-40.5622634135
 21
43.7890347294
  0
LINE
  5
236
100
AcDbEntity
  8
RACCORDO
100
AcDbLine
 62
7
  6
CONTINUOUS
 10
-40.3439173761
 20
42.0777165241
 11
-40.3439156519
 21
43.6629634684
  0
LINE
  5
237
100
AcDbEntity
  8
RACCORDO
100
AcDbLine
 62
7
  6
CONTINUOUS
 10
-40.3439173731
 20
8.1057143762
 11
-40.3439173761
 21
7.2960827327
  0
LINE
  5
238
100
AcDbEntity
  8
RACCORDO
100
AcDbLine
 62
7
  6
CONTINUOUS
 10
-40.3439173578
 20
9.3294115658
 11
-40.3439173731
 21
36.682174064
  0
LINE
  5
239
100
AcDbEntity
  8
RACCORDO
100
AcDbLine
 62
7
  6
CONTINUOUS
 10
-40.3439173578
 20
37.9058712536
 11
-40.3439173761
 21
38.7155028844
  0
LINE
  5
23A
100
AcDbEntity
  8
RACCORDO
100
AcDbLine
 62
7
  6
CONTINUOUS
 10
-40.3439173761
 20
3.933869093
 11
-40.3439107061
 21
1.3868399754
  0
LWPOLYLINE
  5
23B
100
AcDbEntity
  8
RACCORDO
100
AcDbPolyline
 62
7
  6
CONTINUOUS
 90
5
 70
0
 10
-39.660072511
 20
37.1414731488
 10
-39.6599285407
 20
37.1484074686
 10
-39.6594380712
 20
37.1555824237
 10
-39.6587055493
 20
37.1615033069
 10
-39.6578491809
 20
37.1661601929
  0
LINE
  5
23C
100
AcDbEntity
  8
RACCORDO
100
AcDbLine
 62
7
  6
CONTINUOUS
 10
-39.6578491809
 20
8.5897005052
 11
-39.6571743658
 21
8.5924604255
  0
LINE
  5
23D
100
AcDbEntity
  8
RACCORDO
100
AcDbLine
 62
7
  6
CONTINUOUS
 10
-39.468784996
 20
29.8024486551
 11
-39.6616865221
 21
29.6831554578
  0
LINE
  5
23E
100
AcDbEntity
  8
RACCORDO
100
AcDbLine
 62
250
  6
CONTINUOUS
 10
-39.716204547
 20
43.3005309435
 11
-39.716204547
 21
42.414367611
  0
LINE
  5
23F
100
AcDbEntity
  8
RACCORDO
100
AcDbLine
 62
250
  6
CONTINUOUS
 10
-39.716204547
 20
39.1294735918
 11
-39.716204547
 21
38.2774342783
  0
LINE
  5
240
100
AcDbEntity
  8
RACCORDO
100
AcDbLine
 62
250
  6
CONTINUOUS
 10
-39.716204547
 20
8.4847731332
 11
-39.716204547
 21
7.6327338197
  0
LINE
  5
241
100
AcDbEntity
  8
RACCORDO
100
AcDbLine
 62
250
  6
CONTINUOUS
 10
-39.716204547
 20
4.3478398004
 11
-39.716204547
 21
1.6218324599
  0
LINE
  5
242
100
AcDbEntity
  8
RACCORDO
100
AcDbLine
 62
250
  6
CONTINUOUS
 10
-39.716204547
 20
9.7009745906
 11
-39.716204547
 21
14.8363342337
  0
LINE
  5
243
100
AcDbEntity
  8
RACCORDO
100
AcDbLine
 62
250
  6
CONTINUOUS
 10
-39.716204547
 20
17.0661141402
 11
-39.716204547
 21
29.6960932713
  0
LINE
  5
244
100
AcDbEntity
  8
RACCORDO
100
AcDbLine
 62
250
  6
CONTINUOUS
 10
-39.716204547
 20
31.9258731778
 11
-39.716204547
 21
37.0612328209
  0
LINE
  5
245
100
AcDbEntity
  8
RACCORDO
100
AcDbLine
 62
7
  6
CONTINUOUS
 10
-39.660072507
 20
43.2681210071
 11
-39.660072507
 21
42.4886830399
  0
LINE
  5
246
100
AcDbEntity
  8
RACCORDO
100
AcDbLine
 62
7
  6
CONTINUOUS
 10
-39.660072507
 20
39.2155929778
 11
-39.660072507
 21
38.3576516852
  0
LINE
  5
247
100
AcDbEntity
  8
RACCORDO
100
AcDbLine
 62
7
  6
CONTINUOUS
 10
-39.660072507
 20
37.1414502288
 11
-39.660072507
 21
32.0962383712
  0
LINE
  5
248
100
AcDbEntity
  8
RACCORDO
100
AcDbLine
 62
7
  6
CONTINUOUS
 10
-39.660072507
 20
29.6861628928
 11
-39.660072507
 21
17.2364793335
  0
LINE
  5
249
100
AcDbEntity
  8
RACCORDO
100
AcDbLine
 62
7
  6
CONTINUOUS
 10
-39.660072507
 20
14.8264038551
 11
-39.660072507
 21
9.7811919975
  0
LINE
  5
24A
100
AcDbEntity
  8
RACCORDO
100
AcDbLine
 62
7
  6
CONTINUOUS
 10
-39.660072507
 20
8.564990541
 11
-39.660072507
 21
7.7070492485
  0
LINE
  5
24B
100
AcDbEntity
  8
RACCORDO
100
AcDbLine
 62
7
  6
CONTINUOUS
 10
-39.660072507
 20
4.4339591864
 11
-39.660072507
 21
1.7020498679
  0
LINE
  5
24C
100
AcDbEntity
  8
RACCORDO
100
AcDbLine
 62
7
  6
CONTINUOUS
 10
-39.4407239338
 20
32.0849327774
 11
-39.4407239338
 21
29.8664546148
  0
LINE
  5
24D
100
AcDbEntity
  8
RACCORDO
100
AcDbLine
 62
7
  6
CONTINUOUS
 10
-39.4407239338
 20
17.2251737398
 11
-39.4407239338
 21
15.0066955772
  0
LINE
  5
24E
100
AcDbEntity
  8
RACCORDO
100
AcDbLine
 62
7
  6
CONTINUOUS
 10
-39.4407239338
 20
1.5489444254
 11
-39.4407239338
 21
1.0699902391
  0
LINE
  5
24F
100
AcDbEntity
  8
RACCORDO
100
AcDbLine
 62
250
  6
CONTINUOUS
 10
-38.2299085362
 20
10.2750472504
 11
-38.2299085362
 21
7.3773108743
  0
LINE
  5
250
100
AcDbEntity
  8
RACCORDO
100
AcDbLine
 62
250
  6
CONTINUOUS
 10
-38.2299085362
 20
42.1589446657
 11
-38.2299085362
 21
42.4423622545
  0
LINE
  5
251
100
AcDbEntity
  8
RACCORDO
100
AcDbLine
 62
250
  6
CONTINUOUS
 10
-37.6211471072
 20
10.3696909078
 11
-37.6211471072
 21
7.5212975998
  0
LINE
  5
252
100
AcDbEntity
  8
DRAFT
100
AcDbLine
 62
7
  6
CONTINUOUS
 10
-36.4248098153
 20
10.3334937243
 11
-36.4248098153
 21
7.5574947832
  0
LINE
  5
253
100
AcDbEntity
  8
RACCORDO
100
AcDbLine
 62
250
  6
CONTINUOUS
 10
-36.3516702623
 20
7.6049330855
 11
-36.3516702623
 21
10.3720022602
  0
LINE
  5
254
100
AcDbEntity
  8
RACCORDO
100
AcDbLine
 62
250
  6
CONTINUOUS
 10
-36.2973588015
 20
7.6706537911
 11
-36.2973588015
 21
10.4280551319
  0
LINE
  5
255
100
AcDbEntity
  8
RACCORDO
100
AcDbLine
 62
250
  6
CONTINUOUS
 10
-36.0176500124
 20
8.6430272222
 11
-36.0176500124
 21
11.28750969
  0
LINE
  5
256
100
AcDbEntity
  8
RACCORDO
100
AcDbLine
 62
7
  6
CONTINUOUS
 10
-36.0100538889
 20
8.6960152042
 11
-36.0100538889
 21
11.3347839895
  0
LWPOLYLINE
  5
257
100
AcDbEntity
  8
RACCORDO
100
AcDbPolyline
 62
7
  6
CONTINUOUS
 90
5
 70
0
 10
-39.660072511
 20
8.565013461
 10
-39.6599285407
 20
8.5719477809
 10
-39.6594380712
 20
8.5791227359
 10
-39.6587055493
 20
8.5850436191
 10
-39.6578491809
 20
8.5897005052
  0
LINE
  5
258
100
AcDbEntity
  8
RACCORDO
100
AcDbLine
 62
7
  6
CONTINUOUS
 10
-36.0176500124
 20
8.6430272222
 11
-36.2973588015
 21
7.6706537911
  0
LINE
  5
259
100
AcDbEntity
  8
RACCORDO
100
AcDbLine
 62
7
  6
CONTINUOUS
 10
-36.0176500124
 20
11.28750969
 11
-36.2973588015
 21
10.4280551319
  0
LINE
  5
25A
100
AcDbEntity
  8
RACCORDO
100
AcDbLine
 62
250
  6
CONTINUOUS
 10
-39.660072507
 20
17.3294682134
 11
-39.5407239338
 21
17.3983788204
  0
LINE
  5
25B
100
AcDbEntity
  8
RACCORDO
100
AcDbLine
 62
250
  6
CONTINUOUS
 10
-39.716204547
 20
17.0661141402
 11
-39.4407239338
 21
17.2251737398
  0
LINE
  5
25C
100
AcDbEntity
  8
RACCORDO
100
AcDbLine
 62
7
  6
CONTINUOUS
 10
-39.5912694134
 20
1.3583266104
 11
-39.6137587287
 21
1.422435283
  0
LWPOLYLINE
  5
25D
100
AcDbEntity
  8
RACCORDO
100
AcDbPolyline
 62
7
  6
CONTINUOUS
 90
6
 70
0
 10
-39.6465617524
 20
1.5574039653
 10
-39.6495447204
 20
1.5751575457
 10
-39.6542298761
 20
1.6087084821
 10
-39.6575228645
 20
1.6412242725
 10
-39.6594534023
 20
1.6725787071
 10
-39.660066864
 20
1.7020110799
  0
LINE
  5
25E
100
AcDbEntity
  8
RACCORDO
100
AcDbLine
 62
250
  6
CONTINUOUS
 10
-39.4407239338
 20
15.0066955772
 11
-39.716204547
 21
14.8363342337
  0
LINE
  5
25F
100
AcDbEntity
  8
RACCORDO
100
AcDbLine
 62
7
  6
CONTINUOUS
 10
-39.468784996
 20
14.9426896174
 11
-39.6616865221
 21
14.8233964202
  0
LINE
  5
260
100
AcDbEntity
  8
RACCORDO
100
AcDbLine
 62
7
  6
CONTINUOUS
 10
-55.0949535453
 20
-5.5508194146
 11
52.3852771951
 21
-67.6085576004
  0
LINE
  5
261
100
AcDbEntity
  8
RACCORDO
100
AcDbLine
 62
250
  6
CONTINUOUS
 10
-55.1984948558
 20
-5.3219509841
 11
52.2817358845
 21
-67.3796891699
  0
LWPOLYLINE
  5
262
100
AcDbEntity
  8
RACCORDO
100
AcDbPolyline
 62
7
  6
CONTINUOUS
 90
10
 70
0
 10
-39.6311877348
 20
9.657141572
 10
-39.6371657945
 20
9.6721476165
 10
-39.6431851784
 20
9.6891502243
 10
-39.6482601354
 20
9.7056978682
 10
-39.6523834363
 20
9.7216039431
 10
-39.6555529869
 20
9.7366048271
 10
-39.6578251914
 20
9.7505821374
 10
-39.6592676255
 20
9.7634016535
 10
-39.6599617241
 20
9.7747973947
 10
-39.6600725078
 20
9.7811817218
  0
LINE
  5
263
100
AcDbEntity
  8
RACCORDO
100
AcDbLine
 62
7
  6
CONTINUOUS
 10
-24.0992744631
 20
-8.564058888
 11
-24.0992744631
 21
-8.6837501845
  0
LINE
  5
264
100
AcDbEntity
  8
RACCORDO
100
AcDbLine
 62
7
  6
CONTINUOUS
 10
-23.335033858
 20
-8.4232585999
 11
-23.335033858
 21
-8.4393259524
  0
LINE
  5
265
100
AcDbEntity
  8
RACCORDO
100
AcDbLine
 62
7
  6
CONTINUOUS
 10
-40.3439173761
 20
3.933869093
 11
-39.716204547
 21
4.3478398004
  0
LINE
  5
266
100
AcDbEntity
  8
RACCORDO
100
AcDbLine
 62
7
  6
CONTINUOUS
 10
-36.3516702623
 20
7.6049330855
 11
-36.4248098153
 21
7.5574947832
  0
LINE
  5
267
100
AcDbEntity
  8
RACCORDO
100
AcDbLine
 62
7
  6
CONTINUOUS
 10
-40.5622634135
 20
3.799138279
 11
-40.3439173761
 21
3.933869093
  0
LINE
  5
268
100
AcDbEntity
  8
RACCORDO
100
AcDbLine
 62
250
  6
CONTINUOUS
 10
-40.3219539665
 20
8.1804285058
 11
-39.693990902
 21
8.5597970619
  0
LINE
  5
269
100
AcDbEntity
  8
RACCORDO
100
AcDbLine
 62
250
  6
CONTINUOUS
 10
-39.693990902
 20
9.6002989014
 11
-40.3219539722
 21
9.229334622
  0
LINE
  5
26A
100
AcDbEntity
  8
RACCORDO
100
AcDbLine
 62
250
  6
CONTINUOUS
 10
-40.3219539724
 20
9.2293346221
 11
-40.5402165799
 21
9.1061336301
  0
LINE
  5
26B
100
AcDbEntity
  8
RACCORDO
100
AcDbLine
 62
250
  6
CONTINUOUS
 10
-40.540216578
 20
8.0600438903
 11
-40.3219539666
 21
8.1804285058
  0
LINE
  5
26C
100
AcDbEntity
  8
RACCORDO
100
AcDbLine
 62
7
  6
CONTINUOUS
 10
-40.3439173761
 20
7.2960827327
 11
-39.716204547
 21
7.6327338197
  0
LINE
  5
26D
100
AcDbEntity
  8
RACCORDO
100
AcDbLine
 62
7
  6
CONTINUOUS
 10
-36.3516702623
 20
10.3720022602
 11
-36.4248098153
 21
10.3334937243
  0
LINE
  5
26E
100
AcDbEntity
  8
RACCORDO
100
AcDbLine
 62
7
  6
CONTINUOUS
 10
-40.5622634135
 20
7.1873242663
 11
-40.3439173761
 21
7.2960827327
  0
LINE
  5
26F
100
AcDbEntity
  8
RACCORDO
100
AcDbLine
 62
7
  6
CONTINUOUS
 10
-38.2299085362
 20
7.3773108743
 11
-40.5790621548
 21
6.210912839
  0
LINE
  5
270
100
AcDbEntity
  8
RACCORDO
100
AcDbLine
 62
7
  6
CONTINUOUS
 10
-38.2299085362
 20
10.2750472504
 11
-39.6555433261
 21
9.719660488
  0
LWPOLYLINE
  5
271
100
AcDbEntity
  8
RACCORDO
100
AcDbPolyline
 62
7
  6
CONTINUOUS
 90
10
 70
0
 10
-39.6311877348
 20
38.2336012598
 10
-39.6371657945
 20
38.2486073043
 10
-39.6431851784
 20
38.265609912
 10
-39.6482601354
 20
38.282157556
 10
-39.6523834363
 20
38.2980636309
 10
-39.6555529869
 20
38.3130645149
 10
-39.6578251914
 20
38.3270418252
 10
-39.6592676255
 20
38.3398613412
 10
-39.6599617241
 20
38.3512570825
 10
-39.6600725078
 20
38.3576414096
  0
LINE
  5
272
100
AcDbEntity
  8
RACCORDO
100
AcDbLine
 62
250
  6
CONTINUOUS
 10
-41.2154582578
 20
0.9539077205
 11
-40.5790621548
 21
1.3213548545
  0
LINE
  5
273
100
AcDbEntity
  8
RACCORDO
100
AcDbLine
 62
250
  6
CONTINUOUS
 10
-40.3439104733
 20
1.3868404695
 11
-40.5622634135
 21
1.2607666365
  0
LINE
  5
274
100
AcDbEntity
  8
RACCORDO
100
AcDbLine
 62
250
  6
CONTINUOUS
 10
-39.6583247561
 20
1.6542480319
 11
-39.5407239338
 21
1.7221495059
  0
LINE
  5
275
100
AcDbEntity
  8
RACCORDO
100
AcDbLine
 62
250
  6
CONTINUOUS
 10
-39.6221219896
 20
1.4442071018
 11
-39.4407239338
 21
1.5489444254
  0
LINE
  5
276
100
AcDbEntity
  8
RACCORDO
100
AcDbLine
 62
250
  6
CONTINUOUS
 10
-40.7911941891
 20
0.2190607984
 11
-40.1547980861
 21
0.5865079324
  0
LINE
  5
277
100
AcDbEntity
  8
RACCORDO
100
AcDbLine
 62
250
  6
CONTINUOUS
 10
-39.8490180164
 20
0.5296456491
 11
-39.9526672137
 21
0.4698001
  0
LINE
  5
278
100
AcDbEntity
  8
RACCORDO
100
AcDbLine
 62
250
  6
CONTINUOUS
 10
38.0865672522
 20
-45.8138759263
 11
-41.0033262235
 21
-0.1483626626
  0
LINE
  5
279
100
AcDbEntity
  8
RACCORDO
100
AcDbLine
 62
250
  6
CONTINUOUS
 10
38.2986992866
 20
-45.4464524653
 11
-40.7911941891
 21
0.2190607984
  0
LINE
  5
27A
100
AcDbEntity
  8
RACCORDO
100
AcDbLine
 62
7
  6
CONTINUOUS
 10
-40.1547980861
 20
0.5865079324
 11
38.6350953896
 21
-44.9057890912
  0
LINE
  5
27B
100
AcDbEntity
  8
RACCORDO
100
AcDbLine
 62
7
  6
CONTINUOUS
 10
-39.8505897331
 20
0.5305531386
 11
-24.0992744631
 21
-8.564058888
  0
LINE
  5
27C
100
AcDbEntity
  8
DRAFT
100
AcDbLine
 62
7
  6
CONTINUOUS
 10
-19.9003884951
 20
-10.9884430214
 11
19.3877925799
 21
-33.6729463776
  0
LINE
  5
27D
100
AcDbEntity
  8
RACCORDO
100
AcDbLine
 62
7
  6
CONTINUOUS
 10
23.5866785478
 20
-36.0973305111
 11
38.6350953896
 21
-44.7860977946
  0
LINE
  5
27E
100
AcDbEntity
  8
RACCORDO
100
AcDbLine
 62
7
  6
CONTINUOUS
 10
-23.1936340409
 20
-8.6842376195
 11
-23.1843067996
 21
-8.6896230518
  0
LINE
  5
27F
100
AcDbEntity
  8
RACCORDO
100
AcDbLine
 62
7
  6
CONTINUOUS
 10
20.293433002
 20
-33.7931251092
 11
20.3027602433
 21
-33.7985105414
  0
LINE
  5
280
100
AcDbEntity
  8
RACCORDO
100
AcDbLine
 62
250
  6
CONTINUOUS
 10
-39.1975992252
 20
0.7648526251
 11
-23.4462839552
 21
-8.3297594015
  0
LINE
  5
281
100
AcDbEntity
  8
RACCORDO
100
AcDbLine
 62
250
  6
CONTINUOUS
 10
-19.2241970296
 20
-10.7675394771
 11
20.0407830878
 21
-33.4386468911
  0
LINE
  5
282
100
AcDbEntity
  8
RACCORDO
100
AcDbLine
 62
250
  6
CONTINUOUS
 10
24.2628700134
 20
-35.8764269668
 11
38.6350953896
 21
-44.1747697728
  0
LINE
  5
283
100
AcDbEntity
  8
RACCORDO
100
AcDbLine
 62
7
  6
CONTINUOUS
 10
-39.1258430884
 20
0.7617907012
 11
-23.3757274541
 21
-8.3321286373
  0
LINE
  5
284
100
AcDbEntity
  8
RACCORDO
100
AcDbLine
 62
7
  6
CONTINUOUS
 10
-19.1511336339
 20
-10.7713561625
 11
20.1113395889
 21
-33.4410161269
  0
LINE
  5
285
100
AcDbEntity
  8
RACCORDO
100
AcDbLine
 62
7
  6
CONTINUOUS
 10
24.3359334091
 20
-35.8802436521
 11
38.6350953896
 21
-44.1364005691
  0
LINE
  5
286
100
AcDbEntity
  8
RACCORDO
100
AcDbLine
 62
7
  6
CONTINUOUS
 10
-39.660072507
 20
1.7910598763
 11
-39.5407239338
 21
1.7221495059
  0
LINE
  5
287
100
AcDbEntity
  8
RACCORDO
100
AcDbLine
 62
7
  6
CONTINUOUS
 10
-18.5463125569
 20
-10.2196671325
 11
-21.8743500312
 21
-8.2981000049
  0
LINE
  5
288
100
AcDbEntity
  8
RACCORDO
100
AcDbLine
 62
7
  6
CONTINUOUS
 10
21.6127170118
 20
-33.4069874946
 11
24.9407544861
 21
-35.3285546222
  0
LWPOLYLINE
  5
289
100
AcDbEntity
  8
RACCORDO
100
AcDbPolyline
 62
7
  6
CONTINUOUS
 90
18
 70
0
 10
-39.1258413048
 20
0.7617937919
 10
-39.1403780792
 20
0.7704418726
 10
-39.171565788
 20
0.7907122019
 10
-39.2033923072
 20
0.8137875764
 10
-39.2356156749
 20
0.8396157595
 10
-39.2679605239
 20
0.8680828917
 10
-39.3001949824
 20
0.8990740709
 10
-39.3321068326
 20
0.9324710677
 10
-39.3634719236
 20
0.9681134612
 10
-39.3940849836
 20
1.0058275087
 10
-39.4237555863
 20
1.0454359836
 10
-39.4523091335
 20
1.0867547446
 10
-39.4795705229
 20
1.1295715223
 10
-39.5053747183
 20
1.1736668053
 10
-39.5295818741
 20
1.21883191
 10
-39.5520503159
 20
1.2648262108
 10
-39.5726487114
 20
1.3114028406
 10
-39.5912694134
 20
1.3583266104
  0
LINE
  5
28A
100
AcDbEntity
  8
RACCORDO
100
AcDbLine
 62
250
  6
CONTINUOUS
 10
-18.6611991988
 20
-11.0542381649
 11
-18.5281009529
 21
-10.3702415674
  0
LINE
  5
28B
100
AcDbEntity
  8
RACCORDO
100
AcDbLine
 62
7
  6
CONTINUOUS
 10
-18.6368973316
 20
-11.0682697585
 11
-18.4956136045
 21
-10.3422076835
  0
LINE
  5
28C
100
AcDbEntity
  8
RACCORDO
100
AcDbLine
 62
250
  6
CONTINUOUS
 10
-39.716204547
 20
1.6218324599
 11
-40.2554455005
 21
1.4283474445
  0
LINE
  5
28D
100
AcDbEntity
  8
RACCORDO
100
AcDbLine
 62
250
  6
CONTINUOUS
 10
-39.1975992252
 20
0.7648526251
 11
-39.8505897331
 21
0.5305531386
  0
LINE
  5
28E
100
AcDbEntity
  8
RACCORDO
100
AcDbLine
 62
7
  6
CONTINUOUS
 10
-39.7186511508
 20
4.5181206497
 11
-40.5790621548
 21
5.0149111799
  0
LINE
  5
28F
100
AcDbEntity
  8
RACCORDO
100
AcDbLine
 62
7
  6
CONTINUOUS
 10
-36.4601651544
 20
11.7079870911
 11
-36.1565004983
 21
11.5326549244
  0
LINE
  5
290
100
AcDbEntity
  8
DRAFT
100
AcDbLine
 62
7
  6
CONTINUOUS
 10
-19.9842969155
 20
-11.0596866477
 11
-19.9003884951
 21
-10.9884430214
  0
LINE
  5
291
100
AcDbEntity
  8
RACCORDO
100
AcDbLine
 62
7
  6
CONTINUOUS
 10
-19.0804339698
 20
-10.8121772624
 11
-18.5281009529
 21
-10.3702415674
  0
LINE
  5
292
100
AcDbEntity
  8
RACCORDO
100
AcDbLine
 62
250
  6
CONTINUOUS
 10
-23.335033858
 20
-8.4393259524
 11
-23.9288170982
 21
-8.7821701307
  0
LINE
  5
293
100
AcDbEntity
  8
RACCORDO
100
AcDbLine
 62
250
  6
CONTINUOUS
 10
-23.1936340409
 20
-8.6842376195
 11
-23.6460313714
 21
-8.9454470652
  0
LINE
  5
294
100
AcDbEntity
  8
RACCORDO
100
AcDbLine
 62
7
  6
CONTINUOUS
 10
-24.2191081064
 20
-8.6145597408
 11
-24.0992744631
 21
-8.564058888
  0
LINE
  5
295
100
AcDbEntity
  8
RACCORDO
100
AcDbLine
 62
7
  6
CONTINUOUS
 10
-23.1843067996
 20
-8.6896230518
 11
-22.1394447449
 21
-8.2850969226
  0
LINE
  5
296
100
AcDbEntity
  8
RACCORDO
100
AcDbLine
 62
7
  6
CONTINUOUS
 10
-23.4462839552
 20
-8.3297594015
 11
-24.0992744631
 21
-8.564058888
  0
LINE
  5
297
100
AcDbEntity
  8
RACCORDO
100
AcDbLine
 62
7
  6
CONTINUOUS
 10
-39.660072507
 20
17.4672891908
 11
-39.5407239338
 21
17.3983788204
  0
LINE
  5
298
100
AcDbEntity
  8
RACCORDO
100
AcDbLine
 62
7
  6
CONTINUOUS
 10
-19.2241970296
 20
-10.7675394771
 11
-19.9003884951
 21
-10.9884430214
  0
LINE
  5
299
100
AcDbEntity
  8
RACCORDO
100
AcDbLine
 62
7
  6
CONTINUOUS
 10
-36.4248098153
 20
7.5574947832
 11
-37.6211471072
 21
7.5212975998
  0
LINE
  5
29A
100
AcDbEntity
  8
RACCORDO
100
AcDbLine
 62
7
  6
CONTINUOUS
 10
-36.4248098153
 20
10.3334937243
 11
-37.6211471072
 21
10.3696909078
  0
LINE
  5
29B
100
AcDbEntity
  8
RACCORDO
100
AcDbLine
 62
7
  6
CONTINUOUS
 10
-36.4601651544
 20
11.7079870911
 11
-36.808633044
 21
11.7444779181
  0
LINE
  5
29C
100
AcDbEntity
  8
RACCORDO
100
AcDbLine
 62
7
  6
CONTINUOUS
 10
-39.660072507
 20
32.3270482284
 11
-39.5407239338
 21
32.258137858
  0
LINE
  5
29D
100
AcDbEntity
  8
RACCORDO
100
AcDbLine
 62
7
  6
CONTINUOUS
 10
-40.5790621548
 20
39.7965449713
 11
-39.7186511508
 21
39.2997544411
  0
LINE
  5
29E
100
AcDbEntity
  8
RACCORDO
100
AcDbLine
 62
7
  6
CONTINUOUS
 10
-40.9412014372
 20
44.007828795
 11
38.1486920385
 21
-1.6576844687
  0
LINE
  5
29F
100
AcDbEntity
  8
RACCORDO
100
AcDbLine
 62
250
  6
CONTINUOUS
 10
-41.0033262235
 20
44.1451498534
 11
38.0865672522
 21
-1.5203634103
  0
LINE
  5
2A0
100
AcDbEntity
  8
RACCORDO
100
AcDbLine
 62
7
  6
CONTINUOUS
 10
19.3877925799
 20
-33.6729463776
 11
19.3877925799
 21
-33.7926376742
  0
LINE
  5
2A1
100
AcDbEntity
  8
RACCORDO
100
AcDbLine
 62
7
  6
CONTINUOUS
 10
20.152033185
 20
-33.5482134421
 11
20.152033185
 21
-33.5321460895
  0
LINE
  5
2A2
100
AcDbEntity
  8
RACCORDO
100
AcDbLine
 62
250
  6
CONTINUOUS
 10
52.6352892751
 20
4.2655973462
 11
54.8980309749
 21
5.5720760448
  0
LINE
  5
2A3
100
AcDbEntity
  8
RACCORDO
100
AcDbLine
 62
250
  6
CONTINUOUS
 10
55.3096784392
 20
5.2380977668
 11
55.5011692478
 21
5.3486627344
  0
LINE
  5
2A4
100
AcDbEntity
  8
RACCORDO
100
AcDbLine
 62
250
  6
CONTINUOUS
 10
55.8291136747
 20
4.3952913277
 11
55.9959743792
 21
4.4916351079
  0
LINE
  5
2A5
100
AcDbEntity
  8
RACCORDO
100
AcDbLine
 62
250
  6
CONTINUOUS
 10
-36.808633044
 20
11.7444779181
 11
-39.660072507
 21
10.9480850193
  0
LINE
  5
2A6
100
AcDbEntity
  8
RACCORDO
100
AcDbLine
 62
7
  6
CONTINUOUS
 10
-37.0058865821
 20
11.7317635175
 11
-39.660072507
 21
10.9904625534
  0
LINE
  5
2A7
100
AcDbEntity
  8
RACCORDO
100
AcDbLine
 62
250
  6
CONTINUOUS
 10
53.6959494469
 20
2.428480041
 11
55.9586911467
 21
3.7349587396
  0
LINE
  5
2A8
100
AcDbEntity
  8
RACCORDO
100
AcDbLine
 62
250
  6
CONTINUOUS
 10
52.2817358845
 20
3.6532249111
 11
-55.1984948558
 21
65.7109630969
  0
LINE
  5
2A9
100
AcDbEntity
  8
RACCORDO
100
AcDbLine
 62
250
  6
CONTINUOUS
 10
52.6352892751
 20
4.2655973462
 11
-54.8449414652
 21
66.323335532
  0
LINE
  5
2AA
100
AcDbEntity
  8
RACCORDO
100
AcDbLine
 62
250
  6
CONTINUOUS
 10
24.8258678441
 20
-36.1631256546
 11
24.9589660901
 21
-35.479129057
  0
LINE
  5
2AB
100
AcDbEntity
  8
RACCORDO
100
AcDbLine
 62
7
  6
CONTINUOUS
 10
24.8501697114
 20
-36.1771572482
 11
24.9914534384
 21
-35.4510951731
  0
LWPOLYLINE
  5
2AC
100
AcDbEntity
  8
RACCORDO
100
AcDbPolyline
 62
7
  6
CONTINUOUS
 90
12
 70
0
 10
-50.6774700577
 20
66.7183091143
 10
-50.7111606652
 20
66.7364674169
 10
-50.7521661994
 20
66.7551499711
 10
-50.7930827561
 20
66.7701128972
 10
-50.8338025429
 20
66.781360884
 10
-50.8741709355
 20
66.7889031495
 10
-50.9139151779
 20
66.7927462437
 10
-50.9528694083
 20
66.7929397287
 10
-50.990826068
 20
66.7895575404
 10
-51.0273684698
 20
66.782739849
 10
-51.062207622
 20
66.7726909957
 10
-51.0832720635
 20
66.7643521615
  0
LINE
  5
2AD
100
AcDbEntity
  8
RACCORDO
100
AcDbLine
 62
7
  6
CONTINUOUS
 10
54.8980309749
 20
5.5720760448
 11
-52.5821997654
 21
67.6298142306
  0
LINE
  5
2AE
100
AcDbEntity
  8
RACCORDO
100
AcDbLine
 62
250
  6
CONTINUOUS
 10
-50.7737710232
 20
66.7104813091
 11
55.5011692478
 21
5.3486627344
  0
LINE
  5
2AF
100
AcDbEntity
  8
RACCORDO
100
AcDbLine
 62
7
  6
CONTINUOUS
 10
-50.6774681707
 20
66.7183080248
 11
55.5974721005
 21
5.3564894501
  0
LINE
  5
2B0
100
AcDbEntity
  8
RACCORDO
100
AcDbLine
 62
7
  6
CONTINUOUS
 10
38.6350953896
 20
-2.5001514154
 11
38.6350953896
 21
-45.3240174332
  0
LINE
  5
2B1
100
AcDbEntity
  8
RACCORDO
100
AcDbLine
 62
250
  6
CONTINUOUS
 10
38.7229633553
 20
-2.6226337934
 11
38.7229633553
 21
-45.4464998112
  0
LINE
  5
2B2
100
AcDbEntity
  8
RACCORDO
100
AcDbLine
 62
250
  6
CONTINUOUS
 10
20.152033185
 20
-33.5482134421
 11
19.5582499447
 21
-33.8910576203
  0
LINE
  5
2B3
100
AcDbEntity
  8
RACCORDO
100
AcDbLine
 62
250
  6
CONTINUOUS
 10
20.293433002
 20
-33.7931251092
 11
19.8410356715
 21
-34.0543345548
  0
LINE
  5
2B4
100
AcDbEntity
  8
DRAFT
100
AcDbLine
 62
7
  6
CONTINUOUS
 10
19.2679589366
 20
-33.7234472304
 11
19.3877925799
 21
-33.6729463776
  0
LINE
  5
2B5
100
AcDbEntity
  8
RACCORDO
100
AcDbLine
 62
7
  6
CONTINUOUS
 10
21.347622298
 20
-33.3939844123
 11
20.3027602433
 21
-33.7985105414
  0
LINE
  5
2B6
100
AcDbEntity
  8
RACCORDO
100
AcDbLine
 62
7
  6
CONTINUOUS
 10
20.0407830878
 20
-33.4386468911
 11
19.3877925799
 21
-33.6729463776
  0
LINE
  5
2B7
100
AcDbEntity
  8
RACCORDO
100
AcDbLine
 62
7
  6
CONTINUOUS
 10
24.2628700134
 20
-35.8764269668
 11
23.5866785478
 21
-36.0973305111
  0
LINE
  5
2B8
100
AcDbEntity
  8
DRAFT
100
AcDbLine
 62
7
  6
CONTINUOUS
 10
23.5027701274
 20
-36.1685741374
 11
23.5866785478
 21
-36.0973305111
  0
LINE
  5
2B9
100
AcDbEntity
  8
RACCORDO
100
AcDbLine
 62
7
  6
CONTINUOUS
 10
24.9589660901
 20
-35.479129057
 11
24.4066330732
 21
-35.9210647521
  0
LINE
  5
2BA
100
AcDbEntity
  8
RACCORDO
100
AcDbLine
 62
250
  6
CONTINUOUS
 10
52.9888426657
 20
-66.9714934864
 11
52.9888426657
 21
2.428480041
  0
LWPOLYLINE
  5
2BB
100
AcDbEntity
  8
RACCORDO
100
AcDbPolyline
 62
7
  6
CONTINUOUS
 90
23
 70
0
 10
56.0508993665
 20
4.5709886811
 10
56.0506406427
 20
4.5898113382
 10
56.0481064378
 20
4.6333807972
 10
56.0429693286
 20
4.6772236969
 10
56.0353258485
 20
4.7212170521
 10
56.0252642428
 20
4.765253188
 10
56.0128705273
 20
4.8092130022
 10
55.9982207066
 20
4.8529603256
 10
55.9814117234
 20
4.8963145625
 10
55.962523392
 20
4.9391279043
 10
55.9416337019
 20
4.9812512227
 10
55.9188585865
 20
5.0224770448
 10
55.8942787452
 20
5.0626570521
 10
55.8679836353
 20
5.1016392434
 10
55.8401025308
 20
5.1392112387
 10
55.8107220449
 20
5.1752294949
 10
55.7799332637
 20
5.2095506019
 10
55.7478567252
 20
5.2419876143
 10
55.7145733952
 20
5.2724067642
 10
55.6801438833
 20
5.3006795289
 10
55.6446245562
 20
5.3266707522
 10
55.6080753687
 20
5.3502370587
 10
55.5973622655
 20
5.3565527282
  0
LINE
  5
2BC
100
AcDbEntity
  8
RACCORDO
100
AcDbLine
 62
250
  6
CONTINUOUS
 10
53.6959494469
 20
-66.9714934864
 11
53.6959494469
 21
2.428480041
  0
LINE
  5
2BD
100
AcDbEntity
  8
RACCORDO
100
AcDbLine
 62
7
  6
CONTINUOUS
 10
55.9586911467
 20
-65.6650147878
 11
55.9586911467
 21
3.7349587396
  0
LINE
  5
2BE
100
AcDbEntity
  8
RACCORDO
100
AcDbLine
 62
250
  6
CONTINUOUS
 10
55.9959743792
 20
4.4916351079
 11
55.9959743792
 21
-63.6799277574
  0
LINE
  5
2BF
100
AcDbEntity
  8
RACCORDO
100
AcDbLine
 62
7
  6
CONTINUOUS
 10
56.050899505
 20
4.5711245689
 11
56.050899505
 21
-63.6004382945
  0
LINE
  5
2C0
100
AcDbEntity
  8
RACCORDO
100
AcDbLine
 62
250
  6
CONTINUOUS
 10
38.2986992866
 20
-45.4464524653
 11
38.6350953896
 21
-45.2522215714
  0
LWPOLYLINE
  5
2C1
100
AcDbEntity
  8
RACCORDO
100
AcDbPolyline
 62
7
  6
CONTINUOUS
 90
9
 70
0
 10
55.9586911467
 20
-63.9034817984
 10
55.9779154877
 20
-63.8760988955
 10
55.9972344047
 20
-63.842214598
 10
56.0137855785
 20
-63.8058114855
 10
56.0274359034
 20
-63.7670061315
 10
56.0380445286
 20
-63.7260363638
 10
56.0455260028
 20
-63.6830311312
 10
56.0498166349
 20
-63.6380694325
 10
56.0508995049
 20
-63.6004416666
  0
LINE
  5
2C2
100
AcDbEntity
  8
RACCORDO
100
AcDbLine
 62
250
  6
CONTINUOUS
 10
55.9959743792
 20
-63.6799277574
 11
55.9586911467
 21
-63.7037699524
  0
LINE
  5
2C3
100
AcDbEntity
  8
RACCORDO
100
AcDbLine
 62
250
  6
CONTINUOUS
 10
53.6959494469
 20
-66.9714934864
 11
55.9586911467
 21
-65.6650147878
  0
LINE
  5
2C4
100
AcDbEntity
  8
RACCORDO
100
AcDbLine
 62
7
  6
CONTINUOUS
 10
53.3853255153
 20
-67.6580987781
 11
55.6480672151
 21
-66.3516200795
  0
ARC
  5
2C5
100
AcDbEntity
  8
RACCORDO
100
AcDbCircle
 62
250
  6
CONTINUOUS
 10
-38.5688145401
 20
1.7500580856
 40
1.1596600585
100
AcDbArc
 50
199.3666527492
 51
201.3047905607
  0
ARC
  5
2C6
100
AcDbEntity
  8
RACCORDO
100
AcDbCircle
 62
7
  6
CONTINUOUS
 10
-40.262479819
 20
1.1853918115
 40
0.6906833602
100
AcDbArc
 50
21.684101057
 51
22.0072248507
  0
ARC
  5
2C7
100
AcDbEntity
  8
RACCORDO
100
AcDbCircle
 62
7
  6
CONTINUOUS
 10
-40.235422415
 20
1.196103893
 40
0.6615826758
100
AcDbArc
 50
20.005233826
 51
21.6878569448
  0
ARC
  5
2C8
100
AcDbEntity
  8
RACCORDO
100
AcDbCircle
 62
7
  6
CONTINUOUS
 10
-40.1168334774
 20
8.959384456
 40
0.5878393388
100
AcDbArc
 50
320.9392398804
 51
325.7098874062
  0
ARC
  5
2C9
100
AcDbEntity
  8
RACCORDO
100
AcDbCircle
 62
7
  6
CONTINUOUS
 10
-40.1168334774
 20
37.5358441437
 40
0.5878393388
100
AcDbArc
 50
320.9392398804
 51
325.7098874062
  0
ARC
  5
2CA
100
AcDbEntity
  8
RACCORDO
100
AcDbCircle
 62
250
  6
CONTINUOUS
 10
-40.0570306592
 20
37.4306616486
 40
0.4674100019
100
AcDbArc
 50
320.959884459
 51
326.2795181785
  0
ARC
  5
2CB
100
AcDbEntity
  8
RACCORDO
100
AcDbCircle
 62
250
  6
CONTINUOUS
 10
-40.0570306592
 20
8.8542019608
 40
0.4674100019
100
AcDbArc
 50
320.9598844591
 51
326.2795181786
  0
ARC
  5
2CC
100
AcDbEntity
  8
RACCORDO
100
AcDbCircle
 62
7
  6
CONTINUOUS
 10
-39.3190499154
 20
1.5669649525
 40
0.3269895595
100
AcDbArc
 50
200.7482876589
 51
202.0501660646
  0
ARC
  5
2CD
100
AcDbEntity
  8
RACCORDO
100
AcDbCircle
 62
250
  6
CONTINUOUS
 10
-39.8056010489
 20
1.5885306848
 40
0.2649024363
100
AcDbArc
 50
302.6148154075
 51
305.2963648185
  0
ARC
  5
2CE
100
AcDbEntity
  8
RACCORDO
100
AcDbCircle
 62
250
  6
CONTINUOUS
 10
-40.6636203331
 20
8.16757968
 40
0.2086289776
100
AcDbArc
 50
293.921318016
 51
299.0664587019
  0
ARC
  5
2CF
100
AcDbEntity
  8
RACCORDO
100
AcDbCircle
 62
250
  6
CONTINUOUS
 10
-40.6636203331
 20
36.7440393677
 40
0.2086289776
100
AcDbArc
 50
293.921318019
 51
299.0664586904
  0
ARC
  5
2D0
100
AcDbEntity
  8
RACCORDO
100
AcDbCircle
 62
250
  6
CONTINUOUS
 10
-40.6636203287
 20
9.3887641082
 40
0.2086289667
100
AcDbArc
 50
293.9213174236
 51
299.0664590122
  0
ARC
  5
2D1
100
AcDbEntity
  8
RACCORDO
100
AcDbCircle
 62
250
  6
CONTINUOUS
 10
-40.6636203287
 20
37.965223796
 40
0.2086289667
100
AcDbArc
 50
293.9213174231
 51
299.0664590115
  0
ARC
  5
2D2
100
AcDbEntity
  8
RACCORDO
100
AcDbCircle
 62
250
  6
CONTINUOUS
 10
-40.6617265332
 20
1.4394963412
 40
0.204541486
100
AcDbArc
 50
295.0838862988
 51
299.0959473176
  0
ARC
  5
2D3
100
AcDbEntity
  8
RACCORDO
100
AcDbCircle
 62
250
  6
CONTINUOUS
 10
-39.8025247273
 20
38.4221807904
 40
0.1685310838
100
AcDbArc
 50
300.8099117502
 51
306.3556111254
  0
ARC
  5
2D4
100
AcDbEntity
  8
RACCORDO
100
AcDbCircle
 62
250
  6
CONTINUOUS
 10
-39.8025247273
 20
9.8457211027
 40
0.1685310838
100
AcDbArc
 50
300.8099117501
 51
306.3556111254
  0
ARC
  5
2D5
100
AcDbEntity
  8
RACCORDO
100
AcDbCircle
 62
250
  6
CONTINUOUS
 10
-39.7625352473
 20
37.2494634516
 40
0.1323407897
100
AcDbArc
 50
301.1940488669
 51
308.4471608517
  0
ARC
  5
2D6
100
AcDbEntity
  8
RACCORDO
100
AcDbCircle
 62
250
  6
CONTINUOUS
 10
-39.7625352473
 20
8.6730037639
 40
0.1323407897
100
AcDbArc
 50
301.1940488669
 51
308.4471608516
  0
ARC
  5
2D7
100
AcDbEntity
  8
RACCORDO
100
AcDbCircle
 62
250
  6
CONTINUOUS
 10
-39.7606625171
 20
37.2471123544
 40
0.1293350032
100
AcDbArc
 50
308.4450373611
 51
320.8306481178
  0
ARC
  5
2D8
100
AcDbEntity
  8
RACCORDO
100
AcDbCircle
 62
250
  6
CONTINUOUS
 10
-39.7606625171
 20
8.6706526666
 40
0.1293350032
100
AcDbArc
 50
308.4450373611
 51
320.8306481179
  0
ARC
  5
2D9
100
AcDbEntity
  8
RACCORDO
100
AcDbCircle
 62
250
  6
CONTINUOUS
 10
-39.6062811609
 20
37.0732230411
 40
0.1085420214
100
AcDbArc
 50
156.9392833032
 51
162.6756418536
  0
ARC
  5
2DA
100
AcDbEntity
  8
RACCORDO
100
AcDbCircle
 62
250
  6
CONTINUOUS
 10
-39.6062811609
 20
8.4967633534
 40
0.1085420214
100
AcDbArc
 50
156.9392833032
 51
162.6756418534
  0
SPLINE
  5
2DB
100
AcDbEntity
  8
RACCORDO
100
AcDbSpline
 62
7
  6
CONTINUOUS
 70
0
 71
3
 72
11
 73
7
 74
0
 42
0.0000001
 43
0.0000001
 44
0.0000000001
 40
0.0
 40
0.0
 40
0.0
 40
0.0
 40
0.2230144959
 40
0.4622934403
 40
0.7222627249
 40
1.0
 40
1.0
 40
1.0
 40
1.0
 10
-39.6311632441
 20
8.6282054821
 30
0.0
 10
-39.5864480697
 20
8.6937407534
 30
0.0
 10
-39.5209530901
 20
8.8489416343
 30
0.0
 10
-39.4964047597
 20
9.1073531277
 30
0.0
 10
-39.5330463651
 20
9.3832106628
 30
0.0
 10
-39.5929994056
 20
9.566016224
 30
0.0
 10
-39.6311879184
 20
9.6571420101
 30
0.0
  0
SPLINE
  5
2DC
100
AcDbEntity
  8
RACCORDO
100
AcDbSpline
 62
7
  6
CONTINUOUS
 70
0
 71
3
 72
11
 73
7
 74
0
 42
0.0000001
 43
0.0000001
 44
0.0000000001
 40
0.0
 40
0.0
 40
0.0
 40
0.0
 40
0.2230144959
 40
0.4622934403
 40
0.7222627249
 40
1.0
 40
1.0
 40
1.0
 40
1.0
 10
-39.6311632441
 20
37.2046651698
 30
0.0
 10
-39.5864480697
 20
37.2702004412
 30
0.0
 10
-39.5209530901
 20
37.425401322
 30
0.0
 10
-39.4964047597
 20
37.6838128155
 30
0.0
 10
-39.5330463651
 20
37.9596703505
 30
0.0
 10
-39.5929994056
 20
38.1424759117
 30
0.0
 10
-39.6311879184
 20
38.2336016979
 30
0.0
  0
SPLINE
  5
2DD
100
AcDbEntity
  8
RACCORDO
100
AcDbSpline
 62
250
  6
CONTINUOUS
 70
0
 71
3
 72
9
 73
5
 74
0
 42
0.0000001
 43
0.0000001
 44
0.0000000001
 40
0.0
 40
0.0
 40
0.0
 40
0.0
 40
0.4594654133
 40
1.0
 40
1.0
 40
1.0
 40
1.0
 10
-39.6600813552
 20
38.3576414098
 30
0.0
 10
-39.6600821891
 20
38.3445784496
 30
0.0
 10
-39.6692366623
 20
38.3159299117
 30
0.0
 10
-39.6902547193
 20
38.2955785159
 30
0.0
 10
-39.7026203213
 20
38.2864537266
 30
0.0
  0
SPLINE
  5
2DE
100
AcDbEntity
  8
RACCORDO
100
AcDbSpline
 62
250
  6
CONTINUOUS
 70
0
 71
3
 72
12
 73
8
 74
0
 42
0.0000001
 43
0.0000001
 44
0.0000000001
 40
0.0
 40
0.0
 40
0.0
 40
0.0
 40
0.1108854016
 40
0.1986601462
 40
0.311535891
 40
0.6115548297
 40
1.0
 40
1.0
 40
1.0
 40
1.0
 10
-39.6311879797
 20
38.2336011571
 30
0.0
 10
-39.6299439494
 20
38.2306194606
 30
0.0
 10
-39.6323727367
 20
38.2241887373
 30
0.0
 10
-39.6378986321
 20
38.2173170688
 30
0.0
 10
-39.6483983473
 20
38.2069739128
 30
0.0
 10
-39.6671671402
 20
38.1930928557
 30
0.0
 10
-39.6842159621
 20
38.1824634873
 30
0.0
 10
-39.693990902
 20
38.1767585892
 30
0.0
  0
SPLINE
  5
2DF
100
AcDbEntity
  8
RACCORDO
100
AcDbSpline
 62
250
  6
CONTINUOUS
 70
0
 71
3
 72
11
 73
7
 74
0
 42
0.0000001
 43
0.0000001
 44
0.0000000001
 40
0.0
 40
0.0
 40
0.0
 40
0.0
 40
0.2854394976
 40
0.5512091864
 40
0.7902934471
 40
1.0
 40
1.0
 40
1.0
 40
1.0
 10
-39.693990902
 20
38.1767585892
 30
0.0
 10
-39.659283789
 20
38.0939401517
 30
0.0
 10
-39.6030531015
 20
37.9291564456
 30
0.0
 10
-39.5596369347
 20
37.6831846002
 30
0.0
 10
-39.561366676
 20
37.4570179808
 30
0.0
 10
-39.5957090088
 20
37.3178911442
 30
0.0
 10
-39.6217911469
 20
37.2572939812
 30
0.0
  0
SPLINE
  5
2E0
100
AcDbEntity
  8
RACCORDO
100
AcDbSpline
 62
250
  6
CONTINUOUS
 70
0
 71
3
 72
9
 73
5
 74
0
 42
0.0000001
 43
0.0000001
 44
0.0000000001
 40
0.0
 40
0.0
 40
0.0
 40
0.0
 40
0.2565241959
 40
1.0
 40
1.0
 40
1.0
 40
1.0
 10
-39.6217911469
 20
37.2572939812
 30
0.0
 10
-39.6251015637
 20
37.2496028224
 30
0.0
 10
-39.6386394387
 20
37.2198997248
 30
0.0
 10
-39.6547748534
 20
37.1913596107
 30
0.0
 10
-39.6682597138
 20
37.1711828211
 30
0.0
  0
SPLINE
  5
2E1
100
AcDbEntity
  8
RACCORDO
100
AcDbSpline
 62
7
  6
CONTINUOUS
 70
0
 71
3
 72
12
 73
8
 74
0
 42
0.0000001
 43
0.0000001
 44
0.0000000001
 40
0.0
 40
0.0
 40
0.0
 40
0.0
 40
0.199645457
 40
0.312442873
 40
0.4344644866
 40
0.7039585886
 40
1.0
 40
1.0
 40
1.0
 40
1.0
 10
-40.3219539665
 20
36.7568881935
 30
0.0
 10
-40.2764249586
 20
36.8135560556
 30
0.0
 10
-40.2264129629
 20
36.9198924582
 30
0.0
 10
-40.1952069694
 20
37.0751151885
 30
0.0
 10
-40.1844119938
 20
37.2590523318
 30
0.0
 10
-40.2164458507
 20
37.509407061
 30
0.0
 10
-40.2804877201
 20
37.7062989842
 30
0.0
 10
-40.3219539722
 20
37.8057943098
 30
0.0
  0
SPLINE
  5
2E2
100
AcDbEntity
  8
RACCORDO
100
AcDbSpline
 62
250
  6
CONTINUOUS
 70
0
 71
3
 72
9
 73
5
 74
0
 42
0.0000001
 43
0.0000001
 44
0.0000000001
 40
0.0
 40
0.0
 40
0.0
 40
0.0
 40
0.4669383712
 40
1.0
 40
1.0
 40
1.0
 40
1.0
 10
-39.1258445412
 20
0.7617881827
 30
0.0
 10
-39.1357610088
 20
0.7674983912
 30
0.0
 10
-39.1605742364
 20
0.7739319096
 30
0.0
 10
-39.1852404124
 20
0.7690851302
 30
0.0
 10
-39.1975992252
 20
0.7648526251
 30
0.0
  0
SPLINE
  5
2E3
100
AcDbEntity
  8
RACCORDO
100
AcDbSpline
 62
250
  6
CONTINUOUS
 70
0
 71
3
 72
10
 73
6
 74
0
 42
0.0000001
 43
0.0000001
 44
0.0000000001
 40
0.0
 40
0.0
 40
0.0
 40
0.0
 40
0.2193684044
 40
0.4536313783
 40
1.0
 40
1.0
 40
1.0
 40
1.0
 10
-39.6600813631
 20
1.7020110854
 30
0.0
 10
-39.6600850019
 20
1.694568846
 30
0.0
 10
-39.6627576226
 20
1.6790731204
 30
0.0
 10
-39.6788808713
 20
1.6487486177
 30
0.0
 10
-39.7002953775
 20
1.6313445894
 30
0.0
 10
-39.7162045471
 20
1.6218324616
 30
0.0
  0
SPLINE
  5
2E4
100
AcDbEntity
  8
RACCORDO
100
AcDbSpline
 62
250
  6
CONTINUOUS
 70
0
 71
3
 72
11
 73
7
 74
0
 42
0.0000001
 43
0.0000001
 44
0.0000000001
 40
0.0
 40
0.0
 40
0.0
 40
0.0
 40
0.218869364
 40
0.4548059915
 40
0.7144051484
 40
1.0
 40
1.0
 40
1.0
 40
1.0
 10
-51.082744718
 20
66.7641006558
 30
0.0
 10
-51.0605290794
 20
66.7719419202
 30
0.0
 10
-51.0117274537
 20
66.7813408023
 30
0.0
 10
-50.9343405855
 20
66.7759347054
 30
0.0
 10
-50.8531357033
 20
66.7522034715
 30
0.0
 10
-50.8002954794
 20
66.7260206094
 30
0.0
 10
-50.7737710232
 20
66.7104813091
 30
0.0
  0
SPLINE
  5
2E5
100
AcDbEntity
  8
RACCORDO
100
AcDbSpline
 62
250
  6
CONTINUOUS
 70
0
 71
3
 72
12
 73
8
 74
0
 42
0.0000001
 43
0.0000001
 44
0.0000000001
 40
0.0
 40
0.0
 40
0.0
 40
0.0
 40
0.1995697025
 40
0.3123381752
 40
0.4343564037
 40
0.703883739
 40
1.0
 40
1.0
 40
1.0
 40
1.0
 10
-40.540216578
 20
8.0600438903
 30
0.0
 10
-40.494721057
 20
8.1164685223
 30
0.0
 10
-40.4447320806
 20
8.222468726
 30
0.0
 10
-40.4135506044
 20
8.3772499205
 30
0.0
 10
-40.402758089
 20
8.560725792
 30
0.0
 10
-40.4347835868
 20
8.8104872442
 30
0.0
 10
-40.4987790629
 20
9.0068908263
 30
0.0
 10
-40.5402165799
 20
9.1061336301
 30
0.0
  0
SPLINE
  5
2E6
100
AcDbEntity
  8
RACCORDO
100
AcDbSpline
 62
250
  6
CONTINUOUS
 70
0
 71
3
 72
12
 73
8
 74
0
 42
0.0000001
 43
0.0000001
 44
0.0000000001
 40
0.0
 40
0.0
 40
0.0
 40
0.0
 40
0.1995697025
 40
0.3123381752
 40
0.4343564037
 40
0.703883739
 40
1.0
 40
1.0
 40
1.0
 40
1.0
 10
-40.540216578
 20
36.6365035781
 30
0.0
 10
-40.494721057
 20
36.6929282101
 30
0.0
 10
-40.4447320806
 20
36.7989284138
 30
0.0
 10
-40.4135506044
 20
36.9537096082
 30
0.0
 10
-40.402758089
 20
37.1371854797
 30
0.0
 10
-40.4347835868
 20
37.3869469319
 30
0.0
 10
-40.4987790629
 20
37.583350514
 30
0.0
 10
-40.5402165799
 20
37.6825933178
 30
0.0
  0
LINE
  5
2E7
100
AcDbEntity
  8
RACCORDO
100
AcDbLine
 62
250
  6
CONTINUOUS
 10
-40.3439173731
 20
8.1057143762
 11
-39.716204547
 21
8.4847731332
  0
SPLINE
  5
2E8
100
AcDbEntity
  8
RACCORDO
100
AcDbSpline
 62
250
  6
CONTINUOUS
 70
0
 71
3
 72
9
 73
5
 74
0
 42
0.0000001
 43
0.0000001
 44
0.0000000001
 40
0.0
 40
0.0
 40
0.0
 40
0.0
 40
0.2403637369
 40
1.0
 40
1.0
 40
1.0
 40
1.0
 10
-40.2554455005
 20
1.4283474445
 30
0.0
 10
-40.2628206021
 20
1.4257015186
 30
0.0
 10
-40.2932244886
 20
1.4139200667
 30
0.0
 10
-40.3224665217
 20
1.399222769
 30
0.0
 10
-40.3439107061
 20
1.3868399754
 30
0.0
  0
LINE
  5
2E9
100
AcDbEntity
  8
RACCORDO
100
AcDbLine
 62
250
  6
CONTINUOUS
 10
-39.716204547
 20
38.2774342783
 11
-40.3439173578
 21
37.9058712536
  0
LINE
  5
2EA
100
AcDbEntity
  8
RACCORDO
100
AcDbLine
 62
250
  6
CONTINUOUS
 10
-39.716204547
 20
9.7009745906
 11
-40.3439173578
 21
9.3294115658
  0
LINE
  5
2EB
100
AcDbEntity
  8
RACCORDO
100
AcDbLine
 62
250
  6
CONTINUOUS
 10
-40.3439173731
 20
36.682174064
 11
-39.716204547
 21
37.0612328209
  0
SPLINE
  5
2EC
100
AcDbEntity
  8
RACCORDO
100
AcDbSpline
 62
7
  6
CONTINUOUS
 70
0
 71
3
 72
11
 73
7
 74
0
 42
0.0000001
 43
0.0000001
 44
0.0000000001
 40
0.0
 40
0.0
 40
0.0
 40
0.0
 40
0.124767566
 40
0.3364581698
 40
0.6308490752
 40
1.0
 40
1.0
 40
1.0
 40
1.0
 10
-39.6616854961
 20
14.8233954585
 30
0.0
 10
-39.6636879975
 20
14.8221536342
 30
0.0
 10
-39.6705926693
 20
14.8223842168
 30
0.0
 10
-39.681964839
 20
14.8247869716
 30
0.0
 10
-39.69790352
 20
14.8297098044
 30
0.0
 10
-39.709666496
 20
14.833914091
 30
0.0
 10
-39.716204547
 20
14.8363342337
 30
0.0
  0
SPLINE
  5
2ED
100
AcDbEntity
  8
RACCORDO
100
AcDbSpline
 62
7
  6
CONTINUOUS
 70
0
 71
3
 72
11
 73
7
 74
0
 42
0.0000001
 43
0.0000001
 44
0.0000000001
 40
0.0
 40
0.0
 40
0.0
 40
0.0
 40
0.124767566
 40
0.3364581698
 40
0.6308490752
 40
1.0
 40
1.0
 40
1.0
 40
1.0
 10
-39.6616854961
 20
29.6831544962
 30
0.0
 10
-39.6636879975
 20
29.6819126719
 30
0.0
 10
-39.6705926693
 20
29.6821432544
 30
0.0
 10
-39.681964839
 20
29.6845460092
 30
0.0
 10
-39.69790352
 20
29.689468842
 30
0.0
 10
-39.709666496
 20
29.6936731287
 30
0.0
 10
-39.716204547
 20
29.6960932713
 30
0.0
  0
LINE
  5
2EE
100
AcDbEntity
  8
RACCORDO
100
AcDbLine
 62
250
  6
CONTINUOUS
 10
-40.5622634135
 20
7.9852261082
 11
-40.343917373
 21
8.1057143761
  0
SPLINE
  5
2EF
100
AcDbEntity
  8
RACCORDO
100
AcDbSpline
 62
250
  6
CONTINUOUS
 70
0
 71
3
 72
11
 73
7
 74
0
 42
0.0000001
 43
0.0000001
 44
0.0000000001
 40
0.0
 40
0.0
 40
0.0
 40
0.0
 40
0.2854394976
 40
0.5512091864
 40
0.7902934471
 40
1.0
 40
1.0
 40
1.0
 40
1.0
 10
-39.693990902
 20
9.6002989014
 30
0.0
 10
-39.659283789
 20
9.5174804639
 30
0.0
 10
-39.6030531015
 20
9.3526967579
 30
0.0
 10
-39.5596369347
 20
9.1067249124
 30
0.0
 10
-39.561366676
 20
8.880558293
 30
0.0
 10
-39.5957090088
 20
8.7414314564
 30
0.0
 10
-39.6217911469
 20
8.6808342935
 30
0.0
  0
SPLINE
  5
2F0
100
AcDbEntity
  8
RACCORDO
100
AcDbSpline
 62
250
  6
CONTINUOUS
 70
0
 71
3
 72
9
 73
5
 74
0
 42
0.0000001
 43
0.0000001
 44
0.0000000001
 40
0.0
 40
0.0
 40
0.0
 40
0.0
 40
0.2565241959
 40
1.0
 40
1.0
 40
1.0
 40
1.0
 10
-39.6217911469
 20
8.6808342935
 30
0.0
 10
-39.6251015637
 20
8.6731431346
 30
0.0
 10
-39.6386394387
 20
8.643440037
 30
0.0
 10
-39.6547748534
 20
8.6148999229
 30
0.0
 10
-39.6682597138
 20
8.5947231334
 30
0.0
  0
LINE
  5
2F1
100
AcDbEntity
  8
RACCORDO
100
AcDbLine
 62
250
  6
CONTINUOUS
 10
-40.5622634135
 20
36.561685796
 11
-40.343917373
 21
36.6821740639
  0
LINE
  5
2F2
100
AcDbEntity
  8
RACCORDO
100
AcDbLine
 62
250
  6
CONTINUOUS
 10
-40.3439173571
 20
9.3294115657
 11
-40.5622634134
 21
9.2064105466
  0
LINE
  5
2F3
100
AcDbEntity
  8
RACCORDO
100
AcDbLine
 62
250
  6
CONTINUOUS
 10
-40.3439173571
 20
37.9058712534
 11
-40.5622634134
 21
37.7828702343
  0
SPLINE
  5
2F4
100
AcDbEntity
  8
RACCORDO
100
AcDbSpline
 62
7
  6
CONTINUOUS
 70
0
 71
3
 72
12
 73
8
 74
0
 42
0.0000001
 43
0.0000001
 44
0.0000000001
 40
0.0
 40
0.0
 40
0.0
 40
0.0
 40
0.199645457
 40
0.312442873
 40
0.4344644866
 40
0.7039585886
 40
1.0
 40
1.0
 40
1.0
 40
1.0
 10
-40.3219539665
 20
8.1804285058
 30
0.0
 10
-40.2764249586
 20
8.2370963679
 30
0.0
 10
-40.2264129629
 20
8.3434327705
 30
0.0
 10
-40.1952069694
 20
8.4986555008
 30
0.0
 10
-40.1844119938
 20
8.6825926441
 30
0.0
 10
-40.2164458507
 20
8.9329473732
 30
0.0
 10
-40.2804877201
 20
9.1298392964
 30
0.0
 10
-40.3219539722
 20
9.229334622
 30
0.0
  0
SPLINE
  5
2F5
100
AcDbEntity
  8
RACCORDO
100
AcDbSpline
 62
7
  6
CONTINUOUS
 70
0
 71
3
 72
9
 73
5
 74
0
 42
0.0000001
 43
0.0000001
 44
0.0000000001
 40
0.0
 40
0.0
 40
0.0
 40
0.0
 40
0.4738812791
 40
1.0
 40
1.0
 40
1.0
 40
1.0
 10
-39.6248328279
 20
1.4511246206
 30
0.0
 10
-39.6308994949
 20
1.4671756043
 30
0.0
 10
-39.6394610533
 20
1.5026340964
 30
0.0
 10
-39.6432266443
 20
1.5386475786
 30
0.0
 10
-39.6465621391
 20
1.5574040341
 30
0.0
  0
SPLINE
  5
2F6
100
AcDbEntity
  8
RACCORDO
100
AcDbSpline
 62
7
  6
CONTINUOUS
 70
0
 71
3
 72
9
 73
5
 74
0
 42
0.0000001
 43
0.0000001
 44
0.0000000001
 40
0.0
 40
0.0
 40
0.0
 40
0.0
 40
0.5139278148
 40
1.0
 40
1.0
 40
1.0
 40
1.0
 10
-39.716204547
 20
17.0661141402
 30
0.0
 10
-39.6995121708
 20
17.0922538531
 30
0.0
 10
-39.672683313
 20
17.1468486959
 30
0.0
 10
-39.6600739149
 20
17.2071460137
 30
0.0
 10
-39.6600725941
 20
17.2364798002
 30
0.0
  0
SPLINE
  5
2F7
100
AcDbEntity
  8
RACCORDO
100
AcDbSpline
 62
7
  6
CONTINUOUS
 70
0
 71
3
 72
9
 73
5
 74
0
 42
0.0000001
 43
0.0000001
 44
0.0000000001
 40
0.0
 40
0.0
 40
0.0
 40
0.0
 40
0.5139278148
 40
1.0
 40
1.0
 40
1.0
 40
1.0
 10
-39.716204547
 20
31.9258731778
 30
0.0
 10
-39.6995121708
 20
31.9520128907
 30
0.0
 10
-39.672683313
 20
32.0066077336
 30
0.0
 10
-39.6600739149
 20
32.0669050514
 30
0.0
 10
-39.6600725941
 20
32.0962388378
 30
0.0
  0
SPLINE
  5
2F8
100
AcDbEntity
  8
RACCORDO
100
AcDbSpline
 62
250
  6
CONTINUOUS
 70
0
 71
3
 72
9
 73
5
 74
0
 42
0.0000001
 43
0.0000001
 44
0.0000000001
 40
0.0
 40
0.0
 40
0.0
 40
0.0
 40
0.3842108112
 40
1.0
 40
1.0
 40
1.0
 40
1.0
 10
-39.6137587287
 20
1.422435283
 30
0.0
 10
-39.613064327
 20
1.4141399636
 30
0.0
 10
-39.624848971
 20
1.3931627197
 30
0.0
 10
-39.641655696
 20
1.3800415214
 30
0.0
 10
-39.6525388735
 20
1.3723241372
 30
0.0
  0
SPLINE
  5
2F9
100
AcDbEntity
  8
RACCORDO
100
AcDbSpline
 62
250
  6
CONTINUOUS
 70
0
 71
3
 72
9
 73
5
 74
0
 42
0.0000001
 43
0.0000001
 44
0.0000000001
 40
0.0
 40
0.0
 40
0.0
 40
0.0
 40
0.4594654133
 40
1.0
 40
1.0
 40
1.0
 40
1.0
 10
-39.6600813552
 20
9.781181722
 30
0.0
 10
-39.6600821891
 20
9.7681187618
 30
0.0
 10
-39.6692366623
 20
9.739470224
 30
0.0
 10
-39.6902547193
 20
9.7191188281
 30
0.0
 10
-39.7026203213
 20
9.7099940388
 30
0.0
  0
SPLINE
  5
2FA
100
AcDbEntity
  8
RACCORDO
100
AcDbSpline
 62
250
  6
CONTINUOUS
 70
0
 71
3
 72
12
 73
8
 74
0
 42
0.0000001
 43
0.0000001
 44
0.0000000001
 40
0.0
 40
0.0
 40
0.0
 40
0.0
 40
0.1108854016
 40
0.1986601462
 40
0.311535891
 40
0.6115548297
 40
1.0
 40
1.0
 40
1.0
 40
1.0
 10
-39.6311879797
 20
9.6571414694
 30
0.0
 10
-39.6299439494
 20
9.6541597728
 30
0.0
 10
-39.6323727367
 20
9.6477290495
 30
0.0
 10
-39.6378986321
 20
9.6408573811
 30
0.0
 10
-39.6483983473
 20
9.630514225
 30
0.0
 10
-39.6671671402
 20
9.6166331679
 30
0.0
 10
-39.6842159621
 20
9.6060037995
 30
0.0
 10
-39.693990902
 20
9.6002989015
 30
0.0
  0
SPLINE
  5
2FB
100
AcDbEntity
  8
RACCORDO
100
AcDbSpline
 62
250
  6
CONTINUOUS
 70
0
 71
3
 72
9
 73
5
 74
0
 42
0.0000001
 43
0.0000001
 44
0.0000000001
 40
0.0
 40
0.0
 40
0.0
 40
0.0
 40
0.4514012409
 40
1.0
 40
1.0
 40
1.0
 40
1.0
 10
56.0508909066
 20
-63.6004416668
 30
0.0
 10
56.0508921384
 20
-63.6154710469
 30
0.0
 10
56.0383401698
 20
-63.6488994832
 30
0.0
 10
56.0115785748
 20
-63.6704335491
 30
0.0
 10
55.9959743792
 20
-63.6799277574
 30
0.0
  0
SPLINE
  5
2FC
100
AcDbEntity
  8
RACCORDO
100
AcDbSpline
 62
250
  6
CONTINUOUS
 70
0
 71
3
 72
9
 73
5
 74
0
 42
0.0000001
 43
0.0000001
 44
0.0000000001
 40
0.0
 40
0.0
 40
0.0
 40
0.0
 40
0.4514170702
 40
1.0
 40
1.0
 40
1.0
 40
1.0
 10
55.5973579785
 20
5.3565452936
 30
0.0
 10
55.5843439299
 20
5.3640289541
 30
0.0
 10
55.5491596863
 20
5.3698178795
 30
0.0
 10
55.5171738822
 20
5.3574196947
 30
0.0
 10
55.5011692478
 20
5.3486627344
 30
0.0
  0
SPLINE
  5
2FD
100
AcDbEntity
  8
RACCORDO
100
AcDbSpline
 62
250
  6
CONTINUOUS
 70
0
 71
3
 72
9
 73
5
 74
0
 42
0.0000001
 43
0.0000001
 44
0.0000000001
 40
0.0
 40
0.0
 40
0.0
 40
0.0
 40
0.451434285
 40
1.0
 40
1.0
 40
1.0
 40
1.0
 10
56.0508907865
 20
4.5709886862
 30
0.0
 10
56.0508623531
 20
4.5559773023
 30
0.0
 10
56.0382834129
 20
4.5226176284
 30
0.0
 10
56.0115578388
 20
4.5011166993
 30
0.0
 10
55.9959743792
 20
4.4916351079
 30
0.0
  0
SPLINE
  5
2FE
100
AcDbEntity
  8
RACCORDO
100
AcDbSpline
 62
250
  6
CONTINUOUS
 70
0
 71
3
 72
9
 73
5
 74
0
 42
0.0000001
 43
0.0000001
 44
0.0000000001
 40
0.0
 40
0.0
 40
0.0
 40
0.0
 40
0.4513860172
 40
1.0
 40
1.0
 40
1.0
 40
1.0
 10
-50.6774743575
 20
66.7183016672
 30
0.0
 10
-50.6904891072
 20
66.7258179429
 30
0.0
 10
-50.7257166567
 20
66.7316611657
 30
0.0
 10
-50.7577463707
 20
66.7192492225
 30
0.0
 10
-50.7737710232
 20
66.7104813091
 30
0.0
  0
SPLINE
  5
2FF
100
AcDbEntity
  8
RACCORDO
100
AcDbSpline
 62
250
  6
CONTINUOUS
 70
0
 71
3
 72
8
 73
4
 74
0
 42
0.0000001
 43
0.0000001
 44
0.0000000001
 40
0.0
 40
0.0
 40
0.0
 40
0.0
 40
1.0
 40
1.0
 40
1.0
 40
1.0
 10
-39.6600813553
 20
8.5649905408
 30
0.0
 10
-39.6600808487
 20
8.5593225138
 30
0.0
 10
-39.6608157088
 20
8.5536130506
 30
0.0
 10
-39.6622180405
 20
8.548121239
 30
0.0
  0
SPLINE
  5
300
100
AcDbEntity
  8
RACCORDO
100
AcDbSpline
 62
250
  6
CONTINUOUS
 70
0
 71
3
 72
9
 73
5
 74
0
 42
0.0000001
 43
0.0000001
 44
0.0000000001
 40
0.0
 40
0.0
 40
0.0
 40
0.0
 40
0.2426013818
 40
1.0
 40
1.0
 40
1.0
 40
1.0
 10
-39.6622180405
 20
8.548121239
 30
0.0
 10
-39.6627253585
 20
8.54613448
 30
0.0
 10
-39.6651726272
 20
8.5380371333
 30
0.0
 10
-39.6690050316
 20
8.5303835909
 30
0.0
 10
-39.6724534311
 20
8.5249900943
 30
0.0
  0
SPLINE
  5
301
100
AcDbEntity
  8
RACCORDO
100
AcDbSpline
 62
250
  6
CONTINUOUS
 70
0
 71
3
 72
9
 73
5
 74
0
 42
0.0000001
 43
0.0000001
 44
0.0000000001
 40
0.0
 40
0.0
 40
0.0
 40
0.0
 40
0.2291991529
 40
1.0
 40
1.0
 40
1.0
 40
1.0
 10
-39.6724534311
 20
8.5249900943
 30
0.0
 10
-39.6749119776
 20
8.5211447849
 30
0.0
 10
-39.6868974694
 20
8.505168292
 30
0.0
 10
-39.7030306315
 20
8.4926498465
 30
0.0
 10
-39.716204547
 20
8.4847731332
 30
0.0
  0
SPLINE
  5
302
100
AcDbEntity
  8
RACCORDO
100
AcDbSpline
 62
250
  6
CONTINUOUS
 70
0
 71
3
 72
8
 73
4
 74
0
 42
0.0000001
 43
0.0000001
 44
0.0000000001
 40
0.0
 40
0.0
 40
0.0
 40
0.0
 40
1.0
 40
1.0
 40
1.0
 40
1.0
 10
-39.6600813553
 20
37.1414502285
 30
0.0
 10
-39.6600808487
 20
37.1357822016
 30
0.0
 10
-39.6608157088
 20
37.1300727384
 30
0.0
 10
-39.6622180405
 20
37.1245809267
 30
0.0
  0
SPLINE
  5
303
100
AcDbEntity
  8
RACCORDO
100
AcDbSpline
 62
250
  6
CONTINUOUS
 70
0
 71
3
 72
9
 73
5
 74
0
 42
0.0000001
 43
0.0000001
 44
0.0000000001
 40
0.0
 40
0.0
 40
0.0
 40
0.0
 40
0.2426013818
 40
1.0
 40
1.0
 40
1.0
 40
1.0
 10
-39.6622180405
 20
37.1245809267
 30
0.0
 10
-39.6627253585
 20
37.1225941678
 30
0.0
 10
-39.6651726272
 20
37.1144968211
 30
0.0
 10
-39.6690050316
 20
37.1068432786
 30
0.0
 10
-39.6724534311
 20
37.101449782
 30
0.0
  0
SPLINE
  5
304
100
AcDbEntity
  8
RACCORDO
100
AcDbSpline
 62
250
  6
CONTINUOUS
 70
0
 71
3
 72
9
 73
5
 74
0
 42
0.0000001
 43
0.0000001
 44
0.0000000001
 40
0.0
 40
0.0
 40
0.0
 40
0.0
 40
0.2291991529
 40
1.0
 40
1.0
 40
1.0
 40
1.0
 10
-39.6724534311
 20
37.101449782
 30
0.0
 10
-39.6749119776
 20
37.0976044727
 30
0.0
 10
-39.6868974694
 20
37.0816279798
 30
0.0
 10
-39.7030306315
 20
37.0691095343
 30
0.0
 10
-39.716204547
 20
37.0612328209
 30
0.0
  0
SPLINE
  5
305
100
AcDbEntity
  8
RACCORDO
100
AcDbSpline
 62
250
  6
CONTINUOUS
 70
0
 71
3
 72
9
 73
5
 74
0
 42
0.0000001
 43
0.0000001
 44
0.0000000001
 40
0.0
 40
0.0
 40
0.0
 40
0.0
 40
0.239615724
 40
1.0
 40
1.0
 40
1.0
 40
1.0
 10
55.5011692478
 20
5.3486627344
 30
0.0
 10
55.5120568031
 20
5.3424671742
 30
0.0
 10
55.5567482285
 20
5.315307032
 30
0.0
 10
55.59845864
 20
5.2833577653
 30
0.0
 10
55.6283810548
 20
5.2571872776
 30
0.0
  0
SPLINE
  5
306
100
AcDbEntity
  8
RACCORDO
100
AcDbSpline
 62
250
  6
CONTINUOUS
 70
0
 71
3
 72
11
 73
7
 74
0
 42
0.0000001
 43
0.0000001
 44
0.0000000001
 40
0.0
 40
0.0
 40
0.0
 40
0.0
 40
0.251254648
 40
0.513507305
 40
0.7685734927
 40
1.0
 40
1.0
 40
1.0
 40
1.0
 10
55.6283810548
 20
5.2571872776
 30
0.0
 10
55.6832992108
 20
5.2091552275
 30
0.0
 10
55.7841324638
 20
5.0975599324
 30
0.0
 10
55.9001257775
 20
4.9054356778
 30
0.0
 10
55.97615078
 20
4.7003935817
 30
0.0
 10
55.9963959634
 20
4.5588355324
 30
0.0
 10
55.9959743792
 20
4.4916351079
 30
0.0
  0
SPLINE
  5
307
100
AcDbEntity
  8
RACCORDO
100
AcDbSpline
 62
250
  6
CONTINUOUS
 70
0
 71
3
 72
9
 73
5
 74
0
 42
0.0000001
 43
0.0000001
 44
0.0000000001
 40
0.0
 40
0.0
 40
0.0
 40
0.0
 40
0.2718129132
 40
1.0
 40
1.0
 40
1.0
 40
1.0
 10
55.9959743792
 20
-63.6799277574
 30
0.0
 10
55.9960899889
 20
-63.6982099529
 30
0.0
 10
55.9937071544
 20
-63.7653533432
 30
0.0
 10
55.9790927911
 20
-63.8328353931
 30
0.0
 10
55.9588402431
 20
-63.8774310968
 30
0.0
  0
SPLINE
  5
308
100
AcDbEntity
  8
RACCORDO
100
AcDbSpline
 62
250
  6
CONTINUOUS
 70
0
 71
3
 72
9
 73
5
 74
0
 42
0.0000001
 43
0.0000001
 44
0.0000000001
 40
0.0
 40
0.0
 40
0.0
 40
0.0
 40
0.2590094267
 40
1.0
 40
1.0
 40
1.0
 40
1.0
 10
-40.5508252864
 20
1.1288912963
 30
0.0
 10
-40.5527504426
 20
1.1401643132
 30
0.0
 10
-40.55932377
 20
1.1838254667
 30
0.0
 10
-40.5624057599
 20
1.2280495047
 30
0.0
 10
-40.5622633756
 20
1.2607666584
 30
0.0
  0
SPLINE
  5
309
100
AcDbEntity
  8
RACCORDO
100
AcDbSpline
 62
7
  6
CONTINUOUS
 70
0
 71
3
 72
11
 73
7
 74
0
 42
0.0000001
 43
0.0000001
 44
0.0000000001
 40
0.0
 40
0.0
 40
0.0
 40
0.0
 40
0.2296020733
 40
0.4838164471
 40
0.7466073287
 40
1.0
 40
1.0
 40
1.0
 40
1.0
 10
-40.3439173761
 20
1.3868364839
 30
0.0
 10
-40.342925899
 20
1.3229080227
 30
0.0
 10
-40.3219716364
 20
1.1883553832
 30
0.0
 10
-40.2499056189
 20
0.9923135345
 30
0.0
 10
-40.1421325739
 20
0.8054862559
 30
0.0
 10
-40.048662902
 20
0.6952866346
 30
0.0
 10
-39.9992007031
 20
0.6449642196
 30
0.0
  0
SPLINE
  5
30A
100
AcDbEntity
  8
RACCORDO
100
AcDbSpline
 62
250
  6
CONTINUOUS
 70
0
 71
3
 72
10
 73
6
 74
0
 42
0.0000001
 43
0.0000001
 44
0.0000000001
 40
0.0
 40
0.0
 40
0.0
 40
0.0
 40
0.5189908764
 40
0.7710704881
 40
1.0
 40
1.0
 40
1.0
 40
1.0
 10
-39.6492244188
 20
1.3287198067
 30
0.0
 10
-39.6031651916
 20
1.2105698852
 30
0.0
 10
-39.5069297587
 20
1.0442068078
 30
0.0
 10
-39.3404806563
 20
0.8645266279
 30
0.0
 10
-39.2459503047
 20
0.792978853
 30
0.0
 10
-39.1975992252
 20
0.7648526251
 30
0.0
  0
SPLINE
  5
30B
100
AcDbEntity
  8
RACCORDO
100
AcDbSpline
 62
7
  6
CONTINUOUS
 70
0
 71
3
 72
9
 73
5
 74
0
 42
0.0000001
 43
0.0000001
 44
0.0000000001
 40
0.0
 40
0.0
 40
0.0
 40
0.0
 40
0.5132177636
 40
1.0
 40
1.0
 40
1.0
 40
1.0
 10
-39.9993007337
 20
0.6447296629
 30
0.0
 10
-39.9762344153
 20
0.6223353991
 30
0.0
 10
-39.929831921
 20
0.5799435339
 30
0.0
 10
-39.8770081322
 20
0.5457964074
 30
0.0
 10
-39.8506008245
 20
0.5305491589
 30
0.0
  0
SPLINE
  5
30C
100
AcDbEntity
  8
RACCORDO
100
AcDbSpline
 62
250
  6
CONTINUOUS
 70
0
 71
3
 72
11
 73
7
 74
0
 42
0.0000001
 43
0.0000001
 44
0.0000000001
 40
0.0
 40
0.0
 40
0.0
 40
0.0
 40
0.2414907324
 40
0.4971013438
 40
0.7543771031
 40
1.0
 40
1.0
 40
1.0
 40
1.0
 10
-40.2554455005
 20
1.4283474445
 30
0.0
 10
-40.2660512613
 20
1.3607268395
 30
0.0
 10
-40.2683211067
 20
1.2181256372
 30
0.0
 10
-40.2231902514
 20
1.0074876444
 30
0.0
 10
-40.133814028
 20
0.8102238211
 30
0.0
 10
-40.0475993616
 20
0.6948692114
 30
0.0
 10
-39.9993007337
 20
0.6447296629
 30
0.0
  0
SPLINE
  5
30D
100
AcDbEntity
  8
RACCORDO
100
AcDbSpline
 62
250
  6
CONTINUOUS
 70
0
 71
3
 72
9
 73
5
 74
0
 42
0.0000001
 43
0.0000001
 44
0.0000000001
 40
0.0
 40
0.0
 40
0.0
 40
0.0
 40
0.2413259837
 40
1.0
 40
1.0
 40
1.0
 40
1.0
 10
-39.716204547
 20
1.6218324599
 30
0.0
 10
-39.7157685836
 20
1.6128142825
 30
0.0
 10
-39.7132250389
 20
1.5754821246
 30
0.0
 10
-39.7078728664
 20
1.5383592592
 30
0.0
 10
-39.7025074095
 20
1.5104867789
 30
0.0
  0
SPLINE
  5
30E
100
AcDbEntity
  8
RACCORDO
100
AcDbSpline
 62
250
  6
CONTINUOUS
 70
0
 71
3
 72
9
 73
5
 74
0
 42
0.0000001
 43
0.0000001
 44
0.0000000001
 40
0.0
 40
0.0
 40
0.0
 40
0.0
 40
0.2421487488
 40
1.0
 40
1.0
 40
1.0
 40
1.0
 10
-39.7025074095
 20
1.5104867789
 30
0.0
 10
-39.7002128217
 20
1.4985668521
 30
0.0
 10
-39.6897405056
 20
1.4495353841
 30
0.0
 10
-39.6754500982
 20
1.4013432287
 30
0.0
 10
-39.6628561879
 20
1.3655007762
 30
0.0
  0
SPLINE
  5
30F
100
AcDbEntity
  8
RACCORDO
100
AcDbSpline
 62
250
  6
CONTINUOUS
 70
0
 71
3
 72
9
 73
5
 74
0
 42
0.0000001
 43
0.0000001
 44
0.0000000001
 40
0.0
 40
0.0
 40
0.0
 40
0.0
 40
0.2554750723
 40
1.0
 40
1.0
 40
1.0
 40
1.0
 10
-40.5789646618
 20
8.0455210931
 30
0.0
 10
-40.5755211329
 20
8.0462989169
 30
0.0
 10
-40.5621482935
 20
8.049786872
 30
0.0
 10
-40.5492313944
 20
8.0550860091
 30
0.0
 10
-40.5402165781
 20
8.0600438901
 30
0.0
  0
SPLINE
  5
310
100
AcDbEntity
  8
RACCORDO
100
AcDbSpline
 62
250
  6
CONTINUOUS
 70
0
 71
3
 72
9
 73
5
 74
0
 42
0.0000001
 43
0.0000001
 44
0.0000000001
 40
0.0
 40
0.0
 40
0.0
 40
0.0
 40
0.2617004778
 40
1.0
 40
1.0
 40
1.0
 40
1.0
 10
-40.5789646607
 20
9.0855121979
 30
0.0
 10
-40.575538246
 20
9.0872218749
 30
0.0
 10
-40.5624864647
 20
9.0938363338
 30
0.0
 10
-40.5495968418
 20
9.1007749587
 30
0.0
 10
-40.5402165799
 20
9.1061336301
 30
0.0
  0
SPLINE
  5
311
100
AcDbEntity
  8
RACCORDO
100
AcDbSpline
 62
250
  6
CONTINUOUS
 70
0
 71
3
 72
9
 73
5
 74
0
 42
0.0000001
 43
0.0000001
 44
0.0000000001
 40
0.0
 40
0.0
 40
0.0
 40
0.0
 40
0.2554750723
 40
1.0
 40
1.0
 40
1.0
 40
1.0
 10
-40.5789646618
 20
36.6219807809
 30
0.0
 10
-40.5755211329
 20
36.6227586047
 30
0.0
 10
-40.5621482935
 20
36.6262465598
 30
0.0
 10
-40.5492313944
 20
36.6315456968
 30
0.0
 10
-40.5402165781
 20
36.6365035779
 30
0.0
  0
SPLINE
  5
312
100
AcDbEntity
  8
RACCORDO
100
AcDbSpline
 62
250
  6
CONTINUOUS
 70
0
 71
3
 72
9
 73
5
 74
0
 42
0.0000001
 43
0.0000001
 44
0.0000000001
 40
0.0
 40
0.0
 40
0.0
 40
0.0
 40
0.2817674334
 40
1.0
 40
1.0
 40
1.0
 40
1.0
 10
-40.5622634135
 20
36.561685796
 30
0.0
 10
-40.5622964027
 20
36.5690853779
 30
0.0
 10
-40.5609176822
 20
36.5952003767
 30
0.0
 10
-40.5520934621
 20
36.6218505415
 30
0.0
 10
-40.540216578
 20
36.636503578
 30
0.0
  0
SPLINE
  5
313
100
AcDbEntity
  8
RACCORDO
100
AcDbSpline
 62
7
  6
CONTINUOUS
 70
0
 71
3
 72
9
 73
5
 74
0
 42
0.0000001
 43
0.0000001
 44
0.0000000001
 40
0.0
 40
0.0
 40
0.0
 40
0.0
 40
0.2824052224
 40
1.0
 40
1.0
 40
1.0
 40
1.0
 10
-40.3439173766
 20
36.6821740624
 30
0.0
 10
-40.3439173781
 20
36.6895764605
 30
0.0
 10
-40.3424473267
 20
36.7156340183
 30
0.0
 10
-40.3337349087
 20
36.7422249926
 30
0.0
 10
-40.321953965
 20
36.7568881942
 30
0.0
  0
SPLINE
  5
314
100
AcDbEntity
  8
RACCORDO
100
AcDbSpline
 62
250
  6
CONTINUOUS
 70
0
 71
3
 72
9
 73
5
 74
0
 42
0.0000001
 43
0.0000001
 44
0.0000000001
 40
0.0
 40
0.0
 40
0.0
 40
0.0
 40
0.2414041837
 40
1.0
 40
1.0
 40
1.0
 40
1.0
 10
-39.693990902
 20
37.1362567496
 30
0.0
 10
-39.695199409
 20
37.1347614285
 30
0.0
 10
-39.699969143
 20
37.1283770615
 30
0.0
 10
-39.7037763535
 20
37.1212957031
 30
0.0
 10
-39.7061496194
 20
37.1157396427
 30
0.0
  0
SPLINE
  5
315
100
AcDbEntity
  8
RACCORDO
100
AcDbSpline
 62
250
  6
CONTINUOUS
 70
0
 71
3
 72
9
 73
5
 74
0
 42
0.0000001
 43
0.0000001
 44
0.0000000001
 40
0.0
 40
0.0
 40
0.0
 40
0.0
 40
0.2345680105
 40
1.0
 40
1.0
 40
1.0
 40
1.0
 10
-39.7098990965
 20
37.1055447651
 30
0.0
 10
-39.7109472959
 20
37.1021978571
 30
0.0
 10
-39.7147706479
 20
37.0877278386
 30
0.0
 10
-39.7161550885
 20
37.0726772839
 30
0.0
 10
-39.716204547
 20
37.0612328209
 30
0.0
  0
SPLINE
  5
316
100
AcDbEntity
  8
RACCORDO
100
AcDbSpline
 62
250
  6
CONTINUOUS
 70
0
 71
3
 72
9
 73
5
 74
0
 42
0.0000001
 43
0.0000001
 44
0.0000000001
 40
0.0
 40
0.0
 40
0.0
 40
0.0
 40
0.2666309382
 40
1.0
 40
1.0
 40
1.0
 40
1.0
 10
-40.5402165793
 20
37.6825933179
 30
0.0
 10
-40.5437806562
 20
37.691028846
 30
0.0
 10
-40.5557758385
 20
37.7231841401
 30
0.0
 10
-40.5623756102
 20
37.7576826129
 30
0.0
 10
-40.5622634151
 20
37.7828702356
 30
0.0
  0
SPLINE
  5
317
100
AcDbEntity
  8
RACCORDO
100
AcDbSpline
 62
7
  6
CONTINUOUS
 70
0
 71
3
 72
9
 73
5
 74
0
 42
0.0000001
 43
0.0000001
 44
0.0000000001
 40
0.0
 40
0.0
 40
0.0
 40
0.0
 40
0.2667587806
 40
1.0
 40
1.0
 40
1.0
 40
1.0
 10
-40.3219539643
 20
37.8057943141
 30
0.0
 10
-40.3254705772
 20
37.8142321991
 30
0.0
 10
-40.3373126455
 20
37.8463623017
 30
0.0
 10
-40.343917408
 20
37.8807443404
 30
0.0
 10
-40.3439173787
 20
37.9058712443
 30
0.0
  0
SPLINE
  5
318
100
AcDbEntity
  8
RACCORDO
100
AcDbSpline
 62
250
  6
CONTINUOUS
 70
0
 71
3
 72
9
 73
5
 74
0
 42
0.0000001
 43
0.0000001
 44
0.0000000001
 40
0.0
 40
0.0
 40
0.0
 40
0.0
 40
0.2312855898
 40
1.0
 40
1.0
 40
1.0
 40
1.0
 10
-39.716204547
 20
38.2774342783
 30
0.0
 10
-39.7161700567
 20
38.2694575135
 30
0.0
 10
-39.7138600402
 20
38.2349841065
 30
0.0
 10
-39.7041373265
 20
38.201252502
 30
0.0
 10
-39.693990902
 20
38.1767585892
 30
0.0
  0
SPLINE
  5
319
100
AcDbEntity
  8
RACCORDO
100
AcDbSpline
 62
250
  6
CONTINUOUS
 70
0
 71
3
 72
9
 73
5
 74
0
 42
0.0000001
 43
0.0000001
 44
0.0000000001
 40
0.0
 40
0.0
 40
0.0
 40
0.0
 40
0.2817674334
 40
1.0
 40
1.0
 40
1.0
 40
1.0
 10
-40.5622634135
 20
7.9852261083
 30
0.0
 10
-40.5622964027
 20
7.9926256902
 30
0.0
 10
-40.5609176822
 20
8.018740689
 30
0.0
 10
-40.5520934621
 20
8.0453908538
 30
0.0
 10
-40.540216578
 20
8.0600438903
 30
0.0
  0
SPLINE
  5
31A
100
AcDbEntity
  8
RACCORDO
100
AcDbSpline
 62
7
  6
CONTINUOUS
 70
0
 71
3
 72
9
 73
5
 74
0
 42
0.0000001
 43
0.0000001
 44
0.0000000001
 40
0.0
 40
0.0
 40
0.0
 40
0.0
 40
0.2824052224
 40
1.0
 40
1.0
 40
1.0
 40
1.0
 10
-40.3439173766
 20
8.1057143747
 30
0.0
 10
-40.3439173781
 20
8.1131167728
 30
0.0
 10
-40.3424473267
 20
8.1391743306
 30
0.0
 10
-40.3337349087
 20
8.1657653049
 30
0.0
 10
-40.321953965
 20
8.1804285064
 30
0.0
  0
SPLINE
  5
31B
100
AcDbEntity
  8
RACCORDO
100
AcDbSpline
 62
250
  6
CONTINUOUS
 70
0
 71
3
 72
9
 73
5
 74
0
 42
0.0000001
 43
0.0000001
 44
0.0000000001
 40
0.0
 40
0.0
 40
0.0
 40
0.0
 40
0.2414041837
 40
1.0
 40
1.0
 40
1.0
 40
1.0
 10
-39.693990902
 20
8.5597970619
 30
0.0
 10
-39.695199409
 20
8.5583017407
 30
0.0
 10
-39.699969143
 20
8.5519173738
 30
0.0
 10
-39.7037763535
 20
8.5448360153
 30
0.0
 10
-39.7061496194
 20
8.539279955
 30
0.0
  0
SPLINE
  5
31C
100
AcDbEntity
  8
RACCORDO
100
AcDbSpline
 62
250
  6
CONTINUOUS
 70
0
 71
3
 72
9
 73
5
 74
0
 42
0.0000001
 43
0.0000001
 44
0.0000000001
 40
0.0
 40
0.0
 40
0.0
 40
0.0
 40
0.2345680105
 40
1.0
 40
1.0
 40
1.0
 40
1.0
 10
-39.7098990965
 20
8.5290850773
 30
0.0
 10
-39.7109472959
 20
8.5257381693
 30
0.0
 10
-39.7147706479
 20
8.5112681509
 30
0.0
 10
-39.7161550885
 20
8.4962175962
 30
0.0
 10
-39.716204547
 20
8.4847731332
 30
0.0
  0
SPLINE
  5
31D
100
AcDbEntity
  8
RACCORDO
100
AcDbSpline
 62
250
  6
CONTINUOUS
 70
0
 71
3
 72
9
 73
5
 74
0
 42
0.0000001
 43
0.0000001
 44
0.0000000001
 40
0.0
 40
0.0
 40
0.0
 40
0.0
 40
0.2666309382
 40
1.0
 40
1.0
 40
1.0
 40
1.0
 10
-40.5402165793
 20
9.1061336301
 30
0.0
 10
-40.5437806562
 20
9.1145691582
 30
0.0
 10
-40.5557758385
 20
9.1467244524
 30
0.0
 10
-40.5623756102
 20
9.1812229251
 30
0.0
 10
-40.5622634151
 20
9.2064105478
 30
0.0
  0
SPLINE
  5
31E
100
AcDbEntity
  8
RACCORDO
100
AcDbSpline
 62
7
  6
CONTINUOUS
 70
0
 71
3
 72
9
 73
5
 74
0
 42
0.0000001
 43
0.0000001
 44
0.0000000001
 40
0.0
 40
0.0
 40
0.0
 40
0.0
 40
0.2667587806
 40
1.0
 40
1.0
 40
1.0
 40
1.0
 10
-40.3219539643
 20
9.2293346263
 30
0.0
 10
-40.3254705772
 20
9.2377725114
 30
0.0
 10
-40.3373126455
 20
9.2699026139
 30
0.0
 10
-40.343917408
 20
9.3042846526
 30
0.0
 10
-40.3439173787
 20
9.3294115565
 30
0.0
  0
SPLINE
  5
31F
100
AcDbEntity
  8
RACCORDO
100
AcDbSpline
 62
250
  6
CONTINUOUS
 70
0
 71
3
 72
9
 73
5
 74
0
 42
0.0000001
 43
0.0000001
 44
0.0000000001
 40
0.0
 40
0.0
 40
0.0
 40
0.0
 40
0.2312855898
 40
1.0
 40
1.0
 40
1.0
 40
1.0
 10
-39.716204547
 20
9.7009745906
 30
0.0
 10
-39.7161700567
 20
9.6929978257
 30
0.0
 10
-39.7138600402
 20
9.6585244187
 30
0.0
 10
-39.7041373265
 20
9.6247928142
 30
0.0
 10
-39.693990902
 20
9.6002989014
 30
0.0
  0
SPLINE
  5
320
100
AcDbEntity
  8
RACCORDO
100
AcDbSpline
 62
250
  6
CONTINUOUS
 70
0
 71
3
 72
9
 73
5
 74
0
 42
0.0000001
 43
0.0000001
 44
0.0000000001
 40
0.0
 40
0.0
 40
0.0
 40
0.0
 40
0.2617004778
 40
1.0
 40
1.0
 40
1.0
 40
1.0
 10
-40.5789646607
 20
37.6619718856
 30
0.0
 10
-40.575538246
 20
37.6636815626
 30
0.0
 10
-40.5624864647
 20
37.6702960216
 30
0.0
 10
-40.5495968418
 20
37.6772346465
 30
0.0
 10
-40.5402165799
 20
37.6825933179
 30
0.0
  0
SPLINE
  5
321
100
AcDbEntity
  8
RACCORDO
100
AcDbSpline
 62
7
  6
CONTINUOUS
 70
0
 71
3
 72
20
 73
16
 74
0
 42
0.0000001
 43
0.0000001
 44
0.0000000001
 40
0.0
 40
0.0
 40
0.0
 40
0.0
 40
0.2757927252
 40
0.5084251125
 40
0.695373134
 40
0.7707263016
 40
0.8333780403
 40
0.8839725516
 40
0.9237348796
 40
0.9537641523
 40
0.9750179162
 40
0.9886281728
 40
0.995890485
 40
0.9980300048
 40
1.0
 40
1.0
 40
1.0
 40
1.0
 10
38.6350953896
 20
-45.3240174332
 30
0.0
 10
38.6350953896
 20
-45.338722746
 30
0.0
 10
38.6340150818
 20
-45.3658532189
 30
0.0
 10
38.6290649963
 20
-45.4026587385
 30
0.0
 10
38.6227378948
 20
-45.428342216
 30
0.0
 10
38.6171047735
 20
-45.4447377724
 30
0.0
 10
38.6132621434
 20
-45.4540361718
 30
0.0
 10
38.6096300528
 20
-45.4613562414
 30
0.0
 10
38.6063902625
 20
-45.4668837618
 30
0.0
 10
38.6035643257
 20
-45.4708941373
 30
0.0
 10
38.6015097132
 20
-45.4735437191
 30
0.0
 10
38.5997630251
 20
-45.4752955853
 30
0.0
 10
38.5991875488
 20
-45.4759642506
 30
0.0
 10
38.5983062708
 20
-45.4764824609
 30
0.0
 10
38.5986228164
 20
-45.4762296947
 30
0.0
 10
38.5987137827
 20
-45.4761771719
 30
0.0
  0
SPLINE
  5
322
100
AcDbEntity
  8
RACCORDO
100
AcDbSpline
 62
7
  6
CONTINUOUS
 70
0
 71
3
 72
13
 73
9
 74
0
 42
0.0000001
 43
0.0000001
 44
0.0000000001
 40
0.0
 40
0.0
 40
0.0
 40
0.0
 40
0.114261616
 40
0.2375404968
 40
0.5000060651
 40
0.7624683135
 40
0.885743318
 40
1.0
 40
1.0
 40
1.0
 40
1.0
 10
54.8980309749
 20
5.5720760448
 30
0.0
 10
54.9706433348
 20
5.5301505782
 30
0.0
 10
55.1140801913
 20
5.4296144959
 30
0.0
 10
55.3825844104
 20
5.178265978
 30
0.0
 10
55.6662424488
 20
4.7908448551
 30
0.0
 10
55.8599296307
 20
4.3514818403
 30
0.0
 10
55.9433466571
 20
3.9932839695
 30
0.0
 10
55.9586911467
 20
3.8188020006
 30
0.0
 10
55.9586911467
 20
3.7349587396
 30
0.0
  0
SPLINE
  5
323
100
AcDbEntity
  8
RACCORDO
100
AcDbSpline
 62
7
  6
CONTINUOUS
 70
0
 71
3
 72
13
 73
9
 74
0
 42
0.0000001
 43
0.0000001
 44
0.0000000001
 40
0.0
 40
0.0
 40
0.0
 40
0.0
 40
0.1052299534
 40
0.2277459704
 40
0.500005826
 40
0.7722644296
 40
0.89477703
 40
1.0
 40
1.0
 40
1.0
 40
1.0
 10
38.1486920385
 20
-1.6576844687
 30
0.0
 10
38.1792880111
 20
-1.6753501998
 30
0.0
 10
38.2419583251
 20
-1.7198159476
 30
0.0
 10
38.3643365117
 20
-1.8352991253
 30
0.0
 10
38.4972776771
 20
-2.018080585
 30
0.0
 10
38.5891023043
 20
-2.2245998641
 30
0.0
 10
38.6279236699
 20
-2.3883203356
 30
0.0
 10
38.6350953896
 20
-2.4648240049
 30
0.0
 10
38.6350953896
 20
-2.5001514154
 30
0.0
  0
SPLINE
  5
324
100
AcDbEntity
  8
RACCORDO
100
AcDbSpline
 62
7
  6
CONTINUOUS
 70
0
 71
3
 72
20
 73
16
 74
0
 42
0.0000001
 43
0.0000001
 44
0.0000000001
 40
0.0
 40
0.0
 40
0.0
 40
0.0
 40
0.0019804587
 40
0.0041162372
 40
0.0113792069
 40
0.0249934244
 40
0.0462539091
 40
0.076293461
 40
0.1160652038
 40
0.1666629722
 40
0.2293082611
 40
0.3046617183
 40
0.4916138604
 40
0.7242017347
 40
1.0
 40
1.0
 40
1.0
 40
1.0
 10
-41.0912086852
 20
44.0524158549
 30
0.0
 10
-41.091300163
 20
44.0523630368
 30
0.0
 10
-41.091678653
 20
44.0522144999
 30
0.0
 10
-41.0907901288
 20
44.0527194255
 30
0.0
 10
-41.0899218115
 20
44.052883631
 30
0.0
 10
-41.0875307592
 20
44.0535210139
 30
0.0
 10
-41.0842062659
 20
44.053975394
 30
0.0
 10
-41.0793174812
 20
44.0544178946
 30
0.0
 10
-41.0729073307
 20
44.0544601816
 30
0.0
 10
-41.0647490632
 20
44.0539457662
 30
0.0
 10
-41.054772154
 20
44.0526237971
 30
0.0
 10
-41.0377518044
 20
44.0493016244
 30
0.0
 10
-41.0123402722
 20
44.0419367617
 30
0.0
 10
-40.9779810945
 20
44.0278188113
 30
0.0
 10
-40.9539406111
 20
44.0151842344
 30
0.0
 10
-40.9412014372
 20
44.007828795
 30
0.0
  0
SPLINE
  5
325
100
AcDbEntity
  8
RACCORDO
100
AcDbSpline
 62
7
  6
CONTINUOUS
 70
0
 71
3
 72
11
 73
7
 74
0
 42
0.0000001
 43
0.0000001
 44
0.0000000001
 40
0.0
 40
0.0
 40
0.0
 40
0.0
 40
0.2898086083
 40
0.549045172
 40
0.7822281915
 40
1.0
 40
1.0
 40
1.0
 40
1.0
 10
55.9586911467
 20
-65.6650147878
 30
0.0
 10
55.9586911467
 20
-65.7410370391
 30
0.0
 10
55.9472138436
 20
-65.8855602294
 30
0.0
 10
55.888614902
 20
-66.0841085785
 30
0.0
 10
55.7901319785
 20
-66.2452455691
 30
0.0
 10
55.6975365764
 20
-66.3230524529
 30
0.0
 10
55.6480651057
 20
-66.3516166386
 30
0.0
  0
SPLINE
  5
326
100
AcDbEntity
  8
RACCORDO
100
AcDbSpline
 62
7
  6
CONTINUOUS
 70
0
 71
3
 72
11
 73
7
 74
0
 42
0.0000001
 43
0.0000001
 44
0.0000000001
 40
0.0
 40
0.0
 40
0.0
 40
0.0
 40
0.2479418697
 40
0.4956563892
 40
0.7449335159
 40
1.0
 40
1.0
 40
1.0
 40
1.0
 10
53.3853255153
 20
-67.6580987781
 30
0.0
 10
53.3104037376
 20
-67.7013576736
 30
0.0
 10
53.1458388318
 20
-67.7645039648
 30
0.0
 10
52.8829952191
 20
-67.7812351389
 30
0.0
 10
52.6234841527
 20
-67.7272804979
 30
0.0
 10
52.4623518516
 20
-67.6530595411
 30
0.0
 10
52.3852771951
 20
-67.6085576004
 30
0.0
  0
SPLINE
  5
327
100
AcDbEntity
  8
RACCORDO
100
AcDbSpline
 62
7
  6
CONTINUOUS
 70
0
 71
3
 72
11
 73
7
 74
0
 42
0.0000001
 43
0.0000001
 44
0.0000000001
 40
0.0
 40
0.0
 40
0.0
 40
0.0
 40
0.2433433252
 40
0.5000090078
 40
0.7566696625
 40
1.0
 40
1.0
 40
1.0
 40
1.0
 10
-55.0949535453
 20
-5.5508194146
 30
0.0
 10
-55.2345962634
 20
-5.4701914593
 30
0.0
 10
-55.4946227735
 20
-5.2564123255
 30
0.0
 10
-55.7944799751
 20
-4.8495078305
 30
0.0
 10
-55.9969311963
 20
-4.3863768502
 30
0.0
 10
-56.0520482464
 20
-4.0543083302
 30
0.0
 10
-56.0520482464
 20
-3.8930688173
 30
0.0
  0
SPLINE
  5
328
100
AcDbEntity
  8
RACCORDO
100
AcDbSpline
 62
7
  6
CONTINUOUS
 70
0
 71
3
 72
11
 73
7
 74
0
 42
0.0000001
 43
0.0000001
 44
0.0000000001
 40
0.0
 40
0.0
 40
0.0
 40
0.0
 40
0.2550641648
 40
0.5043391559
 40
0.7520499656
 40
1.0
 40
1.0
 40
1.0
 40
1.0
 10
-56.0520482464
 20
65.5069047101
 30
0.0
 10
-56.0520482464
 20
65.59589331
 30
0.0
 10
-56.0357564754
 20
65.7725261623
 30
0.0
 10
-55.9527346466
 20
66.0242136777
 30
0.0
 10
-55.8068434478
 20
66.2434548762
 30
0.0
 10
-55.6698933872
 20
66.3543919228
 30
0.0
 10
-55.5949777054
 20
66.3976472985
 30
0.0
  0
SPLINE
  5
329
100
AcDbEntity
  8
RACCORDO
100
AcDbSpline
 62
7
  6
CONTINUOUS
 70
0
 71
3
 72
11
 73
7
 74
0
 42
0.0000001
 43
0.0000001
 44
0.0000000001
 40
0.0
 40
0.0
 40
0.0
 40
0.0
 40
0.2177664644
 40
0.4509472482
 40
0.7101858585
 40
1.0
 40
1.0
 40
1.0
 40
1.0
 10
-53.3322338962
 20
67.7041225563
 30
0.0
 10
-53.2827562561
 20
67.7326903041
 30
0.0
 10
-53.1690615224
 20
67.7739862295
 30
0.0
 10
-52.9802441694
 20
67.7787066501
 30
0.0
 10
-52.7789661448
 20
67.7301691829
 30
0.0
 10
-52.6480469891
 20
67.6678335923
 30
0.0
 10
-52.5821997654
 20
67.6298142306
 30
0.0
  0
SPLINE
  5
32A
100
AcDbEntity
  8
RACCORDO
100
AcDbSpline
 62
7
  6
CONTINUOUS
 70
0
 71
3
 72
11
 73
7
 74
0
 42
0.0000001
 43
0.0000001
 44
0.0000000001
 40
0.0
 40
0.0
 40
0.0
 40
0.0
 40
0.2372200919
 40
0.4999938933
 40
0.7627710182
 40
1.0
 40
1.0
 40
1.0
 40
1.0
 10
-40.5790621548
 20
1.3213548545
 30
0.0
 10
-40.5790621548
 20
1.2518091615
 30
0.0
 10
-40.5529772845
 20
1.1051312644
 30
0.0
 10
-40.462048848
 20
0.8990199718
 30
0.0
 10
-40.3290136187
 20
0.7172160849
 30
0.0
 10
-40.2150277098
 20
0.6212837623
 30
0.0
 10
-40.1547980861
 20
0.5865079324
 30
0.0
  0
SPLINE
  5
32B
100
AcDbEntity
  8
RACCORDO
100
AcDbSpline
 62
250
  6
CONTINUOUS
 70
0
 71
3
 72
11
 73
7
 74
0
 42
0.0000001
 43
0.0000001
 44
0.0000000001
 40
0.0
 40
0.0
 40
0.0
 40
0.0
 40
0.2177715917
 40
0.4509281894
 40
0.7102220736
 40
1.0
 40
1.0
 40
1.0
 40
1.0
 10
38.5987123812
 20
-45.4761747446
 30
0.0
 10
38.5789209612
 20
-45.4876020585
 30
0.0
 10
38.533443647
 20
-45.5041132429
 30
0.0
 10
38.4579140267
 20
-45.5060152112
 30
0.0
 10
38.3774054047
 20
-45.4865876478
 30
0.0
 10
38.3250347516
 20
-45.4616582328
 30
0.0
 10
38.2986992866
 20
-45.4464524653
 30
0.0
  0
SPLINE
  5
32C
100
AcDbEntity
  8
RACCORDO
100
AcDbSpline
 62
250
  6
CONTINUOUS
 70
0
 71
3
 72
15
 73
11
 74
0
 42
0.0000001
 43
0.0000001
 44
0.0000000001
 40
0.0
 40
0.0
 40
0.0
 40
0.0
 40
0.1449036733
 40
0.2745328298
 40
0.3911248448
 40
0.5000110984
 40
0.6088953336
 40
0.7254819912
 40
0.8551039262
 40
1.0
 40
1.0
 40
1.0
 40
1.0
 10
-55.1984948558
 20
65.7109630969
 30
0.0
 10
-55.2423888165
 20
65.7363069197
 30
0.0
 10
-55.329670787
 20
65.7778568294
 30
0.0
 10
-55.4638207956
 20
65.810237036
 30
0.0
 10
-55.5897790085
 20
65.8070444417
 30
0.0
 10
-55.7018883352
 20
65.7663981549
 30
0.0
 10
-55.7931511893
 20
65.6896433284
 30
0.0
 10
-55.8589021958
 20
65.5821665438
 30
0.0
 10
-55.8979409437
 20
65.4498079716
 30
0.0
 10
-55.905601637
 20
65.3534499517
 30
0.0
 10
-55.905601637
 20
65.3027674135
 30
0.0
  0
SPLINE
  5
32D
100
AcDbEntity
  8
RACCORDO
100
AcDbSpline
 62
250
  6
CONTINUOUS
 70
0
 71
3
 72
11
 73
7
 74
0
 42
0.0000001
 43
0.0000001
 44
0.0000000001
 40
0.0
 40
0.0
 40
0.0
 40
0.0
 40
0.2372127525
 40
0.4999938952
 40
0.7627783571
 40
1.0
 40
1.0
 40
1.0
 40
1.0
 10
52.9888426657
 20
2.428480041
 30
0.0
 10
52.9888426657
 20
2.5443859849
 30
0.0
 10
52.945367555
 20
2.7888485791
 30
0.0
 10
52.7938254532
 20
3.1323743797
 30
0.0
 10
52.5720913797
 20
3.4353797642
 30
0.0
 10
52.3821155215
 20
3.5952669668
 30
0.0
 10
52.2817358845
 20
3.6532249111
 30
0.0
  0
SPLINE
  5
32E
100
AcDbEntity
  8
RACCORDO
100
AcDbSpline
 62
250
  6
CONTINUOUS
 70
0
 71
3
 72
15
 73
11
 74
0
 42
0.0000001
 43
0.0000001
 44
0.0000000001
 40
0.0
 40
0.0
 40
0.0
 40
0.0
 40
0.1449036733
 40
0.2745328298
 40
0.3911248448
 40
0.5000110984
 40
0.6088953336
 40
0.7254819912
 40
0.8551039262
 40
1.0
 40
1.0
 40
1.0
 40
1.0
 10
52.2817358845
 20
-67.3796891699
 30
0.0
 10
52.3256298452
 20
-67.4050329927
 30
0.0
 10
52.4129118157
 20
-67.4465829024
 30
0.0
 10
52.5470618243
 20
-67.478963109
 30
0.0
 10
52.6730200372
 20
-67.4757705147
 30
0.0
 10
52.7851293639
 20
-67.4351242278
 30
0.0
 10
52.876392218
 20
-67.3583694013
 30
0.0
 10
52.9421432246
 20
-67.2508926167
 30
0.0
 10
52.9811819724
 20
-67.1185340446
 30
0.0
 10
52.9888426657
 20
-67.0221760246
 30
0.0
 10
52.9888426657
 20
-66.9714934864
 30
0.0
  0
SPLINE
  5
32F
100
AcDbEntity
  8
RACCORDO
100
AcDbSpline
 62
250
  6
CONTINUOUS
 70
0
 71
3
 72
11
 73
7
 74
0
 42
0.0000001
 43
0.0000001
 44
0.0000000001
 40
0.0
 40
0.0
 40
0.0
 40
0.0
 40
0.2177718081
 40
0.450954831
 40
0.7101913958
 40
1.0
 40
1.0
 40
1.0
 40
1.0
 10
53.385323498
 20
-67.6580952841
 30
0.0
 10
53.4347949559
 20
-67.6295310918
 30
0.0
 10
53.5273903309
 20
-67.5517242012
 30
0.0
 10
53.6258732235
 20
-67.3905872214
 30
0.0
 10
53.684472147
 20
-67.1920388966
 30
0.0
 10
53.6959494469
 20
-67.0475157265
 30
0.0
 10
53.6959494469
 20
-66.9714934864
 30
0.0
  0
SPLINE
  5
330
100
AcDbEntity
  8
RACCORDO
100
AcDbSpline
 62
250
  6
CONTINUOUS
 70
0
 71
3
 72
11
 73
7
 74
0
 42
0.0000001
 43
0.0000001
 44
0.0000000001
 40
0.0
 40
0.0
 40
0.0
 40
0.0
 40
0.2372127525
 40
0.4999938952
 40
0.7627783571
 40
1.0
 40
1.0
 40
1.0
 40
1.0
 10
-55.905601637
 20
-4.0972061139
 30
0.0
 10
-55.905601637
 20
-4.2131120578
 30
0.0
 10
-55.8621265263
 20
-4.457574652
 30
0.0
 10
-55.7105844245
 20
-4.8011004527
 30
0.0
 10
-55.488850351
 20
-5.1041058371
 30
0.0
 10
-55.2988744928
 20
-5.2639930397
 30
0.0
 10
-55.1984948558
 20
-5.3219509841
 30
0.0
  0
SPLINE
  5
331
100
AcDbEntity
  8
RACCORDO
100
AcDbSpline
 62
250
  6
CONTINUOUS
 70
0
 71
3
 72
15
 73
11
 74
0
 42
0.0000001
 43
0.0000001
 44
0.0000000001
 40
0.0
 40
0.0
 40
0.0
 40
0.0
 40
0.1448957007
 40
0.2745178341
 40
0.3911045571
 40
0.4999889295
 40
0.6088753302
 40
0.7254674115
 40
0.8550967174
 40
1.0
 40
1.0
 40
1.0
 40
1.0
 10
-41.6397223266
 20
43.7777737383
 30
0.0
 10
-41.6397223266
 20
43.8233879053
 30
0.0
 10
-41.6328277449
 20
43.9101100681
 30
0.0
 10
-41.5976929138
 20
44.0292327622
 30
0.0
 10
-41.5385169886
 20
44.1259620055
 30
0.0
 10
-41.4563803362
 20
44.1950414335
 30
0.0
 10
-41.35548182
 20
44.2316231039
 30
0.0
 10
-41.2421193123
 20
44.2344963643
 30
0.0
 10
-41.1213843663
 20
44.2053541535
 30
0.0
 10
-41.0428306816
 20
44.1679592324
 30
0.0
 10
-41.0033262235
 20
44.1451498534
 30
0.0
  0
SPLINE
  5
332
100
AcDbEntity
  8
RACCORDO
100
AcDbSpline
 62
250
  6
CONTINUOUS
 70
0
 71
3
 72
11
 73
7
 74
0
 42
0.0000001
 43
0.0000001
 44
0.0000000001
 40
0.0
 40
0.0
 40
0.0
 40
0.0
 40
0.2372214625
 40
0.5000061395
 40
0.7627874959
 40
1.0
 40
1.0
 40
1.0
 40
1.0
 10
-41.0033262235
 20
-0.1483626626
 30
0.0
 10
-41.0936678281
 20
-0.0962005524
 30
0.0
 10
-41.2646461233
 20
0.0476979185
 30
0.0
 10
-41.4642068775
 20
0.3204028441
 30
0.0
 10
-41.6005947629
 20
0.6295761622
 30
0.0
 10
-41.6397223266
 20
0.8495924802
 30
0.0
 10
-41.6397223266
 20
0.9539077205
 30
0.0
  0
SPLINE
  5
333
100
AcDbEntity
  8
RACCORDO
100
AcDbSpline
 62
250
  6
CONTINUOUS
 70
0
 71
3
 72
11
 73
7
 74
0
 42
0.0000001
 43
0.0000001
 44
0.0000000001
 40
0.0
 40
0.0
 40
0.0
 40
0.0
 40
0.2372383085
 40
0.5
 40
0.7627616915
 40
1.0
 40
1.0
 40
1.0
 40
1.0
 10
-41.6397223266
 20
0.9539077205
 30
0.0
 10
-41.609606129
 20
0.9365190055
 30
0.0
 10
-41.5395703683
 20
0.9111434759
 30
0.0
 10
-41.4275902922
 20
0.898985638
 30
0.0
 10
-41.3156102161
 20
0.9111434759
 30
0.0
 10
-41.2455744554
 20
0.9365190055
 30
0.0
 10
-41.2154582578
 20
0.9539077205
 30
0.0
  0
SPLINE
  5
334
100
AcDbEntity
  8
RACCORDO
100
AcDbSpline
 62
250
  6
CONTINUOUS
 70
0
 71
3
 72
11
 73
7
 74
0
 42
0.0000001
 43
0.0000001
 44
0.0000000001
 40
0.0
 40
0.0
 40
0.0
 40
0.0
 40
0.2372324595
 40
0.4999938932
 40
0.7627586504
 40
1.0
 40
1.0
 40
1.0
 40
1.0
 10
-41.0033262235
 20
-0.1483626626
 30
0.0
 10
-41.0033262235
 20
-0.1135879999
 30
0.0
 10
-40.990282352
 20
-0.0402493124
 30
0.0
 10
-40.9448206807
 20
0.0628054198
 30
0.0
 10
-40.8783025841
 20
0.1537047006
 30
0.0
 10
-40.8213105739
 20
0.2016719753
 30
0.0
 10
-40.7911941891
 20
0.2190607984
 30
0.0
  0
SPLINE
  5
335
100
AcDbEntity
  8
RACCORDO
100
AcDbSpline
 62
250
  6
CONTINUOUS
 70
0
 71
3
 72
11
 73
7
 74
0
 42
0.0000001
 43
0.0000001
 44
0.0000000001
 40
0.0
 40
0.0
 40
0.0
 40
0.0
 40
0.2372324595
 40
0.4999938932
 40
0.7627586504
 40
1.0
 40
1.0
 40
1.0
 40
1.0
 10
38.0865672522
 20
-45.8138759263
 30
0.0
 10
38.0865672522
 20
-45.7791012636
 30
0.0
 10
38.0996111237
 20
-45.7057625761
 30
0.0
 10
38.145072795
 20
-45.6027078439
 30
0.0
 10
38.2115908916
 20
-45.5118085631
 30
0.0
 10
38.2685829018
 20
-45.4638412884
 30
0.0
 10
38.2986992866
 20
-45.4464524653
 30
0.0
  0
SPLINE
  5
336
100
AcDbEntity
  8
RACCORDO
100
AcDbSpline
 62
250
  6
CONTINUOUS
 70
0
 71
3
 72
11
 73
7
 74
0
 42
0.0000001
 43
0.0000001
 44
0.0000000001
 40
0.0
 40
0.0
 40
0.0
 40
0.0
 40
0.2896952569
 40
0.5490778583
 40
0.7822096781
 40
1.0
 40
1.0
 40
1.0
 40
1.0
 10
38.7229633553
 20
-45.4464998112
 30
0.0
 10
38.7097996244
 20
-45.438899238
 30
0.0
 10
38.6859170191
 20
-45.4224488955
 30
0.0
 10
38.6573740925
 20
-45.3924497431
 30
0.0
 10
38.6393182415
 20
-45.3592633705
 30
0.0
 10
38.6350953896
 20
-45.335444968
 30
0.0
 10
38.6350953896
 20
-45.3240174332
 30
0.0
  0
SPLINE
  5
337
100
AcDbEntity
  8
RACCORDO
100
AcDbSpline
 62
250
  6
CONTINUOUS
 70
0
 71
3
 72
11
 73
7
 74
0
 42
0.0000001
 43
0.0000001
 44
0.0000000001
 40
0.0
 40
0.0
 40
0.0
 40
0.0
 40
0.2896952569
 40
0.5490778583
 40
0.7822096781
 40
1.0
 40
1.0
 40
1.0
 40
1.0
 10
38.7229633553
 20
-2.6226337934
 30
0.0
 10
38.7097996244
 20
-2.6150332202
 30
0.0
 10
38.6859170191
 20
-2.5985828778
 30
0.0
 10
38.6573740925
 20
-2.5685837253
 30
0.0
 10
38.6393182415
 20
-2.5353973527
 30
0.0
 10
38.6350953896
 20
-2.5115789502
 30
0.0
 10
38.6350953896
 20
-2.5001514154
 30
0.0
  0
SPLINE
  5
338
100
AcDbEntity
  8
RACCORDO
100
AcDbSpline
 62
250
  6
CONTINUOUS
 70
0
 71
3
 72
11
 73
7
 74
0
 42
0.0000001
 43
0.0000001
 44
0.0000000001
 40
0.0
 40
0.0
 40
0.0
 40
0.0
 40
0.2897008281
 40
0.5490847291
 40
0.7822142041
 40
1.0
 40
1.0
 40
1.0
 40
1.0
 10
38.0865672522
 20
-1.5203634103
 30
0.0
 10
38.0865672522
 20
-1.5355620531
 30
0.0
 10
38.0888711102
 20
-1.5644666655
 30
0.0
 10
38.1005765051
 20
-1.6041804513
 30
0.0
 10
38.1202846028
 20
-1.6364067035
 30
0.0
 10
38.1387972135
 20
-1.6519713134
 30
0.0
 10
38.1486920385
 20
-1.6576844687
 30
0.0
  0
SPLINE
  5
339
100
AcDbEntity
  8
RACCORDO
100
AcDbSpline
 62
250
  6
CONTINUOUS
 70
0
 71
3
 72
11
 73
7
 74
0
 42
0.0000001
 43
0.0000001
 44
0.0000000001
 40
0.0
 40
0.0
 40
0.0
 40
0.0
 40
0.2897008281
 40
0.5490847291
 40
0.7822142041
 40
1.0
 40
1.0
 40
1.0
 40
1.0
 10
-41.0033262235
 20
44.1451498534
 30
0.0
 10
-41.0033262235
 20
44.1299512106
 30
0.0
 10
-41.0010223655
 20
44.1010465982
 30
0.0
 10
-40.9893169706
 20
44.0613328124
 30
0.0
 10
-40.9696088729
 20
44.0291065602
 30
0.0
 10
-40.9510962622
 20
44.0135419503
 30
0.0
 10
-40.9412014372
 20
44.007828795
 30
0.0
  0
SPLINE
  5
33A
100
AcDbEntity
  8
RACCORDO
100
AcDbSpline
 62
250
  6
CONTINUOUS
 70
0
 71
3
 72
11
 73
7
 74
0
 42
0.0000001
 43
0.0000001
 44
0.0000000001
 40
0.0
 40
0.0
 40
0.0
 40
0.0
 40
0.2372383085
 40
0.5
 40
0.7627616915
 40
1.0
 40
1.0
 40
1.0
 40
1.0
 10
-41.6397223266
 20
43.7777737383
 30
0.0
 10
-41.609606129
 20
43.7603850232
 30
0.0
 10
-41.5395703683
 20
43.7350094937
 30
0.0
 10
-41.4275902922
 20
43.7228516557
 30
0.0
 10
-41.3156102161
 20
43.7350094937
 30
0.0
 10
-41.2455744554
 20
43.7603850232
 30
0.0
 10
-41.2154582578
 20
43.7777737383
 30
0.0
  0
SPLINE
  5
33B
100
AcDbEntity
  8
RACCORDO
100
AcDbSpline
 62
250
  6
CONTINUOUS
 70
0
 71
3
 72
15
 73
11
 74
0
 42
0.0000001
 43
0.0000001
 44
0.0000000001
 40
0.0
 40
0.0
 40
0.0
 40
0.0
 40
0.1448957007
 40
0.2745178341
 40
0.3911045571
 40
0.4999889295
 40
0.6088753302
 40
0.7254674115
 40
0.8550967174
 40
1.0
 40
1.0
 40
1.0
 40
1.0
 10
38.7229633553
 20
-45.4464998112
 30
0.0
 10
38.7229633553
 20
-45.4921139782
 30
0.0
 10
38.7160687737
 20
-45.5788361411
 30
0.0
 10
38.6809339425
 20
-45.6979588351
 30
0.0
 10
38.6217580173
 20
-45.7946880785
 30
0.0
 10
38.539621365
 20
-45.8637675064
 30
0.0
 10
38.4387228487
 20
-45.9003491769
 30
0.0
 10
38.325360341
 20
-45.9032224373
 30
0.0
 10
38.2046253951
 20
-45.8740802265
 30
0.0
 10
38.1260717104
 20
-45.8366853054
 30
0.0
 10
38.0865672522
 20
-45.8138759263
 30
0.0
  0
SPLINE
  5
33C
100
AcDbEntity
  8
RACCORDO
100
AcDbSpline
 62
250
  6
CONTINUOUS
 70
0
 71
3
 72
9
 73
5
 74
0
 42
0.0000001
 43
0.0000001
 44
0.0000000001
 40
0.0
 40
0.0
 40
0.0
 40
0.0
 40
0.2415679929
 40
1.0
 40
1.0
 40
1.0
 40
1.0
 10
38.0865672522
 20
-1.5203634103
 30
0.0
 10
38.0970526395
 20
-1.5264175416
 30
0.0
 10
38.1399159159
 20
-1.5524136212
 30
0.0
 10
38.1806241193
 20
-1.581908923
 30
0.0
 10
38.210220808
 20
-1.6057639819
 30
0.0
  0
SPLINE
  5
33D
100
AcDbEntity
  8
RACCORDO
100
AcDbSpline
 62
250
  6
CONTINUOUS
 70
0
 71
3
 72
11
 73
7
 74
0
 42
0.0000001
 43
0.0000001
 44
0.0000000001
 40
0.0
 40
0.0
 40
0.0
 40
0.0
 40
0.2482687432
 40
0.5109238557
 40
0.767752278
 40
1.0
 40
1.0
 40
1.0
 40
1.0
 10
38.210220808
 20
-1.6057639819
 30
0.0
 10
38.2856168567
 20
-1.6665335225
 30
0.0
 10
38.424891889
 20
-1.8118020156
 30
0.0
 10
38.5860647726
 20
-2.0662767911
 30
0.0
 10
38.6932496908
 20
-2.3410948304
 30
0.0
 10
38.7229633553
 20
-2.5320453115
 30
0.0
 10
38.7229633553
 20
-2.6226337934
 30
0.0
  0
SPLINE
  5
33E
100
AcDbEntity
  8
RACCORDO
100
AcDbSpline
 62
250
  6
CONTINUOUS
 70
0
 71
3
 72
11
 73
7
 74
0
 42
0.0000001
 43
0.0000001
 44
0.0000000001
 40
0.0
 40
0.0
 40
0.0
 40
0.0
 40
0.237228983
 40
0.500006107
 40
0.7627799061
 40
1.0
 40
1.0
 40
1.0
 40
1.0
 10
-40.7911941891
 20
0.2190607984
 30
0.0
 10
-40.8514238132
 20
0.2538366285
 30
0.0
 10
-40.965409722
 20
0.3497689513
 30
0.0
 10
-41.0984449511
 20
0.5315728377
 30
0.0
 10
-41.1893733873
 20
0.7376841299
 30
0.0
 10
-41.2154582578
 20
0.8843620269
 30
0.0
 10
-41.2154582578
 20
0.9539077205
 30
0.0
  0
SPLINE
  5
33F
100
AcDbEntity
  8
RACCORDO
100
AcDbSpline
 62
250
  6
CONTINUOUS
 70
0
 71
3
 72
11
 73
7
 74
0
 42
0.0000001
 43
0.0000001
 44
0.0000000001
 40
0.0
 40
0.0
 40
0.0
 40
0.0
 40
0.28977236
 40
0.5490642341
 40
0.7822230568
 40
1.0
 40
1.0
 40
1.0
 40
1.0
 10
-41.2154582578
 20
43.7777737383
 30
0.0
 10
-41.2154582578
 20
43.8081786733
 30
0.0
 10
-41.2108616649
 20
43.8659881121
 30
0.0
 10
-41.187434293
 20
43.9454114807
 30
0.0
 10
-41.1480278503
 20
44.0098616841
 30
0.0
 10
-41.1109962311
 20
44.0409875414
 30
0.0
 10
-41.0912072837
 20
44.0524134276
 30
0.0
  0
SPLINE
  5
340
100
AcDbEntity
  8
RACCORDO
100
AcDbSpline
 62
250
  6
CONTINUOUS
 70
0
 71
3
 72
11
 73
7
 74
0
 42
0.0000001
 43
0.0000001
 44
0.0000000001
 40
0.0
 40
0.0
 40
0.0
 40
0.0
 40
0.2898141455
 40
0.5490527546
 40
0.7822335352
 40
1.0
 40
1.0
 40
1.0
 40
1.0
 10
-54.8449414652
 20
66.323335532
 30
0.0
 10
-54.9107886986
 20
66.3613548993
 30
0.0
 10
-55.0417078734
 20
66.4236904972
 30
0.0
 10
-55.2429859279
 20
66.4722279609
 30
0.0
 10
-55.4318033059
 20
66.467507519
 30
0.0
 10
-55.5454980473
 20
66.4262115667
 30
0.0
 10
-55.594975688
 20
66.3976438045
 30
0.0
  0
SPLINE
  5
341
100
AcDbEntity
  8
RACCORDO
100
AcDbSpline
 62
250
  6
CONTINUOUS
 70
0
 71
3
 72
13
 73
9
 74
0
 42
0.0000001
 43
0.0000001
 44
0.0000000001
 40
0.0
 40
0.0
 40
0.0
 40
0.0
 40
0.114256682
 40
0.2375316865
 40
0.4999939349
 40
0.7624595032
 40
0.885738384
 40
1.0
 40
1.0
 40
1.0
 40
1.0
 10
53.6959494469
 20
2.428480041
 30
0.0
 10
53.6959494469
 20
2.5123233019
 30
0.0
 10
53.6806049573
 20
2.6868052708
 30
0.0
 10
53.5971879309
 20
3.0450031416
 30
0.0
 10
53.403500749
 20
3.4843661564
 30
0.0
 10
53.1198427105
 20
3.8717872794
 30
0.0
 10
52.8513384914
 20
4.1231357973
 30
0.0
 10
52.707901635
 20
4.2236718796
 30
0.0
 10
52.6352892751
 20
4.2655973462
 30
0.0
  0
SPLINE
  5
342
100
AcDbEntity
  8
RACCORDO
100
AcDbSpline
 62
250
  6
CONTINUOUS
 70
0
 71
3
 72
11
 73
7
 74
0
 42
0.0000001
 43
0.0000001
 44
0.0000000001
 40
0.0
 40
0.0
 40
0.0
 40
0.0
 40
0.2372200919
 40
0.4999938933
 40
0.7627710182
 40
1.0
 40
1.0
 40
1.0
 40
1.0
 10
52.2817358845
 20
3.6532249111
 30
0.0
 10
52.2817358845
 20
3.7111796553
 30
0.0
 10
52.3034732765
 20
3.8334112362
 30
0.0
 10
52.3792469735
 20
4.0051706467
 30
0.0
 10
52.4901096646
 20
4.1566738857
 30
0.0
 10
52.585097922
 20
4.2366174879
 30
0.0
 10
52.6352892751
 20
4.2655973462
 30
0.0
  0
SPLINE
  5
343
100
AcDbEntity
  8
RACCORDO
100
AcDbSpline
 62
250
  6
CONTINUOUS
 70
0
 71
3
 72
11
 73
7
 74
0
 42
0.0000001
 43
0.0000001
 44
0.0000000001
 40
0.0
 40
0.0
 40
0.0
 40
0.0
 40
0.2372259409
 40
0.5
 40
0.7627740591
 40
1.0
 40
1.0
 40
1.0
 40
1.0
 10
52.9888426657
 20
2.428480041
 30
0.0
 10
53.0390337068
 20
2.3995003629
 30
0.0
 10
53.1557591544
 20
2.3572055228
 30
0.0
 10
53.3423960563
 20
2.3369453742
 30
0.0
 10
53.5290329583
 20
2.3572055228
 30
0.0
 10
53.6457584058
 20
2.3995003629
 30
0.0
 10
53.6959494469
 20
2.428480041
 30
0.0
  0
SPLINE
  5
344
100
AcDbEntity
  8
RACCORDO
100
AcDbSpline
 62
250
  6
CONTINUOUS
 70
0
 71
3
 72
11
 73
7
 74
0
 42
0.0000001
 43
0.0000001
 44
0.0000000001
 40
0.0
 40
0.0
 40
0.0
 40
0.0
 40
0.2372259409
 40
0.5
 40
0.7627740591
 40
1.0
 40
1.0
 40
1.0
 40
1.0
 10
52.9888426657
 20
-66.9714934864
 30
0.0
 10
53.0390337068
 20
-67.0004731645
 30
0.0
 10
53.1557591544
 20
-67.0427680045
 30
0.0
 10
53.3423960563
 20
-67.0630281532
 30
0.0
 10
53.5290329583
 20
-67.0427680045
 30
0.0
 10
53.6457584058
 20
-67.0004731645
 30
0.0
 10
53.6959494469
 20
-66.9714934864
 30
0.0
  0
SPLINE
  5
345
100
AcDbEntity
  8
RACCORDO
100
AcDbSpline
 62
250
  6
CONTINUOUS
 70
0
 71
3
 72
11
 73
7
 74
0
 42
0.0000001
 43
0.0000001
 44
0.0000000001
 40
0.0
 40
0.0
 40
0.0
 40
0.0
 40
0.2897723599
 40
0.5490642322
 40
0.7822230543
 40
1.0
 40
1.0
 40
1.0
 40
1.0
 10
52.2817358845
 20
-67.3796891699
 30
0.0
 10
52.2817358845
 20
-67.4050266157
 30
0.0
 10
52.2855663786
 20
-67.4532011479
 30
0.0
 10
52.3050891884
 20
-67.5193872882
 30
0.0
 10
52.3379278904
 20
-67.5730957912
 30
0.0
 10
52.3687875734
 20
-67.5990340056
 30
0.0
 10
52.385278363
 20
-67.6085555776
 30
0.0
  0
SPLINE
  5
346
100
AcDbEntity
  8
RACCORDO
100
AcDbSpline
 62
250
  6
CONTINUOUS
 70
0
 71
3
 72
11
 73
7
 74
0
 42
0.0000001
 43
0.0000001
 44
0.0000000001
 40
0.0
 40
0.0
 40
0.0
 40
0.0
 40
0.2897723599
 40
0.5490642322
 40
0.7822230543
 40
1.0
 40
1.0
 40
1.0
 40
1.0
 10
-55.1984948558
 20
-5.3219509841
 30
0.0
 10
-55.1984948558
 20
-5.3472884299
 30
0.0
 10
-55.1946643617
 20
-5.3954629621
 30
0.0
 10
-55.1751415519
 20
-5.4616491024
 30
0.0
 10
-55.1423028499
 20
-5.5153576054
 30
0.0
 10
-55.111443167
 20
-5.5412958198
 30
0.0
 10
-55.0949523773
 20
-5.5508173918
 30
0.0
  0
SPLINE
  5
347
100
AcDbEntity
  8
RACCORDO
100
AcDbSpline
 62
250
  6
CONTINUOUS
 70
0
 71
3
 72
11
 73
7
 74
0
 42
0.0000001
 43
0.0000001
 44
0.0000000001
 40
0.0
 40
0.0
 40
0.0
 40
0.0
 40
0.2897667745
 40
0.5490573594
 40
0.7822185358
 40
1.0
 40
1.0
 40
1.0
 40
1.0
 10
-55.905601637
 20
-4.0972061139
 30
0.0
 10
-55.9275467087
 20
-4.0845353046
 30
0.0
 10
-55.9673558408
 20
-4.0571260052
 30
0.0
 10
-56.0149174387
 20
-4.0071172016
 30
0.0
 10
-56.0450129444
 20
-3.9518145803
 30
0.0
 10
-56.0520459106
 20
-3.9121140242
 30
0.0
 10
-56.0520459106
 20
-3.8930688173
 30
0.0
  0
SPLINE
  5
348
100
AcDbEntity
  8
RACCORDO
100
AcDbSpline
 62
250
  6
CONTINUOUS
 70
0
 71
3
 72
11
 73
7
 74
0
 42
0.0000001
 43
0.0000001
 44
0.0000000001
 40
0.0
 40
0.0
 40
0.0
 40
0.0
 40
0.2897667745
 40
0.5490573594
 40
0.7822185358
 40
1.0
 40
1.0
 40
1.0
 40
1.0
 10
-55.905601637
 20
65.3027674135
 30
0.0
 10
-55.9275467087
 20
65.3154382228
 30
0.0
 10
-55.9673558408
 20
65.3428475222
 30
0.0
 10
-56.0149174387
 20
65.3928563258
 30
0.0
 10
-56.0450129444
 20
65.4481589471
 30
0.0
 10
-56.0520459106
 20
65.4878595032
 30
0.0
 10
-56.0520459106
 20
65.5069047101
 30
0.0
  0
SPLINE
  5
349
100
AcDbEntity
  8
RACCORDO
100
AcDbSpline
 62
250
  6
CONTINUOUS
 70
0
 71
3
 72
11
 73
7
 74
0
 42
0.0000001
 43
0.0000001
 44
0.0000000001
 40
0.0
 40
0.0
 40
0.0
 40
0.0
 40
0.2372200919
 40
0.4999938933
 40
0.7627710182
 40
1.0
 40
1.0
 40
1.0
 40
1.0
 10
-55.1984948558
 20
65.7109630969
 30
0.0
 10
-55.1984948558
 20
65.7689178411
 30
0.0
 10
-55.1767574639
 20
65.891149422
 30
0.0
 10
-55.1009837668
 20
66.0629088325
 30
0.0
 10
-54.9901210758
 20
66.2144120715
 30
0.0
 10
-54.8951328184
 20
66.2943556737
 30
0.0
 10
-54.8449414652
 20
66.323335532
 30
0.0
  0
ELLIPSE
  5
34A
100
AcDbEntity
  8
RACCORDO
100
AcDbEllipse
 62
7
  6
CONTINUOUS
 10
-22.0245665451
 20
-8.3791325238
 30
0.0
 11
0.2064437841
 21
0.0041480952
 31
0.0
 40
0.5572920691
 41
0.744792064
 42
2.1496790728
  0
ELLIPSE
  5
34B
100
AcDbEntity
  8
RACCORDO
100
AcDbEllipse
 62
7
  6
CONTINUOUS
 10
-39.860072507
 20
42.494734374
 30
0.0
 11
0.1999444062
 21
-0.00862956
 31
0.0
 40
0.5464172455
 41
-0.744365984
 42
0.0235788879
  0
ELLIPSE
  5
34C
100
AcDbEntity
  8
RACCORDO
100
AcDbEllipse
 62
7
  6
CONTINUOUS
 10
-39.860072507
 20
7.7131005826
 30
0.0
 11
0.1999444062
 21
-0.00862956
 31
0.0
 40
0.5464172455
 41
-0.744365984
 42
0.0235788879
  0
ELLIPSE
  5
34D
100
AcDbEntity
  8
RACCORDO
100
AcDbEllipse
 62
7
  6
CONTINUOUS
 10
-36.8040539717
 20
11.580480256
 30
0.0
 11
0.3265376868
 21
-0.048333426
 31
0.0
 40
0.4912731492
 41
1.6573724174
 42
2.3076389097
  0
ELLIPSE
  5
34E
100
AcDbEntity
  8
RACCORDO
100
AcDbEllipse
 62
7
  6
CONTINUOUS
 10
-36.5100538889
 20
8.6808868689
 30
0.0
 11
0.4997887139
 21
0.0239535316
 31
0.0
 40
0.6067642562
 41
-0.203605314
 42
-0.0290723622
  0
ELLIPSE
  5
34F
100
AcDbEntity
  8
RACCORDO
100
AcDbEllipse
 62
7
  6
CONTINUOUS
 10
-36.4943203521
 20
7.6857976498
 30
0.0
 11
0.1999154856
 21
0.0095814127
 31
0.0
 40
0.6067642562
 41
-0.8057439059
 42
-0.203605314
  0
ELLIPSE
  5
350
100
AcDbEntity
  8
RACCORDO
100
AcDbEllipse
 62
7
  6
CONTINUOUS
 10
-40.7011950876
 20
7.2702424678
 30
0.0
 11
0.1999444062
 21
-0.00862956
 31
0.0
 40
0.5464172455
 41
-0.8896662828
 42
-0.7792725691
  0
ELLIPSE
  5
351
100
AcDbEntity
  8
RACCORDO
100
AcDbEllipse
 62
7
  6
CONTINUOUS
 10
-40.7011950876
 20
42.0518762592
 30
0.0
 11
0.1999444062
 21
-0.00862956
 31
0.0
 40
0.5464172455
 41
-0.8896662828
 42
-0.7792725691
  0
ELLIPSE
  5
352
100
AcDbEntity
  8
RACCORDO
100
AcDbEllipse
 62
7
  6
CONTINUOUS
 10
-39.5407544017
 20
29.9242461335
 30
0.0
 11
-0.0707464086
 21
0.122528487
 31
0.0
 40
0.5771558487
 41
-3.1241453805
 42
-2.3563950755
  0
ELLIPSE
  5
353
100
AcDbEntity
  8
RACCORDO
100
AcDbEllipse
 62
7
  6
CONTINUOUS
 10
-39.5407544017
 20
32.1426539357
 30
0.0
 11
-0.0707248697
 21
0.1224911686
 31
0.0
 40
0.5775075436
 41
-2.3560905478
 42
-0.7855988075
  0
ELLIPSE
  5
354
100
AcDbEntity
  8
RACCORDO
100
AcDbEllipse
 62
7
  6
CONTINUOUS
 10
-39.5407544017
 20
15.0644870959
 30
0.0
 11
-0.0707464086
 21
0.122528487
 31
0.0
 40
0.5771558487
 41
-3.1241453805
 42
-2.3563950755
  0
ELLIPSE
  5
355
100
AcDbEntity
  8
RACCORDO
100
AcDbEllipse
 62
7
  6
CONTINUOUS
 10
-39.5407544017
 20
17.2828948981
 30
0.0
 11
-0.0707248697
 21
0.1224911686
 31
0.0
 40
0.5775075436
 41
-2.3560905478
 42
-0.7855988075
  0
ELLIPSE
  5
356
100
AcDbEntity
  8
RACCORDO
100
AcDbEllipse
 62
7
  6
CONTINUOUS
 10
-39.5407544017
 20
1.6066655837
 30
0.0
 11
-0.0707248697
 21
0.1224911686
 31
0.0
 40
0.5775075436
 41
-2.3560905478
 42
-0.7855988075
  0
ELLIPSE
  5
357
100
AcDbEntity
  8
RACCORDO
100
AcDbEllipse
 62
7
  6
CONTINUOUS
 10
-23.1935909593
 20
-8.5209435647
 30
0.0
 11
-0.1000048364
 21
0.1732022883
 31
0.0
 40
0.5775075436
 41
7.0686874129
 42
8.6391791532
  0
ELLIPSE
  5
358
100
AcDbEntity
  8
RACCORDO
100
AcDbEllipse
 62
7
  6
CONTINUOUS
 10
20.2934760836
 20
-33.6298310544
 30
0.0
 11
-0.1000048364
 21
0.1732022883
 31
0.0
 40
0.5775075436
 41
7.0686874129
 42
8.6391791532
  0
ELLIPSE
  5
359
100
AcDbEntity
  8
RACCORDO
100
AcDbEllipse
 62
7
  6
CONTINUOUS
 10
21.4625004979
 20
-33.4880200134
 30
0.0
 11
0.2064437841
 21
0.0041480952
 31
0.0
 40
0.5572920691
 41
0.744792064
 42
2.1496790728
  0
ELLIPSE
  5
35A
100
AcDbEntity
  8
RACCORDO
100
AcDbEllipse
 62
7
  6
CONTINUOUS
 10
24.2341829862
 20
-36.0524380607
 30
0.0
 11
0.1026656474
 21
0.17165654
 31
0.0
 40
0.5873179545
 41
0.0090366616
 42
0.5937702454
  0
ELLIPSE
  5
35B
100
AcDbEntity
  8
RACCORDO
100
AcDbEllipse
 62
7
  6
CONTINUOUS
 10
-19.2528840568
 20
-10.9435505711
 30
0.0
 11
0.1026656474
 21
0.17165654
 31
0.0
 40
0.5873179545
 41
0.0090366616
 42
0.5937702454
  0
ELLIPSE
  5
35C
100
AcDbEntity
  8
RACCORDO
100
AcDbEllipse
 62
7
  6
CONTINUOUS
 10
-37.6211471072
 20
41.6952872534
 30
0.0
 11
0.9995774279
 21
0.0479070633
 31
0.0
 40
0.6067642562
 41
1.8485671029
 42
2.1962224075
  0
ELLIPSE
  5
35D
100
AcDbEntity
  8
RACCORDO
100
AcDbEllipse
 62
7
  6
CONTINUOUS
 10
-37.6211471072
 20
6.913653462
 30
0.0
 11
0.9995774279
 21
0.0479070633
 31
0.0
 40
0.6067642562
 41
1.541723938
 42
2.1962224075
  0
ELLIPSE
  5
35E
100
AcDbEntity
  8
RACCORDO
100
AcDbEllipse
 62
7
  6
CONTINUOUS
 10
20.0130803477
 20
-33.6152263001
 30
0.0
 11
0.0974277822
 21
0.1746820465
 31
0.0
 40
0.5671693725
 41
5.4894081695
 42
6.8594916323
  0
ELLIPSE
  5
35F
100
AcDbEntity
  8
RACCORDO
100
AcDbEllipse
 62
7
  6
CONTINUOUS
 10
-23.4739866953
 20
-8.5063388104
 30
0.0
 11
0.0974277822
 21
0.1746820465
 31
0.0
 40
0.5671693725
 41
5.4894081695
 42
6.8594916323
  0
ELLIPSE
  5
360
100
AcDbEntity
  8
RACCORDO
100
AcDbEllipse
 62
7
  6
CONTINUOUS
 10
-36.5100538889
 20
11.3499123248
 30
0.0
 11
0.4998610155
 21
-0.0215739
 31
0.0
 40
0.5464172455
 41
-0.1509540384
 42
0.8089770502
  0
ELLIPSE
  5
361
100
AcDbEntity
  8
RACCORDO
100
AcDbEllipse
 62
7
  6
CONTINUOUS
 10
-36.4943203521
 20
10.4530161858
 30
0.0
 11
0.1999444062
 21
-0.00862956
 31
0.0
 40
0.5464172455
 41
-0.7530926303
 42
-0.1509540384
  0
ELLIPSE
  5
362
100
AcDbEntity
  8
RACCORDO
100
AcDbEllipse
 62
7
  6
CONTINUOUS
 10
-39.860072507
 20
4.4279078523
 30
0.0
 11
0.1999154856
 21
0.0095814127
 31
0.0
 40
0.6067642562
 41
-0.7970172597
 42
0.7563257746
  0
ELLIPSE
  5
363
100
AcDbEntity
  8
RACCORDO
100
AcDbEllipse
 62
7
  6
CONTINUOUS
 10
-40.7011950876
 20
3.8823551917
 30
0.0
 11
0.1999154856
 21
0.0095814127
 31
0.0
 40
0.6067642562
 41
-0.9423175584
 42
-0.8319238447
  0
ELLIPSE
  5
364
100
AcDbEntity
  8
RACCORDO
100
AcDbEllipse
 62
7
  6
CONTINUOUS
 10
-39.860072507
 20
39.2095416436
 30
0.0
 11
0.1999154856
 21
0.0095814127
 31
0.0
 40
0.6067642562
 41
-0.7970172597
 42
0.7563257746
  0
ELLIPSE
  5
365
100
AcDbEntity
  8
RACCORDO
100
AcDbEllipse
 62
7
  6
CONTINUOUS
 10
-40.7011950876
 20
38.6639889831
 30
0.0
 11
0.1999154856
 21
0.0095814127
 31
0.0
 40
0.6067642562
 41
-0.9423175584
 42
-0.8319238447
  0
ELLIPSE
  5
366
100
AcDbEntity
  8
RACCORDO
100
AcDbEllipse
 62
7
  6
CONTINUOUS
 10
24.7952497538
 20
-35.4123076646
 30
0.0
 11
0.2030379687
 21
0.0044557609
 31
0.0
 40
0.5761003798
 41
-0.6456206012
 42
0.7592664076
  0
ELLIPSE
  5
367
100
AcDbEntity
  8
RACCORDO
100
AcDbEllipse
 62
7
  6
CONTINUOUS
 10
-18.6918172891
 20
-10.303420175
 30
0.0
 11
0.2030379687
 21
0.0044557609
 31
0.0
 40
0.5761003798
 41
-0.6456206012
 42
0.7592664076
  0
ELLIPSE
  5
368
100
AcDbEntity
  8
RACCORDO
100
AcDbEllipse
 62
7
  6
CONTINUOUS
 10
-37.6211471072
 20
9.8225601115
 30
0.0
 11
0.9997220309
 21
-0.0431478001
 31
0.0
 40
0.5464172455
 41
1.5943752136
 42
2.2488736831
  0
ENDSEC
  0
SECTION
  2
OBJECTS
  0
DICTIONARY
  5
C
100
AcDbDictionary
280
0
281
1
  3
ACAD_GROUP
350
D
  3
ACAD_MLINESTYLE
350
17
  3
ACAD_LAYOUT
350
1A
  3
ACAD_PLOTSETTINGS
350
19
  3
ACAD_PLOTSTYLENAME
350
E
  0
DICTIONARY
  5
D
102
{ACAD_REACTORS
330
C
102
}
100
AcDbDictionary
280
0
281
1
  0
ACDBDICTIONARYWDFLT
  5
E
102
{ACAD_REACTORS
330
C
102
}
100
AcDbDictionary
281
1
  3
Normal
350
F
100
AcDbDictionaryWithDefault
340
F
  0
DICTIONARY
  5
17
102
{ACAD_REACTORS
330
C
102
}
100
AcDbDictionary
280
0
281
1
  3
Standard
350
18
  0
DICTIONARY
  5
19
102
{ACAD_REACTORS
330
C
102
}
100
AcDbDictionary
281
1
  0
DICTIONARY
  5
1A
102
{ACAD_REACTORS
330
C
102
}
100
AcDbDictionary
281
1
  3
Model
350
369
  3
Layout1
350
36A
  0
ACDBPLACEHOLDER
  5
F
102
{ACAD_REACTORS
330
E
102
}
  0
MLINESTYLE
  5
18
102
{ACAD_REACTORS
330
17
102
}
100
AcDbMlineStyle
  2
STANDARD
 70
0
  3

 62
256
 51
90.0
 52
90.0
 71
2
 49
0.5
 62
256
  6
BYLAYER
 49
-0.5
 62
256
  6
BYLAYER
  0
LAYOUT
  5
369
102
{ACAD_REACTORS
330
1A
102
}
100
AcDbPlotSettings
  1

  2
none_device
  4
ISO_A4_(297.00_x_210.00_MM)
  6

 40
0.0
 41
0.0
 42
0.0
 43
0.0
 44
297.0
 45
210.0
 46
0.0
 47
0.0
 48
0.0
 49
0.0
140
0.0
141
0.0
142
1.0
143
1.0
 70
1024
 72
1
 73
0
 74
0
  7

 75
0
147
1.0
148
0.0
149
0.0
100
AcDbLayout
  1
Model
 70
0
 71
0
 10
0.0
 20
0.0
 11
297.0
 21
210.0
 12
0.0
 22
0.0
 32
0.0
 14
0.0
 24
0.0
 34
0.0
 15
0.0
 25
0.0
 35
0.0
146
0.0
 13
0.0
 23
0.0
 33
0.0
 16
1.0
 26
0.0
 36
0.0
 17
0.0
 27
1.0
 37
0.0
 76
0
330
214
345
0
346
0
  0
LAYOUT
  5
36A
102
{ACAD_REACTORS
330
1A
102
}
100
AcDbPlotSettings
  1

  2
none_device
  4
ISO_A4_(297.00_x_210.00_MM)
  6

 40
0.0
 41
0.0
 42
0.0
 43
0.0
 44
297.0
 45
210.0
 46
0.0
 47
0.0
 48
0.0
 49
0.0
140
0.0
141
0.0
142
1.0
143
1.0
 70
0
 72
1
 73
0
 74
0
  7

 75
0
147
1.0
148
0.0
149
0.0
100
AcDbLayout
  1
Layout1
 70
0
 71
1
 10
0.0
 20
0.0
 11
297.0
 21
210.0
 12
0.0
 22
0.0
 32
0.0
 14
0.0
 24
0.0
 34
0.0
 15
0.0
 25
0.0
 35
0.0
146
0.0
 13
0.0
 23
0.0
 33
0.0
 16
1.0
 26
0.0
 36
0.0
 17
0.0
 27
1.0
 37
0.0
 76
0
330
215
345
0
346
0
  0
ENDSEC
  0
EOF
