  0
SECTION
  2
HEADER
  9
$ACADVER
  1
AC1024
  9
$DWGCODEPAGE
  3
ANSI_1252
  9
$EXTMAX
 10
297.0
 20
210.0
 30
0.0
  9
$EXTMIN
 10
0.0
 20
0.0
 30
0.0
  9
$LIMMIN
 10
0.0
 20
0.0
  9
$LIMMAX
 10
297.0
 20
210.0
  9
$VIEWCTR
 10
148.5
 20
105.0
  9
$VIEWSIZE
 40
210.0
  9
$CLAYER
  8
0
  9
$LTSCALE
 40
16.335
  9
$CELTYPE
  6
BYLAYER
  9
$DIMSCALE
 40
1.0
  9
$DIMASZ
 40
3.0
  9
$DIMEXO
 40
0.5
  9
$DIMDLI
 40
11.286
  9
$DIMEXE
 40
1.5
  9
$DIMCEN
 40
2.673
  9
$DIMLFAC
 40
1.0
  9
$DIMBLK
  1
_FILLED
  9
$DIMALT
 70
0
  9
$DIMALTF
 40
0.0393700787
  9
$DIMTXT
 40
3.0
  9
$DIMTOL
 70
1
  9
$DIMLIM
 70
0
  9
$DIMTFAC
 40
1.0
  9
$DIMTP
 40
0.01
  9
$DIMTM
 40
0.01
  9
$DIMGAP
 40
0.625
  9
$DIMDSEP
 70
44
  9
$AUNITS
 70
0
  9
$PDMODE
 70
3
  9
$PDSIZE
 40
3.0
  9
$HANDSEED
  5
33C
  9
$TILEMODE
 70
1
  9
$MEASUREMENT
 70
1
  9
$INSUNITS
 70
4
  0
ENDSEC
  0
SECTION
  2
CLASSES
  0
CLASS
  1
ACDBDICTIONARYWDFLT
  2
AcDbDictionaryWithDefault
  3
AutoCAD 2000
 90
0
 91
1
280
0
281
0
  0
CLASS
  1
ACDBPLACEHOLDER
  2
AcDbPlaceHolder
  3
AutoCAD 2000
 90
0
 91
1
280
0
281
0
  0
CLASS
  1
LAYOUT
  2
AcDbLayout
  3
AutoCAD 2000
 90
0
 91
0
280
0
281
0
  0
ENDSEC
  0
SECTION
  2
TABLES
  0
TABLE
  2
VPORT
  5
8
100
AcDbSymbolTable
 70
2
  0
VPORT
  5
1F4
100
AcDbSymbolTableRecord
100
AcDbViewportTableRecord
  2
*ACTIVE
 70
0
 10
0.0
 20
0.0
 11
1.0
 21
1.0
 12
148.5
 22
105.0
 13
0.0
 23
0.0
 14
1.0
 24
1.0
 15
0.0
 25
0.0
 16
0.0
 26
0.0
 36
1.0
 17
0.0
 27
0.0
 37
0.0
 40
210.0
 41
1.4142857143
 42
50.0
 43
0.0
 44
0.0
 50
0.0
 51
0.0
 71
0
 72
100
 73
1
 74
1
 75
0
 76
0
 77
0
 78
0
  0
ENDTAB
  0
TABLE
  2
LTYPE
  5
5
100
AcDbSymbolTable
 70
6
  0
LTYPE
  5
14
100
AcDbSymbolTableRecord
100
AcDbLinetypeTableRecord
  2
BYBLOCK
 70
0
  3

 72
65
 73
0
 40
0.0
  0
LTYPE
  5
15
100
AcDbSymbolTableRecord
100
AcDbLinetypeTableRecord
  2
BYLAYER
 70
0
  3

 72
65
 73
0
 40
0.0
  0
LTYPE
  5
16
100
AcDbSymbolTableRecord
100
AcDbLinetypeTableRecord
  2
CONTINUOUS
 70
64
  3
Solid line
 72
65
 73
0
 40
0.0
  0
LTYPE
  5
1F5
100
AcDbSymbolTableRecord
100
AcDbLinetypeTableRecord
  2
CENTER
 70
64
  3
____ _ ____ _ ____ _ ____ _ ____ _ ____ _ ____
 72
65
 73
4
 40
0.6
 49
0.375
 74
0
 49
-0.075
 74
0
 49
0.075
 74
0
 49
-0.075
 74
0
  0
LTYPE
  5
1F6
100
AcDbSymbolTableRecord
100
AcDbLinetypeTableRecord
  2
HIDDEN
 70
64
  3
- - - - - - - - - - - - - - - - - - - -
 72
65
 73
2
 40
0.2
 49
0.1
 74
0
 49
-0.1
 74
0
  0
LTYPE
  5
1F7
100
AcDbSymbolTableRecord
100
AcDbLinetypeTableRecord
  2
PHANTOM
 70
64
  3
_____ _ _ _____ _ _ _____ _ _ _____
 72
65
 73
6
 40
0.8
 49
0.45
 74
0
 49
-0.05
 74
0
 49
0.1
 74
0
 49
-0.05
 74
0
 49
0.1
 74
0
 49
-0.05
 74
0
  0
LTYPE
  5
1F8
100
AcDbSymbolTableRecord
100
AcDbLinetypeTableRecord
  2
DOT
 70
64
  3
. . . . . . . . . . . . . . . . . . . .
 72
65
 73
2
 40
0.2
 49
0.1
 74
0
 49
-0.1
 74
0
  0
LTYPE
  5
1F9
100
AcDbSymbolTableRecord
100
AcDbLinetypeTableRecord
  2
DASHED
 70
64
  3
- - - - - - - - - - - - - - - - - - - -
 72
65
 73
2
 40
0.2
 49
0.1
 74
0
 49
-0.1
 74
0
  0
ENDTAB
  0
TABLE
  2
LAYER
  5
2
100
AcDbSymbolTable
 70
36
  0
LAYER
  5
10
100
AcDbSymbolTableRecord
100
AcDbLayerTableRecord
  2
0
 70
0
 62
7
  6
CONTINUOUS
370
-3
390
F
  0
LAYER
  5
1FA
100
AcDbSymbolTableRecord
100
AcDbLayerTableRecord
  2
DEFAULT_1
 70
0
 62
7
  6
CENTER
370
-3
390
F
  0
LAYER
  5
1FB
100
AcDbSymbolTableRecord
100
AcDbLayerTableRecord
  2
DEFAULT_2
 70
0
 62
7
  6
HIDDEN
370
-3
390
F
  0
LAYER
  5
1FC
100
AcDbSymbolTableRecord
100
AcDbLayerTableRecord
  2
DEFAULT_3
 70
0
 62
7
  6
PHANTOM
370
-3
390
F
  0
LAYER
  5
1FD
100
AcDbSymbolTableRecord
100
AcDbLayerTableRecord
  2
ASSI
 70
0
 62
7
  6
CONTINUOUS
370
-3
390
F
  0
LAYER
  5
1FE
100
AcDbSymbolTableRecord
100
AcDbLayerTableRecord
  2
COORDINATE
 70
0
 62
7
  6
CONTINUOUS
370
-3
390
F
  0
LAYER
  5
1FF
100
AcDbSymbolTableRecord
100
AcDbLayerTableRecord
  2
COPY_PUBLISH
 70
0
 62
7
  6
CONTINUOUS
370
-3
390
F
  0
LAYER
  5
200
100
AcDbSymbolTableRecord
100
AcDbLayerTableRecord
  2
COSMETICI
 70
0
 62
7
  6
CONTINUOUS
370
-3
390
F
  0
LAYER
  5
201
100
AcDbSymbolTableRecord
100
AcDbLayerTableRecord
  2
CURVE
 70
0
 62
7
  6
CONTINUOUS
370
-3
390
F
  0
LAYER
  5
202
100
AcDbSymbolTableRecord
100
AcDbLayerTableRecord
  2
DRAFT
 70
0
 62
7
  6
CONTINUOUS
370
-3
390
F
  0
LAYER
  5
203
100
AcDbSymbolTableRecord
100
AcDbLayerTableRecord
  2
IMPORT_IGES
 70
0
 62
7
  6
CONTINUOUS
370
-3
390
F
  0
LAYER
  5
204
100
AcDbSymbolTableRecord
100
AcDbLayerTableRecord
  2
INTF_1
 70
0
 62
7
  6
CONTINUOUS
370
-3
390
F
  0
LAYER
  5
205
100
AcDbSymbolTableRecord
100
AcDbLayerTableRecord
  2
INTF_11
 70
0
 62
7
  6
CONTINUOUS
370
-3
390
F
  0
LAYER
  5
206
100
AcDbSymbolTableRecord
100
AcDbLayerTableRecord
  2
INTF_13
 70
0
 62
7
  6
CONTINUOUS
370
-3
390
F
  0
LAYER
  5
207
100
AcDbSymbolTableRecord
100
AcDbLayerTableRecord
  2
INTF_2
 70
0
 62
7
  6
CONTINUOUS
370
-3
390
F
  0
LAYER
  5
208
100
AcDbSymbolTableRecord
100
AcDbLayerTableRecord
  2
INTF_4
 70
0
 62
7
  6
CONTINUOUS
370
-3
390
F
  0
LAYER
  5
209
100
AcDbSymbolTableRecord
100
AcDbLayerTableRecord
  2
INTF_CYAN
 70
0
 62
7
  6
CONTINUOUS
370
-3
390
F
  0
LAYER
  5
20A
100
AcDbSymbolTableRecord
100
AcDbLayerTableRecord
  2
NOTE
 70
0
 62
7
  6
CONTINUOUS
370
-3
390
F
  0
LAYER
  5
20B
100
AcDbSymbolTableRecord
100
AcDbLayerTableRecord
  2
PIANI
 70
0
 62
7
  6
CONTINUOUS
370
-3
390
F
  0
LAYER
  5
20C
100
AcDbSymbolTableRecord
100
AcDbLayerTableRecord
  2
PUNTI
 70
0
 62
7
  6
CONTINUOUS
370
-3
390
F
  0
LAYER
  5
20D
100
AcDbSymbolTableRecord
100
AcDbLayerTableRecord
  2
RACCORDO
 70
0
 62
7
  6
CONTINUOUS
370
-3
390
F
  0
LAYER
  5
20E
100
AcDbSymbolTableRecord
100
AcDbLayerTableRecord
  2
RGB____0____0____0__
 70
0
 62
7
  6
CONTINUOUS
370
-3
390
F
  0
LAYER
  5
20F
100
AcDbSymbolTableRecord
100
AcDbLayerTableRecord
  2
SIMBOLI
 70
0
 62
7
  6
CONTINUOUS
370
-3
390
F
  0
LAYER
  5
210
100
AcDbSymbolTableRecord
100
AcDbLayerTableRecord
  2
SMUSSO
 70
0
 62
7
  6
CONTINUOUS
370
-3
390
F
  0
LAYER
  5
211
100
AcDbSymbolTableRecord
100
AcDbLayerTableRecord
  2
SNAPLINE
 70
0
 62
7
  6
CONTINUOUS
370
-3
390
F
  0
LAYER
  5
212
100
AcDbSymbolTableRecord
100
AcDbLayerTableRecord
  2
SUPERFICI
 70
0
 62
7
  6
CONTINUOUS
370
-3
390
F
  0
LAYER
  5
213
100
AcDbSymbolTableRecord
100
AcDbLayerTableRecord
  2
TRASH
 70
0
 62
7
  6
CONTINUOUS
370
-3
390
F
  0
ENDTAB
  0
TABLE
  2
STYLE
  5
3
100
AcDbSymbolTable
 70
1
  0
STYLE
  5
11
100
AcDbSymbolTableRecord
100
AcDbTextStyleTableRecord
  2
STANDARD
 70
0
 40
0.0
 41
0.8
 50
0.0
 71
0
 42
0.2
  3
txt
  4

  0
STYLE
  5
214
100
AcDbSymbolTableRecord
100
AcDbTextStyleTableRecord
  2
TEXTSTYLE_1
 70
0
 40
0.0
 41
0.8
 50
0.0
 71
0
 42
0.2
  3
gdt
  4

  0
ENDTAB
  0
TABLE
  2
VIEW
  5
6
100
AcDbSymbolTable
 70
0
  0
ENDTAB
  0
TABLE
  2
UCS
  5
7
100
AcDbSymbolTable
 70
0
  0
ENDTAB
  0
TABLE
  2
APPID
  5
9
100
AcDbSymbolTable
 70
1
  0
APPID
  5
215
100
AcDbSymbolTableRecord
100
AcDbRegAppTableRecord
  2
ACAD
 70
0
  0
ENDTAB
  0
TABLE
  2
BLOCK_RECORD
  5
1
100
AcDbSymbolTable
 70
0
  0
BLOCK_RECORD
  5
216
100
AcDbSymbolTableRecord
100
AcDbBlockTableRecord
  2
*Model_Space
  0
BLOCK_RECORD
  5
217
100
AcDbSymbolTableRecord
100
AcDbBlockTableRecord
  2
*Paper_Space
  0
BLOCK_RECORD
  5
218
100
AcDbSymbolTableRecord
100
AcDbBlockTableRecord
  2
_FILLED
  0
ENDTAB
  0
TABLE
  2
DIMSTYLE
  5
A
100
AcDbSymbolTable
 70
1
100
AcDbDimStyleTable
 71
0
  0
DIMSTYLE
105
219
100
AcDbSymbolTableRecord
100
AcDbDimStyleTableRecord
  2
STANDARD
 70
0
  3

  4

 40
1.0
 41
3.0
 42
0.5
 43
0.38
 44
1.5
 45
0.0
 46
0.0
 47
0.01
 48
0.01
140
3.0
141
0.0
142
0.0
143
25.4
144
1.0
145
0.0
146
1.0
147
0.625
 71
1
 72
0
 73
0
 74
0
 75
0
 76
0
 77
1
 78
8
 79
2
170
0
171
1
172
0
173
0
174
0
175
0
176
0
177
0
178
0
270
2
179
2
271
2
272
2
273
2
274
2
275
0
280
0
281
0
282
0
283
1
284
8
285
0
286
0
287
3
288
0
340
11
278
44
341
218
342
218
343
218
344
218
  0
ENDTAB
  0
ENDSEC
  0
SECTION
  2
BLOCKS
  0
BLOCK
  5
20
100
AcDbEntity
  8
0
100
AcDbBlockBegin
  2
*Model_Space
 70
0
 10
0.0
 20
0.0
 30
0.0
  3
*Model_Space
  1

  0
ENDBLK
  5
21
100
AcDbEntity
  8
0
100
AcDbBlockEnd
  0
BLOCK
  5
1C
100
AcDbEntity
  8
0
100
AcDbBlockBegin
  2
*Paper_Space
 70
0
 10
0.0
 20
0.0
 30
0.0
  3
*Paper_Space
  1

  0
ENDBLK
  5
1D
100
AcDbEntity
  8
0
100
AcDbBlockEnd
  0
BLOCK
  5
21A
100
AcDbEntity
  8
0
100
AcDbBlockBegin
  2
_FILLED
 70
64
 10
0.0
 20
0.0
 30
0.0
  3
_FILLED
  1

  0
SOLID
  5
21B
100
AcDbEntity
  8
0
  6
BYBLOCK
 62
0
100
AcDbTrace
 10
0.0
 20
0.0
 30
0.0
 11
-1.0
 21
0.3166666667
 31
0.0
 12
-1.0
 22
-0.3166666667
 32
0.0
 13
-1.0
 23
-0.3166666667
 33
0.0
  0
ENDBLK
  5
21C
100
AcDbEntity
  8
0
  6
BYBLOCK
 62
0
100
AcDbBlockEnd
  0
ENDSEC
  0
SECTION
  2
ENTITIES
  0
LWPOLYLINE
  5
21D
100
AcDbEntity
  8
ASSI
100
AcDbPolyline
 62
7
  6
CONTINUOUS
 90
15
 70
0
 10
-55.9283012229
 20
66.0448192544
 10
-55.980828446
 20
66.0046550699
 10
-56.0286946856
 20
65.9618014105
 10
-56.0740488833
 20
65.9145103325
 10
-56.1164815153
 20
65.8629254552
 10
-56.1555428646
 20
65.8073502215
 10
-56.1909842939
 20
65.7479181187
 10
-56.2225705336
 20
65.6848096765
 10
-56.250019775
 20
65.6184107377
 10
-56.2731941887
 20
65.5489056319
 10
-56.2919987402
 20
65.476418355
 10
-56.3063164152
 20
65.4011912641
 10
-56.3160686309
 20
65.3233684062
 10
-56.3211954417
 20
65.243059167
 10
-56.3220175544
 20
65.1947171928
  0
LINE
  5
21E
100
AcDbEntity
  8
ASSI
100
AcDbLine
 62
7
  6
CONTINUOUS
 10
-55.9288786672
 20
66.0444155408
 30
0.0
 11
-53.7599932206
 21
67.5737267184
 31
0.0
  0
LINE
  5
21F
100
AcDbEntity
  8
ASSI
100
AcDbLine
 62
250
  6
CONTINUOUS
 10
-55.1343833934
 20
65.9993493364
 30
0.0
 11
-52.9726931366
 21
67.523587086
 31
0.0
  0
LINE
  5
220
100
AcDbEntity
  8
ASSI
100
AcDbLine
 62
250
  6
CONTINUOUS
 10
-51.6895903179
 20
67.593918995
 30
0.0
 11
-52.4308933124
 21
67.2107586578
 31
0.0
  0
LINE
  5
221
100
AcDbEntity
  8
ASSI
100
AcDbLine
 62
7
  6
CONTINUOUS
 10
-52.6363394258
 20
67.3293806689
 30
0.0
 11
-52.0191498039
 21
67.6347711479
 31
0.0
  0
LINE
  5
222
100
AcDbEntity
  8
ASSI
100
AcDbLine
 62
7
  6
CONTINUOUS
 10
-41.4728020216
 20
43.9302579708
 30
0.0
 11
-41.4727217066
 21
43.9303011899
 31
0.0
  0
LINE
  5
223
100
AcDbEntity
  8
ASSI
100
AcDbLine
 62
250
  6
CONTINUOUS
 10
-41.5790808263
 20
43.6998425824
 30
0.0
 11
-41.3002530461
 21
43.8497871393
 31
0.0
  0
LWPOLYLINE
  5
224
100
AcDbEntity
  8
ASSI
100
AcDbPolyline
 62
7
  6
CONTINUOUS
 90
24
 70
0
 10
-56.321978218
 20
-3.9431455695
 10
-56.3188431571
 20
-4.0293576023
 10
-56.3108450438
 20
-4.1160099073
 10
-56.2981573891
 20
-4.2029431414
 10
-56.2809541201
 20
-4.2899278824
 10
-56.259445229
 20
-4.3765600136
 10
-56.2338212636
 20
-4.4625934987
 10
-56.2042259757
 20
-4.5478811107
 10
-56.170867339
 20
-4.6320745913
 10
-56.1339460682
 20
-4.7148840319
 10
-56.093579081
 20
-4.796190558
 10
-56.0498721881
 20
-4.875857535
 10
-56.0029529082
 20
-4.9536662444
 10
-55.9529502901
 20
-5.0293991954
 10
-55.8999302258
 20
-5.1028988147
 10
-55.8439460281
 20
-5.174002871
 10
-55.7851418323
 20
-5.2424019431
 10
-55.7237007695
 20
-5.3077672127
 10
-55.659680445
 20
-5.3698923792
 10
-55.5931919651
 20
-5.4285006984
 10
-55.5244450087
 20
-5.4832312271
 10
-55.4535415888
 20
-5.5338174799
 10
-55.3805445168
 20
-5.5800141029
 10
-55.3657280335
 20
-5.588684317
  0
LINE
  5
225
100
AcDbEntity
  8
ASSI
100
AcDbLine
 62
7
  6
CONTINUOUS
 10
-56.3220175545
 20
65.1947211252
 30
0.0
 11
-56.321978218
 21
-3.9431455695
 31
0.0
  0
LINE
  5
226
100
AcDbEntity
  8
ASSI
100
AcDbLine
 62
250
  6
CONTINUOUS
 10
-56.1755709451
 20
64.9905838286
 30
0.0
 11
-56.1755709451
 21
-4.1366549854
 31
0.0
  0
LINE
  5
227
100
AcDbEntity
  8
ASSI
100
AcDbLine
 62
7
  6
CONTINUOUS
 10
-56.3220175545
 20
-3.9325177006
 30
0.0
 11
-56.3220174424
 21
-3.9323243737
 31
0.0
  0
LINE
  5
228
100
AcDbEntity
  8
ASSI
100
AcDbLine
 62
7
  6
CONTINUOUS
 10
-40.1040100607
 20
38.2514779258
 30
0.0
 11
-40.5955369083
 21
37.957416957
 31
0.0
  0
LINE
  5
229
100
AcDbEntity
  8
ASSI
100
AcDbLine
 62
7
  6
CONTINUOUS
 10
-40.5955369082
 20
42.7830961319
 30
0.0
 11
-40.1040100607
 21
43.0768051173
 31
0.0
  0
LINE
  5
22A
100
AcDbEntity
  8
ASSI
100
AcDbLine
 62
7
  6
CONTINUOUS
 10
-38.5680809992
 20
42.0627202217
 30
0.0
 11
-40.778667832
 21
41.0045657373
 31
0.0
  0
LINE
  5
22B
100
AcDbEntity
  8
ASSI
100
AcDbLine
 62
250
  6
CONTINUOUS
 10
-39.7590530289
 20
29.8609549203
 30
0.0
 11
-40.1040100607
 21
29.633459002
 31
0.0
  0
LINE
  5
22C
100
AcDbEntity
  8
ASSI
100
AcDbLine
 62
7
  6
CONTINUOUS
 10
-39.7971211088
 20
29.7713694061
 30
0.0
 11
-40.0479060036
 21
29.6059791265
 31
0.0
  0
LINE
  5
22D
100
AcDbEntity
  8
ASSI
100
AcDbLine
 62
250
  6
CONTINUOUS
 10
-40.0478780208
 20
32.1238037354
 30
0.0
 11
-39.9003667353
 21
32.2029160815
 31
0.0
  0
LINE
  5
22E
100
AcDbEntity
  8
ASSI
100
AcDbLine
 62
250
  6
CONTINUOUS
 10
-40.1040100607
 20
31.7729492874
 30
0.0
 11
-39.7590530289
 21
31.9579545228
 31
0.0
  0
LWPOLYLINE
  5
22F
100
AcDbEntity
  8
ASSI
100
AcDbPolyline
 62
7
  6
CONTINUOUS
 90
8
 70
0
 10
-40.7786703612
 20
3.2750261308
 10
-40.7786343602
 20
3.2728942817
 10
-40.7781346796
 20
3.2669200166
 10
-40.7771759966
 20
3.2616465556
 10
-40.7759108141
 20
3.2571338305
 10
-40.7746216413
 20
3.2537522057
 10
-40.7735779698
 20
3.251588912
 10
-40.7733511881
 20
3.2511793747
  0
LINE
  5
230
100
AcDbEntity
  8
ASSI
100
AcDbLine
 62
250
  6
CONTINUOUS
 10
-41.9996103718
 20
0.7819233662
 30
0.0
 11
-41.9996103718
 21
43.70196154
 31
0.0
  0
LINE
  5
231
100
AcDbEntity
  8
ASSI
100
AcDbLine
 62
250
  6
CONTINUOUS
 10
-41.5790808263
 20
0.7798044086
 30
0.0
 11
-41.5790808263
 21
43.6998425824
 31
0.0
  0
LINE
  5
232
100
AcDbEntity
  8
ASSI
100
AcDbLine
 62
7
  6
CONTINUOUS
 10
-41.2155893014
 20
43.8009033542
 30
0.0
 11
-41.2155893014
 21
0.9896791636
 31
0.0
  0
LINE
  5
233
100
AcDbEntity
  8
ASSI
100
AcDbLine
 62
250
  6
CONTINUOUS
 10
-40.8347998719
 20
3.1931106752
 30
0.0
 11
-40.8347998719
 21
7.6980230771
 31
0.0
  0
LINE
  5
234
100
AcDbEntity
  8
ASSI
100
AcDbLine
 62
250
  6
CONTINUOUS
 10
-40.8347998719
 20
37.9747444666
 30
0.0
 11
-40.8347998719
 21
42.4796568685
 31
0.0
  0
LINE
  5
235
100
AcDbEntity
  8
ASSI
100
AcDbLine
 62
7
  6
CONTINUOUS
 10
-40.778667832
 20
3.2749968606
 30
0.0
 11
-40.778667832
 21
7.7765717127
 31
0.0
  0
LINE
  5
236
100
AcDbEntity
  8
ASSI
100
AcDbLine
 62
7
  6
CONTINUOUS
 10
-40.778667832
 20
38.056630652
 30
0.0
 11
-40.778667832
 21
42.5582055041
 31
0.0
  0
LINE
  5
237
100
AcDbEntity
  8
ASSI
100
AcDbLine
 62
250
  6
CONTINUOUS
 10
-40.031185443
 20
25.4737354978
 30
0.0
 11
-40.0478780208
 21
25.4640974125
 31
0.0
  0
LWPOLYLINE
  5
238
100
AcDbEntity
  8
ASSI
100
AcDbPolyline
 62
7
  6
CONTINUOUS
 90
8
 70
0
 10
-40.7786703612
 20
38.0566599222
 10
-40.7786343602
 20
38.0545280731
 10
-40.7781346796
 20
38.048553808
 10
-40.7771759966
 20
38.043280347
 10
-40.7759108141
 20
38.0387676219
 10
-40.7746216413
 20
38.0353859971
 10
-40.7735779698
 20
38.0332227034
 10
-40.7733511881
 20
38.0328131661
  0
LINE
  5
239
100
AcDbEntity
  8
ASSI
100
AcDbLine
 62
250
  6
CONTINUOUS
 10
-40.1040100607
 20
1.0940786369
 30
0.0
 11
-40.1040100607
 21
3.4698441345
 31
0.0
  0
LINE
  5
23A
100
AcDbEntity
  8
ASSI
100
AcDbLine
 62
250
  6
CONTINUOUS
 10
-40.1040100607
 20
8.295171326
 30
0.0
 11
-40.1040100607
 21
14.7736999644
 31
0.0
  0
LINE
  5
23B
100
AcDbEntity
  8
ASSI
100
AcDbLine
 62
250
  6
CONTINUOUS
 10
-40.1040100607
 20
16.9131902498
 30
0.0
 11
-40.1040100607
 21
29.633459002
 31
0.0
  0
LINE
  5
23C
100
AcDbEntity
  8
ASSI
100
AcDbLine
 62
250
  6
CONTINUOUS
 10
-40.1040100607
 20
31.7729492874
 30
0.0
 11
-40.1040100607
 21
38.2514779258
 31
0.0
  0
LINE
  5
23D
100
AcDbEntity
  8
ASSI
100
AcDbLine
 62
250
  6
CONTINUOUS
 10
-40.1040100607
 20
43.0768051173
 30
0.0
 11
-40.1040100607
 21
43.159091432
 31
0.0
  0
LINE
  5
23E
100
AcDbEntity
  8
ASSI
100
AcDbLine
 62
7
  6
CONTINUOUS
 10
-40.0478780208
 20
1.2819413527
 30
0.0
 11
-40.0478780208
 21
3.5508959437
 31
0.0
  0
LINE
  5
23F
100
AcDbEntity
  8
ASSI
100
AcDbLine
 62
7
  6
CONTINUOUS
 10
-40.0478780208
 20
8.3745543315
 30
0.0
 11
-40.0478780208
 21
14.7462720634
 31
0.0
  0
LINE
  5
240
100
AcDbEntity
  8
ASSI
100
AcDbLine
 62
7
  6
CONTINUOUS
 10
-40.0478780208
 20
17.1010529656
 30
0.0
 11
-40.0478780208
 21
29.606031101
 31
0.0
  0
LINE
  5
241
100
AcDbEntity
  8
ASSI
100
AcDbLine
 62
7
  6
CONTINUOUS
 10
-40.0478780208
 20
31.9608120032
 30
0.0
 11
-40.0478780208
 21
38.3325297351
 31
0.0
  0
LINE
  5
242
100
AcDbEntity
  8
ASSI
100
AcDbLine
 62
7
  6
CONTINUOUS
 10
-40.031185443
 20
25.4737354978
 30
0.0
 11
-40.031185443
 21
21.3097370861
 31
0.0
  0
LINE
  5
243
100
AcDbEntity
  8
ASSI
100
AcDbLine
 62
7
  6
CONTINUOUS
 10
-39.7590530289
 20
31.9579545228
 30
0.0
 11
-39.7590530289
 21
29.8609549203
 31
0.0
  0
LINE
  5
244
100
AcDbEntity
  8
ASSI
100
AcDbLine
 62
7
  6
CONTINUOUS
 10
-39.7590530289
 20
17.0981954852
 30
0.0
 11
-39.7590530289
 21
15.0011958827
 31
0.0
  0
LINE
  5
245
100
AcDbEntity
  8
ASSI
100
AcDbLine
 62
7
  6
CONTINUOUS
 10
-39.7590530289
 20
1.2790838723
 30
0.0
 11
-39.7590530289
 21
0.3752640755
 31
0.0
  0
LINE
  5
246
100
AcDbEntity
  8
ASSI
100
AcDbLine
 62
250
  6
CONTINUOUS
 10
-38.5680809992
 20
42.2722652416
 30
0.0
 11
-38.5680809992
 21
42.0627202217
 31
0.0
  0
LINE
  5
247
100
AcDbEntity
  8
ASSI
100
AcDbLine
 62
250
  6
CONTINUOUS
 10
-38.5680809992
 20
10.2387937453
 30
0.0
 11
-38.5680809992
 21
7.2810864304
 31
0.0
  0
LINE
  5
248
100
AcDbEntity
  8
ASSI
100
AcDbLine
 62
250
  6
CONTINUOUS
 10
-37.9593195702
 20
10.3416696034
 30
0.0
 11
-37.9593195702
 21
7.4168409551
 31
0.0
  0
LINE
  5
249
100
AcDbEntity
  8
ASSI
100
AcDbLine
 62
7
  6
CONTINUOUS
 10
-37.0259816229
 20
10.3228527019
 30
0.0
 11
-37.0259816229
 21
7.4356578565
 31
0.0
  0
LINE
  5
24A
100
AcDbEntity
  8
ASSI
100
AcDbLine
 62
250
  6
CONTINUOUS
 10
-36.7893121269
 20
7.5818507815
 30
0.0
 11
-36.7893121269
 21
10.4499597787
 31
0.0
  0
LINE
  5
24B
100
AcDbEntity
  8
ASSI
100
AcDbLine
 62
250
  6
CONTINUOUS
 10
-36.511611155
 20
7.906216773
 30
0.0
 11
-36.511611155
 21
10.741618411
 31
0.0
  0
LINE
  5
24C
100
AcDbEntity
  8
ASSI
100
AcDbLine
 62
250
  6
CONTINUOUS
 10
-36.3359791075
 20
8.5049509656
 30
0.0
 11
-36.3359791075
 21
11.2931079975
 31
0.0
  0
LINE
  5
24D
100
AcDbEntity
  8
ASSI
100
AcDbLine
 62
7
  6
CONTINUOUS
 10
-36.328382984
 20
8.5569856996
 30
0.0
 11
-36.328382984
 21
11.3413355449
 31
0.0
  0
LINE
  5
24E
100
AcDbEntity
  8
ASSI
100
AcDbLine
 62
7
  6
CONTINUOUS
 10
-36.3359791075
 20
8.5049509656
 30
0.0
 11
-36.511611155
 21
7.906216773
 31
0.0
  0
LINE
  5
24F
100
AcDbEntity
  8
ASSI
100
AcDbLine
 62
7
  6
CONTINUOUS
 10
-36.3359791075
 20
11.2931079975
 30
0.0
 11
-36.511611155
 21
10.741618411
 31
0.0
  0
LINE
  5
250
100
AcDbEntity
  8
ASSI
100
AcDbLine
 62
250
  6
CONTINUOUS
 10
-40.031185443
 20
21.3097370861
 30
0.0
 11
-40.0478780208
 21
21.3000990009
 31
0.0
  0
LWPOLYLINE
  5
251
100
AcDbEntity
  8
ASSI
100
AcDbPolyline
 62
7
  6
CONTINUOUS
 90
100
 70
0
 10
-40.5774753697
 20
0.8646097708
 10
-40.5773355851
 20
0.8635868332
 10
-40.5771131471
 20
0.8620638181
 10
-40.5768037752
 20
0.8600785222
 10
-40.5764250771
 20
0.8577908334
 10
-40.5759764315
 20
0.8552275118
 10
-40.5754527509
 20
0.8523885588
 10
-40.5748735042
 20
0.8493992722
 10
-40.5742435539
 20
0.8462935651
 10
-40.5735588131
 20
0.8430591586
 10
-40.5728289638
 20
0.8397476678
 10
-40.5720565451
 20
0.8363732286
 10
-40.5712411507
 20
0.8329364608
 10
-40.5703887878
 20
0.8294641007
 10
-40.5695018626
 20
0.8259659481
 10
-40.5685804381
 20
0.8224421599
 10
-40.5676269574
 20
0.8189018807
 10
-40.5666429004
 20
0.8153500411
 10
-40.5656290556
 20
0.8117888009
 10
-40.5645865134
 20
0.8082212994
 10
-40.5635161562
 20
0.8046498477
 10
-40.5624190877
 20
0.8010773913
 10
-40.5612964356
 20
0.7975068027
 10
-40.5601491524
 20
0.793940267
 10
-40.5589780881
 20
0.7903795664
 10
-40.5577839955
 20
0.7868261304
 10
-40.5565676957
 20
0.7832815428
 10
-40.5553300018
 20
0.7797473046
 10
-40.5540714776
 20
0.7762241685
 10
-40.5527930929
 20
0.7727139863
 10
-40.5514953895
 20
0.7692173765
 10
-40.5501781185
 20
0.7657328724
 10
-40.548842252
 20
0.7622622942
 10
-40.5474881631
 20
0.7588058565
 10
-40.5461144647
 20
0.7553594144
 10
-40.5447209689
 20
0.7519220623
 10
-40.5433088989
 20
0.7484963761
 10
-40.5418788162
 20
0.7450832245
 10
-40.5404312287
 20
0.7416833189
 10
-40.5389666532
 20
0.7382973689
 10
-40.5374856195
 20
0.7349260896
 10
-40.5359886491
 20
0.7315701527
 10
-40.5344762141
 20
0.7282300994
 10
-40.532948729
 20
0.7249063303
 10
-40.531406685
 20
0.7215994019
 10
-40.5298505475
 20
0.7183097981
 10
-40.5282806511
 20
0.7150377181
 10
-40.5266974601
 20
0.7117836271
 10
-40.5251014294
 20
0.7085479568
 10
-40.523492841
 20
0.7053307835
 10
-40.5218721392
 20
0.7021325067
 10
-40.5202397631
 20
0.6989535046
 10
-40.5185959553
 20
0.6957937678
 10
-40.5169411328
 20
0.6926536247
 10
-40.515275733
 20
0.6895334315
 10
-40.5135999999
 20
0.6864331792
 10
-40.5119143356
 20
0.6833531524
 10
-40.5102191629
 20
0.6802936654
 10
-40.5085147316
 20
0.6772547166
 10
-40.5068014289
 20
0.6742365505
 10
-40.5050796661
 20
0.6712394466
 10
-40.5033497074
 20
0.6682634251
 10
-40.5016119261
 20
0.665308694
 10
-40.4998667248
 20
0.6623755046
 10
-40.498114395
 20
0.6594639171
 10
-40.4963552982
 20
0.6565741075
 10
-40.4945898301
 20
0.6537063022
 10
-40.4928183215
 20
0.6508606168
 10
-40.4910411242
 20
0.6480371985
 10
-40.4892586292
 20
0.6452362517
 10
-40.4874712183
 20
0.6424579601
 10
-40.4856792321
 20
0.6397024394
 10
-40.4838830626
 20
0.6369698795
 10
-40.4820831656
 20
0.6342605603
 10
-40.4802798322
 20
0.6315745074
 10
-40.4784734975
 20
0.6289119584
 10
-40.4766648382
 20
0.6262734929
 10
-40.4748541698
 20
0.6236591491
 10
-40.4730419071
 20
0.6210691062
 10
-40.4712288889
 20
0.6185041339
 10
-40.4694154574
 20
0.6159642794
 10
-40.46760201
 20
0.6134496653
 10
-40.4657894865
 20
0.6109611504
 10
-40.463978227
 20
0.6084987492
 10
-40.4621686416
 20
0.6060625695
 10
-40.4603617961
 20
0.6036535845
 10
-40.4585580201
 20
0.6012717631
 10
-40.4567577469
 20
0.5989172097
 10
-40.4549622212
 20
0.5965910707
 10
-40.453172002
 20
0.5942935732
 10
-40.4513873105
 20
0.5920245076
 10
-40.4496089026
 20
0.5897843418
 10
-40.4478377223
 20
0.5875737594
 10
-40.446073608
 20
0.585392057
 10
-40.4443156495
 20
0.5832376423
 10
-40.4425642006
 20
0.5811105074
 10
-40.4408196486
 20
0.579010684
 10
-40.439081113
 20
0.5769366959
 10
-40.4373488556
 20
0.5748884628
 10
-40.4339039534
 20
0.5708686401
  0
LWPOLYLINE
  5
252
100
AcDbEntity
  8
ASSI
100
AcDbPolyline
 62
7
  6
CONTINUOUS
 90
3
 70
0
 10
-40.5775240502
 20
0.8649559298
 10
-40.5775509616
 20
0.8652001797
 10
-40.5775458945
 20
0.8651613463
  0
LINE
  5
253
100
AcDbEntity
  8
ASSI
100
AcDbLine
 62
250
  6
CONTINUOUS
 10
-39.7590530289
 20
15.0011958827
 30
0.0
 11
-40.1040100607
 21
14.7736999644
 31
0.0
  0
LINE
  5
254
100
AcDbEntity
  8
ASSI
100
AcDbLine
 62
7
  6
CONTINUOUS
 10
-39.7971211088
 20
14.9116103685
 30
0.0
 11
-40.0479060036
 21
14.7462200889
 31
0.0
  0
LINE
  5
255
100
AcDbEntity
  8
ASSI
100
AcDbLine
 62
250
  6
CONTINUOUS
 10
-40.0478780208
 20
17.2640446978
 30
0.0
 11
-39.9003667353
 21
17.3431570439
 31
0.0
  0
LINE
  5
256
100
AcDbEntity
  8
ASSI
100
AcDbLine
 62
250
  6
CONTINUOUS
 10
-40.1040100607
 20
16.9131902498
 30
0.0
 11
-39.7590530289
 21
17.0981954852
 31
0.0
  0
LWPOLYLINE
  5
257
100
AcDbEntity
  8
ASSI
100
AcDbPolyline
 62
7
  6
CONTINUOUS
 90
15
 70
0
 10
51.8781338535
 20
-67.5099462133
 10
51.9179957937
 20
-67.5321181052
 10
51.9903311913
 20
-67.5681187652
 10
52.0628211163
 20
-67.5988313487
 10
52.1353436561
 20
-67.6242589988
 10
52.2077372006
 20
-67.644400456
 10
52.2797308795
 20
-67.6592330416
 10
52.3511685531
 20
-67.6687829073
 10
52.4218180339
 20
-67.6730754636
 10
52.4911976148
 20
-67.6721591076
 10
52.5590322201
 20
-67.6661568501
 10
52.6250815604
 20
-67.6552186339
 10
52.6888566955
 20
-67.6395810107
 10
52.7500294929
 20
-67.6195340836
 10
52.811320709
 20
-67.5940327733
  0
LINE
  5
258
100
AcDbEntity
  8
ASSI
100
AcDbLine
 62
7
  6
CONTINUOUS
 10
-55.3658919186
 20
-5.5885898158
 30
0.0
 11
51.8781360322
 21
-67.5099474713
 31
0.0
  0
LINE
  5
259
100
AcDbEntity
  8
ASSI
100
AcDbLine
 62
250
  6
CONTINUOUS
 10
-55.4694332292
 20
-5.3597213852
 30
0.0
 11
51.7745947114
 21
-67.2810790348
 31
0.0
  0
LINE
  5
25A
100
AcDbEntity
  8
ASSI
100
AcDbLine
 62
7
  6
CONTINUOUS
 10
-40.4138285922
 20
0.5487996532
 30
0.0
 11
-40.4105853085
 21
0.545443898
 31
0.0
  0
LINE
  5
25B
100
AcDbEntity
  8
ASSI
100
AcDbLine
 62
7
  6
CONTINUOUS
 10
-40.4170980443
 20
0.5522404292
 30
0.0
 11
-40.4138285922
 21
0.5487996532
 31
0.0
  0
LINE
  5
25C
100
AcDbEntity
  8
ASSI
100
AcDbLine
 62
7
  6
CONTINUOUS
 10
-40.4203982107
 20
0.5557730429
 30
0.0
 11
-40.4170980443
 21
0.5522404292
 31
0.0
  0
LINE
  5
25D
100
AcDbEntity
  8
ASSI
100
AcDbLine
 62
7
  6
CONTINUOUS
 10
-40.4237293802
 20
0.5594001365
 30
0.0
 11
-40.4203982107
 21
0.5557730429
 31
0.0
  0
LINE
  5
25E
100
AcDbEntity
  8
ASSI
100
AcDbLine
 62
7
  6
CONTINUOUS
 10
-40.4270926234
 20
0.563125422
 30
0.0
 11
-40.4237293802
 21
0.5594001365
 31
0.0
  0
LINE
  5
25F
100
AcDbEntity
  8
ASSI
100
AcDbLine
 62
7
  6
CONTINUOUS
 10
-40.4304848372
 20
0.5669481321
 30
0.0
 11
-40.4270926234
 21
0.563125422
 31
0.0
  0
LINE
  5
260
100
AcDbEntity
  8
ASSI
100
AcDbLine
 62
7
  6
CONTINUOUS
 10
-40.4339039534
 20
0.5708686401
 30
0.0
 11
-40.4304848372
 21
0.5669481321
 31
0.0
  0
LINE
  5
261
100
AcDbEntity
  8
ASSI
100
AcDbLine
 62
7
  6
CONTINUOUS
 10
-36.7893121269
 20
7.5818507815
 30
0.0
 11
-37.0259816229
 21
7.4356578565
 31
0.0
  0
LINE
  5
262
100
AcDbEntity
  8
ASSI
100
AcDbLine
 62
7
  6
CONTINUOUS
 10
-40.1040100607
 20
3.4698441345
 30
0.0
 11
-40.5955369083
 21
3.1757831657
 31
0.0
  0
LINE
  5
263
100
AcDbEntity
  8
ASSI
100
AcDbLine
 62
7
  6
CONTINUOUS
 10
-40.5955369082
 20
8.0014623405
 30
0.0
 11
-40.1040100607
 21
8.295171326
 31
0.0
  0
LINE
  5
264
100
AcDbEntity
  8
ASSI
100
AcDbLine
 62
7
  6
CONTINUOUS
 10
-36.7893121269
 20
10.4499597787
 30
0.0
 11
-37.0259816229
 21
10.3228527019
 31
0.0
  0
LINE
  5
265
100
AcDbEntity
  8
ASSI
100
AcDbLine
 62
7
  6
CONTINUOUS
 10
-38.5680809992
 20
7.2810864304
 30
0.0
 11
-40.778667832
 21
6.222931946
 31
0.0
  0
LINE
  5
266
100
AcDbEntity
  8
ASSI
100
AcDbLine
 62
7
  6
CONTINUOUS
 10
-38.5680809992
 20
10.2387937453
 30
0.0
 11
-40.0478780208
 21
9.6359035097
 31
0.0
  0
LINE
  5
267
100
AcDbEntity
  8
ASSI
100
AcDbLine
 62
7
  6
CONTINUOUS
 10
-40.3810734518
 20
0.5175528518
 30
0.0
 11
-40.3756126216
 21
0.5129746583
 31
0.0
  0
LWPOLYLINE
  5
268
100
AcDbEntity
  8
ASSI
100
AcDbPolyline
 62
7
  6
CONTINUOUS
 90
8
 70
0
 10
-40.3920300411
 20
0.5273381881
 10
-40.3904905207
 20
0.5259206197
 10
-40.3889273435
 20
0.5244950321
 10
-40.3873497078
 20
0.5230705479
 10
-40.385770175
 20
0.521659024
 10
-40.3841938382
 20
0.5202653652
 10
-40.3826233323
 20
0.5188922502
 10
-40.3810734518
 20
0.5175528518
  0
LWPOLYLINE
  5
269
100
AcDbEntity
  8
ASSI
100
AcDbPolyline
 62
7
  6
CONTINUOUS
 90
3
 70
0
 10
-40.3950636494
 20
0.5301702233
 10
-40.3935507944
 20
0.5287515136
 10
-40.3920719337
 20
0.5273771213
  0
LINE
  5
26A
100
AcDbEntity
  8
ASSI
100
AcDbLine
 62
7
  6
CONTINUOUS
 10
-40.3980519431
 20
0.5330094611
 30
0.0
 11
-40.3950636494
 21
0.5301702233
 31
0.0
  0
LINE
  5
26B
100
AcDbEntity
  8
ASSI
100
AcDbLine
 62
7
  6
CONTINUOUS
 10
-40.4010833419
 20
0.5359392646
 30
0.0
 11
-40.3980519431
 21
0.5330094611
 31
0.0
  0
LINE
  5
26C
100
AcDbEntity
  8
ASSI
100
AcDbLine
 62
7
  6
CONTINUOUS
 10
-40.4041838883
 20
0.5389872331
 30
0.0
 11
-40.4010833419
 21
0.5359392646
 31
0.0
  0
LINE
  5
26D
100
AcDbEntity
  8
ASSI
100
AcDbLine
 62
7
  6
CONTINUOUS
 10
-40.4073662898
 20
0.5421695004
 30
0.0
 11
-40.4041838883
 21
0.5389872331
 31
0.0
  0
LINE
  5
26E
100
AcDbEntity
  8
ASSI
100
AcDbLine
 62
7
  6
CONTINUOUS
 10
-40.4105853085
 20
0.545443898
 30
0.0
 11
-40.4073662898
 21
0.5421695004
 31
0.0
  0
LINE
  5
26F
100
AcDbEntity
  8
ASSI
100
AcDbLine
 62
250
  6
CONTINUOUS
 10
-41.5790808263
 20
0.7798044086
 30
0.0
 11
-41.2155893014
 21
0.9896791636
 31
0.0
  0
LINE
  5
270
100
AcDbEntity
  8
ASSI
100
AcDbLine
 62
250
  6
CONTINUOUS
 10
-41.2255812836
 20
0.1675252409
 30
0.0
 11
-40.8620897587
 21
0.3773999958
 31
0.0
  0
LINE
  5
271
100
AcDbEntity
  8
ASSI
100
AcDbLine
 62
250
  6
CONTINUOUS
 10
-39.9438368891
 20
0.2685718243
 30
0.0
 11
-39.7590530289
 21
0.3752640755
 31
0.0
  0
LINE
  5
272
100
AcDbEntity
  8
ASSI
100
AcDbLine
 62
250
  6
CONTINUOUS
 10
-40.0478780208
 20
1.4449330849
 30
0.0
 11
-39.9003667353
 21
1.524045431
 31
0.0
  0
LINE
  5
273
100
AcDbEntity
  8
ASSI
100
AcDbLine
 62
250
  6
CONTINUOUS
 10
-40.1040100607
 20
1.0940786369
 30
0.0
 11
-39.7590530289
 21
1.2790838723
 31
0.0
  0
LINE
  5
274
100
AcDbEntity
  8
ASSI
100
AcDbLine
 62
7
  6
CONTINUOUS
 10
-37.2701465217
 20
11.7172299953
 30
0.0
 11
-40.0478780208
 21
10.8975137191
 31
0.0
  0
LINE
  5
275
100
AcDbEntity
  8
ASSI
100
AcDbLine
 62
250
  6
CONTINUOUS
 10
-36.9695783987
 20
11.7400199943
 30
0.0
 11
-40.0478780208
 21
10.8316052307
 31
0.0
  0
LINE
  5
276
100
AcDbEntity
  8
ASSI
100
AcDbLine
 62
250
  6
CONTINUOUS
 10
37.7391725857
 20
-45.9113272913
 30
0.0
 11
-41.4340111035
 21
-0.1977233022
 31
0.0
  0
LINE
  5
277
100
AcDbEntity
  8
ASSI
100
AcDbLine
 62
250
  6
CONTINUOUS
 10
37.9476024056
 20
-45.5460787482
 30
0.0
 11
-41.2255812836
 21
0.1675252409
 31
0.0
  0
LINE
  5
278
100
AcDbEntity
  8
ASSI
100
AcDbLine
 62
7
  6
CONTINUOUS
 10
-40.8620897587
 20
0.3773999958
 30
0.0
 11
38.2169038884
 21
-45.2818198435
 31
0.0
  0
LINE
  5
279
100
AcDbEntity
  8
ASSI
100
AcDbLine
 62
250
  6
CONTINUOUS
 10
38.2169038884
 20
-44.8988295202
 30
0.0
 11
-40.2801689254
 21
0.4243965231
 31
0.0
  0
LINE
  5
27A
100
AcDbEntity
  8
ASSI
100
AcDbLine
 62
7
  6
CONTINUOUS
 10
38.2169038884
 20
-44.8604603165
 30
0.0
 11
-40.3920719337
 21
0.5273771213
 31
0.0
  0
LINE
  5
27B
100
AcDbEntity
  8
ASSI
100
AcDbLine
 62
250
  6
CONTINUOUS
 10
17.9302961603
 20
-33.0480451146
 30
0.0
 11
17.788874804
 21
-32.966390196
 31
0.0
  0
LINE
  5
27C
100
AcDbEntity
  8
ASSI
100
AcDbLine
 62
250
  6
CONTINUOUS
 10
15.5261331042
 20
-31.6599114973
 30
0.0
 11
15.384711748
 21
-31.5782565786
 31
0.0
  0
LINE
  5
27D
100
AcDbEntity
  8
ASSI
100
AcDbLine
 62
250
  6
CONTINUOUS
 10
-16.4243779562
 20
-13.2120868449
 30
0.0
 11
-16.2936720492
 21
-13.2875547976
 31
0.0
  0
LINE
  5
27E
100
AcDbEntity
  8
ASSI
100
AcDbLine
 62
7
  6
CONTINUOUS
 10
-16.2936720492
 20
-13.2875547976
 30
0.0
 11
-14.0309303494
 21
-14.5940334962
 31
0.0
  0
LINE
  5
27F
100
AcDbEntity
  8
ASSI
100
AcDbLine
 62
250
  6
CONTINUOUS
 10
-14.0309303494
 20
-14.5940334962
 30
0.0
 11
-13.9002244423
 21
-14.6695014488
 31
0.0
  0
LINE
  5
280
100
AcDbEntity
  8
ASSI
100
AcDbLine
 62
7
  6
CONTINUOUS
 10
15.5261331042
 20
-31.6599114973
 30
0.0
 11
17.788874804
 21
-32.966390196
 31
0.0
  0
LINE
  5
281
100
AcDbEntity
  8
ASSI
100
AcDbLine
 62
7
  6
CONTINUOUS
 10
18.0278328493
 20
-33.0395370834
 30
0.0
 11
17.9863947834
 21
-33.0156112635
 31
0.0
  0
LINE
  5
282
100
AcDbEntity
  8
ASSI
100
AcDbLine
 62
7
  6
CONTINUOUS
 10
15.523686503
 20
-31.5936743674
 30
0.0
 11
15.482248437
 21
-31.5697485475
 31
0.0
  0
LINE
  5
283
100
AcDbEntity
  8
ASSI
100
AcDbLine
 62
7
  6
CONTINUOUS
 10
-16.3268412672
 20
-13.2035788138
 30
0.0
 11
-16.2961186504
 21
-13.2213176676
 31
0.0
  0
LINE
  5
284
100
AcDbEntity
  8
ASSI
100
AcDbLine
 62
7
  6
CONTINUOUS
 10
-13.83341037
 20
-14.6432545638
 30
0.0
 11
-13.8026877533
 21
-14.6609934176
 31
0.0
  0
LINE
  5
285
100
AcDbEntity
  8
ASSI
100
AcDbLine
 62
7
  6
CONTINUOUS
 10
-16.1014973928
 20
-13.1765955595
 30
0.0
 11
-13.838755693
 21
-14.4830742581
 31
0.0
  0
LINE
  5
286
100
AcDbEntity
  8
ASSI
100
AcDbLine
 62
7
  6
CONTINUOUS
 10
15.7183077606
 20
-31.5489522592
 30
0.0
 11
17.9810494604
 21
-32.8554309579
 31
0.0
  0
LINE
  5
287
100
AcDbEntity
  8
ASSI
100
AcDbLine
 62
7
  6
CONTINUOUS
 10
-40.0478780208
 20
1.6092165985
 30
0.0
 11
-39.9003667353
 21
1.524045431
 31
0.0
  0
LINE
  5
288
100
AcDbEntity
  8
ASSI
100
AcDbLine
 62
7
  6
CONTINUOUS
 10
-40.778667832
 20
4.0362408683
 30
0.0
 11
-40.1064566646
 21
3.6345663348
 31
0.0
  0
LINE
  5
289
100
AcDbEntity
  8
ASSI
100
AcDbLine
 62
250
  6
CONTINUOUS
 10
-40.778667832
 20
3.3302499187
 30
0.0
 11
-40.6934000548
 21
3.2775190463
 31
0.0
  0
LINE
  5
28A
100
AcDbEntity
  8
ASSI
100
AcDbLine
 62
250
  6
CONTINUOUS
 10
-41.2155893014
 20
1.1318189724
 30
0.0
 11
-40.6850246927
 21
1.322190829
 31
0.0
  0
LINE
  5
28B
100
AcDbEntity
  8
ASSI
100
AcDbLine
 62
250
  6
CONTINUOUS
 10
-40.6892603408
 20
0.277610456
 30
0.0
 11
-40.2801689254
 21
0.4243965231
 31
0.0
  0
LINE
  5
28C
100
AcDbEntity
  8
ASSI
100
AcDbLine
 62
7
  6
CONTINUOUS
 10
-36.7889786689
 20
11.7226831285
 30
0.0
 11
-36.4748295934
 21
11.5412973895
 31
0.0
  0
LINE
  5
28D
100
AcDbEntity
  8
ASSI
100
AcDbLine
 62
7
  6
CONTINUOUS
 10
-40.0478780208
 20
17.4283282114
 30
0.0
 11
-39.9003667353
 21
17.3431570439
 31
0.0
  0
LINE
  5
28E
100
AcDbEntity
  8
ASSI
100
AcDbLine
 62
7
  6
CONTINUOUS
 10
-16.2961186597
 20
-13.2213176676
 30
0.0
 11
-16.2149624094
 21
-13.1744590658
 31
0.0
  0
LINE
  5
28F
100
AcDbEntity
  8
ASSI
100
AcDbLine
 62
250
  6
CONTINUOUS
 10
-16.1014973928
 20
-13.1765955595
 30
0.0
 11
-16.2936720492
 21
-13.2875547976
 31
0.0
  0
LINE
  5
290
100
AcDbEntity
  8
ASSI
100
AcDbLine
 62
250
  6
CONTINUOUS
 10
-13.838755693
 20
-14.4830742581
 30
0.0
 11
-14.0309303494
 21
-14.5940334962
 31
0.0
  0
LINE
  5
291
100
AcDbEntity
  8
ASSI
100
AcDbLine
 62
250
  6
CONTINUOUS
 10
-13.9002244423
 20
-14.6695014488
 30
0.0
 11
-13.9861130231
 21
-14.7190926092
 31
0.0
  0
LINE
  5
292
100
AcDbEntity
  8
ASSI
100
AcDbLine
 62
7
  6
CONTINUOUS
 10
-16.5704567741
 20
-13.2269249169
 30
0.0
 11
-16.5215712961
 21
-13.2006358888
 31
0.0
  0
LINE
  5
293
100
AcDbEntity
  8
ASSI
100
AcDbLine
 62
250
  6
CONTINUOUS
 10
-16.5133181853
 20
-13.2599160219
 30
0.0
 11
-16.4243779562
 21
-13.2120868449
 31
0.0
  0
LINE
  5
294
100
AcDbEntity
  8
ASSI
100
AcDbLine
 62
7
  6
CONTINUOUS
 10
-37.0259816229
 20
7.4356578565
 30
0.0
 11
-37.9593195702
 21
7.4168409551
 31
0.0
  0
LINE
  5
295
100
AcDbEntity
  8
ASSI
100
AcDbLine
 62
7
  6
CONTINUOUS
 10
-37.0259816229
 20
10.3228527019
 30
0.0
 11
-37.9593195702
 21
10.3416696034
 31
0.0
  0
LINE
  5
296
100
AcDbEntity
  8
ASSI
100
AcDbLine
 62
7
  6
CONTINUOUS
 10
-36.7889786689
 20
11.7226831285
 30
0.0
 11
-36.9695783987
 21
11.7400199943
 31
0.0
  0
LINE
  5
297
100
AcDbEntity
  8
ASSI
100
AcDbLine
 62
7
  6
CONTINUOUS
 10
-40.0478780208
 20
32.288087249
 30
0.0
 11
-39.9003667353
 21
32.2029160815
 31
0.0
  0
LINE
  5
298
100
AcDbEntity
  8
ASSI
100
AcDbLine
 62
7
  6
CONTINUOUS
 10
-40.778667832
 20
38.8178746597
 30
0.0
 11
-40.1064566646
 21
38.4162001261
 31
0.0
  0
LINE
  5
299
100
AcDbEntity
  8
ASSI
100
AcDbLine
 62
250
  6
CONTINUOUS
 10
-40.778667832
 20
38.1118837101
 30
0.0
 11
-40.6934000548
 21
38.0591528377
 31
0.0
  0
LINE
  5
29A
100
AcDbEntity
  8
ASSI
100
AcDbLine
 62
7
  6
CONTINUOUS
 10
-41.3718863172
 20
43.8911472922
 30
0.0
 11
37.8012973721
 21
-1.8224566969
 31
0.0
  0
LINE
  5
29B
100
AcDbEntity
  8
ASSI
100
AcDbLine
 62
250
  6
CONTINUOUS
 10
-41.4340111035
 20
44.0284683506
 30
0.0
 11
37.7391725857
 21
-1.6851356385
 31
0.0
  0
LWPOLYLINE
  5
29C
100
AcDbEntity
  8
ASSI
100
AcDbPolyline
 62
7
  6
CONTINUOUS
 90
27
 70
0
 10
37.8013167654
 20
-1.8224678915
 10
37.8125804407
 20
-1.8291855055
 10
37.8336418025
 20
-1.8428598534
 10
37.8559489947
 20
-1.8588796434
 10
37.8791246327
 20
-1.8771701631
 10
37.9029619122
 20
-1.8977359191
 10
37.9272727276
 20
-1.9205748781
 10
37.9517224639
 20
-1.9455132585
 10
37.9761088881
 20
-1.9724623691
 10
38.0002376013
 20
-2.0013184464
 10
38.0238172375
 20
-2.0318234538
 10
38.0466676758
 20
-2.0638117774
 10
38.0686187757
 20
-2.0971045852
 10
38.0894359462
 20
-2.1313811554
 10
38.1089836816
 20
-2.166426942
 10
38.1271393039
 20
-2.2020184484
 10
38.1437366636
 20
-2.2377925835
 10
38.1587017281
 20
-2.2735143353
 10
38.1719759379
 20
-2.3089443032
 10
38.1834742333
 20
-2.3436970939
 10
38.1931991827
 20
-2.3775514467
 10
38.2011703506
 20
-2.4102873213
 10
38.207397233
 20
-2.4415231651
 10
38.2119667649
 20
-2.471089382
 10
38.2149815559
 20
-2.4988050888
 10
38.2165590141
 20
-2.5243027873
 10
38.2169038927
 20
-2.5422707342
  0
LINE
  5
29D
100
AcDbEntity
  8
ASSI
100
AcDbLine
 62
250
  6
CONTINUOUS
 10
52.1096445472
 20
4.0779916869
 30
0.0
 11
54.5104447996
 21
5.4641703217
 31
0.0
  0
LINE
  5
29E
100
AcDbEntity
  8
ASSI
100
AcDbLine
 62
250
  6
CONTINUOUS
 10
55.787729237
 20
5.5378616912
 30
0.0
 11
54.9468859363
 21
5.1032515453
 31
0.0
  0
LINE
  5
29F
100
AcDbEntity
  8
ASSI
100
AcDbLine
 62
250
  6
CONTINUOUS
 10
56.2720522418
 20
4.6989896404
 30
0.0
 11
55.4752951042
 21
4.1880661407
 31
0.0
  0
LINE
  5
2A0
100
AcDbEntity
  8
ASSI
100
AcDbLine
 62
250
  6
CONTINUOUS
 10
53.1688511211
 20
2.2433920871
 30
0.0
 11
55.5696513735
 21
3.629570722
 31
0.0
  0
LWPOLYLINE
  5
2A1
100
AcDbEntity
  8
ASSI
100
AcDbPolyline
 62
7
  6
CONTINUOUS
 90
5
 70
0
 10
-41.4281276718
 20
43.9178278442
 10
-41.4146170007
 20
43.9125528711
 10
-41.4002312207
 20
43.9061048248
 10
-41.3850439431
 20
43.8984459237
 10
-41.3719081094
 20
43.8911598785
  0
LINE
  5
2A2
100
AcDbEntity
  8
ASSI
100
AcDbLine
 62
250
  6
CONTINUOUS
 10
51.7745947114
 20
3.4768624445
 30
0.0
 11
-55.4694332292
 21
65.3982200941
 31
0.0
  0
LINE
  5
2A3
100
AcDbEntity
  8
ASSI
100
AcDbLine
 62
250
  6
CONTINUOUS
 10
52.1096445472
 20
4.0779916869
 30
0.0
 11
-55.1343833934
 21
65.9993493364
 31
0.0
  0
LINE
  5
2A4
100
AcDbEntity
  8
ASSI
100
AcDbLine
 62
7
  6
CONTINUOUS
 10
15.5236864937
 20
-31.5936743674
 30
0.0
 11
15.604842744
 21
-31.5468157656
 31
0.0
  0
LINE
  5
2A5
100
AcDbEntity
  8
ASSI
100
AcDbLine
 62
250
  6
CONTINUOUS
 10
15.7183077606
 20
-31.5489522592
 30
0.0
 11
15.5261331042
 21
-31.6599114973
 31
0.0
  0
LINE
  5
2A6
100
AcDbEntity
  8
ASSI
100
AcDbLine
 62
7
  6
CONTINUOUS
 10
15.2394489623
 20
-31.5935658173
 30
0.0
 11
15.2848911897
 21
-31.5682439202
 31
0.0
  0
LINE
  5
2A7
100
AcDbEntity
  8
ASSI
100
AcDbLine
 62
250
  6
CONTINUOUS
 10
15.297297343
 20
-31.6269667473
 30
0.0
 11
15.384711748
 21
-31.5782565786
 31
0.0
  0
LINE
  5
2A8
100
AcDbEntity
  8
ASSI
100
AcDbLine
 62
7
  6
CONTINUOUS
 10
54.5104447996
 20
5.4641703217
 30
0.0
 11
-52.9726931366
 21
67.523587086
 31
0.0
  0
LINE
  5
2A9
100
AcDbEntity
  8
ASSI
100
AcDbLine
 62
250
  6
CONTINUOUS
 10
-51.6895903179
 20
67.593918995
 30
0.0
 11
55.787729237
 21
5.5378616912
 31
0.0
  0
LINE
  5
2AA
100
AcDbEntity
  8
ASSI
100
AcDbLine
 62
7
  6
CONTINUOUS
 10
-51.5969869078
 20
67.5997775311
 30
0.0
 11
55.8803326471
 21
5.5437202273
 31
0.0
  0
LINE
  5
2AB
100
AcDbEntity
  8
ASSI
100
AcDbLine
 62
7
  6
CONTINUOUS
 10
38.2169038884
 20
-2.5422999289
 30
0.0
 11
38.2169038884
 21
-45.4623381027
 31
0.0
  0
LINE
  5
2AC
100
AcDbEntity
  8
ASSI
100
AcDbLine
 62
250
  6
CONTINUOUS
 10
38.304771854
 20
-2.6647823069
 30
0.0
 11
38.304771854
 21
-45.5848204807
 31
0.0
  0
LWPOLYLINE
  5
2AD
100
AcDbEntity
  8
ASSI
100
AcDbPolyline
 62
7
  6
CONTINUOUS
 90
11
 70
0
 10
38.2169038924
 20
-45.4623664696
 10
38.2166542611
 20
-45.4771332741
 10
38.2157018209
 20
-45.494144798
 10
38.214099352
 20
-45.5098556622
 10
38.2119159535
 20
-45.5242210847
 10
38.2092616952
 20
-45.5370339285
 10
38.2063375855
 20
-45.5479459391
 10
38.2033447258
 20
-45.5568781642
 10
38.2004741581
 20
-45.5638711374
 10
38.1980018271
 20
-45.5688497666
 10
38.1962302766
 20
-45.5718372842
  0
LINE
  5
2AE
100
AcDbEntity
  8
ASSI
100
AcDbLine
 62
250
  6
CONTINUOUS
 10
17.9810494604
 20
-32.8554309579
 30
0.0
 11
17.788874804
 21
-32.966390196
 31
0.0
  0
LINE
  5
2AF
100
AcDbEntity
  8
ASSI
100
AcDbLine
 62
250
  6
CONTINUOUS
 10
17.9302961603
 20
-33.0480451146
 30
0.0
 11
17.8428817553
 21
-33.0967552833
 31
0.0
  0
LINE
  5
2B0
100
AcDbEntity
  8
ASSI
100
AcDbLine
 62
250
  6
CONTINUOUS
 10
52.4807324273
 20
-66.8734427693
 30
0.0
 11
52.4807324273
 21
2.2537960447
 31
0.0
  0
LINE
  5
2B1
100
AcDbEntity
  8
ASSI
100
AcDbLine
 62
250
  6
CONTINUOUS
 10
53.1688511211
 20
-66.8838467269
 30
0.0
 11
53.1688511211
 21
2.2433920871
 31
0.0
  0
LWPOLYLINE
  5
2B2
100
AcDbEntity
  8
ASSI
100
AcDbPolyline
 62
7
  6
CONTINUOUS
 90
10
 70
0
 10
-41.4783226212
 20
43.9279846116
 10
-41.4787617853
 20
43.9278742903
 10
-41.4786898196
 20
43.9278695601
 10
-41.4771008227
 20
43.9280048287
 10
-41.4736313165
 20
43.9280479473
 10
-41.468097768
 20
43.9277021805
 10
-41.4606271065
 20
43.9266972939
 10
-41.4514179847
 20
43.9248328294
 10
-41.4405288125
 20
43.9219215749
 10
-41.4281276718
 20
43.9178278442
  0
LINE
  5
2B3
100
AcDbEntity
  8
ASSI
100
AcDbLine
 62
7
  6
CONTINUOUS
 10
55.5696513735
 20
-65.7737596379
 30
0.0
 11
55.5696513735
 21
3.629570722
 31
0.0
  0
LINE
  5
2B4
100
AcDbEntity
  8
ASSI
100
AcDbLine
 62
250
  6
CONTINUOUS
 10
56.2720522418
 20
4.6989896404
 30
0.0
 11
56.2720522418
 21
-64.6976224478
 31
0.0
  0
LINE
  5
2B5
100
AcDbEntity
  8
ASSI
100
AcDbLine
 62
7
  6
CONTINUOUS
 10
56.3234232767
 20
4.7762591656
 30
0.0
 11
56.3234232767
 21
-64.6203529226
 31
0.0
  0
LINE
  5
2B6
100
AcDbEntity
  8
ASSI
100
AcDbLine
 62
250
  6
CONTINUOUS
 10
37.9476024056
 20
-45.5460787482
 30
0.0
 11
38.2169038884
 21
-45.3795386717
 31
0.0
  0
LINE
  5
2B7
100
AcDbEntity
  8
ASSI
100
AcDbLine
 62
7
  6
CONTINUOUS
 10
38.2004010386
 20
-45.5692035942
 30
0.0
 11
38.2003311468
 21
-45.5692467925
 31
0.0
  0
LINE
  5
2B8
100
AcDbEntity
  8
ASSI
100
AcDbLine
 62
7
  6
CONTINUOUS
 10
55.5696513735
 20
-65.3852257345
 30
0.0
 11
56.1426685632
 21
-65.0034085839
 31
0.0
  0
LINE
  5
2B9
100
AcDbEntity
  8
ASSI
100
AcDbLine
 62
250
  6
CONTINUOUS
 10
56.2720522418
 20
-64.6976224478
 30
0.0
 11
55.5696513735
 21
-65.1480396364
 31
0.0
  0
LINE
  5
2BA
100
AcDbEntity
  8
ASSI
100
AcDbLine
 62
250
  6
CONTINUOUS
 10
53.1688511211
 20
-66.8838467269
 30
0.0
 11
55.5696513735
 21
-65.7737596379
 31
0.0
  0
LINE
  5
2BB
100
AcDbEntity
  8
ASSI
100
AcDbLine
 62
7
  6
CONTINUOUS
 10
52.8106711739
 20
-67.5943349141
 30
0.0
 11
55.2194626418
 21
-66.48055283
 31
0.0
  0
ARC
  5
2BC
100
AcDbEntity
  8
ASSI
100
AcDbCircle
 62
7
  6
CONTINUOUS
 10
-13.9026925853
 20
-14.8341957085
 30
0.0
 40
0.2
100
AcDbArc
 50
346.6532198143
 51
59.9992007499
  0
ARC
  5
2BD
100
AcDbEntity
  8
ASSI
100
AcDbCircle
 62
7
  6
CONTINUOUS
 10
-16.4268460992
 20
-13.3767811047
 30
0.0
 40
0.2
100
AcDbArc
 50
59.9968711556
 51
118.2699256376
  0
ARC
  5
2BE
100
AcDbEntity
  8
ASSI
100
AcDbCircle
 62
7
  6
CONTINUOUS
 10
15.382243605
 20
-31.7429508384
 30
0.0
 40
0.2
100
AcDbArc
 50
60.0014500946
 51
119.1279835012
  0
ARC
  5
2BF
100
AcDbEntity
  8
ASSI
100
AcDbCircle
 62
7
  6
CONTINUOUS
 10
17.9278280173
 20
-33.2127393743
 30
0.0
 40
0.2
100
AcDbArc
 50
346.3933215668
 51
59.9987992907
  0
ARC
  5
2C0
100
AcDbEntity
  8
ASSI
100
AcDbCircle
 62
250
  6
CONTINUOUS
 10
-41.3938491462
 20
43.7836056972
 30
0.0
 40
0.1665541057
100
AcDbArc
 50
118.296340662
 51
120.3319550059
  0
ARC
  5
2C1
100
AcDbEntity
  8
ASSI
100
AcDbCircle
 62
250
  6
CONTINUOUS
 10
38.1128810659
 20
-45.4276791507
 30
0.0
 40
0.1663998633
100
AcDbArc
 50
300.2106874976
 51
301.7047293206
  0
ARC
  5
2C2
100
AcDbEntity
  8
ASSI
100
AcDbCircle
 62
250
  6
CONTINUOUS
 10
17.9943201845
 20
-33.0976391624
 30
0.0
 40
0.0670741858
100
AcDbArc
 50
60.025292252
 51
67.8401822004
  0
ARC
  5
2C3
100
AcDbEntity
  8
ASSI
100
AcDbCircle
 62
250
  6
CONTINUOUS
 10
56.2563653779
 20
-64.6203692665
 30
0.0
 40
0.0670501504
100
AcDbArc
 50
357.2665429203
 51
0.013965612
  0
SPLINE
  5
2C4
100
AcDbEntity
  8
ASSI
100
AcDbSpline
 62
7
  6
CONTINUOUS
 70
0
 71
3
 72
11
 73
7
 74
0
 42
0.0000001
 43
0.0000001
 44
0.0000000001
 40
0.0
 40
0.0
 40
0.0
 40
0.0
 40
0.2915028108
 40
0.5502118295
 40
0.7818910569
 40
1.0
 40
1.0
 40
1.0
 40
1.0
 10
-52.9726931366
 20
67.523587086
 30
0.0
 10
-53.0426080197
 20
67.5639550632
 30
0.0
 10
-53.1815779032
 20
67.6291807123
 30
0.0
 10
-53.3953191724
 20
67.6762025454
 30
0.0
 10
-53.5942870045
 20
67.6615410341
 30
0.0
 10
-53.7106418668
 20
67.6085566386
 30
0.0
 10
-53.7599824074
 20
67.5737092634
 30
0.0
  0
SPLINE
  5
2C5
100
AcDbEntity
  8
ASSI
100
AcDbSpline
 62
7
  6
CONTINUOUS
 70
0
 71
3
 72
15
 73
11
 74
0
 42
0.0000001
 43
0.0000001
 44
0.0000000001
 40
0.0
 40
0.0
 40
0.0
 40
0.0
 40
0.1142413001
 40
0.2374032818
 40
0.3670261888
 40
0.4999939441
 40
0.6329625441
 40
0.7625879086
 40
0.8857537676
 40
1.0
 40
1.0
 40
1.0
 40
1.0
 10
55.5696513735
 20
3.629570722
 30
0.0
 10
55.5696513735
 20
3.7133654567
 30
0.0
 10
55.554218264
 20
3.8876467175
 30
0.0
 10
55.4932992419
 20
4.1505938666
 30
0.0
 10
55.3952596413
 20
4.416743766
 30
0.0
 10
55.2643905025
 20
4.6763790619
 30
0.0
 10
55.1049732394
 20
4.9195341515
 30
0.0
 10
54.9234976619
 20
5.1375183503
 30
0.0
 10
54.7262338607
 20
5.3217566557
 30
0.0
 10
54.5830151327
 20
5.4222691209
 30
0.0
 10
54.5104447996
 20
5.4641703217
 30
0.0
  0
SPLINE
  5
2C6
100
AcDbEntity
  8
ASSI
100
AcDbSpline
 62
7
  6
CONTINUOUS
 70
0
 71
3
 72
9
 73
5
 74
0
 42
0.0000001
 43
0.0000001
 44
0.0000000001
 40
0.0
 40
0.0
 40
0.0
 40
0.0
 40
0.5239385372
 40
1.0
 40
1.0
 40
1.0
 40
1.0
 10
-40.7715373976
 20
42.5877047657
 30
0.0
 10
-40.7470036739
 20
42.6268684255
 30
0.0
 10
-40.6966311028
 20
42.6992949554
 30
0.0
 10
-40.6315820689
 20
42.7615564136
 30
0.0
 10
-40.5955369011
 20
42.7830961176
 30
0.0
  0
SPLINE
  5
2C7
100
AcDbEntity
  8
ASSI
100
AcDbSpline
 62
7
  6
CONTINUOUS
 70
0
 71
3
 72
9
 73
5
 74
0
 42
0.0000001
 43
0.0000001
 44
0.0000000001
 40
0.0
 40
0.0
 40
0.0
 40
0.0
 40
0.5239385372
 40
1.0
 40
1.0
 40
1.0
 40
1.0
 10
-40.7715373976
 20
7.8060709743
 30
0.0
 10
-40.7470036739
 20
7.8452346341
 30
0.0
 10
-40.6966311028
 20
7.917661164
 30
0.0
 10
-40.6315820689
 20
7.9799226223
 30
0.0
 10
-40.5955369011
 20
8.0014623263
 30
0.0
  0
SPLINE
  5
2C8
100
AcDbEntity
  8
ASSI
100
AcDbSpline
 62
7
  6
CONTINUOUS
 70
0
 71
3
 72
10
 73
6
 74
0
 42
0.0000001
 43
0.0000001
 44
0.0000000001
 40
0.0
 40
0.0
 40
0.0
 40
0.0
 40
0.5055872761
 40
0.7530380316
 40
1.0
 40
1.0
 40
1.0
 40
1.0
 10
56.3234232767
 20
-64.6203529226
 30
0.0
 10
56.3234232767
 20
-64.6943602183
 30
0.0
 10
56.3041045723
 20
-64.8074397928
 30
0.0
 10
56.2271828199
 20
-64.9337425349
 30
0.0
 10
56.1727519009
 20
-64.9833632266
 30
0.0
 10
56.1426685632
 20
-65.0034085839
 30
0.0
  0
SPLINE
  5
2C9
100
AcDbEntity
  8
ASSI
100
AcDbSpline
 62
7
  6
CONTINUOUS
 70
0
 71
3
 72
11
 73
7
 74
0
 42
0.0000001
 43
0.0000001
 44
0.0000000001
 40
0.0
 40
0.0
 40
0.0
 40
0.0
 40
0.2426477148
 40
0.5000100513
 40
0.757367533
 40
1.0
 40
1.0
 40
1.0
 40
1.0
 10
55.8803326471
 20
5.5437202273
 30
0.0
 10
55.9447791431
 20
5.5065096282
 30
0.0
 10
56.0649812406
 20
5.4073706783
 30
0.0
 10
56.2037664134
 20
5.2188052852
 30
0.0
 10
56.2976712211
 20
5.0043340655
 30
0.0
 10
56.3234232767
 20
4.8506720915
 30
0.0
 10
56.3234232767
 20
4.7762591656
 30
0.0
  0
SPLINE
  5
2CA
100
AcDbEntity
  8
ASSI
100
AcDbSpline
 62
7
  6
CONTINUOUS
 70
0
 71
3
 72
10
 73
6
 74
0
 42
0.0000001
 43
0.0000001
 44
0.0000000001
 40
0.0
 40
0.0
 40
0.0
 40
0.0
 40
0.2469520892
 40
0.4944084819
 40
1.0
 40
1.0
 40
1.0
 40
1.0
 10
-52.0191498039
 20
67.6347711479
 30
0.0
 10
-51.9867465269
 20
67.6508045547
 30
0.0
 10
-51.9165507024
 20
67.6731372246
 30
0.0
 10
-51.7686898914
 20
67.6766068398
 30
0.0
 10
-51.6610865441
 20
67.6367878577
 30
0.0
 10
-51.5969869078
 20
67.5997775311
 30
0.0
  0
SPLINE
  5
2CB
100
AcDbEntity
  8
ASSI
100
AcDbSpline
 62
7
  6
CONTINUOUS
 70
0
 71
3
 72
11
 73
7
 74
0
 42
0.0000001
 43
0.0000001
 44
0.0000000001
 40
0.0
 40
0.0
 40
0.0
 40
0.0
 40
0.2181144452
 40
0.4497960477
 40
0.7085029639
 40
1.0
 40
1.0
 40
1.0
 40
1.0
 10
55.219452961
 20
-66.4805347951
 30
0.0
 10
55.2742941811
 20
-66.4552281754
 30
0.0
 10
55.3783414975
 20
-66.3809602305
 30
0.0
 10
55.4905083527
 20
-66.2160027581
 30
0.0
 10
55.5566513649
 20
-66.0074188457
 30
0.0
 10
55.5696513735
 20
-65.8544787175
 30
0.0
 10
55.5696513735
 20
-65.7737596379
 30
0.0
  0
SPLINE
  5
2CC
100
AcDbEntity
  8
ASSI
100
AcDbSpline
 62
7
  6
CONTINUOUS
 70
0
 71
3
 72
9
 73
5
 74
0
 42
0.0000001
 43
0.0000001
 44
0.0000000001
 40
0.0
 40
0.0
 40
0.0
 40
0.0
 40
0.2773344569
 40
1.0
 40
1.0
 40
1.0
 40
1.0
 10
-40.031185443
 20
21.3097370861
 30
0.0
 10
-40.031185443
 20
21.3033028882
 30
0.0
 10
-40.0323526026
 20
21.2801911462
 30
0.0
 10
-40.0388397876
 20
21.2568181748
 30
0.0
 10
-40.0477504728
 20
21.2426161866
 30
0.0
  0
SPLINE
  5
2CD
100
AcDbEntity
  8
ASSI
100
AcDbSpline
 62
7
  6
CONTINUOUS
 70
0
 71
3
 72
9
 73
5
 74
0
 42
0.0000001
 43
0.0000001
 44
0.0000000001
 40
0.0
 40
0.0
 40
0.0
 40
0.0
 40
0.2657648093
 40
1.0
 40
1.0
 40
1.0
 40
1.0
 10
-40.0477504728
 20
25.5599852786
 30
0.0
 10
-40.0450832894
 20
25.5526542838
 30
0.0
 10
-40.0360761752
 20
25.5247323053
 30
0.0
 10
-40.031185443
 20
25.4952878286
 30
0.0
 10
-40.031185443
 20
25.4737354978
 30
0.0
  0
SPLINE
  5
2CE
100
AcDbEntity
  8
ASSI
100
AcDbSpline
 62
250
  6
CONTINUOUS
 70
0
 71
3
 72
9
 73
5
 74
0
 42
0.0000001
 43
0.0000001
 44
0.0000000001
 40
0.0
 40
0.0
 40
0.0
 40
0.0
 40
0.2368255944
 40
1.0
 40
1.0
 40
1.0
 40
1.0
 10
-40.7770745534
 20
38.0428319729
 30
0.0
 10
-40.774051866
 20
38.0420538802
 30
0.0
 10
-40.7610760767
 20
38.0395912675
 30
0.0
 10
-40.7476039421
 20
38.0403933286
 30
0.0
 10
-40.7377285485
 20
38.0423023081
 30
0.0
  0
SPLINE
  5
2CF
100
AcDbEntity
  8
ASSI
100
AcDbSpline
 62
250
  6
CONTINUOUS
 70
0
 71
3
 72
9
 73
5
 74
0
 42
0.0000001
 43
0.0000001
 44
0.0000000001
 40
0.0
 40
0.0
 40
0.0
 40
0.0
 40
0.2344604407
 40
1.0
 40
1.0
 40
1.0
 40
1.0
 10
-40.7377285485
 20
38.0423023081
 30
0.0
 10
-40.7340807892
 20
38.0430074443
 30
0.0
 10
-40.718670591
 20
38.0467747375
 30
0.0
 10
-40.7039967365
 20
38.053247976
 30
0.0
 10
-40.6934000548
 20
38.0591528377
 30
0.0
  0
SPLINE
  5
2D0
100
AcDbEntity
  8
ASSI
100
AcDbSpline
 62
250
  6
CONTINUOUS
 70
0
 71
3
 72
15
 73
11
 74
0
 42
0.0000001
 43
0.0000001
 44
0.0000000001
 40
0.0
 40
0.0
 40
0.0
 40
0.0
 40
0.1448848765
 40
0.2744974269
 40
0.3910773022
 40
0.4999491969
 40
0.6088216023
 40
0.7254118864
 40
0.8550711237
 40
1.0
 40
1.0
 40
1.0
 40
1.0
 10
38.304771854
 20
-45.5848204807
 30
0.0
 10
38.3047705418
 20
-45.6253583616
 30
0.0
 10
38.2986478933
 20
-45.7024294176
 30
0.0
 10
38.2674303587
 20
-45.8082976683
 30
0.0
 10
38.2148524184
 20
-45.8942683959
 30
0.0
 10
38.1418667225
 20
-45.9556692386
 30
0.0
 10
38.0522007563
 20
-45.988187666
 30
0.0
 10
37.951442403
 20
-45.9907519413
 30
0.0
 10
37.8441204972
 20
-45.9648448092
 30
0.0
 10
37.7742906924
 20
-45.9316013299
 30
0.0
 10
37.7391725857
 20
-45.9113272913
 30
0.0
  0
SPLINE
  5
2D1
100
AcDbEntity
  8
ASSI
100
AcDbSpline
 62
7
  6
CONTINUOUS
 70
0
 71
3
 72
14
 73
10
 74
0
 42
0.0000001
 43
0.0000001
 44
0.0000000001
 40
0.0
 40
0.0
 40
0.0
 40
0.0
 40
0.0220966091
 40
0.0781532151
 40
0.1655778699
 40
0.2818956224
 40
0.42519572
 40
0.5936475143
 40
1.0
 40
1.0
 40
1.0
 40
1.0
 10
-40.0479059753
 20
29.6059788027
 30
0.0
 10
-40.0482915046
 20
29.6057269832
 30
0.0
 10
-40.0500318719
 20
29.6068401785
 30
0.0
 10
-40.0530233967
 20
29.607723262
 30
0.0
 10
-40.0580184173
 20
29.610275331
 30
0.0
 10
-40.0644847571
 20
29.6133325808
 30
0.0
 10
-40.072484903
 20
29.6173461016
 30
0.0
 10
-40.0858344515
 20
29.6240797037
 30
0.0
 10
-40.0964891602
 20
29.6295671087
 30
0.0
 10
-40.1040100607
 20
29.633459002
 30
0.0
  0
SPLINE
  5
2D2
100
AcDbEntity
  8
ASSI
100
AcDbSpline
 62
7
  6
CONTINUOUS
 70
0
 71
3
 72
14
 73
10
 74
0
 42
0.0000001
 43
0.0000001
 44
0.0000000001
 40
0.0
 40
0.0
 40
0.0
 40
0.0
 40
0.0220966091
 40
0.0781532151
 40
0.1655778699
 40
0.2818956224
 40
0.42519572
 40
0.5936475143
 40
1.0
 40
1.0
 40
1.0
 40
1.0
 10
-40.0479059753
 20
14.7462197651
 30
0.0
 10
-40.0482915046
 20
14.7459679456
 30
0.0
 10
-40.0500318719
 20
14.7470811408
 30
0.0
 10
-40.0530233967
 20
14.7479642244
 30
0.0
 10
-40.0580184173
 20
14.7505162933
 30
0.0
 10
-40.0644847571
 20
14.7535735431
 30
0.0
 10
-40.072484903
 20
14.757587064
 30
0.0
 10
-40.0858344515
 20
14.7643206661
 30
0.0
 10
-40.0964891602
 20
14.7698080711
 30
0.0
 10
-40.1040100607
 20
14.7736999644
 30
0.0
  0
SPLINE
  5
2D3
100
AcDbEntity
  8
ASSI
100
AcDbSpline
 62
250
  6
CONTINUOUS
 70
0
 71
3
 72
9
 73
5
 74
0
 42
0.0000001
 43
0.0000001
 44
0.0000000001
 40
0.0
 40
0.0
 40
0.0
 40
0.0
 40
0.450655735
 40
1.0
 40
1.0
 40
1.0
 40
1.0
 10
-16.5215712124
 20
-13.2006360444
 30
0.0
 10
-16.5081777512
 20
-13.1934363095
 30
0.0
 10
-16.4722477334
 20
-13.1887661804
 30
0.0
 10
-16.4402896034
 20
-13.2025790323
 30
0.0
 10
-16.4243779562
 20
-13.2120868449
 30
0.0
  0
SPLINE
  5
2D4
100
AcDbEntity
  8
ASSI
100
AcDbSpline
 62
250
  6
CONTINUOUS
 70
0
 71
3
 72
11
 73
7
 74
0
 42
0.0000001
 43
0.0000001
 44
0.0000000001
 40
0.0
 40
0.0
 40
0.0
 40
0.0
 40
0.2918678879
 40
0.5511230584
 40
0.782970108
 40
1.0
 40
1.0
 40
1.0
 40
1.0
 10
-55.1343833934
 20
65.9993493364
 30
0.0
 10
-55.2054478466
 20
66.038902721
 30
0.0
 10
-55.3463481124
 20
66.1027503479
 30
0.0
 10
-55.5620663735
 20
66.1478124412
 30
0.0
 10
-55.7620116669
 20
66.132710392
 30
0.0
 10
-55.8788367269
 20
66.0795962925
 30
0.0
 10
-55.9283094545
 20
66.0448134832
 30
0.0
  0
SPLINE
  5
2D5
100
AcDbEntity
  8
ASSI
100
AcDbSpline
 62
250
  6
CONTINUOUS
 70
0
 71
3
 72
9
 73
5
 74
0
 42
0.0000001
 43
0.0000001
 44
0.0000000001
 40
0.0
 40
0.0
 40
0.0
 40
0.0
 40
0.2395304465
 40
1.0
 40
1.0
 40
1.0
 40
1.0
 10
37.7391725857
 20
-1.6851356385
 30
0.0
 10
37.7513418511
 20
-1.692162545
 30
0.0
 10
37.8013193775
 20
-1.7229235234
 30
0.0
 10
37.8479976966
 20
-1.7589207806
 30
0.0
 10
37.8815291492
 20
-1.7883493305
 30
0.0
  0
SPLINE
  5
2D6
100
AcDbEntity
  8
ASSI
100
AcDbSpline
 62
250
  6
CONTINUOUS
 70
0
 71
3
 72
11
 73
7
 74
0
 42
0.0000001
 43
0.0000001
 44
0.0000000001
 40
0.0
 40
0.0
 40
0.0
 40
0.0
 40
0.2510992926
 40
0.5135657575
 40
0.7688416964
 40
1.0
 40
1.0
 40
1.0
 40
1.0
 10
37.8815291492
 20
-1.7883493305
 30
0.0
 10
37.9443009151
 20
-1.843440354
 30
0.0
 10
38.0596558778
 20
-1.9713868077
 30
0.0
 10
38.1927816539
 20
-2.1913561525
 30
0.0
 10
38.2806601372
 20
-2.4259351741
 30
0.0
 10
38.3047684759
 20
-2.5878965426
 30
0.0
 10
38.304771854
 20
-2.6647823069
 30
0.0
  0
SPLINE
  5
2D7
100
AcDbEntity
  8
ASSI
100
AcDbSpline
 62
250
  6
CONTINUOUS
 70
0
 71
3
 72
9
 73
5
 74
0
 42
0.0000001
 43
0.0000001
 44
0.0000000001
 40
0.0
 40
0.0
 40
0.0
 40
0.0
 40
0.2368255944
 40
1.0
 40
1.0
 40
1.0
 40
1.0
 10
-40.7770745534
 20
3.2611981815
 30
0.0
 10
-40.774051866
 20
3.2604200888
 30
0.0
 10
-40.7610760767
 20
3.2579574761
 30
0.0
 10
-40.7476039421
 20
3.2587595373
 30
0.0
 10
-40.7377285485
 20
3.2606685167
 30
0.0
  0
SPLINE
  5
2D8
100
AcDbEntity
  8
ASSI
100
AcDbSpline
 62
250
  6
CONTINUOUS
 70
0
 71
3
 72
9
 73
5
 74
0
 42
0.0000001
 43
0.0000001
 44
0.0000000001
 40
0.0
 40
0.0
 40
0.0
 40
0.0
 40
0.2344604407
 40
1.0
 40
1.0
 40
1.0
 40
1.0
 10
-40.7377285485
 20
3.2606685167
 30
0.0
 10
-40.7340807892
 20
3.2613736529
 30
0.0
 10
-40.718670591
 20
3.2651409461
 30
0.0
 10
-40.7039967365
 20
3.2716141846
 30
0.0
 10
-40.6934000548
 20
3.2775190463
 30
0.0
  0
SPLINE
  5
2D9
100
AcDbEntity
  8
ASSI
100
AcDbSpline
 62
250
  6
CONTINUOUS
 70
0
 71
3
 72
9
 73
5
 74
0
 42
0.0000001
 43
0.0000001
 44
0.0000000001
 40
0.0
 40
0.0
 40
0.0
 40
0.0
 40
0.4640200007
 40
1.0
 40
1.0
 40
1.0
 40
1.0
 10
-13.8026900577
 20
-14.6609918297
 30
0.0
 10
-13.8131347924
 20
-14.6549613656
 30
0.0
 10
-13.8396620933
 20
-14.6484949978
 30
0.0
 10
-13.8656784146
 20
-14.6544854268
 30
0.0
 10
-13.8787059968
 20
-14.6594204787
 30
0.0
  0
SPLINE
  5
2DA
100
AcDbEntity
  8
ASSI
100
AcDbSpline
 62
250
  6
CONTINUOUS
 70
0
 71
3
 72
9
 73
5
 74
0
 42
0.0000001
 43
0.0000001
 44
0.0000000001
 40
0.0
 40
0.0
 40
0.0
 40
0.0
 40
0.2425621617
 40
1.0
 40
1.0
 40
1.0
 40
1.0
 10
-13.8787059968
 20
-14.6594204787
 30
0.0
 10
-13.8805036329
 20
-14.6601014514
 30
0.0
 10
-13.8878580613
 20
-14.6630572828
 30
0.0
 10
-13.8949809076
 20
-14.6665795796
 30
0.0
 10
-13.9002244423
 20
-14.6695014488
 30
0.0
  0
SPLINE
  5
2DB
100
AcDbEntity
  8
ASSI
100
AcDbSpline
 62
250
  6
CONTINUOUS
 70
0
 71
3
 72
15
 73
11
 74
0
 42
0.0000001
 43
0.0000001
 44
0.0000000001
 40
0.0
 40
0.0
 40
0.0
 40
0.0
 40
0.1448848681
 40
0.2744974317
 40
0.3910772993
 40
0.4999491946
 40
0.6088216072
 40
0.7254118612
 40
0.8550711531
 40
1.0
 40
1.0
 40
1.0
 40
1.0
 10
-41.9996103718
 20
43.70196154
 30
0.0
 10
-41.9996086542
 20
43.7424994187
 30
0.0
 10
-41.9934865965
 20
43.8195704793
 30
0.0
 10
-41.9622688309
 20
43.925438723
 30
0.0
 10
-41.9096909475
 20
44.0114094569
 30
0.0
 10
-41.8367052347
 20
44.0728102984
 30
0.0
 10
-41.7470392853
 20
44.105328724
 30
0.0
 10
-41.6462808931
 20
44.1078930121
 30
0.0
 10
-41.5389591095
 20
44.081985725
 30
0.0
 10
-41.4691289179
 20
44.0487428793
 30
0.0
 10
-41.4340111035
 20
44.0284683506
 30
0.0
  0
SPLINE
  5
2DC
100
AcDbEntity
  8
ASSI
100
AcDbSpline
 62
250
  6
CONTINUOUS
 70
0
 71
3
 72
13
 73
9
 74
0
 42
0.0000001
 43
0.0000001
 44
0.0000000001
 40
0.0
 40
0.0
 40
0.0
 40
0.0
 40
0.1138275298
 40
0.2370242011
 40
0.4999711144
 40
0.7629265777
 40
0.8861469031
 40
1.0
 40
1.0
 40
1.0
 40
1.0
 10
53.1688511211
 20
2.2433920871
 30
0.0
 10
53.167519542
 20
2.326588308
 30
0.0
 10
53.1498099377
 20
2.4997516079
 30
0.0
 10
53.0631207278
 20
2.8556414529
 30
0.0
 10
52.8682783436
 20
3.2928555955
 30
0.0
 10
52.5870637168
 20
3.6802238252
 30
0.0
 10
52.3221788493
 20
3.9332845429
 30
0.0
 10
52.1810434482
 20
4.0352284817
 30
0.0
 10
52.1096445472
 20
4.0779916869
 30
0.0
  0
SPLINE
  5
2DD
100
AcDbEntity
  8
ASSI
100
AcDbSpline
 62
7
  6
CONTINUOUS
 70
0
 71
3
 72
14
 73
10
 74
0
 42
0.0000001
 43
0.0000001
 44
0.0000000001
 40
0.0
 40
0.0
 40
0.0
 40
0.0
 40
0.0182104722
 40
0.0707879633
 40
0.1556378227
 40
0.2707423798
 40
0.414181309
 40
0.5844008333
 40
1.0
 40
1.0
 40
1.0
 40
1.0
 10
-16.2961306306
 20
-13.2213154532
 30
0.0
 10
-16.2959639099
 20
-13.2213962908
 30
0.0
 10
-16.2963048691
 20
-13.2223638005
 30
0.0
 10
-16.2959217954
 20
-13.2237151354
 30
0.0
 10
-16.2960942993
 20
-13.2264118377
 30
0.0
 10
-16.2960568043
 20
-13.2298518294
 30
0.0
 10
-16.296232962
 20
-13.2342321032
 30
0.0
 10
-16.2964172342
 20
-13.2416397241
 30
0.0
 10
-16.2963232443
 20
-13.2476113152
 30
0.0
 10
-16.2960609973
 20
-13.2518317457
 30
0.0
  0
SPLINE
  5
2DE
100
AcDbEntity
  8
ASSI
100
AcDbSpline
 62
7
  6
CONTINUOUS
 70
0
 71
3
 72
9
 73
5
 74
0
 42
0.0000001
 43
0.0000001
 44
0.0000000001
 40
0.0
 40
0.0
 40
0.0
 40
0.0
 40
0.2197112624
 40
1.0
 40
1.0
 40
1.0
 40
1.0
 10
-16.2960609973
 20
-13.2518317457
 30
0.0
 10
-16.2958983761
 20
-13.2544488652
 30
0.0
 10
-16.2948375674
 20
-13.2663342663
 30
0.0
 10
-16.2936726687
 20
-13.2782423601
 30
0.0
 10
-16.2936720492
 20
-13.2875547976
 30
0.0
  0
SPLINE
  5
2DF
100
AcDbEntity
  8
ASSI
100
AcDbSpline
 62
250
  6
CONTINUOUS
 70
0
 71
3
 72
8
 73
4
 74
0
 42
0.0000001
 43
0.0000001
 44
0.0000000001
 40
0.0
 40
0.0
 40
0.0
 40
0.0
 40
1.0
 40
1.0
 40
1.0
 40
1.0
 10
-16.3268411567
 20
-13.2035786223
 30
0.0
 10
-16.3318517379
 20
-13.2006853892
 30
0.0
 10
-16.3372871197
 20
-13.198441469
 30
0.0
 10
-16.3428664798
 20
-13.1969093252
 30
0.0
  0
SPLINE
  5
2E0
100
AcDbEntity
  8
ASSI
100
AcDbSpline
 62
250
  6
CONTINUOUS
 70
0
 71
3
 72
9
 73
5
 74
0
 42
0.0000001
 43
0.0000001
 44
0.0000000001
 40
0.0
 40
0.0
 40
0.0
 40
0.0
 40
0.4571452733
 40
1.0
 40
1.0
 40
1.0
 40
1.0
 10
-16.3428664798
 20
-13.1969093252
 30
0.0
 10
-16.3552784381
 20
-13.1935008868
 30
0.0
 10
-16.38457253
 20
-13.193683096
 30
0.0
 10
-16.4110262464
 20
-13.204646835
 30
0.0
 10
-16.4243779562
 20
-13.2120868449
 30
0.0
  0
SPLINE
  5
2E1
100
AcDbEntity
  8
ASSI
100
AcDbSpline
 62
250
  6
CONTINUOUS
 70
0
 71
3
 72
11
 73
7
 74
0
 42
0.0000001
 43
0.0000001
 44
0.0000000001
 40
0.0
 40
0.0
 40
0.0
 40
0.0
 40
0.237198506
 40
0.4999563324
 40
0.7627321082
 40
1.0
 40
1.0
 40
1.0
 40
1.0
 10
-41.4340111035
 20
-0.1977233022
 30
0.0
 10
-41.5142932102
 20
-0.1513648849
 30
0.0
 10
-41.6662458961
 20
-0.0235011121
 30
0.0
 10
-41.8436046688
 20
0.2188439104
 30
0.0
 10
-41.9648360577
 20
0.4936288851
 30
0.0
 10
-41.9996049926
 20
0.6891906952
 30
0.0
 10
-41.9996103718
 20
0.7819233662
 30
0.0
  0
SPLINE
  5
2E2
100
AcDbEntity
  8
ASSI
100
AcDbSpline
 62
250
  6
CONTINUOUS
 70
0
 71
3
 72
11
 73
7
 74
0
 42
0.0000001
 43
0.0000001
 44
0.0000000001
 40
0.0
 40
0.0
 40
0.0
 40
0.0
 40
0.2371966921
 40
0.4999713388
 40
0.7627544149
 40
1.0
 40
1.0
 40
1.0
 40
1.0
 10
-56.1755709451
 20
-4.1366549854
 30
0.0
 10
-56.1755685745
 20
-4.2523997522
 30
0.0
 10
-56.1322504957
 20
-4.4965363933
 30
0.0
 10
-55.9809732602
 20
-4.8396367532
 30
0.0
 10
-55.7594748817
 20
-5.1422239158
 30
0.0
 10
-55.5696886315
 20
-5.3018315859
 30
0.0
 10
-55.4694332292
 20
-5.3597213852
 30
0.0
  0
SPLINE
  5
2E3
100
AcDbEntity
  8
ASSI
100
AcDbSpline
 62
7
  6
CONTINUOUS
 70
0
 71
3
 72
13
 73
9
 74
0
 42
0.0000001
 43
0.0000001
 44
0.0000000001
 40
0.0
 40
0.0
 40
0.0
 40
0.0
 40
0.0178430319
 40
0.0696243876
 40
0.1535657152
 40
0.267994253
 40
0.5818261638
 40
1.0
 40
1.0
 40
1.0
 40
1.0
 10
15.5236732504
 20
-31.5936732326
 30
0.0
 10
15.523795617
 20
-31.5937232819
 30
0.0
 10
15.5235408736
 20
-31.5944344491
 30
0.0
 10
15.5238311009
 20
-31.5953880656
 30
0.0
 10
15.5237189387
 20
-31.5973420548
 30
0.0
 10
15.5238058192
 20
-31.6010791305
 30
0.0
 10
15.5235442912
 20
-31.6073903034
 30
0.0
 10
15.5234336673
 20
-31.6127990555
 30
0.0
 10
15.5234536199
 20
-31.6158974141
 30
0.0
  0
SPLINE
  5
2E4
100
AcDbEntity
  8
ASSI
100
AcDbSpline
 62
7
  6
CONTINUOUS
 70
0
 71
3
 72
9
 73
5
 74
0
 42
0.0000001
 43
0.0000001
 44
0.0000000001
 40
0.0
 40
0.0
 40
0.0
 40
0.0
 40
0.206785155
 40
1.0
 40
1.0
 40
1.0
 40
1.0
 10
15.5234536199
 20
-31.6158974141
 30
0.0
 10
15.5234731944
 20
-31.6189370484
 30
0.0
 10
15.5240433948
 20
-31.6336309762
 30
0.0
 10
15.5261323285
 20
-31.6482514096
 30
0.0
 10
15.5261331042
 20
-31.6599114973
 30
0.0
  0
SPLINE
  5
2E5
100
AcDbEntity
  8
ASSI
100
AcDbSpline
 62
250
  6
CONTINUOUS
 70
0
 71
3
 72
9
 73
5
 74
0
 42
0.0000001
 43
0.0000001
 44
0.0000000001
 40
0.0
 40
0.0
 40
0.0
 40
0.0
 40
0.4676561286
 40
1.0
 40
1.0
 40
1.0
 40
1.0
 10
-40.7786686893
 20
3.2749968461
 30
0.0
 10
-40.7786687086
 20
3.2624523176
 30
0.0
 10
-40.7863489917
 20
3.2353637417
 30
0.0
 10
-40.8050779767
 20
3.2150982129
 30
0.0
 10
-40.8161599643
 20
3.2060926471
 30
0.0
  0
SPLINE
  5
2E6
100
AcDbEntity
  8
ASSI
100
AcDbSpline
 62
250
  6
CONTINUOUS
 70
0
 71
3
 72
9
 73
5
 74
0
 42
0.0000001
 43
0.0000001
 44
0.0000000001
 40
0.0
 40
0.0
 40
0.0
 40
0.0
 40
0.2432640668
 40
1.0
 40
1.0
 40
1.0
 40
1.0
 10
-40.8161599643
 20
3.2060926471
 30
0.0
 10
-40.8175901125
 20
3.2049304644
 30
0.0
 10
-40.8235616188
 20
3.200267404
 30
0.0
 10
-40.8298811719
 20
3.1960549595
 30
0.0
 10
-40.8347998719
 20
3.1931106752
 30
0.0
  0
SPLINE
  5
2E7
100
AcDbEntity
  8
ASSI
100
AcDbSpline
 62
250
  6
CONTINUOUS
 70
0
 71
3
 72
9
 73
5
 74
0
 42
0.0000001
 43
0.0000001
 44
0.0000000001
 40
0.0
 40
0.0
 40
0.0
 40
0.0
 40
0.4676561286
 40
1.0
 40
1.0
 40
1.0
 40
1.0
 10
-40.7786686893
 20
38.0566306374
 30
0.0
 10
-40.7786687086
 20
38.044086109
 30
0.0
 10
-40.7863489917
 20
38.0169975331
 30
0.0
 10
-40.8050779767
 20
37.9967320043
 30
0.0
 10
-40.8161599643
 20
37.9877264385
 30
0.0
  0
SPLINE
  5
2E8
100
AcDbEntity
  8
ASSI
100
AcDbSpline
 62
250
  6
CONTINUOUS
 70
0
 71
3
 72
9
 73
5
 74
0
 42
0.0000001
 43
0.0000001
 44
0.0000000001
 40
0.0
 40
0.0
 40
0.0
 40
0.0
 40
0.2432640668
 40
1.0
 40
1.0
 40
1.0
 40
1.0
 10
-40.8161599643
 20
37.9877264385
 30
0.0
 10
-40.8175901125
 20
37.9865642558
 30
0.0
 10
-40.8235616188
 20
37.9819011954
 30
0.0
 10
-40.8298811719
 20
37.9776887509
 30
0.0
 10
-40.8347998719
 20
37.9747444666
 30
0.0
  0
SPLINE
  5
2E9
100
AcDbEntity
  8
ASSI
100
AcDbSpline
 62
250
  6
CONTINUOUS
 70
0
 71
3
 72
15
 73
11
 74
0
 42
0.0000001
 43
0.0000001
 44
0.0000000001
 40
0.0
 40
0.0
 40
0.0
 40
0.0
 40
0.1449048776
 40
0.2745327326
 40
0.3911247888
 40
0.4999930176
 40
0.6088574152
 40
0.7254434237
 40
0.8550790472
 40
1.0
 40
1.0
 40
1.0
 40
1.0
 10
-55.4694332292
 20
65.3982200941
 30
0.0
 10
-55.5132794246
 20
65.4235351405
 30
0.0
 10
-55.6004525093
 20
65.4650585728
 30
0.0
 10
-55.7344351413
 20
65.497468089
 30
0.0
 10
-55.8602498567
 20
65.4943636739
 30
0.0
 10
-55.972242177
 20
65.4538021221
 30
0.0
 10
-56.0633815515
 20
65.377116631
 30
0.0
 10
-56.1289978741
 20
65.2697227109
 30
0.0
 10
-56.1679386879
 20
65.1374830573
 30
0.0
 10
-56.1755695864
 20
65.0412188875
 30
0.0
 10
-56.1755709451
 20
64.9905838286
 30
0.0
  0
SPLINE
  5
2EA
100
AcDbEntity
  8
ASSI
100
AcDbSpline
 62
250
  6
CONTINUOUS
 70
0
 71
3
 72
9
 73
5
 74
0
 42
0.0000001
 43
0.0000001
 44
0.0000000001
 40
0.0
 40
0.0
 40
0.0
 40
0.0
 40
0.4544792301
 40
1.0
 40
1.0
 40
1.0
 40
1.0
 10
56.3233392384
 20
-64.6235668701
 30
0.0
 10
56.3226694984
 20
-64.6375947789
 30
0.0
 10
56.3105333861
 20
-64.6680779411
 30
0.0
 10
56.2862424683
 20
-64.6885229119
 30
0.0
 10
56.2720522418
 20
-64.6976224478
 30
0.0
  0
SPLINE
  5
2EB
100
AcDbEntity
  8
ASSI
100
AcDbSpline
 62
250
  6
CONTINUOUS
 70
0
 71
3
 72
9
 73
5
 74
0
 42
0.0000001
 43
0.0000001
 44
0.0000000001
 40
0.0
 40
0.0
 40
0.0
 40
0.0
 40
0.4536497345
 40
1.0
 40
1.0
 40
1.0
 40
1.0
 10
56.3234155262
 20
4.776259165
 30
0.0
 10
56.3234191663
 20
4.761773881
 30
0.0
 10
56.3118665176
 20
4.7296753534
 30
0.0
 10
56.2867375228
 20
4.7084066319
 30
0.0
 10
56.2720522418
 20
4.6989896404
 30
0.0
  0
SPLINE
  5
2EC
100
AcDbEntity
  8
ASSI
100
AcDbSpline
 62
250
  6
CONTINUOUS
 70
0
 71
3
 72
9
 73
5
 74
0
 42
0.0000001
 43
0.0000001
 44
0.0000000001
 40
0.0
 40
0.0
 40
0.0
 40
0.0
 40
0.4536351044
 40
1.0
 40
1.0
 40
1.0
 40
1.0
 10
55.8803287704
 20
5.5437135144
 30
0.0
 10
55.8677863966
 20
5.55095952
 30
0.0
 10
55.8342106946
 20
5.5570028351
 30
0.0
 10
55.8032273789
 20
5.5458722797
 30
0.0
 10
55.787729237
 20
5.5378616912
 30
0.0
  0
SPLINE
  5
2ED
100
AcDbEntity
  8
ASSI
100
AcDbSpline
 62
250
  6
CONTINUOUS
 70
0
 71
3
 72
9
 73
5
 74
0
 42
0.0000001
 43
0.0000001
 44
0.0000000001
 40
0.0
 40
0.0
 40
0.0
 40
0.0
 40
0.4536351044
 40
1.0
 40
1.0
 40
1.0
 40
1.0
 10
-51.5969907844
 20
67.5997708182
 30
0.0
 10
-51.6095331583
 20
67.6070168238
 30
0.0
 10
-51.6431088603
 20
67.6130601389
 30
0.0
 10
-51.674092176
 20
67.6019295835
 30
0.0
 10
-51.6895903179
 20
67.593918995
 30
0.0
  0
SPLINE
  5
2EE
100
AcDbEntity
  8
ASSI
100
AcDbSpline
 62
250
  6
CONTINUOUS
 70
0
 71
3
 72
9
 73
5
 74
0
 42
0.0000001
 43
0.0000001
 44
0.0000000001
 40
0.0
 40
0.0
 40
0.0
 40
0.0
 40
0.746918693
 40
1.0
 40
1.0
 40
1.0
 40
1.0
 10
38.1966103409
 20
-45.5714787439
 30
0.0
 10
38.1859250763
 20
-45.5777003571
 30
0.0
 10
38.1706061067
 20
-45.5844447376
 30
0.0
 10
38.1546484003
 20
-45.588864952
 30
0.0
 10
38.1505742593
 20
-45.5898415075
 30
0.0
  0
SPLINE
  5
2EF
100
AcDbEntity
  8
ASSI
100
AcDbSpline
 62
250
  6
CONTINUOUS
 70
0
 71
3
 72
9
 73
5
 74
0
 42
0.0000001
 43
0.0000001
 44
0.0000000001
 40
0.0
 40
0.0
 40
0.0
 40
0.0
 40
0.4570615689
 40
1.0
 40
1.0
 40
1.0
 40
1.0
 10
38.1505742593
 20
-45.5898415075
 30
0.0
 10
38.1192479753
 20
-45.597350294
 30
0.0
 10
38.0460249563
 20
-45.5946254437
 30
0.0
 10
37.9805638835
 20
-45.5655171165
 30
0.0
 10
37.9476025427
 20
-45.5460786635
 30
0.0
  0
SPLINE
  5
2F0
100
AcDbEntity
  8
ASSI
100
AcDbSpline
 62
250
  6
CONTINUOUS
 70
0
 71
3
 72
11
 73
7
 74
0
 42
0.0000001
 43
0.0000001
 44
0.0000000001
 40
0.0
 40
0.0
 40
0.0
 40
0.0
 40
0.2371966921
 40
0.4999713388
 40
0.7627544149
 40
1.0
 40
1.0
 40
1.0
 40
1.0
 10
52.4807324273
 20
2.2537960447
 30
0.0
 10
52.4807300568
 20
2.3695408115
 30
0.0
 10
52.4374119779
 20
2.6136774526
 30
0.0
 10
52.2861347424
 20
2.9567778125
 30
0.0
 10
52.064636364
 20
3.2593649751
 30
0.0
 10
51.8748501138
 20
3.4189726452
 30
0.0
 10
51.7745947114
 20
3.4768624445
 30
0.0
  0
SPLINE
  5
2F1
100
AcDbEntity
  8
ASSI
100
AcDbSpline
 62
250
  6
CONTINUOUS
 70
0
 71
3
 72
11
 73
7
 74
0
 42
0.0000001
 43
0.0000001
 44
0.0000000001
 40
0.0
 40
0.0
 40
0.0
 40
0.0
 40
0.2170178022
 40
0.4488502779
 40
0.7081104894
 40
1.0
 40
1.0
 40
1.0
 40
1.0
 10
52.8112973219
 20
-67.5940436092
 30
0.0
 10
52.8661456302
 20
-67.5685943045
 30
0.0
 10
52.9705327714
 20
-67.4939885191
 30
0.0
 10
53.0835714984
 20
-67.3284153717
 30
0.0
 10
53.1524116028
 20
-67.1190957915
 30
0.0
 10
53.1675705695
 20
-66.9651620917
 30
0.0
 10
53.1688511211
 20
-66.8838467269
 30
0.0
  0
SPLINE
  5
2F2
100
AcDbEntity
  8
ASSI
100
AcDbSpline
 62
250
  6
CONTINUOUS
 70
0
 71
3
 72
15
 73
11
 74
0
 42
0.0000001
 43
0.0000001
 44
0.0000000001
 40
0.0
 40
0.0
 40
0.0
 40
0.0
 40
0.1449048776
 40
0.2745327326
 40
0.3911247888
 40
0.4999930176
 40
0.6088574152
 40
0.7254434237
 40
0.8550790472
 40
1.0
 40
1.0
 40
1.0
 40
1.0
 10
51.7745947114
 20
-67.2810790348
 30
0.0
 10
51.8184409068
 20
-67.3063940812
 30
0.0
 10
51.9056139916
 20
-67.3479175135
 30
0.0
 10
52.0395966235
 20
-67.3803270297
 30
0.0
 10
52.1654113389
 20
-67.3772226147
 30
0.0
 10
52.2774036593
 20
-67.3366610629
 30
0.0
 10
52.3685430337
 20
-67.2599755718
 30
0.0
 10
52.4341593564
 20
-67.1525816516
 30
0.0
 10
52.4731001701
 20
-67.020341998
 30
0.0
 10
52.4807310687
 20
-66.9240778283
 30
0.0
 10
52.4807324273
 20
-66.8734427693
 30
0.0
  0
SPLINE
  5
2F3
100
AcDbEntity
  8
ASSI
100
AcDbSpline
 62
250
  6
CONTINUOUS
 70
0
 71
3
 72
11
 73
7
 74
0
 42
0.0000001
 43
0.0000001
 44
0.0000000001
 40
0.0
 40
0.0
 40
0.0
 40
0.0
 40
0.2178110198
 40
0.4519571044
 40
0.7115312406
 40
1.0
 40
1.0
 40
1.0
 40
1.0
 10
-52.0191486418
 20
67.634769032
 30
0.0
 10
-51.9967065766
 20
67.6458763331
 30
0.0
 10
-51.945970968
 20
67.6611489391
 30
0.0
 10
-51.8632131391
 20
67.6605248618
 30
0.0
 10
-51.7754444138
 20
67.637936003
 30
0.0
 10
-51.718310205
 20
67.6105014978
 30
0.0
 10
-51.6895903179
 20
67.593918995
 30
0.0
  0
SPLINE
  5
2F4
100
AcDbEntity
  8
ASSI
100
AcDbSpline
 62
250
  6
CONTINUOUS
 70
0
 71
3
 72
9
 73
5
 74
0
 42
0.0000001
 43
0.0000001
 44
0.0000000001
 40
0.0
 40
0.0
 40
0.0
 40
0.0
 40
0.2467482086
 40
1.0
 40
1.0
 40
1.0
 40
1.0
 10
-40.5256281259
 20
0.7083165063
 30
0.0
 10
-40.5255443484
 20
0.7135102528
 30
0.0
 10
-40.5249811103
 20
0.7345557467
 30
0.0
 10
-40.5237132265
 20
0.7555747925
 30
0.0
 10
-40.5226441972
 20
0.7713958031
 30
0.0
  0
SPLINE
  5
2F5
100
AcDbEntity
  8
ASSI
100
AcDbSpline
 62
250
  6
CONTINUOUS
 70
0
 71
3
 72
18
 73
14
 74
0
 42
0.0000001
 43
0.0000001
 44
0.0000000001
 40
0.0
 40
0.0
 40
0.0
 40
0.0
 40
0.144555569
 40
0.2858724829
 40
0.4225910365
 40
0.5542380028
 40
0.6792536509
 40
0.7378696352
 40
0.7927049518
 40
0.8433441033
 40
0.8916628289
 40
0.9424444873
 40
1.0
 40
1.0
 40
1.0
 40
1.0
 10
-40.5226441972
 20
0.7713958031
 30
0.0
 10
-40.5205120913
 20
0.8029497268
 30
0.0
 10
-40.5158861826
 20
0.8653274628
 30
0.0
 10
-40.5130803614
 20
0.9577810731
 30
0.0
 10
-40.5155149907
 20
1.0474410481
 30
0.0
 10
-40.5231399716
 20
1.133193052
 30
0.0
 10
-40.5344868755
 20
1.2014276209
 30
0.0
 10
-40.5496009955
 20
1.2514653488
 30
0.0
 10
-40.5647633291
 20
1.2842040297
 30
0.0
 10
-40.5858783237
 20
1.3110324358
 30
0.0
 10
-40.6147923594
 20
1.3283512541
 30
0.0
 10
-40.6497811779
 20
1.3320989817
 30
0.0
 10
-40.6731728459
 20
1.3264443152
 30
0.0
 10
-40.6850246927
 20
1.322190829
 30
0.0
  0
SPLINE
  5
2F6
100
AcDbEntity
  8
ASSI
100
AcDbSpline
 62
250
  6
CONTINUOUS
 70
0
 71
3
 72
9
 73
5
 74
0
 42
0.0000001
 43
0.0000001
 44
0.0000000001
 40
0.0
 40
0.0
 40
0.0
 40
0.0
 40
0.2771694342
 40
1.0
 40
1.0
 40
1.0
 40
1.0
 10
-40.6934000548
 20
38.0591528377
 30
0.0
 10
-40.682227438
 20
38.0522432698
 30
0.0
 10
-40.6433723853
 20
38.0253204598
 30
0.0
 10
-40.6100396373
 20
37.988454706
 30
0.0
 10
-40.5955369083
 20
37.957416957
 30
0.0
  0
SPLINE
  5
2F7
100
AcDbEntity
  8
ASSI
100
AcDbSpline
 62
250
  6
CONTINUOUS
 70
0
 71
3
 72
9
 73
5
 74
0
 42
0.0000001
 43
0.0000001
 44
0.0000000001
 40
0.0
 40
0.0
 40
0.0
 40
0.0
 40
0.2771694342
 40
1.0
 40
1.0
 40
1.0
 40
1.0
 10
-40.6934000548
 20
3.2775190463
 30
0.0
 10
-40.682227438
 20
3.2706094784
 30
0.0
 10
-40.6433723853
 20
3.2436866684
 30
0.0
 10
-40.6100396373
 20
3.2068209146
 30
0.0
 10
-40.5955369083
 20
3.1757831657
 30
0.0
  0
SPLINE
  5
2F8
100
AcDbEntity
  8
ASSI
100
AcDbSpline
 62
250
  6
CONTINUOUS
 70
0
 71
3
 72
11
 73
7
 74
0
 42
0.0000001
 43
0.0000001
 44
0.0000000001
 40
0.0
 40
0.0
 40
0.0
 40
0.0
 40
0.2884633341
 40
0.5480355138
 40
0.7821837202
 40
1.0
 40
1.0
 40
1.0
 40
1.0
 10
56.2720522418
 20
-64.6976224478
 30
0.0
 10
56.2720522418
 20
-64.7307800578
 30
0.0
 10
56.2672432893
 20
-64.7939661331
 30
0.0
 10
56.2429238878
 20
-64.8812558132
 30
0.0
 10
56.202091523
 20
-64.9532273749
 30
0.0
 10
56.1635040338
 20
-64.9895254448
 30
0.0
 10
56.1426673137
 20
-65.0034065229
 30
0.0
  0
SPLINE
  5
2F9
100
AcDbEntity
  8
ASSI
100
AcDbSpline
 62
250
  6
CONTINUOUS
 70
0
 71
3
 72
9
 73
5
 74
0
 42
0.0000001
 43
0.0000001
 44
0.0000000001
 40
0.0
 40
0.0
 40
0.0
 40
0.0
 40
0.2404558908
 40
1.0
 40
1.0
 40
1.0
 40
1.0
 10
55.787729237
 20
5.5378616912
 30
0.0
 10
55.7968995549
 20
5.5325668645
 30
0.0
 10
55.8344879696
 20
5.509601529
 30
0.0
 10
55.8698990177
 20
5.4831402483
 30
0.0
 10
55.8955009651
 20
5.4616146555
 30
0.0
  0
SPLINE
  5
2FA
100
AcDbEntity
  8
ASSI
100
AcDbSpline
 62
250
  6
CONTINUOUS
 70
0
 71
3
 72
11
 73
7
 74
0
 42
0.0000001
 43
0.0000001
 44
0.0000000001
 40
0.0
 40
0.0
 40
0.0
 40
0.0
 40
0.2496980977
 40
0.51228382
 40
0.7683237643
 40
1.0
 40
1.0
 40
1.0
 40
1.0
 10
55.8955009651
 20
5.4616146555
 30
0.0
 10
55.9511140234
 20
5.4148563357
 30
0.0
 10
56.0535592968
 20
5.3046995081
 30
0.0
 10
56.1719690097
 20
5.1135740579
 30
0.0
 10
56.2504124534
 20
4.9084625931
 30
0.0
 10
56.2720522418
 20
4.766403372
 30
0.0
 10
56.2720522418
 20
4.6989896404
 30
0.0
  0
SPLINE
  5
2FB
100
AcDbEntity
  8
ASSI
100
AcDbSpline
 62
7
  6
CONTINUOUS
 70
0
 71
3
 72
11
 73
7
 74
0
 42
0.0000001
 43
0.0000001
 44
0.0000000001
 40
0.0
 40
0.0
 40
0.0
 40
0.0
 40
0.2543172589
 40
0.5073668544
 40
0.7563480234
 40
1.0
 40
1.0
 40
1.0
 40
1.0
 10
-14.0309303494
 20
-14.5940334962
 30
0.0
 10
-14.0135185157
 20
-14.5941216017
 30
0.0
 10
-13.9788132164
 20
-14.5973031838
 30
0.0
 10
-13.9278048082
 20
-14.6064576051
 30
0.0
 10
-13.8786094508
 20
-14.6206109286
 30
0.0
 10
-13.8478553884
 20
-14.6349182853
 30
0.0
 10
-13.833408989
 20
-14.6432600845
 30
0.0
  0
SPLINE
  5
2FC
100
AcDbEntity
  8
ASSI
100
AcDbSpline
 62
250
  6
CONTINUOUS
 70
0
 71
3
 72
9
 73
5
 74
0
 42
0.0000001
 43
0.0000001
 44
0.0000000001
 40
0.0
 40
0.0
 40
0.0
 40
0.0
 40
0.5493010316
 40
1.0
 40
1.0
 40
1.0
 40
1.0
 10
15.384711748
 20
-31.5782565786
 30
0.0
 10
15.4009074484
 20
-31.5692318041
 30
0.0
 10
15.4332786518
 20
-31.5563893004
 30
0.0
 10
15.4690634197
 20
-31.5621397224
 30
0.0
 10
15.4822392078
 20
-31.5697432501
 30
0.0
  0
SPLINE
  5
2FD
100
AcDbEntity
  8
ASSI
100
AcDbSpline
 62
250
  6
CONTINUOUS
 70
0
 71
3
 72
9
 73
5
 74
0
 42
0.0000001
 43
0.0000001
 44
0.0000000001
 40
0.0
 40
0.0
 40
0.0
 40
0.0
 40
0.546388614
 40
1.0
 40
1.0
 40
1.0
 40
1.0
 10
17.9302961603
 20
-33.0480451146
 30
0.0
 10
17.9450090635
 20
-33.0398466032
 30
0.0
 10
17.9742316484
 20
-33.0280095573
 30
0.0
 10
18.00667098
 20
-33.0302422997
 30
0.0
 10
18.0196199886
 20
-33.0355193884
 30
0.0
  0
SPLINE
  5
2FE
100
AcDbEntity
  8
ASSI
100
AcDbSpline
 62
7
  6
CONTINUOUS
 70
0
 71
3
 72
10
 73
6
 74
0
 42
0.0000001
 43
0.0000001
 44
0.0000000001
 40
0.0
 40
0.0
 40
0.0
 40
0.0
 40
0.2545786794
 40
0.5081415102
 40
1.0
 40
1.0
 40
1.0
 40
1.0
 10
17.788874804
 20
-32.966390196
 30
0.0
 10
17.8062812698
 20
-32.9664782743
 30
0.0
 10
17.8410390564
 20
-32.9693950324
 30
0.0
 10
17.9082120099
 20
-32.9818154156
 30
0.0
 10
17.9572935328
 20
-32.998743522
 30
0.0
 10
17.9863966307
 20
-33.0155965728
 30
0.0
  0
SPLINE
  5
2FF
100
AcDbEntity
  8
ASSI
100
AcDbSpline
 62
7
  6
CONTINUOUS
 70
0
 71
3
 72
8
 73
4
 74
0
 42
0.0000001
 43
0.0000001
 44
0.0000000001
 40
0.0
 40
0.0
 40
0.0
 40
0.0
 40
1.0
 40
1.0
 40
1.0
 40
1.0
 10
-40.8347998719
 20
42.4796568685
 30
0.0
 10
-40.8142787669
 20
42.5159985296
 30
0.0
 10
-40.793693681
 20
42.5523362601
 30
0.0
 10
-40.7715373976
 20
42.5877047657
 30
0.0
  0
SPLINE
  5
300
100
AcDbEntity
  8
ASSI
100
AcDbSpline
 62
250
  6
CONTINUOUS
 70
0
 71
3
 72
11
 73
7
 74
0
 42
0.0000001
 43
0.0000001
 44
0.0000000001
 40
0.0
 40
0.0
 40
0.0
 40
0.0
 40
0.2897152657
 40
0.5490728626
 40
0.7822091329
 40
1.0
 40
1.0
 40
1.0
 40
1.0
 10
-56.1755709451
 20
-4.1366549854
 30
0.0
 10
-56.1975120127
 20
-4.1239864899
 30
0.0
 10
-56.2373175156
 20
-4.0965715826
 30
0.0
 10
-56.284886958
 20
-4.0465702641
 30
0.0
 10
-56.314976882
 20
-3.9912615158
 30
0.0
 10
-56.3220205843
 20
-3.9515636392
 30
0.0
 10
-56.3220166877
 20
-3.9325177007
 30
0.0
  0
SPLINE
  5
301
100
AcDbEntity
  8
ASSI
100
AcDbSpline
 62
250
  6
CONTINUOUS
 70
0
 71
3
 72
11
 73
7
 74
0
 42
0.0000001
 43
0.0000001
 44
0.0000000001
 40
0.0
 40
0.0
 40
0.0
 40
0.0
 40
0.2897208435
 40
0.5490797446
 40
0.7822136639
 40
1.0
 40
1.0
 40
1.0
 40
1.0
 10
-55.4694332292
 20
-5.3597213852
 30
0.0
 10
-55.4694332292
 20
-5.3850542074
 30
0.0
 10
-55.4655960605
 20
-5.4332284034
 30
0.0
 10
-55.4460836509
 20
-5.4994175952
 30
0.0
 10
-55.413236856
 20
-5.5531243367
 30
0.0
 10
-55.382384854
 20
-5.5790704977
 30
0.0
 10
-55.3658914868
 20
-5.5885890678
 30
0.0
  0
SPLINE
  5
302
100
AcDbEntity
  8
ASSI
100
AcDbSpline
 62
250
  6
CONTINUOUS
 70
0
 71
3
 72
11
 73
7
 74
0
 42
0.0000001
 43
0.0000001
 44
0.0000000001
 40
0.0
 40
0.0
 40
0.0
 40
0.0
 40
0.2897205537
 40
0.549079535
 40
0.7822136915
 40
1.0
 40
1.0
 40
1.0
 40
1.0
 10
51.7745947114
 20
-67.2810790348
 30
0.0
 10
51.774594713
 20
-67.3064115923
 30
0.0
 10
51.7784318075
 20
-67.35458531
 30
0.0
 10
51.797943795
 20
-67.4207739302
 30
0.0
 10
51.8307898578
 20
-67.474480417
 30
0.0
 10
51.8616412198
 20
-67.5004267371
 30
0.0
 10
51.8781342851
 20
-67.5099454656
 30
0.0
  0
SPLINE
  5
303
100
AcDbEntity
  8
ASSI
100
AcDbSpline
 62
250
  6
CONTINUOUS
 70
0
 71
3
 72
11
 73
7
 74
0
 42
0.0000001
 43
0.0000001
 44
0.0000000001
 40
0.0
 40
0.0
 40
0.0
 40
0.0
 40
0.2357336794
 40
0.496792835
 40
0.7595869266
 40
1.0
 40
1.0
 40
1.0
 40
1.0
 10
52.4807324273
 20
-66.8734427693
 30
0.0
 10
52.5291495636
 20
-66.901398217
 30
0.0
 10
52.6413984
 20
-66.9428013057
 30
0.0
 10
52.8215136571
 20
-66.9644582432
 30
0.0
 10
53.0032970551
 20
-66.9480139237
 30
0.0
 10
53.1182613588
 20
-66.9101474342
 30
0.0
 10
53.1688511211
 20
-66.8838467269
 30
0.0
  0
SPLINE
  5
304
100
AcDbEntity
  8
ASSI
100
AcDbSpline
 62
250
  6
CONTINUOUS
 70
0
 71
3
 72
11
 73
7
 74
0
 42
0.0000001
 43
0.0000001
 44
0.0000000001
 40
0.0
 40
0.0
 40
0.0
 40
0.0
 40
0.2357336694
 40
0.496792825
 40
0.7595869217
 40
1.0
 40
1.0
 40
1.0
 40
1.0
 10
52.4807324273
 20
2.2537960447
 30
0.0
 10
52.5291495629
 20
2.2258406016
 30
0.0
 10
52.6413983973
 20
2.1844375193
 30
0.0
 10
52.8215136513
 20
2.1627805838
 30
0.0
 10
53.00329705
 20
2.1792248989
 30
0.0
 10
53.1182613566
 20
2.2170913827
 30
0.0
 10
53.1688511211
 20
2.2433920871
 30
0.0
  0
SPLINE
  5
305
100
AcDbEntity
  8
ASSI
100
AcDbSpline
 62
250
  6
CONTINUOUS
 70
0
 71
3
 72
11
 73
7
 74
0
 42
0.0000001
 43
0.0000001
 44
0.0000000001
 40
0.0
 40
0.0
 40
0.0
 40
0.0
 40
0.2357278169
 40
0.4967865576
 40
0.7595836173
 40
1.0
 40
1.0
 40
1.0
 40
1.0
 10
51.7745947114
 20
3.4768624445
 30
0.0
 10
51.7745947114
 20
3.5327688626
 30
0.0
 10
51.7948659688
 20
3.6506777615
 30
0.0
 10
51.8661692987
 20
3.8174876115
 30
0.0
 10
51.9713009211
 20
3.9666952345
 30
0.0
 10
52.0615738318
 20
4.0473273387
 30
0.0
 10
52.1096445472
 20
4.0779916869
 30
0.0
  0
SPLINE
  5
306
100
AcDbEntity
  8
ASSI
100
AcDbSpline
 62
250
  6
CONTINUOUS
 70
0
 71
3
 72
11
 73
7
 74
0
 42
0.0000001
 43
0.0000001
 44
0.0000000001
 40
0.0
 40
0.0
 40
0.0
 40
0.0
 40
0.2357278114
 40
0.4967865483
 40
0.7595836089
 40
1.0
 40
1.0
 40
1.0
 40
1.0
 10
-55.4694332292
 20
65.3982200941
 30
0.0
 10
-55.4694332328
 20
65.4541265113
 30
0.0
 10
-55.4491619819
 20
65.5720354106
 30
0.0
 10
-55.377858656
 20
65.7388452625
 30
0.0
 10
-55.27272703
 20
65.8880528872
 30
0.0
 10
-55.1824541128
 20
65.9686849899
 30
0.0
 10
-55.1343833934
 20
65.9993493364
 30
0.0
  0
SPLINE
  5
307
100
AcDbEntity
  8
ASSI
100
AcDbSpline
 62
250
  6
CONTINUOUS
 70
0
 71
3
 72
11
 73
7
 74
0
 42
0.0000001
 43
0.0000001
 44
0.0000000001
 40
0.0
 40
0.0
 40
0.0
 40
0.0
 40
0.2897148144
 40
0.5490725488
 40
0.7822091827
 40
1.0
 40
1.0
 40
1.0
 40
1.0
 10
-56.1755709451
 20
64.9905838286
 30
0.0
 10
-56.1975116533
 20
65.0032521185
 30
0.0
 10
-56.2373165673
 20
65.0306665517
 30
0.0
 10
-56.2848855675
 20
65.0806668498
 30
0.0
 10
-56.3149757179
 20
65.1359744076
 30
0.0
 10
-56.3220201342
 20
65.1756715402
 30
0.0
 10
-56.3220166887
 20
65.1947171929
 30
0.0
  0
SPLINE
  5
308
100
AcDbEntity
  8
ASSI
100
AcDbSpline
 62
250
  6
CONTINUOUS
 70
0
 71
3
 72
11
 73
7
 74
0
 42
0.0000001
 43
0.0000001
 44
0.0000000001
 40
0.0
 40
0.0
 40
0.0
 40
0.0
 40
0.2374943594
 40
0.499956289
 40
0.7624360641
 40
1.0
 40
1.0
 40
1.0
 40
1.0
 10
-41.2255811794
 20
0.167525301
 30
0.0
 10
-41.2761582076
 20
0.1961153944
 30
0.0
 10
-41.3719048217
 20
0.2754802127
 30
0.0
 10
-41.4832728733
 20
0.4269006762
 30
0.0
 10
-41.5587442861
 20
0.5990679588
 30
0.0
 10
-41.579610492
 20
0.7216914408
 30
0.0
 10
-41.5790806843
 20
0.7798044906
 30
0.0
  0
SPLINE
  5
309
100
AcDbEntity
  8
ASSI
100
AcDbSpline
 62
7
  6
CONTINUOUS
 70
0
 71
3
 72
11
 73
7
 74
0
 42
0.0000001
 43
0.0000001
 44
0.0000000001
 40
0.0
 40
0.0
 40
0.0
 40
0.0
 40
0.2936371203
 40
0.5422468895
 40
0.7726223451
 40
1.0
 40
1.0
 40
1.0
 40
1.0
 10
-40.5955369012
 20
37.9574169426
 30
0.0
 10
-40.6168659185
 20
37.9446572603
 30
0.0
 10
-40.6603663325
 20
37.9266000753
 30
0.0
 10
-40.7272655368
 20
37.9260912408
 30
0.0
 10
-40.7844496801
 20
37.9459095216
 30
0.0
 10
-40.8181165873
 20
37.9651489955
 30
0.0
 10
-40.8347998719
 20
37.9747444666
 30
0.0
  0
SPLINE
  5
30A
100
AcDbEntity
  8
ASSI
100
AcDbSpline
 62
7
  6
CONTINUOUS
 70
0
 71
3
 72
8
 73
4
 74
0
 42
0.0000001
 43
0.0000001
 44
0.0000000001
 40
0.0
 40
0.0
 40
0.0
 40
0.0
 40
1.0
 40
1.0
 40
1.0
 40
1.0
 10
-40.8347998719
 20
7.6980230771
 30
0.0
 10
-40.8142787669
 20
7.7343647382
 30
0.0
 10
-40.793693681
 20
7.7707024687
 30
0.0
 10
-40.7715373976
 20
7.8060709743
 30
0.0
  0
SPLINE
  5
30B
100
AcDbEntity
  8
ASSI
100
AcDbSpline
 62
7
  6
CONTINUOUS
 70
0
 71
3
 72
11
 73
7
 74
0
 42
0.0000001
 43
0.0000001
 44
0.0000000001
 40
0.0
 40
0.0
 40
0.0
 40
0.0
 40
0.2936371203
 40
0.5422468895
 40
0.7726223451
 40
1.0
 40
1.0
 40
1.0
 40
1.0
 10
-40.5955369012
 20
3.1757831512
 30
0.0
 10
-40.6168659185
 20
3.163023469
 30
0.0
 10
-40.6603663325
 20
3.1449662839
 30
0.0
 10
-40.7272655368
 20
3.1444574495
 30
0.0
 10
-40.7844496801
 20
3.1642757302
 30
0.0
 10
-40.8181165873
 20
3.1835152042
 30
0.0
 10
-40.8347998719
 20
3.1931106752
 30
0.0
  0
SPLINE
  5
30C
100
AcDbEntity
  8
ASSI
100
AcDbSpline
 62
250
  6
CONTINUOUS
 70
0
 71
3
 72
11
 73
7
 74
0
 42
0.0000001
 43
0.0000001
 44
0.0000000001
 40
0.0
 40
0.0
 40
0.0
 40
0.0
 40
0.2894453288
 40
0.5484214105
 40
0.7816508081
 40
1.0
 40
1.0
 40
1.0
 40
1.0
 10
-41.5790807221
 20
43.6998426384
 30
0.0
 10
-41.5793121885
 20
43.724937056
 30
0.0
 10
-41.5759463585
 20
43.7726861243
 30
0.0
 10
-41.5570801506
 20
43.8384132448
 30
0.0
 10
-41.5248164192
 20
43.8918940927
 30
0.0
 10
-41.4943002497
 20
43.9178002118
 30
0.0
 10
-41.4779604816
 20
43.9273608827
 30
0.0
  0
SPLINE
  5
30D
100
AcDbEntity
  8
ASSI
100
AcDbSpline
 62
250
  6
CONTINUOUS
 70
0
 71
3
 72
11
 73
7
 74
0
 42
0.0000001
 43
0.0000001
 44
0.0000000001
 40
0.0
 40
0.0
 40
0.0
 40
0.0
 40
0.2897077305
 40
0.5490830818
 40
0.7822138255
 40
1.0
 40
1.0
 40
1.0
 40
1.0
 10
37.7391725857
 20
-1.6851356385
 30
0.0
 10
37.7391725857
 20
-1.7003346441
 30
0.0
 10
37.7414759152
 20
-1.7292392126
 30
0.0
 10
37.753181978
 20
-1.7689529611
 30
0.0
 10
37.7728902353
 20
-1.801178236
 30
0.0
 10
37.7914020546
 20
-1.8167443538
 30
0.0
 10
37.8012974065
 20
-1.8224566373
 30
0.0
  0
SPLINE
  5
30E
100
AcDbEntity
  8
ASSI
100
AcDbSpline
 62
250
  6
CONTINUOUS
 70
0
 71
3
 72
11
 73
7
 74
0
 42
0.0000001
 43
0.0000001
 44
0.0000000001
 40
0.0
 40
0.0
 40
0.0
 40
0.0
 40
0.2897021572
 40
0.5490762044
 40
0.782209297
 40
1.0
 40
1.0
 40
1.0
 40
1.0
 10
38.304771854
 20
-2.6647823069
 30
0.0
 10
38.291607809
 20
-2.6571815523
 30
0.0
 10
38.2677249774
 20
-2.6407316901
 30
0.0
 10
38.2391824178
 20
-2.6107319777
 30
0.0
 10
38.2211274913
 20
-2.577545956
 30
0.0
 10
38.2169029405
 20
-2.5537274842
 30
0.0
 10
38.216903958
 20
-2.5422999289
 30
0.0
  0
SPLINE
  5
30F
100
AcDbEntity
  8
ASSI
100
AcDbSpline
 62
250
  6
CONTINUOUS
 70
0
 71
3
 72
11
 73
7
 74
0
 42
0.0000001
 43
0.0000001
 44
0.0000000001
 40
0.0
 40
0.0
 40
0.0
 40
0.0
 40
0.2896966847
 40
0.5490723032
 40
0.7822098028
 40
1.0
 40
1.0
 40
1.0
 40
1.0
 10
38.304771854
 20
-45.5848204807
 30
0.0
 10
38.2916104024
 20
-45.5772212235
 30
0.0
 10
38.26773182
 20
-45.5607748104
 30
0.0
 10
38.2391924555
 20
-45.5307824844
 30
0.0
 10
38.2211358837
 20
-45.4976050671
 30
0.0
 10
38.2169062003
 20
-45.4737919626
 30
0.0
 10
38.2169039594
 20
-45.4623664696
 30
0.0
  0
SPLINE
  5
310
100
AcDbEntity
  8
ASSI
100
AcDbSpline
 62
250
  6
CONTINUOUS
 70
0
 71
3
 72
11
 73
7
 74
0
 42
0.0000001
 43
0.0000001
 44
0.0000000001
 40
0.0
 40
0.0
 40
0.0
 40
0.0
 40
0.2367170626
 40
0.4989022536
 40
0.7616836483
 40
1.0
 40
1.0
 40
1.0
 40
1.0
 10
37.7391725857
 20
-45.9113272913
 30
0.0
 10
37.7391725857
 20
-45.8769633096
 30
0.0
 10
37.7519195031
 20
-45.804488833
 30
0.0
 10
37.7964824428
 20
-45.702415384
 30
0.0
 10
37.8618543181
 20
-45.6119534929
 30
0.0
 10
37.9179042987
 20
-45.5638246201
 30
0.0
 10
37.9476024056
 20
-45.5460787482
 30
0.0
  0
SPLINE
  5
311
100
AcDbEntity
  8
ASSI
100
AcDbSpline
 62
250
  6
CONTINUOUS
 70
0
 71
3
 72
11
 73
7
 74
0
 42
0.0000001
 43
0.0000001
 44
0.0000000001
 40
0.0
 40
0.0
 40
0.0
 40
0.0
 40
0.2367170705
 40
0.4989022632
 40
0.7616836547
 40
1.0
 40
1.0
 40
1.0
 40
1.0
 10
-41.4340111035
 20
-0.1977233022
 30
0.0
 10
-41.4340111035
 20
-0.1633593193
 30
0.0
 10
-41.4212641855
 20
-0.0908848413
 30
0.0
 10
-41.3767012447
 20
0.0111886082
 30
0.0
 10
-41.3113293694
 20
0.1016504979
 30
0.0
 10
-41.2552793898
 20
0.1497793695
 30
0.0
 10
-41.2255812836
 20
0.1675252409
 30
0.0
  0
SPLINE
  5
312
100
AcDbEntity
  8
ASSI
100
AcDbSpline
 62
250
  6
CONTINUOUS
 70
0
 71
3
 72
11
 73
7
 74
0
 42
0.0000001
 43
0.0000001
 44
0.0000000001
 40
0.0
 40
0.0
 40
0.0
 40
0.0
 40
0.236722918
 40
0.4989084211
 40
0.761686783
 40
1.0
 40
1.0
 40
1.0
 40
1.0
 10
-41.9996103718
 20
0.7819233662
 30
0.0
 10
-41.9698498348
 20
0.7647400051
 30
0.0
 10
-41.900710978
 20
0.7395394352
 30
0.0
 10
-41.7900300871
 20
0.7270938899
 30
0.0
 10
-41.6790018941
 20
0.7384776875
 30
0.0
 10
-41.6092971449
 20
0.7629564966
 30
0.0
 10
-41.5790808263
 20
0.7798044086
 30
0.0
  0
SPLINE
  5
313
100
AcDbEntity
  8
ASSI
100
AcDbSpline
 62
250
  6
CONTINUOUS
 70
0
 71
3
 72
11
 73
7
 74
0
 42
0.0000001
 43
0.0000001
 44
0.0000000001
 40
0.0
 40
0.0
 40
0.0
 40
0.0
 40
0.2367229258
 40
0.4989084307
 40
0.7616867895
 40
1.0
 40
1.0
 40
1.0
 40
1.0
 10
-41.9996103718
 20
43.70196154
 30
0.0
 10
-41.9698498337
 20
43.6847781784
 30
0.0
 10
-41.9007109755
 20
43.6595776083
 30
0.0
 10
-41.7900300835
 20
43.6471320637
 30
0.0
 10
-41.6790018918
 20
43.658515862
 30
0.0
 10
-41.6092971441
 20
43.6829946709
 30
0.0
 10
-41.5790808263
 20
43.6998425824
 30
0.0
  0
SPLINE
  5
314
100
AcDbEntity
  8
ASSI
100
AcDbSpline
 62
250
  6
CONTINUOUS
 70
0
 71
3
 72
11
 73
7
 74
0
 42
0.0000001
 43
0.0000001
 44
0.0000000001
 40
0.0
 40
0.0
 40
0.0
 40
0.0
 40
0.2897028725
 40
0.5490796078
 40
0.7822142673
 40
1.0
 40
1.0
 40
1.0
 40
1.0
 10
-41.4340111035
 20
44.0284683506
 30
0.0
 10
-41.4340111035
 20
44.0132720019
 30
0.0
 10
-41.4317085397
 20
43.9843722286
 30
0.0
 10
-41.4200067339
 20
43.944664212
 30
0.0
 10
-41.4003058174
 20
43.9124414898
 30
0.0
 10
-41.3818003988
 20
43.8968738081
 30
0.0
 10
-41.3719080761
 20
43.8911599362
 30
0.0
  0
SPLINE
  5
315
100
AcDbEntity
  8
ASSI
100
AcDbSpline
 62
250
  6
CONTINUOUS
 70
0
 71
3
 72
9
 73
5
 74
0
 42
0.0000001
 43
0.0000001
 44
0.0000000001
 40
0.0
 40
0.0
 40
0.0
 40
0.0
 40
0.2447084671
 40
1.0
 40
1.0
 40
1.0
 40
1.0
 10
-40.2801689399
 20
0.4243965179
 30
0.0
 10
-40.2864644298
 20
0.4279359913
 30
0.0
 10
-40.3119116454
 20
0.4428936321
 30
0.0
 10
-40.3362328267
 20
0.4597477541
 30
0.0
 10
-40.3539023103
 20
0.4733381658
 30
0.0
  0
SPLINE
  5
316
100
AcDbEntity
  8
ASSI
100
AcDbSpline
 62
250
  6
CONTINUOUS
 70
0
 71
3
 72
9
 73
5
 74
0
 42
0.0000001
 43
0.0000001
 44
0.0000000001
 40
0.0
 40
0.0
 40
0.0
 40
0.0
 40
0.2436998184
 40
1.0
 40
1.0
 40
1.0
 40
1.0
 10
-40.3539023103
 20
0.4733381658
 30
0.0
 10
-40.363002136
 20
0.4803372597
 30
0.0
 10
-40.3996033705
 20
0.5100123378
 30
0.0
 10
-40.4332048137
 20
0.5433338157
 30
0.0
 10
-40.4568279712
 20
0.5700035581
 30
0.0
  0
SPLINE
  5
317
100
AcDbEntity
  8
ASSI
100
AcDbSpline
 62
250
  6
CONTINUOUS
 70
0
 71
3
 72
9
 73
5
 74
0
 42
0.0000001
 43
0.0000001
 44
0.0000000001
 40
0.0
 40
0.0
 40
0.0
 40
0.0
 40
0.2437041831
 40
1.0
 40
1.0
 40
1.0
 40
1.0
 10
-40.4568279712
 20
0.5700035581
 30
0.0
 10
-40.470432161
 20
0.5853622263
 30
0.0
 10
-40.5238798962
 20
0.650465626
 30
0.0
 10
-40.5679122224
 20
0.7231578318
 30
0.0
 10
-40.5955852316
 20
0.780502106
 30
0.0
  0
SPLINE
  5
318
100
AcDbEntity
  8
ASSI
100
AcDbSpline
 62
250
  6
CONTINUOUS
 70
0
 71
3
 72
9
 73
5
 74
0
 42
0.0000001
 43
0.0000001
 44
0.0000000001
 40
0.0
 40
0.0
 40
0.0
 40
0.0
 40
0.2589723536
 40
1.0
 40
1.0
 40
1.0
 40
1.0
 10
-40.5955852316
 20
0.780502106
 30
0.0
 10
-40.6163496107
 20
0.8235302509
 30
0.0
 10
-40.6844951716
 20
0.9949103096
 30
0.0
 10
-40.7062073184
 20
1.1871338546
 30
0.0
 10
-40.6850246927
 20
1.322190829
 30
0.0
  0
SPLINE
  5
319
100
AcDbEntity
  8
ASSI
100
AcDbSpline
 62
7
  6
CONTINUOUS
 70
0
 71
3
 72
9
 73
5
 74
0
 42
0.0000001
 43
0.0000001
 44
0.0000000001
 40
0.0
 40
0.0
 40
0.0
 40
0.0
 40
0.5080819579
 40
1.0
 40
1.0
 40
1.0
 40
1.0
 10
-40.1040100607
 20
1.094078637
 30
0.0
 10
-40.0871328427
 20
1.1229940621
 30
0.0
 10
-40.0599120533
 20
1.1835762741
 30
0.0
 10
-40.0478796801
 20
1.2495262122
 30
0.0
 10
-40.0478778038
 20
1.281941554
 30
0.0
  0
SPLINE
  5
31A
100
AcDbEntity
  8
ASSI
100
AcDbSpline
 62
250
  6
CONTINUOUS
 70
0
 71
3
 72
9
 73
5
 74
0
 42
0.0000001
 43
0.0000001
 44
0.0000000001
 40
0.0
 40
0.0
 40
0.0
 40
0.0
 40
0.5203806099
 40
1.0
 40
1.0
 40
1.0
 40
1.0
 10
18.0582376077
 20
-33.2210520902
 30
0.0
 10
18.0473988724
 20
-33.1847086039
 30
0.0
 10
18.0138652044
 20
-33.1185167843
 30
0.0
 10
17.9605672536
 20
-33.0655232645
 30
0.0
 10
17.9302961603
 20
-33.0480451146
 30
0.0
  0
SPLINE
  5
31B
100
AcDbEntity
  8
ASSI
100
AcDbSpline
 62
250
  6
CONTINUOUS
 70
0
 71
3
 72
9
 73
5
 74
0
 42
0.0000001
 43
0.0000001
 44
0.0000000001
 40
0.0
 40
0.0
 40
0.0
 40
0.0
 40
0.5480975957
 40
1.0
 40
1.0
 40
1.0
 40
1.0
 10
15.384711748
 20
-31.5782565786
 30
0.0
 10
15.3682932701
 20
-31.5687767553
 30
0.0
 10
15.3352704938
 20
-31.5551915129
 30
0.0
 10
15.2985464124
 20
-31.5606364595
 30
0.0
 10
15.2848912134
 20
-31.5682439627
 30
0.0
  0
SPLINE
  5
31C
100
AcDbEntity
  8
ASSI
100
AcDbSpline
 62
7
  6
CONTINUOUS
 70
0
 71
3
 72
9
 73
5
 74
0
 42
0.0000001
 43
0.0000001
 44
0.0000000001
 40
0.0
 40
0.0
 40
0.0
 40
0.0
 40
0.5080819579
 40
1.0
 40
1.0
 40
1.0
 40
1.0
 10
-40.1040100607
 20
31.7729492874
 30
0.0
 10
-40.0871328427
 20
31.8018647125
 30
0.0
 10
-40.0599120533
 20
31.8624469246
 30
0.0
 10
-40.0478796801
 20
31.9283968627
 30
0.0
 10
-40.0478778038
 20
31.9608122045
 30
0.0
  0
SPLINE
  5
31D
100
AcDbEntity
  8
ASSI
100
AcDbSpline
 62
7
  6
CONTINUOUS
 70
0
 71
3
 72
9
 73
5
 74
0
 42
0.0000001
 43
0.0000001
 44
0.0000000001
 40
0.0
 40
0.0
 40
0.0
 40
0.0
 40
0.5080819579
 40
1.0
 40
1.0
 40
1.0
 40
1.0
 10
-40.1040100607
 20
16.9131902498
 30
0.0
 10
-40.0871328427
 20
16.9421056749
 30
0.0
 10
-40.0599120533
 20
17.002687887
 30
0.0
 10
-40.0478796801
 20
17.068637825
 30
0.0
 10
-40.0478778038
 20
17.1010531669
 30
0.0
  0
SPLINE
  5
31E
100
AcDbEntity
  8
ASSI
100
AcDbSpline
 62
250
  6
CONTINUOUS
 70
0
 71
3
 72
9
 73
5
 74
0
 42
0.0000001
 43
0.0000001
 44
0.0000000001
 40
0.0
 40
0.0
 40
0.0
 40
0.0
 40
0.4813564721
 40
1.0
 40
1.0
 40
1.0
 40
1.0
 10
-13.9002244423
 20
-14.6695014488
 30
0.0
 10
-13.8690871976
 20
-14.6868737954
 30
0.0
 10
-13.8142397837
 20
-14.7401596393
 30
0.0
 10
-13.7799134334
 20
-14.8074431253
 30
0.0
 10
-13.7691263591
 20
-14.8443152572
 30
0.0
  0
SPLINE
  5
31F
100
AcDbEntity
  8
ASSI
100
AcDbSpline
 62
250
  6
CONTINUOUS
 70
0
 71
3
 72
9
 73
5
 74
0
 42
0.0000001
 43
0.0000001
 44
0.0000000001
 40
0.0
 40
0.0
 40
0.0
 40
0.0
 40
0.5542937096
 40
1.0
 40
1.0
 40
1.0
 40
1.0
 10
-40.8347998719
 20
7.6980230771
 30
0.0
 10
-40.8189708594
 20
7.7074755222
 30
0.0
 10
-40.7919492123
 20
7.7284800982
 30
0.0
 10
-40.7786767692
 20
7.7617130186
 30
0.0
 10
-40.7786686825
 20
7.7765378032
 30
0.0
  0
SPLINE
  5
320
100
AcDbEntity
  8
ASSI
100
AcDbSpline
 62
250
  6
CONTINUOUS
 70
0
 71
3
 72
9
 73
5
 74
0
 42
0.0000001
 43
0.0000001
 44
0.0000000001
 40
0.0
 40
0.0
 40
0.0
 40
0.0
 40
0.5542937096
 40
1.0
 40
1.0
 40
1.0
 40
1.0
 10
-40.8347998719
 20
42.4796568685
 30
0.0
 10
-40.8189708594
 20
42.4891093136
 30
0.0
 10
-40.7919492123
 20
42.5101138896
 30
0.0
 10
-40.7786767692
 20
42.5433468099
 30
0.0
 10
-40.7786686825
 20
42.5581715946
 30
0.0
  0
SPLINE
  5
321
100
AcDbEntity
  8
ASSI
100
AcDbSpline
 62
250
  6
CONTINUOUS
 70
0
 71
3
 72
18
 73
14
 74
0
 42
0.0000001
 43
0.0000001
 44
0.0000000001
 40
0.0
 40
0.0
 40
0.0
 40
0.0
 40
0.0291555963
 40
0.0507394894
 40
0.0961464923
 40
0.1498959388
 40
0.2088363448
 40
0.2709731067
 40
0.3351668425
 40
0.4671230661
 40
0.6012813741
 40
0.7356786756
 40
1.0
 40
1.0
 40
1.0
 40
1.0
 10
-40.2801689254
 20
0.4243965231
 30
0.0
 10
-40.2788096925
 20
0.4249688465
 30
0.0
 10
-40.2764143682
 20
0.4263687966
 30
0.0
 10
-40.2748619603
 20
0.4313320493
 30
0.0
 10
-40.2777774296
 20
0.4372249924
 30
0.0
 10
-40.2826563015
 20
0.4434100203
 30
0.0
 10
-40.2889017645
 20
0.4497472105
 30
0.0
 10
-40.2958490067
 20
0.4560219388
 30
0.0
 10
-40.305865377
 20
0.4644208842
 30
0.0
 10
-40.3190551467
 20
0.4746807862
 30
0.0
 10
-40.3353629104
 20
0.4867047471
 30
0.0
 10
-40.3573307686
 20
0.5023259035
 30
0.0
 10
-40.3739875172
 20
0.5137036307
 30
0.0
 10
-40.3851274809
 20
0.5210975943
 30
0.0
  0
SPLINE
  5
322
100
AcDbEntity
  8
ASSI
100
AcDbSpline
 62
250
  6
CONTINUOUS
 70
0
 71
3
 72
9
 73
5
 74
0
 42
0.0000001
 43
0.0000001
 44
0.0000000001
 40
0.0
 40
0.0
 40
0.0
 40
0.0
 40
0.259547344
 40
1.0
 40
1.0
 40
1.0
 40
1.0
 10
-40.3851274809
 20
0.5210975943
 30
0.0
 10
-40.3890088588
 20
0.5236737936
 30
0.0
 10
-40.4040134142
 20
0.5335218373
 30
0.0
 10
-40.4192313945
 20
0.5430597107
 30
0.0
 10
-40.4307411245
 20
0.5497045535
 30
0.0
  0
ELLIPSE
  5
323
100
AcDbEntity
  8
ASSI
100
AcDbEllipse
 62
7
  6
CONTINUOUS
 10
15.6723571765
 20
-31.7387776059
 30
0.0
 11
-0.0277127185
 21
0.2057031953
 31
0.0
 40
0.7102175317
 41
-0.5016229518
 42
0.2838235375
  0
ELLIPSE
  5
324
100
AcDbEntity
  8
ASSI
100
AcDbEllipse
 62
7
  6
CONTINUOUS
 10
-16.1474479769
 20
-13.3664209062
 30
0.0
 11
-0.0277127185
 21
0.2057031953
 31
0.0
 40
0.7102175317
 41
-0.5016229518
 42
0.2838235375
  0
ELLIPSE
  5
325
100
AcDbEntity
  8
ASSI
100
AcDbEllipse
 62
7
  6
CONTINUOUS
 10
-40.2478780208
 20
43.1541726505
 30
0.0
 11
0.1999928968
 21
0.0029716584
 31
0.0
 40
0.5672251703
 41
-0.7763729677
 42
-0.2420200802
  0
ELLIPSE
  5
326
100
AcDbEntity
  8
ASSI
100
AcDbEllipse
 62
7
  6
CONTINUOUS
 10
-40.2478780208
 20
8.3725388591
 30
0.0
 11
0.1999928968
 21
0.0029716584
 31
0.0
 40
0.5672251703
 41
-0.7763729677
 42
-0.0084280962
  0
ELLIPSE
  5
327
100
AcDbEntity
  8
ASSI
100
AcDbEllipse
 62
7
  6
CONTINUOUS
 10
-36.9649981637
 20
11.4944899242
 30
0.0
 11
0.490042963
 21
-0.0653929739
 31
0.0
 40
0.4924287035
 41
1.6457399462
 42
2.3068868446
  0
ELLIPSE
  5
328
100
AcDbEntity
  8
ASSI
100
AcDbEllipse
 62
7
  6
CONTINUOUS
 10
-36.828382984
 20
8.5469052666
 30
0.0
 11
0.4999124207
 21
0.0156705079
 31
0.0
 40
0.5971709375
 41
-0.1932499618
 42
-0.018717012
  0
ELLIPSE
  5
329
100
AcDbEntity
  8
ASSI
100
AcDbEllipse
 62
7
  6
CONTINUOUS
 10
-39.9004959276
 20
15.0830125952
 30
0.0
 11
-0.0999440089
 21
0.17351898
 31
0.0
 40
0.5768037941
 41
-3.1066992723
 42
-2.355482613
  0
ELLIPSE
  5
32A
100
AcDbEntity
  8
ASSI
100
AcDbEllipse
 62
7
  6
CONTINUOUS
 10
-39.9004959276
 20
17.1797134866
 30
0.0
 11
-0.099852121
 21
0.1733609324
 31
0.0
 40
0.5778584463
 41
-2.3545649475
 42
-0.7846820092
  0
ELLIPSE
  5
32B
100
AcDbEntity
  8
ASSI
100
AcDbEllipse
 62
7
  6
CONTINUOUS
 10
-39.9004959276
 20
29.9427716329
 30
0.0
 11
-0.0999440089
 21
0.17351898
 31
0.0
 40
0.5768037941
 41
-3.1066992723
 42
-2.355482613
  0
ELLIPSE
  5
32C
100
AcDbEntity
  8
ASSI
100
AcDbEllipse
 62
7
  6
CONTINUOUS
 10
-39.9004959276
 20
32.0394725242
 30
0.0
 11
-0.099852121
 21
0.1733609324
 31
0.0
 40
0.5778584463
 41
-2.3545649475
 42
-0.7846820092
  0
ELLIPSE
  5
32D
100
AcDbEntity
  8
ASSI
100
AcDbEllipse
 62
7
  6
CONTINUOUS
 10
-39.9004959276
 20
1.3606018737
 30
0.0
 11
-0.099852121
 21
0.1733609324
 31
0.0
 40
0.5778584463
 41
-2.3545649475
 42
-0.7846820092
  0
ELLIPSE
  5
32E
100
AcDbEntity
  8
ASSI
100
AcDbEllipse
 62
7
  6
CONTINUOUS
 10
-37.496418908
 20
7.9901253748
 30
0.0
 11
0.9998248414
 21
0.0313410158
 31
0.0
 40
0.5971709375
 41
-0.8041152
 42
-0.1932499618
  0
ELLIPSE
  5
32F
100
AcDbEntity
  8
ASSI
100
AcDbEllipse
 62
7
  6
CONTINUOUS
 10
-13.8847062771
 20
-14.6728996048
 30
0.0
 11
-0.0277127185
 21
0.2057031953
 31
0.0
 40
0.7102175317
 41
-1.9030522691
 42
-0.5016229518
  0
ELLIPSE
  5
330
100
AcDbEntity
  8
ASSI
100
AcDbEllipse
 62
7
  6
CONTINUOUS
 10
17.9350988763
 20
-33.0452563046
 30
0.0
 11
-0.0277127185
 21
0.2057031953
 31
0.0
 40
0.7102175317
 41
-1.8678223681
 42
-0.5016229518
  0
ELLIPSE
  5
331
100
AcDbEntity
  8
ASSI
100
AcDbEllipse
 62
7
  6
CONTINUOUS
 10
-37.9593195702
 20
41.6009264133
 30
0.0
 11
0.9998248414
 21
0.0313410158
 31
0.0
 40
0.5971709375
 41
1.9491835049
 42
2.2065777597
  0
ELLIPSE
  5
332
100
AcDbEntity
  8
ASSI
100
AcDbEllipse
 62
7
  6
CONTINUOUS
 10
-37.9593195702
 20
6.8192926219
 30
0.0
 11
0.9998248414
 21
0.0313410158
 31
0.0
 40
0.5971709375
 41
1.5520792902
 42
2.2065777597
  0
ELLIPSE
  5
333
100
AcDbEntity
  8
ASSI
100
AcDbEllipse
 62
7
  6
CONTINUOUS
 10
-40.8619820547
 20
0.7856351329
 30
0.0
 11
-0.2500120911
 21
0.4330057209
 31
0.0
 40
0.5775075436
 41
0.7855021057
 42
2.355993846
  0
ELLIPSE
  5
334
100
AcDbEntity
  8
ASSI
100
AcDbEllipse
 62
7
  6
CONTINUOUS
 10
-39.2640028836
 20
0.0896024326
 30
0.0
 11
-0.3500169276
 21
0.6062080092
 31
0.0
 40
0.5775075436
 41
0.7855021057
 42
1.1682204935
  0
ELLIPSE
  5
335
100
AcDbEntity
  8
ASSI
100
AcDbEllipse
 62
7
  6
CONTINUOUS
 10
-36.828382984
 20
11.351415978
 30
0.0
 11
0.499933759
 21
-0.0146141357
 31
0.0
 40
0.5568983954
 41
-0.1582550289
 42
0.8016760597
  0
ELLIPSE
  5
336
100
AcDbEntity
  8
ASSI
100
AcDbEllipse
 62
7
  6
CONTINUOUS
 10
-37.496418908
 20
10.8582343721
 30
0.0
 11
0.999867518
 21
-0.0292282715
 31
0.0
 40
0.5568983954
 41
-0.7691202671
 42
-0.1582550289
  0
ELLIPSE
  5
337
100
AcDbEntity
  8
ASSI
100
AcDbEllipse
 62
7
  6
CONTINUOUS
 10
-40.2478780208
 20
38.3345452075
 30
0.0
 11
0.1999918324
 21
-0.0030772199
 31
0.0
 40
0.5873737521
 41
-0.7589073568
 42
0.7944356775
  0
ELLIPSE
  5
338
100
AcDbEntity
  8
ASSI
100
AcDbEllipse
 62
7
  6
CONTINUOUS
 10
-40.2478780208
 20
3.5529114161
 30
0.0
 11
0.1999918324
 21
-0.0030772199
 31
0.0
 40
0.5873737521
 41
-0.7589073568
 42
0.7944356775
  0
ELLIPSE
  5
339
100
AcDbEntity
  8
ASSI
100
AcDbEllipse
 62
7
  6
CONTINUOUS
 10
-37.9593195702
 20
9.7844430025
 30
0.0
 11
0.999867518
 21
-0.0292282715
 31
0.0
 40
0.5568983954
 41
1.5870742231
 42
2.2415726926
  0
ENDSEC
  0
SECTION
  2
OBJECTS
  0
DICTIONARY
  5
C
100
AcDbDictionary
280
0
281
1
  3
ACAD_GROUP
350
D
  3
ACAD_MLINESTYLE
350
17
  3
ACAD_LAYOUT
350
1A
  3
ACAD_PLOTSETTINGS
350
19
  3
ACAD_PLOTSTYLENAME
350
E
  0
DICTIONARY
  5
D
102
{ACAD_REACTORS
330
C
102
}
100
AcDbDictionary
280
0
281
1
  0
ACDBDICTIONARYWDFLT
  5
E
102
{ACAD_REACTORS
330
C
102
}
100
AcDbDictionary
281
1
  3
Normal
350
F
100
AcDbDictionaryWithDefault
340
F
  0
DICTIONARY
  5
17
102
{ACAD_REACTORS
330
C
102
}
100
AcDbDictionary
280
0
281
1
  3
Standard
350
18
  0
DICTIONARY
  5
19
102
{ACAD_REACTORS
330
C
102
}
100
AcDbDictionary
281
1
  0
DICTIONARY
  5
1A
102
{ACAD_REACTORS
330
C
102
}
100
AcDbDictionary
281
1
  3
Model
350
33A
  3
Layout1
350
33B
  0
ACDBPLACEHOLDER
  5
F
102
{ACAD_REACTORS
330
E
102
}
  0
MLINESTYLE
  5
18
102
{ACAD_REACTORS
330
17
102
}
100
AcDbMlineStyle
  2
STANDARD
 70
0
  3

 62
256
 51
90.0
 52
90.0
 71
2
 49
0.5
 62
256
  6
BYLAYER
 49
-0.5
 62
256
  6
BYLAYER
  0
LAYOUT
  5
33A
102
{ACAD_REACTORS
330
1A
102
}
100
AcDbPlotSettings
  1

  2
none_device
  4
ISO_A4_(297.00_x_210.00_MM)
  6

 40
0.0
 41
0.0
 42
0.0
 43
0.0
 44
297.0
 45
210.0
 46
0.0
 47
0.0
 48
0.0
 49
0.0
140
0.0
141
0.0
142
1.0
143
1.0
 70
1024
 72
1
 73
0
 74
0
  7

 75
0
147
1.0
148
0.0
149
0.0
100
AcDbLayout
  1
Model
 70
0
 71
0
 10
0.0
 20
0.0
 11
297.0
 21
210.0
 12
0.0
 22
0.0
 32
0.0
 14
0.0
 24
0.0
 34
0.0
 15
0.0
 25
0.0
 35
0.0
146
0.0
 13
0.0
 23
0.0
 33
0.0
 16
1.0
 26
0.0
 36
0.0
 17
0.0
 27
1.0
 37
0.0
 76
0
330
216
345
0
346
0
  0
LAYOUT
  5
33B
102
{ACAD_REACTORS
330
1A
102
}
100
AcDbPlotSettings
  1

  2
none_device
  4
ISO_A4_(297.00_x_210.00_MM)
  6

 40
0.0
 41
0.0
 42
0.0
 43
0.0
 44
297.0
 45
210.0
 46
0.0
 47
0.0
 48
0.0
 49
0.0
140
0.0
141
0.0
142
1.0
143
1.0
 70
0
 72
1
 73
0
 74
0
  7

 75
0
147
1.0
148
0.0
149
0.0
100
AcDbLayout
  1
Layout1
 70
0
 71
1
 10
0.0
 20
0.0
 11
297.0
 21
210.0
 12
0.0
 22
0.0
 32
0.0
 14
0.0
 24
0.0
 34
0.0
 15
0.0
 25
0.0
 35
0.0
146
0.0
 13
0.0
 23
0.0
 33
0.0
 16
1.0
 26
0.0
 36
0.0
 17
0.0
 27
1.0
 37
0.0
 76
0
330
217
345
0
346
0
  0
ENDSEC
  0
EOF
