  0
SECTION
  2
HEADER
  9
$ACADVER
  1
AC1024
  9
$DWGCODEPAGE
  3
ANSI_1252
  9
$EXTMAX
 10
297.0
 20
210.0
 30
0.0
  9
$EXTMIN
 10
0.0
 20
0.0
 30
0.0
  9
$LIMMIN
 10
0.0
 20
0.0
  9
$LIMMAX
 10
297.0
 20
210.0
  9
$VIEWCTR
 10
148.5
 20
105.0
  9
$VIEWSIZE
 40
210.0
  9
$CLAYER
  8
0
  9
$LTSCALE
 40
16.335
  9
$CELTYPE
  6
BYLAYER
  9
$DIMSCALE
 40
1.0
  9
$DIMASZ
 40
3.0
  9
$DIMEXO
 40
0.5
  9
$DIMDLI
 40
11.286
  9
$DIMEXE
 40
1.5
  9
$DIMCEN
 40
2.673
  9
$DIMLFAC
 40
1.0
  9
$DIMBLK
  1
_FILLED
  9
$DIMALT
 70
0
  9
$DIMALTF
 40
0.0393700787
  9
$DIMTXT
 40
3.0
  9
$DIMTOL
 70
1
  9
$DIMLIM
 70
0
  9
$DIMTFAC
 40
1.0
  9
$DIMTP
 40
0.01
  9
$DIMTM
 40
0.01
  9
$DIMGAP
 40
0.625
  9
$DIMDSEP
 70
44
  9
$AUNITS
 70
0
  9
$PDMODE
 70
3
  9
$PDSIZE
 40
3.0
  9
$HANDSEED
  5
2DF
  9
$TILEMODE
 70
1
  9
$MEASUREMENT
 70
1
  9
$INSUNITS
 70
4
  0
ENDSEC
  0
SECTION
  2
CLASSES
  0
CLASS
  1
ACDBDICTIONARYWDFLT
  2
AcDbDictionaryWithDefault
  3
AutoCAD 2000
 90
0
 91
1
280
0
281
0
  0
CLASS
  1
ACDBPLACEHOLDER
  2
AcDbPlaceHolder
  3
AutoCAD 2000
 90
0
 91
1
280
0
281
0
  0
CLASS
  1
LAYOUT
  2
AcDbLayout
  3
AutoCAD 2000
 90
0
 91
0
280
0
281
0
  0
ENDSEC
  0
SECTION
  2
TABLES
  0
TABLE
  2
VPORT
  5
8
100
AcDbSymbolTable
 70
2
  0
VPORT
  5
1F4
100
AcDbSymbolTableRecord
100
AcDbViewportTableRecord
  2
*ACTIVE
 70
0
 10
0.0
 20
0.0
 11
1.0
 21
1.0
 12
148.5
 22
105.0
 13
0.0
 23
0.0
 14
1.0
 24
1.0
 15
0.0
 25
0.0
 16
0.0
 26
0.0
 36
1.0
 17
0.0
 27
0.0
 37
0.0
 40
210.0
 41
1.4142857143
 42
50.0
 43
0.0
 44
0.0
 50
0.0
 51
0.0
 71
0
 72
100
 73
1
 74
1
 75
0
 76
0
 77
0
 78
0
  0
ENDTAB
  0
TABLE
  2
LTYPE
  5
5
100
AcDbSymbolTable
 70
6
  0
LTYPE
  5
14
100
AcDbSymbolTableRecord
100
AcDbLinetypeTableRecord
  2
BYBLOCK
 70
0
  3

 72
65
 73
0
 40
0.0
  0
LTYPE
  5
15
100
AcDbSymbolTableRecord
100
AcDbLinetypeTableRecord
  2
BYLAYER
 70
0
  3

 72
65
 73
0
 40
0.0
  0
LTYPE
  5
16
100
AcDbSymbolTableRecord
100
AcDbLinetypeTableRecord
  2
CONTINUOUS
 70
64
  3
Solid line
 72
65
 73
0
 40
0.0
  0
LTYPE
  5
1F5
100
AcDbSymbolTableRecord
100
AcDbLinetypeTableRecord
  2
CENTER
 70
64
  3
____ _ ____ _ ____ _ ____ _ ____ _ ____ _ ____
 72
65
 73
4
 40
0.6
 49
0.375
 74
0
 49
-0.075
 74
0
 49
0.075
 74
0
 49
-0.075
 74
0
  0
LTYPE
  5
1F6
100
AcDbSymbolTableRecord
100
AcDbLinetypeTableRecord
  2
HIDDEN
 70
64
  3
- - - - - - - - - - - - - - - - - - - -
 72
65
 73
2
 40
0.2
 49
0.1
 74
0
 49
-0.1
 74
0
  0
LTYPE
  5
1F7
100
AcDbSymbolTableRecord
100
AcDbLinetypeTableRecord
  2
PHANTOM
 70
64
  3
_____ _ _ _____ _ _ _____ _ _ _____
 72
65
 73
6
 40
0.8
 49
0.45
 74
0
 49
-0.05
 74
0
 49
0.1
 74
0
 49
-0.05
 74
0
 49
0.1
 74
0
 49
-0.05
 74
0
  0
LTYPE
  5
1F8
100
AcDbSymbolTableRecord
100
AcDbLinetypeTableRecord
  2
DOT
 70
64
  3
. . . . . . . . . . . . . . . . . . . .
 72
65
 73
2
 40
0.2
 49
0.1
 74
0
 49
-0.1
 74
0
  0
LTYPE
  5
1F9
100
AcDbSymbolTableRecord
100
AcDbLinetypeTableRecord
  2
DASHED
 70
64
  3
- - - - - - - - - - - - - - - - - - - -
 72
65
 73
2
 40
0.2
 49
0.1
 74
0
 49
-0.1
 74
0
  0
ENDTAB
  0
TABLE
  2
LAYER
  5
2
100
AcDbSymbolTable
 70
36
  0
LAYER
  5
10
100
AcDbSymbolTableRecord
100
AcDbLayerTableRecord
  2
0
 70
0
 62
7
  6
CONTINUOUS
370
-3
390
F
  0
LAYER
  5
1FA
100
AcDbSymbolTableRecord
100
AcDbLayerTableRecord
  2
DEFAULT_1
 70
0
 62
7
  6
CENTER
370
-3
390
F
  0
LAYER
  5
1FB
100
AcDbSymbolTableRecord
100
AcDbLayerTableRecord
  2
DEFAULT_2
 70
0
 62
7
  6
HIDDEN
370
-3
390
F
  0
LAYER
  5
1FC
100
AcDbSymbolTableRecord
100
AcDbLayerTableRecord
  2
DEFAULT_3
 70
0
 62
7
  6
PHANTOM
370
-3
390
F
  0
LAYER
  5
1FD
100
AcDbSymbolTableRecord
100
AcDbLayerTableRecord
  2
ASSI
 70
0
 62
7
  6
CONTINUOUS
370
-3
390
F
  0
LAYER
  5
1FE
100
AcDbSymbolTableRecord
100
AcDbLayerTableRecord
  2
COORDINATE
 70
0
 62
7
  6
CONTINUOUS
370
-3
390
F
  0
LAYER
  5
1FF
100
AcDbSymbolTableRecord
100
AcDbLayerTableRecord
  2
COPY_PUBLISH
 70
0
 62
7
  6
CONTINUOUS
370
-3
390
F
  0
LAYER
  5
200
100
AcDbSymbolTableRecord
100
AcDbLayerTableRecord
  2
COSMETICI
 70
0
 62
7
  6
CONTINUOUS
370
-3
390
F
  0
LAYER
  5
201
100
AcDbSymbolTableRecord
100
AcDbLayerTableRecord
  2
CURVE
 70
0
 62
7
  6
CONTINUOUS
370
-3
390
F
  0
LAYER
  5
202
100
AcDbSymbolTableRecord
100
AcDbLayerTableRecord
  2
DRAFT
 70
0
 62
7
  6
CONTINUOUS
370
-3
390
F
  0
LAYER
  5
203
100
AcDbSymbolTableRecord
100
AcDbLayerTableRecord
  2
IMPORT_IGES
 70
0
 62
7
  6
CONTINUOUS
370
-3
390
F
  0
LAYER
  5
204
100
AcDbSymbolTableRecord
100
AcDbLayerTableRecord
  2
INTF_1
 70
0
 62
7
  6
CONTINUOUS
370
-3
390
F
  0
LAYER
  5
205
100
AcDbSymbolTableRecord
100
AcDbLayerTableRecord
  2
INTF_11
 70
0
 62
7
  6
CONTINUOUS
370
-3
390
F
  0
LAYER
  5
206
100
AcDbSymbolTableRecord
100
AcDbLayerTableRecord
  2
INTF_13
 70
0
 62
7
  6
CONTINUOUS
370
-3
390
F
  0
LAYER
  5
207
100
AcDbSymbolTableRecord
100
AcDbLayerTableRecord
  2
INTF_2
 70
0
 62
7
  6
CONTINUOUS
370
-3
390
F
  0
LAYER
  5
208
100
AcDbSymbolTableRecord
100
AcDbLayerTableRecord
  2
NOTE
 70
0
 62
7
  6
CONTINUOUS
370
-3
390
F
  0
LAYER
  5
209
100
AcDbSymbolTableRecord
100
AcDbLayerTableRecord
  2
PIANI
 70
0
 62
7
  6
CONTINUOUS
370
-3
390
F
  0
LAYER
  5
20A
100
AcDbSymbolTableRecord
100
AcDbLayerTableRecord
  2
PUNTI
 70
0
 62
7
  6
CONTINUOUS
370
-3
390
F
  0
LAYER
  5
20B
100
AcDbSymbolTableRecord
100
AcDbLayerTableRecord
  2
RACCORDO
 70
0
 62
7
  6
CONTINUOUS
370
-3
390
F
  0
LAYER
  5
20C
100
AcDbSymbolTableRecord
100
AcDbLayerTableRecord
  2
RGB____0____0____0__
 70
0
 62
7
  6
CONTINUOUS
370
-3
390
F
  0
LAYER
  5
20D
100
AcDbSymbolTableRecord
100
AcDbLayerTableRecord
  2
SIMBOLI
 70
0
 62
7
  6
CONTINUOUS
370
-3
390
F
  0
LAYER
  5
20E
100
AcDbSymbolTableRecord
100
AcDbLayerTableRecord
  2
SMUSSO
 70
0
 62
7
  6
CONTINUOUS
370
-3
390
F
  0
LAYER
  5
20F
100
AcDbSymbolTableRecord
100
AcDbLayerTableRecord
  2
SNAPLINE
 70
0
 62
7
  6
CONTINUOUS
370
-3
390
F
  0
LAYER
  5
210
100
AcDbSymbolTableRecord
100
AcDbLayerTableRecord
  2
SUPERFICI
 70
0
 62
7
  6
CONTINUOUS
370
-3
390
F
  0
LAYER
  5
211
100
AcDbSymbolTableRecord
100
AcDbLayerTableRecord
  2
TRASH
 70
0
 62
7
  6
CONTINUOUS
370
-3
390
F
  0
ENDTAB
  0
TABLE
  2
STYLE
  5
3
100
AcDbSymbolTable
 70
1
  0
STYLE
  5
11
100
AcDbSymbolTableRecord
100
AcDbTextStyleTableRecord
  2
STANDARD
 70
0
 40
0.0
 41
0.8
 50
0.0
 71
0
 42
0.2
  3
txt
  4

  0
STYLE
  5
212
100
AcDbSymbolTableRecord
100
AcDbTextStyleTableRecord
  2
TEXTSTYLE_1
 70
0
 40
0.0
 41
0.8
 50
0.0
 71
0
 42
0.2
  3
gdt
  4

  0
ENDTAB
  0
TABLE
  2
VIEW
  5
6
100
AcDbSymbolTable
 70
0
  0
ENDTAB
  0
TABLE
  2
UCS
  5
7
100
AcDbSymbolTable
 70
0
  0
ENDTAB
  0
TABLE
  2
APPID
  5
9
100
AcDbSymbolTable
 70
1
  0
APPID
  5
213
100
AcDbSymbolTableRecord
100
AcDbRegAppTableRecord
  2
ACAD
 70
0
  0
ENDTAB
  0
TABLE
  2
BLOCK_RECORD
  5
1
100
AcDbSymbolTable
 70
0
  0
BLOCK_RECORD
  5
214
100
AcDbSymbolTableRecord
100
AcDbBlockTableRecord
  2
*Model_Space
  0
BLOCK_RECORD
  5
215
100
AcDbSymbolTableRecord
100
AcDbBlockTableRecord
  2
*Paper_Space
  0
BLOCK_RECORD
  5
216
100
AcDbSymbolTableRecord
100
AcDbBlockTableRecord
  2
_FILLED
  0
ENDTAB
  0
TABLE
  2
DIMSTYLE
  5
A
100
AcDbSymbolTable
 70
1
100
AcDbDimStyleTable
 71
0
  0
DIMSTYLE
105
217
100
AcDbSymbolTableRecord
100
AcDbDimStyleTableRecord
  2
STANDARD
 70
0
  3

  4

 40
1.0
 41
3.0
 42
0.5
 43
0.38
 44
1.5
 45
0.0
 46
0.0
 47
0.01
 48
0.01
140
3.0
141
0.09
142
0.0
143
25.4
144
1.0
145
0.0
146
1.0
147
0.625
 71
1
 72
0
 73
0
 74
0
 75
0
 76
0
 77
1
 78
8
 79
2
170
0
171
1
172
0
173
0
174
0
175
0
176
0
177
0
178
0
270
2
179
2
271
2
272
2
273
2
274
2
275
0
280
0
281
0
282
0
283
1
284
8
285
0
286
0
287
3
288
0
340
11
278
44
341
216
342
216
343
216
344
216
  0
ENDTAB
  0
ENDSEC
  0
SECTION
  2
BLOCKS
  0
BLOCK
  5
20
100
AcDbEntity
  8
0
100
AcDbBlockBegin
  2
*Model_Space
 70
0
 10
0.0
 20
0.0
 30
0.0
  3
*Model_Space
  1

  0
ENDBLK
  5
21
100
AcDbEntity
  8
0
100
AcDbBlockEnd
  0
BLOCK
  5
1C
100
AcDbEntity
  8
0
100
AcDbBlockBegin
  2
*Paper_Space
 70
0
 10
0.0
 20
0.0
 30
0.0
  3
*Paper_Space
  1

  0
ENDBLK
  5
1D
100
AcDbEntity
  8
0
100
AcDbBlockEnd
  0
BLOCK
  5
218
100
AcDbEntity
  8
0
100
AcDbBlockBegin
  2
_FILLED
 70
64
 10
0.0
 20
0.0
  3
_FILLED
  1

  0
SOLID
  5
219
100
AcDbEntity
  8
0
  6
BYBLOCK
 62
0
100
AcDbTrace
 10
0.0
 20
0.0
 11
-1.0
 21
0.3166666667
 12
-1.0
 22
-0.3166666667
 13
-1.0
 23
-0.3166666667
  0
ENDBLK
  5
21A
100
AcDbEntity
  8
0
  6
BYBLOCK
 62
0
100
AcDbBlockEnd
  0
ENDSEC
  0
SECTION
  2
ENTITIES
  0
LWPOLYLINE
  5
21B
100
AcDbEntity
  8
RACCORDO
100
AcDbPolyline
 62
7
  6
CONTINUOUS
 90
15
 70
0
 10
-44.5413300601
 20
59.4740918246
 10
-44.5939211942
 20
59.4338603624
 10
-44.641825551
 20
59.3909399251
 10
-44.6872027908
 20
59.3435895902
 10
-44.729642109
 20
59.2919535469
 10
-44.7686910881
 20
59.2363352562
 10
-44.8041074917
 20
59.1768801001
 10
-44.8356616726
 20
59.1137699359
 10
-44.8630737447
 20
59.0473827509
 10
-44.8862107342
 20
58.977902524
 10
-44.9049812355
 20
58.9054557967
 10
-44.9192684089
 20
58.8302819874
 10
-44.9289969858
 20
58.7525297207
 10
-44.9341099284
 20
58.6723112758
 10
-44.9349288786
 20
58.6240691441
  0
LINE
  5
21C
100
AcDbEntity
  8
RACCORDO
100
AcDbLine
 62
7
  6
CONTINUOUS
 10
-44.5417899957
 20
59.4737696381
 11
-42.3729045448
 21
61.0030808187
  0
LINE
  5
21D
100
AcDbEntity
  8
RACCORDO
100
AcDbLine
 62
250
  6
CONTINUOUS
 10
-43.7472947176
 20
59.4287034367
 11
-41.5856044608
 21
60.9529411862
  0
LINE
  5
21E
100
AcDbEntity
  8
RACCORDO
100
AcDbLine
 62
250
  6
CONTINUOUS
 10
-40.307434921
 20
61.0151152514
 11
-41.0126692635
 21
60.6221355839
  0
LINE
  5
21F
100
AcDbEntity
  8
DRAFT
100
AcDbLine
 62
7
  6
CONTINUOUS
 10
-40.6424556929
 20
61.0510980642
 11
-41.2129421876
 21
60.7377706602
  0
LWPOLYLINE
  5
220
100
AcDbEntity
  8
RACCORDO
100
AcDbPolyline
 62
7
  6
CONTINUOUS
 90
24
 70
0
 10
-44.9348891122
 20
-10.5138381649
 10
-44.9317485241
 20
-10.6000728513
 10
-44.9237457351
 20
-10.6867327185
 10
-44.9110588638
 20
-10.7736474118
 10
-44.8938628259
 20
-10.8605838985
 10
-44.8723709938
 20
-10.9471570607
 10
-44.8467649094
 20
-11.0331334323
 10
-44.8171975667
 20
-11.1183646538
 10
-44.7838660633
 20
-11.2025120783
 10
-44.7469698633
 20
-11.2852894114
 10
-44.7066285156
 20
-11.3665734251
 10
-44.662940072
 20
-11.4462276211
 10
-44.616039543
 20
-11.5240362385
 10
-44.5660462379
 20
-11.5997755214
 10
-44.5130303893
 20
-11.6732941413
 10
-44.4570409761
 20
-11.744424337
 10
-44.398224927
 20
-11.8128551378
 10
-44.336769581
 20
-11.8782538622
 10
-44.2727279348
 20
-11.9404118756
 10
-44.2062107593
 20
-11.9990566546
 10
-44.1374332869
 20
-12.0538180171
 10
-44.0665045348
 20
-12.1044276384
 10
-43.993486063
 20
-12.1506419882
 10
-43.9786371534
 20
-12.1593314861
  0
LINE
  5
221
100
AcDbEntity
  8
RACCORDO
100
AcDbLine
 62
7
  6
CONTINUOUS
 10
-44.9349288787
 20
58.6240752255
 11
-44.9348891122
 21
-10.5138381649
  0
LINE
  5
222
100
AcDbEntity
  8
RACCORDO
100
AcDbLine
 62
7
  6
CONTINUOUS
 10
-44.9349288787
 20
-10.5031636064
 11
-44.9349287577
 21
-10.502962763
  0
LINE
  5
223
100
AcDbEntity
  8
RACCORDO
100
AcDbLine
 62
250
  6
CONTINUOUS
 10
-44.7884822693
 20
58.4199379289
 11
-44.7884822693
 21
-10.7073008851
  0
LINE
  5
224
100
AcDbEntity
  8
RACCORDO
100
AcDbLine
 62
7
  6
CONTINUOUS
 10
-25.5639641457
 20
34.7518539118
 11
-25.5637660774
 21
34.7519567693
  0
LINE
  5
225
100
AcDbEntity
  8
RACCORDO
100
AcDbLine
 62
250
  6
CONTINUOUS
 10
-25.6715271169
 20
34.5207348621
 11
-25.3859488135
 21
34.6687946114
  0
LWPOLYLINE
  5
226
100
AcDbEntity
  8
RACCORDO
100
AcDbPolyline
 62
7
  6
CONTINUOUS
 90
8
 70
0
 10
-25.5696270111
 20
34.7496986783
 10
-25.5695878935
 20
34.7497101634
 10
-25.5675421891
 20
34.7498932187
 10
-25.5627330869
 20
34.7498707088
 10
-25.554884831
 20
34.7491241548
 10
-25.5438468124
 20
34.7471143575
 10
-25.5300083836
 20
34.7434420318
 10
-25.51407678
 20
34.7379554917
  0
LINE
  5
227
100
AcDbEntity
  8
RACCORDO
100
AcDbLine
 62
7
  6
CONTINUOUS
 10
-22.185347469
 20
31.7038982398
 11
-21.5774570321
 21
32.4698191885
  0
LINE
  5
228
100
AcDbEntity
  8
RACCORDO
100
AcDbLine
 62
250
  6
CONTINUOUS
 10
-23.3710653404
 20
29.1125689425
 11
-20.4188303195
 21
31.8008426456
  0
LINE
  5
229
100
AcDbEntity
  8
RACCORDO
100
AcDbLine
 62
7
  6
CONTINUOUS
 10
-23.3710653404
 20
29.0529099978
 11
-20.3787363174
 21
31.7776928713
  0
LINE
  5
22A
100
AcDbEntity
  8
RACCORDO
100
AcDbLine
 62
7
  6
CONTINUOUS
 10
-23.3710653404
 20
30.7628144244
 11
-22.4443215477
 21
31.4493618681
  0
LINE
  5
22B
100
AcDbEntity
  8
RACCORDO
100
AcDbLine
 62
7
  6
CONTINUOUS
 10
-23.0586156251
 20
33.3250215968
 11
-23.3710653404
 21
33.1893276126
  0
LWPOLYLINE
  5
22C
100
AcDbEntity
  8
RACCORDO
100
AcDbPolyline
 62
7
  6
CONTINUOUS
 90
15
 70
0
 10
40.4963797661
 20
-60.934147662
 10
40.5360783262
 20
-60.9562316325
 10
40.6082629594
 20
-60.992173785
 10
40.6806275395
 20
-61.0228623514
 10
40.7530457297
 20
-61.0482907122
 10
40.8253515851
 20
-61.0684497378
 10
40.8972787629
 20
-61.0833189138
 10
40.968671509
 20
-61.0929136268
 10
41.0393029382
 20
-61.0972573057
 10
41.1087033672
 20
-61.0964002512
 10
41.1765983985
 20
-61.0904484999
 10
41.2427399072
 20
-61.0795414453
 10
41.3066348747
 20
-61.0639185366
 10
41.3679492618
 20
-61.0438627688
 10
41.4294439091
 20
-61.0182946294
  0
LINE
  5
22D
100
AcDbEntity
  8
RACCORDO
100
AcDbLine
 62
7
  6
CONTINUOUS
 10
-43.9788032429
 20
-12.1592357155
 11
40.4963863591
 21
-60.9341514689
  0
LINE
  5
22E
100
AcDbEntity
  8
RACCORDO
100
AcDbLine
 62
250
  6
CONTINUOUS
 10
-44.0823445534
 20
-11.9303672849
 11
40.392845033
 21
-60.7052830293
  0
LINE
  5
22F
100
AcDbEntity
  8
RACCORDO
100
AcDbLine
 62
250
  6
CONTINUOUS
 10
-26.090165524
 20
-8.4036095491
 11
-26.090165524
 21
34.5238991053
  0
LINE
  5
230
100
AcDbEntity
  8
RACCORDO
100
AcDbLine
 62
250
  6
CONTINUOUS
 10
-25.6715271169
 20
-8.4067737923
 11
-25.6715271169
 21
34.5207348621
  0
LINE
  5
231
100
AcDbEntity
  8
RACCORDO
100
AcDbLine
 62
7
  6
CONTINUOUS
 10
-25.3030172261
 20
34.6209109523
 11
-25.3030172261
 21
-8.1940018492
  0
LINE
  5
232
100
AcDbEntity
  8
RACCORDO
100
AcDbLine
 62
250
  6
CONTINUOUS
 10
-24.6131471925
 20
-8.3574016171
 11
-24.6131471338
 21
-8.4505222713
  0
LINE
  5
233
100
AcDbEntity
  8
RACCORDO
100
AcDbLine
 62
7
  6
CONTINUOUS
 10
-24.698504611
 20
-8.3073219981
 11
-24.698370401
 21
-8.3075827959
  0
LWPOLYLINE
  5
234
100
AcDbEntity
  8
RACCORDO
100
AcDbPolyline
 62
7
  6
CONTINUOUS
 90
8
 70
0
 10
-23.8151539613
 20
-9.0398111704
 10
-23.8264829893
 20
-9.0003735271
 10
-23.8373089727
 20
-8.9554022721
 10
-23.8457443836
 20
-8.9118252942
 10
-23.8518358291
 20
-8.8698922391
 10
-23.855645597
 20
-8.8300219161
 10
-23.8573005849
 20
-8.7924983894
 10
-23.8574003047
 20
-8.7811552664
  0
LINE
  5
235
100
AcDbEntity
  8
RACCORDO
100
AcDbLine
 62
250
  6
CONTINUOUS
 10
-23.9135323108
 20
-6.2235137822
 11
-23.9135323108
 21
-8.8613055094
  0
LINE
  5
236
100
AcDbEntity
  8
RACCORDO
100
AcDbLine
 62
7
  6
CONTINUOUS
 10
-23.8574002709
 20
-6.1432963748
 11
-23.8574002709
 21
-8.781088102
  0
LINE
  5
237
100
AcDbEntity
  8
RACCORDO
100
AcDbLine
 62
250
  6
CONTINUOUS
 10
-23.4271973803
 20
33.5378360829
 11
-23.4271973803
 21
-5.2259266266
  0
LINE
  5
238
100
AcDbEntity
  8
RACCORDO
100
AcDbLine
 62
7
  6
CONTINUOUS
 10
-23.3710653404
 20
33.5054261465
 11
-23.3710653404
 21
-5.1457092192
  0
LINE
  5
239
100
AcDbEntity
  8
SMUSSO
100
AcDbLine
 62
7
  6
CONTINUOUS
 10
-19.9898134584
 20
3.7550590268
 11
-19.9898134584
 21
3.4922359743
  0
LINE
  5
23A
100
AcDbEntity
  8
SMUSSO
100
AcDbLine
 62
7
  6
CONTINUOUS
 10
-19.9898134584
 20
0.7485589531
 11
-19.9898134584
 21
0.4857359006
  0
LWPOLYLINE
  5
23B
100
AcDbEntity
  8
RACCORDO
100
AcDbPolyline
 62
7
  6
CONTINUOUS
 90
12
 70
0
 10
-23.857400272
 20
-6.143283998
 10
-23.8571088051
 20
-6.1325982566
 10
-23.8559945555
 20
-6.1189881147
 10
-23.8539450346
 20
-6.1040118701
 10
-23.850879027
 20
-6.0878336893
 10
-23.846754137
 20
-6.0706837864
 10
-23.8415651471
 20
-6.0528227724
 10
-23.8353239269
 20
-6.0344632974
 10
-23.8280480131
 20
-6.0157727513
 10
-23.8197664524
 20
-5.9969233286
 10
-23.8105444947
 20
-5.9781314163
 10
-23.8017995337
 20
-5.961945869
  0
LINE
  5
23C
100
AcDbEntity
  8
RACCORDO
100
AcDbLine
 62
250
  6
CONTINUOUS
 10
21.8351744249
 20
-36.7280525843
 11
-25.5246739453
 21
-9.3830696936
  0
LINE
  5
23D
100
AcDbEntity
  8
RACCORDO
100
AcDbLine
 62
250
  6
CONTINUOUS
 10
22.04175349
 20
-36.3639192733
 11
-25.3180948803
 21
-9.0189363826
  0
LINE
  5
23E
100
AcDbEntity
  8
RACCORDO
100
AcDbLine
 62
7
  6
CONTINUOUS
 10
-24.9495849894
 20
-8.8061644396
 11
22.3127980379
 21
-36.0948720628
  0
LINE
  5
23F
100
AcDbEntity
  8
RACCORDO
100
AcDbLine
 62
250
  6
CONTINUOUS
 10
22.3127980379
 20
-35.7118817394
 11
-24.36759685
 21
-8.7592067739
  0
LINE
  5
240
100
AcDbEntity
  8
RACCORDO
100
AcDbLine
 62
7
  6
CONTINUOUS
 10
22.3127980379
 20
-35.6735125358
 11
-24.2957869058
 21
-8.762299732
  0
LINE
  5
241
100
AcDbEntity
  8
RACCORDO
100
AcDbLine
 62
250
  6
CONTINUOUS
 10
-21.8048324824
 20
-10.1745833356
 11
22.3127980379
 21
-35.6475502743
  0
LINE
  5
242
100
AcDbEntity
  8
RACCORDO
100
AcDbLine
 62
7
  6
CONTINUOUS
 10
-21.7072957933
 20
-10.1660753044
 11
22.3127980379
 21
-35.5827257813
  0
LWPOLYLINE
  5
243
100
AcDbEntity
  8
RACCORDO
100
AcDbPolyline
 62
7
  6
CONTINUOUS
 90
15
 70
0
 10
-24.2958369294
 20
-8.7622617529
 10
-24.3059395646
 20
-8.756304645
 10
-24.3372759456
 20
-8.7362686085
 10
-24.3694058936
 20
-8.713292563
 10
-24.4020598889
 20
-8.6874162449
 10
-24.4349291066
 20
-8.6587552382
 10
-24.4677864765
 20
-8.6273908362
 10
-24.5004041795
 20
-8.5934354749
 10
-24.5325012642
 20
-8.557090072
 10
-24.5638481757
 20
-8.518532447
 10
-24.5942411147
 20
-8.4779441326
 10
-24.6234652298
 20
-8.4355565932
 10
-24.6513351041
 20
-8.3915859525
 10
-24.677668481
 20
-8.3462765872
 10
-24.6983727088
 20
-8.3075783104
  0
LINE
  5
244
100
AcDbEntity
  8
RACCORDO
100
AcDbLine
 62
7
  6
CONTINUOUS
 10
-20.1027945922
 20
0.2462806112
 11
-19.9898134584
 21
0.4857359006
  0
LINE
  5
245
100
AcDbEntity
  8
RACCORDO
100
AcDbLine
 62
250
  6
CONTINUOUS
 10
-23.4271973803
 20
-5.2259266266
 11
-23.8321356233
 21
-5.9439138538
  0
LINE
  5
246
100
AcDbEntity
  8
RACCORDO
100
AcDbLine
 62
7
  6
CONTINUOUS
 10
-23.3968613212
 20
-5.2439586961
 11
-23.8017995644
 21
-5.9619459237
  0
LINE
  5
247
100
AcDbEntity
  8
RACCORDO
100
AcDbLine
 62
7
  6
CONTINUOUS
 10
-20.1691303377
 20
2.9855966897
 11
-20.6917426058
 21
2.2522233346
  0
LINE
  5
248
100
AcDbEntity
  8
RACCORDO
100
AcDbLine
 62
7
  6
CONTINUOUS
 10
-22.185347469
 20
-0.1384425551
 11
-21.3342213723
 21
0.9339469215
  0
LINE
  5
249
100
AcDbEntity
  8
SMUSSO
100
AcDbLine
 62
7
  6
CONTINUOUS
 10
-21.7351891552
 20
4.7494590416
 11
-23.3710653404
 21
3.8215547418
  0
LINE
  5
24A
100
AcDbEntity
  8
RACCORDO
100
AcDbLine
 62
250
  6
CONTINUOUS
 10
-23.3710653404
 20
-2.7297718524
 11
-20.1027945922
 21
0.2462806112
  0
LINE
  5
24B
100
AcDbEntity
  8
RACCORDO
100
AcDbLine
 62
7
  6
CONTINUOUS
 10
-23.3710653404
 20
-2.7894307971
 11
-20.222004466
 21
0.0780704276
  0
LINE
  5
24C
100
AcDbEntity
  8
RACCORDO
100
AcDbLine
 62
7
  6
CONTINUOUS
 10
-23.3710653404
 20
-1.0795263706
 11
-22.4443215477
 21
-0.3929789268
  0
LINE
  5
24D
100
AcDbEntity
  8
RACCORDO
100
AcDbLine
 62
7
  6
CONTINUOUS
 10
-21.0937579904
 20
1.8683306644
 11
-21.3342213723
 21
1.7270241696
  0
LINE
  5
24E
100
AcDbEntity
  8
RACCORDO
100
AcDbLine
 62
7
  6
CONTINUOUS
 10
-21.3342213723
 20
0.9339469215
 11
-21.0937579904
 21
1.0752107527
  0
LINE
  5
24F
100
AcDbEntity
  8
RACCORDO
100
AcDbLine
 62
7
  6
CONTINUOUS
 10
-22.4443215477
 20
1.7494629647
 11
-23.3710653404
 21
1.3469868177
  0
LINE
  5
250
100
AcDbEntity
  8
RACCORDO
100
AcDbLine
 62
250
  6
CONTINUOUS
 10
-21.8505962741
 20
-10.1741221573
 11
-21.8048324824
 21
-10.1745833356
  0
LINE
  5
251
100
AcDbEntity
  8
RACCORDO
100
AcDbLine
 62
7
  6
CONTINUOUS
 10
-21.9128039144
 20
-10.1382042454
 11
-21.8052852553
 21
-10.1392877499
  0
LINE
  5
252
100
AcDbEntity
  8
DRAFT
100
AcDbLine
 62
7
  6
CONTINUOUS
 10
-21.3342213723
 20
0.9339469215
 11
-22.6263075891
 21
1.6704281318
  0
LINE
  5
253
100
AcDbEntity
  8
RACCORDO
100
AcDbLine
 62
250
  6
CONTINUOUS
 10
-22.4443215477
 20
-0.3929789268
 11
-23.3710653404
 21
0.1361390094
  0
LINE
  5
254
100
AcDbEntity
  8
RACCORDO
100
AcDbLine
 62
250
  6
CONTINUOUS
 10
-22.185347469
 20
-0.1384425551
 11
-23.3710653404
 21
0.5385348339
  0
LINE
  5
255
100
AcDbEntity
  8
RACCORDO
100
AcDbLine
 62
7
  6
CONTINUOUS
 10
-21.7351891552
 20
4.7494590416
 11
-21.8501916545
 21
4.8580581675
  0
LINE
  5
256
100
AcDbEntity
  8
RACCORDO
100
AcDbLine
 62
7
  6
CONTINUOUS
 10
-19.9898134584
 20
3.7550590268
 11
-20.1027945922
 21
3.8617493374
  0
LINE
  5
257
100
AcDbEntity
  8
RACCORDO
100
AcDbLine
 62
250
  6
CONTINUOUS
 10
-25.6715271169
 20
-8.4067737923
 11
-25.3030172261
 21
-8.1940018492
  0
LINE
  5
258
100
AcDbEntity
  8
RACCORDO
100
AcDbLine
 62
250
  6
CONTINUOUS
 10
-25.3180948803
 20
-9.0189363826
 11
-24.9495849894
 21
-8.8061644396
  0
LINE
  5
259
100
AcDbEntity
  8
RACCORDO
100
AcDbLine
 62
250
  6
CONTINUOUS
 10
-21.3918993565
 20
1.7319186045
 11
-20.1691303377
 21
1.0444816261
  0
LINE
  5
25A
100
AcDbEntity
  8
RACCORDO
100
AcDbLine
 62
7
  6
CONTINUOUS
 10
-21.3716086603
 20
1.7301967778
 11
-20.1149390858
 21
1.0237010114
  0
LINE
  5
25B
100
AcDbEntity
  8
RACCORDO
100
AcDbLine
 62
250
  6
CONTINUOUS
 10
-22.3482972726
 20
1.782983925
 11
-21.0937579904
 21
1.0752107527
  0
LINE
  5
25C
100
AcDbEntity
  8
RACCORDO
100
AcDbLine
 62
250
  6
CONTINUOUS
 10
-21.7532130407
 20
1.7625789399
 11
-20.6917426058
 21
1.1637293801
  0
LINE
  5
25D
100
AcDbEntity
  8
SMUSSO
100
AcDbLine
 62
7
  6
CONTINUOUS
 10
-20.8354130842
 20
4.2368351816
 11
-21.7372105208
 21
4.7498401681
  0
LINE
  5
25E
100
AcDbEntity
  8
RACCORDO
100
AcDbLine
 62
7
  6
CONTINUOUS
 10
-22.4228808057
 20
5.2369138972
 11
-22.1323640147
 21
5.0712706954
  0
LINE
  5
25F
100
AcDbEntity
  8
RACCORDO
100
AcDbLine
 62
7
  6
CONTINUOUS
 10
-20.6752175658
 20
4.2404533013
 11
-20.3849669523
 21
4.0749618653
  0
LINE
  5
260
100
AcDbEntity
  8
RACCORDO
100
AcDbLine
 62
250
  6
CONTINUOUS
 10
-23.9135323108
 20
-8.8613055094
 11
-24.0189234329
 21
-8.9221572314
  0
LINE
  5
261
100
AcDbEntity
  8
RACCORDO
100
AcDbLine
 62
250
  6
CONTINUOUS
 10
-25.3030172261
 20
-8.0517843246
 11
-24.8862049115
 21
-7.902227922
  0
LINE
  5
262
100
AcDbEntity
  8
RACCORDO
100
AcDbLine
 62
250
  6
CONTINUOUS
 10
-24.7766882655
 20
-8.9059928411
 11
-24.36759685
 21
-8.7592067739
  0
LINE
  5
263
100
AcDbEntity
  8
RACCORDO
100
AcDbLine
 62
7
  6
CONTINUOUS
 10
-21.3342213723
 20
1.7270241696
 11
-22.185347469
 21
1.7992489779
  0
LINE
  5
264
100
AcDbEntity
  8
RACCORDO
100
AcDbLine
 62
7
  6
CONTINUOUS
 10
-20.6917426058
 20
1.1637293801
 11
-20.1691303377
 21
1.0444816261
  0
LINE
  5
265
100
AcDbEntity
  8
RACCORDO
100
AcDbLine
 62
250
  6
CONTINUOUS
 10
-20.1027945922
 20
3.8617493374
 11
-23.3710653404
 21
2.9972322995
  0
LINE
  5
266
100
AcDbEntity
  8
RACCORDO
100
AcDbLine
 62
250
  6
CONTINUOUS
 10
-20.3849669523
 20
4.0749618653
 11
-23.3710653404
 21
3.2850845472
  0
LINE
  5
267
100
AcDbEntity
  8
RACCORDO
100
AcDbLine
 62
250
  6
CONTINUOUS
 10
-23.3710653404
 20
4.4557594245
 11
-21.8501916545
 21
4.8580581675
  0
LINE
  5
268
100
AcDbEntity
  8
RACCORDO
100
AcDbLine
 62
250
  6
CONTINUOUS
 10
-23.3710653404
 20
4.7436116722
 11
-22.1323640147
 21
5.0712706954
  0
LINE
  5
269
100
AcDbEntity
  8
RACCORDO
100
AcDbLine
 62
250
  6
CONTINUOUS
 10
-20.6752175658
 20
4.2404533013
 11
-23.3710653404
 21
3.5666236956
  0
LINE
  5
26A
100
AcDbEntity
  8
RACCORDO
100
AcDbLine
 62
7
  6
CONTINUOUS
 10
-20.7309285515
 20
4.2629511857
 11
-23.3710653404
 21
3.6030465916
  0
LINE
  5
26B
100
AcDbEntity
  8
RACCORDO
100
AcDbLine
 62
250
  6
CONTINUOUS
 10
-23.3710653404
 20
4.9999143094
 11
-22.4228808057
 21
5.2369138972
  0
LINE
  5
26C
100
AcDbEntity
  8
RACCORDO
100
AcDbLine
 62
7
  6
CONTINUOUS
 10
-23.3710653404
 20
5.0363372054
 11
-22.4785917914
 21
5.2594117816
  0
LINE
  5
26D
100
AcDbEntity
  8
RACCORDO
100
AcDbLine
 62
250
  6
CONTINUOUS
 10
44.8807710347
 20
11.2745922042
 11
44.0825685014
 21
10.7973451337
  0
LINE
  5
26E
100
AcDbEntity
  8
RACCORDO
100
AcDbLine
 62
250
  6
CONTINUOUS
 10
40.7278948688
 20
10.6537876923
 11
43.1286951212
 21
12.0399663272
  0
LINE
  5
26F
100
AcDbEntity
  8
RACCORDO
100
AcDbLine
 62
250
  6
CONTINUOUS
 10
41.7871014427
 20
8.8191880926
 11
44.187901695
 21
10.2053667274
  0
LINE
  5
270
100
AcDbEntity
  8
RACCORDO
100
AcDbLine
 62
250
  6
CONTINUOUS
 10
44.4010462796
 20
12.1054998527
 11
43.5886573417
 21
11.6528101361
  0
LINE
  5
271
100
AcDbEntity
  8
RACCORDO
100
AcDbLine
 62
250
  6
CONTINUOUS
 10
-22.4443215477
 20
31.4493618681
 11
-23.3710653404
 21
31.9784798043
  0
LINE
  5
272
100
AcDbEntity
  8
RACCORDO
100
AcDbLine
 62
250
  6
CONTINUOUS
 10
-22.185347469
 20
31.7038982398
 11
-23.3710653404
 21
32.3808756288
  0
LINE
  5
273
100
AcDbEntity
  8
RACCORDO
100
AcDbLine
 62
7
  6
CONTINUOUS
 10
-25.462549159
 20
34.7130226909
 11
21.8972992113
 21
7.3680398002
  0
LINE
  5
274
100
AcDbEntity
  8
RACCORDO
100
AcDbLine
 62
250
  6
CONTINUOUS
 10
-25.5246739453
 20
34.8503437493
 11
21.8351744249
 21
7.5053608586
  0
LWPOLYLINE
  5
275
100
AcDbEntity
  8
RACCORDO
100
AcDbPolyline
 62
7
  6
CONTINUOUS
 90
27
 70
0
 10
21.8973195505
 20
7.3680280598
 10
21.9086943768
 20
7.3612420165
 10
21.9297490059
 20
7.3475648983
 10
21.9520461716
 20
7.3315458774
 10
21.9752077696
 20
7.3132608652
 10
21.9990273778
 20
7.2927055169
 10
22.0233176445
 20
7.2698819599
 10
22.0477441656
 20
7.2449645186
 10
22.0721062923
 20
7.2180408048
 10
22.0962103951
 20
7.1892141646
 10
22.119764837
 20
7.1587432942
 10
22.1425897105
 20
7.1267941455
 10
22.1645161786
 20
7.0935443452
 10
22.1853111509
 20
7.0593123423
 10
22.2048391206
 20
7.0243128985
 10
22.2229777872
 20
6.9887689965
 10
22.2395625376
 20
6.9530400786
 10
22.2545192259
 20
6.9173609803
 10
22.2677893436
 20
6.8819702161
 10
22.2792886924
 20
6.8472488722
 10
22.2890190865
 20
6.8134180671
 10
22.2969992137
 20
6.7806980966
 10
22.3032382522
 20
6.7494677058
 10
22.3078221135
 20
6.7198958217
 10
22.3108519809
 20
6.6921625746
 10
22.3124437198
 20
6.6666345619
 10
22.3127980428
 20
6.648414213
  0
LINE
  5
276
100
AcDbEntity
  8
RACCORDO
100
AcDbLine
 62
7
  6
CONTINUOUS
 10
22.3127980379
 20
6.6483830921
 11
22.3127980379
 21
-36.2791255624
  0
LINE
  5
277
100
AcDbEntity
  8
RACCORDO
100
AcDbLine
 62
250
  6
CONTINUOUS
 10
22.4006660036
 20
6.5259007141
 11
22.4006660036
 21
-36.4016079403
  0
LWPOLYLINE
  5
278
100
AcDbEntity
  8
RACCORDO
100
AcDbPolyline
 62
7
  6
CONTINUOUS
 90
9
 70
0
 10
22.3127980779
 20
-36.2792149213
 10
22.3124866761
 20
-36.2956236631
 10
22.3110757854
 20
-36.3168972506
 10
22.3086762611
 20
-36.3358893709
 10
22.3054667254
 20
-36.3525015551
 10
22.301725723
 20
-36.3663889105
 10
22.2979394367
 20
-36.3770088683
 10
22.2946501324
 20
-36.3842215214
 10
22.2940873587
 20
-36.3852894753
  0
LWPOLYLINE
  5
279
100
AcDbEntity
  8
RACCORDO
100
AcDbPolyline
 62
7
  6
CONTINUOUS
 90
4
 70
0
 10
-25.51407678
 20
34.7379554917
 10
-25.4964890724
 20
34.7305858311
 10
-25.4774196143
 20
34.721227392
 10
-25.4626204322
 20
34.7130638823
  0
LINE
  5
27A
100
AcDbEntity
  8
RACCORDO
100
AcDbLine
 62
250
  6
CONTINUOUS
 10
40.392845033
 20
10.05265845
 11
-44.0823445534
 21
58.8275741943
  0
LINE
  5
27B
100
AcDbEntity
  8
RACCORDO
100
AcDbLine
 62
250
  6
CONTINUOUS
 10
40.7278948688
 20
10.6537876923
 11
-43.7472947176
 21
59.4287034367
  0
LINE
  5
27C
100
AcDbEntity
  8
0
100
AcDbLine
 62
7
  6
CONTINUOUS
 10
43.1286951212
 20
12.0399663272
 11
-41.5856044608
 21
60.9529411862
  0
LINE
  5
27D
100
AcDbEntity
  8
RACCORDO
100
AcDbLine
 62
250
  6
CONTINUOUS
 10
-40.307434921
 20
61.0151152514
 11
44.4010462796
 21
12.1054998527
  0
LINE
  5
27E
100
AcDbEntity
  8
RACCORDO
100
AcDbLine
 62
7
  6
CONTINUOUS
 10
-40.209898232
 20
61.0236232826
 11
44.4985829687
 21
12.1140078839
  0
LINE
  5
27F
100
AcDbEntity
  8
RACCORDO
100
AcDbLine
 62
250
  6
CONTINUOUS
 10
41.0989827489
 20
-60.2976467639
 11
41.0989827489
 21
8.8295920501
  0
LINE
  5
280
100
AcDbEntity
  8
RACCORDO
100
AcDbLine
 62
250
  6
CONTINUOUS
 10
41.7871014427
 20
-60.3080507214
 11
41.7871014427
 21
8.8191880926
  0
LINE
  5
281
100
AcDbEntity
  8
0
100
AcDbLine
 62
7
  6
CONTINUOUS
 10
44.187901695
 20
-59.1979636324
 11
44.187901695
 21
10.2053667274
  0
LINE
  5
282
100
AcDbEntity
  8
RACCORDO
100
AcDbLine
 62
250
  6
CONTINUOUS
 10
44.8807710347
 20
11.2745922042
 11
44.8807710347
 21
-58.122019884
  0
LINE
  5
283
100
AcDbEntity
  8
RACCORDO
100
AcDbLine
 62
7
  6
CONTINUOUS
 10
44.9369030746
 20
11.3548096116
 11
44.9369030746
 21
-58.0418024766
  0
LINE
  5
284
100
AcDbEntity
  8
RACCORDO
100
AcDbLine
 62
250
  6
CONTINUOUS
 10
22.04175349
 20
-36.3639192733
 11
22.3127980379
 21
-36.1905894271
  0
LINE
  5
285
100
AcDbEntity
  8
RACCORDO
100
AcDbLine
 62
7
  6
CONTINUOUS
 10
22.2959136035
 20
-36.386211874
 11
22.2957291061
 21
-36.3863296878
  0
LINE
  5
286
100
AcDbEntity
  8
DRAFT
100
AcDbLine
 62
7
  6
CONTINUOUS
 10
44.744439869
 20
-58.4301018631
 11
44.187901695
 21
-58.7675033463
  0
LINE
  5
287
100
AcDbEntity
  8
RACCORDO
100
AcDbLine
 62
250
  6
CONTINUOUS
 10
44.8807710347
 20
-58.122019884
 11
44.187901695
 21
-58.5362880038
  0
LINE
  5
288
100
AcDbEntity
  8
RACCORDO
100
AcDbLine
 62
250
  6
CONTINUOUS
 10
41.7871014427
 20
-60.3080507214
 11
44.187901695
 21
-59.1979636324
  0
LINE
  5
289
100
AcDbEntity
  8
RACCORDO
100
AcDbLine
 62
7
  6
CONTINUOUS
 10
41.4289208243
 20
-61.018539219
 11
43.8377129634
 21
-59.9047568245
  0
ARC
  5
28A
100
AcDbEntity
  8
RACCORDO
100
AcDbCircle
 62
250
  6
CONTINUOUS
 10
-23.2205144161
 20
-6.2888059641
 40
0.7021617113
100
AcDbArc
 50
150.5814261328
 51
153.4369685216
  0
ARC
  5
28B
100
AcDbEntity
  8
RACCORDO
100
AcDbCircle
 62
250
  6
CONTINUOUS
 10
-23.2344195893
 20
-6.2822907876
 40
0.6868109681
100
AcDbArc
 50
153.4043759776
 51
159.1206143012
  0
ARC
  5
28C
100
AcDbEntity
  8
RACCORDO
100
AcDbCircle
 62
250
  6
CONTINUOUS
 10
-23.2753869432
 20
-6.2663948495
 40
0.6428685343
100
AcDbArc
 50
159.1430074246
 51
162.1815229518
  0
ARC
  5
28D
100
AcDbEntity
  8
RACCORDO
100
AcDbCircle
 62
250
  6
CONTINUOUS
 10
-25.1736232092
 20
-8.3573807344
 40
0.560476017
100
AcDbArc
 50
359.9978652219
 51
1.5215349639
  0
ARC
  5
28E
100
AcDbEntity
  8
RACCORDO
100
AcDbCircle
 62
250
  6
CONTINUOUS
 10
-40.5331082023
 20
60.852007623
 40
0.2271397792
100
AcDbArc
 50
115.3395467954
 51
118.777131688
  0
ARC
  5
28F
100
AcDbEntity
  8
RACCORDO
100
AcDbCircle
 62
7
  6
CONTINUOUS
 10
-21.8073006254
 20
-10.3392775953
 40
0.2
100
AcDbArc
 50
60.0035440893
 51
89.4224568711
  0
ARC
  5
290
100
AcDbEntity
  8
RACCORDO
100
AcDbCircle
 62
7
  6
CONTINUOUS
 10
-23.5710653404
 20
-5.1457092192
 40
0.2
100
AcDbArc
 50
330.5776384002
 51
0.0350245858
  0
ARC
  5
291
100
AcDbEntity
  8
RACCORDO
100
AcDbCircle
 62
250
  6
CONTINUOUS
 10
-21.7221497913
 20
-10.3226143014
 40
0.169557053
100
AcDbArc
 50
114.0160486112
 51
119.1855406114
  0
ARC
  5
292
100
AcDbEntity
  8
RACCORDO
100
AcDbCircle
 62
250
  6
CONTINUOUS
 10
-23.5139284371
 20
-5.0805383369
 40
0.1692927376
100
AcDbArc
 50
300.8180941973
 51
306.0099394588
  0
ARC
  5
293
100
AcDbEntity
  8
RACCORDO
100
AcDbCircle
 62
250
  6
CONTINUOUS
 10
-25.4871179043
 20
34.6040772022
 40
0.1665627016
100
AcDbArc
 50
117.4751384162
 51
119.5390985138
  0
SPLINE
  5
294
100
AcDbEntity
  8
0
100
AcDbSpline
 62
7
  6
CONTINUOUS
 70
0
 71
3
 72
11
 73
7
 74
0
 42
0.0000001
 43
0.0000001
 44
0.0000000001
 40
0.0
 40
0.0
 40
0.0
 40
0.0
 40
0.2915028108
 40
0.5502118295
 40
0.7818910569
 40
1.0
 40
1.0
 40
1.0
 40
1.0
 10
-41.5856044608
 20
60.9529411862
 30
0.0
 10
-41.655519344
 20
60.9933091635
 30
0.0
 10
-41.7944892274
 20
61.0585348126
 30
0.0
 10
-42.0082304966
 20
61.1055566457
 30
0.0
 10
-42.2071983288
 20
61.0908951343
 30
0.0
 10
-42.323553191
 20
61.0379107389
 30
0.0
 10
-42.3728937316
 20
61.0030633637
 30
0.0
  0
SPLINE
  5
295
100
AcDbEntity
  8
0
100
AcDbSpline
 62
7
  6
CONTINUOUS
 70
0
 71
3
 72
15
 73
11
 74
0
 42
0.0000001
 43
0.0000001
 44
0.0000000001
 40
0.0
 40
0.0
 40
0.0
 40
0.0
 40
0.1142413001
 40
0.2374032818
 40
0.3670261888
 40
0.4999939441
 40
0.6329625441
 40
0.7625879086
 40
0.8857537676
 40
1.0
 40
1.0
 40
1.0
 40
1.0
 10
44.187901695
 20
10.2053667274
 30
0.0
 10
44.187901695
 20
10.2891614621
 30
0.0
 10
44.1724685856
 20
10.4634427229
 30
0.0
 10
44.1115495634
 20
10.726389872
 30
0.0
 10
44.0135099629
 20
10.9925397715
 30
0.0
 10
43.8826408241
 20
11.2521750674
 30
0.0
 10
43.7232235609
 20
11.4953301569
 30
0.0
 10
43.5417479835
 20
11.7133143558
 30
0.0
 10
43.3444841823
 20
11.8975526612
 30
0.0
 10
43.2012654543
 20
11.9980651263
 30
0.0
 10
43.1286951212
 20
12.0399663272
 30
0.0
  0
SPLINE
  5
296
100
AcDbEntity
  8
RACCORDO
100
AcDbSpline
 62
7
  6
CONTINUOUS
 70
0
 71
3
 72
10
 73
6
 74
0
 42
0.0000001
 43
0.0000001
 44
0.0000000001
 40
0.0
 40
0.0
 40
0.0
 40
0.0
 40
0.5051364972
 40
0.7527358931
 40
1.0
 40
1.0
 40
1.0
 40
1.0
 10
-40.209898232
 20
61.0236232826
 30
0.0
 10
-40.2756465428
 20
61.0615855332
 30
0.0
 10
-40.3867128812
 20
61.1018839504
 30
0.0
 10
-40.538548674
 20
61.0946388625
 30
0.0
 10
-40.6098820846
 20
61.0689884161
 30
0.0
 10
-40.6424556929
 20
61.0510980642
 30
0.0
  0
SPLINE
  5
297
100
AcDbEntity
  8
RACCORDO
100
AcDbSpline
 62
7
  6
CONTINUOUS
 70
0
 71
3
 72
11
 73
7
 74
0
 42
0.0000001
 43
0.0000001
 44
0.0000000001
 40
0.0
 40
0.0
 40
0.0
 40
0.0
 40
0.2427199634
 40
0.5000053113
 40
0.7572894335
 40
1.0
 40
1.0
 40
1.0
 40
1.0
 10
44.9369030746
 20
11.3548096116
 30
0.0
 10
44.9369030746
 20
11.4284494067
 30
0.0
 10
44.9114481241
 20
11.5804689219
 30
0.0
 10
44.8185511728
 20
11.7926149536
 30
0.0
 10
44.6812748759
 20
11.9791346944
 30
0.0
 10
44.5623534057
 20
12.0771876328
 30
0.0
 10
44.4985829687
 20
12.1140078839
 30
0.0
  0
SPLINE
  5
298
100
AcDbEntity
  8
RACCORDO
100
AcDbSpline
 62
7
  6
CONTINUOUS
 70
0
 71
3
 72
10
 73
6
 74
0
 42
0.0000001
 43
0.0000001
 44
0.0000000001
 40
0.0
 40
0.0
 40
0.0
 40
0.0
 40
0.2472549201
 40
0.4948629116
 40
1.0
 40
1.0
 40
1.0
 40
1.0
 10
44.744439869
 20
-58.4301018631
 30
0.0
 10
44.7762141197
 20
-58.4108387113
 30
0.0
 10
44.8340848377
 20
-58.3618907241
 30
0.0
 10
44.9162701598
 20
-58.2340370871
 30
0.0
 10
44.9369030746
 20
-58.1177143267
 30
0.0
 10
44.9369030746
 20
-58.0418024766
 30
0.0
  0
SPLINE
  5
299
100
AcDbEntity
  8
0
100
AcDbSpline
 62
7
  6
CONTINUOUS
 70
0
 71
3
 72
11
 73
7
 74
0
 42
0.0000001
 43
0.0000001
 44
0.0000000001
 40
0.0
 40
0.0
 40
0.0
 40
0.0
 40
0.2181144452
 40
0.4497960477
 40
0.7085029639
 40
1.0
 40
1.0
 40
1.0
 40
1.0
 10
43.8377032826
 20
-59.9047387897
 30
0.0
 10
43.8925445026
 20
-59.87943217
 30
0.0
 10
43.996591819
 20
-59.805164225
 30
0.0
 10
44.1087586743
 20
-59.6402067526
 30
0.0
 10
44.1749016865
 20
-59.4316228402
 30
0.0
 10
44.187901695
 20
-59.2786827121
 30
0.0
 10
44.187901695
 20
-59.1979636324
 30
0.0
  0
SPLINE
  5
29A
100
AcDbEntity
  8
RACCORDO
100
AcDbSpline
 62
250
  6
CONTINUOUS
 70
0
 71
3
 72
15
 73
11
 74
0
 42
0.0000001
 43
0.0000001
 44
0.0000000001
 40
0.0
 40
0.0
 40
0.0
 40
0.0
 40
0.1449059685
 40
0.2745376473
 40
0.3911328346
 40
0.5000036044
 40
0.6088714212
 40
0.7254620726
 40
0.8550943123
 40
1.0
 40
1.0
 40
1.0
 40
1.0
 10
40.392845033
 20
-60.7052830293
 30
0.0
 10
40.4366917154
 20
-60.7305978612
 30
0.0
 10
40.523865886
 20
-60.772122677
 30
0.0
 10
40.6578514783
 20
-60.8045317953
 30
0.0
 10
40.7836697561
 20
-60.8014246587
 30
0.0
 10
40.8956627166
 20
-60.7608564222
 30
0.0
 10
40.9868040157
 20
-60.6841678372
 30
0.0
 10
41.0524168487
 20
-60.5767695705
 30
0.0
 10
41.0913517677
 20
-60.4445338098
 30
0.0
 10
41.0989811557
 20
-60.3482764225
 30
0.0
 10
41.0989827489
 20
-60.2976467639
 30
0.0
  0
SPLINE
  5
29B
100
AcDbEntity
  8
RACCORDO
100
AcDbSpline
 62
250
  6
CONTINUOUS
 70
0
 71
3
 72
15
 73
11
 74
0
 42
0.0000001
 43
0.0000001
 44
0.0000000001
 40
0.0
 40
0.0
 40
0.0
 40
0.0
 40
0.144896311
 40
0.2745168065
 40
0.3911015201
 40
0.4999795424
 40
0.6088581054
 40
0.7254444943
 40
0.8550844212
 40
1.0
 40
1.0
 40
1.0
 40
1.0
 10
22.4006660036
 20
-36.4016079403
 30
0.0
 10
22.4006646033
 20
-36.4421428154
 30
0.0
 10
22.3945436339
 20
-36.5192073201
 30
0.0
 10
22.3633352143
 20
-36.6250676554
 30
0.0
 10
22.3107648461
 20
-36.7110318894
 30
0.0
 10
22.2377831364
 20
-36.7724237014
 30
0.0
 10
22.1481233841
 20
-36.8049267864
 30
0.0
 10
22.0473849833
 20
-36.8074699118
 30
0.0
 10
21.9400928149
 20
-36.7815597769
 30
0.0
 10
21.870283787
 20
-36.7483219159
 30
0.0
 10
21.8351744249
 20
-36.7280525843
 30
0.0
  0
SPLINE
  5
29C
100
AcDbEntity
  8
RACCORDO
100
AcDbSpline
 62
250
  6
CONTINUOUS
 70
0
 71
3
 72
9
 73
5
 74
0
 42
0.0000001
 43
0.0000001
 44
0.0000000001
 40
0.0
 40
0.0
 40
0.0
 40
0.0
 40
0.2392935664
 40
1.0
 40
1.0
 40
1.0
 40
1.0
 10
21.8351744249
 20
7.5053608586
 30
0.0
 10
21.8476764359
 20
7.4981417784
 30
0.0
 10
21.8990477994
 20
7.4664677969
 30
0.0
 10
21.9469340342
 20
7.4292772991
 30
0.0
 10
21.9812828777
 20
7.3988410012
 30
0.0
  0
SPLINE
  5
29D
100
AcDbEntity
  8
RACCORDO
100
AcDbSpline
 62
250
  6
CONTINUOUS
 70
0
 71
3
 72
11
 73
7
 74
0
 42
0.0000001
 43
0.0000001
 44
0.0000000001
 40
0.0
 40
0.0
 40
0.0
 40
0.0
 40
0.2514367197
 40
0.5139099908
 40
0.7689955526
 40
1.0
 40
1.0
 40
1.0
 40
1.0
 10
21.9812828777
 20
7.3988410012
 30
0.0
 10
22.0435505992
 20
7.3436659582
 30
0.0
 10
22.1579151606
 20
7.215910739
 30
0.0
 10
22.2898396042
 20
6.9967314681
 30
0.0
 10
22.3768344021
 20
6.7633430421
 30
0.0
 10
22.4006630422
 20
6.6023359236
 30
0.0
 10
22.4006660036
 20
6.5259007141
 30
0.0
  0
SPLINE
  5
29E
100
AcDbEntity
  8
RACCORDO
100
AcDbSpline
 62
250
  6
CONTINUOUS
 70
0
 71
3
 72
10
 73
6
 74
0
 42
0.0000001
 43
0.0000001
 44
0.0000000001
 40
0.0
 40
0.0
 40
0.0
 40
0.0
 40
0.2193669294
 40
0.4536359759
 40
1.0
 40
1.0
 40
1.0
 40
1.0
 10
-23.8574091468
 20
-8.7811552636
 30
0.0
 10
-23.857415933
 20
-8.7885954221
 30
0.0
 10
-23.8600936206
 20
-8.8040858143
 30
0.0
 10
-23.8762189689
 20
-8.8343980885
 30
0.0
 10
-23.8976276118
 20
-8.8517960545
 30
0.0
 10
-23.9135323108
 20
-8.8613055094
 30
0.0
  0
SPLINE
  5
29F
100
AcDbEntity
  8
RACCORDO
100
AcDbSpline
 62
250
  6
CONTINUOUS
 70
0
 71
3
 72
11
 73
7
 74
0
 42
0.0000001
 43
0.0000001
 44
0.0000000001
 40
0.0
 40
0.0
 40
0.0
 40
0.0
 40
0.2897145659
 40
0.5490723713
 40
0.7822092053
 40
1.0
 40
1.0
 40
1.0
 40
1.0
 10
-44.7884822693
 20
58.4199379289
 30
0.0
 10
-44.8104227811
 20
58.4326061054
 30
0.0
 10
-44.8502273731
 20
58.4600202772
 30
0.0
 10
-44.8977961315
 20
58.5100200158
 30
0.0
 10
-44.9278864059
 20
58.5653269218
 30
0.0
 10
-44.9349312126
 20
58.6050236478
 30
0.0
 10
-44.9349280133
 20
58.6240691443
 30
0.0
  0
SPLINE
  5
2A0
100
AcDbEntity
  8
RACCORDO
100
AcDbSpline
 62
250
  6
CONTINUOUS
 70
0
 71
3
 72
11
 73
7
 74
0
 42
0.0000001
 43
0.0000001
 44
0.0000000001
 40
0.0
 40
0.0
 40
0.0
 40
0.0
 40
0.2357278093
 40
0.4967865444
 40
0.7595836052
 40
1.0
 40
1.0
 40
1.0
 40
1.0
 10
-44.0823445534
 20
58.8275741943
 30
0.0
 10
-44.0823445589
 20
58.8834806114
 30
0.0
 10
-44.0620733113
 20
59.0013895111
 30
0.0
 10
-43.9907699872
 20
59.168199364
 30
0.0
 10
-43.8856383593
 20
59.3174069894
 30
0.0
 10
-43.7953654389
 20
59.398039091
 30
0.0
 10
-43.7472947176
 20
59.4287034367
 30
0.0
  0
SPLINE
  5
2A1
100
AcDbEntity
  8
RACCORDO
100
AcDbSpline
 62
250
  6
CONTINUOUS
 70
0
 71
3
 72
11
 73
7
 74
0
 42
0.0000001
 43
0.0000001
 44
0.0000000001
 40
0.0
 40
0.0
 40
0.0
 40
0.0
 40
0.2357278169
 40
0.4967865576
 40
0.7595836173
 40
1.0
 40
1.0
 40
1.0
 40
1.0
 10
40.392845033
 20
10.05265845
 30
0.0
 10
40.392845033
 20
10.108564868
 30
0.0
 10
40.4131162904
 20
10.226473767
 30
0.0
 10
40.4844196203
 20
10.393283617
 30
0.0
 10
40.5895512427
 20
10.54249124
 30
0.0
 10
40.6798241534
 20
10.6231233441
 30
0.0
 10
40.7278948688
 20
10.6537876923
 30
0.0
  0
SPLINE
  5
2A2
100
AcDbEntity
  8
RACCORDO
100
AcDbSpline
 62
250
  6
CONTINUOUS
 70
0
 71
3
 72
11
 73
7
 74
0
 42
0.0000001
 43
0.0000001
 44
0.0000000001
 40
0.0
 40
0.0
 40
0.0
 40
0.0
 40
0.2357336649
 40
0.4967928207
 40
0.7595869198
 40
1.0
 40
1.0
 40
1.0
 40
1.0
 10
41.0989827489
 20
8.8295920501
 30
0.0
 10
41.1473998843
 20
8.8016366093
 30
0.0
 10
41.2596487179
 20
8.7602335304
 30
0.0
 10
41.4397639705
 20
8.738576596
 30
0.0
 10
41.6215473693
 20
8.7550209088
 30
0.0
 10
41.7365116772
 20
8.7928873896
 30
0.0
 10
41.7871014427
 20
8.8191880926
 30
0.0
  0
SPLINE
  5
2A3
100
AcDbEntity
  8
RACCORDO
100
AcDbSpline
 62
250
  6
CONTINUOUS
 70
0
 71
3
 72
11
 73
7
 74
0
 42
0.0000001
 43
0.0000001
 44
0.0000000001
 40
0.0
 40
0.0
 40
0.0
 40
0.0
 40
0.2357336794
 40
0.496792835
 40
0.7595869266
 40
1.0
 40
1.0
 40
1.0
 40
1.0
 10
41.0989827489
 20
-60.2976467639
 30
0.0
 10
41.1473998852
 20
-60.3256022116
 30
0.0
 10
41.2596487215
 20
-60.3670053003
 30
0.0
 10
41.4397639787
 20
-60.3886622377
 30
0.0
 10
41.6215473766
 20
-60.3722179183
 30
0.0
 10
41.7365116804
 20
-60.3343514287
 30
0.0
 10
41.7871014427
 20
-60.3080507214
 30
0.0
  0
SPLINE
  5
2A4
100
AcDbEntity
  8
RACCORDO
100
AcDbSpline
 62
250
  6
CONTINUOUS
 70
0
 71
3
 72
11
 73
7
 74
0
 42
0.0000001
 43
0.0000001
 44
0.0000000001
 40
0.0
 40
0.0
 40
0.0
 40
0.0
 40
0.2897199649
 40
0.5490791136
 40
0.782213746
 40
1.0
 40
1.0
 40
1.0
 40
1.0
 10
40.392845033
 20
-60.7052830293
 30
0.0
 10
40.3928450355
 20
-60.7306150492
 30
0.0
 10
40.3966819762
 20
-60.7787877963
 30
0.0
 10
40.416193103
 20
-60.8449752567
 30
0.0
 10
40.4490376806
 20
-60.8986812257
 30
0.0
 10
40.4798877446
 20
-60.9246278659
 30
0.0
 10
40.4963801973
 20
-60.9341469151
 30
0.0
  0
SPLINE
  5
2A5
100
AcDbEntity
  8
RACCORDO
100
AcDbSpline
 62
250
  6
CONTINUOUS
 70
0
 71
3
 72
11
 73
7
 74
0
 42
0.0000001
 43
0.0000001
 44
0.0000000001
 40
0.0
 40
0.0
 40
0.0
 40
0.0
 40
0.2897208435
 40
0.5490797446
 40
0.7822136639
 40
1.0
 40
1.0
 40
1.0
 40
1.0
 10
-44.0823445534
 20
-11.9303672849
 30
0.0
 10
-44.0823445534
 20
-11.9557001071
 30
0.0
 10
-44.0785073847
 20
-12.0038743031
 30
0.0
 10
-44.0589949751
 20
-12.0700634949
 30
0.0
 10
-44.0261481803
 20
-12.1237702364
 30
0.0
 10
-43.9952961782
 20
-12.1497163974
 30
0.0
 10
-43.978802811
 20
-12.1592349675
 30
0.0
  0
SPLINE
  5
2A6
100
AcDbEntity
  8
RACCORDO
100
AcDbSpline
 62
250
  6
CONTINUOUS
 70
0
 71
3
 72
11
 73
7
 74
0
 42
0.0000001
 43
0.0000001
 44
0.0000000001
 40
0.0
 40
0.0
 40
0.0
 40
0.0
 40
0.289715264
 40
0.5490728574
 40
0.7822091287
 40
1.0
 40
1.0
 40
1.0
 40
1.0
 10
-44.7884822693
 20
-10.7073008851
 30
0.0
 10
-44.8104233368
 20
-10.6946323906
 30
0.0
 10
-44.8502288398
 20
-10.6672174854
 30
0.0
 10
-44.897798282
 20
-10.6172161688
 30
0.0
 10
-44.9278882062
 20
-10.5619074216
 30
0.0
 10
-44.9349319086
 20
-10.522209545
 30
0.0
 10
-44.9349280119
 20
-10.5031636065
 30
0.0
  0
SPLINE
  5
2A7
100
AcDbEntity
  8
RACCORDO
100
AcDbSpline
 62
250
  6
CONTINUOUS
 70
0
 71
3
 72
11
 73
7
 74
0
 42
0.0000001
 43
0.0000001
 44
0.0000000001
 40
0.0
 40
0.0
 40
0.0
 40
0.0
 40
0.2376536727
 40
0.4999942935
 40
0.7623304039
 40
1.0
 40
1.0
 40
1.0
 40
1.0
 10
-25.3180947149
 20
-9.0189362872
 30
0.0
 10
-25.3688672227
 20
-8.9905458059
 30
0.0
 10
-25.4650047505
 20
-8.9114790549
 30
0.0
 10
-25.576627726
 20
-8.7600979761
 30
0.0
 10
-25.6519219374
 20
-8.5877373998
 30
0.0
 10
-25.6723276887
 20
-8.464943085
 30
0.0
 10
-25.6715269292
 20
-8.4067736839
 30
0.0
  0
SPLINE
  5
2A8
100
AcDbEntity
  8
RACCORDO
100
AcDbSpline
 62
250
  6
CONTINUOUS
 70
0
 71
3
 72
9
 73
5
 74
0
 42
0.0000001
 43
0.0000001
 44
0.0000000001
 40
0.0
 40
0.0
 40
0.0
 40
0.0
 40
0.4589229008
 40
1.0
 40
1.0
 40
1.0
 40
1.0
 10
-21.7073133098
 20
-10.1660697436
 30
0.0
 10
-21.7187474647
 20
-10.1594766532
 30
0.0
 10
-21.7485245271
 20
-10.1531094694
 30
0.0
 10
-21.7769371362
 20
-10.1614170289
 30
0.0
 10
-21.7911582423
 20
-10.1677355491
 30
0.0
  0
SPLINE
  5
2A9
100
AcDbEntity
  8
RACCORDO
100
AcDbSpline
 62
250
  6
CONTINUOUS
 70
0
 71
3
 72
11
 73
7
 74
0
 42
0.0000001
 43
0.0000001
 44
0.0000000001
 40
0.0
 40
0.0
 40
0.0
 40
0.0
 40
0.2895774882
 40
0.5483185823
 40
0.7813086355
 40
1.0
 40
1.0
 40
1.0
 40
1.0
 10
-25.6715269516
 20
34.5207349478
 30
0.0
 10
-25.6718802167
 20
34.5459993981
 30
0.0
 10
-25.6686717353
 20
34.5940661754
 30
0.0
 10
-25.6496829116
 20
34.660205649
 30
0.0
 10
-25.6168935226
 20
34.7138650993
 30
0.0
 10
-25.5858375734
 20
34.7395820462
 30
0.0
 10
-25.5692362101
 20
34.7489899947
 30
0.0
  0
SPLINE
  5
2AA
100
AcDbEntity
  8
RACCORDO
100
AcDbSpline
 62
250
  6
CONTINUOUS
 70
0
 71
3
 72
11
 73
7
 74
0
 42
0.0000001
 43
0.0000001
 44
0.0000000001
 40
0.0
 40
0.0
 40
0.0
 40
0.0
 40
0.2895395556
 40
0.549094139
 40
0.7822454009
 40
1.0
 40
1.0
 40
1.0
 40
1.0
 10
-25.5246739453
 20
34.8503437493
 30
0.0
 10
-25.5246739453
 20
34.8351616095
 30
0.0
 10
-25.5223599754
 20
34.8062734964
 30
0.0
 10
-25.5106870083
 20
34.7665744667
 30
0.0
 10
-25.4910043252
 20
34.7343408562
 30
0.0
 10
-25.4724967167
 20
34.7187937612
 30
0.0
 10
-25.4626139734
 20
34.7130750605
 30
0.0
  0
SPLINE
  5
2AB
100
AcDbEntity
  8
RACCORDO
100
AcDbSpline
 62
250
  6
CONTINUOUS
 70
0
 71
3
 72
11
 73
7
 74
0
 42
0.0000001
 43
0.0000001
 44
0.0000000001
 40
0.0
 40
0.0
 40
0.0
 40
0.0
 40
0.236473979
 40
0.4983651084
 40
0.7611427487
 40
1.0
 40
1.0
 40
1.0
 40
1.0
 10
21.8351744249
 20
-36.7280525843
 30
0.0
 10
21.8351744249
 20
-36.6938925063
 30
0.0
 10
21.8477687497
 20
-36.6218482521
 30
0.0
 10
21.8919026784
 20
-36.5202791911
 30
0.0
 10
21.9566828138
 20
-36.4300335544
 30
0.0
 10
22.0122658851
 20
-36.3818366317
 30
0.0
 10
22.04175349
 20
-36.3639192733
 30
0.0
  0
SPLINE
  5
2AC
100
AcDbEntity
  8
RACCORDO
100
AcDbSpline
 62
250
  6
CONTINUOUS
 70
0
 71
3
 72
11
 73
7
 74
0
 42
0.0000001
 43
0.0000001
 44
0.0000000001
 40
0.0
 40
0.0
 40
0.0
 40
0.0
 40
0.236479866
 40
0.4983713399
 40
0.7611459523
 40
1.0
 40
1.0
 40
1.0
 40
1.0
 10
-26.090165524
 20
34.5238991053
 30
0.0
 10
-26.0605815694
 20
34.5068177008
 30
0.0
 10
-25.9918915864
 20
34.4817001037
 30
0.0
 10
-25.8818620114
 20
34.4691352109
 30
0.0
 10
-25.7713169652
 20
34.4801146359
 30
0.0
 10
-25.7017867163
 20
34.5041550151
 30
0.0
 10
-25.6715271169
 20
34.5207348621
 30
0.0
  0
SPLINE
  5
2AD
100
AcDbEntity
  8
RACCORDO
100
AcDbSpline
 62
250
  6
CONTINUOUS
 70
0
 71
3
 72
11
 73
7
 74
0
 42
0.0000001
 43
0.0000001
 44
0.0000000001
 40
0.0
 40
0.0
 40
0.0
 40
0.0
 40
0.2364798374
 40
0.4983713038
 40
0.7611459286
 40
1.0
 40
1.0
 40
1.0
 40
1.0
 10
-26.090165524
 20
-8.4036095491
 30
0.0
 10
-26.060581573
 20
-8.4206909516
 30
0.0
 10
-25.9918915955
 20
-8.445808548
 30
0.0
 10
-25.8818620243
 20
-8.4583734435
 30
0.0
 10
-25.7713169737
 20
-8.4473940214
 30
0.0
 10
-25.7017867192
 20
-8.4233536411
 30
0.0
 10
-25.6715271169
 20
-8.4067737923
 30
0.0
  0
SPLINE
  5
2AE
100
AcDbEntity
  8
RACCORDO
100
AcDbSpline
 62
250
  6
CONTINUOUS
 70
0
 71
3
 72
11
 73
7
 74
0
 42
0.0000001
 43
0.0000001
 44
0.0000000001
 40
0.0
 40
0.0
 40
0.0
 40
0.0
 40
0.2364740077
 40
0.4983651444
 40
0.7611427721
 40
1.0
 40
1.0
 40
1.0
 40
1.0
 10
-25.5246739453
 20
-9.3830696936
 30
0.0
 10
-25.5246739455
 20
-9.3489096115
 30
0.0
 10
-25.5120796188
 20
-9.2768653519
 30
0.0
 10
-25.4679456854
 20
-9.1752962893
 30
0.0
 10
-25.4031655503
 20
-9.0850506574
 30
0.0
 10
-25.3475824823
 20
-9.0368537391
 30
0.0
 10
-25.3180948803
 20
-9.0189363826
 30
0.0
  0
SPLINE
  5
2AF
100
AcDbEntity
  8
RACCORDO
100
AcDbSpline
 62
250
  6
CONTINUOUS
 70
0
 71
3
 72
11
 73
7
 74
0
 42
0.0000001
 43
0.0000001
 44
0.0000000001
 40
0.0
 40
0.0
 40
0.0
 40
0.0
 40
0.2895326369
 40
0.5490863234
 40
0.7822410139
 40
1.0
 40
1.0
 40
1.0
 40
1.0
 10
22.4006660036
 20
-36.4016079403
 30
0.0
 10
22.3875172081
 20
-36.3940159906
 30
0.0
 10
22.3636550021
 20
-36.3775659946
 30
0.0
 10
22.3351094305
 20
-36.3476041372
 30
0.0
 10
22.317034092
 20
-36.314438229
 30
0.0
 10
22.3128226407
 20
-36.290634248
 30
0.0
 10
22.3128109878
 20
-36.2792149169
 30
0.0
  0
SPLINE
  5
2B0
100
AcDbEntity
  8
RACCORDO
100
AcDbSpline
 62
250
  6
CONTINUOUS
 70
0
 71
3
 72
11
 73
7
 74
0
 42
0.0000001
 43
0.0000001
 44
0.0000000001
 40
0.0
 40
0.0
 40
0.0
 40
0.0
 40
0.2895499918
 40
0.5490986266
 40
0.7822392061
 40
1.0
 40
1.0
 40
1.0
 40
1.0
 10
22.4006660036
 20
6.5259007141
 30
0.0
 10
22.3875090362
 20
6.5334973822
 30
0.0
 10
22.3636334361
 20
6.5499582433
 30
0.0
 10
22.3350778296
 20
6.5799433672
 30
0.0
 10
22.3170075746
 20
6.613136379
 30
0.0
 10
22.3128124467
 20
6.6369572486
 30
0.0
 10
22.3128109362
 20
6.6483830927
 30
0.0
  0
SPLINE
  5
2B1
100
AcDbEntity
  8
RACCORDO
100
AcDbSpline
 62
250
  6
CONTINUOUS
 70
0
 71
3
 72
11
 73
7
 74
0
 42
0.0000001
 43
0.0000001
 44
0.0000000001
 40
0.0
 40
0.0
 40
0.0
 40
0.0
 40
0.2895555455
 40
0.5491055199
 40
0.7822437683
 40
1.0
 40
1.0
 40
1.0
 40
1.0
 10
21.8351744249
 20
7.5053608586
 30
0.0
 10
21.835174425
 20
7.4901700257
 30
0.0
 10
21.8374908973
 20
7.4612662202
 30
0.0
 10
21.8491777995
 20
7.4215484637
 30
0.0
 10
21.8688844518
 20
7.3893064266
 30
0.0
 10
21.8874130514
 20
7.3737645772
 30
0.0
 10
21.8973056618
 20
7.368050971
 30
0.0
  0
SPLINE
  5
2B2
100
AcDbEntity
  8
RACCORDO
100
AcDbSpline
 62
250
  6
CONTINUOUS
 70
0
 71
3
 72
9
 73
5
 74
0
 42
0.0000001
 43
0.0000001
 44
0.0000000001
 40
0.0
 40
0.0
 40
0.0
 40
0.0
 40
0.4745133221
 40
1.0
 40
1.0
 40
1.0
 40
1.0
 10
-24.36759685
 20
-8.7592067739
 30
0.0
 10
-24.4402136423
 20
-8.716958832
 30
0.0
 10
-24.5773389371
 20
-8.600637953
 30
0.0
 10
-24.683416756
 20
-8.4571985897
 30
0.0
 10
-24.7306660076
 20
-8.3770522497
 30
0.0
  0
SPLINE
  5
2B3
100
AcDbEntity
  8
RACCORDO
100
AcDbSpline
 62
250
  6
CONTINUOUS
 70
0
 71
3
 72
9
 73
5
 74
0
 42
0.0000001
 43
0.0000001
 44
0.0000000001
 40
0.0
 40
0.0
 40
0.0
 40
0.0
 40
0.5290034418
 40
1.0
 40
1.0
 40
1.0
 40
1.0
 10
-24.7306660076
 20
-8.3770522497
 30
0.0
 10
-24.7757196618
 20
-8.3006301821
 30
0.0
 10
-24.8466274891
 20
-8.1473118147
 30
0.0
 10
-24.882396656
 20
-7.9811213967
 30
0.0
 10
-24.8862021749
 20
-7.9022269401
 30
0.0
  0
SPLINE
  5
2B4
100
AcDbEntity
  8
RACCORDO
100
AcDbSpline
 62
250
  6
CONTINUOUS
 70
0
 71
3
 72
9
 73
5
 74
0
 42
0.0000001
 43
0.0000001
 44
0.0000000001
 40
0.0
 40
0.0
 40
0.0
 40
0.0
 40
0.2407271094
 40
1.0
 40
1.0
 40
1.0
 40
1.0
 10
-23.9135323431
 20
-8.861305528
 30
0.0
 10
-23.9134880972
 20
-8.8716794698
 30
0.0
 10
-23.9122843014
 20
-8.9147669906
 30
0.0
 10
-23.9072238621
 20
-8.9577157991
 30
0.0
 10
-23.9016070809
 20
-8.9899506626
 30
0.0
  0
SPLINE
  5
2B5
100
AcDbEntity
  8
RACCORDO
100
AcDbSpline
 62
250
  6
CONTINUOUS
 70
0
 71
3
 72
14
 73
10
 74
0
 42
0.0000001
 43
0.0000001
 44
0.0000000001
 40
0.0
 40
0.0
 40
0.0
 40
0.0
 40
0.0165217642
 40
0.0648832548
 40
0.1449631731
 40
0.2565129479
 40
0.3990201374
 40
0.5713010073
 40
1.0
 40
1.0
 40
1.0
 40
1.0
 10
-21.8052846472
 20
-10.1392871105
 30
0.0
 10
-21.805090484
 20
-10.1392978143
 30
0.0
 10
-21.805322577
 20
-10.1404812721
 30
0.0
 10
-21.8049628904
 20
-10.1417840871
 30
0.0
 10
-21.8050547213
 20
-10.1448350477
 30
0.0
 10
-21.8049238271
 20
-10.1486676755
 30
0.0
 10
-21.8049030622
 20
-10.1537236714
 30
0.0
 10
-21.8048393008
 20
-10.1624560289
 30
0.0
 10
-21.8048338371
 20
-10.1695376301
 30
0.0
 10
-21.8048324824
 20
-10.1745833356
 30
0.0
  0
SPLINE
  5
2B6
100
AcDbEntity
  8
RACCORDO
100
AcDbSpline
 62
250
  6
CONTINUOUS
 70
0
 71
3
 72
15
 73
11
 74
0
 42
0.0000001
 43
0.0000001
 44
0.0000000001
 40
0.0
 40
0.0
 40
0.0
 40
0.0
 40
0.1448963109
 40
0.2745168068
 40
0.3911015188
 40
0.4999795412
 40
0.6088581056
 40
0.7254444863
 40
0.8550844322
 40
1.0
 40
1.0
 40
1.0
 40
1.0
 10
-26.090165524
 20
34.5238991053
 30
0.0
 10
-26.0901637256
 20
34.5644339804
 30
0.0
 10
-26.0840433195
 20
34.6414984854
 30
0.0
 10
-26.0528346961
 20
34.7473588203
 30
0.0
 10
-26.0002643761
 20
34.8333230543
 30
0.0
 10
-25.9272826528
 20
34.8947148681
 30
0.0
 10
-25.8376229118
 20
34.9272179448
 30
0.0
 10
-25.7368844801
 20
34.9297611053
 30
0.0
 10
-25.6295924268
 20
34.9038507898
 30
0.0
 10
-25.5597830622
 20
34.8706134998
 30
0.0
 10
-25.5246739453
 20
34.8503437493
 30
0.0
  0
SPLINE
  5
2B7
100
AcDbEntity
  8
RACCORDO
100
AcDbSpline
 62
250
  6
CONTINUOUS
 70
0
 71
3
 72
11
 73
7
 74
0
 42
0.0000001
 43
0.0000001
 44
0.0000000001
 40
0.0
 40
0.0
 40
0.0
 40
0.0
 40
0.2372161897
 40
0.4999944116
 40
0.7627681191
 40
1.0
 40
1.0
 40
1.0
 40
1.0
 10
-25.5246739453
 20
-9.3830696936
 30
0.0
 10
-25.6049472015
 20
-9.3367161734
 30
0.0
 10
-25.7568886944
 20
-9.2088730797
 30
0.0
 10
-25.9342238946
 20
-8.9665594439
 30
0.0
 10
-26.0554150927
 20
-8.691823112
 30
0.0
 10
-26.0901608226
 20
-8.4963111199
 30
0.0
 10
-26.090165524
 20
-8.4036095491
 30
0.0
  0
SPLINE
  5
2B8
100
AcDbEntity
  8
RACCORDO
100
AcDbSpline
 62
250
  6
CONTINUOUS
 70
0
 71
3
 72
14
 73
10
 74
0
 42
0.0000001
 43
0.0000001
 44
0.0000000001
 40
0.0
 40
0.0
 40
0.0
 40
0.0
 40
0.0165811549
 40
0.0649859072
 40
0.1450915172
 40
0.2566502428
 40
0.3991484585
 40
0.5714024587
 40
1.0
 40
1.0
 40
1.0
 40
1.0
 10
-23.3968603579
 20
-5.2439582778
 30
0.0
 10
-23.3967765534
 20
-5.2437820795
 30
0.0
 10
-23.3979104739
 20
-5.243397707
 30
0.0
 10
-23.3988687088
 20
-5.2424285708
 30
0.0
 10
-23.4015523259
 20
-5.2409864124
 30
0.0
 10
-23.4048080879
 20
-5.2389560433
 30
0.0
 10
-23.4091744854
 20
-5.2364118641
 30
0.0
 10
-23.416702763
 20
-5.231992688
 30
0.0
 10
-23.4228302264
 20
-5.2284492342
 30
0.0
 10
-23.4271973803
 20
-5.2259266266
 30
0.0
  0
SPLINE
  5
2B9
100
AcDbEntity
  8
RACCORDO
100
AcDbSpline
 62
250
  6
CONTINUOUS
 70
0
 71
3
 72
9
 73
5
 74
0
 42
0.0000001
 43
0.0000001
 44
0.0000000001
 40
0.0
 40
0.0
 40
0.0
 40
0.0
 40
0.4589100415
 40
1.0
 40
1.0
 40
1.0
 40
1.0
 10
-23.3710741819
 20
-5.1457092195
 30
0.0
 10
-23.371072981
 20
-5.1589036114
 30
0.0
 10
-23.3804316181
 20
-5.1878724821
 30
0.0
 10
-23.4018220208
 20
-5.2083221559
 30
0.0
 10
-23.4143969047
 20
-5.2174817743
 30
0.0
  0
SPLINE
  5
2BA
100
AcDbEntity
  8
RACCORDO
100
AcDbSpline
 62
250
  6
CONTINUOUS
 70
0
 71
3
 72
14
 73
10
 74
0
 42
0.0000001
 43
0.0000001
 44
0.0000000001
 40
0.0
 40
0.0
 40
0.0
 40
0.0
 40
0.0163805569
 40
0.0646411764
 40
0.1446612518
 40
0.2561922021
 40
0.398721861
 40
0.5710650803
 40
1.0
 40
1.0
 40
1.0
 40
1.0
 10
-23.8017989628
 20
-5.961946191
 30
0.0
 10
-23.8017029251
 20
-5.9617790663
 30
0.0
 10
-23.8028599355
 20
-5.9613773954
 30
0.0
 10
-23.8037857398
 20
-5.960428947
 30
0.0
 10
-23.8064833177
 20
-5.9589780053
 30
0.0
 10
-23.8097307706
 20
-5.9569524971
 30
0.0
 10
-23.8141009921
 20
-5.9544059758
 30
0.0
 10
-23.8216325459
 20
-5.9499848191
 30
0.0
 10
-23.827765008
 20
-5.9464384608
 30
0.0
 10
-23.8321356233
 20
-5.9439138538
 30
0.0
  0
SPLINE
  5
2BB
100
AcDbEntity
  8
RACCORDO
100
AcDbSpline
 62
250
  6
CONTINUOUS
 70
0
 71
3
 72
11
 73
7
 74
0
 42
0.0000001
 43
0.0000001
 44
0.0000000001
 40
0.0
 40
0.0
 40
0.0
 40
0.0
 40
0.2372015517
 40
0.4999846652
 40
0.7627741829
 40
1.0
 40
1.0
 40
1.0
 40
1.0
 10
-44.7884822693
 20
-10.7073008851
 30
0.0
 10
-44.7884789172
 20
-10.823048001
 30
0.0
 10
-44.7451607025
 20
-11.0671913578
 30
0.0
 10
-44.5938734853
 20
-11.4102979734
 30
0.0
 10
-44.3723753357
 20
-11.7128827173
 30
0.0
 10
-44.1825913146
 20
-11.8724818558
 30
0.0
 10
-44.0823445534
 20
-11.9303672849
 30
0.0
  0
SPLINE
  5
2BC
100
AcDbEntity
  8
RACCORDO
100
AcDbSpline
 62
250
  6
CONTINUOUS
 70
0
 71
3
 72
10
 73
6
 74
0
 42
0.0000001
 43
0.0000001
 44
0.0000000001
 40
0.0
 40
0.0
 40
0.0
 40
0.0
 40
0.2193704368
 40
0.4536251146
 40
1.0
 40
1.0
 40
1.0
 40
1.0
 10
-23.8574091192
 20
-6.143296375
 30
0.0
 10
-23.8574084536
 20
-6.1507414567
 30
0.0
 10
-23.8600741436
 20
-6.1662444692
 30
0.0
 10
-23.8761945126
 20
-6.1965856871
 30
0.0
 10
-23.8976170322
 20
-6.2139980017
 30
0.0
 10
-23.9135323108
 20
-6.2235137822
 30
0.0
  0
SPLINE
  5
2BD
100
AcDbEntity
  8
RACCORDO
100
AcDbSpline
 62
250
  6
CONTINUOUS
 70
0
 71
3
 72
9
 73
5
 74
0
 42
0.0000001
 43
0.0000001
 44
0.0000000001
 40
0.0
 40
0.0
 40
0.0
 40
0.0
 40
0.2404558681
 40
1.0
 40
1.0
 40
1.0
 40
1.0
 10
44.4010462796
 20
12.1054998527
 30
0.0
 10
44.4101295577
 20
12.1002552818
 30
0.0
 10
44.4473612049
 20
12.0775079164
 30
0.0
 10
44.4824361457
 20
12.0512977786
 30
0.0
 10
44.5077950869
 20
12.0299764819
 30
0.0
  0
SPLINE
  5
2BE
100
AcDbEntity
  8
RACCORDO
100
AcDbSpline
 62
250
  6
CONTINUOUS
 70
0
 71
3
 72
11
 73
7
 74
0
 42
0.0000001
 43
0.0000001
 44
0.0000000001
 40
0.0
 40
0.0
 40
0.0
 40
0.0
 40
0.2496981279
 40
0.5122838487
 40
0.7683237787
 40
1.0
 40
1.0
 40
1.0
 40
1.0
 10
44.5077950869
 20
12.0299764819
 30
0.0
 10
44.5628801081
 20
11.9836620844
 30
0.0
 10
44.6643526742
 20
11.874551115
 30
0.0
 10
44.781638096
 20
11.6852402975
 30
0.0
 10
44.8593367187
 20
11.4820762825
 30
0.0
 10
44.8807710347
 20
11.3413658652
 30
0.0
 10
44.8807710347
 20
11.2745922042
 30
0.0
  0
SPLINE
  5
2BF
100
AcDbEntity
  8
RACCORDO
100
AcDbSpline
 62
250
  6
CONTINUOUS
 70
0
 71
3
 72
10
 73
6
 74
0
 42
0.0000001
 43
0.0000001
 44
0.0000000001
 40
0.0
 40
0.0
 40
0.0
 40
0.0
 40
0.2193607349
 40
0.4536108421
 40
1.0
 40
1.0
 40
1.0
 40
1.0
 10
-40.2099026568
 20
61.0236156196
 30
0.0
 10
-40.2163496579
 20
61.0273388015
 30
0.0
 10
-40.2311083495
 20
61.0327816795
 30
0.0
 10
-40.2654454353
 20
61.0339900923
 30
0.0
 10
-40.2912362387
 20
61.0241416876
 30
0.0
 10
-40.307434921
 20
61.0151152514
 30
0.0
  0
SPLINE
  5
2C0
100
AcDbEntity
  8
RACCORDO
100
AcDbSpline
 62
250
  6
CONTINUOUS
 70
0
 71
3
 72
10
 73
6
 74
0
 42
0.0000001
 43
0.0000001
 44
0.0000000001
 40
0.0
 40
0.0
 40
0.0
 40
0.0
 40
0.2193607349
 40
0.4536108421
 40
1.0
 40
1.0
 40
1.0
 40
1.0
 10
44.4985785439
 20
12.1140002209
 30
0.0
 10
44.4921315428
 20
12.1177234028
 30
0.0
 10
44.4773728512
 20
12.1231662808
 30
0.0
 10
44.4430357654
 20
12.1243746937
 30
0.0
 10
44.4172449619
 20
12.1145262889
 30
0.0
 10
44.4010462796
 20
12.1054998527
 30
0.0
  0
SPLINE
  5
2C1
100
AcDbEntity
  8
RACCORDO
100
AcDbSpline
 62
250
  6
CONTINUOUS
 70
0
 71
3
 72
10
 73
6
 74
0
 42
0.0000001
 43
0.0000001
 44
0.0000000001
 40
0.0
 40
0.0
 40
0.0
 40
0.0
 40
0.2193704368
 40
0.4536251146
 40
1.0
 40
1.0
 40
1.0
 40
1.0
 10
44.9368942263
 20
11.3548096114
 30
0.0
 10
44.9368948918
 20
11.3473645297
 30
0.0
 10
44.9342292019
 20
11.3318615172
 30
0.0
 10
44.9181088329
 20
11.3015202993
 30
0.0
 10
44.8966863133
 20
11.2841079847
 30
0.0
 10
44.8807710347
 20
11.2745922042
 30
0.0
  0
SPLINE
  5
2C2
100
AcDbEntity
  8
RACCORDO
100
AcDbSpline
 62
250
  6
CONTINUOUS
 70
0
 71
3
 72
10
 73
6
 74
0
 42
0.0000001
 43
0.0000001
 44
0.0000000001
 40
0.0
 40
0.0
 40
0.0
 40
0.0
 40
0.2193704368
 40
0.4536251146
 40
1.0
 40
1.0
 40
1.0
 40
1.0
 10
44.9368942263
 20
-58.0418024769
 30
0.0
 10
44.9368948918
 20
-58.0492475585
 30
0.0
 10
44.9342292019
 20
-58.064750571
 30
0.0
 10
44.9181088329
 20
-58.0950917889
 30
0.0
 10
44.8966863133
 20
-58.1125041035
 30
0.0
 10
44.8807710347
 20
-58.122019884
 30
0.0
  0
SPLINE
  5
2C3
100
AcDbEntity
  8
RACCORDO
100
AcDbSpline
 62
250
  6
CONTINUOUS
 70
0
 71
3
 72
11
 73
7
 74
0
 42
0.0000001
 43
0.0000001
 44
0.0000000001
 40
0.0
 40
0.0
 40
0.0
 40
0.0
 40
0.2893537132
 40
0.548753876
 40
0.7822428599
 40
1.0
 40
1.0
 40
1.0
 40
1.0
 10
44.8807710347
 20
-58.122019884
 30
0.0
 10
44.8807710346
 20
-58.1558886924
 30
0.0
 10
44.8757197698
 20
-58.2203322538
 30
0.0
 10
44.8500421465
 20
-58.3090333745
 30
0.0
 10
44.8068789876
 20
-58.3814027374
 30
0.0
 10
44.766234636
 20
-58.4168863055
 30
0.0
 10
44.7444383117
 20
-58.4300992096
 30
0.0
  0
SPLINE
  5
2C4
100
AcDbEntity
  8
RACCORDO
100
AcDbSpline
 62
250
  6
CONTINUOUS
 70
0
 71
3
 72
9
 73
5
 74
0
 42
0.0000001
 43
0.0000001
 44
0.0000000001
 40
0.0
 40
0.0
 40
0.0
 40
0.0
 40
0.2324138701
 40
1.0
 40
1.0
 40
1.0
 40
1.0
 10
-24.6520387511
 20
-8.3907139619
 30
0.0
 10
-24.6496101821
 20
-8.3875598548
 30
0.0
 10
-24.6383578302
 20
-8.3746073352
 30
0.0
 10
-24.6244311233
 20
-8.3641483806
 30
0.0
 10
-24.6131471925
 20
-8.3574016171
 30
0.0
  0
SPLINE
  5
2C5
100
AcDbEntity
  8
RACCORDO
100
AcDbSpline
 62
250
  6
CONTINUOUS
 70
0
 71
3
 72
11
 73
7
 74
0
 42
0.0000001
 43
0.0000001
 44
0.0000000001
 40
0.0
 40
0.0
 40
0.0
 40
0.0
 40
0.2188889465
 40
0.4513104089
 40
0.7098064365
 40
1.0
 40
1.0
 40
1.0
 40
1.0
 10
22.2957288346
 20
-36.3863295673
 30
0.0
 10
22.2792585179
 20
-36.3968335066
 30
0.0
 10
22.2410537715
 20
-36.4124379072
 30
0.0
 10
22.1767743671
 20
-36.4152769253
 30
0.0
 10
22.1083044949
 20
-36.3988599592
 30
0.0
 10
22.0639986722
 20
-36.3771811061
 30
0.0
 10
22.0417536681
 20
-36.3639191594
 30
0.0
  0
SPLINE
  5
2C6
100
AcDbEntity
  8
RACCORDO
100
AcDbSpline
 62
250
  6
CONTINUOUS
 70
0
 71
3
 72
11
 73
7
 74
0
 42
0.0000001
 43
0.0000001
 44
0.0000000001
 40
0.0
 40
0.0
 40
0.0
 40
0.0
 40
0.2170294342
 40
0.4488744609
 40
0.7081306521
 40
1.0
 40
1.0
 40
1.0
 40
1.0
 10
41.4294797178
 20
-61.018278047
 30
0.0
 10
41.4843361669
 20
-60.9928261881
 30
0.0
 10
41.588751538
 20
-60.9182308865
 30
0.0
 10
41.7018121848
 20
-60.7526406489
 30
0.0
 10
41.7706619427
 20
-60.5433081418
 30
0.0
 10
41.7858206197
 20
-60.389367483
 30
0.0
 10
41.7871014427
 20
-60.3080507214
 30
0.0
  0
SPLINE
  5
2C7
100
AcDbEntity
  8
RACCORDO
100
AcDbSpline
 62
250
  6
CONTINUOUS
 70
0
 71
3
 72
11
 73
7
 74
0
 42
0.0000001
 43
0.0000001
 44
0.0000000001
 40
0.0
 40
0.0
 40
0.0
 40
0.0
 40
0.2178717454
 40
0.4522844687
 40
0.7119117354
 40
1.0
 40
1.0
 40
1.0
 40
1.0
 10
-40.630319889
 20
61.057293685
 30
0.0
 10
-40.6081534428
 20
61.0677909543
 30
0.0
 10
-40.5582540635
 20
61.0820046425
 30
0.0
 10
-40.477221835
 20
61.0806869658
 30
0.0
 10
-40.3913986588
 20
61.0582263558
 30
0.0
 10
-40.3355204102
 20
61.0313314608
 30
0.0
 10
-40.307434921
 20
61.0151152514
 30
0.0
  0
SPLINE
  5
2C8
100
AcDbEntity
  8
RACCORDO
100
AcDbSpline
 62
250
  6
CONTINUOUS
 70
0
 71
3
 72
15
 73
11
 74
0
 42
0.0000001
 43
0.0000001
 44
0.0000000001
 40
0.0
 40
0.0
 40
0.0
 40
0.0
 40
0.1449059685
 40
0.2745376473
 40
0.3911328346
 40
0.5000036044
 40
0.6088714212
 40
0.7254620726
 40
0.8550943123
 40
1.0
 40
1.0
 40
1.0
 40
1.0
 10
-44.0823445534
 20
58.8275741943
 30
0.0
 10
-44.1261912358
 20
58.8528890262
 30
0.0
 10
-44.2133654064
 20
58.894413842
 30
0.0
 10
-44.3473509987
 20
58.9268229603
 30
0.0
 10
-44.4731692765
 20
58.9237158237
 30
0.0
 10
-44.585162237
 20
58.8831475872
 30
0.0
 10
-44.6763035361
 20
58.8064590022
 30
0.0
 10
-44.7419163691
 20
58.6990607355
 30
0.0
 10
-44.7808512881
 20
58.5668249748
 30
0.0
 10
-44.7884806761
 20
58.4705675875
 30
0.0
 10
-44.7884822693
 20
58.4199379289
 30
0.0
  0
SPLINE
  5
2C9
100
AcDbEntity
  8
RACCORDO
100
AcDbSpline
 62
250
  6
CONTINUOUS
 70
0
 71
3
 72
11
 73
7
 74
0
 42
0.0000001
 43
0.0000001
 44
0.0000000001
 40
0.0
 40
0.0
 40
0.0
 40
0.0
 40
0.2918691182
 40
0.5511209074
 40
0.7829683089
 40
1.0
 40
1.0
 40
1.0
 40
1.0
 10
-43.7472947176
 20
59.4287034367
 30
0.0
 10
-43.8183674777
 20
59.4682608791
 30
0.0
 10
-43.9592827091
 20
59.5321167016
 30
0.0
 10
-44.1750272938
 20
59.5771689142
 30
0.0
 10
-44.3749952537
 20
59.5620491972
 30
0.0
 10
-44.4918225713
 20
59.5089056337
 30
0.0
 10
-44.5412980461
 20
59.4741143681
 30
0.0
  0
SPLINE
  5
2CA
100
AcDbEntity
  8
RACCORDO
100
AcDbSpline
 62
250
  6
CONTINUOUS
 70
0
 71
3
 72
9
 73
5
 74
0
 42
0.0000001
 43
0.0000001
 44
0.0000000001
 40
0.0
 40
0.0
 40
0.0
 40
0.0
 40
0.4691186121
 40
1.0
 40
1.0
 40
1.0
 40
1.0
 10
-24.8862042602
 20
-7.9021808365
 30
0.0
 10
-24.8650550604
 20
-7.9687953085
 30
0.0
 10
-24.8065816905
 20
-8.1065215528
 30
0.0
 10
-24.7347017943
 20
-8.2369901363
 30
0.0
 10
-24.6985077484
 20
-8.3073155859
 30
0.0
  0
SPLINE
  5
2CB
100
AcDbEntity
  8
RACCORDO
100
AcDbSpline
 62
250
  6
CONTINUOUS
 70
0
 71
3
 72
9
 73
5
 74
0
 42
0.0000001
 43
0.0000001
 44
0.0000000001
 40
0.0
 40
0.0
 40
0.0
 40
0.0
 40
0.5330616096
 40
1.0
 40
1.0
 40
1.0
 40
1.0
 10
-24.36759685
 20
-8.7592067739
 30
0.0
 10
-24.3552380696
 20
-8.7549742791
 30
0.0
 10
-24.330571963
 20
-8.7501275018
 30
0.0
 10
-24.305758794
 20
-8.7565609536
 30
0.0
 10
-24.2958423349
 20
-8.7622711189
 30
0.0
  0
SPLINE
  5
2CC
100
AcDbEntity
  8
RACCORDO
100
AcDbSpline
 62
250
  6
CONTINUOUS
 70
0
 71
3
 72
11
 73
7
 74
0
 42
0.0000001
 43
0.0000001
 44
0.0000000001
 40
0.0
 40
0.0
 40
0.0
 40
0.0
 40
0.2372015517
 40
0.4999846652
 40
0.7627741829
 40
1.0
 40
1.0
 40
1.0
 40
1.0
 10
41.0989827489
 20
8.8295920501
 30
0.0
 10
41.0989793968
 20
8.945339166
 30
0.0
 10
41.0556611821
 20
9.1894825228
 30
0.0
 10
40.9043739649
 20
9.5325891384
 30
0.0
 10
40.6828758153
 20
9.8351738824
 30
0.0
 10
40.4930917942
 20
9.9947730208
 30
0.0
 10
40.392845033
 20
10.05265845
 30
0.0
  0
SPLINE
  5
2CD
100
AcDbEntity
  8
RACCORDO
100
AcDbSpline
 62
250
  6
CONTINUOUS
 70
0
 71
3
 72
13
 73
9
 74
0
 42
0.0000001
 43
0.0000001
 44
0.0000000001
 40
0.0
 40
0.0
 40
0.0
 40
0.0
 40
0.1138283096
 40
0.2370291611
 40
0.4999845329
 40
0.7629463855
 40
0.8861602349
 40
1.0
 40
1.0
 40
1.0
 40
1.0
 10
41.7871014427
 20
8.8191880926
 30
0.0
 10
41.7857693395
 20
8.902384853
 30
0.0
 10
41.7680604367
 20
9.0755517722
 30
0.0
 10
41.6813666407
 20
9.4314508178
 30
0.0
 10
41.48651249
 20
9.8686746853
 30
0.0
 10
41.2052924787
 20
10.2560468082
 30
0.0
 10
40.9404098019
 20
10.5090956412
 30
0.0
 10
40.7992852567
 20
10.611029283
 30
0.0
 10
40.7278948688
 20
10.6537876923
 30
0.0
  0
SPLINE
  5
2CE
100
AcDbEntity
  8
RACCORDO
100
AcDbSpline
 62
250
  6
CONTINUOUS
 70
0
 71
3
 72
11
 73
7
 74
0
 42
0.0000001
 43
0.0000001
 44
0.0000000001
 40
0.0
 40
0.0
 40
0.0
 40
0.0
 40
0.2271207141
 40
0.4593620259
 40
0.7096583109
 40
1.0
 40
1.0
 40
1.0
 40
1.0
 10
-24.8862049115
 20
-7.902227922
 30
0.0
 10
-24.8537764218
 20
-7.9269174424
 30
0.0
 10
-24.7884883377
 20
-7.9773081182
 30
0.0
 10
-24.6989594156
 20
-8.0691704824
 30
0.0
 10
-24.6313011043
 20
-8.192710435
 30
0.0
 10
-24.6147308739
 20
-8.2904142548
 30
0.0
 10
-24.6133448072
 20
-8.3424985976
 30
0.0
  0
SPLINE
  5
2CF
100
AcDbEntity
  8
RACCORDO
100
AcDbSpline
 62
250
  6
CONTINUOUS
 70
0
 71
3
 72
9
 73
5
 74
0
 42
0.0000001
 43
0.0000001
 44
0.0000000001
 40
0.0
 40
0.0
 40
0.0
 40
0.0
 40
0.2649447822
 40
1.0
 40
1.0
 40
1.0
 40
1.0
 10
-23.8874175631
 20
-6.0696755757
 30
0.0
 10
-23.8916405821
 20
-6.0828239465
 30
0.0
 10
-23.9059217106
 20
-6.1329343425
 30
0.0
 10
-23.9135305836
 20
-6.1851999702
 30
0.0
 10
-23.9135323108
 20
-6.2235137822
 30
0.0
  0
ELLIPSE
  5
2D0
100
AcDbEntity
  8
RACCORDO
100
AcDbEllipse
 62
7
  6
CONTINUOUS
 10
-20.5322130264
 20
4.1064674119
 30
0.0
 11
0.2012017373
 21
-0.154999118
 31
0.0
 40
0.1160035562
 41
2.4464890389
 42
3.0500478399
  0
ELLIPSE
  5
2D1
100
AcDbEntity
  8
RACCORDO
100
AcDbEllipse
 62
7
  6
CONTINUOUS
 10
-22.2798762663
 20
5.1029280077
 30
0.0
 11
0.2012017373
 21
-0.154999118
 31
0.0
 40
0.1160035562
 41
2.4464890389
 42
3.0500478412
  0
ELLIPSE
  5
2D2
100
AcDbEntity
  8
RACCORDO
100
AcDbEllipse
 62
7
  6
CONTINUOUS
 10
-24.94934264
 20
-8.3979292907
 30
0.0
 11
-0.2500121049
 21
0.4330057129
 31
0.0
 40
0.5777274115
 41
0.785692392
 42
2.3558034861
  0
ELLIPSE
  5
2D3
100
AcDbEntity
  8
RACCORDO
100
AcDbEllipse
 62
7
  6
CONTINUOUS
 10
-20.2451177688
 20
0.3275175398
 30
0.0
 11
0.1326782809
 21
0.300888369
 31
0.0
 40
0.4963388173
 41
-2.2992535502
 42
-1.6222355933
  0
ELLIPSE
  5
2D4
100
AcDbEntity
  8
RACCORDO
100
AcDbEllipse
 62
7
  6
CONTINUOUS
 10
-21.9925148311
 20
4.9390838869
 30
0.0
 11
0.1989371023
 21
-0.1534025498
 31
0.0
 40
0.1185562688
 41
0.8689837822
 42
2.4374480417
  0
ELLIPSE
  5
2D5
100
AcDbEntity
  8
RACCORDO
100
AcDbEllipse
 62
7
  6
CONTINUOUS
 10
-20.2451177688
 20
3.9427750569
 30
0.0
 11
0.1989371023
 21
-0.1534025498
 31
0.0
 40
0.1185562688
 41
0.8689837822
 42
2.4374480417
  0
ELLIPSE
  5
2D6
100
AcDbEntity
  8
RACCORDO
100
AcDbEllipse
 62
7
  6
CONTINUOUS
 10
-22.5358283437
 20
0.8861754957
 30
0.0
 11
0.4935667342
 21
0.8698228981
 31
0.0
 40
0.5722158713
 41
0.2575986682
 42
0.650282602
  0
ELLIPSE
  5
2D7
100
AcDbEntity
  8
RACCORDO
100
AcDbEllipse
 62
7
  6
CONTINUOUS
 10
-21.0937748206
 20
2.6848221409
 30
0.0
 11
0.4935054339
 21
0.8698049405
 31
0.0
 40
0.5722416442
 41
-2.3604410209
 42
-1.7495997939
  0
ELLIPSE
  5
2D8
100
AcDbEntity
  8
RACCORDO
100
AcDbEllipse
 62
7
  6
CONTINUOUS
 10
-20.410359017
 20
3.2451428522
 30
0.0
 11
0.2960929775
 21
0.5218550518
 31
0.0
 40
0.5722715305
 41
-1.7495768844
 42
-0.7896854388
  0
ELLIPSE
  5
2D9
100
AcDbEntity
  8
RACCORDO
100
AcDbEllipse
 62
7
  6
CONTINUOUS
 10
-20.410359017
 20
0.5014658309
 30
0.0
 11
0.2960929775
 21
0.5218550518
 31
0.0
 40
0.5722715305
 41
5.4934998684
 42
6.453391314
  0
ELLIPSE
  5
2DA
100
AcDbEntity
  8
RACCORDO
100
AcDbEllipse
 62
7
  6
CONTINUOUS
 10
-22.5358283437
 20
32.2051190139
 30
0.0
 11
0.4935173262
 21
0.869738684
 31
0.0
 40
0.5723276047
 41
-2.2295706808
 42
-1.836886747
  0
ELLIPSE
  5
2DB
100
AcDbEntity
  8
RACCORDO
100
AcDbEllipse
 62
7
  6
CONTINUOUS
 10
-22.5358283437
 20
0.362778219
 30
0.0
 11
0.4935173262
 21
0.869738684
 31
0.0
 40
0.5723276047
 41
-2.2295706808
 42
-1.836886747
  0
ELLIPSE
  5
2DC
100
AcDbEntity
  8
RACCORDO
100
AcDbEllipse
 62
7
  6
CONTINUOUS
 10
-21.0937748206
 20
0.2586994989
 30
0.0
 11
0.4934790398
 21
0.8697599662
 31
0.0
 40
0.5723013209
 41
0.1702093558
 42
0.7810505828
  0
ENDSEC
  0
SECTION
  2
OBJECTS
  0
DICTIONARY
  5
C
100
AcDbDictionary
280
0
281
1
  3
ACAD_GROUP
350
D
  3
ACAD_MLINESTYLE
350
17
  3
ACAD_LAYOUT
350
1A
  3
ACAD_PLOTSETTINGS
350
19
  3
ACAD_PLOTSTYLENAME
350
E
  0
DICTIONARY
  5
D
102
{ACAD_REACTORS
330
C
102
}
100
AcDbDictionary
280
0
281
1
  0
ACDBDICTIONARYWDFLT
  5
E
102
{ACAD_REACTORS
330
C
102
}
100
AcDbDictionary
281
1
  3
Normal
350
F
100
AcDbDictionaryWithDefault
340
F
  0
DICTIONARY
  5
17
102
{ACAD_REACTORS
330
C
102
}
100
AcDbDictionary
280
0
281
1
  3
Standard
350
18
  0
DICTIONARY
  5
19
102
{ACAD_REACTORS
330
C
102
}
100
AcDbDictionary
281
1
  0
DICTIONARY
  5
1A
102
{ACAD_REACTORS
330
C
102
}
100
AcDbDictionary
281
1
  3
Model
350
2DD
  3
Layout1
350
2DE
  0
ACDBPLACEHOLDER
  5
F
102
{ACAD_REACTORS
330
E
102
}
  0
MLINESTYLE
  5
18
102
{ACAD_REACTORS
330
17
102
}
100
AcDbMlineStyle
  2
STANDARD
 70
0
  3

 62
256
 51
90.0
 52
90.0
 71
2
 49
0.5
 62
256
  6
BYLAYER
 49
-0.5
 62
256
  6
BYLAYER
  0
LAYOUT
  5
2DD
102
{ACAD_REACTORS
330
1A
102
}
100
AcDbPlotSettings
  1

  2
none_device
  4
ISO_A4_(297.00_x_210.00_MM)
  6

 40
0.0
 41
0.0
 42
0.0
 43
0.0
 44
297.0
 45
210.0
 46
0.0
 47
0.0
 48
0.0
 49
0.0
140
0.0
141
0.0
142
1.0
143
1.0
 70
1024
 72
1
 73
0
 74
0
  7

 75
0
147
1.0
148
0.0
149
0.0
100
AcDbLayout
  1
Model
 70
0
 71
0
 10
0.0
 20
0.0
 11
297.0
 21
210.0
 12
0.0
 22
0.0
 32
0.0
 14
0.0
 24
0.0
 34
0.0
 15
0.0
 25
0.0
 35
0.0
146
0.0
 13
0.0
 23
0.0
 33
0.0
 16
1.0
 26
0.0
 36
0.0
 17
0.0
 27
1.0
 37
0.0
 76
0
330
214
345
0
346
0
  0
LAYOUT
  5
2DE
102
{ACAD_REACTORS
330
1A
102
}
100
AcDbPlotSettings
  1

  2
none_device
  4
ISO_A4_(297.00_x_210.00_MM)
  6

 40
0.0
 41
0.0
 42
0.0
 43
0.0
 44
297.0
 45
210.0
 46
0.0
 47
0.0
 48
0.0
 49
0.0
140
0.0
141
0.0
142
1.0
143
1.0
 70
0
 72
1
 73
0
 74
0
  7

 75
0
147
1.0
148
0.0
149
0.0
100
AcDbLayout
  1
Layout1
 70
0
 71
1
 10
0.0
 20
0.0
 11
297.0
 21
210.0
 12
0.0
 22
0.0
 32
0.0
 14
0.0
 24
0.0
 34
0.0
 15
0.0
 25
0.0
 35
0.0
146
0.0
 13
0.0
 23
0.0
 33
0.0
 16
1.0
 26
0.0
 36
0.0
 17
0.0
 27
1.0
 37
0.0
 76
0
330
215
345
0
346
0
  0
ENDSEC
  0
EOF
