  0
SECTION
  2
HEADER
  9
$ACADVER
  1
AC1024
  9
$DWGCODEPAGE
  3
ANSI_1252
  9
$EXTMAX
 10
210.0
 20
297.0
 30
0.0
  9
$EXTMIN
 10
0.0
 20
0.0
 30
0.0
  9
$LIMMIN
 10
0.0
 20
0.0
  9
$LIMMAX
 10
210.0
 20
297.0
  9
$VIEWCTR
 10
105.0
 20
148.5
  9
$VIEWSIZE
 40
297.0
  9
$CLAYER
  8
0
  9
$LTSCALE
 40
19.36
  9
$CELTYPE
  6
BYLAYER
  9
$DIMSCALE
 40
1.0
  9
$DIMASZ
 40
3.0
  9
$DIMEXO
 40
0.5
  9
$DIMDLI
 40
13.376
  9
$DIMEXE
 40
1.5
  9
$DIMCEN
 40
3.168
  9
$DIMLFAC
 40
1.0
  9
$DIMBLK
  1
_FILLED
  9
$DIMALT
 70
0
  9
$DIMALTF
 40
0.0393700787
  9
$DIMTXT
 40
3.0
  9
$DIMTOL
 70
1
  9
$DIMLIM
 70
0
  9
$DIMTFAC
 40
1.0
  9
$DIMTP
 40
0.01
  9
$DIMTM
 40
0.01
  9
$DIMGAP
 40
0.625
  9
$DIMDSEP
 70
44
  9
$AUNITS
 70
0
  9
$PDMODE
 70
3
  9
$PDSIZE
 40
3.0
  9
$HANDSEED
  5
3CC
  9
$TILEMODE
 70
1
  9
$MEASUREMENT
 70
1
  9
$INSUNITS
 70
4
  0
ENDSEC
  0
SECTION
  2
CLASSES
  0
CLASS
  1
ACDBDICTIONARYWDFLT
  2
AcDbDictionaryWithDefault
  3
AutoCAD 2000
 90
0
 91
1
280
0
281
0
  0
CLASS
  1
ACDBPLACEHOLDER
  2
AcDbPlaceHolder
  3
AutoCAD 2000
 90
0
 91
1
280
0
281
0
  0
CLASS
  1
LAYOUT
  2
AcDbLayout
  3
AutoCAD 2000
 90
0
 91
0
280
0
281
0
  0
ENDSEC
  0
SECTION
  2
TABLES
  0
TABLE
  2
VPORT
  5
8
100
AcDbSymbolTable
 70
2
  0
VPORT
  5
1F4
100
AcDbSymbolTableRecord
100
AcDbViewportTableRecord
  2
*ACTIVE
 70
0
 10
0.0
 20
0.0
 11
1.0
 21
1.0
 12
105.0
 22
148.5
 13
0.0
 23
0.0
 14
1.0
 24
1.0
 15
0.0
 25
0.0
 16
0.0
 26
0.0
 36
1.0
 17
0.0
 27
0.0
 37
0.0
 40
297.0
 41
0.7070707071
 42
50.0
 43
0.0
 44
0.0
 50
0.0
 51
0.0
 71
0
 72
100
 73
1
 74
1
 75
0
 76
0
 77
0
 78
0
  0
ENDTAB
  0
TABLE
  2
LTYPE
  5
5
100
AcDbSymbolTable
 70
6
  0
LTYPE
  5
14
100
AcDbSymbolTableRecord
100
AcDbLinetypeTableRecord
  2
BYBLOCK
 70
0
  3

 72
65
 73
0
 40
0.0
  0
LTYPE
  5
15
100
AcDbSymbolTableRecord
100
AcDbLinetypeTableRecord
  2
BYLAYER
 70
0
  3

 72
65
 73
0
 40
0.0
  0
LTYPE
  5
16
100
AcDbSymbolTableRecord
100
AcDbLinetypeTableRecord
  2
CONTINUOUS
 70
64
  3
Solid line
 72
65
 73
0
 40
0.0
  0
LTYPE
  5
1F5
100
AcDbSymbolTableRecord
100
AcDbLinetypeTableRecord
  2
CENTER
 70
64
  3
____ _ ____ _ ____ _ ____ _ ____ _ ____ _ ____
 72
65
 73
4
 40
0.6
 49
0.375
 74
0
 49
-0.075
 74
0
 49
0.075
 74
0
 49
-0.075
 74
0
  0
LTYPE
  5
1F6
100
AcDbSymbolTableRecord
100
AcDbLinetypeTableRecord
  2
HIDDEN
 70
64
  3
- - - - - - - - - - - - - - - - - - - -
 72
65
 73
2
 40
0.2
 49
0.1
 74
0
 49
-0.1
 74
0
  0
LTYPE
  5
1F7
100
AcDbSymbolTableRecord
100
AcDbLinetypeTableRecord
  2
PHANTOM
 70
64
  3
_____ _ _ _____ _ _ _____ _ _ _____
 72
65
 73
6
 40
0.8
 49
0.45
 74
0
 49
-0.05
 74
0
 49
0.1
 74
0
 49
-0.05
 74
0
 49
0.1
 74
0
 49
-0.05
 74
0
  0
LTYPE
  5
1F8
100
AcDbSymbolTableRecord
100
AcDbLinetypeTableRecord
  2
DOT
 70
64
  3
. . . . . . . . . . . . . . . . . . . .
 72
65
 73
2
 40
0.2
 49
0.1
 74
0
 49
-0.1
 74
0
  0
LTYPE
  5
1F9
100
AcDbSymbolTableRecord
100
AcDbLinetypeTableRecord
  2
DASHED
 70
64
  3
- - - - - - - - - - - - - - - - - - - -
 72
65
 73
2
 40
0.2
 49
0.1
 74
0
 49
-0.1
 74
0
  0
ENDTAB
  0
TABLE
  2
LAYER
  5
2
100
AcDbSymbolTable
 70
36
  0
LAYER
  5
10
100
AcDbSymbolTableRecord
100
AcDbLayerTableRecord
  2
0
 70
0
 62
7
  6
CONTINUOUS
370
-3
390
F
  0
LAYER
  5
1FA
100
AcDbSymbolTableRecord
100
AcDbLayerTableRecord
  2
DEFAULT_1
 70
0
 62
7
  6
CENTER
370
-3
390
F
  0
LAYER
  5
1FB
100
AcDbSymbolTableRecord
100
AcDbLayerTableRecord
  2
DEFAULT_2
 70
0
 62
7
  6
HIDDEN
370
-3
390
F
  0
LAYER
  5
1FC
100
AcDbSymbolTableRecord
100
AcDbLayerTableRecord
  2
DEFAULT_3
 70
0
 62
7
  6
PHANTOM
370
-3
390
F
  0
LAYER
  5
1FD
100
AcDbSymbolTableRecord
100
AcDbLayerTableRecord
  2
ASSI
 70
0
 62
7
  6
CONTINUOUS
370
-3
390
F
  0
LAYER
  5
1FE
100
AcDbSymbolTableRecord
100
AcDbLayerTableRecord
  2
COORDINATE
 70
0
 62
7
  6
CONTINUOUS
370
-3
390
F
  0
LAYER
  5
1FF
100
AcDbSymbolTableRecord
100
AcDbLayerTableRecord
  2
COPY_PUBLISH
 70
0
 62
7
  6
CONTINUOUS
370
-3
390
F
  0
LAYER
  5
200
100
AcDbSymbolTableRecord
100
AcDbLayerTableRecord
  2
COSMETICI
 70
0
 62
7
  6
CONTINUOUS
370
-3
390
F
  0
LAYER
  5
201
100
AcDbSymbolTableRecord
100
AcDbLayerTableRecord
  2
CURVE
 70
0
 62
7
  6
CONTINUOUS
370
-3
390
F
  0
LAYER
  5
202
100
AcDbSymbolTableRecord
100
AcDbLayerTableRecord
  2
DRAFT
 70
0
 62
7
  6
CONTINUOUS
370
-3
390
F
  0
LAYER
  5
203
100
AcDbSymbolTableRecord
100
AcDbLayerTableRecord
  2
IMPORT_IGES
 70
0
 62
7
  6
CONTINUOUS
370
-3
390
F
  0
LAYER
  5
204
100
AcDbSymbolTableRecord
100
AcDbLayerTableRecord
  2
INTF_1
 70
0
 62
7
  6
CONTINUOUS
370
-3
390
F
  0
LAYER
  5
205
100
AcDbSymbolTableRecord
100
AcDbLayerTableRecord
  2
INTF_11
 70
0
 62
7
  6
CONTINUOUS
370
-3
390
F
  0
LAYER
  5
206
100
AcDbSymbolTableRecord
100
AcDbLayerTableRecord
  2
INTF_13
 70
0
 62
7
  6
CONTINUOUS
370
-3
390
F
  0
LAYER
  5
207
100
AcDbSymbolTableRecord
100
AcDbLayerTableRecord
  2
INTF_2
 70
0
 62
7
  6
CONTINUOUS
370
-3
390
F
  0
LAYER
  5
208
100
AcDbSymbolTableRecord
100
AcDbLayerTableRecord
  2
NOTE
 70
0
 62
7
  6
CONTINUOUS
370
-3
390
F
  0
LAYER
  5
209
100
AcDbSymbolTableRecord
100
AcDbLayerTableRecord
  2
PIANI
 70
0
 62
7
  6
CONTINUOUS
370
-3
390
F
  0
LAYER
  5
20A
100
AcDbSymbolTableRecord
100
AcDbLayerTableRecord
  2
PUNTI
 70
0
 62
7
  6
CONTINUOUS
370
-3
390
F
  0
LAYER
  5
20B
100
AcDbSymbolTableRecord
100
AcDbLayerTableRecord
  2
RACCORDO
 70
0
 62
7
  6
CONTINUOUS
370
-3
390
F
  0
LAYER
  5
20C
100
AcDbSymbolTableRecord
100
AcDbLayerTableRecord
  2
SIMBOLI
 70
0
 62
7
  6
CONTINUOUS
370
-3
390
F
  0
LAYER
  5
20D
100
AcDbSymbolTableRecord
100
AcDbLayerTableRecord
  2
SMUSSO
 70
0
 62
7
  6
CONTINUOUS
370
-3
390
F
  0
LAYER
  5
20E
100
AcDbSymbolTableRecord
100
AcDbLayerTableRecord
  2
SNAPLINE
 70
0
 62
7
  6
CONTINUOUS
370
-3
390
F
  0
LAYER
  5
20F
100
AcDbSymbolTableRecord
100
AcDbLayerTableRecord
  2
SUPERFICI
 70
0
 62
7
  6
CONTINUOUS
370
-3
390
F
  0
LAYER
  5
210
100
AcDbSymbolTableRecord
100
AcDbLayerTableRecord
  2
TRASH
 70
0
 62
7
  6
CONTINUOUS
370
-3
390
F
  0
ENDTAB
  0
TABLE
  2
STYLE
  5
3
100
AcDbSymbolTable
 70
1
  0
STYLE
  5
11
100
AcDbSymbolTableRecord
100
AcDbTextStyleTableRecord
  2
STANDARD
 70
0
 40
0.0
 41
0.8
 50
0.0
 71
0
 42
0.2
  3
txt
  4

  0
STYLE
  5
211
100
AcDbSymbolTableRecord
100
AcDbTextStyleTableRecord
  2
TEXTSTYLE_1
 70
0
 40
0.0
 41
0.8
 50
0.0
 71
0
 42
0.2
  3
gdt
  4

  0
ENDTAB
  0
TABLE
  2
VIEW
  5
6
100
AcDbSymbolTable
 70
0
  0
ENDTAB
  0
TABLE
  2
UCS
  5
7
100
AcDbSymbolTable
 70
0
  0
ENDTAB
  0
TABLE
  2
APPID
  5
9
100
AcDbSymbolTable
 70
1
  0
APPID
  5
212
100
AcDbSymbolTableRecord
100
AcDbRegAppTableRecord
  2
ACAD
 70
0
  0
ENDTAB
  0
TABLE
  2
BLOCK_RECORD
  5
1
100
AcDbSymbolTable
 70
0
  0
BLOCK_RECORD
  5
213
100
AcDbSymbolTableRecord
100
AcDbBlockTableRecord
  2
*Model_Space
  0
BLOCK_RECORD
  5
214
100
AcDbSymbolTableRecord
100
AcDbBlockTableRecord
  2
*Paper_Space
  0
BLOCK_RECORD
  5
215
100
AcDbSymbolTableRecord
100
AcDbBlockTableRecord
  2
_FILLED
  0
ENDTAB
  0
TABLE
  2
DIMSTYLE
  5
A
100
AcDbSymbolTable
 70
1
100
AcDbDimStyleTable
 71
0
  0
DIMSTYLE
105
216
100
AcDbSymbolTableRecord
100
AcDbDimStyleTableRecord
  2
STANDARD
 70
0
  3

  4

 40
1.0
 41
3.0
 42
0.5
 43
0.38
 44
1.5
 45
0.0
 46
0.0
 47
0.01
 48
0.01
140
3.0
141
0.09
142
0.0
143
25.4
144
1.0
145
0.0
146
1.0
147
0.625
 71
1
 72
0
 73
0
 74
0
 75
0
 76
0
 77
1
 78
8
 79
2
170
0
171
1
172
0
173
0
174
0
175
0
176
0
177
0
178
0
270
2
179
2
271
2
272
2
273
2
274
2
275
0
280
0
281
0
282
0
283
1
284
8
285
0
286
0
287
3
288
0
340
11
278
44
341
215
342
215
343
215
344
215
  0
ENDTAB
  0
ENDSEC
  0
SECTION
  2
BLOCKS
  0
BLOCK
  5
20
100
AcDbEntity
  8
0
100
AcDbBlockBegin
  2
*Model_Space
 70
0
 10
0.0
 20
0.0
 30
0.0
  3
*Model_Space
  1

  0
ENDBLK
  5
21
100
AcDbEntity
  8
0
100
AcDbBlockEnd
  0
BLOCK
  5
1C
100
AcDbEntity
  8
0
100
AcDbBlockBegin
  2
*Paper_Space
 70
0
 10
0.0
 20
0.0
 30
0.0
  3
*Paper_Space
  1

  0
ENDBLK
  5
1D
100
AcDbEntity
  8
0
100
AcDbBlockEnd
  0
BLOCK
  5
217
100
AcDbEntity
  8
0
100
AcDbBlockBegin
  2
_FILLED
 70
64
 10
0.0
 20
0.0
  3
_FILLED
  1

  0
SOLID
  5
218
100
AcDbEntity
  8
0
  6
BYBLOCK
 62
0
100
AcDbTrace
 10
0.0
 20
0.0
 11
-1.0
 21
0.3166666667
 12
-1.0
 22
-0.3166666667
 13
-1.0
 23
-0.3166666667
  0
ENDBLK
  5
219
100
AcDbEntity
  8
0
  6
BYBLOCK
 62
0
100
AcDbBlockEnd
  0
ENDSEC
  0
SECTION
  2
ENTITIES
  0
LINE
  5
21A
100
AcDbEntity
  8
0
100
AcDbLine
 62
7
  6
CONTINUOUS
 10
-44.2105585935
 20
59.8244263459
 11
-41.9478168937
 21
61.1309050446
  0
LINE
  5
21B
100
AcDbEntity
  8
RACCORDO
100
AcDbLine
 62
7
  6
CONTINUOUS
 10
-44.2105585935
 20
59.8244263459
 11
-41.9478168937
 21
61.1309050446
  0
LINE
  5
21C
100
AcDbEntity
  8
0
100
AcDbLine
 62
250
  6
CONTINUOUS
 10
-43.4605223533
 20
59.7501145794
 11
-41.1977806535
 21
61.056593278
  0
LINE
  5
21D
100
AcDbEntity
  8
RACCORDO
100
AcDbLine
 62
250
  6
CONTINUOUS
 10
-43.4605223533
 20
59.7501145794
 11
-41.1977806535
 21
61.056593278
  0
LINE
  5
21E
100
AcDbEntity
  8
RACCORDO
100
AcDbLine
 62
250
  6
CONTINUOUS
 10
-39.3893519113
 20
60.1372603565
 11
-39.5032652459
 21
60.0782013189
  0
LINE
  5
21F
100
AcDbEntity
  8
0
100
AcDbLine
 62
7
  6
CONTINUOUS
 10
-44.6676291345
 20
58.9336837575
 11
-44.6676291345
 21
-10.4662897699
  0
LINE
  5
220
100
AcDbEntity
  8
RACCORDO
100
AcDbLine
 62
7
  6
CONTINUOUS
 10
-44.6676291345
 20
58.9336837575
 11
-44.6676291345
 21
-10.4662897699
  0
LINE
  5
221
100
AcDbEntity
  8
0
100
AcDbLine
 62
250
  6
CONTINUOUS
 10
-44.5211825251
 20
58.7295464609
 11
-44.5211825251
 21
-10.6704270665
  0
LINE
  5
222
100
AcDbEntity
  8
RACCORDO
100
AcDbLine
 62
250
  6
CONTINUOUS
 10
-44.5211825251
 20
58.7295464609
 11
-44.5211825251
 21
-10.6704270665
  0
LINE
  5
223
100
AcDbEntity
  8
0
100
AcDbLine
 62
250
  6
CONTINUOUS
 10
-25.3055557464
 20
34.5915953884
 11
-24.9692066481
 21
34.7857991423
  0
LINE
  5
224
100
AcDbEntity
  8
RACCORDO
100
AcDbLine
 62
250
  6
CONTINUOUS
 10
-25.3055557464
 20
34.5915953884
 11
-24.9692066481
 21
34.7857991423
  0
LINE
  5
225
100
AcDbEntity
  8
RACCORDO
100
AcDbLine
 62
7
  6
CONTINUOUS
 10
-23.4027879024
 20
33.1210336442
 11
-22.6577813334
 21
33.4512111345
  0
LINE
  5
226
100
AcDbEntity
  8
RACCORDO
100
AcDbLine
 62
7
  6
CONTINUOUS
 10
-21.2807078343
 20
32.5432879064
 11
-21.886656462
 21
31.7698608523
  0
LINE
  5
227
100
AcDbEntity
  8
RACCORDO
100
AcDbLine
 62
250
  6
CONTINUOUS
 10
-23.4027879024
 20
29.1081461694
 11
-20.0784000682
 21
31.9619087192
  0
LINE
  5
228
100
AcDbEntity
  8
RACCORDO
100
AcDbLine
 62
7
  6
CONTINUOUS
 10
-23.4027879024
 20
29.048281023
 11
-20.0370348782
 21
31.9375527962
  0
LINE
  5
229
100
AcDbEntity
  8
RACCORDO
100
AcDbLine
 62
7
  6
CONTINUOUS
 10
-22.1433536314
 20
31.5139797842
 11
-23.3257250626
 21
30.6241068319
  0
LINE
  5
22A
100
AcDbEntity
  8
RACCORDO
100
AcDbLine
 62
250
  6
CONTINUOUS
 10
-23.4181876895
 20
29.9752773575
 11
-23.4192690902
 21
29.9746147025
  0
LINE
  5
22B
100
AcDbEntity
  8
RACCORDO
100
AcDbLine
 62
250
  6
CONTINUOUS
 10
-24.3955782682
 20
29.3828289193
 11
-23.4192690905
 21
29.9746147024
  0
LINE
  5
22C
100
AcDbEntity
  8
RACCORDO
100
AcDbLine
 62
250
  6
CONTINUOUS
 10
-21.1838709692
 20
32.6001937627
 11
-21.2807078343
 21
32.5432879064
  0
LINE
  5
22D
100
AcDbEntity
  8
RACCORDO
100
AcDbLine
 62
250
  6
CONTINUOUS
 10
-23.4192690905
 20
30.6271900473
 11
-24.3955782682
 21
30.0543551748
  0
LINE
  5
22E
100
AcDbEntity
  8
RACCORDO
100
AcDbLine
 62
250
  6
CONTINUOUS
 10
-24.3955782682
 20
30.0543551748
 11
-24.6136680793
 21
29.9304304196
  0
LINE
  5
22F
100
AcDbEntity
  8
RACCORDO
100
AcDbLine
 62
250
  6
CONTINUOUS
 10
-24.6136680793
 20
29.2629685105
 11
-24.3955782682
 21
29.3828289193
  0
LINE
  5
230
100
AcDbEntity
  8
0
100
AcDbLine
 62
7
  6
CONTINUOUS
 10
-43.7105344334
 20
-12.1240403672
 11
41.0008579527
 21
-61.0353366479
  0
LINE
  5
231
100
AcDbEntity
  8
RACCORDO
100
AcDbLine
 62
7
  6
CONTINUOUS
 10
-43.7105344334
 20
-12.1240403672
 11
41.0008579527
 21
-61.0353366479
  0
LINE
  5
232
100
AcDbEntity
  8
0
100
AcDbLine
 62
250
  6
CONTINUOUS
 10
-43.8140757439
 20
-11.8951719366
 11
40.8973166422
 21
-60.8064682173
  0
LINE
  5
233
100
AcDbEntity
  8
RACCORDO
100
AcDbLine
 62
250
  6
CONTINUOUS
 10
-43.8140757439
 20
-11.8951719366
 11
40.8973166422
 21
-60.8064682173
  0
LINE
  5
234
100
AcDbEntity
  8
0
100
AcDbLine
 62
250
  6
CONTINUOUS
 10
-25.7298198151
 20
-8.2322706294
 11
-25.7298198151
 21
34.5915953884
  0
LINE
  5
235
100
AcDbEntity
  8
RACCORDO
100
AcDbLine
 62
250
  6
CONTINUOUS
 10
-25.7298198151
 20
-8.2322706294
 11
-25.7298198151
 21
34.5915953884
  0
LINE
  5
236
100
AcDbEntity
  8
0
100
AcDbLine
 62
250
  6
CONTINUOUS
 10
-25.3055557464
 20
-8.2322706294
 11
-25.3055557464
 21
34.5915953884
  0
LINE
  5
237
100
AcDbEntity
  8
RACCORDO
100
AcDbLine
 62
250
  6
CONTINUOUS
 10
-25.3055557464
 20
-8.2322706294
 11
-25.3055557464
 21
34.5915953884
  0
LINE
  5
238
100
AcDbEntity
  8
0
100
AcDbLine
 62
7
  6
CONTINUOUS
 10
-24.6691596433
 20
34.6125557622
 11
-24.6691596433
 21
-7.8648234954
  0
LINE
  5
239
100
AcDbEntity
  8
RACCORDO
100
AcDbLine
 62
7
  6
CONTINUOUS
 10
-24.6691596433
 20
34.6125557622
 11
-24.6691596433
 21
-7.8648234954
  0
LINE
  5
23A
100
AcDbEntity
  8
RACCORDO
100
AcDbLine
 62
250
  6
CONTINUOUS
 10
-24.652360902
 20
-7.9254117134
 11
-24.652360902
 21
-2.6692490189
  0
LINE
  5
23B
100
AcDbEntity
  8
RACCORDO
100
AcDbLine
 62
250
  6
CONTINUOUS
 10
-24.652360902
 20
-1.777352139
 11
-24.652360902
 21
29.173091776
  0
LINE
  5
23C
100
AcDbEntity
  8
RACCORDO
100
AcDbLine
 62
250
  6
CONTINUOUS
 10
-24.652360902
 20
30.0649886559
 11
-24.652360902
 21
34.6028563795
  0
LWPOLYLINE
  5
23D
100
AcDbEntity
  8
RACCORDO
100
AcDbPolyline
 62
7
  6
CONTINUOUS
 90
12
 70
0
 10
-19.8039890379
 20
0.8642007228
 10
-19.805666606
 20
0.9040555585
 10
-19.8102369156
 20
0.9399032062
 10
-19.8176872655
 20
0.9743337318
 10
-19.8279869009
 20
1.0072131071
 10
-19.841105982
 20
1.038402733
 10
-19.8569799815
 20
1.067712463
 10
-19.8754470366
 20
1.0948466105
 10
-19.896325858
 20
1.1195770565
 10
-19.9194111054
 20
1.1417232845
 10
-19.944367936
 20
1.1610507724
 10
-19.9652425527
 20
1.1742632691
  0
LWPOLYLINE
  5
23E
100
AcDbEntity
  8
RACCORDO
100
AcDbPolyline
 62
7
  6
CONTINUOUS
 90
13
 70
0
 10
-19.8039890364
 20
3.8154420672
 10
-19.8053790683
 20
3.8517451669
 10
-19.8094679164
 20
3.8864699098
 10
-19.8162266897
 20
3.9198583767
 10
-19.8256519955
 20
3.9518633211
 10
-19.8377394643
 20
3.9824025905
 10
-19.8524436328
 20
4.0112664513
 10
-19.86963176
 20
4.0381651475
 10
-19.8891467631
 20
4.0628885307
 10
-19.910826199
 20
4.0852658052
 10
-19.9343887182
 20
4.1050610502
 10
-19.9595474581
 20
4.1221337469
 10
-19.9650979226
 20
4.1254173602
  0
LWPOLYLINE
  5
23F
100
AcDbEntity
  8
RACCORDO
100
AcDbPolyline
 62
7
  6
CONTINUOUS
 90
13
 70
0
 10
-21.5266859289
 20
4.8101076699
 10
-21.5280430511
 20
4.8458976255
 10
-21.5321021988
 20
4.8805893277
 10
-21.5388350141
 20
4.9139685265
 10
-21.5482390667
 20
4.9459846924
 10
-21.5603092841
 20
4.976550658
 10
-21.5749996406
 20
5.0054548157
 10
-21.5921805642
 20
5.0324099498
 10
-21.6116961649
 20
5.0572040165
 10
-21.6333848607
 20
5.0796643678
 10
-21.6569719956
 20
5.0995571451
 10
-21.6821746411
 20
5.1167389314
 10
-21.6883332269
 20
5.1203918304
  0
LINE
  5
240
100
AcDbEntity
  8
RACCORDO
100
AcDbLine
 62
7
  6
CONTINUOUS
 10
-24.4340148649
 20
30.1884519802
 11
-24.4340126019
 21
34.4767848075
  0
LINE
  5
241
100
AcDbEntity
  8
RACCORDO
100
AcDbLine
 62
7
  6
CONTINUOUS
 10
-24.4340081946
 20
-7.7993383745
 11
-24.4340148648
 21
-2.5492230631
  0
LINE
  5
242
100
AcDbEntity
  8
RACCORDO
100
AcDbLine
 62
7
  6
CONTINUOUS
 10
-24.4340148649
 20
-1.6538888147
 11
-24.4340148648
 21
29.2931177318
  0
LINE
  5
243
100
AcDbEntity
  8
RACCORDO
100
AcDbLine
 62
250
  6
CONTINUOUS
 10
-23.8063020355
 20
-6.3859280949
 11
-23.8063020355
 21
-7.5643458899
  0
LINE
  5
244
100
AcDbEntity
  8
RACCORDO
100
AcDbLine
 62
7
  6
CONTINUOUS
 10
-23.7501699956
 20
-6.3057106875
 11
-23.7501699956
 21
-7.4841284816
  0
LINE
  5
245
100
AcDbEntity
  8
RACCORDO
100
AcDbLine
 62
250
  6
CONTINUOUS
 10
-23.4589199423
 20
33.9137785267
 11
-23.4589199423
 21
30.7634590533
  0
LINE
  5
246
100
AcDbEntity
  8
RACCORDO
100
AcDbLine
 62
250
  6
CONTINUOUS
 10
-23.4589199423
 20
-1.9582072887
 11
-23.4589199423
 21
-5.4317993682
  0
LINE
  5
247
100
AcDbEntity
  8
RACCORDO
100
AcDbLine
 62
250
  6
CONTINUOUS
 10
-23.4589199423
 20
-1.0788817416
 11
-23.4589199423
 21
4.5171700456
  0
LINE
  5
248
100
AcDbEntity
  8
RACCORDO
100
AcDbLine
 62
250
  6
CONTINUOUS
 10
-23.4589199423
 20
7.9586761832
 11
-23.4589199423
 21
29.8841335062
  0
LINE
  5
249
100
AcDbEntity
  8
RACCORDO
100
AcDbLine
 62
7
  6
CONTINUOUS
 10
-23.4027879024
 20
33.8813685903
 11
-23.4027879024
 21
30.8436764604
  0
LINE
  5
24A
100
AcDbEntity
  8
RACCORDO
100
AcDbLine
 62
7
  6
CONTINUOUS
 10
-23.4027879024
 20
29.9643509136
 11
-23.4027879024
 21
8.0388935906
  0
LINE
  5
24B
100
AcDbEntity
  8
RACCORDO
100
AcDbLine
 62
7
  6
CONTINUOUS
 10
-23.4027879024
 20
4.5973874226
 11
-23.4027879024
 21
-0.9986643346
  0
LINE
  5
24C
100
AcDbEntity
  8
RACCORDO
100
AcDbLine
 62
7
  6
CONTINUOUS
 10
-23.4027879024
 20
-1.8779898813
 11
-23.4027879024
 21
-5.3515819571
  0
LINE
  5
24D
100
AcDbEntity
  8
RACCORDO
100
AcDbLine
 62
7
  6
CONTINUOUS
 10
-22.1412930495
 20
8.4164557267
 11
-22.1412930495
 21
5.6350146037
  0
LINE
  5
24E
100
AcDbEntity
  8
RACCORDO
100
AcDbLine
 62
250
  6
CONTINUOUS
 10
-21.584035828
 20
4.4487123846
 11
-21.584035828
 21
4.7292068861
  0
LINE
  5
24F
100
AcDbEntity
  8
RACCORDO
100
AcDbLine
 62
7
  6
CONTINUOUS
 10
-21.5266859179
 20
4.5296516295
 11
-21.5266859179
 21
4.8101461253
  0
LINE
  5
250
100
AcDbEntity
  8
RACCORDO
100
AcDbLine
 62
250
  6
CONTINUOUS
 10
-19.8601210641
 20
0.5035317177
 11
-19.8601210641
 21
0.7840262192
  0
LINE
  5
251
100
AcDbEntity
  8
RACCORDO
100
AcDbLine
 62
250
  6
CONTINUOUS
 10
-19.8601210641
 20
3.4547706262
 11
-19.8601210641
 21
3.7352651277
  0
LINE
  5
252
100
AcDbEntity
  8
RACCORDO
100
AcDbLine
 62
7
  6
CONTINUOUS
 10
-19.8039890241
 20
0.5837491251
 11
-19.8039890241
 21
0.864243626
  0
LINE
  5
253
100
AcDbEntity
  8
RACCORDO
100
AcDbLine
 62
7
  6
CONTINUOUS
 10
-19.8039890241
 20
3.5349880336
 11
-19.8039890241
 21
3.8154825296
  0
LWPOLYLINE
  5
254
100
AcDbEntity
  8
RACCORDO
100
AcDbPolyline
 62
7
  6
CONTINUOUS
 90
23
 70
0
 10
-23.4027878854
 20
4.597398203
 10
-23.4027489734
 20
4.6007350725
 10
-23.402250732
 20
4.6102422423
 10
-23.4010544836
 20
4.6213008194
 10
-23.3990507903
 20
4.6336634931
 10
-23.3961622951
 20
4.6471603042
 10
-23.3923251209
 20
4.6616408005
 10
-23.3875171348
 20
4.6768687526
 10
-23.3817228186
 20
4.692671627
 10
-23.3749536059
 20
4.7088475595
 10
-23.3672745307
 20
4.7251249079
 10
-23.3587383493
 20
4.7413276734
 10
-23.3494437164
 20
4.7572337953
 10
-23.3395790919
 20
4.7725169125
 10
-23.3292721146
 20
4.7870157727
 10
-23.3186816442
 20
4.800565011
 10
-23.3080925829
 20
4.8128882961
 10
-23.2976657312
 20
4.8239165957
 10
-23.2875882865
 20
4.8335835445
 10
-23.2781990892
 20
4.8417257693
 10
-23.2697071022
 20
4.8483557362
 10
-23.2621924233
 20
4.853610464
 10
-23.2604132099
 20
4.8547651204
  0
LWPOLYLINE
  5
255
100
AcDbEntity
  8
RACCORDO
100
AcDbPolyline
 62
7
  6
CONTINUOUS
 90
5
 70
0
 10
-23.4027879069
 20
29.9643756249
 10
-23.4026284265
 20
29.9716560777
 10
-23.4020924525
 20
29.979092326
 10
-23.4013001669
 20
29.9851591467
 10
-23.400933709
 20
29.9870421349
  0
LWPOLYLINE
  5
256
100
AcDbEntity
  8
RACCORDO
100
AcDbPolyline
 62
7
  6
CONTINUOUS
 90
5
 70
0
 10
-23.4027879069
 20
-1.87796517
 10
-23.4026284265
 20
-1.8706847172
 10
-23.4020924525
 20
-1.8632484689
 10
-23.4013001669
 20
-1.8571816482
 10
-23.400933709
 20
-1.85529866
  0
LWPOLYLINE
  5
257
100
AcDbEntity
  8
RACCORDO
100
AcDbPolyline
 62
7
  6
CONTINUOUS
 90
14
 70
0
 10
-23.7501699963
 20
-6.30570065
 10
-23.7496656993
 20
-6.2835194065
 10
-23.7477894237
 20
-6.256455333
 10
-23.7444632849
 20
-6.2279825671
 10
-23.7396368878
 20
-6.1982780123
 10
-23.7332825652
 20
-6.1675377821
 10
-23.7253916301
 20
-6.1359539361
 10
-23.7159665127
 20
-6.1037085068
 10
-23.705021984
 20
-6.0709827195
 10
-23.6925818852
 20
-6.0379478435
 10
-23.6786912554
 20
-6.0048030563
 10
-23.6633977386
 20
-5.9717237177
 10
-23.6467408132
 20
-5.9388474296
 10
-23.6335217942
 20
-5.9146603269
  0
LWPOLYLINE
  5
258
100
AcDbEntity
  8
RACCORDO
100
AcDbPolyline
 62
7
  6
CONTINUOUS
 90
11
 70
0
 10
-21.6534871583
 20
4.1602440713
 10
-21.6299574707
 20
4.195426981
 10
-21.6096956866
 20
4.2298163409
 10
-21.5912726612
 20
4.2654604481
 10
-21.5748933659
 20
4.3020357785
 10
-21.5606526166
 20
4.339436557
 10
-21.5486823406
 20
4.3775076201
 10
-21.5391720062
 20
4.4159068242
 10
-21.5322434368
 20
4.4544853154
 10
-21.5280260306
 20
4.4931902707
 10
-21.5266859192
 20
4.5296650408
  0
LINE
  5
259
100
AcDbEntity
  8
RACCORDO
100
AcDbLine
 62
250
  6
CONTINUOUS
 10
-21.951619568
 20
3.8054196099
 11
-21.6737045102
 21
4.1953832248
  0
LINE
  5
25A
100
AcDbEntity
  8
RACCORDO
100
AcDbLine
 62
7
  6
CONTINUOUS
 10
-21.8933314164
 20
3.8237004638
 11
-21.6534834737
 21
4.1602492333
  0
LINE
  5
25B
100
AcDbEntity
  8
0
100
AcDbLine
 62
250
  6
CONTINUOUS
 10
22.1766646103
 20
-36.6276975765
 11
-25.093423712
 21
-9.3345410125
  0
LINE
  5
25C
100
AcDbEntity
  8
RACCORDO
100
AcDbLine
 62
250
  6
CONTINUOUS
 10
22.1766646103
 20
-36.6276975765
 11
-25.093423712
 21
-9.3345410125
  0
LINE
  5
25D
100
AcDbEntity
  8
0
100
AcDbLine
 62
250
  6
CONTINUOUS
 10
22.3887966447
 20
-36.2602741154
 11
-24.8812916777
 21
-8.9671175515
  0
LINE
  5
25E
100
AcDbEntity
  8
RACCORDO
100
AcDbLine
 62
250
  6
CONTINUOUS
 10
22.3887966447
 20
-36.2602741154
 11
-24.8812916777
 21
-8.9671175515
  0
LINE
  5
25F
100
AcDbEntity
  8
0
100
AcDbLine
 62
7
  6
CONTINUOUS
 10
-24.2448955746
 20
-8.5996704175
 11
22.7251927477
 21
-35.7196107413
  0
LINE
  5
260
100
AcDbEntity
  8
RACCORDO
100
AcDbLine
 62
7
  6
CONTINUOUS
 10
-24.2448955746
 20
-8.5996704175
 11
22.7251927477
 21
-35.7196107413
  0
LWPOLYLINE
  5
261
100
AcDbEntity
  8
RACCORDO
100
AcDbPolyline
 62
7
  6
CONTINUOUS
 90
13
 70
0
 10
-23.3492623334
 20
-1.1729880664
 10
-23.3571368183
 20
-1.1584545352
 10
-23.3657238487
 20
-1.1411120483
 10
-23.3734858741
 20
-1.1237077345
 10
-23.3803659828
 20
-1.1064180652
 10
-23.3863069917
 20
-1.0894677666
 10
-23.3913040901
 20
-1.0729905676
 10
-23.3953547204
 20
-1.0571576059
 10
-23.3984542275
 20
-1.0422485116
 10
-23.4006605853
 20
-1.0283914504
 10
-23.4020461327
 20
-1.0157108578
 10
-23.4026965164
 20
-1.0044586644
 10
-23.4027879028
 20
-0.998672299
  0
LWPOLYLINE
  5
262
100
AcDbEntity
  8
RACCORDO
100
AcDbPolyline
 62
7
  6
CONTINUOUS
 90
11
 70
0
 10
-23.4896313575
 20
-5.6595313098
 10
-23.4756533834
 20
-5.6335249769
 10
-23.461157173
 20
-5.6035140101
 10
-23.4480256327
 20
-5.5727562156
 10
-23.4363891758
 20
-5.5414421706
 10
-23.4263101814
 20
-5.5096195944
 10
-23.4178818
 20
-5.4773758542
 10
-23.4112207114
 20
-5.4449018745
 10
-23.4064197922
 20
-5.4122836499
 10
-23.4035764717
 20
-5.3795579316
 10
-23.4027879064
 20
-5.3515588571
  0
LINE
  5
263
100
AcDbEntity
  8
RACCORDO
100
AcDbLine
 62
250
  6
CONTINUOUS
 10
-23.519967458
 20
-5.6414993144
 11
-23.6638578323
 21
-5.8966282203
  0
LINE
  5
264
100
AcDbEntity
  8
RACCORDO
100
AcDbLine
 62
7
  6
CONTINUOUS
 10
-23.4896313988
 20
-5.6595313838
 11
-23.6335217732
 21
-5.9146602898
  0
LWPOLYLINE
  5
265
100
AcDbEntity
  8
RACCORDO
100
AcDbPolyline
 62
7
  6
CONTINUOUS
 90
11
 70
0
 10
-19.9293217926
 20
3.1660831542
 10
-19.9051398609
 20
3.2027818297
 10
-19.8849025077
 20
3.2377623061
 10
-19.8665519351
 20
3.2739979298
 10
-19.8502978091
 20
3.3111491044
 10
-19.8362363384
 20
3.3491025294
 10
-19.82450234
 20
3.3876970928
 10
-19.8152854936
 20
3.4265823597
 10
-19.80871121
 20
3.4656073631
 10
-19.8049120594
 20
3.5047127543
 10
-19.8039890488
 20
3.5350453521
  0
LINE
  5
266
100
AcDbEntity
  8
RACCORDO
100
AcDbLine
 62
250
  6
CONTINUOUS
 10
-20.486908451
 20
2.4367420301
 11
-19.9490002101
 21
3.2009855981
  0
LINE
  5
267
100
AcDbEntity
  8
RACCORDO
100
AcDbLine
 62
7
  6
CONTINUOUS
 10
-20.4672259262
 20
2.4018454119
 11
-19.9293176857
 21
3.1660889793
  0
LINE
  5
268
100
AcDbEntity
  8
RACCORDO
100
AcDbLine
 62
7
  6
CONTINUOUS
 10
-21.2807078343
 20
0.7009471114
 11
-21.886656462
 21
-0.0724799427
  0
LINE
  5
269
100
AcDbEntity
  8
RACCORDO
100
AcDbLine
 62
250
  6
CONTINUOUS
 10
-22.1412930495
 20
5.6350146037
 11
-23.2242388992
 21
4.9430768802
  0
LINE
  5
26A
100
AcDbEntity
  8
RACCORDO
100
AcDbLine
 62
7
  6
CONTINUOUS
 10
-22.1801483159
 20
5.5449898798
 11
-23.2604228534
 21
4.8547589653
  0
LINE
  5
26B
100
AcDbEntity
  8
RACCORDO
100
AcDbLine
 62
250
  6
CONTINUOUS
 10
-23.3631713251
 20
8.0596636882
 11
-22.2826497981
 21
8.6613674123
  0
LINE
  5
26C
100
AcDbEntity
  8
RACCORDO
100
AcDbLine
 62
250
  6
CONTINUOUS
 10
-23.2242388992
 20
7.8134019842
 11
-22.1412930495
 21
8.4164557267
  0
LINE
  5
26D
100
AcDbEntity
  8
RACCORDO
100
AcDbLine
 62
7
  6
CONTINUOUS
 10
-22.964888253
 20
9.0114458184
 11
-23.4027879024
 21
8.7927318704
  0
LINE
  5
26E
100
AcDbEntity
  8
RACCORDO
100
AcDbLine
 62
250
  6
CONTINUOUS
 10
-22.8684801243
 20
8.9996185004
 11
-23.4027879024
 21
8.7327524186
  0
LWPOLYLINE
  5
26F
100
AcDbEntity
  8
RACCORDO
100
AcDbPolyline
 62
7
  6
CONTINUOUS
 90
10
 70
0
 10
-21.7308361328
 20
-8.8343549762
 10
-21.7387497985
 20
-8.82986366
 10
-21.77152021
 20
-8.8128764112
 10
-21.8055479623
 20
-8.7976209317
 10
-21.8406827117
 20
-8.784042323
 10
-21.876623477
 20
-8.7721491249
 10
-21.9131848581
 20
-8.7619163289
 10
-21.9502351816
 20
-8.7533188878
 10
-21.9874203861
 20
-8.7463913982
 10
-22.0266829205
 20
-8.7408660306
  0
LINE
  5
270
100
AcDbEntity
  8
RACCORDO
100
AcDbLine
 62
7
  6
CONTINUOUS
 10
-23.9406872216
 20
-8.6556252113
 11
22.7251927477
 21
-35.5999194447
  0
LINE
  5
271
100
AcDbEntity
  8
RACCORDO
100
AcDbLine
 62
250
  6
CONTINUOUS
 10
-23.2876967137
 20
-8.4213257248
 11
-23.0726774247
 21
-8.5454751675
  0
LINE
  5
272
100
AcDbEntity
  8
RACCORDO
100
AcDbLine
 62
7
  6
CONTINUOUS
 10
-23.2159556472
 20
-8.4243789686
 11
-23.0008674762
 21
-8.5485681281
  0
LINE
  5
273
100
AcDbEntity
  8
RACCORDO
100
AcDbLine
 62
250
  6
CONTINUOUS
 10
-21.8028780458
 20
-8.8311274594
 11
22.7251927477
 21
-34.5410774677
  0
LINE
  5
274
100
AcDbEntity
  8
RACCORDO
100
AcDbLine
 62
7
  6
CONTINUOUS
 10
-21.7310680974
 20
-8.8342204199
 11
22.7251927477
 21
-34.5027082641
  0
LWPOLYLINE
  5
275
100
AcDbEntity
  8
RACCORDO
100
AcDbPolyline
 62
7
  6
CONTINUOUS
 90
26
 70
0
 10
-23.2159556466
 20
-8.4243789689
 10
-23.2304673917
 20
-8.4157405863
 10
-23.2616468237
 20
-8.3954706048
 10
-23.2936659005
 20
-8.3722523912
 10
-23.3262369157
 20
-8.3461229809
 10
-23.3590348959
 20
-8.3171974316
 10
-23.3918321823
 20
-8.2855571654
 10
-23.4243990079
 20
-8.2513062149
 10
-23.4564472318
 20
-8.2146460806
 10
-23.487750769
 20
-8.1757529234
 10
-23.5180994787
 20
-8.1348066424
 10
-23.547257748
 20
-8.0920596553
 10
-23.5750411927
 20
-8.0477315766
 10
-23.6012623182
 20
-8.0020719719
 10
-23.6257182651
 20
-7.9554087429
 10
-23.6482740372
 20
-7.9079937826
 10
-23.6687921644
 20
-7.8601136706
 10
-23.6871174196
 20
-7.8121726688
 10
-23.7031777346
 20
-7.7644440473
 10
-23.7169098266
 20
-7.7172157109
 10
-23.7282408007
 20
-7.6709223519
 10
-23.7371781882
 20
-7.6258225386
 10
-23.7437458946
 20
-7.5821622503
 10
-23.7479776959
 20
-7.5403689583
 10
-23.7499704307
 20
-7.5007477983
 10
-23.7501700517
 20
-7.4842149974
  0
LWPOLYLINE
  5
276
100
AcDbEntity
  8
RACCORDO
100
AcDbPolyline
 62
7
  6
CONTINUOUS
 90
9
 70
0
 10
-23.4024635426
 20
8.023826527
 10
-23.40200522
 20
8.0229015672
 10
-23.401185986
 20
8.0210191988
 10
-23.4010462801
 20
8.0206431856
 10
-23.4013409036
 20
8.0218255465
 10
-23.4018401289
 20
8.0245312195
 10
-23.4023557135
 20
8.0287701087
 10
-23.402712233
 20
8.0344756418
 10
-23.4027879042
 20
8.0389092999
  0
LWPOLYLINE
  5
277
100
AcDbEntity
  8
RACCORDO
100
AcDbPolyline
 62
7
  6
CONTINUOUS
 90
17
 70
0
 10
-20.0370834068
 20
0.0951704097
 10
-20.0168850971
 20
0.1133367205
 10
-19.9920779013
 20
0.1380500931
 10
-19.9683474302
 20
0.1644445966
 10
-19.945838567
 20
0.1923370181
 10
-19.9245966635
 20
0.2216409609
 10
-19.9046981275
 20
0.2522602565
 10
-19.8863164295
 20
0.2839307126
 10
-19.8695182909
 20
0.3165475113
 10
-19.8543894731
 20
0.3500014742
 10
-19.8410814822
 20
0.3839962437
 10
-19.829664602
 20
0.418425579
 10
-19.8202130564
 20
0.4531984456
 10
-19.8128404082
 20
0.4880846854
 10
-19.8076330779
 20
0.5229727436
 10
-19.804669749
 20
0.5578056828
 10
-19.8039890394
 20
0.5837942607
  0
LINE
  5
278
100
AcDbEntity
  8
RACCORDO
100
AcDbLine
 62
250
  6
CONTINUOUS
 10
-23.4027879024
 20
-2.7341946255
 11
-20.0234379723
 21
0.1667491735
  0
LINE
  5
279
100
AcDbEntity
  8
RACCORDO
100
AcDbLine
 62
7
  6
CONTINUOUS
 10
-23.4027879024
 20
-2.7940597719
 11
-20.0370348782
 21
0.0952120013
  0
LINE
  5
27A
100
AcDbEntity
  8
RACCORDO
100
AcDbLine
 62
7
  6
CONTINUOUS
 10
-22.1433536314
 20
-0.3283610107
 11
-23.3257250626
 21
-1.218233963
  0
LWPOLYLINE
  5
27B
100
AcDbEntity
  8
RACCORDO
100
AcDbPolyline
 62
7
  6
CONTINUOUS
 90
9
 70
0
 10
-20.8408515088
 20
2.0402379916
 10
-20.8012413126
 20
2.0656502522
 10
-20.7479636333
 20
2.1040836651
 10
-20.6962544482
 20
2.146246308
 10
-20.6462801012
 20
2.1918397267
 10
-20.598159726
 20
2.2405961351
 10
-20.5520494407
 20
2.2922306658
 10
-20.5081313091
 20
2.3463993961
 10
-20.4672178325
 20
2.4018569496
  0
LINE
  5
27C
100
AcDbEntity
  8
RACCORDO
100
AcDbLine
 62
250
  6
CONTINUOUS
 10
-23.4181876895
 20
-1.8670634374
 11
-23.4192690902
 21
-1.8677260924
  0
LINE
  5
27D
100
AcDbEntity
  8
RACCORDO
100
AcDbLine
 62
250
  6
CONTINUOUS
 10
-21.2807078343
 20
1.8391057526
 11
-20.8008584365
 21
2.1309299218
  0
LINE
  5
27E
100
AcDbEntity
  8
RACCORDO
100
AcDbLine
 62
7
  6
CONTINUOUS
 10
-21.1554167861
 20
1.8489326281
 11
-20.8408040781
 21
2.0402668104
  0
LINE
  5
27F
100
AcDbEntity
  8
RACCORDO
100
AcDbLine
 62
250
  6
CONTINUOUS
 10
-24.3955782682
 20
-2.4595118757
 11
-23.4192690905
 21
-1.8677260925
  0
LINE
  5
280
100
AcDbEntity
  8
RACCORDO
100
AcDbLine
 62
250
  6
CONTINUOUS
 10
-20.9434922781
 20
1.227146797
 11
-21.1850665994
 21
1.085186464
  0
LINE
  5
281
100
AcDbEntity
  8
RACCORDO
100
AcDbLine
 62
250
  6
CONTINUOUS
 10
-20.8008584365
 20
0.9829289874
 11
-21.2807078343
 21
0.7009471114
  0
LINE
  5
282
100
AcDbEntity
  8
RACCORDO
100
AcDbLine
 62
250
  6
CONTINUOUS
 10
-23.4192690905
 20
-1.2151507476
 11
-24.3955782682
 21
-1.7879856201
  0
LINE
  5
283
100
AcDbEntity
  8
RACCORDO
100
AcDbLine
 62
250
  6
CONTINUOUS
 10
-24.3955782682
 20
-1.7879856201
 11
-24.6136680793
 21
-1.9119103753
  0
LINE
  5
284
100
AcDbEntity
  8
RACCORDO
100
AcDbLine
 62
250
  6
CONTINUOUS
 10
-24.6136680793
 20
-2.5793722844
 11
-24.3955782682
 21
-2.4595118757
  0
LINE
  5
285
100
AcDbEntity
  8
RACCORDO
100
AcDbLine
 62
7
  6
CONTINUOUS
 10
-23.4027879024
 20
1.2786928493
 11
-22.1433536314
 21
1.8368581918
  0
LINE
  5
286
100
AcDbEntity
  8
RACCORDO
100
AcDbLine
 62
7
  6
CONTINUOUS
 10
-23.4027879024
 20
3.711995543
 11
-23.3393568445
 21
3.7395373816
  0
LINE
  5
287
100
AcDbEntity
  8
RACCORDO
100
AcDbLine
 62
250
  6
CONTINUOUS
 10
-20.1366967486
 20
4.1340666869
 11
-23.4027879024
 21
3.0321791364
  0
LINE
  5
288
100
AcDbEntity
  8
RACCORDO
100
AcDbLine
 62
250
  6
CONTINUOUS
 10
-20.0234379723
 20
3.8767525862
 11
-23.4027879024
 21
2.7366547012
  0
LINE
  5
289
100
AcDbEntity
  8
RACCORDO
100
AcDbLine
 62
250
  6
CONTINUOUS
 10
-21.8608444281
 20
5.1295679484
 11
-23.4008748688
 21
4.6224090326
  0
LINE
  5
28A
100
AcDbEntity
  8
RACCORDO
100
AcDbLine
 62
250
  6
CONTINUOUS
 10
-21.748803522
 20
4.8715320101
 11
-23.4027879024
 21
4.3268460722
  0
LINE
  5
28B
100
AcDbEntity
  8
RACCORDO
100
AcDbLine
 62
7
  6
CONTINUOUS
 10
-23.4027879024
 20
3.3502911583
 11
-20.4498875856
 21
4.2764062872
  0
LINE
  5
28C
100
AcDbEntity
  8
RACCORDO
100
AcDbLine
 62
250
  6
CONTINUOUS
 10
-23.4027879024
 20
3.3081822813
 11
-20.3594271451
 21
4.2626684264
  0
LINE
  5
28D
100
AcDbEntity
  8
RACCORDO
100
AcDbLine
 62
7
  6
CONTINUOUS
 10
-23.0059292139
 20
5.0173652023
 11
-22.1727029125
 21
5.2723203157
  0
LINE
  5
28E
100
AcDbEntity
  8
RACCORDO
100
AcDbLine
 62
250
  6
CONTINUOUS
 10
-23.1303380508
 20
4.9378753853
 11
-22.0835748246
 21
5.2581696878
  0
LINE
  5
28F
100
AcDbEntity
  8
RACCORDO
100
AcDbLine
 62
250
  6
CONTINUOUS
 10
-22.5777026778
 20
-8.6979114888
 11
-22.0218189407
 21
-8.7632052899
  0
LINE
  5
290
100
AcDbEntity
  8
RACCORDO
100
AcDbLine
 62
7
  6
CONTINUOUS
 10
-22.5825660681
 20
-8.6755722985
 11
-22.0266824049
 21
-8.740866091
  0
LWPOLYLINE
  5
291
100
AcDbEntity
  8
RACCORDO
100
AcDbPolyline
 62
7
  6
CONTINUOUS
 90
13
 70
0
 10
-22.5825686939
 20
-8.6755719927
 10
-22.5954642226
 20
-8.6739944779
 10
-22.6399648141
 20
-8.667585754
 10
-22.6836908922
 20
-8.6598133648
 10
-22.726344513
 20
-8.6507798084
 10
-22.767750429
 20
-8.6405719886
 10
-22.8076805658
 20
-8.6292952567
 10
-22.8458650599
 20
-8.6170809789
 10
-22.8820823493
 20
-8.6040638273
 10
-22.9161273577
 20
-8.5903897079
 10
-22.9478118305
 20
-8.5762166744
 10
-22.9769204319
 20
-8.5617400331
 10
-23.0008003909
 20
-8.5486069143
  0
LINE
  5
292
100
AcDbEntity
  8
RACCORDO
100
AcDbLine
 62
250
  6
CONTINUOUS
 10
-23.4027879024
 20
0.3988205529
 11
-22.1433536314
 21
-0.3283610107
  0
LINE
  5
293
100
AcDbEntity
  8
RACCORDO
100
AcDbLine
 62
250
  6
CONTINUOUS
 10
-23.4027879024
 20
0.8029153494
 11
-21.886656462
 21
-0.0724799427
  0
LINE
  5
294
100
AcDbEntity
  8
RACCORDO
100
AcDbLine
 62
7
  6
CONTINUOUS
 10
-22.3377233156
 20
1.7507160057
 11
-21.1850665994
 21
1.085186464
  0
LINE
  5
295
100
AcDbEntity
  8
0
100
AcDbLine
 62
250
  6
CONTINUOUS
 10
-25.3055557464
 20
-8.2322706294
 11
-24.6691596433
 21
-7.8648234954
  0
LINE
  5
296
100
AcDbEntity
  8
RACCORDO
100
AcDbLine
 62
250
  6
CONTINUOUS
 10
-25.3055557464
 20
-8.2322706294
 11
-24.6691596433
 21
-7.8648234954
  0
LINE
  5
297
100
AcDbEntity
  8
RACCORDO
100
AcDbLine
 62
250
  6
CONTINUOUS
 10
-24.4340079618
 20
-7.7993378803
 11
-24.652360902
 21
-7.9254117134
  0
LINE
  5
298
100
AcDbEntity
  8
0
100
AcDbLine
 62
250
  6
CONTINUOUS
 10
-24.8812916777
 20
-8.9671175515
 11
-24.2448955746
 21
-8.5996704175
  0
LINE
  5
299
100
AcDbEntity
  8
RACCORDO
100
AcDbLine
 62
250
  6
CONTINUOUS
 10
-24.8812916777
 20
-8.9671175515
 11
-24.2448955746
 21
-8.5996704175
  0
LINE
  5
29A
100
AcDbEntity
  8
RACCORDO
100
AcDbLine
 62
250
  6
CONTINUOUS
 10
-23.9391155049
 20
-8.6565327008
 11
-24.0427647022
 21
-8.7163782499
  0
LWPOLYLINE
  5
29B
100
AcDbEntity
  8
RACCORDO
100
AcDbPolyline
 62
7
  6
CONTINUOUS
 90
10
 70
0
 10
-20.1845694276
 20
4.2521368174
 10
-20.2059725958
 20
4.2634249715
 10
-20.2340914582
 20
4.275151351
 10
-20.2637492025
 20
4.2841434265
 10
-20.2946563607
 20
4.2902070494
 10
-20.3264195853
 20
4.2932058603
 10
-20.3587932779
 20
4.2930846376
 10
-20.3915628438
 20
4.2898233766
 10
-20.4244414938
 20
4.2834550645
 10
-20.4498690302
 20
4.2764121046
  0
LWPOLYLINE
  5
29C
100
AcDbEntity
  8
RACCORDO
100
AcDbPolyline
 62
7
  6
CONTINUOUS
 90
10
 70
0
 10
-21.9078086923
 20
5.2471135825
 10
-21.9277237795
 20
5.2576917886
 10
-21.9559107264
 20
5.2696435747
 10
-21.9856487351
 20
5.278857633
 10
-22.0166498645
 20
5.2851409677
 10
-22.0485254543
 20
5.2883578398
 10
-22.0810296968
 20
5.2884527282
 10
-22.1139480427
 20
5.2854050255
 10
-22.1469968625
 20
5.2792458698
 10
-22.1726860872
 20
5.2723254622
  0
LWPOLYLINE
  5
29D
100
AcDbEntity
  8
RACCORDO
100
AcDbPolyline
 62
7
  6
CONTINUOUS
 90
5
 70
0
 10
-20.1848177123
 20
1.3010389696
 10
-20.1901161881
 20
1.3040319657
 10
-20.2146974945
 20
1.3161751916
 10
-20.2403699631
 20
1.3260865779
 10
-20.2680065101
 20
1.3339332734
  0
LINE
  5
29E
100
AcDbEntity
  8
RACCORDO
100
AcDbLine
 62
250
  6
CONTINUOUS
 10
-20.9434922781
 20
1.227146797
 11
-22.0551759541
 21
1.8690190188
  0
LINE
  5
29F
100
AcDbEntity
  8
RACCORDO
100
AcDbLine
 62
250
  6
CONTINUOUS
 10
-20.5496604536
 20
1.3133550727
 11
-21.4893487012
 21
1.8559192898
  0
LINE
  5
2A0
100
AcDbEntity
  8
RACCORDO
100
AcDbLine
 62
250
  6
CONTINUOUS
 10
-20.7202827351
 20
1.4339971577
 11
-21.444809946
 21
1.8523300888
  0
LINE
  5
2A1
100
AcDbEntity
  8
RACCORDO
100
AcDbLine
 62
7
  6
CONTINUOUS
 10
-20.7257831778
 20
1.4406835381
 11
-21.4377437553
 21
1.8517606526
  0
LINE
  5
2A2
100
AcDbEntity
  8
RACCORDO
100
AcDbLine
 62
250
  6
CONTINUOUS
 10
-20.0117522127
 20
1.1923445728
 11
-20.2324990617
 21
1.3198010369
  0
LINE
  5
2A3
100
AcDbEntity
  8
RACCORDO
100
AcDbLine
 62
7
  6
CONTINUOUS
 10
-19.9650247408
 20
1.1741409506
 11
-20.1850294839
 21
1.301168932
  0
LINE
  5
2A4
100
AcDbEntity
  8
RACCORDO
100
AcDbLine
 62
250
  6
CONTINUOUS
 10
-23.3393568445
 20
3.7395373816
 11
-22.9248275681
 21
3.5001933727
  0
LINE
  5
2A5
100
AcDbEntity
  8
RACCORDO
100
AcDbLine
 62
250
  6
CONTINUOUS
 10
-23.0803793686
 20
3.7892993108
 11
-22.7011591078
 21
3.5703422849
  0
LINE
  5
2A6
100
AcDbEntity
  8
RACCORDO
100
AcDbLine
 62
250
  6
CONTINUOUS
 10
-20.1366967486
 20
4.1340666869
 11
-20.3594271451
 21
4.2626684264
  0
LINE
  5
2A7
100
AcDbEntity
  8
RACCORDO
100
AcDbLine
 62
250
  6
CONTINUOUS
 10
-21.8608444281
 20
5.1295679484
 11
-22.0835748246
 21
5.2581696878
  0
LINE
  5
2A8
100
AcDbEntity
  8
RACCORDO
100
AcDbLine
 62
7
  6
CONTINUOUS
 10
-19.9650243991
 20
4.1253796618
 11
-20.185029609
 21
4.2524079127
  0
LINE
  5
2A9
100
AcDbEntity
  8
RACCORDO
100
AcDbLine
 62
7
  6
CONTINUOUS
 10
-21.688263624
 20
5.120356393
 11
-21.9082687347
 21
5.2473845866
  0
LINE
  5
2AA
100
AcDbEntity
  8
RACCORDO
100
AcDbLine
 62
250
  6
CONTINUOUS
 10
-23.4027879024
 20
8.0825378033
 11
-23.3631713251
 21
8.0596636882
  0
LWPOLYLINE
  5
2AB
100
AcDbEntity
  8
RACCORDO
100
AcDbPolyline
 62
7
  6
CONTINUOUS
 90
13
 70
0
 10
-23.3492623334
 20
30.6693527285
 10
-23.3571368183
 20
30.6838862598
 10
-23.3657238487
 20
30.7012287466
 10
-23.3734858741
 20
30.7186330605
 10
-23.3803659828
 20
30.7359227297
 10
-23.3863069917
 20
30.7528730283
 10
-23.3913040902
 20
30.7693502273
 10
-23.3953547204
 20
30.785183189
 10
-23.3984542275
 20
30.8000922833
 10
-23.4006605853
 20
30.8139493446
 10
-23.4020461327
 20
30.8266299371
 10
-23.4026965164
 20
30.8378821306
 10
-23.4027879028
 20
30.8436684959
  0
LINE
  5
2AC
100
AcDbEntity
  8
RACCORDO
100
AcDbLine
 62
250
  6
CONTINUOUS
 10
-23.8063020355
 20
-7.5643458899
 11
-24.345542989
 21
-7.7578309054
  0
LINE
  5
2AD
100
AcDbEntity
  8
RACCORDO
100
AcDbLine
 62
250
  6
CONTINUOUS
 10
-23.2876967137
 20
-8.4213257248
 11
-23.9406872216
 21
-8.6556252113
  0
LINE
  5
2AE
100
AcDbEntity
  8
RACCORDO
100
AcDbLine
 62
7
  6
CONTINUOUS
 10
-21.886656462
 20
1.8879367413
 11
-21.2807078343
 21
1.8391057526
  0
LINE
  5
2AF
100
AcDbEntity
  8
RACCORDO
100
AcDbLine
 62
250
  6
CONTINUOUS
 10
-19.9490002101
 20
0.9315291689
 11
-20.486908451
 21
1.0525396688
  0
LINE
  5
2B0
100
AcDbEntity
  8
RACCORDO
100
AcDbLine
 62
250
  6
CONTINUOUS
 10
-20.0117522127
 20
1.1923445728
 11
-20.5496604536
 21
1.3133550727
  0
LINE
  5
2B1
100
AcDbEntity
  8
RACCORDO
100
AcDbLine
 62
250
  6
CONTINUOUS
 10
-20.2324990617
 20
1.3198010369
 11
-20.7202827351
 21
1.4339971577
  0
LINE
  5
2B2
100
AcDbEntity
  8
RACCORDO
100
AcDbLine
 62
7
  6
CONTINUOUS
 10
-20.2680252624
 20
1.3339376651
 11
-20.7283875639
 21
1.4417141075
  0
LINE
  5
2B3
100
AcDbEntity
  8
RACCORDO
100
AcDbLine
 62
7
  6
CONTINUOUS
 10
-22.8684801243
 20
8.9996185004
 11
-22.2826497981
 21
8.6613674123
  0
LINE
  5
2B4
100
AcDbEntity
  8
RACCORDO
100
AcDbLine
 62
7
  6
CONTINUOUS
 10
-23.0803793686
 20
3.7892993108
 11
-22.2326610795
 21
3.717276846
  0
LINE
  5
2B5
100
AcDbEntity
  8
0
100
AcDbLine
 62
250
  6
CONTINUOUS
 10
41.2508700328
 20
10.8388182987
 11
43.5136117326
 21
12.1452969974
  0
LINE
  5
2B6
100
AcDbEntity
  8
RACCORDO
100
AcDbLine
 62
250
  6
CONTINUOUS
 10
41.2508700328
 20
10.8388182987
 11
43.5136117326
 21
12.1452969974
  0
LINE
  5
2B7
100
AcDbEntity
  8
RACCORDO
100
AcDbLine
 62
250
  6
CONTINUOUS
 10
43.9252591969
 20
11.8113187194
 11
44.1167500055
 21
11.921883687
  0
LINE
  5
2B8
100
AcDbEntity
  8
RACCORDO
100
AcDbLine
 62
250
  6
CONTINUOUS
 10
44.4446944324
 20
10.9685122803
 11
44.6115551369
 21
11.0648560605
  0
LINE
  5
2B9
100
AcDbEntity
  8
0
100
AcDbLine
 62
250
  6
CONTINUOUS
 10
42.3115302046
 20
9.0017009936
 11
44.5742719044
 21
10.3081796922
  0
LINE
  5
2BA
100
AcDbEntity
  8
RACCORDO
100
AcDbLine
 62
250
  6
CONTINUOUS
 10
42.3115302046
 20
9.0017009936
 11
44.5742719044
 21
10.3081796922
  0
LINE
  5
2BB
100
AcDbEntity
  8
RACCORDO
100
AcDbLine
 62
250
  6
CONTINUOUS
 10
-23.4027879024
 20
32.2411613479
 11
-22.1433536314
 21
31.5139797842
  0
LINE
  5
2BC
100
AcDbEntity
  8
RACCORDO
100
AcDbLine
 62
250
  6
CONTINUOUS
 10
-23.4027879024
 20
32.6452561443
 11
-21.886656462
 21
31.7698608523
  0
LINE
  5
2BD
100
AcDbEntity
  8
0
100
AcDbLine
 62
7
  6
CONTINUOUS
 10
-25.0312989257
 20
34.8216504452
 11
22.2387893966
 21
7.5284938812
  0
LINE
  5
2BE
100
AcDbEntity
  8
RACCORDO
100
AcDbLine
 62
7
  6
CONTINUOUS
 10
-25.0312989257
 20
34.8216504452
 11
22.2387893966
 21
7.5284938812
  0
LINE
  5
2BF
100
AcDbEntity
  8
0
100
AcDbLine
 62
250
  6
CONTINUOUS
 10
-25.093423712
 20
34.9589715035
 11
22.1766646103
 21
7.6658149395
  0
LINE
  5
2C0
100
AcDbEntity
  8
RACCORDO
100
AcDbLine
 62
250
  6
CONTINUOUS
 10
-25.093423712
 20
34.9589715035
 11
22.1766646103
 21
7.6658149395
  0
LINE
  5
2C1
100
AcDbEntity
  8
0
100
AcDbLine
 62
7
  6
CONTINUOUS
 10
22.7251927477
 20
6.6860269344
 11
22.7251927477
 21
-36.1378390833
  0
LINE
  5
2C2
100
AcDbEntity
  8
RACCORDO
100
AcDbLine
 62
7
  6
CONTINUOUS
 10
22.7251927477
 20
6.6860269344
 11
22.7251927477
 21
-36.1378390833
  0
LINE
  5
2C3
100
AcDbEntity
  8
0
100
AcDbLine
 62
250
  6
CONTINUOUS
 10
22.8130607134
 20
6.5635445564
 11
22.8130607134
 21
-36.2603214613
  0
LINE
  5
2C4
100
AcDbEntity
  8
RACCORDO
100
AcDbLine
 62
250
  6
CONTINUOUS
 10
22.8130607134
 20
6.5635445564
 11
22.8130607134
 21
-36.2603214613
  0
LINE
  5
2C5
100
AcDbEntity
  8
0
100
AcDbLine
 62
250
  6
CONTINUOUS
 10
40.8973166422
 20
10.2264458637
 11
-43.8140757439
 21
59.1377421443
  0
LINE
  5
2C6
100
AcDbEntity
  8
RACCORDO
100
AcDbLine
 62
250
  6
CONTINUOUS
 10
40.8973166422
 20
10.2264458637
 11
-43.8140757439
 21
59.1377421443
  0
LINE
  5
2C7
100
AcDbEntity
  8
0
100
AcDbLine
 62
250
  6
CONTINUOUS
 10
41.2508700328
 20
10.8388182987
 11
-43.4605223533
 21
59.7501145794
  0
LINE
  5
2C8
100
AcDbEntity
  8
RACCORDO
100
AcDbLine
 62
250
  6
CONTINUOUS
 10
41.2508700328
 20
10.8388182987
 11
-43.4605223533
 21
59.7501145794
  0
LWPOLYLINE
  5
2C9
100
AcDbEntity
  8
RACCORDO
100
AcDbPolyline
 62
7
  6
CONTINUOUS
 90
12
 70
0
 10
-39.2930502059
 20
60.1450877345
 10
-39.3266751434
 20
60.1632122618
 10
-39.3676220008
 20
60.181875466
 10
-39.4084941859
 20
60.1968365121
 10
-39.4491817163
 20
60.2080934122
 10
-39.4895273118
 20
60.2156496702
 10
-39.5292610517
 20
60.2195137032
 10
-39.5682161364
 20
60.2197291278
 10
-39.6061856649
 20
60.2163631633
 10
-39.642758852
 20
60.209559566
 10
-39.6776466524
 20
60.1995199258
 10
-39.6988543035
 20
60.1911319895
  0
LINE
  5
2CA
100
AcDbEntity
  8
0
100
AcDbLine
 62
7
  6
CONTINUOUS
 10
43.5136117326
 20
12.1452969974
 11
-41.1977806535
 21
61.056593278
  0
LINE
  5
2CB
100
AcDbEntity
  8
RACCORDO
100
AcDbLine
 62
7
  6
CONTINUOUS
 10
43.5136117326
 20
12.1452969974
 11
-41.1977806535
 21
61.056593278
  0
LINE
  5
2CC
100
AcDbEntity
  8
RACCORDO
100
AcDbLine
 62
250
  6
CONTINUOUS
 10
-39.3893519113
 20
60.1372603565
 11
44.1167500055
 21
11.921883687
  0
LINE
  5
2CD
100
AcDbEntity
  8
RACCORDO
100
AcDbLine
 62
7
  6
CONTINUOUS
 10
-39.2930490588
 20
60.1450870723
 11
44.2130528582
 21
11.9297104026
  0
LWPOLYLINE
  5
2CE
100
AcDbEntity
  8
RACCORDO
100
AcDbPolyline
 62
7
  6
CONTINUOUS
 90
20
 70
0
 10
44.6664799844
 20
11.1441528981
 10
44.6657755789
 20
11.1753018194
 10
44.6618152098
 20
11.2251982485
 10
44.6545131531
 20
11.2754048199
 10
44.6439990804
 20
11.3257368518
 10
44.6304080503
 20
11.376008623
 10
44.6138552964
 20
11.4260338943
 10
44.594453945
 20
11.47560081
 10
44.5723611073
 20
11.5244098135
 10
44.5476920436
 20
11.5722355635
 10
44.5205743637
 20
11.6188508009
 10
44.4911953396
 20
11.6639296858
 10
44.459680964
 20
11.7072548802
 10
44.4261729708
 20
11.748603624
 10
44.3908699671
 20
11.7876690636
 10
44.3539000386
 20
11.8242496761
 10
44.315365578
 20
11.8581551834
 10
44.2753788658
 20
11.8891663257
 10
44.2340425275
 20
11.9170796539
 10
44.2128881383
 20
11.929805197
  0
LINE
  5
2CF
100
AcDbEntity
  8
0
100
AcDbLine
 62
250
  6
CONTINUOUS
 10
41.6044234234
 20
-60.3982725338
 11
41.6044234234
 21
9.0017009936
  0
LINE
  5
2D0
100
AcDbEntity
  8
RACCORDO
100
AcDbLine
 62
250
  6
CONTINUOUS
 10
41.6044234234
 20
-60.3982725338
 11
41.6044234234
 21
9.0017009936
  0
LINE
  5
2D1
100
AcDbEntity
  8
0
100
AcDbLine
 62
250
  6
CONTINUOUS
 10
42.3115302046
 20
-60.3982725338
 11
42.3115302046
 21
9.0017009936
  0
LINE
  5
2D2
100
AcDbEntity
  8
RACCORDO
100
AcDbLine
 62
250
  6
CONTINUOUS
 10
42.3115302046
 20
-60.3982725338
 11
42.3115302046
 21
9.0017009936
  0
LINE
  5
2D3
100
AcDbEntity
  8
0
100
AcDbLine
 62
7
  6
CONTINUOUS
 10
44.5742719044
 20
-59.0917938352
 11
44.5742719044
 21
10.3081796922
  0
LINE
  5
2D4
100
AcDbEntity
  8
RACCORDO
100
AcDbLine
 62
7
  6
CONTINUOUS
 10
44.5742719044
 20
-59.0917938352
 11
44.5742719044
 21
10.3081796922
  0
LINE
  5
2D5
100
AcDbEntity
  8
RACCORDO
100
AcDbLine
 62
250
  6
CONTINUOUS
 10
44.6115551369
 20
11.0648560605
 11
44.6115551369
 21
-57.1067068049
  0
LINE
  5
2D6
100
AcDbEntity
  8
RACCORDO
100
AcDbLine
 62
7
  6
CONTINUOUS
 10
44.6664802627
 20
11.1443455215
 11
44.6664802627
 21
-57.0272173406
  0
LINE
  5
2D7
100
AcDbEntity
  8
0
100
AcDbLine
 62
250
  6
CONTINUOUS
 10
22.3887966447
 20
-36.2602741154
 11
22.7251927477
 21
-36.0660432215
  0
LINE
  5
2D8
100
AcDbEntity
  8
RACCORDO
100
AcDbLine
 62
250
  6
CONTINUOUS
 10
22.3887966447
 20
-36.2602741154
 11
22.7251927477
 21
-36.0660432215
  0
LWPOLYLINE
  5
2D9
100
AcDbEntity
  8
RACCORDO
100
AcDbPolyline
 62
7
  6
CONTINUOUS
 90
9
 70
0
 10
44.5742719044
 20
-57.330272786
 10
44.5936829789
 20
-57.3025827557
 10
44.6129782931
 20
-57.2686782512
 10
44.6294941852
 20
-57.2322701587
 10
44.6431093326
 20
-57.1934821882
 10
44.6536825082
 20
-57.1525461514
 10
44.6611316615
 20
-57.1095954728
 10
44.6654028818
 20
-57.0647250662
 10
44.6664802627
 20
-57.0272185144
  0
LINE
  5
2DA
100
AcDbEntity
  8
RACCORDO
100
AcDbLine
 62
250
  6
CONTINUOUS
 10
44.6115551369
 20
-57.1067068049
 11
44.5742719044
 21
-57.1305489998
  0
LINE
  5
2DB
100
AcDbEntity
  8
0
100
AcDbLine
 62
250
  6
CONTINUOUS
 10
42.3115302046
 20
-60.3982725338
 11
44.5742719044
 21
-59.0917938352
  0
LINE
  5
2DC
100
AcDbEntity
  8
RACCORDO
100
AcDbLine
 62
250
  6
CONTINUOUS
 10
42.3115302046
 20
-60.3982725338
 11
44.5742719044
 21
-59.0917938352
  0
LINE
  5
2DD
100
AcDbEntity
  8
0
100
AcDbLine
 62
7
  6
CONTINUOUS
 10
42.000906273
 20
-61.0848778255
 11
44.2636479728
 21
-59.7783991269
  0
LINE
  5
2DE
100
AcDbEntity
  8
RACCORDO
100
AcDbLine
 62
7
  6
CONTINUOUS
 10
42.000906273
 20
-61.0848778255
 11
44.2636479728
 21
-59.7783991269
  0
ARC
  5
2DF
100
AcDbEntity
  8
RACCORDO
100
AcDbCircle
 62
250
  6
CONTINUOUS
 10
-28.0716034826
 20
4.0939094486
 40
6.9301651511
100
AcDbArc
 50
299.4043414012
 51
299.931792281
  0
ARC
  5
2E0
100
AcDbEntity
  8
RACCORDO
100
AcDbCircle
 62
250
  6
CONTINUOUS
 10
-28.0716034823
 20
35.936250243
 40
6.9301651506
100
AcDbArc
 50
299.4043414012
 51
299.9317922811
  0
ARC
  5
2E1
100
AcDbEntity
  8
RACCORDO
100
AcDbCircle
 62
250
  6
CONTINUOUS
 10
-22.395295581
 20
-7.1462024193
 40
1.562393903
100
AcDbArc
 50
260.0096881389
 51
263.0078920034
  0
ARC
  5
2E2
100
AcDbEntity
  8
RACCORDO
100
AcDbCircle
 62
250
  6
CONTINUOUS
 10
-22.3971854256
 20
-7.1612377589
 40
1.5472403273
100
AcDbArc
 50
263.0095768467
 51
263.3000155553
  0
ARC
  5
2E3
100
AcDbEntity
  8
RACCORDO
100
AcDbCircle
 62
250
  6
CONTINUOUS
 10
-21.5631339233
 20
3.1933228437
 40
1.3155515172
100
AcDbArc
 50
320.1109367111
 51
324.8929845387
  0
ARC
  5
2E4
100
AcDbEntity
  8
RACCORDO
100
AcDbCircle
 62
250
  6
CONTINUOUS
 10
-22.5899705294
 20
-6.5022437148
 40
1.2328844497
100
AcDbArc
 50
150.579306751
 51
152.4370021716
  0
ARC
  5
2E5
100
AcDbEntity
  8
RACCORDO
100
AcDbCircle
 62
250
  6
CONTINUOUS
 10
-22.6017082209
 20
-6.4963597453
 40
1.2197563231
100
AcDbArc
 50
152.4268957695
 51
156.3081899145
  0
ARC
  5
2E6
100
AcDbEntity
  8
RACCORDO
100
AcDbCircle
 62
250
  6
CONTINUOUS
 10
-22.512681822
 20
-7.5294111107
 40
1.1609766743
100
AcDbArc
 50
246.60639298
 51
249.6356672388
  0
ARC
  5
2E7
100
AcDbEntity
  8
RACCORDO
100
AcDbCircle
 62
250
  6
CONTINUOUS
 10
-22.1001779139
 20
-9.4295166521
 40
0.6709030929
100
AcDbArc
 50
80.0561653334
 51
83.2927584668
  0
ARC
  5
2E8
100
AcDbEntity
  8
RACCORDO
100
AcDbCircle
 62
250
  6
CONTINUOUS
 10
-22.0983419403
 20
-9.4206551399
 40
0.6618577203
100
AcDbArc
 50
75.1281450582
 51
80.080245352
  0
ARC
  5
2E9
100
AcDbEntity
  8
RACCORDO
100
AcDbCircle
 62
250
  6
CONTINUOUS
 10
-22.858430641
 20
4.4632733788
 40
0.6076883022
100
AcDbArc
 50
145.5241709989
 51
159.5247424731
  0
ARC
  5
2EA
100
AcDbEntity
  8
RACCORDO
100
AcDbCircle
 62
250
  6
CONTINUOUS
 10
-20.3806927223
 20
3.5042646073
 40
0.5275832993
100
AcDbArc
 50
326.8872646377
 51
332.7709418499
  0
ARC
  5
2EB
100
AcDbEntity
  8
RACCORDO
100
AcDbCircle
 62
250
  6
CONTINUOUS
 10
-22.0977670079
 20
4.497333968
 40
0.520579728
100
AcDbArc
 50
324.5474981361
 51
332.5145884512
  0
ARC
  5
2EC
100
AcDbEntity
  8
RACCORDO
100
AcDbCircle
 62
250
  6
CONTINUOUS
 10
-20.3709844369
 20
3.4979365011
 40
0.5159946962
100
AcDbArc
 50
324.8658941431
 51
326.8869185791
  0
ARC
  5
2ED
100
AcDbEntity
  8
RACCORDO
100
AcDbCircle
 62
250
  6
CONTINUOUS
 10
-23.967488853
 20
-5.3883139508
 40
0.5141772334
100
AcDbArc
 50
330.5009756107
 51
339.8599659306
  0
ARC
  5
2EE
100
AcDbEntity
  8
RACCORDO
100
AcDbCircle
 62
250
  6
CONTINUOUS
 10
-24.7537178208
 20
-2.4868954491
 40
0.2086289755
100
AcDbArc
 50
293.9213179198
 51
299.0664587476
  0
ARC
  5
2EF
100
AcDbEntity
  8
RACCORDO
100
AcDbCircle
 62
250
  6
CONTINUOUS
 10
-24.7537178208
 20
29.3554453458
 40
0.2086289755
100
AcDbArc
 50
293.9213179198
 51
299.0664587476
  0
ARC
  5
2F0
100
AcDbEntity
  8
RACCORDO
100
AcDbCircle
 62
250
  6
CONTINUOUS
 10
-24.7537178173
 20
-1.5949985771
 40
0.2086289668
100
AcDbArc
 50
293.9213174242
 51
299.0664589618
  0
ARC
  5
2F1
100
AcDbEntity
  8
RACCORDO
100
AcDbCircle
 62
250
  6
CONTINUOUS
 10
-24.7537178173
 20
30.2473422178
 40
0.2086289668
100
AcDbArc
 50
293.9213174242
 51
299.0664589617
  0
ARC
  5
2F2
100
AcDbEntity
  8
RACCORDO
100
AcDbCircle
 62
250
  6
CONTINUOUS
 10
-24.7518240219
 20
-7.7466820066
 40
0.204541488
100
AcDbArc
 50
295.0838861278
 51
299.0959471034
  0
ARC
  5
2F3
100
AcDbEntity
  8
RACCORDO
100
AcDbCircle
 62
250
  6
CONTINUOUS
 10
-21.9936102728
 20
5.099554698
 40
0.1706911203
100
AcDbArc
 50
60.0023830787
 51
61.7703414062
  0
ARC
  5
2F4
100
AcDbEntity
  8
RACCORDO
100
AcDbCircle
 62
250
  6
CONTINUOUS
 10
-20.2696622103
 20
4.1057869892
 40
0.169289658
100
AcDbArc
 50
60.0055934563
 51
64.58121453
  0
ARC
  5
2F5
100
AcDbEntity
  8
RACCORDO
100
AcDbCircle
 62
250
  6
CONTINUOUS
 10
-20.2695027691
 20
1.154744533
 40
0.1690364902
100
AcDbArc
 50
60.0191228036
 51
61.3374603459
  0
ARC
  5
2F6
100
AcDbEntity
  8
RACCORDO
100
AcDbCircle
 62
250
  6
CONTINUOUS
 10
-20.0817000282
 20
1.0705555989
 40
0.1404466129
100
AcDbArc
 50
53.0809809246
 51
60.1296894608
  0
SPLINE
  5
2F7
100
AcDbEntity
  8
RACCORDO
100
AcDbSpline
 62
7
  6
CONTINUOUS
 70
0
 71
3
 72
12
 73
8
 74
0
 42
0.0000001
 43
0.0000001
 44
0.0000000001
 40
0.0
 40
0.0
 40
0.0
 40
0.0
 40
0.1193043503
 40
0.2384071329
 40
0.4778883357
 40
0.731420384
 40
1.0
 40
1.0
 40
1.0
 40
1.0
 10
-23.4182037853
 20
29.9752673903
 30
0.0
 10
-23.3923130909
 20
29.991297383
 30
0.0
 10
-23.344892849
 20
30.0309222027
 30
0.0
 10
-23.2749893222
 20
30.1324491875
 30
0.0
 10
-23.2379859936
 20
30.289773688
 30
0.0
 10
-23.2637528154
 20
30.4851213654
 30
0.0
 10
-23.3155980883
 20
30.609635186
 30
0.0
 10
-23.3492623325
 20
30.6693527269
 30
0.0
  0
SPLINE
  5
2F8
100
AcDbEntity
  8
RACCORDO
100
AcDbSpline
 62
7
  6
CONTINUOUS
 70
0
 71
3
 72
12
 73
8
 74
0
 42
0.0000001
 43
0.0000001
 44
0.0000000001
 40
0.0
 40
0.0
 40
0.0
 40
0.0
 40
0.1193043503
 40
0.2384071329
 40
0.4778883357
 40
0.731420384
 40
1.0
 40
1.0
 40
1.0
 40
1.0
 10
-23.4182037853
 20
-1.8670734046
 30
0.0
 10
-23.3923130909
 20
-1.8510434119
 30
0.0
 10
-23.344892849
 20
-1.8114185922
 30
0.0
 10
-23.2749893222
 20
-1.7098916074
 30
0.0
 10
-23.2379859936
 20
-1.552567107
 30
0.0
 10
-23.2637528154
 20
-1.3572194295
 30
0.0
 10
-23.3155980883
 20
-1.2327056089
 30
0.0
 10
-23.3492623325
 20
-1.172988068
 30
0.0
  0
LINE
  5
2F9
100
AcDbEntity
  8
RACCORDO
100
AcDbLine
 62
250
  6
CONTINUOUS
 10
-24.652360902
 20
29.173091776
 11
-24.4340148648
 21
29.2931177318
  0
LINE
  5
2FA
100
AcDbEntity
  8
RACCORDO
100
AcDbLine
 62
250
  6
CONTINUOUS
 10
-24.4340148649
 20
-1.6538888147
 11
-24.652360902
 21
-1.777352139
  0
SPLINE
  5
2FB
100
AcDbEntity
  8
RACCORDO
100
AcDbSpline
 62
250
  6
CONTINUOUS
 70
0
 71
3
 72
9
 73
5
 74
0
 42
0.0000001
 43
0.0000001
 44
0.0000000001
 40
0.0
 40
0.0
 40
0.0
 40
0.0
 40
0.4677595237
 40
1.0
 40
1.0
 40
1.0
 40
1.0
 10
-19.9650966385
 20
4.1254163178
 30
0.0
 10
-19.9888415348
 20
4.139110805
 30
0.0
 10
-20.0480009702
 20
4.1548572489
 30
0.0
 10
-20.1070859808
 20
4.1438641411
 30
0.0
 10
-20.1366967486
 20
4.1340666869
 30
0.0
  0
LINE
  5
2FC
100
AcDbEntity
  8
RACCORDO
100
AcDbLine
 62
250
  6
CONTINUOUS
 10
-24.4340148649
 20
30.1884519802
 11
-24.652360902
 21
30.0649886559
  0
SPLINE
  5
2FD
100
AcDbEntity
  8
RACCORDO
100
AcDbSpline
 62
250
  6
CONTINUOUS
 70
0
 71
3
 72
13
 73
9
 74
0
 42
0.0000001
 43
0.0000001
 44
0.0000000001
 40
0.0
 40
0.0
 40
0.0
 40
0.0
 40
0.3056765277
 40
0.5816176132
 40
0.7026126557
 40
0.8111333768
 40
0.9089035053
 40
1.0
 40
1.0
 40
1.0
 40
1.0
 10
-23.4192690905
 20
30.6271900473
 30
0.0
 10
-23.3838575583
 20
30.5643729629
 30
0.0
 10
-23.3290225229
 20
30.4373268177
 30
0.0
 10
-23.3001319936
 20
30.2716744894
 30
0.0
 10
-23.3093785155
 20
30.1521687605
 30
0.0
 10
-23.3308741302
 20
30.0773170405
 30
0.0
 10
-23.3669682025
 20
30.0161251582
 30
0.0
 10
-23.4009975191
 20
29.985927383
 30
0.0
 10
-23.4192690905
 20
29.9746147024
 30
0.0
  0
SPLINE
  5
2FE
100
AcDbEntity
  8
RACCORDO
100
AcDbSpline
 62
7
  6
CONTINUOUS
 70
0
 71
3
 72
13
 73
9
 74
0
 42
0.0000001
 43
0.0000001
 44
0.0000000001
 40
0.0
 40
0.0
 40
0.0
 40
0.0
 40
0.0912948519
 40
0.1894043736
 40
0.2981790384
 40
0.4192362573
 40
0.6947878562
 40
1.0
 40
1.0
 40
1.0
 40
1.0
 10
-24.3955782682
 20
-2.4595118757
 30
0.0
 10
-24.3770445627
 20
-2.447477242
 30
0.0
 10
-24.3426450164
 20
-2.4157840745
 30
0.0
 10
-24.3062276436
 20
-2.3524670317
 30
0.0
 10
-24.2845242477
 20
-2.2754276971
 30
0.0
 10
-24.2751792636
 20
-2.1528369952
 30
0.0
 10
-24.3043061347
 20
-1.9830449323
 30
0.0
 10
-24.3597627043
 20
-1.8526009314
 30
0.0
 10
-24.3955782682
 20
-1.7879856201
 30
0.0
  0
SPLINE
  5
2FF
100
AcDbEntity
  8
RACCORDO
100
AcDbSpline
 62
250
  6
CONTINUOUS
 70
0
 71
3
 72
13
 73
9
 74
0
 42
0.0000001
 43
0.0000001
 44
0.0000000001
 40
0.0
 40
0.0
 40
0.0
 40
0.0
 40
0.3056765277
 40
0.5816176132
 40
0.7026126557
 40
0.8111333768
 40
0.9089035053
 40
1.0
 40
1.0
 40
1.0
 40
1.0
 10
-23.4192690905
 20
-1.2151507476
 30
0.0
 10
-23.3838575583
 20
-1.277967832
 30
0.0
 10
-23.3290225229
 20
-1.4050139773
 30
0.0
 10
-23.3001319936
 20
-1.5706663055
 30
0.0
 10
-23.3093785155
 20
-1.6901720345
 30
0.0
 10
-23.3308741302
 20
-1.7650237544
 30
0.0
 10
-23.3669682025
 20
-1.8262156367
 30
0.0
 10
-23.4009975191
 20
-1.8564134119
 30
0.0
 10
-23.4192690905
 20
-1.8677260925
 30
0.0
  0
SPLINE
  5
300
100
AcDbEntity
  8
RACCORDO
100
AcDbSpline
 62
250
  6
CONTINUOUS
 70
0
 71
3
 72
9
 73
5
 74
0
 42
0.0000001
 43
0.0000001
 44
0.0000000001
 40
0.0
 40
0.0
 40
0.0
 40
0.0
 40
0.476080187
 40
1.0
 40
1.0
 40
1.0
 40
1.0
 10
-20.4498687303
 20
4.2764111489
 30
0.0
 10
-20.4357052767
 20
4.2808576899
 30
0.0
 10
-20.4032922323
 20
4.2827248092
 30
0.0
 10
-20.3735287102
 20
4.270916802
 30
0.0
 10
-20.3594271451
 20
4.2626684264
 30
0.0
  0
SPLINE
  5
301
100
AcDbEntity
  8
RACCORDO
100
AcDbSpline
 62
7
  6
CONTINUOUS
 70
0
 71
3
 72
13
 73
9
 74
0
 42
0.0000001
 43
0.0000001
 44
0.0000000001
 40
0.0
 40
0.0
 40
0.0
 40
0.0
 40
0.0912948519
 40
0.1894043736
 40
0.2981790384
 40
0.4192362573
 40
0.6947878562
 40
1.0
 40
1.0
 40
1.0
 40
1.0
 10
-24.3955782682
 20
29.3828289193
 30
0.0
 10
-24.3770445627
 20
29.394863553
 30
0.0
 10
-24.3426450164
 20
29.4265567205
 30
0.0
 10
-24.3062276436
 20
29.4898737632
 30
0.0
 10
-24.2845242477
 20
29.5669130978
 30
0.0
 10
-24.2751792636
 20
29.6895037997
 30
0.0
 10
-24.3043061347
 20
29.8592958626
 30
0.0
 10
-24.3597627043
 20
29.9897398635
 30
0.0
 10
-24.3955782682
 20
30.0543551748
 30
0.0
  0
SPLINE
  5
302
100
AcDbEntity
  8
RACCORDO
100
AcDbSpline
 62
250
  6
CONTINUOUS
 70
0
 71
3
 72
9
 73
5
 74
0
 42
0.0000001
 43
0.0000001
 44
0.0000000001
 40
0.0
 40
0.0
 40
0.0
 40
0.0
 40
0.4679963024
 40
1.0
 40
1.0
 40
1.0
 40
1.0
 10
-21.688331951
 20
5.1203907926
 30
0.0
 10
-21.7122122549
 20
5.1341643955
 30
0.0
 10
-21.7716249631
 20
5.1500775422
 30
0.0
 10
-21.8310504334
 20
5.1392838469
 30
0.0
 10
-21.8608444281
 20
5.1295679484
 30
0.0
  0
SPLINE
  5
303
100
AcDbEntity
  8
RACCORDO
100
AcDbSpline
 62
250
  6
CONTINUOUS
 70
0
 71
3
 72
9
 73
5
 74
0
 42
0.0000001
 43
0.0000001
 44
0.0000000001
 40
0.0
 40
0.0
 40
0.0
 40
0.0
 40
0.4493107457
 40
1.0
 40
1.0
 40
1.0
 40
1.0
 10
-23.2604179926
 20
4.8547726062
 30
0.0
 10
-23.2479599285
 20
4.8627309426
 30
0.0
 10
-23.2269952145
 20
4.8911964237
 30
0.0
 10
-23.2236911815
 20
4.9249665976
 30
0.0
 10
-23.2242388992
 20
4.9430768802
 30
0.0
  0
SPLINE
  5
304
100
AcDbEntity
  8
RACCORDO
100
AcDbSpline
 62
250
  6
CONTINUOUS
 70
0
 71
3
 72
8
 73
4
 74
0
 42
0.0000001
 43
0.0000001
 44
0.0000000001
 40
0.0
 40
0.0
 40
0.0
 40
0.0
 40
1.0
 40
1.0
 40
1.0
 40
1.0
 10
-20.1884244316
 20
1.3030672831
 30
0.0
 10
-20.2022135166
 20
1.3106049251
 30
0.0
 10
-20.2171941358
 20
1.3162354665
 30
0.0
 10
-20.2324990866
 20
1.3198010512
 30
0.0
  0
LINE
  5
305
100
AcDbEntity
  8
RACCORDO
100
AcDbLine
 62
250
  6
CONTINUOUS
 10
-24.652360902
 20
-2.6692490189
 11
-24.4340148648
 21
-2.5492230631
  0
SPLINE
  5
306
100
AcDbEntity
  8
RACCORDO
100
AcDbSpline
 62
250
  6
CONTINUOUS
 70
0
 71
3
 72
9
 73
5
 74
0
 42
0.0000001
 43
0.0000001
 44
0.0000000001
 40
0.0
 40
0.0
 40
0.0
 40
0.0
 40
0.4757887736
 40
1.0
 40
1.0
 40
1.0
 40
1.0
 10
-22.1726858714
 20
5.2723247572
 30
0.0
 10
-22.1586953772
 20
5.2766098818
 30
0.0
 10
-22.1267167029
 20
5.2782243594
 30
0.0
 10
-22.0974437251
 20
5.2663883133
 30
0.0
 10
-22.0835748246
 20
5.2581696878
 30
0.0
  0
SPLINE
  5
307
100
AcDbEntity
  8
RACCORDO
100
AcDbSpline
 62
250
  6
CONTINUOUS
 70
0
 71
3
 72
13
 73
9
 74
0
 42
0.0000001
 43
0.0000001
 44
0.0000000001
 40
0.0
 40
0.0
 40
0.0
 40
0.0
 40
0.0912504485
 40
0.1892875187
 40
0.2980096976
 40
0.4190530622
 40
0.6946887726
 40
1.0
 40
1.0
 40
1.0
 40
1.0
 10
-24.6136680793
 20
-2.5793722844
 30
0.0
 10
-24.5951898502
 20
-2.5674932493
 30
0.0
 10
-24.5608682568
 20
-2.5361216609
 30
0.0
 10
-24.5245191024
 20
-2.4732609574
 30
0.0
 10
-24.5028597256
 20
-2.3966909763
 30
0.0
 10
-24.4935349917
 20
-2.2747612707
 30
0.0
 10
-24.5226128123
 20
-2.1058561345
 30
0.0
 10
-24.5779380079
 20
-1.9761402334
 30
0.0
 10
-24.6136680793
 20
-1.9119103753
 30
0.0
  0
SPLINE
  5
308
100
AcDbEntity
  8
RACCORDO
100
AcDbSpline
 62
250
  6
CONTINUOUS
 70
0
 71
3
 72
13
 73
9
 74
0
 42
0.0000001
 43
0.0000001
 44
0.0000000001
 40
0.0
 40
0.0
 40
0.0
 40
0.0
 40
0.0912504485
 40
0.1892875187
 40
0.2980096976
 40
0.4190530622
 40
0.6946887726
 40
1.0
 40
1.0
 40
1.0
 40
1.0
 10
-24.6136680793
 20
29.2629685105
 30
0.0
 10
-24.5951898502
 20
29.2748475456
 30
0.0
 10
-24.5608682568
 20
29.306219134
 30
0.0
 10
-24.5245191024
 20
29.3690798375
 30
0.0
 10
-24.5028597256
 20
29.4456498186
 30
0.0
 10
-24.4935349917
 20
29.5675795242
 30
0.0
 10
-24.5226128123
 20
29.7364846604
 30
0.0
 10
-24.5779380079
 20
29.8662005615
 30
0.0
 10
-24.6136680793
 20
29.9304304196
 30
0.0
  0
SPLINE
  5
309
100
AcDbEntity
  8
RACCORDO
100
AcDbSpline
 62
250
  6
CONTINUOUS
 70
0
 71
3
 72
9
 73
5
 74
0
 42
0.0000001
 43
0.0000001
 44
0.0000000001
 40
0.0
 40
0.0
 40
0.0
 40
0.0
 40
0.4506593341
 40
1.0
 40
1.0
 40
1.0
 40
1.0
 10
-23.4027967504
 20
30.843668496
 30
0.0
 10
-23.4027971972
 20
30.828457611
 30
0.0
 10
-23.4156944
 20
30.7945861612
 30
0.0
 10
-23.4430059181
 20
30.7729740837
 30
0.0
 10
-23.4589199423
 20
30.7634590533
 30
0.0
  0
SPLINE
  5
30A
100
AcDbEntity
  8
RACCORDO
100
AcDbSpline
 62
250
  6
CONTINUOUS
 70
0
 71
3
 72
8
 73
4
 74
0
 42
0.0000001
 43
0.0000001
 44
0.0000000001
 40
0.0
 40
0.0
 40
0.0
 40
0.0
 40
1.0
 40
1.0
 40
1.0
 40
1.0
 10
-23.3492621245
 20
30.6693528442
 30
0.0
 10
-23.3713141926
 20
30.6533596743
 30
0.0
 10
-23.3964084724
 20
30.6420044771
 30
0.0
 10
-23.41926909
 20
30.6271900465
 30
0.0
  0
SPLINE
  5
30B
100
AcDbEntity
  8
RACCORDO
100
AcDbSpline
 62
250
  6
CONTINUOUS
 70
0
 71
3
 72
9
 73
5
 74
0
 42
0.0000001
 43
0.0000001
 44
0.0000000001
 40
0.0
 40
0.0
 40
0.0
 40
0.0
 40
0.4686390674
 40
1.0
 40
1.0
 40
1.0
 40
1.0
 10
-23.4027967506
 20
8.0388935903
 30
0.0
 10
-23.4027957708
 20
8.027932029
 30
0.0
 10
-23.408978444
 20
8.0043380941
 30
0.0
 10
-23.4242806316
 20
7.9858830009
 30
0.0
 10
-23.4334337132
 20
7.9774751387
 30
0.0
  0
SPLINE
  5
30C
100
AcDbEntity
  8
RACCORDO
100
AcDbSpline
 62
250
  6
CONTINUOUS
 70
0
 71
3
 72
9
 73
5
 74
0
 42
0.0000001
 43
0.0000001
 44
0.0000000001
 40
0.0
 40
0.0
 40
0.0
 40
0.0
 40
0.239946639
 40
1.0
 40
1.0
 40
1.0
 40
1.0
 10
-23.4334337132
 20
7.9774751387
 30
0.0
 10
-23.4353009904
 20
7.9757598902
 30
0.0
 10
-23.443289199
 20
7.9688368977
 30
0.0
 10
-23.4520266521
 20
7.9627976967
 30
0.0
 10
-23.4589199423
 20
7.9586761832
 30
0.0
  0
SPLINE
  5
30D
100
AcDbEntity
  8
RACCORDO
100
AcDbSpline
 62
250
  6
CONTINUOUS
 70
0
 71
3
 72
9
 73
5
 74
0
 42
0.0000001
 43
0.0000001
 44
0.0000000001
 40
0.0
 40
0.0
 40
0.0
 40
0.0
 40
0.7429058763
 40
1.0
 40
1.0
 40
1.0
 40
1.0
 10
-23.4027967506
 20
29.9643509133
 30
0.0
 10
-23.4027961004
 20
29.9570764465
 30
0.0
 10
-23.4044517751
 20
29.947197433
 30
0.0
 10
-23.4079941667
 20
29.9380649542
 30
0.0
 10
-23.4090130746
 20
29.9357629241
 30
0.0
  0
SPLINE
  5
30E
100
AcDbEntity
  8
RACCORDO
100
AcDbSpline
 62
250
  6
CONTINUOUS
 70
0
 71
3
 72
8
 73
4
 74
0
 42
0.0000001
 43
0.0000001
 44
0.0000000001
 40
0.0
 40
0.0
 40
0.0
 40
0.0
 40
1.0
 40
1.0
 40
1.0
 40
1.0
 10
-23.4090130746
 20
29.9357629241
 30
0.0
 10
-23.4107624637
 20
29.93181051
 30
0.0
 10
-23.4128405429
 20
29.9279920376
 30
0.0
 10
-23.4151688264
 20
29.9243504672
 30
0.0
  0
SPLINE
  5
30F
100
AcDbEntity
  8
RACCORDO
100
AcDbSpline
 62
250
  6
CONTINUOUS
 70
0
 71
3
 72
9
 73
5
 74
0
 42
0.0000001
 43
0.0000001
 44
0.0000000001
 40
0.0
 40
0.0
 40
0.0
 40
0.0
 40
0.229199152
 40
1.0
 40
1.0
 40
1.0
 40
1.0
 10
-23.4151688264
 20
29.9243504672
 30
0.0
 10
-23.417627373
 20
29.9205051579
 30
0.0
 10
-23.4296128648
 20
29.9045286651
 30
0.0
 10
-23.4457460268
 20
29.8920102196
 30
0.0
 10
-23.4589199423
 20
29.8841335062
 30
0.0
  0
SPLINE
  5
310
100
AcDbEntity
  8
RACCORDO
100
AcDbSpline
 62
250
  6
CONTINUOUS
 70
0
 71
3
 72
9
 73
5
 74
0
 42
0.0000001
 43
0.0000001
 44
0.0000000001
 40
0.0
 40
0.0
 40
0.0
 40
0.0
 40
0.4506803649
 40
1.0
 40
1.0
 40
1.0
 40
1.0
 10
-23.4027967506
 20
4.5973874165
 30
0.0
 10
-23.4027953909
 20
4.5821745616
 30
0.0
 10
-23.4156892599
 20
4.5482979783
 30
0.0
 10
-23.4430043954
 20
4.5266841387
 30
0.0
 10
-23.4589199423
 20
4.5171700456
 30
0.0
  0
SPLINE
  5
311
100
AcDbEntity
  8
RACCORDO
100
AcDbSpline
 62
250
  6
CONTINUOUS
 70
0
 71
3
 72
9
 73
5
 74
0
 42
0.0000001
 43
0.0000001
 44
0.0000000001
 40
0.0
 40
0.0
 40
0.0
 40
0.0
 40
0.4506593341
 40
1.0
 40
1.0
 40
1.0
 40
1.0
 10
-23.4027967504
 20
-0.998672299
 30
0.0
 10
-23.4027971972
 20
-1.013883184
 30
0.0
 10
-23.4156944
 20
-1.0477546337
 30
0.0
 10
-23.4430059181
 20
-1.0693667113
 30
0.0
 10
-23.4589199423
 20
-1.0788817416
 30
0.0
  0
SPLINE
  5
312
100
AcDbEntity
  8
RACCORDO
100
AcDbSpline
 62
250
  6
CONTINUOUS
 70
0
 71
3
 72
8
 73
4
 74
0
 42
0.0000001
 43
0.0000001
 44
0.0000000001
 40
0.0
 40
0.0
 40
0.0
 40
0.0
 40
1.0
 40
1.0
 40
1.0
 40
1.0
 10
-23.3492621245
 20
-1.1729879507
 30
0.0
 10
-23.3713141926
 20
-1.1889811206
 30
0.0
 10
-23.3964084724
 20
-1.2003363178
 30
0.0
 10
-23.41926909
 20
-1.2151507484
 30
0.0
  0
SPLINE
  5
313
100
AcDbEntity
  8
RACCORDO
100
AcDbSpline
 62
250
  6
CONTINUOUS
 70
0
 71
3
 72
9
 73
5
 74
0
 42
0.0000001
 43
0.0000001
 44
0.0000000001
 40
0.0
 40
0.0
 40
0.0
 40
0.0
 40
0.4506573216
 40
1.0
 40
1.0
 40
1.0
 40
1.0
 10
-23.4027967507
 20
-5.3515819574
 30
0.0
 10
-23.4027953916
 20
-5.3667939178
 30
0.0
 10
-23.4156909564
 20
-5.4006695372
 30
0.0
 10
-23.4430046641
 20
-5.4222835868
 30
0.0
 10
-23.4589199423
 20
-5.4317993682
 30
0.0
  0
SPLINE
  5
314
100
AcDbEntity
  8
RACCORDO
100
AcDbSpline
 62
250
  6
CONTINUOUS
 70
0
 71
3
 72
9
 73
5
 74
0
 42
0.0000001
 43
0.0000001
 44
0.0000000001
 40
0.0
 40
0.0
 40
0.0
 40
0.0
 40
0.7429058763
 40
1.0
 40
1.0
 40
1.0
 40
1.0
 10
-23.4027967506
 20
-1.8779898816
 30
0.0
 10
-23.4027961004
 20
-1.8852643484
 30
0.0
 10
-23.4044517751
 20
-1.8951433619
 30
0.0
 10
-23.4079941667
 20
-1.9042758408
 30
0.0
 10
-23.4090130746
 20
-1.9065778708
 30
0.0
  0
SPLINE
  5
315
100
AcDbEntity
  8
RACCORDO
100
AcDbSpline
 62
250
  6
CONTINUOUS
 70
0
 71
3
 72
8
 73
4
 74
0
 42
0.0000001
 43
0.0000001
 44
0.0000000001
 40
0.0
 40
0.0
 40
0.0
 40
0.0
 40
1.0
 40
1.0
 40
1.0
 40
1.0
 10
-23.4090130746
 20
-1.9065778708
 30
0.0
 10
-23.4107624637
 20
-1.9105302849
 30
0.0
 10
-23.4128405429
 20
-1.9143487574
 30
0.0
 10
-23.4151688264
 20
-1.9179903278
 30
0.0
  0
SPLINE
  5
316
100
AcDbEntity
  8
RACCORDO
100
AcDbSpline
 62
250
  6
CONTINUOUS
 70
0
 71
3
 72
9
 73
5
 74
0
 42
0.0000001
 43
0.0000001
 44
0.0000000001
 40
0.0
 40
0.0
 40
0.0
 40
0.0
 40
0.229199152
 40
1.0
 40
1.0
 40
1.0
 40
1.0
 10
-23.4151688264
 20
-1.9179903278
 30
0.0
 10
-23.417627373
 20
-1.9218356371
 30
0.0
 10
-23.4296128648
 20
-1.9378121298
 30
0.0
 10
-23.4457460268
 20
-1.9503305754
 30
0.0
 10
-23.4589199423
 20
-1.9582072887
 30
0.0
  0
SPLINE
  5
317
100
AcDbEntity
  8
RACCORDO
100
AcDbSpline
 62
250
  6
CONTINUOUS
 70
0
 71
3
 72
14
 73
10
 74
0
 42
0.0000001
 43
0.0000001
 44
0.0000000001
 40
0.0
 40
0.0
 40
0.0
 40
0.0
 40
0.0163862846
 40
0.0646510302
 40
0.1446735532
 40
0.256205282
 40
0.3987340273
 40
0.5710746958
 40
1.0
 40
1.0
 40
1.0
 40
1.0
 10
-23.4896307863
 20
-5.6595316319
 30
0.0
 10
-23.4895350855
 20
-5.6593642365
 30
0.0
 10
-23.4906914622
 20
-5.6589630906
 30
0.0
 10
-23.4916181727
 20
-5.658014019
 30
0.0
 10
-23.494315362
 20
-5.6565633472
 30
0.0
 10
-23.4975630479
 20
-5.6545376918
 30
0.0
 10
-23.5019331616
 20
-5.6519912409
 30
0.0
 10
-23.5094646213
 20
-5.6475701392
 30
0.0
 10
-23.5155969413
 20
-5.6440238645
 30
0.0
 10
-23.519967458
 20
-5.6414993144
 30
0.0
  0
SPLINE
  5
318
100
AcDbEntity
  8
RACCORDO
100
AcDbSpline
 62
250
  6
CONTINUOUS
 70
0
 71
3
 72
14
 73
10
 74
0
 42
0.0000001
 43
0.0000001
 44
0.0000000001
 40
0.0
 40
0.0
 40
0.0
 40
0.0
 40
0.0163643359
 40
0.0646132797
 40
0.1446264273
 40
0.2561551549
 40
0.3986873829
 40
0.5710378238
 40
1.0
 40
1.0
 40
1.0
 40
1.0
 10
-23.633521203
 20
-5.9146606113
 30
0.0
 10
-23.6334242148
 20
-5.9144942573
 30
0.0
 10
-23.6345830129
 20
-5.9140910896
 30
0.0
 10
-23.6355062564
 20
-5.9131444168
 30
0.0
 10
-23.638204932
 20
-5.9116927046
 30
0.0
 10
-23.641451726
 20
-5.9096676164
 30
0.0
 10
-23.6458222523
 20
-5.9071208952
 30
0.0
 10
-23.6533540729
 20
-5.9026995837
 30
0.0
 10
-23.6594869377
 20
-5.8991529887
 30
0.0
 10
-23.6638578323
 20
-5.8966282203
 30
0.0
  0
SPLINE
  5
319
100
AcDbEntity
  8
RACCORDO
100
AcDbSpline
 62
250
  6
CONTINUOUS
 70
0
 71
3
 72
9
 73
5
 74
0
 42
0.0000001
 43
0.0000001
 44
0.0000000001
 40
0.0
 40
0.0
 40
0.0
 40
0.0
 40
0.4506573102
 40
1.0
 40
1.0
 40
1.0
 40
1.0
 10
-23.7501788438
 20
-6.3057106878
 30
0.0
 10
-23.7501774841
 20
-6.3209226475
 30
0.0
 10
-23.763073049
 20
-6.3547982663
 30
0.0
 10
-23.7903867569
 20
-6.3764123144
 30
0.0
 10
-23.8063020355
 20
-6.3859280949
 30
0.0
  0
SPLINE
  5
31A
100
AcDbEntity
  8
RACCORDO
100
AcDbSpline
 62
250
  6
CONTINUOUS
 70
0
 71
3
 72
9
 73
5
 74
0
 42
0.0000001
 43
0.0000001
 44
0.0000000001
 40
0.0
 40
0.0
 40
0.0
 40
0.0
 40
0.4506793332
 40
1.0
 40
1.0
 40
1.0
 40
1.0
 10
-23.750178892
 20
-7.4842149938
 30
0.0
 10
-23.7501971424
 20
-7.4994152688
 30
0.0
 10
-23.763110459
 20
-7.5332456096
 30
0.0
 10
-23.7904003851
 20
-7.5548382577
 30
0.0
 10
-23.8063020355
 20
-7.5643458899
 30
0.0
  0
SPLINE
  5
31B
100
AcDbEntity
  8
RACCORDO
100
AcDbSpline
 62
250
  6
CONTINUOUS
 70
0
 71
3
 72
9
 73
5
 74
0
 42
0.0000001
 43
0.0000001
 44
0.0000000001
 40
0.0
 40
0.0
 40
0.0
 40
0.0
 40
0.4669412023
 40
1.0
 40
1.0
 40
1.0
 40
1.0
 10
-23.2159571019
 20
-8.4243814908
 30
0.0
 10
-23.2258728332
 20
-8.418675142
 30
0.0
 10
-23.2506808801
 20
-8.412247984
 30
0.0
 10
-23.2753408102
 20
-8.4170942164
 30
0.0
 10
-23.2876967137
 20
-8.4213257248
 30
0.0
  0
SPLINE
  5
31C
100
AcDbEntity
  8
RACCORDO
100
AcDbSpline
 62
250
  6
CONTINUOUS
 70
0
 71
3
 72
9
 73
5
 74
0
 42
0.0000001
 43
0.0000001
 44
0.0000000001
 40
0.0
 40
0.0
 40
0.0
 40
0.0
 40
0.4669282741
 40
1.0
 40
1.0
 40
1.0
 40
1.0
 10
-23.0008689224
 20
-8.5485706334
 30
0.0
 10
-23.0107880084
 20
-8.542846632
 30
0.0
 10
-23.0356197314
 20
-8.5363903739
 30
0.0
 10
-23.0603082203
 20
-8.5412391039
 30
0.0
 10
-23.0726774247
 20
-8.5454751675
 30
0.0
  0
SPLINE
  5
31D
100
AcDbEntity
  8
RACCORDO
100
AcDbSpline
 62
250
  6
CONTINUOUS
 70
0
 71
3
 72
10
 73
6
 74
0
 42
0.0000001
 43
0.0000001
 44
0.0000000001
 40
0.0
 40
0.0
 40
0.0
 40
0.0
 40
0.1010245078
 40
0.2951370625
 40
1.0
 40
1.0
 40
1.0
 40
1.0
 10
-22.0266825526
 20
-8.7408673479
 30
0.0
 10
-22.025898826
 20
-8.7409569223
 30
0.0
 10
-22.0242932698
 20
-8.7431537657
 30
0.0
 10
-22.0226344892
 20
-8.7505156584
 30
0.0
 10
-22.0220601167
 20
-8.7577068009
 30
0.0
 10
-22.0218189407
 20
-8.7632052899
 30
0.0
  0
SPLINE
  5
31E
100
AcDbEntity
  8
RACCORDO
100
AcDbSpline
 62
250
  6
CONTINUOUS
 70
0
 71
3
 72
10
 73
6
 74
0
 42
0.0000001
 43
0.0000001
 44
0.0000000001
 40
0.0
 40
0.0
 40
0.0
 40
0.0
 40
0.1010242249
 40
0.2951367447
 40
1.0
 40
1.0
 40
1.0
 40
1.0
 10
-22.5825662157
 20
-8.675573555
 30
0.0
 10
-22.5817824921
 20
-8.675663129
 30
0.0
 10
-22.5801769475
 20
-8.6778599776
 30
0.0
 10
-22.5785181948
 20
-8.6852218623
 30
0.0
 10
-22.5779438397
 20
-8.6924130029
 30
0.0
 10
-22.5777026778
 20
-8.6979114888
 30
0.0
  0
SPLINE
  5
31F
100
AcDbEntity
  8
RACCORDO
100
AcDbSpline
 62
250
  6
CONTINUOUS
 70
0
 71
3
 72
9
 73
5
 74
0
 42
0.0000001
 43
0.0000001
 44
0.0000000001
 40
0.0
 40
0.0
 40
0.0
 40
0.0
 40
0.4668023237
 40
1.0
 40
1.0
 40
1.0
 40
1.0
 10
-21.7310676536
 20
-8.8342196512
 30
0.0
 10
-21.7409828548
 20
-8.8284942926
 30
0.0
 10
-21.7658170408
 20
-8.8220386343
 30
0.0
 10
-21.7905054831
 20
-8.8268902457
 30
0.0
 10
-21.8028780458
 20
-8.8311274594
 30
0.0
  0
SPLINE
  5
320
100
AcDbEntity
  8
RACCORDO
100
AcDbSpline
 62
250
  6
CONTINUOUS
 70
0
 71
3
 72
9
 73
5
 74
0
 42
0.0000001
 43
0.0000001
 44
0.0000000001
 40
0.0
 40
0.0
 40
0.0
 40
0.0
 40
0.271671907
 40
1.0
 40
1.0
 40
1.0
 40
1.0
 10
44.6115551369
 20
-57.1067068049
 30
0.0
 10
44.6116704629
 20
-57.1249524145
 30
0.0
 10
44.6092892698
 20
-57.1919967982
 30
0.0
 10
44.5947282828
 20
-57.2593761992
 30
0.0
 10
44.5745468346
 20
-57.3039347798
 30
0.0
  0
SPLINE
  5
321
100
AcDbEntity
  8
RACCORDO
100
AcDbSpline
 62
250
  6
CONTINUOUS
 70
0
 71
3
 72
9
 73
5
 74
0
 42
0.0000001
 43
0.0000001
 44
0.0000000001
 40
0.0
 40
0.0
 40
0.0
 40
0.0
 40
0.2406572623
 40
1.0
 40
1.0
 40
1.0
 40
1.0
 10
44.1167500055
 20
11.921883687
 30
0.0
 10
44.1261859503
 20
11.9165141218
 30
0.0
 10
44.164835341
 20
11.893224009
 30
0.0
 10
44.2012594782
 20
11.866311156
 30
0.0
 10
44.2275831069
 20
11.8443896173
 30
0.0
  0
SPLINE
  5
322
100
AcDbEntity
  8
RACCORDO
100
AcDbSpline
 62
250
  6
CONTINUOUS
 70
0
 71
3
 72
11
 73
7
 74
0
 42
0.0000001
 43
0.0000001
 44
0.0000000001
 40
0.0
 40
0.0
 40
0.0
 40
0.0
 40
0.2496890295
 40
0.5120539422
 40
0.767987209
 40
1.0
 40
1.0
 40
1.0
 40
1.0
 10
44.2275831069
 20
11.8443896173
 30
0.0
 10
44.2846667945
 20
11.7968520123
 30
0.0
 10
44.3897705533
 20
11.684602623
 30
0.0
 10
44.5108981198
 20
11.4892965502
 30
0.0
 10
44.5906196448
 20
11.2793486582
 30
0.0
 10
44.6119880353
 20
11.1338815602
 30
0.0
 10
44.6115551844
 20
11.064856088
 30
0.0
  0
SPLINE
  5
323
100
AcDbEntity
  8
RACCORDO
100
AcDbSpline
 62
250
  6
CONTINUOUS
 70
0
 71
3
 72
9
 73
5
 74
0
 42
0.0000001
 43
0.0000001
 44
0.0000000001
 40
0.0
 40
0.0
 40
0.0
 40
0.0
 40
0.2589997977
 40
1.0
 40
1.0
 40
1.0
 40
1.0
 10
-24.6409851557
 20
-8.0569212862
 30
0.0
 10
-24.6428999211
 20
-8.0456793787
 30
0.0
 10
-24.6494371026
 20
-8.0021376841
 30
0.0
 10
-24.6525027754
 20
-7.9580377511
 30
0.0
 10
-24.6523608613
 20
-7.9254116898
 30
0.0
  0
SPLINE
  5
324
100
AcDbEntity
  8
RACCORDO
100
AcDbSpline
 62
7
  6
CONTINUOUS
 70
0
 71
3
 72
11
 73
7
 74
0
 42
0.0000001
 43
0.0000001
 44
0.0000000001
 40
0.0
 40
0.0
 40
0.0
 40
0.0
 40
0.229611829
 40
0.4838147656
 40
0.7465993535
 40
1.0
 40
1.0
 40
1.0
 40
1.0
 10
-24.4340148647
 20
-7.7993418659
 30
0.0
 10
-24.4330234968
 20
-7.8632632792
 30
0.0
 10
-24.4120746171
 20
-7.9977947966
 30
0.0
 10
-24.3400287686
 20
-8.193808052
 30
0.0
 10
-24.2322811951
 20
-8.3806067401
 30
0.0
 10
-24.1388466759
 20
-8.4908086129
 30
0.0
 10
-24.0893903671
 20
-8.5411248198
 30
0.0
  0
SPLINE
  5
325
100
AcDbEntity
  8
RACCORDO
100
AcDbSpline
 62
7
  6
CONTINUOUS
 70
0
 71
3
 72
11
 73
7
 74
0
 42
0.0000001
 43
0.0000001
 44
0.0000000001
 40
0.0
 40
0.0
 40
0.0
 40
0.0
 40
0.2595208146
 40
0.5136372252
 40
0.7607450358
 40
1.0
 40
1.0
 40
1.0
 40
1.0
 10
-24.0893903671
 20
-8.5411248198
 30
0.0
 10
-24.0775933617
 20
-8.5525814965
 30
0.0
 10
-24.0546348988
 20
-8.575705773
 30
0.0
 10
-24.0169182804
 20
-8.6058394779
 30
0.0
 10
-23.9787178092
 20
-8.6331326079
 30
0.0
 10
-23.9522328958
 20
-8.6489453386
 30
0.0
 10
-23.9391037752
 20
-8.6565259283
 30
0.0
  0
SPLINE
  5
326
100
AcDbEntity
  8
RACCORDO
100
AcDbSpline
 62
250
  6
CONTINUOUS
 70
0
 71
3
 72
11
 73
7
 74
0
 42
0.0000001
 43
0.0000001
 44
0.0000000001
 40
0.0
 40
0.0
 40
0.0
 40
0.0
 40
0.2332241282
 40
0.4952487517
 40
0.7605132904
 40
1.0
 40
1.0
 40
1.0
 40
1.0
 10
-23.8063024161
 20
-7.5643460265
 30
0.0
 10
-23.8024256543
 20
-7.6446568765
 30
0.0
 10
-23.7655184142
 20
-7.813869411
 30
0.0
 10
-23.6534834556
 20
-8.0528000499
 30
0.0
 10
-23.4941233161
 20
-8.2658582027
 30
0.0
 10
-23.359060033
 20
-8.3798047113
 30
0.0
 10
-23.2876967404
 20
-8.4213257344
 30
0.0
  0
SPLINE
  5
327
100
AcDbEntity
  8
RACCORDO
100
AcDbSpline
 62
250
  6
CONTINUOUS
 70
0
 71
3
 72
11
 73
7
 74
0
 42
0.0000001
 43
0.0000001
 44
0.0000000001
 40
0.0
 40
0.0
 40
0.0
 40
0.0
 40
0.2414874255
 40
0.4970942145
 40
0.7543700549
 40
1.0
 40
1.0
 40
1.0
 40
1.0
 10
-24.345542989
 20
-7.7578309054
 30
0.0
 10
-24.356147027
 20
-7.825440526
 30
0.0
 10
-24.3584195991
 20
-7.9680179124
 30
0.0
 10
-24.3133071139
 20
-8.1786245926
 30
0.0
 10
-24.2239599113
 20
-8.3758667125
 30
0.0
 10
-24.1377726302
 20
-8.4912163931
 30
0.0
 10
-24.0894889073
 20
-8.5413586924
 30
0.0
  0
SPLINE
  5
328
100
AcDbEntity
  8
RACCORDO
100
AcDbSpline
 62
250
  6
CONTINUOUS
 70
0
 71
3
 72
9
 73
5
 74
0
 42
0.0000001
 43
0.0000001
 44
0.0000000001
 40
0.0
 40
0.0
 40
0.0
 40
0.0
 40
0.5480817754
 40
1.0
 40
1.0
 40
1.0
 40
1.0
 10
-24.6523608437
 20
29.173091808
 30
0.0
 10
-24.6524731599
 20
29.1915494993
 30
0.0
 10
-24.6481560417
 20
29.2259716815
 30
0.0
 10
-24.6264753609
 20
29.254746325
 30
0.0
 10
-24.6136680251
 20
29.2629685403
 30
0.0
  0
SPLINE
  5
329
100
AcDbEntity
  8
RACCORDO
100
AcDbSpline
 62
7
  6
CONTINUOUS
 70
0
 71
3
 72
9
 73
5
 74
0
 42
0.0000001
 43
0.0000001
 44
0.0000000001
 40
0.0
 40
0.0
 40
0.0
 40
0.0
 40
0.5497382297
 40
1.0
 40
1.0
 40
1.0
 40
1.0
 10
-24.4340148647
 20
29.2931177319
 30
0.0
 10
-24.4340148646
 20
29.3115663173
 30
0.0
 10
-24.4296264681
 20
29.3457937051
 30
0.0
 10
-24.4082512109
 20
29.3745998998
 30
0.0
 10
-24.3955782681
 20
29.3828289193
 30
0.0
  0
SPLINE
  5
32A
100
AcDbEntity
  8
RACCORDO
100
AcDbSpline
 62
250
  6
CONTINUOUS
 70
0
 71
3
 72
9
 73
5
 74
0
 42
0.0000001
 43
0.0000001
 44
0.0000000001
 40
0.0
 40
0.0
 40
0.0
 40
0.0
 40
0.2372294058
 40
1.0
 40
1.0
 40
1.0
 40
1.0
 10
-23.4192690905
 20
29.9746147024
 30
0.0
 10
-23.4226747879
 20
29.9725055685
 30
0.0
 10
-23.436224698
 20
29.9622869302
 30
0.0
 10
-23.4455680369
 20
29.9471841321
 30
0.0
 10
-23.4502050587
 20
29.9351674909
 30
0.0
  0
SPLINE
  5
32B
100
AcDbEntity
  8
RACCORDO
100
AcDbSpline
 62
250
  6
CONTINUOUS
 70
0
 71
3
 72
9
 73
5
 74
0
 42
0.0000001
 43
0.0000001
 44
0.0000000001
 40
0.0
 40
0.0
 40
0.0
 40
0.0
 40
0.2319353865
 40
1.0
 40
1.0
 40
1.0
 40
1.0
 10
-23.4502050587
 20
29.9351674909
 30
0.0
 10
-23.4516506462
 20
29.9314213135
 30
0.0
 10
-23.456965843
 20
29.9149152948
 30
0.0
 10
-23.4588411059
 20
29.8974304765
 30
0.0
 10
-23.4589199922
 20
29.884133476
 30
0.0
  0
SPLINE
  5
32C
100
AcDbEntity
  8
RACCORDO
100
AcDbSpline
 62
250
  6
CONTINUOUS
 70
0
 71
3
 72
9
 73
5
 74
0
 42
0.0000001
 43
0.0000001
 44
0.0000000001
 40
0.0
 40
0.0
 40
0.0
 40
0.0
 40
0.267121644
 40
1.0
 40
1.0
 40
1.0
 40
1.0
 10
-24.6136680793
 20
29.9304304196
 30
0.0
 10
-24.6198253366
 20
29.9413523657
 30
0.0
 10
-24.6405287792
 20
29.9834008695
 30
0.0
 10
-24.6525677605
 20
30.0305899678
 30
0.0
 10
-24.6523608533
 20
30.0649886835
 30
0.0
  0
SPLINE
  5
32D
100
AcDbEntity
  8
RACCORDO
100
AcDbSpline
 62
7
  6
CONTINUOUS
 70
0
 71
3
 72
9
 73
5
 74
0
 42
0.0000001
 43
0.0000001
 44
0.0000000001
 40
0.0
 40
0.0
 40
0.0
 40
0.0
 40
0.2673070887
 40
1.0
 40
1.0
 40
1.0
 40
1.0
 10
-24.3955782681
 20
30.0543551748
 30
0.0
 10
-24.4016366674
 20
30.0652852092
 30
0.0
 10
-24.4220101178
 20
30.1072885181
 30
0.0
 10
-24.4340148644
 20
30.1541980732
 30
0.0
 10
-24.4340148647
 20
30.1884519804
 30
0.0
  0
SPLINE
  5
32E
100
AcDbEntity
  8
RACCORDO
100
AcDbSpline
 62
250
  6
CONTINUOUS
 70
0
 71
3
 72
9
 73
5
 74
0
 42
0.0000001
 43
0.0000001
 44
0.0000000001
 40
0.0
 40
0.0
 40
0.0
 40
0.0
 40
0.4740218871
 40
1.0
 40
1.0
 40
1.0
 40
1.0
 10
-23.4589200013
 20
30.7634590185
 30
0.0
 10
-23.4587841561
 20
30.7408685542
 30
0.0
 10
-23.4503631688
 20
30.6932468484
 30
0.0
 10
-23.4314549254
 20
30.6490957458
 30
0.0
 10
-23.4192691463
 20
30.6271900146
 30
0.0
  0
SPLINE
  5
32F
100
AcDbEntity
  8
RACCORDO
100
AcDbSpline
 62
250
  6
CONTINUOUS
 70
0
 71
3
 72
9
 73
5
 74
0
 42
0.0000001
 43
0.0000001
 44
0.0000000001
 40
0.0
 40
0.0
 40
0.0
 40
0.0
 40
0.5480817754
 40
1.0
 40
1.0
 40
1.0
 40
1.0
 10
-24.6523608437
 20
-2.6692489869
 30
0.0
 10
-24.6524731599
 20
-2.6507912956
 30
0.0
 10
-24.6481560417
 20
-2.6163691135
 30
0.0
 10
-24.6264753609
 20
-2.5875944699
 30
0.0
 10
-24.6136680251
 20
-2.5793722546
 30
0.0
  0
SPLINE
  5
330
100
AcDbEntity
  8
RACCORDO
100
AcDbSpline
 62
7
  6
CONTINUOUS
 70
0
 71
3
 72
9
 73
5
 74
0
 42
0.0000001
 43
0.0000001
 44
0.0000000001
 40
0.0
 40
0.0
 40
0.0
 40
0.0
 40
0.5497382297
 40
1.0
 40
1.0
 40
1.0
 40
1.0
 10
-24.4340148647
 20
-2.549223063
 30
0.0
 10
-24.4340148646
 20
-2.5307744776
 30
0.0
 10
-24.4296264681
 20
-2.4965470898
 30
0.0
 10
-24.4082512109
 20
-2.4677408951
 30
0.0
 10
-24.3955782681
 20
-2.4595118756
 30
0.0
  0
SPLINE
  5
331
100
AcDbEntity
  8
RACCORDO
100
AcDbSpline
 62
250
  6
CONTINUOUS
 70
0
 71
3
 72
9
 73
5
 74
0
 42
0.0000001
 43
0.0000001
 44
0.0000000001
 40
0.0
 40
0.0
 40
0.0
 40
0.0
 40
0.2372294058
 40
1.0
 40
1.0
 40
1.0
 40
1.0
 10
-23.4192690905
 20
-1.8677260925
 30
0.0
 10
-23.4226747879
 20
-1.8698352265
 30
0.0
 10
-23.436224698
 20
-1.8800538647
 30
0.0
 10
-23.4455680369
 20
-1.8951566628
 30
0.0
 10
-23.4502050587
 20
-1.907173304
 30
0.0
  0
SPLINE
  5
332
100
AcDbEntity
  8
RACCORDO
100
AcDbSpline
 62
250
  6
CONTINUOUS
 70
0
 71
3
 72
9
 73
5
 74
0
 42
0.0000001
 43
0.0000001
 44
0.0000000001
 40
0.0
 40
0.0
 40
0.0
 40
0.0
 40
0.2319353865
 40
1.0
 40
1.0
 40
1.0
 40
1.0
 10
-23.4502050587
 20
-1.907173304
 30
0.0
 10
-23.4516506462
 20
-1.9109194814
 30
0.0
 10
-23.456965843
 20
-1.9274255001
 30
0.0
 10
-23.4588411059
 20
-1.9449103185
 30
0.0
 10
-23.4589199922
 20
-1.9582073189
 30
0.0
  0
SPLINE
  5
333
100
AcDbEntity
  8
RACCORDO
100
AcDbSpline
 62
250
  6
CONTINUOUS
 70
0
 71
3
 72
9
 73
5
 74
0
 42
0.0000001
 43
0.0000001
 44
0.0000000001
 40
0.0
 40
0.0
 40
0.0
 40
0.0
 40
0.267121644
 40
1.0
 40
1.0
 40
1.0
 40
1.0
 10
-24.6136680793
 20
-1.9119103753
 30
0.0
 10
-24.6198253366
 20
-1.9009884293
 30
0.0
 10
-24.6405287792
 20
-1.8589399255
 30
0.0
 10
-24.6525677605
 20
-1.8117508271
 30
0.0
 10
-24.6523608533
 20
-1.7773521114
 30
0.0
  0
SPLINE
  5
334
100
AcDbEntity
  8
RACCORDO
100
AcDbSpline
 62
7
  6
CONTINUOUS
 70
0
 71
3
 72
9
 73
5
 74
0
 42
0.0000001
 43
0.0000001
 44
0.0000000001
 40
0.0
 40
0.0
 40
0.0
 40
0.0
 40
0.2673070887
 40
1.0
 40
1.0
 40
1.0
 40
1.0
 10
-24.3955782681
 20
-1.7879856201
 30
0.0
 10
-24.4016366674
 20
-1.7770555857
 30
0.0
 10
-24.4220101178
 20
-1.7350522768
 30
0.0
 10
-24.4340148644
 20
-1.6881427217
 30
0.0
 10
-24.4340148647
 20
-1.6538888145
 30
0.0
  0
SPLINE
  5
335
100
AcDbEntity
  8
RACCORDO
100
AcDbSpline
 62
250
  6
CONTINUOUS
 70
0
 71
3
 72
9
 73
5
 74
0
 42
0.0000001
 43
0.0000001
 44
0.0000000001
 40
0.0
 40
0.0
 40
0.0
 40
0.0
 40
0.4740218871
 40
1.0
 40
1.0
 40
1.0
 40
1.0
 10
-23.4589200013
 20
-1.0788817764
 30
0.0
 10
-23.4587841561
 20
-1.1014722407
 30
0.0
 10
-23.4503631688
 20
-1.1490939465
 30
0.0
 10
-23.4314549254
 20
-1.1932450491
 30
0.0
 10
-23.4192691463
 20
-1.2151507804
 30
0.0
  0
SPLINE
  5
336
100
AcDbEntity
  8
RACCORDO
100
AcDbSpline
 62
250
  6
CONTINUOUS
 70
0
 71
3
 72
9
 73
5
 74
0
 42
0.0000001
 43
0.0000001
 44
0.0000000001
 40
0.0
 40
0.0
 40
0.0
 40
0.0
 40
0.2548661163
 40
1.0
 40
1.0
 40
1.0
 40
1.0
 10
-24.6691019247
 20
-2.5958789081
 30
0.0
 10
-24.6641857205
 20
-2.5954627753
 30
0.0
 10
-24.6449921102
 20
-2.5928743354
 30
0.0
 10
-24.6263111017
 20
-2.5863164718
 30
0.0
 10
-24.6136680791
 20
-2.5793722843
 30
0.0
  0
SPLINE
  5
337
100
AcDbEntity
  8
RACCORDO
100
AcDbSpline
 62
250
  6
CONTINUOUS
 70
0
 71
3
 72
9
 73
5
 74
0
 42
0.0000001
 43
0.0000001
 44
0.0000000001
 40
0.0
 40
0.0
 40
0.0
 40
0.0
 40
0.2548661163
 40
1.0
 40
1.0
 40
1.0
 40
1.0
 10
-24.6691019247
 20
29.2464618868
 30
0.0
 10
-24.6641857205
 20
29.2468780196
 30
0.0
 10
-24.6449921102
 20
29.2494664595
 30
0.0
 10
-24.6263111017
 20
29.2560243232
 30
0.0
 10
-24.6136680791
 20
29.2629685106
 30
0.0
  0
SPLINE
  5
338
100
AcDbEntity
  8
RACCORDO
100
AcDbSpline
 62
250
  6
CONTINUOUS
 70
0
 71
3
 72
8
 73
4
 74
0
 42
0.0000001
 43
0.0000001
 44
0.0000000001
 40
0.0
 40
0.0
 40
0.0
 40
0.0
 40
1.0
 40
1.0
 40
1.0
 40
1.0
 10
-19.9652836185
 20
1.1742865036
 30
0.0
 10
-19.9796927365
 20
1.1825651238
 30
0.0
 10
-19.9955481619
 20
1.1886585218
 30
0.0
 10
-20.0117522127
 20
1.1923445728
 30
0.0
  0
SPLINE
  5
339
100
AcDbEntity
  8
RACCORDO
100
AcDbSpline
 62
250
  6
CONTINUOUS
 70
0
 71
3
 72
9
 73
5
 74
0
 42
0.0000001
 43
0.0000001
 44
0.0000000001
 40
0.0
 40
0.0
 40
0.0
 40
0.0
 40
0.2408631369
 40
1.0
 40
1.0
 40
1.0
 40
1.0
 10
-23.0726774247
 20
-8.5454751675
 30
0.0
 10
-23.0649774759
 20
-8.5499209577
 30
0.0
 10
-23.0327118607
 20
-8.5678616466
 30
0.0
 10
-22.9993588026
 20
-8.5838211809
 30
0.0
 10
-22.9736423704
 20
-8.5949542638
 30
0.0
  0
SPLINE
  5
33A
100
AcDbEntity
  8
RACCORDO
100
AcDbSpline
 62
250
  6
CONTINUOUS
 70
0
 71
3
 72
9
 73
5
 74
0
 42
0.0000001
 43
0.0000001
 44
0.0000000001
 40
0.0
 40
0.0
 40
0.0
 40
0.0
 40
0.2426567992
 40
1.0
 40
1.0
 40
1.0
 40
1.0
 10
-22.916688367
 20
-8.6178253471
 30
0.0
 10
-22.8970248416
 20
-8.6251402984
 30
0.0
 10
-22.8152306082
 20
-8.6532204368
 30
0.0
 10
-22.7308293805
 20
-8.6735477859
 30
0.0
 10
-22.6663422597
 20
-8.6849059016
 30
0.0
  0
SPLINE
  5
33B
100
AcDbEntity
  8
RACCORDO
100
AcDbSpline
 62
250
  6
CONTINUOUS
 70
0
 71
3
 72
9
 73
5
 74
0
 42
0.0000001
 43
0.0000001
 44
0.0000000001
 40
0.0
 40
0.0
 40
0.0
 40
0.0
 40
0.2659520672
 40
1.0
 40
1.0
 40
1.0
 40
1.0
 10
-21.9284708251
 20
-8.7809681492
 30
0.0
 10
-21.9168670245
 20
-8.7840540488
 30
0.0
 10
-21.8735960591
 20
-8.7968865524
 30
0.0
 10
-21.8315789878
 20
-8.814557813
 30
0.0
 10
-21.8028780458
 20
-8.8311274594
 30
0.0
  0
SPLINE
  5
33C
100
AcDbEntity
  8
RACCORDO
100
AcDbSpline
 62
250
  6
CONTINUOUS
 70
0
 71
3
 72
9
 73
5
 74
0
 42
0.0000001
 43
0.0000001
 44
0.0000000001
 40
0.0
 40
0.0
 40
0.0
 40
0.0
 40
0.4514006875
 40
1.0
 40
1.0
 40
1.0
 40
1.0
 10
44.6664716641
 20
-57.0272185147
 30
0.0
 10
44.6664733894
 20
-57.0422481928
 30
0.0
 10
44.6539218692
 20
-57.0756777706
 30
0.0
 10
44.6271596767
 20
-57.0972123869
 30
0.0
 10
44.6115551369
 20
-57.1067068049
 30
0.0
  0
SPLINE
  5
33D
100
AcDbEntity
  8
RACCORDO
100
AcDbSpline
 62
250
  6
CONTINUOUS
 70
0
 71
3
 72
9
 73
5
 74
0
 42
0.0000001
 43
0.0000001
 44
0.0000000001
 40
0.0
 40
0.0
 40
0.0
 40
0.0
 40
0.451432943
 40
1.0
 40
1.0
 40
1.0
 40
1.0
 10
44.2128838582
 20
11.9297977691
 30
0.0
 10
44.1998701938
 20
11.9372648717
 30
0.0
 10
44.164707974
 20
11.9430262806
 30
0.0
 10
44.1327444669
 20
11.9306350812
 30
0.0
 10
44.1167500055
 20
11.921883687
 30
0.0
  0
SPLINE
  5
33E
100
AcDbEntity
  8
RACCORDO
100
AcDbSpline
 62
250
  6
CONTINUOUS
 70
0
 71
3
 72
9
 73
5
 74
0
 42
0.0000001
 43
0.0000001
 44
0.0000000001
 40
0.0
 40
0.0
 40
0.0
 40
0.0
 40
0.4514485159
 40
1.0
 40
1.0
 40
1.0
 40
1.0
 10
44.6664714127
 20
11.1441529059
 30
0.0
 10
44.6664303003
 20
11.1291492438
 30
0.0
 10
44.6538398758
 20
11.0958189971
 30
0.0
 10
44.627129716
 20
11.0743322487
 30
0.0
 10
44.6115551369
 20
11.0648560605
 30
0.0
  0
SPLINE
  5
33F
100
AcDbEntity
  8
RACCORDO
100
AcDbSpline
 62
250
  6
CONTINUOUS
 70
0
 71
3
 72
9
 73
5
 74
0
 42
0.0000001
 43
0.0000001
 44
0.0000000001
 40
0.0
 40
0.0
 40
0.0
 40
0.0
 40
0.4513858051
 40
1.0
 40
1.0
 40
1.0
 40
1.0
 10
-39.293054506
 20
60.1450802875
 30
0.0
 10
-39.3060692603
 20
60.1525967869
 30
0.0
 10
-39.3412971065
 20
60.1584403826
 30
0.0
 10
-39.3733271216
 20
60.146028345
 30
0.0
 10
-39.3893519113
 20
60.1372603565
 30
0.0
  0
SPLINE
  5
340
100
AcDbEntity
  8
RACCORDO
100
AcDbSpline
 62
250
  6
CONTINUOUS
 70
0
 71
3
 72
9
 73
5
 74
0
 42
0.0000001
 43
0.0000001
 44
0.0000000001
 40
0.0
 40
0.0
 40
0.0
 40
0.0
 40
0.2403637369
 40
1.0
 40
1.0
 40
1.0
 40
1.0
 10
-24.345542989
 20
-7.7578309054
 30
0.0
 10
-24.3529180906
 20
-7.7604768312
 30
0.0
 10
-24.3833219771
 20
-7.7722582832
 30
0.0
 10
-24.4125640103
 20
-7.7869555808
 30
0.0
 10
-24.4340081946
 20
-7.7993383745
 30
0.0
  0
LINE
  5
341
100
AcDbEntity
  8
RACCORDO
100
AcDbLine
 62
250
  6
CONTINUOUS
 10
-24.4340148648
 20
-2.5492230631
 11
-23.4589199423
 21
-1.9582072887
  0
SPLINE
  5
342
100
AcDbEntity
  8
RACCORDO
100
AcDbSpline
 62
250
  6
CONTINUOUS
 70
0
 71
3
 72
9
 73
5
 74
0
 42
0.0000001
 43
0.0000001
 44
0.0000000001
 40
0.0
 40
0.0
 40
0.0
 40
0.0
 40
0.2327168435
 40
1.0
 40
1.0
 40
1.0
 40
1.0
 10
-23.4589199423
 20
-5.4317993682
 30
0.0
 10
-23.4589204664
 20
-5.4423824519
 30
0.0
 10
-23.4614324364
 20
-5.4878527366
 30
0.0
 10
-23.472762423
 20
-5.5325845185
 30
0.0
 10
-23.4847515527
 20
-5.5653532862
 30
0.0
  0
SPLINE
  5
343
100
AcDbEntity
  8
RACCORDO
100
AcDbSpline
 62
250
  6
CONTINUOUS
 70
0
 71
3
 72
9
 73
5
 74
0
 42
0.0000001
 43
0.0000001
 44
0.0000000001
 40
0.0
 40
0.0
 40
0.0
 40
0.0
 40
0.2565744679
 40
1.0
 40
1.0
 40
1.0
 40
1.0
 10
-23.7186635284
 20
-6.0062410568
 30
0.0
 10
-23.726261468
 20
-6.023565235
 30
0.0
 10
-23.7542637405
 20
-6.0917718689
 30
0.0
 10
-23.7758202883
 20
-6.1626980582
 30
0.0
 10
-23.7872849493
 20
-6.2162979708
 30
0.0
  0
SPLINE
  5
344
100
AcDbEntity
  8
RACCORDO
100
AcDbSpline
 62
250
  6
CONTINUOUS
 70
0
 71
3
 72
9
 73
5
 74
0
 42
0.0000001
 43
0.0000001
 44
0.0000000001
 40
0.0
 40
0.0
 40
0.0
 40
0.0
 40
0.2611376641
 40
1.0
 40
1.0
 40
1.0
 40
1.0
 10
-23.7872849493
 20
-6.2162979708
 30
0.0
 10
-23.7903958129
 20
-6.2308419696
 30
0.0
 10
-23.8010073535
 20
-6.286795484
 30
0.0
 10
-23.8062998606
 20
-6.3438465331
 30
0.0
 10
-23.8063020355
 20
-6.3859280949
 30
0.0
  0
LINE
  5
345
100
AcDbEntity
  8
RACCORDO
100
AcDbLine
 62
250
  6
CONTINUOUS
 10
-23.4589199423
 20
30.7634590533
 11
-24.4340148649
 21
30.1884519802
  0
LINE
  5
346
100
AcDbEntity
  8
RACCORDO
100
AcDbLine
 62
250
  6
CONTINUOUS
 10
-23.4589199423
 20
-1.0788817416
 11
-24.4340148649
 21
-1.6538888147
  0
LINE
  5
347
100
AcDbEntity
  8
RACCORDO
100
AcDbLine
 62
250
  6
CONTINUOUS
 10
-24.4340148648
 20
29.2931177318
 11
-23.4589199423
 21
29.8841335062
  0
SPLINE
  5
348
100
AcDbEntity
  8
RACCORDO
100
AcDbSpline
 62
250
  6
CONTINUOUS
 70
0
 71
3
 72
11
 73
7
 74
0
 42
0.0000001
 43
0.0000001
 44
0.0000000001
 40
0.0
 40
0.0
 40
0.0
 40
0.0
 40
0.2372498694
 40
0.4989264528
 40
0.7612068258
 40
1.0
 40
1.0
 40
1.0
 40
1.0
 10
-23.3631713251
 20
8.0596636882
 30
0.0
 10
-23.342857129
 20
8.0483340351
 30
0.0
 10
-23.3044770751
 20
8.0166188411
 30
0.0
 10
-23.2603349238
 20
7.95567722
 30
0.0
 10
-23.2309985881
 20
7.8862209486
 30
0.0
 10
-23.2235638526
 20
7.836803556
 30
0.0
 10
-23.2242388986
 20
7.8134019845
 30
0.0
  0
SPLINE
  5
349
100
AcDbEntity
  8
RACCORDO
100
AcDbSpline
 62
250
  6
CONTINUOUS
 70
0
 71
3
 72
9
 73
5
 74
0
 42
0.0000001
 43
0.0000001
 44
0.0000000001
 40
0.0
 40
0.0
 40
0.0
 40
0.0
 40
0.2324258842
 40
1.0
 40
1.0
 40
1.0
 40
1.0
 10
-23.4589199423
 20
4.5171700456
 30
0.0
 10
-23.4589184439
 20
4.5297365061
 30
0.0
 10
-23.4558659818
 20
4.5837945879
 30
0.0
 10
-23.4421965028
 20
4.636948526
 30
0.0
 10
-23.4277272227
 20
4.6758444839
 30
0.0
  0
SPLINE
  5
34A
100
AcDbEntity
  8
RACCORDO
100
AcDbSpline
 62
250
  6
CONTINUOUS
 70
0
 71
3
 72
9
 73
5
 74
0
 42
0.0000001
 43
0.0000001
 44
0.0000000001
 40
0.0
 40
0.0
 40
0.0
 40
0.0
 40
0.2663363209
 40
1.0
 40
1.0
 40
1.0
 40
1.0
 10
-23.3593876456
 20
4.8072605184
 30
0.0
 10
-23.3497347027
 20
4.8213382693
 30
0.0
 10
-23.3112913767
 20
4.8725573476
 30
0.0
 10
-23.2638600897
 20
4.9177579325
 30
0.0
 10
-23.2242388992
 20
4.9430768802
 30
0.0
  0
SPLINE
  5
34B
100
AcDbEntity
  8
RACCORDO
100
AcDbSpline
 62
250
  6
CONTINUOUS
 70
0
 71
3
 72
15
 73
11
 74
0
 42
0.0000001
 43
0.0000001
 44
0.0000000001
 40
0.0
 40
0.0
 40
0.0
 40
0.0
 40
0.1428601358
 40
0.2704135798
 40
0.385392124
 40
0.4935793864
 40
0.6028948308
 40
0.7208829489
 40
0.8526504015
 40
1.0
 40
1.0
 40
1.0
 40
1.0
 10
-23.2242388992
 20
7.8134019842
 30
0.0
 10
-23.2389359264
 20
7.8051934406
 30
0.0
 10
-23.2681418215
 20
7.7919074656
 30
0.0
 10
-23.3128972293
 20
7.78206696
 30
0.0
 10
-23.3547888003
 20
7.7842599476
 30
0.0
 10
-23.3918998723
 20
7.7990627447
 30
0.0
 10
-23.4219443604
 20
7.8258944448
 30
0.0
 10
-23.4435609219
 20
7.8629260833
 30
0.0
 10
-23.4563901583
 20
7.9083185882
 30
0.0
 10
-23.4589189648
 20
7.9413131882
 30
0.0
 10
-23.4589199423
 20
7.9586761832
 30
0.0
  0
SPLINE
  5
34C
100
AcDbEntity
  8
RACCORDO
100
AcDbSpline
 62
250
  6
CONTINUOUS
 70
0
 71
3
 72
9
 73
5
 74
0
 42
0.0000001
 43
0.0000001
 44
0.0000000001
 40
0.0
 40
0.0
 40
0.0
 40
0.0
 40
0.2745050789
 40
1.0
 40
1.0
 40
1.0
 40
1.0
 10
-23.3631713251
 20
8.0596636882
 30
0.0
 10
-23.3664910114
 20
8.0577272693
 30
0.0
 10
-23.3788496169
 20
8.0511953364
 30
0.0
 10
-23.3926573004
 20
8.0469720719
 30
0.0
 10
-23.4027948702
 20
8.046340605
 30
0.0
  0
SPLINE
  5
34D
100
AcDbEntity
  8
RACCORDO
100
AcDbSpline
 62
250
  6
CONTINUOUS
 70
0
 71
3
 72
11
 73
7
 74
0
 42
0.0000001
 43
0.0000001
 44
0.0000000001
 40
0.0
 40
0.0
 40
0.0
 40
0.0
 40
0.2188996714
 40
0.4548434395
 40
0.7144728361
 40
1.0
 40
1.0
 40
1.0
 40
1.0
 10
-39.6983568864
 20
60.1908704389
 30
0.0
 10
-39.6761359301
 20
60.1987134439
 30
0.0
 10
-39.6273269791
 20
60.2081196096
 30
0.0
 10
-39.5499238583
 20
60.2027164051
 30
0.0
 10
-39.468715976
 20
60.1789773887
 30
0.0
 10
-39.4158726964
 20
60.1527974665
 30
0.0
 10
-39.3893518612
 20
60.1372603825
 30
0.0
  0
SPLINE
  5
34E
100
AcDbEntity
  8
RACCORDO
100
AcDbSpline
 62
250
  6
CONTINUOUS
 70
0
 71
3
 72
9
 73
5
 74
0
 42
0.0000001
 43
0.0000001
 44
0.0000000001
 40
0.0
 40
0.0
 40
0.0
 40
0.0
 40
0.5487416148
 40
1.0
 40
1.0
 40
1.0
 40
1.0
 10
-20.8008584365
 20
2.1309299218
 30
0.0
 10
-20.800718672
 20
2.1121866035
 30
0.0
 10
-20.8050926297
 20
2.077204036
 30
0.0
 10
-20.8276379722
 20
2.0482821554
 30
0.0
 10
-20.8408088489
 20
2.0402746559
 30
0.0
  0
SPLINE
  5
34F
100
AcDbEntity
  8
RACCORDO
100
AcDbSpline
 62
250
  6
CONTINUOUS
 70
0
 71
3
 72
9
 73
5
 74
0
 42
0.0000001
 43
0.0000001
 44
0.0000000001
 40
0.0
 40
0.0
 40
0.0
 40
0.0
 40
0.6849637591
 40
1.0
 40
1.0
 40
1.0
 40
1.0
 10
-20.486908451
 20
2.4367420301
 30
0.0
 10
-20.480542658
 20
2.4298610244
 30
0.0
 10
-20.4723946853
 20
2.4210285741
 30
0.0
 10
-20.4647437274
 20
2.4053877935
 30
0.0
 10
-20.4672174215
 20
2.4018566602
 30
0.0
  0
SPLINE
  5
350
100
AcDbEntity
  8
RACCORDO
100
AcDbSpline
 62
250
  6
CONTINUOUS
 70
0
 71
3
 72
9
 73
5
 74
0
 42
0.0000001
 43
0.0000001
 44
0.0000000001
 40
0.0
 40
0.0
 40
0.0
 40
0.0
 40
0.6851664348
 40
1.0
 40
1.0
 40
1.0
 40
1.0
 10
-19.9490002101
 20
3.2009855981
 30
0.0
 10
-19.9426309047
 20
3.1941007955
 30
0.0
 10
-19.9344789262
 20
3.1852765674
 30
0.0
 10
-19.9268334408
 20
3.1696106531
 30
0.0
 10
-19.9293172853
 20
3.1660886975
 30
0.0
  0
SPLINE
  5
351
100
AcDbEntity
  8
RACCORDO
100
AcDbSpline
 62
250
  6
CONTINUOUS
 70
0
 71
3
 72
9
 73
5
 74
0
 42
0.0000001
 43
0.0000001
 44
0.0000000001
 40
0.0
 40
0.0
 40
0.0
 40
0.0
 40
0.5493426898
 40
1.0
 40
1.0
 40
1.0
 40
1.0
 10
-19.8601210641
 20
3.4547706262
 30
0.0
 10
-19.8442057854
 20
3.4642864067
 30
0.0
 10
-19.8168920776
 20
3.4859004548
 30
0.0
 10
-19.8039965126
 20
3.5197760736
 30
0.0
 10
-19.8039978724
 20
3.5349880333
 30
0.0
  0
SPLINE
  5
352
100
AcDbEntity
  8
RACCORDO
100
AcDbSpline
 62
250
  6
CONTINUOUS
 70
0
 71
3
 72
9
 73
5
 74
0
 42
0.0000001
 43
0.0000001
 44
0.0000000001
 40
0.0
 40
0.0
 40
0.0
 40
0.0
 40
0.5493324007
 40
1.0
 40
1.0
 40
1.0
 40
1.0
 10
-19.8601210641
 20
3.7352651277
 30
0.0
 10
-19.8442121588
 20
3.7447770959
 30
0.0
 10
-19.8169095746
 20
3.766381132
 30
0.0
 10
-19.804005696
 20
3.8002355714
 30
0.0
 10
-19.803997881
 20
3.8154420687
 30
0.0
  0
SPLINE
  5
353
100
AcDbEntity
  8
RACCORDO
100
AcDbSpline
 62
250
  6
CONTINUOUS
 70
0
 71
3
 72
10
 73
6
 74
0
 42
0.0000001
 43
0.0000001
 44
0.0000000001
 40
0.0
 40
0.0
 40
0.0
 40
0.0
 40
0.2508076981
 40
0.5149539274
 40
1.0
 40
1.0
 40
1.0
 40
1.0
 10
-20.0234379723
 20
3.8767525862
 30
0.0
 10
-20.0193261645
 20
3.9010138732
 30
0.0
 10
-20.0196564674
 20
3.9525998535
 30
0.0
 10
-20.0465766192
 20
4.047114296
 30
0.0
 10
-20.0952226286
 20
4.1107300851
 30
0.0
 10
-20.1366967486
 20
4.1340666869
 30
0.0
  0
SPLINE
  5
354
100
AcDbEntity
  8
RACCORDO
100
AcDbSpline
 62
250
  6
CONTINUOUS
 70
0
 71
3
 72
10
 73
6
 74
0
 42
0.0000001
 43
0.0000001
 44
0.0000000001
 40
0.0
 40
0.0
 40
0.0
 40
0.0
 40
0.6810296868
 40
0.8791641691
 40
1.0
 40
1.0
 40
1.0
 40
1.0
 10
-21.6737045102
 20
4.1953832248
 30
0.0
 10
-21.6672220426
 20
4.1884073073
 30
0.0
 10
-21.6590665691
 20
4.1789421008
 30
0.0
 10
-21.6525243516
 20
4.1666506776
 30
0.0
 10
-21.6525009826
 20
4.1616238839
 30
0.0
 10
-21.6534831682
 20
4.1602490156
 30
0.0
  0
SPLINE
  5
355
100
AcDbEntity
  8
RACCORDO
100
AcDbSpline
 62
250
  6
CONTINUOUS
 70
0
 71
3
 72
9
 73
5
 74
0
 42
0.0000001
 43
0.0000001
 44
0.0000000001
 40
0.0
 40
0.0
 40
0.0
 40
0.0
 40
0.5500821771
 40
1.0
 40
1.0
 40
1.0
 40
1.0
 10
-21.584035828
 20
4.4487123846
 30
0.0
 10
-21.5678080051
 20
4.4582471029
 30
0.0
 10
-21.5399399005
 20
4.4799354963
 30
0.0
 10
-21.5266943004
 20
4.5142572408
 30
0.0
 10
-21.5266949973
 20
4.5296516294
 30
0.0
  0
SPLINE
  5
356
100
AcDbEntity
  8
RACCORDO
100
AcDbSpline
 62
250
  6
CONTINUOUS
 70
0
 71
3
 72
9
 73
5
 74
0
 42
0.0000001
 43
0.0000001
 44
0.0000000001
 40
0.0
 40
0.0
 40
0.0
 40
0.0
 40
0.5500721875
 40
1.0
 40
1.0
 40
1.0
 40
1.0
 10
-21.584035828
 20
4.7292068861
 30
0.0
 10
-21.5678141025
 20
4.7387380201
 30
0.0
 10
-21.539956685
 20
4.7604170041
 30
0.0
 10
-21.5267031331
 20
4.7947184488
 30
0.0
 10
-21.5266950066
 20
4.8101076715
 30
0.0
  0
SPLINE
  5
357
100
AcDbEntity
  8
RACCORDO
100
AcDbSpline
 62
250
  6
CONTINUOUS
 70
0
 71
3
 72
10
 73
6
 74
0
 42
0.0000001
 43
0.0000001
 44
0.0000000001
 40
0.0
 40
0.0
 40
0.0
 40
0.0
 40
0.2510715645
 40
0.5155165424
 40
1.0
 40
1.0
 40
1.0
 40
1.0
 10
-21.748803522
 20
4.8715320101
 30
0.0
 10
-21.7446467888
 20
4.8958162954
 30
0.0
 10
-21.7448505187
 20
4.9474597621
 30
0.0
 10
-21.7713660013
 20
5.0420803302
 30
0.0
 10
-21.8195405298
 20
5.1060258439
 30
0.0
 10
-21.8608444281
 20
5.1295679484
 30
0.0
  0
SPLINE
  5
358
100
AcDbEntity
  8
RACCORDO
100
AcDbSpline
 62
7
  6
CONTINUOUS
 70
0
 71
3
 72
9
 73
5
 74
0
 42
0.0000001
 43
0.0000001
 44
0.0000000001
 40
0.0
 40
0.0
 40
0.0
 40
0.0
 40
0.2830968947
 40
1.0
 40
1.0
 40
1.0
 40
1.0
 10
-20.7202827351
 20
1.4339971577
 30
0.0
 10
-20.7206224117
 20
1.4347478883
 30
0.0
 10
-20.721944233
 20
1.4373295388
 30
0.0
 10
-20.7239752551
 20
1.4396420787
 30
0.0
 10
-20.7257826928
 20
1.4406848352
 30
0.0
  0
SPLINE
  5
359
100
AcDbEntity
  8
RACCORDO
100
AcDbSpline
 62
250
  6
CONTINUOUS
 70
0
 71
3
 72
8
 73
4
 74
0
 42
0.0000001
 43
0.0000001
 44
0.0000000001
 40
0.0
 40
0.0
 40
0.0
 40
0.0
 40
1.0
 40
1.0
 40
1.0
 40
1.0
 10
-20.2324990617
 20
1.3198010369
 30
0.0
 10
-20.2435209557
 20
1.3261874211
 30
0.0
 10
-20.255607428
 20
1.3310124813
 30
0.0
 10
-20.2680082518
 20
1.3339258331
 30
0.0
  0
SPLINE
  5
35A
100
AcDbEntity
  8
RACCORDO
100
AcDbSpline
 62
250
  6
CONTINUOUS
 70
0
 71
3
 72
9
 73
5
 74
0
 42
0.0000001
 43
0.0000001
 44
0.0000000001
 40
0.0
 40
0.0
 40
0.0
 40
0.0
 40
0.570327805
 40
1.0
 40
1.0
 40
1.0
 40
1.0
 10
-20.0234379723
 20
0.1667491735
 30
0.0
 10
-20.0204570319
 20
0.1527250648
 30
0.0
 10
-20.0174747561
 20
0.1271521409
 30
0.0
 10
-20.0288353934
 20
0.1022434037
 30
0.0
 10
-20.0370377648
 20
0.0952153652
 30
0.0
  0
SPLINE
  5
35B
100
AcDbEntity
  8
RACCORDO
100
AcDbSpline
 62
250
  6
CONTINUOUS
 70
0
 71
3
 72
9
 73
5
 74
0
 42
0.0000001
 43
0.0000001
 44
0.0000000001
 40
0.0
 40
0.0
 40
0.0
 40
0.0
 40
0.5493426898
 40
1.0
 40
1.0
 40
1.0
 40
1.0
 10
-19.8601210641
 20
0.5035317177
 30
0.0
 10
-19.8442057854
 20
0.5130474982
 30
0.0
 10
-19.8168920776
 20
0.5346615463
 30
0.0
 10
-19.8039965126
 20
0.5685371651
 30
0.0
 10
-19.8039978724
 20
0.5837491248
 30
0.0
  0
SPLINE
  5
35C
100
AcDbEntity
  8
RACCORDO
100
AcDbSpline
 62
250
  6
CONTINUOUS
 70
0
 71
3
 72
9
 73
5
 74
0
 42
0.0000001
 43
0.0000001
 44
0.0000000001
 40
0.0
 40
0.0
 40
0.0
 40
0.0
 40
0.5493317926
 40
1.0
 40
1.0
 40
1.0
 40
1.0
 10
-19.8601210641
 20
0.7840262192
 30
0.0
 10
-19.844212543
 20
0.7935379592
 30
0.0
 10
-19.8169106303
 20
0.8151413936
 30
0.0
 10
-19.8040062501
 20
0.8489945566
 30
0.0
 10
-19.8039978823
 20
0.8642007244
 30
0.0
  0
SPLINE
  5
35D
100
AcDbEntity
  8
RACCORDO
100
AcDbSpline
 62
250
  6
CONTINUOUS
 70
0
 71
3
 72
9
 73
5
 74
0
 42
0.0000001
 43
0.0000001
 44
0.0000000001
 40
0.0
 40
0.0
 40
0.0
 40
0.0
 40
0.506292358
 40
1.0
 40
1.0
 40
1.0
 40
1.0
 10
-19.9490002101
 20
0.9315291689
 30
0.0
 10
-19.9379223827
 20
0.9567504906
 30
0.0
 10
-19.9244679257
 20
1.0106486841
 30
0.0
 10
-19.9296148793
 20
1.0661187429
 30
0.0
 10
-19.9371100005
 20
1.0919141159
 30
0.0
  0
SPLINE
  5
35E
100
AcDbEntity
  8
RACCORDO
100
AcDbSpline
 62
250
  6
CONTINUOUS
 70
0
 71
3
 72
9
 73
5
 74
0
 42
0.0000001
 43
0.0000001
 44
0.0000000001
 40
0.0
 40
0.0
 40
0.0
 40
0.0
 40
0.5158066174
 40
1.0
 40
1.0
 40
1.0
 40
1.0
 10
-19.9371100005
 20
1.0919141159
 30
0.0
 10
-19.9424106888
 20
1.1101570809
 30
0.0
 10
-19.9576106147
 20
1.1443763863
 30
0.0
 10
-19.9830719862
 20
1.1721371144
 30
0.0
 10
-19.9973357641
 20
1.1828406024
 30
0.0
  0
SPLINE
  5
35F
100
AcDbEntity
  8
RACCORDO
100
AcDbSpline
 62
250
  6
CONTINUOUS
 70
0
 71
3
 72
11
 73
7
 74
0
 42
0.0000001
 43
0.0000001
 44
0.0000000001
 40
0.0
 40
0.0
 40
0.0
 40
0.0
 40
0.2667310001
 40
0.5280856628
 40
0.7733419204
 40
1.0
 40
1.0
 40
1.0
 40
1.0
 10
-20.486908451
 20
1.0525396688
 30
0.0
 10
-20.4765153816
 20
1.0762019715
 30
0.0
 10
-20.4633986575
 20
1.1266992668
 30
0.0
 10
-20.4679975043
 20
1.2027588031
 30
0.0
 10
-20.4962493516
 20
1.2696503337
 30
0.0
 10
-20.5306086409
 20
1.3024311694
 30
0.0
 10
-20.5496604536
 20
1.3133550727
 30
0.0
  0
SPLINE
  5
360
100
AcDbEntity
  8
RACCORDO
100
AcDbSpline
 62
250
  6
CONTINUOUS
 70
0
 71
3
 72
11
 73
7
 74
0
 42
0.0000001
 43
0.0000001
 44
0.0000000001
 40
0.0
 40
0.0
 40
0.0
 40
0.0
 40
0.2372268474
 40
0.4994453218
 40
0.7619661539
 40
1.0
 40
1.0
 40
1.0
 40
1.0
 10
-20.8008584365
 20
0.9829289874
 30
0.0
 10
-20.8006868085
 20
1.0061503816
 30
0.0
 10
-20.8091732525
 20
1.0551469555
 30
0.0
 10
-20.8396797385
 20
1.123852061
 30
0.0
 10
-20.8845891911
 20
1.1842349402
 30
0.0
 10
-20.9231425121
 20
1.2157966957
 30
0.0
 10
-20.9434922781
 20
1.227146797
 30
0.0
  0
SPLINE
  5
361
100
AcDbEntity
  8
RACCORDO
100
AcDbSpline
 62
250
  6
CONTINUOUS
 70
0
 71
3
 72
9
 73
5
 74
0
 42
0.0000001
 43
0.0000001
 44
0.0000000001
 40
0.0
 40
0.0
 40
0.0
 40
0.0
 40
0.4564495729
 40
1.0
 40
1.0
 40
1.0
 40
1.0
 10
-20.486908451
 20
1.0525396688
 30
0.0
 10
-20.5354799401
 20
1.0634660726
 30
0.0
 10
-20.6485902351
 20
1.0580950132
 30
0.0
 10
-20.7497444862
 20
1.0129644503
 30
0.0
 10
-20.8008584365
 20
0.9829289874
 30
0.0
  0
SPLINE
  5
362
100
AcDbEntity
  8
RACCORDO
100
AcDbSpline
 62
250
  6
CONTINUOUS
 70
0
 71
3
 72
11
 73
7
 74
0
 42
0.0000001
 43
0.0000001
 44
0.0000000001
 40
0.0
 40
0.0
 40
0.0
 40
0.0
 40
0.2957955612
 40
0.5525835108
 40
0.7802244657
 40
1.0
 40
1.0
 40
1.0
 40
1.0
 10
-19.8601210641
 20
0.7840262192
 30
0.0
 10
-19.8601215313
 20
0.8023489603
 30
0.0
 10
-19.863327152
 20
0.8367629364
 30
0.0
 10
-19.8803659336
 20
0.882776084
 30
0.0
 10
-19.9095243773
 20
0.9167518693
 30
0.0
 10
-19.9357186524
 20
0.9285400674
 30
0.0
 10
-19.9490002101
 20
0.9315291689
 30
0.0
  0
SPLINE
  5
363
100
AcDbEntity
  8
RACCORDO
100
AcDbSpline
 62
250
  6
CONTINUOUS
 70
0
 71
3
 72
11
 73
7
 74
0
 42
0.0000001
 43
0.0000001
 44
0.0000000001
 40
0.0
 40
0.0
 40
0.0
 40
0.0
 40
0.2486657123
 40
0.511235633
 40
0.7678396771
 40
1.0
 40
1.0
 40
1.0
 40
1.0
 10
-20.0234379723
 20
0.1667491735
 30
0.0
 10
-19.9992947758
 20
0.187476689
 30
0.0
 10
-19.9548447894
 20
0.2362835074
 30
0.0
 10
-19.9035482848
 20
0.3207183396
 30
0.0
 10
-19.8695303869
 20
0.4112215843
 30
0.0
 10
-19.8601231553
 20
0.4738236285
 30
0.0
 10
-19.8601210641
 20
0.5035317177
 30
0.0
  0
SPLINE
  5
364
100
AcDbEntity
  8
RACCORDO
100
AcDbSpline
 62
250
  6
CONTINUOUS
 70
0
 71
3
 72
12
 73
8
 74
0
 42
0.0000001
 43
0.0000001
 44
0.0000000001
 40
0.0
 40
0.0
 40
0.0
 40
0.0
 40
0.2884328945
 40
0.5260421322
 40
0.6364785138
 40
0.748893935
 40
1.0
 40
1.0
 40
1.0
 40
1.0
 10
-19.8601210641
 20
3.7352651277
 30
0.0
 10
-19.8601226471
 20
3.7603112197
 30
0.0
 10
-19.8655909988
 20
3.8065871841
 30
0.0
 10
-19.8955773831
 20
3.8561876824
 30
0.0
 10
-19.9298440086
 20
3.8780176795
 30
0.0
 10
-19.9700747001
 20
3.8889639719
 30
0.0
 10
-20.0027766398
 20
3.8837210331
 30
0.0
 10
-20.0234379723
 20
3.8767525862
 30
0.0
  0
SPLINE
  5
365
100
AcDbEntity
  8
RACCORDO
100
AcDbSpline
 62
250
  6
CONTINUOUS
 70
0
 71
3
 72
9
 73
5
 74
0
 42
0.0000001
 43
0.0000001
 44
0.0000000001
 40
0.0
 40
0.0
 40
0.0
 40
0.0
 40
0.525251771
 40
1.0
 40
1.0
 40
1.0
 40
1.0
 10
-19.9115738634
 20
3.2628694253
 30
0.0
 10
-19.8955505998
 20
3.2940074374
 30
0.0
 10
-19.8707615514
 20
3.3564114139
 30
0.0
 10
-19.8601224726
 20
3.4231188657
 30
0.0
 10
-19.8601210641
 20
3.4547706262
 30
0.0
  0
SPLINE
  5
366
100
AcDbEntity
  8
RACCORDO
100
AcDbSpline
 62
250
  6
CONTINUOUS
 70
0
 71
3
 72
9
 73
5
 74
0
 42
0.0000001
 43
0.0000001
 44
0.0000000001
 40
0.0
 40
0.0
 40
0.0
 40
0.0
 40
0.233352681
 40
1.0
 40
1.0
 40
1.0
 40
1.0
 10
-20.8008584365
 20
2.1309299218
 30
0.0
 10
-20.7788691757
 20
2.1443030023
 30
0.0
 10
-20.6875757214
 20
2.2064192461
 30
0.0
 10
-20.6079690796
 20
2.2847927503
 30
0.0
 10
-20.5537275848
 20
2.3496554694
 30
0.0
  0
SPLINE
  5
367
100
AcDbEntity
  8
RACCORDO
100
AcDbSpline
 62
250
  6
CONTINUOUS
 70
0
 71
3
 72
9
 73
5
 74
0
 42
0.0000001
 43
0.0000001
 44
0.0000000001
 40
0.0
 40
0.0
 40
0.0
 40
0.0
 40
0.4567429172
 40
1.0
 40
1.0
 40
1.0
 40
1.0
 10
-20.5496604536
 20
1.3133550727
 30
0.0
 10
-20.6105719605
 20
1.3271342039
 30
0.0
 10
-20.7523458657
 20
1.320740969
 30
0.0
 10
-20.8793359311
 20
1.2645825607
 30
0.0
 10
-20.9434922781
 20
1.227146797
 30
0.0
  0
SPLINE
  5
368
100
AcDbEntity
  8
RACCORDO
100
AcDbSpline
 62
250
  6
CONTINUOUS
 70
0
 71
3
 72
9
 73
5
 74
0
 42
0.0000001
 43
0.0000001
 44
0.0000000001
 40
0.0
 40
0.0
 40
0.0
 40
0.0
 40
0.53097986
 40
1.0
 40
1.0
 40
1.0
 40
1.0
 10
-22.0835748246
 20
5.2581696878
 30
0.0
 10
-22.0541088522
 20
5.2673655938
 30
0.0
 10
-21.9955238403
 20
5.2774570929
 30
0.0
 10
-21.9368948097
 20
5.2628405285
 30
0.0
 10
-21.9128721952
 20
5.2499435985
 30
0.0
  0
SPLINE
  5
369
100
AcDbEntity
  8
RACCORDO
100
AcDbSpline
 62
250
  6
CONTINUOUS
 70
0
 71
3
 72
9
 73
5
 74
0
 42
0.0000001
 43
0.0000001
 44
0.0000000001
 40
0.0
 40
0.0
 40
0.0
 40
0.0
 40
0.5305564293
 40
1.0
 40
1.0
 40
1.0
 40
1.0
 10
-20.3594271451
 20
4.2626684264
 30
0.0
 10
-20.3315376572
 20
4.2715013332
 30
0.0
 10
-20.2762136227
 20
4.2815860378
 30
0.0
 10
-20.2203767115
 20
4.2697998476
 30
0.0
 10
-20.1969977928
 20
4.2586884959
 30
0.0
  0
SPLINE
  5
36A
100
AcDbEntity
  8
RACCORDO
100
AcDbSpline
 62
250
  6
CONTINUOUS
 70
0
 71
3
 72
12
 73
8
 74
0
 42
0.0000001
 43
0.0000001
 44
0.0000000001
 40
0.0
 40
0.0
 40
0.0
 40
0.0
 40
0.2871129745
 40
0.5245950465
 40
0.6353691773
 40
0.7482334054
 40
1.0
 40
1.0
 40
1.0
 40
1.0
 10
-21.584035828
 20
4.7292068861
 30
0.0
 10
-21.5840374267
 20
4.7542774316
 30
0.0
 10
-21.5895942455
 20
4.8006996326
 30
0.0
 10
-21.6198765253
 20
4.8503666867
 30
0.0
 10
-21.6543883765
 20
4.8723190229
 30
0.0
 10
-21.6949260661
 20
4.8834607597
 30
0.0
 10
-21.727921908
 20
4.8784065792
 30
0.0
 10
-21.748803522
 20
4.8715320101
 30
0.0
  0
SPLINE
  5
36B
100
AcDbEntity
  8
RACCORDO
100
AcDbSpline
 62
250
  6
CONTINUOUS
 70
0
 71
3
 72
9
 73
5
 74
0
 42
0.0000001
 43
0.0000001
 44
0.0000000001
 40
0.0
 40
0.0
 40
0.0
 40
0.0
 40
0.5252531063
 40
1.0
 40
1.0
 40
1.0
 40
1.0
 10
-21.6359459606
 20
4.2570745799
 30
0.0
 10
-21.619785589
 20
4.2881202753
 30
0.0
 10
-21.5947678967
 20
4.3504046718
 30
0.0
 10
-21.5840372482
 20
4.4170779358
 30
0.0
 10
-21.584035828
 20
4.4487123846
 30
0.0
  0
SPLINE
  5
36C
100
AcDbEntity
  8
0
100
AcDbSpline
 62
7
  6
CONTINUOUS
 70
0
 71
3
 72
20
 73
16
 74
0
 42
0.0000001
 43
0.0000001
 44
0.0000000001
 40
0.0
 40
0.0
 40
0.0
 40
0.0
 40
0.2757831164
 40
0.5083955062
 40
0.6953262517
 40
0.7706805372
 40
0.8333349344
 40
0.8839147683
 40
0.9236571565
 40
0.9536764617
 40
0.9749426886
 40
0.9885765805
 40
0.9958577229
 40
0.9979953326
 40
1.0
 40
1.0
 40
1.0
 40
1.0
 10
22.7251927477
 20
-36.1378390833
 30
0.0
 10
22.7251927477
 20
-36.1525448673
 30
0.0
 10
22.7241122903
 20
-36.1796755375
 30
0.0
 10
22.7191628522
 20
-36.2164811832
 30
0.0
 10
22.7128341355
 20
-36.2421641399
 30
0.0
 10
22.7072003987
 20
-36.2585599018
 30
0.0
 10
22.7033590019
 20
-36.2678588898
 30
0.0
 10
22.6997290686
 20
-36.2751786846
 30
0.0
 10
22.6964907611
 20
-36.2807049973
 30
0.0
 10
22.6936649466
 20
-36.2847143789
 30
0.0
 10
22.6916063951
 20
-36.2873638159
 30
0.0
 10
22.6898575779
 20
-36.2891163642
 30
0.0
 10
22.6892789435
 20
-36.2897870985
 30
0.0
 10
22.6883968901
 20
-36.2903069998
 30
0.0
 10
22.6887185673
 20
-36.2900522728
 30
0.0
 10
22.6888111408
 20
-36.289998822
 30
0.0
  0
SPLINE
  5
36D
100
AcDbEntity
  8
0
100
AcDbSpline
 62
7
  6
CONTINUOUS
 70
0
 71
3
 72
11
 73
7
 74
0
 42
0.0000001
 43
0.0000001
 44
0.0000000001
 40
0.0
 40
0.0
 40
0.0
 40
0.0
 40
0.2372212891
 40
0.5000061068
 40
0.7627876004
 40
1.0
 40
1.0
 40
1.0
 40
1.0
 10
43.5136117326
 20
12.1452969974
 30
0.0
 10
43.664180855
 20
12.0583602732
 30
0.0
 10
43.9491425365
 20
11.8185273413
 30
0.0
 10
44.2817444351
 20
11.3640202463
 30
0.0
 10
44.5090563427
 20
10.8487313528
 30
0.0
 10
44.5742719044
 20
10.4820382241
 30
0.0
 10
44.5742719044
 20
10.3081796922
 30
0.0
  0
SPLINE
  5
36E
100
AcDbEntity
  8
0
100
AcDbSpline
 62
7
  6
CONTINUOUS
 70
0
 71
3
 72
13
 73
9
 74
0
 42
0.0000001
 43
0.0000001
 44
0.0000000001
 40
0.0
 40
0.0
 40
0.0
 40
0.0
 40
0.1052352258
 40
0.227747113
 40
0.5000045008
 40
0.77226164
 40
0.8947712382
 40
1.0
 40
1.0
 40
1.0
 40
1.0
 10
22.2387893966
 20
7.5284938812
 30
0.0
 10
22.2693869447
 20
7.5108272404
 30
0.0
 10
22.332058759
 20
7.466362724
 30
0.0
 10
22.4544356421
 20
7.3508783282
 30
0.0
 10
22.587376639
 20
7.1680998689
 30
0.0
 10
22.6791992284
 20
6.9615820145
 30
0.0
 10
22.7180226815
 20
6.7978612388
 30
0.0
 10
22.7251927477
 20
6.7213563386
 30
0.0
 10
22.7251927477
 20
6.6860269344
 30
0.0
  0
SPLINE
  5
36F
100
AcDbEntity
  8
0
100
AcDbSpline
 62
7
  6
CONTINUOUS
 70
0
 71
3
 72
20
 73
16
 74
0
 42
0.0000001
 43
0.0000001
 44
0.0000000001
 40
0.0
 40
0.0
 40
0.0
 40
0.0
 40
0.0020152201
 40
0.0041489776
 40
0.0114307115
 40
0.0250686007
 40
0.0463417623
 40
0.076371561
 40
0.1161234096
 40
0.1667063321
 40
0.2293540724
 40
0.3047088116
 40
0.4916436534
 40
0.7242110691
 40
1.0
 40
1.0
 40
1.0
 40
1.0
 10
-25.1813061737
 20
34.8662375051
 30
0.0
 10
-25.1813992634
 20
34.8661837563
 30
0.0
 10
-25.1817820282
 20
34.8660317534
 30
0.0
 10
-25.180891667
 20
34.8665364926
 30
0.0
 10
-25.1800199792
 20
34.8667023982
 30
0.0
 10
-25.177627259
 20
34.8673412763
 30
0.0
 10
-25.1743008977
 20
34.8677991461
 30
0.0
 10
-25.169413011
 20
34.8682420677
 30
0.0
 10
-25.1630046418
 20
34.8682836922
 30
0.0
 10
-25.1548477064
 20
34.8677675538
 30
0.0
 10
-25.1448709179
 20
34.8664441881
 30
0.0
 10
-25.1278500911
 20
34.8631224098
 30
0.0
 10
-25.1024382069
 20
34.855759244
 30
0.0
 10
-25.0680792402
 20
34.841640685
 30
0.0
 10
-25.0440385227
 20
34.8290061288
 30
0.0
 10
-25.0312989257
 20
34.8216504452
 30
0.0
  0
SPLINE
  5
370
100
AcDbEntity
  8
0
100
AcDbSpline
 62
7
  6
CONTINUOUS
 70
0
 71
3
 72
11
 73
7
 74
0
 42
0.0000001
 43
0.0000001
 44
0.0000000001
 40
0.0
 40
0.0
 40
0.0
 40
0.0
 40
0.2898086083
 40
0.549045172
 40
0.7822281915
 40
1.0
 40
1.0
 40
1.0
 40
1.0
 10
44.5742719044
 20
-59.0917938352
 30
0.0
 10
44.5742719044
 20
-59.1678160865
 30
0.0
 10
44.5627946012
 20
-59.3123392769
 30
0.0
 10
44.5041956597
 20
-59.5108876259
 30
0.0
 10
44.4057127362
 20
-59.6720246165
 30
0.0
 10
44.3131173341
 20
-59.7498315004
 30
0.0
 10
44.2636458634
 20
-59.7783956861
 30
0.0
  0
SPLINE
  5
371
100
AcDbEntity
  8
0
100
AcDbSpline
 62
7
  6
CONTINUOUS
 70
0
 71
3
 72
11
 73
7
 74
0
 42
0.0000001
 43
0.0000001
 44
0.0000000001
 40
0.0
 40
0.0
 40
0.0
 40
0.0
 40
0.2479418697
 40
0.4956563892
 40
0.7449335159
 40
1.0
 40
1.0
 40
1.0
 40
1.0
 10
42.000906273
 20
-61.0848778255
 30
0.0
 10
41.9259844952
 20
-61.1281367211
 30
0.0
 10
41.7614195895
 20
-61.1912830122
 30
0.0
 10
41.4985759768
 20
-61.2080141863
 30
0.0
 10
41.2390649104
 20
-61.1540595453
 30
0.0
 10
41.0779326093
 20
-61.0798385886
 30
0.0
 10
41.0008579528
 20
-61.0353366479
 30
0.0
  0
SPLINE
  5
372
100
AcDbEntity
  8
0
100
AcDbSpline
 62
7
  6
CONTINUOUS
 70
0
 71
3
 72
11
 73
7
 74
0
 42
0.0000001
 43
0.0000001
 44
0.0000000001
 40
0.0
 40
0.0
 40
0.0
 40
0.0
 40
0.2433580204
 40
0.5000106766
 40
0.7566583707
 40
1.0
 40
1.0
 40
1.0
 40
1.0
 10
-43.7105344334
 20
-12.1240403672
 30
0.0
 10
-43.8501858665
 20
-12.04340738
 30
0.0
 10
-44.1102222317
 20
-11.8296349631
 30
0.0
 10
-44.4100558394
 20
-11.4227219604
 30
0.0
 10
-44.612523452
 20
-10.9596084716
 30
0.0
 10
-44.6676291345
 20
-10.6275370909
 30
0.0
 10
-44.6676291345
 20
-10.4662897698
 30
0.0
  0
SPLINE
  5
373
100
AcDbEntity
  8
0
100
AcDbSpline
 62
7
  6
CONTINUOUS
 70
0
 71
3
 72
11
 73
7
 74
0
 42
0.0000001
 43
0.0000001
 44
0.0000000001
 40
0.0
 40
0.0
 40
0.0
 40
0.0
 40
0.2550641648
 40
0.5043391559
 40
0.7520499656
 40
1.0
 40
1.0
 40
1.0
 40
1.0
 10
-44.6676291345
 20
58.9336837575
 30
0.0
 10
-44.6676291345
 20
59.0226723574
 30
0.0
 10
-44.6513373635
 20
59.1993052097
 30
0.0
 10
-44.5683155348
 20
59.4509927251
 30
0.0
 10
-44.4224243359
 20
59.6702339236
 30
0.0
 10
-44.2854742753
 20
59.7811709702
 30
0.0
 10
-44.2105585935
 20
59.8244263459
 30
0.0
  0
SPLINE
  5
374
100
AcDbEntity
  8
0
100
AcDbSpline
 62
7
  6
CONTINUOUS
 70
0
 71
3
 72
11
 73
7
 74
0
 42
0.0000001
 43
0.0000001
 44
0.0000000001
 40
0.0
 40
0.0
 40
0.0
 40
0.0
 40
0.2177664644
 40
0.4509472482
 40
0.7101858585
 40
1.0
 40
1.0
 40
1.0
 40
1.0
 10
-41.9478147843
 20
61.1309016037
 30
0.0
 10
-41.8983371442
 20
61.1594693516
 30
0.0
 10
-41.7846424105
 20
61.200765277
 30
0.0
 10
-41.5958250575
 20
61.2054856975
 30
0.0
 10
-41.3945470329
 20
61.1569482304
 30
0.0
 10
-41.2636278772
 20
61.0946126398
 30
0.0
 10
-41.1977806535
 20
61.056593278
 30
0.0
  0
SPLINE
  5
375
100
AcDbEntity
  8
0
100
AcDbSpline
 62
7
  6
CONTINUOUS
 70
0
 71
3
 72
11
 73
7
 74
0
 42
0.0000001
 43
0.0000001
 44
0.0000000001
 40
0.0
 40
0.0
 40
0.0
 40
0.0
 40
0.2372200919
 40
0.4999938933
 40
0.7627710182
 40
1.0
 40
1.0
 40
1.0
 40
1.0
 10
-24.6691596433
 20
-7.8648234954
 30
0.0
 10
-24.6691596433
 20
-7.9343691884
 30
0.0
 10
-24.643074773
 20
-8.0810470855
 30
0.0
 10
-24.5521463365
 20
-8.2871583781
 30
0.0
 10
-24.4191111072
 20
-8.4689622649
 30
0.0
 10
-24.3051251984
 20
-8.5648945876
 30
0.0
 10
-24.2448955746
 20
-8.5996704175
 30
0.0
  0
SPLINE
  5
376
100
AcDbEntity
  8
0
100
AcDbSpline
 62
250
  6
CONTINUOUS
 70
0
 71
3
 72
15
 73
11
 74
0
 42
0.0000001
 43
0.0000001
 44
0.0000000001
 40
0.0
 40
0.0
 40
0.0
 40
0.0
 40
0.1449032554
 40
0.2745326047
 40
0.3911247043
 40
0.5000110969
 40
0.6088954754
 40
0.7254822141
 40
0.8551043383
 40
1.0
 40
1.0
 40
1.0
 40
1.0
 10
-43.8140757439
 20
59.1377421443
 30
0.0
 10
-43.8579695781
 20
59.1630858941
 30
0.0
 10
-43.9452514536
 20
59.2046358111
 30
0.0
 10
-44.0794014061
 20
59.2370160497
 30
0.0
 10
-44.2053597675
 20
59.2338235294
 30
0.0
 10
-44.3174692313
 20
59.1931772165
 30
0.0
 10
-44.4087321759
 20
59.1164222852
 30
0.0
 10
-44.4744831925
 20
59.008945336
 30
0.0
 10
-44.5135218849
 20
58.8765867971
 30
0.0
 10
-44.5211825251
 20
58.780228855
 30
0.0
 10
-44.5211825251
 20
58.7295464609
 30
0.0
  0
SPLINE
  5
377
100
AcDbEntity
  8
0
100
AcDbSpline
 62
250
  6
CONTINUOUS
 70
0
 71
3
 72
11
 73
7
 74
0
 42
0.0000001
 43
0.0000001
 44
0.0000000001
 40
0.0
 40
0.0
 40
0.0
 40
0.0
 40
0.2372125205
 40
0.4999938933
 40
0.762778587
 40
1.0
 40
1.0
 40
1.0
 40
1.0
 10
41.6044234234
 20
9.0017009936
 30
0.0
 10
41.6044234234
 20
9.1176068241
 30
0.0
 10
41.5609483473
 20
9.3620694157
 30
0.0
 10
41.4094062351
 20
9.7055953439
 30
0.0
 10
41.1876720565
 20
10.0086008027
 30
0.0
 10
40.9976961819
 20
10.1684879755
 30
0.0
 10
40.8973166422
 20
10.2264458637
 30
0.0
  0
SPLINE
  5
378
100
AcDbEntity
  8
0
100
AcDbSpline
 62
250
  6
CONTINUOUS
 70
0
 71
3
 72
15
 73
11
 74
0
 42
0.0000001
 43
0.0000001
 44
0.0000000001
 40
0.0
 40
0.0
 40
0.0
 40
0.0
 40
0.1449032554
 40
0.2745326047
 40
0.3911247043
 40
0.5000110969
 40
0.6088954754
 40
0.7254822141
 40
0.8551043383
 40
1.0
 40
1.0
 40
1.0
 40
1.0
 10
40.8973166422
 20
-60.8064682173
 30
0.0
 10
40.9412104764
 20
-60.831811967
 30
0.0
 10
41.0284923519
 20
-60.873361884
 30
0.0
 10
41.1626423044
 20
-60.9057421227
 30
0.0
 10
41.2886006658
 20
-60.9025496023
 30
0.0
 10
41.4007101296
 20
-60.8619032894
 30
0.0
 10
41.4919730742
 20
-60.7851483582
 30
0.0
 10
41.5577240908
 20
-60.677671409
 30
0.0
 10
41.5967627832
 20
-60.54531287
 30
0.0
 10
41.6044234234
 20
-60.448954928
 30
0.0
 10
41.6044234234
 20
-60.3982725338
 30
0.0
  0
SPLINE
  5
379
100
AcDbEntity
  8
0
100
AcDbSpline
 62
250
  6
CONTINUOUS
 70
0
 71
3
 72
11
 73
7
 74
0
 42
0.0000001
 43
0.0000001
 44
0.0000000001
 40
0.0
 40
0.0
 40
0.0
 40
0.0
 40
0.2372125205
 40
0.4999938933
 40
0.762778587
 40
1.0
 40
1.0
 40
1.0
 40
1.0
 10
-44.5211825251
 20
-10.6704270665
 30
0.0
 10
-44.5211825251
 20
-10.786332897
 30
0.0
 10
-44.477707449
 20
-11.0307954886
 30
0.0
 10
-44.3261653368
 20
-11.3743214168
 30
0.0
 10
-44.1044311582
 20
-11.6773268756
 30
0.0
 10
-43.9144552836
 20
-11.8372140485
 30
0.0
 10
-43.8140757439
 20
-11.8951719366
 30
0.0
  0
SPLINE
  5
37A
100
AcDbEntity
  8
0
100
AcDbSpline
 62
250
  6
CONTINUOUS
 70
0
 71
3
 72
15
 73
11
 74
0
 42
0.0000001
 43
0.0000001
 44
0.0000000001
 40
0.0
 40
0.0
 40
0.0
 40
0.0
 40
0.144895097
 40
0.2745174532
 40
0.3911043914
 40
0.4999889423
 40
0.6088755268
 40
0.7254678256
 40
0.8550973452
 40
1.0
 40
1.0
 40
1.0
 40
1.0
 10
-25.7298198151
 20
34.5915953884
 30
0.0
 10
-25.7298198151
 20
34.6372093654
 30
0.0
 10
-25.7229253042
 20
34.7239314086
 30
0.0
 10
-25.6877905474
 20
34.843054071
 30
0.0
 10
-25.6286146094
 20
34.9397835391
 30
0.0
 10
-25.5464778217
 20
35.0088631066
 30
0.0
 10
-25.4455791129
 20
35.0454448163
 30
0.0
 10
-25.3322164047
 20
35.0483179644
 30
0.0
 10
-25.2114815341
 20
35.019175704
 30
0.0
 10
-25.132927999
 20
34.9817807837
 30
0.0
 10
-25.093423712
 20
34.9589715035
 30
0.0
  0
SPLINE
  5
37B
100
AcDbEntity
  8
0
100
AcDbSpline
 62
250
  6
CONTINUOUS
 70
0
 71
3
 72
11
 73
7
 74
0
 42
0.0000001
 43
0.0000001
 44
0.0000000001
 40
0.0
 40
0.0
 40
0.0
 40
0.0
 40
0.2177718081
 40
0.4509548311
 40
0.7101913959
 40
1.0
 40
1.0
 40
1.0
 40
1.0
 10
42.0009042556
 20
-61.0848743316
 30
0.0
 10
42.0503757136
 20
-61.0563101392
 30
0.0
 10
42.1429710886
 20
-60.9785032487
 30
0.0
 10
42.2414539811
 20
-60.8173662688
 30
0.0
 10
42.3000529047
 20
-60.618817944
 30
0.0
 10
42.3115302046
 20
-60.474294774
 30
0.0
 10
42.3115302046
 20
-60.3982725338
 30
0.0
  0
SPLINE
  5
37C
100
AcDbEntity
  8
0
100
AcDbSpline
 62
250
  6
CONTINUOUS
 70
0
 71
3
 72
11
 73
7
 74
0
 42
0.0000001
 43
0.0000001
 44
0.0000000001
 40
0.0
 40
0.0
 40
0.0
 40
0.0
 40
0.2372210701
 40
0.5000061555
 40
0.7627879224
 40
1.0
 40
1.0
 40
1.0
 40
1.0
 10
-25.093423712
 20
-9.3345410125
 30
0.0
 10
-25.1837651671
 20
-9.2823789886
 30
0.0
 10
-25.3547434918
 20
-9.1384805597
 30
0.0
 10
-25.5543044141
 20
-8.8657755078
 30
0.0
 10
-25.6906923097
 20
-8.5566019904
 30
0.0
 10
-25.7298198151
 20
-8.3365856821
 30
0.0
 10
-25.7298198151
 20
-8.2322706294
 30
0.0
  0
SPLINE
  5
37D
100
AcDbEntity
  8
0
100
AcDbSpline
 62
250
  6
CONTINUOUS
 70
0
 71
3
 72
15
 73
11
 74
0
 42
0.0000001
 43
0.0000001
 44
0.0000000001
 40
0.0
 40
0.0
 40
0.0
 40
0.0
 40
0.144895097
 40
0.2745174532
 40
0.3911043914
 40
0.4999889423
 40
0.6088755268
 40
0.7254678256
 40
0.8550973452
 40
1.0
 40
1.0
 40
1.0
 40
1.0
 10
22.8130607134
 20
-36.2603214613
 30
0.0
 10
22.8130607134
 20
-36.3059354383
 30
0.0
 10
22.8061662025
 20
-36.3926574816
 30
0.0
 10
22.7710314457
 20
-36.5117801439
 30
0.0
 10
22.7118555077
 20
-36.6085096121
 30
0.0
 10
22.62971872
 20
-36.6775891795
 30
0.0
 10
22.5288200112
 20
-36.7141708892
 30
0.0
 10
22.415457303
 20
-36.7170440373
 30
0.0
 10
22.2947224324
 20
-36.687901777
 30
0.0
 10
22.2161688973
 20
-36.6505068567
 30
0.0
 10
22.1766646103
 20
-36.6276975765
 30
0.0
  0
SPLINE
  5
37E
100
AcDbEntity
  8
0
100
AcDbSpline
 62
250
  6
CONTINUOUS
 70
0
 71
3
 72
11
 73
7
 74
0
 42
0.0000001
 43
0.0000001
 44
0.0000000001
 40
0.0
 40
0.0
 40
0.0
 40
0.0
 40
0.2372383085
 40
0.5
 40
0.7627616915
 40
1.0
 40
1.0
 40
1.0
 40
1.0
 10
-25.7298198151
 20
-8.2322706294
 30
0.0
 10
-25.6997036175
 20
-8.2496593444
 30
0.0
 10
-25.6296678568
 20
-8.2750348739
 30
0.0
 10
-25.5176877807
 20
-8.2871927119
 30
0.0
 10
-25.4057077046
 20
-8.2750348739
 30
0.0
 10
-25.3356719439
 20
-8.2496593444
 30
0.0
 10
-25.3055557464
 20
-8.2322706294
 30
0.0
  0
SPLINE
  5
37F
100
AcDbEntity
  8
0
100
AcDbSpline
 62
250
  6
CONTINUOUS
 70
0
 71
3
 72
11
 73
7
 74
0
 42
0.0000001
 43
0.0000001
 44
0.0000000001
 40
0.0
 40
0.0
 40
0.0
 40
0.0
 40
0.2372324595
 40
0.4999938932
 40
0.7627586504
 40
1.0
 40
1.0
 40
1.0
 40
1.0
 10
-25.093423712
 20
-9.3345410125
 30
0.0
 10
-25.093423712
 20
-9.2997663498
 30
0.0
 10
-25.0803798405
 20
-9.2264276623
 30
0.0
 10
-25.0349181692
 20
-9.1233729301
 30
0.0
 10
-24.9684000727
 20
-9.0324736493
 30
0.0
 10
-24.9114080624
 20
-8.9845063746
 30
0.0
 10
-24.8812916777
 20
-8.9671175515
 30
0.0
  0
SPLINE
  5
380
100
AcDbEntity
  8
0
100
AcDbSpline
 62
250
  6
CONTINUOUS
 70
0
 71
3
 72
11
 73
7
 74
0
 42
0.0000001
 43
0.0000001
 44
0.0000000001
 40
0.0
 40
0.0
 40
0.0
 40
0.0
 40
0.2372324595
 40
0.4999938932
 40
0.7627586504
 40
1.0
 40
1.0
 40
1.0
 40
1.0
 10
22.1766646103
 20
-36.6276975765
 30
0.0
 10
22.1766646103
 20
-36.5929229138
 30
0.0
 10
22.1897084818
 20
-36.5195842262
 30
0.0
 10
22.2351701531
 20
-36.416529494
 30
0.0
 10
22.3016882497
 20
-36.3256302132
 30
0.0
 10
22.3586802599
 20
-36.2776629386
 30
0.0
 10
22.3887966447
 20
-36.2602741154
 30
0.0
  0
SPLINE
  5
381
100
AcDbEntity
  8
0
100
AcDbSpline
 62
250
  6
CONTINUOUS
 70
0
 71
3
 72
9
 73
5
 74
0
 42
0.0000001
 43
0.0000001
 44
0.0000000001
 40
0.0
 40
0.0
 40
0.0
 40
0.0
 40
0.2740326926
 40
1.0
 40
1.0
 40
1.0
 40
1.0
 10
22.8130607134
 20
-36.2603214613
 30
0.0
 10
22.8055736283
 20
-36.2559985122
 30
0.0
 10
22.7790438118
 20
-36.2390205039
 30
0.0
 10
22.7554996405
 20
-36.2164572691
 30
0.0
 10
22.7432852053
 20
-36.1970824753
 30
0.0
  0
SPLINE
  5
382
100
AcDbEntity
  8
0
100
AcDbSpline
 62
250
  6
CONTINUOUS
 70
0
 71
3
 72
9
 73
5
 74
0
 42
0.0000001
 43
0.0000001
 44
0.0000000001
 40
0.0
 40
0.0
 40
0.0
 40
0.0
 40
0.2630916529
 40
1.0
 40
1.0
 40
1.0
 40
1.0
 10
22.7432852053
 20
-36.1970824753
 30
0.0
 10
22.7403667019
 20
-36.1924530839
 30
0.0
 10
22.7303082648
 20
-36.1742444095
 30
0.0
 10
22.7251927477
 20
-36.1531674908
 30
0.0
 10
22.7251927477
 20
-36.1378390833
 30
0.0
  0
SPLINE
  5
383
100
AcDbEntity
  8
0
100
AcDbSpline
 62
250
  6
CONTINUOUS
 70
0
 71
3
 72
11
 73
7
 74
0
 42
0.0000001
 43
0.0000001
 44
0.0000000001
 40
0.0
 40
0.0
 40
0.0
 40
0.0
 40
0.2896952569
 40
0.5490778583
 40
0.7822096781
 40
1.0
 40
1.0
 40
1.0
 40
1.0
 10
22.8130607134
 20
6.5635445564
 30
0.0
 10
22.7998969825
 20
6.5711451297
 30
0.0
 10
22.7760143772
 20
6.5875954721
 30
0.0
 10
22.7474714505
 20
6.6175946245
 30
0.0
 10
22.7294155996
 20
6.6507809971
 30
0.0
 10
22.7251927477
 20
6.6745993997
 30
0.0
 10
22.7251927477
 20
6.6860269344
 30
0.0
  0
SPLINE
  5
384
100
AcDbEntity
  8
0
100
AcDbSpline
 62
250
  6
CONTINUOUS
 70
0
 71
3
 72
11
 73
7
 74
0
 42
0.0000001
 43
0.0000001
 44
0.0000000001
 40
0.0
 40
0.0
 40
0.0
 40
0.0
 40
0.2897008281
 40
0.5490847291
 40
0.7822142041
 40
1.0
 40
1.0
 40
1.0
 40
1.0
 10
22.1766646103
 20
7.6658149395
 30
0.0
 10
22.1766646103
 20
7.6506162967
 30
0.0
 10
22.1789684683
 20
7.6217116843
 30
0.0
 10
22.1906738632
 20
7.5819978986
 30
0.0
 10
22.2103819609
 20
7.5497716463
 30
0.0
 10
22.2288945716
 20
7.5342070365
 30
0.0
 10
22.2387893966
 20
7.5284938812
 30
0.0
  0
SPLINE
  5
385
100
AcDbEntity
  8
0
100
AcDbSpline
 62
250
  6
CONTINUOUS
 70
0
 71
3
 72
11
 73
7
 74
0
 42
0.0000001
 43
0.0000001
 44
0.0000000001
 40
0.0
 40
0.0
 40
0.0
 40
0.0
 40
0.2897008281
 40
0.5490847291
 40
0.7822142041
 40
1.0
 40
1.0
 40
1.0
 40
1.0
 10
-25.093423712
 20
34.9589715035
 30
0.0
 10
-25.093423712
 20
34.9437728607
 30
0.0
 10
-25.0911198541
 20
34.9148682483
 30
0.0
 10
-25.0794144591
 20
34.8751544626
 30
0.0
 10
-25.0597063614
 20
34.8429282103
 30
0.0
 10
-25.0411937508
 20
34.8273636005
 30
0.0
 10
-25.0312989257
 20
34.8216504452
 30
0.0
  0
SPLINE
  5
386
100
AcDbEntity
  8
0
100
AcDbSpline
 62
250
  6
CONTINUOUS
 70
0
 71
3
 72
9
 73
5
 74
0
 42
0.0000001
 43
0.0000001
 44
0.0000000001
 40
0.0
 40
0.0
 40
0.0
 40
0.0
 40
0.2415801629
 40
1.0
 40
1.0
 40
1.0
 40
1.0
 10
22.1766646103
 20
7.6658149395
 30
0.0
 10
22.1871328991
 20
7.6597706808
 30
0.0
 10
22.2299250263
 20
7.6338198557
 30
0.0
 10
22.2705692218
 20
7.6043809752
 30
0.0
 10
22.3001211325
 20
7.5805731596
 30
0.0
  0
SPLINE
  5
387
100
AcDbEntity
  8
0
100
AcDbSpline
 62
250
  6
CONTINUOUS
 70
0
 71
3
 72
11
 73
7
 74
0
 42
0.0000001
 43
0.0000001
 44
0.0000000001
 40
0.0
 40
0.0
 40
0.0
 40
0.0
 40
0.2482530857
 40
0.5109091438
 40
0.7677464758
 40
1.0
 40
1.0
 40
1.0
 40
1.0
 10
22.3001211325
 20
7.5805731596
 30
0.0
 10
22.3755425216
 20
7.5198116561
 30
0.0
 10
22.5148687399
 20
7.3745382718
 30
0.0
 10
22.6761030207
 20
7.1200276413
 30
0.0
 10
22.7833329747
 20
6.8451519173
 30
0.0
 10
22.8130607134
 20
6.6541547571
 30
0.0
 10
22.8130607134
 20
6.5635445564
 30
0.0
  0
SPLINE
  5
388
100
AcDbEntity
  8
0
100
AcDbSpline
 62
250
  6
CONTINUOUS
 70
0
 71
3
 72
11
 73
7
 74
0
 42
0.0000001
 43
0.0000001
 44
0.0000000001
 40
0.0
 40
0.0
 40
0.0
 40
0.0
 40
0.2372383085
 40
0.5
 40
0.7627616915
 40
1.0
 40
1.0
 40
1.0
 40
1.0
 10
-25.7298198151
 20
34.5915953884
 30
0.0
 10
-25.6997036175
 20
34.5742066734
 30
0.0
 10
-25.6296678568
 20
34.5488311439
 30
0.0
 10
-25.5176877807
 20
34.5366733059
 30
0.0
 10
-25.4057077046
 20
34.5488311439
 30
0.0
 10
-25.3356719439
 20
34.5742066734
 30
0.0
 10
-25.3055557464
 20
34.5915953884
 30
0.0
  0
SPLINE
  5
389
100
AcDbEntity
  8
0
100
AcDbSpline
 62
250
  6
CONTINUOUS
 70
0
 71
3
 72
11
 73
7
 74
0
 42
0.0000001
 43
0.0000001
 44
0.0000000001
 40
0.0
 40
0.0
 40
0.0
 40
0.0
 40
0.2898141455
 40
0.5490527546
 40
0.7822335352
 40
1.0
 40
1.0
 40
1.0
 40
1.0
 10
-43.4605223533
 20
59.7501145794
 30
0.0
 10
-43.5263695867
 20
59.7881339467
 30
0.0
 10
-43.6572887615
 20
59.8504695446
 30
0.0
 10
-43.858566816
 20
59.8990070083
 30
0.0
 10
-44.047384194
 20
59.8942865664
 30
0.0
 10
-44.1610789354
 20
59.8529906141
 30
0.0
 10
-44.2105565762
 20
59.8244228519
 30
0.0
  0
SPLINE
  5
38A
100
AcDbEntity
  8
0
100
AcDbSpline
 62
250
  6
CONTINUOUS
 70
0
 71
3
 72
11
 73
7
 74
0
 42
0.0000001
 43
0.0000001
 44
0.0000000001
 40
0.0
 40
0.0
 40
0.0
 40
0.0
 40
0.2372123995
 40
0.4999938932
 40
0.7627787109
 40
1.0
 40
1.0
 40
1.0
 40
1.0
 10
42.3115302046
 20
9.0017009936
 30
0.0
 10
42.3115302046
 20
9.1755595254
 30
0.0
 10
42.2463146429
 20
9.5422526542
 30
0.0
 10
42.0190027353
 20
10.0575415477
 30
0.0
 10
41.6864008366
 20
10.5120486427
 30
0.0
 10
41.4014391552
 20
10.7518815746
 30
0.0
 10
41.2508700328
 20
10.8388182987
 30
0.0
  0
SPLINE
  5
38B
100
AcDbEntity
  8
0
100
AcDbSpline
 62
250
  6
CONTINUOUS
 70
0
 71
3
 72
11
 73
7
 74
0
 42
0.0000001
 43
0.0000001
 44
0.0000000001
 40
0.0
 40
0.0
 40
0.0
 40
0.0
 40
0.2372289829
 40
0.5000061069
 40
0.7627799045
 40
1.0
 40
1.0
 40
1.0
 40
1.0
 10
-24.8812916777
 20
-8.9671175515
 30
0.0
 10
-24.9415213017
 20
-8.9323417214
 30
0.0
 10
-25.0555072105
 20
-8.8364093986
 30
0.0
 10
-25.1885424394
 20
-8.6546055127
 30
0.0
 10
-25.2794708756
 20
-8.4484942205
 30
0.0
 10
-25.3055557464
 20
-8.3018163235
 30
0.0
 10
-25.3055557464
 20
-8.2322706294
 30
0.0
  0
SPLINE
  5
38C
100
AcDbEntity
  8
0
100
AcDbSpline
 62
250
  6
CONTINUOUS
 70
0
 71
3
 72
11
 73
7
 74
0
 42
0.0000001
 43
0.0000001
 44
0.0000000001
 40
0.0
 40
0.0
 40
0.0
 40
0.0
 40
0.2897723602
 40
0.5490642342
 40
0.7822230579
 40
1.0
 40
1.0
 40
1.0
 40
1.0
 10
-25.3055557464
 20
34.5915953884
 30
0.0
 10
-25.3055557464
 20
34.6220003235
 30
0.0
 10
-25.3009591534
 20
34.6798097622
 30
0.0
 10
-25.2775317816
 20
34.7592331311
 30
0.0
 10
-25.2381253385
 20
34.8236833341
 30
0.0
 10
-25.2010937196
 20
34.8548091917
 30
0.0
 10
-25.1813047723
 20
34.8662350779
 30
0.0
  0
SPLINE
  5
38D
100
AcDbEntity
  8
0
100
AcDbSpline
 62
250
  6
CONTINUOUS
 70
0
 71
3
 72
11
 73
7
 74
0
 42
0.0000001
 43
0.0000001
 44
0.0000000001
 40
0.0
 40
0.0
 40
0.0
 40
0.0
 40
0.2177715893
 40
0.4509281864
 40
0.7102220722
 40
1.0
 40
1.0
 40
1.0
 40
1.0
 10
22.6888097393
 20
-36.2899963948
 30
0.0
 10
22.6690183196
 20
-36.3014237086
 30
0.0
 10
22.6235410056
 20
-36.3179348927
 30
0.0
 10
22.5480113855
 20
-36.3198368615
 30
0.0
 10
22.4675027632
 20
-36.300409298
 30
0.0
 10
22.4151321099
 20
-36.275479883
 30
0.0
 10
22.3887966447
 20
-36.2602741154
 30
0.0
  0
SPLINE
  5
38E
100
AcDbEntity
  8
0
100
AcDbSpline
 62
250
  6
CONTINUOUS
 70
0
 71
3
 72
11
 73
7
 74
0
 42
0.0000001
 43
0.0000001
 44
0.0000000001
 40
0.0
 40
0.0
 40
0.0
 40
0.0
 40
0.2372200919
 40
0.4999938933
 40
0.7627710182
 40
1.0
 40
1.0
 40
1.0
 40
1.0
 10
40.8973166422
 20
10.2264458637
 30
0.0
 10
40.8973166422
 20
10.2844006079
 30
0.0
 10
40.9190540342
 20
10.4066321888
 30
0.0
 10
40.9948277312
 20
10.5783915992
 30
0.0
 10
41.1056904223
 20
10.7298948383
 30
0.0
 10
41.2006786797
 20
10.8098384405
 30
0.0
 10
41.2508700328
 20
10.8388182987
 30
0.0
  0
SPLINE
  5
38F
100
AcDbEntity
  8
0
100
AcDbSpline
 62
250
  6
CONTINUOUS
 70
0
 71
3
 72
11
 73
7
 74
0
 42
0.0000001
 43
0.0000001
 44
0.0000000001
 40
0.0
 40
0.0
 40
0.0
 40
0.0
 40
0.2372259409
 40
0.5
 40
0.7627740591
 40
1.0
 40
1.0
 40
1.0
 40
1.0
 10
41.6044234234
 20
9.0017009936
 30
0.0
 10
41.6546144645
 20
8.9727213155
 30
0.0
 10
41.7713399121
 20
8.9304264754
 30
0.0
 10
41.957976814
 20
8.9101663268
 30
0.0
 10
42.1446137159
 20
8.9304264754
 30
0.0
 10
42.2613391635
 20
8.9727213155
 30
0.0
 10
42.3115302046
 20
9.0017009936
 30
0.0
  0
SPLINE
  5
390
100
AcDbEntity
  8
0
100
AcDbSpline
 62
250
  6
CONTINUOUS
 70
0
 71
3
 72
11
 73
7
 74
0
 42
0.0000001
 43
0.0000001
 44
0.0000000001
 40
0.0
 40
0.0
 40
0.0
 40
0.0
 40
0.2372259409
 40
0.5
 40
0.7627740591
 40
1.0
 40
1.0
 40
1.0
 40
1.0
 10
41.6044234234
 20
-60.3982725338
 30
0.0
 10
41.6546144645
 20
-60.4272522119
 30
0.0
 10
41.7713399121
 20
-60.469547052
 30
0.0
 10
41.957976814
 20
-60.4898072006
 30
0.0
 10
42.1446137159
 20
-60.469547052
 30
0.0
 10
42.2613391635
 20
-60.4272522119
 30
0.0
 10
42.3115302046
 20
-60.3982725338
 30
0.0
  0
SPLINE
  5
391
100
AcDbEntity
  8
0
100
AcDbSpline
 62
250
  6
CONTINUOUS
 70
0
 71
3
 72
11
 73
7
 74
0
 42
0.0000001
 43
0.0000001
 44
0.0000000001
 40
0.0
 40
0.0
 40
0.0
 40
0.0
 40
0.2897723599
 40
0.5490642322
 40
0.7822230543
 40
1.0
 40
1.0
 40
1.0
 40
1.0
 10
40.8973166422
 20
-60.8064682173
 30
0.0
 10
40.8973166422
 20
-60.8318056632
 30
0.0
 10
40.9011471363
 20
-60.8799801953
 30
0.0
 10
40.9206699461
 20
-60.9461663356
 30
0.0
 10
40.9535086481
 20
-60.9998748386
 30
0.0
 10
40.9843683311
 20
-61.025813053
 30
0.0
 10
41.0008591207
 20
-61.035334625
 30
0.0
  0
SPLINE
  5
392
100
AcDbEntity
  8
0
100
AcDbSpline
 62
250
  6
CONTINUOUS
 70
0
 71
3
 72
11
 73
7
 74
0
 42
0.0000001
 43
0.0000001
 44
0.0000000001
 40
0.0
 40
0.0
 40
0.0
 40
0.0
 40
0.2897723599
 40
0.5490642322
 40
0.7822230543
 40
1.0
 40
1.0
 40
1.0
 40
1.0
 10
-43.8140757439
 20
-11.8951719366
 30
0.0
 10
-43.8140757439
 20
-11.9205093825
 30
0.0
 10
-43.8102452499
 20
-11.9686839146
 30
0.0
 10
-43.79072244
 20
-12.0348700549
 30
0.0
 10
-43.757883738
 20
-12.088578558
 30
0.0
 10
-43.7270240551
 20
-12.1145167723
 30
0.0
 10
-43.7105332654
 20
-12.1240383443
 30
0.0
  0
SPLINE
  5
393
100
AcDbEntity
  8
0
100
AcDbSpline
 62
250
  6
CONTINUOUS
 70
0
 71
3
 72
11
 73
7
 74
0
 42
0.0000001
 43
0.0000001
 44
0.0000000001
 40
0.0
 40
0.0
 40
0.0
 40
0.0
 40
0.2897667745
 40
0.5490573594
 40
0.7822185358
 40
1.0
 40
1.0
 40
1.0
 40
1.0
 10
-44.5211825251
 20
-10.6704270665
 30
0.0
 10
-44.5431275968
 20
-10.6577562571
 30
0.0
 10
-44.5829367289
 20
-10.6303469578
 30
0.0
 10
-44.6304983269
 20
-10.5803381542
 30
0.0
 10
-44.6605938325
 20
-10.5250355329
 30
0.0
 10
-44.6676267987
 20
-10.4853349767
 30
0.0
 10
-44.6676267987
 20
-10.4662897698
 30
0.0
  0
SPLINE
  5
394
100
AcDbEntity
  8
0
100
AcDbSpline
 62
250
  6
CONTINUOUS
 70
0
 71
3
 72
11
 73
7
 74
0
 42
0.0000001
 43
0.0000001
 44
0.0000000001
 40
0.0
 40
0.0
 40
0.0
 40
0.0
 40
0.2897667745
 40
0.5490573594
 40
0.7822185358
 40
1.0
 40
1.0
 40
1.0
 40
1.0
 10
-44.5211825251
 20
58.7295464609
 30
0.0
 10
-44.5431275968
 20
58.7422172702
 30
0.0
 10
-44.5829367289
 20
58.7696265696
 30
0.0
 10
-44.6304983269
 20
58.8196353732
 30
0.0
 10
-44.6605938325
 20
58.8749379945
 30
0.0
 10
-44.6676267987
 20
58.9146385506
 30
0.0
 10
-44.6676267987
 20
58.9336837575
 30
0.0
  0
SPLINE
  5
395
100
AcDbEntity
  8
0
100
AcDbSpline
 62
250
  6
CONTINUOUS
 70
0
 71
3
 72
11
 73
7
 74
0
 42
0.0000001
 43
0.0000001
 44
0.0000000001
 40
0.0
 40
0.0
 40
0.0
 40
0.0
 40
0.2372200919
 40
0.4999938933
 40
0.7627710182
 40
1.0
 40
1.0
 40
1.0
 40
1.0
 10
-43.8140757439
 20
59.1377421443
 30
0.0
 10
-43.8140757439
 20
59.1956968885
 30
0.0
 10
-43.792338352
 20
59.3179284694
 30
0.0
 10
-43.716564655
 20
59.4896878799
 30
0.0
 10
-43.6057019639
 20
59.641191119
 30
0.0
 10
-43.5107137065
 20
59.7211347211
 30
0.0
 10
-43.4605223533
 20
59.7501145794
 30
0.0
  0
SPLINE
  5
396
100
AcDbEntity
  8
RACCORDO
100
AcDbSpline
 62
7
  6
CONTINUOUS
 70
0
 71
3
 72
20
 73
16
 74
0
 42
0.0000001
 43
0.0000001
 44
0.0000000001
 40
0.0
 40
0.0
 40
0.0
 40
0.0
 40
0.2757831164
 40
0.5083955062
 40
0.6953262517
 40
0.7706805372
 40
0.8333349344
 40
0.8839147683
 40
0.9236571565
 40
0.9536764617
 40
0.9749426886
 40
0.9885765805
 40
0.9958577229
 40
0.9979953326
 40
1.0
 40
1.0
 40
1.0
 40
1.0
 10
22.7251927477
 20
-36.1378390833
 30
0.0
 10
22.7251927477
 20
-36.1525448673
 30
0.0
 10
22.7241122903
 20
-36.1796755375
 30
0.0
 10
22.7191628522
 20
-36.2164811832
 30
0.0
 10
22.7128341355
 20
-36.2421641399
 30
0.0
 10
22.7072003987
 20
-36.2585599018
 30
0.0
 10
22.7033590019
 20
-36.2678588898
 30
0.0
 10
22.6997290686
 20
-36.2751786846
 30
0.0
 10
22.6964907611
 20
-36.2807049973
 30
0.0
 10
22.6936649466
 20
-36.2847143789
 30
0.0
 10
22.6916063951
 20
-36.2873638159
 30
0.0
 10
22.6898575779
 20
-36.2891163642
 30
0.0
 10
22.6892789435
 20
-36.2897870985
 30
0.0
 10
22.6883968901
 20
-36.2903069998
 30
0.0
 10
22.6887185673
 20
-36.2900522728
 30
0.0
 10
22.6888111408
 20
-36.289998822
 30
0.0
  0
SPLINE
  5
397
100
AcDbEntity
  8
RACCORDO
100
AcDbSpline
 62
7
  6
CONTINUOUS
 70
0
 71
3
 72
11
 73
7
 74
0
 42
0.0000001
 43
0.0000001
 44
0.0000000001
 40
0.0
 40
0.0
 40
0.0
 40
0.0
 40
0.2372212891
 40
0.5000061068
 40
0.7627876004
 40
1.0
 40
1.0
 40
1.0
 40
1.0
 10
43.5136117326
 20
12.1452969974
 30
0.0
 10
43.664180855
 20
12.0583602732
 30
0.0
 10
43.9491425365
 20
11.8185273413
 30
0.0
 10
44.2817444351
 20
11.3640202463
 30
0.0
 10
44.5090563427
 20
10.8487313528
 30
0.0
 10
44.5742719044
 20
10.4820382241
 30
0.0
 10
44.5742719044
 20
10.3081796922
 30
0.0
  0
SPLINE
  5
398
100
AcDbEntity
  8
RACCORDO
100
AcDbSpline
 62
7
  6
CONTINUOUS
 70
0
 71
3
 72
13
 73
9
 74
0
 42
0.0000001
 43
0.0000001
 44
0.0000000001
 40
0.0
 40
0.0
 40
0.0
 40
0.0
 40
0.1052352258
 40
0.227747113
 40
0.5000045008
 40
0.77226164
 40
0.8947712382
 40
1.0
 40
1.0
 40
1.0
 40
1.0
 10
22.2387893966
 20
7.5284938812
 30
0.0
 10
22.2693869447
 20
7.5108272404
 30
0.0
 10
22.332058759
 20
7.466362724
 30
0.0
 10
22.4544356421
 20
7.3508783282
 30
0.0
 10
22.587376639
 20
7.1680998689
 30
0.0
 10
22.6791992284
 20
6.9615820145
 30
0.0
 10
22.7180226815
 20
6.7978612388
 30
0.0
 10
22.7251927477
 20
6.7213563386
 30
0.0
 10
22.7251927477
 20
6.6860269344
 30
0.0
  0
SPLINE
  5
399
100
AcDbEntity
  8
RACCORDO
100
AcDbSpline
 62
7
  6
CONTINUOUS
 70
0
 71
3
 72
20
 73
16
 74
0
 42
0.0000001
 43
0.0000001
 44
0.0000000001
 40
0.0
 40
0.0
 40
0.0
 40
0.0
 40
0.0020152201
 40
0.0041489776
 40
0.0114307115
 40
0.0250686007
 40
0.0463417623
 40
0.076371561
 40
0.1161234096
 40
0.1667063321
 40
0.2293540724
 40
0.3047088116
 40
0.4916436534
 40
0.7242110691
 40
1.0
 40
1.0
 40
1.0
 40
1.0
 10
-25.1813061737
 20
34.8662375051
 30
0.0
 10
-25.1813992634
 20
34.8661837563
 30
0.0
 10
-25.1817820282
 20
34.8660317534
 30
0.0
 10
-25.180891667
 20
34.8665364926
 30
0.0
 10
-25.1800199792
 20
34.8667023982
 30
0.0
 10
-25.177627259
 20
34.8673412763
 30
0.0
 10
-25.1743008977
 20
34.8677991461
 30
0.0
 10
-25.169413011
 20
34.8682420677
 30
0.0
 10
-25.1630046418
 20
34.8682836922
 30
0.0
 10
-25.1548477064
 20
34.8677675538
 30
0.0
 10
-25.1448709179
 20
34.8664441881
 30
0.0
 10
-25.1278500911
 20
34.8631224098
 30
0.0
 10
-25.1024382069
 20
34.855759244
 30
0.0
 10
-25.0680792402
 20
34.841640685
 30
0.0
 10
-25.0440385227
 20
34.8290061288
 30
0.0
 10
-25.0312989257
 20
34.8216504452
 30
0.0
  0
SPLINE
  5
39A
100
AcDbEntity
  8
RACCORDO
100
AcDbSpline
 62
7
  6
CONTINUOUS
 70
0
 71
3
 72
11
 73
7
 74
0
 42
0.0000001
 43
0.0000001
 44
0.0000000001
 40
0.0
 40
0.0
 40
0.0
 40
0.0
 40
0.2898086083
 40
0.549045172
 40
0.7822281915
 40
1.0
 40
1.0
 40
1.0
 40
1.0
 10
44.5742719044
 20
-59.0917938352
 30
0.0
 10
44.5742719044
 20
-59.1678160865
 30
0.0
 10
44.5627946012
 20
-59.3123392769
 30
0.0
 10
44.5041956597
 20
-59.5108876259
 30
0.0
 10
44.4057127362
 20
-59.6720246165
 30
0.0
 10
44.3131173341
 20
-59.7498315004
 30
0.0
 10
44.2636458634
 20
-59.7783956861
 30
0.0
  0
SPLINE
  5
39B
100
AcDbEntity
  8
RACCORDO
100
AcDbSpline
 62
7
  6
CONTINUOUS
 70
0
 71
3
 72
11
 73
7
 74
0
 42
0.0000001
 43
0.0000001
 44
0.0000000001
 40
0.0
 40
0.0
 40
0.0
 40
0.0
 40
0.2479418697
 40
0.4956563892
 40
0.7449335159
 40
1.0
 40
1.0
 40
1.0
 40
1.0
 10
42.000906273
 20
-61.0848778255
 30
0.0
 10
41.9259844952
 20
-61.1281367211
 30
0.0
 10
41.7614195895
 20
-61.1912830122
 30
0.0
 10
41.4985759768
 20
-61.2080141863
 30
0.0
 10
41.2390649104
 20
-61.1540595453
 30
0.0
 10
41.0779326093
 20
-61.0798385886
 30
0.0
 10
41.0008579528
 20
-61.0353366479
 30
0.0
  0
SPLINE
  5
39C
100
AcDbEntity
  8
RACCORDO
100
AcDbSpline
 62
7
  6
CONTINUOUS
 70
0
 71
3
 72
11
 73
7
 74
0
 42
0.0000001
 43
0.0000001
 44
0.0000000001
 40
0.0
 40
0.0
 40
0.0
 40
0.0
 40
0.2433580204
 40
0.5000106766
 40
0.7566583707
 40
1.0
 40
1.0
 40
1.0
 40
1.0
 10
-43.7105344334
 20
-12.1240403672
 30
0.0
 10
-43.8501858665
 20
-12.04340738
 30
0.0
 10
-44.1102222317
 20
-11.8296349631
 30
0.0
 10
-44.4100558394
 20
-11.4227219604
 30
0.0
 10
-44.612523452
 20
-10.9596084716
 30
0.0
 10
-44.6676291345
 20
-10.6275370909
 30
0.0
 10
-44.6676291345
 20
-10.4662897698
 30
0.0
  0
SPLINE
  5
39D
100
AcDbEntity
  8
RACCORDO
100
AcDbSpline
 62
7
  6
CONTINUOUS
 70
0
 71
3
 72
11
 73
7
 74
0
 42
0.0000001
 43
0.0000001
 44
0.0000000001
 40
0.0
 40
0.0
 40
0.0
 40
0.0
 40
0.2550641648
 40
0.5043391559
 40
0.7520499656
 40
1.0
 40
1.0
 40
1.0
 40
1.0
 10
-44.6676291345
 20
58.9336837575
 30
0.0
 10
-44.6676291345
 20
59.0226723574
 30
0.0
 10
-44.6513373635
 20
59.1993052097
 30
0.0
 10
-44.5683155348
 20
59.4509927251
 30
0.0
 10
-44.4224243359
 20
59.6702339236
 30
0.0
 10
-44.2854742753
 20
59.7811709702
 30
0.0
 10
-44.2105585935
 20
59.8244263459
 30
0.0
  0
SPLINE
  5
39E
100
AcDbEntity
  8
RACCORDO
100
AcDbSpline
 62
7
  6
CONTINUOUS
 70
0
 71
3
 72
11
 73
7
 74
0
 42
0.0000001
 43
0.0000001
 44
0.0000000001
 40
0.0
 40
0.0
 40
0.0
 40
0.0
 40
0.2177664644
 40
0.4509472482
 40
0.7101858585
 40
1.0
 40
1.0
 40
1.0
 40
1.0
 10
-41.9478147843
 20
61.1309016037
 30
0.0
 10
-41.8983371442
 20
61.1594693516
 30
0.0
 10
-41.7846424105
 20
61.200765277
 30
0.0
 10
-41.5958250575
 20
61.2054856975
 30
0.0
 10
-41.3945470329
 20
61.1569482304
 30
0.0
 10
-41.2636278772
 20
61.0946126398
 30
0.0
 10
-41.1977806535
 20
61.056593278
 30
0.0
  0
SPLINE
  5
39F
100
AcDbEntity
  8
RACCORDO
100
AcDbSpline
 62
7
  6
CONTINUOUS
 70
0
 71
3
 72
11
 73
7
 74
0
 42
0.0000001
 43
0.0000001
 44
0.0000000001
 40
0.0
 40
0.0
 40
0.0
 40
0.0
 40
0.2372200919
 40
0.4999938933
 40
0.7627710182
 40
1.0
 40
1.0
 40
1.0
 40
1.0
 10
-24.6691596433
 20
-7.8648234954
 30
0.0
 10
-24.6691596433
 20
-7.9343691884
 30
0.0
 10
-24.643074773
 20
-8.0810470855
 30
0.0
 10
-24.5521463365
 20
-8.2871583781
 30
0.0
 10
-24.4191111072
 20
-8.4689622649
 30
0.0
 10
-24.3051251984
 20
-8.5648945876
 30
0.0
 10
-24.2448955746
 20
-8.5996704175
 30
0.0
  0
SPLINE
  5
3A0
100
AcDbEntity
  8
RACCORDO
100
AcDbSpline
 62
250
  6
CONTINUOUS
 70
0
 71
3
 72
15
 73
11
 74
0
 42
0.0000001
 43
0.0000001
 44
0.0000000001
 40
0.0
 40
0.0
 40
0.0
 40
0.0
 40
0.1449032554
 40
0.2745326047
 40
0.3911247043
 40
0.5000110969
 40
0.6088954754
 40
0.7254822141
 40
0.8551043383
 40
1.0
 40
1.0
 40
1.0
 40
1.0
 10
-43.8140757439
 20
59.1377421443
 30
0.0
 10
-43.8579695781
 20
59.1630858941
 30
0.0
 10
-43.9452514536
 20
59.2046358111
 30
0.0
 10
-44.0794014061
 20
59.2370160497
 30
0.0
 10
-44.2053597675
 20
59.2338235294
 30
0.0
 10
-44.3174692313
 20
59.1931772165
 30
0.0
 10
-44.4087321759
 20
59.1164222852
 30
0.0
 10
-44.4744831925
 20
59.008945336
 30
0.0
 10
-44.5135218849
 20
58.8765867971
 30
0.0
 10
-44.5211825251
 20
58.780228855
 30
0.0
 10
-44.5211825251
 20
58.7295464609
 30
0.0
  0
SPLINE
  5
3A1
100
AcDbEntity
  8
RACCORDO
100
AcDbSpline
 62
250
  6
CONTINUOUS
 70
0
 71
3
 72
11
 73
7
 74
0
 42
0.0000001
 43
0.0000001
 44
0.0000000001
 40
0.0
 40
0.0
 40
0.0
 40
0.0
 40
0.2372125205
 40
0.4999938933
 40
0.762778587
 40
1.0
 40
1.0
 40
1.0
 40
1.0
 10
41.6044234234
 20
9.0017009936
 30
0.0
 10
41.6044234234
 20
9.1176068241
 30
0.0
 10
41.5609483473
 20
9.3620694157
 30
0.0
 10
41.4094062351
 20
9.7055953439
 30
0.0
 10
41.1876720565
 20
10.0086008027
 30
0.0
 10
40.9976961819
 20
10.1684879755
 30
0.0
 10
40.8973166422
 20
10.2264458637
 30
0.0
  0
SPLINE
  5
3A2
100
AcDbEntity
  8
RACCORDO
100
AcDbSpline
 62
250
  6
CONTINUOUS
 70
0
 71
3
 72
15
 73
11
 74
0
 42
0.0000001
 43
0.0000001
 44
0.0000000001
 40
0.0
 40
0.0
 40
0.0
 40
0.0
 40
0.1449032554
 40
0.2745326047
 40
0.3911247043
 40
0.5000110969
 40
0.6088954754
 40
0.7254822141
 40
0.8551043383
 40
1.0
 40
1.0
 40
1.0
 40
1.0
 10
40.8973166422
 20
-60.8064682173
 30
0.0
 10
40.9412104764
 20
-60.831811967
 30
0.0
 10
41.0284923519
 20
-60.873361884
 30
0.0
 10
41.1626423044
 20
-60.9057421227
 30
0.0
 10
41.2886006658
 20
-60.9025496023
 30
0.0
 10
41.4007101296
 20
-60.8619032894
 30
0.0
 10
41.4919730742
 20
-60.7851483582
 30
0.0
 10
41.5577240908
 20
-60.677671409
 30
0.0
 10
41.5967627832
 20
-60.54531287
 30
0.0
 10
41.6044234234
 20
-60.448954928
 30
0.0
 10
41.6044234234
 20
-60.3982725338
 30
0.0
  0
SPLINE
  5
3A3
100
AcDbEntity
  8
RACCORDO
100
AcDbSpline
 62
250
  6
CONTINUOUS
 70
0
 71
3
 72
11
 73
7
 74
0
 42
0.0000001
 43
0.0000001
 44
0.0000000001
 40
0.0
 40
0.0
 40
0.0
 40
0.0
 40
0.2372125205
 40
0.4999938933
 40
0.762778587
 40
1.0
 40
1.0
 40
1.0
 40
1.0
 10
-44.5211825251
 20
-10.6704270665
 30
0.0
 10
-44.5211825251
 20
-10.786332897
 30
0.0
 10
-44.477707449
 20
-11.0307954886
 30
0.0
 10
-44.3261653368
 20
-11.3743214168
 30
0.0
 10
-44.1044311582
 20
-11.6773268756
 30
0.0
 10
-43.9144552836
 20
-11.8372140485
 30
0.0
 10
-43.8140757439
 20
-11.8951719366
 30
0.0
  0
SPLINE
  5
3A4
100
AcDbEntity
  8
RACCORDO
100
AcDbSpline
 62
250
  6
CONTINUOUS
 70
0
 71
3
 72
15
 73
11
 74
0
 42
0.0000001
 43
0.0000001
 44
0.0000000001
 40
0.0
 40
0.0
 40
0.0
 40
0.0
 40
0.144895097
 40
0.2745174532
 40
0.3911043914
 40
0.4999889423
 40
0.6088755268
 40
0.7254678256
 40
0.8550973452
 40
1.0
 40
1.0
 40
1.0
 40
1.0
 10
-25.7298198151
 20
34.5915953884
 30
0.0
 10
-25.7298198151
 20
34.6372093654
 30
0.0
 10
-25.7229253042
 20
34.7239314086
 30
0.0
 10
-25.6877905474
 20
34.843054071
 30
0.0
 10
-25.6286146094
 20
34.9397835391
 30
0.0
 10
-25.5464778217
 20
35.0088631066
 30
0.0
 10
-25.4455791129
 20
35.0454448163
 30
0.0
 10
-25.3322164047
 20
35.0483179644
 30
0.0
 10
-25.2114815341
 20
35.019175704
 30
0.0
 10
-25.132927999
 20
34.9817807837
 30
0.0
 10
-25.093423712
 20
34.9589715035
 30
0.0
  0
SPLINE
  5
3A5
100
AcDbEntity
  8
RACCORDO
100
AcDbSpline
 62
250
  6
CONTINUOUS
 70
0
 71
3
 72
11
 73
7
 74
0
 42
0.0000001
 43
0.0000001
 44
0.0000000001
 40
0.0
 40
0.0
 40
0.0
 40
0.0
 40
0.2177718081
 40
0.4509548311
 40
0.7101913959
 40
1.0
 40
1.0
 40
1.0
 40
1.0
 10
42.0009042556
 20
-61.0848743316
 30
0.0
 10
42.0503757136
 20
-61.0563101392
 30
0.0
 10
42.1429710886
 20
-60.9785032487
 30
0.0
 10
42.2414539811
 20
-60.8173662688
 30
0.0
 10
42.3000529047
 20
-60.618817944
 30
0.0
 10
42.3115302046
 20
-60.474294774
 30
0.0
 10
42.3115302046
 20
-60.3982725338
 30
0.0
  0
SPLINE
  5
3A6
100
AcDbEntity
  8
RACCORDO
100
AcDbSpline
 62
250
  6
CONTINUOUS
 70
0
 71
3
 72
11
 73
7
 74
0
 42
0.0000001
 43
0.0000001
 44
0.0000000001
 40
0.0
 40
0.0
 40
0.0
 40
0.0
 40
0.2372210701
 40
0.5000061555
 40
0.7627879224
 40
1.0
 40
1.0
 40
1.0
 40
1.0
 10
-25.093423712
 20
-9.3345410125
 30
0.0
 10
-25.1837651671
 20
-9.2823789886
 30
0.0
 10
-25.3547434918
 20
-9.1384805597
 30
0.0
 10
-25.5543044141
 20
-8.8657755078
 30
0.0
 10
-25.6906923097
 20
-8.5566019904
 30
0.0
 10
-25.7298198151
 20
-8.3365856821
 30
0.0
 10
-25.7298198151
 20
-8.2322706294
 30
0.0
  0
SPLINE
  5
3A7
100
AcDbEntity
  8
RACCORDO
100
AcDbSpline
 62
250
  6
CONTINUOUS
 70
0
 71
3
 72
15
 73
11
 74
0
 42
0.0000001
 43
0.0000001
 44
0.0000000001
 40
0.0
 40
0.0
 40
0.0
 40
0.0
 40
0.144895097
 40
0.2745174532
 40
0.3911043914
 40
0.4999889423
 40
0.6088755268
 40
0.7254678256
 40
0.8550973452
 40
1.0
 40
1.0
 40
1.0
 40
1.0
 10
22.8130607134
 20
-36.2603214613
 30
0.0
 10
22.8130607134
 20
-36.3059354383
 30
0.0
 10
22.8061662025
 20
-36.3926574816
 30
0.0
 10
22.7710314457
 20
-36.5117801439
 30
0.0
 10
22.7118555077
 20
-36.6085096121
 30
0.0
 10
22.62971872
 20
-36.6775891795
 30
0.0
 10
22.5288200112
 20
-36.7141708892
 30
0.0
 10
22.415457303
 20
-36.7170440373
 30
0.0
 10
22.2947224324
 20
-36.687901777
 30
0.0
 10
22.2161688973
 20
-36.6505068567
 30
0.0
 10
22.1766646103
 20
-36.6276975765
 30
0.0
  0
SPLINE
  5
3A8
100
AcDbEntity
  8
RACCORDO
100
AcDbSpline
 62
250
  6
CONTINUOUS
 70
0
 71
3
 72
11
 73
7
 74
0
 42
0.0000001
 43
0.0000001
 44
0.0000000001
 40
0.0
 40
0.0
 40
0.0
 40
0.0
 40
0.2372383085
 40
0.5
 40
0.7627616915
 40
1.0
 40
1.0
 40
1.0
 40
1.0
 10
-25.7298198151
 20
-8.2322706294
 30
0.0
 10
-25.6997036175
 20
-8.2496593444
 30
0.0
 10
-25.6296678568
 20
-8.2750348739
 30
0.0
 10
-25.5176877807
 20
-8.2871927119
 30
0.0
 10
-25.4057077046
 20
-8.2750348739
 30
0.0
 10
-25.3356719439
 20
-8.2496593444
 30
0.0
 10
-25.3055557464
 20
-8.2322706294
 30
0.0
  0
SPLINE
  5
3A9
100
AcDbEntity
  8
RACCORDO
100
AcDbSpline
 62
250
  6
CONTINUOUS
 70
0
 71
3
 72
11
 73
7
 74
0
 42
0.0000001
 43
0.0000001
 44
0.0000000001
 40
0.0
 40
0.0
 40
0.0
 40
0.0
 40
0.2372324595
 40
0.4999938932
 40
0.7627586504
 40
1.0
 40
1.0
 40
1.0
 40
1.0
 10
-25.093423712
 20
-9.3345410125
 30
0.0
 10
-25.093423712
 20
-9.2997663498
 30
0.0
 10
-25.0803798405
 20
-9.2264276623
 30
0.0
 10
-25.0349181692
 20
-9.1233729301
 30
0.0
 10
-24.9684000727
 20
-9.0324736493
 30
0.0
 10
-24.9114080624
 20
-8.9845063746
 30
0.0
 10
-24.8812916777
 20
-8.9671175515
 30
0.0
  0
SPLINE
  5
3AA
100
AcDbEntity
  8
RACCORDO
100
AcDbSpline
 62
250
  6
CONTINUOUS
 70
0
 71
3
 72
11
 73
7
 74
0
 42
0.0000001
 43
0.0000001
 44
0.0000000001
 40
0.0
 40
0.0
 40
0.0
 40
0.0
 40
0.2372324595
 40
0.4999938932
 40
0.7627586504
 40
1.0
 40
1.0
 40
1.0
 40
1.0
 10
22.1766646103
 20
-36.6276975765
 30
0.0
 10
22.1766646103
 20
-36.5929229138
 30
0.0
 10
22.1897084818
 20
-36.5195842262
 30
0.0
 10
22.2351701531
 20
-36.416529494
 30
0.0
 10
22.3016882497
 20
-36.3256302132
 30
0.0
 10
22.3586802599
 20
-36.2776629386
 30
0.0
 10
22.3887966447
 20
-36.2602741154
 30
0.0
  0
SPLINE
  5
3AB
100
AcDbEntity
  8
RACCORDO
100
AcDbSpline
 62
250
  6
CONTINUOUS
 70
0
 71
3
 72
9
 73
5
 74
0
 42
0.0000001
 43
0.0000001
 44
0.0000000001
 40
0.0
 40
0.0
 40
0.0
 40
0.0
 40
0.2740326926
 40
1.0
 40
1.0
 40
1.0
 40
1.0
 10
22.8130607134
 20
-36.2603214613
 30
0.0
 10
22.8055736283
 20
-36.2559985122
 30
0.0
 10
22.7790438118
 20
-36.2390205039
 30
0.0
 10
22.7554996405
 20
-36.2164572691
 30
0.0
 10
22.7432852053
 20
-36.1970824753
 30
0.0
  0
SPLINE
  5
3AC
100
AcDbEntity
  8
RACCORDO
100
AcDbSpline
 62
250
  6
CONTINUOUS
 70
0
 71
3
 72
9
 73
5
 74
0
 42
0.0000001
 43
0.0000001
 44
0.0000000001
 40
0.0
 40
0.0
 40
0.0
 40
0.0
 40
0.2630916529
 40
1.0
 40
1.0
 40
1.0
 40
1.0
 10
22.7432852053
 20
-36.1970824753
 30
0.0
 10
22.7403667019
 20
-36.1924530839
 30
0.0
 10
22.7303082648
 20
-36.1742444095
 30
0.0
 10
22.7251927477
 20
-36.1531674908
 30
0.0
 10
22.7251927477
 20
-36.1378390833
 30
0.0
  0
SPLINE
  5
3AD
100
AcDbEntity
  8
RACCORDO
100
AcDbSpline
 62
250
  6
CONTINUOUS
 70
0
 71
3
 72
11
 73
7
 74
0
 42
0.0000001
 43
0.0000001
 44
0.0000000001
 40
0.0
 40
0.0
 40
0.0
 40
0.0
 40
0.2896952569
 40
0.5490778583
 40
0.7822096781
 40
1.0
 40
1.0
 40
1.0
 40
1.0
 10
22.8130607134
 20
6.5635445564
 30
0.0
 10
22.7998969825
 20
6.5711451297
 30
0.0
 10
22.7760143772
 20
6.5875954721
 30
0.0
 10
22.7474714505
 20
6.6175946245
 30
0.0
 10
22.7294155996
 20
6.6507809971
 30
0.0
 10
22.7251927477
 20
6.6745993997
 30
0.0
 10
22.7251927477
 20
6.6860269344
 30
0.0
  0
SPLINE
  5
3AE
100
AcDbEntity
  8
RACCORDO
100
AcDbSpline
 62
250
  6
CONTINUOUS
 70
0
 71
3
 72
11
 73
7
 74
0
 42
0.0000001
 43
0.0000001
 44
0.0000000001
 40
0.0
 40
0.0
 40
0.0
 40
0.0
 40
0.2897008281
 40
0.5490847291
 40
0.7822142041
 40
1.0
 40
1.0
 40
1.0
 40
1.0
 10
22.1766646103
 20
7.6658149395
 30
0.0
 10
22.1766646103
 20
7.6506162967
 30
0.0
 10
22.1789684683
 20
7.6217116843
 30
0.0
 10
22.1906738632
 20
7.5819978986
 30
0.0
 10
22.2103819609
 20
7.5497716463
 30
0.0
 10
22.2288945716
 20
7.5342070365
 30
0.0
 10
22.2387893966
 20
7.5284938812
 30
0.0
  0
SPLINE
  5
3AF
100
AcDbEntity
  8
RACCORDO
100
AcDbSpline
 62
250
  6
CONTINUOUS
 70
0
 71
3
 72
11
 73
7
 74
0
 42
0.0000001
 43
0.0000001
 44
0.0000000001
 40
0.0
 40
0.0
 40
0.0
 40
0.0
 40
0.2897008281
 40
0.5490847291
 40
0.7822142041
 40
1.0
 40
1.0
 40
1.0
 40
1.0
 10
-25.093423712
 20
34.9589715035
 30
0.0
 10
-25.093423712
 20
34.9437728607
 30
0.0
 10
-25.0911198541
 20
34.9148682483
 30
0.0
 10
-25.0794144591
 20
34.8751544626
 30
0.0
 10
-25.0597063614
 20
34.8429282103
 30
0.0
 10
-25.0411937508
 20
34.8273636005
 30
0.0
 10
-25.0312989257
 20
34.8216504452
 30
0.0
  0
SPLINE
  5
3B0
100
AcDbEntity
  8
RACCORDO
100
AcDbSpline
 62
250
  6
CONTINUOUS
 70
0
 71
3
 72
9
 73
5
 74
0
 42
0.0000001
 43
0.0000001
 44
0.0000000001
 40
0.0
 40
0.0
 40
0.0
 40
0.0
 40
0.2415801629
 40
1.0
 40
1.0
 40
1.0
 40
1.0
 10
22.1766646103
 20
7.6658149395
 30
0.0
 10
22.1871328991
 20
7.6597706808
 30
0.0
 10
22.2299250263
 20
7.6338198557
 30
0.0
 10
22.2705692218
 20
7.6043809752
 30
0.0
 10
22.3001211325
 20
7.5805731596
 30
0.0
  0
SPLINE
  5
3B1
100
AcDbEntity
  8
RACCORDO
100
AcDbSpline
 62
250
  6
CONTINUOUS
 70
0
 71
3
 72
11
 73
7
 74
0
 42
0.0000001
 43
0.0000001
 44
0.0000000001
 40
0.0
 40
0.0
 40
0.0
 40
0.0
 40
0.2482530857
 40
0.5109091438
 40
0.7677464758
 40
1.0
 40
1.0
 40
1.0
 40
1.0
 10
22.3001211325
 20
7.5805731596
 30
0.0
 10
22.3755425216
 20
7.5198116561
 30
0.0
 10
22.5148687399
 20
7.3745382718
 30
0.0
 10
22.6761030207
 20
7.1200276413
 30
0.0
 10
22.7833329747
 20
6.8451519173
 30
0.0
 10
22.8130607134
 20
6.6541547571
 30
0.0
 10
22.8130607134
 20
6.5635445564
 30
0.0
  0
SPLINE
  5
3B2
100
AcDbEntity
  8
RACCORDO
100
AcDbSpline
 62
250
  6
CONTINUOUS
 70
0
 71
3
 72
11
 73
7
 74
0
 42
0.0000001
 43
0.0000001
 44
0.0000000001
 40
0.0
 40
0.0
 40
0.0
 40
0.0
 40
0.2372383085
 40
0.5
 40
0.7627616915
 40
1.0
 40
1.0
 40
1.0
 40
1.0
 10
-25.7298198151
 20
34.5915953884
 30
0.0
 10
-25.6997036175
 20
34.5742066734
 30
0.0
 10
-25.6296678568
 20
34.5488311439
 30
0.0
 10
-25.5176877807
 20
34.5366733059
 30
0.0
 10
-25.4057077046
 20
34.5488311439
 30
0.0
 10
-25.3356719439
 20
34.5742066734
 30
0.0
 10
-25.3055557464
 20
34.5915953884
 30
0.0
  0
SPLINE
  5
3B3
100
AcDbEntity
  8
RACCORDO
100
AcDbSpline
 62
250
  6
CONTINUOUS
 70
0
 71
3
 72
11
 73
7
 74
0
 42
0.0000001
 43
0.0000001
 44
0.0000000001
 40
0.0
 40
0.0
 40
0.0
 40
0.0
 40
0.2898141455
 40
0.5490527546
 40
0.7822335352
 40
1.0
 40
1.0
 40
1.0
 40
1.0
 10
-43.4605223533
 20
59.7501145794
 30
0.0
 10
-43.5263695867
 20
59.7881339467
 30
0.0
 10
-43.6572887615
 20
59.8504695446
 30
0.0
 10
-43.858566816
 20
59.8990070083
 30
0.0
 10
-44.047384194
 20
59.8942865664
 30
0.0
 10
-44.1610789354
 20
59.8529906141
 30
0.0
 10
-44.2105565762
 20
59.8244228519
 30
0.0
  0
SPLINE
  5
3B4
100
AcDbEntity
  8
RACCORDO
100
AcDbSpline
 62
250
  6
CONTINUOUS
 70
0
 71
3
 72
11
 73
7
 74
0
 42
0.0000001
 43
0.0000001
 44
0.0000000001
 40
0.0
 40
0.0
 40
0.0
 40
0.0
 40
0.2372123995
 40
0.4999938932
 40
0.7627787109
 40
1.0
 40
1.0
 40
1.0
 40
1.0
 10
42.3115302046
 20
9.0017009936
 30
0.0
 10
42.3115302046
 20
9.1755595254
 30
0.0
 10
42.2463146429
 20
9.5422526542
 30
0.0
 10
42.0190027353
 20
10.0575415477
 30
0.0
 10
41.6864008366
 20
10.5120486427
 30
0.0
 10
41.4014391552
 20
10.7518815746
 30
0.0
 10
41.2508700328
 20
10.8388182987
 30
0.0
  0
SPLINE
  5
3B5
100
AcDbEntity
  8
RACCORDO
100
AcDbSpline
 62
250
  6
CONTINUOUS
 70
0
 71
3
 72
11
 73
7
 74
0
 42
0.0000001
 43
0.0000001
 44
0.0000000001
 40
0.0
 40
0.0
 40
0.0
 40
0.0
 40
0.2372289829
 40
0.5000061069
 40
0.7627799045
 40
1.0
 40
1.0
 40
1.0
 40
1.0
 10
-24.8812916777
 20
-8.9671175515
 30
0.0
 10
-24.9415213017
 20
-8.9323417214
 30
0.0
 10
-25.0555072105
 20
-8.8364093986
 30
0.0
 10
-25.1885424394
 20
-8.6546055127
 30
0.0
 10
-25.2794708756
 20
-8.4484942205
 30
0.0
 10
-25.3055557464
 20
-8.3018163235
 30
0.0
 10
-25.3055557464
 20
-8.2322706294
 30
0.0
  0
SPLINE
  5
3B6
100
AcDbEntity
  8
RACCORDO
100
AcDbSpline
 62
250
  6
CONTINUOUS
 70
0
 71
3
 72
11
 73
7
 74
0
 42
0.0000001
 43
0.0000001
 44
0.0000000001
 40
0.0
 40
0.0
 40
0.0
 40
0.0
 40
0.2897723602
 40
0.5490642342
 40
0.7822230579
 40
1.0
 40
1.0
 40
1.0
 40
1.0
 10
-25.3055557464
 20
34.5915953884
 30
0.0
 10
-25.3055557464
 20
34.6220003235
 30
0.0
 10
-25.3009591534
 20
34.6798097622
 30
0.0
 10
-25.2775317816
 20
34.7592331311
 30
0.0
 10
-25.2381253385
 20
34.8236833341
 30
0.0
 10
-25.2010937196
 20
34.8548091917
 30
0.0
 10
-25.1813047723
 20
34.8662350779
 30
0.0
  0
SPLINE
  5
3B7
100
AcDbEntity
  8
RACCORDO
100
AcDbSpline
 62
250
  6
CONTINUOUS
 70
0
 71
3
 72
11
 73
7
 74
0
 42
0.0000001
 43
0.0000001
 44
0.0000000001
 40
0.0
 40
0.0
 40
0.0
 40
0.0
 40
0.2177715893
 40
0.4509281864
 40
0.7102220722
 40
1.0
 40
1.0
 40
1.0
 40
1.0
 10
22.6888097393
 20
-36.2899963948
 30
0.0
 10
22.6690183196
 20
-36.3014237086
 30
0.0
 10
22.6235410056
 20
-36.3179348927
 30
0.0
 10
22.5480113855
 20
-36.3198368615
 30
0.0
 10
22.4675027632
 20
-36.300409298
 30
0.0
 10
22.4151321099
 20
-36.275479883
 30
0.0
 10
22.3887966447
 20
-36.2602741154
 30
0.0
  0
SPLINE
  5
3B8
100
AcDbEntity
  8
RACCORDO
100
AcDbSpline
 62
250
  6
CONTINUOUS
 70
0
 71
3
 72
11
 73
7
 74
0
 42
0.0000001
 43
0.0000001
 44
0.0000000001
 40
0.0
 40
0.0
 40
0.0
 40
0.0
 40
0.2372200919
 40
0.4999938933
 40
0.7627710182
 40
1.0
 40
1.0
 40
1.0
 40
1.0
 10
40.8973166422
 20
10.2264458637
 30
0.0
 10
40.8973166422
 20
10.2844006079
 30
0.0
 10
40.9190540342
 20
10.4066321888
 30
0.0
 10
40.9948277312
 20
10.5783915992
 30
0.0
 10
41.1056904223
 20
10.7298948383
 30
0.0
 10
41.2006786797
 20
10.8098384405
 30
0.0
 10
41.2508700328
 20
10.8388182987
 30
0.0
  0
SPLINE
  5
3B9
100
AcDbEntity
  8
RACCORDO
100
AcDbSpline
 62
250
  6
CONTINUOUS
 70
0
 71
3
 72
11
 73
7
 74
0
 42
0.0000001
 43
0.0000001
 44
0.0000000001
 40
0.0
 40
0.0
 40
0.0
 40
0.0
 40
0.2372259409
 40
0.5
 40
0.7627740591
 40
1.0
 40
1.0
 40
1.0
 40
1.0
 10
41.6044234234
 20
9.0017009936
 30
0.0
 10
41.6546144645
 20
8.9727213155
 30
0.0
 10
41.7713399121
 20
8.9304264754
 30
0.0
 10
41.957976814
 20
8.9101663268
 30
0.0
 10
42.1446137159
 20
8.9304264754
 30
0.0
 10
42.2613391635
 20
8.9727213155
 30
0.0
 10
42.3115302046
 20
9.0017009936
 30
0.0
  0
SPLINE
  5
3BA
100
AcDbEntity
  8
RACCORDO
100
AcDbSpline
 62
250
  6
CONTINUOUS
 70
0
 71
3
 72
11
 73
7
 74
0
 42
0.0000001
 43
0.0000001
 44
0.0000000001
 40
0.0
 40
0.0
 40
0.0
 40
0.0
 40
0.2372259409
 40
0.5
 40
0.7627740591
 40
1.0
 40
1.0
 40
1.0
 40
1.0
 10
41.6044234234
 20
-60.3982725338
 30
0.0
 10
41.6546144645
 20
-60.4272522119
 30
0.0
 10
41.7713399121
 20
-60.469547052
 30
0.0
 10
41.957976814
 20
-60.4898072006
 30
0.0
 10
42.1446137159
 20
-60.469547052
 30
0.0
 10
42.2613391635
 20
-60.4272522119
 30
0.0
 10
42.3115302046
 20
-60.3982725338
 30
0.0
  0
SPLINE
  5
3BB
100
AcDbEntity
  8
RACCORDO
100
AcDbSpline
 62
250
  6
CONTINUOUS
 70
0
 71
3
 72
11
 73
7
 74
0
 42
0.0000001
 43
0.0000001
 44
0.0000000001
 40
0.0
 40
0.0
 40
0.0
 40
0.0
 40
0.2897723599
 40
0.5490642322
 40
0.7822230543
 40
1.0
 40
1.0
 40
1.0
 40
1.0
 10
40.8973166422
 20
-60.8064682173
 30
0.0
 10
40.8973166422
 20
-60.8318056632
 30
0.0
 10
40.9011471363
 20
-60.8799801953
 30
0.0
 10
40.9206699461
 20
-60.9461663356
 30
0.0
 10
40.9535086481
 20
-60.9998748386
 30
0.0
 10
40.9843683311
 20
-61.025813053
 30
0.0
 10
41.0008591207
 20
-61.035334625
 30
0.0
  0
SPLINE
  5
3BC
100
AcDbEntity
  8
RACCORDO
100
AcDbSpline
 62
250
  6
CONTINUOUS
 70
0
 71
3
 72
11
 73
7
 74
0
 42
0.0000001
 43
0.0000001
 44
0.0000000001
 40
0.0
 40
0.0
 40
0.0
 40
0.0
 40
0.2897723599
 40
0.5490642322
 40
0.7822230543
 40
1.0
 40
1.0
 40
1.0
 40
1.0
 10
-43.8140757439
 20
-11.8951719366
 30
0.0
 10
-43.8140757439
 20
-11.9205093825
 30
0.0
 10
-43.8102452499
 20
-11.9686839146
 30
0.0
 10
-43.79072244
 20
-12.0348700549
 30
0.0
 10
-43.757883738
 20
-12.088578558
 30
0.0
 10
-43.7270240551
 20
-12.1145167723
 30
0.0
 10
-43.7105332654
 20
-12.1240383443
 30
0.0
  0
SPLINE
  5
3BD
100
AcDbEntity
  8
RACCORDO
100
AcDbSpline
 62
250
  6
CONTINUOUS
 70
0
 71
3
 72
11
 73
7
 74
0
 42
0.0000001
 43
0.0000001
 44
0.0000000001
 40
0.0
 40
0.0
 40
0.0
 40
0.0
 40
0.2897667745
 40
0.5490573594
 40
0.7822185358
 40
1.0
 40
1.0
 40
1.0
 40
1.0
 10
-44.5211825251
 20
-10.6704270665
 30
0.0
 10
-44.5431275968
 20
-10.6577562571
 30
0.0
 10
-44.5829367289
 20
-10.6303469578
 30
0.0
 10
-44.6304983269
 20
-10.5803381542
 30
0.0
 10
-44.6605938325
 20
-10.5250355329
 30
0.0
 10
-44.6676267987
 20
-10.4853349767
 30
0.0
 10
-44.6676267987
 20
-10.4662897698
 30
0.0
  0
SPLINE
  5
3BE
100
AcDbEntity
  8
RACCORDO
100
AcDbSpline
 62
250
  6
CONTINUOUS
 70
0
 71
3
 72
11
 73
7
 74
0
 42
0.0000001
 43
0.0000001
 44
0.0000000001
 40
0.0
 40
0.0
 40
0.0
 40
0.0
 40
0.2897667745
 40
0.5490573594
 40
0.7822185358
 40
1.0
 40
1.0
 40
1.0
 40
1.0
 10
-44.5211825251
 20
58.7295464609
 30
0.0
 10
-44.5431275968
 20
58.7422172702
 30
0.0
 10
-44.5829367289
 20
58.7696265696
 30
0.0
 10
-44.6304983269
 20
58.8196353732
 30
0.0
 10
-44.6605938325
 20
58.8749379945
 30
0.0
 10
-44.6676267987
 20
58.9146385506
 30
0.0
 10
-44.6676267987
 20
58.9336837575
 30
0.0
  0
SPLINE
  5
3BF
100
AcDbEntity
  8
RACCORDO
100
AcDbSpline
 62
250
  6
CONTINUOUS
 70
0
 71
3
 72
11
 73
7
 74
0
 42
0.0000001
 43
0.0000001
 44
0.0000000001
 40
0.0
 40
0.0
 40
0.0
 40
0.0
 40
0.2372200919
 40
0.4999938933
 40
0.7627710182
 40
1.0
 40
1.0
 40
1.0
 40
1.0
 10
-43.8140757439
 20
59.1377421443
 30
0.0
 10
-43.8140757439
 20
59.1956968885
 30
0.0
 10
-43.792338352
 20
59.3179284694
 30
0.0
 10
-43.716564655
 20
59.4896878799
 30
0.0
 10
-43.6057019639
 20
59.641191119
 30
0.0
 10
-43.5107137065
 20
59.7211347211
 30
0.0
 10
-43.4605223533
 20
59.7501145794
 30
0.0
  0
ELLIPSE
  5
3C0
100
AcDbEntity
  8
RACCORDO
100
AcDbEllipse
 62
7
  6
CONTINUOUS
 10
-21.4221868429
 20
1.9207760195
 30
0.0
 11
0.2758078635
 21
-0.0609777515
 31
0.0
 40
0.2088113763
 41
-0.9866670507
 42
-0.21459559
  0
ELLIPSE
  5
3C1
100
AcDbEntity
  8
RACCORDO
100
AcDbEllipse
 62
7
  6
CONTINUOUS
 10
-22.2827359482
 20
5.7167814805
 30
0.0
 11
-0.1000048646
 21
0.1733605896
 31
0.0
 40
0.5769800402
 41
-3.115426158
 42
-2.3560908291
  0
ELLIPSE
  5
3C2
100
AcDbEntity
  8
RACCORDO
100
AcDbEllipse
 62
7
  6
CONTINUOUS
 10
-22.2827359482
 20
8.4980235639
 30
0.0
 11
-0.0999438228
 21
0.1732551175
 31
0.0
 40
0.5776833225
 41
-2.3554807532
 42
-0.7852935066
  0
ELLIPSE
  5
3C3
100
AcDbEntity
  8
RACCORDO
100
AcDbEllipse
 62
7
  6
CONTINUOUS
 10
-22.8683077716
 20
8.8361253958
 30
0.0
 11
-0.100126692
 21
0.1734133857
 31
0.0
 40
0.5766289216
 41
-0.7848373798
 42
-0.0348626878
  0
ELLIPSE
  5
3C4
100
AcDbEntity
  8
RACCORDO
100
AcDbEllipse
 62
7
  6
CONTINUOUS
 10
-22.2340385552
 20
0.9731522138
 30
0.0
 11
0.487138911
 21
0.8734102324
 31
0.0
 40
0.5671693725
 41
0.2534204135
 42
0.6461194952
  0
ELLIPSE
  5
3C5
100
AcDbEntity
  8
RACCORDO
100
AcDbEllipse
 62
7
  6
CONTINUOUS
 10
-22.2340385552
 20
0.426903532
 30
0.0
 11
0.487138911
 21
0.8734102324
 31
0.0
 40
0.5671693725
 41
-2.2336737706
 42
-1.8409746889
  0
ELLIPSE
  5
3C6
100
AcDbEntity
  8
RACCORDO
100
AcDbEllipse
 62
7
  6
CONTINUOUS
 10
-22.2340385552
 20
32.269244327
 30
0.0
 11
0.487138911
 21
0.8734102324
 31
0.0
 40
0.5671693725
 41
-2.2336737706
 42
-1.8409746889
  0
ELLIPSE
  5
3C7
100
AcDbEntity
  8
RACCORDO
100
AcDbEllipse
 62
7
  6
CONTINUOUS
 10
-21.4221868429
 20
32.624909173
 30
0.0
 11
0.2467240346
 21
0.2959232061
 31
0.0
 40
0.4188007473
 41
-1.4982967879
 42
-1.2386724737
  0
ELLIPSE
  5
3C8
100
AcDbEntity
  8
RACCORDO
100
AcDbEllipse
 62
7
  6
CONTINUOUS
 10
-23.4308473455
 20
2.8762965338
 30
0.0
 11
0.4935308613
 21
0.8697499888
 31
0.0
 40
0.5722717666
 41
0.2575598763
 42
0.650258958
  0
ELLIPSE
  5
3C9
100
AcDbEntity
  8
RACCORDO
100
AcDbEllipse
 62
7
  6
CONTINUOUS
 10
-21.4221868429
 20
0.7825683781
 30
0.0
 11
0.2467240346
 21
0.2959232061
 31
0.0
 40
0.4188007473
 41
-1.4982967879
 42
0.0723472399
  0
ENDSEC
  0
SECTION
  2
OBJECTS
  0
DICTIONARY
  5
C
100
AcDbDictionary
280
0
281
1
  3
ACAD_GROUP
350
D
  3
ACAD_MLINESTYLE
350
17
  3
ACAD_LAYOUT
350
1A
  3
ACAD_PLOTSETTINGS
350
19
  3
ACAD_PLOTSTYLENAME
350
E
  0
DICTIONARY
  5
D
102
{ACAD_REACTORS
330
C
102
}
100
AcDbDictionary
280
0
281
1
  0
ACDBDICTIONARYWDFLT
  5
E
102
{ACAD_REACTORS
330
C
102
}
100
AcDbDictionary
281
1
  3
Normal
350
F
100
AcDbDictionaryWithDefault
340
F
  0
DICTIONARY
  5
17
102
{ACAD_REACTORS
330
C
102
}
100
AcDbDictionary
280
0
281
1
  3
Standard
350
18
  0
DICTIONARY
  5
19
102
{ACAD_REACTORS
330
C
102
}
100
AcDbDictionary
281
1
  0
DICTIONARY
  5
1A
102
{ACAD_REACTORS
330
C
102
}
100
AcDbDictionary
281
1
  3
Model
350
3CA
  3
Layout1
350
3CB
  0
ACDBPLACEHOLDER
  5
F
102
{ACAD_REACTORS
330
E
102
}
  0
MLINESTYLE
  5
18
102
{ACAD_REACTORS
330
17
102
}
100
AcDbMlineStyle
  2
STANDARD
 70
0
  3

 62
256
 51
90.0
 52
90.0
 71
2
 49
0.5
 62
256
  6
BYLAYER
 49
-0.5
 62
256
  6
BYLAYER
  0
LAYOUT
  5
3CA
102
{ACAD_REACTORS
330
1A
102
}
100
AcDbPlotSettings
  1

  2
none_device
  4

  6

 40
0.0
 41
0.0
 42
0.0
 43
0.0
 44
210.0
 45
297.0
 46
0.0
 47
0.0
 48
0.0
 49
0.0
140
0.0
141
0.0
142
1.0
143
1.0
 70
1024
 72
1
 73
0
 74
0
  7

 75
0
147
1.0
148
0.0
149
0.0
100
AcDbLayout
  1
Model
 70
0
 71
0
 10
0.0
 20
0.0
 11
210.0
 21
297.0
 12
0.0
 22
0.0
 32
0.0
 14
0.0
 24
0.0
 34
0.0
 15
0.0
 25
0.0
 35
0.0
146
0.0
 13
0.0
 23
0.0
 33
0.0
 16
1.0
 26
0.0
 36
0.0
 17
0.0
 27
1.0
 37
0.0
 76
0
330
213
345
0
346
0
  0
LAYOUT
  5
3CB
102
{ACAD_REACTORS
330
1A
102
}
100
AcDbPlotSettings
  1

  2
none_device
  4

  6

 40
0.0
 41
0.0
 42
0.0
 43
0.0
 44
210.0
 45
297.0
 46
0.0
 47
0.0
 48
0.0
 49
0.0
140
0.0
141
0.0
142
1.0
143
1.0
 70
0
 72
1
 73
0
 74
0
  7

 75
0
147
1.0
148
0.0
149
0.0
100
AcDbLayout
  1
Layout1
 70
0
 71
1
 10
0.0
 20
0.0
 11
210.0
 21
297.0
 12
0.0
 22
0.0
 32
0.0
 14
0.0
 24
0.0
 34
0.0
 15
0.0
 25
0.0
 35
0.0
146
0.0
 13
0.0
 23
0.0
 33
0.0
 16
1.0
 26
0.0
 36
0.0
 17
0.0
 27
1.0
 37
0.0
 76
0
330
214
345
0
346
0
  0
ENDSEC
  0
EOF
