  0
SECTION
  2
HEADER
  9
$ACADVER
  1
AC1024
  9
$DWGCODEPAGE
  3
ANSI_1252
  9
$EXTMAX
 10
297.0
 20
210.0
 30
0.0
  9
$EXTMIN
 10
0.0
 20
0.0
 30
0.0
  9
$LIMMIN
 10
0.0
 20
0.0
  9
$LIMMAX
 10
297.0
 20
210.0
  9
$VIEWCTR
 10
148.5
 20
105.0
  9
$VIEWSIZE
 40
210.0
  9
$CLAYER
  8
0
  9
$LTSCALE
 40
16.335
  9
$CELTYPE
  6
BYLAYER
  9
$DIMSCALE
 40
1.0
  9
$DIMASZ
 40
3.0
  9
$DIMEXO
 40
0.5
  9
$DIMDLI
 40
11.286
  9
$DIMEXE
 40
1.5
  9
$DIMCEN
 40
2.673
  9
$DIMLFAC
 40
1.0
  9
$DIMBLK
  1
_FILLED
  9
$DIMALT
 70
0
  9
$DIMALTF
 40
0.0393700787
  9
$DIMTXT
 40
3.0
  9
$DIMTOL
 70
1
  9
$DIMLIM
 70
0
  9
$DIMTFAC
 40
1.0
  9
$DIMTP
 40
0.01
  9
$DIMTM
 40
0.01
  9
$DIMGAP
 40
0.625
  9
$DIMDSEP
 70
44
  9
$AUNITS
 70
0
  9
$PDMODE
 70
3
  9
$PDSIZE
 40
3.0
  9
$HANDSEED
  5
2DD
  9
$TILEMODE
 70
1
  9
$MEASUREMENT
 70
1
  9
$INSUNITS
 70
4
  0
ENDSEC
  0
SECTION
  2
CLASSES
  0
CLASS
  1
ACDBDICTIONARYWDFLT
  2
AcDbDictionaryWithDefault
  3
AutoCAD 2000
 90
0
 91
1
280
0
281
0
  0
CLASS
  1
ACDBPLACEHOLDER
  2
AcDbPlaceHolder
  3
AutoCAD 2000
 90
0
 91
1
280
0
281
0
  0
CLASS
  1
LAYOUT
  2
AcDbLayout
  3
AutoCAD 2000
 90
0
 91
0
280
0
281
0
  0
ENDSEC
  0
SECTION
  2
TABLES
  0
TABLE
  2
VPORT
  5
8
100
AcDbSymbolTable
 70
2
  0
VPORT
  5
1F4
100
AcDbSymbolTableRecord
100
AcDbViewportTableRecord
  2
*ACTIVE
 70
0
 10
0.0
 20
0.0
 11
1.0
 21
1.0
 12
148.5
 22
105.0
 13
0.0
 23
0.0
 14
1.0
 24
1.0
 15
0.0
 25
0.0
 16
0.0
 26
0.0
 36
1.0
 17
0.0
 27
0.0
 37
0.0
 40
210.0
 41
1.4142857143
 42
50.0
 43
0.0
 44
0.0
 50
0.0
 51
0.0
 71
0
 72
100
 73
1
 74
1
 75
0
 76
0
 77
0
 78
0
  0
ENDTAB
  0
TABLE
  2
LTYPE
  5
5
100
AcDbSymbolTable
 70
6
  0
LTYPE
  5
14
100
AcDbSymbolTableRecord
100
AcDbLinetypeTableRecord
  2
BYBLOCK
 70
0
  3

 72
65
 73
0
 40
0.0
  0
LTYPE
  5
15
100
AcDbSymbolTableRecord
100
AcDbLinetypeTableRecord
  2
BYLAYER
 70
0
  3

 72
65
 73
0
 40
0.0
  0
LTYPE
  5
16
100
AcDbSymbolTableRecord
100
AcDbLinetypeTableRecord
  2
CONTINUOUS
 70
64
  3
Solid line
 72
65
 73
0
 40
0.0
  0
LTYPE
  5
1F5
100
AcDbSymbolTableRecord
100
AcDbLinetypeTableRecord
  2
CENTER
 70
64
  3
____ _ ____ _ ____ _ ____ _ ____ _ ____ _ ____
 72
65
 73
4
 40
0.6
 49
0.375
 74
0
 49
-0.075
 74
0
 49
0.075
 74
0
 49
-0.075
 74
0
  0
LTYPE
  5
1F6
100
AcDbSymbolTableRecord
100
AcDbLinetypeTableRecord
  2
HIDDEN
 70
64
  3
- - - - - - - - - - - - - - - - - - - -
 72
65
 73
2
 40
0.2
 49
0.1
 74
0
 49
-0.1
 74
0
  0
LTYPE
  5
1F7
100
AcDbSymbolTableRecord
100
AcDbLinetypeTableRecord
  2
PHANTOM
 70
64
  3
_____ _ _ _____ _ _ _____ _ _ _____
 72
65
 73
6
 40
0.8
 49
0.45
 74
0
 49
-0.05
 74
0
 49
0.1
 74
0
 49
-0.05
 74
0
 49
0.1
 74
0
 49
-0.05
 74
0
  0
LTYPE
  5
1F8
100
AcDbSymbolTableRecord
100
AcDbLinetypeTableRecord
  2
DOT
 70
64
  3
. . . . . . . . . . . . . . . . . . . .
 72
65
 73
2
 40
0.2
 49
0.1
 74
0
 49
-0.1
 74
0
  0
LTYPE
  5
1F9
100
AcDbSymbolTableRecord
100
AcDbLinetypeTableRecord
  2
DASHED
 70
64
  3
- - - - - - - - - - - - - - - - - - - -
 72
65
 73
2
 40
0.2
 49
0.1
 74
0
 49
-0.1
 74
0
  0
ENDTAB
  0
TABLE
  2
LAYER
  5
2
100
AcDbSymbolTable
 70
36
  0
LAYER
  5
10
100
AcDbSymbolTableRecord
100
AcDbLayerTableRecord
  2
0
 70
0
 62
7
  6
CONTINUOUS
370
-3
390
F
  0
LAYER
  5
1FA
100
AcDbSymbolTableRecord
100
AcDbLayerTableRecord
  2
DEFAULT_1
 70
0
 62
7
  6
CENTER
370
-3
390
F
  0
LAYER
  5
1FB
100
AcDbSymbolTableRecord
100
AcDbLayerTableRecord
  2
DEFAULT_2
 70
0
 62
7
  6
HIDDEN
370
-3
390
F
  0
LAYER
  5
1FC
100
AcDbSymbolTableRecord
100
AcDbLayerTableRecord
  2
DEFAULT_3
 70
0
 62
7
  6
PHANTOM
370
-3
390
F
  0
LAYER
  5
1FD
100
AcDbSymbolTableRecord
100
AcDbLayerTableRecord
  2
ASSI
 70
0
 62
7
  6
CONTINUOUS
370
-3
390
F
  0
LAYER
  5
1FE
100
AcDbSymbolTableRecord
100
AcDbLayerTableRecord
  2
COORDINATE
 70
0
 62
7
  6
CONTINUOUS
370
-3
390
F
  0
LAYER
  5
1FF
100
AcDbSymbolTableRecord
100
AcDbLayerTableRecord
  2
COPY_PUBLISH
 70
0
 62
7
  6
CONTINUOUS
370
-3
390
F
  0
LAYER
  5
200
100
AcDbSymbolTableRecord
100
AcDbLayerTableRecord
  2
COSMETICI
 70
0
 62
7
  6
CONTINUOUS
370
-3
390
F
  0
LAYER
  5
201
100
AcDbSymbolTableRecord
100
AcDbLayerTableRecord
  2
CURVE
 70
0
 62
7
  6
CONTINUOUS
370
-3
390
F
  0
LAYER
  5
202
100
AcDbSymbolTableRecord
100
AcDbLayerTableRecord
  2
DRAFT
 70
0
 62
7
  6
CONTINUOUS
370
-3
390
F
  0
LAYER
  5
203
100
AcDbSymbolTableRecord
100
AcDbLayerTableRecord
  2
IMPORT_IGES
 70
0
 62
7
  6
CONTINUOUS
370
-3
390
F
  0
LAYER
  5
204
100
AcDbSymbolTableRecord
100
AcDbLayerTableRecord
  2
INTF_1
 70
0
 62
7
  6
CONTINUOUS
370
-3
390
F
  0
LAYER
  5
205
100
AcDbSymbolTableRecord
100
AcDbLayerTableRecord
  2
INTF_11
 70
0
 62
7
  6
CONTINUOUS
370
-3
390
F
  0
LAYER
  5
206
100
AcDbSymbolTableRecord
100
AcDbLayerTableRecord
  2
INTF_13
 70
0
 62
7
  6
CONTINUOUS
370
-3
390
F
  0
LAYER
  5
207
100
AcDbSymbolTableRecord
100
AcDbLayerTableRecord
  2
INTF_2
 70
0
 62
7
  6
CONTINUOUS
370
-3
390
F
  0
LAYER
  5
208
100
AcDbSymbolTableRecord
100
AcDbLayerTableRecord
  2
NOTE
 70
0
 62
7
  6
CONTINUOUS
370
-3
390
F
  0
LAYER
  5
209
100
AcDbSymbolTableRecord
100
AcDbLayerTableRecord
  2
PIANI
 70
0
 62
7
  6
CONTINUOUS
370
-3
390
F
  0
LAYER
  5
20A
100
AcDbSymbolTableRecord
100
AcDbLayerTableRecord
  2
PUNTI
 70
0
 62
7
  6
CONTINUOUS
370
-3
390
F
  0
LAYER
  5
20B
100
AcDbSymbolTableRecord
100
AcDbLayerTableRecord
  2
RACCORDO
 70
0
 62
7
  6
CONTINUOUS
370
-3
390
F
  0
LAYER
  5
20C
100
AcDbSymbolTableRecord
100
AcDbLayerTableRecord
  2
SIMBOLI
 70
0
 62
7
  6
CONTINUOUS
370
-3
390
F
  0
LAYER
  5
20D
100
AcDbSymbolTableRecord
100
AcDbLayerTableRecord
  2
SMUSSO
 70
0
 62
7
  6
CONTINUOUS
370
-3
390
F
  0
LAYER
  5
20E
100
AcDbSymbolTableRecord
100
AcDbLayerTableRecord
  2
SNAPLINE
 70
0
 62
7
  6
CONTINUOUS
370
-3
390
F
  0
LAYER
  5
20F
100
AcDbSymbolTableRecord
100
AcDbLayerTableRecord
  2
SUPERFICI
 70
0
 62
7
  6
CONTINUOUS
370
-3
390
F
  0
LAYER
  5
210
100
AcDbSymbolTableRecord
100
AcDbLayerTableRecord
  2
TRASH
 70
0
 62
7
  6
CONTINUOUS
370
-3
390
F
  0
ENDTAB
  0
TABLE
  2
STYLE
  5
3
100
AcDbSymbolTable
 70
1
  0
STYLE
  5
11
100
AcDbSymbolTableRecord
100
AcDbTextStyleTableRecord
  2
STANDARD
 70
0
 40
0.0
 41
0.8
 50
0.0
 71
0
 42
0.2
  3
txt
  4

  0
STYLE
  5
211
100
AcDbSymbolTableRecord
100
AcDbTextStyleTableRecord
  2
TEXTSTYLE_1
 70
0
 40
0.0
 41
0.8
 50
0.0
 71
0
 42
0.2
  3
gdt
  4

  0
ENDTAB
  0
TABLE
  2
VIEW
  5
6
100
AcDbSymbolTable
 70
0
  0
ENDTAB
  0
TABLE
  2
UCS
  5
7
100
AcDbSymbolTable
 70
0
  0
ENDTAB
  0
TABLE
  2
APPID
  5
9
100
AcDbSymbolTable
 70
1
  0
APPID
  5
212
100
AcDbSymbolTableRecord
100
AcDbRegAppTableRecord
  2
ACAD
 70
0
  0
ENDTAB
  0
TABLE
  2
BLOCK_RECORD
  5
1
100
AcDbSymbolTable
 70
0
  0
BLOCK_RECORD
  5
213
100
AcDbSymbolTableRecord
100
AcDbBlockTableRecord
  2
*Model_Space
  0
BLOCK_RECORD
  5
214
100
AcDbSymbolTableRecord
100
AcDbBlockTableRecord
  2
*Paper_Space
  0
BLOCK_RECORD
  5
215
100
AcDbSymbolTableRecord
100
AcDbBlockTableRecord
  2
_FILLED
  0
ENDTAB
  0
TABLE
  2
DIMSTYLE
  5
A
100
AcDbSymbolTable
 70
1
100
AcDbDimStyleTable
 71
0
  0
DIMSTYLE
105
216
100
AcDbSymbolTableRecord
100
AcDbDimStyleTableRecord
  2
STANDARD
 70
0
  3

  4

 40
1.0
 41
3.0
 42
0.5
 43
0.38
 44
1.5
 45
0.0
 46
0.0
 47
0.01
 48
0.01
140
3.0
141
0.09
142
0.0
143
25.4
144
1.0
145
0.0
146
1.0
147
0.625
 71
1
 72
0
 73
0
 74
0
 75
0
 76
0
 77
1
 78
8
 79
2
170
0
171
1
172
0
173
0
174
0
175
0
176
0
177
0
178
0
270
2
179
2
271
2
272
2
273
2
274
2
275
0
280
0
281
0
282
0
283
1
284
8
285
0
286
0
287
3
288
0
340
11
278
44
341
215
342
215
343
215
344
215
  0
ENDTAB
  0
ENDSEC
  0
SECTION
  2
BLOCKS
  0
BLOCK
  5
20
100
AcDbEntity
  8
0
100
AcDbBlockBegin
  2
*Model_Space
 70
0
 10
0.0
 20
0.0
 30
0.0
  3
*Model_Space
  1

  0
ENDBLK
  5
21
100
AcDbEntity
  8
0
100
AcDbBlockEnd
  0
BLOCK
  5
1C
100
AcDbEntity
  8
0
100
AcDbBlockBegin
  2
*Paper_Space
 70
0
 10
0.0
 20
0.0
 30
0.0
  3
*Paper_Space
  1

  0
ENDBLK
  5
1D
100
AcDbEntity
  8
0
100
AcDbBlockEnd
  0
BLOCK
  5
217
100
AcDbEntity
  8
0
100
AcDbBlockBegin
  2
_FILLED
 70
64
 10
0.0
 20
0.0
  3
_FILLED
  1

  0
SOLID
  5
218
100
AcDbEntity
  8
0
  6
BYBLOCK
 62
0
100
AcDbTrace
 10
0.0
 20
0.0
 11
-1.0
 21
0.3166666667
 12
-1.0
 22
-0.3166666667
 13
-1.0
 23
-0.3166666667
  0
ENDBLK
  5
219
100
AcDbEntity
  8
0
  6
BYBLOCK
 62
0
100
AcDbBlockEnd
  0
ENDSEC
  0
SECTION
  2
ENTITIES
  0
LWPOLYLINE
  5
21A
100
AcDbEntity
  8
RACCORDO
100
AcDbPolyline
 62
7
  6
CONTINUOUS
 90
15
 70
0
 10
-52.9557857344
 20
64.3326409117
 10
-53.0083256009
 20
64.2924660849
 10
-53.0561963661
 20
64.2496058508
 10
-53.1015533426
 20
64.2023084999
 10
-53.1439871116
 20
64.1507180919
 10
-53.1830476935
 20
64.0951384562
 10
-53.2184867885
 20
64.0357038537
 10
-53.2500699643
 20
63.9725950913
 10
-53.2775156371
 20
63.906197262
 10
-53.300686376
 20
63.8366946127
 10
-53.3194876721
 20
63.7642112833
 10
-53.3338023841
 20
63.6889888715
 10
-53.343552287
 20
63.6111720568
 10
-53.3486777841
 20
63.5308712113
 10
-53.3494995748
 20
63.4825401362
  0
LINE
  5
21B
100
AcDbEntity
  8
RACCORDO
100
AcDbLine
 62
7
  6
CONTINUOUS
 10
-52.9563606918
 20
64.3322389829
 11
-50.787475241
 21
65.8615501635
  0
LINE
  5
21C
100
AcDbEntity
  8
RACCORDO
100
AcDbLine
 62
250
  6
CONTINUOUS
 10
-52.1618654137
 20
64.2871727815
 11
-50.0001751569
 21
65.811410531
  0
LINE
  5
21D
100
AcDbEntity
  8
RACCORDO
100
AcDbLine
 62
250
  6
CONTINUOUS
 10
-48.7220056171
 20
65.8735845962
 11
-49.4272399596
 21
65.4806049287
  0
LINE
  5
21E
100
AcDbEntity
  8
DRAFT
100
AcDbLine
 62
7
  6
CONTINUOUS
 10
-49.057026389
 20
65.909567409
 11
-49.6275128837
 21
65.596240005
  0
LWPOLYLINE
  5
21F
100
AcDbEntity
  8
RACCORDO
100
AcDbPolyline
 62
7
  6
CONTINUOUS
 90
24
 70
0
 10
-53.3494602274
 20
-5.6553238343
 10
-53.3463249457
 20
-5.7415382095
 10
-53.3383262463
 20
-5.8281935007
 10
-53.325637469
 20
-5.9151309328
 10
-53.3084324725
 20
-6.002120867
 10
-53.2869214297
 20
-6.0887578472
 10
-53.2612951506
 20
-6.1747954037
 10
-53.2316972525
 20
-6.260086514
 10
-53.1983362917
 20
-6.3442822595
 10
-53.1614130257
 20
-6.4270924972
 10
-53.121044663
 20
-6.5083986645
 10
-53.0773369188
 20
-6.5880640693
 10
-53.0304176763
 20
-6.665870153
 10
-52.9804160378
 20
-6.7415993345
 10
-52.9273979934
 20
-6.815094317
 10
-52.8714170592
 20
-6.8861928103
 10
-52.8126170324
 20
-6.954585995
 10
-52.7511804436
 20
-7.0199462736
 10
-52.6871648797
 20
-7.0820666687
 10
-52.6206807648
 20
-7.1406716335
 10
-52.5519352901
 20
-7.1954013635
 10
-52.4810304141
 20
-7.2459892464
 10
-52.4080301609
 20
-7.2921884912
 10
-52.3932092475
 20
-7.3008613363
  0
LINE
  5
220
100
AcDbEntity
  8
RACCORDO
100
AcDbLine
 62
7
  6
CONTINUOUS
 10
-53.3494995748
 20
63.4825445703
 11
-53.3494602274
 21
-5.6553238343
  0
LINE
  5
221
100
AcDbEntity
  8
RACCORDO
100
AcDbLine
 62
250
  6
CONTINUOUS
 10
-53.2030529654
 20
63.2784072737
 11
-53.2030529654
 21
-5.8488315403
  0
LINE
  5
222
100
AcDbEntity
  8
RACCORDO
100
AcDbLine
 62
7
  6
CONTINUOUS
 10
-53.3494995748
 20
-5.6446942555
 11
-53.349499463
 21
-5.6445011416
  0
LINE
  5
223
100
AcDbEntity
  8
RACCORDO
100
AcDbLine
 62
7
  6
CONTINUOUS
 10
-33.5152030189
 20
39.3397338
 11
-33.5151002635
 21
39.3397891049
  0
LINE
  5
224
100
AcDbEntity
  8
RACCORDO
100
AcDbLine
 62
250
  6
CONTINUOUS
 10
-33.6214600393
 20
39.1093301445
 11
-33.3426322591
 21
39.2592747014
  0
LINE
  5
225
100
AcDbEntity
  8
RACCORDO
100
AcDbLine
 62
7
  6
CONTINUOUS
 10
-30.1402987573
 20
36.2969890989
 11
-29.5343735907
 21
37.060433875
  0
LINE
  5
226
100
AcDbEntity
  8
RACCORDO
100
AcDbLine
 62
250
  6
CONTINUOUS
 10
-31.3260166287
 20
33.7056598016
 11
-28.3762083224
 21
36.3917237643
  0
LINE
  5
227
100
AcDbEntity
  8
RACCORDO
100
AcDbLine
 62
7
  6
CONTINUOUS
 10
-31.3260166287
 20
33.6460008569
 11
-28.3361143204
 21
36.36857399
  0
LINE
  5
228
100
AcDbEntity
  8
RACCORDO
100
AcDbLine
 62
7
  6
CONTINUOUS
 10
-31.3260166287
 20
35.3559052835
 11
-30.3992728361
 21
36.0424527272
  0
LINE
  5
229
100
AcDbEntity
  8
RACCORDO
100
AcDbLine
 62
7
  6
CONTINUOUS
 10
-31.0171361268
 20
37.91656238
 11
-31.3260166287
 21
37.7824184717
  0
LWPOLYLINE
  5
22A
100
AcDbEntity
  8
RACCORDO
100
AcDbPolyline
 62
7
  6
CONTINUOUS
 90
11
 70
0
 10
-33.521366869
 20
39.3373093468
 10
-33.5213329295
 20
39.3373197642
 10
-33.5193475206
 20
39.3375002401
 10
-33.5146724522
 20
39.3374906489
 10
-33.5070378444
 20
39.3367926775
 10
-33.4962915966
 20
39.3348846437
 10
-33.4828060495
 20
39.331378635
 10
-33.4672618957
 20
39.3261225729
 10
-33.4500752285
 20
39.3190410965
 10
-33.4314114626
 20
39.3100264663
 10
-33.4143019116
 20
39.3006558707
  0
LINE
  5
22B
100
AcDbEntity
  8
RACCORDO
100
AcDbLine
 62
250
  6
CONTINUOUS
 10
-34.0419895848
 20
-3.8085890717
 11
-34.0419895848
 21
39.1114491021
  0
LINE
  5
22C
100
AcDbEntity
  8
RACCORDO
100
AcDbLine
 62
250
  6
CONTINUOUS
 10
-33.6214600393
 20
-3.8107080293
 11
-33.6214600393
 21
39.1093301445
  0
LINE
  5
22D
100
AcDbEntity
  8
RACCORDO
100
AcDbLine
 62
7
  6
CONTINUOUS
 10
-33.2579685144
 20
39.2103909163
 11
-33.2579685144
 21
-3.6008332743
  0
LWPOLYLINE
  5
22E
100
AcDbEntity
  8
RACCORDO
100
AcDbPolyline
 62
7
  6
CONTINUOUS
 90
15
 70
0
 10
48.9109549469
 20
-65.792616228
 10
48.9508143703
 20
-65.8147867832
 10
49.0231474716
 20
-65.8507866
 10
49.0956352514
 20
-65.8814986653
 10
49.1681559794
 20
-65.90692623
 10
49.2405481417
 20
-65.9270679891
 10
49.3125408795
 20
-65.9419011142
 10
49.3839780446
 20
-65.9514517978
 10
49.4546273858
 20
-65.9557452061
 10
49.5240071675
 20
-65.9548296231
 10
49.591842368
 20
-65.9488282241
 10
49.6578926497
 20
-65.937890691
 10
49.7216690969
 20
-65.9222533906
 10
49.7828436831
 20
-65.9022066028
 10
49.8441400945
 20
-65.8767036059
  0
LINE
  5
22F
100
AcDbEntity
  8
RACCORDO
100
AcDbLine
 62
250
  6
CONTINUOUS
 10
-32.5680985045
 20
-3.7643106027
 11
-32.5680984433
 21
-3.8574311322
  0
LINE
  5
230
100
AcDbEntity
  8
RACCORDO
100
AcDbLine
 62
250
  6
CONTINUOUS
 10
-31.8684835992
 20
-4.2682146503
 11
-31.8684835992
 21
-1.630422923
  0
LINE
  5
231
100
AcDbEntity
  8
RACCORDO
100
AcDbLine
 62
7
  6
CONTINUOUS
 10
-31.8123515592
 20
-4.1879972429
 11
-31.8123515592
 21
-1.5502055153
  0
LINE
  5
232
100
AcDbEntity
  8
RACCORDO
100
AcDbLine
 62
250
  6
CONTINUOUS
 10
-31.3821486687
 20
-0.6328357675
 11
-31.3821486687
 21
38.127316047
  0
LINE
  5
233
100
AcDbEntity
  8
RACCORDO
100
AcDbLine
 62
7
  6
CONTINUOUS
 10
-31.3260166287
 20
-0.5526183601
 11
-31.3260166287
 21
38.0949061106
  0
LINE
  5
234
100
AcDbEntity
  8
SMUSSO
100
AcDbLine
 62
7
  6
CONTINUOUS
 10
-27.9547037625
 20
8.3439930305
 11
-27.9547037625
 21
8.0714120557
  0
LINE
  5
235
100
AcDbEntity
  8
SMUSSO
100
AcDbLine
 62
7
  6
CONTINUOUS
 10
-27.9547037625
 20
5.3438851779
 11
-27.9547037625
 21
5.0713042031
  0
LWPOLYLINE
  5
236
100
AcDbEntity
  8
RACCORDO
100
AcDbPolyline
 62
7
  6
CONTINUOUS
 90
12
 70
0
 10
-31.8123515595
 20
-1.5501995271
 10
-31.8120454018
 20
-1.5392339626
 10
-31.8109630927
 20
-1.5260614401
 10
-31.809003967
 20
-1.5115900721
 10
-31.8060900752
 20
-1.4959607141
 10
-31.8021753541
 20
-1.4793793997
 10
-31.7972512282
 20
-1.4620866589
 10
-31.7913233197
 20
-1.4442774914
 10
-31.7844020587
 20
-1.4261096039
 10
-31.7765113279
 20
-1.4077396481
 10
-31.7677070675
 20
-1.3893703528
 10
-31.7580540717
 20
-1.3711800959
  0
LINE
  5
237
100
AcDbEntity
  8
RACCORDO
100
AcDbLine
 62
7
  6
CONTINUOUS
 10
-52.393373939
 20
-7.3007663707
 11
48.9109570499
 21
-65.7926174423
  0
LINE
  5
238
100
AcDbEntity
  8
RACCORDO
100
AcDbLine
 62
250
  6
CONTINUOUS
 10
-52.4969152495
 20
-7.0718979402
 11
48.8074157291
 21
-65.5637490058
  0
LINE
  5
239
100
AcDbEntity
  8
RACCORDO
100
AcDbLine
 62
7
  6
CONTINUOUS
 10
-32.653455939
 20
-3.714231036
 11
-32.6533219265
 21
-3.7144914506
  0
LWPOLYLINE
  5
23A
100
AcDbEntity
  8
RACCORDO
100
AcDbPolyline
 62
7
  6
CONTINUOUS
 90
8
 70
0
 10
-31.7700080522
 20
-4.4467764319
 10
-31.7798753343
 20
-4.4131222328
 10
-31.7910129291
 20
-4.3679763672
 10
-31.7997518104
 20
-4.3242037297
 10
-31.8061363818
 20
-4.2820594711
 10
-31.8102268153
 20
-4.2419744405
 10
-31.8121508674
 20
-4.2042341016
 10
-31.8123515924
 20
-4.1880637974
  0
LINE
  5
23B
100
AcDbEntity
  8
RACCORDO
100
AcDbLine
 62
7
  6
CONTINUOUS
 10
-28.0689531092
 20
4.8291662875
 11
-27.9547037625
 21
5.0713042031
  0
LINE
  5
23C
100
AcDbEntity
  8
RACCORDO
100
AcDbLine
 62
250
  6
CONTINUOUS
 10
-31.7870869116
 20
-1.3508229947
 11
-31.3821486687
 21
-0.6328357675
  0
LINE
  5
23D
100
AcDbEntity
  8
RACCORDO
100
AcDbLine
 62
7
  6
CONTINUOUS
 10
-31.7580540717
 20
-1.3711800959
 11
-31.3518126095
 21
-0.650867837
  0
LINE
  5
23E
100
AcDbEntity
  8
RACCORDO
100
AcDbLine
 62
7
  6
CONTINUOUS
 10
-28.134050312
 20
7.5646986529
 11
-28.6466938941
 21
6.8453141938
  0
LINE
  5
23F
100
AcDbEntity
  8
RACCORDO
100
AcDbLine
 62
7
  6
CONTINUOUS
 10
-30.1402987573
 20
4.454648304
 11
-29.2891726607
 21
5.5270377806
  0
LINE
  5
240
100
AcDbEntity
  8
RACCORDO
100
AcDbLine
 62
250
  6
CONTINUOUS
 10
-31.3260166287
 20
1.8633190067
 11
-28.0689531092
 21
4.8291662875
  0
LINE
  5
241
100
AcDbEntity
  8
RACCORDO
100
AcDbLine
 62
7
  6
CONTINUOUS
 10
-31.3260166287
 20
1.803660062
 11
-28.1878965079
 21
4.6611987533
  0
LINE
  5
242
100
AcDbEntity
  8
SMUSSO
100
AcDbLine
 62
7
  6
CONTINUOUS
 10
-29.6871153764
 20
9.3442657841
 11
-31.3260166287
 21
8.414645601
  0
LINE
  5
243
100
AcDbEntity
  8
RACCORDO
100
AcDbLine
 62
7
  6
CONTINUOUS
 10
-31.3260166287
 20
3.5135644886
 11
-30.3992728361
 21
4.2001119323
  0
LINE
  5
244
100
AcDbEntity
  8
RACCORDO
100
AcDbLine
 62
7
  6
CONTINUOUS
 10
-29.0487092787
 20
6.4614215235
 11
-29.2891726607
 21
6.3201150287
  0
LINE
  5
245
100
AcDbEntity
  8
RACCORDO
100
AcDbLine
 62
7
  6
CONTINUOUS
 10
-29.2891726607
 20
5.5270377806
 11
-29.0487092787
 21
5.6683016118
  0
LINE
  5
246
100
AcDbEntity
  8
RACCORDO
100
AcDbLine
 62
7
  6
CONTINUOUS
 10
-30.3992728361
 20
6.3425538238
 11
-31.3260166287
 21
5.9400776768
  0
LINE
  5
247
100
AcDbEntity
  8
RACCORDO
100
AcDbLine
 62
250
  6
CONTINUOUS
 10
29.786890796
 20
-41.3156613793
 11
-33.4763903164
 21
-4.7882357401
  0
LINE
  5
248
100
AcDbEntity
  8
RACCORDO
100
AcDbLine
 62
250
  6
CONTINUOUS
 10
29.9953206159
 20
-40.9504128363
 11
-33.2679604966
 21
-4.422987197
  0
LINE
  5
249
100
AcDbEntity
  8
RACCORDO
100
AcDbLine
 62
7
  6
CONTINUOUS
 10
-32.9044689717
 20
-4.2131124421
 11
30.2646220987
 21
-40.6861539315
  0
LINE
  5
24A
100
AcDbEntity
  8
RACCORDO
100
AcDbLine
 62
250
  6
CONTINUOUS
 10
30.2646220987
 20
-40.3031636082
 11
-32.3225481383
 21
-4.1661159148
  0
LINE
  5
24B
100
AcDbEntity
  8
RACCORDO
100
AcDbLine
 62
7
  6
CONTINUOUS
 10
30.2646220987
 20
-40.2647944045
 11
-32.250738194
 21
-4.169208873
  0
LINE
  5
24C
100
AcDbEntity
  8
RACCORDO
100
AcDbLine
 62
250
  6
CONTINUOUS
 10
30.2646220987
 20
-40.238832143
 11
-29.7597837707
 21
-5.5814924765
  0
LINE
  5
24D
100
AcDbEntity
  8
RACCORDO
100
AcDbLine
 62
7
  6
CONTINUOUS
 10
30.2646220987
 20
-40.17400765
 11
-29.6622470817
 21
-5.5729844453
  0
LWPOLYLINE
  5
24E
100
AcDbEntity
  8
RACCORDO
100
AcDbPolyline
 62
7
  6
CONTINUOUS
 90
15
 70
0
 10
-32.250787693
 20
-4.1691717992
 10
-32.260907426
 20
-4.1632044673
 10
-32.292247835
 20
-4.1431641803
 10
-32.3243806176
 20
-4.1201839181
 10
-32.3570369286
 20
-4.0943038286
 10
-32.3899076108
 20
-4.0656394617
 10
-32.4227648345
 20
-4.0342728012
 10
-32.4553806269
 20
-4.0003171799
 10
-32.4874752031
 20
-3.9639724741
 10
-32.5188190626
 20
-3.9254164525
 10
-32.5492083867
 20
-3.8848309553
 10
-32.5784292234
 20
-3.8424464473
 10
-32.6062963947
 20
-3.7984786767
 10
-32.6326272761
 20
-3.7531722736
 10
-32.6533242612
 20
-3.7144869129
  0
LINE
  5
24F
100
AcDbEntity
  8
RACCORDO
100
AcDbLine
 62
250
  6
CONTINUOUS
 10
-33.6214600393
 20
-3.8107080293
 11
-33.2579685144
 21
-3.6008332743
  0
LINE
  5
250
100
AcDbEntity
  8
RACCORDO
100
AcDbLine
 62
250
  6
CONTINUOUS
 10
-33.2679604966
 20
-4.422987197
 11
-32.9044689717
 21
-4.2131124421
  0
LINE
  5
251
100
AcDbEntity
  8
RACCORDO
100
AcDbLine
 62
250
  6
CONTINUOUS
 10
-31.8684835992
 20
-4.2682146503
 11
-31.9738747212
 21
-4.3290663722
  0
LINE
  5
252
100
AcDbEntity
  8
RACCORDO
100
AcDbLine
 62
250
  6
CONTINUOUS
 10
-30.3992728361
 20
4.2001119323
 11
-31.3260166287
 21
4.7292298685
  0
LINE
  5
253
100
AcDbEntity
  8
RACCORDO
100
AcDbLine
 62
250
  6
CONTINUOUS
 10
-30.1402987573
 20
4.454648304
 11
-31.3260166287
 21
5.131625693
  0
LINE
  5
254
100
AcDbEntity
  8
RACCORDO
100
AcDbLine
 62
7
  6
CONTINUOUS
 10
-29.6871153764
 20
9.3442657841
 11
-29.8013647231
 21
9.4521484344
  0
LINE
  5
255
100
AcDbEntity
  8
RACCORDO
100
AcDbLine
 62
7
  6
CONTINUOUS
 10
-27.9547037625
 20
8.3439930305
 11
-28.0689531092
 21
8.4518756808
  0
LINE
  5
256
100
AcDbEntity
  8
RACCORDO
100
AcDbLine
 62
250
  6
CONTINUOUS
 10
-33.2579685144
 20
-3.4586934655
 11
-32.8411558476
 21
-3.3091369366
  0
LINE
  5
257
100
AcDbEntity
  8
RACCORDO
100
AcDbLine
 62
250
  6
CONTINUOUS
 10
-32.7316395538
 20
-4.3129019819
 11
-32.3225481383
 21
-4.1661159148
  0
LINE
  5
258
100
AcDbEntity
  8
RACCORDO
100
AcDbLine
 62
250
  6
CONTINUOUS
 10
-29.7597837707
 20
-5.5814924765
 11
-29.8055475624
 21
-5.5810312982
  0
LINE
  5
259
100
AcDbEntity
  8
RACCORDO
100
AcDbLine
 62
7
  6
CONTINUOUS
 10
-29.7602365437
 20
-5.5461968908
 11
-29.8677552028
 21
-5.5451133863
  0
LINE
  5
25A
100
AcDbEntity
  8
RACCORDO
100
AcDbLine
 62
250
  6
CONTINUOUS
 10
-30.3032485609
 20
6.3760747841
 11
-29.0487092787
 21
5.6683016118
  0
LINE
  5
25B
100
AcDbEntity
  8
RACCORDO
100
AcDbLine
 62
250
  6
CONTINUOUS
 10
-29.708164329
 20
6.3556697991
 11
-28.6466938941
 21
5.7568202392
  0
LINE
  5
25C
100
AcDbEntity
  8
RACCORDO
100
AcDbLine
 62
250
  6
CONTINUOUS
 10
-29.3464875016
 20
6.3249786481
 11
-28.134050312
 21
5.6398471035
  0
LINE
  5
25D
100
AcDbEntity
  8
RACCORDO
100
AcDbLine
 62
7
  6
CONTINUOUS
 10
-29.3259881363
 20
6.3232391141
 11
-28.0794740856
 21
5.618851205
  0
LINE
  5
25E
100
AcDbEntity
  8
DRAFT
100
AcDbLine
 62
7
  6
CONTINUOUS
 10
-29.2891726607
 20
5.5270377806
 11
-30.5812588775
 21
6.2635189909
  0
LINE
  5
25F
100
AcDbEntity
  8
SMUSSO
100
AcDbLine
 62
7
  6
CONTINUOUS
 10
-28.7945138807
 20
8.8288888674
 11
-29.6871153764
 21
9.3442657841
  0
LINE
  5
260
100
AcDbEntity
  8
RACCORDO
100
AcDbLine
 62
7
  6
CONTINUOUS
 10
-30.370215482
 20
9.8319085354
 11
-30.0823219131
 21
9.6656823969
  0
LINE
  5
261
100
AcDbEntity
  8
RACCORDO
100
AcDbLine
 62
7
  6
CONTINUOUS
 10
-28.6378038681
 20
8.8316357817
 11
-28.3499102992
 21
8.6654096433
  0
LINE
  5
262
100
AcDbEntity
  8
RACCORDO
100
AcDbLine
 62
7
  6
CONTINUOUS
 10
-28.6466938941
 20
5.7568202392
 11
-28.134050312
 21
5.6398471035
  0
LINE
  5
263
100
AcDbEntity
  8
RACCORDO
100
AcDbLine
 62
7
  6
CONTINUOUS
 10
-29.2891726607
 20
6.3201150287
 11
-30.1402987573
 21
6.392339837
  0
LINE
  5
264
100
AcDbEntity
  8
RACCORDO
100
AcDbLine
 62
250
  6
CONTINUOUS
 10
-28.0689531092
 20
8.4518756808
 11
-31.3260166287
 21
7.5903231586
  0
LINE
  5
265
100
AcDbEntity
  8
RACCORDO
100
AcDbLine
 62
250
  6
CONTINUOUS
 10
-28.3499102992
 20
8.6654096433
 11
-31.3260166287
 21
7.8781754063
  0
LINE
  5
266
100
AcDbEntity
  8
RACCORDO
100
AcDbLine
 62
250
  6
CONTINUOUS
 10
-31.3260166287
 20
9.0488502836
 11
-29.8013647231
 21
9.4521484344
  0
LINE
  5
267
100
AcDbEntity
  8
RACCORDO
100
AcDbLine
 62
250
  6
CONTINUOUS
 10
-31.3260166287
 20
9.3367025313
 11
-30.0823219131
 21
9.6656823969
  0
LINE
  5
268
100
AcDbEntity
  8
RACCORDO
100
AcDbLine
 62
250
  6
CONTINUOUS
 10
-28.6378038681
 20
8.8316357817
 11
-31.3260166287
 21
8.1597145547
  0
LINE
  5
269
100
AcDbEntity
  8
RACCORDO
100
AcDbLine
 62
7
  6
CONTINUOUS
 10
-28.6928115716
 20
8.8543094522
 11
-31.3260166287
 21
8.1961374507
  0
LINE
  5
26A
100
AcDbEntity
  8
RACCORDO
100
AcDbLine
 62
250
  6
CONTINUOUS
 10
-31.3260166287
 20
9.5930051685
 11
-30.370215482
 21
9.8319085354
  0
LINE
  5
26B
100
AcDbEntity
  8
RACCORDO
100
AcDbLine
 62
7
  6
CONTINUOUS
 10
-31.3260166287
 20
9.6294280646
 11
-30.4252231855
 21
9.8545822058
  0
LINE
  5
26C
100
AcDbEntity
  8
RACCORDO
100
AcDbLine
 62
250
  6
CONTINUOUS
 10
-30.3992728361
 20
36.0424527272
 11
-31.3260166287
 21
36.5715706635
  0
LINE
  5
26D
100
AcDbEntity
  8
RACCORDO
100
AcDbLine
 62
250
  6
CONTINUOUS
 10
-30.1402987573
 20
36.2969890989
 11
-31.3260166287
 21
36.9739664879
  0
LINE
  5
26E
100
AcDbEntity
  8
RACCORDO
100
AcDbLine
 62
7
  6
CONTINUOUS
 10
-33.4142655301
 20
39.3006348544
 11
29.8490155825
 21
2.773209215
  0
LINE
  5
26F
100
AcDbEntity
  8
RACCORDO
100
AcDbLine
 62
250
  6
CONTINUOUS
 10
-33.4763903164
 20
39.4379559127
 11
29.786890796
 21
2.9105302735
  0
LWPOLYLINE
  5
270
100
AcDbEntity
  8
RACCORDO
100
AcDbPolyline
 62
7
  6
CONTINUOUS
 90
27
 70
0
 10
29.8490348558
 20
2.7731980897
 10
29.8602665059
 20
2.7665001225
 10
29.8813180394
 20
2.7528345842
 10
29.9036176541
 20
2.7368234526
 10
29.9267871165
 20
2.7185417291
 10
29.9506192863
 20
2.6979847851
 10
29.9749258812
 20
2.6751547358
 10
29.9993713432
 20
2.6502262658
 10
30.0237543954
 20
2.6232871029
 10
30.0478809213
 20
2.5944406273
 10
30.0714583174
 20
2.5639462175
 10
30.0943063965
 20
2.5319698825
 10
30.1162558565
 20
2.4986895356
 10
30.1370724295
 20
2.4644250819
 10
30.1566203055
 20
2.4293917918
 10
30.1747769441
 20
2.3938130611
 10
30.1913769512
 20
2.3580498467
 10
30.2063459441
 20
2.3223379802
 10
30.2196253894
 20
2.2869165688
 10
30.2311310791
 20
2.2521672844
 10
30.2408648416
 20
2.2183123178
 10
30.2488453895
 20
2.1855733672
 10
30.2550825025
 20
2.1543289311
 10
30.2596626848
 20
2.1247476536
 10
30.2626873603
 20
2.0970099569
 10
30.2642728932
 20
2.0714824654
 10
30.2646221032
 20
2.0533958824
  0
LINE
  5
271
100
AcDbEntity
  8
RACCORDO
100
AcDbLine
 62
250
  6
CONTINUOUS
 10
53.2953417308
 20
6.4161262278
 11
52.4971391975
 21
5.9388791572
  0
LINE
  5
272
100
AcDbEntity
  8
RACCORDO
100
AcDbLine
 62
250
  6
CONTINUOUS
 10
49.1424655649
 20
5.7953217159
 11
51.5432658173
 21
7.1815003507
  0
LINE
  5
273
100
AcDbEntity
  8
RACCORDO
100
AcDbLine
 62
250
  6
CONTINUOUS
 10
50.2016721388
 20
3.9607221161
 11
52.6024723912
 21
5.346900751
  0
LINE
  5
274
100
AcDbEntity
  8
RACCORDO
100
AcDbLine
 62
250
  6
CONTINUOUS
 10
52.8156169758
 20
7.2470338763
 11
52.0032280379
 21
6.7943441597
  0
LINE
  5
275
100
AcDbEntity
  8
RACCORDO
100
AcDbLine
 62
250
  6
CONTINUOUS
 10
48.8074157291
 20
5.1941924735
 11
-52.4969152495
 21
63.6860435391
  0
LINE
  5
276
100
AcDbEntity
  8
RACCORDO
100
AcDbLine
 62
7
  6
CONTINUOUS
 10
30.2646220987
 20
2.053365983
 11
30.2646220987
 21
-40.8666721909
  0
LINE
  5
277
100
AcDbEntity
  8
RACCORDO
100
AcDbLine
 62
250
  6
CONTINUOUS
 10
30.3524900644
 20
1.930883605
 11
30.3524900644
 21
-40.9891545687
  0
LWPOLYLINE
  5
278
100
AcDbEntity
  8
RACCORDO
100
AcDbPolyline
 62
7
  6
CONTINUOUS
 90
9
 70
0
 10
30.2646221092
 20
-40.8667180897
 10
30.2641929483
 20
-40.885974881
 10
30.2626770339
 20
-40.9066823222
 10
30.2602221343
 20
-40.9251424818
 10
30.2570042262
 20
-40.9412658505
 10
30.2532967101
 20
-40.9547287124
 10
30.2495722379
 20
-40.9650154042
 10
30.2463538159
 20
-40.9719963624
 10
30.2458047464
 20
-40.9730293562
  0
LINE
  5
279
100
AcDbEntity
  8
RACCORDO
100
AcDbLine
 62
250
  6
CONTINUOUS
 10
49.1424655649
 20
5.7953217159
 11
-52.1618654137
 21
64.2871727815
  0
LINE
  5
27A
100
AcDbEntity
  8
0
100
AcDbLine
 62
7
  6
CONTINUOUS
 10
51.5432658173
 20
7.1815003507
 11
-50.0001751569
 21
65.811410531
  0
LINE
  5
27B
100
AcDbEntity
  8
RACCORDO
100
AcDbLine
 62
250
  6
CONTINUOUS
 10
-48.7220056171
 20
65.8735845962
 11
52.8156169758
 21
7.2470338763
  0
LINE
  5
27C
100
AcDbEntity
  8
RACCORDO
100
AcDbLine
 62
7
  6
CONTINUOUS
 10
-48.6244689281
 20
65.8820926273
 11
52.9131536648
 21
7.2555419075
  0
LINE
  5
27D
100
AcDbEntity
  8
RACCORDO
100
AcDbLine
 62
250
  6
CONTINUOUS
 10
49.513553445
 20
-65.1561127403
 11
49.513553445
 21
3.9711260737
  0
LINE
  5
27E
100
AcDbEntity
  8
RACCORDO
100
AcDbLine
 62
250
  6
CONTINUOUS
 10
50.2016721388
 20
-65.1665166978
 11
50.2016721388
 21
3.9607221161
  0
LINE
  5
27F
100
AcDbEntity
  8
RACCORDO
100
AcDbLine
 62
250
  6
CONTINUOUS
 10
29.9953206159
 20
-40.9504128363
 11
30.2646220987
 21
-40.7838727597
  0
LINE
  5
280
100
AcDbEntity
  8
RACCORDO
100
AcDbLine
 62
7
  6
CONTINUOUS
 10
30.2481193252
 20
-40.9735376351
 11
30.2480190921
 21
-40.9735995718
  0
LINE
  5
281
100
AcDbEntity
  8
0
100
AcDbLine
 62
7
  6
CONTINUOUS
 10
52.6024723912
 20
-64.0564296088
 11
52.6024723912
 21
5.346900751
  0
LINE
  5
282
100
AcDbEntity
  8
RACCORDO
100
AcDbLine
 62
250
  6
CONTINUOUS
 10
53.2953417308
 20
6.4161262278
 11
53.2953417308
 21
-62.9804858604
  0
LINE
  5
283
100
AcDbEntity
  8
RACCORDO
100
AcDbLine
 62
7
  6
CONTINUOUS
 10
53.3514737707
 20
6.4963436352
 11
53.3514737707
 21
-62.900268453
  0
LINE
  5
284
100
AcDbEntity
  8
DRAFT
100
AcDbLine
 62
7
  6
CONTINUOUS
 10
53.1590105651
 20
-63.2885678395
 11
52.6024723912
 21
-63.6259693227
  0
LINE
  5
285
100
AcDbEntity
  8
RACCORDO
100
AcDbLine
 62
250
  6
CONTINUOUS
 10
53.2953417308
 20
-62.9804858604
 11
52.6024723912
 21
-63.3947539802
  0
LINE
  5
286
100
AcDbEntity
  8
RACCORDO
100
AcDbLine
 62
250
  6
CONTINUOUS
 10
50.2016721388
 20
-65.1665166978
 11
52.6024723912
 21
-64.0564296088
  0
LINE
  5
287
100
AcDbEntity
  8
RACCORDO
100
AcDbLine
 62
7
  6
CONTINUOUS
 10
49.8434922369
 20
-65.8770048641
 11
52.2522836595
 21
-64.763222801
  0
ARC
  5
288
100
AcDbEntity
  8
RACCORDO
100
AcDbCircle
 62
250
  6
CONTINUOUS
 10
-31.1890986059
 20
-1.689022226
 40
0.6869998063
100
AcDbArc
 50
150.509165915
 51
159.5266670926
  0
ARC
  5
289
100
AcDbEntity
  8
RACCORDO
100
AcDbCircle
 62
250
  6
CONTINUOUS
 10
-31.2279016807
 20
-1.6741405563
 40
0.6454426478
100
AcDbArc
 50
159.559464403
 51
161.745065507
  0
ARC
  5
28A
100
AcDbEntity
  8
RACCORDO
100
AcDbCircle
 62
250
  6
CONTINUOUS
 10
-33.1285595576
 20
-3.7642899944
 40
0.5604610535
100
AcDbArc
 50
359.9978932108
 51
1.5232710062
  0
ARC
  5
28B
100
AcDbEntity
  8
RACCORDO
100
AcDbCircle
 62
250
  6
CONTINUOUS
 10
-48.9476788957
 20
65.7104769634
 40
0.2271397842
100
AcDbArc
 50
115.3395539433
 51
118.7771317454
  0
ARC
  5
28C
100
AcDbEntity
  8
RACCORDO
100
AcDbCircle
 62
7
  6
CONTINUOUS
 10
-31.5260166287
 20
-0.5526183601
 40
0.2
100
AcDbArc
 50
330.5776581646
 51
0.0331080354
  0
ARC
  5
28D
100
AcDbEntity
  8
RACCORDO
100
AcDbCircle
 62
7
  6
CONTINUOUS
 10
-29.7622519137
 20
-5.7461867362
 40
0.2
100
AcDbArc
 50
60.0036139634
 51
89.4224527976
  0
ARC
  5
28E
100
AcDbEntity
  8
RACCORDO
100
AcDbCircle
 62
250
  6
CONTINUOUS
 10
-33.436342934
 20
39.1933106764
 40
0.1663087175
100
AcDbArc
 50
118.3058705771
 51
119.8518011055
  0
ARC
  5
28F
100
AcDbEntity
  8
RACCORDO
100
AcDbCircle
 62
250
  6
CONTINUOUS
 10
-31.3931989096
 20
-0.5526219935
 40
0.0671734395
100
AcDbArc
 50
355.7789888296
 51
0.003098868
  0
SPLINE
  5
290
100
AcDbEntity
  8
0
100
AcDbSpline
 62
7
  6
CONTINUOUS
 70
0
 71
3
 72
11
 73
7
 74
0
 42
0.0000001
 43
0.0000001
 44
0.0000000001
 40
0.0
 40
0.0
 40
0.0
 40
0.0
 40
0.2915028108
 40
0.5502118295
 40
0.7818910569
 40
1.0
 40
1.0
 40
1.0
 40
1.0
 10
-50.0001751569
 20
65.811410531
 30
0.0
 10
-50.0700900401
 20
65.8517785083
 30
0.0
 10
-50.2090599236
 20
65.9170041574
 30
0.0
 10
-50.4228011927
 20
65.9640259904
 30
0.0
 10
-50.6217690249
 20
65.9493644791
 30
0.0
 10
-50.7381238872
 20
65.8963800837
 30
0.0
 10
-50.7874644278
 20
65.8615327084
 30
0.0
  0
SPLINE
  5
291
100
AcDbEntity
  8
0
100
AcDbSpline
 62
7
  6
CONTINUOUS
 70
0
 71
3
 72
15
 73
11
 74
0
 42
0.0000001
 43
0.0000001
 44
0.0000000001
 40
0.0
 40
0.0
 40
0.0
 40
0.0
 40
0.1142413001
 40
0.2374032818
 40
0.3670261888
 40
0.4999939441
 40
0.6329625441
 40
0.7625879086
 40
0.8857537676
 40
1.0
 40
1.0
 40
1.0
 40
1.0
 10
52.6024723912
 20
5.346900751
 30
0.0
 10
52.6024723912
 20
5.4306954857
 30
0.0
 10
52.5870392817
 20
5.6049767465
 30
0.0
 10
52.5261202595
 20
5.8679238956
 30
0.0
 10
52.428080659
 20
6.1340737951
 30
0.0
 10
52.2972115202
 20
6.393709091
 30
0.0
 10
52.1377942571
 20
6.6368641805
 30
0.0
 10
51.9563186796
 20
6.8548483793
 30
0.0
 10
51.7590548784
 20
7.0390866847
 30
0.0
 10
51.6158361504
 20
7.1395991499
 30
0.0
 10
51.5432658173
 20
7.1815003507
 30
0.0
  0
SPLINE
  5
292
100
AcDbEntity
  8
RACCORDO
100
AcDbSpline
 62
7
  6
CONTINUOUS
 70
0
 71
3
 72
10
 73
6
 74
0
 42
0.0000001
 43
0.0000001
 44
0.0000000001
 40
0.0
 40
0.0
 40
0.0
 40
0.0
 40
0.5051364972
 40
0.7527358931
 40
1.0
 40
1.0
 40
1.0
 40
1.0
 10
-48.6244689281
 20
65.8820926273
 30
0.0
 10
-48.6902172389
 20
65.920054878
 30
0.0
 10
-48.8012835773
 20
65.9603532952
 30
0.0
 10
-48.9531193701
 20
65.9531082072
 30
0.0
 10
-49.0244527807
 20
65.9274577609
 30
0.0
 10
-49.057026389
 20
65.909567409
 30
0.0
  0
SPLINE
  5
293
100
AcDbEntity
  8
RACCORDO
100
AcDbSpline
 62
7
  6
CONTINUOUS
 70
0
 71
3
 72
11
 73
7
 74
0
 42
0.0000001
 43
0.0000001
 44
0.0000000001
 40
0.0
 40
0.0
 40
0.0
 40
0.0
 40
0.2427199634
 40
0.5000053113
 40
0.7572894335
 40
1.0
 40
1.0
 40
1.0
 40
1.0
 10
53.3514737707
 20
6.4963436352
 30
0.0
 10
53.3514737707
 20
6.5699834303
 30
0.0
 10
53.3260188203
 20
6.7220029455
 30
0.0
 10
53.2331218689
 20
6.9341489771
 30
0.0
 10
53.095845572
 20
7.120668718
 30
0.0
 10
52.9769241019
 20
7.2187216564
 30
0.0
 10
52.9131536648
 20
7.2555419075
 30
0.0
  0
SPLINE
  5
294
100
AcDbEntity
  8
RACCORDO
100
AcDbSpline
 62
7
  6
CONTINUOUS
 70
0
 71
3
 72
10
 73
6
 74
0
 42
0.0000001
 43
0.0000001
 44
0.0000000001
 40
0.0
 40
0.0
 40
0.0
 40
0.0
 40
0.2472549201
 40
0.4948629116
 40
1.0
 40
1.0
 40
1.0
 40
1.0
 10
53.1590105651
 20
-63.2885678395
 30
0.0
 10
53.1907848158
 20
-63.2693046878
 30
0.0
 10
53.2486555338
 20
-63.2203567005
 30
0.0
 10
53.3308408559
 20
-63.0925030635
 30
0.0
 10
53.3514737707
 20
-62.9761803031
 30
0.0
 10
53.3514737707
 20
-62.900268453
 30
0.0
  0
SPLINE
  5
295
100
AcDbEntity
  8
0
100
AcDbSpline
 62
7
  6
CONTINUOUS
 70
0
 71
3
 72
11
 73
7
 74
0
 42
0.0000001
 43
0.0000001
 44
0.0000000001
 40
0.0
 40
0.0
 40
0.0
 40
0.0
 40
0.2181144452
 40
0.4497960477
 40
0.7085029639
 40
1.0
 40
1.0
 40
1.0
 40
1.0
 10
52.2522739787
 20
-64.7632047661
 30
0.0
 10
52.3071151988
 20
-64.7378981464
 30
0.0
 10
52.4111625151
 20
-64.6636302014
 30
0.0
 10
52.5233293704
 20
-64.498672729
 30
0.0
 10
52.5894723826
 20
-64.2900888167
 30
0.0
 10
52.6024723912
 20
-64.1371486885
 30
0.0
 10
52.6024723912
 20
-64.0564296088
 30
0.0
  0
SPLINE
  5
296
100
AcDbEntity
  8
RACCORDO
100
AcDbSpline
 62
250
  6
CONTINUOUS
 70
0
 71
3
 72
11
 73
7
 74
0
 42
0.0000001
 43
0.0000001
 44
0.0000000001
 40
0.0
 40
0.0
 40
0.0
 40
0.0
 40
0.2371952619
 40
0.4999683358
 40
0.7627504687
 40
1.0
 40
1.0
 40
1.0
 40
1.0
 10
49.513553445
 20
3.9711260737
 30
0.0
 10
49.5135510906
 20
4.0868701428
 30
0.0
 10
49.4702335465
 20
4.3310053381
 30
0.0
 10
49.3189576524
 20
4.6741041382
 30
0.0
 10
49.0974599266
 20
4.976692586
 30
0.0
 10
48.9076727593
 20
5.1363016422
 30
0.0
 10
48.8074157291
 20
5.1941924735
 30
0.0
  0
SPLINE
  5
297
100
AcDbEntity
  8
RACCORDO
100
AcDbSpline
 62
250
  6
CONTINUOUS
 70
0
 71
3
 72
13
 73
9
 74
0
 42
0.0000001
 43
0.0000001
 44
0.0000000001
 40
0.0
 40
0.0
 40
0.0
 40
0.0
 40
0.1138268124
 40
0.2370227585
 40
0.4999680934
 40
0.7629226162
 40
0.8861444574
 40
1.0
 40
1.0
 40
1.0
 40
1.0
 10
50.2016721388
 20
3.9607221161
 30
0.0
 10
50.2003405787
 20
4.0439178141
 30
0.0
 10
50.1826311264
 20
4.2170800571
 30
0.0
 10
50.0959429705
 20
4.5729678804
 30
0.0
 10
49.9011022032
 20
5.0101801037
 30
0.0
 10
49.6198892656
 20
5.3975485596
 30
0.0
 10
49.3550036389
 20
5.6506117319
 30
0.0
 10
49.2138659722
 20
5.7525575438
 30
0.0
 10
49.1424655649
 20
5.7953217159
 30
0.0
  0
SPLINE
  5
298
100
AcDbEntity
  8
RACCORDO
100
AcDbSpline
 62
250
  6
CONTINUOUS
 70
0
 71
3
 72
15
 73
11
 74
0
 42
0.0000001
 43
0.0000001
 44
0.0000000001
 40
0.0
 40
0.0
 40
0.0
 40
0.0
 40
0.1449040433
 40
0.2745313587
 40
0.3911228961
 40
0.4999906007
 40
0.6088542186
 40
0.7254395791
 40
0.8550762153
 40
1.0
 40
1.0
 40
1.0
 40
1.0
 10
48.8074157291
 20
-65.5637490058
 30
0.0
 10
48.8512616697
 20
-65.5890639133
 30
0.0
 10
48.938434309
 20
-65.6305871439
 30
0.0
 10
49.072416197
 20
-65.6629968018
 30
0.0
 10
49.1982303565
 20
-65.6598929383
 30
0.0
 10
49.310222253
 20
-65.6193322344
 30
0.0
 10
49.4013618216
 20
-65.5426481092
 30
0.0
 10
49.4669790879
 20
-65.4352549021
 30
0.0
 10
49.5059209591
 20
-65.3030143262
 30
0.0
 10
49.5135520515
 20
-65.2067487901
 30
0.0
 10
49.513553445
 20
-65.1561127403
 30
0.0
  0
SPLINE
  5
299
100
AcDbEntity
  8
RACCORDO
100
AcDbSpline
 62
250
  6
CONTINUOUS
 70
0
 71
3
 72
11
 73
7
 74
0
 42
0.0000001
 43
0.0000001
 44
0.0000000001
 40
0.0
 40
0.0
 40
0.0
 40
0.0
 40
0.2271221576
 40
0.4593643712
 40
0.7096605367
 40
1.0
 40
1.0
 40
1.0
 40
1.0
 10
-32.8411558476
 20
-3.3091369366
 30
0.0
 10
-32.808730645
 20
-3.3338291365
 30
0.0
 10
-32.7434407764
 20
-3.3842139705
 30
0.0
 10
-32.6539152659
 20
-3.4760750804
 30
0.0
 10
-32.5862564069
 20
-3.599608981
 30
0.0
 10
-32.569684161
 20
-3.6973089762
 30
0.0
 10
-32.5682965651
 20
-3.7493912791
 30
0.0
  0
SPLINE
  5
29A
100
AcDbEntity
  8
RACCORDO
100
AcDbSpline
 62
250
  6
CONTINUOUS
 70
0
 71
3
 72
9
 73
5
 74
0
 42
0.0000001
 43
0.0000001
 44
0.0000000001
 40
0.0
 40
0.0
 40
0.0
 40
0.0
 40
0.2339090398
 40
1.0
 40
1.0
 40
1.0
 40
1.0
 10
-31.8684835992
 20
-1.630422923
 30
0.0
 10
-31.8684831074
 20
-1.6178507825
 30
0.0
 10
-31.8658327925
 20
-1.5641087369
 30
0.0
 10
-31.8537540683
 20
-1.5110635875
 30
0.0
 10
-31.8408605891
 20
-1.4719584891
 30
0.0
  0
SPLINE
  5
29B
100
AcDbEntity
  8
RACCORDO
100
AcDbSpline
 62
250
  6
CONTINUOUS
 70
0
 71
3
 72
15
 73
11
 74
0
 42
0.0000001
 43
0.0000001
 44
0.0000000001
 40
0.0
 40
0.0
 40
0.0
 40
0.0
 40
0.1448964253
 40
0.2745215918
 40
0.3911091916
 40
0.4999914556
 40
0.6088752168
 40
0.7254644472
 40
0.8550943955
 40
1.0
 40
1.0
 40
1.0
 40
1.0
 10
30.3524900644
 20
-40.9891545687
 30
0.0
 10
30.3524886419
 20
-41.0296957121
 30
0.0
 10
30.3463644551
 20
-41.1067735259
 30
0.0
 10
30.315142399
 20
-41.2126502388
 30
0.0
 10
30.2625529739
 20
-41.2986249228
 30
0.0
 10
30.1895534157
 20
-41.3600226888
 30
0.0
 10
30.0998771309
 20
-41.3925317865
 30
0.0
 10
29.9991241157
 20
-41.3950785994
 30
0.0
 10
29.8918185355
 20
-41.3691723217
 30
0.0
 10
29.8220030576
 20
-41.3359325817
 30
0.0
 10
29.786890796
 20
-41.3156613793
 30
0.0
  0
SPLINE
  5
29C
100
AcDbEntity
  8
RACCORDO
100
AcDbSpline
 62
250
  6
CONTINUOUS
 70
0
 71
3
 72
11
 73
7
 74
0
 42
0.0000001
 43
0.0000001
 44
0.0000000001
 40
0.0
 40
0.0
 40
0.0
 40
0.0
 40
0.2897147564
 40
0.5490725073
 40
0.782209188
 40
1.0
 40
1.0
 40
1.0
 40
1.0
 10
-53.2030529654
 20
63.2784072737
 30
0.0
 10
-53.2249936278
 20
63.2910755371
 30
0.0
 10
-53.2647984666
 20
63.3184899092
 30
0.0
 10
-53.3123674103
 20
63.3684900767
 30
0.0
 10
-53.3424575897
 20
63.4237974823
 30
0.0
 10
-53.3495020972
 20
63.46349452
 30
0.0
 10
-53.3494987091
 20
63.4825401362
 30
0.0
  0
SPLINE
  5
29D
100
AcDbEntity
  8
RACCORDO
100
AcDbSpline
 62
250
  6
CONTINUOUS
 70
0
 71
3
 72
11
 73
7
 74
0
 42
0.0000001
 43
0.0000001
 44
0.0000000001
 40
0.0
 40
0.0
 40
0.0
 40
0.0
 40
0.2357278114
 40
0.4967865483
 40
0.7595836089
 40
1.0
 40
1.0
 40
1.0
 40
1.0
 10
-52.4969152495
 20
63.6860435391
 30
0.0
 10
-52.4969152531
 20
63.7419499564
 30
0.0
 10
-52.4766440023
 20
63.8598588557
 30
0.0
 10
-52.4053406763
 20
64.0266687075
 30
0.0
 10
-52.3002090504
 20
64.1758763323
 30
0.0
 10
-52.2099361331
 20
64.2565084349
 30
0.0
 10
-52.1618654137
 20
64.2871727815
 30
0.0
  0
SPLINE
  5
29E
100
AcDbEntity
  8
RACCORDO
100
AcDbSpline
 62
250
  6
CONTINUOUS
 70
0
 71
3
 72
11
 73
7
 74
0
 42
0.0000001
 43
0.0000001
 44
0.0000000001
 40
0.0
 40
0.0
 40
0.0
 40
0.0
 40
0.2357278169
 40
0.4967865576
 40
0.7595836173
 40
1.0
 40
1.0
 40
1.0
 40
1.0
 10
48.8074157291
 20
5.1941924735
 30
0.0
 10
48.8074157291
 20
5.2500988916
 30
0.0
 10
48.8276869865
 20
5.3680077906
 30
0.0
 10
48.8989903164
 20
5.5348176405
 30
0.0
 10
49.0041219388
 20
5.6840252636
 30
0.0
 10
49.0943948495
 20
5.7646573677
 30
0.0
 10
49.1424655649
 20
5.7953217159
 30
0.0
  0
SPLINE
  5
29F
100
AcDbEntity
  8
RACCORDO
100
AcDbSpline
 62
250
  6
CONTINUOUS
 70
0
 71
3
 72
11
 73
7
 74
0
 42
0.0000001
 43
0.0000001
 44
0.0000000001
 40
0.0
 40
0.0
 40
0.0
 40
0.0
 40
0.2357336694
 40
0.496792825
 40
0.7595869217
 40
1.0
 40
1.0
 40
1.0
 40
1.0
 10
49.513553445
 20
3.9711260737
 30
0.0
 10
49.5619705806
 20
3.9431706306
 30
0.0
 10
49.674219415
 20
3.9017675483
 30
0.0
 10
49.854334669
 20
3.8801106128
 30
0.0
 10
50.0361180677
 20
3.8965549279
 30
0.0
 10
50.1510823743
 20
3.9344214117
 30
0.0
 10
50.2016721388
 20
3.9607221161
 30
0.0
  0
SPLINE
  5
2A0
100
AcDbEntity
  8
RACCORDO
100
AcDbSpline
 62
250
  6
CONTINUOUS
 70
0
 71
3
 72
11
 73
7
 74
0
 42
0.0000001
 43
0.0000001
 44
0.0000000001
 40
0.0
 40
0.0
 40
0.0
 40
0.0
 40
0.2357336794
 40
0.496792835
 40
0.7595869266
 40
1.0
 40
1.0
 40
1.0
 40
1.0
 10
49.513553445
 20
-65.1561127403
 30
0.0
 10
49.5619705813
 20
-65.184068188
 30
0.0
 10
49.6742194177
 20
-65.2254712767
 30
0.0
 10
49.8543346748
 20
-65.2471282141
 30
0.0
 10
50.0361180728
 20
-65.2306838947
 30
0.0
 10
50.1510823765
 20
-65.1928174052
 30
0.0
 10
50.2016721388
 20
-65.1665166978
 30
0.0
  0
SPLINE
  5
2A1
100
AcDbEntity
  8
RACCORDO
100
AcDbSpline
 62
250
  6
CONTINUOUS
 70
0
 71
3
 72
11
 73
7
 74
0
 42
0.0000001
 43
0.0000001
 44
0.0000000001
 40
0.0
 40
0.0
 40
0.0
 40
0.0
 40
0.2897205638
 40
0.5490795422
 40
0.7822136905
 40
1.0
 40
1.0
 40
1.0
 40
1.0
 10
48.8074157291
 20
-65.5637490058
 30
0.0
 10
48.8074157307
 20
-65.5890815725
 30
0.0
 10
48.8112528279
 20
-65.6372553069
 30
0.0
 10
48.8307648302
 20
-65.7034439471
 30
0.0
 10
48.8636109185
 20
-65.7571504427
 30
0.0
 10
48.8944623028
 20
-65.7830967573
 30
0.0
 10
48.9109553786
 20
-65.7926154803
 30
0.0
  0
SPLINE
  5
2A2
100
AcDbEntity
  8
RACCORDO
100
AcDbSpline
 62
250
  6
CONTINUOUS
 70
0
 71
3
 72
11
 73
7
 74
0
 42
0.0000001
 43
0.0000001
 44
0.0000000001
 40
0.0
 40
0.0
 40
0.0
 40
0.0
 40
0.2897208435
 40
0.5490797446
 40
0.7822136639
 40
1.0
 40
1.0
 40
1.0
 40
1.0
 10
-52.4969152495
 20
-7.0718979402
 30
0.0
 10
-52.4969152495
 20
-7.0972307623
 30
0.0
 10
-52.4930780809
 20
-7.1454049583
 30
0.0
 10
-52.4735656713
 20
-7.2115941501
 30
0.0
 10
-52.4407188764
 20
-7.2653008916
 30
0.0
 10
-52.4098668743
 20
-7.2912470526
 30
0.0
 10
-52.3933735072
 20
-7.3007656227
 30
0.0
  0
SPLINE
  5
2A3
100
AcDbEntity
  8
RACCORDO
100
AcDbSpline
 62
250
  6
CONTINUOUS
 70
0
 71
3
 72
11
 73
7
 74
0
 42
0.0000001
 43
0.0000001
 44
0.0000000001
 40
0.0
 40
0.0
 40
0.0
 40
0.0
 40
0.2897152657
 40
0.5490728626
 40
0.7822091329
 40
1.0
 40
1.0
 40
1.0
 40
1.0
 10
-53.2030529654
 20
-5.8488315403
 30
0.0
 10
-53.224994033
 20
-5.8361630448
 30
0.0
 10
-53.264799536
 20
-5.8087481376
 30
0.0
 10
-53.3123689784
 20
-5.758746819
 30
0.0
 10
-53.3424589024
 20
-5.7034380708
 30
0.0
 10
-53.3495026046
 20
-5.6637401941
 30
0.0
 10
-53.3494987081
 20
-5.6446942556
 30
0.0
  0
SPLINE
  5
2A4
100
AcDbEntity
  8
RACCORDO
100
AcDbSpline
 62
250
  6
CONTINUOUS
 70
0
 71
3
 72
11
 73
7
 74
0
 42
0.0000001
 43
0.0000001
 44
0.0000000001
 40
0.0
 40
0.0
 40
0.0
 40
0.0
 40
0.2375193009
 40
0.5000092039
 40
0.7624903299
 40
1.0
 40
1.0
 40
1.0
 40
1.0
 10
-33.2679603838
 20
-4.4229871319
 30
0.0
 10
-33.318542636
 20
-4.3943938722
 30
0.0
 10
-33.414298581
 20
-4.3150192351
 30
0.0
 10
-33.5256694066
 20
-4.1635837531
 30
0.0
 10
-33.6011297091
 20
-3.9914181516
 30
0.0
 10
-33.6219901119
 20
-3.8688077383
 30
0.0
 10
-33.621459925
 20
-3.8107079633
 30
0.0
  0
SPLINE
  5
2A5
100
AcDbEntity
  8
RACCORDO
100
AcDbSpline
 62
250
  6
CONTINUOUS
 70
0
 71
3
 72
11
 73
7
 74
0
 42
0.0000001
 43
0.0000001
 44
0.0000000001
 40
0.0
 40
0.0
 40
0.0
 40
0.0
 40
0.2895948193
 40
0.5485250335
 40
0.7816226627
 40
1.0
 40
1.0
 40
1.0
 40
1.0
 10
-33.6214599265
 20
39.1093302051
 30
0.0
 10
-33.6216926672
 20
39.1345716078
 30
0.0
 10
-33.618286182
 20
39.1825873293
 30
0.0
 10
-33.599184727
 20
39.2486344668
 30
0.0
 10
-33.5665097968
 20
39.3022607414
 30
0.0
 10
-33.5356336028
 20
39.328077984
 30
0.0
 10
-33.5191244792
 20
39.3375528522
 30
0.0
  0
SPLINE
  5
2A6
100
AcDbEntity
  8
RACCORDO
100
AcDbSpline
 62
250
  6
CONTINUOUS
 70
0
 71
3
 72
11
 73
7
 74
0
 42
0.0000001
 43
0.0000001
 44
0.0000000001
 40
0.0
 40
0.0
 40
0.0
 40
0.0
 40
0.2896996191
 40
0.5490772836
 40
0.7822145631
 40
1.0
 40
1.0
 40
1.0
 40
1.0
 10
-33.4763903164
 20
39.4379559127
 30
0.0
 10
-33.4763903164
 20
39.422761343
 30
0.0
 10
-33.474088265
 20
39.3938647802
 30
0.0
 10
-33.4623893091
 20
39.3541606015
 30
0.0
 10
-33.4426933069
 20
39.3219395892
 30
0.0
 10
-33.4241921733
 20
39.3063708622
 30
0.0
 10
-33.414301879
 20
39.3006559271
 30
0.0
  0
SPLINE
  5
2A7
100
AcDbEntity
  8
RACCORDO
100
AcDbSpline
 62
250
  6
CONTINUOUS
 70
0
 71
3
 72
11
 73
7
 74
0
 42
0.0000001
 43
0.0000001
 44
0.0000000001
 40
0.0
 40
0.0
 40
0.0
 40
0.0
 40
0.2367170626
 40
0.4989022536
 40
0.7616836483
 40
1.0
 40
1.0
 40
1.0
 40
1.0
 10
29.786890796
 20
-41.3156613793
 30
0.0
 10
29.786890796
 20
-41.2812973976
 30
0.0
 10
29.7996377135
 20
-41.208822921
 30
0.0
 10
29.8442006531
 20
-41.106749472
 30
0.0
 10
29.9095725285
 20
-41.0162875809
 30
0.0
 10
29.965622509
 20
-40.9681587081
 30
0.0
 10
29.9953206159
 20
-40.9504128363
 30
0.0
  0
SPLINE
  5
2A8
100
AcDbEntity
  8
RACCORDO
100
AcDbSpline
 62
250
  6
CONTINUOUS
 70
0
 71
3
 72
11
 73
7
 74
0
 42
0.0000001
 43
0.0000001
 44
0.0000000001
 40
0.0
 40
0.0
 40
0.0
 40
0.0
 40
0.236722936
 40
0.4989084432
 40
0.761686798
 40
1.0
 40
1.0
 40
1.0
 40
1.0
 10
-34.0419895848
 20
39.1114491021
 30
0.0
 10
-34.0122290454
 20
39.0942657398
 30
0.0
 10
-33.9430901852
 20
39.0690651696
 30
0.0
 10
-33.8324092919
 20
39.0566196259
 30
0.0
 10
-33.7213811018
 20
39.0680034253
 30
0.0
 10
-33.6516763561
 20
39.0924822337
 30
0.0
 10
-33.6214600393
 20
39.1093301445
 30
0.0
  0
SPLINE
  5
2A9
100
AcDbEntity
  8
RACCORDO
100
AcDbSpline
 62
250
  6
CONTINUOUS
 70
0
 71
3
 72
11
 73
7
 74
0
 42
0.0000001
 43
0.0000001
 44
0.0000000001
 40
0.0
 40
0.0
 40
0.0
 40
0.0
 40
0.236722918
 40
0.4989084211
 40
0.761686783
 40
1.0
 40
1.0
 40
1.0
 40
1.0
 10
-34.0419895848
 20
-3.8085890717
 30
0.0
 10
-34.0122290477
 20
-3.8257724328
 30
0.0
 10
-33.943090191
 20
-3.8509730027
 30
0.0
 10
-33.8324093
 20
-3.863418548
 30
0.0
 10
-33.721381107
 20
-3.8520347504
 30
0.0
 10
-33.6516763579
 20
-3.8275559413
 30
0.0
 10
-33.6214600393
 20
-3.8107080293
 30
0.0
  0
SPLINE
  5
2AA
100
AcDbEntity
  8
RACCORDO
100
AcDbSpline
 62
250
  6
CONTINUOUS
 70
0
 71
3
 72
11
 73
7
 74
0
 42
0.0000001
 43
0.0000001
 44
0.0000000001
 40
0.0
 40
0.0
 40
0.0
 40
0.0
 40
0.2367170808
 40
0.4989022756
 40
0.761683663
 40
1.0
 40
1.0
 40
1.0
 40
1.0
 10
-33.4763903164
 20
-4.7882357401
 30
0.0
 10
-33.4763903166
 20
-4.7538717557
 30
0.0
 10
-33.4636433979
 20
-4.6813972758
 30
0.0
 10
-33.4190804554
 20
-4.5793238257
 30
0.0
 10
-33.3537085804
 20
-4.4888619377
 30
0.0
 10
-33.2976586018
 20
-4.4407330676
 30
0.0
 10
-33.2679604966
 20
-4.422987197
 30
0.0
  0
SPLINE
  5
2AB
100
AcDbEntity
  8
RACCORDO
100
AcDbSpline
 62
250
  6
CONTINUOUS
 70
0
 71
3
 72
11
 73
7
 74
0
 42
0.0000001
 43
0.0000001
 44
0.0000000001
 40
0.0
 40
0.0
 40
0.0
 40
0.0
 40
0.2896933013
 40
0.5490698933
 40
0.7822101151
 40
1.0
 40
1.0
 40
1.0
 40
1.0
 10
30.3524900644
 20
-40.9891545687
 30
0.0
 10
30.3393302157
 20
-40.9815562371
 30
0.0
 10
30.3154542594
 20
-40.9651119553
 30
0.0
 10
30.2869168699
 20
-40.9351241943
 30
0.0
 10
30.2688592826
 20
-40.9019520943
 30
0.0
 10
30.264626429
 20
-40.8781423077
 30
0.0
 10
30.2646221747
 20
-40.8667180897
 30
0.0
  0
SPLINE
  5
2AC
100
AcDbEntity
  8
RACCORDO
100
AcDbSpline
 62
250
  6
CONTINUOUS
 70
0
 71
3
 72
11
 73
7
 74
0
 42
0.0000001
 43
0.0000001
 44
0.0000000001
 40
0.0
 40
0.0
 40
0.0
 40
0.0
 40
0.2897021572
 40
0.5490762044
 40
0.782209297
 40
1.0
 40
1.0
 40
1.0
 40
1.0
 10
30.3524900644
 20
1.930883605
 30
0.0
 10
30.3393260193
 20
1.9384843597
 30
0.0
 10
30.3154431878
 20
1.9549342219
 30
0.0
 10
30.2869006281
 20
1.9849339342
 30
0.0
 10
30.2688457017
 20
2.018119956
 30
0.0
 10
30.2646211508
 20
2.0419384278
 30
0.0
 10
30.2646221683
 20
2.053365983
 30
0.0
  0
SPLINE
  5
2AD
100
AcDbEntity
  8
RACCORDO
100
AcDbSpline
 62
250
  6
CONTINUOUS
 70
0
 71
3
 72
11
 73
7
 74
0
 42
0.0000001
 43
0.0000001
 44
0.0000000001
 40
0.0
 40
0.0
 40
0.0
 40
0.0
 40
0.2897077321
 40
0.5490830904
 40
0.7822138306
 40
1.0
 40
1.0
 40
1.0
 40
1.0
 10
29.786890796
 20
2.9105302735
 30
0.0
 10
29.7868907961
 20
2.8953312677
 30
0.0
 10
29.7891941262
 20
2.8664266989
 30
0.0
 10
29.8009001887
 20
2.8267129501
 30
0.0
 10
29.8206084461
 20
2.7944876751
 30
0.0
 10
29.8391202654
 20
2.7789215583
 30
0.0
 10
29.8490156169
 20
2.7732092746
 30
0.0
  0
SPLINE
  5
2AE
100
AcDbEntity
  8
RACCORDO
100
AcDbSpline
 62
250
  6
CONTINUOUS
 70
0
 71
3
 72
9
 73
5
 74
0
 42
0.0000001
 43
0.0000001
 44
0.0000000001
 40
0.0
 40
0.0
 40
0.0
 40
0.0
 40
0.4745158627
 40
1.0
 40
1.0
 40
1.0
 40
1.0
 10
-32.3225481383
 20
-4.1661159148
 30
0.0
 10
-32.3952634409
 20
-4.1238109655
 30
0.0
 10
-32.5325526293
 20
-4.0072990116
 30
0.0
 10
-32.6387154426
 20
-3.8636199225
 30
0.0
 10
-32.6859836493
 20
-3.7833395608
 30
0.0
  0
SPLINE
  5
2AF
100
AcDbEntity
  8
RACCORDO
100
AcDbSpline
 62
250
  6
CONTINUOUS
 70
0
 71
3
 72
9
 73
5
 74
0
 42
0.0000001
 43
0.0000001
 44
0.0000000001
 40
0.0
 40
0.0
 40
0.0
 40
0.0
 40
0.5289974058
 40
1.0
 40
1.0
 40
1.0
 40
1.0
 10
-32.6859836493
 20
-3.7833395608
 30
0.0
 10
-32.7309301737
 20
-3.7070023464
 30
0.0
 10
-32.8016712721
 20
-3.5538751077
 30
0.0
 10
-32.8373537263
 20
-3.3879190878
 30
0.0
 10
-32.8411534622
 20
-3.3091360806
 30
0.0
  0
SPLINE
  5
2B0
100
AcDbEntity
  8
RACCORDO
100
AcDbSpline
 62
250
  6
CONTINUOUS
 70
0
 71
3
 72
9
 73
5
 74
0
 42
0.0000001
 43
0.0000001
 44
0.0000000001
 40
0.0
 40
0.0
 40
0.0
 40
0.0
 40
0.2591092724
 40
1.0
 40
1.0
 40
1.0
 40
1.0
 10
-31.8565616199
 20
-4.3968405981
 30
0.0
 10
-31.8584775382
 20
-4.385842048
 30
0.0
 10
-31.8650594091
 20
-4.3432615278
 30
0.0
 10
-31.8683473547
 20
-4.3001369574
 30
0.0
 10
-31.8684836393
 20
-4.2682146735
 30
0.0
  0
SPLINE
  5
2B1
100
AcDbEntity
  8
RACCORDO
100
AcDbSpline
 62
250
  6
CONTINUOUS
 70
0
 71
3
 72
9
 73
5
 74
0
 42
0.0000001
 43
0.0000001
 44
0.0000000001
 40
0.0
 40
0.0
 40
0.0
 40
0.0
 40
0.265088072
 40
1.0
 40
1.0
 40
1.0
 40
1.0
 10
-29.7597837707
 20
-5.5814924765
 30
0.0
 10
-29.7564285692
 20
-5.5796228484
 30
0.0
 10
-29.743557596
 20
-5.5729782272
 30
0.0
 10
-29.7297568053
 20
-5.5680020824
 30
0.0
 10
-29.7193356909
 20
-5.5658138401
 30
0.0
  0
SPLINE
  5
2B2
100
AcDbEntity
  8
RACCORDO
100
AcDbSpline
 62
250
  6
CONTINUOUS
 70
0
 71
3
 72
9
 73
5
 74
0
 42
0.0000001
 43
0.0000001
 44
0.0000000001
 40
0.0
 40
0.0
 40
0.0
 40
0.0
 40
0.5239656896
 40
1.0
 40
1.0
 40
1.0
 40
1.0
 10
-29.7193356909
 20
-5.5658138401
 30
0.0
 10
-29.7093337774
 20
-5.5637136223
 30
0.0
 10
-29.6894800259
 20
-5.5622331206
 30
0.0
 10
-29.6703085482
 20
-5.5683406718
 30
0.0
 10
-29.6622648095
 20
-5.5729787627
 30
0.0
  0
SPLINE
  5
2B3
100
AcDbEntity
  8
RACCORDO
100
AcDbSpline
 62
250
  6
CONTINUOUS
 70
0
 71
3
 72
14
 73
10
 74
0
 42
0.0000001
 43
0.0000001
 44
0.0000000001
 40
0.0
 40
0.0
 40
0.0
 40
0.0
 40
0.4291346509
 40
0.6013878063
 40
0.7436499963
 40
0.8550589621
 40
0.9351620234
 40
0.9835346465
 40
1.0
 40
1.0
 40
1.0
 40
1.0
 10
-29.7597837707
 20
-5.5814924765
 30
0.0
 10
-29.7597851267
 20
-5.5764420997
 30
0.0
 10
-29.7597905553
 20
-5.5693563122
 30
0.0
 10
-29.7598542409
 20
-5.5606228634
 30
0.0
 10
-29.7598752248
 20
-5.5555721868
 30
0.0
 10
-29.7600059128
 20
-5.5517442245
 30
0.0
 10
-29.7599143816
 20
-5.5486943506
 30
0.0
 10
-29.7602732953
 20
-5.5473927112
 30
0.0
 10
-29.7600424546
 20
-5.5462098438
 30
0.0
 10
-29.7602359538
 20
-5.5461994811
 30
0.0
  0
SPLINE
  5
2B4
100
AcDbEntity
  8
RACCORDO
100
AcDbSpline
 62
250
  6
CONTINUOUS
 70
0
 71
3
 72
10
 73
6
 74
0
 42
0.0000001
 43
0.0000001
 44
0.0000000001
 40
0.0
 40
0.0
 40
0.0
 40
0.0
 40
0.5463641374
 40
0.7806330534
 40
1.0
 40
1.0
 40
1.0
 40
1.0
 10
-31.8684835992
 20
-4.2682146503
 30
0.0
 10
-31.8525788036
 20
-4.2587051377
 30
0.0
 10
-31.831170034
 20
-4.241307041
 30
0.0
 10
-31.815044732
 20
-4.2109945036
 30
0.0
 10
-31.8123671525
 20
-4.1955039973
 30
0.0
 10
-31.8123604346
 20
-4.1880637945
 30
0.0
  0
SPLINE
  5
2B5
100
AcDbEntity
  8
RACCORDO
100
AcDbSpline
 62
250
  6
CONTINUOUS
 70
0
 71
3
 72
10
 73
6
 74
0
 42
0.0000001
 43
0.0000001
 44
0.0000000001
 40
0.0
 40
0.0
 40
0.0
 40
0.0
 40
0.5463748914
 40
0.7806295681
 40
1.0
 40
1.0
 40
1.0
 40
1.0
 10
-31.8684835992
 20
-1.630422923
 30
0.0
 10
-31.8525683204
 20
-1.6209071423
 30
0.0
 10
-31.8311458006
 20
-1.6034948275
 30
0.0
 10
-31.8150254319
 20
-1.5731536094
 30
0.0
 10
-31.8123597418
 20
-1.5576505971
 30
0.0
 10
-31.8123604075
 20
-1.5502055155
 30
0.0
  0
SPLINE
  5
2B6
100
AcDbEntity
  8
RACCORDO
100
AcDbSpline
 62
250
  6
CONTINUOUS
 70
0
 71
3
 72
14
 73
10
 74
0
 42
0.0000001
 43
0.0000001
 44
0.0000000001
 40
0.0
 40
0.0
 40
0.0
 40
0.0
 40
0.4289380774
 40
0.601282131
 40
0.7438120823
 40
0.8553427711
 40
0.9353620465
 40
0.9836213186
 40
1.0
 40
1.0
 40
1.0
 40
1.0
 10
-31.7870869116
 20
-1.3508229947
 30
0.0
 10
-31.782716264
 20
-1.3533476204
 30
0.0
 10
-31.7765837552
 20
-1.356894006
 30
0.0
 10
-31.7690521706
 20
-1.3613151806
 30
0.0
 10
-31.7646819138
 20
-1.3638617248
 30
0.0
 10
-31.7614345373
 20
-1.3658871845
 30
0.0
 10
-31.758736832
 20
-1.3673382149
 30
0.0
 10
-31.7578113246
 20
-1.3682864586
 30
0.0
 10
-31.7566541065
 20
-1.368688302
 30
0.0
 10
-31.7567502546
 20
-1.3688553377
 30
0.0
  0
SPLINE
  5
2B7
100
AcDbEntity
  8
RACCORDO
100
AcDbSpline
 62
250
  6
CONTINUOUS
 70
0
 71
3
 72
14
 73
10
 74
0
 42
0.0000001
 43
0.0000001
 44
0.0000000001
 40
0.0
 40
0.0
 40
0.0
 40
0.0
 40
0.4290100897
 40
0.6012304516
 40
0.7434814876
 40
0.8549003581
 40
0.9350350828
 40
0.9834618392
 40
1.0
 40
1.0
 40
1.0
 40
1.0
 10
-31.3821486687
 20
-0.6328357675
 30
0.0
 10
-31.377777707
 20
-0.6353605746
 30
0.0
 10
-31.3716469366
 20
-0.6389058969
 30
0.0
 10
-31.3641179074
 20
-0.6433254109
 30
0.0
 10
-31.3597564712
 20
-0.6458669739
 30
0.0
 10
-31.3565041417
 20
-0.6478951131
 30
0.0
 10
-31.3538224485
 20
-0.6493364902
 30
0.0
 10
-31.3528628307
 20
-0.6503056129
 30
0.0
 10
-31.3517313917
 20
-0.6506897884
 30
0.0
 10
-31.3518144205
 20
-0.6508657748
 30
0.0
  0
SPLINE
  5
2B8
100
AcDbEntity
  8
RACCORDO
100
AcDbSpline
 62
250
  6
CONTINUOUS
 70
0
 71
3
 72
9
 73
5
 74
0
 42
0.0000001
 43
0.0000001
 44
0.0000000001
 40
0.0
 40
0.0
 40
0.0
 40
0.0
 40
0.2661788245
 40
1.0
 40
1.0
 40
1.0
 40
1.0
 10
-31.3821486687
 20
-0.6328357675
 30
0.0
 10
-31.37863265
 20
-0.6307335321
 30
0.0
 10
-31.3657047967
 20
-0.6223946701
 30
0.0
 10
-31.3538862207
 20
-0.6121874494
 30
0.0
 10
-31.3465579882
 20
-0.6035941738
 30
0.0
  0
SPLINE
  5
2B9
100
AcDbEntity
  8
RACCORDO
100
AcDbSpline
 62
250
  6
CONTINUOUS
 70
0
 71
3
 72
9
 73
5
 74
0
 42
0.0000001
 43
0.0000001
 44
0.0000000001
 40
0.0
 40
0.0
 40
0.0
 40
0.0
 40
0.2696785962
 40
1.0
 40
1.0
 40
1.0
 40
1.0
 10
-31.3465579882
 20
-0.6035941738
 30
0.0
 10
-31.3435954969
 20
-0.6001202797
 30
0.0
 10
-31.3334144512
 20
-0.5866136718
 30
0.0
 10
-31.3271175716
 20
-0.5698967575
 30
0.0
 10
-31.3262076746
 20
-0.5575662221
 30
0.0
  0
SPLINE
  5
2BA
100
AcDbEntity
  8
RACCORDO
100
AcDbSpline
 62
250
  6
CONTINUOUS
 70
0
 71
3
 72
9
 73
5
 74
0
 42
0.0000001
 43
0.0000001
 44
0.0000000001
 40
0.0
 40
0.0
 40
0.0
 40
0.0
 40
0.2392714696
 40
1.0
 40
1.0
 40
1.0
 40
1.0
 10
29.786890796
 20
2.9105302735
 30
0.0
 10
29.7994188017
 20
2.903296174
 30
0.0
 10
29.8508999039
 20
2.8715501911
 30
0.0
 10
29.8988801862
 20
2.8342642386
 30
0.0
 10
29.9332929371
 20
2.8037477437
 30
0.0
  0
SPLINE
  5
2BB
100
AcDbEntity
  8
RACCORDO
100
AcDbSpline
 62
250
  6
CONTINUOUS
 70
0
 71
3
 72
11
 73
7
 74
0
 42
0.0000001
 43
0.0000001
 44
0.0000000001
 40
0.0
 40
0.0
 40
0.0
 40
0.0
 40
0.2514723799
 40
0.5139494345
 40
0.769023799
 40
1.0
 40
1.0
 40
1.0
 40
1.0
 10
29.9332929371
 20
2.8037477437
 30
0.0
 10
29.9955372857
 20
2.7485507803
 30
0.0
 10
30.1098512612
 20
2.6207758783
 30
0.0
 10
30.2417150852
 20
2.4016037696
 30
0.0
 10
30.3286680336
 20
2.1682610598
 30
0.0
 10
30.3524873379
 20
2.0072959213
 30
0.0
 10
30.3524900644
 20
1.930883605
 30
0.0
  0
SPLINE
  5
2BC
100
AcDbEntity
  8
RACCORDO
100
AcDbSpline
 62
250
  6
CONTINUOUS
 70
0
 71
3
 72
10
 73
6
 74
0
 42
0.0000001
 43
0.0000001
 44
0.0000000001
 40
0.0
 40
0.0
 40
0.0
 40
0.0
 40
0.2193607349
 40
0.4536108421
 40
1.0
 40
1.0
 40
1.0
 40
1.0
 10
-48.6244733529
 20
65.8820849643
 30
0.0
 10
-48.630920354
 20
65.8858081462
 30
0.0
 10
-48.6456790456
 20
65.8912510242
 30
0.0
 10
-48.6800161314
 20
65.8924594371
 30
0.0
 10
-48.7058069348
 20
65.8826110323
 30
0.0
 10
-48.7220056171
 20
65.8735845962
 30
0.0
  0
SPLINE
  5
2BD
100
AcDbEntity
  8
RACCORDO
100
AcDbSpline
 62
250
  6
CONTINUOUS
 70
0
 71
3
 72
15
 73
11
 74
0
 42
0.0000001
 43
0.0000001
 44
0.0000000001
 40
0.0
 40
0.0
 40
0.0
 40
0.0
 40
0.144896425
 40
0.2745215913
 40
0.3911091918
 40
0.4999914556
 40
0.6088752165
 40
0.7254644467
 40
0.8550943965
 40
1.0
 40
1.0
 40
1.0
 40
1.0
 10
-34.0419895848
 20
39.1114491021
 30
0.0
 10
-34.0419877283
 20
39.1519902454
 30
0.0
 10
-34.0358641561
 20
39.229068059
 30
0.0
 10
-34.0046418789
 20
39.3349447724
 30
0.0
 10
-33.9520525043
 20
39.4209194553
 30
0.0
 10
-33.8790529323
 20
39.4823172244
 30
0.0
 10
-33.789376657
 20
39.5148263114
 30
0.0
 10
-33.6886236151
 20
39.517373168
 30
0.0
 10
-33.5813181462
 20
39.4914666991
 30
0.0
 10
-33.5115023583
 20
39.4582274952
 30
0.0
 10
-33.4763903164
 20
39.4379559127
 30
0.0
  0
SPLINE
  5
2BE
100
AcDbEntity
  8
RACCORDO
100
AcDbSpline
 62
250
  6
CONTINUOUS
 70
0
 71
3
 72
10
 73
6
 74
0
 42
0.0000001
 43
0.0000001
 44
0.0000000001
 40
0.0
 40
0.0
 40
0.0
 40
0.0
 40
0.2193607349
 40
0.4536108421
 40
1.0
 40
1.0
 40
1.0
 40
1.0
 10
52.91314924
 20
7.2555342445
 30
0.0
 10
52.9067022389
 20
7.2592574264
 30
0.0
 10
52.8919435473
 20
7.2647003044
 30
0.0
 10
52.8576064615
 20
7.2659087173
 30
0.0
 10
52.8318156581
 20
7.2560603125
 30
0.0
 10
52.8156169758
 20
7.2470338763
 30
0.0
  0
SPLINE
  5
2BF
100
AcDbEntity
  8
RACCORDO
100
AcDbSpline
 62
250
  6
CONTINUOUS
 70
0
 71
3
 72
10
 73
6
 74
0
 42
0.0000001
 43
0.0000001
 44
0.0000000001
 40
0.0
 40
0.0
 40
0.0
 40
0.0
 40
0.2193704368
 40
0.4536251146
 40
1.0
 40
1.0
 40
1.0
 40
1.0
 10
53.3514649225
 20
6.496343635
 30
0.0
 10
53.351465588
 20
6.4888985533
 30
0.0
 10
53.3487998981
 20
6.4733955408
 30
0.0
 10
53.332679529
 20
6.4430543229
 30
0.0
 10
53.3112570094
 20
6.4256420083
 30
0.0
 10
53.2953417308
 20
6.4161262278
 30
0.0
  0
SPLINE
  5
2C0
100
AcDbEntity
  8
RACCORDO
100
AcDbSpline
 62
250
  6
CONTINUOUS
 70
0
 71
3
 72
10
 73
6
 74
0
 42
0.0000001
 43
0.0000001
 44
0.0000000001
 40
0.0
 40
0.0
 40
0.0
 40
0.0
 40
0.2193704368
 40
0.4536251146
 40
1.0
 40
1.0
 40
1.0
 40
1.0
 10
53.3514649225
 20
-62.9002684533
 30
0.0
 10
53.351465588
 20
-62.907713535
 30
0.0
 10
53.3487998981
 20
-62.9232165474
 30
0.0
 10
53.332679529
 20
-62.9535577653
 30
0.0
 10
53.3112570094
 20
-62.9709700799
 30
0.0
 10
53.2953417308
 20
-62.9804858604
 30
0.0
  0
SPLINE
  5
2C1
100
AcDbEntity
  8
RACCORDO
100
AcDbSpline
 62
250
  6
CONTINUOUS
 70
0
 71
3
 72
11
 73
7
 74
0
 42
0.0000001
 43
0.0000001
 44
0.0000000001
 40
0.0
 40
0.0
 40
0.0
 40
0.0
 40
0.2184925298
 40
0.4511685805
 40
0.7099224073
 40
1.0
 40
1.0
 40
1.0
 40
1.0
 10
30.2480189269
 20
-40.9735994309
 30
0.0
 10
30.2315376733
 20
-40.983777206
 30
0.0
 10
30.1934248797
 20
-40.9987654864
 30
0.0
 10
30.1295865827
 20
-41.0011818118
 30
0.0
 10
30.0615660865
 20
-40.9848508708
 30
0.0
 10
30.0174724234
 20
-40.963476656
 30
0.0
 10
29.9953207262
 20
-40.950412768
 30
0.0
  0
SPLINE
  5
2C2
100
AcDbEntity
  8
RACCORDO
100
AcDbSpline
 62
250
  6
CONTINUOUS
 70
0
 71
3
 72
11
 73
7
 74
0
 42
0.0000001
 43
0.0000001
 44
0.0000000001
 40
0.0
 40
0.0
 40
0.0
 40
0.0
 40
0.237223435
 40
0.5000092897
 40
0.7627863234
 40
1.0
 40
1.0
 40
1.0
 40
1.0
 10
-33.4763903164
 20
-4.7882357401
 30
0.0
 10
-33.5566807092
 20
-4.7418721716
 30
0.0
 10
-33.7086481915
 20
-4.6139926338
 30
0.0
 10
-33.8860115286
 20
-4.3716237824
 30
0.0
 10
-34.007225406
 20
-4.0968416116
 30
0.0
 10
-34.0419852727
 20
-3.901300562
 30
0.0
 10
-34.0419895848
 20
-3.8085890717
 30
0.0
  0
SPLINE
  5
2C3
100
AcDbEntity
  8
RACCORDO
100
AcDbSpline
 62
250
  6
CONTINUOUS
 70
0
 71
3
 72
9
 73
5
 74
0
 42
0.0000001
 43
0.0000001
 44
0.0000000001
 40
0.0
 40
0.0
 40
0.0
 40
0.0
 40
0.2324136843
 40
1.0
 40
1.0
 40
1.0
 40
1.0
 10
-32.606990353
 20
-3.7976233471
 30
0.0
 10
-32.6045617792
 20
-3.7944692001
 30
0.0
 10
-32.5933093754
 20
-3.7815165091
 30
0.0
 10
-32.5793825432
 20
-3.7710574344
 30
0.0
 10
-32.5680985045
 20
-3.7643106027
 30
0.0
  0
SPLINE
  5
2C4
100
AcDbEntity
  8
RACCORDO
100
AcDbSpline
 62
250
  6
CONTINUOUS
 70
0
 71
3
 72
11
 73
7
 74
0
 42
0.0000001
 43
0.0000001
 44
0.0000000001
 40
0.0
 40
0.0
 40
0.0
 40
0.0
 40
0.2170154912
 40
0.4488455352
 40
0.7081059853
 40
1.0
 40
1.0
 40
1.0
 40
1.0
 10
49.8441167754
 20
-65.876714409
 30
0.0
 10
49.8989647013
 20
-65.8512655062
 30
0.0
 10
50.003351219
 20
-65.7766607844
 30
0.0
 10
50.1163905942
 20
-65.6110891801
 30
0.0
 10
50.1852323856
 20
-65.4017688914
 30
0.0
 10
50.2003915116
 20
-65.2478334886
 30
0.0
 10
50.2016721388
 20
-65.1665166978
 30
0.0
  0
SPLINE
  5
2C5
100
AcDbEntity
  8
RACCORDO
100
AcDbSpline
 62
250
  6
CONTINUOUS
 70
0
 71
3
 72
9
 73
5
 74
0
 42
0.0000001
 43
0.0000001
 44
0.0000000001
 40
0.0
 40
0.0
 40
0.0
 40
0.0
 40
0.2404558662
 40
1.0
 40
1.0
 40
1.0
 40
1.0
 10
52.8156169758
 20
7.2470338763
 30
0.0
 10
52.8247002558
 20
7.2417893042
 30
0.0
 10
52.8619319113
 20
7.2190419335
 30
0.0
 10
52.8970068595
 20
7.1928317889
 30
0.0
 10
52.9223658057
 20
7.1715104864
 30
0.0
  0
SPLINE
  5
2C6
100
AcDbEntity
  8
RACCORDO
100
AcDbSpline
 62
250
  6
CONTINUOUS
 70
0
 71
3
 72
11
 73
7
 74
0
 42
0.0000001
 43
0.0000001
 44
0.0000000001
 40
0.0
 40
0.0
 40
0.0
 40
0.0
 40
0.24969813
 40
0.5122838506
 40
0.7683237782
 40
1.0
 40
1.0
 40
1.0
 40
1.0
 10
52.9223658057
 20
7.1715104864
 30
0.0
 10
52.9774508239
 20
7.1251960882
 30
0.0
 10
53.0789233841
 20
7.0160851198
 30
0.0
 10
53.1962087986
 20
6.8267743069
 30
0.0
 10
53.2739074162
 20
6.6236102985
 30
0.0
 10
53.2953417308
 20
6.4828998866
 30
0.0
 10
53.2953417308
 20
6.4161262278
 30
0.0
  0
SPLINE
  5
2C7
100
AcDbEntity
  8
RACCORDO
100
AcDbSpline
 62
250
  6
CONTINUOUS
 70
0
 71
3
 72
11
 73
7
 74
0
 42
0.0000001
 43
0.0000001
 44
0.0000000001
 40
0.0
 40
0.0
 40
0.0
 40
0.0
 40
0.2178717432
 40
0.4522844638
 40
0.7119117324
 40
1.0
 40
1.0
 40
1.0
 40
1.0
 10
-49.0448906102
 20
65.9157630178
 30
0.0
 10
-49.0227241637
 20
65.9262602907
 30
0.0
 10
-48.9728247822
 20
65.9404739856
 30
0.0
 10
-48.8917925471
 20
65.9391563133
 30
0.0
 10
-48.8059693628
 20
65.9166957042
 30
0.0
 10
-48.7500911089
 20
65.8898008071
 30
0.0
 10
-48.7220056171
 20
65.8735845962
 30
0.0
  0
SPLINE
  5
2C8
100
AcDbEntity
  8
RACCORDO
100
AcDbSpline
 62
250
  6
CONTINUOUS
 70
0
 71
3
 72
11
 73
7
 74
0
 42
0.0000001
 43
0.0000001
 44
0.0000000001
 40
0.0
 40
0.0
 40
0.0
 40
0.0
 40
0.2893537136
 40
0.5487538769
 40
0.78224286
 40
1.0
 40
1.0
 40
1.0
 40
1.0
 10
53.2953417308
 20
-62.9804858604
 30
0.0
 10
53.2953417308
 20
-63.0143546688
 30
0.0
 10
53.2902904659
 20
-63.0787982304
 30
0.0
 10
53.2646128424
 20
-63.167499351
 30
0.0
 10
53.2214496838
 20
-63.2398687141
 30
0.0
 10
53.180805332
 20
-63.2753522818
 30
0.0
 10
53.1590090077
 20
-63.2885651859
 30
0.0
  0
SPLINE
  5
2C9
100
AcDbEntity
  8
RACCORDO
100
AcDbSpline
 62
250
  6
CONTINUOUS
 70
0
 71
3
 72
11
 73
7
 74
0
 42
0.0000001
 43
0.0000001
 44
0.0000000001
 40
0.0
 40
0.0
 40
0.0
 40
0.0
 40
0.2371952619
 40
0.4999683358
 40
0.7627504687
 40
1.0
 40
1.0
 40
1.0
 40
1.0
 10
-53.2030529654
 20
-5.8488315403
 30
0.0
 10
-53.2030506111
 20
-5.9645756094
 30
0.0
 10
-53.1597330669
 20
-6.2087108048
 30
0.0
 10
-53.0084571728
 20
-6.5518096048
 30
0.0
 10
-52.786959447
 20
-6.8543980526
 30
0.0
 10
-52.5971722797
 20
-7.0140071089
 30
0.0
 10
-52.4969152495
 20
-7.0718979402
 30
0.0
  0
SPLINE
  5
2CA
100
AcDbEntity
  8
RACCORDO
100
AcDbSpline
 62
250
  6
CONTINUOUS
 70
0
 71
3
 72
9
 73
5
 74
0
 42
0.0000001
 43
0.0000001
 44
0.0000000001
 40
0.0
 40
0.0
 40
0.0
 40
0.0
 40
0.4691184766
 40
1.0
 40
1.0
 40
1.0
 40
1.0
 10
-32.8411558776
 20
-3.309084112
 30
0.0
 10
-32.8200158922
 20
-3.3757023847
 30
0.0
 10
-32.7615299794
 20
-3.5134268235
 30
0.0
 10
-32.6896535559
 20
-3.6438983046
 30
0.0
 10
-32.6534590537
 20
-3.7142246303
 30
0.0
  0
SPLINE
  5
2CB
100
AcDbEntity
  8
RACCORDO
100
AcDbSpline
 62
250
  6
CONTINUOUS
 70
0
 71
3
 72
9
 73
5
 74
0
 42
0.0000001
 43
0.0000001
 44
0.0000000001
 40
0.0
 40
0.0
 40
0.0
 40
0.0
 40
0.5330617566
 40
1.0
 40
1.0
 40
1.0
 40
1.0
 10
-32.3225481383
 20
-4.1661159148
 30
0.0
 10
-32.3101892062
 20
-4.161883368
 30
0.0
 10
-32.2855227738
 20
-4.1570365625
 30
0.0
 10
-32.2607093347
 20
-4.1634703458
 30
0.0
 10
-32.2507928372
 20
-4.1691807124
 30
0.0
  0
SPLINE
  5
2CC
100
AcDbEntity
  8
RACCORDO
100
AcDbSpline
 62
250
  6
CONTINUOUS
 70
0
 71
3
 72
15
 73
11
 74
0
 42
0.0000001
 43
0.0000001
 44
0.0000000001
 40
0.0
 40
0.0
 40
0.0
 40
0.0
 40
0.1449040433
 40
0.2745313587
 40
0.3911228961
 40
0.4999906007
 40
0.6088542186
 40
0.7254395791
 40
0.8550762153
 40
1.0
 40
1.0
 40
1.0
 40
1.0
 10
-52.4969152495
 20
63.6860435391
 30
0.0
 10
-52.5407611902
 20
63.7113584466
 30
0.0
 10
-52.6279338294
 20
63.7528816773
 30
0.0
 10
-52.7619157174
 20
63.7852913352
 30
0.0
 10
-52.8877298769
 20
63.7821874717
 30
0.0
 10
-52.9997217734
 20
63.7416267678
 30
0.0
 10
-53.090861342
 20
63.6649426425
 30
0.0
 10
-53.1564786083
 20
63.5575494355
 30
0.0
 10
-53.1954204795
 20
63.4253088596
 30
0.0
 10
-53.2030515719
 20
63.3290433235
 30
0.0
 10
-53.2030529654
 20
63.2784072737
 30
0.0
  0
SPLINE
  5
2CD
100
AcDbEntity
  8
RACCORDO
100
AcDbSpline
 62
250
  6
CONTINUOUS
 70
0
 71
3
 72
11
 73
7
 74
0
 42
0.0000001
 43
0.0000001
 44
0.0000000001
 40
0.0
 40
0.0
 40
0.0
 40
0.0
 40
0.2918677761
 40
0.5511230993
 40
0.7829700274
 40
1.0
 40
1.0
 40
1.0
 40
1.0
 10
-52.1618654137
 20
64.2871727815
 30
0.0
 10
-52.2329299496
 20
64.3267262237
 30
0.0
 10
-52.3738304886
 20
64.3905738698
 30
0.0
 10
-52.5895490645
 20
64.4356361006
 30
0.0
 10
-52.7894947704
 20
64.4205336175
 30
0.0
 10
-52.9063197328
 20
64.3674189652
 30
0.0
 10
-52.95579258
 20
64.3326361169
 30
0.0
  0
ELLIPSE
  5
2CE
100
AcDbEntity
  8
RACCORDO
100
AcDbEllipse
 62
7
  6
CONTINUOUS
 10
-28.49481853
 20
8.6976450929
 30
0.0
 11
0.2003426582
 21
-0.1552641653
 31
0.0
 40
0.1132234907
 41
2.4491991049
 42
3.0527578855
  0
ELLIPSE
  5
2CF
100
AcDbEntity
  8
RACCORDO
100
AcDbEllipse
 62
7
  6
CONTINUOUS
 10
-30.2272301439
 20
9.6979178466
 30
0.0
 11
0.2003426582
 21
-0.1552641653
 31
0.0
 40
0.1132234907
 41
2.4491991049
 42
3.0527578863
  0
ELLIPSE
  5
2D0
100
AcDbEntity
  8
RACCORDO
100
AcDbEllipse
 62
7
  6
CONTINUOUS
 10
-32.9043612677
 20
-3.804877305
 30
0.0
 11
-0.2500120911
 21
0.4330057209
 31
0.0
 40
0.5775075436
 41
0.7855021057
 42
2.355993846
  0
ELLIPSE
  5
2D1
100
AcDbEntity
  8
RACCORDO
100
AcDbEllipse
 62
7
  6
CONTINUOUS
 10
-29.9424645388
 20
9.5334977551
 30
0.0
 11
0.1981042372
 21
-0.1536726351
 31
0.0
 40
0.1157155631
 41
0.8716748505
 42
2.44013911
  0
ELLIPSE
  5
2D2
100
AcDbEntity
  8
RACCORDO
100
AcDbEllipse
 62
7
  6
CONTINUOUS
 10
-28.2100529249
 20
8.5332250015
 30
0.0
 11
0.1981042372
 21
-0.1536726351
 31
0.0
 40
0.1157155631
 41
0.8716748505
 42
2.44013911
  0
ELLIPSE
  5
2D3
100
AcDbEntity
  8
RACCORDO
100
AcDbEllipse
 62
7
  6
CONTINUOUS
 10
-28.2100529249
 20
4.9115171955
 30
0.0
 11
0.1318551357
 21
0.3013469911
 31
0.0
 40
0.4941650564
 41
-2.3052553375
 42
-1.6282373818
  0
ELLIPSE
  5
2D4
100
AcDbEntity
  8
RACCORDO
100
AcDbEllipse
 62
7
  6
CONTINUOUS
 10
-30.490779632
 20
5.4792663548
 30
0.0
 11
0.4935667342
 21
0.8698228981
 31
0.0
 40
0.5722158713
 41
0.2575986682
 42
0.650282602
  0
ELLIPSE
  5
2D5
100
AcDbEntity
  8
RACCORDO
100
AcDbEllipse
 62
7
  6
CONTINUOUS
 10
-29.0487261089
 20
7.277913
 30
0.0
 11
0.4935054339
 21
0.8698049405
 31
0.0
 40
0.5722416442
 41
-2.3604410209
 42
-1.7495997939
  0
ELLIPSE
  5
2D6
100
AcDbEntity
  8
RACCORDO
100
AcDbEllipse
 62
7
  6
CONTINUOUS
 10
-28.3752653348
 20
7.8242639793
 30
0.0
 11
0.2961159074
 21
0.5219032828
 31
0.0
 40
0.5722182916
 41
-1.7496041625
 42
-0.7896464124
  0
ELLIPSE
  5
2D7
100
AcDbEntity
  8
RACCORDO
100
AcDbEllipse
 62
7
  6
CONTINUOUS
 10
-28.3752653348
 20
5.0968281922
 30
0.0
 11
0.2960876715
 21
0.5218551696
 31
0.0
 40
0.5723246922
 41
5.4934443515
 42
6.4534021016
  0
ELLIPSE
  5
2D8
100
AcDbEntity
  8
RACCORDO
100
AcDbEllipse
 62
7
  6
CONTINUOUS
 10
-30.490779632
 20
36.7982098731
 30
0.0
 11
0.4935173262
 21
0.869738684
 31
0.0
 40
0.5723276047
 41
-2.2295706808
 42
-1.836886747
  0
ELLIPSE
  5
2D9
100
AcDbEntity
  8
RACCORDO
100
AcDbEllipse
 62
7
  6
CONTINUOUS
 10
-30.490779632
 20
4.9558690781
 30
0.0
 11
0.4935173262
 21
0.869738684
 31
0.0
 40
0.5723276047
 41
-2.2295706808
 42
-1.836886747
  0
ELLIPSE
  5
2DA
100
AcDbEntity
  8
RACCORDO
100
AcDbEllipse
 62
7
  6
CONTINUOUS
 10
-29.0487261089
 20
4.851790358
 30
0.0
 11
0.4934790398
 21
0.8697599662
 31
0.0
 40
0.5723013209
 41
0.1702093558
 42
0.7810505828
  0
ENDSEC
  0
SECTION
  2
OBJECTS
  0
DICTIONARY
  5
C
100
AcDbDictionary
280
0
281
1
  3
ACAD_GROUP
350
D
  3
ACAD_MLINESTYLE
350
17
  3
ACAD_LAYOUT
350
1A
  3
ACAD_PLOTSETTINGS
350
19
  3
ACAD_PLOTSTYLENAME
350
E
  0
DICTIONARY
  5
D
102
{ACAD_REACTORS
330
C
102
}
100
AcDbDictionary
280
0
281
1
  0
ACDBDICTIONARYWDFLT
  5
E
102
{ACAD_REACTORS
330
C
102
}
100
AcDbDictionary
281
1
  3
Normal
350
F
100
AcDbDictionaryWithDefault
340
F
  0
DICTIONARY
  5
17
102
{ACAD_REACTORS
330
C
102
}
100
AcDbDictionary
280
0
281
1
  3
Standard
350
18
  0
DICTIONARY
  5
19
102
{ACAD_REACTORS
330
C
102
}
100
AcDbDictionary
281
1
  0
DICTIONARY
  5
1A
102
{ACAD_REACTORS
330
C
102
}
100
AcDbDictionary
281
1
  3
Model
350
2DB
  3
Layout1
350
2DC
  0
ACDBPLACEHOLDER
  5
F
102
{ACAD_REACTORS
330
E
102
}
  0
MLINESTYLE
  5
18
102
{ACAD_REACTORS
330
17
102
}
100
AcDbMlineStyle
  2
STANDARD
 70
0
  3

 62
256
 51
90.0
 52
90.0
 71
2
 49
0.5
 62
256
  6
BYLAYER
 49
-0.5
 62
256
  6
BYLAYER
  0
LAYOUT
  5
2DB
102
{ACAD_REACTORS
330
1A
102
}
100
AcDbPlotSettings
  1

  2
none_device
  4
ISO_A4_(297.00_x_210.00_MM)
  6

 40
0.0
 41
0.0
 42
0.0
 43
0.0
 44
297.0
 45
210.0
 46
0.0
 47
0.0
 48
0.0
 49
0.0
140
0.0
141
0.0
142
1.0
143
1.0
 70
1024
 72
1
 73
0
 74
0
  7

 75
0
147
1.0
148
0.0
149
0.0
100
AcDbLayout
  1
Model
 70
0
 71
0
 10
0.0
 20
0.0
 11
297.0
 21
210.0
 12
0.0
 22
0.0
 32
0.0
 14
0.0
 24
0.0
 34
0.0
 15
0.0
 25
0.0
 35
0.0
146
0.0
 13
0.0
 23
0.0
 33
0.0
 16
1.0
 26
0.0
 36
0.0
 17
0.0
 27
1.0
 37
0.0
 76
0
330
213
345
0
346
0
  0
LAYOUT
  5
2DC
102
{ACAD_REACTORS
330
1A
102
}
100
AcDbPlotSettings
  1

  2
none_device
  4
ISO_A4_(297.00_x_210.00_MM)
  6

 40
0.0
 41
0.0
 42
0.0
 43
0.0
 44
297.0
 45
210.0
 46
0.0
 47
0.0
 48
0.0
 49
0.0
140
0.0
141
0.0
142
1.0
143
1.0
 70
0
 72
1
 73
0
 74
0
  7

 75
0
147
1.0
148
0.0
149
0.0
100
AcDbLayout
  1
Layout1
 70
0
 71
1
 10
0.0
 20
0.0
 11
297.0
 21
210.0
 12
0.0
 22
0.0
 32
0.0
 14
0.0
 24
0.0
 34
0.0
 15
0.0
 25
0.0
 35
0.0
146
0.0
 13
0.0
 23
0.0
 33
0.0
 16
1.0
 26
0.0
 36
0.0
 17
0.0
 27
1.0
 37
0.0
 76
0
330
214
345
0
346
0
  0
ENDSEC
  0
EOF
