  0
SECTION
  2
HEADER
  9
$ACADVER
  1
AC1024
  9
$DWGCODEPAGE
  3
ANSI_1252
  9
$EXTMAX
 10
297.0
 20
210.0
 30
0.0
  9
$EXTMIN
 10
0.0
 20
0.0
 30
0.0
  9
$LIMMIN
 10
0.0
 20
0.0
  9
$LIMMAX
 10
297.0
 20
210.0
  9
$VIEWCTR
 10
148.5
 20
105.0
  9
$VIEWSIZE
 40
210.0
  9
$CLAYER
  8
0
  9
$LTSCALE
 40
16.335
  9
$CELTYPE
  6
BYLAYER
  9
$DIMSCALE
 40
1.0
  9
$DIMASZ
 40
3.0
  9
$DIMEXO
 40
0.5
  9
$DIMDLI
 40
11.286
  9
$DIMEXE
 40
1.5
  9
$DIMCEN
 40
2.673
  9
$DIMLFAC
 40
1.0
  9
$DIMBLK
  1
_FILLED
  9
$DIMALT
 70
0
  9
$DIMALTF
 40
0.0393700787
  9
$DIMTXT
 40
3.0
  9
$DIMTOL
 70
1
  9
$DIMLIM
 70
0
  9
$DIMTFAC
 40
1.0
  9
$DIMTP
 40
0.01
  9
$DIMTM
 40
0.01
  9
$DIMGAP
 40
0.625
  9
$DIMDSEP
 70
44
  9
$AUNITS
 70
0
  9
$PDMODE
 70
3
  9
$PDSIZE
 40
3.0
  9
$HANDSEED
  5
30A
  9
$TILEMODE
 70
1
  9
$MEASUREMENT
 70
1
  9
$INSUNITS
 70
4
  0
ENDSEC
  0
SECTION
  2
CLASSES
  0
CLASS
  1
ACDBDICTIONARYWDFLT
  2
AcDbDictionaryWithDefault
  3
AutoCAD 2000
 90
0
 91
1
280
0
281
0
  0
CLASS
  1
ACDBPLACEHOLDER
  2
AcDbPlaceHolder
  3
AutoCAD 2000
 90
0
 91
1
280
0
281
0
  0
CLASS
  1
LAYOUT
  2
AcDbLayout
  3
AutoCAD 2000
 90
0
 91
0
280
0
281
0
  0
ENDSEC
  0
SECTION
  2
TABLES
  0
TABLE
  2
VPORT
  5
8
100
AcDbSymbolTable
 70
2
  0
VPORT
  5
1F4
100
AcDbSymbolTableRecord
100
AcDbViewportTableRecord
  2
*ACTIVE
 70
0
 10
0.0
 20
0.0
 11
1.0
 21
1.0
 12
148.5
 22
105.0
 13
0.0
 23
0.0
 14
1.0
 24
1.0
 15
0.0
 25
0.0
 16
0.0
 26
0.0
 36
1.0
 17
0.0
 27
0.0
 37
0.0
 40
210.0
 41
1.4142857143
 42
50.0
 43
0.0
 44
0.0
 50
0.0
 51
0.0
 71
0
 72
100
 73
1
 74
1
 75
0
 76
0
 77
0
 78
0
  0
ENDTAB
  0
TABLE
  2
LTYPE
  5
5
100
AcDbSymbolTable
 70
6
  0
LTYPE
  5
14
100
AcDbSymbolTableRecord
100
AcDbLinetypeTableRecord
  2
BYBLOCK
 70
0
  3

 72
65
 73
0
 40
0.0
  0
LTYPE
  5
15
100
AcDbSymbolTableRecord
100
AcDbLinetypeTableRecord
  2
BYLAYER
 70
0
  3

 72
65
 73
0
 40
0.0
  0
LTYPE
  5
16
100
AcDbSymbolTableRecord
100
AcDbLinetypeTableRecord
  2
CONTINUOUS
 70
64
  3
Solid line
 72
65
 73
0
 40
0.0
  0
LTYPE
  5
1F5
100
AcDbSymbolTableRecord
100
AcDbLinetypeTableRecord
  2
CENTER
 70
64
  3
____ _ ____ _ ____ _ ____ _ ____ _ ____ _ ____
 72
65
 73
4
 40
0.6
 49
0.375
 74
0
 49
-0.075
 74
0
 49
0.075
 74
0
 49
-0.075
 74
0
  0
LTYPE
  5
1F6
100
AcDbSymbolTableRecord
100
AcDbLinetypeTableRecord
  2
HIDDEN
 70
64
  3
- - - - - - - - - - - - - - - - - - - -
 72
65
 73
2
 40
0.2
 49
0.1
 74
0
 49
-0.1
 74
0
  0
LTYPE
  5
1F7
100
AcDbSymbolTableRecord
100
AcDbLinetypeTableRecord
  2
PHANTOM
 70
64
  3
_____ _ _ _____ _ _ _____ _ _ _____
 72
65
 73
6
 40
0.8
 49
0.45
 74
0
 49
-0.05
 74
0
 49
0.1
 74
0
 49
-0.05
 74
0
 49
0.1
 74
0
 49
-0.05
 74
0
  0
LTYPE
  5
1F8
100
AcDbSymbolTableRecord
100
AcDbLinetypeTableRecord
  2
DOT
 70
64
  3
. . . . . . . . . . . . . . . . . . . .
 72
65
 73
2
 40
0.2
 49
0.1
 74
0
 49
-0.1
 74
0
  0
LTYPE
  5
1F9
100
AcDbSymbolTableRecord
100
AcDbLinetypeTableRecord
  2
DASHED
 70
64
  3
- - - - - - - - - - - - - - - - - - - -
 72
65
 73
2
 40
0.2
 49
0.1
 74
0
 49
-0.1
 74
0
  0
ENDTAB
  0
TABLE
  2
LAYER
  5
2
100
AcDbSymbolTable
 70
36
  0
LAYER
  5
10
100
AcDbSymbolTableRecord
100
AcDbLayerTableRecord
  2
0
 70
0
 62
7
  6
CONTINUOUS
370
-3
390
F
  0
LAYER
  5
1FA
100
AcDbSymbolTableRecord
100
AcDbLayerTableRecord
  2
DEFAULT_1
 70
0
 62
7
  6
CENTER
370
-3
390
F
  0
LAYER
  5
1FB
100
AcDbSymbolTableRecord
100
AcDbLayerTableRecord
  2
DEFAULT_2
 70
0
 62
7
  6
HIDDEN
370
-3
390
F
  0
LAYER
  5
1FC
100
AcDbSymbolTableRecord
100
AcDbLayerTableRecord
  2
DEFAULT_3
 70
0
 62
7
  6
PHANTOM
370
-3
390
F
  0
LAYER
  5
1FD
100
AcDbSymbolTableRecord
100
AcDbLayerTableRecord
  2
ASSI
 70
0
 62
7
  6
CONTINUOUS
370
-3
390
F
  0
LAYER
  5
1FE
100
AcDbSymbolTableRecord
100
AcDbLayerTableRecord
  2
COORDINATE
 70
0
 62
7
  6
CONTINUOUS
370
-3
390
F
  0
LAYER
  5
1FF
100
AcDbSymbolTableRecord
100
AcDbLayerTableRecord
  2
COPY_PUBLISH
 70
0
 62
7
  6
CONTINUOUS
370
-3
390
F
  0
LAYER
  5
200
100
AcDbSymbolTableRecord
100
AcDbLayerTableRecord
  2
COSMETICI
 70
0
 62
7
  6
CONTINUOUS
370
-3
390
F
  0
LAYER
  5
201
100
AcDbSymbolTableRecord
100
AcDbLayerTableRecord
  2
CURVE
 70
0
 62
7
  6
CONTINUOUS
370
-3
390
F
  0
LAYER
  5
202
100
AcDbSymbolTableRecord
100
AcDbLayerTableRecord
  2
DRAFT
 70
0
 62
7
  6
CONTINUOUS
370
-3
390
F
  0
LAYER
  5
203
100
AcDbSymbolTableRecord
100
AcDbLayerTableRecord
  2
IMPORT_IGES
 70
0
 62
7
  6
CONTINUOUS
370
-3
390
F
  0
LAYER
  5
204
100
AcDbSymbolTableRecord
100
AcDbLayerTableRecord
  2
INTF_1
 70
0
 62
7
  6
CONTINUOUS
370
-3
390
F
  0
LAYER
  5
205
100
AcDbSymbolTableRecord
100
AcDbLayerTableRecord
  2
INTF_11
 70
0
 62
7
  6
CONTINUOUS
370
-3
390
F
  0
LAYER
  5
206
100
AcDbSymbolTableRecord
100
AcDbLayerTableRecord
  2
INTF_13
 70
0
 62
7
  6
CONTINUOUS
370
-3
390
F
  0
LAYER
  5
207
100
AcDbSymbolTableRecord
100
AcDbLayerTableRecord
  2
INTF_2
 70
0
 62
7
  6
CONTINUOUS
370
-3
390
F
  0
LAYER
  5
208
100
AcDbSymbolTableRecord
100
AcDbLayerTableRecord
  2
NOTE
 70
0
 62
7
  6
CONTINUOUS
370
-3
390
F
  0
LAYER
  5
209
100
AcDbSymbolTableRecord
100
AcDbLayerTableRecord
  2
PIANI
 70
0
 62
7
  6
CONTINUOUS
370
-3
390
F
  0
LAYER
  5
20A
100
AcDbSymbolTableRecord
100
AcDbLayerTableRecord
  2
PUNTI
 70
0
 62
7
  6
CONTINUOUS
370
-3
390
F
  0
LAYER
  5
20B
100
AcDbSymbolTableRecord
100
AcDbLayerTableRecord
  2
RACCORDO
 70
0
 62
7
  6
CONTINUOUS
370
-3
390
F
  0
LAYER
  5
20C
100
AcDbSymbolTableRecord
100
AcDbLayerTableRecord
  2
SIMBOLI
 70
0
 62
7
  6
CONTINUOUS
370
-3
390
F
  0
LAYER
  5
20D
100
AcDbSymbolTableRecord
100
AcDbLayerTableRecord
  2
SMUSSO
 70
0
 62
7
  6
CONTINUOUS
370
-3
390
F
  0
LAYER
  5
20E
100
AcDbSymbolTableRecord
100
AcDbLayerTableRecord
  2
SNAPLINE
 70
0
 62
7
  6
CONTINUOUS
370
-3
390
F
  0
LAYER
  5
20F
100
AcDbSymbolTableRecord
100
AcDbLayerTableRecord
  2
SUPERFICI
 70
0
 62
7
  6
CONTINUOUS
370
-3
390
F
  0
LAYER
  5
210
100
AcDbSymbolTableRecord
100
AcDbLayerTableRecord
  2
TRASH
 70
0
 62
7
  6
CONTINUOUS
370
-3
390
F
  0
ENDTAB
  0
TABLE
  2
STYLE
  5
3
100
AcDbSymbolTable
 70
1
  0
STYLE
  5
11
100
AcDbSymbolTableRecord
100
AcDbTextStyleTableRecord
  2
STANDARD
 70
0
 40
0.0
 41
0.8
 50
0.0
 71
0
 42
0.2
  3
txt
  4

  0
STYLE
  5
211
100
AcDbSymbolTableRecord
100
AcDbTextStyleTableRecord
  2
TEXTSTYLE_1
 70
0
 40
0.0
 41
0.8
 50
0.0
 71
0
 42
0.2
  3
gdt
  4

  0
ENDTAB
  0
TABLE
  2
VIEW
  5
6
100
AcDbSymbolTable
 70
0
  0
ENDTAB
  0
TABLE
  2
UCS
  5
7
100
AcDbSymbolTable
 70
0
  0
ENDTAB
  0
TABLE
  2
APPID
  5
9
100
AcDbSymbolTable
 70
1
  0
APPID
  5
212
100
AcDbSymbolTableRecord
100
AcDbRegAppTableRecord
  2
ACAD
 70
0
  0
ENDTAB
  0
TABLE
  2
BLOCK_RECORD
  5
1
100
AcDbSymbolTable
 70
0
  0
BLOCK_RECORD
  5
213
100
AcDbSymbolTableRecord
100
AcDbBlockTableRecord
  2
*Model_Space
  0
BLOCK_RECORD
  5
214
100
AcDbSymbolTableRecord
100
AcDbBlockTableRecord
  2
*Paper_Space
  0
BLOCK_RECORD
  5
215
100
AcDbSymbolTableRecord
100
AcDbBlockTableRecord
  2
_FILLED
  0
ENDTAB
  0
TABLE
  2
DIMSTYLE
  5
A
100
AcDbSymbolTable
 70
1
100
AcDbDimStyleTable
 71
0
  0
DIMSTYLE
105
216
100
AcDbSymbolTableRecord
100
AcDbDimStyleTableRecord
  2
STANDARD
 70
0
  3

  4

 40
1.0
 41
3.0
 42
0.5
 43
0.38
 44
1.5
 45
0.0
 46
0.0
 47
0.01
 48
0.01
140
3.0
141
0.09
142
0.0
143
25.4
144
1.0
145
0.0
146
1.0
147
0.625
 71
1
 72
0
 73
0
 74
0
 75
0
 76
0
 77
1
 78
8
 79
2
170
0
171
1
172
0
173
0
174
0
175
0
176
0
177
0
178
0
270
2
179
2
271
2
272
2
273
2
274
2
275
0
280
0
281
0
282
0
283
1
284
8
285
0
286
0
287
3
288
0
340
11
278
44
341
215
342
215
343
215
344
215
  0
ENDTAB
  0
ENDSEC
  0
SECTION
  2
BLOCKS
  0
BLOCK
  5
20
100
AcDbEntity
  8
0
100
AcDbBlockBegin
  2
*Model_Space
 70
0
 10
0.0
 20
0.0
 30
0.0
  3
*Model_Space
  1

  0
ENDBLK
  5
21
100
AcDbEntity
  8
0
100
AcDbBlockEnd
  0
BLOCK
  5
1C
100
AcDbEntity
  8
0
100
AcDbBlockBegin
  2
*Paper_Space
 70
0
 10
0.0
 20
0.0
 30
0.0
  3
*Paper_Space
  1

  0
ENDBLK
  5
1D
100
AcDbEntity
  8
0
100
AcDbBlockEnd
  0
BLOCK
  5
217
100
AcDbEntity
  8
0
100
AcDbBlockBegin
  2
_FILLED
 70
64
 10
0.0
 20
0.0
  3
_FILLED
  1

  0
SOLID
  5
218
100
AcDbEntity
  8
0
  6
BYBLOCK
 62
0
100
AcDbTrace
 10
0.0
 20
0.0
 11
-1.0
 21
0.3166666667
 12
-1.0
 22
-0.3166666667
 13
-1.0
 23
-0.3166666667
  0
ENDBLK
  5
219
100
AcDbEntity
  8
0
  6
BYBLOCK
 62
0
100
AcDbBlockEnd
  0
ENDSEC
  0
SECTION
  2
ENTITIES
  0
LWPOLYLINE
  5
21A
100
AcDbEntity
  8
RACCORDO
100
AcDbPolyline
 62
7
  6
CONTINUOUS
 90
18
 70
0
 10
-75.5921982054
 20
76.4124195209
 10
-75.6275853002
 20
76.3860715909
 10
-75.6681576845
 20
76.3520515552
 10
-75.7071731094
 20
76.3149059818
 10
-75.7443738872
 20
76.2746967067
 10
-75.7794623626
 20
76.2315931064
 10
-75.8122631149
 20
76.1856749681
 10
-75.8426177866
 20
76.1370176951
 10
-75.8703276922
 20
76.085808667
 10
-75.8952858727
 20
76.0321374801
 10
-75.9173864455
 20
75.9761046358
 10
-75.93650243
 20
75.9179059873
 10
-75.9525705154
 20
75.8576347878
 10
-75.9655387126
 20
75.7953530445
 10
-75.975340359
 20
75.7311848666
 10
-75.9819291995
 20
75.6652184308
 10
-75.985264301
 20
75.5975187924
 10
-75.9856948842
 20
75.5624654444
  0
LINE
  5
21B
100
AcDbEntity
  8
RACCORDO
100
AcDbLine
 62
7
  6
CONTINUOUS
 10
-75.5925559713
 20
76.4121700816
 11
-72.6196118885
 21
78.5084341435
  0
LINE
  5
21C
100
AcDbEntity
  8
RACCORDO
100
AcDbLine
 62
250
  6
CONTINUOUS
 10
-74.7980607233
 20
76.3671038589
 11
-71.8323118045
 21
78.4582945111
  0
LINE
  5
21D
100
AcDbEntity
  8
RACCORDO
100
AcDbLine
 62
250
  6
CONTINUOUS
 10
-69.8470354835
 20
78.9144916278
 11
-71.2593766072
 21
78.1274889087
  0
LINE
  5
21E
100
AcDbEntity
  8
DRAFT
100
AcDbLine
 62
7
  6
CONTINUOUS
 10
-70.173436676
 20
78.9495486571
 11
-71.4596495313
 21
78.243123985
  0
LWPOLYLINE
  5
21F
100
AcDbEntity
  8
RACCORDO
100
AcDbPolyline
 62
7
  6
CONTINUOUS
 90
27
 70
0
 10
-75.9856948062
 20
6.5380929057
 10
-75.9836187747
 20
6.4598014301
 10
-75.9776637608
 20
6.3828356741
 10
-75.9679884809
 20
6.3058068875
 10
-75.9547338895
 20
6.2288276696
 10
-75.9380274556
 20
6.1519940462
 10
-75.9179812603
 20
6.0754283646
 10
-75.8947076984
 20
5.9992667011
 10
-75.8683163617
 20
5.9236801545
 10
-75.8389071273
 20
5.8488142894
 10
-75.8065769486
 20
5.7748139416
 10
-75.77144017
 20
5.7018836814
 10
-75.733598609
 20
5.6301811399
 10
-75.6931376547
 20
5.5598548134
 10
-75.6501714108
 20
5.491100513
 10
-75.6047880512
 20
5.4240691514
 10
-75.5570724647
 20
5.3589240189
 10
-75.5071396278
 20
5.2958587123
 10
-75.4550659805
 20
5.235029795
 10
-75.4009282593
 20
5.1765953888
 10
-75.3448135966
 20
5.1207309662
 10
-75.2867827541
 20
5.0676021072
 10
-75.2268864842
 20
5.0173681098
 10
-75.1651397355
 20
4.9701852062
 10
-75.1015671886
 20
4.926232074
 10
-75.0362483677
 20
4.8857397655
 10
69.955732545
 20
-78.8308369106
  0
LINE
  5
220
100
AcDbEntity
  8
RACCORDO
100
AcDbLine
 62
7
  6
CONTINUOUS
 10
-75.9856948845
 20
75.5624756478
 11
-75.9856948845
 21
6.5379313676
  0
LINE
  5
221
100
AcDbEntity
  8
RACCORDO
100
AcDbLine
 62
250
  6
CONTINUOUS
 10
-75.8392482751
 20
75.3583383511
 11
-75.8392482751
 21
6.3337940828
  0
LINE
  5
222
100
AcDbEntity
  8
RACCORDO
100
AcDbLine
 62
7
  6
CONTINUOUS
 10
-58.1757408876
 20
52.6398710799
 11
-58.1756641142
 21
52.639912392
  0
LINE
  5
223
100
AcDbEntity
  8
RACCORDO
100
AcDbLine
 62
250
  6
CONTINUOUS
 10
-58.2820238116
 20
52.4094534738
 11
-58.0031960314
 21
52.5593980308
  0
LINE
  5
224
100
AcDbEntity
  8
RACCORDO
100
AcDbLine
 62
7
  6
CONTINUOUS
 10
-52.4820295081
 20
44.6441480465
 11
-52.3677801614
 21
44.8862859621
  0
LINE
  5
225
100
AcDbEntity
  8
RACCORDO
100
AcDbLine
 62
7
  6
CONTINUOUS
 10
-52.5471267109
 20
47.3796804119
 11
-53.059770293
 21
46.6602959527
  0
LINE
  5
226
100
AcDbEntity
  8
RACCORDO
100
AcDbLine
 62
7
  6
CONTINUOUS
 10
-54.5533751562
 20
44.2696300629
 11
-53.7022490596
 21
45.3420195396
  0
LINE
  5
227
100
AcDbEntity
  8
RACCORDO
100
AcDbLine
 62
250
  6
CONTINUOUS
 10
-55.7781511451
 20
41.6427348607
 11
-52.4820295081
 21
44.6441480465
  0
LINE
  5
228
100
AcDbEntity
  8
RACCORDO
100
AcDbLine
 62
7
  6
CONTINUOUS
 10
-55.7781511451
 20
41.583075916
 11
-52.6009729068
 21
44.4761805123
  0
LINE
  5
229
100
AcDbEntity
  8
RACCORDO
100
AcDbLine
 62
7
  6
CONTINUOUS
 10
-55.7781511451
 20
43.2996113348
 11
-54.812349235
 21
44.0150936913
  0
LINE
  5
22A
100
AcDbEntity
  8
RACCORDO
100
AcDbLine
 62
7
  6
CONTINUOUS
 10
-53.4617856776
 20
46.2764032825
 11
-53.7022490596
 21
46.1350967876
  0
LINE
  5
22B
100
AcDbEntity
  8
RACCORDO
100
AcDbLine
 62
7
  6
CONTINUOUS
 10
-53.7022490596
 20
45.3420195396
 11
-53.4617856776
 21
45.4832833708
  0
LINE
  5
22C
100
AcDbEntity
  8
SMUSSO
100
AcDbLine
 62
7
  6
CONTINUOUS
 10
-54.1001917753
 20
49.1592475431
 11
-55.7781511451
 21
48.2074727522
  0
LINE
  5
22D
100
AcDbEntity
  8
RACCORDO
100
AcDbLine
 62
250
  6
CONTINUOUS
 10
-58.7025533571
 20
9.4915342577
 11
-58.7025533571
 21
52.4115724314
  0
LINE
  5
22E
100
AcDbEntity
  8
RACCORDO
100
AcDbLine
 62
250
  6
CONTINUOUS
 10
-58.2820238116
 20
9.4894153001
 11
-58.2820238116
 21
52.4094534738
  0
LINE
  5
22F
100
AcDbEntity
  8
RACCORDO
100
AcDbLine
 62
7
  6
CONTINUOUS
 10
-57.9185322867
 20
52.5105142457
 11
-57.9185322867
 21
9.699290055
  0
LINE
  5
230
100
AcDbEntity
  8
RACCORDO
100
AcDbLine
 62
7
  6
CONTINUOUS
 10
-52.5471267109
 20
25.9065121322
 11
-53.059770293
 21
25.1871276731
  0
LINE
  5
231
100
AcDbEntity
  8
RACCORDO
100
AcDbLine
 62
7
  6
CONTINUOUS
 10
-54.812349235
 20
46.1575355828
 11
-55.7781511451
 21
45.7380968612
  0
LINE
  5
232
100
AcDbEntity
  8
RACCORDO
100
AcDbLine
 62
250
  6
CONTINUOUS
 10
-57.2286616805
 20
9.5358092048
 11
-57.2286616805
 21
9.4423683906
  0
LINE
  5
233
100
AcDbEntity
  8
RACCORDO
100
AcDbLine
 62
250
  6
CONTINUOUS
 10
-56.042712441
 20
11.6747165464
 11
-56.042712441
 21
9.3127133369
  0
LINE
  5
234
100
AcDbEntity
  8
RACCORDO
100
AcDbLine
 62
7
  6
CONTINUOUS
 10
-55.9865804011
 20
11.7549339538
 11
-55.986566966
 21
9.3887656021
  0
LINE
  5
235
100
AcDbEntity
  8
RACCORDO
100
AcDbLine
 62
250
  6
CONTINUOUS
 10
-55.8342831851
 20
51.3070949362
 11
-55.8342831851
 21
12.1795551701
  0
LINE
  5
236
100
AcDbEntity
  8
RACCORDO
100
AcDbLine
 62
7
  6
CONTINUOUS
 10
-55.7781511451
 20
51.2746849998
 11
-55.7781511451
 21
12.2597725775
  0
LINE
  5
237
100
AcDbEntity
  8
SMUSSO
100
AcDbLine
 62
7
  6
CONTINUOUS
 10
-52.3677801614
 20
48.1589747894
 11
-52.3677801614
 21
47.8863938146
  0
LINE
  5
238
100
AcDbEntity
  8
SMUSSO
100
AcDbLine
 62
7
  6
CONTINUOUS
 10
-52.3677801614
 20
45.1588669369
 11
-52.3677801614
 21
44.8862859621
  0
LINE
  5
239
100
AcDbEntity
  8
SMUSSO
100
AcDbLine
 62
7
  6
CONTINUOUS
 10
-52.3677801614
 20
26.6858065098
 11
-52.3677801614
 21
26.413225535
  0
LINE
  5
23A
100
AcDbEntity
  8
SMUSSO
100
AcDbLine
 62
7
  6
CONTINUOUS
 10
-52.3677801614
 20
23.6856986572
 11
-52.3677801614
 21
23.4131176824
  0
LWPOLYLINE
  5
23B
100
AcDbEntity
  8
RACCORDO
100
AcDbPolyline
 62
7
  6
CONTINUOUS
 90
14
 70
0
 10
-55.9865804016
 20
11.7549426936
 10
-55.986394392
 20
11.7634247166
 10
-55.9856589856
 20
11.7743889922
 10
-55.9843005331
 20
11.786357517
 10
-55.9822621759
 20
11.7992462998
 10
-55.9795066886
 20
11.8129232927
 10
-55.9760195182
 20
11.8272260165
 10
-55.9717925635
 20
11.8420358785
 10
-55.966823653
 20
11.8572495092
 10
-55.9611247724
 20
11.8727443723
 10
-55.9547189596
 20
11.8883987615
 10
-55.9476300785
 20
11.9041120285
 10
-55.9398799004
 20
11.9197969924
 10
-55.9309796816
 20
11.936284428
  0
LINE
  5
23C
100
AcDbEntity
  8
RACCORDO
100
AcDbLine
 62
7
  6
CONTINUOUS
 10
-52.4820295081
 20
23.1709797668
 11
-52.3677801614
 21
23.4131176824
  0
LINE
  5
23D
100
AcDbEntity
  8
RACCORDO
100
AcDbLine
 62
250
  6
CONTINUOUS
 10
-55.8342831851
 20
12.1795551701
 11
-55.9613157534
 21
11.9543164748
  0
LINE
  5
23E
100
AcDbEntity
  8
RACCORDO
100
AcDbLine
 62
7
  6
CONTINUOUS
 10
-55.8039471259
 20
12.1615231007
 11
-55.9309796944
 21
11.9362844052
  0
LINE
  5
23F
100
AcDbEntity
  8
RACCORDO
100
AcDbLine
 62
7
  6
CONTINUOUS
 10
-54.5533751562
 20
22.7964617833
 11
-53.7022490596
 21
23.8688512599
  0
LINE
  5
240
100
AcDbEntity
  8
RACCORDO
100
AcDbLine
 62
250
  6
CONTINUOUS
 10
-55.7781511451
 20
20.1695665811
 11
-52.4820295081
 21
23.1709797668
  0
LINE
  5
241
100
AcDbEntity
  8
RACCORDO
100
AcDbLine
 62
7
  6
CONTINUOUS
 10
-55.7781511451
 20
20.1099076364
 11
-52.6009729068
 21
23.0030122326
  0
LINE
  5
242
100
AcDbEntity
  8
RACCORDO
100
AcDbLine
 62
7
  6
CONTINUOUS
 10
-55.7781511451
 20
21.8264430552
 11
-54.812349235
 21
22.5419254116
  0
LINE
  5
243
100
AcDbEntity
  8
SMUSSO
100
AcDbLine
 62
7
  6
CONTINUOUS
 10
-54.1001917753
 20
27.6860792634
 11
-55.7781511451
 21
26.7343044726
  0
LINE
  5
244
100
AcDbEntity
  8
RACCORDO
100
AcDbLine
 62
7
  6
CONTINUOUS
 10
-53.4617856776
 20
24.8032350028
 11
-53.7022490596
 21
24.661928508
  0
LINE
  5
245
100
AcDbEntity
  8
RACCORDO
100
AcDbLine
 62
7
  6
CONTINUOUS
 10
-53.7022490596
 20
23.8688512599
 11
-53.4617856776
 21
24.0101150911
  0
LINE
  5
246
100
AcDbEntity
  8
RACCORDO
100
AcDbLine
 62
7
  6
CONTINUOUS
 10
-54.812349235
 20
24.6843673031
 11
-55.7781511451
 21
24.2649285816
  0
LINE
  5
247
100
AcDbEntity
  8
RACCORDO
100
AcDbLine
 62
7
  6
CONTINUOUS
 10
-57.3140217484
 20
9.585895478
 11
-57.313886396
 21
9.5856324453
  0
LINE
  5
248
100
AcDbEntity
  8
RACCORDO
100
AcDbLine
 62
250
  6
CONTINUOUS
 10
-58.2820238116
 20
9.4894153001
 11
-57.9185322867
 21
9.699290055
  0
LINE
  5
249
100
AcDbEntity
  8
RACCORDO
100
AcDbLine
 62
250
  6
CONTINUOUS
 10
-57.9285242689
 20
8.8771361323
 11
-57.565032744
 21
9.0870108873
  0
LINE
  5
24A
100
AcDbEntity
  8
RACCORDO
100
AcDbLine
 62
250
  6
CONTINUOUS
 10
-56.042712441
 20
9.3127133369
 11
-56.6344384935
 21
8.9710569571
  0
LINE
  5
24B
100
AcDbEntity
  8
RACCORDO
100
AcDbLine
 62
250
  6
CONTINUOUS
 10
-55.5478130812
 20
8.455522502
 11
-55.6446884497
 21
8.3995876863
  0
LINE
  5
24C
100
AcDbEntity
  8
RACCORDO
100
AcDbLine
 62
250
  6
CONTINUOUS
 10
-57.9185322867
 20
9.8414298639
 11
-57.5017207917
 21
9.9909859723
  0
LWPOLYLINE
  5
24D
100
AcDbEntity
  8
RACCORDO
100
AcDbPolyline
 62
7
  6
CONTINUOUS
 90
18
 70
0
 10
69.9557226648
 20
-78.8308312055
 10
69.9837986383
 20
-78.8466225414
 10
70.0442420924
 20
-78.8778141833
 10
70.1048150213
 20
-78.9053021518
 10
70.1654398722
 20
-78.9290896538
 10
70.2260173535
 20
-78.9491735317
 10
70.2864063169
 20
-78.9655488979
 10
70.3465268609
 20
-78.9782293515
 10
70.4062661851
 20
-78.9872243021
 10
70.4653900428
 20
-78.9925449894
 10
70.5237573221
 20
-78.9942316217
 10
70.5812363231
 20
-78.9923322683
 10
70.6375647354
 20
-78.9869268863
 10
70.6925965793
 20
-78.9781142782
 10
70.746173301
 20
-78.9660059802
 10
70.7979976039
 20
-78.9507764766
 10
70.8478860234
 20
-78.93262007
 10
70.8886741355
 20
-78.9150343731
  0
LINE
  5
24E
100
AcDbEntity
  8
RACCORDO
100
AcDbLine
 62
250
  6
CONTINUOUS
 10
-75.1331105592
 20
5.110727683
 11
69.8521912242
 21
-78.6019684741
  0
LINE
  5
24F
100
AcDbEntity
  8
RACCORDO
100
AcDbLine
 62
250
  6
CONTINUOUS
 10
-57.3922033261
 20
8.9872213474
 11
-56.9831119107
 21
9.1340074146
  0
LINE
  5
250
100
AcDbEntity
  8
RACCORDO
100
AcDbLine
 62
250
  6
CONTINUOUS
 10
52.8560347538
 20
-55.5740730996
 11
-58.1369540888
 21
8.5118875892
  0
LINE
  5
251
100
AcDbEntity
  8
RACCORDO
100
AcDbLine
 62
250
  6
CONTINUOUS
 10
53.0644645737
 20
-55.2088245565
 11
-57.9285242689
 21
8.8771361323
  0
LINE
  5
252
100
AcDbEntity
  8
RACCORDO
100
AcDbLine
 62
7
  6
CONTINUOUS
 10
-57.565032744
 20
9.0870108873
 11
53.3337660565
 21
-54.9445656518
  0
LINE
  5
253
100
AcDbEntity
  8
RACCORDO
100
AcDbLine
 62
250
  6
CONTINUOUS
 10
53.3337660565
 20
-54.5615753284
 11
-56.9831119107
 21
9.1340074146
  0
LINE
  5
254
100
AcDbEntity
  8
RACCORDO
100
AcDbLine
 62
250
  6
CONTINUOUS
 10
-55.5478130812
 20
8.455522502
 11
-54.8810506198
 21
8.0705422133
  0
LINE
  5
255
100
AcDbEntity
  8
RACCORDO
100
AcDbLine
 62
7
  6
CONTINUOUS
 10
-55.4503187244
 20
8.4640549546
 11
-54.7835139307
 21
8.0790502444
  0
LINE
  5
256
100
AcDbEntity
  8
RACCORDO
100
AcDbLine
 62
250
  6
CONTINUOUS
 10
-54.3396292636
 20
7.9986216013
 11
53.3337660565
 21
-54.1706473919
  0
LINE
  5
257
100
AcDbEntity
  8
RACCORDO
100
AcDbLine
 62
7
  6
CONTINUOUS
 10
-54.2420925745
 20
8.0071296325
 11
53.3337660565
 21
-54.1058228989
  0
LWPOLYLINE
  5
258
100
AcDbEntity
  8
RACCORDO
100
AcDbPolyline
 62
7
  6
CONTINUOUS
 90
17
 70
0
 10
53.3337660565
 20
-54.5232061248
 10
-56.9153764552
 20
9.1332925252
 10
-56.9434071587
 20
9.150696685
 10
-56.9721254646
 20
9.1704767611
 10
-57.0013392591
 20
9.1926128061
 10
-57.0308275529
 20
9.2170352681
 10
-57.0604279761
 20
9.243698667
 10
-57.0899688765
 20
9.2725296141
 10
-57.1192366894
 20
9.3033934593
 10
-57.1480587323
 20
9.336173435
 10
-57.1762832883
 20
9.3707510612
 10
-57.2037460304
 20
9.4069744158
 10
-57.2303000892
 20
9.4446958353
 10
-57.2558064618
 20
9.4837544614
 10
-57.2801245659
 20
9.5239665428
 10
-57.3031358058
 20
9.5651654502
 10
-57.3138895019
 20
9.5856384819
  0
LWPOLYLINE
  5
259
100
AcDbEntity
  8
RACCORDO
100
AcDbPolyline
 62
7
  6
CONTINUOUS
 90
28
 70
0
 10
-55.4503187244
 20
8.4640549546
 10
-55.4582085
 20
8.4686854172
 10
-55.4866175074
 20
8.4865686149
 10
-55.5158353752
 20
8.50691418
 10
-55.5456363546
 20
8.5297039883
 10
-55.5757284128
 20
8.5548335206
 10
-55.6059365639
 20
8.5822525174
 10
-55.6360921502
 20
8.6119018348
 10
-55.6659407742
 20
8.6436139548
 10
-55.6953114971
 20
8.6772725759
 10
-55.724041426
 20
8.7127549401
 10
-55.7519097647
 20
8.7498409109
 10
-55.7787686961
 20
8.7883691628
 10
-55.8044759693
 20
8.8281693748
 10
-55.8288487959
 20
8.868977728
 10
-55.8517709392
 20
8.9105997013
 10
-55.8731347251
 20
8.9528366416
 10
-55.8928057317
 20
8.9953983984
 10
-55.9107104762
 20
9.0380766078
 10
-55.9267857969
 20
9.0806627288
 10
-55.9409541795
 20
9.1228559486
 10
-55.9531937895
 20
9.1644541109
 10
-55.9634918789
 20
9.2052505771
 10
-55.9718336867
 20
9.2449417202
 10
-55.9782559615
 20
9.2833546111
 10
-55.9828059978
 20
9.320315045
 10
-55.985542873
 20
9.3555195238
 10
-55.986566966
 20
9.3887656021
  0
LINE
  5
25A
100
AcDbEntity
  8
RACCORDO
100
AcDbLine
 62
7
  6
CONTINUOUS
 10
-54.1001917753
 20
27.6860792634
 11
-54.214441122
 21
27.7939619138
  0
LINE
  5
25B
100
AcDbEntity
  8
RACCORDO
100
AcDbLine
 62
7
  6
CONTINUOUS
 10
-52.3677801614
 20
26.6858065098
 11
-52.4820295081
 21
26.7936891601
  0
LINE
  5
25C
100
AcDbEntity
  8
RACCORDO
100
AcDbLine
 62
250
  6
CONTINUOUS
 10
-54.812349235
 20
22.5419254116
 11
-55.7781511451
 21
23.093343309
  0
LINE
  5
25D
100
AcDbEntity
  8
RACCORDO
100
AcDbLine
 62
250
  6
CONTINUOUS
 10
-54.5533751562
 20
22.7964617833
 11
-55.7781511451
 21
23.4957391334
  0
LINE
  5
25E
100
AcDbEntity
  8
RACCORDO
100
AcDbLine
 62
250
  6
CONTINUOUS
 10
-54.7163249598
 20
24.7178882634
 11
-53.4617856776
 21
24.0101150911
  0
LINE
  5
25F
100
AcDbEntity
  8
RACCORDO
100
AcDbLine
 62
250
  6
CONTINUOUS
 10
-54.1212407279
 20
24.6974832784
 11
-53.059770293
 21
24.0986337185
  0
LINE
  5
260
100
AcDbEntity
  8
RACCORDO
100
AcDbLine
 62
250
  6
CONTINUOUS
 10
-53.7595639005
 20
24.6667921274
 11
-52.5471267109
 21
23.9816605828
  0
LINE
  5
261
100
AcDbEntity
  8
RACCORDO
100
AcDbLine
 62
7
  6
CONTINUOUS
 10
-53.7390645352
 20
24.6650525935
 11
-52.4925504845
 21
23.9606646844
  0
LINE
  5
262
100
AcDbEntity
  8
DRAFT
100
AcDbLine
 62
7
  6
CONTINUOUS
 10
-53.7022490596
 20
23.8688512599
 11
-54.9943352764
 21
24.6053324703
  0
LINE
  5
263
100
AcDbEntity
  8
SMUSSO
100
AcDbLine
 62
7
  6
CONTINUOUS
 10
-53.2075902796
 20
27.1707023468
 11
-54.1001917753
 21
27.6860792634
  0
LINE
  5
264
100
AcDbEntity
  8
RACCORDO
100
AcDbLine
 62
7
  6
CONTINUOUS
 10
-54.7832918809
 20
28.1737220147
 11
-54.495398312
 21
28.0074958762
  0
LINE
  5
265
100
AcDbEntity
  8
RACCORDO
100
AcDbLine
 62
7
  6
CONTINUOUS
 10
-53.050880267
 20
27.1734492611
 11
-52.7629866981
 21
27.0072231226
  0
LINE
  5
266
100
AcDbEntity
  8
RACCORDO
100
AcDbLine
 62
7
  6
CONTINUOUS
 10
-54.1001917753
 20
49.1592475431
 11
-54.214441122
 21
49.2671301934
  0
LINE
  5
267
100
AcDbEntity
  8
RACCORDO
100
AcDbLine
 62
7
  6
CONTINUOUS
 10
-52.3677801614
 20
48.1589747894
 11
-52.4820295081
 21
48.2668574398
  0
LINE
  5
268
100
AcDbEntity
  8
RACCORDO
100
AcDbLine
 62
250
  6
CONTINUOUS
 10
-54.5982079073
 20
8.0012273918
 11
-54.3396292636
 21
7.9986216013
  0
LINE
  5
269
100
AcDbEntity
  8
RACCORDO
100
AcDbLine
 62
7
  6
CONTINUOUS
 10
-54.5986606803
 20
8.0365229776
 11
-54.3400820365
 21
8.033917187
  0
LWPOLYLINE
  5
26A
100
AcDbEntity
  8
RACCORDO
100
AcDbPolyline
 62
7
  6
CONTINUOUS
 90
15
 70
0
 10
-54.5986606513
 20
8.0365229772
 10
-54.6048426017
 20
8.0366230529
 10
-54.6220089959
 20
8.0372982639
 10
-54.6389707387
 20
8.0385467438
 10
-54.6556091684
 20
8.0403470407
 10
-54.6718461326
 20
8.042674138
 10
-54.6875917445
 20
8.0454989053
 10
-54.7027379266
 20
8.0487816537
 10
-54.7171804407
 20
8.0524730953
 10
-54.7308392193
 20
8.0565218558
 10
-54.7436257429
 20
8.0608659038
 10
-54.7554185525
 20
8.0654177779
 10
-54.7661319902
 20
8.0700864824
 10
-54.7757279709
 20
8.0747887685
 10
-54.7835104546
 20
8.0790482372
  0
LINE
  5
26B
100
AcDbEntity
  8
RACCORDO
100
AcDbLine
 62
7
  6
CONTINUOUS
 10
-53.059770293
 20
24.0986337185
 11
-52.5471267109
 21
23.9816605828
  0
LINE
  5
26C
100
AcDbEntity
  8
RACCORDO
100
AcDbLine
 62
250
  6
CONTINUOUS
 10
-54.7163249598
 20
46.1910565431
 11
-53.4617856776
 21
45.4832833708
  0
LINE
  5
26D
100
AcDbEntity
  8
RACCORDO
100
AcDbLine
 62
250
  6
CONTINUOUS
 10
-54.1212407279
 20
46.170651558
 11
-53.059770293
 21
45.5718019982
  0
LINE
  5
26E
100
AcDbEntity
  8
RACCORDO
100
AcDbLine
 62
250
  6
CONTINUOUS
 10
-53.7595639005
 20
46.139960407
 11
-52.5471267109
 21
45.4548288625
  0
LINE
  5
26F
100
AcDbEntity
  8
RACCORDO
100
AcDbLine
 62
7
  6
CONTINUOUS
 10
-53.7390645352
 20
46.1382208731
 11
-52.4925504845
 21
45.433832964
  0
LINE
  5
270
100
AcDbEntity
  8
DRAFT
100
AcDbLine
 62
7
  6
CONTINUOUS
 10
-53.7022490596
 20
45.3420195396
 11
-54.9943352764
 21
46.0785007499
  0
LINE
  5
271
100
AcDbEntity
  8
RACCORDO
100
AcDbLine
 62
250
  6
CONTINUOUS
 10
-54.812349235
 20
44.0150936913
 11
-55.7781511451
 21
44.5665115886
  0
LINE
  5
272
100
AcDbEntity
  8
RACCORDO
100
AcDbLine
 62
250
  6
CONTINUOUS
 10
-54.5533751562
 20
44.2696300629
 11
-55.7781511451
 21
44.9689074131
  0
LINE
  5
273
100
AcDbEntity
  8
SMUSSO
100
AcDbLine
 62
7
  6
CONTINUOUS
 10
-53.2075902796
 20
48.6438706264
 11
-54.1001917753
 21
49.1592475431
  0
LINE
  5
274
100
AcDbEntity
  8
RACCORDO
100
AcDbLine
 62
7
  6
CONTINUOUS
 10
-53.7022490596
 20
24.661928508
 11
-54.5533751562
 21
24.7341533163
  0
LINE
  5
275
100
AcDbEntity
  8
RACCORDO
100
AcDbLine
 62
7
  6
CONTINUOUS
 10
-54.7832918809
 20
49.6468902944
 11
-54.495398312
 21
49.4806641559
  0
LINE
  5
276
100
AcDbEntity
  8
RACCORDO
100
AcDbLine
 62
7
  6
CONTINUOUS
 10
-53.050880267
 20
48.6466175407
 11
-52.7629866981
 21
48.4803914022
  0
LINE
  5
277
100
AcDbEntity
  8
RACCORDO
100
AcDbLine
 62
7
  6
CONTINUOUS
 10
-58.0748293025
 20
52.6007581837
 11
52.9181595402
 21
-11.4852025052
  0
LINE
  5
278
100
AcDbEntity
  8
RACCORDO
100
AcDbLine
 62
250
  6
CONTINUOUS
 10
-58.1369540888
 20
52.7380792421
 11
52.8560347538
 21
-11.3478814468
  0
LWPOLYLINE
  5
279
100
AcDbEntity
  8
RACCORDO
100
AcDbPolyline
 62
7
  6
CONTINUOUS
 90
27
 70
0
 10
52.9181789169
 20
-11.4852136901
 10
52.9294287913
 20
-11.4919228458
 10
52.9504848158
 20
-11.5055926579
 10
52.972787181
 20
-11.5216074637
 10
52.995958004
 20
-11.5398922091
 10
53.0197902993
 20
-11.560451301
 10
53.0440959061
 20
-11.5832825079
 10
53.0685397939
 20
-11.6082114591
 10
53.0929204103
 20
-11.6351499653
 10
53.1170435757
 20
-11.6639943532
 10
53.1406173825
 20
-11.6944858261
 10
53.1634618401
 20
-11.726458552
 10
53.1854075077
 20
-11.7597343615
 10
53.2062203186
 20
-11.7939933932
 10
53.2257645936
 20
-11.8290205371
 10
53.2439180955
 20
-11.8645929569
 10
53.2605158278
 20
-11.9003503772
 10
53.2754834775
 20
-11.936057505
 10
53.2887624099
 20
-11.9714754941
 10
53.3002683066
 20
-12.0062226541
 10
53.3100027363
 20
-12.0400765442
 10
53.3179843808
 20
-12.0728159335
 10
53.3242228188
 20
-12.1040622621
 10
53.3288042458
 20
-12.1336462045
 10
53.3318299914
 20
-12.1613868481
 10
53.3334163895
 20
-12.1869179333
 10
53.3337660609
 20
-12.2050159419
  0
LWPOLYLINE
  5
27A
100
AcDbEntity
  8
RACCORDO
100
AcDbPolyline
 62
7
  6
CONTINUOUS
 90
5
 70
0
 10
-58.1310712465
 20
52.6274393756
 10
-58.1175610417
 20
52.622164794
 10
-58.1031756406
 20
52.6157168141
 10
-58.0879881762
 20
52.6080576386
 10
-58.0748514533
 20
52.6007709771
  0
LINE
  5
27B
100
AcDbEntity
  8
RACCORDO
100
AcDbLine
 62
250
  6
CONTINUOUS
 10
69.8521912242
 20
-7.9467215406
 11
-75.1331105592
 21
75.7659746166
  0
LINE
  5
27C
100
AcDbEntity
  8
RACCORDO
100
AcDbLine
 62
250
  6
CONTINUOUS
 10
70.18724106
 20
-7.3455922982
 11
-74.7980607233
 21
76.3671038589
  0
LINE
  5
27D
100
AcDbEntity
  8
RACCORDO
100
AcDbLine
 62
7
  6
CONTINUOUS
 10
-53.059770293
 20
45.5718019982
 11
-52.5471267109
 21
45.4548288625
  0
LINE
  5
27E
100
AcDbEntity
  8
0
100
AcDbLine
 62
7
  6
CONTINUOUS
 10
73.4810389252
 20
-5.4438129962
 11
-71.8323118045
 21
78.4582945111
  0
LINE
  5
27F
100
AcDbEntity
  8
RACCORDO
100
AcDbLine
 62
250
  6
CONTINUOUS
 10
-69.8470354835
 20
78.9144916278
 11
75.4604968648
 21
-4.984256419
  0
LINE
  5
280
100
AcDbEntity
  8
RACCORDO
100
AcDbLine
 62
7
  6
CONTINUOUS
 10
-69.7494987945
 20
78.922999659
 11
75.5580335539
 21
-4.9757483878
  0
LINE
  5
281
100
AcDbEntity
  8
RACCORDO
100
AcDbLine
 62
250
  6
CONTINUOUS
 10
75.9278790251
 20
-5.7937860663
 11
74.4349198942
 21
-6.6864296524
  0
LINE
  5
282
100
AcDbEntity
  8
RACCORDO
100
AcDbLine
 62
250
  6
CONTINUOUS
 10
70.18724106
 20
-7.3455922982
 11
73.4810389252
 21
-5.4438129962
  0
LINE
  5
283
100
AcDbEntity
  8
RACCORDO
100
AcDbLine
 62
250
  6
CONTINUOUS
 10
71.2464476339
 20
-9.180191898
 11
74.540245499
 21
-7.278412596
  0
LINE
  5
284
100
AcDbEntity
  8
RACCORDO
100
AcDbLine
 62
250
  6
CONTINUOUS
 10
75.4604968648
 20
-4.984256419
 11
73.9410028864
 21
-5.8309682174
  0
LINE
  5
285
100
AcDbEntity
  8
RACCORDO
100
AcDbLine
 62
250
  6
CONTINUOUS
 10
-52.4820295081
 20
26.7936891601
 11
-55.7781511451
 21
25.9218050557
  0
LINE
  5
286
100
AcDbEntity
  8
RACCORDO
100
AcDbLine
 62
250
  6
CONTINUOUS
 10
-52.7629866981
 20
27.0072231226
 11
-55.7781511451
 21
26.2096573034
  0
LINE
  5
287
100
AcDbEntity
  8
RACCORDO
100
AcDbLine
 62
250
  6
CONTINUOUS
 10
-55.7781511451
 20
27.3803321807
 11
-54.214441122
 21
27.7939619138
  0
LINE
  5
288
100
AcDbEntity
  8
RACCORDO
100
AcDbLine
 62
250
  6
CONTINUOUS
 10
-55.7781511451
 20
27.6681844284
 11
-54.495398312
 21
28.0074958762
  0
LINE
  5
289
100
AcDbEntity
  8
RACCORDO
100
AcDbLine
 62
250
  6
CONTINUOUS
 10
-53.050880267
 20
27.1734492611
 11
-55.7781511451
 21
26.491765422
  0
LINE
  5
28A
100
AcDbEntity
  8
RACCORDO
100
AcDbLine
 62
7
  6
CONTINUOUS
 10
-53.1058879705
 20
27.1961229315
 11
-55.7781511451
 21
26.528188318
  0
LINE
  5
28B
100
AcDbEntity
  8
RACCORDO
100
AcDbLine
 62
250
  6
CONTINUOUS
 10
-55.7781511451
 20
27.9250560358
 11
-54.7832918809
 21
28.1737220147
  0
LINE
  5
28C
100
AcDbEntity
  8
RACCORDO
100
AcDbLine
 62
7
  6
CONTINUOUS
 10
-55.7781511451
 20
27.9614789319
 11
-54.8382995844
 21
28.1963956852
  0
LINE
  5
28D
100
AcDbEntity
  8
RACCORDO
100
AcDbLine
 62
7
  6
CONTINUOUS
 10
-53.7022490596
 20
46.1350967876
 11
-54.5533751562
 21
46.207321596
  0
LINE
  5
28E
100
AcDbEntity
  8
RACCORDO
100
AcDbLine
 62
7
  6
CONTINUOUS
 10
53.3337660565
 20
-12.2050457372
 11
53.3337660565
 21
-55.125083911
  0
LINE
  5
28F
100
AcDbEntity
  8
RACCORDO
100
AcDbLine
 62
250
  6
CONTINUOUS
 10
53.4216340221
 20
-12.3275281152
 11
53.4216340221
 21
-55.247566289
  0
LWPOLYLINE
  5
290
100
AcDbEntity
  8
RACCORDO
100
AcDbPolyline
 62
7
  6
CONTINUOUS
 90
11
 70
0
 10
53.3337660605
 20
-55.1251121773
 10
53.3335163744
 20
-55.1398796283
 10
53.3325638249
 20
-55.1568914684
 10
53.3309612411
 20
-55.172602606
 10
53.3287777939
 20
-55.1869683033
 10
53.3261235595
 20
-55.1997811608
 10
53.3231995001
 20
-55.210692607
 10
53.3202069225
 20
-55.2196237893
 10
53.3173369768
 20
-55.226615769
 10
53.3148649953
 20
-55.2315938217
 10
53.3130930415
 20
-55.234581679
  0
LINE
  5
291
100
AcDbEntity
  8
RACCORDO
100
AcDbLine
 62
250
  6
CONTINUOUS
 10
-52.4820295081
 20
48.2668574398
 11
-55.7781511451
 21
47.3949733354
  0
LINE
  5
292
100
AcDbEntity
  8
RACCORDO
100
AcDbLine
 62
250
  6
CONTINUOUS
 10
-52.7629866981
 20
48.4803914022
 11
-55.7781511451
 21
47.6828255831
  0
LINE
  5
293
100
AcDbEntity
  8
RACCORDO
100
AcDbLine
 62
250
  6
CONTINUOUS
 10
-55.7781511451
 20
48.8535004603
 11
-54.214441122
 21
49.2671301934
  0
LINE
  5
294
100
AcDbEntity
  8
RACCORDO
100
AcDbLine
 62
250
  6
CONTINUOUS
 10
-55.7781511451
 20
49.141352708
 11
-54.495398312
 21
49.4806641559
  0
LWPOLYLINE
  5
295
100
AcDbEntity
  8
RACCORDO
100
AcDbPolyline
 62
7
  6
CONTINUOUS
 90
10
 70
0
 10
-58.1812506263
 20
52.6375992687
 10
-58.1816897442
 20
52.6374887394
 10
-58.181621653
 20
52.6374826361
 10
-58.180038908
 20
52.6376159664
 10
-58.176573822
 20
52.6376583325
 10
-58.1710417686
 20
52.6373131819
 10
-58.1635710629
 20
52.636308462
 10
-58.1543615119
 20
52.6344437213
 10
-58.1434719942
 20
52.6315324238
 10
-58.1310712465
 20
52.6274393756
  0
LINE
  5
296
100
AcDbEntity
  8
RACCORDO
100
AcDbLine
 62
250
  6
CONTINUOUS
 10
-53.050880267
 20
48.6466175407
 11
-55.7781511451
 21
47.9649337016
  0
LINE
  5
297
100
AcDbEntity
  8
RACCORDO
100
AcDbLine
 62
7
  6
CONTINUOUS
 10
-53.1058879705
 20
48.6692912112
 11
-55.7781511451
 21
48.0013565977
  0
LINE
  5
298
100
AcDbEntity
  8
RACCORDO
100
AcDbLine
 62
250
  6
CONTINUOUS
 10
-55.7781511451
 20
49.3982243155
 11
-54.7832918809
 21
49.6468902944
  0
LINE
  5
299
100
AcDbEntity
  8
RACCORDO
100
AcDbLine
 62
7
  6
CONTINUOUS
 10
-55.7781511451
 20
49.4346472115
 11
-54.8382995844
 21
49.6695639648
  0
LINE
  5
29A
100
AcDbEntity
  8
RACCORDO
100
AcDbLine
 62
250
  6
CONTINUOUS
 10
70.5583289401
 20
-78.1943322086
 11
70.5583289401
 21
-9.1697879404
  0
LINE
  5
29B
100
AcDbEntity
  8
RACCORDO
100
AcDbLine
 62
250
  6
CONTINUOUS
 10
71.2464476339
 20
-78.2047361662
 11
71.2464476339
 21
-9.180191898
  0
LINE
  5
29C
100
AcDbEntity
  8
0
100
AcDbLine
 62
7
  6
CONTINUOUS
 10
74.540245499
 20
-76.6817429558
 11
74.540245499
 21
-7.278412596
  0
LINE
  5
29D
100
AcDbEntity
  8
RACCORDO
100
AcDbLine
 62
250
  6
CONTINUOUS
 10
75.9278790251
 20
-5.7937860663
 11
75.9278790251
 21
-75.1903981545
  0
LINE
  5
29E
100
AcDbEntity
  8
RACCORDO
100
AcDbLine
 62
7
  6
CONTINUOUS
 10
75.984011065
 20
-5.7135686589
 11
75.984011065
 21
-75.1101807471
  0
LINE
  5
29F
100
AcDbEntity
  8
RACCORDO
100
AcDbLine
 62
250
  6
CONTINUOUS
 10
53.0644645737
 20
-55.2088245565
 11
53.3337660565
 21
-55.04228448
  0
LINE
  5
2A0
100
AcDbEntity
  8
RACCORDO
100
AcDbLine
 62
7
  6
CONTINUOUS
 10
53.3172631996
 20
-55.2319494069
 11
53.3171935548
 21
-55.2319924527
  0
LINE
  5
2A1
100
AcDbEntity
  8
DRAFT
100
AcDbLine
 62
7
  6
CONTINUOUS
 10
75.7950554548
 20
-75.4905536487
 11
74.540245499
 21
-76.2512826697
  0
LINE
  5
2A2
100
AcDbEntity
  8
RACCORDO
100
AcDbLine
 62
250
  6
CONTINUOUS
 10
75.9278790251
 20
-75.1903981545
 11
74.540245499
 21
-76.0200673271
  0
LINE
  5
2A3
100
AcDbEntity
  8
RACCORDO
100
AcDbLine
 62
250
  6
CONTINUOUS
 10
71.2464476339
 20
-78.2047361662
 11
74.540245499
 21
-76.6817429558
  0
LINE
  5
2A4
100
AcDbEntity
  8
RACCORDO
100
AcDbLine
 62
7
  6
CONTINUOUS
 10
70.8882674716
 20
-78.9152244529
 11
74.1900567674
 21
-77.3885361479
  0
ARC
  5
2A5
100
AcDbEntity
  8
RACCORDO
100
AcDbCircle
 62
250
  6
CONTINUOUS
 10
-55.3480658291
 20
11.6084769348
 40
0.7040457777
100
AcDbArc
 50
150.5793704726
 51
152.6514621495
  0
ARC
  5
2A6
100
AcDbEntity
  8
RACCORDO
100
AcDbCircle
 62
250
  6
CONTINUOUS
 10
-54.5913818015
 20
8.6987437907
 40
0.6975497992
100
AcDbArc
 50
262.7661802549
 51
269.4393041212
  0
ARC
  5
2A7
100
AcDbEntity
  8
RACCORDO
100
AcDbCircle
 62
250
  6
CONTINUOUS
 10
-54.5950083624
 20
8.6684390547
 40
0.6670296557
100
AcDbArc
 50
260.4734805717
 51
262.7474340119
  0
ARC
  5
2A8
100
AcDbEntity
  8
RACCORDO
100
AcDbCircle
 62
250
  6
CONTINUOUS
 10
-57.7891703631
 20
9.5358354497
 40
0.5605086832
100
AcDbArc
 50
359.9973172126
 51
1.5220907384
  0
ARC
  5
2A9
100
AcDbEntity
  8
RACCORDO
100
AcDbCircle
 62
7
  6
CONTINUOUS
 10
-54.3420974066
 20
7.8339273416
 40
0.2
100
AcDbArc
 50
59.9633905605
 51
89.422387874
  0
ARC
  5
2AA
100
AcDbEntity
  8
RACCORDO
100
AcDbCircle
 62
7
  6
CONTINUOUS
 10
-55.9781511451
 20
12.2597725775
 40
0.2
100
AcDbArc
 50
330.5776384688
 51
0.0350220643
  0
ARC
  5
2AB
100
AcDbEntity
  8
RACCORDO
100
AcDbCircle
 62
250
  6
CONTINUOUS
 10
-54.2561986824
 20
7.849180039
 40
0.1711532717
100
AcDbArc
 50
114.6014078328
 51
119.1738505429
  0
ARC
  5
2AC
100
AcDbEntity
  8
RACCORDO
100
AcDbCircle
 62
250
  6
CONTINUOUS
 10
-55.9219889273
 20
12.3265112336
 40
0.1711384872
100
AcDbArc
 50
300.8294320721
 51
305.4022851521
  0
ARC
  5
2AD
100
AcDbEntity
  8
RACCORDO
100
AcDbCircle
 62
250
  6
CONTINUOUS
 10
53.228653252
 20
-55.0882346039
 40
0.1688415068
100
AcDbArc
 50
288.1106885655
 51
300.113367906
  0
ARC
  5
2AE
100
AcDbEntity
  8
RACCORDO
100
AcDbCircle
 62
250
  6
CONTINUOUS
 10
-58.0968669532
 20
52.4933548944
 40
0.1663970585
100
AcDbArc
 50
118.2948439667
 51
120.3313261465
  0
ARC
  5
2AF
100
AcDbEntity
  8
RACCORDO
100
AcDbCircle
 62
250
  6
CONTINUOUS
 10
53.2297994575
 20
-55.0905325314
 40
0.1662787332
100
AcDbArc
 50
300.1689798152
 51
301.7078273061
  0
SPLINE
  5
2B0
100
AcDbEntity
  8
0
100
AcDbSpline
 62
7
  6
CONTINUOUS
 70
0
 71
3
 72
11
 73
7
 74
0
 42
0.0000001
 43
0.0000001
 44
0.0000000001
 40
0.0
 40
0.0
 40
0.0
 40
0.0
 40
0.2915028109
 40
0.5502118296
 40
0.7818910569
 40
1.0
 40
1.0
 40
1.0
 40
1.0
 10
-71.8323118045
 20
78.4582945111
 30
0.0
 10
-71.902226688
 20
78.4986624885
 30
0.0
 10
-72.0411965721
 20
78.5638881378
 30
0.0
 10
-72.2549378422
 20
78.6109099707
 30
0.0
 10
-72.4539056751
 20
78.5962484586
 30
0.0
 10
-72.5702605376
 20
78.5432640622
 30
0.0
 10
-72.6196010782
 20
78.5084166865
 30
0.0
  0
SPLINE
  5
2B1
100
AcDbEntity
  8
0
100
AcDbSpline
 62
7
  6
CONTINUOUS
 70
0
 71
3
 72
15
 73
11
 74
0
 42
0.0000001
 43
0.0000001
 44
0.0000000001
 40
0.0
 40
0.0
 40
0.0
 40
0.0
 40
0.1142413001
 40
0.2374032818
 40
0.3670261888
 40
0.4999939441
 40
0.6329625441
 40
0.7625879086
 40
0.8857537676
 40
1.0
 40
1.0
 40
1.0
 40
1.0
 10
74.540245499
 20
-7.278412596
 30
0.0
 10
74.540245499
 20
-7.1946178613
 30
0.0
 10
74.5248123896
 20
-7.0203366004
 30
0.0
 10
74.4638933674
 20
-6.7573894513
 30
0.0
 10
74.3658537669
 20
-6.4912395519
 30
0.0
 10
74.2349846281
 20
-6.231604256
 30
0.0
 10
74.0755673649
 20
-5.9884491665
 30
0.0
 10
73.8940917875
 20
-5.7704649676
 30
0.0
 10
73.6968279863
 20
-5.5862266622
 30
0.0
 10
73.5536092583
 20
-5.485714197
 30
0.0
 10
73.4810389252
 20
-5.4438129962
 30
0.0
  0
SPLINE
  5
2B2
100
AcDbEntity
  8
RACCORDO
100
AcDbSpline
 62
7
  6
CONTINUOUS
 70
0
 71
3
 72
10
 73
6
 74
0
 42
0.0000001
 43
0.0000001
 44
0.0000000001
 40
0.0
 40
0.0
 40
0.0
 40
0.0
 40
0.2475723084
 40
0.4953701972
 40
1.0
 40
1.0
 40
1.0
 40
1.0
 10
75.7950554548
 20
-75.4905536487
 30
0.0
 10
75.8262346264
 20
-75.4716512638
 30
0.0
 10
75.8830225725
 20
-75.4236607369
 30
0.0
 10
75.9636875537
 20
-75.2984461862
 30
0.0
 10
75.984011065
 20
-75.1845006865
 30
0.0
 10
75.984011065
 20
-75.1101807471
 30
0.0
  0
SPLINE
  5
2B3
100
AcDbEntity
  8
RACCORDO
100
AcDbSpline
 62
7
  6
CONTINUOUS
 70
0
 71
3
 72
11
 73
7
 74
0
 42
0.0000001
 43
0.0000001
 44
0.0000000001
 40
0.0
 40
0.0
 40
0.0
 40
0.0
 40
0.2428280885
 40
0.5000034203
 40
0.7571781549
 40
1.0
 40
1.0
 40
1.0
 40
1.0
 10
75.984011065
 20
-5.7135686589
 30
0.0
 10
75.984011065
 20
-5.6419672348
 30
0.0
 10
75.9593112785
 20
-5.4942182062
 30
0.0
 10
75.8690712065
 20
-5.2880472585
 30
0.0
 10
75.7356411476
 20
-5.1068146508
 30
0.0
 10
75.620039613
 20
-5.0115499093
 30
0.0
 10
75.5580335539
 20
-4.9757483878
 30
0.0
  0
SPLINE
  5
2B4
100
AcDbEntity
  8
RACCORDO
100
AcDbSpline
 62
7
  6
CONTINUOUS
 70
0
 71
3
 72
10
 73
6
 74
0
 42
0.0000001
 43
0.0000001
 44
0.0000000001
 40
0.0
 40
0.0
 40
0.0
 40
0.0
 40
0.5046559582
 40
0.7524301597
 40
1.0
 40
1.0
 40
1.0
 40
1.0
 10
-69.7494987945
 20
78.922999659
 30
0.0
 10
-69.8138711699
 20
78.9601674618
 30
0.0
 10
-69.9227283615
 20
78.9995325004
 30
0.0
 10
-70.0715158444
 20
78.9922923308
 30
0.0
 10
-70.1414749071
 20
78.9671029694
 30
0.0
 10
-70.173436676
 20
78.9495486571
 30
0.0
  0
SPLINE
  5
2B5
100
AcDbEntity
  8
0
100
AcDbSpline
 62
7
  6
CONTINUOUS
 70
0
 71
3
 72
11
 73
7
 74
0
 42
0.0000001
 43
0.0000001
 44
0.0000000001
 40
0.0
 40
0.0
 40
0.0
 40
0.0
 40
0.2181144453
 40
0.4497960477
 40
0.7085029638
 40
1.0
 40
1.0
 40
1.0
 40
1.0
 10
74.1900470835
 20
-77.3885181145
 30
0.0
 10
74.244888304
 20
-77.363211495
 30
0.0
 10
74.3489356212
 20
-77.2889435504
 30
0.0
 10
74.4611024776
 20
-77.1239860777
 30
0.0
 10
74.5272454904
 20
-76.9154021646
 30
0.0
 10
74.540245499
 20
-76.7624620358
 30
0.0
 10
74.540245499
 20
-76.6817429558
 30
0.0
  0
SPLINE
  5
2B6
100
AcDbEntity
  8
RACCORDO
100
AcDbSpline
 62
250
  6
CONTINUOUS
 70
0
 71
3
 72
10
 73
6
 74
0
 42
0.0000001
 43
0.0000001
 44
0.0000000001
 40
0.0
 40
0.0
 40
0.0
 40
0.0
 40
0.2193581656
 40
0.4536187325
 40
1.0
 40
1.0
 40
1.0
 40
1.0
 10
-55.4503231451
 20
8.4640472943
 30
0.0
 10
-55.456769756
 20
8.4677639883
 30
0.0
 10
-55.4715248624
 20
8.4731947104
 30
0.0
 10
-55.5058455204
 20
8.4743894521
 30
0.0
 10
-55.5316222336
 20
8.4645445724
 30
0.0
 10
-55.5478130812
 20
8.455522502
 30
0.0
  0
SPLINE
  5
2B7
100
AcDbEntity
  8
RACCORDO
100
AcDbSpline
 62
250
  6
CONTINUOUS
 70
0
 71
3
 72
10
 73
6
 74
0
 42
0.0000001
 43
0.0000001
 44
0.0000000001
 40
0.0
 40
0.0
 40
0.0
 40
0.0
 40
0.2193704368
 40
0.4536251146
 40
1.0
 40
1.0
 40
1.0
 40
1.0
 10
-55.9865892493
 20
11.7549339536
 30
0.0
 10
-55.9865885838
 20
11.7474888719
 30
0.0
 10
-55.9892542737
 20
11.7319858594
 30
0.0
 10
-56.0053746428
 20
11.7016446415
 30
0.0
 10
-56.0267971624
 20
11.6842323269
 30
0.0
 10
-56.042712441
 20
11.6747165464
 30
0.0
  0
SPLINE
  5
2B8
100
AcDbEntity
  8
RACCORDO
100
AcDbSpline
 62
250
  6
CONTINUOUS
 70
0
 71
3
 72
14
 73
10
 74
0
 42
0.0000001
 43
0.0000001
 44
0.0000000001
 40
0.0
 40
0.0
 40
0.0
 40
0.0
 40
0.0163711213
 40
0.0646249494
 40
0.1446409951
 40
0.2561706522
 40
0.3987018052
 40
0.5710492252
 40
1.0
 40
1.0
 40
1.0
 40
1.0
 10
-55.9309791111
 20
11.9362841063
 30
0.0
 10
-55.9308825197
 20
11.9364507833
 30
0.0
 10
-55.9320405715
 20
11.9368533232
 30
0.0
 10
-55.932964885
 20
11.9378007405
 30
0.0
 10
-55.9356631021
 20
11.9392521293
 30
0.0
 10
-55.9389101714
 20
11.9412773937
 30
0.0
 10
-55.9432805704
 20
11.9438240311
 30
0.0
 10
-55.9508122793
 20
11.948245278
 30
0.0
 10
-55.9569449757
 20
11.9517917739
 30
0.0
 10
-55.9613157534
 20
11.9543164748
 30
0.0
  0
SPLINE
  5
2B9
100
AcDbEntity
  8
RACCORDO
100
AcDbSpline
 62
250
  6
CONTINUOUS
 70
0
 71
3
 72
15
 73
11
 74
0
 42
0.0000001
 43
0.0000001
 44
0.0000000001
 40
0.0
 40
0.0
 40
0.0
 40
0.0
 40
0.1448917729
 40
0.2745118853
 40
0.391096348
 40
0.4999737712
 40
0.608853273
 40
0.7254472396
 40
0.8550895392
 40
1.0
 40
1.0
 40
1.0
 40
1.0
 10
-58.7025533571
 20
52.4115724314
 30
0.0
 10
-58.7025515612
 20
52.4521122692
 30
0.0
 10
-58.6964286345
 20
52.5291873986
 30
0.0
 10
-58.6652080888
 20
52.6350606818
 30
0.0
 10
-58.6126235401
 20
52.7210337241
 30
0.0
 10
-58.5396296114
 20
52.7824325917
 30
0.0
 10
-58.4499565342
 20
52.8149462609
 30
0.0
 10
-58.3491997253
 20
52.8174992719
 30
0.0
 10
-58.2418876666
 20
52.7915922035
 30
0.0
 10
-58.1720673517
 20
52.7583514197
 30
0.0
 10
-58.1369540888
 20
52.7380792421
 30
0.0
  0
SPLINE
  5
2BA
100
AcDbEntity
  8
RACCORDO
100
AcDbSpline
 62
250
  6
CONTINUOUS
 70
0
 71
3
 72
11
 73
7
 74
0
 42
0.0000001
 43
0.0000001
 44
0.0000000001
 40
0.0
 40
0.0
 40
0.0
 40
0.0
 40
0.237213462
 40
0.4999871933
 40
0.7627686696
 40
1.0
 40
1.0
 40
1.0
 40
1.0
 10
-58.1369540888
 20
8.5118875892
 30
0.0
 10
-58.2172411743
 20
8.5582490882
 30
0.0
 10
-58.3692024572
 20
8.6861221094
 30
0.0
 10
-58.5465650203
 20
8.9284825796
 30
0.0
 10
-58.6677856424
 20
9.2032661537
 30
0.0
 10
-58.7025487033
 20
9.3988158688
 30
0.0
 10
-58.7025533571
 20
9.4915342577
 30
0.0
  0
SPLINE
  5
2BB
100
AcDbEntity
  8
RACCORDO
100
AcDbSpline
 62
250
  6
CONTINUOUS
 70
0
 71
3
 72
14
 73
10
 74
0
 42
0.0000001
 43
0.0000001
 44
0.0000000001
 40
0.0
 40
0.0
 40
0.0
 40
0.0
 40
0.0165203518
 40
0.0649341179
 40
0.1450612875
 40
0.256477802
 40
0.3987314917
 40
0.57095971
 40
1.0
 40
1.0
 40
1.0
 40
1.0
 10
-55.8039489722
 20
12.1615251037
 30
0.0
 10
-55.8038648419
 20
12.161700334
 30
0.0
 10
-55.8049983553
 20
12.1620859202
 30
0.0
 10
-55.8059550763
 20
12.1630533291
 30
0.0
 10
-55.8086380138
 20
12.164495413
 30
0.0
 10
-55.8118896049
 20
12.1665231531
 30
0.0
 10
-55.816251379
 20
12.1690649106
 30
0.0
 10
-55.8237806985
 20
12.1734846062
 30
0.0
 10
-55.829911914
 20
12.1770301843
 30
0.0
 10
-55.8342831851
 20
12.1795551701
 30
0.0
  0
SPLINE
  5
2BC
100
AcDbEntity
  8
RACCORDO
100
AcDbSpline
 62
250
  6
CONTINUOUS
 70
0
 71
3
 72
11
 73
7
 74
0
 42
0.0000001
 43
0.0000001
 44
0.0000000001
 40
0.0
 40
0.0
 40
0.0
 40
0.0
 40
0.237202472
 40
0.4999860681
 40
0.7627748658
 40
1.0
 40
1.0
 40
1.0
 40
1.0
 10
-75.8392482751
 20
6.3337940828
 30
0.0
 10
-75.8392458254
 20
6.2180464934
 30
0.0
 10
-75.7959254427
 20
5.9739027256
 30
0.0
 10
-75.6446413373
 20
5.6307942094
 30
0.0
 10
-75.4231394953
 20
5.3282127331
 30
0.0
 10
-75.2333575244
 20
5.1686121415
 30
0.0
 10
-75.1331105592
 20
5.110727683
 30
0.0
  0
SPLINE
  5
2BD
100
AcDbEntity
  8
RACCORDO
100
AcDbSpline
 62
250
  6
CONTINUOUS
 70
0
 71
3
 72
9
 73
5
 74
0
 42
0.0000001
 43
0.0000001
 44
0.0000000001
 40
0.0
 40
0.0
 40
0.0
 40
0.0
 40
0.4506947939
 40
1.0
 40
1.0
 40
1.0
 40
1.0
 10
75.9840110186
 20
-75.1101807471
 30
0.0
 10
75.9840096641
 20
-75.1253942799
 30
0.0
 10
75.9711024228
 20
-75.1592652357
 30
0.0
 10
75.9437935397
 20
-75.1808828308
 30
0.0
 10
75.9278790251
 20
-75.1903981545
 30
0.0
  0
SPLINE
  5
2BE
100
AcDbEntity
  8
RACCORDO
100
AcDbSpline
 62
250
  6
CONTINUOUS
 70
0
 71
3
 72
9
 73
5
 74
0
 42
0.0000001
 43
0.0000001
 44
0.0000000001
 40
0.0
 40
0.0
 40
0.0
 40
0.0
 40
0.4506947939
 40
1.0
 40
1.0
 40
1.0
 40
1.0
 10
75.9840110186
 20
-5.7135686589
 30
0.0
 10
75.9840096641
 20
-5.7287821916
 30
0.0
 10
75.9711024228
 20
-5.7626531475
 30
0.0
 10
75.9437935397
 20
-5.7842707425
 30
0.0
 10
75.9278790251
 20
-5.7937860663
 30
0.0
  0
SPLINE
  5
2BF
100
AcDbEntity
  8
RACCORDO
100
AcDbSpline
 62
250
  6
CONTINUOUS
 70
0
 71
3
 72
9
 73
5
 74
0
 42
0.0000001
 43
0.0000001
 44
0.0000000001
 40
0.0
 40
0.0
 40
0.0
 40
0.0
 40
0.4506797744
 40
1.0
 40
1.0
 40
1.0
 40
1.0
 10
75.5580335309
 20
-4.9757484276
 30
0.0
 10
75.5448580324
 20
-4.9681426163
 30
0.0
 10
75.5090700024
 20
-4.9623863964
 30
0.0
 10
75.4766947694
 20
-4.9752304162
 30
0.0
 10
75.4604968648
 20
-4.984256419
 30
0.0
  0
SPLINE
  5
2C0
100
AcDbEntity
  8
RACCORDO
100
AcDbSpline
 62
250
  6
CONTINUOUS
 70
0
 71
3
 72
9
 73
5
 74
0
 42
0.0000001
 43
0.0000001
 44
0.0000000001
 40
0.0
 40
0.0
 40
0.0
 40
0.0
 40
0.4506797744
 40
1.0
 40
1.0
 40
1.0
 40
1.0
 10
-69.7494988174
 20
78.9229996193
 30
0.0
 10
-69.762674316
 20
78.9306054306
 30
0.0
 10
-69.798462346
 20
78.9363616504
 30
0.0
 10
-69.830837579
 20
78.9235176306
 30
0.0
 10
-69.8470354835
 20
78.9144916278
 30
0.0
  0
SPLINE
  5
2C1
100
AcDbEntity
  8
RACCORDO
100
AcDbSpline
 62
250
  6
CONTINUOUS
 70
0
 71
3
 72
9
 73
5
 74
0
 42
0.0000001
 43
0.0000001
 44
0.0000000001
 40
0.0
 40
0.0
 40
0.0
 40
0.0
 40
0.4545076867
 40
1.0
 40
1.0
 40
1.0
 40
1.0
 10
53.2811382665
 20
-55.248711324
 30
0.0
 10
53.2487021115
 20
-55.2593337024
 30
0.0
 10
53.1699193533
 20
-55.2603590912
 30
0.0
 10
53.0997494002
 20
-55.2296334435
 30
0.0
 10
53.0644646929
 20
-55.2088244828
 30
0.0
  0
SPLINE
  5
2C2
100
AcDbEntity
  8
RACCORDO
100
AcDbSpline
 62
250
  6
CONTINUOUS
 70
0
 71
3
 72
11
 73
7
 74
0
 42
0.0000001
 43
0.0000001
 44
0.0000000001
 40
0.0
 40
0.0
 40
0.0
 40
0.0
 40
0.2918727109
 40
0.5511262721
 40
0.782966023
 40
1.0
 40
1.0
 40
1.0
 40
1.0
 10
-74.7980607233
 20
76.3671038589
 30
0.0
 10
-74.8691495441
 20
76.4066708171
 30
0.0
 10
-75.0100991992
 20
76.4705360164
 30
0.0
 10
-75.2258947677
 20
76.5155857314
 30
0.0
 10
-75.4259032835
 20
76.5004209434
 30
0.0
 10
-75.5427430355
 20
76.4472319933
 30
0.0
 10
-75.5922130744
 20
76.4124090729
 30
0.0
  0
SPLINE
  5
2C3
100
AcDbEntity
  8
RACCORDO
100
AcDbSpline
 62
250
  6
CONTINUOUS
 70
0
 71
3
 72
11
 73
7
 74
0
 42
0.0000001
 43
0.0000001
 44
0.0000000001
 40
0.0
 40
0.0
 40
0.0
 40
0.0
 40
0.2170334461
 40
0.4488700907
 40
0.7081248619
 40
1.0
 40
1.0
 40
1.0
 40
1.0
 10
70.8886519827
 20
-78.9150446454
 30
0.0
 10
70.9435349509
 20
-78.8896145312
 30
0.0
 10
71.0479974421
 20
-78.815029623
 30
0.0
 10
71.1611187272
 20
-78.6494263209
 30
0.0
 10
71.2299992522
 20
-78.4400498067
 30
0.0
 10
71.245167007
 20
-78.2860730975
 30
0.0
 10
71.2464476339
 20
-78.2047361662
 30
0.0
  0
SPLINE
  5
2C4
100
AcDbEntity
  8
RACCORDO
100
AcDbSpline
 62
250
  6
CONTINUOUS
 70
0
 71
3
 72
15
 73
11
 74
0
 42
0.0000001
 43
0.0000001
 44
0.0000000001
 40
0.0
 40
0.0
 40
0.0
 40
0.0
 40
0.1449061345
 40
0.2745383013
 40
0.391133421
 40
0.5000048448
 40
0.6088736601
 40
0.7254632589
 40
0.8550937705
 40
1.0
 40
1.0
 40
1.0
 40
1.0
 10
-75.1331105592
 20
75.7659746166
 30
0.0
 10
-75.1769571462
 20
75.7912898492
 30
0.0
 10
-75.264132032
 20
75.8328139705
 30
0.0
 10
-75.398117896
 20
75.8652236671
 30
0.0
 10
-75.52393637
 20
75.8621165755
 30
0.0
 10
-75.6359313822
 20
75.8215507603
 30
0.0
 10
-75.7270702759
 20
75.7448582115
 30
0.0
 10
-75.7926820578
 20
75.6374604433
 30
0.0
 10
-75.8316170512
 20
75.5052253454
 30
0.0
 10
-75.8392470943
 20
75.4089682589
 30
0.0
 10
-75.8392482751
 20
75.3583383511
 30
0.0
  0
SPLINE
  5
2C5
100
AcDbEntity
  8
RACCORDO
100
AcDbSpline
 62
250
  6
CONTINUOUS
 70
0
 71
3
 72
11
 73
7
 74
0
 42
0.0000001
 43
0.0000001
 44
0.0000000001
 40
0.0
 40
0.0
 40
0.0
 40
0.0
 40
0.2177468439
 40
0.4512550711
 40
0.7106119881
 40
1.0
 40
1.0
 40
1.0
 40
1.0
 10
-70.17343661
 20
78.949548541
 30
0.0
 10
-70.1516676662
 20
78.9615031611
 30
0.0
 10
-70.101923849
 20
78.9785255522
 30
0.0
 10
-70.0198255199
 20
78.9796756526
 30
0.0
 10
-69.932460173
 20
78.9581372109
 30
0.0
 10
-69.8756195778
 20
78.9309957256
 30
0.0
 10
-69.8470354835
 20
78.9144916278
 30
0.0
  0
SPLINE
  5
2C6
100
AcDbEntity
  8
RACCORDO
100
AcDbSpline
 62
250
  6
CONTINUOUS
 70
0
 71
3
 72
9
 73
5
 74
0
 42
0.0000001
 43
0.0000001
 44
0.0000000001
 40
0.0
 40
0.0
 40
0.0
 40
0.0
 40
0.2324971691
 40
1.0
 40
1.0
 40
1.0
 40
1.0
 10
-54.8810506198
 20
8.0705422133
 30
0.0
 10
-54.8685565514
 20
8.0633288536
 30
0.0
 10
-54.8130739691
 20
8.0353407765
 30
0.0
 10
-54.7523719055
 20
8.0184946938
 30
0.0
 10
-54.7054044998
 20
8.010608336
 30
0.0
  0
SPLINE
  5
2C7
100
AcDbEntity
  8
RACCORDO
100
AcDbSpline
 62
250
  6
CONTINUOUS
 70
0
 71
3
 72
13
 73
9
 74
0
 42
0.0000001
 43
0.0000001
 44
0.0000000001
 40
0.0
 40
0.0
 40
0.0
 40
0.0
 40
0.1138286759
 40
0.2370300338
 40
0.4999859299
 40
0.7629471063
 40
0.8861595838
 40
1.0
 40
1.0
 40
1.0
 40
1.0
 10
71.2464476339
 20
-9.180191898
 30
0.0
 10
71.2451160527
 20
-9.0969948463
 30
0.0
 10
71.2274056878
 20
-8.9238273191
 30
0.0
 10
71.1407126588
 20
-8.5679272183
 30
0.0
 10
70.9458608304
 20
-8.1307014638
 30
0.0
 10
70.6646374663
 20
-7.743332877
 30
0.0
 10
70.3997557149
 20
-7.4902848311
 30
0.0
 10
70.2586321448
 20
-7.3883504996
 30
0.0
 10
70.18724106
 20
-7.3455922982
 30
0.0
  0
SPLINE
  5
2C8
100
AcDbEntity
  8
RACCORDO
100
AcDbSpline
 62
250
  6
CONTINUOUS
 70
0
 71
3
 72
11
 73
7
 74
0
 42
0.0000001
 43
0.0000001
 44
0.0000000001
 40
0.0
 40
0.0
 40
0.0
 40
0.0
 40
0.237202472
 40
0.4999860681
 40
0.7627748658
 40
1.0
 40
1.0
 40
1.0
 40
1.0
 10
70.5583289401
 20
-9.1697879404
 30
0.0
 10
70.5583264904
 20
-9.054040351
 30
0.0
 10
70.5150061077
 20
-8.8098965831
 30
0.0
 10
70.3637220023
 20
-8.466788067
 30
0.0
 10
70.1422201603
 20
-8.1642065907
 30
0.0
 10
69.9524381894
 20
-8.004605999
 30
0.0
 10
69.8521912242
 20
-7.9467215406
 30
0.0
  0
SPLINE
  5
2C9
100
AcDbEntity
  8
RACCORDO
100
AcDbSpline
 62
250
  6
CONTINUOUS
 70
0
 71
3
 72
9
 73
5
 74
0
 42
0.0000001
 43
0.0000001
 44
0.0000000001
 40
0.0
 40
0.0
 40
0.0
 40
0.0
 40
0.2324928788
 40
1.0
 40
1.0
 40
1.0
 40
1.0
 10
-57.2674298611
 20
9.5026572761
 30
0.0
 10
-57.2650036919
 20
9.505795308
 30
0.0
 10
-57.2537744356
 20
9.51867859
 30
0.0
 10
-57.2399004351
 20
9.5290895308
 30
0.0
 10
-57.2286616805
 20
9.5358092048
 30
0.0
  0
SPLINE
  5
2CA
100
AcDbEntity
  8
RACCORDO
100
AcDbSpline
 62
250
  6
CONTINUOUS
 70
0
 71
3
 72
11
 73
7
 74
0
 42
0.0000001
 43
0.0000001
 44
0.0000000001
 40
0.0
 40
0.0
 40
0.0
 40
0.0
 40
0.2897747732
 40
0.5490516907
 40
0.7822204498
 40
1.0
 40
1.0
 40
1.0
 40
1.0
 10
-75.8392482751
 20
75.3583383511
 30
0.0
 10
-75.8611931669
 20
75.3710090566
 30
0.0
 10
-75.901001531
 20
75.398415986
 30
0.0
 10
-75.9485599115
 20
75.4484238781
 30
0.0
 10
-75.978659369
 20
75.5037214874
 30
0.0
 10
-75.9856906251
 20
75.5434210871
 30
0.0
 10
-75.9856931283
 20
75.5624654446
 30
0.0
  0
SPLINE
  5
2CB
100
AcDbEntity
  8
RACCORDO
100
AcDbSpline
 62
250
  6
CONTINUOUS
 70
0
 71
3
 72
11
 73
7
 74
0
 42
0.0000001
 43
0.0000001
 44
0.0000000001
 40
0.0
 40
0.0
 40
0.0
 40
0.0
 40
0.2357162354
 40
0.4967866034
 40
0.7595953262
 40
1.0
 40
1.0
 40
1.0
 40
1.0
 10
-75.1331105592
 20
75.7659746166
 30
0.0
 10
-75.1331105628
 20
75.8218782834
 30
0.0
 10
-75.1128414015
 20
75.9397875583
 30
0.0
 10
-75.0415343529
 20
76.1065989331
 30
0.0
 10
-74.9364034037
 20
76.2558104609
 30
0.0
 10
-74.8461290956
 20
76.3364410096
 30
0.0
 10
-74.7980607233
 20
76.3671038589
 30
0.0
  0
SPLINE
  5
2CC
100
AcDbEntity
  8
RACCORDO
100
AcDbSpline
 62
250
  6
CONTINUOUS
 70
0
 71
3
 72
11
 73
7
 74
0
 42
0.0000001
 43
0.0000001
 44
0.0000000001
 40
0.0
 40
0.0
 40
0.0
 40
0.0
 40
0.2357162389
 40
0.4967866102
 40
0.7595953329
 40
1.0
 40
1.0
 40
1.0
 40
1.0
 10
69.8521912242
 20
-7.9467215406
 30
0.0
 10
69.8521912242
 20
-7.8908178734
 30
0.0
 10
69.8724603919
 20
-7.7729085995
 30
0.0
 10
69.9437674438
 20
-7.6060972267
 30
0.0
 10
70.0488983895
 20
-7.4568857001
 30
0.0
 10
70.1391726915
 20
-7.3762551494
 30
0.0
 10
70.18724106
 20
-7.3455922982
 30
0.0
  0
SPLINE
  5
2CD
100
AcDbEntity
  8
RACCORDO
100
AcDbSpline
 62
250
  6
CONTINUOUS
 70
0
 71
3
 72
11
 73
7
 74
0
 42
0.0000001
 43
0.0000001
 44
0.0000000001
 40
0.0
 40
0.0
 40
0.0
 40
0.0
 40
0.2357220933
 40
0.49679288
 40
0.7595986389
 40
1.0
 40
1.0
 40
1.0
 40
1.0
 10
70.5583289401
 20
-9.1697879404
 30
0.0
 10
70.6067436938
 20
-9.1977420082
 30
0.0
 10
70.7189918086
 20
-9.2391470879
 30
0.0
 10
70.8991102429
 20
-9.2608015609
 30
0.0
 10
71.0808966833
 20
-9.2443597835
 30
0.0
 10
71.1958603396
 20
-9.2064913182
 30
0.0
 10
71.2464476339
 20
-9.180191898
 30
0.0
  0
SPLINE
  5
2CE
100
AcDbEntity
  8
RACCORDO
100
AcDbSpline
 62
250
  6
CONTINUOUS
 70
0
 71
3
 72
11
 73
7
 74
0
 42
0.0000001
 43
0.0000001
 44
0.0000000001
 40
0.0
 40
0.0
 40
0.0
 40
0.0
 40
0.2357221014
 40
0.4967928875
 40
0.759598642
 40
1.0
 40
1.0
 40
1.0
 40
1.0
 10
70.5583289401
 20
-78.1943322086
 30
0.0
 10
70.6067436941
 20
-78.2222862808
 30
0.0
 10
70.7189918102
 20
-78.2636913669
 30
0.0
 10
70.8991102471
 20
-78.2853458421
 30
0.0
 10
71.0808966875
 20
-78.2689040607
 30
0.0
 10
71.1958603414
 20
-78.2310355895
 30
0.0
 10
71.2464476339
 20
-78.2047361662
 30
0.0
  0
SPLINE
  5
2CF
100
AcDbEntity
  8
RACCORDO
100
AcDbSpline
 62
250
  6
CONTINUOUS
 70
0
 71
3
 72
11
 73
7
 74
0
 42
0.0000001
 43
0.0000001
 44
0.0000000001
 40
0.0
 40
0.0
 40
0.0
 40
0.0
 40
0.2897802228
 40
0.5490584635
 40
0.7822249836
 40
1.0
 40
1.0
 40
1.0
 40
1.0
 10
69.8521912242
 20
-78.6019684741
 30
0.0
 10
69.8521912258
 20
-78.6273055859
 30
0.0
 10
69.8560200173
 20
-78.6754780394
 30
0.0
 10
69.875543446
 20
-78.7416606643
 30
0.0
 10
69.9083754818
 20
-78.7953699618
 30
0.0
 10
69.9392348857
 20
-78.8213062927
 30
0.0
 10
69.9557235434
 20
-78.830829684
 30
0.0
  0
SPLINE
  5
2D0
100
AcDbEntity
  8
RACCORDO
100
AcDbSpline
 62
250
  6
CONTINUOUS
 70
0
 71
3
 72
11
 73
7
 74
0
 42
0.0000001
 43
0.0000001
 44
0.0000000001
 40
0.0
 40
0.0
 40
0.0
 40
0.0
 40
0.2897815328
 40
0.5490594049
 40
0.7822248639
 40
1.0
 40
1.0
 40
1.0
 40
1.0
 10
-75.1331105592
 20
5.110727683
 30
0.0
 10
-75.1331105592
 20
5.085389368
 30
0.0
 10
-75.1292814232
 20
5.0372147413
 30
0.0
 10
-75.1097560664
 20
4.9710295213
 30
0.0
 10
-75.0769207107
 20
4.9173190582
 30
0.0
 10
-75.0460583969
 20
4.8913834515
 30
0.0
 10
-75.0295683705
 20
4.8818607732
 30
0.0
  0
SPLINE
  5
2D1
100
AcDbEntity
  8
RACCORDO
100
AcDbSpline
 62
250
  6
CONTINUOUS
 70
0
 71
3
 72
11
 73
7
 74
0
 42
0.0000001
 43
0.0000001
 44
0.0000000001
 40
0.0
 40
0.0
 40
0.0
 40
0.0
 40
0.2897759407
 40
0.5490525227
 40
0.7822203375
 40
1.0
 40
1.0
 40
1.0
 40
1.0
 10
-75.8392482751
 20
6.3337940828
 30
0.0
 10
-75.8611940992
 20
6.3464653248
 30
0.0
 10
-75.901003992
 20
6.3738734916
 30
0.0
 10
-75.9485635194
 20
6.423884037
 30
0.0
 10
-75.9786623967
 20
6.4791847382
 30
0.0
 10
-75.9856917902
 20
6.5188862686
 30
0.0
 10
-75.9856931294
 20
6.5379313677
 30
0.0
  0
SPLINE
  5
2D2
100
AcDbEntity
  8
RACCORDO
100
AcDbSpline
 62
250
  6
CONTINUOUS
 70
0
 71
3
 72
11
 73
7
 74
0
 42
0.0000001
 43
0.0000001
 44
0.0000000001
 40
0.0
 40
0.0
 40
0.0
 40
0.0
 40
0.2375093217
 40
0.4999871238
 40
0.7624726597
 40
1.0
 40
1.0
 40
1.0
 40
1.0
 10
-57.9285241598
 20
8.8771361953
 30
0.0
 10
-57.9791043264
 20
8.9057281827
 30
0.0
 10
-58.0748563588
 20
8.9850987624
 30
0.0
 10
-58.1862267493
 20
9.1365289529
 30
0.0
 10
-58.261691285
 20
9.3086954107
 30
0.0
 10
-58.2825538224
 20
9.4313112735
 30
0.0
 10
-58.2820236881
 20
9.4894153714
 30
0.0
  0
SPLINE
  5
2D3
100
AcDbEntity
  8
RACCORDO
100
AcDbSpline
 62
250
  6
CONTINUOUS
 70
0
 71
3
 72
11
 73
7
 74
0
 42
0.0000001
 43
0.0000001
 44
0.0000000001
 40
0.0
 40
0.0
 40
0.0
 40
0.0
 40
0.2894441379
 40
0.5484228125
 40
0.7816504989
 40
1.0
 40
1.0
 40
1.0
 40
1.0
 10
-58.2820237025
 20
52.4094535325
 30
0.0
 10
-58.2822551287
 20
52.4345485286
 30
0.0
 10
-58.2788889668
 20
52.482299
 30
0.0
 10
-58.2600220075
 20
52.5480278167
 30
0.0
 10
-58.227756016
 20
52.601509726
 30
0.0
 10
-58.1972377328
 20
52.6274146725
 30
0.0
 10
-58.180897402
 20
52.6369754526
 30
0.0
  0
SPLINE
  5
2D4
100
AcDbEntity
  8
RACCORDO
100
AcDbSpline
 62
250
  6
CONTINUOUS
 70
0
 71
3
 72
11
 73
7
 74
0
 42
0.0000001
 43
0.0000001
 44
0.0000000001
 40
0.0
 40
0.0
 40
0.0
 40
0.0
 40
0.2897077305
 40
0.5490830818
 40
0.7822138255
 40
1.0
 40
1.0
 40
1.0
 40
1.0
 10
52.8560347538
 20
-11.3478814468
 30
0.0
 10
52.8560347538
 20
-11.3630804524
 30
0.0
 10
52.8583380833
 20
-11.3919850209
 30
0.0
 10
52.8700441461
 20
-11.4316987694
 30
0.0
 10
52.8897524034
 20
-11.4639240443
 30
0.0
 10
52.9082642227
 20
-11.479490162
 30
0.0
 10
52.9181595746
 20
-11.4852024456
 30
0.0
  0
SPLINE
  5
2D5
100
AcDbEntity
  8
RACCORDO
100
AcDbSpline
 62
250
  6
CONTINUOUS
 70
0
 71
3
 72
11
 73
7
 74
0
 42
0.0000001
 43
0.0000001
 44
0.0000000001
 40
0.0
 40
0.0
 40
0.0
 40
0.0
 40
0.2897021572
 40
0.5490762044
 40
0.782209297
 40
1.0
 40
1.0
 40
1.0
 40
1.0
 10
53.4216340221
 20
-12.3275281152
 30
0.0
 10
53.4084699771
 20
-12.3199273606
 30
0.0
 10
53.3845871455
 20
-12.3034774983
 30
0.0
 10
53.3560445859
 20
-12.273477786
 30
0.0
 10
53.3379896594
 20
-12.2402917643
 30
0.0
 10
53.3337651086
 20
-12.2164732925
 30
0.0
 10
53.3337661261
 20
-12.2050457372
 30
0.0
  0
SPLINE
  5
2D6
100
AcDbEntity
  8
RACCORDO
100
AcDbSpline
 62
250
  6
CONTINUOUS
 70
0
 71
3
 72
11
 73
7
 74
0
 42
0.0000001
 43
0.0000001
 44
0.0000000001
 40
0.0
 40
0.0
 40
0.0
 40
0.0
 40
0.2896967041
 40
0.5490723171
 40
0.7822098011
 40
1.0
 40
1.0
 40
1.0
 40
1.0
 10
53.4216340221
 20
-55.247566289
 30
0.0
 10
53.4084725614
 20
-55.2399670265
 30
0.0
 10
53.3845939638
 20
-55.2235206011
 30
0.0
 10
53.356054588
 20
-55.1935282489
 30
0.0
 10
53.337998022
 20
-55.1603508011
 30
0.0
 10
53.3337683568
 20
-55.1365376776
 30
0.0
 10
53.3337661275
 20
-55.1251121773
 30
0.0
  0
SPLINE
  5
2D7
100
AcDbEntity
  8
RACCORDO
100
AcDbSpline
 62
250
  6
CONTINUOUS
 70
0
 71
3
 72
11
 73
7
 74
0
 42
0.0000001
 43
0.0000001
 44
0.0000000001
 40
0.0
 40
0.0
 40
0.0
 40
0.0
 40
0.2367170626
 40
0.4989022536
 40
0.7616836483
 40
1.0
 40
1.0
 40
1.0
 40
1.0
 10
52.8560347538
 20
-55.5740730996
 30
0.0
 10
52.8560347538
 20
-55.5397091179
 30
0.0
 10
52.8687816712
 20
-55.4672346413
 30
0.0
 10
52.9133446109
 20
-55.3651611923
 30
0.0
 10
52.9787164862
 20
-55.2746993012
 30
0.0
 10
53.0347664668
 20
-55.2265704284
 30
0.0
 10
53.0644645737
 20
-55.2088245565
 30
0.0
  0
SPLINE
  5
2D8
100
AcDbEntity
  8
RACCORDO
100
AcDbSpline
 62
250
  6
CONTINUOUS
 70
0
 71
3
 72
11
 73
7
 74
0
 42
0.0000001
 43
0.0000001
 44
0.0000000001
 40
0.0
 40
0.0
 40
0.0
 40
0.0
 40
0.2367170705
 40
0.4989022632
 40
0.7616836547
 40
1.0
 40
1.0
 40
1.0
 40
1.0
 10
-58.1369540888
 20
8.5118875892
 30
0.0
 10
-58.1369540888
 20
8.5462515721
 30
0.0
 10
-58.1242071708
 20
8.6187260501
 30
0.0
 10
-58.07964423
 20
8.7207994996
 30
0.0
 10
-58.0142723547
 20
8.8112613894
 30
0.0
 10
-57.9582223751
 20
8.859390261
 30
0.0
 10
-57.9285242689
 20
8.8771361323
 30
0.0
  0
SPLINE
  5
2D9
100
AcDbEntity
  8
RACCORDO
100
AcDbSpline
 62
250
  6
CONTINUOUS
 70
0
 71
3
 72
11
 73
7
 74
0
 42
0.0000001
 43
0.0000001
 44
0.0000000001
 40
0.0
 40
0.0
 40
0.0
 40
0.0
 40
0.236722918
 40
0.4989084211
 40
0.761686783
 40
1.0
 40
1.0
 40
1.0
 40
1.0
 10
-58.7025533571
 20
9.4915342577
 30
0.0
 10
-58.6727928201
 20
9.4743508966
 30
0.0
 10
-58.6036539633
 20
9.4491503267
 30
0.0
 10
-58.4929730724
 20
9.4367047814
 30
0.0
 10
-58.3819448794
 20
9.448088579
 30
0.0
 10
-58.3122401302
 20
9.472567388
 30
0.0
 10
-58.2820238116
 20
9.4894153001
 30
0.0
  0
SPLINE
  5
2DA
100
AcDbEntity
  8
RACCORDO
100
AcDbSpline
 62
250
  6
CONTINUOUS
 70
0
 71
3
 72
11
 73
7
 74
0
 42
0.0000001
 43
0.0000001
 44
0.0000000001
 40
0.0
 40
0.0
 40
0.0
 40
0.0
 40
0.2367229258
 40
0.4989084307
 40
0.7616867895
 40
1.0
 40
1.0
 40
1.0
 40
1.0
 10
-58.7025533571
 20
52.4115724314
 30
0.0
 10
-58.672792819
 20
52.3943890698
 30
0.0
 10
-58.6036539608
 20
52.3691884998
 30
0.0
 10
-58.4929730688
 20
52.3567429552
 30
0.0
 10
-58.3819448771
 20
52.3681267535
 30
0.0
 10
-58.3122401294
 20
52.3926055623
 30
0.0
 10
-58.2820238116
 20
52.4094534738
 30
0.0
  0
SPLINE
  5
2DB
100
AcDbEntity
  8
RACCORDO
100
AcDbSpline
 62
250
  6
CONTINUOUS
 70
0
 71
3
 72
11
 73
7
 74
0
 42
0.0000001
 43
0.0000001
 44
0.0000000001
 40
0.0
 40
0.0
 40
0.0
 40
0.0
 40
0.2897027925
 40
0.5490795507
 40
0.7822142746
 40
1.0
 40
1.0
 40
1.0
 40
1.0
 10
-58.1369540888
 20
52.7380792421
 30
0.0
 10
-58.1369540888
 20
52.7228829371
 30
0.0
 10
-58.1346515376
 20
52.6939832427
 30
0.0
 10
-58.1229498018
 20
52.6542753204
 30
0.0
 10
-58.1032490062
 20
52.6220526403
 30
0.0
 10
-58.0847436929
 20
52.6064849329
 30
0.0
 10
-58.07485142
 20
52.6007710348
 30
0.0
  0
SPLINE
  5
2DC
100
AcDbEntity
  8
RACCORDO
100
AcDbSpline
 62
250
  6
CONTINUOUS
 70
0
 71
3
 72
9
 73
5
 74
0
 42
0.0000001
 43
0.0000001
 44
0.0000000001
 40
0.0
 40
0.0
 40
0.0
 40
0.0
 40
0.4743254521
 40
1.0
 40
1.0
 40
1.0
 40
1.0
 10
-56.9831119107
 20
9.1340074146
 30
0.0
 10
-57.0512939412
 20
9.1736736191
 30
0.0
 10
-57.1809775013
 20
9.2814988017
 30
0.0
 10
-57.2830904042
 20
9.414231244
 30
0.0
 10
-57.3293508292
 20
9.488408638
 30
0.0
  0
SPLINE
  5
2DD
100
AcDbEntity
  8
RACCORDO
100
AcDbSpline
 62
250
  6
CONTINUOUS
 70
0
 71
3
 72
9
 73
5
 74
0
 42
0.0000001
 43
0.0000001
 44
0.0000000001
 40
0.0
 40
0.0
 40
0.0
 40
0.0
 40
0.5291632644
 40
1.0
 40
1.0
 40
1.0
 40
1.0
 10
-57.3293508292
 20
9.488408638
 30
0.0
 10
-57.3793198441
 20
9.5685326601
 30
0.0
 10
-57.4578699984
 20
9.7303485661
 30
0.0
 10
-57.4976667408
 20
9.907064637
 30
0.0
 10
-57.5017172448
 20
9.990987245
 30
0.0
  0
SPLINE
  5
2DE
100
AcDbEntity
  8
RACCORDO
100
AcDbSpline
 62
250
  6
CONTINUOUS
 70
0
 71
3
 72
11
 73
7
 74
0
 42
0.0000001
 43
0.0000001
 44
0.0000000001
 40
0.0
 40
0.0
 40
0.0
 40
0.0
 40
0.2370549909
 40
0.49997503
 40
0.7629021904
 40
1.0
 40
1.0
 40
1.0
 40
1.0
 10
-56.042712441
 20
9.3127133369
 30
0.0
 10
-56.0423672762
 20
9.2316998403
 30
0.0
 10
-56.0113949464
 20
9.0608644035
 30
0.0
 10
-55.9051490756
 20
8.8207024384
 30
0.0
 10
-55.7502837671
 20
8.608592991
 30
0.0
 10
-55.6178116319
 20
8.4963376942
 30
0.0
 10
-55.5478130812
 20
8.455522502
 30
0.0
  0
SPLINE
  5
2DF
100
AcDbEntity
  8
RACCORDO
100
AcDbSpline
 62
250
  6
CONTINUOUS
 70
0
 71
3
 72
15
 73
11
 74
0
 42
0.0000001
 43
0.0000001
 44
0.0000000001
 40
0.0
 40
0.0
 40
0.0
 40
0.0
 40
0.1449061345
 40
0.2745383013
 40
0.391133421
 40
0.5000048448
 40
0.6088736601
 40
0.7254632589
 40
0.8550937705
 40
1.0
 40
1.0
 40
1.0
 40
1.0
 10
69.8521912242
 20
-78.6019684741
 30
0.0
 10
69.8960378113
 20
-78.6272837067
 30
0.0
 10
69.9832126971
 20
-78.668807828
 30
0.0
 10
70.117198561
 20
-78.7012175247
 30
0.0
 10
70.243017035
 20
-78.6981104331
 30
0.0
 10
70.3550120473
 20
-78.6575446179
 30
0.0
 10
70.4461509409
 20
-78.5808520691
 30
0.0
 10
70.5117627228
 20
-78.4734543008
 30
0.0
 10
70.5506977162
 20
-78.3412192029
 30
0.0
 10
70.5583277593
 20
-78.2449621164
 30
0.0
 10
70.5583289401
 20
-78.1943322086
 30
0.0
  0
SPLINE
  5
2E0
100
AcDbEntity
  8
RACCORDO
100
AcDbSpline
 62
250
  6
CONTINUOUS
 70
0
 71
3
 72
9
 73
5
 74
0
 42
0.0000001
 43
0.0000001
 44
0.0000000001
 40
0.0
 40
0.0
 40
0.0
 40
0.0
 40
0.252675377
 40
1.0
 40
1.0
 40
1.0
 40
1.0
 10
-55.9734192634
 20
11.9319170983
 30
0.0
 10
-55.9772833749
 20
11.9244462652
 30
0.0
 10
-55.9920460421
 20
11.894609151
 30
0.0
 10
-56.0046750321
 20
11.8637084459
 30
0.0
 10
-56.0127382861
 20
11.8401747306
 30
0.0
  0
SPLINE
  5
2E1
100
AcDbEntity
  8
RACCORDO
100
AcDbSpline
 62
250
  6
CONTINUOUS
 70
0
 71
3
 72
9
 73
5
 74
0
 42
0.0000001
 43
0.0000001
 44
0.0000000001
 40
0.0
 40
0.0
 40
0.0
 40
0.0
 40
0.2654688388
 40
1.0
 40
1.0
 40
1.0
 40
1.0
 10
-56.0127382861
 20
11.8401747306
 30
0.0
 10
-56.0175727255
 20
11.8260647544
 30
0.0
 10
-56.0339019933
 20
11.7723309108
 30
0.0
 10
-56.0427107504
 20
11.7159857222
 30
0.0
 10
-56.042712441
 20
11.6747165464
 30
0.0
  0
SPLINE
  5
2E2
100
AcDbEntity
  8
RACCORDO
100
AcDbSpline
 62
250
  6
CONTINUOUS
 70
0
 71
3
 72
11
 73
7
 74
0
 42
0.0000001
 43
0.0000001
 44
0.0000000001
 40
0.0
 40
0.0
 40
0.0
 40
0.0
 40
0.2271206682
 40
0.4593631429
 40
0.7096595699
 40
1.0
 40
1.0
 40
1.0
 40
1.0
 10
-57.5017207917
 20
9.9909859723
 30
0.0
 10
-57.4693008538
 20
9.9662862395
 30
0.0
 10
-57.4040011507
 20
9.9159124601
 30
0.0
 10
-57.3144787257
 20
9.8240444211
 30
0.0
 10
-57.2468184948
 20
9.7005094883
 30
0.0
 10
-57.2302460223
 20
9.6028072156
 30
0.0
 10
-57.2288594508
 20
9.550723889
 30
0.0
  0
SPLINE
  5
2E3
100
AcDbEntity
  8
RACCORDO
100
AcDbSpline
 62
250
  6
CONTINUOUS
 70
0
 71
3
 72
15
 73
11
 74
0
 42
0.0000001
 43
0.0000001
 44
0.0000000001
 40
0.0
 40
0.0
 40
0.0
 40
0.0
 40
0.1448917767
 40
0.2745118829
 40
0.3910963486
 40
0.4999737713
 40
0.6088532708
 40
0.7254472461
 40
0.8550895333
 40
1.0
 40
1.0
 40
1.0
 40
1.0
 10
53.4216340221
 20
-55.247566289
 30
0.0
 10
53.4216326479
 20
-55.2881061278
 30
0.0
 10
53.4155091165
 20
-55.3651812552
 30
0.0
 10
53.3842887968
 20
-55.4710545413
 30
0.0
 10
53.3317041945
 20
-55.5570275814
 30
0.0
 10
53.2587102809
 20
-55.6184264474
 30
0.0
 10
53.1690371918
 20
-55.6509401253
 30
0.0
 10
53.0682804135
 20
-55.6534930981
 30
0.0
 10
52.9609682336
 20
-55.6275862253
 30
0.0
 10
52.8911482648
 20
-55.5943448509
 30
0.0
 10
52.8560347538
 20
-55.5740730996
 30
0.0
  0
SPLINE
  5
2E4
100
AcDbEntity
  8
RACCORDO
100
AcDbSpline
 62
250
  6
CONTINUOUS
 70
0
 71
3
 72
9
 73
5
 74
0
 42
0.0000001
 43
0.0000001
 44
0.0000000001
 40
0.0
 40
0.0
 40
0.0
 40
0.0
 40
0.2392681443
 40
1.0
 40
1.0
 40
1.0
 40
1.0
 10
75.4604968648
 20
-4.984256419
 30
0.0
 10
75.4708485399
 20
-4.9902333465
 30
0.0
 10
75.5133863541
 20
-5.0164642142
 30
0.0
 10
75.5530301821
 20
-5.0472743664
 30
0.0
 10
75.5814643718
 20
-5.0724900398
 30
0.0
  0
SPLINE
  5
2E5
100
AcDbEntity
  8
RACCORDO
100
AcDbSpline
 62
250
  6
CONTINUOUS
 70
0
 71
3
 72
11
 73
7
 74
0
 42
0.0000001
 43
0.0000001
 44
0.0000000001
 40
0.0
 40
0.0
 40
0.0
 40
0.0
 40
0.2514682664
 40
0.5139442942
 40
0.7690241938
 40
1.0
 40
1.0
 40
1.0
 40
1.0
 10
75.5814643718
 20
-5.0724900398
 30
0.0
 10
75.6328987942
 20
-5.1181025089
 30
0.0
 10
75.727359742
 20
-5.2236907616
 30
0.0
 10
75.8363278315
 20
-5.404804062
 30
0.0
 10
75.9081867669
 20
-5.5976267376
 30
0.0
 10
75.9278790251
 20
-5.7306423656
 30
0.0
 10
75.9278790251
 20
-5.7937860663
 30
0.0
  0
SPLINE
  5
2E6
100
AcDbEntity
  8
RACCORDO
100
AcDbSpline
 62
250
  6
CONTINUOUS
 70
0
 71
3
 72
11
 73
7
 74
0
 42
0.0000001
 43
0.0000001
 44
0.0000000001
 40
0.0
 40
0.0
 40
0.0
 40
0.0
 40
0.2893825107
 40
0.5487374192
 40
0.7822478396
 40
1.0
 40
1.0
 40
1.0
 40
1.0
 10
75.9278790251
 20
-75.1903981545
 30
0.0
 10
75.9278790251
 20
-75.2233991251
 30
0.0
 10
75.9229631119
 20
-75.2861847377
 30
0.0
 10
75.8979356553
 20
-75.3726003462
 30
0.0
 10
75.8558964918
 20
-75.4431141591
 30
0.0
 10
75.8162894398
 20
-75.4776788288
 30
0.0
 10
75.7950553862
 20
-75.4905535318
 30
0.0
  0
SPLINE
  5
2E7
100
AcDbEntity
  8
RACCORDO
100
AcDbSpline
 62
250
  6
CONTINUOUS
 70
0
 71
3
 72
9
 73
5
 74
0
 42
0.0000001
 43
0.0000001
 44
0.0000000001
 40
0.0
 40
0.0
 40
0.0
 40
0.0
 40
0.4580755815
 40
1.0
 40
1.0
 40
1.0
 40
1.0
 10
-55.7781511929
 20
12.2597725775
 30
0.0
 10
-55.7781524052
 20
12.2463502097
 30
0.0
 10
-55.7878874938
 20
12.2168422528
 30
0.0
 10
-55.8099104483
 20
12.1962253018
 30
0.0
 10
-55.8228460601
 20
12.1870154498
 30
0.0
  0
SPLINE
  5
2E8
100
AcDbEntity
  8
RACCORDO
100
AcDbSpline
 62
250
  6
CONTINUOUS
 70
0
 71
3
 72
9
 73
5
 74
0
 42
0.0000001
 43
0.0000001
 44
0.0000000001
 40
0.0
 40
0.0
 40
0.0
 40
0.0
 40
0.2393801899
 40
1.0
 40
1.0
 40
1.0
 40
1.0
 10
52.8560347538
 20
-11.3478814468
 30
0.0
 10
52.8684115803
 20
-11.3550282306
 30
0.0
 10
52.9192589263
 20
-11.3863585911
 30
0.0
 10
52.9666911512
 20
-11.4231000018
 30
0.0
 10
53.0007333715
 20
-11.4531566998
 30
0.0
  0
SPLINE
  5
2E9
100
AcDbEntity
  8
RACCORDO
100
AcDbSpline
 62
250
  6
CONTINUOUS
 70
0
 71
3
 72
11
 73
7
 74
0
 42
0.0000001
 43
0.0000001
 44
0.0000000001
 40
0.0
 40
0.0
 40
0.0
 40
0.0
 40
0.2513162101
 40
0.5137884853
 40
0.7689544421
 40
1.0
 40
1.0
 40
1.0
 40
1.0
 10
53.0007333715
 20
-11.4531566998
 30
0.0
 10
53.0632001694
 20
-11.5083101435
 30
0.0
 10
53.1779526342
 20
-11.6361586526
 30
0.0
 10
53.3103491467
 20
-11.8556697564
 30
0.0
 10
53.3976906394
 20
-12.0895339995
 30
0.0
 10
53.4216311089
 20
-12.2509187124
 30
0.0
 10
53.4216340221
 20
-12.3275281152
 30
0.0
  0
SPLINE
  5
2EA
100
AcDbEntity
  8
RACCORDO
100
AcDbSpline
 62
250
  6
CONTINUOUS
 70
0
 71
3
 72
9
 73
5
 74
0
 42
0.0000001
 43
0.0000001
 44
0.0000000001
 40
0.0
 40
0.0
 40
0.0
 40
0.0
 40
0.4691148781
 40
1.0
 40
1.0
 40
1.0
 40
1.0
 10
-57.5017179645
 20
9.9910135974
 30
0.0
 10
-57.4805478348
 20
9.9244100485
 30
0.0
 10
-57.4221031133
 20
9.7866833242
 30
0.0
 10
-57.3502162016
 20
9.6562246783
 30
0.0
 10
-57.3140246014
 20
9.5859018213
 30
0.0
  0
SPLINE
  5
2EB
100
AcDbEntity
  8
RACCORDO
100
AcDbSpline
 62
250
  6
CONTINUOUS
 70
0
 71
3
 72
9
 73
5
 74
0
 42
0.0000001
 43
0.0000001
 44
0.0000000001
 40
0.0
 40
0.0
 40
0.0
 40
0.0
 40
0.5332736466
 40
1.0
 40
1.0
 40
1.0
 40
1.0
 10
-56.9831119107
 20
9.1340074146
 30
0.0
 10
-56.9707446688
 20
9.1382428067
 30
0.0
 10
-56.9460725464
 20
9.1430957059
 30
0.0
 10
-56.9212497355
 20
9.1366538936
 30
0.0
 10
-56.911340628
 20
9.1309348131
 30
0.0
  0
SPLINE
  5
2EC
100
AcDbEntity
  8
RACCORDO
100
AcDbSpline
 62
250
  6
CONTINUOUS
 70
0
 71
3
 72
9
 73
5
 74
0
 42
0.0000001
 43
0.0000001
 44
0.0000000001
 40
0.0
 40
0.0
 40
0.0
 40
0.0
 40
0.4580616616
 40
1.0
 40
1.0
 40
1.0
 40
1.0
 10
-54.2420925982
 20
8.0071295915
 30
0.0
 10
-54.2537169548
 20
8.0138399562
 30
0.0
 10
-54.2841403113
 20
8.0201622602
 30
0.0
 10
-54.3130063815
 20
8.0113958692
 30
0.0
 10
-54.3274503256
 20
8.0047970231
 30
0.0
  0
SPLINE
  5
2ED
100
AcDbEntity
  8
RACCORDO
100
AcDbSpline
 62
250
  6
CONTINUOUS
 70
0
 71
3
 72
14
 73
10
 74
0
 42
0.0000001
 43
0.0000001
 44
0.0000000001
 40
0.0
 40
0.0
 40
0.0
 40
0.0
 40
0.0165235076
 40
0.0649384306
 40
0.145066184
 40
0.2564828927
 40
0.3987364038
 40
0.5709638995
 40
1.0
 40
1.0
 40
1.0
 40
1.0
 10
-54.3400812201
 20
8.0339145914
 30
0.0
 10
-54.3398873153
 20
8.0338998981
 30
0.0
 10
-54.3401189185
 20
8.032725175
 30
0.0
 10
-54.3397597342
 20
8.031412553
 30
0.0
 10
-54.3398513201
 20
8.0283673549
 30
0.0
 10
-54.3397206714
 20
8.0245366509
 30
0.0
 10
-54.3396997006
 20
8.0194872496
 30
0.0
 10
-54.3396360476
 20
8.0107549199
 30
0.0
 10
-54.3396306192
 20
8.0036708107
 30
0.0
 10
-54.3396292636
 20
7.9986216013
 30
0.0
  0
SPLINE
  5
2EE
100
AcDbEntity
  8
RACCORDO
100
AcDbSpline
 62
250
  6
CONTINUOUS
 70
0
 71
3
 72
14
 73
10
 74
0
 42
0.0000001
 43
0.0000001
 44
0.0000000001
 40
0.0
 40
0.0
 40
0.0
 40
0.0
 40
0.0163748658
 40
0.0646302637
 40
0.1446471432
 40
0.2561769533
 40
0.3987077343
 40
0.5710541755
 40
1.0
 40
1.0
 40
1.0
 40
1.0
 10
-54.5986606447
 20
8.0365236308
 30
0.0
 10
-54.5984679151
 20
8.0365238895
 30
0.0
 10
-54.5986971009
 20
8.0353197049
 30
0.0
 10
-54.5983390373
 20
8.0340448568
 30
0.0
 10
-54.5984301949
 20
8.0309819251
 30
0.0
 10
-54.5982994343
 20
8.0271563047
 30
0.0
 10
-54.5982785479
 20
8.0220970263
 30
0.0
 10
-54.5982147463
 20
8.0133618535
 30
0.0
 10
-54.5982092628
 20
8.0062760217
 30
0.0
 10
-54.5982079073
 20
8.0012273918
 30
0.0
  0
SPLINE
  5
2EF
100
AcDbEntity
  8
RACCORDO
100
AcDbSpline
 62
250
  6
CONTINUOUS
 70
0
 71
3
 72
10
 73
6
 74
0
 42
0.0000001
 43
0.0000001
 44
0.0000000001
 40
0.0
 40
0.0
 40
0.0
 40
0.0
 40
0.2193607345
 40
0.4536108416
 40
1.0
 40
1.0
 40
1.0
 40
1.0
 10
-54.7835183555
 20
8.0790425814
 30
0.0
 10
-54.7899653565
 20
8.0827657633
 30
0.0
 10
-54.8047240482
 20
8.0882086413
 30
0.0
 10
-54.839061134
 20
8.0894170542
 30
0.0
 10
-54.8648519375
 20
8.0795686495
 30
0.0
 10
-54.8810506198
 20
8.0705422133
 30
0.0
  0
SPLINE
  5
2F0
100
AcDbEntity
  8
RACCORDO
100
AcDbSpline
 62
250
  6
CONTINUOUS
 70
0
 71
3
 72
10
 73
6
 74
0
 42
0.0000001
 43
0.0000001
 44
0.0000000001
 40
0.0
 40
0.0
 40
0.0
 40
0.0
 40
0.2193680304
 40
0.4536325388
 40
1.0
 40
1.0
 40
1.0
 40
1.0
 10
-55.986589261
 20
9.3928847937
 30
0.0
 10
-55.9865936949
 20
9.3854430798
 30
0.0
 10
-55.9892675958
 20
9.3699487011
 30
0.0
 10
-56.0053913751
 20
9.3396272869
 30
0.0
 10
-56.0268044005
 20
9.3222247896
 30
0.0
 10
-56.042712441
 20
9.3127133369
 30
0.0
  0
ELLIPSE
  5
2F1
100
AcDbEntity
  8
RACCORDO
100
AcDbEllipse
 62
7
  6
CONTINUOUS
 10
-52.9078949289
 20
48.5126268519
 30
0.0
 11
0.2003426582
 21
-0.1552641653
 31
0.0
 40
0.1132234907
 41
2.4491991049
 42
3.052757864
  0
ELLIPSE
  5
2F2
100
AcDbEntity
  8
RACCORDO
100
AcDbEllipse
 62
7
  6
CONTINUOUS
 10
-52.9078949289
 20
27.0394585722
 30
0.0
 11
0.2003426582
 21
-0.1552641653
 31
0.0
 40
0.1132234907
 41
2.4491991049
 42
3.052757864
  0
ELLIPSE
  5
2F3
100
AcDbEntity
  8
RACCORDO
100
AcDbEllipse
 62
7
  6
CONTINUOUS
 10
-54.6403065428
 20
28.0397313259
 30
0.0
 11
0.2003426582
 21
-0.1552641653
 31
0.0
 40
0.1132234907
 41
2.4491991049
 42
3.0527578643
  0
ELLIPSE
  5
2F4
100
AcDbEntity
  8
RACCORDO
100
AcDbEllipse
 62
7
  6
CONTINUOUS
 10
-54.6403065428
 20
49.5128996055
 30
0.0
 11
0.2003426582
 21
-0.1552641653
 31
0.0
 40
0.1132234907
 41
2.4491991049
 42
3.0527578643
  0
ELLIPSE
  5
2F5
100
AcDbEntity
  8
RACCORDO
100
AcDbEllipse
 62
7
  6
CONTINUOUS
 10
-57.56492504
 20
9.4952460244
 30
0.0
 11
-0.2500120911
 21
0.4330057209
 31
0.0
 40
0.5775075436
 41
0.7855021057
 42
2.355993846
  0
ELLIPSE
  5
2F6
100
AcDbEntity
  8
RACCORDO
100
AcDbEllipse
 62
7
  6
CONTINUOUS
 10
-52.6231293238
 20
48.3482067604
 30
0.0
 11
0.1981042372
 21
-0.1536726351
 31
0.0
 40
0.1157155631
 41
0.8716748505
 42
2.44013911
  0
ELLIPSE
  5
2F7
100
AcDbEntity
  8
RACCORDO
100
AcDbEllipse
 62
7
  6
CONTINUOUS
 10
-54.3555409377
 20
49.3484795141
 30
0.0
 11
0.1981042372
 21
-0.1536726351
 31
0.0
 40
0.1157155631
 41
0.8716748505
 42
2.44013911
  0
ELLIPSE
  5
2F8
100
AcDbEntity
  8
RACCORDO
100
AcDbEllipse
 62
7
  6
CONTINUOUS
 10
-52.6231293238
 20
44.7264989545
 30
0.0
 11
0.1318551357
 21
0.3013469911
 31
0.0
 40
0.4941650564
 41
-2.3052553274
 42
-1.6282373818
  0
ELLIPSE
  5
2F9
100
AcDbEntity
  8
RACCORDO
100
AcDbEllipse
 62
7
  6
CONTINUOUS
 10
-52.6231293238
 20
26.8750384808
 30
0.0
 11
0.1981042372
 21
-0.1536726351
 31
0.0
 40
0.1157155631
 41
0.8716748505
 42
2.44013911
  0
ELLIPSE
  5
2FA
100
AcDbEntity
  8
RACCORDO
100
AcDbEllipse
 62
7
  6
CONTINUOUS
 10
-54.3555409377
 20
27.8753112344
 30
0.0
 11
0.1981042372
 21
-0.1536726351
 31
0.0
 40
0.1157155631
 41
0.8716748505
 42
2.44013911
  0
ELLIPSE
  5
2FB
100
AcDbEntity
  8
RACCORDO
100
AcDbEllipse
 62
7
  6
CONTINUOUS
 10
-52.6231293238
 20
23.2533306749
 30
0.0
 11
0.1318551357
 21
0.3013469911
 31
0.0
 40
0.4941650564
 41
-2.3052553274
 42
-1.6282373818
  0
ELLIPSE
  5
2FC
100
AcDbEntity
  8
RACCORDO
100
AcDbEllipse
 62
7
  6
CONTINUOUS
 10
-54.9038560309
 20
45.2942481138
 30
0.0
 11
0.4935667342
 21
0.8698228981
 31
0.0
 40
0.5722158713
 41
0.2575986682
 42
0.650282602
  0
ELLIPSE
  5
2FD
100
AcDbEntity
  8
RACCORDO
100
AcDbEllipse
 62
7
  6
CONTINUOUS
 10
-54.9038560309
 20
23.8210798342
 30
0.0
 11
0.4935667342
 21
0.8698228981
 31
0.0
 40
0.5722158713
 41
0.2575986682
 42
0.650282602
  0
ELLIPSE
  5
2FE
100
AcDbEntity
  8
RACCORDO
100
AcDbEllipse
 62
7
  6
CONTINUOUS
 10
-53.4618025079
 20
25.6197264793
 30
0.0
 11
0.4935054339
 21
0.8698049405
 31
0.0
 40
0.5722416442
 41
-2.3604410209
 42
-1.7495997939
  0
ELLIPSE
  5
2FF
100
AcDbEntity
  8
RACCORDO
100
AcDbEllipse
 62
7
  6
CONTINUOUS
 10
-52.7883417337
 20
26.1660774586
 30
0.0
 11
0.2961159074
 21
0.5219032828
 31
0.0
 40
0.5722182916
 41
-1.7496041625
 42
-0.7896464124
  0
ELLIPSE
  5
300
100
AcDbEntity
  8
RACCORDO
100
AcDbEllipse
 62
7
  6
CONTINUOUS
 10
-53.4618025079
 20
47.092894759
 30
0.0
 11
0.4935054339
 21
0.8698049405
 31
0.0
 40
0.5722416442
 41
-2.3604410209
 42
-1.7495997939
  0
ELLIPSE
  5
301
100
AcDbEntity
  8
RACCORDO
100
AcDbEllipse
 62
7
  6
CONTINUOUS
 10
-52.7883417337
 20
47.6392457383
 30
0.0
 11
0.2961159074
 21
0.5219032828
 31
0.0
 40
0.5722182916
 41
-1.7496041625
 42
-0.7896464124
  0
ELLIPSE
  5
302
100
AcDbEntity
  8
RACCORDO
100
AcDbEllipse
 62
7
  6
CONTINUOUS
 10
-52.7883417337
 20
44.9118099512
 30
0.0
 11
0.2960876715
 21
0.5218551696
 31
0.0
 40
0.5723246922
 41
5.4934443515
 42
6.4534021016
  0
ELLIPSE
  5
303
100
AcDbEntity
  8
RACCORDO
100
AcDbEllipse
 62
7
  6
CONTINUOUS
 10
-52.7883417337
 20
23.4386416715
 30
0.0
 11
0.2960876715
 21
0.5218551696
 31
0.0
 40
0.5723246922
 41
5.4934443515
 42
6.4534021016
  0
ELLIPSE
  5
304
100
AcDbEntity
  8
RACCORDO
100
AcDbEllipse
 62
7
  6
CONTINUOUS
 10
-54.9038560309
 20
44.7708508371
 30
0.0
 11
0.4935173262
 21
0.869738684
 31
0.0
 40
0.5723276047
 41
-2.2295706808
 42
-1.836886747
  0
ELLIPSE
  5
305
100
AcDbEntity
  8
RACCORDO
100
AcDbEllipse
 62
7
  6
CONTINUOUS
 10
-54.9038560309
 20
23.2976825575
 30
0.0
 11
0.4935173262
 21
0.869738684
 31
0.0
 40
0.5723276047
 41
-2.2295706808
 42
-1.836886747
  0
ELLIPSE
  5
306
100
AcDbEntity
  8
RACCORDO
100
AcDbEllipse
 62
7
  6
CONTINUOUS
 10
-53.4618025079
 20
44.666772117
 30
0.0
 11
0.4934790398
 21
0.8697599662
 31
0.0
 40
0.5723013209
 41
0.1702093558
 42
0.7810505828
  0
ELLIPSE
  5
307
100
AcDbEntity
  8
RACCORDO
100
AcDbEllipse
 62
7
  6
CONTINUOUS
 10
-53.4618025079
 20
23.1936038373
 30
0.0
 11
0.4934790398
 21
0.8697599662
 31
0.0
 40
0.5723013209
 41
0.1702093558
 42
0.7810505828
  0
ENDSEC
  0
SECTION
  2
OBJECTS
  0
DICTIONARY
  5
C
100
AcDbDictionary
280
0
281
1
  3
ACAD_GROUP
350
D
  3
ACAD_MLINESTYLE
350
17
  3
ACAD_LAYOUT
350
1A
  3
ACAD_PLOTSETTINGS
350
19
  3
ACAD_PLOTSTYLENAME
350
E
  0
DICTIONARY
  5
D
102
{ACAD_REACTORS
330
C
102
}
100
AcDbDictionary
280
0
281
1
  0
ACDBDICTIONARYWDFLT
  5
E
102
{ACAD_REACTORS
330
C
102
}
100
AcDbDictionary
281
1
  3
Normal
350
F
100
AcDbDictionaryWithDefault
340
F
  0
DICTIONARY
  5
17
102
{ACAD_REACTORS
330
C
102
}
100
AcDbDictionary
280
0
281
1
  3
Standard
350
18
  0
DICTIONARY
  5
19
102
{ACAD_REACTORS
330
C
102
}
100
AcDbDictionary
281
1
  0
DICTIONARY
  5
1A
102
{ACAD_REACTORS
330
C
102
}
100
AcDbDictionary
281
1
  3
Model
350
308
  3
Layout1
350
309
  0
ACDBPLACEHOLDER
  5
F
102
{ACAD_REACTORS
330
E
102
}
  0
MLINESTYLE
  5
18
102
{ACAD_REACTORS
330
17
102
}
100
AcDbMlineStyle
  2
STANDARD
 70
0
  3

 62
256
 51
90.0
 52
90.0
 71
2
 49
0.5
 62
256
  6
BYLAYER
 49
-0.5
 62
256
  6
BYLAYER
  0
LAYOUT
  5
308
102
{ACAD_REACTORS
330
1A
102
}
100
AcDbPlotSettings
  1

  2
none_device
  4
ISO_A4_(297.00_x_210.00_MM)
  6

 40
0.0
 41
0.0
 42
0.0
 43
0.0
 44
297.0
 45
210.0
 46
0.0
 47
0.0
 48
0.0
 49
0.0
140
0.0
141
0.0
142
1.0
143
1.0
 70
1024
 72
1
 73
0
 74
0
  7

 75
0
147
1.0
148
0.0
149
0.0
100
AcDbLayout
  1
Model
 70
0
 71
0
 10
0.0
 20
0.0
 11
297.0
 21
210.0
 12
0.0
 22
0.0
 32
0.0
 14
0.0
 24
0.0
 34
0.0
 15
0.0
 25
0.0
 35
0.0
146
0.0
 13
0.0
 23
0.0
 33
0.0
 16
1.0
 26
0.0
 36
0.0
 17
0.0
 27
1.0
 37
0.0
 76
0
330
213
345
0
346
0
  0
LAYOUT
  5
309
102
{ACAD_REACTORS
330
1A
102
}
100
AcDbPlotSettings
  1

  2
none_device
  4
ISO_A4_(297.00_x_210.00_MM)
  6

 40
0.0
 41
0.0
 42
0.0
 43
0.0
 44
297.0
 45
210.0
 46
0.0
 47
0.0
 48
0.0
 49
0.0
140
0.0
141
0.0
142
1.0
143
1.0
 70
0
 72
1
 73
0
 74
0
  7

 75
0
147
1.0
148
0.0
149
0.0
100
AcDbLayout
  1
Layout1
 70
0
 71
1
 10
0.0
 20
0.0
 11
297.0
 21
210.0
 12
0.0
 22
0.0
 32
0.0
 14
0.0
 24
0.0
 34
0.0
 15
0.0
 25
0.0
 35
0.0
146
0.0
 13
0.0
 23
0.0
 33
0.0
 16
1.0
 26
0.0
 36
0.0
 17
0.0
 27
1.0
 37
0.0
 76
0
330
214
345
0
346
0
  0
ENDSEC
  0
EOF
