  0
SECTION
  2
HEADER
  9
$ACADVER
  1
AC1024
  9
$DWGCODEPAGE
  3
ANSI_1252
  9
$EXTMAX
 10
297.0
 20
210.0
 30
0.0
  9
$EXTMIN
 10
0.0
 20
0.0
 30
0.0
  9
$LIMMIN
 10
0.0
 20
0.0
  9
$LIMMAX
 10
297.0
 20
210.0
  9
$VIEWCTR
 10
148.5
 20
105.0
  9
$VIEWSIZE
 40
210.0
  9
$CLAYER
  8
0
  9
$LTSCALE
 40
16.335
  9
$CELTYPE
  6
BYLAYER
  9
$DIMSCALE
 40
1.0
  9
$DIMASZ
 40
3.0
  9
$DIMEXO
 40
0.5
  9
$DIMDLI
 40
11.286
  9
$DIMEXE
 40
1.5
  9
$DIMCEN
 40
2.673
  9
$DIMLFAC
 40
1.0
  9
$DIMBLK
  1
_FILLED
  9
$DIMALT
 70
0
  9
$DIMALTF
 40
0.0393700787
  9
$DIMTXT
 40
3.0
  9
$DIMTOL
 70
1
  9
$DIMLIM
 70
0
  9
$DIMTFAC
 40
1.0
  9
$DIMTP
 40
0.01
  9
$DIMTM
 40
0.01
  9
$DIMGAP
 40
0.625
  9
$DIMDSEP
 70
44
  9
$AUNITS
 70
0
  9
$PDMODE
 70
3
  9
$PDSIZE
 40
3.0
  9
$HANDSEED
  5
3BA
  9
$TILEMODE
 70
1
  9
$MEASUREMENT
 70
1
  9
$INSUNITS
 70
4
  0
ENDSEC
  0
SECTION
  2
CLASSES
  0
CLASS
  1
ACDBDICTIONARYWDFLT
  2
AcDbDictionaryWithDefault
  3
AutoCAD 2000
 90
0
 91
1
280
0
281
0
  0
CLASS
  1
ACDBPLACEHOLDER
  2
AcDbPlaceHolder
  3
AutoCAD 2000
 90
0
 91
1
280
0
281
0
  0
CLASS
  1
LAYOUT
  2
AcDbLayout
  3
AutoCAD 2000
 90
0
 91
0
280
0
281
0
  0
ENDSEC
  0
SECTION
  2
TABLES
  0
TABLE
  2
VPORT
  5
8
100
AcDbSymbolTable
 70
2
  0
VPORT
  5
1F4
100
AcDbSymbolTableRecord
100
AcDbViewportTableRecord
  2
*ACTIVE
 70
0
 10
0.0
 20
0.0
 11
1.0
 21
1.0
 12
148.5
 22
105.0
 13
0.0
 23
0.0
 14
1.0
 24
1.0
 15
0.0
 25
0.0
 16
0.0
 26
0.0
 36
1.0
 17
0.0
 27
0.0
 37
0.0
 40
210.0
 41
1.4142857143
 42
50.0
 43
0.0
 44
0.0
 50
0.0
 51
0.0
 71
0
 72
100
 73
1
 74
1
 75
0
 76
0
 77
0
 78
0
  0
ENDTAB
  0
TABLE
  2
LTYPE
  5
5
100
AcDbSymbolTable
 70
6
  0
LTYPE
  5
14
100
AcDbSymbolTableRecord
100
AcDbLinetypeTableRecord
  2
BYBLOCK
 70
0
  3

 72
65
 73
0
 40
0.0
  0
LTYPE
  5
15
100
AcDbSymbolTableRecord
100
AcDbLinetypeTableRecord
  2
BYLAYER
 70
0
  3

 72
65
 73
0
 40
0.0
  0
LTYPE
  5
16
100
AcDbSymbolTableRecord
100
AcDbLinetypeTableRecord
  2
CONTINUOUS
 70
64
  3
Solid line
 72
65
 73
0
 40
0.0
  0
LTYPE
  5
1F5
100
AcDbSymbolTableRecord
100
AcDbLinetypeTableRecord
  2
CENTER
 70
64
  3
____ _ ____ _ ____ _ ____ _ ____ _ ____ _ ____
 72
65
 73
4
 40
0.6
 49
0.375
 74
0
 49
-0.075
 74
0
 49
0.075
 74
0
 49
-0.075
 74
0
  0
LTYPE
  5
1F6
100
AcDbSymbolTableRecord
100
AcDbLinetypeTableRecord
  2
HIDDEN
 70
64
  3
- - - - - - - - - - - - - - - - - - - -
 72
65
 73
2
 40
0.2
 49
0.1
 74
0
 49
-0.1
 74
0
  0
LTYPE
  5
1F7
100
AcDbSymbolTableRecord
100
AcDbLinetypeTableRecord
  2
PHANTOM
 70
64
  3
_____ _ _ _____ _ _ _____ _ _ _____
 72
65
 73
6
 40
0.8
 49
0.45
 74
0
 49
-0.05
 74
0
 49
0.1
 74
0
 49
-0.05
 74
0
 49
0.1
 74
0
 49
-0.05
 74
0
  0
LTYPE
  5
1F8
100
AcDbSymbolTableRecord
100
AcDbLinetypeTableRecord
  2
DOT
 70
64
  3
. . . . . . . . . . . . . . . . . . . .
 72
65
 73
2
 40
0.2
 49
0.1
 74
0
 49
-0.1
 74
0
  0
LTYPE
  5
1F9
100
AcDbSymbolTableRecord
100
AcDbLinetypeTableRecord
  2
DASHED
 70
64
  3
- - - - - - - - - - - - - - - - - - - -
 72
65
 73
2
 40
0.2
 49
0.1
 74
0
 49
-0.1
 74
0
  0
ENDTAB
  0
TABLE
  2
LAYER
  5
2
100
AcDbSymbolTable
 70
36
  0
LAYER
  5
10
100
AcDbSymbolTableRecord
100
AcDbLayerTableRecord
  2
0
 70
0
 62
7
  6
CONTINUOUS
370
-3
390
F
  0
LAYER
  5
1FA
100
AcDbSymbolTableRecord
100
AcDbLayerTableRecord
  2
DEFAULT_1
 70
0
 62
7
  6
CENTER
370
-3
390
F
  0
LAYER
  5
1FB
100
AcDbSymbolTableRecord
100
AcDbLayerTableRecord
  2
DEFAULT_2
 70
0
 62
7
  6
HIDDEN
370
-3
390
F
  0
LAYER
  5
1FC
100
AcDbSymbolTableRecord
100
AcDbLayerTableRecord
  2
DEFAULT_3
 70
0
 62
7
  6
PHANTOM
370
-3
390
F
  0
LAYER
  5
1FD
100
AcDbSymbolTableRecord
100
AcDbLayerTableRecord
  2
ASSI
 70
0
 62
7
  6
CONTINUOUS
370
-3
390
F
  0
LAYER
  5
1FE
100
AcDbSymbolTableRecord
100
AcDbLayerTableRecord
  2
COORDINATE
 70
0
 62
7
  6
CONTINUOUS
370
-3
390
F
  0
LAYER
  5
1FF
100
AcDbSymbolTableRecord
100
AcDbLayerTableRecord
  2
COORD_ORIGINE
 70
0
 62
7
  6
CONTINUOUS
370
-3
390
F
  0
LAYER
  5
200
100
AcDbSymbolTableRecord
100
AcDbLayerTableRecord
  2
COPY_PUBLISH
 70
0
 62
7
  6
CONTINUOUS
370
-3
390
F
  0
LAYER
  5
201
100
AcDbSymbolTableRecord
100
AcDbLayerTableRecord
  2
COSMETICHE
 70
0
 62
7
  6
CONTINUOUS
370
-3
390
F
  0
LAYER
  5
202
100
AcDbSymbolTableRecord
100
AcDbLayerTableRecord
  2
COSMETICI
 70
0
 62
7
  6
CONTINUOUS
370
-3
390
F
  0
LAYER
  5
203
100
AcDbSymbolTableRecord
100
AcDbLayerTableRecord
  2
CURVE
 70
0
 62
7
  6
CONTINUOUS
370
-3
390
F
  0
LAYER
  5
204
100
AcDbSymbolTableRecord
100
AcDbLayerTableRecord
  2
DRAFT
 70
0
 62
7
  6
CONTINUOUS
370
-3
390
F
  0
LAYER
  5
205
100
AcDbSymbolTableRecord
100
AcDbLayerTableRecord
  2
IMPORT_IGES
 70
0
 62
7
  6
CONTINUOUS
370
-3
390
F
  0
LAYER
  5
206
100
AcDbSymbolTableRecord
100
AcDbLayerTableRecord
  2
INTF_1
 70
0
 62
7
  6
CONTINUOUS
370
-3
390
F
  0
LAYER
  5
207
100
AcDbSymbolTableRecord
100
AcDbLayerTableRecord
  2
INTF_11
 70
0
 62
7
  6
CONTINUOUS
370
-3
390
F
  0
LAYER
  5
208
100
AcDbSymbolTableRecord
100
AcDbLayerTableRecord
  2
INTF_13
 70
0
 62
7
  6
CONTINUOUS
370
-3
390
F
  0
LAYER
  5
209
100
AcDbSymbolTableRecord
100
AcDbLayerTableRecord
  2
INTF_2
 70
0
 62
7
  6
CONTINUOUS
370
-3
390
F
  0
LAYER
  5
20A
100
AcDbSymbolTableRecord
100
AcDbLayerTableRecord
  2
INTF_9
 70
0
 62
7
  6
CONTINUOUS
370
-3
390
F
  0
LAYER
  5
20B
100
AcDbSymbolTableRecord
100
AcDbLayerTableRecord
  2
NOTE
 70
0
 62
7
  6
CONTINUOUS
370
-3
390
F
  0
LAYER
  5
20C
100
AcDbSymbolTableRecord
100
AcDbLayerTableRecord
  2
PIANI
 70
0
 62
7
  6
CONTINUOUS
370
-3
390
F
  0
LAYER
  5
20D
100
AcDbSymbolTableRecord
100
AcDbLayerTableRecord
  2
PIANI_ORIGINE
 70
0
 62
7
  6
CONTINUOUS
370
-3
390
F
  0
LAYER
  5
20E
100
AcDbSymbolTableRecord
100
AcDbLayerTableRecord
  2
PUNTI
 70
0
 62
7
  6
CONTINUOUS
370
-3
390
F
  0
LAYER
  5
20F
100
AcDbSymbolTableRecord
100
AcDbLayerTableRecord
  2
RACCORDO
 70
0
 62
7
  6
CONTINUOUS
370
-3
390
F
  0
LAYER
  5
210
100
AcDbSymbolTableRecord
100
AcDbLayerTableRecord
  2
RGB____0____0____0__
 70
0
 62
7
  6
CONTINUOUS
370
-3
390
F
  0
LAYER
  5
211
100
AcDbSymbolTableRecord
100
AcDbLayerTableRecord
  2
SIMBOLI
 70
0
 62
7
  6
CONTINUOUS
370
-3
390
F
  0
LAYER
  5
212
100
AcDbSymbolTableRecord
100
AcDbLayerTableRecord
  2
SMUSSO
 70
0
 62
7
  6
CONTINUOUS
370
-3
390
F
  0
LAYER
  5
213
100
AcDbSymbolTableRecord
100
AcDbLayerTableRecord
  2
SNAPLINE
 70
0
 62
7
  6
CONTINUOUS
370
-3
390
F
  0
LAYER
  5
214
100
AcDbSymbolTableRecord
100
AcDbLayerTableRecord
  2
SUPERFICI
 70
0
 62
7
  6
CONTINUOUS
370
-3
390
F
  0
LAYER
  5
215
100
AcDbSymbolTableRecord
100
AcDbLayerTableRecord
  2
TRASH
 70
0
 62
7
  6
CONTINUOUS
370
-3
390
F
  0
ENDTAB
  0
TABLE
  2
STYLE
  5
3
100
AcDbSymbolTable
 70
1
  0
STYLE
  5
11
100
AcDbSymbolTableRecord
100
AcDbTextStyleTableRecord
  2
STANDARD
 70
0
 40
0.0
 41
0.8
 50
0.0
 71
0
 42
0.2
  3
txt
  4

  0
STYLE
  5
216
100
AcDbSymbolTableRecord
100
AcDbTextStyleTableRecord
  2
TEXTSTYLE_1
 70
0
 40
0.0
 41
0.8
 50
0.0
 71
0
 42
0.2
  3
gdt
  4

  0
ENDTAB
  0
TABLE
  2
VIEW
  5
6
100
AcDbSymbolTable
 70
0
  0
ENDTAB
  0
TABLE
  2
UCS
  5
7
100
AcDbSymbolTable
 70
0
  0
ENDTAB
  0
TABLE
  2
APPID
  5
9
100
AcDbSymbolTable
 70
1
  0
APPID
  5
217
100
AcDbSymbolTableRecord
100
AcDbRegAppTableRecord
  2
ACAD
 70
0
  0
ENDTAB
  0
TABLE
  2
BLOCK_RECORD
  5
1
100
AcDbSymbolTable
 70
0
  0
BLOCK_RECORD
  5
218
100
AcDbSymbolTableRecord
100
AcDbBlockTableRecord
  2
*Model_Space
  0
BLOCK_RECORD
  5
219
100
AcDbSymbolTableRecord
100
AcDbBlockTableRecord
  2
*Paper_Space
  0
BLOCK_RECORD
  5
21A
100
AcDbSymbolTableRecord
100
AcDbBlockTableRecord
  2
_FILLED
  0
ENDTAB
  0
TABLE
  2
DIMSTYLE
  5
A
100
AcDbSymbolTable
 70
1
100
AcDbDimStyleTable
 71
0
  0
DIMSTYLE
105
21B
100
AcDbSymbolTableRecord
100
AcDbDimStyleTableRecord
  2
STANDARD
 70
0
  3

  4

 40
1.0
 41
3.0
 42
0.5
 43
0.38
 44
1.5
 45
0.0
 46
0.0
 47
0.01
 48
0.01
140
3.0
141
0.0
142
0.0
143
25.4
144
1.0
145
0.0
146
1.0
147
0.625
 71
1
 72
0
 73
0
 74
0
 75
0
 76
0
 77
1
 78
8
 79
2
170
0
171
1
172
0
173
0
174
0
175
0
176
0
177
0
178
0
270
2
179
2
271
2
272
2
273
2
274
2
275
0
280
0
281
0
282
0
283
1
284
8
285
0
286
0
287
3
288
0
340
11
278
44
341
21A
342
21A
343
21A
344
21A
  0
ENDTAB
  0
ENDSEC
  0
SECTION
  2
BLOCKS
  0
BLOCK
  5
20
100
AcDbEntity
  8
0
100
AcDbBlockBegin
  2
*Model_Space
 70
0
 10
0.0
 20
0.0
 30
0.0
  3
*Model_Space
  1

  0
ENDBLK
  5
21
100
AcDbEntity
  8
0
100
AcDbBlockEnd
  0
BLOCK
  5
1C
100
AcDbEntity
  8
0
100
AcDbBlockBegin
  2
*Paper_Space
 70
0
 10
0.0
 20
0.0
 30
0.0
  3
*Paper_Space
  1

  0
ENDBLK
  5
1D
100
AcDbEntity
  8
0
100
AcDbBlockEnd
  0
BLOCK
  5
21C
100
AcDbEntity
  8
0
100
AcDbBlockBegin
  2
_FILLED
 70
64
 10
0.0
 20
0.0
 30
0.0
  3
_FILLED
  1

  0
SOLID
  5
21D
100
AcDbEntity
  8
0
  6
BYBLOCK
 62
0
100
AcDbTrace
 10
0.0
 20
0.0
 30
0.0
 11
-1.0
 21
0.3166666667
 31
0.0
 12
-1.0
 22
-0.3166666667
 32
0.0
 13
-1.0
 23
-0.3166666667
 33
0.0
  0
ENDBLK
  5
21E
100
AcDbEntity
  8
0
  6
BYBLOCK
 62
0
100
AcDbBlockEnd
  0
ENDSEC
  0
SECTION
  2
ENTITIES
  0
LWPOLYLINE
  5
21F
100
AcDbEntity
  8
RACCORDO
100
AcDbPolyline
 62
250
  6
CONTINUOUS
 90
5
 70
0
 10
-34.9988473941
 20
53.7993536965
 10
-34.9913737447
 20
53.8057677399
 10
-34.9775671203
 20
53.81118594
 10
-34.9606481355
 20
53.8130340801
 10
-34.9410791747
 20
53.8116374737
  0
LWPOLYLINE
  5
220
100
AcDbEntity
  8
RACCORDO
100
AcDbPolyline
 62
7
  6
CONTINUOUS
 90
15
 70
0
 10
-39.4364005949
 20
50.9394251232
 10
-39.488864308
 20
50.8987711045
 10
-39.5390609878
 20
50.8535780149
 10
-39.5866553231
 20
50.8038589802
 10
-39.6312176333
 20
50.7497614958
 10
-39.6722883721
 20
50.6915728773
 10
-39.709600975
 20
50.6294386692
 10
-39.7428797336
 20
50.5635786716
 10
-39.7718092503
 20
50.4944094623
 10
-39.7962410226
 20
50.4221275901
 10
-39.8160609595
 20
50.3469033715
 10
-39.8311333553
 20
50.2690493368
 10
-39.8413857734
 20
50.1887447968
 10
-39.8467696724
 20
50.1061026491
 10
-39.8476317819
 20
50.0565011946
  0
LWPOLYLINE
  5
221
100
AcDbEntity
  8
RACCORDO
100
AcDbPolyline
 62
7
  6
CONTINUOUS
 90
9
 70
0
 10
-34.9877826484
 20
54.0500340248
 10
-35.0021147009
 20
54.0392055108
 10
-35.0233932965
 20
54.0184857328
 10
-35.0408246788
 20
53.9953616387
 10
-35.0543805135
 20
53.9705819859
 10
-35.0643142225
 20
53.9445278674
 10
-35.0707114952
 20
53.9184013625
 10
-35.0741087671
 20
53.8927978667
 10
-35.0751150791
 20
53.8673895543
  0
LWPOLYLINE
  5
222
100
AcDbEntity
  8
RACCORDO
100
AcDbPolyline
 62
250
  6
CONTINUOUS
 90
13
 70
0
 10
-34.7279005899
 20
54.0031883466
 10
-34.741063408
 20
53.9936053757
 10
-34.7529354965
 20
53.9819336103
 10
-34.7635515404
 20
53.9684336772
 10
-34.77311456
 20
53.9534296835
 10
-34.7815784783
 20
53.9371880269
 10
-34.7885063514
 20
53.9198804145
 10
-34.7937457621
 20
53.9017714064
 10
-34.79737895
 20
53.8831957907
 10
-34.7992254604
 20
53.8644153034
 10
-34.7992418395
 20
53.8457256162
 10
-34.7975365896
 20
53.8274541762
 10
-34.7941884833
 20
53.8099054564
  0
LINE
  5
223
100
AcDbEntity
  8
RACCORDO
100
AcDbLine
 62
7
  6
CONTINUOUS
 10
-39.4364005949
 20
50.9394251232
 30
0.0
 11
-35.2409939791
 21
53.8977042276
 31
0.0
  0
LINE
  5
224
100
AcDbEntity
  8
RACCORDO
100
AcDbLine
 62
250
  6
CONTINUOUS
 10
-38.6343121037
 20
50.8997527752
 30
0.0
 11
-34.7371604713
 21
53.6476883849
 31
0.0
  0
LINE
  5
225
100
AcDbEntity
  8
RACCORDO
100
AcDbLine
 62
7
  6
CONTINUOUS
 10
-39.4297987591
 20
50.9441195757
 30
0.0
 11
-39.4302467219
 21
50.9438040779
 31
0.0
  0
LWPOLYLINE
  5
226
100
AcDbEntity
  8
RACCORDO
100
AcDbPolyline
 62
250
  6
CONTINUOUS
 90
13
 70
0
 10
-34.3870112638
 20
53.8723420057
 10
-34.400422971
 20
53.8629307468
 10
-34.4135429245
 20
53.8517359389
 10
-34.42615892
 20
53.8389386487
 10
-34.4380669041
 20
53.8247458619
 10
-34.449074275
 20
53.8093871349
 10
-34.4590029975
 20
53.7931108825
 10
-34.4676924828
 20
53.7761803598
 10
-34.4750021857
 20
53.7588694038
 10
-34.4808138776
 20
53.7414580051
 10
-34.4850335594
 20
53.7242277786
 10
-34.4875929811
 20
53.7074574089
 10
-34.4884507462
 20
53.6914181431
  0
LINE
  5
227
100
AcDbEntity
  8
RACCORDO
100
AcDbLine
 62
7
  6
CONTINUOUS
 10
-34.9877659536
 20
54.0500453488
 30
0.0
 11
-32.7295262711
 21
55.5920238997
 31
0.0
  0
LINE
  5
228
100
AcDbEntity
  8
RACCORDO
100
AcDbLine
 62
250
  6
CONTINUOUS
 10
-34.3870112638
 20
53.8723420057
 30
0.0
 11
-31.9481449314
 21
55.5376563741
 31
0.0
  0
LINE
  5
229
100
AcDbEntity
  8
RACCORDO
100
AcDbLine
 62
250
  6
CONTINUOUS
 10
-30.6708645936
 20
55.6471454693
 30
0.0
 11
-31.4173476425
 21
55.231180672
 31
0.0
  0
LINE
  5
22A
100
AcDbEntity
  8
DRAFT
100
AcDbLine
 62
7
  6
CONTINUOUS
 10
-31.0338809415
 20
55.6861351393
 30
0.0
 11
-31.6342304785
 21
55.3564061033
 31
0.0
  0
LINE
  5
22B
100
AcDbEntity
  8
RACCORDO
100
AcDbLine
 62
250
  6
CONTINUOUS
 10
-31.0338809415
 20
55.6861351393
 30
0.0
 11
-31.0244267669
 21
55.6910633739
 31
0.0
  0
LWPOLYLINE
  5
22C
100
AcDbEntity
  8
RACCORDO
100
AcDbPolyline
 62
250
  6
CONTINUOUS
 90
10
 70
0
 10
-34.9876254088
 20
54.0501415547
 10
-34.971449811
 20
54.0584357128
 10
-34.950987794
 20
54.0633626851
 10
-34.9272907158
 20
54.0644910142
 10
-34.9006082148
 20
54.0620004903
 10
-34.8712332116
 20
54.0560072754
 10
-34.839070867
 20
54.0469211294
 10
-34.8042499602
 20
54.0350029436
 10
-34.7671208224
 20
54.0203600571
 10
-34.7279053101
 20
54.0031892279
  0
LWPOLYLINE
  5
22D
100
AcDbEntity
  8
RACCORDO
100
AcDbPolyline
 62
250
  6
CONTINUOUS
 90
11
 70
0
 10
-31.0244267669
 20
55.6910633739
 10
-30.9949622778
 20
55.703328871
 10
-30.9636853014
 20
55.7119235602
 10
-30.9307707519
 20
55.7167993759
 10
-30.8964027015
 20
55.7179290501
 10
-30.8607733499
 20
55.7153062654
 10
-30.8240819514
 20
55.7089456893
 10
-30.7865337018
 20
55.6988828936
 10
-30.7483385871
 20
55.6851741546
 10
-30.7097102092
 20
55.6678961377
 10
-30.6708645936
 20
55.6471454693
  0
LINE
  5
22E
100
AcDbEntity
  8
0
100
AcDbLine
 62
250
  6
CONTINUOUS
 10
-23.6032753999
 20
52.0914189969
 30
0.0
 11
-24.0017828871
 21
51.8613257683
 31
0.0
  0
LWPOLYLINE
  5
22F
100
AcDbEntity
  8
RACCORDO
100
AcDbPolyline
 62
250
  6
CONTINUOUS
 90
19
 70
0
 10
-39.0363719066
 20
50.1783976843
 10
-39.0348632563
 20
50.2205447031
 10
-39.0303480196
 20
50.2641341816
 10
-39.0228582988
 20
50.3088561209
 10
-39.0124473503
 20
50.3543924672
 10
-38.9991892066
 20
50.4004193713
 10
-38.9831781503
 20
50.4466094924
 10
-38.9645280424
 20
50.4926343301
 10
-38.9433715139
 20
50.5381665557
 10
-38.9198590246
 20
50.5828823385
 10
-38.894157788
 20
50.6264636587
 10
-38.8664505861
 20
50.6686005615
 10
-38.8369344724
 20
50.7089933579
 10
-38.8058193619
 20
50.7473547697
 10
-38.7733265433
 20
50.7834119636
 10
-38.7396871115
 20
50.816908487
 10
-38.7051403127
 20
50.8476061044
 10
-38.6699318421
 20
50.8752864904
 10
-38.6343121037
 20
50.8997527752
  0
LWPOLYLINE
  5
230
100
AcDbEntity
  8
RACCORDO
100
AcDbPolyline
 62
250
  6
CONTINUOUS
 90
11
 70
0
 10
28.757981747
 20
-52.3696180516
 10
28.7632089196
 20
-52.3711406777
 10
28.7811936842
 20
-52.3748136591
 10
28.799840393
 20
-52.3771389735
 10
28.8188474509
 20
-52.3780790107
 10
28.8379074345
 20
-52.3776185664
 10
28.8567120643
 20
-52.375765088
 10
28.8749571909
 20
-52.3725485539
 10
28.8923477144
 20
-52.3680209889
 10
28.9086023575
 20
-52.3622556226
 10
28.9234582148
 20
-52.3553457051
  0
LWPOLYLINE
  5
231
100
AcDbEntity
  8
RACCORDO
100
AcDbPolyline
 62
250
  6
CONTINUOUS
 90
11
 70
0
 10
-39.0363719066
 20
-20.0779894306
 10
-39.0348632274
 20
-20.1183946166
 10
-39.0303479192
 20
-20.1567702567
 10
-39.0228580949
 20
-20.1928434238
 10
-39.0124470221
 20
-20.2263575664
 10
-38.9991887441
 20
-20.2570743324
 10
-38.9831775535
 20
-20.2847752646
 10
-38.9645273216
 20
-20.3092633547
 10
-38.9433706885
 20
-20.3303644437
 10
-38.9198581199
 20
-20.347928461
 10
-38.912122334
 20
-20.3526315473
  0
LWPOLYLINE
  5
232
100
AcDbEntity
  8
RACCORDO
100
AcDbPolyline
 62
7
  6
CONTINUOUS
 90
24
 70
0
 10
-39.8476316685
 20
-18.73205161
 10
-39.8447233783
 20
-18.8249557296
 10
-39.8370787136
 20
-18.9104287138
 10
-39.824833499
 20
-18.9961140749
 10
-39.8081447742
 20
-19.0817737528
 10
-39.7872448
 20
-19.1669104178
 10
-39.7623124808
 20
-19.2513285118
 10
-39.7334826107
 20
-19.3349482986
 10
-39.7009807502
 20
-19.4173634177
 10
-39.6650083102
 20
-19.4983110369
 10
-39.6256576663
 20
-19.5777439382
 10
-39.5830274749
 20
-19.6555328206
 10
-39.537229866
 20
-19.7315056936
 10
-39.488356779
 20
-19.8054798215
 10
-39.4364725381
 20
-19.8773071412
 10
-39.381571304
 20
-19.9468809206
 10
-39.3237803337
 20
-20.0139005
 10
-39.2633325804
 20
-20.0779693731
 10
-39.200229559
 20
-20.1389297371
 10
-39.1345511019
 20
-20.196530401
 10
-39.0666039107
 20
-20.2503226057
 10
-38.9965136807
 20
-20.3000502087
 10
-38.9242617144
 20
-20.3455433278
 10
-38.9119444182
 20
-20.3527341519
  0
LWPOLYLINE
  5
233
100
AcDbEntity
  8
RACCORDO
100
AcDbPolyline
 62
250
  6
CONTINUOUS
 90
28
 70
0
 10
-39.671895851
 20
-18.9772296707
 10
-39.6706813929
 20
-19.021366229
 10
-39.6674402801
 20
-19.0659102445
 10
-39.6621725125
 20
-19.110861717
 10
-39.6548550404
 20
-19.1562362946
 10
-39.6455109136
 20
-19.2020183293
 10
-39.6342092814
 20
-19.2481608774
 10
-39.620919692
 20
-19.2948211423
 10
-39.6056725972
 20
-19.3418419205
 10
-39.5886285023
 20
-19.3887046582
 10
-39.5697755187
 20
-19.4353828581
 10
-39.5491255349
 20
-19.4819030173
 10
-39.5268747219
 20
-19.5278260739
 10
-39.5030006905
 20
-19.5731577551
 10
-39.4775258298
 20
-19.6178923336
 10
-39.4507134788
 20
-19.6615735653
 10
-39.422654556
 20
-19.7040798902
 10
-39.3932581428
 20
-19.7455328683
 10
-39.362514822
 20
-19.7858409353
 10
-39.3303374399
 20
-19.8251391695
 10
-39.2968131502
 20
-19.8632924927
 10
-39.2621939969
 20
-19.8998041053
 10
-39.22640174
 20
-19.9347089569
 10
-39.1895146195
 20
-19.967972098
 10
-39.1520193995
 20
-19.9989918807
 10
-39.1140783347
 20
-20.0275677557
 10
-39.0755291704
 20
-20.0539002723
 10
-39.0363719066
 20
-20.0779894306
  0
LINE
  5
234
100
AcDbEntity
  8
RACCORDO
100
AcDbLine
 62
250
  6
CONTINUOUS
 10
-39.8474261296
 20
-18.741334532
 30
0.0
 11
-39.8476317823
 21
-18.7322649373
 31
0.0
  0
LINE
  5
235
100
AcDbEntity
  8
RACCORDO
100
AcDbLine
 62
7
  6
CONTINUOUS
 10
-39.8476317823
 20
50.0564898014
 30
0.0
 11
-39.8476317823
 21
-18.7322649373
 31
0.0
  0
LINE
  5
236
100
AcDbEntity
  8
RACCORDO
100
AcDbLine
 62
250
  6
CONTINUOUS
 10
-39.671895851
 20
49.8115250454
 30
0.0
 11
-39.671895851
 21
-18.9772296707
 31
0.0
  0
LWPOLYLINE
  5
237
100
AcDbEntity
  8
RACCORDO
100
AcDbPolyline
 62
7
  6
CONTINUOUS
 90
3
 70
0
 10
-24.6224564246
 20
29.4754829727
 10
-24.626094854
 20
29.4720321246
 10
-24.6303121021
 20
29.4689868951
  0
LWPOLYLINE
  5
238
100
AcDbEntity
  8
RACCORDO
100
AcDbPolyline
 62
7
  6
CONTINUOUS
 90
13
 70
0
 10
-24.8662384342
 20
29.3230726268
 10
-24.8788011296
 20
29.3147375622
 10
-24.8951096727
 20
29.3020231031
 10
-24.9104341819
 20
29.2877164961
 10
-24.9245950287
 20
29.2718948072
 10
-24.9374322733
 20
29.2546617159
 10
-24.948812028
 20
29.2361235854
 10
-24.9586186637
 20
29.2163853683
 10
-24.9667269717
 20
29.1956131036
 10
-24.9730464349
 20
29.1739770878
 10
-24.9775369165
 20
29.1516155827
 10
-24.9801712105
 20
29.1286628067
 10
-24.9809338441
 20
29.1077216103
  0
LINE
  5
239
100
AcDbEntity
  8
RACCORDO
100
AcDbLine
 62
7
  6
CONTINUOUS
 10
-24.8662881603
 20
29.3230558239
 30
0.0
 11
-24.6303956445
 21
29.4689352941
 31
0.0
  0
LINE
  5
23A
100
AcDbEntity
  8
RACCORDO
100
AcDbLine
 62
250
  6
CONTINUOUS
 10
-24.7127020812
 20
29.3103601714
 30
0.0
 11
-24.5037970396
 21
29.4395501828
 31
0.0
  0
LWPOLYLINE
  5
23B
100
AcDbEntity
  8
RACCORDO
100
AcDbPolyline
 62
250
  6
CONTINUOUS
 90
6
 70
0
 10
-24.6303129415
 20
29.4689863856
 10
-24.6277962756
 20
29.4704885358
 10
-24.6142722869
 20
29.4770497659
 10
-24.5993824548
 20
29.4819196934
 10
-24.5832146687
 20
29.4850122566
 10
-24.5826127619
 20
29.485057393
  0
LINE
  5
23C
100
AcDbEntity
  8
RACCORDO
100
AcDbLine
 62
7
  6
CONTINUOUS
 10
-25.0784640304
 20
29.7203751147
 30
0.0
 11
-25.0783915523
 21
29.7204141141
 31
0.0
  0
LINE
  5
23D
100
AcDbEntity
  8
RACCORDO
100
AcDbLine
 62
250
  6
CONTINUOUS
 10
-24.8773774937
 20
29.6552508549
 30
0.0
 11
-25.18527051
 21
29.4896759545
 31
0.0
  0
LWPOLYLINE
  5
23E
100
AcDbEntity
  8
RACCORDO
100
AcDbPolyline
 62
7
  6
CONTINUOUS
 90
13
 70
0
 10
-25.0784747797
 20
29.7203688479
 10
-25.0751679195
 20
29.7219383294
 10
-25.0701421365
 20
29.7236388912
 10
-25.0634145886
 20
29.7250312041
 10
-25.0547875335
 20
29.7258256844
 10
-25.0441658999
 20
29.7257227866
 10
-25.0315581254
 20
29.7244320638
 10
-25.016972638
 20
29.7216862083
 10
-25.0007009264
 20
29.7173059975
 10
-24.9832589596
 20
29.7112762588
 10
-24.964963536
 20
29.7036309974
 10
-24.9459519159
 20
29.6943742232
 10
-24.9293346106
 20
29.6852502514
  0
LWPOLYLINE
  5
23F
100
AcDbEntity
  8
RACCORDO
100
AcDbPolyline
 62
250
  6
CONTINUOUS
 90
19
 70
0
 10
22.5880939297
 20
-54.9253674692
 10
22.6253500664
 20
-54.9451365105
 10
22.6653585967
 20
-54.9630227698
 10
22.7078349807
 20
-54.9788990403
 10
22.7524771269
 20
-54.9926524101
 10
22.7989675413
 20
-55.0041850655
 10
22.8469755849
 20
-55.0134149866
 10
22.8961598253
 20
-55.0202765303
 10
22.9461704651
 20
-55.0247208974
 10
22.9966518294
 20
-55.0267164796
 10
23.0472448958
 20
-55.0262490845
 10
23.0975898471
 20
-55.023322036
 10
23.147328631
 20
-55.0179561514
 10
23.1961075062
 20
-55.0101895926
 10
23.2435795581
 20
-55.0000775954
 10
23.2894071664
 20
-54.9876920761
 10
23.3332644058
 20
-54.9731211202
 10
23.3748393646
 20
-54.9564683562
 10
23.4138363622
 20
-54.9378522182
  0
LWPOLYLINE
  5
240
100
AcDbEntity
  8
RACCORDO
100
AcDbPolyline
 62
250
  6
CONTINUOUS
 90
28
 70
0
 10
21.9525699854
 20
-55.2922401081
 10
21.9901873098
 20
-55.3125575895
 10
22.0271440886
 20
-55.3301535762
 10
22.0634403216
 20
-55.3450280682
 10
22.0990780348
 20
-55.3571556204
 10
22.1340552022
 20
-55.3665616779
 10
22.1683657463
 20
-55.3733225756
 10
22.2021305859
 20
-55.3774729692
 10
22.2352288021
 20
-55.3789782031
 10
22.2672915599
 20
-55.377810646
 10
22.2982899662
 20
-55.3739398883
 10
22.3282529141
 20
-55.3673963396
 10
22.3568982473
 20
-55.358243598
 10
22.3842197302
 20
-55.3464522109
 10
22.4102235984
 20
-55.3320516309
 10
22.4346464022
 20
-55.315193813
 10
22.457428328
 20
-55.295949202
 10
22.4786291895
 20
-55.2742473531
 10
22.4981649781
 20
-55.2500288872
 10
22.5161090978
 20
-55.2232355535
 10
22.5323881445
 20
-55.1939256028
 10
22.5466978977
 20
-55.1622144078
 10
22.5590295017
 20
-55.1280065145
 10
22.5693918121
 20
-55.091397377
 10
22.5775071755
 20
-55.0527887302
 10
22.5832830407
 20
-55.0123144858
 10
22.5868119587
 20
-54.9698407321
 10
22.5880939297
 20
-54.9253674692
  0
LWPOLYLINE
  5
241
100
AcDbEntity
  8
RACCORDO
100
AcDbPolyline
 62
7
  6
CONTINUOUS
 90
16
 70
0
 10
22.0768295539
 20
-55.5668879959
 10
22.1176550043
 20
-55.589578501
 10
22.1920679175
 20
-55.6265038816
 10
22.2668992468
 20
-55.6580202179
 10
22.3420277904
 20
-55.6841140712
 10
22.4172643491
 20
-55.704759608
 10
22.4922689287
 20
-55.7199139229
 10
22.5668361938
 20
-55.7295901369
 10
22.64072024
 20
-55.7338199516
 10
22.7133987565
 20
-55.7326631133
 10
22.7845405067
 20
-55.7262455186
 10
22.8538860602
 20
-55.7147301783
 10
22.9209524269
 20
-55.6983705032
 10
22.9853924387
 20
-55.6774630695
 10
23.047024514
 20
-55.6522926671
 10
23.0545423443
 20
-55.6488525381
  0
LINE
  5
242
100
AcDbEntity
  8
RACCORDO
100
AcDbLine
 62
7
  6
CONTINUOUS
 10
-38.912122334
 20
-20.3526315473
 30
0.0
 11
22.0768195776
 21
-55.5668822361
 31
0.0
  0
LINE
  5
243
100
AcDbEntity
  8
RACCORDO
100
AcDbLine
 62
250
  6
CONTINUOUS
 10
-39.0363719066
 20
-20.0779894306
 30
0.0
 11
21.9525699854
 21
-55.2922401081
 31
0.0
  0
LWPOLYLINE
  5
244
100
AcDbEntity
  8
RACCORDO
100
AcDbPolyline
 62
250
  6
CONTINUOUS
 90
10
 70
0
 10
-39.671895851
 20
-18.9772296707
 10
-39.7061343593
 20
-18.9557186335
 10
-39.7371120909
 20
-18.9326183974
 10
-39.7646087249
 20
-18.9080932437
 10
-39.7884286967
 20
-18.8823175881
 10
-39.8084025884
 20
-18.8554747413
 10
-39.8243883339
 20
-18.8277556058
 10
-39.836272231
 20
-18.7993573154
 10
-39.8439697488
 20
-18.7704818362
 10
-39.8473105672
 20
-18.7423090585
  0
LINE
  5
245
100
AcDbEntity
  8
RACCORDO
100
AcDbLine
 62
7
  6
CONTINUOUS
 10
-35.0751150791
 20
53.8673895543
 30
0.0
 11
-35.0741241472
 21
53.8418513814
 31
0.0
  0
LWPOLYLINE
  5
246
100
AcDbEntity
  8
RACCORDO
100
AcDbPolyline
 62
250
  6
CONTINUOUS
 90
10
 70
0
 10
-34.7941884833
 20
53.8099054564
 10
-34.7938781219
 20
53.8007225308
 10
-34.7929381083
 20
53.791877681
 10
-34.7913578966
 20
53.7834350516
 10
-34.7891138492
 20
53.7754069261
 10
-34.7862125166
 20
53.7679168733
 10
-34.7827327261
 20
53.7611574178
 10
-34.7787461965
 20
53.7551857606
 10
-34.7742752082
 20
53.7499659015
 10
-34.7693645218
 20
53.7455032582
  0
LINE
  5
247
100
AcDbEntity
  8
0
100
AcDbLine
 62
7
  6
CONTINUOUS
 10
1.6899341631
 20
37.4874367936
 30
0.0
 11
1.2914266759
 21
37.2573435649
 31
0.0
  0
LINE
  5
248
100
AcDbEntity
  8
0
100
AcDbLine
 62
7
  6
CONTINUOUS
 10
1.73236057
 20
37.462940318
 30
0.0
 11
1.3338530828
 21
37.2328470893
 31
0.0
  0
LWPOLYLINE
  5
249
100
AcDbEntity
  8
RACCORDO
100
AcDbPolyline
 62
250
  6
CONTINUOUS
 90
3
 70
0
 10
-24.6225984965
 20
29.4753482254
 10
-24.6220316265
 20
29.4824602574
 10
-24.6185211848
 20
29.5057904664
  0
LWPOLYLINE
  5
24A
100
AcDbEntity
  8
RACCORDO
100
AcDbPolyline
 62
7
  6
CONTINUOUS
 90
7
 70
0
 10
-24.6215440893
 20
29.4696395649
 10
-24.6207519059
 20
29.4733413922
 10
-24.6193345038
 20
29.4784850334
 10
-24.6185671076
 20
29.480602738
 10
-24.6187871549
 20
29.4802823451
 10
-24.6200654147
 20
29.4783770034
 10
-24.6224564246
 20
29.4754829727
  0
LWPOLYLINE
  5
24B
100
AcDbEntity
  8
0
100
AcDbPolyline
 62
7
  6
CONTINUOUS
 90
10
 70
0
 10
-5.4972360587
 20
-31.1347406522
 10
-5.4896585813
 20
-31.1371891345
 10
-5.4821449808
 20
-31.1386751893
 10
-5.4746952572
 20
-31.1391988165
 10
-5.4673448453
 20
-31.1385915789
 10
-5.4600583104
 20
-31.1370219137
 10
-5.4527293478
 20
-31.1349951324
 10
-5.44534506
 20
-31.1325938324
 10
-5.4379183446
 20
-31.1297354164
 10
-5.422700175
 20
-31.1235352947
  0
LWPOLYLINE
  5
24C
100
AcDbEntity
  8
0
100
AcDbPolyline
 62
7
  6
CONTINUOUS
 90
4
 70
0
 10
-5.4760228552
 20
-31.1224924144
 10
-5.4684546867
 20
-31.1249894153
 10
-5.460851984
 20
-31.1264732922
 10
-5.4532147469
 20
-31.1269440449
  0
LWPOLYLINE
  5
24D
100
AcDbEntity
  8
0
100
AcDbPolyline
 62
7
  6
CONTINUOUS
 90
10
 70
0
 10
-6.0693649379
 20
-30.0514042762
 10
-6.0366848363
 20
-30.0640062411
 10
-6.004171127
 20
-30.0777420986
 10
-5.9718238099
 20
-30.0926118489
 10
-5.9396769104
 20
-30.1085917383
 10
-5.9076964032
 20
-30.1257055203
 10
-5.8757802122
 20
-30.1440244558
 10
-5.8438943121
 20
-30.1635722983
 10
-5.8120727283
 20
-30.1843252942
 10
-5.7803154607
 20
-30.2062834435
  0
LWPOLYLINE
  5
24E
100
AcDbEntity
  8
0
100
AcDbPolyline
 62
7
  6
CONTINUOUS
 90
10
 70
0
 10
-6.0905781413
 20
-30.063652514
 10
-6.0573454892
 20
-30.0765102671
 10
-6.0244595683
 20
-30.0904237651
 10
-5.9919203785
 20
-30.1053930081
 10
-5.9598182135
 20
-30.121375308
 10
-5.9280627797
 20
-30.1384133529
 10
-5.896383196
 20
-30.1566352063
 10
-5.8646891687
 20
-30.1760835561
 10
-5.8330709914
 20
-30.1967157144
 10
-5.8015286641
 20
-30.2185316813
  0
LWPOLYLINE
  5
24F
100
AcDbEntity
  8
RACCORDO
100
AcDbPolyline
 62
250
  6
CONTINUOUS
 90
3
 70
0
 10
8.3232429753
 20
-34.1527092239
 10
8.3133343649
 20
-34.1488201191
 10
8.3068288608
 20
-34.1457252683
  0
LWPOLYLINE
  5
250
100
AcDbEntity
  8
RACCORDO
100
AcDbPolyline
 62
250
  6
CONTINUOUS
 90
13
 70
0
 10
7.8385532817
 20
-34.1398902151
 10
7.8579917039
 20
-34.1497474101
 10
7.8794712286
 20
-34.1580733612
 10
7.9026324456
 20
-34.1647287531
 10
7.9270878056
 20
-34.169602223
 10
7.9524281044
 20
-34.1726122247
 10
7.9782293309
 20
-34.1737083928
 10
8.004059761
 20
-34.1728723855
 10
8.0294871823
 20
-34.1701181913
 10
8.0540861255
 20
-34.1654918955
 10
8.0774449842
 20
-34.1590709082
 10
8.0991729019
 20
-34.15096267
 10
8.1189063121
 20
-34.1413028535
  0
LWPOLYLINE
  5
251
100
AcDbEntity
  8
RACCORDO
100
AcDbPolyline
 62
250
  6
CONTINUOUS
 90
16
 70
0
 10
7.7678533732
 20
-34.1807035664
 10
7.7753899576
 20
-34.1845562716
 10
7.7826752318
 20
-34.187430121
 10
7.7897091959
 20
-34.1893251146
 10
7.7965558191
 20
-34.1902380945
 10
7.8031511322
 20
-34.1901722187
 10
7.8093032271
 20
-34.1891369612
 10
7.8150033538
 20
-34.1871091733
 10
7.8202602623
 20
-34.1841120038
 10
7.8249082944
 20
-34.1802243733
 10
7.828933915
 20
-34.1754157935
 10
7.8323506592
 20
-34.1697167528
 10
7.8350334733
 20
-34.1632976361
 10
7.8369406728
 20
-34.1562152384
 10
7.8381139423
 20
-34.1484127648
 10
7.8385532817
 20
-34.1398902151
  0
LINE
  5
252
100
AcDbEntity
  8
0
100
AcDbLine
 62
7
  6
CONTINUOUS
 10
-11.4562585298
 20
-28.6588381608
 30
0.0
 11
-11.1311096187
 21
-28.846575067
 31
0.0
  0
LINE
  5
253
100
AcDbEntity
  8
0
100
AcDbLine
 62
7
  6
CONTINUOUS
 10
-10.4260152634
 20
-29.2536877109
 30
0.0
 11
-10.0570518947
 21
-29.4667225357
 31
0.0
  0
LINE
  5
254
100
AcDbEntity
  8
0
100
AcDbLine
 62
7
  6
CONTINUOUS
 10
-9.8584277212
 20
-29.5814056442
 30
0.0
 11
-9.5054499155
 21
-29.7852106053
 31
0.0
  0
LINE
  5
255
100
AcDbEntity
  8
0
100
AcDbLine
 62
7
  6
CONTINUOUS
 10
-8.9929891251
 20
-30.0810990431
 30
0.0
 11
-8.9412416366
 21
-30.1109773944
 31
0.0
  0
LINE
  5
256
100
AcDbEntity
  8
0
100
AcDbLine
 62
7
  6
CONTINUOUS
 10
-8.426740136
 20
-30.4080441126
 30
0.0
 11
-8.0657960654
 21
-30.6164486953
 31
0.0
  0
LINE
  5
257
100
AcDbEntity
  8
0
100
AcDbLine
 62
7
  6
CONTINUOUS
 10
-8.0078585641
 20
-30.6499010824
 30
0.0
 11
-7.6428988341
 21
-30.8606242565
 31
0.0
  0
LINE
  5
258
100
AcDbEntity
  8
0
100
AcDbLine
 62
7
  6
CONTINUOUS
 10
-6.9430398974
 20
-31.2647140353
 30
0.0
 11
-6.5541679373
 21
-31.4892438313
 31
0.0
  0
LINE
  5
259
100
AcDbEntity
  8
0
100
AcDbLine
 62
7
  6
CONTINUOUS
 10
-6.4458225599
 20
-31.5518009152
 30
0.0
 11
-6.078343874
 21
-31.7639785029
 31
0.0
  0
LINE
  5
25A
100
AcDbEntity
  8
0
100
AcDbLine
 62
7
  6
CONTINUOUS
 10
-5.5133275002
 20
-32.0902118758
 30
0.0
 11
-5.1584277088
 21
-32.2951265674
 31
0.0
  0
LINE
  5
25B
100
AcDbEntity
  8
0
100
AcDbLine
 62
7
  6
CONTINUOUS
 10
-11.4350453264
 20
-28.646589923
 30
0.0
 11
-11.1242901887
 21
-28.8260160448
 31
0.0
  0
LINE
  5
25C
100
AcDbEntity
  8
0
100
AcDbLine
 62
7
  6
CONTINUOUS
 10
-10.4048020599
 20
-29.2414394731
 30
0.0
 11
-10.0570518947
 21
-29.4422260601
 31
0.0
  0
LINE
  5
25D
100
AcDbEntity
  8
0
100
AcDbLine
 62
7
  6
CONTINUOUS
 10
-9.8372145177
 20
-29.5691574064
 30
0.0
 11
-9.5039863791
 21
-29.7615591573
 31
0.0
  0
LINE
  5
25E
100
AcDbEntity
  8
0
100
AcDbLine
 62
7
  6
CONTINUOUS
 10
-8.9717759216
 20
-30.0688508053
 30
0.0
 11
-8.9306340098
 21
-30.0926056295
 31
0.0
  0
LINE
  5
25F
100
AcDbEntity
  8
0
100
AcDbLine
 62
7
  6
CONTINUOUS
 10
-8.4055269326
 20
-30.3957958748
 30
0.0
 11
-8.0677799265
 21
-30.5908067631
 31
0.0
  0
LINE
  5
260
100
AcDbEntity
  8
0
100
AcDbLine
 62
7
  6
CONTINUOUS
 10
-7.9866453607
 20
-30.6376528446
 30
0.0
 11
-7.6367777609
 21
-30.8396620118
 31
0.0
  0
LINE
  5
261
100
AcDbEntity
  8
0
100
AcDbLine
 62
7
  6
CONTINUOUS
 10
-6.9218266939
 20
-31.2524657975
 30
0.0
 11
-6.5606773032
 21
-31.4609889294
 31
0.0
  0
LINE
  5
262
100
AcDbEntity
  8
0
100
AcDbLine
 62
7
  6
CONTINUOUS
 10
-6.4246093565
 20
-31.5395526774
 30
0.0
 11
-6.078343874
 21
-31.7394820273
 31
0.0
  0
LINE
  5
263
100
AcDbEntity
  8
0
100
AcDbLine
 62
7
  6
CONTINUOUS
 10
-5.4921142968
 20
-32.077963638
 30
0.0
 11
-5.1640355998
 21
-32.2673921658
 31
0.0
  0
LINE
  5
264
100
AcDbEntity
  8
0
100
AcDbLine
 62
7
  6
CONTINUOUS
 10
-7.5410874784
 20
-30.5119607962
 30
0.0
 11
-7.0386209352
 21
-30.8020786809
 31
0.0
  0
LINE
  5
265
100
AcDbEntity
  8
0
100
AcDbLine
 62
7
  6
CONTINUOUS
 10
-7.5198742749
 20
-30.4997125584
 30
0.0
 11
-7.0174077318
 21
-30.7898304431
 31
0.0
  0
LINE
  5
266
100
AcDbEntity
  8
0
100
AcDbLine
 62
7
  6
CONTINUOUS
 10
-7.1123580303
 20
-30.444222176
 30
0.0
 11
-7.4656144361
 21
-30.2402563546
 31
0.0
  0
LINE
  5
267
100
AcDbEntity
  8
0
100
AcDbLine
 62
7
  6
CONTINUOUS
 10
-6.078343874
 20
-30.9652595806
 30
0.0
 11
-5.8805145785
 21
-31.0794837364
 31
0.0
  0
LINE
  5
268
100
AcDbEntity
  8
0
100
AcDbLine
 62
7
  6
CONTINUOUS
 10
-6.0571306705
 20
-30.9530113428
 30
0.0
 11
-5.859301375
 21
-31.0672354986
 31
0.0
  0
LINE
  5
269
100
AcDbEntity
  8
0
100
AcDbLine
 62
7
  6
CONTINUOUS
 10
-5.8797192848
 20
-30.7456830316
 30
0.0
 11
-6.0905781413
 21
-30.6239357706
 31
0.0
  0
LINE
  5
26A
100
AcDbEntity
  8
0
100
AcDbLine
 62
7
  6
CONTINUOUS
 10
-7.0965054034
 20
-29.1351448316
 30
0.0
 11
-7.4534331076
 21
-28.9290592486
 31
0.0
  0
LINE
  5
26B
100
AcDbEntity
  8
0
100
AcDbLine
 62
7
  6
CONTINUOUS
 10
-8.2310843968
 20
-28.4800531405
 30
0.0
 11
-8.596137465
 21
-28.2692760741
 31
0.0
  0
LINE
  5
26C
100
AcDbEntity
  8
0
100
AcDbLine
 62
7
  6
CONTINUOUS
 10
-9.3301673368
 20
-27.8454564256
 30
0.0
 11
-9.6988252354
 21
-27.6325979754
 31
0.0
  0
LINE
  5
26D
100
AcDbEntity
  8
0
100
AcDbLine
 62
7
  6
CONTINUOUS
 10
-10.5629387134
 20
-27.1336696831
 30
0.0
 11
-10.9316496449
 21
-26.9207806122
 31
0.0
  0
LINE
  5
26E
100
AcDbEntity
  8
0
100
AcDbLine
 62
7
  6
CONTINUOUS
 10
-11.6158079826
 20
-26.5257561625
 30
0.0
 11
-12.0166159052
 21
-26.2943346914
 31
0.0
  0
LINE
  5
26F
100
AcDbEntity
  8
0
100
AcDbLine
 62
7
  6
CONTINUOUS
 10
-10.0570518947
 20
-27.4256399214
 30
0.0
 11
-10.4260152634
 21
-27.2126050965
 31
0.0
  0
LWPOLYLINE
  5
270
100
AcDbEntity
  8
0
100
AcDbPolyline
 62
7
  6
CONTINUOUS
 90
16
 70
0
 10
-5.859301375
 20
-31.0672354986
 10
-5.8408735111
 20
-31.0788610622
 10
-5.8231833931
 20
-31.0915688283
 10
-5.8062310212
 20
-31.1053587969
 10
-5.7900532827
 20
-31.1201977881
 10
-5.7746132903
 20
-31.1361189817
 10
-5.7598003817
 20
-31.1532219173
 10
-5.7456372561
 20
-31.1714253718
 10
-5.7321012144
 20
-31.1908105682
 10
-5.7190134967
 20
-31.2117207151
 10
-5.7061697608
 20
-31.2344172184
 10
-5.6937743489
 20
-31.2586386723
 10
-5.6822615271
 20
-31.2839440678
 10
-5.6717760508
 20
-31.310186402
 10
-5.6621731646
 20
-31.3375126779
 10
-5.6534528686
 20
-31.3659228955
  0
LWPOLYLINE
  5
271
100
AcDbEntity
  8
0
100
AcDbPolyline
 62
7
  6
CONTINUOUS
 90
16
 70
0
 10
-5.8805145785
 20
-31.0794837364
 10
-5.8619631385
 20
-31.0911956957
 10
-5.8441634346
 20
-31.1039986701
 10
-5.827115467
 20
-31.1178926595
 10
-5.8108502905
 20
-31.1328570396
 10
-5.7953368501
 20
-31.1489124346
 10
-5.7804819813
 20
-31.1661207181
 10
-5.7663106184
 20
-31.1844112468
 10
-5.752797827
 20
-31.2038546638
 10
-5.7397756389
 20
-31.2247247725
 10
-5.7270748488
 20
-31.2471973748
 10
-5.714864662
 20
-31.2710966688
 10
-5.7034847261
 20
-31.2961690519
 10
-5.6930482572
 20
-31.3223299899
 10
-5.6834420391
 20
-31.3496640171
 10
-5.674666072
 20
-31.3781711333
  0
LWPOLYLINE
  5
272
100
AcDbEntity
  8
0
100
AcDbPolyline
 62
7
  6
CONTINUOUS
 90
16
 70
0
 10
-5.8015286641
 20
-30.2185316813
 10
-5.7771450696
 20
-30.2374862269
 10
-5.7540470218
 20
-30.2577366686
 10
-5.7322345207
 20
-30.2792830063
 10
-5.7115867234
 20
-30.3023183142
 10
-5.6922244729
 20
-30.3266495181
 10
-5.6745102981
 20
-30.3516973954
 10
-5.6585645478
 20
-30.3773189551
 10
-5.6442668733
 20
-30.4036571883
 10
-5.6316187568
 20
-30.4305618453
 10
-5.6205193974
 20
-30.4583376604
 10
-5.611069596
 20
-30.4866798992
 10
-5.6035732379
 20
-30.5145241086
 10
-5.5981316181
 20
-30.5415154709
 10
-5.5946434415
 20
-30.5680088039
 10
-5.5931087082
 20
-30.5940041075
  0
LWPOLYLINE
  5
273
100
AcDbEntity
  8
0
100
AcDbPolyline
 62
7
  6
CONTINUOUS
 90
16
 70
0
 10
-5.7803154607
 20
-30.2062834435
 10
-5.7556497072
 20
-30.2255037393
 10
-5.732339313
 20
-30.24597855
 10
-5.710384278
 20
-30.2677078757
 10
-5.6896498663
 20
-30.2909478982
 10
-5.6702708138
 20
-30.3154424356
 10
-5.6526513287
 20
-30.3404229423
 10
-5.6370110847
 20
-30.3655173012
 10
-5.623130408
 20
-30.3910976294
 10
-5.6107544859
 20
-30.4175117325
 10
-5.5996388867
 20
-30.4453364852
 10
-5.5900280419
 20
-30.4739950127
 10
-5.5824004332
 20
-30.5021044968
 10
-5.5769155544
 20
-30.5292039979
 10
-5.5734139116
 20
-30.5557544555
 10
-5.5718955048
 20
-30.5817558697
  0
LWPOLYLINE
  5
274
100
AcDbEntity
  8
RACCORDO
100
AcDbPolyline
 62
250
  6
CONTINUOUS
 90
7
 70
0
 10
-24.8516552944
 20
-15.3466080802
 10
-24.8504721146
 20
-15.3670035861
 10
-24.846942373
 20
-15.3856915139
 10
-24.8411251315
 20
-15.4023591644
 10
-24.8331177284
 20
-15.4167276429
 10
-24.823054149
 20
-15.4285565262
 10
-24.8102387702
 20
-15.4381554524
  0
LWPOLYLINE
  5
275
100
AcDbEntity
  8
RACCORDO
100
AcDbPolyline
 62
250
  6
CONTINUOUS
 90
16
 70
0
 10
-24.922355203
 20
-15.2241522467
 10
-24.9219231946
 20
-15.2331039006
 10
-24.9207691122
 20
-15.2421822924
 10
-24.9188929558
 20
-15.251387422
 10
-24.9162600025
 20
-15.2608132011
 10
-24.9129049753
 20
-15.270365718
 10
-24.9089320424
 20
-15.279763238
 10
-24.9043255312
 20
-15.2890047072
 10
-24.8991011144
 20
-15.2980911795
 10
-24.8934099785
 20
-15.3067440823
 10
-24.8872324873
 20
-15.3149591248
 10
-24.880588277
 20
-15.3227405978
 10
-24.8736874431
 20
-15.3298227999
 10
-24.8666000172
 20
-15.3361171642
 10
-24.8592559677
 20
-15.3417122576
 10
-24.8516552944
 20
-15.3466080802
  0
LWPOLYLINE
  5
276
100
AcDbEntity
  8
RACCORDO
100
AcDbPolyline
 62
250
  6
CONTINUOUS
 90
9
 70
0
 10
-24.9707241806
 20
29.7767820522
 10
-24.9699665646
 20
29.7603395854
 10
-24.9677018342
 20
29.7449481641
 10
-24.9639542544
 20
29.7307726967
 10
-24.9587639777
 20
29.7179650635
 10
-24.9521866145
 20
29.7066624895
 10
-24.9442926367
 20
29.6969860738
 10
-24.9351666227
 20
29.6890394927
 10
-24.9293346104
 20
29.6852502513
  0
LWPOLYLINE
  5
277
100
AcDbEntity
  8
RACCORDO
100
AcDbPolyline
 62
7
  6
CONTINUOUS
 90
15
 70
0
 10
-24.9809338081
 20
-15.1424255741
 10
-24.9799878875
 20
-15.1661809349
 10
-24.9768560573
 20
-15.192057574
 10
-24.9715268568
 20
-15.2181414558
 10
-24.9639628965
 20
-15.2443260798
 10
-24.954392253
 20
-15.2698824857
 10
-24.9427935938
 20
-15.2949266309
 10
-24.9291427512
 20
-15.3194106829
 10
-24.9139252304
 20
-15.3424793609
 10
-24.8971945244
 20
-15.3641224544
 10
-24.8788677658
 20
-15.384424865
 10
-24.8594448799
 20
-15.4028102032
 10
-24.8390148922
 20
-15.4192563611
 10
-24.8175550033
 20
-15.433787983
 10
-24.8102098562
 20
-15.4381721374
  0
LINE
  5
278
100
AcDbEntity
  8
RACCORDO
100
AcDbLine
 62
250
  6
CONTINUOUS
 10
-25.4656235403
 20
-15.0618403897
 30
0.0
 11
-25.4656235403
 21
29.4910885929
 31
0.0
  0
LINE
  5
279
100
AcDbEntity
  8
RACCORDO
100
AcDbLine
 62
250
  6
CONTINUOUS
 10
-25.18527051
 20
-15.0632530281
 30
0.0
 11
-25.18527051
 21
29.4896759545
 31
0.0
  0
LINE
  5
27A
100
AcDbEntity
  8
RACCORDO
100
AcDbLine
 62
7
  6
CONTINUOUS
 10
-24.9809338467
 20
29.10770271
 30
0.0
 11
-24.9809338467
 21
-15.142497328
 31
0.0
  0
LINE
  5
27B
100
AcDbEntity
  8
RACCORDO
100
AcDbLine
 62
250
  6
CONTINUOUS
 10
-24.922355203
 20
29.0260477914
 30
0.0
 11
-24.922355203
 21
-15.2241522467
 31
0.0
  0
LINE
  5
27C
100
AcDbEntity
  8
RACCORDO
100
AcDbLine
 62
7
  6
CONTINUOUS
 10
-24.8230345974
 20
29.6238739477
 30
0.0
 11
-24.8230345974
 21
29.349804476
 31
0.0
  0
LINE
  5
27D
100
AcDbEntity
  8
RACCORDO
100
AcDbLine
 62
250
  6
CONTINUOUS
 10
-24.7838632037
 20
29.6012568759
 30
0.0
 11
-24.7838632051
 21
29.3740286526
 31
0.0
  0
LINE
  5
27E
100
AcDbEntity
  8
RACCORDO
100
AcDbLine
 62
7
  6
CONTINUOUS
 10
-24.6250446987
 20
29.5095570615
 30
0.0
 11
-24.6250446987
 21
29.4696395649
 31
0.0
  0
LWPOLYLINE
  5
27F
100
AcDbEntity
  8
RACCORDO
100
AcDbPolyline
 62
250
  6
CONTINUOUS
 90
14
 70
0
 10
-25.1852704613
 20
29.4896759807
 10
-25.184632261
 20
29.516605239
 10
-25.1824237314
 20
29.5421400935
 10
-25.1787211658
 20
29.5662128482
 10
-25.1736313697
 20
29.5886726863
 10
-25.1672240398
 20
29.6095864812
 10
-25.1594714764
 20
29.6291808766
 10
-25.1503771919
 20
29.6474449778
 10
-25.1400088445
 20
29.6642380375
 10
-25.1283791683
 20
29.6795379301
 10
-25.1155019926
 20
29.693304684
 10
-25.1014498988
 20
29.7054415307
 10
-25.0863338169
 20
29.7158573969
 10
-25.0784640304
 20
29.7203751147
  0
LWPOLYLINE
  5
280
100
AcDbEntity
  8
RACCORDO
100
AcDbPolyline
 62
250
  6
CONTINUOUS
 90
25
 70
0
 10
-25.4656235403
 20
29.4910885929
 10
-25.464314026
 20
29.5290395344
 10
-25.461048916
 20
29.5648690045
 10
-25.4558282105
 20
29.5985770033
 10
-25.4486079139
 20
29.6301136066
 10
-25.4394320217
 20
29.6595287386
 10
-25.4284325206
 20
29.6869721717
 10
-25.4156069808
 20
29.7125679629
 10
-25.400957832
 20
29.7361920552
 10
-25.38462435
 20
29.7576220508
 10
-25.366547263
 20
29.7768683212
 10
-25.3467858427
 20
29.7939204948
 10
-25.3256571802
 20
29.8085250585
 10
-25.3032661117
 20
29.8206238224
 10
-25.279507801
 20
29.8302749763
 10
-25.2543848306
 20
29.8373995773
 10
-25.2279178421
 20
29.8420803931
 10
-25.2000861938
 20
29.8442346559
 10
-25.1708305427
 20
29.8435351192
 10
-25.1399292454
 20
29.8399457216
 10
-25.1076039453
 20
29.8335025244
 10
-25.07446023
 20
29.8239864651
 10
-25.040699962
 20
29.8113245229
 10
-25.0061212789
 20
29.7955897186
 10
-24.9707241806
 20
29.7767820522
  0
LWPOLYLINE
  5
281
100
AcDbEntity
  8
RACCORDO
100
AcDbPolyline
 62
250
  6
CONTINUOUS
 90
16
 70
0
 10
-24.9707241806
 20
-15.9190312246
 10
-24.9699665297
 20
-15.9017134738
 10
-24.9677017068
 20
-15.8837064326
 10
-24.9639539956
 20
-15.865203048
 10
-24.9587635691
 20
-15.8464015844
 10
-24.952186056
 20
-15.8275034906
 10
-24.9442919426
 20
-15.8087112417
 10
-24.9351658234
 20
-15.7902261851
 10
-24.9249054899
 20
-15.7722463698
 10
-24.9136208758
 20
-15.7549644171
 10
-24.9014328953
 20
-15.7385654846
 10
-24.8884721378
 20
-15.7232252636
 10
-24.8748774576
 20
-15.7091080882
 10
-24.8607945066
 20
-15.6963652002
 10
-24.8463741763
 20
-15.6851331251
 10
-24.8317709673
 20
-15.6755321959
  0
LWPOLYLINE
  5
282
100
AcDbEntity
  8
RACCORDO
100
AcDbPolyline
 62
250
  6
CONTINUOUS
 90
13
 70
0
 10
-24.8516552944
 20
29.0668611427
 10
-24.8504721088
 20
29.0886230099
 10
-24.8469423522
 20
29.1113870428
 10
-24.8411250904
 20
29.134772335
 10
-24.8331176656
 20
29.1583875857
 10
-24.8230540667
 20
29.1818376477
 10
-24.8111026874
 20
29.2047301396
 10
-24.7974635088
 20
29.2266820089
 10
-24.782364753
 20
29.247325944
 10
-24.7660590619
 20
29.2663165209
 10
-24.7488192736
 20
29.2833359792
 10
-24.7309338565
 20
29.2980995396
 10
-24.7127020812
 20
29.3103601714
  0
LWPOLYLINE
  5
283
100
AcDbEntity
  8
RACCORDO
100
AcDbPolyline
 62
250
  6
CONTINUOUS
 90
16
 70
0
 10
-25.4656235403
 20
-15.0618403897
 10
-25.4502470271
 20
-15.0698437198
 10
-25.4335200308
 20
-15.076886424
 10
-25.4156217695
 20
-15.0828930444
 10
-25.3967440107
 20
-15.0877992244
 10
-25.3770890165
 20
-15.0915523976
 10
-25.3568673765
 20
-15.0941123513
 10
-25.3362957517
 20
-15.0954516575
 10
-25.3155945526
 20
-15.0955559664
 10
-25.2949855784
 20
-15.0944241603
 10
-25.2746896398
 20
-15.0920683659
 10
-25.2549241939
 20
-15.0885138238
 10
-25.2359010135
 20
-15.0837986185
 10
-25.2178239191
 20
-15.0779732701
 10
-25.200886594
 20
-15.0711001932
 10
-25.18527051
 20
-15.0632530281
  0
LWPOLYLINE
  5
284
100
AcDbEntity
  8
RACCORDO
100
AcDbPolyline
 62
7
  6
CONTINUOUS
 90
13
 70
0
 10
7.8092874622
 20
-34.2722610768
 10
7.8276260383
 20
-34.2819855641
 10
7.84883573
 20
-34.291204797
 10
7.8704640257
 20
-34.2985179844
 10
7.8923819091
 20
-34.3038812566
 10
7.9144487603
 20
-34.3072598388
 10
7.9364687848
 20
-34.3086465922
 10
7.9582337224
 20
-34.3080670446
 10
7.9795957894
 20
-34.3055691585
 10
8.0003964137
 20
-34.3012157361
 10
8.0204657589
 20
-34.2950940322
 10
8.0396466747
 20
-34.2873219843
 10
8.0531666642
 20
-34.2805991136
  0
LINE
  5
285
100
AcDbEntity
  8
RACCORDO
100
AcDbLine
 62
250
  6
CONTINUOUS
 10
7.8869222593
 20
-34.8906244759
 30
0.0
 11
-24.9707241806
 21
-15.9190312246
 31
0.0
  0
LINE
  5
286
100
AcDbEntity
  8
RACCORDO
100
AcDbLine
 62
250
  6
CONTINUOUS
 10
8.0258754726
 20
-34.6471254472
 30
0.0
 11
-24.8317709673
 21
-15.6755321959
 31
0.0
  0
LINE
  5
287
100
AcDbEntity
  8
RACCORDO
100
AcDbLine
 62
7
  6
CONTINUOUS
 10
-24.8102387702
 20
-15.4381554524
 30
0.0
 11
7.8092698974
 21
-34.2722509387
 31
0.0
  0
LINE
  5
288
100
AcDbEntity
  8
RACCORDO
100
AcDbLine
 62
250
  6
CONTINUOUS
 10
-24.8516552944
 20
-15.3466080802
 30
0.0
 11
7.7678533732
 21
-34.1807035664
 31
0.0
  0
LINE
  5
289
100
AcDbEntity
  8
RACCORDO
100
AcDbLine
 62
7
  6
CONTINUOUS
 10
8.0854760683
 20
-34.2632378257
 30
0.0
 11
8.3232429753
 21
-34.4005214578
 31
0.0
  0
LINE
  5
28A
100
AcDbEntity
  8
RACCORDO
100
AcDbLine
 62
7
  6
CONTINUOUS
 10
8.3001143392
 20
-34.1446745356
 30
0.0
 11
8.3232429753
 21
-34.1580274299
 31
0.0
  0
LWPOLYLINE
  5
28B
100
AcDbEntity
  8
RACCORDO
100
AcDbPolyline
 62
250
  6
CONTINUOUS
 90
25
 70
0
 10
-24.8317709202
 20
-15.6755321687
 10
-24.8548827109
 20
-15.6615116803
 10
-24.8777984854
 20
-15.6458815606
 10
-24.9004257227
 20
-15.6287262298
 10
-24.9226442042
 20
-15.6101636337
 10
-24.9443987464
 20
-15.5902627403
 10
-24.9656939738
 20
-15.5690235912
 10
-24.9864753363
 20
-15.5464951759
 10
-25.0066241244
 20
-15.5228010835
 10
-25.0260471526
 20
-15.498044918
 10
-25.0446708145
 20
-15.4723181005
 10
-25.06241195
 20
-15.4457357459
 10
-25.0791721617
 20
-15.4184475177
 10
-25.0948692323
 20
-15.3905981765
 10
-25.1094619139
 20
-15.3622747864
 10
-25.1229182376
 20
-15.3335440195
 10
-25.1351175972
 20
-15.3046844528
 10
-25.1460845297
 20
-15.2756527865
 10
-25.1559385099
 20
-15.2460287931
 10
-25.164615875
 20
-15.2157476828
 10
-25.1719308712
 20
-15.1851452436
 10
-25.177758609
 20
-15.1544174435
 10
-25.1819900474
 20
-15.123744746
 10
-25.1845264188
 20
-15.0932931163
 10
-25.1852704489
 20
-15.0632529928
  0
LWPOLYLINE
  5
28C
100
AcDbEntity
  8
RACCORDO
100
AcDbPolyline
 62
250
  6
CONTINUOUS
 90
25
 70
0
 10
-24.9707241806
 20
-15.9190312246
 10
-25.0030681095
 20
-15.8990665535
 10
-25.0349029637
 20
-15.8771059627
 10
-25.0662287429
 20
-15.8531494522
 10
-25.0971243957
 20
-15.8271128101
 10
-25.1275109735
 20
-15.7990802483
 10
-25.1571516316
 20
-15.7693044025
 10
-25.1860869294
 20
-15.7377314496
 10
-25.2142763074
 20
-15.7044152127
 10
-25.2413612421
 20
-15.6697697973
 10
-25.2673336187
 20
-15.6337613986
 10
-25.2922015521
 20
-15.5964238213
 10
-25.3156308631
 20
-15.5582725851
 10
-25.3375801086
 20
-15.5193398868
 10
-25.3580907318
 20
-15.4795935297
 10
-25.3769528834
 20
-15.4394524433
 10
-25.394120494
 20
-15.3991328244
 10
-25.4096396331
 20
-15.3584184763
 10
-25.4234386594
 20
-15.3170797379
 10
-25.4356545678
 20
-15.2748043297
 10
-25.4461503634
 20
-15.2319045311
 10
-25.454443421
 20
-15.18908752
 10
-25.4603728655
 20
-15.1465890224
 10
-25.4640995719
 20
-15.1041733123
 10
-25.4656235403
 20
-15.0618403897
  0
LWPOLYLINE
  5
28D
100
AcDbEntity
  8
RACCORDO
100
AcDbPolyline
 62
250
  6
CONTINUOUS
 90
9
 70
0
 10
8.3818216191
 20
-34.6049310166
 10
8.3679600367
 20
-34.5960525965
 10
8.355762323
 20
-34.5863944287
 10
8.3453591535
 20
-34.5760600061
 10
8.3368619744
 20
-34.5651600669
 10
8.3303618053
 20
-34.5538114035
 10
8.3259282676
 20
-34.5421356101
 10
8.323608843
 20
-34.5302577898
 10
8.3232429842
 20
-34.5233104219
  0
LWPOLYLINE
  5
28E
100
AcDbEntity
  8
RACCORDO
100
AcDbPolyline
 62
250
  6
CONTINUOUS
 90
7
 70
0
 10
-24.922355203
 20
-15.2241522467
 10
-24.9394273044
 20
-15.2129287162
 10
-24.9538473647
 20
-15.2005266796
 10
-24.9653741005
 20
-15.1871536586
 10
-24.9738146423
 20
-15.1730334222
 10
-24.9790277614
 20
-15.1584022408
 10
-24.9809338467
 20
-15.142497328
  0
LWPOLYLINE
  5
28F
100
AcDbEntity
  8
0
100
AcDbPolyline
 62
7
  6
CONTINUOUS
 90
16
 70
0
 10
-5.5352776049
 20
-30.0819116824
 10
-5.5807284638
 20
-30.0388104712
 10
-5.6285088111
 20
-29.9967726425
 10
-5.6786186468
 20
-29.9557981965
 10
-5.7311498213
 20
-29.9159566247
 10
-5.7860104842
 20
-29.8771784356
 10
-5.8429250841
 20
-29.8392551541
 10
-5.9018062502
 20
-29.8021133163
 10
-5.9627413531
 20
-29.7658263861
 10
-6.0257169541
 20
-29.730406281
 10
-6.0907497431
 20
-29.695909807
 10
-6.15782303
 20
-29.662280158
 10
-6.2268733061
 20
-29.629358833
 10
-6.2978794016
 20
-29.5970929983
 10
-6.3708624862
 20
-29.5655354877
 10
-6.4458225599
 20
-29.534686301
  0
LINE
  5
290
100
AcDbEntity
  8
0
100
AcDbLine
 62
7
  6
CONTINUOUS
 10
-12.0166159052
 20
-26.2943346914
 30
0.0
 11
-11.4562585298
 21
-28.6588381608
 31
0.0
  0
LINE
  5
291
100
AcDbEntity
  8
0
100
AcDbLine
 62
7
  6
CONTINUOUS
 10
-11.9886770531
 20
-26.3104662344
 30
0.0
 11
-11.4350453264
 21
-28.646589923
 31
0.0
  0
LINE
  5
292
100
AcDbEntity
  8
0
100
AcDbLine
 62
7
  6
CONTINUOUS
 10
-9.4258275706
 20
-28.498475446
 30
0.0
 11
-8.9929891251
 21
-30.0810990431
 31
0.0
  0
LINE
  5
293
100
AcDbEntity
  8
0
100
AcDbLine
 62
7
  6
CONTINUOUS
 10
-9.4046143672
 20
-28.4862272082
 30
0.0
 11
-8.9717759216
 21
-30.0688508053
 31
0.0
  0
LINE
  5
294
100
AcDbEntity
  8
0
100
AcDbLine
 62
7
  6
CONTINUOUS
 10
-8.9651008336
 20
-29.189388504
 30
0.0
 11
-9.3301673368
 21
-27.8454564256
 31
0.0
  0
LWPOLYLINE
  5
295
100
AcDbEntity
  8
0
100
AcDbPolyline
 62
7
  6
CONTINUOUS
 90
6
 70
0
 10
-5.674666072
 20
-31.3781711333
 10
-5.6560658656
 20
-31.451701716
 10
-5.6378290772
 20
-31.5266198381
 10
-5.6199557068
 20
-31.6029254997
 10
-5.6027057456
 20
-31.6806070681
 10
-5.5685161037
 20
-31.8401677209
  0
LWPOLYLINE
  5
296
100
AcDbEntity
  8
0
100
AcDbPolyline
 62
7
  6
CONTINUOUS
 90
6
 70
0
 10
-5.6534528686
 20
-31.3659228955
 10
-5.6348516918
 20
-31.4394581771
 10
-5.6166200266
 20
-31.514353157
 10
-5.5987578731
 20
-31.5906078354
 10
-5.5815330237
 20
-31.6681750247
 10
-5.5473884821
 20
-31.8275300612
  0
LINE
  5
297
100
AcDbEntity
  8
0
100
AcDbLine
 62
7
  6
CONTINUOUS
 10
-6.5541679373
 20
-31.4892438313
 30
0.0
 11
-7.0965054034
 21
-29.1351448316
 31
0.0
  0
LINE
  5
298
100
AcDbEntity
  8
0
100
AcDbLine
 62
7
  6
CONTINUOUS
 10
-11.2788751369
 20
-28.1251532808
 30
0.0
 11
-11.6158079826
 21
-26.5257561625
 31
0.0
  0
LINE
  5
299
100
AcDbEntity
  8
0
100
AcDbLine
 62
7
  6
CONTINUOUS
 10
-7.0386209352
 20
-30.8020786809
 30
0.0
 11
-6.9430398974
 21
-31.2647140353
 31
0.0
  0
LINE
  5
29A
100
AcDbEntity
  8
0
100
AcDbLine
 62
7
  6
CONTINUOUS
 10
-7.0174077318
 20
-30.7898304431
 30
0.0
 11
-6.9218266939
 21
-31.2524657975
 31
0.0
  0
LINE
  5
29B
100
AcDbEntity
  8
0
100
AcDbLine
 62
7
  6
CONTINUOUS
 10
-8.0657960654
 20
-30.6164486953
 30
0.0
 11
-8.2310843968
 21
-28.4800531405
 31
0.0
  0
LINE
  5
29C
100
AcDbEntity
  8
0
100
AcDbLine
 62
7
  6
CONTINUOUS
 10
-8.5025448114
 20
-29.0371226035
 30
0.0
 11
-8.426740136
 21
-30.4080441126
 31
0.0
  0
LINE
  5
29D
100
AcDbEntity
  8
0
100
AcDbLine
 62
7
  6
CONTINUOUS
 10
-8.481331608
 20
-29.0248743657
 30
0.0
 11
-8.4055269326
 21
-30.3957958748
 31
0.0
  0
LINE
  5
29E
100
AcDbEntity
  8
0
100
AcDbLine
 62
7
  6
CONTINUOUS
 10
-10.4260152634
 20
-27.2126050965
 30
0.0
 11
-10.4260152634
 21
-29.2536877109
 31
0.0
  0
LINE
  5
29F
100
AcDbEntity
  8
0
100
AcDbLine
 62
7
  6
CONTINUOUS
 10
-10.4048020599
 20
-27.2248533343
 30
0.0
 11
-10.4048020599
 21
-29.2414394731
 31
0.0
  0
LINE
  5
2A0
100
AcDbEntity
  8
0
100
AcDbLine
 62
7
  6
CONTINUOUS
 10
-10.0570518947
 20
-29.4667225357
 30
0.0
 11
-10.0570518947
 21
-27.4256399214
 31
0.0
  0
LINE
  5
2A1
100
AcDbEntity
  8
0
100
AcDbLine
 62
7
  6
CONTINUOUS
 10
-5.5685161037
 20
-31.8401677209
 30
0.0
 11
-5.5133275002
 21
-32.0902118758
 31
0.0
  0
LINE
  5
2A2
100
AcDbEntity
  8
0
100
AcDbLine
 62
7
  6
CONTINUOUS
 10
-5.5473884821
 20
-31.8275300612
 30
0.0
 11
-5.4921142968
 21
-32.077963638
 31
0.0
  0
LINE
  5
2A3
100
AcDbEntity
  8
0
100
AcDbLine
 62
7
  6
CONTINUOUS
 10
-5.2411726147
 20
-31.8827396619
 30
0.0
 11
-5.2845612817
 21
-31.669897411
 31
0.0
  0
LINE
  5
2A4
100
AcDbEntity
  8
0
100
AcDbLine
 62
7
  6
CONTINUOUS
 10
-5.1584277088
 20
-32.2951265674
 30
0.0
 11
-5.2411726147
 21
-31.8827396619
 31
0.0
  0
LINE
  5
2A5
100
AcDbEntity
  8
0
100
AcDbLine
 62
7
  6
CONTINUOUS
 10
-7.2819017304
 20
-29.5889033562
 30
0.0
 11
-7.1123580303
 21
-30.444222176
 31
0.0
  0
LINE
  5
2A6
100
AcDbEntity
  8
0
100
AcDbLine
 62
7
  6
CONTINUOUS
 10
-7.2606885269
 20
-29.5766551184
 30
0.0
 11
-7.0911448269
 21
-30.4319739382
 31
0.0
  0
LWPOLYLINE
  5
2A7
100
AcDbEntity
  8
0
100
AcDbPolyline
 62
7
  6
CONTINUOUS
 90
19
 70
0
 10
-5.2845612817
 20
-31.669897411
 10
-5.2920214406
 20
-31.6320224489
 10
-5.2999151014
 20
-31.5949753759
 10
-5.3082422643
 20
-31.5587561919
 10
-5.316948146
 20
-31.5233119453
 10
-5.3260875298
 20
-31.4886955876
 10
-5.3358247652
 20
-31.4550659741
 10
-5.3462011931
 20
-31.4224410574
 10
-5.3571754726
 20
-31.3908028849
 10
-5.3687879311
 20
-31.3602564529
 10
-5.381094199
 20
-31.3307081288
 10
-5.3940386459
 20
-31.3022515453
 10
-5.4074947083
 20
-31.2752725969
 10
-5.421475229
 20
-31.2498406591
 10
-5.4359673652
 20
-31.2258863565
 10
-5.4508060254
 20
-31.2035874569
 10
-5.4659361792
 20
-31.1830032165
 10
-5.4814128569
 20
-31.1640743793
 10
-5.4972360587
 20
-31.1468009452
  0
LINE
  5
2A8
100
AcDbEntity
  8
0
100
AcDbLine
 62
7
  6
CONTINUOUS
 10
-6.4458225599
 20
-29.534686301
 30
0.0
 11
-6.4458225599
 21
-31.5518009152
 31
0.0
  0
LINE
  5
2A9
100
AcDbEntity
  8
0
100
AcDbLine
 62
7
  6
CONTINUOUS
 10
-6.4246093565
 20
-29.5434164161
 30
0.0
 11
-6.4246093565
 21
-31.5395526774
 31
0.0
  0
LINE
  5
2AA
100
AcDbEntity
  8
0
100
AcDbLine
 62
7
  6
CONTINUOUS
 10
-6.0905781413
 20
-30.6239357706
 30
0.0
 11
-6.0905781413
 21
-30.063652514
 31
0.0
  0
LINE
  5
2AB
100
AcDbEntity
  8
0
100
AcDbLine
 62
7
  6
CONTINUOUS
 10
-6.078343874
 20
-31.7639785029
 30
0.0
 11
-6.078343874
 21
-30.9652595806
 31
0.0
  0
LINE
  5
2AC
100
AcDbEntity
  8
0
100
AcDbLine
 62
7
  6
CONTINUOUS
 10
-5.4972360587
 20
-31.1468009452
 30
0.0
 11
-5.4972360587
 21
-31.1347406522
 31
0.0
  0
LWPOLYLINE
  5
2AD
100
AcDbEntity
  8
0
100
AcDbPolyline
 62
7
  6
CONTINUOUS
 90
11
 70
0
 10
-5.5931087082
 20
-30.5940041075
 10
-5.5939065851
 20
-30.622065706
 10
-5.5962949621
 20
-30.6483129713
 10
-5.6002738393
 20
-30.6727459035
 10
-5.6059654718
 20
-30.6955304509
 10
-5.6132476045
 20
-30.7165006651
 10
-5.6217534719
 20
-30.7351587006
 10
-5.6314065105
 20
-30.7513714379
 10
-5.6422832839
 20
-30.7652719965
 10
-5.6542467173
 20
-30.7767618892
 10
-5.6675209131
 20
-30.7860077046
  0
LWPOLYLINE
  5
2AE
100
AcDbEntity
  8
0
100
AcDbPolyline
 62
7
  6
CONTINUOUS
 90
11
 70
0
 10
-5.5718955048
 20
-30.5817558697
 10
-5.5727168809
 20
-30.6101953714
 10
-5.5751745612
 20
-30.6367733682
 10
-5.5792685456
 20
-30.6614898601
 10
-5.5851838295
 20
-30.6845687855
 10
-5.5927354175
 20
-30.705786206
 10
-5.6013683242
 20
-30.7244703066
 10
-5.6109522746
 20
-30.740323889
 10
-5.6216175437
 20
-30.7536441514
 10
-5.6331999706
 20
-30.7646508731
 10
-5.6462978118
 20
-30.7737537592
  0
LINE
  5
2AF
100
AcDbEntity
  8
0
100
AcDbLine
 62
7
  6
CONTINUOUS
 10
-9.5054499155
 20
-29.7852106053
 30
0.0
 11
-9.4258275706
 21
-28.498475446
 31
0.0
  0
LINE
  5
2B0
100
AcDbEntity
  8
0
100
AcDbLine
 62
7
  6
CONTINUOUS
 10
-9.6988252354
 20
-27.6325979754
 30
0.0
 11
-9.8584277212
 21
-29.5814056442
 31
0.0
  0
LINE
  5
2B1
100
AcDbEntity
  8
0
100
AcDbLine
 62
7
  6
CONTINUOUS
 10
-9.6795276492
 20
-27.6437401598
 30
0.0
 11
-9.8372145177
 21
-29.5691574064
 31
0.0
  0
LINE
  5
2B2
100
AcDbEntity
  8
0
100
AcDbLine
 62
250
  6
CONTINUOUS
 10
27.0255701331
 20
22.8589581147
 30
0.0
 11
26.6270626458
 21
22.628864886
 31
0.0
  0
LINE
  5
2B3
100
AcDbEntity
  8
RACCORDO
100
AcDbLine
 62
250
  6
CONTINUOUS
 10
7.9068065864
 20
10.4762646852
 30
0.0
 11
8.0871174522
 21
10.580373574
 31
0.0
  0
LINE
  5
2B4
100
AcDbEntity
  8
RACCORDO
100
AcDbLine
 62
250
  6
CONTINUOUS
 10
8.1189063121
 20
10.1088971845
 30
0.0
 11
8.2945386543
 21
10.2103047615
 31
0.0
  0
LWPOLYLINE
  5
2B5
100
AcDbEntity
  8
0
100
AcDbPolyline
 62
7
  6
CONTINUOUS
 90
5
 70
0
 10
35.2856752853
 20
3.7479390092
 10
35.4035264155
 20
3.7795226829
 10
35.5108515073
 20
3.7839773553
 10
35.6102190924
 20
3.7598202753
 10
35.6573217263
 20
3.7387678299
  0
LINE
  5
2B6
100
AcDbEntity
  8
0
100
AcDbLine
 62
7
  6
CONTINUOUS
 10
-10.9316496449
 20
-26.9207806122
 30
0.0
 11
-11.2788751369
 21
-28.1251532808
 31
0.0
  0
LINE
  5
2B7
100
AcDbEntity
  8
0
100
AcDbLine
 62
7
  6
CONTINUOUS
 10
-10.9164910114
 20
-26.9295330172
 30
0.0
 11
-11.2576619335
 21
-28.112905043
 31
0.0
  0
LINE
  5
2B8
100
AcDbEntity
  8
0
100
AcDbLine
 62
7
  6
CONTINUOUS
 10
-11.1311096187
 20
-28.846575067
 30
0.0
 11
-10.5629387134
 21
-27.1336696831
 31
0.0
  0
LWPOLYLINE
  5
2B9
100
AcDbEntity
  8
RACCORDO
100
AcDbPolyline
 62
250
  6
CONTINUOUS
 90
13
 70
0
 10
27.0520298535
 20
18.3982096766
 10
27.0386181123
 20
18.3887983913
 10
27.0254981313
 20
18.3776035526
 10
27.0128821158
 20
18.3648062301
 10
27.0009741189
 20
18.3506134112
 10
26.9899667432
 20
18.335254656
 10
26.9800380255
 20
18.3189783854
 10
26.9713485531
 20
18.3020478566
 10
26.9640388684
 20
18.2847369076
 10
26.9582271977
 20
18.2673255313
 10
26.9540075365
 20
18.2500953423
 10
26.9514481301
 20
18.2333250222
 10
26.950590371
 20
18.217285814
  0
LINE
  5
2BA
100
AcDbEntity
  8
RACCORDO
100
AcDbLine
 62
250
  6
CONTINUOUS
 10
31.5066381071
 20
19.1464264347
 30
0.0
 11
30.6806768611
 21
18.6525823679
 31
0.0
  0
LINE
  5
2BB
100
AcDbEntity
  8
RACCORDO
100
AcDbLine
 62
250
  6
CONTINUOUS
 10
29.713585415
 20
19.9349460751
 30
0.0
 11
27.0520298535
 21
18.3982096766
 31
0.0
  0
LINE
  5
2BC
100
AcDbEntity
  8
RACCORDO
100
AcDbLine
 62
250
  6
CONTINUOUS
 10
22.3546297884
 20
15.6855020977
 30
0.0
 11
26.6828551635
 21
18.1845411309
 31
0.0
  0
LINE
  5
2BD
100
AcDbEntity
  8
RACCORDO
100
AcDbLine
 62
250
  6
CONTINUOUS
 10
23.4138363622
 20
13.8509024979
 30
0.0
 11
28.483980186
 21
16.778311822
 31
0.0
  0
LINE
  5
2BE
100
AcDbEntity
  8
RACCORDO
100
AcDbLine
 62
250
  6
CONTINUOUS
 10
30.7732360733
 20
18.0995772986
 30
0.0
 11
28.6660658787
 21
16.8829334746
 31
0.0
  0
LINE
  5
2BF
100
AcDbEntity
  8
RACCORDO
100
AcDbLine
 62
250
  6
CONTINUOUS
 10
-25.18527051
 20
-15.0632530281
 30
0.0
 11
-24.9809338467
 21
-14.9452719909
 31
0.0
  0
LINE
  5
2C0
100
AcDbEntity
  8
RACCORDO
100
AcDbLine
 62
250
  6
CONTINUOUS
 10
30.9868257755
 20
20.0467678026
 30
0.0
 11
30.1461675642
 21
19.5783255212
 31
0.0
  0
LINE
  5
2C1
100
AcDbEntity
  8
0
100
AcDbLine
 62
7
  6
CONTINUOUS
 10
1.6899341631
 20
37.4384438424
 30
0.0
 11
1.6899341631
 21
37.4874367936
 31
0.0
  0
LINE
  5
2C2
100
AcDbEntity
  8
0
100
AcDbLine
 62
7
  6
CONTINUOUS
 10
-7.4656144361
 20
-30.2402563546
 30
0.0
 11
-7.2819017304
 21
-29.5889033562
 31
0.0
  0
LINE
  5
2C3
100
AcDbEntity
  8
0
100
AcDbLine
 62
7
  6
CONTINUOUS
 10
-7.6428988341
 20
-30.8606242565
 30
0.0
 11
-7.5410874784
 21
-30.5119607962
 31
0.0
  0
LINE
  5
2C4
100
AcDbEntity
  8
0
100
AcDbLine
 62
7
  6
CONTINUOUS
 10
-7.4534331076
 20
-28.9290592486
 30
0.0
 11
-8.0078585641
 21
-30.6499010824
 31
0.0
  0
LINE
  5
2C5
100
AcDbEntity
  8
0
100
AcDbLine
 62
7
  6
CONTINUOUS
 10
-7.4388743553
 20
-28.9374652897
 30
0.0
 11
-7.9866453607
 21
-30.6376528446
 31
0.0
  0
LINE
  5
2C6
100
AcDbEntity
  8
0
100
AcDbLine
 62
7
  6
CONTINUOUS
 10
-8.596137465
 20
-28.2692760741
 30
0.0
 11
-8.9651008336
 21
-29.189388504
 31
0.0
  0
LINE
  5
2C7
100
AcDbEntity
  8
0
100
AcDbLine
 62
7
  6
CONTINUOUS
 10
-8.5820939692
 20
-28.2749074897
 30
0.0
 11
-8.9438876302
 21
-29.1771402662
 31
0.0
  0
LINE
  5
2C8
100
AcDbEntity
  8
0
100
AcDbLine
 62
7
  6
CONTINUOUS
 10
-8.9412416366
 20
-30.1109773944
 30
0.0
 11
-8.5025448114
 21
-29.0371226035
 31
0.0
  0
LINE
  5
2C9
100
AcDbEntity
  8
RACCORDO
100
AcDbLine
 62
250
  6
CONTINUOUS
 10
-24.8317709673
 20
-15.6755321959
 30
0.0
 11
-24.6154434641
 21
-15.5506278209
 31
0.0
  0
LINE
  5
2CA
100
AcDbEntity
  8
0
100
AcDbLine
 62
250
  6
CONTINUOUS
 10
32.0318861439
 20
14.1877644342
 30
0.0
 11
31.5627701471
 21
13.9169027371
 31
0.0
  0
LWPOLYLINE
  5
2CB
100
AcDbEntity
  8
RACCORDO
100
AcDbPolyline
 62
250
  6
CONTINUOUS
 90
7
 70
0
 10
7.7678533732
 20
-34.1807035664
 10
7.7690365588
 20
-34.2010991206
 10
7.7725663155
 20
-34.2197870789
 10
7.7783835773
 20
-34.236454743
 10
7.7863910021
 20
-34.2508232203
 10
7.7964546009
 20
-34.2626520906
 10
7.8092698974
 20
-34.2722509387
  0
LWPOLYLINE
  5
2CC
100
AcDbEntity
  8
RACCORDO
100
AcDbPolyline
 62
250
  6
CONTINUOUS
 90
16
 70
0
 10
8.1189063121
 20
10.1088971845
 10
8.1174910458
 20
10.1350952256
 10
8.1137923661
 20
10.1623060248
 10
8.1078669259
 20
10.1902258816
 10
8.0998036355
 20
10.2185213653
 10
8.0896998237
 20
10.2469083865
 10
8.0776418773
 20
10.2751556872
 10
8.0637538959
 20
10.3029643874
 10
8.0481870746
 20
10.3300261951
 10
8.0310727429
 20
10.3560965208
 10
8.0125720378
 20
10.3809005446
 10
7.9928911825
 20
10.4041361069
 10
7.9722461722
 20
10.4255295843
 10
7.950861798
 20
10.4448299312
 10
7.9289683786
 20
10.4618100924
 10
7.9068065864
 20
10.4762646852
  0
LWPOLYLINE
  5
2CD
100
AcDbEntity
  8
RACCORDO
100
AcDbPolyline
 62
250
  6
CONTINUOUS
 90
16
 70
0
 10
7.8385532817
 20
10.1103098229
 10
7.8381212733
 20
10.1192614769
 10
7.8369671909
 20
10.1283398687
 10
7.8350910345
 20
10.1375449983
 10
7.8324580813
 20
10.1469707773
 10
7.829103054
 20
10.1565232942
 10
7.8251301212
 20
10.1659208143
 10
7.82052361
 20
10.1751622835
 10
7.8152991931
 20
10.1842487558
 10
7.8096080572
 20
10.1929016585
 10
7.803430566
 20
10.2011167011
 10
7.7967863558
 20
10.2088981741
 10
7.7898855218
 20
10.2159803762
 10
7.782798096
 20
10.2222747404
 10
7.7754540464
 20
10.2278698339
 10
7.7678533732
 20
10.2327656565
  0
LWPOLYLINE
  5
2CE
100
AcDbEntity
  8
RACCORDO
100
AcDbPolyline
 62
250
  6
CONTINUOUS
 90
9
 70
0
 10
7.8869222593
 20
10.8051888008
 10
7.8876799101
 20
10.7887459663
 10
7.8899447331
 20
10.7733542859
 10
7.8936924443
 20
10.7591786642
 10
7.8988828708
 20
10.746370975
 10
7.9054603839
 20
10.7350684285
 10
7.9133544973
 20
10.7253921038
 10
7.9224806164
 20
10.7174456609
 10
7.9283387835
 20
10.7136414286
  0
LINE
  5
2CF
100
AcDbEntity
  8
RACCORDO
100
AcDbLine
 62
250
  6
CONTINUOUS
 10
7.8385532817
 20
-34.1398902151
 30
0.0
 11
7.8385532817
 21
10.1103098229
 31
0.0
  0
LINE
  5
2D0
100
AcDbEntity
  8
RACCORDO
100
AcDbLine
 62
250
  6
CONTINUOUS
 10
8.1189063121
 20
-34.1413028535
 30
0.0
 11
8.1189063121
 21
10.1088971845
 31
0.0
  0
LINE
  5
2D1
100
AcDbEntity
  8
RACCORDO
100
AcDbLine
 62
7
  6
CONTINUOUS
 10
8.3232429753
 20
10.0296528846
 30
0.0
 11
8.3232429753
 21
-34.523276098
 31
0.0
  0
LINE
  5
2D2
100
AcDbEntity
  8
RACCORDO
100
AcDbLine
 62
250
  6
CONTINUOUS
 10
8.3818216191
 20
9.947997966
 30
0.0
 11
8.3818216191
 21
-34.6049310166
 31
0.0
  0
LWPOLYLINE
  5
2D3
100
AcDbEntity
  8
RACCORDO
100
AcDbPolyline
 62
7
  6
CONTINUOUS
 90
13
 70
0
 10
8.3232429842
 20
-34.5233104222
 10
8.3228470557
 20
-34.5419979725
 10
8.3213686952
 20
-34.5631240744
 10
8.3188499701
 20
-34.5828212222
 10
8.3153554955
 20
-34.6009695874
 10
8.3110150051
 20
-34.6172821533
 10
8.306099567
 20
-34.6313145801
 10
8.300909759
 20
-34.6429006977
 10
8.2956839068
 20
-34.6521704353
 10
8.2906784706
 20
-34.6592584972
 10
8.286104898
 20
-34.664394688
 10
8.2821186277
 20
-34.6679015422
 10
8.2791057276
 20
-34.6699833423
  0
LWPOLYLINE
  5
2D4
100
AcDbEntity
  8
RACCORDO
100
AcDbPolyline
 62
250
  6
CONTINUOUS
 90
4
 70
0
 10
8.3818216191
 20
-34.6049310166
 10
8.3807046772
 20
-34.6416324574
 10
8.3776046004
 20
-34.6766010509
 10
8.3725213888
 20
-34.7098367971
  0
LWPOLYLINE
  5
2D5
100
AcDbEntity
  8
RACCORDO
100
AcDbPolyline
 62
250
  6
CONTINUOUS
 90
16
 70
0
 10
7.8869222593
 20
-34.8906244759
 10
7.8876798752
 20
-34.8733071333
 10
7.8899446056
 20
-34.855300458
 10
7.8936921855
 20
-34.8367973793
 10
7.8988824622
 20
-34.8179961448
 10
7.9054598253
 20
-34.7990981966
 10
7.9133538032
 20
-34.7803060133
 10
7.9224798171
 20
-34.7618209399
 10
7.9327400884
 20
-34.7438410313
 10
7.9440246851
 20
-34.7265589297
 10
7.9562127008
 20
-34.7101598009
 10
7.9691735492
 20
-34.6948193501
 10
7.9827683639
 20
-34.6807019397
 10
7.9968514858
 20
-34.6679588279
 10
8.011272024
 20
-34.6567265484
 10
8.0258754726
 20
-34.6471254472
  0
LWPOLYLINE
  5
2D6
100
AcDbEntity
  8
RACCORDO
100
AcDbPolyline
 62
250
  6
CONTINUOUS
 90
13
 70
0
 10
7.7678533732
 20
10.2327656565
 10
7.769036553
 20
10.2545274687
 10
7.7725662947
 20
10.2772914538
 10
7.7783835361
 20
10.3006767088
 10
7.7863909392
 20
10.3242919358
 10
7.7964545186
 20
10.3477419883
 10
7.8084058836
 20
10.3706344839
 10
7.8220450556
 20
10.3925863697
 10
7.8371438146
 20
10.4132303315
 10
7.8534495179
 20
10.4322209404
 10
7.8706893271
 20
10.4492404323
 10
7.8885747738
 20
10.4640040255
 10
7.9068065864
 20
10.4762646852
  0
LWPOLYLINE
  5
2D7
100
AcDbEntity
  8
0
100
AcDbPolyline
 62
7
  6
CONTINUOUS
 90
10
 70
0
 10
34.5209020136
 20
-6.4759035761
 10
34.4500401884
 20
-6.4426949377
 10
34.3753255657
 20
-6.4177884589
 10
34.2967581456
 20
-6.4011841397
 10
34.2117693964
 20
-6.3928819801
 10
34.1229278497
 20
-6.3928819801
 10
34.0379391005
 20
-6.4011841397
 10
33.9593716804
 20
-6.4177884589
 10
33.8846570577
 20
-6.4426949377
 10
33.8137952325
 20
-6.4759035761
  0
LWPOLYLINE
  5
2D8
100
AcDbEntity
  8
0
100
AcDbPolyline
 62
7
  6
CONTINUOUS
 90
10
 70
0
 10
34.5209020136
 20
-5.6594332993
 10
34.4500401884
 20
-5.6262246609
 10
34.3753255657
 20
-5.6013181821
 10
34.2967581456
 20
-5.5847138629
 10
34.2117693964
 20
-5.5764117033
 10
34.1229278497
 20
-5.5764117033
 10
34.0379391005
 20
-5.5847138629
 10
33.9593716804
 20
-5.6013181821
 10
33.8846570577
 20
-5.6262246609
 10
33.8137952325
 20
-5.6594332993
  0
LWPOLYLINE
  5
2D9
100
AcDbEntity
  8
RACCORDO
100
AcDbPolyline
 62
250
  6
CONTINUOUS
 90
9
 70
0
 10
27.3904499097
 20
18.1368312931
 10
27.3803591595
 20
18.1225372813
 10
27.3701023303
 20
18.1107060265
 10
27.3606000145
 20
18.0993850938
 10
27.3516704636
 20
18.0860723926
 10
27.3418856792
 20
18.0704081628
 10
27.3309727882
 20
18.0547592552
 10
27.321130527
 20
18.0396386879
 10
27.3130958441
 20
18.0239961982
  0
LINE
  5
2DA
100
AcDbEntity
  8
RACCORDO
100
AcDbLine
 62
7
  6
CONTINUOUS
 10
32.0318861439
 20
2.6923250641
 30
0.0
 11
32.4857741557
 21
2.964561773
 31
0.0
  0
LWPOLYLINE
  5
2DB
100
AcDbEntity
  8
0
100
AcDbPolyline
 62
7
  6
CONTINUOUS
 90
13
 70
0
 10
36.4968711416
 20
3.421831783
 10
36.5439065407
 20
3.4462149409
 10
36.6100712147
 20
3.4721177567
 10
36.6799475073
 20
3.4903921229
 10
36.7531949883
 20
3.5009490088
 10
36.8294568034
 20
3.5037369822
 10
36.9083614125
 20
3.4987424603
 10
36.9895244005
 20
3.4859897761
 10
37.0725503493
 20
3.4655410592
 10
37.1570347649
 20
3.4374959338
 10
37.2425660478
 20
3.4019910329
 10
37.328727498
 20
3.3591993329
 10
37.3717938324
 20
3.3352037648
  0
LWPOLYLINE
  5
2DC
100
AcDbEntity
  8
0
100
AcDbPolyline
 62
7
  6
CONTINUOUS
 90
31
 70
0
 10
38.2799338568
 20
3.8739902788
 10
38.3332846185
 20
3.9010420719
 10
38.3904109118
 20
3.9225657343
 10
38.4510146569
 20
3.9381313786
 10
38.5147904966
 20
3.9473615148
 10
38.581359942
 20
3.9499240264
 10
38.6503445973
 20
3.9455515756
 10
38.7217865182
 20
3.9339477551
 10
38.7950662903
 20
3.9149121486
 10
38.8688746083
 20
3.8886661294
 10
38.9429077834
 20
3.855325782
 10
39.0169063301
 20
3.8149872038
 10
39.0896103992
 20
3.7684203596
 10
39.1604742441
 20
3.7162032722
 10
39.2294857027
 20
3.6585436459
 10
39.2961486286
 20
3.596020843
 10
39.360084317
 20
3.5291807172
 10
39.4211296198
 20
3.458364679
 10
39.4790709457
 20
3.383946092
 10
39.533627257
 20
3.3063874307
 10
39.5845589365
 20
3.2261142769
 10
39.6316851234
 20
3.1434583326
 10
39.6747595699
 20
3.058857888
 10
39.7135410332
 20
2.9727678106
 10
39.747844755
 20
2.8855281625
 10
39.7774603175
 20
2.7975218
 10
39.8021410468
 20
2.7092603218
 10
39.821669848
 20
2.6212266943
 10
39.8358535884
 20
2.5338487197
 10
39.8445022214
 20
2.4475511644
 10
39.8474261772
 20
2.3627876377
  0
LWPOLYLINE
  5
2DD
100
AcDbEntity
  8
0
100
AcDbPolyline
 62
7
  6
CONTINUOUS
 90
10
 70
0
 10
33.8137952325
 20
2.913504607
 10
33.8846570577
 20
2.9467132454
 10
33.9593716804
 20
2.9716197242
 10
34.0379391005
 20
2.9882240435
 10
34.1229278497
 20
2.9965262031
 10
34.2117693964
 20
2.9965262031
 10
34.2967581456
 20
2.9882240435
 10
34.3753255657
 20
2.9716197242
 10
34.4500401884
 20
2.9467132454
 10
34.5209020136
 20
2.913504607
  0
LWPOLYLINE
  5
2DE
100
AcDbEntity
  8
0
100
AcDbPolyline
 62
7
  6
CONTINUOUS
 90
10
 70
0
 10
33.8137952325
 20
2.0970343302
 10
33.8846570577
 20
2.1302429686
 10
33.9593716804
 20
2.1551494475
 10
34.0379391005
 20
2.1717537667
 10
34.1229278497
 20
2.1800559263
 10
34.2117693964
 20
2.1800559263
 10
34.2967581456
 20
2.1717537667
 10
34.3753255657
 20
2.1551494475
 10
34.4500401884
 20
2.1302429686
 10
34.5209020136
 20
2.0970343302
  0
LINE
  5
2DF
100
AcDbEntity
  8
0
100
AcDbLine
 62
7
  6
CONTINUOUS
 10
35.1572981167
 20
3.6892263343
 30
0.0
 11
35.2856752853
 21
3.7479390092
 31
0.0
  0
LWPOLYLINE
  5
2E0
100
AcDbEntity
  8
0
100
AcDbPolyline
 62
7
  6
CONTINUOUS
 90
3
 70
0
 10
32.0280927262
 20
5.8125202535
 10
32.0746851864
 20
5.8011932419
 10
32.1217878204
 20
5.7801407965
  0
LWPOLYLINE
  5
2E1
100
AcDbEntity
  8
0
100
AcDbPolyline
 62
250
  6
CONTINUOUS
 90
4
 70
0
 10
33.425308393
 20
1.872726898
 10
33.5275304953
 20
1.8371831845
 10
33.7430845543
 20
1.7297765799
 10
33.9586386134
 20
1.5882667602
  0
LWPOLYLINE
  5
2E2
100
AcDbEntity
  8
RACCORDO
100
AcDbPolyline
 62
250
  6
CONTINUOUS
 90
13
 70
0
 10
7.8385532817
 20
10.1103098229
 10
7.8579917544
 20
10.1004526055
 10
7.879471328
 20
10.0921266434
 10
7.9026325874
 20
10.0854712506
 10
7.9270879788
 20
10.0805977876
 10
7.9524282956
 20
10.077587798
 10
7.978229526
 20
10.0764916442
 10
8.0040599451
 20
10.0773276654
 10
8.0294873416
 20
10.0800818702
 10
8.054086251
 20
10.0847081715
 10
8.0774450702
 20
10.0911291575
 10
8.0991729448
 20
10.0992373864
 10
8.1189063121
 20
10.1088971845
  0
LINE
  5
2E3
100
AcDbEntity
  8
0
100
AcDbLine
 62
7
  6
CONTINUOUS
 10
35.3694301511
 20
-6.9658330881
 30
0.0
 11
34.5209020136
 21
-6.4759035761
 31
0.0
  0
LINE
  5
2E4
100
AcDbEntity
  8
0
100
AcDbLine
 62
7
  6
CONTINUOUS
 10
35.3694301511
 20
-6.1493628113
 30
0.0
 11
34.5209020136
 21
-5.6594332993
 31
0.0
  0
LINE
  5
2E5
100
AcDbEntity
  8
RACCORDO
100
AcDbLine
 62
250
  6
CONTINUOUS
 10
7.7678533732
 20
10.2327656565
 30
0.0
 11
-24.8516552944
 21
29.0668611427
 31
0.0
  0
LINE
  5
2E6
100
AcDbEntity
  8
RACCORDO
100
AcDbLine
 62
250
  6
CONTINUOUS
 10
7.9068065864
 20
10.4762646852
 30
0.0
 11
-24.7127020812
 21
29.3103601714
 31
0.0
  0
LINE
  5
2E7
100
AcDbEntity
  8
RACCORDO
100
AcDbLine
 62
7
  6
CONTINUOUS
 10
-24.9293076564
 20
29.68523468
 30
0.0
 11
7.9283387835
 21
10.7136414286
 31
0.0
  0
LINE
  5
2E8
100
AcDbEntity
  8
0
100
AcDbLine
 62
7
  6
CONTINUOUS
 10
35.0865874386
 20
-4.9245390313
 30
0.0
 11
35.5108515073
 21
-5.1695037873
 31
0.0
  0
LINE
  5
2E9
100
AcDbEntity
  8
RACCORDO
100
AcDbLine
 62
250
  6
CONTINUOUS
 10
-24.9707241806
 20
29.7767820522
 30
0.0
 11
7.8869222593
 21
10.8051888008
 31
0.0
  0
LINE
  5
2EA
100
AcDbEntity
  8
0
100
AcDbLine
 62
7
  6
CONTINUOUS
 10
32.1345673716
 20
-3.1384247235
 30
0.0
 11
35.1572981167
 21
-4.883711572
 31
0.0
  0
LWPOLYLINE
  5
2EB
100
AcDbEntity
  8
RACCORDO
100
AcDbPolyline
 62
7
  6
CONTINUOUS
 90
24
 70
0
 10
7.9283770368
 20
10.7136193586
 10
7.9457912804
 20
10.7030585579
 10
7.9697864711
 20
10.6868904786
 10
7.9947239976
 20
10.6681309152
 10
8.0201937111
 20
10.646902107
 10
8.0459626476
 20
10.6232475765
 10
8.0718158586
 20
10.5972203343
 10
8.0974054862
 20
10.5690466464
 10
8.1225082444
 20
10.5388756728
 10
8.1469142481
 20
10.5068683072
 10
8.1703314896
 20
10.4733390625
 10
8.1925779962
 20
10.4385072682
 10
8.2134822142
 20
10.4026077955
 10
8.2328199644
 20
10.3660234952
 10
8.2504694001
 20
10.3290173974
 10
8.2663257893
 20
10.2918575693
 10
8.2802553688
 20
10.2549581986
 10
8.2922184031
 20
10.2185823663
 10
8.3021931925
 20
10.1829968385
 10
8.3101503375
 20
10.1486207872
 10
8.3161453786
 20
10.115671879
 10
8.3202522696
 20
10.0843774092
 10
8.3225636371
 20
10.055158592
 10
8.3232429956
 20
10.0297048457
  0
LWPOLYLINE
  5
2EC
100
AcDbEntity
  8
RACCORDO
100
AcDbPolyline
 62
250
  6
CONTINUOUS
 90
5
 70
0
 10
7.8869222593
 20
10.8051888008
 10
7.9192661883
 20
10.7852241298
 10
7.9511010424
 20
10.763263539
 10
7.9824268217
 20
10.7393070285
 10
8.0133224744
 20
10.7132703864
  0
LWPOLYLINE
  5
2ED
100
AcDbEntity
  8
RACCORDO
100
AcDbPolyline
 62
250
  6
CONTINUOUS
 90
9
 70
0
 10
8.3818216191
 20
9.947997966
 10
8.3679603377
 20
9.956876172
 10
8.3557628022
 20
9.96653413
 10
8.3453597007
 20
9.9768683618
 10
8.3368624951
 20
9.9877681431
 10
8.3303622273
 20
9.9991166904
 10
8.325928543
 20
10.0107924119
 10
8.3236089461
 20
10.0226702103
 10
8.3232429753
 20
10.0296528846
  0
LWPOLYLINE
  5
2EE
100
AcDbEntity
  8
RACCORDO
100
AcDbPolyline
 62
250
  6
CONTINUOUS
 90
7
 70
0
 10
-24.922355203
 20
29.0260477914
 10
-24.9394272655
 20
29.0372712927
 10
-24.9538473069
 20
29.0496733011
 10
-24.9653740411
 20
29.0630462975
 10
-24.9738145948
 20
29.0771665158
 10
-24.9790277348
 20
29.0917976868
 10
-24.9809338467
 20
29.10770271
  0
LWPOLYLINE
  5
2EF
100
AcDbEntity
  8
RACCORDO
100
AcDbPolyline
 62
250
  6
CONTINUOUS
 90
17
 70
0
 10
8.0133224744
 20
10.7132703864
 10
8.0437090523
 20
10.6852378246
 10
8.0733497103
 20
10.6554619788
 10
8.1022850081
 20
10.6238890259
 10
8.1304743861
 20
10.590572789
 10
8.1575593209
 20
10.5559273736
 10
8.1835316975
 20
10.5199189748
 10
8.2083996308
 20
10.4825813975
 10
8.2318289419
 20
10.4444301614
 10
8.2537781874
 20
10.4054974631
 10
8.2742888105
 20
10.365751106
 10
8.2931509622
 20
10.3256100195
 10
8.3103185728
 20
10.2852904007
 10
8.3258377118
 20
10.2445760526
 10
8.3396367382
 20
10.2032373142
 10
8.3518526465
 20
10.1609619059
 10
8.3623484422
 20
10.1180621073
  0
LWPOLYLINE
  5
2F0
100
AcDbEntity
  8
RACCORDO
100
AcDbPolyline
 62
250
  6
CONTINUOUS
 90
5
 70
0
 10
8.3623484422
 20
10.1180621073
 10
8.3706414998
 20
10.0752450963
 10
8.3765709443
 20
10.0327465987
 10
8.3802976507
 20
9.9903308886
 10
8.3818216191
 20
9.947997966
  0
LWPOLYLINE
  5
2F1
100
AcDbEntity
  8
RACCORDO
100
AcDbPolyline
 62
250
  6
CONTINUOUS
 90
22
 70
0
 10
8.3725213888
 20
-34.7098367971
 10
8.3654215882
 20
-34.7414115387
 10
8.3563386527
 20
-34.771253433
 10
8.3453729445
 20
-34.7991469517
 10
8.3324981314
 20
-34.8251237236
 10
8.3177405456
 20
-34.8491521198
 10
8.3012795453
 20
-34.8709217257
 10
8.283081796
 20
-34.8904039245
 10
8.2631806322
 20
-34.9076273328
 10
8.2418554158
 20
-34.9223673867
 10
8.2191133072
 20
-34.9345803673
 10
8.194947146
 20
-34.9443099933
 10
8.1696148127
 20
-34.9514628565
 10
8.1432805085
 20
-34.9560805699
 10
8.1157800323
 20
-34.9581215205
 10
8.0868786613
 20
-34.957367461
 10
8.0563744487
 20
-34.9538599725
 10
8.0244693414
 20
-34.9475574738
 10
7.9915344571
 20
-34.9381169739
 10
7.9576935015
 20
-34.9254241425
 10
7.922822769
 20
-34.9095933098
 10
7.8869222593
 20
-34.8906244759
  0
LWPOLYLINE
  5
2F2
100
AcDbEntity
  8
RACCORDO
100
AcDbPolyline
 62
250
  6
CONTINUOUS
 90
10
 70
0
 10
27.3130958441
 20
18.0239961982
 10
27.298087925
 20
17.9942558632
 10
27.292235513
 20
17.9802765087
 10
27.2872230228
 20
17.9672905298
 10
27.2831445631
 20
17.9554963089
 10
27.2804352423
 20
17.9448865161
 10
27.2787721725
 20
17.9357870515
 10
27.2781556426
 20
17.9283550251
 10
27.2789092809
 20
17.9225323739
 10
27.2811520697
 20
17.9183126539
  0
LWPOLYLINE
  5
2F3
100
AcDbEntity
  8
0
100
AcDbPolyline
 62
7
  6
CONTINUOUS
 90
7
 70
0
 10
36.8663635023
 20
3.1995984028
 10
36.9632471791
 20
3.2653145505
 10
37.077287187
 20
3.3057198826
 10
37.2038050183
 20
3.318035547
 10
37.3399556366
 20
3.3019845985
 10
37.4826773903
 20
3.2579279786
 10
37.6320774263
 20
3.1849483249
  0
LINE
  5
2F4
100
AcDbEntity
  8
0
100
AcDbLine
 62
7
  6
CONTINUOUS
 10
32.0318861439
 20
1.8846526318
 30
0.0
 11
33.8137952325
 21
2.913504607
 31
0.0
  0
LINE
  5
2F5
100
AcDbEntity
  8
0
100
AcDbLine
 62
7
  6
CONTINUOUS
 10
35.0865874386
 20
3.648398875
 30
0.0
 11
35.1572981167
 21
3.6892263343
 31
0.0
  0
LINE
  5
2F6
100
AcDbEntity
  8
0
100
AcDbLine
 62
250
  6
CONTINUOUS
 10
35.8644048979
 20
3.2810306509
 30
0.0
 11
35.5108515073
 21
3.0768933542
 31
0.0
  0
LINE
  5
2F7
100
AcDbEntity
  8
0
100
AcDbLine
 62
7
  6
CONTINUOUS
 10
32.0318861439
 20
1.068182355
 30
0.0
 11
33.8137952325
 21
2.0970343302
 31
0.0
  0
LINE
  5
2F8
100
AcDbEntity
  8
0
100
AcDbLine
 62
7
  6
CONTINUOUS
 10
32.0318861439
 20
0.8438054047
 30
0.0
 11
33.0094636303
 21
1.4082463934
 31
0.0
  0
LINE
  5
2F9
100
AcDbEntity
  8
0
100
AcDbLine
 62
7
  6
CONTINUOUS
 10
35.8644048979
 20
3.0566537005
 30
0.0
 11
36.4968711416
 21
3.421831783
 31
0.0
  0
LINE
  5
2FA
100
AcDbEntity
  8
0
100
AcDbLine
 62
7
  6
CONTINUOUS
 10
35.3694301511
 20
2.423575095
 30
0.0
 11
35.5108515073
 21
2.5052300137
 31
0.0
  0
LINE
  5
2FB
100
AcDbEntity
  8
0
100
AcDbLine
 62
7
  6
CONTINUOUS
 10
32.0318861439
 20
0.4187983241
 30
0.0
 11
33.6345645845
 21
1.3441647695
 31
0.0
  0
LINE
  5
2FC
100
AcDbEntity
  8
0
100
AcDbLine
 62
7
  6
CONTINUOUS
 10
35.8644048979
 20
2.6316466199
 30
0.0
 11
36.941168963
 21
3.2533566961
 31
0.0
  0
LINE
  5
2FD
100
AcDbEntity
  8
0
100
AcDbLine
 62
7
  6
CONTINUOUS
 10
37.3590683797
 20
3.3422940935
 30
0.0
 11
38.2799338568
 21
3.8739902788
 31
0.0
  0
LINE
  5
2FE
100
AcDbEntity
  8
0
100
AcDbLine
 62
7
  6
CONTINUOUS
 10
35.3694301511
 20
1.6071048182
 30
0.0
 11
35.5108515073
 21
1.6887597369
 31
0.0
  0
LINE
  5
2FF
100
AcDbEntity
  8
0
100
AcDbLine
 62
7
  6
CONTINUOUS
 10
35.1572981167
 20
0.8202052833
 30
0.0
 11
35.8644048979
 21
1.2284798766
 31
0.0
  0
LINE
  5
300
100
AcDbEntity
  8
0
100
AcDbLine
 62
7
  6
CONTINUOUS
 10
38.6088978402
 20
1.1771321155
 30
0.0
 11
39.5299942572
 21
1.7089616426
 31
0.0
  0
LINE
  5
301
100
AcDbEntity
  8
0
100
AcDbLine
 62
7
  6
CONTINUOUS
 10
32.0318861439
 20
-2.7727044969
 30
0.0
 11
35.0349945761
 21
-1.0387473259
 31
0.0
  0
LINE
  5
302
100
AcDbEntity
  8
0
100
AcDbLine
 62
7
  6
CONTINUOUS
 10
36.731814748
 20
-0.0590246249
 30
0.0
 11
38.3231747387
 21
0.8598066894
 31
0.0
  0
LINE
  5
303
100
AcDbEntity
  8
0
100
AcDbLine
 62
250
  6
CONTINUOUS
 10
36.512075908
 20
-0.4273833365
 30
0.0
 11
36.7482883744
 21
-0.2909972189
 31
0.0
  0
LINE
  5
304
100
AcDbEntity
  8
0
100
AcDbLine
 62
7
  6
CONTINUOUS
 10
-11.2788751369
 20
-28.1251532808
 30
0.0
 11
-11.2576619335
 21
-28.112905043
 31
0.0
  0
LINE
  5
305
100
AcDbEntity
  8
0
100
AcDbLine
 62
7
  6
CONTINUOUS
 10
32.0318861439
 20
-3.1977115775
 30
0.0
 11
34.7595481908
 21
-1.6227936972
 31
0.0
  0
LINE
  5
306
100
AcDbEntity
  8
0
100
AcDbLine
 62
7
  6
CONTINUOUS
 10
36.7334273731
 20
-0.4831005959
 30
0.0
 11
38.2469557021
 21
0.3907916923
 31
0.0
  0
LINE
  5
307
100
AcDbEntity
  8
0
100
AcDbLine
 62
7
  6
CONTINUOUS
 10
35.1572981167
 20
-2.8311607977
 30
0.0
 11
35.2394758905
 21
-2.7890779735
 31
0.0
  0
LWPOLYLINE
  5
308
100
AcDbEntity
  8
RACCORDO
100
AcDbPolyline
 62
250
  6
CONTINUOUS
 90
9
 70
0
 10
28.5304938811
 20
16.8277340927
 10
28.5485679141
 20
16.8284673718
 10
28.5669041436
 20
16.831122436
 10
28.5852047407
 20
16.8356561359
 10
28.603172474
 20
16.8419948137
 10
28.6205155368
 20
16.8500355039
 10
28.6369522588
 20
16.8596475991
 10
28.652215682
 20
16.8706749664
 10
28.6660579153
 20
16.882938491
  0
LWPOLYLINE
  5
309
100
AcDbEntity
  8
RACCORDO
100
AcDbPolyline
 62
250
  6
CONTINUOUS
 90
9
 70
0
 10
-24.7127020812
 20
29.3103601714
 10
-24.7351699002
 20
29.3216986253
 10
-24.7573161839
 20
29.3302148581
 10
-24.7788998001
 20
29.3358350586
 10
-24.7996698352
 20
29.3385170142
 10
-24.8194262857
 20
29.3382576275
 10
-24.8380124578
 20
29.3350661733
 10
-24.8552297394
 20
29.3289712685
 10
-24.8662291112
 20
29.3230923123
  0
LWPOLYLINE
  5
30A
100
AcDbEntity
  8
RACCORDO
100
AcDbPolyline
 62
250
  6
CONTINUOUS
 90
16
 70
0
 10
-24.8516552944
 20
29.0668611427
 10
-24.8591918789
 20
29.0707138478
 10
-24.8664771531
 20
29.0735876972
 10
-24.8735111172
 20
29.0754826909
 10
-24.8803577404
 20
29.0763956708
 10
-24.8869530535
 20
29.0763297949
 10
-24.8931051483
 20
29.0752945375
 10
-24.898805275
 20
29.0732667496
 10
-24.9040621836
 20
29.0702695801
 10
-24.9087102156
 20
29.0663819495
 10
-24.9127358362
 20
29.0615733698
 10
-24.9161525804
 20
29.0558743291
 10
-24.9188353945
 20
29.0494552124
 10
-24.9207425941
 20
29.0423728147
 10
-24.9219158635
 20
29.034570341
 10
-24.922355203
 20
29.0260477914
  0
LWPOLYLINE
  5
30B
100
AcDbEntity
  8
RACCORDO
100
AcDbPolyline
 62
250
  6
CONTINUOUS
 90
16
 70
0
 10
-25.4656235403
 20
29.4910885929
 10
-25.4502470372
 20
29.4830852675
 10
-25.4335200506
 20
29.4760425661
 10
-25.4156217983
 20
29.4700359467
 10
-25.3967440468
 20
29.4651297663
 10
-25.377089058
 20
29.4613765916
 10
-25.3568674214
 20
29.4588166356
 10
-25.3362957976
 20
29.4574773267
 10
-25.3155945972
 20
29.4573730151
 10
-25.2949856196
 20
29.4585048187
 10
-25.274689676
 20
29.4608606113
 10
-25.2549242234
 20
29.4644151525
 10
-25.2359010358
 20
29.4691303578
 10
-25.2178239339
 20
29.4749557071
 10
-25.2008866012
 20
29.4818287861
 10
-25.18527051
 20
29.4896759545
  0
LWPOLYLINE
  5
30C
100
AcDbEntity
  8
0
100
AcDbPolyline
 62
250
  6
CONTINUOUS
 90
6
 70
0
 10
35.4047854901
 20
-1.1483738649
 10
35.2991234039
 20
-1.0776539973
 10
35.2125667032
 20
-0.9987515548
 10
35.1469871906
 20
-0.9133728152
 10
35.1038030333
 20
-0.8233641074
 10
35.0839480957
 20
-0.7306718841
  0
LWPOLYLINE
  5
30D
100
AcDbEntity
  8
RACCORDO
100
AcDbPolyline
 62
250
  6
CONTINUOUS
 90
11
 70
0
 10
21.9525699854
 20
-55.2922401081
 10
21.9540786438
 20
-55.3326449706
 10
21.9585938876
 20
-55.3710203628
 10
21.9660836146
 20
-55.4070933567
 10
21.9764945685
 20
-55.4406073974
 10
21.9897527167
 20
-55.471324127
 10
22.0057637765
 20
-55.4990250796
 10
22.0244138869
 20
-55.5235132387
 10
22.0455704169
 20
-55.5446144347
 10
22.0690829067
 20
-55.5621785839
 10
22.0768195776
 20
-55.5668822361
  0
LWPOLYLINE
  5
30E
100
AcDbEntity
  8
RACCORDO
100
AcDbPolyline
 62
250
  6
CONTINUOUS
 90
28
 70
0
 10
22.5880939297
 20
13.863387247
 10
22.5868794716
 20
13.9075238053
 10
22.5836383588
 20
13.9520678207
 10
22.5783705912
 20
13.9970192933
 10
22.5710531192
 20
14.0423938709
 10
22.5617089923
 20
14.0881759056
 10
22.5504073602
 20
14.1343184537
 10
22.5371177708
 20
14.1809787185
 10
22.521870676
 20
14.2279994968
 10
22.5048265811
 20
14.2748622345
 10
22.4859735974
 20
14.3215404343
 10
22.4653236136
 20
14.3680605936
 10
22.4430728006
 20
14.4139836502
 10
22.4191987692
 20
14.4593153314
 10
22.3937239086
 20
14.5040499099
 10
22.3669115575
 20
14.5477311416
 10
22.3388526348
 20
14.5902374665
 10
22.3094562216
 20
14.6316904446
 10
22.2787129008
 20
14.6719985115
 10
22.2465355187
 20
14.7112967458
 10
22.213011229
 20
14.7494500689
 10
22.1783920757
 20
14.7859616816
 10
22.1425998188
 20
14.8208665332
 10
22.1057126982
 20
14.8541296743
 10
22.0682174782
 20
14.885149457
 10
22.0302764134
 20
14.913725332
 10
21.9917272492
 20
14.9400578486
 10
21.9525699854
 20
14.9641470069
  0
LINE
  5
30F
100
AcDbEntity
  8
RACCORDO
100
AcDbLine
 62
250
  6
CONTINUOUS
 10
22.5880939297
 20
-54.9253674692
 30
0.0
 11
22.5880939297
 21
13.863387247
 31
0.0
  0
LINE
  5
310
100
AcDbEntity
  8
RACCORDO
100
AcDbLine
 62
250
  6
CONTINUOUS
 10
23.4138363622
 20
-54.9378522182
 30
0.0
 11
23.4138363622
 21
13.8509024979
 31
0.0
  0
LWPOLYLINE
  5
311
100
AcDbEntity
  8
RACCORDO
100
AcDbPolyline
 62
250
  6
CONTINUOUS
 90
19
 70
0
 10
21.9525699854
 20
14.9641470069
 10
21.9540786647
 20
15.0062943779
 10
21.9585939728
 20
15.0498841826
 10
21.9660837971
 20
15.0946064111
 10
21.9764948699
 20
15.1401429996
 10
21.989753148
 20
15.1861700927
 10
22.0057643386
 20
15.2323603466
 10
22.0244145705
 20
15.278385257
 10
22.0455712035
 20
15.3239174955
 10
22.0690837721
 20
15.3686332376
 10
22.0947850553
 20
15.4122144659
 10
22.122492266
 20
15.4543512313
 10
22.152008351
 20
15.4947438579
 10
22.1831233924
 20
15.5331050741
 10
22.2156161006
 20
15.5691620556
 10
22.2492553881
 20
15.6026583657
 10
22.2838020128
 20
15.6333557794
 10
22.3190102798
 20
15.661035977
 10
22.3546297884
 20
15.6855020977
  0
LWPOLYLINE
  5
312
100
AcDbEntity
  8
RACCORDO
100
AcDbPolyline
 62
250
  6
CONTINUOUS
 90
13
 70
0
 10
27.2563281081
 20
17.9827148521
 10
27.2606631258
 20
17.9959470817
 10
27.2675151333
 20
18.0092357374
 10
27.276409542
 20
18.0227215848
 10
27.285676077
 20
18.0373762613
 10
27.2958417452
 20
18.0522809549
 10
27.3086894904
 20
18.0657377168
 10
27.3239224632
 20
18.0796822965
 10
27.3375683123
 20
18.0942561828
 10
27.3485893997
 20
18.1056618865
 10
27.3602086554
 20
18.113992057
 10
27.3744516971
 20
18.1232825778
 10
27.3904499097
 20
18.1368312931
  0
LWPOLYLINE
  5
313
100
AcDbEntity
  8
0
100
AcDbPolyline
 62
7
  6
CONTINUOUS
 90
13
 70
0
 10
35.2394758905
 20
-2.7890779735
 10
35.3688852025
 20
-2.6974515025
 10
35.5429779061
 20
-2.5227320288
 10
35.6795762274
 20
-2.3070023768
 10
35.7798730517
 20
-2.0444975061
 10
35.8426754937
 20
-1.740982457
 10
35.8644048979
 20
-1.4137523505
 10
35.8426754937
 20
-1.0614296729
 10
35.7798730517
 20
-0.6853919379
 10
35.6795762274
 20
-0.3070668085
 10
35.5429779061
 20
0.066403161
 10
35.3688852025
 20
0.4421605249
 10
35.1572981167
 20
0.8202052833
  0
LWPOLYLINE
  5
314
100
AcDbEntity
  8
0
100
AcDbPolyline
 62
7
  6
CONTINUOUS
 90
13
 70
0
 10
35.9465826717
 20
-2.3808033801
 10
36.0759919837
 20
-2.2891769091
 10
36.2500846873
 20
-2.1144574355
 10
36.3866830086
 20
-1.8987277835
 10
36.4869798329
 20
-1.6362229128
 10
36.5497822749
 20
-1.3327078636
 10
36.5715116791
 20
-1.0054777572
 10
36.5497822749
 20
-0.6531550796
 10
36.4869798329
 20
-0.2771173446
 10
36.3866830086
 20
0.1012077848
 10
36.2500846873
 20
0.4746777543
 10
36.0759919837
 20
0.8504351183
 10
35.8644048979
 20
1.2284798766
  0
LINE
  5
315
100
AcDbEntity
  8
0
100
AcDbLine
 62
7
  6
CONTINUOUS
 10
-11.4562585298
 20
-28.6588381608
 30
0.0
 11
-11.4350453264
 21
-28.646589923
 31
0.0
  0
LINE
  5
316
100
AcDbEntity
  8
0
100
AcDbLine
 62
7
  6
CONTINUOUS
 10
-9.4258275706
 20
-28.498475446
 30
0.0
 11
-9.4046143672
 21
-28.4862272082
 31
0.0
  0
LINE
  5
317
100
AcDbEntity
  8
0
100
AcDbLine
 62
7
  6
CONTINUOUS
 10
35.9502638159
 20
-2.3786883407
 30
0.0
 11
35.2431570348
 21
-2.786962934
 31
0.0
  0
LINE
  5
318
100
AcDbEntity
  8
0
100
AcDbLine
 62
7
  6
CONTINUOUS
 10
-10.4260152634
 20
-29.2536877109
 30
0.0
 11
-10.4048020599
 21
-29.2414394731
 31
0.0
  0
LINE
  5
319
100
AcDbEntity
  8
0
100
AcDbLine
 62
7
  6
CONTINUOUS
 10
-9.8584277212
 20
-29.5814056442
 30
0.0
 11
-9.8372145177
 21
-29.5691574064
 31
0.0
  0
LINE
  5
31A
100
AcDbEntity
  8
0
100
AcDbLine
 62
7
  6
CONTINUOUS
 10
-8.9651008336
 20
-29.189388504
 30
0.0
 11
-8.9438876302
 21
-29.1771402662
 31
0.0
  0
LINE
  5
31B
100
AcDbEntity
  8
0
100
AcDbLine
 62
7
  6
CONTINUOUS
 10
-8.5025448114
 20
-29.0371226035
 30
0.0
 11
-8.481331608
 21
-29.0248743657
 31
0.0
  0
LINE
  5
31C
100
AcDbEntity
  8
0
100
AcDbLine
 62
7
  6
CONTINUOUS
 10
-8.9929891251
 20
-30.0810990431
 30
0.0
 11
-8.9717759216
 21
-30.0688508053
 31
0.0
  0
LINE
  5
31D
100
AcDbEntity
  8
0
100
AcDbLine
 62
250
  6
CONTINUOUS
 10
35.8644048979
 20
-4.4754369787
 30
0.0
 11
35.1572981167
 21
-4.883711572
 31
0.0
  0
LINE
  5
31E
100
AcDbEntity
  8
0
100
AcDbLine
 62
7
  6
CONTINUOUS
 10
35.1572981167
 20
-4.883711572
 30
0.0
 11
35.0865874386
 21
-4.9245390313
 31
0.0
  0
LINE
  5
31F
100
AcDbEntity
  8
0
100
AcDbLine
 62
7
  6
CONTINUOUS
 10
33.8137952325
 20
-5.6594332993
 30
0.0
 11
32.0318861439
 21
-6.6882852745
 31
0.0
  0
LINE
  5
320
100
AcDbEntity
  8
0
100
AcDbLine
 62
7
  6
CONTINUOUS
 10
-7.2819017304
 20
-29.5889033562
 30
0.0
 11
-7.2606885269
 21
-29.5766551184
 31
0.0
  0
LINE
  5
321
100
AcDbEntity
  8
0
100
AcDbLine
 62
7
  6
CONTINUOUS
 10
-8.426740136
 20
-30.4080441126
 30
0.0
 11
-8.4055269326
 21
-30.3957958748
 31
0.0
  0
LINE
  5
322
100
AcDbEntity
  8
0
100
AcDbLine
 62
7
  6
CONTINUOUS
 10
33.8137952325
 20
-6.4759035761
 30
0.0
 11
32.0318861439
 21
-7.5047555513
 31
0.0
  0
LINE
  5
323
100
AcDbEntity
  8
0
100
AcDbLine
 62
7
  6
CONTINUOUS
 10
-8.0078585641
 20
-30.6499010824
 30
0.0
 11
-7.9866453607
 21
-30.6376528446
 31
0.0
  0
LINE
  5
324
100
AcDbEntity
  8
0
100
AcDbLine
 62
7
  6
CONTINUOUS
 10
-7.5410874784
 20
-30.5119607962
 30
0.0
 11
-7.5198742749
 21
-30.4997125584
 31
0.0
  0
LINE
  5
325
100
AcDbEntity
  8
0
100
AcDbLine
 62
7
  6
CONTINUOUS
 10
-7.1123580303
 20
-30.444222176
 30
0.0
 11
-7.0911448269
 21
-30.4319739382
 31
0.0
  0
LINE
  5
326
100
AcDbEntity
  8
0
100
AcDbLine
 62
7
  6
CONTINUOUS
 10
-6.0905781413
 20
-30.063652514
 30
0.0
 11
-6.0693649379
 21
-30.0514042762
 31
0.0
  0
LINE
  5
327
100
AcDbEntity
  8
0
100
AcDbLine
 62
7
  6
CONTINUOUS
 10
35.5108515073
 20
-6.0677078926
 30
0.0
 11
35.3694301511
 21
-6.1493628113
 31
0.0
  0
LINE
  5
328
100
AcDbEntity
  8
0
100
AcDbLine
 62
7
  6
CONTINUOUS
 10
-7.0386209352
 20
-30.8020786809
 30
0.0
 11
-7.0174077318
 21
-30.7898304431
 31
0.0
  0
LINE
  5
329
100
AcDbEntity
  8
0
100
AcDbLine
 62
250
  6
CONTINUOUS
 10
-5.8015286641
 20
-30.2185316813
 30
0.0
 11
-5.7803154607
 21
-30.2062834435
 31
0.0
  0
LWPOLYLINE
  5
32A
100
AcDbEntity
  8
RACCORDO
100
AcDbPolyline
 62
250
  6
CONTINUOUS
 90
11
 70
0
 10
28.7560893189
 20
15.5547200008
 10
28.7632086821
 20
15.5526461899
 10
28.7811933752
 20
15.5489732005
 10
28.7998400262
 20
15.5466478673
 10
28.8188470533
 20
15.5457078033
 10
28.8379070362
 20
15.5461682182
 10
28.8567116942
 20
15.5480216704
 10
28.8749568812
 20
15.5512381878
 10
28.8923474935
 20
15.5557657526
 10
28.9086022434
 20
15.5615311399
 10
28.9234582148
 20
15.5684411039
  0
LWPOLYLINE
  5
32B
100
AcDbEntity
  8
RACCORDO
100
AcDbPolyline
 62
250
  6
CONTINUOUS
 90
19
 70
0
 10
22.5880939297
 20
13.863387247
 10
22.6253497468
 20
13.843618366
 10
22.6653579589
 20
13.8257322162
 10
22.7078340407
 20
13.8098560079
 10
22.752475915
 20
13.7961026578
 10
22.7989660986
 20
13.7845699856
 10
22.84697396
 20
13.7753400186
 10
22.8961580755
 20
13.7684784068
 10
22.9461686519
 20
13.7640339573
 10
22.9966500117
 20
13.7620382866
 10
23.0472431344
 20
13.7625055947
 10
23.0975882004
 20
13.7654325651
 10
23.1473271456
 20
13.7707983867
 10
23.1961062247
 20
13.7785649033
 10
23.2435785159
 20
13.7886768845
 10
23.289406381
 20
13.801062416
 10
23.3332638839
 20
13.8156334136
 10
23.3748391076
 20
13.8322862519
 10
23.4138363622
 20
13.8509024979
  0
LINE
  5
32C
100
AcDbEntity
  8
0
100
AcDbLine
 62
7
  6
CONTINUOUS
 10
34.5209020136
 20
2.0970343302
 30
0.0
 11
35.3694301511
 21
1.6071048182
 31
0.0
  0
LINE
  5
32D
100
AcDbEntity
  8
0
100
AcDbLine
 62
7
  6
CONTINUOUS
 10
34.5209020136
 20
2.913504607
 30
0.0
 11
35.3694301511
 21
2.423575095
 31
0.0
  0
LINE
  5
32E
100
AcDbEntity
  8
0
100
AcDbLine
 62
7
  6
CONTINUOUS
 10
35.5108515073
 20
3.403434119
 30
0.0
 11
35.0865874386
 21
3.648398875
 31
0.0
  0
LINE
  5
32F
100
AcDbEntity
  8
0
100
AcDbLine
 62
250
  6
CONTINUOUS
 10
35.1572981167
 20
3.6892263343
 30
0.0
 11
32.1057018004
 21
5.4511798019
 31
0.0
  0
LINE
  5
330
100
AcDbEntity
  8
0
100
AcDbLine
 62
7
  6
CONTINUOUS
 10
35.6573222768
 20
3.738767512
 30
0.0
 11
32.1217883709
 21
5.7801404787
 31
0.0
  0
LINE
  5
331
100
AcDbEntity
  8
0
100
AcDbLine
 62
7
  6
CONTINUOUS
 10
37.6320774135
 20
3.1849483323
 30
0.0
 11
37.3717938324
 21
3.3352037648
 31
0.0
  0
LINE
  5
332
100
AcDbEntity
  8
0
100
AcDbLine
 62
7
  6
CONTINUOUS
 10
37.6320774135
 20
3.1849483323
 30
0.0
 11
37.6377279132
 21
3.1816675713
 31
0.0
  0
LWPOLYLINE
  5
333
100
AcDbEntity
  8
0
100
AcDbPolyline
 62
7
  6
CONTINUOUS
 90
24
 70
0
 10
37.3717938324
 20
3.3352037648
 10
37.4150993457
 20
3.3093293105
 10
37.501260796
 20
3.2526239275
 10
37.5867920788
 20
3.1893594469
 10
37.6712764944
 20
3.1198440868
 10
37.7543024433
 20
3.0444165191
 10
37.8354654312
 20
2.9634442193
 10
37.9143700404
 20
2.8773216763
 10
37.9906318554
 20
2.7864684705
 10
38.0638793364
 20
2.6913272295
 10
38.1337556291
 20
2.592361472
 10
38.1999203031
 20
2.4900533492
 10
38.2620510108
 20
2.3849012959
 10
38.3198450576
 20
2.2774176023
 10
38.3730208768
 20
2.1681259183
 10
38.4213194011
 20
2.057558702
 10
38.464505325
 20
1.9462546256
 10
38.5023682509
 20
1.8347559515
 10
38.5347237145
 20
1.72360589
 10
38.5614140833
 20
1.613345953
 10
38.5823093245
 20
1.5045133159
 10
38.5973076384
 20
1.3976382003
 10
38.6063359549
 20
1.293241291
 10
38.6093502889
 20
1.1918311993
  0
LWPOLYLINE
  5
334
100
AcDbEntity
  8
RACCORDO
100
AcDbPolyline
 62
250
  6
CONTINUOUS
 90
11
 70
0
 10
-39.671895851
 20
49.8115250454
 10
-39.7061346291
 20
49.8330362718
 10
-39.7371125431
 20
49.8561366958
 10
-39.7646092785
 20
49.8806620275
 10
-39.7884292791
 20
49.9064378433
 10
-39.8084031375
 20
49.9332808259
 10
-39.8243887998
 20
49.9610000686
 10
-39.8362725764
 20
49.9893984326
 10
-39.8439699501
 20
50.0182739492
 10
-39.8474261772
 20
50.0474212563
 10
-39.8476317823
 20
50.0564898014
  0
LINE
  5
335
100
AcDbEntity
  8
0
100
AcDbLine
 62
250
  6
CONTINUOUS
 10
33.9586386134
 20
1.5882667602
 30
0.0
 11
34.1741926724
 21
1.4143007776
 31
0.0
  0
LWPOLYLINE
  5
336
100
AcDbEntity
  8
RACCORDO
100
AcDbPolyline
 62
250
  6
CONTINUOUS
 90
19
 70
0
 10
-34.769364522
 20
53.7455032583
 10
-34.781299842
 20
53.7553203674
 10
-34.7918809625
 20
53.7668227041
 10
-34.8009530472
 20
53.7798425022
 10
-34.8083828546
 20
53.7941897483
 10
-34.8140619817
 20
53.8096555929
 10
-34.8179088088
 20
53.8260155718
 10
-34.8198676327
 20
53.8430318511
 10
-34.8199094085
 20
53.8604566536
 10
-34.8180337156
 20
53.8780366292
 10
-34.8142679952
 20
53.8955161559
 10
-34.8086668615
 20
53.9126409153
 10
-34.8013115963
 20
53.9291617372
 10
-34.7923097369
 20
53.944838602
 10
-34.7817919671
 20
53.9594433664
 10
-34.769910285
 20
53.9727631177
 10
-34.7568378465
 20
53.9846042879
 10
-34.7427660789
 20
53.994795286
 10
-34.7279005899
 20
54.0031883466
  0
LWPOLYLINE
  5
337
100
AcDbEntity
  8
RACCORDO
100
AcDbPolyline
 62
250
  6
CONTINUOUS
 90
28
 70
0
 10
23.4138363622
 20
13.8509024979
 10
23.4106787084
 20
13.9232227098
 10
23.404007424
 20
13.9968476744
 10
23.3939323806
 20
14.071487163
 10
23.380622113
 20
14.1466250854
 10
23.364172948
 20
14.2222112313
 10
23.3445120353
 20
14.2986938067
 10
23.3216108458
 20
14.3761079209
 10
23.2956016436
 20
14.4539334139
 10
23.2665935085
 20
14.5318072176
 10
23.234701827
 20
14.6094333577
 10
23.2000211071
 20
14.6866040943
 10
23.1626519502
 20
14.7630881285
 10
23.1227038893
 20
14.8386564731
 10
23.0803187037
 20
14.913043193
 10
23.0356585142
 20
14.9859671082
 10
22.9890213537
 20
15.0569729053
 10
22.9404219267
 20
15.1260625416
 10
22.8895633227
 20
15.1936005196
 10
22.8364251771
 20
15.2594862695
 10
22.78128318
 20
15.3232480529
 10
22.7242555848
 20
15.384632484
 10
22.6654205965
 20
15.4434256075
 10
22.6050399602
 20
15.4992460285
 10
22.5435340751
 20
15.5516214951
 10
22.4811889353
 20
15.6002486713
 10
22.418146088
 20
15.6449521621
 10
22.3546297884
 20
15.6855020977
  0
LWPOLYLINE
  5
338
100
AcDbEntity
  8
0
100
AcDbPolyline
 62
7
  6
CONTINUOUS
 90
44
 70
0
 10
-5.3859455401
 20
-31.1055549129
 10
-5.3830411279
 20
-31.1038520694
 10
-5.374950204
 20
-31.0987981346
 10
-5.3668242763
 20
-31.0933020376
 10
-5.3587237561
 20
-31.0871613672
 10
-5.3506423326
 20
-31.0803545412
 10
-5.3425863166
 20
-31.0729031419
 10
-5.3346350517
 20
-31.0646695047
 10
-5.3267886946
 20
-31.0556510162
 10
-5.3190470887
 20
-31.0458502898
 10
-5.3114891071
 20
-31.0351375018
 10
-5.3040984068
 20
-31.0235117461
 10
-5.2968913309
 20
-31.0109739286
 10
-5.2899957826
 20
-30.9973969435
 10
-5.2833980199
 20
-30.982782661
 10
-5.2771117848
 20
-30.9671292109
 10
-5.2713062069
 20
-30.9503038763
 10
-5.2659783481
 20
-30.9323268235
 10
-5.2611311466
 20
-30.9131778861
 10
-5.2569425458
 20
-30.8926638477
 10
-5.2534003508
 20
-30.8707895812
 10
-5.2505167566
 20
-30.8475502136
 10
-5.2485062925
 20
-30.8227379101
 10
-5.2473377384
 20
-30.7963453224
 10
-5.2470423144
 20
-30.7683797988
 10
-5.24792821
 20
-30.7386555492
 10
-5.2498976549
 20
-30.70715452
 10
-5.2530484194
 20
-30.6738947647
 10
-5.2579820032
 20
-30.6387446536
 10
-5.2647596074
 20
-30.6013941763
 10
-5.2733200309
 20
-30.5621533432
 10
-5.2840811711
 20
-30.5218205561
 10
-5.2972895042
 20
-30.4801683742
 10
-5.3126985539
 20
-30.4374242383
 10
-5.3299867884
 20
-30.3950688731
 10
-5.3493402247
 20
-30.3531456239
 10
-5.3705728458
 20
-30.3116111452
 10
-5.3928050684
 20
-30.2718161252
 10
-5.4161197448
 20
-30.2338539162
 10
-5.4404340227
 20
-30.1976311658
 10
-5.4646197617
 20
-30.1642185042
 10
-5.488300915
 20
-30.1339728082
 10
-5.5118535294
 20
-30.1065372009
 10
-5.5352776049
 20
-30.0819116824
  0
LINE
  5
339
100
AcDbEntity
  8
0
100
AcDbLine
 62
7
  6
CONTINUOUS
 10
-6.9430398974
 20
-31.2647140353
 30
0.0
 11
-6.9218266939
 21
-31.2524657975
 31
0.0
  0
LINE
  5
33A
100
AcDbEntity
  8
0
100
AcDbLine
 62
250
  6
CONTINUOUS
 10
-5.5931087082
 20
-30.5940041075
 30
0.0
 11
-5.5718955048
 21
-30.5817558697
 31
0.0
  0
LINE
  5
33B
100
AcDbEntity
  8
0
100
AcDbLine
 62
7
  6
CONTINUOUS
 10
35.5108515073
 20
-6.8841781694
 30
0.0
 11
35.3694301511
 21
-6.9658330881
 31
0.0
  0
LINE
  5
33C
100
AcDbEntity
  8
0
100
AcDbLine
 62
7
  6
CONTINUOUS
 10
-6.078343874
 20
-30.9652595806
 30
0.0
 11
-6.0571306705
 21
-30.9530113428
 31
0.0
  0
LINE
  5
33D
100
AcDbEntity
  8
0
100
AcDbLine
 62
250
  6
CONTINUOUS
 10
-5.8805145785
 20
-31.0794837364
 30
0.0
 11
-5.859301375
 21
-31.0672354986
 31
0.0
  0
LINE
  5
33E
100
AcDbEntity
  8
0
100
AcDbLine
 62
7
  6
CONTINUOUS
 10
-6.4458225599
 20
-31.5518009152
 30
0.0
 11
-6.4246093565
 21
-31.5395526774
 31
0.0
  0
LINE
  5
33F
100
AcDbEntity
  8
0
100
AcDbLine
 62
7
  6
CONTINUOUS
 10
-5.4972360587
 20
-31.1347406522
 30
0.0
 11
-5.4760228552
 21
-31.1224924144
 31
0.0
  0
LINE
  5
340
100
AcDbEntity
  8
0
100
AcDbLine
 62
250
  6
CONTINUOUS
 10
-5.674666072
 20
-31.3781711333
 30
0.0
 11
-5.6534528686
 21
-31.3659228955
 31
0.0
  0
LINE
  5
341
100
AcDbEntity
  8
0
100
AcDbLine
 62
7
  6
CONTINUOUS
 10
-5.5133275002
 20
-32.0902118758
 30
0.0
 11
-5.4921142968
 21
-32.077963638
 31
0.0
  0
LWPOLYLINE
  5
342
100
AcDbEntity
  8
0
100
AcDbPolyline
 62
7
  6
CONTINUOUS
 90
12
 70
0
 10
-5.6675209131
 20
-30.7860077046
 10
-5.6813784498
 20
-30.7923276139
 10
-5.6965199032
 20
-30.7966690854
 10
-5.7126533001
 20
-30.7987253788
 10
-5.7298189542
 20
-30.7985456143
 10
-5.7480834032
 20
-30.7964517597
 10
-5.7675117367
 20
-30.7925012726
 10
-5.7880388652
 20
-30.7866366954
 10
-5.8095360574
 20
-30.7790076232
 10
-5.8319604029
 20
-30.769663921
 10
-5.855354812
 20
-30.7585557238
 10
-5.8797192848
 20
-30.7456830316
  0
LWPOLYLINE
  5
343
100
AcDbEntity
  8
0
100
AcDbPolyline
 62
7
  6
CONTINUOUS
 90
6
 70
0
 10
-5.422700175
 20
-31.1235352947
 10
-5.414908721
 20
-31.1201935891
 10
-5.4070434654
 20
-31.1165633113
 10
-5.3991035552
 20
-31.1126659995
 10
-5.3910898435
 20
-31.1084801156
 10
-5.3859455401
 20
-31.1055549129
  0
LWPOLYLINE
  5
344
100
AcDbEntity
  8
RACCORDO
100
AcDbPolyline
 62
250
  6
CONTINUOUS
 90
5
 70
0
 10
28.4665282831
 20
16.8437887878
 10
28.4807309304
 20
16.8370275877
 10
28.4962976615
 20
16.8320492229
 10
28.5129756139
 20
16.8289345346
 10
28.5304938811
 20
16.8277340927
  0
LWPOLYLINE
  5
345
100
AcDbEntity
  8
RACCORDO
100
AcDbPolyline
 62
250
  6
CONTINUOUS
 90
16
 70
0
 10
-38.6343121037
 20
50.8997527752
 10
-38.6978825687
 20
50.9328113974
 10
-38.7606560692
 20
50.9613528115
 10
-38.8224260594
 20
50.9853846256
 10
-38.8828097145
 20
51.0048804034
 10
-38.9418209502
 20
51.0199594046
 10
-38.9998363785
 20
51.0307549609
 10
-39.0568598846
 20
51.0372363749
 10
-39.1124884078
 20
51.039323646
 10
-39.1664690262
 20
51.0369966901
 10
-39.2185982379
 20
51.030271241
 10
-39.2687340444
 20
51.0191744355
 10
-39.3167306487
 20
51.003738253
 10
-39.3624438544
 20
50.9840059101
 10
-39.4057088493
 20
50.9600459541
 10
-39.4297987591
 20
50.9441195757
  0
LWPOLYLINE
  5
346
100
AcDbEntity
  8
RACCORDO
100
AcDbPolyline
 62
250
  6
CONTINUOUS
 90
28
 70
0
 10
-39.0363719066
 20
50.1783976843
 10
-39.0739892311
 20
50.1987151658
 10
-39.1109460098
 20
50.2163111525
 10
-39.1472422428
 20
50.2311856445
 10
-39.182879956
 20
50.2433131967
 10
-39.2178571235
 20
50.2527192541
 10
-39.2521676675
 20
50.2594801519
 10
-39.2859325072
 20
50.2636305455
 10
-39.3190307234
 20
50.2651357793
 10
-39.3510934811
 20
50.2639682223
 10
-39.3820918875
 20
50.2600974646
 10
-39.4120548354
 20
50.2535539159
 10
-39.4407001685
 20
50.2444011743
 10
-39.4680216514
 20
50.2326097872
 10
-39.4940255196
 20
50.2182092072
 10
-39.5184483235
 20
50.2013513893
 10
-39.5412302493
 20
50.1821067783
 10
-39.5624311108
 20
50.1604049294
 10
-39.5819668994
 20
50.1361864634
 10
-39.599911019
 20
50.1093931298
 10
-39.6161900657
 20
50.0800831791
 10
-39.6304998189
 20
50.0483719841
 10
-39.6428314229
 20
50.0141640908
 10
-39.6531937334
 20
49.9775549533
 10
-39.6613090968
 20
49.9389463064
 10
-39.6670849619
 20
49.898472062
 10
-39.67061388
 20
49.8559983084
 10
-39.671895851
 20
49.8115250454
  0
LINE
  5
347
100
AcDbEntity
  8
RACCORDO
100
AcDbLine
 62
250
  6
CONTINUOUS
 10
21.9525699854
 20
14.9641470069
 30
0.0
 11
-39.0363719066
 21
50.1783976843
 31
0.0
  0
LINE
  5
348
100
AcDbEntity
  8
RACCORDO
100
AcDbLine
 62
250
  6
CONTINUOUS
 10
22.3546297884
 20
15.6855020977
 30
0.0
 11
-38.6343121037
 21
50.8997527752
 31
0.0
  0
LWPOLYLINE
  5
349
100
AcDbEntity
  8
0
100
AcDbPolyline
 62
7
  6
CONTINUOUS
 90
8
 70
0
 10
37.6377279135
 20
3.1816675712
 10
37.8441011313
 20
3.0356730241
 10
38.0409018826
 20
2.8454546729
 10
38.2192410294
 20
2.61960434
 10
38.3710633114
 20
2.3683232812
 10
38.4895111877
 20
2.1029614124
 10
38.5692345796
 20
1.8355046547
 10
38.6067526712
 20
1.5760869001
  0
LWPOLYLINE
  5
34A
100
AcDbEntity
  8
0
100
AcDbPolyline
 62
7
  6
CONTINUOUS
 90
6
 70
0
 10
35.6573217263
 20
3.7387678299
 10
35.699060639
 20
3.708534194
 10
35.7696705524
 20
3.6345673655
 10
35.8194803009
 20
3.5394025411
 10
35.851058416
 20
3.4215569696
 10
35.8644048979
 20
3.2810306509
  0
LWPOLYLINE
  5
34B
100
AcDbEntity
  8
0
100
AcDbPolyline
 62
250
  6
CONTINUOUS
 90
6
 70
0
 10
34.1741926724
 20
1.4143007776
 10
34.378989972
 20
1.2165600285
 10
34.572484639
 20
0.9938380153
 10
34.7552225466
 20
0.7473412357
 10
34.9180845543
 20
0.4893705786
 10
35.0600620203
 20
0.2193437796
  0
LWPOLYLINE
  5
34C
100
AcDbEntity
  8
RACCORDO
100
AcDbPolyline
 62
7
  6
CONTINUOUS
 90
19
 70
0
 10
31.5627701471
 20
19.2266438421
 10
31.5608134368
 20
19.2799234855
 10
31.5550759061
 20
19.333663372
 10
31.5457479855
 20
19.3876030373
 10
31.5329907138
 20
19.4415636726
 10
31.5169668856
 20
19.4952862498
 10
31.4978926807
 20
19.5483677298
 10
31.4759916895
 20
19.6004643638
 10
31.4513970705
 20
19.651452092
 10
31.4242147316
 20
19.7012017481
 10
31.394589381
 20
19.7494782681
 10
31.3626684057
 20
19.7960398
 10
31.3285303044
 20
19.8407297513
 10
31.2922473177
 20
19.8833631308
 10
31.2539950427
 20
19.9236204594
 10
31.2139659099
 20
19.9611847626
 10
31.1722841706
 20
19.995811777
 10
31.1290404477
 20
20.027268686
 10
31.0843624645
 20
20.0552758338
  0
LWPOLYLINE
  5
34D
100
AcDbEntity
  8
0
100
AcDbPolyline
 62
7
  6
CONTINUOUS
 90
28
 70
0
 10
30.7732360733
 20
18.0995772986
 10
30.7714610394
 20
18.1717673605
 10
30.7660834694
 20
18.2458775262
 10
30.7571145387
 20
18.3216703791
 10
30.7445616544
 20
18.3990216211
 10
30.728465126
 20
18.4775607663
 10
30.7089479744
 20
18.5566561575
 10
30.6861705703
 20
18.6358312742
 10
30.6602001659
 20
18.7150186981
 10
30.6310509109
 20
18.7941923615
 10
30.598822628
 20
18.8730930699
 10
30.5636264716
 20
18.9514549801
 10
30.5254562891
 20
19.0292400616
 10
30.484292626
 20
19.1064004293
 10
30.440365918
 20
19.1824379822
 10
30.3940776568
 20
19.2566555994
 10
30.3457212778
 20
19.3286338611
 10
30.2953670184
 20
19.398332386
 10
30.243119342
 20
19.4656504757
 10
30.1892052717
 20
19.5303118952
 10
30.1337588807
 20
19.5921688675
 10
30.0767252207
 20
19.6512816615
 10
30.0181029173
 20
19.7075814345
 10
29.9582458118
 20
19.7606649672
 10
29.8976354362
 20
19.8101103419
 10
29.836570254
 20
19.8556962119
 10
29.7751538593
 20
19.8973516439
 10
29.713585415
 20
19.9349460751
  0
LWPOLYLINE
  5
34E
100
AcDbEntity
  8
RACCORDO
100
AcDbPolyline
 62
250
  6
CONTINUOUS
 90
10
 70
0
 10
28.9234582148
 20
15.5684411039
 10
28.9205830504
 20
15.7269205354
 10
28.9115000615
 20
15.8821374819
 10
28.8962092483
 20
16.0340919434
 10
28.8750081729
 20
16.1825755143
 10
28.8475992731
 20
16.3277966002
 10
28.8130898624
 20
16.4703804176
 10
28.7711823787
 20
16.6105353718
 10
28.7221743841
 20
16.7480530575
 10
28.6660658787
 20
16.8829334746
  0
LINE
  5
34F
100
AcDbEntity
  8
0
100
AcDbLine
 62
7
  6
CONTINUOUS
 10
28.757981747
 20
-52.4668149932
 30
0.0
 11
28.757981747
 21
15.4651904521
 31
0.0
  0
LINE
  5
350
100
AcDbEntity
  8
RACCORDO
100
AcDbLine
 62
250
  6
CONTINUOUS
 10
28.9234582148
 20
-52.3553457051
 30
0.0
 11
28.9234582148
 21
15.5684411039
 31
0.0
  0
LINE
  5
351
100
AcDbEntity
  8
0
100
AcDbLine
 62
7
  6
CONTINUOUS
 10
30.7732360733
 20
-51.4660215806
 30
0.0
 11
30.7732360733
 21
18.0995772986
 31
0.0
  0
LINE
  5
352
100
AcDbEntity
  8
RACCORDO
100
AcDbLine
 62
250
  6
CONTINUOUS
 10
31.5066381071
 20
19.1464264347
 30
0.0
 11
31.5066381071
 21
-50.4145076307
 31
0.0
  0
LINE
  5
353
100
AcDbEntity
  8
RACCORDO
100
AcDbLine
 62
7
  6
CONTINUOUS
 10
31.5627701471
 20
19.2266438421
 30
0.0
 11
31.5627701471
 21
-50.3342902233
 31
0.0
  0
LINE
  5
354
100
AcDbEntity
  8
0
100
AcDbLine
 62
7
  6
CONTINUOUS
 10
32.0318861439
 20
14.1877644342
 30
0.0
 11
32.0318861439
 21
-42.2456008189
 31
0.0
  0
LWPOLYLINE
  5
355
100
AcDbEntity
  8
RACCORDO
100
AcDbPolyline
 62
250
  6
CONTINUOUS
 90
9
 70
0
 10
31.5627701471
 20
19.2266438421
 10
31.5625848329
 20
19.2216739036
 10
31.5606246137
 20
19.2097745401
 10
31.5565445209
 20
19.1980559196
 10
31.55038827
 20
19.1866435988
 10
31.542221821
 20
19.1756598529
 10
31.5321326716
 20
19.1652223651
 10
31.5202289202
 20
19.1554429659
 10
31.5066381071
 20
19.1464264347
  0
LWPOLYLINE
  5
356
100
AcDbEntity
  8
0
100
AcDbPolyline
 62
250
  6
CONTINUOUS
 90
3
 70
0
 10
32.088301207
 20
0.8763787551
 10
32.0975776546
 20
1.0183391503
 10
32.1164530502
 20
1.1170102269
  0
LWPOLYLINE
  5
357
100
AcDbEntity
  8
0
100
AcDbPolyline
 62
7
  6
CONTINUOUS
 90
5
 70
0
 10
36.5701518859
 20
-1.025955322
 10
36.590730808
 20
-0.997095102
 10
36.6747954328
 20
-0.797484127
 10
36.7273146216
 20
-0.5621181659
 10
36.7482883744
 20
-0.2909972189
  0
LINE
  5
358
100
AcDbEntity
  8
0
100
AcDbLine
 62
7
  6
CONTINUOUS
 10
35.5108515073
 20
-5.3866582765
 30
0.0
 11
35.6102190924
 21
-5.2477539999
 31
0.0
  0
LWPOLYLINE
  5
359
100
AcDbEntity
  8
RACCORDO
100
AcDbPolyline
 62
250
  6
CONTINUOUS
 90
4
 70
0
 10
8.3232429753
 20
-34.1297184071
 10
8.312435016
 20
-34.1394050494
 10
8.2999872025
 20
-34.1478301565
 10
8.2974871907
 20
-34.1492250368
  0
LWPOLYLINE
  5
35A
100
AcDbEntity
  8
RACCORDO
100
AcDbPolyline
 62
250
  6
CONTINUOUS
 90
9
 70
0
 10
31.0843624645
 20
20.0552758338
 10
31.0799611597
 20
20.0576026257
 10
31.068676563
 20
20.0618535578
 10
31.0564885473
 20
20.0641782716
 10
31.0435276989
 20
20.0645518595
 10
31.0299328842
 20
20.0629703187
 10
31.0158497623
 20
20.0594505943
 10
31.001429224
 20
20.0540303977
 10
30.9868257755
 20
20.0467678026
  0
LWPOLYLINE
  5
35B
100
AcDbEntity
  8
0
100
AcDbPolyline
 62
7
  6
CONTINUOUS
 90
9
 70
0
 10
-35.0560720321
 20
53.8318281866
 10
-35.091823187
 20
53.8515445431
 10
-35.1241404074
 20
53.8682233448
 10
-35.1525622103
 20
53.8818116761
 10
-35.1771499963
 20
53.892317943
 10
-35.198524695
 20
53.8992514211
 10
-35.2164704333
 20
53.9025408025
 10
-35.2306782877
 20
53.9020611602
 10
-35.2409664526
 20
53.8977236368
  0
LWPOLYLINE
  5
35C
100
AcDbEntity
  8
0
100
AcDbPolyline
 62
7
  6
CONTINUOUS
 90
4
 70
0
 10
-34.7371604713
 20
53.6476883849
 10
-34.786707397
 20
53.6759215799
 10
-34.8353563616
 20
53.7042171126
 10
-34.9295829161
 20
53.7595056214
  0
LINE
  5
35D
100
AcDbEntity
  8
0
100
AcDbLine
 62
7
  6
CONTINUOUS
 10
-34.9745500556
 20
53.7855036981
 30
0.0
 11
-35.0560720321
 21
53.8318281866
 31
0.0
  0
LWPOLYLINE
  5
35E
100
AcDbEntity
  8
0
100
AcDbPolyline
 62
7
  6
CONTINUOUS
 90
3
 70
0
 10
26.9180789099
 20
18.0494386767
 10
26.7343391548
 20
18.1544544717
 10
26.6828551635
 20
18.1845411309
  0
LINE
  5
35F
100
AcDbEntity
  8
0
100
AcDbLine
 62
7
  6
CONTINUOUS
 10
26.6828551635
 20
18.1845411309
 30
0.0
 11
-34.7371604713
 21
53.6476883849
 31
0.0
  0
LINE
  5
360
100
AcDbEntity
  8
RACCORDO
100
AcDbLine
 62
250
  6
CONTINUOUS
 10
-34.7693652784
 20
53.7455036951
 30
0.0
 11
27.2811509659
 21
17.9183132912
 31
0.0
  0
LINE
  5
361
100
AcDbEntity
  8
RACCORDO
100
AcDbLine
 62
250
  6
CONTINUOUS
 10
-34.7941884066
 20
53.8099054121
 30
0.0
 11
27.2563281414
 21
17.9827148329
 31
0.0
  0
LINE
  5
362
100
AcDbEntity
  8
RACCORDO
100
AcDbLine
 62
250
  6
CONTINUOUS
 10
-34.4884507462
 20
53.6914181431
 30
0.0
 11
26.950590371
 21
18.217285814
 31
0.0
  0
LINE
  5
363
100
AcDbEntity
  8
RACCORDO
100
AcDbLine
 62
250
  6
CONTINUOUS
 10
-34.3870112638
 20
53.8723420057
 30
0.0
 11
27.0520298535
 21
18.3982096766
 31
0.0
  0
LINE
  5
364
100
AcDbEntity
  8
0
100
AcDbLine
 62
7
  6
CONTINUOUS
 10
29.713585415
 20
19.9349460751
 30
0.0
 11
-31.9481449314
 21
55.5376563741
 31
0.0
  0
LINE
  5
365
100
AcDbEntity
  8
0
100
AcDbLine
 62
7
  6
CONTINUOUS
 10
-34.9295829161
 20
53.7595056214
 30
0.0
 11
-34.9745500556
 21
53.7855036981
 31
0.0
  0
LWPOLYLINE
  5
366
100
AcDbEntity
  8
RACCORDO
100
AcDbPolyline
 62
250
  6
CONTINUOUS
 90
10
 70
0
 10
26.950590371
 20
18.217285814
 10
26.9824097954
 20
18.1984014515
 10
27.0146255193
 20
18.1779144549
 10
27.0472375425
 20
18.1558248242
 10
27.080057118
 20
18.1323887407
 10
27.1132729929
 20
18.1073500231
 10
27.1474514086
 20
18.0799401278
 10
27.1827811121
 20
18.0499028738
 10
27.2190733564
 20
18.0174944422
 10
27.2563281414
 20
17.9827148329
  0
LWPOLYLINE
  5
367
100
AcDbEntity
  8
RACCORDO
100
AcDbPolyline
 62
250
  6
CONTINUOUS
 90
10
 70
0
 10
27.0520298535
 20
18.3982096766
 10
27.0871748307
 20
18.3770658977
 10
27.1228406381
 20
18.3542169221
 10
27.1589878833
 20
18.3296266293
 10
27.1952988477
 20
18.303474742
 10
27.2320031412
 20
18.2755399004
 10
27.2698672451
 20
18.2450971952
 10
27.3090912929
 20
18.2117897771
 10
27.3493185751
 20
18.1757331768
 10
27.3904532647
 20
18.136828048
  0
LWPOLYLINE
  5
368
100
AcDbEntity
  8
RACCORDO
100
AcDbPolyline
 62
250
  6
CONTINUOUS
 90
10
 70
0
 10
27.2811520696
 20
17.918312654
 10
27.2761113174
 20
17.9229097952
 10
27.2715896813
 20
17.928235205
 10
27.2676143654
 20
17.9342568432
 10
27.2642092871
 20
17.9409384809
 10
27.2613949327
 20
17.9482399185
 10
27.2591882348
 20
17.9561172272
 10
27.2576024698
 20
17.9645230135
 10
27.2566471784
 20
17.9734067046
 10
27.2563281081
 20
17.9827148521
  0
LWPOLYLINE
  5
369
100
AcDbEntity
  8
0
100
AcDbPolyline
 62
250
  6
CONTINUOUS
 90
4
 70
0
 10
35.0600620203
 20
0.2193437796
 10
35.1821635865
 20
-0.0621568969
 10
35.2782960381
 20
-0.3410837679
 10
35.3464283034
 20
-0.6127542724
  0
LWPOLYLINE
  5
36A
100
AcDbEntity
  8
RACCORDO
100
AcDbPolyline
 62
7
  6
CONTINUOUS
 90
5
 70
0
 10
32.0318861439
 20
5.7953062998
 10
32.0840165909
 20
5.5587462406
 10
32.2540617941
 20
4.7152608696
 10
32.4072293517
 20
3.8765443826
 10
32.5414628704
 20
3.0558241914
  0
LWPOLYLINE
  5
36B
100
AcDbEntity
  8
RACCORDO
100
AcDbPolyline
 62
250
  6
CONTINUOUS
 90
4
 70
0
 10
32.0318861439
 20
5.4533074695
 10
32.1967544904
 20
4.6351251202
 10
32.3497571747
 20
3.7970407067
 10
32.4857741556
 20
2.9645617729
  0
LWPOLYLINE
  5
36C
100
AcDbEntity
  8
0
100
AcDbPolyline
 62
7
  6
CONTINUOUS
 90
9
 70
0
 10
36.7482883744
 20
-0.2909972189
 10
36.7273146216
 20
0.0043436921
 10
36.6747954328
 20
0.3003574959
 10
36.590730808
 20
0.5970441926
 10
36.4718823081
 20
0.9009625586
 10
36.3214883722
 20
1.2055538174
 10
36.1492643172
 20
1.4911416397
 10
35.9537689022
 20
1.7564714042
 10
35.8644048979
 20
1.8577605009
  0
LINE
  5
36D
100
AcDbEntity
  8
0
100
AcDbLine
 62
250
  6
CONTINUOUS
 10
35.0839480957
 20
-0.7306718841
 30
0.0
 11
35.0826029494
 21
-0.6992718122
 31
0.0
  0
LINE
  5
36E
100
AcDbEntity
  8
0
100
AcDbLine
 62
250
  6
CONTINUOUS
 10
33.8137952325
 20
2.913504607
 30
0.0
 11
33.8137952325
 21
2.0970343302
 31
0.0
  0
LINE
  5
36F
100
AcDbEntity
  8
0
100
AcDbLine
 62
250
  6
CONTINUOUS
 10
33.8137952325
 20
-6.4759035761
 30
0.0
 11
33.8137952325
 21
-5.6594332993
 31
0.0
  0
LINE
  5
370
100
AcDbEntity
  8
0
100
AcDbLine
 62
250
  6
CONTINUOUS
 10
34.5209020136
 20
2.913504607
 30
0.0
 11
34.5209020136
 21
2.0970343302
 31
0.0
  0
LINE
  5
371
100
AcDbEntity
  8
0
100
AcDbLine
 62
250
  6
CONTINUOUS
 10
34.5209020136
 20
-6.4759035761
 30
0.0
 11
34.5209020136
 21
-5.6594332993
 31
0.0
  0
LINE
  5
372
100
AcDbEntity
  8
0
100
AcDbLine
 62
250
  6
CONTINUOUS
 10
35.1572981167
 20
3.6892263343
 30
0.0
 11
35.1572981167
 21
3.6075714157
 31
0.0
  0
LINE
  5
373
100
AcDbEntity
  8
0
100
AcDbLine
 62
250
  6
CONTINUOUS
 10
35.1572981167
 20
-4.9653664907
 30
0.0
 11
35.1572981167
 21
-4.883711572
 31
0.0
  0
LINE
  5
374
100
AcDbEntity
  8
0
100
AcDbLine
 62
7
  6
CONTINUOUS
 10
35.1572981167
 20
-4.883711572
 30
0.0
 11
35.1572981167
 21
-2.8311607977
 31
0.0
  0
LINE
  5
375
100
AcDbEntity
  8
0
100
AcDbLine
 62
7
  6
CONTINUOUS
 10
35.1572981167
 20
0.8202052833
 30
0.0
 11
35.1572981167
 21
1.7295871962
 31
0.0
  0
LINE
  5
376
100
AcDbEntity
  8
0
100
AcDbLine
 62
7
  6
CONTINUOUS
 10
35.3694301511
 20
2.423575095
 30
0.0
 11
35.3694301511
 21
1.6071048182
 31
0.0
  0
LINE
  5
377
100
AcDbEntity
  8
0
100
AcDbLine
 62
7
  6
CONTINUOUS
 10
35.3694301511
 20
-6.9658330881
 30
0.0
 11
35.3694301511
 21
-6.1493628113
 31
0.0
  0
LINE
  5
378
100
AcDbEntity
  8
0
100
AcDbLine
 62
7
  6
CONTINUOUS
 10
35.5108515073
 20
-5.1695037873
 30
0.0
 11
35.5108515073
 21
-6.0677078926
 31
0.0
  0
LINE
  5
379
100
AcDbEntity
  8
0
100
AcDbLine
 62
7
  6
CONTINUOUS
 10
35.5108515073
 20
-6.8841781694
 30
0.0
 11
35.5108515073
 21
-6.0677078926
 31
0.0
  0
LINE
  5
37A
100
AcDbEntity
  8
0
100
AcDbLine
 62
7
  6
CONTINUOUS
 10
35.5108515073
 20
1.6887597369
 30
0.0
 11
35.5108515073
 21
3.403434119
 31
0.0
  0
LINE
  5
37B
100
AcDbEntity
  8
0
100
AcDbLine
 62
7
  6
CONTINUOUS
 10
35.8644048979
 20
-4.4754369787
 30
0.0
 11
35.8644048979
 21
-2.4228862044
 31
0.0
  0
LINE
  5
37C
100
AcDbEntity
  8
0
100
AcDbLine
 62
7
  6
CONTINUOUS
 10
35.8644048979
 20
1.2284798766
 30
0.0
 11
35.8644048979
 21
3.2810306509
 31
0.0
  0
LWPOLYLINE
  5
37D
100
AcDbEntity
  8
0
100
AcDbPolyline
 62
7
  6
CONTINUOUS
 90
12
 70
0
 10
32.0318861439
 20
-42.2456008189
 10
32.0270948765
 20
-42.4945040908
 10
32.0129605081
 20
-42.7365996712
 10
31.9894830385
 20
-42.9718875602
 10
31.9565831071
 20
-43.2007849914
 10
31.9143400745
 20
-43.4228747311
 10
31.8629920235
 20
-43.6369050783
 10
31.8024875417
 20
-43.8428305235
 10
31.7328780415
 20
-44.0406965762
 10
31.6545558422
 20
-44.2293880636
 10
31.5674717469
 20
-44.4088531808
 10
31.5627701471
 20
-44.4172108512
  0
LWPOLYLINE
  5
37E
100
AcDbEntity
  8
RACCORDO
100
AcDbPolyline
 62
250
  6
CONTINUOUS
 90
12
 70
0
 10
31.5066381071
 20
-50.4145076307
 10
31.5051846067
 20
-50.4585220114
 10
31.5008322338
 20
-50.5006117817
 10
31.4936053283
 20
-50.5405415583
 10
31.4835443054
 20
-50.5780880379
 10
31.4707054303
 20
-50.6130412444
 10
31.4551605035
 20
-50.6452057039
 10
31.4369964587
 20
-50.6744015393
 10
31.4163148765
 20
-50.700465476
 10
31.3932314173
 20
-50.7232517532
 10
31.3678751741
 20
-50.7426329408
 10
31.3589146045
 20
-50.7483340806
  0
LWPOLYLINE
  5
37F
100
AcDbEntity
  8
0
100
AcDbPolyline
 62
250
  6
CONTINUOUS
 90
13
 70
0
 10
35.4047854901
 20
-1.1483738649
 10
35.3885914541
 20
-1.3961962915
 10
35.3464283034
 20
-1.6166040409
 10
35.2782960381
 20
-1.8095971132
 10
35.1821635865
 20
-1.9775126388
 10
35.0600620203
 20
-2.1180134872
 10
34.9180845543
 20
-2.2240882673
 10
34.7552225466
 20
-2.2939899602
 10
34.572484639
 20
-2.3294655846
 10
34.378989972
 20
-2.3287448064
 10
34.1741926724
 20
-2.2899907674
 10
33.9586386134
 20
-2.2150403257
 10
33.8379588527
 20
-2.1549078308
  0
LWPOLYLINE
  5
380
100
AcDbEntity
  8
RACCORDO
100
AcDbPolyline
 62
250
  6
CONTINUOUS
 90
4
 70
0
 10
32.3819339313
 20
-7.302642346
 10
32.3499766562
 20
-7.4613478829
 10
32.1971810954
 20
-8.1220350686
 10
32.0318861439
 20
-8.7516866892
  0
LWPOLYLINE
  5
381
100
AcDbEntity
  8
RACCORDO
100
AcDbPolyline
 62
7
  6
CONTINUOUS
 90
5
 70
0
 10
32.4290547592
 20
-7.2754353705
 10
32.4053655542
 20
-7.3929497099
 10
32.2512540057
 20
-8.0586299765
 10
32.0800990261
 20
-8.7096396615
 10
32.0318861439
 20
-8.8726463215
  0
LWPOLYLINE
  5
382
100
AcDbEntity
  8
0
100
AcDbPolyline
 62
7
  6
CONTINUOUS
 90
6
 70
0
 10
35.6102190924
 20
-5.2477539999
 10
35.699060639
 20
-5.0938759274
 10
35.7696705524
 20
-4.9383705408
 10
35.8194803009
 20
-4.7856866675
 10
35.851058416
 20
-4.6313754801
 10
35.8644048979
 20
-4.4754369787
  0
LINE
  5
383
100
AcDbEntity
  8
RACCORDO
100
AcDbLine
 62
250
  6
CONTINUOUS
 10
8.0258754726
 20
-34.6471254472
 30
0.0
 11
8.3232429753
 21
-34.4632289229
 31
0.0
  0
LINE
  5
384
100
AcDbEntity
  8
RACCORDO
100
AcDbLine
 62
7
  6
CONTINUOUS
 10
8.2791758536
 20
-34.6699400047
 30
0.0
 11
8.2791076301
 21
-34.6699821724
 31
0.0
  0
LWPOLYLINE
  5
385
100
AcDbEntity
  8
RACCORDO
100
AcDbPolyline
 62
250
  6
CONTINUOUS
 90
9
 70
0
 10
8.0531837445
 20
-34.2806035585
 10
8.062953159
 20
-34.2745938738
 10
8.0769734542
 20
-34.262841964
 10
8.0892038072
 20
-34.2483692328
 10
8.0994856532
 20
-34.2313229356
 10
8.1076900279
 20
-34.2118783531
 10
8.1137119188
 20
-34.1902383154
 10
8.1174698549
 20
-34.1666290383
 10
8.1189063121
 20
-34.1413028535
  0
LWPOLYLINE
  5
386
100
AcDbEntity
  8
RACCORDO
100
AcDbPolyline
 62
250
  6
CONTINUOUS
 90
13
 70
0
 10
8.2791076301
 20
-34.6699821724
 10
8.2621337802
 20
-34.6791551054
 10
8.2449379996
 20
-34.6860761097
 10
8.2268485731
 20
-34.6911690216
 10
8.2080443761
 20
-34.6943978622
 10
8.1885044146
 20
-34.6957788416
 10
8.1679288614
 20
-34.6952767962
 10
8.1462265992
 20
-34.6927656071
 10
8.1235936797
 20
-34.6881439891
 10
8.1001408471
 20
-34.681331679
 10
8.0759709748
 20
-34.6722621688
 10
8.0511768777
 20
-34.6608750057
 10
8.0258755316
 20
-34.6471254107
  0
LINE
  5
387
100
AcDbEntity
  8
RACCORDO
100
AcDbLine
 62
250
  6
CONTINUOUS
 10
8.1189063121
 20
-34.1413028535
 30
0.0
 11
8.3232429753
 21
-34.0314172086
 31
0.0
  0
LINE
  5
388
100
AcDbEntity
  8
RACCORDO
100
AcDbLine
 62
7
  6
CONTINUOUS
 10
8.053115734
 20
-34.2806401662
 30
0.0
 11
8.2973908393
 21
-34.1492769197
 31
0.0
  0
LINE
  5
389
100
AcDbEntity
  8
RACCORDO
100
AcDbLine
 62
7
  6
CONTINUOUS
 10
8.2975142419
 20
-34.1492092902
 30
0.0
 11
8.3021349442
 21
-34.1471311979
 31
0.0
  0
LWPOLYLINE
  5
38A
100
AcDbEntity
  8
RACCORDO
100
AcDbPolyline
 62
7
  6
CONTINUOUS
 90
5
 70
0
 10
8.3021349442
 20
-34.1471311979
 10
8.3068620232
 20
-34.1457153355
 10
8.3105571054
 20
-34.1450738669
 10
8.3129305168
 20
-34.1448977688
 10
8.3134928657
 20
-34.1448779298
  0
LWPOLYLINE
  5
38B
100
AcDbEntity
  8
RACCORDO
100
AcDbPolyline
 62
7
  6
CONTINUOUS
 90
13
 70
0
 10
-30.5733279045
 20
55.6556535005
 10
-30.6161408037
 20
55.6783908592
 10
-30.6586839339
 20
55.6971194179
 10
-30.7008146823
 20
55.7119208952
 10
-30.7424773268
 20
55.7228966685
 10
-30.7834712617
 20
55.7301030439
 10
-30.8234005374
 20
55.7336144633
 10
-30.8618824496
 20
55.7336016783
 10
-30.8989819663
 20
55.7302711003
 10
-30.9348929919
 20
55.7237369805
 10
-30.96952865
 20
55.7140884499
 10
-31.0025826143
 20
55.7014950181
 10
-31.0338809415
 20
55.6861351393
  0
LWPOLYLINE
  5
38C
100
AcDbEntity
  8
0
100
AcDbPolyline
 62
7
  6
CONTINUOUS
 90
16
 70
0
 10
-31.9481449314
 20
55.5376563741
 10
-32.0097125974
 20
55.5711578044
 10
-32.0711850466
 20
55.6004481665
 10
-32.132344281
 20
55.6254128334
 10
-32.1930606539
 20
55.6459830441
 10
-32.2530245538
 20
55.6620253563
 10
-32.3117648147
 20
55.6734117517
 10
-32.3689425581
 20
55.6801342317
 10
-32.4245274301
 20
55.6822513319
 10
-32.4785232604
 20
55.6797781522
 10
-32.5307503451
 20
55.6727227295
 10
-32.5810246387
 20
55.6611085074
 10
-32.6293176065
 20
55.644915697
 10
-32.6755752846
 20
55.624092563
 10
-32.7194696053
 20
55.5987144826
 10
-32.7295262653
 20
55.5920239037
  0
LINE
  5
38D
100
AcDbEntity
  8
RACCORDO
100
AcDbLine
 62
250
  6
CONTINUOUS
 10
-30.6708645936
 20
55.6471454693
 30
0.0
 11
30.9868257755
 21
20.0467678026
 31
0.0
  0
LINE
  5
38E
100
AcDbEntity
  8
RACCORDO
100
AcDbLine
 62
7
  6
CONTINUOUS
 10
-30.5733279045
 20
55.6556535005
 30
0.0
 11
31.0843624645
 21
20.0552758338
 31
0.0
  0
LINE
  5
38F
100
AcDbEntity
  8
0
100
AcDbLine
 62
7
  6
CONTINUOUS
 10
-23.6032753999
 20
52.0914189969
 30
0.0
 11
1.6899341631
 21
37.4874367936
 31
0.0
  0
LINE
  5
390
100
AcDbEntity
  8
0
100
AcDbLine
 62
7
  6
CONTINUOUS
 10
1.73236057
 20
37.462940318
 30
0.0
 11
27.0255701331
 21
22.8589581147
 31
0.0
  0
LWPOLYLINE
  5
391
100
AcDbEntity
  8
0
100
AcDbPolyline
 62
7
  6
CONTINUOUS
 90
11
 70
0
 10
27.0255701331
 20
22.8589581147
 10
27.2446309309
 20
22.7268862694
 10
27.4624494702
 20
22.5846359232
 10
27.679025751
 20
22.4322070761
 10
27.8947668571
 20
22.2692711784
 10
28.1092657046
 20
22.0961567797
 10
28.321301042
 20
21.9138495298
 10
28.5308586759
 20
21.7222971291
 10
28.7379527996
 20
21.5215518772
 10
28.9414047421
 20
21.3127563222
 10
28.981079857
 20
21.2696848511
  0
LWPOLYLINE
  5
392
100
AcDbEntity
  8
RACCORDO
100
AcDbPolyline
 62
250
  6
CONTINUOUS
 90
4
 70
0
 10
30.9868257755
 20
20.0467678026
 10
31.0256713958
 20
20.0226605247
 10
31.0642997772
 20
19.9953314559
 10
31.1024948942
 20
19.9649334312
  0
LWPOLYLINE
  5
393
100
AcDbEntity
  8
RACCORDO
100
AcDbPolyline
 62
250
  6
CONTINUOUS
 90
19
 70
0
 10
31.1024948942
 20
19.9649334312
 10
31.1400431445
 20
19.9316364478
 10
31.1767345425
 20
19.895626716
 10
31.2123638935
 20
19.8571056182
 10
31.2467319434
 20
19.8162885803
 10
31.2796464924
 20
19.7734038675
 10
31.3109234682
 20
19.7286913097
 10
31.3403879567
 20
19.6824009588
 10
31.3678751814
 20
19.6347916884
 10
31.3932314241
 20
19.5861297464
 10
31.4163148827
 20
19.5366872687
 10
31.4369964643
 20
19.486740759
 10
31.4551605084
 20
19.4365695397
 10
31.4707054345
 20
19.3864541882
 10
31.4835443089
 20
19.3366749704
 10
31.4936053307
 20
19.2875102752
 10
31.500832235
 20
19.2392350526
 10
31.5051846071
 20
19.1921192757
 10
31.5066381071
 20
19.1464264347
  0
LWPOLYLINE
  5
394
100
AcDbEntity
  8
0
100
AcDbPolyline
 62
7
  6
CONTINUOUS
 90
23
 70
0
 10
28.483980186
 20
16.778311822
 10
28.4539553722
 20
16.8342650044
 10
28.4185463321
 20
16.8919190142
 10
28.3776631471
 20
16.9510855434
 10
28.3310039601
 20
17.0116134479
 10
28.2787168655
 20
17.0732115515
 10
28.2214760181
 20
17.1354245354
 10
28.1591609133
 20
17.197933385
 10
28.0919761879
 20
17.2604559129
 10
28.0212570899
 20
17.3225477515
 10
27.9472555316
 20
17.383730435
 10
27.8700625474
 20
17.4438592029
 10
27.7908872967
 20
17.503000542
 10
27.709874816
 20
17.5609129202
 10
27.6272827347
 20
17.6172884618
 10
27.5445436554
 20
17.6721398782
 10
27.4622142877
 20
17.7250919438
 10
27.3802156218
 20
17.7761366015
 10
27.2990191735
 20
17.8258489254
 10
27.2184667782
 20
17.8743435722
 10
27.1390911912
 20
17.9211048879
 10
27.0624033292
 20
17.9658272009
 10
26.9180789099
 20
18.0494386767
  0
LWPOLYLINE
  5
395
100
AcDbEntity
  8
RACCORDO
100
AcDbPolyline
 62
250
  6
CONTINUOUS
 90
22
 70
0
 10
28.4665323244
 20
16.8437930276
 10
28.440583105
 20
16.8958521853
 10
28.4099625922
 20
16.9489521791
 10
28.3746757688
 20
17.0030720555
 10
28.3345285318
 20
17.0584652345
 10
28.2897159295
 20
17.1148252576
 10
28.2408734211
 20
17.1713455901
 10
28.1879188897
 20
17.2281504511
 10
28.1310354849
 20
17.2851846951
 10
28.0713479602
 20
17.3414865668
 10
28.0088992295
 20
17.3971576199
 10
27.9438280089
 20
17.4522865148
 10
27.8774768938
 20
17.5059939004
 10
27.809995255
 20
17.558360102
 10
27.7414477886
 20
17.609567423
 10
27.6730893902
 20
17.6589502749
 10
27.6051602606
 20
17.7065386298
 10
27.5376171743
 20
17.7525692761
 10
27.4712962198
 20
17.7967017507
 10
27.406526033
 20
17.8388952304
 10
27.3431244276
 20
17.8794028392
 10
27.2811509659
 20
17.9183132912
  0
LWPOLYLINE
  5
396
100
AcDbEntity
  8
RACCORDO
100
AcDbPolyline
 62
250
  6
CONTINUOUS
 90
22
 70
0
 10
28.6660658787
 20
16.8829334746
 10
28.6387813872
 20
16.9437951832
 10
28.6064500424
 20
17.0063102351
 10
28.5690575348
 20
17.0702196145
 10
28.5264178612
 20
17.135250075
 10
28.4787242737
 20
17.2011187577
 10
28.4265924876
 20
17.2675211749
 10
28.369998252
 20
17.3341549648
 10
28.3091422261
 20
17.4006885147
 10
28.2450952203
 20
17.466754118
 10
28.1780257649
 20
17.5320096066
 10
28.1081311895
 20
17.5961796837
 10
28.0366403691
 20
17.6590229389
 10
27.9638612442
 20
17.7202654454
 10
27.8899620689
 20
17.7796904242
 10
27.8160304599
 20
17.8372042859
 10
27.7424713438
 20
17.8926067214
 10
27.6693754431
 20
17.9457920879
 10
27.597371222
 20
17.996865465
 10
27.5268116737
 20
18.045808722
 10
27.4577732734
 20
18.0924787617
 10
27.3904532647
 20
18.136828048
  0
LINE
  5
397
100
AcDbEntity
  8
RACCORDO
100
AcDbLine
 62
250
  6
CONTINUOUS
 10
28.5213455333
 20
16.7141066872
 30
0.0
 11
28.4665323244
 21
16.8437930276
 31
0.0
  0
LWPOLYLINE
  5
398
100
AcDbEntity
  8
0
100
AcDbPolyline
 62
7
  6
CONTINUOUS
 90
12
 70
0
 10
31.5627701471
 20
16.9016863438
 10
31.5628671172
 20
16.9014033063
 10
31.650802857
 20
16.619941134
 10
31.7298951346
 20
16.3393557451
 10
31.8001941539
 20
16.05964198
 10
31.8612998
 20
15.7823918286
 10
31.9131596811
 20
15.5076191526
 10
31.955826189
 20
15.2353100902
 10
31.9890563832
 20
14.9670150467
 10
32.0127692837
 20
14.7032508237
 10
32.0270458706
 20
14.4435006196
 10
32.0318861439
 20
14.1877644342
  0
LWPOLYLINE
  5
399
100
AcDbEntity
  8
0
100
AcDbPolyline
 62
250
  6
CONTINUOUS
 90
3
 70
0
 10
35.3464283034
 20
-0.6127542724
 10
35.3885914541
 20
-0.8818509714
 10
35.4047854901
 20
-1.1483738649
  0
LWPOLYLINE
  5
39A
100
AcDbEntity
  8
RACCORDO
100
AcDbPolyline
 62
7
  6
CONTINUOUS
 90
10
 70
0
 10
32.5414949402
 20
3.0558261744
 10
32.5418933056
 20
3.0528201513
 10
32.5421263162
 20
3.0407933863
 10
32.5401973766
 20
3.0288668181
 10
32.5360151345
 20
3.0169378566
 10
32.5296709422
 20
3.005109092
 10
32.521446571
 20
2.9939046853
 10
32.5114359447
 20
2.9834993567
 10
32.4995451396
 20
2.9737183859
 10
32.4857741557
 20
2.964561773
  0
LWPOLYLINE
  5
39B
100
AcDbEntity
  8
0
100
AcDbPolyline
 62
7
  6
CONTINUOUS
 90
7
 70
0
 10
38.6067526696
 20
1.5760869252
 10
38.6074448596
 20
1.5638987233
 10
38.6080300999
 20
1.5517645497
 10
38.608643945
 20
1.5356719944
 10
38.6089794068
 20
1.5236690509
 10
38.6092600565
 20
1.5077562593
 10
38.6093502889
 20
1.4923711079
  0
LWPOLYLINE
  5
39C
100
AcDbEntity
  8
0
100
AcDbPolyline
 62
250
  6
CONTINUOUS
 90
28
 70
0
 10
39.7888475335
 20
2.2811327191
 10
39.78548409
 20
2.3720248209
 10
39.7754193574
 20
2.4661091992
 10
39.7587299344
 20
2.5626698151
 10
39.7355428375
 20
2.6609717838
 10
39.7060345346
 20
2.7602669682
 10
39.6704296016
 20
2.8597996718
 10
39.6289990137
 20
2.9588123907
 10
39.5820580825
 20
3.0565515784
 10
39.529964057
 20
3.1522733805
 10
39.4731134041
 20
3.2452492964
 10
39.4119387916
 20
3.3347717233
 10
39.3469057952
 20
3.4201593413
 10
39.2785093554
 20
3.5007622992
 10
39.2072700103
 20
3.5759671598
 10
39.1337299344
 20
3.6452015687
 10
39.058448812
 20
3.7079386102
 10
38.9819995779
 20
3.7637008176
 10
38.904964057
 20
3.8120638067
 10
38.8279285361
 20
3.8526595061
 10
38.751479302
 20
3.885178958
 10
38.6761981796
 20
3.9093746696
 10
38.6026581037
 20
3.9250624971
 10
38.5314187586
 20
3.9321230466
 10
38.4630223188
 20
3.930502583
 10
38.3979893224
 20
3.920213439
 10
38.3368147099
 20
3.9013339213
 10
38.2799338568
 20
3.8739902788
  0
LWPOLYLINE
  5
39D
100
AcDbEntity
  8
0
100
AcDbPolyline
 62
7
  6
CONTINUOUS
 90
22
 70
0
 10
38.6093502889
 20
1.4923711095
 10
38.6064915744
 20
1.57911159
 10
38.5983249398
 20
1.6675179245
 10
38.5848503853
 20
1.7575901131
 10
38.5659336894
 20
1.8498485625
 10
38.5417090735
 20
1.9437728659
 10
38.512579202
 20
2.0378018029
 10
38.4784620848
 20
2.1319371224
 10
38.4394397119
 20
2.2261770754
 10
38.3961607177
 20
2.3189551948
 10
38.348553954
 20
2.4102470464
 10
38.2966905689
 20
2.5000770643
 10
38.2414326416
 20
2.5869520838
 10
38.1827234332
 20
2.6708227128
 10
38.1206196826
 20
2.7517383434
 10
38.0561536854
 20
2.8283539867
 10
37.9892859572
 20
2.9005977696
 10
37.9200559824
 20
2.9685415653
 10
37.8496145095
 20
3.0310560041
 10
37.7779412887
 20
3.088050336
 10
37.7050565698
 20
3.1396153111
 10
37.6320766173
 20
3.1849487919
  0
LINE
  5
39E
100
AcDbEntity
  8
0
100
AcDbLine
 62
7
  6
CONTINUOUS
 10
38.6093502889
 20
1.1918311993
 30
0.0
 11
38.6093502889
 21
1.4923711095
 31
0.0
  0
LWPOLYLINE
  5
39F
100
AcDbEntity
  8
0
100
AcDbPolyline
 62
7
  6
CONTINUOUS
 90
13
 70
0
 10
38.6093502889
 20
1.1918311993
 10
38.6063359549
 20
1.093901985
 10
38.5973076384
 20
0.9999307493
 10
38.5823093245
 20
0.9103753107
 10
38.5614140833
 20
0.8256719743
 10
38.5347237145
 20
0.7462334062
 10
38.5023682509
 20
0.6724466231
 10
38.464505325
 20
0.6046711068
 10
38.4213194011
 20
0.5432370528
 10
38.3730208768
 20
0.4884437616
 10
38.3198450576
 20
0.4405581807
 10
38.2620510108
 20
0.3998136038
 10
38.2469557021
 20
0.3907916923
  0
LWPOLYLINE
  5
3A0
100
AcDbEntity
  8
0
100
AcDbPolyline
 62
7
  6
CONTINUOUS
 90
13
 70
0
 10
39.8474261772
 20
2.3627876377
 10
39.8448934252
 20
2.2864127998
 10
39.8373711209
 20
2.2132789501
 10
39.8249707754
 20
2.1435680574
 10
39.8077369536
 20
2.0772393228
 10
39.7858154349
 20
2.0147062711
 10
39.7596316139
 20
1.9567527353
 10
39.7296433761
 20
1.9037337459
 10
39.6960295481
 20
1.8554140536
 10
39.6589456191
 20
1.8116795181
 10
39.6186520652
 20
1.7726032178
 10
39.5755456153
 20
1.738344196
 10
39.5299942572
 20
1.7089616426
  0
LWPOLYLINE
  5
3A1
100
AcDbEntity
  8
0
100
AcDbPolyline
 62
250
  6
CONTINUOUS
 90
10
 70
0
 10
39.7888475335
 20
2.2811327191
 10
39.78548409
 20
2.1941246374
 10
39.7754193574
 20
2.11166276
 10
39.7587299344
 20
2.0343746716
 10
39.7355428375
 20
1.9628485811
 10
39.7060345346
 20
1.8976288453
 10
39.6704296016
 20
1.8392118258
 10
39.6289990137
 20
1.7880421113
 10
39.5820580825
 20
1.7445091344
 10
39.5299942572
 20
1.7089616426
  0
LWPOLYLINE
  5
3A2
100
AcDbEntity
  8
0
100
AcDbPolyline
 62
7
  6
CONTINUOUS
 90
7
 70
0
 10
38.6093502889
 20
1.4923711095
 10
38.598867444
 20
1.3335965214
 10
38.5676438222
 20
1.1903338218
 10
38.5163493367
 20
1.0656567595
 10
38.4460845279
 20
0.9622403228
 10
38.3583569507
 20
0.8823033458
 10
38.2550488291
 20
0.8275609028
  0
LWPOLYLINE
  5
3A3
100
AcDbEntity
  8
RACCORDO
100
AcDbPolyline
 62
250
  6
CONTINUOUS
 90
8
 70
0
 10
31.5625848329
 20
-50.3392601618
 10
31.5606246137
 20
-50.3511595252
 10
31.5565445209
 20
-50.3628781458
 10
31.5503882701
 20
-50.3742904666
 10
31.542221821
 20
-50.3852742125
 10
31.5321326717
 20
-50.3957117003
 10
31.5202289202
 20
-50.4054910995
 10
31.5066381071
 20
-50.4145076307
  0
LWPOLYLINE
  5
3A4
100
AcDbEntity
  8
RACCORDO
100
AcDbPolyline
 62
250
  6
CONTINUOUS
 90
5
 70
0
 10
-34.8935581748
 20
53.7995774675
 10
-34.8660418213
 20
53.7895204826
 10
-34.8363147981
 20
53.7771446102
 10
-34.8041091142
 20
53.7624428085
 10
-34.7693652784
 20
53.7455036951
  0
LWPOLYLINE
  5
3A5
100
AcDbEntity
  8
RACCORDO
100
AcDbPolyline
 62
250
  6
CONTINUOUS
 90
8
 70
0
 10
-30.5777292094
 20
55.6579802924
 10
-30.5890138061
 20
55.6622312245
 10
-30.6012018218
 20
55.6645559384
 10
-30.6141626702
 20
55.6649295263
 10
-30.6277574849
 20
55.6633479854
 10
-30.6418406068
 20
55.659828261
 10
-30.656261145
 20
55.6544080645
 10
-30.6708645936
 20
55.6471454693
  0
LWPOLYLINE
  5
3A6
100
AcDbEntity
  8
RACCORDO
100
AcDbPolyline
 62
250
  6
CONTINUOUS
 90
3
 70
0
 10
-34.9410791747
 20
53.8116374737
 10
-34.9187421801
 20
53.8070963904
 10
-34.8935581748
 20
53.7995774675
  0
LWPOLYLINE
  5
3A7
100
AcDbEntity
  8
RACCORDO
100
AcDbPolyline
 62
250
  6
CONTINUOUS
 90
10
 70
0
 10
-34.7279053101
 20
54.0031892279
 10
-34.6906072395
 20
53.9954239157
 10
-34.6533601447
 20
53.9859731695
 10
-34.6162316916
 20
53.9749146797
 10
-34.5797301109
 20
53.9624867659
 10
-34.5434786663
 20
53.9486450015
 10
-34.5061823492
 20
53.9328743015
 10
-34.4674205841
 20
53.9148686241
 10
-34.4276810308
 20
53.8947192616
 10
-34.3870112638
 20
53.8723420057
  0
LWPOLYLINE
  5
3A8
100
AcDbEntity
  8
RACCORDO
100
AcDbPolyline
 62
250
  6
CONTINUOUS
 90
10
 70
0
 10
-34.7941884066
 20
53.8099054121
 10
-34.7606175769
 20
53.8027337398
 10
-34.7272114372
 20
53.7941811692
 10
-34.6939699875
 20
53.7842477001
 10
-34.6612461549
 20
53.7730899947
 10
-34.6286870123
 20
53.7605513909
 10
-34.5952337782
 20
53.7461619024
 10
-34.5605335256
 20
53.7297648673
 10
-34.5249391817
 20
53.7115169475
 10
-34.4884507462
 20
53.6914181431
  0
LINE
  5
3A9
100
AcDbEntity
  8
0
100
AcDbLine
 62
250
  6
CONTINUOUS
 10
32.0318861439
 20
-42.2456008189
 30
0.0
 11
31.5627701471
 21
-42.516462516
 31
0.0
  0
LWPOLYLINE
  5
3AA
100
AcDbEntity
  8
0
100
AcDbPolyline
 62
7
  6
CONTINUOUS
 90
11
 70
0
 10
-25.5587851238
 20
52.7603193459
 10
-25.5191100089
 20
52.7575749888
 10
-25.3156580665
 20
52.7314293404
 10
-25.1085639427
 20
52.6930274892
 10
-24.8990063088
 20
52.6425879871
 10
-24.6869709714
 20
52.5800421442
 10
-24.4724721239
 20
52.5054586503
 10
-24.2567310178
 20
52.4192621266
 10
-24.0401547371
 20
52.3215941133
 10
-23.8223361978
 20
52.21231307
 10
-23.6032753999
 20
52.0914189969
  0
LWPOLYLINE
  5
3AB
100
AcDbEntity
  8
RACCORDO
100
AcDbPolyline
 62
7
  6
CONTINUOUS
 90
13
 70
0
 10
31.3589146045
 20
-50.7483340806
 10
31.3876228677
 20
-50.7290860355
 10
31.414919008
 20
-50.7069139515
 10
31.4405485616
 20
-50.6818555667
 10
31.4642108116
 20
-50.6540490909
 10
31.4857463617
 20
-50.6235237018
 10
31.5050951792
 20
-50.5901086911
 10
31.5221065299
 20
-50.553639321
 10
31.5364330791
 20
-50.5143630884
 10
31.5477854938
 20
-50.4726765665
 10
31.5560254586
 20
-50.4287667367
 10
31.5610624258
 20
-50.3826089964
 10
31.5627701471
 20
-50.3342902233
  0
LINE
  5
3AC
100
AcDbEntity
  8
DRAFT
100
AcDbLine
 62
7
  6
CONTINUOUS
 10
31.3589146045
 20
-50.7483340806
 30
0.0
 11
30.7732360733
 21
-51.1034019166
 31
0.0
  0
LINE
  5
3AD
100
AcDbEntity
  8
RACCORDO
100
AcDbLine
 62
250
  6
CONTINUOUS
 10
31.5066381071
 20
-50.4145076307
 30
0.0
 11
30.7732360733
 21
-50.8530103385
 31
0.0
  0
LINE
  5
3AE
100
AcDbEntity
  8
RACCORDO
100
AcDbLine
 62
250
  6
CONTINUOUS
 10
28.9234582148
 20
-52.3553457051
 30
0.0
 11
30.7732360733
 21
-51.4660215806
 31
0.0
  0
LINE
  5
3AF
100
AcDbEntity
  8
RACCORDO
100
AcDbLine
 62
250
  6
CONTINUOUS
 10
23.4138363622
 20
-54.9378522182
 30
0.0
 11
28.757981747
 21
-52.4668149932
 31
0.0
  0
LWPOLYLINE
  5
3B0
100
AcDbEntity
  8
RACCORDO
100
AcDbPolyline
 62
7
  6
CONTINUOUS
 90
3
 70
0
 10
28.5531124657
 20
-53.0708979961
 10
28.56390173
 20
-53.066589743
 10
28.5783471293
 20
-53.0598629886
  0
LWPOLYLINE
  5
3B1
100
AcDbEntity
  8
RACCORDO
100
AcDbPolyline
 62
250
  6
CONTINUOUS
 90
15
 70
0
 10
28.5783692596
 20
-53.0598575386
 10
28.6207756679
 20
-53.0368296503
 10
28.6644248515
 20
-53.0070673285
 10
28.7042334989
 20
-52.9734312983
 10
28.7404966961
 20
-52.9360740331
 10
28.773358617
 20
-52.8951778272
 10
28.8025935382
 20
-52.8514202034
 10
28.8284877671
 20
-52.8047798109
 10
28.8517096494
 20
-52.7540452127
 10
28.8721706622
 20
-52.6988936488
 10
28.8895030221
 20
-52.6396576203
 10
28.9036128747
 20
-52.5757389618
 10
28.9142109424
 20
-52.5069057655
 10
28.920930623
 20
-52.433411368
 10
28.9234582148
 20
-52.3553457051
  0
LWPOLYLINE
  5
3B2
100
AcDbEntity
  8
0
100
AcDbPolyline
 62
7
  6
CONTINUOUS
 90
16
 70
0
 10
30.429668114
 20
-52.1698024671
 10
30.4410077065
 20
-52.1641731816
 10
30.4849020973
 20
-52.1387950607
 10
30.526038557
 20
-52.1090885512
 10
30.5642000487
 20
-52.0752847813
 10
30.5993874569
 20
-52.0374644045
 10
30.6315675316
 20
-51.9957096047
 10
30.6606158421
 20
-51.9502144934
 10
30.6864690302
 20
-51.9011120775
 10
30.7091486789
 20
-51.8483426409
 10
30.7285934588
 20
-51.7918872336
 10
30.7446343989
 20
-51.732053309
 10
30.7571497143
 20
-51.6692877752
 10
30.7660965208
 20
-51.6039122635
 10
30.7714634399
 20
-51.5360761466
 10
30.7732360733
 20
-51.4660215806
  0
LINE
  5
3B3
100
AcDbEntity
  8
RACCORDO
100
AcDbLine
 62
7
  6
CONTINUOUS
 10
28.5778942652
 20
-53.0600862108
 30
0.0
 11
30.4296681076
 21
-52.1698024702
 31
0.0
  0
LWPOLYLINE
  5
3B4
100
AcDbEntity
  8
RACCORDO
100
AcDbPolyline
 62
250
  6
CONTINUOUS
 90
16
 70
0
 10
23.0545768718
 20
-55.6488392064
 10
23.06449796
 20
-55.6441049131
 10
23.1077261854
 20
-55.6201661873
 10
23.148549922
 20
-55.5919741761
 10
23.1867238752
 20
-55.5597342759
 10
23.2222570934
 20
-55.523476133
 10
23.2553167856
 20
-55.4829486337
 10
23.2858056687
 20
-55.4380581597
 10
23.3134530507
 20
-55.3889654493
 10
23.3380986184
 20
-55.3357155878
 10
23.3595961815
 20
-55.2783168099
 10
23.3777463166
 20
-55.2169530899
 10
23.3923502486
 20
-55.151997229
 10
23.4032882838
 20
-55.0837235578
 10
23.4104793018
 20
-55.0122661188
 10
23.4138363622
 20
-54.9378522182
  0
LINE
  5
3B5
100
AcDbEntity
  8
RACCORDO
100
AcDbLine
 62
7
  6
CONTINUOUS
 10
23.0540574757
 20
-55.6490797264
 30
0.0
 11
28.4077930153
 21
-53.1736081854
 31
0.0
  0
ELLIPSE
  5
3B6
100
AcDbEntity
  8
0
100
AcDbEllipse
 62
7
  6
CONTINUOUS
 10
25.4092406991
 20
13.7242402237
 30
0.0
 11
2.4358524003
 21
3.7876101382
 31
0.0
 40
0.6067084637
 41
-0.7562804351
 42
-0.3489400871
  0
ELLIPSE
  5
3B7
100
AcDbEntity
  8
0
100
AcDbEllipse
 62
7
  6
CONTINUOUS
 10
27.6958659824
 20
-51.8502035264
 30
0.0
 11
-0.752093153
 21
1.3025803154
 31
0.0
 40
0.5757524875
 41
-3.193807042
 42
-2.3576120761
  0
ENDSEC
  0
SECTION
  2
OBJECTS
  0
DICTIONARY
  5
C
100
AcDbDictionary
280
0
281
1
  3
ACAD_GROUP
350
D
  3
ACAD_MLINESTYLE
350
17
  3
ACAD_LAYOUT
350
1A
  3
ACAD_PLOTSETTINGS
350
19
  3
ACAD_PLOTSTYLENAME
350
E
  0
DICTIONARY
  5
D
102
{ACAD_REACTORS
330
C
102
}
100
AcDbDictionary
280
0
281
1
  0
ACDBDICTIONARYWDFLT
  5
E
102
{ACAD_REACTORS
330
C
102
}
100
AcDbDictionary
281
1
  3
Normal
350
F
100
AcDbDictionaryWithDefault
340
F
  0
DICTIONARY
  5
17
102
{ACAD_REACTORS
330
C
102
}
100
AcDbDictionary
280
0
281
1
  3
Standard
350
18
  0
DICTIONARY
  5
19
102
{ACAD_REACTORS
330
C
102
}
100
AcDbDictionary
281
1
  0
DICTIONARY
  5
1A
102
{ACAD_REACTORS
330
C
102
}
100
AcDbDictionary
281
1
  3
Model
350
3B8
  3
Layout1
350
3B9
  0
ACDBPLACEHOLDER
  5
F
102
{ACAD_REACTORS
330
E
102
}
  0
MLINESTYLE
  5
18
102
{ACAD_REACTORS
330
17
102
}
100
AcDbMlineStyle
  2
STANDARD
 70
0
  3

 62
256
 51
90.0
 52
90.0
 71
2
 49
0.5
 62
256
  6
BYLAYER
 49
-0.5
 62
256
  6
BYLAYER
  0
LAYOUT
  5
3B8
102
{ACAD_REACTORS
330
1A
102
}
100
AcDbPlotSettings
  1

  2
none_device
  4
ISO_A4_(297.00_x_210.00_MM)
  6

 40
0.0
 41
0.0
 42
0.0
 43
0.0
 44
297.0
 45
210.0
 46
0.0
 47
0.0
 48
0.0
 49
0.0
140
0.0
141
0.0
142
1.0
143
1.0
 70
1024
 72
1
 73
0
 74
0
  7

 75
0
147
1.0
148
0.0
149
0.0
100
AcDbLayout
  1
Model
 70
0
 71
0
 10
0.0
 20
0.0
 11
297.0
 21
210.0
 12
0.0
 22
0.0
 32
0.0
 14
0.0
 24
0.0
 34
0.0
 15
0.0
 25
0.0
 35
0.0
146
0.0
 13
0.0
 23
0.0
 33
0.0
 16
1.0
 26
0.0
 36
0.0
 17
0.0
 27
1.0
 37
0.0
 76
0
330
218
345
0
346
0
  0
LAYOUT
  5
3B9
102
{ACAD_REACTORS
330
1A
102
}
100
AcDbPlotSettings
  1

  2
none_device
  4
ISO_A4_(297.00_x_210.00_MM)
  6

 40
0.0
 41
0.0
 42
0.0
 43
0.0
 44
297.0
 45
210.0
 46
0.0
 47
0.0
 48
0.0
 49
0.0
140
0.0
141
0.0
142
1.0
143
1.0
 70
0
 72
1
 73
0
 74
0
  7

 75
0
147
1.0
148
0.0
149
0.0
100
AcDbLayout
  1
Layout1
 70
0
 71
1
 10
0.0
 20
0.0
 11
297.0
 21
210.0
 12
0.0
 22
0.0
 32
0.0
 14
0.0
 24
0.0
 34
0.0
 15
0.0
 25
0.0
 35
0.0
146
0.0
 13
0.0
 23
0.0
 33
0.0
 16
1.0
 26
0.0
 36
0.0
 17
0.0
 27
1.0
 37
0.0
 76
0
330
219
345
0
346
0
  0
ENDSEC
  0
EOF
