  0
SECTION
  2
HEADER
  9
$ACADVER
  1
AC1024
  9
$DWGCODEPAGE
  3
ANSI_1252
  9
$EXTMAX
 10
297.0
 20
210.0
 30
0.0
  9
$EXTMIN
 10
0.0
 20
0.0
 30
0.0
  9
$LIMMIN
 10
0.0
 20
0.0
  9
$LIMMAX
 10
297.0
 20
210.0
  9
$VIEWCTR
 10
148.5
 20
105.0
  9
$VIEWSIZE
 40
210.0
  9
$CLAYER
  8
0
  9
$LTSCALE
 40
16.335
  9
$CELTYPE
  6
BYLAYER
  9
$DIMSCALE
 40
1.0
  9
$DIMASZ
 40
3.0
  9
$DIMEXO
 40
0.5
  9
$DIMDLI
 40
11.286
  9
$DIMEXE
 40
1.5
  9
$DIMCEN
 40
2.673
  9
$DIMLFAC
 40
1.0
  9
$DIMBLK
  1
_FILLED
  9
$DIMALT
 70
0
  9
$DIMALTF
 40
0.0393700787
  9
$DIMTXT
 40
3.0
  9
$DIMTOL
 70
1
  9
$DIMLIM
 70
0
  9
$DIMTFAC
 40
1.0
  9
$DIMTP
 40
0.01
  9
$DIMTM
 40
0.01
  9
$DIMGAP
 40
0.625
  9
$DIMDSEP
 70
44
  9
$AUNITS
 70
0
  9
$PDMODE
 70
3
  9
$PDSIZE
 40
3.0
  9
$HANDSEED
  5
35E
  9
$TILEMODE
 70
1
  9
$MEASUREMENT
 70
1
  9
$INSUNITS
 70
4
  0
ENDSEC
  0
SECTION
  2
CLASSES
  0
CLASS
  1
ACDBDICTIONARYWDFLT
  2
AcDbDictionaryWithDefault
  3
AutoCAD 2000
 90
0
 91
1
280
0
281
0
  0
CLASS
  1
ACDBPLACEHOLDER
  2
AcDbPlaceHolder
  3
AutoCAD 2000
 90
0
 91
1
280
0
281
0
  0
CLASS
  1
LAYOUT
  2
AcDbLayout
  3
AutoCAD 2000
 90
0
 91
0
280
0
281
0
  0
ENDSEC
  0
SECTION
  2
TABLES
  0
TABLE
  2
VPORT
  5
8
100
AcDbSymbolTable
 70
2
  0
VPORT
  5
1F4
100
AcDbSymbolTableRecord
100
AcDbViewportTableRecord
  2
*ACTIVE
 70
0
 10
0.0
 20
0.0
 11
1.0
 21
1.0
 12
148.5
 22
105.0
 13
0.0
 23
0.0
 14
1.0
 24
1.0
 15
0.0
 25
0.0
 16
0.0
 26
0.0
 36
1.0
 17
0.0
 27
0.0
 37
0.0
 40
210.0
 41
1.4142857143
 42
50.0
 43
0.0
 44
0.0
 50
0.0
 51
0.0
 71
0
 72
100
 73
1
 74
1
 75
0
 76
0
 77
0
 78
0
  0
ENDTAB
  0
TABLE
  2
LTYPE
  5
5
100
AcDbSymbolTable
 70
6
  0
LTYPE
  5
14
100
AcDbSymbolTableRecord
100
AcDbLinetypeTableRecord
  2
BYBLOCK
 70
0
  3

 72
65
 73
0
 40
0.0
  0
LTYPE
  5
15
100
AcDbSymbolTableRecord
100
AcDbLinetypeTableRecord
  2
BYLAYER
 70
0
  3

 72
65
 73
0
 40
0.0
  0
LTYPE
  5
16
100
AcDbSymbolTableRecord
100
AcDbLinetypeTableRecord
  2
CONTINUOUS
 70
64
  3
Solid line
 72
65
 73
0
 40
0.0
  0
LTYPE
  5
1F5
100
AcDbSymbolTableRecord
100
AcDbLinetypeTableRecord
  2
CENTER
 70
64
  3
____ _ ____ _ ____ _ ____ _ ____ _ ____ _ ____
 72
65
 73
4
 40
0.6
 49
0.375
 74
0
 49
-0.075
 74
0
 49
0.075
 74
0
 49
-0.075
 74
0
  0
LTYPE
  5
1F6
100
AcDbSymbolTableRecord
100
AcDbLinetypeTableRecord
  2
HIDDEN
 70
64
  3
- - - - - - - - - - - - - - - - - - - -
 72
65
 73
2
 40
0.2
 49
0.1
 74
0
 49
-0.1
 74
0
  0
LTYPE
  5
1F7
100
AcDbSymbolTableRecord
100
AcDbLinetypeTableRecord
  2
PHANTOM
 70
64
  3
_____ _ _ _____ _ _ _____ _ _ _____
 72
65
 73
6
 40
0.8
 49
0.45
 74
0
 49
-0.05
 74
0
 49
0.1
 74
0
 49
-0.05
 74
0
 49
0.1
 74
0
 49
-0.05
 74
0
  0
LTYPE
  5
1F8
100
AcDbSymbolTableRecord
100
AcDbLinetypeTableRecord
  2
DOT
 70
64
  3
. . . . . . . . . . . . . . . . . . . .
 72
65
 73
2
 40
0.2
 49
0.1
 74
0
 49
-0.1
 74
0
  0
LTYPE
  5
1F9
100
AcDbSymbolTableRecord
100
AcDbLinetypeTableRecord
  2
DASHED
 70
64
  3
- - - - - - - - - - - - - - - - - - - -
 72
65
 73
2
 40
0.2
 49
0.1
 74
0
 49
-0.1
 74
0
  0
ENDTAB
  0
TABLE
  2
LAYER
  5
2
100
AcDbSymbolTable
 70
36
  0
LAYER
  5
10
100
AcDbSymbolTableRecord
100
AcDbLayerTableRecord
  2
0
 70
0
 62
7
  6
CONTINUOUS
370
-3
390
F
  0
LAYER
  5
1FA
100
AcDbSymbolTableRecord
100
AcDbLayerTableRecord
  2
DEFAULT_1
 70
0
 62
7
  6
CENTER
370
-3
390
F
  0
LAYER
  5
1FB
100
AcDbSymbolTableRecord
100
AcDbLayerTableRecord
  2
DEFAULT_2
 70
0
 62
7
  6
HIDDEN
370
-3
390
F
  0
LAYER
  5
1FC
100
AcDbSymbolTableRecord
100
AcDbLayerTableRecord
  2
DEFAULT_3
 70
0
 62
7
  6
PHANTOM
370
-3
390
F
  0
LAYER
  5
1FD
100
AcDbSymbolTableRecord
100
AcDbLayerTableRecord
  2
ASSI
 70
0
 62
7
  6
CONTINUOUS
370
-3
390
F
  0
LAYER
  5
1FE
100
AcDbSymbolTableRecord
100
AcDbLayerTableRecord
  2
COORDINATE
 70
0
 62
7
  6
CONTINUOUS
370
-3
390
F
  0
LAYER
  5
1FF
100
AcDbSymbolTableRecord
100
AcDbLayerTableRecord
  2
COPY_PUBLISH
 70
0
 62
7
  6
CONTINUOUS
370
-3
390
F
  0
LAYER
  5
200
100
AcDbSymbolTableRecord
100
AcDbLayerTableRecord
  2
COSMETICI
 70
0
 62
7
  6
CONTINUOUS
370
-3
390
F
  0
LAYER
  5
201
100
AcDbSymbolTableRecord
100
AcDbLayerTableRecord
  2
CURVE
 70
0
 62
7
  6
CONTINUOUS
370
-3
390
F
  0
LAYER
  5
202
100
AcDbSymbolTableRecord
100
AcDbLayerTableRecord
  2
DRAFT
 70
0
 62
7
  6
CONTINUOUS
370
-3
390
F
  0
LAYER
  5
203
100
AcDbSymbolTableRecord
100
AcDbLayerTableRecord
  2
IMPORT_IGES
 70
0
 62
7
  6
CONTINUOUS
370
-3
390
F
  0
LAYER
  5
204
100
AcDbSymbolTableRecord
100
AcDbLayerTableRecord
  2
INTF_1
 70
0
 62
7
  6
CONTINUOUS
370
-3
390
F
  0
LAYER
  5
205
100
AcDbSymbolTableRecord
100
AcDbLayerTableRecord
  2
INTF_11
 70
0
 62
7
  6
CONTINUOUS
370
-3
390
F
  0
LAYER
  5
206
100
AcDbSymbolTableRecord
100
AcDbLayerTableRecord
  2
INTF_13
 70
0
 62
7
  6
CONTINUOUS
370
-3
390
F
  0
LAYER
  5
207
100
AcDbSymbolTableRecord
100
AcDbLayerTableRecord
  2
INTF_2
 70
0
 62
7
  6
CONTINUOUS
370
-3
390
F
  0
LAYER
  5
208
100
AcDbSymbolTableRecord
100
AcDbLayerTableRecord
  2
INTF_9
 70
0
 62
7
  6
CONTINUOUS
370
-3
390
F
  0
LAYER
  5
209
100
AcDbSymbolTableRecord
100
AcDbLayerTableRecord
  2
NOTE
 70
0
 62
7
  6
CONTINUOUS
370
-3
390
F
  0
LAYER
  5
20A
100
AcDbSymbolTableRecord
100
AcDbLayerTableRecord
  2
PIANI
 70
0
 62
7
  6
CONTINUOUS
370
-3
390
F
  0
LAYER
  5
20B
100
AcDbSymbolTableRecord
100
AcDbLayerTableRecord
  2
PUNTI
 70
0
 62
7
  6
CONTINUOUS
370
-3
390
F
  0
LAYER
  5
20C
100
AcDbSymbolTableRecord
100
AcDbLayerTableRecord
  2
RACCORDO
 70
0
 62
7
  6
CONTINUOUS
370
-3
390
F
  0
LAYER
  5
20D
100
AcDbSymbolTableRecord
100
AcDbLayerTableRecord
  2
RGB____0____0____0__
 70
0
 62
7
  6
CONTINUOUS
370
-3
390
F
  0
LAYER
  5
20E
100
AcDbSymbolTableRecord
100
AcDbLayerTableRecord
  2
SIMBOLI
 70
0
 62
7
  6
CONTINUOUS
370
-3
390
F
  0
LAYER
  5
20F
100
AcDbSymbolTableRecord
100
AcDbLayerTableRecord
  2
SMUSSO
 70
0
 62
7
  6
CONTINUOUS
370
-3
390
F
  0
LAYER
  5
210
100
AcDbSymbolTableRecord
100
AcDbLayerTableRecord
  2
SNAPLINE
 70
0
 62
7
  6
CONTINUOUS
370
-3
390
F
  0
LAYER
  5
211
100
AcDbSymbolTableRecord
100
AcDbLayerTableRecord
  2
SUPERFICI
 70
0
 62
7
  6
CONTINUOUS
370
-3
390
F
  0
LAYER
  5
212
100
AcDbSymbolTableRecord
100
AcDbLayerTableRecord
  2
TRASH
 70
0
 62
7
  6
CONTINUOUS
370
-3
390
F
  0
ENDTAB
  0
TABLE
  2
STYLE
  5
3
100
AcDbSymbolTable
 70
1
  0
STYLE
  5
11
100
AcDbSymbolTableRecord
100
AcDbTextStyleTableRecord
  2
STANDARD
 70
0
 40
0.0
 41
0.8
 50
0.0
 71
0
 42
0.2
  3
txt
  4

  0
STYLE
  5
213
100
AcDbSymbolTableRecord
100
AcDbTextStyleTableRecord
  2
TEXTSTYLE_1
 70
0
 40
0.0
 41
0.8
 50
0.0
 71
0
 42
0.2
  3
gdt
  4

  0
ENDTAB
  0
TABLE
  2
VIEW
  5
6
100
AcDbSymbolTable
 70
0
  0
ENDTAB
  0
TABLE
  2
UCS
  5
7
100
AcDbSymbolTable
 70
0
  0
ENDTAB
  0
TABLE
  2
APPID
  5
9
100
AcDbSymbolTable
 70
1
  0
APPID
  5
214
100
AcDbSymbolTableRecord
100
AcDbRegAppTableRecord
  2
ACAD
 70
0
  0
ENDTAB
  0
TABLE
  2
BLOCK_RECORD
  5
1
100
AcDbSymbolTable
 70
0
  0
BLOCK_RECORD
  5
215
100
AcDbSymbolTableRecord
100
AcDbBlockTableRecord
  2
*Model_Space
  0
BLOCK_RECORD
  5
216
100
AcDbSymbolTableRecord
100
AcDbBlockTableRecord
  2
*Paper_Space
  0
BLOCK_RECORD
  5
217
100
AcDbSymbolTableRecord
100
AcDbBlockTableRecord
  2
_FILLED
  0
ENDTAB
  0
TABLE
  2
DIMSTYLE
  5
A
100
AcDbSymbolTable
 70
1
100
AcDbDimStyleTable
 71
0
  0
DIMSTYLE
105
218
100
AcDbSymbolTableRecord
100
AcDbDimStyleTableRecord
  2
STANDARD
 70
0
  3

  4

 40
1.0
 41
3.0
 42
0.5
 43
0.38
 44
1.5
 45
0.0
 46
0.0
 47
0.01
 48
0.01
140
3.0
141
0.0
142
0.0
143
25.4
144
1.0
145
0.0
146
1.0
147
0.625
 71
1
 72
0
 73
0
 74
0
 75
0
 76
0
 77
1
 78
8
 79
2
170
0
171
1
172
0
173
0
174
0
175
0
176
0
177
0
178
0
270
2
179
2
271
2
272
2
273
2
274
2
275
0
280
0
281
0
282
0
283
1
284
8
285
0
286
0
287
3
288
0
340
11
278
44
341
217
342
217
343
217
344
217
  0
ENDTAB
  0
ENDSEC
  0
SECTION
  2
BLOCKS
  0
BLOCK
  5
20
100
AcDbEntity
  8
0
100
AcDbBlockBegin
  2
*Model_Space
 70
0
 10
0.0
 20
0.0
 30
0.0
  3
*Model_Space
  1

  0
ENDBLK
  5
21
100
AcDbEntity
  8
0
100
AcDbBlockEnd
  0
BLOCK
  5
1C
100
AcDbEntity
  8
0
100
AcDbBlockBegin
  2
*Paper_Space
 70
0
 10
0.0
 20
0.0
 30
0.0
  3
*Paper_Space
  1

  0
ENDBLK
  5
1D
100
AcDbEntity
  8
0
100
AcDbBlockEnd
  0
BLOCK
  5
219
100
AcDbEntity
  8
0
100
AcDbBlockBegin
  2
_FILLED
 70
64
 10
0.0
 20
0.0
 30
0.0
  3
_FILLED
  1

  0
SOLID
  5
21A
100
AcDbEntity
  8
0
  6
BYBLOCK
 62
0
100
AcDbTrace
 10
0.0
 20
0.0
 30
0.0
 11
-1.0
 21
0.3166666667
 31
0.0
 12
-1.0
 22
-0.3166666667
 32
0.0
 13
-1.0
 23
-0.3166666667
 33
0.0
  0
ENDBLK
  5
21B
100
AcDbEntity
  8
0
  6
BYBLOCK
 62
0
100
AcDbBlockEnd
  0
ENDSEC
  0
SECTION
  2
ENTITIES
  0
LWPOLYLINE
  5
21C
100
AcDbEntity
  8
RACCORDO
100
AcDbPolyline
 62
250
  6
CONTINUOUS
 90
5
 70
0
 10
-91.9580471172
 20
73.6167463138
 10
-91.9505550883
 20
73.6231696064
 10
-91.9367466383
 20
73.6285822637
 10
-91.9198268473
 20
73.6304261323
 10
-91.9002579978
 20
73.6290264793
  0
LWPOLYLINE
  5
21D
100
AcDbEntity
  8
RACCORDO
100
AcDbPolyline
 62
7
  6
CONTINUOUS
 90
15
 70
0
 10
-96.3955989563
 20
70.7568169643
 10
-96.4480626695
 20
70.7161629456
 10
-96.4982593493
 20
70.670969856
 10
-96.5458536845
 20
70.6212508213
 10
-96.5904159948
 20
70.5671533369
 10
-96.6314867335
 20
70.5089647184
 10
-96.6687993365
 20
70.4468305103
 10
-96.702078095
 20
70.3809705127
 10
-96.7310076118
 20
70.3118013034
 10
-96.755439384
 20
70.2395194312
 10
-96.775259321
 20
70.1642952126
 10
-96.7903317167
 20
70.0864411779
 10
-96.8005841349
 20
70.0061366379
 10
-96.8059680339
 20
69.9234944902
 10
-96.8068301434
 20
69.8738930357
  0
LWPOLYLINE
  5
21E
100
AcDbEntity
  8
RACCORDO
100
AcDbPolyline
 62
7
  6
CONTINUOUS
 90
9
 70
0
 10
-91.9469810659
 20
73.8674258265
 10
-91.9613130029
 20
73.8565974029
 10
-91.9825916375
 20
73.8358776004
 10
-92.000023038
 20
73.8127534835
 10
-92.0135788673
 20
73.7879738341
 10
-92.0235125682
 20
73.7619197311
 10
-92.0299098422
 20
73.7357932257
 10
-92.0333071246
 20
73.7101896852
 10
-92.0343134398
 20
73.6847813113
  0
LWPOLYLINE
  5
21F
100
AcDbEntity
  8
RACCORDO
100
AcDbPolyline
 62
250
  6
CONTINUOUS
 90
13
 70
0
 10
-91.6870989513
 20
73.8205801877
 10
-91.7002617607
 20
73.8109972171
 10
-91.7121338407
 20
73.7993254524
 10
-91.7227498773
 20
73.7858255202
 10
-91.7323128921
 20
73.7708215278
 10
-91.7407768084
 20
73.7545798727
 10
-91.7477046816
 20
73.7372722615
 10
-91.752944094
 20
73.7191632539
 10
-91.7565772854
 20
73.7005876383
 10
-91.758423801
 20
73.6818071503
 10
-91.7584401865
 20
73.6631174617
 10
-91.7567349439
 20
73.6448460197
 10
-91.7533868448
 20
73.6272972975
  0
LINE
  5
220
100
AcDbEntity
  8
RACCORDO
100
AcDbLine
 62
7
  6
CONTINUOUS
 10
-96.3955989563
 20
70.7568169643
 30
0.0
 11
-92.2001923405
 21
73.7150960687
 31
0.0
  0
LINE
  5
221
100
AcDbEntity
  8
RACCORDO
100
AcDbLine
 62
250
  6
CONTINUOUS
 10
-95.5935104651
 20
70.7171446163
 30
0.0
 11
-91.6963588327
 21
73.465080226
 31
0.0
  0
LINE
  5
222
100
AcDbEntity
  8
RACCORDO
100
AcDbLine
 62
7
  6
CONTINUOUS
 10
-96.3889971205
 20
70.7615114168
 30
0.0
 11
-96.3894450834
 21
70.761195919
 31
0.0
  0
LWPOLYLINE
  5
223
100
AcDbEntity
  8
RACCORDO
100
AcDbPolyline
 62
250
  6
CONTINUOUS
 90
13
 70
0
 10
-91.3462096252
 20
73.6897338468
 10
-91.3596213324
 20
73.6803225879
 10
-91.372741286
 20
73.66912778
 10
-91.3853572814
 20
73.6563304898
 10
-91.3972652655
 20
73.642137703
 10
-91.4082726364
 20
73.626778976
 10
-91.4182013589
 20
73.6105027236
 10
-91.4268908443
 20
73.5935722009
 10
-91.4342005471
 20
73.5762612449
 10
-91.4400122391
 20
73.5588498462
 10
-91.4442319209
 20
73.5416196197
 10
-91.4467913426
 20
73.52484925
 10
-91.4476491077
 20
73.5088099842
  0
LINE
  5
224
100
AcDbEntity
  8
RACCORDO
100
AcDbLine
 62
7
  6
CONTINUOUS
 10
-91.9469647516
 20
73.8674368916
 30
0.0
 11
-89.6887246325
 21
75.4094157408
 31
0.0
  0
LINE
  5
225
100
AcDbEntity
  8
RACCORDO
100
AcDbLine
 62
250
  6
CONTINUOUS
 10
-91.3462096252
 20
73.6897338468
 30
0.0
 11
-88.9073432928
 21
75.3550482152
 31
0.0
  0
LINE
  5
226
100
AcDbEntity
  8
RACCORDO
100
AcDbLine
 62
250
  6
CONTINUOUS
 10
-87.630062955
 20
75.4645373104
 30
0.0
 11
-88.3765460039
 21
75.0485725131
 31
0.0
  0
LINE
  5
227
100
AcDbEntity
  8
DRAFT
100
AcDbLine
 62
7
  6
CONTINUOUS
 10
-87.9930793029
 20
75.5035269804
 30
0.0
 11
-88.5934288399
 21
75.1737979444
 31
0.0
  0
LINE
  5
228
100
AcDbEntity
  8
RACCORDO
100
AcDbLine
 62
250
  6
CONTINUOUS
 10
-87.9930793029
 20
75.5035269804
 30
0.0
 11
-87.9836251283
 21
75.508455215
 31
0.0
  0
LWPOLYLINE
  5
229
100
AcDbEntity
  8
RACCORDO
100
AcDbPolyline
 62
250
  6
CONTINUOUS
 90
10
 70
0
 10
-91.9468241661
 20
73.8675331255
 10
-91.9306249253
 20
73.8758361454
 10
-91.9101622995
 20
73.8807577893
 10
-91.8864657914
 20
73.8818821546
 10
-91.859784964
 20
73.8793889995
 10
-91.8304125812
 20
73.8733944712
 10
-91.7982538173
 20
73.8643081104
 10
-91.7634373688
 20
73.8523906612
 10
-91.7263134082
 20
73.8377494282
 10
-91.6871036847
 20
73.8205810734
  0
LWPOLYLINE
  5
22A
100
AcDbEntity
  8
RACCORDO
100
AcDbPolyline
 62
250
  6
CONTINUOUS
 90
19
 70
0
 10
-95.9955702681
 20
69.9957895254
 10
-95.9940616177
 20
70.0379365442
 10
-95.989546381
 20
70.0815260227
 10
-95.9820566602
 20
70.126247962
 10
-95.9716457117
 20
70.1717843083
 10
-95.958387568
 20
70.2178112124
 10
-95.9423765117
 20
70.2640013335
 10
-95.9237264038
 20
70.3100261712
 10
-95.9025698753
 20
70.3555583968
 10
-95.879057386
 20
70.4002741796
 10
-95.8533561495
 20
70.4438554998
 10
-95.8256489475
 20
70.4859924026
 10
-95.7961328339
 20
70.526385199
 10
-95.7650177233
 20
70.5647466108
 10
-95.7325249047
 20
70.6008038047
 10
-95.6988854729
 20
70.6343003281
 10
-95.6643386741
 20
70.6649979455
 10
-95.6291302035
 20
70.6926783315
 10
-95.5935104651
 20
70.7171446163
  0
LINE
  5
22B
100
AcDbEntity
  8
0
100
AcDbLine
 62
250
  6
CONTINUOUS
 10
-80.5624737613
 20
71.908810838
 30
0.0
 11
-80.9609812486
 21
71.6787176094
 31
0.0
  0
LWPOLYLINE
  5
22C
100
AcDbEntity
  8
RACCORDO
100
AcDbPolyline
 62
250
  6
CONTINUOUS
 90
11
 70
0
 10
-87.9836251283
 20
75.508455215
 10
-87.9541606393
 20
75.5207207121
 10
-87.9228836629
 20
75.5293154013
 10
-87.8899691133
 20
75.534191217
 10
-87.8556010629
 20
75.5353208912
 10
-87.8199717113
 20
75.5326981065
 10
-87.7832803129
 20
75.5263375304
 10
-87.7457320633
 20
75.5162747347
 10
-87.7075369486
 20
75.5025659957
 10
-87.6689085706
 20
75.4852879788
 10
-87.630062955
 20
75.4645373104
  0
LINE
  5
22D
100
AcDbEntity
  8
RACCORDO
100
AcDbLine
 62
7
  6
CONTINUOUS
 10
-92.0343134398
 20
73.6847813113
 30
0.0
 11
-92.0333224941
 21
73.659243115
 31
0.0
  0
LWPOLYLINE
  5
22E
100
AcDbEntity
  8
RACCORDO
100
AcDbPolyline
 62
250
  6
CONTINUOUS
 90
11
 70
0
 10
-95.9955702681
 20
-0.2605975895
 10
-95.9940615888
 20
-0.3010027755
 10
-95.9895462806
 20
-0.3393784156
 10
-95.9820564564
 20
-0.3754515827
 10
-95.9716453836
 20
-0.4089657253
 10
-95.9583871055
 20
-0.4396824913
 10
-95.9423759149
 20
-0.4673834235
 10
-95.923725683
 20
-0.4918715136
 10
-95.9025690499
 20
-0.5129726026
 10
-95.8790564814
 20
-0.5305366199
 10
-95.8713206954
 20
-0.5352397062
  0
LWPOLYLINE
  5
22F
100
AcDbEntity
  8
RACCORDO
100
AcDbPolyline
 62
250
  6
CONTINUOUS
 90
10
 70
0
 10
-91.7533868448
 20
73.6272972975
 10
-91.7530764834
 20
73.6181143719
 10
-91.7521364697
 20
73.609269522
 10
-91.750556258
 20
73.6008268927
 10
-91.7483122106
 20
73.5927987672
 10
-91.745410878
 20
73.5853087144
 10
-91.7419310875
 20
73.5785492589
 10
-91.737944558
 20
73.5725776017
 10
-91.7334735696
 20
73.5673577425
 10
-91.7285628833
 20
73.5628950993
  0
LWPOLYLINE
  5
230
100
AcDbEntity
  8
RACCORDO
100
AcDbPolyline
 62
7
  6
CONTINUOUS
 90
24
 70
0
 10
-96.8068300299
 20
1.0853402311
 10
-96.8039217398
 20
0.9924361115
 10
-96.796277075
 20
0.9069631273
 10
-96.7840318604
 20
0.8212777662
 10
-96.7673431357
 20
0.7356180883
 10
-96.7464431615
 20
0.6504814233
 10
-96.7215108422
 20
0.5660633293
 10
-96.6926809721
 20
0.4824435425
 10
-96.6601791116
 20
0.4000284234
 10
-96.6242066716
 20
0.3190808042
 10
-96.5848560277
 20
0.2396479029
 10
-96.5422258363
 20
0.1618590205
 10
-96.4964282275
 20
0.0858861475
 10
-96.4475551404
 20
0.0119120196
 10
-96.3956708995
 20
-0.0599153001
 10
-96.3407696654
 20
-0.1294890795
 10
-96.2829786951
 20
-0.1965086589
 10
-96.2225309418
 20
-0.260577532
 10
-96.1594279205
 20
-0.321537896
 10
-96.0937494633
 20
-0.3791385599
 10
-96.0258022722
 20
-0.4329307646
 10
-95.9557120421
 20
-0.4826583676
 10
-95.8834600759
 20
-0.5281514867
 10
-95.8711427796
 20
-0.5353423108
  0
LWPOLYLINE
  5
231
100
AcDbEntity
  8
RACCORDO
100
AcDbPolyline
 62
250
  6
CONTINUOUS
 90
28
 70
0
 10
-96.6310942124
 20
0.8401621704
 10
-96.6298797543
 20
0.7960256121
 10
-96.6266386415
 20
0.7514815966
 10
-96.6213708739
 20
0.7065301241
 10
-96.6140534018
 20
0.6611555465
 10
-96.604709275
 20
0.6153735118
 10
-96.5934076429
 20
0.5692309637
 10
-96.5801180534
 20
0.5225706988
 10
-96.5648709587
 20
0.4755499206
 10
-96.5478268638
 20
0.4286871829
 10
-96.5289738801
 20
0.382008983
 10
-96.5083238963
 20
0.3354888238
 10
-96.4860730833
 20
0.2895657672
 10
-96.4621990519
 20
0.244234086
 10
-96.4367241913
 20
0.1994995075
 10
-96.4099118402
 20
0.1558182758
 10
-96.3818529174
 20
0.1133119509
 10
-96.3524565043
 20
0.0718589728
 10
-96.3217131835
 20
0.0315509058
 10
-96.2895358014
 20
-0.0077473284
 10
-96.2560115117
 20
-0.0459006516
 10
-96.2213923584
 20
-0.0824122642
 10
-96.1856001014
 20
-0.1173171158
 10
-96.1487129809
 20
-0.1505802569
 10
-96.1112177609
 20
-0.1816000396
 10
-96.0732766961
 20
-0.2101759146
 10
-96.0347275318
 20
-0.2365084312
 10
-95.9955702681
 20
-0.2605975895
  0
LINE
  5
232
100
AcDbEntity
  8
RACCORDO
100
AcDbLine
 62
250
  6
CONTINUOUS
 10
-96.8066244911
 20
1.0760573091
 30
0.0
 11
-96.8068301437
 21
1.0851269038
 31
0.0
  0
LINE
  5
233
100
AcDbEntity
  8
RACCORDO
100
AcDbLine
 62
7
  6
CONTINUOUS
 10
-96.8068301437
 20
69.8738816425
 30
0.0
 11
-96.8068301437
 21
1.0851269038
 31
0.0
  0
LINE
  5
234
100
AcDbEntity
  8
RACCORDO
100
AcDbLine
 62
250
  6
CONTINUOUS
 10
-96.6310942124
 20
69.6289168865
 30
0.0
 11
-96.6310942124
 21
0.8401621704
 31
0.0
  0
LWPOLYLINE
  5
235
100
AcDbEntity
  8
RACCORDO
100
AcDbPolyline
 62
7
  6
CONTINUOUS
 90
9
 70
0
 10
-81.5807424507
 20
49.287031406
 10
-81.5799502674
 20
49.2907332333
 10
-81.5785328652
 20
49.2958768745
 10
-81.5777654691
 20
49.2979945791
 10
-81.5779855163
 20
49.2976741862
 10
-81.5792637761
 20
49.2957688445
 10
-81.581654786
 20
49.2928748138
 10
-81.5852932154
 20
49.2894239657
 10
-81.5895104636
 20
49.2863787362
  0
LWPOLYLINE
  5
236
100
AcDbEntity
  8
RACCORDO
100
AcDbPolyline
 62
250
  6
CONTINUOUS
 90
7
 70
0
 10
-81.8108536559
 20
4.4707837609
 10
-81.8096704761
 20
4.450388255
 10
-81.8061407344
 20
4.4317003272
 10
-81.800323493
 20
4.4150326767
 10
-81.7923160899
 20
4.4006641982
 10
-81.7822525105
 20
4.3888353149
 10
-81.7694371317
 20
4.3792363887
  0
LWPOLYLINE
  5
237
100
AcDbEntity
  8
RACCORDO
100
AcDbPolyline
 62
250
  6
CONTINUOUS
 90
16
 70
0
 10
-81.8815535644
 20
4.5932395944
 10
-81.881121556
 20
4.5842879405
 10
-81.8799674736
 20
4.5752095487
 10
-81.8780913172
 20
4.5660044191
 10
-81.875458364
 20
4.55657864
 10
-81.8721033367
 20
4.5470261231
 10
-81.8681304039
 20
4.5376286031
 10
-81.8635238926
 20
4.5283871339
 10
-81.8582994758
 20
4.5193006615
 10
-81.8526083399
 20
4.5106477588
 10
-81.8464308487
 20
4.5024327162
 10
-81.8397866384
 20
4.4946512433
 10
-81.8328858045
 20
4.4875690412
 10
-81.8257983787
 20
4.4812746769
 10
-81.8184543291
 20
4.4756795835
 10
-81.8108536559
 20
4.4707837609
  0
LWPOLYLINE
  5
238
100
AcDbEntity
  8
RACCORDO
100
AcDbPolyline
 62
7
  6
CONTINUOUS
 90
15
 70
0
 10
-81.9401321696
 20
4.674966267
 10
-81.9391862489
 20
4.6512109062
 10
-81.9360544187
 20
4.6253342671
 10
-81.9307252183
 20
4.5992503853
 10
-81.9231612579
 20
4.5730657613
 10
-81.9135906144
 20
4.5475093553
 10
-81.9019919552
 20
4.5224652102
 10
-81.8883411127
 20
4.4979811582
 10
-81.8731235919
 20
4.4749124802
 10
-81.8563928858
 20
4.4532693867
 10
-81.8380661272
 20
4.4329669761
 10
-81.8186432413
 20
4.4145816379
 10
-81.7982132536
 20
4.39813548
 10
-81.7767533648
 20
4.3836038581
 10
-81.7694082177
 20
4.3792197037
  0
LINE
  5
239
100
AcDbEntity
  8
RACCORDO
100
AcDbLine
 62
250
  6
CONTINUOUS
 10
-82.4248219018
 20
4.7555514514
 30
0.0
 11
-82.4248219018
 21
49.308480434
 31
0.0
  0
LINE
  5
23A
100
AcDbEntity
  8
RACCORDO
100
AcDbLine
 62
250
  6
CONTINUOUS
 10
-82.1444688714
 20
4.754138813
 30
0.0
 11
-82.1444688714
 21
49.3070677956
 31
0.0
  0
LINE
  5
23B
100
AcDbEntity
  8
RACCORDO
100
AcDbLine
 62
7
  6
CONTINUOUS
 10
-81.9401322082
 20
48.9250945511
 30
0.0
 11
-81.9401322082
 21
4.6748945131
 31
0.0
  0
LINE
  5
23C
100
AcDbEntity
  8
RACCORDO
100
AcDbLine
 62
250
  6
CONTINUOUS
 10
-81.8815535644
 20
48.8434396325
 30
0.0
 11
-81.8815535644
 21
4.5932395944
 31
0.0
  0
LINE
  5
23D
100
AcDbEntity
  8
RACCORDO
100
AcDbLine
 62
7
  6
CONTINUOUS
 10
-81.7822329589
 20
49.4412657888
 30
0.0
 11
-81.7822329589
 21
49.1671963171
 31
0.0
  0
LINE
  5
23E
100
AcDbEntity
  8
RACCORDO
100
AcDbLine
 62
250
  6
CONTINUOUS
 10
-81.7430615652
 20
49.418648717
 30
0.0
 11
-81.7430615666
 21
49.1914204937
 31
0.0
  0
LINE
  5
23F
100
AcDbEntity
  8
RACCORDO
100
AcDbLine
 62
7
  6
CONTINUOUS
 10
-81.5842430601
 20
49.3269489026
 30
0.0
 11
-81.5842430601
 21
49.287031406
 31
0.0
  0
LWPOLYLINE
  5
240
100
AcDbEntity
  8
RACCORDO
100
AcDbPolyline
 62
250
  6
CONTINUOUS
 90
14
 70
0
 10
-82.1444688227
 20
49.3070678218
 10
-82.1438306224
 20
49.3339970801
 10
-82.1416220928
 20
49.3595319346
 10
-82.1379195272
 20
49.3836046893
 10
-82.1328297312
 20
49.4060645274
 10
-82.1264224013
 20
49.4269783223
 10
-82.1186698379
 20
49.4465727177
 10
-82.1095755533
 20
49.4648368189
 10
-82.0992072059
 20
49.4816298786
 10
-82.0875775297
 20
49.4969297712
 10
-82.074700354
 20
49.5106965251
 10
-82.0606482602
 20
49.5228333718
 10
-82.0455321784
 20
49.533249238
 10
-82.0376623918
 20
49.5377669558
  0
LWPOLYLINE
  5
241
100
AcDbEntity
  8
RACCORDO
100
AcDbPolyline
 62
250
  6
CONTINUOUS
 90
25
 70
0
 10
-82.4248219018
 20
49.308480434
 10
-82.4235123874
 20
49.3464313755
 10
-82.4202472775
 20
49.3822608456
 10
-82.415026572
 20
49.4159688444
 10
-82.4078062753
 20
49.4475054477
 10
-82.3986303832
 20
49.4769205797
 10
-82.387630882
 20
49.5043640128
 10
-82.3748053422
 20
49.529959804
 10
-82.3601561935
 20
49.5535838963
 10
-82.3438227115
 20
49.5750138919
 10
-82.3257456244
 20
49.5942601623
 10
-82.3059842041
 20
49.6113123359
 10
-82.2848555416
 20
49.6259168996
 10
-82.2624644732
 20
49.6380156635
 10
-82.2387061625
 20
49.6476668174
 10
-82.213583192
 20
49.6547914184
 10
-82.1871162035
 20
49.6594722342
 10
-82.1592845552
 20
49.661626497
 10
-82.1300289042
 20
49.6609269603
 10
-82.0991276068
 20
49.6573375627
 10
-82.0668023067
 20
49.6508943655
 10
-82.0336585914
 20
49.6413783062
 10
-81.9998983235
 20
49.628716364
 10
-81.9653196403
 20
49.6129815597
 10
-81.929922542
 20
49.5941738933
  0
LWPOLYLINE
  5
242
100
AcDbEntity
  8
RACCORDO
100
AcDbPolyline
 62
250
  6
CONTINUOUS
 90
16
 70
0
 10
-81.929922542
 20
3.8983606165
 10
-81.9291648912
 20
3.9156783673
 10
-81.9269000682
 20
3.9336854085
 10
-81.923152357
 20
3.9521887931
 10
-81.9179619305
 20
3.9709902567
 10
-81.9113844174
 20
3.9898883505
 10
-81.903490304
 20
4.0086805994
 10
-81.8943641849
 20
4.027165656
 10
-81.8841038513
 20
4.0451454713
 10
-81.8728192372
 20
4.062427424
 10
-81.8606312568
 20
4.0788263565
 10
-81.8476704993
 20
4.0941665775
 10
-81.834075819
 20
4.1082837529
 10
-81.819992868
 20
4.1210266409
 10
-81.8055725378
 20
4.132258716
 10
-81.7909693287
 20
4.1418596452
  0
LWPOLYLINE
  5
243
100
AcDbEntity
  8
RACCORDO
100
AcDbPolyline
 62
250
  6
CONTINUOUS
 90
13
 70
0
 10
-81.8108536559
 20
48.8842529838
 10
-81.8096704703
 20
48.906014851
 10
-81.8061407136
 20
48.9287788839
 10
-81.8003234518
 20
48.9521641761
 10
-81.792316027
 20
48.9757794268
 10
-81.7822524282
 20
48.9992294888
 10
-81.7703010488
 20
49.0221219807
 10
-81.7566618703
 20
49.04407385
 10
-81.7415631144
 20
49.0647177851
 10
-81.7252574234
 20
49.083708362
 10
-81.708017635
 20
49.1007278203
 10
-81.6901322179
 20
49.1154913807
 10
-81.6719004426
 20
49.1277520125
  0
LWPOLYLINE
  5
244
100
AcDbEntity
  8
RACCORDO
100
AcDbPolyline
 62
250
  6
CONTINUOUS
 90
3
 70
0
 10
-81.581796858
 20
49.2927400665
 10
-81.5812299879
 20
49.2998520985
 10
-81.5777195462
 20
49.3231823075
  0
LWPOLYLINE
  5
245
100
AcDbEntity
  8
RACCORDO
100
AcDbPolyline
 62
7
  6
CONTINUOUS
 90
13
 70
0
 10
-81.8254367957
 20
49.1404644679
 10
-81.837999491
 20
49.1321294033
 10
-81.8543080342
 20
49.1194149442
 10
-81.8696325433
 20
49.1051083372
 10
-81.8837933901
 20
49.0892866483
 10
-81.8966306347
 20
49.072053557
 10
-81.9080103895
 20
49.0535154265
 10
-81.9178170252
 20
49.0337772094
 10
-81.9259253332
 20
49.0130049447
 10
-81.9322447964
 20
48.9913689289
 10
-81.936735278
 20
48.9690074238
 10
-81.9393695719
 20
48.9460546478
 10
-81.9401322055
 20
48.9251134514
  0
LINE
  5
246
100
AcDbEntity
  8
RACCORDO
100
AcDbLine
 62
7
  6
CONTINUOUS
 10
-81.8254865217
 20
49.140447665
 30
0.0
 11
-81.5895940059
 21
49.2863271352
 31
0.0
  0
LINE
  5
247
100
AcDbEntity
  8
RACCORDO
100
AcDbLine
 62
250
  6
CONTINUOUS
 10
-81.6719004426
 20
49.1277520125
 30
0.0
 11
-81.4629954011
 21
49.2569420239
 31
0.0
  0
LWPOLYLINE
  5
248
100
AcDbEntity
  8
RACCORDO
100
AcDbPolyline
 62
250
  6
CONTINUOUS
 90
6
 70
0
 10
-81.5895113029
 20
49.2863782267
 10
-81.5869946371
 20
49.2878803769
 10
-81.5734706483
 20
49.294441607
 10
-81.5585808162
 20
49.2993115345
 10
-81.5424130302
 20
49.3024040977
 10
-81.5418111234
 20
49.3024492341
  0
LINE
  5
249
100
AcDbEntity
  8
RACCORDO
100
AcDbLine
 62
7
  6
CONTINUOUS
 10
-82.0376623918
 20
49.5377669558
 30
0.0
 11
-82.0375899138
 21
49.5378059552
 31
0.0
  0
LINE
  5
24A
100
AcDbEntity
  8
RACCORDO
100
AcDbLine
 62
250
  6
CONTINUOUS
 10
-81.8365758551
 20
49.472642696
 30
0.0
 11
-82.1444688714
 21
49.3070677956
 31
0.0
  0
LWPOLYLINE
  5
24B
100
AcDbEntity
  8
RACCORDO
100
AcDbPolyline
 62
250
  6
CONTINUOUS
 90
9
 70
0
 10
-81.929922542
 20
49.5941738933
 10
-81.9291649261
 20
49.5777314265
 10
-81.9269001957
 20
49.5623400052
 10
-81.9231526158
 20
49.5481645378
 10
-81.9179623392
 20
49.5353569046
 10
-81.911384976
 20
49.5240543306
 10
-81.9034909981
 20
49.5143779149
 10
-81.8943649842
 20
49.5064313338
 10
-81.8885329718
 20
49.5026420924
  0
LINE
  5
24C
100
AcDbEntity
  8
0
100
AcDbLine
 62
250
  6
CONTINUOUS
 10
-55.2776699738
 20
57.325832357
 30
0.0
 11
-55.6901631585
 21
57.0876639619
 31
0.0
  0
LINE
  5
24D
100
AcDbEntity
  8
0
100
AcDbLine
 62
250
  6
CONTINUOUS
 10
-55.2184320159
 20
57.2916291025
 30
0.0
 11
-55.6309252005
 21
57.0534607074
 31
0.0
  0
LWPOLYLINE
  5
24E
100
AcDbEntity
  8
RACCORDO
100
AcDbPolyline
 62
7
  6
CONTINUOUS
 90
13
 70
0
 10
-82.0376731412
 20
49.537760689
 10
-82.034366281
 20
49.5393301705
 10
-82.0293404979
 20
49.5410307323
 10
-82.0226129501
 20
49.5424230452
 10
-82.013985895
 20
49.5432175255
 10
-82.0033642613
 20
49.5431146277
 10
-81.9907564868
 20
49.5418239049
 10
-81.9761709995
 20
49.5390780494
 10
-81.9598992878
 20
49.5346978386
 10
-81.9424573211
 20
49.5286680998
 10
-81.9241618974
 20
49.5210228385
 10
-81.9051502773
 20
49.5117660643
 10
-81.8885329721
 20
49.5026420925
  0
LINE
  5
24F
100
AcDbEntity
  8
0
100
AcDbLine
 62
7
  6
CONTINUOUS
 10
-65.0249944268
 20
-10.7990568542
 30
0.0
 11
-65.1902827582
 21
-8.6626612994
 31
0.0
  0
LINE
  5
250
100
AcDbEntity
  8
0
100
AcDbLine
 62
7
  6
CONTINUOUS
 10
-65.4617431728
 20
-9.2197307624
 30
0.0
 11
-65.3859384975
 21
-10.5906522715
 31
0.0
  0
LINE
  5
251
100
AcDbEntity
  8
0
100
AcDbLine
 62
7
  6
CONTINUOUS
 10
-65.4405299694
 20
-9.2074825246
 30
0.0
 11
-65.364725294
 21
-10.5784040337
 31
0.0
  0
LINE
  5
252
100
AcDbEntity
  8
0
100
AcDbLine
 62
7
  6
CONTINUOUS
 10
-67.3852136248
 20
-7.3952132554
 30
0.0
 11
-67.3852136248
 21
-9.4362958698
 31
0.0
  0
LINE
  5
253
100
AcDbEntity
  8
0
100
AcDbLine
 62
7
  6
CONTINUOUS
 10
-67.3640004214
 20
-7.4074614932
 30
0.0
 11
-67.3640004214
 21
-9.424047632
 31
0.0
  0
LINE
  5
254
100
AcDbEntity
  8
0
100
AcDbLine
 62
7
  6
CONTINUOUS
 10
-67.0162502561
 20
-9.6493306946
 30
0.0
 11
-67.0162502561
 21
-7.6082480803
 31
0.0
  0
LINE
  5
255
100
AcDbEntity
  8
0
100
AcDbLine
 62
7
  6
CONTINUOUS
 10
-63.4050209214
 20
-9.7172944599
 30
0.0
 11
-63.4050209214
 21
-11.7344090741
 31
0.0
  0
LINE
  5
256
100
AcDbEntity
  8
0
100
AcDbLine
 62
7
  6
CONTINUOUS
 10
-63.3838077179
 20
-9.726024575
 30
0.0
 11
-63.3838077179
 21
-11.7221608363
 31
0.0
  0
LINE
  5
257
100
AcDbEntity
  8
0
100
AcDbLine
 62
7
  6
CONTINUOUS
 10
-63.0497765027
 20
-10.8065439295
 30
0.0
 11
-63.0497765027
 21
-10.2462606729
 31
0.0
  0
LINE
  5
258
100
AcDbEntity
  8
0
100
AcDbLine
 62
7
  6
CONTINUOUS
 10
-63.0375422354
 20
-11.9465866618
 30
0.0
 11
-63.0375422354
 21
-11.1478677395
 31
0.0
  0
LINE
  5
259
100
AcDbEntity
  8
0
100
AcDbLine
 62
7
  6
CONTINUOUS
 10
-62.4564344201
 20
-11.3294091041
 30
0.0
 11
-62.4564344201
 21
-11.3173488111
 31
0.0
  0
LWPOLYLINE
  5
25A
100
AcDbEntity
  8
0
100
AcDbPolyline
 62
7
  6
CONTINUOUS
 90
11
 70
0
 10
-62.5523070696
 20
-10.7766122664
 10
-62.5531049465
 20
-10.8046738649
 10
-62.5554933236
 20
-10.8309211302
 10
-62.5594722008
 20
-10.8553540624
 10
-62.5651638333
 20
-10.8781386098
 10
-62.5724459659
 20
-10.899108824
 10
-62.5809518334
 20
-10.9177668595
 10
-62.590604872
 20
-10.9339795968
 10
-62.6014816453
 20
-10.9478801554
 10
-62.6134450787
 20
-10.9593700482
 10
-62.6267192745
 20
-10.9686158636
  0
LWPOLYLINE
  5
25B
100
AcDbEntity
  8
0
100
AcDbPolyline
 62
7
  6
CONTINUOUS
 90
11
 70
0
 10
-62.5310938662
 20
-10.7643640286
 10
-62.5319152423
 20
-10.7928035303
 10
-62.5343729226
 20
-10.8193815271
 10
-62.5384669071
 20
-10.844098019
 10
-62.5443821909
 20
-10.8671769444
 10
-62.5519337789
 20
-10.8883943649
 10
-62.5605666856
 20
-10.9070784655
 10
-62.5701506361
 20
-10.9229320479
 10
-62.5808159052
 20
-10.9362523103
 10
-62.592398332
 20
-10.947259032
 10
-62.6054961732
 20
-10.9563619181
  0
LINE
  5
25C
100
AcDbEntity
  8
0
100
AcDbLine
 62
7
  6
CONTINUOUS
 10
-66.4646482769
 20
-9.9678187642
 30
0.0
 11
-66.3850259321
 21
-8.6810836049
 31
0.0
  0
LINE
  5
25D
100
AcDbEntity
  8
0
100
AcDbLine
 62
7
  6
CONTINUOUS
 10
-66.6580235968
 20
-7.8152061343
 30
0.0
 11
-66.8176260826
 21
-9.7640138031
 31
0.0
  0
LINE
  5
25E
100
AcDbEntity
  8
0
100
AcDbLine
 62
7
  6
CONTINUOUS
 10
-66.6387260106
 20
-7.8263483187
 30
0.0
 11
-66.7964128792
 21
-9.7517655653
 31
0.0
  0
LINE
  5
25F
100
AcDbEntity
  8
0
100
AcDbLine
 62
7
  6
CONTINUOUS
 10
-67.8908480064
 20
-7.1033887711
 30
0.0
 11
-68.2380734984
 21
-8.3077614397
 31
0.0
  0
LINE
  5
260
100
AcDbEntity
  8
0
100
AcDbLine
 62
7
  6
CONTINUOUS
 10
-67.8756893728
 20
-7.1121411761
 30
0.0
 11
-68.2168602949
 21
-8.2955132019
 31
0.0
  0
LINE
  5
261
100
AcDbEntity
  8
0
100
AcDbLine
 62
7
  6
CONTINUOUS
 10
-66.3850259321
 20
-8.6810836049
 30
0.0
 11
-65.9521874865
 21
-10.263707202
 31
0.0
  0
LINE
  5
262
100
AcDbEntity
  8
0
100
AcDbLine
 62
7
  6
CONTINUOUS
 10
-66.3638127286
 20
-8.6688353671
 30
0.0
 11
-65.9309742831
 21
-10.2514589642
 31
0.0
  0
LINE
  5
263
100
AcDbEntity
  8
0
100
AcDbLine
 62
7
  6
CONTINUOUS
 10
-65.9242991951
 20
-9.3719966629
 30
0.0
 11
-66.2893656983
 21
-8.0280645845
 31
0.0
  0
LWPOLYLINE
  5
264
100
AcDbEntity
  8
0
100
AcDbPolyline
 62
7
  6
CONTINUOUS
 90
6
 70
0
 10
-62.6338644335
 20
-11.5607792922
 10
-62.615264227
 20
-11.6343098749
 10
-62.5970274386
 20
-11.709227997
 10
-62.5791540682
 20
-11.7855336586
 10
-62.561904107
 20
-11.863215227
 10
-62.5277144652
 20
-12.0227758798
  0
LWPOLYLINE
  5
265
100
AcDbEntity
  8
0
100
AcDbPolyline
 62
7
  6
CONTINUOUS
 90
6
 70
0
 10
-62.61265123
 20
-11.5485310544
 10
-62.5940500532
 20
-11.622066336
 10
-62.575818388
 20
-11.6969613159
 10
-62.5579562345
 20
-11.7732159943
 10
-62.5407313851
 20
-11.8507831836
 10
-62.5065868436
 20
-12.0101382201
  0
LINE
  5
266
100
AcDbEntity
  8
0
100
AcDbLine
 62
7
  6
CONTINUOUS
 10
-68.9758142666
 20
-6.4769428503
 30
0.0
 11
-68.4154568913
 21
-8.8414463197
 31
0.0
  0
LINE
  5
267
100
AcDbEntity
  8
0
100
AcDbLine
 62
7
  6
CONTINUOUS
 10
-68.9478754146
 20
-6.4930743933
 30
0.0
 11
-68.3942436878
 21
-8.8291980819
 31
0.0
  0
LINE
  5
268
100
AcDbEntity
  8
0
100
AcDbLine
 62
7
  6
CONTINUOUS
 10
-63.5133662987
 20
-11.6718519902
 30
0.0
 11
-64.0557037649
 21
-9.3177529905
 31
0.0
  0
LINE
  5
269
100
AcDbEntity
  8
0
100
AcDbLine
 62
7
  6
CONTINUOUS
 10
-62.5277144652
 20
-12.0227758798
 30
0.0
 11
-62.4725258616
 21
-12.2728200347
 31
0.0
  0
LINE
  5
26A
100
AcDbEntity
  8
0
100
AcDbLine
 62
7
  6
CONTINUOUS
 10
-62.5065868436
 20
-12.0101382201
 30
0.0
 11
-62.4513126582
 21
-12.2605717969
 31
0.0
  0
LINE
  5
26B
100
AcDbEntity
  8
0
100
AcDbLine
 62
7
  6
CONTINUOUS
 10
-68.2380734984
 20
-8.3077614397
 30
0.0
 11
-68.5750063441
 21
-6.7083643214
 31
0.0
  0
LINE
  5
26C
100
AcDbEntity
  8
0
100
AcDbLine
 62
7
  6
CONTINUOUS
 10
-63.9978192966
 20
-10.9846868398
 30
0.0
 11
-63.9022382588
 21
-11.4473221942
 31
0.0
  0
LINE
  5
26D
100
AcDbEntity
  8
0
100
AcDbLine
 62
7
  6
CONTINUOUS
 10
-63.9766060932
 20
-10.972438602
 30
0.0
 11
-63.8810250554
 21
-11.4350739564
 31
0.0
  0
LINE
  5
26E
100
AcDbEntity
  8
0
100
AcDbLine
 62
7
  6
CONTINUOUS
 10
-62.2003709761
 20
-12.0653478208
 30
0.0
 11
-62.2437596432
 21
-11.8525055699
 31
0.0
  0
LINE
  5
26F
100
AcDbEntity
  8
0
100
AcDbLine
 62
7
  6
CONTINUOUS
 10
-62.1176260702
 20
-12.4777347263
 30
0.0
 11
-62.2003709761
 21
-12.0653478208
 31
0.0
  0
LINE
  5
270
100
AcDbEntity
  8
0
100
AcDbLine
 62
7
  6
CONTINUOUS
 10
-64.2411000918
 20
-9.7715115151
 30
0.0
 11
-64.0715563918
 21
-10.6268303349
 31
0.0
  0
LINE
  5
271
100
AcDbEntity
  8
0
100
AcDbLine
 62
7
  6
CONTINUOUS
 10
-64.2198868884
 20
-9.7592632773
 30
0.0
 11
-64.0503431883
 21
-10.6145820971
 31
0.0
  0
LWPOLYLINE
  5
272
100
AcDbEntity
  8
0
100
AcDbPolyline
 62
7
  6
CONTINUOUS
 90
19
 70
0
 10
-62.2437596432
 20
-11.8525055699
 10
-62.251219802
 20
-11.8146306078
 10
-62.2591134629
 20
-11.7775835348
 10
-62.2674406258
 20
-11.7413643508
 10
-62.2761465075
 20
-11.7059201042
 10
-62.2852858912
 20
-11.6713037465
 10
-62.2950231266
 20
-11.637674133
 10
-62.3053995545
 20
-11.6050492163
 10
-62.316373834
 20
-11.5734110438
 10
-62.3279862926
 20
-11.5428646118
 10
-62.3402925604
 20
-11.5133162877
 10
-62.3532370073
 20
-11.4848597042
 10
-62.3666930697
 20
-11.4578807558
 10
-62.3806735904
 20
-11.4324488181
 10
-62.3951657266
 20
-11.4084945154
 10
-62.4100043869
 20
-11.3861956158
 10
-62.4251345406
 20
-11.3656113754
 10
-62.4406112184
 20
-11.3466825382
 10
-62.4564344201
 20
-11.3294091041
  0
LINE
  5
273
100
AcDbEntity
  8
0
100
AcDbLine
 62
7
  6
CONTINUOUS
 10
-64.4248127975
 20
-10.4228645135
 30
0.0
 11
-64.2411000918
 21
-9.7715115151
 31
0.0
  0
LINE
  5
274
100
AcDbEntity
  8
0
100
AcDbLine
 62
7
  6
CONTINUOUS
 10
-64.6020971955
 20
-11.0432324154
 30
0.0
 11
-64.5002858398
 21
-10.6945689551
 31
0.0
  0
LINE
  5
275
100
AcDbEntity
  8
0
100
AcDbLine
 62
7
  6
CONTINUOUS
 10
-64.412631469
 20
-9.1116674075
 30
0.0
 11
-64.9670569256
 21
-10.8325092413
 31
0.0
  0
LINE
  5
276
100
AcDbEntity
  8
0
100
AcDbLine
 62
7
  6
CONTINUOUS
 10
-64.3980727168
 20
-9.1200734486
 30
0.0
 11
-64.9458437221
 21
-10.8202610035
 31
0.0
  0
LINE
  5
277
100
AcDbEntity
  8
0
100
AcDbLine
 62
7
  6
CONTINUOUS
 10
-68.0903079801
 20
-9.0291832259
 30
0.0
 11
-67.5221370748
 21
-7.316277842
 31
0.0
  0
LINE
  5
278
100
AcDbEntity
  8
0
100
AcDbLine
 62
7
  6
CONTINUOUS
 10
-65.5553358264
 20
-8.451884233
 30
0.0
 11
-65.9242991951
 21
-9.3719966629
 31
0.0
  0
LINE
  5
279
100
AcDbEntity
  8
0
100
AcDbLine
 62
7
  6
CONTINUOUS
 10
-65.5412923306
 20
-8.4575156486
 30
0.0
 11
-65.9030859916
 21
-9.3597484251
 31
0.0
  0
LINE
  5
27A
100
AcDbEntity
  8
0
100
AcDbLine
 62
7
  6
CONTINUOUS
 10
-65.9004399981
 20
-10.2935855533
 30
0.0
 11
-65.4617431728
 21
-9.2197307624
 31
0.0
  0
LWPOLYLINE
  5
27B
100
AcDbEntity
  8
RACCORDO
100
AcDbPolyline
 62
250
  6
CONTINUOUS
 90
7
 70
0
 10
-49.1913449882
 20
-14.3633117253
 10
-49.1901618026
 20
-14.3837072795
 10
-49.186632046
 20
-14.4023952378
 10
-49.1808147842
 20
-14.4190629019
 10
-49.1728073594
 20
-14.4334313792
 10
-49.1627437605
 20
-14.4452602495
 10
-49.149928464
 20
-14.4548590976
  0
LWPOLYLINE
  5
27C
100
AcDbEntity
  8
RACCORDO
100
AcDbPolyline
 62
250
  6
CONTINUOUS
 90
16
 70
0
 10
-48.8402920494
 20
29.9262890256
 10
-48.8417073157
 20
29.9524870667
 10
-48.8454059953
 20
29.9796978659
 10
-48.8513314356
 20
30.0076177227
 10
-48.8593947259
 20
30.0359132064
 10
-48.8694985378
 20
30.0643002276
 10
-48.8815564841
 20
30.0925475283
 10
-48.8954444656
 20
30.1203562285
 10
-48.9110112869
 20
30.1474180362
 10
-48.9281256186
 20
30.1734883619
 10
-48.9466263237
 20
30.1982923857
 10
-48.966307179
 20
30.221527948
 10
-48.9869521892
 20
30.2429214254
 10
-49.0083365635
 20
30.2622217723
 10
-49.0302299828
 20
30.2792019334
 10
-49.052391775
 20
30.2936565263
  0
LWPOLYLINE
  5
27D
100
AcDbEntity
  8
RACCORDO
100
AcDbPolyline
 62
250
  6
CONTINUOUS
 90
16
 70
0
 10
-49.1206450797
 20
29.927701664
 10
-49.1210770881
 20
29.936653318
 10
-49.1222311705
 20
29.9457317098
 10
-49.1241073269
 20
29.9549368394
 10
-49.1267402802
 20
29.9643626184
 10
-49.1300953074
 20
29.9739151353
 10
-49.1340682403
 20
29.9833126554
 10
-49.1386747515
 20
29.9925541246
 10
-49.1438991683
 20
30.0016405969
 10
-49.1495903042
 20
30.0102934996
 10
-49.1557677954
 20
30.0185085422
 10
-49.1624120057
 20
30.0262900152
 10
-49.1693128396
 20
30.0333722173
 10
-49.1764002655
 20
30.0396665815
 10
-49.183744315
 20
30.045261675
 10
-49.1913449882
 20
30.0501574976
  0
LWPOLYLINE
  5
27E
100
AcDbEntity
  8
RACCORDO
100
AcDbPolyline
 62
250
  6
CONTINUOUS
 90
9
 70
0
 10
-49.0722761021
 20
30.6225806419
 10
-49.0715184513
 20
30.6061378074
 10
-49.0692536283
 20
30.590746127
 10
-49.0655059172
 20
30.5765705053
 10
-49.0603154907
 20
30.5637628161
 10
-49.0537379776
 20
30.5524602695
 10
-49.0458438642
 20
30.5427839449
 10
-49.036717745
 20
30.534837502
 10
-49.0308595779
 20
30.5310332697
  0
LINE
  5
27F
100
AcDbEntity
  8
RACCORDO
100
AcDbLine
 62
250
  6
CONTINUOUS
 10
-49.1206450797
 20
-14.322498374
 30
0.0
 11
-49.1206450797
 21
29.927701664
 31
0.0
  0
LINE
  5
280
100
AcDbEntity
  8
RACCORDO
100
AcDbLine
 62
250
  6
CONTINUOUS
 10
-48.8402920494
 20
-14.3239110124
 30
0.0
 11
-48.8402920494
 21
29.9262890256
 31
0.0
  0
LINE
  5
281
100
AcDbEntity
  8
RACCORDO
100
AcDbLine
 62
7
  6
CONTINUOUS
 10
-48.6359553861
 20
29.8470447257
 30
0.0
 11
-48.6359553861
 21
-14.7058842569
 31
0.0
  0
LINE
  5
282
100
AcDbEntity
  8
RACCORDO
100
AcDbLine
 62
250
  6
CONTINUOUS
 10
-48.5773767423
 20
29.7653898071
 30
0.0
 11
-48.5773767423
 21
-14.7875391755
 31
0.0
  0
LWPOLYLINE
  5
283
100
AcDbEntity
  8
RACCORDO
100
AcDbPolyline
 62
7
  6
CONTINUOUS
 90
13
 70
0
 10
-48.6359553773
 20
-14.7059185811
 10
-48.6363513058
 20
-14.7246061314
 10
-48.6378296663
 20
-14.7457322334
 10
-48.6403483913
 20
-14.7654293811
 10
-48.6438428659
 20
-14.7835777463
 10
-48.6481833564
 20
-14.7998903122
 10
-48.6530987944
 20
-14.813922739
 10
-48.6582886025
 20
-14.8255088566
 10
-48.6635144546
 20
-14.8347785942
 10
-48.6685198908
 20
-14.8418666561
 10
-48.6730934634
 20
-14.8470028469
 10
-48.6770797337
 20
-14.8505097012
 10
-48.6800926339
 20
-14.8525915013
  0
LWPOLYLINE
  5
284
100
AcDbEntity
  8
RACCORDO
100
AcDbPolyline
 62
250
  6
CONTINUOUS
 90
4
 70
0
 10
-48.5773767423
 20
-14.7875391755
 10
-48.5784936842
 20
-14.8242406163
 10
-48.581593761
 20
-14.8592092098
 10
-48.5866769727
 20
-14.892444956
  0
LWPOLYLINE
  5
285
100
AcDbEntity
  8
RACCORDO
100
AcDbPolyline
 62
250
  6
CONTINUOUS
 90
16
 70
0
 10
-49.0722761021
 20
-15.0732326348
 10
-49.0715184862
 20
-15.0559152922
 10
-49.0692537558
 20
-15.0379086169
 10
-49.0655061759
 20
-15.0194055382
 10
-49.0603158993
 20
-15.0006043037
 10
-49.0537385361
 20
-14.9817063555
 10
-49.0458445583
 20
-14.9629141722
 10
-49.0367185443
 20
-14.9444290988
 10
-49.0264582731
 20
-14.9264491902
 10
-49.0151736763
 20
-14.9091670886
 10
-49.0029856607
 20
-14.8927679598
 10
-48.9900248123
 20
-14.877427509
 10
-48.9764299976
 20
-14.8633100986
 10
-48.9623468757
 20
-14.8505669868
 10
-48.9479263374
 20
-14.8393347073
 10
-48.9333228889
 20
-14.8297336061
  0
LWPOLYLINE
  5
286
100
AcDbEntity
  8
RACCORDO
100
AcDbPolyline
 62
250
  6
CONTINUOUS
 90
13
 70
0
 10
-49.1913449882
 20
30.0501574976
 10
-49.1901618084
 20
30.0719193098
 10
-49.1866320668
 20
30.0946832949
 10
-49.1808148253
 20
30.1180685499
 10
-49.1728074222
 20
30.1416837769
 10
-49.1627438428
 20
30.1651338294
 10
-49.1507924779
 20
30.188026325
 10
-49.1371533058
 20
30.2099782108
 10
-49.1220545468
 20
30.2306221726
 10
-49.1057488435
 20
30.2496127815
 10
-49.0885090344
 20
30.2666322734
 10
-49.0706235876
 20
30.2813958666
 10
-49.052391775
 20
30.2936565263
  0
LWPOLYLINE
  5
287
100
AcDbEntity
  8
RACCORDO
100
AcDbPolyline
 62
250
  6
CONTINUOUS
 90
22
 70
0
 10
-48.5866769727
 20
-14.892444956
 10
-48.5937767733
 20
-14.9240196976
 10
-48.6028597087
 20
-14.9538615919
 10
-48.613825417
 20
-14.9817551106
 10
-48.62670023
 20
-15.0077318825
 10
-48.6414578158
 20
-15.0317602787
 10
-48.6579188161
 20
-15.0535298846
 10
-48.6761165654
 20
-15.0730120834
 10
-48.6960177292
 20
-15.0902354917
 10
-48.7173429457
 20
-15.1049755456
 10
-48.7400850543
 20
-15.1171885262
 10
-48.7642512155
 20
-15.1269181522
 10
-48.7895835487
 20
-15.1340710154
 10
-48.8159178529
 20
-15.1386887288
 10
-48.8434183291
 20
-15.1407296794
 10
-48.8723197001
 20
-15.1399756199
 10
-48.9028239127
 20
-15.1364681314
 10
-48.93472902
 20
-15.1301656327
 10
-48.9676639044
 20
-15.1207251328
 10
-49.0015048599
 20
-15.1080323014
 10
-49.0363755925
 20
-15.0922014687
 10
-49.0722761021
 20
-15.0732326348
  0
LWPOLYLINE
  5
288
100
AcDbEntity
  8
RACCORDO
100
AcDbPolyline
 62
250
  6
CONTINUOUS
 90
9
 70
0
 10
-29.5687484517
 20
37.9542231342
 10
-29.5788392432
 20
37.939929131
 10
-29.5890961005
 20
37.9280978965
 10
-29.5985984313
 20
37.9167769874
 10
-29.6075279948
 20
37.903464303
 10
-29.6173127994
 20
37.887800083
 10
-29.6282257113
 20
37.8721511863
 10
-29.6380679842
 20
37.8570306291
 10
-29.6461026723
 20
37.8413881434
  0
LWPOLYLINE
  5
289
100
AcDbEntity
  8
RACCORDO
100
AcDbPolyline
 62
250
  6
CONTINUOUS
 90
13
 70
0
 10
-29.9071685079
 20
38.2156015177
 10
-29.9205802492
 20
38.2061902324
 10
-29.9337002302
 20
38.1949953937
 10
-29.9463162456
 20
38.1821980712
 10
-29.9582242425
 20
38.1680052523
 10
-29.9692316182
 20
38.1526464971
 10
-29.9791603359
 20
38.1363702265
 10
-29.9878498083
 20
38.1194396977
 10
-29.995159493
 20
38.1021287487
 10
-30.0009711637
 20
38.0847173723
 10
-30.005190825
 20
38.0674871834
 10
-30.0077502313
 20
38.0507168632
 10
-30.0086079904
 20
38.0346776551
  0
LINE
  5
28A
100
AcDbEntity
  8
RACCORDO
100
AcDbLine
 62
250
  6
CONTINUOUS
 10
-25.4525602543
 20
38.9638182758
 30
0.0
 11
-26.2785215004
 21
38.469974209
 31
0.0
  0
LINE
  5
28B
100
AcDbEntity
  8
0
100
AcDbLine
 62
250
  6
CONTINUOUS
 10
-29.9336282284
 20
42.6763499558
 30
0.0
 11
-30.3321357156
 21
42.4462567271
 31
0.0
  0
LINE
  5
28C
100
AcDbEntity
  8
RACCORDO
100
AcDbLine
 62
250
  6
CONTINUOUS
 10
-49.052391775
 20
30.2936565263
 30
0.0
 11
-48.8720809093
 21
30.3977654151
 31
0.0
  0
LINE
  5
28D
100
AcDbEntity
  8
RACCORDO
100
AcDbLine
 62
250
  6
CONTINUOUS
 10
-48.8402920494
 20
29.9262890256
 30
0.0
 11
-48.6646597071
 21
30.0276966026
 31
0.0
  0
LINE
  5
28E
100
AcDbEntity
  8
RACCORDO
100
AcDbLine
 62
250
  6
CONTINUOUS
 10
-27.2456129464
 20
39.7523379162
 30
0.0
 11
-29.9071685079
 21
38.2156015177
 31
0.0
  0
LINE
  5
28F
100
AcDbEntity
  8
RACCORDO
100
AcDbLine
 62
250
  6
CONTINUOUS
 10
-34.6045685731
 20
35.5028939388
 30
0.0
 11
-30.276343198
 21
38.001932972
 31
0.0
  0
LINE
  5
290
100
AcDbEntity
  8
RACCORDO
100
AcDbLine
 62
250
  6
CONTINUOUS
 10
-33.5453619992
 20
33.668294339
 30
0.0
 11
-28.4752181754
 21
36.5957036631
 31
0.0
  0
LINE
  5
291
100
AcDbEntity
  8
RACCORDO
100
AcDbLine
 62
250
  6
CONTINUOUS
 10
-26.1859622881
 20
37.9169691396
 30
0.0
 11
-28.2931324828
 21
36.7003253157
 31
0.0
  0
LINE
  5
292
100
AcDbEntity
  8
RACCORDO
100
AcDbLine
 62
250
  6
CONTINUOUS
 10
-82.1444688714
 20
4.754138813
 30
0.0
 11
-81.9401322082
 21
4.8721198502
 31
0.0
  0
LINE
  5
293
100
AcDbEntity
  8
RACCORDO
100
AcDbLine
 62
250
  6
CONTINUOUS
 10
-81.7909693287
 20
4.1418596452
 30
0.0
 11
-81.5746418255
 21
4.2667640202
 31
0.0
  0
LINE
  5
294
100
AcDbEntity
  8
RACCORDO
100
AcDbLine
 62
250
  6
CONTINUOUS
 10
-25.972372586
 20
39.8641596437
 30
0.0
 11
-26.8130307972
 21
39.3957173623
 31
0.0
  0
LWPOLYLINE
  5
295
100
AcDbEntity
  8
RACCORDO
100
AcDbPolyline
 62
250
  6
CONTINUOUS
 90
19
 70
0
 10
-34.3711044317
 20
-35.1079756281
 10
-34.333848295
 20
-35.1277446694
 10
-34.2938397647
 20
-35.1456309287
 10
-34.2513633808
 20
-35.1615071992
 10
-34.2067212345
 20
-35.175260569
 10
-34.1602308201
 20
-35.1867932244
 10
-34.1122227765
 20
-35.1960231455
 10
-34.0630385361
 20
-35.2028846892
 10
-34.0130278963
 20
-35.2073290563
 10
-33.962546532
 20
-35.2093246385
 10
-33.9119534657
 20
-35.2088572434
 10
-33.8616085143
 20
-35.2059301949
 10
-33.8118697304
 20
-35.2005643103
 10
-33.7630908552
 20
-35.1927977515
 10
-33.7156188033
 20
-35.1826857543
 10
-33.6697911951
 20
-35.170300235
 10
-33.6259339556
 20
-35.1557292791
 10
-33.5843589969
 20
-35.1390765151
 10
-33.5453619992
 20
-35.1204603771
  0
LWPOLYLINE
  5
296
100
AcDbEntity
  8
RACCORDO
100
AcDbPolyline
 62
250
  6
CONTINUOUS
 90
28
 70
0
 10
-35.006628376
 20
-35.474848267
 10
-34.9690110516
 20
-35.4951657484
 10
-34.9320542729
 20
-35.5127617351
 10
-34.8957580399
 20
-35.5276362271
 10
-34.8601203267
 20
-35.5397637793
 10
-34.8251431592
 20
-35.5491698368
 10
-34.7908326152
 20
-35.5559307345
 10
-34.7570677755
 20
-35.5600811281
 10
-34.7239695593
 20
-35.561586362
 10
-34.6919068016
 20
-35.5604188049
 10
-34.6609083952
 20
-35.5565480472
 10
-34.6309454473
 20
-35.5500044985
 10
-34.6023001142
 20
-35.5408517569
 10
-34.5749786313
 20
-35.5290603698
 10
-34.5489747631
 20
-35.5146597898
 10
-34.5245519592
 20
-35.4978019719
 10
-34.5017700334
 20
-35.4785573609
 10
-34.4805691719
 20
-35.456855512
 10
-34.4610333833
 20
-35.4326370461
 10
-34.4430892637
 20
-35.4058437124
 10
-34.4268102169
 20
-35.3765337617
 10
-34.4125004637
 20
-35.3448225667
 10
-34.4001688598
 20
-35.3106146734
 10
-34.3898065493
 20
-35.2740055359
 10
-34.3816911859
 20
-35.2353968891
 10
-34.3759153208
 20
-35.1949226447
 10
-34.3723864027
 20
-35.152448891
 10
-34.3711044317
 20
-35.1079756281
  0
LWPOLYLINE
  5
297
100
AcDbEntity
  8
RACCORDO
100
AcDbPolyline
 62
7
  6
CONTINUOUS
 90
16
 70
0
 10
-34.8823688076
 20
-35.7494961548
 10
-34.8415433572
 20
-35.7721866599
 10
-34.7671304439
 20
-35.8091120405
 10
-34.6922991147
 20
-35.8406283768
 10
-34.617170571
 20
-35.8667222301
 10
-34.5419340124
 20
-35.8873677669
 10
-34.4669294328
 20
-35.9025220818
 10
-34.3923621676
 20
-35.9121982958
 10
-34.3184781214
 20
-35.9164281105
 10
-34.2457996049
 20
-35.9152712722
 10
-34.1746578548
 20
-35.9088536775
 10
-34.1053123012
 20
-35.8973383372
 10
-34.0382459346
 20
-35.8809786621
 10
-33.9738059227
 20
-35.8600712284
 10
-33.9121738475
 20
-35.834900826
 10
-33.9046560171
 20
-35.831460697
  0
LINE
  5
298
100
AcDbEntity
  8
RACCORDO
100
AcDbLine
 62
7
  6
CONTINUOUS
 10
-95.8713206954
 20
-0.5352397062
 30
0.0
 11
-34.8823787839
 21
-35.749490395
 31
0.0
  0
LINE
  5
299
100
AcDbEntity
  8
RACCORDO
100
AcDbLine
 62
250
  6
CONTINUOUS
 10
-95.9955702681
 20
-0.2605975895
 30
0.0
 11
-35.006628376
 21
-35.474848267
 31
0.0
  0
LWPOLYLINE
  5
29A
100
AcDbEntity
  8
RACCORDO
100
AcDbPolyline
 62
250
  6
CONTINUOUS
 90
10
 70
0
 10
-96.6310942124
 20
0.8401621704
 10
-96.6653327208
 20
0.8616732076
 10
-96.6963104524
 20
0.8847734437
 10
-96.7238070863
 20
0.9092985974
 10
-96.7476270582
 20
0.935074253
 10
-96.7676009499
 20
0.9619170998
 10
-96.7835866953
 20
0.9896362353
 10
-96.7954705925
 20
1.0180345257
 10
-96.8031681103
 20
1.0469100049
 10
-96.8065089286
 20
1.0750827826
  0
LWPOLYLINE
  5
29B
100
AcDbEntity
  8
0
100
AcDbPolyline
 62
7
  6
CONTINUOUS
 90
16
 70
0
 10
-62.7607270256
 20
-10.4011398402
 10
-62.736343431
 20
-10.4200943858
 10
-62.7132453832
 20
-10.4403448275
 10
-62.6914328822
 20
-10.4618911652
 10
-62.6707850849
 20
-10.4849264731
 10
-62.6514228343
 20
-10.509257677
 10
-62.6337086595
 20
-10.5343055543
 10
-62.6177629093
 20
-10.559927114
 10
-62.6034652347
 20
-10.5862653472
 10
-62.5908171182
 20
-10.6131700042
 10
-62.5797177588
 20
-10.6409458193
 10
-62.5702679575
 20
-10.6692880581
 10
-62.5627715994
 20
-10.6971322675
 10
-62.5573299796
 20
-10.7241236298
 10
-62.553841803
 20
-10.7506169628
 10
-62.5523070696
 20
-10.7766122664
  0
LWPOLYLINE
  5
29C
100
AcDbEntity
  8
0
100
AcDbPolyline
 62
7
  6
CONTINUOUS
 90
16
 70
0
 10
-62.7395138221
 20
-10.3888916024
 10
-62.7148480687
 20
-10.4081118982
 10
-62.6915376744
 20
-10.4285867089
 10
-62.6695826395
 20
-10.4503160346
 10
-62.6488482277
 20
-10.4735560571
 10
-62.6294691753
 20
-10.4980505945
 10
-62.6118496902
 20
-10.5230311012
 10
-62.5962094461
 20
-10.5481254601
 10
-62.5823287695
 20
-10.5737057883
 10
-62.5699528473
 20
-10.6001198914
 10
-62.5588372481
 20
-10.6279446441
 10
-62.5492264034
 20
-10.6566031716
 10
-62.5415987947
 20
-10.6847126557
 10
-62.5361139158
 20
-10.7118121568
 10
-62.532612273
 20
-10.7383626144
 10
-62.5310938662
 20
-10.7643640286
  0
LWPOLYLINE
  5
29D
100
AcDbEntity
  8
0
100
AcDbPolyline
 62
7
  6
CONTINUOUS
 90
16
 70
0
 10
-62.4944759664
 20
-10.2645198413
 10
-62.5399268253
 20
-10.2214186301
 10
-62.5877071725
 20
-10.1793808014
 10
-62.6378170082
 20
-10.1384063554
 10
-62.6903481827
 20
-10.0985647836
 10
-62.7452088457
 20
-10.0597865945
 10
-62.8021234456
 20
-10.021863313
 10
-62.8610046116
 20
-9.9847214752
 10
-62.9219397146
 20
-9.948434545
 10
-62.9849153156
 20
-9.9130144399
 10
-63.0499481045
 20
-9.8785179659
 10
-63.1170213915
 20
-9.8448883169
 10
-63.1860716675
 20
-9.8119669919
 10
-63.257077763
 20
-9.7797011572
 10
-63.3300608477
 20
-9.7481436466
 10
-63.4050209214
 20
-9.7172944599
  0
LWPOLYLINE
  5
29E
100
AcDbEntity
  8
RACCORDO
100
AcDbPolyline
 62
250
  6
CONTINUOUS
 90
11
 70
0
 10
-35.006628376
 20
-35.474848267
 10
-35.0051197177
 20
-35.5152531295
 10
-35.0006044739
 20
-35.5536285217
 10
-34.9931147468
 20
-35.5897015156
 10
-34.9827037929
 20
-35.6232155563
 10
-34.9694456447
 20
-35.6539322859
 10
-34.953434585
 20
-35.6816332385
 10
-34.9347844746
 20
-35.7061213976
 10
-34.9136279446
 20
-35.7272225936
 10
-34.8901154548
 20
-35.7447867428
 10
-34.8823787839
 20
-35.749490395
  0
LWPOLYLINE
  5
29F
100
AcDbEntity
  8
RACCORDO
100
AcDbPolyline
 62
250
  6
CONTINUOUS
 90
19
 70
0
 10
-35.006628376
 20
34.781538848
 10
-35.0051196968
 20
34.823686219
 10
-35.0006043886
 20
34.8672760237
 10
-34.9931145644
 20
34.9119982522
 10
-34.9827034915
 20
34.9575348407
 10
-34.9694452135
 20
35.0035619338
 10
-34.9534340229
 20
35.0497521877
 10
-34.934783791
 20
35.0957770981
 10
-34.9136271579
 20
35.1413093366
 10
-34.8901145893
 20
35.1860250787
 10
-34.8644133061
 20
35.229606307
 10
-34.8367060955
 20
35.2717430723
 10
-34.8071900105
 20
35.312135699
 10
-34.776074969
 20
35.3504969152
 10
-34.7435822608
 20
35.3865538967
 10
-34.7099429733
 20
35.4200502068
 10
-34.6753963486
 20
35.4507476205
 10
-34.6401880817
 20
35.4784278181
 10
-34.6045685731
 20
35.5028939388
  0
LWPOLYLINE
  5
2A0
100
AcDbEntity
  8
RACCORDO
100
AcDbPolyline
 62
250
  6
CONTINUOUS
 90
13
 70
0
 10
-29.7028702534
 20
37.8001066932
 10
-29.6985352385
 20
37.8133389256
 10
-29.6916832334
 20
37.8266275835
 10
-29.6827888265
 20
37.8401134328
 10
-29.6735222932
 20
37.8547681108
 10
-29.663356626
 20
37.8696728054
 10
-29.6505088806
 20
37.8831295671
 10
-29.6352759064
 20
37.8970741463
 10
-29.6216300561
 20
37.9116480322
 10
-29.6106089689
 20
37.9230537344
 10
-29.5989897129
 20
37.9313839022
 10
-29.5847466689
 20
37.9406744203
 10
-29.5687484517
 20
37.9542231342
  0
LWPOLYLINE
  5
2A1
100
AcDbEntity
  8
RACCORDO
100
AcDbPolyline
 62
250
  6
CONTINUOUS
 90
10
 70
0
 10
-29.6461026723
 20
37.8413881434
 10
-29.6611105907
 20
37.8116478097
 10
-29.6669629963
 20
37.7976684511
 10
-29.6719754759
 20
37.784682465
 10
-29.6760539216
 20
37.7728882343
 10
-29.6787632247
 20
37.7622784289
 10
-29.6804262728
 20
37.753178949
 10
-29.6810427772
 20
37.745746905
 10
-29.6802891107
 20
37.7399242346
 10
-29.6780462918
 20
37.735704495
  0
LINE
  5
2A2
100
AcDbEntity
  8
0
100
AcDbLine
 62
250
  6
CONTINUOUS
 10
-24.9273122176
 20
34.0051562753
 30
0.0
 11
-25.3964282144
 21
33.7342945782
 31
0.0
  0
LWPOLYLINE
  5
2A3
100
AcDbEntity
  8
RACCORDO
100
AcDbPolyline
 62
250
  6
CONTINUOUS
 90
11
 70
0
 10
-28.2012166145
 20
-32.5522262105
 10
-28.1959894418
 20
-32.5537488366
 10
-28.1780046773
 20
-32.557421818
 10
-28.1593579685
 20
-32.5597471324
 10
-28.1403509105
 20
-32.5606871696
 10
-28.1212909269
 20
-32.5602267253
 10
-28.1024862972
 20
-32.5583732469
 10
-28.0842411706
 20
-32.5551567128
 10
-28.066850647
 20
-32.5506291478
 10
-28.0505960039
 20
-32.5448637815
 10
-28.0357401466
 20
-32.537953864
  0
LWPOLYLINE
  5
2A4
100
AcDbEntity
  8
RACCORDO
100
AcDbPolyline
 62
250
  6
CONTINUOUS
 90
13
 70
0
 10
-49.1206450797
 20
-14.322498374
 10
-49.1012066575
 20
-14.332355569
 10
-49.0797271328
 20
-14.3406815201
 10
-49.0565659158
 20
-14.347336912
 10
-49.0321105559
 20
-14.3522103819
 10
-49.006770257
 20
-14.3552203836
 10
-48.9809690306
 20
-14.3563165517
 10
-48.9551386004
 20
-14.3554805444
 10
-48.9297111792
 20
-14.3527263502
 10
-48.905112236
 20
-14.3481000544
 10
-48.8817533772
 20
-14.3416790671
 10
-48.8600254595
 20
-14.3335708289
 10
-48.8402920494
 20
-14.3239110124
  0
LWPOLYLINE
  5
2A5
100
AcDbEntity
  8
RACCORDO
100
AcDbPolyline
 62
250
  6
CONTINUOUS
 90
16
 70
0
 10
-49.1913449882
 20
-14.3633117253
 10
-49.1838084038
 20
-14.3671644305
 10
-49.1765231296
 20
-14.3700382799
 10
-49.1694891655
 20
-14.3719332735
 10
-49.1626425423
 20
-14.3728462534
 10
-49.1560472292
 20
-14.3727803776
 10
-49.1498951344
 20
-14.3717451201
 10
-49.1441950076
 20
-14.3697173322
 10
-49.1389380991
 20
-14.3667201627
 10
-49.1342900671
 20
-14.3628325322
 10
-49.1302644464
 20
-14.3580239525
 10
-49.1268477023
 20
-14.3523249117
 10
-49.1241648882
 20
-14.345905795
 10
-49.1222576886
 20
-14.3388233973
 10
-49.1210844191
 20
-14.3310209237
 10
-49.1206450797
 20
-14.322498374
  0
LWPOLYLINE
  5
2A6
100
AcDbEntity
  8
RACCORDO
100
AcDbPolyline
 62
7
  6
CONTINUOUS
 90
13
 70
0
 10
-49.1499108992
 20
-14.4548692357
 10
-49.1315723231
 20
-14.4645937231
 10
-49.1103626314
 20
-14.4738129559
 10
-49.0887343357
 20
-14.4811261433
 10
-49.0668164523
 20
-14.4864894155
 10
-49.0447496012
 20
-14.4898679977
 10
-49.0227295767
 20
-14.4912547511
 10
-49.0009646391
 20
-14.4906752035
 10
-48.979602572
 20
-14.4881773174
 10
-48.9588019477
 20
-14.483823895
 10
-48.9387326026
 20
-14.4777021911
 10
-48.9195516868
 20
-14.4699301432
 10
-48.9060316972
 20
-14.4632072725
  0
LINE
  5
2A7
100
AcDbEntity
  8
0
100
AcDbLine
 62
7
  6
CONTINUOUS
 10
-68.4154568913
 20
-8.8414463197
 30
0.0
 11
-68.0903079801
 21
-9.0291832259
 31
0.0
  0
LINE
  5
2A8
100
AcDbEntity
  8
0
100
AcDbLine
 62
7
  6
CONTINUOUS
 10
-67.3852136248
 20
-9.4362958698
 30
0.0
 11
-67.0162502561
 21
-9.6493306946
 31
0.0
  0
LINE
  5
2A9
100
AcDbEntity
  8
0
100
AcDbLine
 62
7
  6
CONTINUOUS
 10
-66.8176260826
 20
-9.7640138031
 30
0.0
 11
-66.4646482769
 21
-9.9678187642
 31
0.0
  0
LINE
  5
2AA
100
AcDbEntity
  8
0
100
AcDbLine
 62
7
  6
CONTINUOUS
 10
-65.9521874865
 20
-10.263707202
 30
0.0
 11
-65.9004399981
 21
-10.2935855533
 31
0.0
  0
LINE
  5
2AB
100
AcDbEntity
  8
0
100
AcDbLine
 62
7
  6
CONTINUOUS
 10
-65.3859384975
 20
-10.5906522715
 30
0.0
 11
-65.0249944268
 21
-10.7990568542
 31
0.0
  0
LINE
  5
2AC
100
AcDbEntity
  8
0
100
AcDbLine
 62
7
  6
CONTINUOUS
 10
-64.9670569256
 20
-10.8325092413
 30
0.0
 11
-64.6020971955
 21
-11.0432324154
 31
0.0
  0
LINE
  5
2AD
100
AcDbEntity
  8
0
100
AcDbLine
 62
7
  6
CONTINUOUS
 10
-63.9022382588
 20
-11.4473221942
 30
0.0
 11
-63.5133662987
 21
-11.6718519902
 31
0.0
  0
LINE
  5
2AE
100
AcDbEntity
  8
0
100
AcDbLine
 62
7
  6
CONTINUOUS
 10
-63.4050209214
 20
-11.7344090741
 30
0.0
 11
-63.0375422354
 21
-11.9465866618
 31
0.0
  0
LINE
  5
2AF
100
AcDbEntity
  8
0
100
AcDbLine
 62
7
  6
CONTINUOUS
 10
-62.4725258616
 20
-12.2728200347
 30
0.0
 11
-62.1176260702
 21
-12.4777347263
 31
0.0
  0
LINE
  5
2B0
100
AcDbEntity
  8
0
100
AcDbLine
 62
7
  6
CONTINUOUS
 10
-68.3942436878
 20
-8.8291980819
 30
0.0
 11
-68.0834885501
 21
-9.0086242037
 31
0.0
  0
LINE
  5
2B1
100
AcDbEntity
  8
0
100
AcDbLine
 62
7
  6
CONTINUOUS
 10
-67.3640004214
 20
-9.424047632
 30
0.0
 11
-67.0162502561
 21
-9.624834219
 31
0.0
  0
LINE
  5
2B2
100
AcDbEntity
  8
0
100
AcDbLine
 62
7
  6
CONTINUOUS
 10
-66.7964128792
 20
-9.7517655653
 30
0.0
 11
-66.4631847405
 21
-9.9441673162
 31
0.0
  0
LINE
  5
2B3
100
AcDbEntity
  8
0
100
AcDbLine
 62
7
  6
CONTINUOUS
 10
-65.9309742831
 20
-10.2514589642
 30
0.0
 11
-65.8898323713
 21
-10.2752137884
 31
0.0
  0
LINE
  5
2B4
100
AcDbEntity
  8
0
100
AcDbLine
 62
7
  6
CONTINUOUS
 10
-65.364725294
 20
-10.5784040337
 30
0.0
 11
-65.026978288
 21
-10.773414922
 31
0.0
  0
LINE
  5
2B5
100
AcDbEntity
  8
0
100
AcDbLine
 62
7
  6
CONTINUOUS
 10
-64.9458437221
 20
-10.8202610035
 30
0.0
 11
-64.5959761223
 21
-11.0222701707
 31
0.0
  0
LINE
  5
2B6
100
AcDbEntity
  8
0
100
AcDbLine
 62
7
  6
CONTINUOUS
 10
-63.8810250554
 20
-11.4350739564
 30
0.0
 11
-63.5198756647
 21
-11.6435970883
 31
0.0
  0
LINE
  5
2B7
100
AcDbEntity
  8
0
100
AcDbLine
 62
7
  6
CONTINUOUS
 10
-63.3838077179
 20
-11.7221608363
 30
0.0
 11
-63.0375422354
 21
-11.9220901862
 31
0.0
  0
LINE
  5
2B8
100
AcDbEntity
  8
0
100
AcDbLine
 62
7
  6
CONTINUOUS
 10
-62.4513126582
 20
-12.2605717969
 30
0.0
 11
-62.1232339613
 21
-12.4500003247
 31
0.0
  0
LINE
  5
2B9
100
AcDbEntity
  8
0
100
AcDbLine
 62
7
  6
CONTINUOUS
 10
-64.5002858398
 20
-10.6945689551
 30
0.0
 11
-63.9978192966
 21
-10.9846868398
 31
0.0
  0
LINE
  5
2BA
100
AcDbEntity
  8
0
100
AcDbLine
 62
7
  6
CONTINUOUS
 10
-64.4790726364
 20
-10.6823207173
 30
0.0
 11
-63.9766060932
 21
-10.972438602
 31
0.0
  0
LINE
  5
2BB
100
AcDbEntity
  8
0
100
AcDbLine
 62
7
  6
CONTINUOUS
 10
-64.0715563918
 20
-10.6268303349
 30
0.0
 11
-64.4248127975
 21
-10.4228645135
 31
0.0
  0
LINE
  5
2BC
100
AcDbEntity
  8
0
100
AcDbLine
 62
7
  6
CONTINUOUS
 10
-63.0375422354
 20
-11.1478677395
 30
0.0
 11
-62.8397129399
 21
-11.2620918953
 31
0.0
  0
LINE
  5
2BD
100
AcDbEntity
  8
0
100
AcDbLine
 62
7
  6
CONTINUOUS
 10
-63.016329032
 20
-11.1356195017
 30
0.0
 11
-62.8184997365
 21
-11.2498436575
 31
0.0
  0
LINE
  5
2BE
100
AcDbEntity
  8
0
100
AcDbLine
 62
7
  6
CONTINUOUS
 10
-62.8389176463
 20
-10.9282911905
 30
0.0
 11
-63.0497765027
 21
-10.8065439295
 31
0.0
  0
LINE
  5
2BF
100
AcDbEntity
  8
0
100
AcDbLine
 62
7
  6
CONTINUOUS
 10
-64.0557037649
 20
-9.3177529905
 30
0.0
 11
-64.412631469
 21
-9.1116674075
 31
0.0
  0
LINE
  5
2C0
100
AcDbEntity
  8
0
100
AcDbLine
 62
7
  6
CONTINUOUS
 10
-65.1902827582
 20
-8.6626612994
 30
0.0
 11
-65.5553358264
 21
-8.451884233
 31
0.0
  0
LINE
  5
2C1
100
AcDbEntity
  8
0
100
AcDbLine
 62
7
  6
CONTINUOUS
 10
-66.2893656983
 20
-8.0280645845
 30
0.0
 11
-66.6580235968
 21
-7.8152061343
 31
0.0
  0
LINE
  5
2C2
100
AcDbEntity
  8
0
100
AcDbLine
 62
7
  6
CONTINUOUS
 10
-67.5221370748
 20
-7.316277842
 30
0.0
 11
-67.8908480064
 21
-7.1033887711
 31
0.0
  0
LINE
  5
2C3
100
AcDbEntity
  8
0
100
AcDbLine
 62
7
  6
CONTINUOUS
 10
-68.5750063441
 20
-6.7083643214
 30
0.0
 11
-68.9758142666
 21
-6.4769428503
 31
0.0
  0
LINE
  5
2C4
100
AcDbEntity
  8
0
100
AcDbLine
 62
7
  6
CONTINUOUS
 10
-67.0162502561
 20
-7.6082480803
 30
0.0
 11
-67.3852136248
 21
-7.3952132554
 31
0.0
  0
LINE
  5
2C5
100
AcDbEntity
  8
RACCORDO
100
AcDbLine
 62
250
  6
CONTINUOUS
 10
-49.0722761021
 20
-15.0732326348
 30
0.0
 11
-81.929922542
 21
3.8983606165
 31
0.0
  0
LINE
  5
2C6
100
AcDbEntity
  8
RACCORDO
100
AcDbLine
 62
250
  6
CONTINUOUS
 10
-48.9333228889
 20
-14.8297336061
 30
0.0
 11
-81.7909693287
 21
4.1418596452
 31
0.0
  0
LINE
  5
2C7
100
AcDbEntity
  8
RACCORDO
100
AcDbLine
 62
7
  6
CONTINUOUS
 10
-81.7694371317
 20
4.3792363887
 30
0.0
 11
-49.149928464
 21
-14.4548590976
 31
0.0
  0
LINE
  5
2C8
100
AcDbEntity
  8
RACCORDO
100
AcDbLine
 62
250
  6
CONTINUOUS
 10
-81.8108536559
 20
4.4707837609
 30
0.0
 11
-49.1913449882
 21
-14.3633117253
 31
0.0
  0
LINE
  5
2C9
100
AcDbEntity
  8
RACCORDO
100
AcDbLine
 62
7
  6
CONTINUOUS
 10
-48.8737222931
 20
-14.4458459846
 30
0.0
 11
-48.6359553861
 21
-14.5831296168
 31
0.0
  0
LINE
  5
2CA
100
AcDbEntity
  8
RACCORDO
100
AcDbLine
 62
7
  6
CONTINUOUS
 10
-48.6590840223
 20
-14.3272826945
 30
0.0
 11
-48.6359553861
 21
-14.3406355888
 31
0.0
  0
LWPOLYLINE
  5
2CB
100
AcDbEntity
  8
RACCORDO
100
AcDbPolyline
 62
250
  6
CONTINUOUS
 90
25
 70
0
 10
-81.7909692816
 20
4.1418596724
 10
-81.8140810723
 20
4.1558801608
 10
-81.8369968468
 20
4.1715102805
 10
-81.8596240841
 20
4.1886656113
 10
-81.8818425656
 20
4.2072282074
 10
-81.9035971078
 20
4.2271291008
 10
-81.9248923352
 20
4.2483682499
 10
-81.9456736977
 20
4.2708966652
 10
-81.9658224859
 20
4.2945907576
 10
-81.985245514
 20
4.3193469231
 10
-82.003869176
 20
4.3450737406
 10
-82.0216103114
 20
4.3716560952
 10
-82.0383705231
 20
4.3989443234
 10
-82.0540675937
 20
4.4267936646
 10
-82.0686602754
 20
4.4551170547
 10
-82.0821165991
 20
4.4838478216
 10
-82.0943159586
 20
4.5127073883
 10
-82.1052828911
 20
4.5417390546
 10
-82.1151368714
 20
4.571363048
 10
-82.1238142365
 20
4.6016441583
 10
-82.1311292327
 20
4.6322465975
 10
-82.1369569704
 20
4.6629743976
 10
-82.1411884088
 20
4.6936470951
 10
-82.1437247802
 20
4.7240987248
 10
-82.1444688103
 20
4.7541388483
  0
LWPOLYLINE
  5
2CC
100
AcDbEntity
  8
RACCORDO
100
AcDbPolyline
 62
250
  6
CONTINUOUS
 90
25
 70
0
 10
-81.929922542
 20
3.8983606165
 10
-81.962266471
 20
3.9183252876
 10
-81.9941013251
 20
3.9402858784
 10
-82.0254271044
 20
3.9642423889
 10
-82.0563227571
 20
3.990279031
 10
-82.0867093349
 20
4.0183115928
 10
-82.116349993
 20
4.0480874386
 10
-82.1452852908
 20
4.0796603915
 10
-82.1734746688
 20
4.1129766284
 10
-82.2005596036
 20
4.1476220438
 10
-82.2265319802
 20
4.1836304425
 10
-82.2513999135
 20
4.2209680198
 10
-82.2748292246
 20
4.259119256
 10
-82.29677847
 20
4.2980519543
 10
-82.3172890932
 20
4.3377983114
 10
-82.3361512448
 20
4.3779393978
 10
-82.3533188555
 20
4.4182590167
 10
-82.3688379945
 20
4.4589733648
 10
-82.3826370209
 20
4.5003121032
 10
-82.3948529292
 20
4.5425875114
 10
-82.4053487249
 20
4.58548731
 10
-82.4136417825
 20
4.6283043211
 10
-82.4195712269
 20
4.6708028187
 10
-82.4232979334
 20
4.7132185288
 10
-82.4248219018
 20
4.7555514514
  0
LWPOLYLINE
  5
2CD
100
AcDbEntity
  8
0
100
AcDbPolyline
 62
7
  6
CONTINUOUS
 90
16
 70
0
 10
-62.8184997365
 20
-11.2498436575
 10
-62.8000718725
 20
-11.2614692211
 10
-62.7823817545
 20
-11.2741769872
 10
-62.7654293826
 20
-11.2879669558
 10
-62.7492516441
 20
-11.302805947
 10
-62.7338116517
 20
-11.3187271406
 10
-62.7189987431
 20
-11.3358300762
 10
-62.7048356176
 20
-11.3540335307
 10
-62.6912995759
 20
-11.3734187271
 10
-62.6782118581
 20
-11.394328874
 10
-62.6653681223
 20
-11.4170253773
 10
-62.6529727103
 20
-11.4412468312
 10
-62.6414598885
 20
-11.4665522267
 10
-62.6309744122
 20
-11.4927945609
 10
-62.6213715261
 20
-11.5201208368
 10
-62.61265123
 20
-11.5485310544
  0
LWPOLYLINE
  5
2CE
100
AcDbEntity
  8
0
100
AcDbPolyline
 62
7
  6
CONTINUOUS
 90
16
 70
0
 10
-62.8397129399
 20
-11.2620918953
 10
-62.8211614999
 20
-11.2738038546
 10
-62.8033617961
 20
-11.286606829
 10
-62.7863138284
 20
-11.3005008184
 10
-62.7700486519
 20
-11.3154651985
 10
-62.7545352116
 20
-11.3315205935
 10
-62.7396803427
 20
-11.348728877
 10
-62.7255089798
 20
-11.3670194057
 10
-62.7119961884
 20
-11.3864628227
 10
-62.6989740003
 20
-11.4073329314
 10
-62.6862732102
 20
-11.4298055337
 10
-62.6740630234
 20
-11.4537048277
 10
-62.6626830876
 20
-11.4787772108
 10
-62.6522466186
 20
-11.5049381488
 10
-62.6426404006
 20
-11.532272176
 10
-62.6338644335
 20
-11.5607792922
  0
LWPOLYLINE
  5
2CF
100
AcDbEntity
  8
RACCORDO
100
AcDbPolyline
 62
250
  6
CONTINUOUS
 90
9
 70
0
 10
-48.5773767423
 20
-14.7875391755
 10
-48.5912383247
 20
-14.7786607554
 10
-48.6034360384
 20
-14.7690025876
 10
-48.6138392079
 20
-14.758668165
 10
-48.6223363871
 20
-14.7477682258
 10
-48.6288365561
 20
-14.7364195624
 10
-48.6332700938
 20
-14.724743769
 10
-48.6355895184
 20
-14.7128659487
 10
-48.6359553773
 20
-14.7059185808
  0
LWPOLYLINE
  5
2D0
100
AcDbEntity
  8
RACCORDO
100
AcDbPolyline
 62
250
  6
CONTINUOUS
 90
7
 70
0
 10
-81.8815535644
 20
4.5932395944
 10
-81.8986256658
 20
4.6044631249
 10
-81.9130457261
 20
4.6168651615
 10
-81.924572462
 20
4.6302381825
 10
-81.9330130037
 20
4.6443584189
 10
-81.9382261228
 20
4.6589896002
 10
-81.9401322082
 20
4.6748945131
  0
LWPOLYLINE
  5
2D1
100
AcDbEntity
  8
RACCORDO
100
AcDbPolyline
 62
250
  6
CONTINUOUS
 90
5
 70
0
 10
-48.5968499193
 20
29.9354539484
 10
-48.5885568617
 20
29.8926369374
 10
-48.5826274172
 20
29.8501384398
 10
-48.5789007107
 20
29.8077227297
 10
-48.5773767423
 20
29.7653898071
  0
LWPOLYLINE
  5
2D2
100
AcDbEntity
  8
RACCORDO
100
AcDbPolyline
 62
250
  6
CONTINUOUS
 90
28
 70
0
 10
-33.5453619992
 20
33.668294339
 10
-33.548519653
 20
33.7406145509
 10
-33.5551909374
 20
33.8142395155
 10
-33.5652659808
 20
33.8888790041
 10
-33.5785762485
 20
33.9640169265
 10
-33.5950254134
 20
34.0396030724
 10
-33.6146863261
 20
34.1160856478
 10
-33.6375875157
 20
34.193499762
 10
-33.6635967179
 20
34.271325255
 10
-33.692604853
 20
34.3491990587
 10
-33.7244965344
 20
34.4268251988
 10
-33.7591772544
 20
34.5039959354
 10
-33.7965464113
 20
34.5804799696
 10
-33.8364944722
 20
34.6560483142
 10
-33.8788796577
 20
34.7304350341
 10
-33.9235398472
 20
34.8033589493
 10
-33.9701770077
 20
34.8743647464
 10
-34.0187764347
 20
34.9434543827
 10
-34.0696350387
 20
35.0109923607
 10
-34.1227731844
 20
35.0768781106
 10
-34.1779151815
 20
35.140639894
 10
-34.2349427766
 20
35.2020243251
 10
-34.2937777649
 20
35.2608174486
 10
-34.3541584013
 20
35.3166378695
 10
-34.4156642864
 20
35.3690133362
 10
-34.4780094261
 20
35.4176405124
 10
-34.5410522734
 20
35.4623440032
 10
-34.6045685731
 20
35.5028939388
  0
LWPOLYLINE
  5
2D3
100
AcDbEntity
  8
RACCORDO
100
AcDbPolyline
 62
250
  6
CONTINUOUS
 90
28
 70
0
 10
-34.3711044317
 20
33.6807790881
 10
-34.3723188898
 20
33.7249156464
 10
-34.3755600026
 20
33.7694596618
 10
-34.3808277702
 20
33.8144111344
 10
-34.3881452423
 20
33.859785712
 10
-34.3974893691
 20
33.9055677467
 10
-34.4087910013
 20
33.9517102947
 10
-34.4220805907
 20
33.9983705596
 10
-34.4373276854
 20
34.0453913379
 10
-34.4543717804
 20
34.0922540756
 10
-34.473224764
 20
34.1389322754
 10
-34.4938747478
 20
34.1854524347
 10
-34.5161255608
 20
34.2313754913
 10
-34.5399995922
 20
34.2767071725
 10
-34.5654744529
 20
34.321441751
 10
-34.5922868039
 20
34.3651229827
 10
-34.6203457267
 20
34.4076293076
 10
-34.6497421399
 20
34.4490822857
 10
-34.6804854606
 20
34.4893903526
 10
-34.7126628428
 20
34.5286885869
 10
-34.7461871325
 20
34.56684191
 10
-34.7808062858
 20
34.6033535227
 10
-34.8165985427
 20
34.6382583743
 10
-34.8534856632
 20
34.6715215154
 10
-34.8909808832
 20
34.7025412981
 10
-34.928921948
 20
34.7311171731
 10
-34.9674711123
 20
34.7574496897
 10
-35.006628376
 20
34.781538848
  0
LWPOLYLINE
  5
2D4
100
AcDbEntity
  8
RACCORDO
100
AcDbPolyline
 62
250
  6
CONTINUOUS
 90
10
 70
0
 10
-28.0357401466
 20
35.385832945
 10
-28.038576452
 20
35.543878848
 10
-28.0476210933
 20
35.6987792548
 10
-28.0628740704
 20
35.8505341654
 10
-28.0840255501
 20
35.9989466499
 10
-28.1113853657
 20
36.1442136381
 10
-28.1458830168
 20
36.2869259199
 10
-28.1878283367
 20
36.427280425
 10
-28.236911492
 20
36.5650802236
 10
-28.2931324828
 20
36.7003253157
  0
LINE
  5
2D5
100
AcDbEntity
  8
RACCORDO
100
AcDbLine
 62
250
  6
CONTINUOUS
 10
-34.3711044317
 20
-35.1079756281
 30
0.0
 11
-34.3711044317
 21
33.6807790881
 31
0.0
  0
LINE
  5
2D6
100
AcDbEntity
  8
RACCORDO
100
AcDbLine
 62
250
  6
CONTINUOUS
 10
-33.5453619992
 20
-35.1204603771
 30
0.0
 11
-33.5453619992
 21
33.668294339
 31
0.0
  0
LINE
  5
2D7
100
AcDbEntity
  8
0
100
AcDbLine
 62
7
  6
CONTINUOUS
 10
-28.2012166145
 20
-32.6494231521
 30
0.0
 11
-28.2012166145
 21
35.2825822932
 31
0.0
  0
LINE
  5
2D8
100
AcDbEntity
  8
RACCORDO
100
AcDbLine
 62
250
  6
CONTINUOUS
 10
-28.0357401466
 20
-32.537953864
 30
0.0
 11
-28.0357401466
 21
35.385832945
 31
0.0
  0
LINE
  5
2D9
100
AcDbEntity
  8
0
100
AcDbLine
 62
7
  6
CONTINUOUS
 10
-26.1859622881
 20
-31.6486297395
 30
0.0
 11
-26.1859622881
 21
37.9169691396
 31
0.0
  0
LWPOLYLINE
  5
2DA
100
AcDbEntity
  8
RACCORDO
100
AcDbPolyline
 62
250
  6
CONTINUOUS
 90
9
 70
0
 10
-25.3964282144
 20
39.0440356832
 10
-25.3966135285
 20
39.0390657447
 10
-25.3985737478
 20
39.0271663812
 10
-25.4026538405
 20
39.0154477607
 10
-25.4088100914
 20
39.0040354399
 10
-25.4169765404
 20
38.993051694
 10
-25.4270656898
 20
38.9826142062
 10
-25.4389694412
 20
38.972834807
 10
-25.4525602543
 20
38.9638182758
  0
LINE
  5
2DB
100
AcDbEntity
  8
0
100
AcDbLine
 62
7
  6
CONTINUOUS
 10
-68.2380734984
 20
-8.3077614397
 30
0.0
 11
-68.2168602949
 21
-8.2955132019
 31
0.0
  0
LINE
  5
2DC
100
AcDbEntity
  8
0
100
AcDbLine
 62
7
  6
CONTINUOUS
 10
-68.4154568913
 20
-8.8414463197
 30
0.0
 11
-68.3942436878
 21
-8.8291980819
 31
0.0
  0
LWPOLYLINE
  5
2DD
100
AcDbEntity
  8
0
100
AcDbPolyline
 62
7
  6
CONTINUOUS
 90
10
 70
0
 10
-62.4564344201
 20
-11.3173488111
 10
-62.4488569427
 20
-11.3197972934
 10
-62.4413433422
 20
-11.3212833482
 10
-62.4338936186
 20
-11.3218069754
 10
-62.4265432068
 20
-11.3211997378
 10
-62.4192566719
 20
-11.3196300726
 10
-62.4119277092
 20
-11.3176032913
 10
-62.4045434215
 20
-11.3152019913
 10
-62.397116706
 20
-11.3123435753
 10
-62.3818985365
 20
-11.3061434536
  0
LWPOLYLINE
  5
2DE
100
AcDbEntity
  8
0
100
AcDbPolyline
 62
7
  6
CONTINUOUS
 90
4
 70
0
 10
-62.4352212167
 20
-11.3051005733
 10
-62.4276530482
 20
-11.3075975742
 10
-62.4200503454
 20
-11.3090814511
 10
-62.4124131084
 20
-11.3095522038
  0
LWPOLYLINE
  5
2DF
100
AcDbEntity
  8
0
100
AcDbPolyline
 62
7
  6
CONTINUOUS
 90
10
 70
0
 10
-63.0285632993
 20
-10.2340124351
 10
-62.9958831977
 20
-10.2466144
 10
-62.9633694884
 20
-10.2603502575
 10
-62.9310221713
 20
-10.2752200078
 10
-62.8988752718
 20
-10.2911998972
 10
-62.8668947646
 20
-10.3083136792
 10
-62.8349785736
 20
-10.3266326147
 10
-62.8030926735
 20
-10.3461804572
 10
-62.7712710897
 20
-10.3669334531
 10
-62.7395138221
 20
-10.3888916024
  0
LWPOLYLINE
  5
2E0
100
AcDbEntity
  8
0
100
AcDbPolyline
 62
7
  6
CONTINUOUS
 90
10
 70
0
 10
-63.0497765027
 20
-10.2462606729
 10
-63.0165438506
 20
-10.259118426
 10
-62.9836579297
 20
-10.273031924
 10
-62.9511187399
 20
-10.288001167
 10
-62.919016575
 20
-10.3039834669
 10
-62.8872611412
 20
-10.3210215118
 10
-62.8555815574
 20
-10.3392433652
 10
-62.8238875301
 20
-10.358691715
 10
-62.7922693528
 20
-10.3793238733
 10
-62.7607270256
 20
-10.4011398402
  0
LWPOLYLINE
  5
2E1
100
AcDbEntity
  8
RACCORDO
100
AcDbPolyline
 62
250
  6
CONTINUOUS
 90
3
 70
0
 10
-48.6359553861
 20
-14.3353173828
 10
-48.6458639965
 20
-14.331428278
 10
-48.6523695006
 20
-14.3283334272
  0
LWPOLYLINE
  5
2E2
100
AcDbEntity
  8
RACCORDO
100
AcDbPolyline
 62
250
  6
CONTINUOUS
 90
16
 70
0
 10
-82.4248219018
 20
4.7555514514
 10
-82.4094453886
 20
4.7475481213
 10
-82.3927183923
 20
4.7405054171
 10
-82.374820131
 20
4.7344987967
 10
-82.3559423721
 20
4.7295926167
 10
-82.3362873779
 20
4.7258394435
 10
-82.316065738
 20
4.7232794898
 10
-82.2954941131
 20
4.7219401836
 10
-82.2747929141
 20
4.7218358747
 10
-82.2541839398
 20
4.7229676808
 10
-82.2338880013
 20
4.7253234752
 10
-82.2141225553
 20
4.7288780173
 10
-82.195099375
 20
4.7335932226
 10
-82.1770222805
 20
4.739418571
 10
-82.1600849554
 20
4.7462916479
 10
-82.1444688714
 20
4.754138813
  0
LWPOLYLINE
  5
2E3
100
AcDbEntity
  8
0
100
AcDbPolyline
 62
7
  6
CONTINUOUS
 90
3
 70
0
 10
-24.9464290777
 20
34.5206426648
 10
-24.9321524908
 20
34.2608924607
 10
-24.9273122176
 20
34.0051562753
  0
LWPOLYLINE
  5
2E4
100
AcDbEntity
  8
RACCORDO
100
AcDbPolyline
 62
7
  6
CONTINUOUS
 90
19
 70
0
 10
-25.3964282144
 20
39.0440356832
 10
-25.3983849246
 20
39.0973153266
 10
-25.4041224554
 20
39.1510552131
 10
-25.413450376
 20
39.2049948784
 10
-25.4262076477
 20
39.2589555137
 10
-25.4422314758
 20
39.3126780909
 10
-25.4613056808
 20
39.3657595709
 10
-25.483206672
 20
39.4178562049
 10
-25.5078012909
 20
39.4688439331
 10
-25.5349836299
 20
39.5185935892
 10
-25.5646089804
 20
39.5668701092
 10
-25.5965299557
 20
39.6134316411
 10
-25.630668057
 20
39.6581215924
 10
-25.6669510437
 20
39.7007549719
 10
-25.7052033187
 20
39.7410123005
 10
-25.7452324515
 20
39.7785766037
 10
-25.7869141909
 20
39.8132036181
 10
-25.8301579138
 20
39.8446605271
 10
-25.8748358969
 20
39.8726676749
  0
LWPOLYLINE
  5
2E5
100
AcDbEntity
  8
0
100
AcDbPolyline
 62
7
  6
CONTINUOUS
 90
28
 70
0
 10
-26.1859622881
 20
37.9169691396
 10
-26.187737322
 20
37.9891592016
 10
-26.193114892
 20
38.0632693673
 10
-26.2020838227
 20
38.1390622202
 10
-26.2146367071
 20
38.2164134622
 10
-26.2307332354
 20
38.2949526074
 10
-26.250250387
 20
38.3740479986
 10
-26.2730277912
 20
38.4532231153
 10
-26.2989981955
 20
38.5324105392
 10
-26.3281474505
 20
38.6115842026
 10
-26.3603757334
 20
38.690484911
 10
-26.3955718899
 20
38.7688468212
 10
-26.4337420723
 20
38.8466319027
 10
-26.4749057354
 20
38.9237922704
 10
-26.5188324434
 20
38.9998298233
 10
-26.5651207047
 20
39.0740474405
 10
-26.6134770836
 20
39.1460257022
 10
-26.6638313431
 20
39.2157242271
 10
-26.7160790195
 20
39.2830423168
 10
-26.7699930898
 20
39.3477037363
 10
-26.8254394807
 20
39.4095607086
 10
-26.8824731407
 20
39.4686735026
 10
-26.9410954442
 20
39.5249732756
 10
-27.0009525496
 20
39.5780568083
 10
-27.0615629253
 20
39.627502183
 10
-27.1226281074
 20
39.673088053
 10
-27.1840445021
 20
39.714743485
 10
-27.2456129464
 20
39.7523379162
  0
LINE
  5
2E6
100
AcDbEntity
  8
RACCORDO
100
AcDbLine
 62
250
  6
CONTINUOUS
 10
-25.4525602543
 20
38.9638182758
 30
0.0
 11
-25.4525602543
 21
-30.5971157896
 31
0.0
  0
LINE
  5
2E7
100
AcDbEntity
  8
RACCORDO
100
AcDbLine
 62
7
  6
CONTINUOUS
 10
-25.3964282144
 20
39.0440356832
 30
0.0
 11
-25.3964282144
 21
-30.5168983822
 31
0.0
  0
LINE
  5
2E8
100
AcDbEntity
  8
0
100
AcDbLine
 62
7
  6
CONTINUOUS
 10
-24.9273122176
 20
34.0051562753
 30
0.0
 11
-24.9273122176
 21
-22.4282089778
 31
0.0
  0
LWPOLYLINE
  5
2E9
100
AcDbEntity
  8
0
100
AcDbPolyline
 62
7
  6
CONTINUOUS
 90
14
 70
0
 10
-24.9838807601
 20
-23.1967481604
 10
-24.9866607833
 20
-23.3778388565
 10
-24.9949232361
 20
-23.5551226392
 10
-25.0086681184
 20
-23.7285995084
 10
-25.027929745
 20
-23.8984920087
 10
-25.0526738011
 20
-24.0645775955
 10
-25.0827973423
 20
-24.2261886352
 10
-25.1183067552
 20
-24.3832579171
 10
-25.1591956531
 20
-24.5358526519
 10
-25.2053419315
 20
-24.6835068378
 10
-25.2567892988
 20
-24.8262680314
 10
-25.3134940466
 20
-24.964088676
 10
-25.3752029452
 20
-25.0963601005
 10
-25.3964282144
 20
-25.1366602406
  0
LWPOLYLINE
  5
2EA
100
AcDbEntity
  8
0
100
AcDbPolyline
 62
7
  6
CONTINUOUS
 90
4
 70
0
 10
-24.9273122176
 20
-22.4282089778
 10
-24.9321034849
 20
-22.6771122497
 10
-24.9462378534
 20
-22.9192078301
 10
-24.9697153229
 20
-23.1544957191
  0
LWPOLYLINE
  5
2EB
100
AcDbEntity
  8
RACCORDO
100
AcDbPolyline
 62
250
  6
CONTINUOUS
 90
12
 70
0
 10
-25.4525602543
 20
-30.5971157896
 10
-25.4540137547
 20
-30.6411301703
 10
-25.4583661276
 20
-30.6832199406
 10
-25.4655930332
 20
-30.7231497172
 10
-25.475654056
 20
-30.7606961968
 10
-25.4884929311
 20
-30.7956494034
 10
-25.5040378579
 20
-30.8278138628
 10
-25.5222019028
 20
-30.8570096982
 10
-25.5428834849
 20
-30.8830736349
 10
-25.5659669441
 20
-30.9058599122
 10
-25.5913231873
 20
-30.9252410997
 10
-25.6002837569
 20
-30.9309422395
  0
LINE
  5
2EC
100
AcDbEntity
  8
0
100
AcDbLine
 62
7
  6
CONTINUOUS
 10
-24.9697153229
 20
-23.1544957191
 30
0.0
 11
-24.9848484364
 21
-23.2597825888
 31
0.0
  0
LWPOLYLINE
  5
2ED
100
AcDbEntity
  8
RACCORDO
100
AcDbPolyline
 62
250
  6
CONTINUOUS
 90
8
 70
0
 10
-25.3966135285
 20
-30.5218683207
 10
-25.3985737477
 20
-30.5337676841
 10
-25.4026538405
 20
-30.5454863047
 10
-25.4088100914
 20
-30.5568986255
 10
-25.4169765404
 20
-30.5678823714
 10
-25.4270656898
 20
-30.5783198592
 10
-25.4389694412
 20
-30.5880992584
 10
-25.4525602543
 20
-30.5971157896
  0
LWPOLYLINE
  5
2EE
100
AcDbEntity
  8
RACCORDO
100
AcDbPolyline
 62
250
  6
CONTINUOUS
 90
4
 70
0
 10
-48.6359553861
 20
-14.312326566
 10
-48.6467633454
 20
-14.3220132083
 10
-48.6592111589
 20
-14.3304383154
 10
-48.6617111708
 20
-14.3318331957
  0
LWPOLYLINE
  5
2EF
100
AcDbEntity
  8
0
100
AcDbPolyline
 62
7
  6
CONTINUOUS
 90
44
 70
0
 10
-62.3451439016
 20
-11.2881630718
 10
-62.3422394893
 20
-11.2864602283
 10
-62.3341485655
 20
-11.2814062935
 10
-62.3260226378
 20
-11.2759101965
 10
-62.3179221175
 20
-11.2697695261
 10
-62.3098406941
 20
-11.2629627001
 10
-62.3017846781
 20
-11.2555113008
 10
-62.2938334131
 20
-11.2472776636
 10
-62.2859870561
 20
-11.2382591751
 10
-62.2782454501
 20
-11.2284584488
 10
-62.2706874686
 20
-11.2177456607
 10
-62.2632967682
 20
-11.206119905
 10
-62.2560896923
 20
-11.1935820875
 10
-62.249194144
 20
-11.1800051024
 10
-62.2425963813
 20
-11.1653908199
 10
-62.2363101462
 20
-11.1497373698
 10
-62.2305045683
 20
-11.1329120352
 10
-62.2251767096
 20
-11.1149349824
 10
-62.220329508
 20
-11.095786045
 10
-62.2161409073
 20
-11.0752720066
 10
-62.2125987122
 20
-11.0533977401
 10
-62.209715118
 20
-11.0301583725
 10
-62.2077046539
 20
-11.005346069
 10
-62.2065360999
 20
-10.9789534813
 10
-62.2062406759
 20
-10.9509879577
 10
-62.2071265714
 20
-10.9212637081
 10
-62.2090960163
 20
-10.8897626789
 10
-62.2122467808
 20
-10.8565029236
 10
-62.2171803647
 20
-10.8213528125
 10
-62.2239579688
 20
-10.7840023352
 10
-62.2325183924
 20
-10.7447615021
 10
-62.2432795325
 20
-10.704428715
 10
-62.2564878656
 20
-10.6627765331
 10
-62.2718969154
 20
-10.6200323972
 10
-62.2891851498
 20
-10.577677032
 10
-62.3085385862
 20
-10.5357537828
 10
-62.3297712072
 20
-10.4942193041
 10
-62.3520034298
 20
-10.4544242841
 10
-62.3753181062
 20
-10.4164620751
 10
-62.3996323842
 20
-10.3802393247
 10
-62.4238181232
 20
-10.3468266631
 10
-62.4474992765
 20
-10.3165809671
 10
-62.4710518909
 20
-10.2891453598
 10
-62.4944759664
 20
-10.2645198413
  0
LINE
  5
2F0
100
AcDbEntity
  8
0
100
AcDbLine
 62
7
  6
CONTINUOUS
 10
-66.3850259321
 20
-8.6810836049
 30
0.0
 11
-66.3638127286
 21
-8.6688353671
 31
0.0
  0
LINE
  5
2F1
100
AcDbEntity
  8
0
100
AcDbLine
 62
7
  6
CONTINUOUS
 10
-67.3852136248
 20
-9.4362958698
 30
0.0
 11
-67.3640004214
 21
-9.424047632
 31
0.0
  0
LINE
  5
2F2
100
AcDbEntity
  8
0
100
AcDbLine
 62
7
  6
CONTINUOUS
 10
-66.8176260826
 20
-9.7640138031
 30
0.0
 11
-66.7964128792
 21
-9.7517655653
 31
0.0
  0
LINE
  5
2F3
100
AcDbEntity
  8
0
100
AcDbLine
 62
7
  6
CONTINUOUS
 10
-65.9242991951
 20
-9.3719966629
 30
0.0
 11
-65.9030859916
 21
-9.3597484251
 31
0.0
  0
LINE
  5
2F4
100
AcDbEntity
  8
0
100
AcDbLine
 62
7
  6
CONTINUOUS
 10
-65.4617431728
 20
-9.2197307624
 30
0.0
 11
-65.4405299694
 21
-9.2074825246
 31
0.0
  0
LINE
  5
2F5
100
AcDbEntity
  8
0
100
AcDbLine
 62
7
  6
CONTINUOUS
 10
-65.9521874865
 20
-10.263707202
 30
0.0
 11
-65.9309742831
 21
-10.2514589642
 31
0.0
  0
LINE
  5
2F6
100
AcDbEntity
  8
0
100
AcDbLine
 62
7
  6
CONTINUOUS
 10
-64.2411000918
 20
-9.7715115151
 30
0.0
 11
-64.2198868884
 21
-9.7592632773
 31
0.0
  0
LINE
  5
2F7
100
AcDbEntity
  8
0
100
AcDbLine
 62
7
  6
CONTINUOUS
 10
-65.3859384975
 20
-10.5906522715
 30
0.0
 11
-65.364725294
 21
-10.5784040337
 31
0.0
  0
LINE
  5
2F8
100
AcDbEntity
  8
0
100
AcDbLine
 62
7
  6
CONTINUOUS
 10
-64.9670569256
 20
-10.8325092413
 30
0.0
 11
-64.9458437221
 21
-10.8202610035
 31
0.0
  0
LINE
  5
2F9
100
AcDbEntity
  8
0
100
AcDbLine
 62
7
  6
CONTINUOUS
 10
-64.5002858398
 20
-10.6945689551
 30
0.0
 11
-64.4790726364
 21
-10.6823207173
 31
0.0
  0
LINE
  5
2FA
100
AcDbEntity
  8
0
100
AcDbLine
 62
7
  6
CONTINUOUS
 10
-64.0715563918
 20
-10.6268303349
 30
0.0
 11
-64.0503431883
 21
-10.6145820971
 31
0.0
  0
LINE
  5
2FB
100
AcDbEntity
  8
0
100
AcDbLine
 62
7
  6
CONTINUOUS
 10
-63.0497765027
 20
-10.2462606729
 30
0.0
 11
-63.0285632993
 21
-10.2340124351
 31
0.0
  0
LINE
  5
2FC
100
AcDbEntity
  8
0
100
AcDbLine
 62
7
  6
CONTINUOUS
 10
-63.9978192966
 20
-10.9846868398
 30
0.0
 11
-63.9766060932
 21
-10.972438602
 31
0.0
  0
LINE
  5
2FD
100
AcDbEntity
  8
0
100
AcDbLine
 62
250
  6
CONTINUOUS
 10
-62.7607270256
 20
-10.4011398402
 30
0.0
 11
-62.7395138221
 21
-10.3888916024
 31
0.0
  0
LINE
  5
2FE
100
AcDbEntity
  8
0
100
AcDbLine
 62
7
  6
CONTINUOUS
 10
-63.9022382588
 20
-11.4473221942
 30
0.0
 11
-63.8810250554
 21
-11.4350739564
 31
0.0
  0
LINE
  5
2FF
100
AcDbEntity
  8
0
100
AcDbLine
 62
250
  6
CONTINUOUS
 10
-62.5523070696
 20
-10.7766122664
 30
0.0
 11
-62.5310938662
 21
-10.7643640286
 31
0.0
  0
LINE
  5
300
100
AcDbEntity
  8
0
100
AcDbLine
 62
7
  6
CONTINUOUS
 10
-63.0375422354
 20
-11.1478677395
 30
0.0
 11
-63.016329032
 21
-11.1356195017
 31
0.0
  0
LINE
  5
301
100
AcDbEntity
  8
0
100
AcDbLine
 62
250
  6
CONTINUOUS
 10
-62.8397129399
 20
-11.2620918953
 30
0.0
 11
-62.8184997365
 21
-11.2498436575
 31
0.0
  0
LINE
  5
302
100
AcDbEntity
  8
0
100
AcDbLine
 62
7
  6
CONTINUOUS
 10
-63.4050209214
 20
-11.7344090741
 30
0.0
 11
-63.3838077179
 21
-11.7221608363
 31
0.0
  0
LINE
  5
303
100
AcDbEntity
  8
0
100
AcDbLine
 62
7
  6
CONTINUOUS
 10
-62.4564344201
 20
-11.3173488111
 30
0.0
 11
-62.4352212167
 21
-11.3051005733
 31
0.0
  0
LINE
  5
304
100
AcDbEntity
  8
0
100
AcDbLine
 62
250
  6
CONTINUOUS
 10
-62.6338644335
 20
-11.5607792922
 30
0.0
 11
-62.61265123
 21
-11.5485310544
 31
0.0
  0
LINE
  5
305
100
AcDbEntity
  8
0
100
AcDbLine
 62
7
  6
CONTINUOUS
 10
-62.4725258616
 20
-12.2728200347
 30
0.0
 11
-62.4513126582
 21
-12.2605717969
 31
0.0
  0
LWPOLYLINE
  5
306
100
AcDbEntity
  8
0
100
AcDbPolyline
 62
7
  6
CONTINUOUS
 90
5
 70
0
 10
-25.0601560568
 20
35.3998100336
 10
-25.0460386803
 20
35.3250109937
 10
-25.0033721725
 20
35.0527019313
 10
-24.9701419782
 20
34.7844068878
 10
-24.9464290777
 20
34.5206426648
  0
LINE
  5
307
100
AcDbEntity
  8
RACCORDO
100
AcDbLine
 62
250
  6
CONTINUOUS
 10
-48.9333228889
 20
-14.8297336061
 30
0.0
 11
-48.6359553861
 21
-14.6458370818
 31
0.0
  0
LINE
  5
308
100
AcDbEntity
  8
RACCORDO
100
AcDbLine
 62
7
  6
CONTINUOUS
 10
-48.6800225079
 20
-14.8525481636
 30
0.0
 11
-48.6800907313
 21
-14.8525903313
 31
0.0
  0
LWPOLYLINE
  5
309
100
AcDbEntity
  8
RACCORDO
100
AcDbPolyline
 62
250
  6
CONTINUOUS
 90
9
 70
0
 10
-48.906014617
 20
-14.4632117174
 10
-48.8962452025
 20
-14.4572020327
 10
-48.8822249073
 20
-14.4454501229
 10
-48.8699945542
 20
-14.4309773918
 10
-48.8597127082
 20
-14.4139310945
 10
-48.8515083336
 20
-14.394486512
 10
-48.8454864427
 20
-14.3728464743
 10
-48.8417285066
 20
-14.3492371972
 10
-48.8402920494
 20
-14.3239110124
  0
LWPOLYLINE
  5
30A
100
AcDbEntity
  8
RACCORDO
100
AcDbPolyline
 62
250
  6
CONTINUOUS
 90
13
 70
0
 10
-48.6800907313
 20
-14.8525903313
 10
-48.6970645813
 20
-14.8617632643
 10
-48.7142603618
 20
-14.8686842686
 10
-48.7323497883
 20
-14.8737771805
 10
-48.7511539853
 20
-14.8770060211
 10
-48.7706939468
 20
-14.8783870005
 10
-48.7912695
 20
-14.8778849551
 10
-48.8129717623
 20
-14.875373766
 10
-48.8356046818
 20
-14.870752148
 10
-48.8590575143
 20
-14.8639398379
 10
-48.8832273867
 20
-14.8548703277
 10
-48.9080214837
 20
-14.8434831646
 10
-48.9333228298
 20
-14.8297335696
  0
LINE
  5
30B
100
AcDbEntity
  8
RACCORDO
100
AcDbLine
 62
250
  6
CONTINUOUS
 10
-48.8402920494
 20
-14.3239110124
 30
0.0
 11
-48.6359553861
 21
-14.2140253675
 31
0.0
  0
LINE
  5
30C
100
AcDbEntity
  8
RACCORDO
100
AcDbLine
 62
7
  6
CONTINUOUS
 10
-48.9060826274
 20
-14.4632483251
 30
0.0
 11
-48.6618075221
 21
-14.3318850786
 31
0.0
  0
LWPOLYLINE
  5
30D
100
AcDbEntity
  8
0
100
AcDbPolyline
 62
7
  6
CONTINUOUS
 90
12
 70
0
 10
-62.6267192745
 20
-10.9686158636
 10
-62.6405768112
 20
-10.9749357728
 10
-62.6557182646
 20
-10.9792772443
 10
-62.6718516615
 20
-10.9813335377
 10
-62.6890173156
 20
-10.9811537732
 10
-62.7072817646
 20
-10.9790599186
 10
-62.7267100982
 20
-10.9751094315
 10
-62.7472372267
 20
-10.9692448543
 10
-62.7687344188
 20
-10.9616157821
 10
-62.7911587643
 20
-10.9522720799
 10
-62.8145531734
 20
-10.9411638827
 10
-62.8389176463
 20
-10.9282911905
  0
LWPOLYLINE
  5
30E
100
AcDbEntity
  8
0
100
AcDbPolyline
 62
7
  6
CONTINUOUS
 90
6
 70
0
 10
-62.3818985365
 20
-11.3061434536
 10
-62.3741070824
 20
-11.302801748
 10
-62.3662418268
 20
-11.2991714702
 10
-62.3583019166
 20
-11.2952741584
 10
-62.3502882049
 20
-11.2910882745
 10
-62.3451439016
 20
-11.2881630718
  0
LWPOLYLINE
  5
30F
100
AcDbEntity
  8
RACCORDO
100
AcDbPolyline
 62
250
  6
CONTINUOUS
 90
17
 70
0
 10
-48.945875887
 20
30.5306622275
 10
-48.9154893092
 20
30.5026296657
 10
-48.8858486511
 20
30.4728538199
 10
-48.8569133533
 20
30.441280867
 10
-48.8287239753
 20
30.4079646301
 10
-48.8016390406
 20
30.3733192147
 10
-48.7756666639
 20
30.3373108159
 10
-48.7507987306
 20
30.2999732386
 10
-48.7273694196
 20
30.2618220025
 10
-48.7054201741
 20
30.2228893042
 10
-48.6849095509
 20
30.1831429471
 10
-48.6660473993
 20
30.1430018606
 10
-48.6488797886
 20
30.1026822418
 10
-48.6333606496
 20
30.0619678937
 10
-48.6195616233
 20
30.0206291553
 10
-48.6073457149
 20
29.978353747
 10
-48.5968499193
 20
29.9354539484
  0
LWPOLYLINE
  5
310
100
AcDbEntity
  8
RACCORDO
100
AcDbPolyline
 62
250
  6
CONTINUOUS
 90
22
 70
0
 10
-28.4926660371
 20
36.6611848687
 10
-28.5186657665
 20
36.7133279599
 10
-28.5493268171
 20
36.7664857383
 10
-28.5846428256
 20
36.8206386661
 10
-28.6248022091
 20
36.8760344076
 10
-28.6696125965
 20
36.9323755938
 10
-28.7184511034
 20
36.9888778399
 10
-28.7714047258
 20
37.0456720592
 10
-28.828285845
 20
37.1026959728
 10
-28.8879696313
 20
37.1589876357
 10
-28.9504131395
 20
37.2146484787
 10
-29.0154777643
 20
37.2697672215
 10
-29.0818210519
 20
37.3234645916
 10
-29.1492935567
 20
37.3758207751
 10
-29.2178307476
 20
37.4270181201
 10
-29.2861782537
 20
37.476391358
 10
-29.3540958931
 20
37.5239703837
 10
-29.4216269719
 20
37.569991936
 10
-29.4879360348
 20
37.6141158866
 10
-29.5526946872
 20
37.6563014806
 10
-29.6160849561
 20
37.696801657
 10
-29.6780473107
 20
37.7357050833
  0
LWPOLYLINE
  5
311
100
AcDbEntity
  8
RACCORDO
100
AcDbPolyline
 62
250
  6
CONTINUOUS
 90
22
 70
0
 10
-28.2931324828
 20
36.7003253157
 10
-28.3204648174
 20
36.761278326
 10
-28.3528404046
 20
36.8238630219
 10
-28.3902686157
 20
36.887816938
 10
-28.4329245295
 20
36.9528539691
 10
-28.4806149578
 20
37.0186990281
 10
-28.5327407456
 20
37.0850777129
 10
-28.5893341117
 20
37.151698792
 10
-28.6501879272
 20
37.2182202841
 10
-28.7142310919
 20
37.2842737688
 10
-28.781295023
 20
37.3495171214
 10
-28.8511826405
 20
37.4136753389
 10
-28.9226651104
 20
37.4765066803
 10
-28.9954344136
 20
37.5377372664
 10
-29.0693225392
 20
37.5971505909
 10
-29.1432423836
 20
37.6546530729
 10
-29.2167891161
 20
37.7100444922
 10
-29.2898721312
 20
37.7632193615
 10
-29.3618635338
 20
37.8142828299
 10
-29.4324105987
 20
37.8632168242
 10
-29.5014368025
 20
37.9098783113
 10
-29.5687450007
 20
37.9542197962
  0
LINE
  5
312
100
AcDbEntity
  8
RACCORDO
100
AcDbLine
 62
250
  6
CONTINUOUS
 10
-28.4377241795
 20
36.5311652383
 30
0.0
 11
-28.4926660371
 21
36.6611848687
 31
0.0
  0
LWPOLYLINE
  5
313
100
AcDbEntity
  8
0
100
AcDbPolyline
 62
7
  6
CONTINUOUS
 90
9
 70
0
 10
-25.3964282144
 20
36.8175915759
 10
-25.3582178808
 20
36.6988482187
 10
-25.2939518484
 20
36.4817054604
 10
-25.2356045752
 20
36.2656002099
 10
-25.1832006524
 20
36.0505367803
 10
-25.1367154888
 20
35.8365108584
 10
-25.0963419492
 20
35.6244104265
 10
-25.062105425
 20
35.4142434807
 10
-25.0601560568
 20
35.3998100336
  0
LWPOLYLINE
  5
314
100
AcDbEntity
  8
RACCORDO
100
AcDbPolyline
 62
7
  6
CONTINUOUS
 90
6
 70
0
 10
-48.6616841196
 20
-14.3318174491
 10
-48.6570634172
 20
-14.3297393568
 10
-48.6523363382
 20
-14.3283234944
 10
-48.6486412561
 20
-14.3276820258
 10
-48.6462678446
 20
-14.3275059277
 10
-48.6457054957
 20
-14.3274860887
  0
LWPOLYLINE
  5
315
100
AcDbEntity
  8
RACCORDO
100
AcDbPolyline
 62
7
  6
CONTINUOUS
 90
24
 70
0
 10
-49.0308213247
 20
30.5310111997
 10
-49.0134070811
 20
30.520450399
 10
-48.9894118903
 20
30.5042823197
 10
-48.9644743638
 20
30.4855227563
 10
-48.9390046503
 20
30.4642939481
 10
-48.9132357138
 20
30.4406394176
 10
-48.8873825028
 20
30.4146121754
 10
-48.8617928752
 20
30.3864384875
 10
-48.8366901171
 20
30.3562675139
 10
-48.8122841134
 20
30.3242601483
 10
-48.7888668718
 20
30.2907309036
 10
-48.7666203652
 20
30.2558991093
 10
-48.7457161473
 20
30.2199996366
 10
-48.726378397
 20
30.1834153363
 10
-48.7087289613
 20
30.1464092385
 10
-48.6928725722
 20
30.1092494104
 10
-48.6789429926
 20
30.0723500397
 10
-48.6669799583
 20
30.0359742074
 10
-48.6570051689
 20
30.0003886796
 10
-48.649048024
 20
29.9660126283
 10
-48.6430529829
 20
29.9330637201
 10
-48.6389460919
 20
29.9017692503
 10
-48.6366347244
 20
29.8725504331
 10
-48.6359553659
 20
29.8470966868
  0
LWPOLYLINE
  5
316
100
AcDbEntity
  8
RACCORDO
100
AcDbPolyline
 62
250
  6
CONTINUOUS
 90
5
 70
0
 10
-49.0722761021
 20
30.6225806419
 10
-49.0399321731
 20
30.6026159709
 10
-49.008097319
 20
30.5806553801
 10
-48.9767715397
 20
30.5566988696
 10
-48.945875887
 20
30.5306622275
  0
LWPOLYLINE
  5
317
100
AcDbEntity
  8
RACCORDO
100
AcDbPolyline
 62
250
  6
CONTINUOUS
 90
9
 70
0
 10
-48.5773767423
 20
29.7653898071
 10
-48.5912380237
 20
29.7742680131
 10
-48.6034355592
 20
29.7839259711
 10
-48.6138386608
 20
29.7942602029
 10
-48.6223358663
 20
29.8051599842
 10
-48.6288361341
 20
29.8165085315
 10
-48.6332698184
 20
29.828184253
 10
-48.6355894153
 20
29.8400620514
 10
-48.6359553861
 20
29.8470447257
  0
LWPOLYLINE
  5
318
100
AcDbEntity
  8
RACCORDO
100
AcDbPolyline
 62
250
  6
CONTINUOUS
 90
7
 70
0
 10
-81.8815535644
 20
48.8434396325
 10
-81.898625627
 20
48.8546631338
 10
-81.9130456683
 20
48.8670651422
 10
-81.9245724025
 20
48.8804381386
 10
-81.9330129562
 20
48.8945583569
 10
-81.9382260963
 20
48.9091895279
 10
-81.9401322082
 20
48.9250945511
  0
LWPOLYLINE
  5
319
100
AcDbEntity
  8
RACCORDO
100
AcDbPolyline
 62
250
  6
CONTINUOUS
 90
19
 70
0
 10
-91.7285628834
 20
73.5628950994
 10
-91.7404981999
 20
73.572712207
 10
-91.751079316
 20
73.5842145419
 10
-91.7601513963
 20
73.5972343382
 10
-91.7675811999
 20
73.6115815828
 10
-91.7732603241
 20
73.6270474263
 10
-91.7771071487
 20
73.6434074043
 10
-91.7790659706
 20
73.6604236827
 10
-91.7791077452
 20
73.6778484845
 10
-91.7772320518
 20
73.6954284598
 10
-91.7734663316
 20
73.7129079863
 10
-91.7678651988
 20
73.7300327458
 10
-91.7605099354
 20
73.7465535683
 10
-91.7515080783
 20
73.7622304338
 10
-91.7409903114
 20
73.7768351993
 10
-91.7291086332
 20
73.7901549523
 10
-91.7160361993
 20
73.8019961247
 10
-91.7019644363
 20
73.812187125
 10
-91.6870989513
 20
73.8205801877
  0
LWPOLYLINE
  5
31A
100
AcDbEntity
  8
0
100
AcDbPolyline
 62
7
  6
CONTINUOUS
 90
23
 70
0
 10
-28.4752181754
 20
36.5957036631
 10
-28.5052429893
 20
36.6516568455
 10
-28.5406520294
 20
36.7093108553
 10
-28.5815352144
 20
36.7684773845
 10
-28.6281944013
 20
36.829005289
 10
-28.6804814959
 20
36.8906033926
 10
-28.7377223433
 20
36.9528163765
 10
-28.8000374482
 20
37.0153252261
 10
-28.8672221736
 20
37.077847754
 10
-28.9379412715
 20
37.1399395926
 10
-29.0119428299
 20
37.2011222761
 10
-29.089135814
 20
37.261251044
 10
-29.1683110647
 20
37.3203923831
 10
-29.2493235454
 20
37.3783047613
 10
-29.3319156267
 20
37.4346803029
 10
-29.4146547061
 20
37.4895317193
 10
-29.4969840737
 20
37.5424837849
 10
-29.5789827396
 20
37.5935284426
 10
-29.6601791879
 20
37.6432407665
 10
-29.7407315832
 20
37.6917354133
 10
-29.8201071702
 20
37.738496729
 10
-29.8967950322
 20
37.783219042
 10
-30.0411194515
 20
37.8668305178
  0
LINE
  5
31B
100
AcDbEntity
  8
0
100
AcDbLine
 62
250
  6
CONTINUOUS
 10
-24.9273122176
 20
-22.4282089778
 30
0.0
 11
-25.3964282144
 21
-22.6990706749
 31
0.0
  0
LWPOLYLINE
  5
31C
100
AcDbEntity
  8
RACCORDO
100
AcDbPolyline
 62
250
  6
CONTINUOUS
 90
9
 70
0
 10
-81.6719004426
 20
49.1277520125
 10
-81.6943682617
 20
49.1390904664
 10
-81.7165145453
 20
49.1476066992
 10
-81.7380981615
 20
49.1532268997
 10
-81.7588681966
 20
49.1559088553
 10
-81.7786246471
 20
49.1556494686
 10
-81.7972108193
 20
49.1524580144
 10
-81.8144281008
 20
49.1463631096
 10
-81.8254274727
 20
49.1404841534
  0
LWPOLYLINE
  5
31D
100
AcDbEntity
  8
RACCORDO
100
AcDbPolyline
 62
250
  6
CONTINUOUS
 90
13
 70
0
 10
-49.1206450797
 20
29.927701664
 10
-49.101206607
 20
29.9178444466
 10
-49.0797270334
 20
29.9095184845
 10
-49.056565774
 20
29.9028630917
 10
-49.0321103827
 20
29.8979896287
 10
-49.0067700659
 20
29.8949796391
 10
-48.9809688355
 20
29.8938834853
 10
-48.9551384164
 20
29.8947195065
 10
-48.9297110198
 20
29.8974737113
 10
-48.9051121104
 20
29.9021000126
 10
-48.8817532913
 20
29.9085209986
 10
-48.8600254167
 20
29.9166292275
 10
-48.8402920494
 20
29.9262890256
  0
LWPOLYLINE
  5
31E
100
AcDbEntity
  8
RACCORDO
100
AcDbPolyline
 62
250
  6
CONTINUOUS
 90
16
 70
0
 10
-81.8108536559
 20
48.8842529838
 10
-81.8183902403
 20
48.8881056889
 10
-81.8256755145
 20
48.8909795383
 10
-81.8327094786
 20
48.892874532
 10
-81.8395561018
 20
48.8937875119
 10
-81.8461514149
 20
48.893721636
 10
-81.8523035098
 20
48.8926863786
 10
-81.8580036365
 20
48.8906585907
 10
-81.863260545
 20
48.8876614212
 10
-81.867908577
 20
48.8837737906
 10
-81.8719341977
 20
48.8789652109
 10
-81.8753509418
 20
48.8732661702
 10
-81.878033756
 20
48.8668470535
 10
-81.8799409555
 20
48.8597646558
 10
-81.881114225
 20
48.8519621821
 10
-81.8815535644
 20
48.8434396325
  0
LWPOLYLINE
  5
31F
100
AcDbEntity
  8
RACCORDO
100
AcDbPolyline
 62
250
  6
CONTINUOUS
 90
16
 70
0
 10
-82.4248219018
 20
49.308480434
 10
-82.4094453986
 20
49.3004771086
 10
-82.3927184121
 20
49.2934344072
 10
-82.3748201597
 20
49.2874277878
 10
-82.3559424083
 20
49.2825216074
 10
-82.3362874195
 20
49.2787684327
 10
-82.3160657829
 20
49.2762084767
 10
-82.295494159
 20
49.2748691678
 10
-82.2747929586
 20
49.2747648562
 10
-82.2541839811
 20
49.2758966598
 10
-82.2338880375
 20
49.2782524524
 10
-82.2141225849
 20
49.2818069936
 10
-82.1950993973
 20
49.2865221989
 10
-82.1770222953
 20
49.2923475482
 10
-82.1600849627
 20
49.2992206272
 10
-82.1444688714
 20
49.3070677956
  0
LINE
  5
320
100
AcDbEntity
  8
RACCORDO
100
AcDbLine
 62
250
  6
CONTINUOUS
 10
-49.1913449882
 20
30.0501574976
 30
0.0
 11
-81.8108536559
 21
48.8842529838
 31
0.0
  0
LINE
  5
321
100
AcDbEntity
  8
RACCORDO
100
AcDbLine
 62
250
  6
CONTINUOUS
 10
-49.052391775
 20
30.2936565263
 30
0.0
 11
-81.6719004426
 21
49.1277520125
 31
0.0
  0
LINE
  5
322
100
AcDbEntity
  8
RACCORDO
100
AcDbLine
 62
7
  6
CONTINUOUS
 10
-81.8885060178
 20
49.5026265211
 30
0.0
 11
-49.0308595779
 21
30.5310332697
 31
0.0
  0
LINE
  5
323
100
AcDbEntity
  8
RACCORDO
100
AcDbLine
 62
250
  6
CONTINUOUS
 10
-81.929922542
 20
49.5941738933
 30
0.0
 11
-49.0722761021
 21
30.6225806419
 31
0.0
  0
LWPOLYLINE
  5
324
100
AcDbEntity
  8
RACCORDO
100
AcDbPolyline
 62
250
  6
CONTINUOUS
 90
11
 70
0
 10
-96.6310942124
 20
69.6289168865
 10
-96.6653329905
 20
69.6504281129
 10
-96.6963109045
 20
69.6735285369
 10
-96.72380764
 20
69.6980538686
 10
-96.7476276406
 20
69.7238296844
 10
-96.7676014989
 20
69.750672667
 10
-96.7835871613
 20
69.7783919097
 10
-96.7954709379
 20
69.8067902737
 10
-96.8031683115
 20
69.8356657903
 10
-96.8066245387
 20
69.8648130974
 10
-96.8068301437
 20
69.8738816425
  0
LWPOLYLINE
  5
325
100
AcDbEntity
  8
RACCORDO
100
AcDbPolyline
 62
250
  6
CONTINUOUS
 90
10
 70
0
 10
-29.6780462919
 20
37.7357044951
 10
-29.6830870441
 20
37.7403016363
 10
-29.6876086802
 20
37.7456270461
 10
-29.691583996
 20
37.7516486843
 10
-29.6949890744
 20
37.758330322
 10
-29.6978034287
 20
37.7656317596
 10
-29.7000101266
 20
37.7735090683
 10
-29.7015958916
 20
37.7819148546
 10
-29.702551183
 20
37.7907985457
 10
-29.7028702534
 20
37.8001066932
  0
LWPOLYLINE
  5
326
100
AcDbEntity
  8
RACCORDO
100
AcDbPolyline
 62
7
  6
CONTINUOUS
 90
13
 70
0
 10
-25.6002837569
 20
-30.9309422395
 10
-25.5715754938
 20
-30.9116941944
 10
-25.5442793534
 20
-30.8895221104
 10
-25.5186497998
 20
-30.8644637256
 10
-25.4949875499
 20
-30.8366572498
 10
-25.4734519997
 20
-30.8061318607
 10
-25.4541031823
 20
-30.77271685
 10
-25.4370918315
 20
-30.7362474799
 10
-25.4227652824
 20
-30.6969712473
 10
-25.4114128677
 20
-30.6552847254
 10
-25.4031729028
 20
-30.6113748956
 10
-25.3981359356
 20
-30.5652171553
 10
-25.3964282144
 20
-30.5168983822
  0
LINE
  5
327
100
AcDbEntity
  8
DRAFT
100
AcDbLine
 62
7
  6
CONTINUOUS
 10
-25.6002837569
 20
-30.9309422395
 30
0.0
 11
-26.1859622881
 21
-31.2860100755
 31
0.0
  0
LINE
  5
328
100
AcDbEntity
  8
RACCORDO
100
AcDbLine
 62
250
  6
CONTINUOUS
 10
-25.4525602543
 20
-30.5971157896
 30
0.0
 11
-26.1859622881
 21
-31.0356184974
 31
0.0
  0
LWPOLYLINE
  5
329
100
AcDbEntity
  8
RACCORDO
100
AcDbPolyline
 62
250
  6
CONTINUOUS
 90
15
 70
0
 10
-28.3808299007
 20
-33.2424660823
 10
-28.3383654367
 20
-33.219402998
 10
-28.2946648542
 20
-33.189592718
 10
-28.2548317648
 20
-33.15591504
 10
-28.2185633778
 20
-33.118525324
 10
-28.185714069
 20
-33.077614223
 10
-28.1565095127
 20
-33.033872057
 10
-28.1306543475
 20
-32.987276762
 10
-28.1074672825
 20
-32.9366015419
 10
-28.0870383263
 20
-32.8815346596
 10
-28.0697294394
 20
-32.8224002656
 10
-28.055622183
 20
-32.7585431457
 10
-28.0450111816
 20
-32.6897034679
 10
-28.0382762067
 20
-32.616145735
 10
-28.0357401466
 20
-32.537953864
  0
LWPOLYLINE
  5
32A
100
AcDbEntity
  8
0
100
AcDbPolyline
 62
7
  6
CONTINUOUS
 90
16
 70
0
 10
-26.5295302474
 20
-32.352410626
 10
-26.5181906549
 20
-32.3467813405
 10
-26.4742962642
 20
-32.3214032196
 10
-26.4331598044
 20
-32.2916967101
 10
-26.3949983127
 20
-32.2578929402
 10
-26.3598109045
 20
-32.2200725634
 10
-26.3276308298
 20
-32.1783177636
 10
-26.2985825194
 20
-32.1328226523
 10
-26.2727293313
 20
-32.0837202364
 10
-26.2500496826
 20
-32.0309507998
 10
-26.2306049027
 20
-31.9744953925
 10
-26.2145639626
 20
-31.9146614679
 10
-26.2020486471
 20
-31.8518959341
 10
-26.1931018406
 20
-31.7865204224
 10
-26.1877349215
 20
-31.7186843055
 10
-26.1859622881
 20
-31.6486297395
  0
LINE
  5
32B
100
AcDbEntity
  8
RACCORDO
100
AcDbLine
 62
250
  6
CONTINUOUS
 10
-28.0357401466
 20
-32.537953864
 30
0.0
 11
-26.1859622881
 21
-31.6486297395
 31
0.0
  0
LINE
  5
32C
100
AcDbEntity
  8
RACCORDO
100
AcDbLine
 62
7
  6
CONTINUOUS
 10
-28.3813042764
 20
-33.2426944564
 30
0.0
 11
-26.5295302538
 21
-32.3524106291
 31
0.0
  0
LWPOLYLINE
  5
32D
100
AcDbEntity
  8
RACCORDO
100
AcDbPolyline
 62
250
  6
CONTINUOUS
 90
16
 70
0
 10
-33.9046214897
 20
-35.8314473653
 10
-33.8947004014
 20
-35.826713072
 10
-33.851472176
 20
-35.8027743462
 10
-33.8106484395
 20
-35.774582335
 10
-33.7724744862
 20
-35.7423424348
 10
-33.736941268
 20
-35.7060842919
 10
-33.7038815759
 20
-35.6655567926
 10
-33.6733926928
 20
-35.6206663186
 10
-33.6457453108
 20
-35.5715736082
 10
-33.621099743
 20
-35.5183237467
 10
-33.59960218
 20
-35.4609249688
 10
-33.5814520448
 20
-35.3995612488
 10
-33.5668481128
 20
-35.3346053879
 10
-33.5559100776
 20
-35.2663317167
 10
-33.5487190596
 20
-35.1948742777
 10
-33.5453619992
 20
-35.1204603771
  0
LINE
  5
32E
100
AcDbEntity
  8
RACCORDO
100
AcDbLine
 62
250
  6
CONTINUOUS
 10
-33.5453619992
 20
-35.1204603771
 30
0.0
 11
-28.2012166145
 21
-32.6494231521
 31
0.0
  0
LINE
  5
32F
100
AcDbEntity
  8
RACCORDO
100
AcDbLine
 62
7
  6
CONTINUOUS
 10
-33.9051408857
 20
-35.8316878853
 30
0.0
 11
-28.5514053461
 21
-33.3562163443
 31
0.0
  0
LWPOLYLINE
  5
330
100
AcDbEntity
  8
RACCORDO
100
AcDbPolyline
 62
250
  6
CONTINUOUS
 90
16
 70
0
 10
-95.5935104651
 20
70.7171446163
 10
-95.6570809301
 20
70.7502032385
 10
-95.7198544306
 20
70.7787446526
 10
-95.7816244209
 20
70.8027764667
 10
-95.8420080759
 20
70.8222722445
 10
-95.9010193116
 20
70.8373512457
 10
-95.95903474
 20
70.848146802
 10
-96.016058246
 20
70.854628216
 10
-96.0716867693
 20
70.8567154871
 10
-96.1256673876
 20
70.8543885312
 10
-96.1777965994
 20
70.8476630821
 10
-96.2279324059
 20
70.8365662766
 10
-96.2759290102
 20
70.8211300941
 10
-96.3216422159
 20
70.8013977512
 10
-96.3649072108
 20
70.7774377952
 10
-96.3889971205
 20
70.7615114168
  0
LWPOLYLINE
  5
331
100
AcDbEntity
  8
RACCORDO
100
AcDbPolyline
 62
250
  6
CONTINUOUS
 90
19
 70
0
 10
-34.3711044317
 20
33.6807790881
 10
-34.3338486146
 20
33.6610102071
 10
-34.2938404025
 20
33.6431240572
 10
-34.2513643207
 20
33.627247849
 10
-34.2067224464
 20
33.6134944989
 10
-34.1602322629
 20
33.6019618267
 10
-34.1122244014
 20
33.5927318597
 10
-34.0630402859
 20
33.5858702479
 10
-34.0130297096
 20
33.5814257984
 10
-33.9625483497
 20
33.5794301277
 10
-33.9119552271
 20
33.5798974358
 10
-33.8616101611
 20
33.5828244062
 10
-33.8118712158
 20
33.5881902278
 10
-33.7630921367
 20
33.5959567444
 10
-33.7156198456
 20
33.6060687256
 10
-33.6697919805
 20
33.6184542571
 10
-33.6259344775
 20
33.6330252547
 10
-33.5843592539
 20
33.649678093
 10
-33.5453619992
 20
33.668294339
  0
LWPOLYLINE
  5
332
100
AcDbEntity
  8
RACCORDO
100
AcDbPolyline
 62
250
  6
CONTINUOUS
 90
28
 70
0
 10
-95.9955702681
 20
69.9957895254
 10
-96.0331875925
 20
70.0161070069
 10
-96.0701443712
 20
70.0337029936
 10
-96.1064406042
 20
70.0485774856
 10
-96.1420783174
 20
70.0607050378
 10
-96.1770554849
 20
70.0701110952
 10
-96.2113660289
 20
70.076871993
 10
-96.2451308686
 20
70.0810223866
 10
-96.2782290848
 20
70.0825276204
 10
-96.3102918426
 20
70.0813600634
 10
-96.3412902489
 20
70.0774893057
 10
-96.3712531968
 20
70.070945757
 10
-96.39989853
 20
70.0617930153
 10
-96.4272200129
 20
70.0500016283
 10
-96.453223881
 20
70.0356010483
 10
-96.4776466849
 20
70.0187432304
 10
-96.5004286107
 20
69.9994986194
 10
-96.5216294722
 20
69.9777967705
 10
-96.5411652608
 20
69.9535783045
 10
-96.5591093804
 20
69.9267849709
 10
-96.5753884272
 20
69.8974750202
 10
-96.5896981804
 20
69.8657638252
 10
-96.6020297844
 20
69.8315559319
 10
-96.6123920948
 20
69.7949467944
 10
-96.6205074582
 20
69.7563381475
 10
-96.6262833234
 20
69.7158639031
 10
-96.6298122414
 20
69.6733901495
 10
-96.6310942124
 20
69.6289168865
  0
LWPOLYLINE
  5
333
100
AcDbEntity
  8
0
100
AcDbPolyline
 62
7
  6
CONTINUOUS
 90
4
 70
0
 10
-91.6963588327
 20
73.465080226
 10
-91.7459057585
 20
73.493313421
 10
-91.794554723
 20
73.5216089537
 10
-91.8887812776
 20
73.5768974625
  0
LINE
  5
334
100
AcDbEntity
  8
0
100
AcDbLine
 62
7
  6
CONTINUOUS
 10
-91.9337484171
 20
73.6028955392
 30
0.0
 11
-92.0152703936
 21
73.6492200277
 31
0.0
  0
LWPOLYLINE
  5
335
100
AcDbEntity
  8
0
100
AcDbPolyline
 62
7
  6
CONTINUOUS
 90
3
 70
0
 10
-30.0411194515
 20
37.8668305178
 10
-30.2248592067
 20
37.9718463128
 10
-30.276343198
 20
38.001932972
  0
LINE
  5
336
100
AcDbEntity
  8
RACCORDO
100
AcDbLine
 62
250
  6
CONTINUOUS
 10
-35.006628376
 20
34.781538848
 30
0.0
 11
-95.9955702681
 21
69.9957895254
 31
0.0
  0
LINE
  5
337
100
AcDbEntity
  8
RACCORDO
100
AcDbLine
 62
250
  6
CONTINUOUS
 10
-34.6045685731
 20
35.5028939388
 30
0.0
 11
-95.5935104651
 21
70.7171446163
 31
0.0
  0
LINE
  5
338
100
AcDbEntity
  8
0
100
AcDbLine
 62
7
  6
CONTINUOUS
 10
-30.276343198
 20
38.001932972
 30
0.0
 11
-91.6963588327
 21
73.465080226
 31
0.0
  0
LINE
  5
339
100
AcDbEntity
  8
RACCORDO
100
AcDbLine
 62
250
  6
CONTINUOUS
 10
-91.7285636593
 20
73.5628955474
 30
0.0
 11
-29.6780473107
 21
37.7357050833
 31
0.0
  0
LINE
  5
33A
100
AcDbEntity
  8
RACCORDO
100
AcDbLine
 62
250
  6
CONTINUOUS
 10
-91.7533869246
 20
73.6272973436
 30
0.0
 11
-29.7028702208
 21
37.8001066745
 31
0.0
  0
LINE
  5
33B
100
AcDbEntity
  8
RACCORDO
100
AcDbLine
 62
250
  6
CONTINUOUS
 10
-91.4476491077
 20
73.5088099842
 30
0.0
 11
-30.0086079904
 21
38.0346776551
 31
0.0
  0
LINE
  5
33C
100
AcDbEntity
  8
RACCORDO
100
AcDbLine
 62
250
  6
CONTINUOUS
 10
-91.3462096252
 20
73.6897338468
 30
0.0
 11
-29.9071685079
 21
38.2156015177
 31
0.0
  0
LINE
  5
33D
100
AcDbEntity
  8
0
100
AcDbLine
 62
7
  6
CONTINUOUS
 10
-91.8887812776
 20
73.5768974625
 30
0.0
 11
-91.9337484171
 21
73.6028955392
 31
0.0
  0
LWPOLYLINE
  5
33E
100
AcDbEntity
  8
RACCORDO
100
AcDbPolyline
 62
250
  6
CONTINUOUS
 90
10
 70
0
 10
-30.0086079904
 20
38.0346776551
 10
-29.9767846072
 20
38.0157907303
 10
-29.9445656117
 20
37.9953014605
 10
-29.911951004
 20
37.9732098458
 10
-29.8791291278
 20
37.9497715988
 10
-29.8459116393
 20
37.9247310069
 10
-29.8117335075
 20
37.8973209323
 10
-29.7764063886
 20
37.8672856624
 10
-29.7401186264
 20
37.8348809098
 10
-29.7028702208
 20
37.8001066745
  0
LWPOLYLINE
  5
33F
100
AcDbEntity
  8
RACCORDO
100
AcDbPolyline
 62
250
  6
CONTINUOUS
 90
10
 70
0
 10
-29.9071685079
 20
38.2156015177
 10
-29.8720191061
 20
38.1944549852
 10
-29.8363496267
 20
38.1716034132
 10
-29.800199474
 20
38.1470107667
 10
-29.7638859068
 20
38.1208565013
 10
-29.7271797891
 20
38.092919661
 10
-29.6893160314
 20
38.0624765809
 10
-29.6500949291
 20
38.0291710583
 10
-29.6098726697
 20
37.9931184986
 10
-29.5687450007
 20
37.9542197962
  0
LWPOLYLINE
  5
340
100
AcDbEntity
  8
0
100
AcDbPolyline
 62
7
  6
CONTINUOUS
 90
9
 70
0
 10
-29.4967488912
 20
42.4020277643
 10
-29.2801726104
 20
42.2495989172
 10
-29.0644315044
 20
42.0866630195
 10
-28.8499326569
 20
41.9135486208
 10
-28.6378973194
 20
41.7312413709
 10
-28.4283396856
 20
41.5396889702
 10
-28.2212455618
 20
41.3389437183
 10
-28.0177936194
 20
41.1301481633
 10
-27.9781185044
 20
41.0870766922
  0
LWPOLYLINE
  5
341
100
AcDbEntity
  8
RACCORDO
100
AcDbPolyline
 62
250
  6
CONTINUOUS
 90
19
 70
0
 10
-25.8567034673
 20
39.7823252723
 10
-25.8191552169
 20
39.7490282889
 10
-25.7824638189
 20
39.7130185571
 10
-25.7468344679
 20
39.6744974593
 10
-25.712466418
 20
39.6336804214
 10
-25.679551869
 20
39.5907957086
 10
-25.6482748933
 20
39.5460831508
 10
-25.6188104048
 20
39.4997927999
 10
-25.59132318
 20
39.4521835295
 10
-25.5659669374
 20
39.4035215875
 10
-25.5428834788
 20
39.3540791098
 10
-25.5222018972
 20
39.3041326001
 10
-25.5040378531
 20
39.2539613808
 10
-25.4884929269
 20
39.2038460293
 10
-25.4756540526
 20
39.1540668115
 10
-25.4655930308
 20
39.1049021163
 10
-25.4583661264
 20
39.0566268937
 10
-25.4540137544
 20
39.0095111168
 10
-25.4525602543
 20
38.9638182758
  0
LWPOLYLINE
  5
342
100
AcDbEntity
  8
RACCORDO
100
AcDbPolyline
 62
7
  6
CONTINUOUS
 90
3
 70
0
 10
-28.406085852
 20
-33.2535061098
 10
-28.3952964173
 20
-33.2491977754
 10
-28.3808520233
 20
-33.2424714921
  0
LWPOLYLINE
  5
343
100
AcDbEntity
  8
RACCORDO
100
AcDbPolyline
 62
250
  6
CONTINUOUS
 90
11
 70
0
 10
-28.2031090425
 20
35.372111842
 10
-28.1959896785
 20
35.3700380308
 10
-28.1780049852
 20
35.3663650414
 10
-28.159358334
 20
35.3640397083
 10
-28.1403513068
 20
35.3630996444
 10
-28.1212913238
 20
35.3635600594
 10
-28.102486666
 20
35.3654135116
 10
-28.0842414792
 20
35.3686300291
 10
-28.0668508671
 20
35.3731575939
 10
-28.0505961176
 20
35.3789229812
 10
-28.0357401466
 20
35.385832945
  0
LWPOLYLINE
  5
344
100
AcDbEntity
  8
RACCORDO
100
AcDbPolyline
 62
250
  6
CONTINUOUS
 90
5
 70
0
 10
-28.4926700892
 20
36.6611806175
 10
-28.4784674382
 20
36.6544194194
 10
-28.4629007039
 20
36.6494410573
 10
-28.4462227491
 20
36.6463263722
 10
-28.4287044804
 20
36.6451259336
  0
LWPOLYLINE
  5
345
100
AcDbEntity
  8
RACCORDO
100
AcDbPolyline
 62
250
  6
CONTINUOUS
 90
9
 70
0
 10
-25.8748358969
 20
39.8726676749
 10
-25.8792372017
 20
39.8749944668
 10
-25.8905217984
 20
39.8792453989
 10
-25.9027098141
 20
39.8815701127
 10
-25.9156706625
 20
39.8819437006
 10
-25.9292654772
 20
39.8803621598
 10
-25.9433485991
 20
39.8768424354
 10
-25.9577691374
 20
39.8714222388
 10
-25.972372586
 20
39.8641596437
  0
LWPOLYLINE
  5
346
100
AcDbEntity
  8
RACCORDO
100
AcDbPolyline
 62
7
  6
CONTINUOUS
 90
13
 70
0
 10
-87.532526266
 20
75.4730453416
 10
-87.5753391652
 20
75.4957827003
 10
-87.6178822954
 20
75.514511259
 10
-87.6600130437
 20
75.5293127363
 10
-87.7016756882
 20
75.5402885096
 10
-87.7426696231
 20
75.547494885
 10
-87.7825988989
 20
75.5510063044
 10
-87.821080811
 20
75.5509935194
 10
-87.8581803278
 20
75.5476629414
 10
-87.8940913533
 20
75.5411288216
 10
-87.9287270115
 20
75.531480291
 10
-87.9617809757
 20
75.5188868592
 10
-87.9930793029
 20
75.5035269804
  0
LWPOLYLINE
  5
347
100
AcDbEntity
  8
0
100
AcDbPolyline
 62
7
  6
CONTINUOUS
 90
16
 70
0
 10
-88.9073432928
 20
75.3550482152
 10
-88.9689109588
 20
75.3885496455
 10
-89.0303834081
 20
75.4178400076
 10
-89.0915426424
 20
75.4428046745
 10
-89.1522590154
 20
75.4633748852
 10
-89.2122229152
 20
75.4794171974
 10
-89.2709631761
 20
75.4908035928
 10
-89.3281409195
 20
75.4975260728
 10
-89.3837257915
 20
75.4996431729
 10
-89.4377216219
 20
75.4971699933
 10
-89.4899487066
 20
75.4901145706
 10
-89.5402230001
 20
75.4785003485
 10
-89.588515968
 20
75.4623075381
 10
-89.634773646
 20
75.4414844041
 10
-89.6786679667
 20
75.4161063237
 10
-89.6887246267
 20
75.4094157448
  0
LWPOLYLINE
  5
348
100
AcDbEntity
  8
0
100
AcDbPolyline
 62
7
  6
CONTINUOUS
 90
9
 70
0
 10
-92.0152703936
 20
73.6492200277
 10
-92.0510215485
 20
73.6689363842
 10
-92.0833387689
 20
73.6856151859
 10
-92.1117605717
 20
73.6992035172
 10
-92.1363483578
 20
73.7097097841
 10
-92.1577230564
 20
73.7166432622
 10
-92.1756687948
 20
73.7199326436
 10
-92.1898766491
 20
73.7194530013
 10
-92.200164814
 20
73.7151154779
  0
LINE
  5
349
100
AcDbEntity
  8
0
100
AcDbLine
 62
7
  6
CONTINUOUS
 10
-55.2579240591
 20
57.3145374296
 30
0.0
 11
-57.281134631
 21
58.4664574079
 31
0.0
  0
LINE
  5
34A
100
AcDbEntity
  8
0
100
AcDbLine
 62
7
  6
CONTINUOUS
 10
-27.2456129464
 20
39.7523379162
 30
0.0
 11
-88.9073432928
 21
75.3550482152
 31
0.0
  0
LINE
  5
34B
100
AcDbEntity
  8
RACCORDO
100
AcDbLine
 62
250
  6
CONTINUOUS
 10
-87.630062955
 20
75.4645373104
 30
0.0
 11
-25.972372586
 21
39.8641596437
 31
0.0
  0
LINE
  5
34C
100
AcDbEntity
  8
RACCORDO
100
AcDbLine
 62
7
  6
CONTINUOUS
 10
-87.532526266
 20
75.4730453416
 30
0.0
 11
-25.8748358969
 21
39.8726676749
 31
0.0
  0
LINE
  5
34D
100
AcDbEntity
  8
0
100
AcDbLine
 62
7
  6
CONTINUOUS
 10
-80.5624737613
 20
71.908810838
 30
0.0
 11
-57.281134631
 21
58.4664574079
 31
0.0
  0
LINE
  5
34E
100
AcDbEntity
  8
0
100
AcDbLine
 62
7
  6
CONTINUOUS
 10
-53.2149673587
 20
56.1187033859
 30
0.0
 11
-29.9336282284
 21
42.6763499558
 31
0.0
  0
LINE
  5
34F
100
AcDbEntity
  8
0
100
AcDbLine
 62
7
  6
CONTINUOUS
 10
-55.2315959352
 20
57.2993123194
 30
0.0
 11
-55.2579240591
 21
57.3145374296
 31
0.0
  0
LINE
  5
350
100
AcDbEntity
  8
0
100
AcDbLine
 62
7
  6
CONTINUOUS
 10
-55.2315959352
 20
57.2993123194
 30
0.0
 11
-53.2149673587
 21
56.1187033859
 31
0.0
  0
LWPOLYLINE
  5
351
100
AcDbEntity
  8
0
100
AcDbPolyline
 62
7
  6
CONTINUOUS
 90
3
 70
0
 10
-29.9336282284
 20
42.6763499558
 10
-29.7145674305
 20
42.5442781105
 10
-29.4967488912
 20
42.4020277643
  0
LWPOLYLINE
  5
352
100
AcDbEntity
  8
RACCORDO
100
AcDbPolyline
 62
250
  6
CONTINUOUS
 90
4
 70
0
 10
-25.972372586
 20
39.8641596437
 10
-25.9335269656
 20
39.8400523657
 10
-25.8948985842
 20
39.812723297
 10
-25.8567034673
 20
39.7823252723
  0
LWPOLYLINE
  5
353
100
AcDbEntity
  8
RACCORDO
100
AcDbPolyline
 62
250
  6
CONTINUOUS
 90
9
 70
0
 10
-28.4287044804
 20
36.6451259336
 10
-28.4106304469
 20
36.6458592162
 10
-28.392294218
 20
36.6485142837
 10
-28.3739936225
 20
36.6530479864
 10
-28.3560258918
 20
36.6593866666
 10
-28.3386828323
 20
36.6674273583
 10
-28.3222461142
 20
36.6770394542
 10
-28.3069826952
 20
36.6880668213
 10
-28.2931404662
 20
36.7003303447
  0
LWPOLYLINE
  5
354
100
AcDbEntity
  8
RACCORDO
100
AcDbPolyline
 62
250
  6
CONTINUOUS
 90
5
 70
0
 10
-91.8527402815
 20
73.6169638818
 10
-91.8252268364
 20
73.6069070613
 10
-91.7955034225
 20
73.594532161
 10
-91.763302184
 20
73.5798321317
 10
-91.7285636593
 20
73.5628955474
  0
LWPOLYLINE
  5
355
100
AcDbEntity
  8
RACCORDO
100
AcDbPolyline
 62
250
  6
CONTINUOUS
 90
8
 70
0
 10
-87.5369275708
 20
75.4753721335
 10
-87.5482121676
 20
75.4796230656
 10
-87.5604001832
 20
75.4819477795
 10
-87.5733610316
 20
75.4823213674
 10
-87.5869558463
 20
75.4807398265
 10
-87.6010389682
 20
75.4772201021
 10
-87.6154595065
 20
75.4717999056
 10
-87.630062955
 20
75.4645373104
  0
LWPOLYLINE
  5
356
100
AcDbEntity
  8
RACCORDO
100
AcDbPolyline
 62
250
  6
CONTINUOUS
 90
3
 70
0
 10
-91.9002579978
 20
73.6290264793
 10
-91.8779221371
 20
73.6244835508
 10
-91.8527402815
 20
73.6169638818
  0
LWPOLYLINE
  5
357
100
AcDbEntity
  8
RACCORDO
100
AcDbPolyline
 62
250
  6
CONTINUOUS
 90
10
 70
0
 10
-91.6871036847
 20
73.8205810734
 10
-91.6497922988
 20
73.8128125994
 10
-91.6125420846
 20
73.8033604039
 10
-91.5754211019
 20
73.7923036501
 10
-91.5389476031
 20
73.7798856065
 10
-91.502735482
 20
73.7660604496
 10
-91.4654602672
 20
73.7503014024
 10
-91.4266910504
 20
73.7322953399
 10
-91.3869250152
 20
73.7121350427
 10
-91.3462096252
 20
73.6897338468
  0
LWPOLYLINE
  5
358
100
AcDbEntity
  8
RACCORDO
100
AcDbPolyline
 62
250
  6
CONTINUOUS
 90
10
 70
0
 10
-91.7533869246
 20
73.6272973436
 10
-91.7198053277
 20
73.6201211385
 10
-91.6863971206
 20
73.6115678132
 10
-91.6531623031
 20
73.6016373677
 10
-91.6204618188
 20
73.590489994
 10
-91.5879347241
 20
73.5779655001
 10
-91.5544981888
 20
73.5635833098
 10
-91.5197912691
 20
73.547183231
 10
-91.4841749088
 20
73.5289254558
 10
-91.4476491077
 20
73.5088099842
  0
LWPOLYLINE
  5
359
100
AcDbEntity
  8
0
100
AcDbPolyline
 62
7
  6
CONTINUOUS
 90
11
 70
0
 10
-82.5179834853
 20
72.577711187
 10
-82.4783083703
 20
72.5749668299
 10
-82.2748564279
 20
72.5488211815
 10
-82.0677623041
 20
72.5104193303
 10
-81.8582046703
 20
72.4599798282
 10
-81.6461693329
 20
72.3974339853
 10
-81.4316704853
 20
72.3228504914
 10
-81.2159293793
 20
72.2366539677
 10
-80.9993530985
 20
72.1389859544
 10
-80.7815345592
 20
72.0297049111
 10
-80.5624737613
 20
71.908810838
  0
ELLIPSE
  5
35A
100
AcDbEntity
  8
0
100
AcDbEllipse
 62
7
  6
CONTINUOUS
 10
-31.5499576623
 20
33.5416320647
 30
0.0
 11
2.4358524003
 21
3.7876101382
 31
0.0
 40
0.6067084637
 41
-0.7562804351
 42
-0.3489400871
  0
ELLIPSE
  5
35B
100
AcDbEntity
  8
0
100
AcDbEllipse
 62
7
  6
CONTINUOUS
 10
-29.263332379
 20
-32.0328116853
 30
0.0
 11
-0.752093153
 21
1.3025803154
 31
0.0
 40
0.5757524875
 41
-3.193807042
 42
-2.3576120761
  0
ENDSEC
  0
SECTION
  2
OBJECTS
  0
DICTIONARY
  5
C
100
AcDbDictionary
280
0
281
1
  3
ACAD_GROUP
350
D
  3
ACAD_MLINESTYLE
350
17
  3
ACAD_LAYOUT
350
1A
  3
ACAD_PLOTSETTINGS
350
19
  3
ACAD_PLOTSTYLENAME
350
E
  0
DICTIONARY
  5
D
102
{ACAD_REACTORS
330
C
102
}
100
AcDbDictionary
280
0
281
1
  0
ACDBDICTIONARYWDFLT
  5
E
102
{ACAD_REACTORS
330
C
102
}
100
AcDbDictionary
281
1
  3
Normal
350
F
100
AcDbDictionaryWithDefault
340
F
  0
DICTIONARY
  5
17
102
{ACAD_REACTORS
330
C
102
}
100
AcDbDictionary
280
0
281
1
  3
Standard
350
18
  0
DICTIONARY
  5
19
102
{ACAD_REACTORS
330
C
102
}
100
AcDbDictionary
281
1
  0
DICTIONARY
  5
1A
102
{ACAD_REACTORS
330
C
102
}
100
AcDbDictionary
281
1
  3
Model
350
35C
  3
Layout1
350
35D
  0
ACDBPLACEHOLDER
  5
F
102
{ACAD_REACTORS
330
E
102
}
  0
MLINESTYLE
  5
18
102
{ACAD_REACTORS
330
17
102
}
100
AcDbMlineStyle
  2
STANDARD
 70
0
  3

 62
256
 51
90.0
 52
90.0
 71
2
 49
0.5
 62
256
  6
BYLAYER
 49
-0.5
 62
256
  6
BYLAYER
  0
LAYOUT
  5
35C
102
{ACAD_REACTORS
330
1A
102
}
100
AcDbPlotSettings
  1

  2
none_device
  4
ISO_A4_(297.00_x_210.00_MM)
  6

 40
0.0
 41
0.0
 42
0.0
 43
0.0
 44
297.0
 45
210.0
 46
0.0
 47
0.0
 48
0.0
 49
0.0
140
0.0
141
0.0
142
1.0
143
1.0
 70
1024
 72
1
 73
0
 74
0
  7

 75
0
147
1.0
148
0.0
149
0.0
100
AcDbLayout
  1
Model
 70
0
 71
0
 10
0.0
 20
0.0
 11
297.0
 21
210.0
 12
0.0
 22
0.0
 32
0.0
 14
0.0
 24
0.0
 34
0.0
 15
0.0
 25
0.0
 35
0.0
146
0.0
 13
0.0
 23
0.0
 33
0.0
 16
1.0
 26
0.0
 36
0.0
 17
0.0
 27
1.0
 37
0.0
 76
0
330
215
345
0
346
0
  0
LAYOUT
  5
35D
102
{ACAD_REACTORS
330
1A
102
}
100
AcDbPlotSettings
  1

  2
none_device
  4
ISO_A4_(297.00_x_210.00_MM)
  6

 40
0.0
 41
0.0
 42
0.0
 43
0.0
 44
297.0
 45
210.0
 46
0.0
 47
0.0
 48
0.0
 49
0.0
140
0.0
141
0.0
142
1.0
143
1.0
 70
0
 72
1
 73
0
 74
0
  7

 75
0
147
1.0
148
0.0
149
0.0
100
AcDbLayout
  1
Layout1
 70
0
 71
1
 10
0.0
 20
0.0
 11
297.0
 21
210.0
 12
0.0
 22
0.0
 32
0.0
 14
0.0
 24
0.0
 34
0.0
 15
0.0
 25
0.0
 35
0.0
146
0.0
 13
0.0
 23
0.0
 33
0.0
 16
1.0
 26
0.0
 36
0.0
 17
0.0
 27
1.0
 37
0.0
 76
0
330
216
345
0
346
0
  0
ENDSEC
  0
EOF
