  0
SECTION
  2
HEADER
  9
$ACADVER
  1
AC1024
  9
$DWGCODEPAGE
  3
ANSI_1252
  9
$EXTMAX
 10
297.0
 20
210.0
 30
0.0
  9
$EXTMIN
 10
0.0
 20
0.0
 30
0.0
  9
$LIMMIN
 10
0.0
 20
0.0
  9
$LIMMAX
 10
297.0
 20
210.0
  9
$VIEWCTR
 10
148.5
 20
105.0
  9
$VIEWSIZE
 40
210.0
  9
$CLAYER
  8
0
  9
$LTSCALE
 40
16.335
  9
$CELTYPE
  6
BYLAYER
  9
$DIMSCALE
 40
1.0
  9
$DIMASZ
 40
3.0
  9
$DIMEXO
 40
0.5
  9
$DIMDLI
 40
11.286
  9
$DIMEXE
 40
1.5
  9
$DIMCEN
 40
2.673
  9
$DIMLFAC
 40
1.0
  9
$DIMBLK
  1
_FILLED
  9
$DIMALT
 70
0
  9
$DIMALTF
 40
0.0393700787
  9
$DIMTXT
 40
3.0
  9
$DIMTOL
 70
1
  9
$DIMLIM
 70
0
  9
$DIMTFAC
 40
1.0
  9
$DIMTP
 40
0.01
  9
$DIMTM
 40
0.01
  9
$DIMGAP
 40
0.625
  9
$DIMDSEP
 70
44
  9
$AUNITS
 70
0
  9
$PDMODE
 70
3
  9
$PDSIZE
 40
3.0
  9
$HANDSEED
  5
358
  9
$TILEMODE
 70
1
  9
$MEASUREMENT
 70
1
  9
$INSUNITS
 70
4
  0
ENDSEC
  0
SECTION
  2
CLASSES
  0
CLASS
  1
ACDBDICTIONARYWDFLT
  2
AcDbDictionaryWithDefault
  3
AutoCAD 2000
 90
0
 91
1
280
0
281
0
  0
CLASS
  1
ACDBPLACEHOLDER
  2
AcDbPlaceHolder
  3
AutoCAD 2000
 90
0
 91
1
280
0
281
0
  0
CLASS
  1
LAYOUT
  2
AcDbLayout
  3
AutoCAD 2000
 90
0
 91
0
280
0
281
0
  0
ENDSEC
  0
SECTION
  2
TABLES
  0
TABLE
  2
VPORT
  5
8
100
AcDbSymbolTable
 70
2
  0
VPORT
  5
1F4
100
AcDbSymbolTableRecord
100
AcDbViewportTableRecord
  2
*ACTIVE
 70
0
 10
0.0
 20
0.0
 11
1.0
 21
1.0
 12
148.5
 22
105.0
 13
0.0
 23
0.0
 14
1.0
 24
1.0
 15
0.0
 25
0.0
 16
0.0
 26
0.0
 36
1.0
 17
0.0
 27
0.0
 37
0.0
 40
210.0
 41
1.4142857143
 42
50.0
 43
0.0
 44
0.0
 50
0.0
 51
0.0
 71
0
 72
100
 73
1
 74
1
 75
0
 76
0
 77
0
 78
0
  0
ENDTAB
  0
TABLE
  2
LTYPE
  5
5
100
AcDbSymbolTable
 70
6
  0
LTYPE
  5
14
100
AcDbSymbolTableRecord
100
AcDbLinetypeTableRecord
  2
BYBLOCK
 70
0
  3

 72
65
 73
0
 40
0.0
  0
LTYPE
  5
15
100
AcDbSymbolTableRecord
100
AcDbLinetypeTableRecord
  2
BYLAYER
 70
0
  3

 72
65
 73
0
 40
0.0
  0
LTYPE
  5
16
100
AcDbSymbolTableRecord
100
AcDbLinetypeTableRecord
  2
CONTINUOUS
 70
64
  3
Solid line
 72
65
 73
0
 40
0.0
  0
LTYPE
  5
1F5
100
AcDbSymbolTableRecord
100
AcDbLinetypeTableRecord
  2
CENTER
 70
64
  3
____ _ ____ _ ____ _ ____ _ ____ _ ____ _ ____
 72
65
 73
4
 40
0.6
 49
0.375
 74
0
 49
-0.075
 74
0
 49
0.075
 74
0
 49
-0.075
 74
0
  0
LTYPE
  5
1F6
100
AcDbSymbolTableRecord
100
AcDbLinetypeTableRecord
  2
HIDDEN
 70
64
  3
- - - - - - - - - - - - - - - - - - - -
 72
65
 73
2
 40
0.2
 49
0.1
 74
0
 49
-0.1
 74
0
  0
LTYPE
  5
1F7
100
AcDbSymbolTableRecord
100
AcDbLinetypeTableRecord
  2
PHANTOM
 70
64
  3
_____ _ _ _____ _ _ _____ _ _ _____
 72
65
 73
6
 40
0.8
 49
0.45
 74
0
 49
-0.05
 74
0
 49
0.1
 74
0
 49
-0.05
 74
0
 49
0.1
 74
0
 49
-0.05
 74
0
  0
LTYPE
  5
1F8
100
AcDbSymbolTableRecord
100
AcDbLinetypeTableRecord
  2
DOT
 70
64
  3
. . . . . . . . . . . . . . . . . . . .
 72
65
 73
2
 40
0.2
 49
0.1
 74
0
 49
-0.1
 74
0
  0
LTYPE
  5
1F9
100
AcDbSymbolTableRecord
100
AcDbLinetypeTableRecord
  2
DASHED
 70
64
  3
- - - - - - - - - - - - - - - - - - - -
 72
65
 73
2
 40
0.2
 49
0.1
 74
0
 49
-0.1
 74
0
  0
ENDTAB
  0
TABLE
  2
LAYER
  5
2
100
AcDbSymbolTable
 70
36
  0
LAYER
  5
10
100
AcDbSymbolTableRecord
100
AcDbLayerTableRecord
  2
0
 70
0
 62
7
  6
CONTINUOUS
370
-3
390
F
  0
LAYER
  5
1FA
100
AcDbSymbolTableRecord
100
AcDbLayerTableRecord
  2
DEFAULT_1
 70
0
 62
7
  6
CENTER
370
-3
390
F
  0
LAYER
  5
1FB
100
AcDbSymbolTableRecord
100
AcDbLayerTableRecord
  2
DEFAULT_2
 70
0
 62
7
  6
HIDDEN
370
-3
390
F
  0
LAYER
  5
1FC
100
AcDbSymbolTableRecord
100
AcDbLayerTableRecord
  2
DEFAULT_3
 70
0
 62
7
  6
PHANTOM
370
-3
390
F
  0
LAYER
  5
1FD
100
AcDbSymbolTableRecord
100
AcDbLayerTableRecord
  2
ASSI
 70
0
 62
7
  6
CONTINUOUS
370
-3
390
F
  0
LAYER
  5
1FE
100
AcDbSymbolTableRecord
100
AcDbLayerTableRecord
  2
COLOR5
 70
0
 62
7
  6
CONTINUOUS
370
-3
390
F
  0
LAYER
  5
1FF
100
AcDbSymbolTableRecord
100
AcDbLayerTableRecord
  2
COORDINATE
 70
0
 62
7
  6
CONTINUOUS
370
-3
390
F
  0
LAYER
  5
200
100
AcDbSymbolTableRecord
100
AcDbLayerTableRecord
  2
COORD_ORIGINE
 70
0
 62
7
  6
CONTINUOUS
370
-3
390
F
  0
LAYER
  5
201
100
AcDbSymbolTableRecord
100
AcDbLayerTableRecord
  2
COPY_PUBLISH
 70
0
 62
7
  6
CONTINUOUS
370
-3
390
F
  0
LAYER
  5
202
100
AcDbSymbolTableRecord
100
AcDbLayerTableRecord
  2
COSMETICI
 70
0
 62
7
  6
CONTINUOUS
370
-3
390
F
  0
LAYER
  5
203
100
AcDbSymbolTableRecord
100
AcDbLayerTableRecord
  2
CURVE
 70
0
 62
7
  6
CONTINUOUS
370
-3
390
F
  0
LAYER
  5
204
100
AcDbSymbolTableRecord
100
AcDbLayerTableRecord
  2
DRAFT
 70
0
 62
7
  6
CONTINUOUS
370
-3
390
F
  0
LAYER
  5
205
100
AcDbSymbolTableRecord
100
AcDbLayerTableRecord
  2
IMPORT_IGES
 70
0
 62
7
  6
CONTINUOUS
370
-3
390
F
  0
LAYER
  5
206
100
AcDbSymbolTableRecord
100
AcDbLayerTableRecord
  2
INTF_1
 70
0
 62
7
  6
CONTINUOUS
370
-3
390
F
  0
LAYER
  5
207
100
AcDbSymbolTableRecord
100
AcDbLayerTableRecord
  2
INTF_11
 70
0
 62
7
  6
CONTINUOUS
370
-3
390
F
  0
LAYER
  5
208
100
AcDbSymbolTableRecord
100
AcDbLayerTableRecord
  2
INTF_13
 70
0
 62
7
  6
CONTINUOUS
370
-3
390
F
  0
LAYER
  5
209
100
AcDbSymbolTableRecord
100
AcDbLayerTableRecord
  2
INTF_2
 70
0
 62
7
  6
CONTINUOUS
370
-3
390
F
  0
LAYER
  5
20A
100
AcDbSymbolTableRecord
100
AcDbLayerTableRecord
  2
INTF_8
 70
0
 62
7
  6
CONTINUOUS
370
-3
390
F
  0
LAYER
  5
20B
100
AcDbSymbolTableRecord
100
AcDbLayerTableRecord
  2
INTF_9
 70
0
 62
7
  6
CONTINUOUS
370
-3
390
F
  0
LAYER
  5
20C
100
AcDbSymbolTableRecord
100
AcDbLayerTableRecord
  2
NOTE
 70
0
 62
7
  6
CONTINUOUS
370
-3
390
F
  0
LAYER
  5
20D
100
AcDbSymbolTableRecord
100
AcDbLayerTableRecord
  2
PIANI
 70
0
 62
7
  6
CONTINUOUS
370
-3
390
F
  0
LAYER
  5
20E
100
AcDbSymbolTableRecord
100
AcDbLayerTableRecord
  2
PIANI_ORIGINE
 70
0
 62
7
  6
CONTINUOUS
370
-3
390
F
  0
LAYER
  5
20F
100
AcDbSymbolTableRecord
100
AcDbLayerTableRecord
  2
PUNTI
 70
0
 62
7
  6
CONTINUOUS
370
-3
390
F
  0
LAYER
  5
210
100
AcDbSymbolTableRecord
100
AcDbLayerTableRecord
  2
RACCORDO
 70
0
 62
7
  6
CONTINUOUS
370
-3
390
F
  0
LAYER
  5
211
100
AcDbSymbolTableRecord
100
AcDbLayerTableRecord
  2
RGB____0____0____0__
 70
0
 62
7
  6
CONTINUOUS
370
-3
390
F
  0
LAYER
  5
212
100
AcDbSymbolTableRecord
100
AcDbLayerTableRecord
  2
SIMBOLI
 70
0
 62
7
  6
CONTINUOUS
370
-3
390
F
  0
LAYER
  5
213
100
AcDbSymbolTableRecord
100
AcDbLayerTableRecord
  2
SMUSSO
 70
0
 62
7
  6
CONTINUOUS
370
-3
390
F
  0
LAYER
  5
214
100
AcDbSymbolTableRecord
100
AcDbLayerTableRecord
  2
SNAPLINE
 70
0
 62
7
  6
CONTINUOUS
370
-3
390
F
  0
LAYER
  5
215
100
AcDbSymbolTableRecord
100
AcDbLayerTableRecord
  2
SUPERFICI
 70
0
 62
7
  6
CONTINUOUS
370
-3
390
F
  0
LAYER
  5
216
100
AcDbSymbolTableRecord
100
AcDbLayerTableRecord
  2
TRASH
 70
0
 62
7
  6
CONTINUOUS
370
-3
390
F
  0
ENDTAB
  0
TABLE
  2
STYLE
  5
3
100
AcDbSymbolTable
 70
1
  0
STYLE
  5
11
100
AcDbSymbolTableRecord
100
AcDbTextStyleTableRecord
  2
STANDARD
 70
0
 40
0.0
 41
0.8
 50
0.0
 71
0
 42
0.2
  3
txt
  4

  0
STYLE
  5
217
100
AcDbSymbolTableRecord
100
AcDbTextStyleTableRecord
  2
TEXTSTYLE_1
 70
0
 40
0.0
 41
0.8
 50
0.0
 71
0
 42
0.2
  3
gdt
  4

  0
ENDTAB
  0
TABLE
  2
VIEW
  5
6
100
AcDbSymbolTable
 70
0
  0
ENDTAB
  0
TABLE
  2
UCS
  5
7
100
AcDbSymbolTable
 70
0
  0
ENDTAB
  0
TABLE
  2
APPID
  5
9
100
AcDbSymbolTable
 70
1
  0
APPID
  5
218
100
AcDbSymbolTableRecord
100
AcDbRegAppTableRecord
  2
ACAD
 70
0
  0
ENDTAB
  0
TABLE
  2
BLOCK_RECORD
  5
1
100
AcDbSymbolTable
 70
0
  0
BLOCK_RECORD
  5
219
100
AcDbSymbolTableRecord
100
AcDbBlockTableRecord
  2
*Model_Space
  0
BLOCK_RECORD
  5
21A
100
AcDbSymbolTableRecord
100
AcDbBlockTableRecord
  2
*Paper_Space
  0
BLOCK_RECORD
  5
21B
100
AcDbSymbolTableRecord
100
AcDbBlockTableRecord
  2
_FILLED
  0
ENDTAB
  0
TABLE
  2
DIMSTYLE
  5
A
100
AcDbSymbolTable
 70
1
100
AcDbDimStyleTable
 71
0
  0
DIMSTYLE
105
21C
100
AcDbSymbolTableRecord
100
AcDbDimStyleTableRecord
  2
STANDARD
 70
0
  3

  4

 40
1.0
 41
3.0
 42
0.5
 43
0.38
 44
1.5
 45
0.0
 46
0.0
 47
0.01
 48
0.01
140
3.0
141
0.0
142
0.0
143
25.4
144
1.0
145
0.0
146
1.0
147
0.625
 71
1
 72
0
 73
0
 74
0
 75
0
 76
0
 77
1
 78
8
 79
2
170
0
171
1
172
0
173
0
174
0
175
0
176
0
177
0
178
0
270
2
179
2
271
2
272
2
273
2
274
2
275
0
280
0
281
0
282
0
283
1
284
8
285
0
286
0
287
3
288
0
340
11
278
44
341
21B
342
21B
343
21B
344
21B
  0
ENDTAB
  0
ENDSEC
  0
SECTION
  2
BLOCKS
  0
BLOCK
  5
20
100
AcDbEntity
  8
0
100
AcDbBlockBegin
  2
*Model_Space
 70
0
 10
0.0
 20
0.0
 30
0.0
  3
*Model_Space
  1

  0
ENDBLK
  5
21
100
AcDbEntity
  8
0
100
AcDbBlockEnd
  0
BLOCK
  5
1C
100
AcDbEntity
  8
0
100
AcDbBlockBegin
  2
*Paper_Space
 70
0
 10
0.0
 20
0.0
 30
0.0
  3
*Paper_Space
  1

  0
ENDBLK
  5
1D
100
AcDbEntity
  8
0
100
AcDbBlockEnd
  0
BLOCK
  5
21D
100
AcDbEntity
  8
0
100
AcDbBlockBegin
  2
_FILLED
 70
64
 10
0.0
 20
0.0
 30
0.0
  3
_FILLED
  1

  0
SOLID
  5
21E
100
AcDbEntity
  8
0
  6
BYBLOCK
 62
0
100
AcDbTrace
 10
0.0
 20
0.0
 30
0.0
 11
-1.0
 21
0.3166666667
 31
0.0
 12
-1.0
 22
-0.3166666667
 32
0.0
 13
-1.0
 23
-0.3166666667
 33
0.0
  0
ENDBLK
  5
21F
100
AcDbEntity
  8
0
  6
BYBLOCK
 62
0
100
AcDbBlockEnd
  0
ENDSEC
  0
SECTION
  2
ENTITIES
  0
LWPOLYLINE
  5
220
100
AcDbEntity
  8
RACCORDO
100
AcDbPolyline
 62
7
  6
CONTINUOUS
 90
15
 70
0
 10
-119.5483611738
 20
84.1132871287
 10
-119.6008292422
 20
84.0726305356
 10
-119.6510289972
 20
84.0274336564
 10
-119.6986253325
 20
83.9777104225
 10
-119.743189343
 20
83.9236096337
 10
-119.7842615878
 20
83.8654187732
 10
-119.8215739224
 20
83.8032808743
 10
-119.8548516083
 20
83.7374171132
 10
-119.8837805001
 20
83.6682461928
 10
-119.9082104721
 20
83.5959642145
 10
-119.9280277704
 20
83.5207420789
 10
-119.9430984432
 20
83.4428944717
 10
-119.9533493509
 20
83.3625977158
 10
-119.9587318362
 20
83.2799621547
 10
-119.9595936117
 20
83.2303647211
  0
LWPOLYLINE
  5
221
100
AcDbEntity
  8
RACCORDO
100
AcDbPolyline
 62
7
  6
CONTINUOUS
 90
8
 70
0
 10
-115.0997591483
 20
87.2238900405
 10
-115.1140845059
 20
87.2130646375
 10
-115.1353836582
 20
87.1923135865
 10
-115.1528139993
 20
87.169169493
 10
-115.1663486735
 20
87.1444122399
 10
-115.1762665545
 20
87.1184060081
 10
-115.182665412
 20
87.0923109966
 10
-115.1860716766
 20
87.0666959559
  0
LWPOLYLINE
  5
222
100
AcDbEntity
  8
RACCORDO
100
AcDbPolyline
 62
250
  6
CONTINUOUS
 90
13
 70
0
 10
-114.839862423
 20
87.1770500369
 10
-114.8530257275
 20
87.1674671589
 10
-114.8648983336
 20
87.1557954907
 10
-114.875514855
 20
87.1422956454
 10
-114.8850782057
 20
87.1272917124
 10
-114.8935422736
 20
87.1110500839
 10
-114.9004701849
 20
87.0937424788
 10
-114.9057095491
 20
87.0756334618
 10
-114.909342563
 20
87.057057814
 10
-114.9111887741
 20
87.0382772711
 10
-114.91120474
 20
87.0195875071
 10
-114.9094989852
 20
87.0013159733
 10
-114.9061503132
 20
86.9837671486
  0
LINE
  5
223
100
AcDbEntity
  8
RACCORDO
100
AcDbLine
 62
7
  6
CONTINUOUS
 10
-119.5483611738
 20
84.1132871287
 30
0.0
 11
-115.3616133513
 21
87.0654613667
 31
0.0
  0
LINE
  5
224
100
AcDbEntity
  8
RACCORDO
100
AcDbLine
 62
250
  6
CONTINUOUS
 10
-118.7462739336
 20
84.0736144674
 30
0.0
 11
-114.8632235644
 21
86.811607081
 31
0.0
  0
LINE
  5
225
100
AcDbEntity
  8
RACCORDO
100
AcDbLine
 62
7
  6
CONTINUOUS
 10
-119.5417562485
 20
84.1179843212
 30
0.0
 11
-119.5422086105
 21
84.1176657287
 31
0.0
  0
LWPOLYLINE
  5
226
100
AcDbEntity
  8
RACCORDO
100
AcDbPolyline
 62
250
  6
CONTINUOUS
 90
13
 70
0
 10
-114.4989730937
 20
87.0462036978
 10
-114.5123848009
 20
87.036792439
 10
-114.5255047545
 20
87.0255976311
 10
-114.5381207499
 20
87.0128003409
 10
-114.550028734
 20
86.998607554
 10
-114.5610361049
 20
86.983248827
 10
-114.5709648274
 20
86.9669725747
 10
-114.5796543127
 20
86.9500420519
 10
-114.5869640156
 20
86.932731096
 10
-114.5927757076
 20
86.9153196973
 10
-114.5969953893
 20
86.8980894707
 10
-114.5995548111
 20
86.8813191011
 10
-114.6004125762
 20
86.8652798353
  0
LWPOLYLINE
  5
227
100
AcDbEntity
  8
RACCORDO
100
AcDbPolyline
 62
250
  6
CONTINUOUS
 90
4
 70
0
 10
-115.1107409579
 20
86.9740673642
 10
-115.1004355719
 20
86.9811378931
 10
-115.0879377246
 20
86.9854136876
 10
-115.0731349143
 20
86.9869490699
  0
LINE
  5
228
100
AcDbEntity
  8
RACCORDO
100
AcDbLine
 62
7
  6
CONTINUOUS
 10
-115.099781005
 20
87.2238706542
 30
0.0
 11
-112.841488101
 21
88.7658855918
 31
0.0
  0
LINE
  5
229
100
AcDbEntity
  8
RACCORDO
100
AcDbLine
 62
250
  6
CONTINUOUS
 10
-114.4989730937
 20
87.0462036978
 30
0.0
 11
-112.0601067613
 21
88.7115180663
 31
0.0
  0
LWPOLYLINE
  5
22A
100
AcDbEntity
  8
RACCORDO
100
AcDbPolyline
 62
250
  6
CONTINUOUS
 90
12
 70
0
 10
-115.0996351011
 20
87.2239705654
 10
-115.0972571431
 20
87.2255232844
 10
-115.0815569443
 20
87.2329300603
 10
-115.0633655283
 20
87.2372120564
 10
-115.0428784659
 20
87.2384118014
 10
-115.0200013313
 20
87.2368279879
 10
-114.994900314
 20
87.2325935586
 10
-114.9677693397
 20
87.2257947554
 10
-114.9385615776
 20
87.2166983007
 10
-114.907367912
 20
87.2054787335
 10
-114.874416521
 20
87.1922172616
 10
-114.8398562157
 20
87.177048877
  0
LINE
  5
22B
100
AcDbEntity
  8
RACCORDO
100
AcDbLine
 62
250
  6
CONTINUOUS
 10
-110.7828264235
 20
88.8210071615
 30
0.0
 11
-111.5293094724
 21
88.4050423642
 31
0.0
  0
LINE
  5
22C
100
AcDbEntity
  8
DRAFT
100
AcDbLine
 62
7
  6
CONTINUOUS
 10
-111.1458427714
 20
88.8599968314
 30
0.0
 11
-111.7461923084
 21
88.5302677955
 31
0.0
  0
LINE
  5
22D
100
AcDbEntity
  8
RACCORDO
100
AcDbLine
 62
250
  6
CONTINUOUS
 10
-111.1458427714
 20
88.8599968314
 30
0.0
 11
-111.136388613
 21
88.8649250581
 31
0.0
  0
LWPOLYLINE
  5
22E
100
AcDbEntity
  8
RACCORDO
100
AcDbPolyline
 62
250
  6
CONTINUOUS
 90
11
 70
0
 10
-119.1483337366
 20
13.0958722616
 10
-119.1468250573
 20
13.0554670755
 10
-119.1423097491
 20
13.0170914355
 10
-119.1348199249
 20
12.9810182684
 10
-119.124408852
 20
12.9475041258
 10
-119.111150574
 20
12.9167873598
 10
-119.0951393834
 20
12.8890864275
 10
-119.0764891515
 20
12.8645983375
 10
-119.0553325184
 20
12.8434972485
 10
-119.0318199498
 20
12.8259332312
 10
-119.0240841639
 20
12.8212301449
  0
LWPOLYLINE
  5
22F
100
AcDbEntity
  8
RACCORDO
100
AcDbPolyline
 62
7
  6
CONTINUOUS
 90
24
 70
0
 10
-119.9595935004
 20
14.4418081813
 10
-119.9566835643
 20
14.3488775692
 10
-119.949035463
 20
14.2633882312
 10
-119.9367836831
 20
14.1776795907
 10
-119.9200851335
 20
14.0919914365
 10
-119.8991734301
 20
14.006828295
 10
-119.8742276159
 20
13.922387329
 10
-119.8453828891
 20
13.8387472433
 10
-119.8128667851
 20
13.7563174865
 10
-119.7768812475
 20
13.675361962
 10
-119.7375200596
 20
13.5959267247
 10
-119.6948815685
 20
13.5181416655
 10
-119.6490792286
 20
13.4421781518
 10
-119.6002053648
 20
13.3682179725
 10
-119.5483239335
 20
13.2964089157
 10
-119.4934326491
 20
13.2268581724
 10
-119.4356567003
 20
13.1598664897
 10
-119.3752257385
 20
13.0958231193
 10
-119.3121422634
 20
13.0348866095
 10
-119.2464864136
 20
12.9773094034
 10
-119.1785598565
 20
12.9235337744
 10
-119.1084822161
 20
12.8738152189
 10
-119.0362345605
 20
12.8283248211
 10
-119.0239083093
 20
12.8211287276
  0
LWPOLYLINE
  5
230
100
AcDbEntity
  8
RACCORDO
100
AcDbPolyline
 62
250
  6
CONTINUOUS
 90
28
 70
0
 10
-119.7838576809
 20
14.1966320214
 10
-119.782718609
 20
14.1528744191
 10
-119.7794944728
 20
14.1084512255
 10
-119.7741852721
 20
14.0633624407
 10
-119.7667615978
 20
14.0174949866
 10
-119.7572528591
 20
13.9709619413
 10
-119.7457472834
 20
13.9241025393
 10
-119.7322215214
 20
13.876865875
 10
-119.7166989224
 20
13.829302854
 10
-119.6993377623
 20
13.7819054275
 10
-119.6801214116
 20
13.7346828256
 10
-119.6590664998
 20
13.6876258182
 10
-119.6363811915
 20
13.6411986662
 10
-119.6120483023
 20
13.5954056111
 10
-119.5860850167
 20
13.5502424114
 10
-119.5587510524
 20
13.5061606043
 10
-119.5300640448
 20
13.4632029296
 10
-119.5000063585
 20
13.4213266474
 10
-119.4687848052
 20
13.380855075
 10
-119.4363612131
 20
13.3417546291
 10
-119.4027737539
 20
13.304058893
 10
-119.3683437544
 20
13.2681919333
 10
-119.3330442243
 20
13.2341606745
 10
-119.2969021538
 20
13.2019581922
 10
-119.26031984
 20
13.1719877804
 10
-119.2234313821
 20
13.1443838703
 10
-119.186102681
 20
13.1190120307
 10
-119.1483337366
 20
13.0958722616
  0
LINE
  5
231
100
AcDbEntity
  8
RACCORDO
100
AcDbLine
 62
250
  6
CONTINUOUS
 10
-119.9593879596
 20
14.4325271602
 30
0.0
 11
-119.9595936122
 21
14.4415967549
 31
0.0
  0
LINE
  5
232
100
AcDbEntity
  8
RACCORDO
100
AcDbLine
 62
7
  6
CONTINUOUS
 10
-119.9595936122
 20
83.2303514936
 30
0.0
 11
-119.9595936122
 21
14.4415967549
 31
0.0
  0
LINE
  5
233
100
AcDbEntity
  8
RACCORDO
100
AcDbLine
 62
250
  6
CONTINUOUS
 10
-119.7838576809
 20
82.9853867376
 30
0.0
 11
-119.7838576809
 21
14.1966320214
 31
0.0
  0
LWPOLYLINE
  5
234
100
AcDbEntity
  8
RACCORDO
100
AcDbPolyline
 62
250
  6
CONTINUOUS
 90
19
 70
0
 10
-119.1483337366
 20
83.3522593765
 10
-119.1468250862
 20
83.3944063952
 10
-119.1423098495
 20
83.4379958738
 10
-119.1348201287
 20
83.4827178131
 10
-119.1244091802
 20
83.5282541593
 10
-119.1111510365
 20
83.5742810635
 10
-119.0951399802
 20
83.6204711846
 10
-119.0764898723
 20
83.6664960223
 10
-119.0553333438
 20
83.7120282479
 10
-119.0318208545
 20
83.7567440307
 10
-119.006119618
 20
83.8003253508
 10
-118.978412416
 20
83.8424622537
 10
-118.9488963024
 20
83.8828550501
 10
-118.9177811918
 20
83.9212164618
 10
-118.8852883732
 20
83.9572736558
 10
-118.8516489414
 20
83.9907701792
 10
-118.8171021426
 20
84.0214677966
 10
-118.781893672
 20
84.0491481826
 10
-118.7462739336
 20
84.0736144674
  0
LWPOLYLINE
  5
235
100
AcDbEntity
  8
RACCORDO
100
AcDbPolyline
 62
7
  6
CONTINUOUS
 90
4
 70
0
 10
-115.1860716766
 20
87.0666959559
 10
-115.1870784779
 20
87.0412562266
 10
-115.1860822472
 20
87.0156951084
 10
-115.1843069516
 20
86.9987810253
  0
LINE
  5
236
100
AcDbEntity
  8
0
100
AcDbLine
 62
250
  6
CONTINUOUS
 10
-104.3229460986
 20
85.1559777163
 30
0.0
 11
-104.1710948761
 21
85.243654709
 31
0.0
  0
LWPOLYLINE
  5
237
100
AcDbEntity
  8
RACCORDO
100
AcDbPolyline
 62
250
  6
CONTINUOUS
 90
11
 70
0
 10
-111.136388613
 20
88.8649250581
 10
-111.1069241357
 20
88.8771905536
 10
-111.0756471534
 20
88.8857852478
 10
-111.0427325896
 20
88.8906610673
 10
-111.0083645278
 20
88.8917907422
 10
-110.9727351739
 20
88.8891679568
 10
-110.9360437774
 20
88.8828073806
 10
-110.8984955298
 20
88.8727445851
 10
-110.8603004158
 20
88.8590358462
 10
-110.8216720385
 20
88.8417578296
 10
-110.7828264235
 20
88.8210071615
  0
LWPOLYLINE
  5
238
100
AcDbEntity
  8
RACCORDO
100
AcDbPolyline
 62
250
  6
CONTINUOUS
 90
10
 70
0
 10
-114.9061503132
 20
86.9837671486
 10
-114.9058399519
 20
86.9745842229
 10
-114.9048999382
 20
86.9657393731
 10
-114.9033197265
 20
86.9572967438
 10
-114.9010756791
 20
86.9492686182
 10
-114.8981743465
 20
86.9417785655
 10
-114.894694556
 20
86.9350191099
 10
-114.8907080265
 20
86.9290474528
 10
-114.8862370381
 20
86.9238275936
 10
-114.8813263518
 20
86.9193649504
  0
LINE
  5
239
100
AcDbEntity
  8
RACCORDO
100
AcDbLine
 62
250
  6
CONTINUOUS
 10
-101.0715898376
 20
60.5507391736
 30
0.0
 11
-101.0674937186
 21
60.564688047
 31
0.0
  0
LWPOLYLINE
  5
23A
100
AcDbEntity
  8
RACCORDO
100
AcDbPolyline
 62
250
  6
CONTINUOUS
 90
9
 70
0
 10
-101.2958542504
 20
15.705450945
 10
-101.2950966344
 20
15.6890084782
 10
-101.292831904
 20
15.6736170569
 10
-101.2890843242
 20
15.6594415895
 10
-101.2838940475
 20
15.6466339563
 10
-101.2773166843
 20
15.6353313823
 10
-101.2694227065
 20
15.6256549666
 10
-101.2602966925
 20
15.6177083855
 10
-101.2544377261
 20
15.6139035728
  0
LWPOLYLINE
  5
23B
100
AcDbEntity
  8
RACCORDO
100
AcDbPolyline
 62
250
  6
CONTINUOUS
 90
9
 70
0
 10
-101.4410860874
 20
60.8480295887
 10
-101.4403284715
 20
60.8315871219
 10
-101.4380637411
 20
60.8161957006
 10
-101.4343161612
 20
60.8020202332
 10
-101.4291258845
 20
60.7892126
 10
-101.4225485214
 20
60.777910026
 10
-101.4146545435
 20
60.7682336104
 10
-101.4055285295
 20
60.7602870292
 10
-101.3996960974
 20
60.7564975452
  0
LWPOLYLINE
  5
23C
100
AcDbEntity
  8
RACCORDO
100
AcDbPolyline
 62
250
  6
CONTINUOUS
 90
19
 70
0
 10
-101.3665541589
 20
15.8279067785
 10
-101.3662292115
 20
15.8204132368
 10
-101.3654200617
 20
15.8128759811
 10
-101.3641267093
 20
15.8052950116
 10
-101.36233465
 20
15.7976469092
 10
-101.3600583881
 20
15.7899550929
 10
-101.3573414373
 20
15.7822898201
 10
-101.3541736411
 20
15.7746196026
 10
-101.3505651559
 20
15.7669759286
 10
-101.3465899643
 20
15.7595235198
 10
-101.3422680293
 20
15.7522919855
 10
-101.3375793878
 20
15.7452517164
 10
-101.3325381335
 20
15.7384786067
 10
-101.3271141376
 20
15.7319294784
 10
-101.3213375288
 20
15.7256475096
 10
-101.3153127877
 20
15.7198381289
 10
-101.309074741
 20
15.7145698127
 10
-101.3025885618
 20
15.7097740848
 10
-101.2958542504
 20
15.705450945
  0
LWPOLYLINE
  5
23D
100
AcDbEntity
  8
RACCORDO
100
AcDbPolyline
 62
7
  6
CONTINUOUS
 90
15
 70
0
 10
-101.4251327761
 20
15.9096211698
 10
-101.4241329632
 20
15.8851787593
 10
-101.4209482255
 20
15.8593208865
 10
-101.4155726722
 20
15.8332981707
 10
-101.4079855216
 20
15.807201668
 10
-101.3984060853
 20
15.7817376573
 10
-101.3868223671
 20
15.7567951814
 10
-101.3732121844
 20
15.7324280572
 10
-101.3580418959
 20
15.7094670049
 10
-101.3413771021
 20
15.687916144
 10
-101.3231319486
 20
15.6677018856
 10
-101.3037909423
 20
15.6493732484
 10
-101.2834249149
 20
15.632955509
 10
-101.2620097632
 20
15.6184286201
 10
-101.2544153587
 20
15.6138906638
  0
LINE
  5
23E
100
AcDbEntity
  8
RACCORDO
100
AcDbLine
 62
250
  6
CONTINUOUS
 10
-101.9359854472
 20
16.0094071468
 30
0.0
 11
-101.9359854472
 21
60.5623361294
 31
0.0
  0
LINE
  5
23F
100
AcDbEntity
  8
RACCORDO
100
AcDbLine
 62
250
  6
CONTINUOUS
 10
-101.6556324168
 20
16.0079945084
 30
0.0
 11
-101.6556324168
 21
60.560923491
 31
0.0
  0
LINE
  5
240
100
AcDbEntity
  8
RACCORDO
100
AcDbLine
 62
7
  6
CONTINUOUS
 10
-101.4251328027
 20
60.167926438
 30
0.0
 11
-101.4251328027
 21
15.9095616972
 31
0.0
  0
LINE
  5
241
100
AcDbEntity
  8
RACCORDO
100
AcDbLine
 62
250
  6
CONTINUOUS
 10
-101.3665541589
 20
60.0862715193
 30
0.0
 11
-101.3665541589
 21
15.8279067785
 31
0.0
  0
LINE
  5
242
100
AcDbEntity
  8
RACCORDO
100
AcDbLine
 62
7
  6
CONTINUOUS
 10
-101.2933965043
 20
60.6951214842
 30
0.0
 11
-101.2933965043
 21
60.3938486426
 31
0.0
  0
LINE
  5
243
100
AcDbEntity
  8
RACCORDO
100
AcDbLine
 62
250
  6
CONTINUOUS
 10
-101.2542251424
 20
60.6725044308
 30
0.0
 11
-101.2542251438
 21
60.4180727995
 31
0.0
  0
LINE
  5
244
100
AcDbEntity
  8
RACCORDO
100
AcDbLine
 62
7
  6
CONTINUOUS
 10
-101.0812644699
 20
60.5726391062
 30
0.0
 11
-101.0812644699
 21
60.5325231943
 31
0.0
  0
LWPOLYLINE
  5
245
100
AcDbEntity
  8
RACCORDO
100
AcDbPolyline
 62
250
  6
CONTINUOUS
 90
12
 70
0
 10
-101.6556323435
 20
60.5609235305
 10
-101.65482174
 20
60.5908714909
 10
-101.6520148838
 20
60.6194348341
 10
-101.6472463885
 20
60.6464632502
 10
-101.6405643973
 20
60.6718114548
 10
-101.6320210388
 20
60.695357985
 10
-101.621668345
 20
60.7170020593
 10
-101.6095828728
 20
60.7366258955
 10
-101.5958378637
 20
60.7541475523
 10
-101.5804786164
 20
60.7695200527
 10
-101.5635906711
 20
60.782656385
 10
-101.5488335144
 20
60.791618571
  0
LWPOLYLINE
  5
246
100
AcDbEntity
  8
RACCORDO
100
AcDbPolyline
 62
250
  6
CONTINUOUS
 90
22
 70
0
 10
-101.9359854472
 20
60.5623361294
 10
-101.934490878
 20
60.6047255098
 10
-101.9303458607
 20
60.6447685761
 10
-101.9235503953
 20
60.6824653283
 10
-101.9140218848
 20
60.7179727044
 10
-101.9018429261
 20
60.7511337664
 10
-101.8872613105
 20
60.7814777005
 10
-101.8702628276
 20
60.8089539727
 10
-101.8508616877
 20
60.833613117
 10
-101.8293483123
 20
60.8551359215
 10
-101.805712264
 20
60.8735005587
 10
-101.7799639803
 20
60.8887288561
 10
-101.752425195
 20
60.9005670842
 10
-101.7230918023
 20
60.9090037972
 10
-101.6919679082
 20
60.9140504408
 10
-101.6593875638
 20
60.915487623
 10
-101.625199233
 20
60.9132364222
 10
-101.5895544519
 20
60.90737576
 10
-101.5532418808
 20
60.8979230084
 10
-101.5165244063
 20
60.884883958
 10
-101.4791391419
 20
60.8682528181
 10
-101.4410860874
 20
60.8480295887
  0
LWPOLYLINE
  5
247
100
AcDbEntity
  8
RACCORDO
100
AcDbPolyline
 62
250
  6
CONTINUOUS
 90
16
 70
0
 10
-101.2958542504
 20
60.1270848707
 10
-101.2950966362
 20
60.1444021928
 10
-101.2928319105
 20
60.1624088491
 10
-101.2890843376
 20
60.1809119112
 10
-101.2838940693
 20
60.1997131321
 10
-101.2773167149
 20
60.2186110703
 10
-101.2694227455
 20
60.2374032479
 10
-101.2602967386
 20
60.25588832
 10
-101.2500364726
 20
60.2738682314
 10
-101.2387518783
 20
60.2911503397
 10
-101.226563862
 20
60.3075494787
 10
-101.2136030095
 20
60.3228899421
 10
-101.2000081874
 20
60.3370073665
 10
-101.1859250547
 20
60.3497504928
 10
-101.1715045025
 20
60.3609827861
 10
-101.1569010371
 20
60.3705838994
  0
LWPOLYLINE
  5
248
100
AcDbEntity
  8
RACCORDO
100
AcDbPolyline
 62
250
  6
CONTINUOUS
 90
16
 70
0
 10
-101.4410860874
 20
15.1522163119
 10
-101.4403284528
 20
15.1695338731
 10
-101.4380636729
 20
15.1875407443
 10
-101.4343160227
 20
15.2060439867
 10
-101.4291256659
 20
15.2248453439
 10
-101.4225482225
 20
15.2437433699
 10
-101.4146541721
 20
15.2625355883
 10
-101.4055281018
 20
15.2810206526
 10
-101.3952677973
 20
15.2990005113
 10
-101.3839831913
 20
15.3162825331
 10
-101.3717951946
 20
15.3326815568
 10
-101.3588343949
 20
15.3480218846
 10
-101.3452396522
 20
15.3621391693
 10
-101.3311566217
 20
15.3748821613
 10
-101.3167361946
 20
15.3861143315
 10
-101.3021328741
 20
15.3957153407
  0
LWPOLYLINE
  5
249
100
AcDbEntity
  8
RACCORDO
100
AcDbPolyline
 62
7
  6
CONTINUOUS
 90
13
 70
0
 10
-101.3103706663
 20
60.3833507617
 10
-101.3229376168
 20
60.3750147431
 10
-101.3392085592
 20
60.362332827
 10
-101.3545108308
 20
60.3480603749
 10
-101.3686641439
 20
60.3322759086
 10
-101.3815039918
 20
60.3150752451
 10
-101.3928955104
 20
60.2965560518
 10
-101.4027229771
 20
60.2768200336
 10
-101.4108584033
 20
60.2560368595
 10
-101.4172065882
 20
60.2343784538
 10
-101.4217187252
 20
60.2119748667
 10
-101.4243661048
 20
60.1889610037
 10
-101.4251327991
 20
60.1679482224
  0
LINE
  5
24A
100
AcDbEntity
  8
RACCORDO
100
AcDbLine
 62
7
  6
CONTINUOUS
 10
-101.310486784
 20
60.3832797573
 30
0.0
 11
-101.0691781333
 21
60.5325086466
 31
0.0
  0
LINE
  5
24B
100
AcDbEntity
  8
RACCORDO
100
AcDbLine
 62
250
  6
CONTINUOUS
 10
-101.1569010371
 20
60.3705838994
 30
0.0
 11
-100.9514098967
 21
60.4976627031
 31
0.0
  0
LWPOLYLINE
  5
24C
100
AcDbEntity
  8
RACCORDO
100
AcDbPolyline
 62
250
  6
CONTINUOUS
 90
5
 70
0
 10
-101.0690395003
 20
60.5325942707
 10
-101.0622583807
 20
60.5364198182
 10
-101.0504939831
 20
60.5415920848
 10
-101.03792513
 20
60.5454625307
 10
-101.0351329874
 20
60.5460033664
  0
LINE
  5
24D
100
AcDbEntity
  8
RACCORDO
100
AcDbLine
 62
7
  6
CONTINUOUS
 10
-101.5488335144
 20
60.791618571
 30
0.0
 11
-101.5487529619
 21
60.791661918
 31
0.0
  0
LINE
  5
24E
100
AcDbEntity
  8
RACCORDO
100
AcDbLine
 62
250
  6
CONTINUOUS
 10
-101.3477394005
 20
60.7264983914
 30
0.0
 11
-101.6556324168
 21
60.560923491
 31
0.0
  0
LWPOLYLINE
  5
24F
100
AcDbEntity
  8
RACCORDO
100
AcDbPolyline
 62
7
  6
CONTINUOUS
 90
13
 70
0
 10
-101.5488228328
 20
60.7916218175
 10
-101.5455105856
 20
60.7931949219
 10
-101.5404812458
 20
60.7948905621
 10
-101.5337527106
 20
60.7962795718
 10
-101.5251311096
 20
60.7970745773
 10
-101.5145158903
 20
60.7969698556
 10
-101.5019129179
 20
60.7956781648
 10
-101.4873305409
 20
60.7929330301
 10
-101.4710593308
 20
60.78855214
 10
-101.4536162423
 20
60.7825205767
 10
-101.4353218835
 20
60.7748757553
 10
-101.4163124637
 20
60.765620591
 10
-101.3996960975
 20
60.7564975452
  0
LINE
  5
250
100
AcDbEntity
  8
0
100
AcDbLine
 62
250
  6
CONTINUOUS
 10
-66.8338822309
 20
63.9865988775
 30
0.0
 11
-67.2463754155
 21
63.7484304824
 31
0.0
  0
LINE
  5
251
100
AcDbEntity
  8
0
100
AcDbLine
 62
250
  6
CONTINUOUS
 10
-66.7746442729
 20
63.952395623
 30
0.0
 11
-67.1871374576
 21
63.7142272279
 31
0.0
  0
LINE
  5
252
100
AcDbEntity
  8
0
100
AcDbLine
 62
7
  6
CONTINUOUS
 10
-76.5812066838
 20
-4.1382903337
 30
0.0
 11
-76.7464950152
 21
-2.0018947789
 31
0.0
  0
LINE
  5
253
100
AcDbEntity
  8
0
100
AcDbLine
 62
7
  6
CONTINUOUS
 10
-77.0179554299
 20
-2.5589642419
 30
0.0
 11
-76.9421507545
 21
-3.929885751
 31
0.0
  0
LINE
  5
254
100
AcDbEntity
  8
0
100
AcDbLine
 62
7
  6
CONTINUOUS
 10
-76.9967422264
 20
-2.5467160041
 30
0.0
 11
-76.9209375511
 21
-3.9176375132
 31
0.0
  0
LINE
  5
255
100
AcDbEntity
  8
0
100
AcDbLine
 62
7
  6
CONTINUOUS
 10
-78.9414258818
 20
-0.7344467349
 30
0.0
 11
-78.9414258818
 21
-2.7755293493
 31
0.0
  0
LINE
  5
256
100
AcDbEntity
  8
0
100
AcDbLine
 62
7
  6
CONTINUOUS
 10
-78.9202126784
 20
-0.7466949727
 30
0.0
 11
-78.9202126784
 21
-2.7632811115
 31
0.0
  0
LINE
  5
257
100
AcDbEntity
  8
0
100
AcDbLine
 62
7
  6
CONTINUOUS
 10
-78.5724625132
 20
-2.9885641742
 30
0.0
 11
-78.5724625132
 21
-0.9474815598
 31
0.0
  0
LINE
  5
258
100
AcDbEntity
  8
0
100
AcDbLine
 62
7
  6
CONTINUOUS
 10
-74.9612331784
 20
-3.0565279394
 30
0.0
 11
-74.9612331784
 21
-5.0736425537
 31
0.0
  0
LINE
  5
259
100
AcDbEntity
  8
0
100
AcDbLine
 62
7
  6
CONTINUOUS
 10
-74.940019975
 20
-3.0652608527
 30
0.0
 11
-74.940019975
 21
-5.0613943159
 31
0.0
  0
LINE
  5
25A
100
AcDbEntity
  8
0
100
AcDbLine
 62
7
  6
CONTINUOUS
 10
-74.6059887598
 20
-4.145777409
 30
0.0
 11
-74.6059887598
 21
-3.5854941524
 31
0.0
  0
LINE
  5
25B
100
AcDbEntity
  8
0
100
AcDbLine
 62
7
  6
CONTINUOUS
 10
-74.5937544924
 20
-5.2858201413
 30
0.0
 11
-74.5937544924
 21
-4.487101219
 31
0.0
  0
LINE
  5
25C
100
AcDbEntity
  8
0
100
AcDbLine
 62
7
  6
CONTINUOUS
 10
-78.020860534
 20
-3.3070522437
 30
0.0
 11
-77.9412381891
 21
-2.0203170844
 31
0.0
  0
LINE
  5
25D
100
AcDbEntity
  8
0
100
AcDbLine
 62
7
  6
CONTINUOUS
 10
-78.2142358538
 20
-1.1544396138
 30
0.0
 11
-78.3738383396
 21
-3.1032472826
 31
0.0
  0
LINE
  5
25E
100
AcDbEntity
  8
0
100
AcDbLine
 62
7
  6
CONTINUOUS
 10
-78.1949382676
 20
-1.1655817982
 30
0.0
 11
-78.3526251362
 21
-3.0909990448
 31
0.0
  0
LINE
  5
25F
100
AcDbEntity
  8
0
100
AcDbLine
 62
7
  6
CONTINUOUS
 10
-79.4470602634
 20
-0.4426222506
 30
0.0
 11
-79.7942857554
 21
-1.6469949192
 31
0.0
  0
LINE
  5
260
100
AcDbEntity
  8
0
100
AcDbLine
 62
7
  6
CONTINUOUS
 10
-79.4319016299
 20
-0.4513746556
 30
0.0
 11
-79.773072552
 21
-1.6347466814
 31
0.0
  0
LINE
  5
261
100
AcDbEntity
  8
0
100
AcDbLine
 62
7
  6
CONTINUOUS
 10
-79.6465202371
 20
-2.3684167054
 30
0.0
 11
-79.0783493318
 21
-0.6555113215
 31
0.0
  0
LINE
  5
262
100
AcDbEntity
  8
0
100
AcDbLine
 62
7
  6
CONTINUOUS
 10
-77.9412381891
 20
-2.0203170844
 30
0.0
 11
-77.5083997435
 21
-3.6029406815
 31
0.0
  0
LINE
  5
263
100
AcDbEntity
  8
0
100
AcDbLine
 62
7
  6
CONTINUOUS
 10
-77.9200249857
 20
-2.0080688466
 30
0.0
 11
-77.4871865401
 21
-3.5906924437
 31
0.0
  0
LINE
  5
264
100
AcDbEntity
  8
0
100
AcDbLine
 62
7
  6
CONTINUOUS
 10
-77.4805114521
 20
-2.7112301424
 30
0.0
 11
-77.8455779553
 21
-1.367298064
 31
0.0
  0
LINE
  5
265
100
AcDbEntity
  8
0
100
AcDbLine
 62
7
  6
CONTINUOUS
 10
-80.5320265237
 20
0.1838236702
 30
0.0
 11
-79.9716691483
 21
-2.1806797992
 31
0.0
  0
LINE
  5
266
100
AcDbEntity
  8
0
100
AcDbLine
 62
7
  6
CONTINUOUS
 10
-80.5040876716
 20
0.1676921272
 30
0.0
 11
-79.9504559449
 21
-2.1684315614
 31
0.0
  0
LINE
  5
267
100
AcDbEntity
  8
0
100
AcDbLine
 62
7
  6
CONTINUOUS
 10
-75.0695785557
 20
-5.0110854697
 30
0.0
 11
-75.6119160219
 21
-2.65698647
 31
0.0
  0
LINE
  5
268
100
AcDbEntity
  8
0
100
AcDbLine
 62
7
  6
CONTINUOUS
 10
-79.7942857554
 20
-1.6469949192
 30
0.0
 11
-80.1312186011
 21
-0.047597801
 31
0.0
  0
LINE
  5
269
100
AcDbEntity
  8
0
100
AcDbLine
 62
7
  6
CONTINUOUS
 10
-75.5540315537
 20
-4.3239203193
 30
0.0
 11
-75.4584505158
 21
-4.7865556737
 31
0.0
  0
LINE
  5
26A
100
AcDbEntity
  8
0
100
AcDbLine
 62
7
  6
CONTINUOUS
 10
-75.5328183502
 20
-4.3116720815
 30
0.0
 11
-75.4372373124
 21
-4.7743074359
 31
0.0
  0
LINE
  5
26B
100
AcDbEntity
  8
0
100
AcDbLine
 62
7
  6
CONTINUOUS
 10
-75.7973123488
 20
-3.1107449946
 30
0.0
 11
-75.6277686488
 21
-3.9660638144
 31
0.0
  0
LINE
  5
26C
100
AcDbEntity
  8
0
100
AcDbLine
 62
7
  6
CONTINUOUS
 10
-75.7760991454
 20
-3.0984967568
 30
0.0
 11
-75.6065554454
 21
-3.9538155766
 31
0.0
  0
LINE
  5
26D
100
AcDbEntity
  8
0
100
AcDbLine
 62
7
  6
CONTINUOUS
 10
-74.0126466771
 20
-4.6686425836
 30
0.0
 11
-74.0126466771
 21
-4.6565822906
 31
0.0
  0
LWPOLYLINE
  5
26E
100
AcDbEntity
  8
0
100
AcDbPolyline
 62
7
  6
CONTINUOUS
 90
11
 70
0
 10
-74.1085193267
 20
-4.1158457459
 10
-74.1093155535
 20
-4.1438990806
 10
-74.1117028738
 20
-4.1701412604
 10
-74.1156812875
 20
-4.1945722853
 10
-74.121375429
 20
-4.2173613545
 10
-74.1286606639
 20
-4.2383392689
 10
-74.1371630892
 20
-4.2569984302
 10
-74.1468062892
 20
-4.2731985537
 10
-74.1576666796
 20
-4.2870799241
 10
-74.1695996038
 20
-4.2985557984
 10
-74.1829309001
 20
-4.307848979
  0
LWPOLYLINE
  5
26F
100
AcDbEntity
  8
0
100
AcDbPolyline
 62
7
  6
CONTINUOUS
 90
11
 70
0
 10
-74.0873061232
 20
-4.1035975081
 10
-74.0881234159
 20
-4.1320387051
 10
-74.0905830364
 20
-4.1586258831
 10
-74.0946849846
 20
-4.1833590422
 10
-74.1006215936
 20
-4.206473216
 10
-74.1082005303
 20
-4.2277333709
 10
-74.1168447964
 20
-4.2464344056
 10
-74.1264160147
 20
-4.2622555849
 10
-74.1370525623
 20
-4.275517644
 10
-74.1485925721
 20
-4.2864776872
 10
-74.1617076546
 20
-4.2955949503
  0
LINE
  5
270
100
AcDbEntity
  8
0
100
AcDbLine
 62
7
  6
CONTINUOUS
 10
-75.9810250546
 20
-3.762097993
 30
0.0
 11
-75.7973123488
 21
-3.1107449946
 31
0.0
  0
LINE
  5
271
100
AcDbEntity
  8
0
100
AcDbLine
 62
7
  6
CONTINUOUS
 10
-76.1583094525
 20
-4.3824658949
 30
0.0
 11
-76.0564980968
 21
-4.0338024346
 31
0.0
  0
LINE
  5
272
100
AcDbEntity
  8
0
100
AcDbLine
 62
7
  6
CONTINUOUS
 10
-75.968843726
 20
-2.450900887
 30
0.0
 11
-76.5232691826
 21
-4.1717427208
 31
0.0
  0
LINE
  5
273
100
AcDbEntity
  8
0
100
AcDbLine
 62
7
  6
CONTINUOUS
 10
-75.9542849738
 20
-2.4593069281
 30
0.0
 11
-76.5020559792
 21
-4.159494483
 31
0.0
  0
LINE
  5
274
100
AcDbEntity
  8
0
100
AcDbLine
 62
7
  6
CONTINUOUS
 10
-77.1115480834
 20
-1.7911177125
 30
0.0
 11
-77.4805114521
 21
-2.7112301424
 31
0.0
  0
LINE
  5
275
100
AcDbEntity
  8
0
100
AcDbLine
 62
7
  6
CONTINUOUS
 10
-77.0975045877
 20
-1.7967491281
 30
0.0
 11
-77.4592982487
 21
-2.6989819046
 31
0.0
  0
LINE
  5
276
100
AcDbEntity
  8
0
100
AcDbLine
 62
7
  6
CONTINUOUS
 10
-77.4566522551
 20
-3.6328190328
 30
0.0
 11
-77.0179554299
 21
-2.5589642419
 31
0.0
  0
LINE
  5
277
100
AcDbEntity
  8
RACCORDO
100
AcDbLine
 62
250
  6
CONTINUOUS
 10
-101.6556324168
 20
16.0079945084
 30
0.0
 11
-101.4251328027
 21
16.1410816555
 31
0.0
  0
LINE
  5
278
100
AcDbEntity
  8
RACCORDO
100
AcDbLine
 62
250
  6
CONTINUOUS
 10
-101.3021328741
 20
15.3957153407
 30
0.0
 11
-101.089340569
 21
15.5185785434
 31
0.0
  0
LWPOLYLINE
  5
279
100
AcDbEntity
  8
0
100
AcDbPolyline
 62
7
  6
CONTINUOUS
 90
6
 70
0
 10
-74.1900766905
 20
-4.9000127717
 10
-74.1715270194
 20
-4.9733155223
 10
-74.153327891
 20
-5.0480635507
 10
-74.1354793055
 20
-5.1242568571
 10
-74.118240932
 20
-5.2018848494
 10
-74.0840368055
 20
-5.3615084437
  0
LWPOLYLINE
  5
27A
100
AcDbEntity
  8
0
100
AcDbPolyline
 62
7
  6
CONTINUOUS
 90
6
 70
0
 10
-74.1688634871
 20
-4.8877645339
 10
-74.1503126415
 20
-4.9610729397
 10
-74.1321188588
 20
-5.035796828
 10
-74.114282139
 20
-5.1119361987
 10
-74.0970704536
 20
-5.1894426176
 10
-74.0629143574
 20
-5.3488472053
  0
LINE
  5
27B
100
AcDbEntity
  8
0
100
AcDbLine
 62
7
  6
CONTINUOUS
 10
-74.0840368055
 20
-5.3615084437
 30
0.0
 11
-74.0287381187
 21
-5.6120535142
 31
0.0
  0
LINE
  5
27C
100
AcDbEntity
  8
0
100
AcDbLine
 62
7
  6
CONTINUOUS
 10
-74.0629143574
 20
-5.3488472053
 30
0.0
 11
-74.0075249152
 21
-5.5998052764
 31
0.0
  0
LINE
  5
27D
100
AcDbEntity
  8
0
100
AcDbLine
 62
7
  6
CONTINUOUS
 10
-73.7565482618
 20
-5.4047553608
 30
0.0
 11
-73.7999719002
 21
-5.1917390494
 31
0.0
  0
LINE
  5
27E
100
AcDbEntity
  8
0
100
AcDbLine
 62
7
  6
CONTINUOUS
 10
-73.6738383273
 20
-5.8169682058
 30
0.0
 11
-73.7565482618
 21
-5.4047553608
 31
0.0
  0
LWPOLYLINE
  5
27F
100
AcDbEntity
  8
0
100
AcDbPolyline
 62
7
  6
CONTINUOUS
 90
19
 70
0
 10
-73.7999719002
 20
-5.1917390494
 10
-73.8074918853
 20
-5.1535617858
 10
-73.8154475627
 20
-5.1162475763
 10
-73.8238389325
 20
-5.0797964211
 10
-73.832614076
 20
-5.0441517499
 10
-73.8418249118
 20
-5.0093701329
 10
-73.8516271961
 20
-4.9756212805
 10
-73.8620613634
 20
-4.9429299989
 10
-73.8730869791
 20
-4.9112714818
 10
-73.884738496
 20
-4.8807410206
 10
-73.8970728211
 20
-4.851244569
 10
-73.9100330473
 20
-4.8228761733
 10
-73.9234829066
 20
-4.7960132645
 10
-73.9374342038
 20
-4.7707284423
 10
-73.951875134
 20
-4.746949107
 10
-73.9666340147
 20
-4.7248348903
 10
-73.9816536184
 20
-4.7044390028
 10
-73.9969911725
 20
-4.6857082339
 10
-74.0126466771
 20
-4.6686425836
  0
LWPOLYLINE
  5
280
100
AcDbEntity
  8
RACCORDO
100
AcDbPolyline
 62
250
  6
CONTINUOUS
 90
9
 70
0
 10
-52.8187689078
 20
-12.2846105712
 10
-52.8180112937
 20
-12.3010530196
 10
-52.815746568
 20
-12.3164444274
 10
-52.8119989951
 20
-12.3306198862
 10
-52.8068087267
 20
-12.3434275154
 10
-52.8002313724
 20
-12.3547300896
 10
-52.792337403
 20
-12.3644065092
 10
-52.7832113961
 20
-12.3723530973
 10
-52.7773523836
 20
-12.3761579434
  0
LINE
  5
281
100
AcDbEntity
  8
RACCORDO
100
AcDbLine
 62
250
  6
CONTINUOUS
 10
-52.7480689993
 20
-12.2437972199
 30
0.0
 11
-52.7480689993
 21
32.0145675209
 31
0.0
  0
LWPOLYLINE
  5
282
100
AcDbEntity
  8
RACCORDO
100
AcDbPolyline
 62
250
  6
CONTINUOUS
 90
16
 70
0
 10
-52.8187689078
 20
32.1370233545
 10
-52.8180112919
 20
32.1543406971
 10
-52.8157465615
 20
32.1723473724
 10
-52.8119989816
 20
32.1908504511
 10
-52.806808705
 20
32.2096516856
 10
-52.8002313418
 20
32.2285496338
 10
-52.792337364
 20
32.2473418171
 10
-52.78321135
 20
32.2658268905
 10
-52.7729510788
 20
32.2838067991
 10
-52.761666482
 20
32.3010889007
 10
-52.7494784664
 20
32.3174880295
 10
-52.736517618
 20
32.3328284803
 10
-52.7229228033
 20
32.3469458907
 10
-52.7088396814
 20
32.3596890025
 10
-52.6944191431
 20
32.370921282
 10
-52.6798156946
 20
32.3805223832
  0
LINE
  5
283
100
AcDbEntity
  8
RACCORDO
100
AcDbLine
 62
250
  6
CONTINUOUS
 10
-52.6798156946
 20
32.3805223832
 30
0.0
 11
-52.4940816066
 21
32.4877625622
 31
0.0
  0
LINE
  5
284
100
AcDbEntity
  8
RACCORDO
100
AcDbLine
 62
250
  6
CONTINUOUS
 10
-52.467715969
 20
32.0131548825
 30
0.0
 11
-52.2750617226
 21
32.124390661
 31
0.0
  0
LWPOLYLINE
  5
285
100
AcDbEntity
  8
0
100
AcDbPolyline
 62
7
  6
CONTINUOUS
 90
16
 70
0
 10
-74.0506882234
 20
-3.6037533209
 10
-74.0957132532
 20
-3.5610134961
 10
-74.143116355
 20
-3.5192715681
 10
-74.1928975287
 20
-3.478527537
 10
-74.2451433838
 20
-3.4388447058
 10
-74.2997673108
 20
-3.4001597714
 10
-74.3565094817
 20
-3.3622828247
 10
-74.4152832034
 20
-3.3251424208
 10
-74.476175169
 20
-3.2888100046
 10
-74.5391856291
 20
-3.253310002
 10
-74.6043333376
 20
-3.218699132
 10
-74.6715995406
 20
-3.1849206756
 10
-74.7409282273
 20
-3.1518289012
 10
-74.8123007274
 20
-3.1193752318
 10
-74.8857357111
 20
-3.0876082446
 10
-74.9612331784
 20
-3.0565279394
  0
LWPOLYLINE
  5
286
100
AcDbEntity
  8
RACCORDO
100
AcDbPolyline
 62
250
  6
CONTINUOUS
 90
19
 70
0
 10
-52.467715969
 20
32.0131548825
 10
-52.4687606285
 20
32.0351973685
 10
-52.4714024134
 20
32.0577661428
 10
-52.4755640098
 20
32.0806635596
 10
-52.4811308652
 20
32.1035979356
 10
-52.488024761
 20
32.1264895871
 10
-52.4962660268
 20
32.1494792442
 10
-52.5058458965
 20
32.1725078062
 10
-52.5166650595
 20
32.1953058214
 10
-52.5286477978
 20
32.2177046135
 10
-52.5416437465
 20
32.2394358279
 10
-52.5556194575
 20
32.2604547299
 10
-52.5707020684
 20
32.2808977967
 10
-52.5868950092
 20
32.3006579974
 10
-52.6040389577
 20
32.3194325186
 10
-52.6220336916
 20
32.3370180914
 10
-52.6407584274
 20
32.3532037699
 10
-52.6600711813
 20
32.3677750567
 10
-52.6798156946
 20
32.3805223832
  0
LWPOLYLINE
  5
287
100
AcDbEntity
  8
RACCORDO
100
AcDbPolyline
 62
250
  6
CONTINUOUS
 90
9
 70
0
 10
-52.6735370708
 20
32.6902579875
 10
-52.6727794362
 20
32.6738153238
 10
-52.6705146562
 20
32.6584237638
 10
-52.666767006
 20
32.6442482138
 10
-52.6615766492
 20
32.6314405506
 10
-52.6549992058
 20
32.6201379914
 10
-52.6471051554
 20
32.6104616244
 10
-52.6379790851
 20
32.6025151173
 10
-52.6321205465
 20
32.5987106152
  0
LWPOLYLINE
  5
288
100
AcDbEntity
  8
RACCORDO
100
AcDbPolyline
 62
250
  6
CONTINUOUS
 90
19
 70
0
 10
-52.7480689993
 20
32.0145675209
 10
-52.7483939466
 20
32.0220610627
 10
-52.7492030965
 20
32.0295983183
 10
-52.7504964488
 20
32.0371792878
 10
-52.7522885082
 20
32.0448273902
 10
-52.7545647701
 20
32.0525192065
 10
-52.7572817209
 20
32.0601844793
 10
-52.7604495171
 20
32.0678546968
 10
-52.7640580023
 20
32.0754983708
 10
-52.7680331939
 20
32.0829507796
 10
-52.7723551289
 20
32.090182314
 10
-52.7770437704
 20
32.0972225831
 10
-52.7820850247
 20
32.1039956927
 10
-52.7875090206
 20
32.110544821
 10
-52.7932856294
 20
32.1168267899
 10
-52.7993103705
 20
32.1226361705
 10
-52.8055484172
 20
32.1279044867
 10
-52.8120345963
 20
32.1327002147
 10
-52.8187689078
 20
32.1370233545
  0
LINE
  5
289
100
AcDbEntity
  8
RACCORDO
100
AcDbLine
 62
250
  6
CONTINUOUS
 10
-52.467715969
 20
-12.2452098583
 30
0.0
 11
-52.467715969
 21
32.0131548825
 31
0.0
  0
LINE
  5
28A
100
AcDbEntity
  8
RACCORDO
100
AcDbLine
 62
7
  6
CONTINUOUS
 10
-52.2372163548
 20
31.9147220713
 30
0.0
 11
-52.2372163548
 21
-12.6382069114
 31
0.0
  0
LINE
  5
28B
100
AcDbEntity
  8
RACCORDO
100
AcDbLine
 62
250
  6
CONTINUOUS
 10
-52.178637711
 20
31.8330671526
 30
0.0
 11
-52.178637711
 21
-12.71986183
 31
0.0
  0
LWPOLYLINE
  5
28C
100
AcDbEntity
  8
RACCORDO
100
AcDbPolyline
 62
7
  6
CONTINUOUS
 90
13
 70
0
 10
-52.237216346
 20
-12.638241137
 10
-52.2376122691
 20
-12.6569294617
 10
-52.2390905846
 20
-12.67805547
 10
-52.241609338
 20
-12.6977524293
 10
-52.2451041421
 20
-12.7159012961
 10
-52.2494452833
 20
-12.7322153332
 10
-52.2543614604
 20
-12.7462493898
 10
-52.2595517405
 20
-12.757836093
 10
-52.2647781309
 20
-12.7671051623
 10
-52.2697842808
 20
-12.7741931697
 10
-52.2743589073
 20
-12.7793302449
 10
-52.2783473042
 20
-12.7828371308
 10
-52.2813609192
 20
-12.7849184847
  0
LWPOLYLINE
  5
28D
100
AcDbEntity
  8
RACCORDO
100
AcDbPolyline
 62
250
  6
CONTINUOUS
 90
4
 70
0
 10
-52.178637711
 20
-12.71986183
 10
-52.179626754
 20
-12.7561599842
 10
-52.1827040587
 20
-12.791007763
 10
-52.1878696251
 20
-12.8244051663
  0
LWPOLYLINE
  5
28E
100
AcDbEntity
  8
RACCORDO
100
AcDbPolyline
 62
250
  6
CONTINUOUS
 90
16
 70
0
 10
-52.6735370708
 20
-13.0055552893
 10
-52.6727794549
 20
-12.9882379466
 10
-52.6705147245
 20
-12.9702312714
 10
-52.6667671446
 20
-12.9517281927
 10
-52.661576868
 20
-12.9329269582
 10
-52.6549995048
 20
-12.91402901
 10
-52.647105527
 20
-12.8952368266
 10
-52.637979513
 20
-12.8767517532
 10
-52.6277192418
 20
-12.8587718446
 10
-52.616434645
 20
-12.841489743
 10
-52.6042466294
 20
-12.8250906142
 10
-52.5912857809
 20
-12.8097501635
 10
-52.5776909663
 20
-12.7956327531
 10
-52.5636078443
 20
-12.7828896413
 10
-52.5491873061
 20
-12.7716573618
 10
-52.5345838576
 20
-12.7620562606
  0
LWPOLYLINE
  5
28F
100
AcDbEntity
  8
RACCORDO
100
AcDbPolyline
 62
250
  6
CONTINUOUS
 90
22
 70
0
 10
-52.1878696251
 20
-12.8244051663
 10
-52.1951594565
 20
-12.8565548609
 10
-52.2045375496
 20
-12.8872541802
 10
-52.2158958949
 20
-12.9158951239
 10
-52.2292740836
 20
-12.9423922157
 10
-52.2446325244
 20
-12.9668309321
 10
-52.2617444343
 20
-12.9888597027
 10
-52.2806415489
 20
-13.0084294036
 10
-52.3012921326
 20
-13.0255891588
 10
-52.3233741956
 20
-13.0401347695
 10
-52.3469374593
 20
-13.0520127042
 10
-52.3719322022
 20
-13.0612764944
 10
-52.3978872708
 20
-13.0678825367
 10
-52.4246247748
 20
-13.0718186785
 10
-52.4523226044
 20
-13.0730970723
 10
-52.4810432761
 20
-13.0717105724
 10
-52.5108607753
 20
-13.0677256569
 10
-52.5417011166
 20
-13.0610758478
 10
-52.5734048607
 20
-13.0515545644
 10
-52.6059188612
 20
-13.0390929469
 10
-52.6392962646
 20
-13.0237598551
 10
-52.6735370708
 20
-13.0055552893
  0
LWPOLYLINE
  5
290
100
AcDbEntity
  8
RACCORDO
100
AcDbPolyline
 62
250
  6
CONTINUOUS
 90
10
 70
0
 10
-29.6057443607
 20
37.8064386481
 10
-29.620752343
 20
37.7766982198
 10
-29.6266055538
 20
37.762719376
 10
-29.6316193745
 20
37.7497342686
 10
-29.6356995872
 20
37.7379412181
 10
-29.6384111101
 20
37.7273329313
 10
-29.6400768869
 20
37.7182352971
 10
-29.6406965801
 20
37.7108053807
 10
-29.6399464256
 20
37.7049850259
 10
-29.6377073364
 20
37.7007676841
  0
LWPOLYLINE
  5
291
100
AcDbEntity
  8
RACCORDO
100
AcDbPolyline
 62
250
  6
CONTINUOUS
 90
9
 70
0
 10
-29.5284094985
 20
37.9192863214
 10
-29.5384951494
 20
37.9049912497
 10
-29.5487485315
 20
37.8931574903
 10
-29.5582489929
 20
37.8818336615
 10
-29.5671769859
 20
37.8685189268
 10
-29.5769592615
 20
37.8528535366
 10
-29.5878695351
 20
37.8372033339
 10
-29.5977103245
 20
37.8220815822
 10
-29.6057443607
 20
37.8064386481
  0
LWPOLYLINE
  5
292
100
AcDbEntity
  8
RACCORDO
100
AcDbPolyline
 62
250
  6
CONTINUOUS
 90
13
 70
0
 10
-28.2527935283
 20
36.6653885056
 10
-28.2666370312
 20
36.6531248215
 10
-28.2819016917
 20
36.6420975475
 10
-28.2983395579
 20
36.6324857919
 10
-28.3156836215
 20
36.6244456703
 10
-28.3336521626
 20
36.6181077661
 10
-28.3519533264
 20
36.6135750128
 10
-28.370289849
 20
36.6109210264
 10
-28.3883638973
 20
36.6101889056
 10
-28.4058819138
 20
36.6113905345
 10
-28.422559365
 20
36.6145063911
 10
-28.4381253642
 20
36.6194858606
 10
-28.4523270826
 20
36.6262480586
  0
LWPOLYLINE
  5
293
100
AcDbEntity
  8
RACCORDO
100
AcDbPolyline
 62
250
  6
CONTINUOUS
 90
13
 70
0
 10
-29.8668295535
 20
38.1806647076
 10
-29.8802412947
 20
38.1712534224
 10
-29.8933612757
 20
38.1600585836
 10
-29.9059772911
 20
38.1472612611
 10
-29.9178852881
 20
38.1330684422
 10
-29.9288926638
 20
38.1177096871
 10
-29.9388213815
 20
38.1014334164
 10
-29.9475108539
 20
38.0845028877
 10
-29.9548205386
 20
38.0671919386
 10
-29.9606322093
 20
38.0497805623
 10
-29.9648518705
 20
38.0325503734
 10
-29.9674112769
 20
38.0157800532
 10
-29.968269036
 20
37.999740845
  0
LINE
  5
294
100
AcDbEntity
  8
RACCORDO
100
AcDbLine
 62
250
  6
CONTINUOUS
 10
-25.4122212999
 20
38.9288814657
 30
0.0
 11
-26.2381825459
 21
38.435037399
 31
0.0
  0
LINE
  5
295
100
AcDbEntity
  8
0
100
AcDbLine
 62
250
  6
CONTINUOUS
 10
-29.5892828502
 20
42.0056971894
 30
0.0
 11
-29.4374316276
 21
42.0933741821
 31
0.0
  0
LINE
  5
296
100
AcDbEntity
  8
RACCORDO
100
AcDbLine
 62
250
  6
CONTINUOUS
 10
-27.205273992
 20
39.7174011061
 30
0.0
 11
-29.8668295535
 21
38.1806647076
 31
0.0
  0
LINE
  5
297
100
AcDbEntity
  8
RACCORDO
100
AcDbLine
 62
250
  6
CONTINUOUS
 10
-34.5642296186
 20
35.4679571287
 30
0.0
 11
-30.2516652829
 21
37.9579537611
 31
0.0
  0
LINE
  5
298
100
AcDbEntity
  8
RACCORDO
100
AcDbLine
 62
250
  6
CONTINUOUS
 10
-33.5050230448
 20
33.6333575289
 30
0.0
 11
-28.4381622351
 21
36.5588713001
 31
0.0
  0
LINE
  5
299
100
AcDbEntity
  8
RACCORDO
100
AcDbLine
 62
250
  6
CONTINUOUS
 10
-26.1456233337
 20
37.8820323296
 30
0.0
 11
-28.2527935283
 21
36.6653885056
 31
0.0
  0
LINE
  5
29A
100
AcDbEntity
  8
0
100
AcDbLine
 62
250
  6
CONTINUOUS
 10
-25.3560892599
 20
34.035176359
 30
0.0
 11
-24.9435418056
 21
34.2733760886
 31
0.0
  0
LINE
  5
29B
100
AcDbEntity
  8
RACCORDO
100
AcDbLine
 62
250
  6
CONTINUOUS
 10
-25.9320336315
 20
39.8292228336
 30
0.0
 11
-26.7726918428
 21
39.3607805522
 31
0.0
  0
LWPOLYLINE
  5
29C
100
AcDbEntity
  8
RACCORDO
100
AcDbPolyline
 62
250
  6
CONTINUOUS
 90
11
 70
0
 10
-27.9954011922
 20
35.3508961349
 10
-28.0102570495
 20
35.3439862174
 10
-28.0265116926
 20
35.3382208511
 10
-28.0439022161
 20
35.3336932861
 10
-28.0621473427
 20
35.330476752
 10
-28.0809519725
 20
35.3286232736
 10
-28.1000119561
 20
35.3281628293
 10
-28.119019014
 20
35.3291028665
 10
-28.1376657228
 20
35.3314281809
 10
-28.1556504874
 20
35.3351011623
 10
-28.1627933994
 20
35.3371818252
  0
LWPOLYLINE
  5
29D
100
AcDbEntity
  8
RACCORDO
100
AcDbPolyline
 62
250
  6
CONTINUOUS
 90
19
 70
0
 10
-34.3307654773
 20
-35.1429124381
 10
-34.2935093406
 20
-35.1626814795
 10
-34.2535008103
 20
-35.1805677388
 10
-34.2110244264
 20
-35.1964440092
 10
-34.1663822801
 20
-35.2101973791
 10
-34.1198918657
 20
-35.2217300345
 10
-34.0718838221
 20
-35.2309599556
 10
-34.0226995817
 20
-35.2378214993
 10
-33.9726889419
 20
-35.2422658664
 10
-33.9222075776
 20
-35.2442614486
 10
-33.8716145112
 20
-35.2437940535
 10
-33.8212695599
 20
-35.240867005
 10
-33.771530776
 20
-35.2355011204
 10
-33.7227519008
 20
-35.2277345616
 10
-33.6752798489
 20
-35.2176225644
 10
-33.6294522406
 20
-35.2052370451
 10
-33.5855950012
 20
-35.1906660892
 10
-33.5440200424
 20
-35.1740133252
 10
-33.5050230448
 20
-35.1553971872
  0
LWPOLYLINE
  5
29E
100
AcDbEntity
  8
RACCORDO
100
AcDbPolyline
 62
250
  6
CONTINUOUS
 90
28
 70
0
 10
-34.9662894216
 20
-35.5097850771
 10
-34.9289625965
 20
-35.5300218736
 10
-34.8921019668
 20
-35.5475819472
 10
-34.8557075327
 20
-35.5624652979
 10
-34.8196960684
 20
-35.5746860216
 10
-34.7841507996
 20
-35.5842300223
 10
-34.7493214034
 20
-35.5910550127
 10
-34.7151754689
 20
-35.5951527458
 10
-34.681745407
 20
-35.5965314686
 10
-34.6493781281
 20
-35.5951736347
 10
-34.6180899417
 20
-35.5910506258
 10
-34.5878645382
 20
-35.5841910601
 10
-34.5589999003
 20
-35.5746632466
 10
-34.531508294
 20
-35.5624402604
 10
-34.5053774532
 20
-35.5475490263
 10
-34.4808685615
 20
-35.5301386267
 10
-34.4580098154
 20
-35.5102131442
 10
-34.4367730185
 20
-35.4877684963
 10
-34.4173347648
 20
-35.4629415173
 10
-34.3996850573
 20
-35.4356939041
 10
-34.3838338932
 20
-35.4060639599
 10
-34.3699878578
 20
-35.3743034289
 10
-34.3581664445
 20
-35.3403698915
 10
-34.3483501601
 20
-35.3043057673
 10
-34.3406871105
 20
-35.2664900596
 10
-34.3352266646
 20
-35.2270491027
 10
-34.3319194535
 20
-35.1858565622
 10
-34.3307654773
 20
-35.1429124381
  0
LWPOLYLINE
  5
29F
100
AcDbEntity
  8
RACCORDO
100
AcDbPolyline
 62
7
  6
CONTINUOUS
 90
16
 70
0
 10
-34.8420288782
 20
-35.7844335277
 10
-34.8012027635
 20
-35.807124386
 10
-34.7267910109
 20
-35.8440492694
 10
-34.6519608329
 20
-35.8755650058
 10
-34.5768326189
 20
-35.9016584782
 10
-34.5015958764
 20
-35.9223040924
 10
-34.426591133
 20
-35.9374588097
 10
-34.3520241448
 20
-35.9471351687
 10
-34.2781407112
 20
-35.9513647448
 10
-34.2054627661
 20
-35.9502079669
 10
-34.1343212976
 20
-35.9437909105
 10
-34.0649762066
 20
-35.9322755816
 10
-33.9979105526
 20
-35.9159160197
 10
-33.9334713437
 20
-35.8950095303
 10
-33.8718402922
 20
-35.8698405571
 10
-33.8643262443
 20
-35.8664022282
  0
LINE
  5
2A0
100
AcDbEntity
  8
RACCORDO
100
AcDbLine
 62
7
  6
CONTINUOUS
 10
-119.0240841639
 20
12.8212301449
 30
0.0
 11
-34.8420398294
 21
-35.784427205
 31
0.0
  0
LINE
  5
2A1
100
AcDbEntity
  8
RACCORDO
100
AcDbLine
 62
250
  6
CONTINUOUS
 10
-119.1483337366
 20
13.0958722616
 30
0.0
 11
-34.9662894216
 21
-35.5097850771
 31
0.0
  0
LINE
  5
2A2
100
AcDbEntity
  8
0
100
AcDbLine
 62
7
  6
CONTINUOUS
 10
-79.9716691483
 20
-2.1806797992
 30
0.0
 11
-79.6465202371
 21
-2.3684167054
 31
0.0
  0
LINE
  5
2A3
100
AcDbEntity
  8
0
100
AcDbLine
 62
7
  6
CONTINUOUS
 10
-78.9414258818
 20
-2.7755293493
 30
0.0
 11
-78.5724625132
 21
-2.9885641742
 31
0.0
  0
LINE
  5
2A4
100
AcDbEntity
  8
0
100
AcDbLine
 62
7
  6
CONTINUOUS
 10
-78.3738383396
 20
-3.1032472826
 30
0.0
 11
-78.020860534
 21
-3.3070522437
 31
0.0
  0
LINE
  5
2A5
100
AcDbEntity
  8
0
100
AcDbLine
 62
7
  6
CONTINUOUS
 10
-77.5083997435
 20
-3.6029406815
 30
0.0
 11
-77.4566522551
 21
-3.6328190328
 31
0.0
  0
LINE
  5
2A6
100
AcDbEntity
  8
0
100
AcDbLine
 62
7
  6
CONTINUOUS
 10
-76.9421507545
 20
-3.929885751
 30
0.0
 11
-76.5812066838
 21
-4.1382903337
 31
0.0
  0
LINE
  5
2A7
100
AcDbEntity
  8
0
100
AcDbLine
 62
7
  6
CONTINUOUS
 10
-76.5232691826
 20
-4.1717427208
 30
0.0
 11
-76.1583094525
 21
-4.3824658949
 31
0.0
  0
LINE
  5
2A8
100
AcDbEntity
  8
0
100
AcDbLine
 62
7
  6
CONTINUOUS
 10
-75.4584505158
 20
-4.7865556737
 30
0.0
 11
-75.0695785557
 21
-5.0110854697
 31
0.0
  0
LINE
  5
2A9
100
AcDbEntity
  8
0
100
AcDbLine
 62
7
  6
CONTINUOUS
 10
-74.9612331784
 20
-5.0736425537
 30
0.0
 11
-74.5937544924
 21
-5.2858201413
 31
0.0
  0
LINE
  5
2AA
100
AcDbEntity
  8
0
100
AcDbLine
 62
7
  6
CONTINUOUS
 10
-74.0287381187
 20
-5.6120535142
 30
0.0
 11
-73.6738383273
 21
-5.8169682058
 31
0.0
  0
LINE
  5
2AB
100
AcDbEntity
  8
0
100
AcDbLine
 62
7
  6
CONTINUOUS
 10
-79.9504559449
 20
-2.1684315614
 30
0.0
 11
-79.6397008072
 21
-2.3478576832
 31
0.0
  0
LINE
  5
2AC
100
AcDbEntity
  8
0
100
AcDbLine
 62
7
  6
CONTINUOUS
 10
-78.9202126784
 20
-2.7632811115
 30
0.0
 11
-78.5724625132
 21
-2.9640676986
 31
0.0
  0
LINE
  5
2AD
100
AcDbEntity
  8
0
100
AcDbLine
 62
7
  6
CONTINUOUS
 10
-78.3526251362
 20
-3.0909990448
 30
0.0
 11
-78.0193969976
 21
-3.2834007957
 31
0.0
  0
LINE
  5
2AE
100
AcDbEntity
  8
0
100
AcDbLine
 62
7
  6
CONTINUOUS
 10
-77.4871865401
 20
-3.5906924437
 30
0.0
 11
-77.4460446283
 21
-3.6144472679
 31
0.0
  0
LINE
  5
2AF
100
AcDbEntity
  8
0
100
AcDbLine
 62
7
  6
CONTINUOUS
 10
-76.9209375511
 20
-3.9176375132
 30
0.0
 11
-76.583190545
 21
-4.1126484015
 31
0.0
  0
LINE
  5
2B0
100
AcDbEntity
  8
0
100
AcDbLine
 62
7
  6
CONTINUOUS
 10
-76.5020559792
 20
-4.159494483
 30
0.0
 11
-76.1521883794
 21
-4.3615036503
 31
0.0
  0
LINE
  5
2B1
100
AcDbEntity
  8
0
100
AcDbLine
 62
7
  6
CONTINUOUS
 10
-75.4372373124
 20
-4.7743074359
 30
0.0
 11
-75.0760879217
 21
-4.9828305678
 31
0.0
  0
LINE
  5
2B2
100
AcDbEntity
  8
0
100
AcDbLine
 62
7
  6
CONTINUOUS
 10
-74.940019975
 20
-5.0613943159
 30
0.0
 11
-74.5937544924
 21
-5.2613236657
 31
0.0
  0
LINE
  5
2B3
100
AcDbEntity
  8
0
100
AcDbLine
 62
7
  6
CONTINUOUS
 10
-74.0075249152
 20
-5.5998052764
 30
0.0
 11
-73.6794463223
 21
-5.7892337442
 31
0.0
  0
LWPOLYLINE
  5
2B4
100
AcDbEntity
  8
RACCORDO
100
AcDbPolyline
 62
250
  6
CONTINUOUS
 90
10
 70
0
 10
-119.7838576809
 20
14.1966320214
 10
-119.8180961893
 20
14.2181430587
 10
-119.8490739208
 20
14.2412432948
 10
-119.8765705548
 20
14.2657684485
 10
-119.9003905267
 20
14.2915441041
 10
-119.9203644184
 20
14.3183869509
 10
-119.9363501638
 20
14.3461060864
 10
-119.9482340609
 20
14.3745043768
 10
-119.9559315788
 20
14.4033798559
 10
-119.9592723582
 20
14.431552306
  0
LWPOLYLINE
  5
2B5
100
AcDbEntity
  8
0
100
AcDbPolyline
 62
7
  6
CONTINUOUS
 90
16
 70
0
 10
-74.395925197
 20
-4.6013253748
 10
-74.3774205034
 20
-4.6130056629
 10
-74.3596639749
 20
-4.6257711001
 10
-74.3426556115
 20
-4.6396216863
 10
-74.3264284225
 20
-4.6545332881
 10
-74.3109493985
 20
-4.6705300389
 10
-74.2961195119
 20
-4.6876843394
 10
-74.2819649691
 20
-4.7059180438
 10
-74.2684595636
 20
-4.7253092978
 10
-74.255425648
 20
-4.7461649389
 10
-74.2426814677
 20
-4.7686854619
 10
-74.2304087773
 20
-4.792670372
 10
-74.2189751927
 20
-4.8178250227
 10
-74.2085032528
 20
-4.8440511985
 10
-74.1988704187
 20
-4.8714471148
 10
-74.1900766905
 20
-4.9000127717
  0
LWPOLYLINE
  5
2B6
100
AcDbEntity
  8
0
100
AcDbPolyline
 62
7
  6
CONTINUOUS
 90
16
 70
0
 10
-74.3747119935
 20
-4.589077137
 10
-74.3563771452
 20
-4.6006684213
 10
-74.3388224602
 20
-4.6132588286
 10
-74.3220479386
 20
-4.6268483587
 10
-74.3061388217
 20
-4.6413469386
 10
-74.2910098681
 20
-4.6568446415
 10
-74.2764053538
 20
-4.6736116867
 10
-74.2622884793
 20
-4.6916019126
 10
-74.2486960442
 20
-4.7108614809
 10
-74.2354827236
 20
-4.7317990964
 10
-74.2224152635
 20
-4.7547627217
 10
-74.2097269179
 20
-4.7794043942
 10
-74.1979721237
 20
-4.8050889301
 10
-74.1873356934
 20
-4.8316046013
 10
-74.1776328145
 20
-4.859163136
 10
-74.1688634871
 20
-4.8877645339
  0
LWPOLYLINE
  5
2B7
100
AcDbEntity
  8
0
100
AcDbPolyline
 62
7
  6
CONTINUOUS
 90
19
 70
0
 10
-74.2957260792
 20
-3.7281250819
 10
-74.275341847
 20
-3.743706953
 10
-74.2557518623
 20
-3.7603609742
 10
-74.2369561251
 20
-3.7780871457
 10
-74.2187860666
 20
-3.7971460725
 10
-74.2014102557
 20
-3.8172771495
 10
-74.1853343983
 20
-3.8376985609
 10
-74.1708045988
 20
-3.8580719934
 10
-74.1575747528
 20
-3.8787357604
 10
-74.1454122534
 20
-3.8999229862
 10
-74.1342275929
 20
-3.9217257207
 10
-74.1241102789
 20
-3.9440519141
 10
-74.115096228
 20
-3.9668585412
 10
-74.1070843071
 20
-3.9905054769
 10
-74.1001756493
 20
-4.0146328463
 10
-74.0947095705
 20
-4.0381179992
 10
-74.0907991758
 20
-4.0605867187
 10
-74.0883313601
 20
-4.0824132217
 10
-74.0873061232
 20
-4.1035975081
  0
LWPOLYLINE
  5
2B8
100
AcDbEntity
  8
0
100
AcDbPolyline
 62
7
  6
CONTINUOUS
 90
19
 70
0
 10
-74.3169392826
 20
-3.7403733197
 10
-74.2966646542
 20
-3.7558845514
 10
-74.2772080354
 20
-3.7724058517
 10
-74.2585694261
 20
-3.7899372206
 10
-74.2406470347
 20
-3.8086355933
 10
-74.2235426529
 20
-3.8283440346
 10
-74.2075616559
 20
-3.8485917392
 10
-74.1928041981
 20
-3.8692329184
 10
-74.179170125
 20
-3.8904133608
 10
-74.166664349
 20
-3.9120996275
 10
-74.155266696
 20
-3.9343696776
 10
-74.14499734
 20
-3.957145552
 10
-74.1359217148
 20
-3.9801599347
 10
-74.1279930333
 20
-4.0035783326
 10
-74.1212580825
 20
-4.0272352388
 10
-74.115922657
 20
-4.0503668169
 10
-74.112055355
 20
-4.0727184547
 10
-74.1095875782
 20
-4.0945447644
 10
-74.1085193267
 20
-4.1158457459
  0
LWPOLYLINE
  5
2B9
100
AcDbEntity
  8
RACCORDO
100
AcDbPolyline
 62
250
  6
CONTINUOUS
 90
5
 70
0
 10
-52.1964782958
 20
31.9955942258
 10
-52.1888708306
 20
31.9545946196
 10
-52.1834046842
 20
31.9138958108
 10
-52.1799936444
 20
31.8733866551
 10
-52.178637711
 20
31.8330671526
  0
LWPOLYLINE
  5
2BA
100
AcDbEntity
  8
RACCORDO
100
AcDbPolyline
 62
250
  6
CONTINUOUS
 90
28
 70
0
 10
-33.5050230448
 20
33.6333575289
 10
-33.5081372348
 20
33.7050899074
 10
-33.5147586876
 20
33.7785045031
 10
-33.5248334886
 20
33.8533430829
 10
-33.5382782771
 20
33.9292749473
 10
-33.5550308775
 20
34.0061074353
 10
-33.5750811055
 20
34.0837968362
 10
-33.5983888933
 20
34.1621733984
 10
-33.6248548165
 20
34.2408945242
 10
-33.6543877909
 20
34.3196618026
 10
-33.6868821153
 20
34.3982001027
 10
-33.7222295277
 20
34.4762626978
 10
-33.7603182222
 20
34.5535940657
 10
-33.801023675
 20
34.6299394065
 10
-33.8442063711
 20
34.7050417748
 10
-33.8897201156
 20
34.7786469198
 10
-33.937369793
 20
34.8504438118
 10
-33.9870375803
 20
34.9202613761
 10
-34.0386972197
 20
34.9880475904
 10
-34.0922418573
 20
35.0536154867
 10
-34.1474571003
 20
35.1166594198
 10
-34.2041575564
 20
35.1769404268
 10
-34.2621857189
 20
35.2342478548
 10
-34.3213314729
 20
35.2883373535
 10
-34.3813181197
 20
35.3389431493
 10
-34.4419181826
 20
35.3858575754
 10
-34.502956928
 20
35.4289184549
 10
-34.5642296186
 20
35.4679571287
  0
LWPOLYLINE
  5
2BB
100
AcDbEntity
  8
RACCORDO
100
AcDbPolyline
 62
250
  6
CONTINUOUS
 90
11
 70
0
 10
-34.9662894216
 20
-35.5097850771
 10
-34.9647807632
 20
-35.5501899395
 10
-34.9602655194
 20
-35.5885653318
 10
-34.9527757924
 20
-35.6246383257
 10
-34.9423648385
 20
-35.6581523664
 10
-34.9291066903
 20
-35.688869096
 10
-34.9130956306
 20
-35.7165700486
 10
-34.8944455201
 20
-35.7410582077
 10
-34.8732889901
 20
-35.7621594036
 10
-34.8497765004
 20
-35.7797235529
 10
-34.8420398294
 20
-35.784427205
  0
LWPOLYLINE
  5
2BC
100
AcDbEntity
  8
RACCORDO
100
AcDbPolyline
 62
250
  6
CONTINUOUS
 90
28
 70
0
 10
-34.3307654773
 20
33.645842278
 10
-34.3319045491
 20
33.6895998804
 10
-34.3351286854
 20
33.7340230739
 10
-34.3404378861
 20
33.7791118587
 10
-34.3478615604
 20
33.8249793128
 10
-34.3573702991
 20
33.8715123582
 10
-34.3688758748
 20
33.9183717602
 10
-34.3824016368
 20
33.9656084245
 10
-34.3979242358
 20
34.0131714454
 10
-34.4152853959
 20
34.0605688719
 10
-34.4345017466
 20
34.1077914739
 10
-34.4555566584
 20
34.1548484813
 10
-34.4782419667
 20
34.2012756332
 10
-34.5025748558
 20
34.2470686884
 10
-34.5285381415
 20
34.292231888
 10
-34.5558721058
 20
34.3363136951
 10
-34.5845591134
 20
34.3792713698
 10
-34.6146167997
 20
34.421147652
 10
-34.645838353
 20
34.4616192244
 10
-34.6782619451
 20
34.5007196703
 10
-34.7118494043
 20
34.5384154065
 10
-34.7462794038
 20
34.5742823661
 10
-34.7815789339
 20
34.608313625
 10
-34.8177210044
 20
34.6405161073
 10
-34.8543033182
 20
34.6704865191
 10
-34.8911917761
 20
34.6980904292
 10
-34.9285204772
 20
34.7234622687
 10
-34.9662894216
 20
34.7466020379
  0
LINE
  5
2BD
100
AcDbEntity
  8
RACCORDO
100
AcDbLine
 62
250
  6
CONTINUOUS
 10
-34.3307654773
 20
-35.1429124381
 30
0.0
 11
-34.3307654773
 21
33.645842278
 31
0.0
  0
LINE
  5
2BE
100
AcDbEntity
  8
RACCORDO
100
AcDbLine
 62
250
  6
CONTINUOUS
 10
-33.5050230448
 20
-35.1553971872
 30
0.0
 11
-33.5050230448
 21
33.6333575289
 31
0.0
  0
LWPOLYLINE
  5
2BF
100
AcDbEntity
  8
RACCORDO
100
AcDbPolyline
 62
250
  6
CONTINUOUS
 90
19
 70
0
 10
-34.9662894216
 20
34.7466020379
 10
-34.9647807423
 20
34.7887494089
 10
-34.9602654342
 20
34.8323392136
 10
-34.9527756099
 20
34.8770614421
 10
-34.9423645371
 20
34.9225980306
 10
-34.9291062591
 20
34.9686251237
 10
-34.9130950684
 20
35.0148153776
 10
-34.8944448365
 20
35.060840288
 10
-34.8732882035
 20
35.1063725265
 10
-34.8497756349
 20
35.1510882686
 10
-34.8240743517
 20
35.1946694969
 10
-34.796367141
 20
35.2368062623
 10
-34.766851056
 20
35.2771988889
 10
-34.7357360146
 20
35.3155601051
 10
-34.7032433064
 20
35.3516170866
 10
-34.6696040189
 20
35.3851133967
 10
-34.6350573942
 20
35.4158108104
 10
-34.5998491272
 20
35.4434910081
 10
-34.5642296186
 20
35.4679571287
  0
LWPOLYLINE
  5
2C0
100
AcDbEntity
  8
RACCORDO
100
AcDbPolyline
 62
250
  6
CONTINUOUS
 90
13
 70
0
 10
-29.6625312989
 20
37.7651698832
 10
-29.6581953556
 20
37.7784012266
 10
-29.6513425892
 20
37.7916891402
 10
-29.642447586
 20
37.8051744147
 10
-29.6331805268
 20
37.8198285879
 10
-29.6230145428
 20
37.8347329594
 10
-29.61016684
 20
37.8481897759
 10
-29.5949343519
 20
37.8621345409
 10
-29.5812888825
 20
37.8767085479
 10
-29.5702677283
 20
37.8881147152
 10
-29.5586485361
 20
37.8964457665
 10
-29.5444062331
 20
37.9057371472
 10
-29.5284094985
 20
37.9192863214
  0
LWPOLYLINE
  5
2C1
100
AcDbEntity
  8
RACCORDO
100
AcDbPolyline
 62
250
  6
CONTINUOUS
 90
7
 70
0
 10
-52.2372163548
 20
-12.2034806431
 10
-52.2377382396
 20
-12.2044554642
 10
-52.2457033514
 20
-12.2164654544
 10
-52.2545535835
 20
-12.22720889
 10
-52.264135347
 20
-12.2365872741
 10
-52.2743838461
 20
-12.2445433142
 10
-52.2834849097
 20
-12.2500935255
  0
LWPOLYLINE
  5
2C2
100
AcDbEntity
  8
0
100
AcDbPolyline
 62
7
  6
CONTINUOUS
 90
46
 70
0
 10
-73.9013596162
 20
-4.6273985477
 10
-73.8980523666
 20
-4.6254456073
 10
-73.8903759056
 20
-4.6207008974
 10
-73.8826964978
 20
-4.6154383382
 10
-73.8750081277
 20
-4.6096529579
 10
-73.8673168109
 20
-4.6033497283
 10
-73.8596867256
 20
-4.5963776984
 10
-73.8521178255
 20
-4.5887223503
 10
-73.8446101569
 20
-4.5803982021
 10
-73.8372280364
 20
-4.571297857
 10
-73.8299641245
 20
-4.5614270408
 10
-73.8228257607
 20
-4.5507800279
 10
-73.8158992801
 20
-4.5392322448
 10
-73.809168593
 20
-4.5267817824
 10
-73.8026497892
 20
-4.5134305499
 10
-73.7964774726
 20
-4.4990597016
 10
-73.7906441205
 20
-4.4836790497
 10
-73.7851572558
 20
-4.4672787821
 10
-73.7801740507
 20
-4.4497106168
 10
-73.7756889895
 20
-4.4309902399
 10
-73.7717075881
 20
-4.4111019654
 10
-73.7684035667
 20
-4.3898504537
 10
-73.7657634495
 20
-4.3672229147
 10
-73.7638007125
 20
-4.3432321384
 10
-73.762729504
 20
-4.3177211548
 10
-73.7625081792
 20
-4.2906860986
 10
-73.763178383
 20
-4.2621308351
 10
-73.7650791989
 20
-4.2319099893
 10
-73.768136025
 20
-4.199964074
 10
-73.7724234632
 20
-4.1663525765
 10
-73.7785044037
 20
-4.1311085833
 10
-73.7864983008
 20
-4.093922347
 10
-73.7962857002
 20
-4.0551036149
 10
-73.8080711289
 20
-4.0156147162
 10
-73.822066058
 20
-3.9753320432
 10
-73.8380590164
 20
-3.9343792035
 10
-73.8556201181
 20
-3.8940893483
 10
-73.8748914561
 20
-3.8545322409
 10
-73.8957309373
 20
-3.815638118
 10
-73.917282397
 20
-3.7785308411
 10
-73.939599045
 20
-3.7432852287
 10
-73.9626276715
 20
-3.7098264624
 10
-73.985352482
 20
-3.6790539478
 10
-74.0074348785
 20
-3.651267487
 10
-74.0292134589
 20
-3.626167278
 10
-74.0506882234
 20
-3.6037533209
  0
LINE
  5
2C3
100
AcDbEntity
  8
0
100
AcDbLine
 62
7
  6
CONTINUOUS
 10
-79.7942857554
 20
-1.6469949192
 30
0.0
 11
-79.773072552
 21
-1.6347466814
 31
0.0
  0
LINE
  5
2C4
100
AcDbEntity
  8
0
100
AcDbLine
 62
7
  6
CONTINUOUS
 10
-79.9716691483
 20
-2.1806797992
 30
0.0
 11
-79.9504559449
 21
-2.1684315614
 31
0.0
  0
LINE
  5
2C5
100
AcDbEntity
  8
0
100
AcDbLine
 62
7
  6
CONTINUOUS
 10
-77.9412381891
 20
-2.0203170844
 30
0.0
 11
-77.9200249857
 21
-2.0080688466
 31
0.0
  0
LINE
  5
2C6
100
AcDbEntity
  8
0
100
AcDbLine
 62
7
  6
CONTINUOUS
 10
-78.9414258818
 20
-2.7755293493
 30
0.0
 11
-78.9202126784
 21
-2.7632811115
 31
0.0
  0
LINE
  5
2C7
100
AcDbEntity
  8
0
100
AcDbLine
 62
7
  6
CONTINUOUS
 10
-78.3738383396
 20
-3.1032472826
 30
0.0
 11
-78.3526251362
 21
-3.0909990448
 31
0.0
  0
LINE
  5
2C8
100
AcDbEntity
  8
0
100
AcDbLine
 62
7
  6
CONTINUOUS
 10
-77.4805114521
 20
-2.7112301424
 30
0.0
 11
-77.4592982487
 21
-2.6989819046
 31
0.0
  0
LINE
  5
2C9
100
AcDbEntity
  8
0
100
AcDbLine
 62
7
  6
CONTINUOUS
 10
-77.0179554299
 20
-2.5589642419
 30
0.0
 11
-76.9967422264
 21
-2.5467160041
 31
0.0
  0
LINE
  5
2CA
100
AcDbEntity
  8
0
100
AcDbLine
 62
7
  6
CONTINUOUS
 10
-77.5083997435
 20
-3.6029406815
 30
0.0
 11
-77.4871865401
 21
-3.5906924437
 31
0.0
  0
LINE
  5
2CB
100
AcDbEntity
  8
0
100
AcDbLine
 62
7
  6
CONTINUOUS
 10
-75.7973123488
 20
-3.1107449946
 30
0.0
 11
-75.7760991454
 21
-3.0984967568
 31
0.0
  0
LINE
  5
2CC
100
AcDbEntity
  8
0
100
AcDbLine
 62
7
  6
CONTINUOUS
 10
-76.9421507545
 20
-3.929885751
 30
0.0
 11
-76.9209375511
 21
-3.9176375132
 31
0.0
  0
LINE
  5
2CD
100
AcDbEntity
  8
0
100
AcDbLine
 62
7
  6
CONTINUOUS
 10
-76.5232691826
 20
-4.1717427208
 30
0.0
 11
-76.5020559792
 21
-4.159494483
 31
0.0
  0
LINE
  5
2CE
100
AcDbEntity
  8
0
100
AcDbLine
 62
7
  6
CONTINUOUS
 10
-76.0564980968
 20
-4.0338024346
 30
0.0
 11
-76.0352848934
 21
-4.0215541968
 31
0.0
  0
LINE
  5
2CF
100
AcDbEntity
  8
0
100
AcDbLine
 62
7
  6
CONTINUOUS
 10
-75.6277686488
 20
-3.9660638144
 30
0.0
 11
-75.6065554454
 21
-3.9538155766
 31
0.0
  0
LINE
  5
2D0
100
AcDbEntity
  8
0
100
AcDbLine
 62
7
  6
CONTINUOUS
 10
-74.6059887598
 20
-3.5854941524
 30
0.0
 11
-74.5847755563
 21
-3.5732459146
 31
0.0
  0
LINE
  5
2D1
100
AcDbEntity
  8
0
100
AcDbLine
 62
7
  6
CONTINUOUS
 10
-75.5540315537
 20
-4.3239203193
 30
0.0
 11
-75.5328183502
 21
-4.3116720815
 31
0.0
  0
LINE
  5
2D2
100
AcDbEntity
  8
0
100
AcDbLine
 62
250
  6
CONTINUOUS
 10
-74.3169392826
 20
-3.7403733197
 30
0.0
 11
-74.2957260792
 21
-3.7281250819
 31
0.0
  0
LINE
  5
2D3
100
AcDbEntity
  8
0
100
AcDbLine
 62
7
  6
CONTINUOUS
 10
-75.4584505158
 20
-4.7865556737
 30
0.0
 11
-75.4372373124
 21
-4.7743074359
 31
0.0
  0
LINE
  5
2D4
100
AcDbEntity
  8
0
100
AcDbLine
 62
250
  6
CONTINUOUS
 10
-74.1085193267
 20
-4.1158457459
 30
0.0
 11
-74.0873061232
 21
-4.1035975081
 31
0.0
  0
LINE
  5
2D5
100
AcDbEntity
  8
0
100
AcDbLine
 62
7
  6
CONTINUOUS
 10
-74.5937544924
 20
-4.487101219
 30
0.0
 11
-74.572541289
 21
-4.4748529812
 31
0.0
  0
LINE
  5
2D6
100
AcDbEntity
  8
0
100
AcDbLine
 62
250
  6
CONTINUOUS
 10
-74.395925197
 20
-4.6013253748
 30
0.0
 11
-74.3747119935
 21
-4.589077137
 31
0.0
  0
LINE
  5
2D7
100
AcDbEntity
  8
0
100
AcDbLine
 62
7
  6
CONTINUOUS
 10
-74.9612331784
 20
-5.0736425537
 30
0.0
 11
-74.940019975
 21
-5.0613943159
 31
0.0
  0
LINE
  5
2D8
100
AcDbEntity
  8
0
100
AcDbLine
 62
7
  6
CONTINUOUS
 10
-74.0126466771
 20
-4.6565822906
 30
0.0
 11
-73.9914334737
 21
-4.6443340528
 31
0.0
  0
LINE
  5
2D9
100
AcDbEntity
  8
0
100
AcDbLine
 62
250
  6
CONTINUOUS
 10
-74.1900766905
 20
-4.9000127717
 30
0.0
 11
-74.1688634871
 21
-4.8877645339
 31
0.0
  0
LINE
  5
2DA
100
AcDbEntity
  8
0
100
AcDbLine
 62
7
  6
CONTINUOUS
 10
-74.0287381187
 20
-5.6120535142
 30
0.0
 11
-74.0075249152
 21
-5.5998052764
 31
0.0
  0
LWPOLYLINE
  5
2DB
100
AcDbEntity
  8
RACCORDO
100
AcDbPolyline
 62
250
  6
CONTINUOUS
 90
19
 70
0
 10
-52.8187689078
 20
-12.2846105712
 10
-52.8124415906
 20
-12.2878886801
 10
-52.8063185395
 20
-12.2904897574
 10
-52.8003997545
 20
-12.2924138031
 10
-52.7946722064
 20
-12.2936515924
 10
-52.7891489244
 20
-12.2942123501
 10
-52.7838689963
 20
-12.2941237508
 10
-52.7788102302
 20
-12.2933868808
 10
-52.773994818
 20
-12.292000654
 10
-52.7695284227
 20
-12.2899894867
 10
-52.7654267048
 20
-12.2873673872
 10
-52.7616740038
 20
-12.2841203473
 10
-52.7583290006
 20
-12.2802307587
 10
-52.7553693665
 20
-12.2756767251
 10
-52.7528174301
 20
-12.2704801428
 10
-52.7507988585
 20
-12.2646890931
 10
-52.7493555407
 20
-12.2583196028
 10
-52.7484455876
 20
-12.2513556451
 10
-52.7480689993
 20
-12.2437972199
  0
LWPOLYLINE
  5
2DC
100
AcDbEntity
  8
RACCORDO
100
AcDbPolyline
 62
250
  6
CONTINUOUS
 90
16
 70
0
 10
-52.7480689993
 20
-12.2437972199
 10
-52.7326924861
 20
-12.25180055
 10
-52.7159654898
 20
-12.2588432542
 10
-52.6980672285
 20
-12.2648498746
 10
-52.6791894697
 20
-12.2697560546
 10
-52.6595344755
 20
-12.2735092278
 10
-52.6393128355
 20
-12.2760691815
 10
-52.6187412106
 20
-12.2774084877
 10
-52.5980400116
 20
-12.2775127966
 10
-52.5774310373
 20
-12.2763809905
 10
-52.5571350988
 20
-12.2740251961
 10
-52.5373696528
 20
-12.270470654
 10
-52.5183464725
 20
-12.2657554487
 10
-52.500269378
 20
-12.2599301003
 10
-52.4833320529
 20
-12.2530570234
 10
-52.467715969
 20
-12.2452098583
  0
LWPOLYLINE
  5
2DD
100
AcDbEntity
  8
RACCORDO
100
AcDbPolyline
 62
250
  6
CONTINUOUS
 90
16
 70
0
 10
-101.9359854472
 20
16.0094071468
 10
-101.920608934
 20
16.0014038167
 10
-101.9038819376
 20
15.9943611126
 10
-101.8859836763
 20
15.9883544921
 10
-101.8671059175
 20
15.9834483121
 10
-101.8474509233
 20
15.979695139
 10
-101.8272292834
 20
15.9771351852
 10
-101.8066576585
 20
15.975795879
 10
-101.7859564595
 20
15.9756915702
 10
-101.7653474852
 20
15.9768233762
 10
-101.7450515466
 20
15.9791791706
 10
-101.7252861007
 20
15.9827337127
 10
-101.7062629204
 20
15.987448918
 10
-101.6881858259
 20
15.9932742664
 10
-101.6712485008
 20
16.0001473433
 10
-101.6556324168
 20
16.0079945084
  0
LWPOLYLINE
  5
2DE
100
AcDbEntity
  8
RACCORDO
100
AcDbPolyline
 62
7
  6
CONTINUOUS
 90
13
 70
0
 10
-52.7773316918
 20
-12.3761698857
 10
-52.7589334802
 20
-12.3859250458
 10
-52.7376694459
 20
-12.3951626612
 10
-52.715999936
 20
-12.4024768866
 10
-52.6940540454
 20
-12.4078255753
 10
-52.6719674417
 20
-12.4111881
 10
-52.6499405835
 20
-12.4125582452
 10
-52.6281860389
 20
-12.4119604513
 10
-52.6068492383
 20
-12.4094445719
 10
-52.5860828868
 20
-12.4050816689
 10
-52.5660535121
 20
-12.3989658619
 10
-52.5469201148
 20
-12.3912133751
 10
-52.5334262314
 20
-12.3845039253
  0
LINE
  5
2DF
100
AcDbEntity
  8
0
100
AcDbLine
 62
7
  6
CONTINUOUS
 10
-76.0564980968
 20
-4.0338024346
 30
0.0
 11
-75.5540315537
 21
-4.3239203193
 31
0.0
  0
LINE
  5
2E0
100
AcDbEntity
  8
0
100
AcDbLine
 62
7
  6
CONTINUOUS
 10
-76.0352848934
 20
-4.0215541968
 30
0.0
 11
-75.5328183502
 21
-4.3116720815
 31
0.0
  0
LINE
  5
2E1
100
AcDbEntity
  8
0
100
AcDbLine
 62
7
  6
CONTINUOUS
 10
-75.6277686488
 20
-3.9660638144
 30
0.0
 11
-75.9810250546
 21
-3.762097993
 31
0.0
  0
LINE
  5
2E2
100
AcDbEntity
  8
0
100
AcDbLine
 62
7
  6
CONTINUOUS
 10
-74.5937544924
 20
-4.487101219
 30
0.0
 11
-74.395925197
 21
-4.6013253748
 31
0.0
  0
LINE
  5
2E3
100
AcDbEntity
  8
0
100
AcDbLine
 62
7
  6
CONTINUOUS
 10
-74.572541289
 20
-4.4748529812
 30
0.0
 11
-74.3747119935
 21
-4.589077137
 31
0.0
  0
LINE
  5
2E4
100
AcDbEntity
  8
0
100
AcDbLine
 62
7
  6
CONTINUOUS
 10
-74.3951299033
 20
-4.26752467
 30
0.0
 11
-74.6059887598
 21
-4.145777409
 31
0.0
  0
LINE
  5
2E5
100
AcDbEntity
  8
0
100
AcDbLine
 62
7
  6
CONTINUOUS
 10
-75.6119160219
 20
-2.65698647
 30
0.0
 11
-75.968843726
 21
-2.450900887
 31
0.0
  0
LINE
  5
2E6
100
AcDbEntity
  8
0
100
AcDbLine
 62
7
  6
CONTINUOUS
 10
-76.7464950152
 20
-2.0018947789
 30
0.0
 11
-77.1115480834
 21
-1.7911177125
 31
0.0
  0
LINE
  5
2E7
100
AcDbEntity
  8
0
100
AcDbLine
 62
7
  6
CONTINUOUS
 10
-77.8455779553
 20
-1.367298064
 30
0.0
 11
-78.2142358538
 21
-1.1544396138
 31
0.0
  0
LINE
  5
2E8
100
AcDbEntity
  8
0
100
AcDbLine
 62
7
  6
CONTINUOUS
 10
-79.0783493318
 20
-0.6555113215
 30
0.0
 11
-79.4470602634
 21
-0.4426222506
 31
0.0
  0
LINE
  5
2E9
100
AcDbEntity
  8
0
100
AcDbLine
 62
7
  6
CONTINUOUS
 10
-80.1312186011
 20
-0.047597801
 30
0.0
 11
-80.5320265237
 21
0.1838236702
 31
0.0
  0
LINE
  5
2EA
100
AcDbEntity
  8
0
100
AcDbLine
 62
7
  6
CONTINUOUS
 10
-78.5724625132
 20
-0.9474815598
 30
0.0
 11
-78.9414258818
 21
-0.7344467349
 31
0.0
  0
LINE
  5
2EB
100
AcDbEntity
  8
RACCORDO
100
AcDbLine
 62
250
  6
CONTINUOUS
 10
-52.6735370708
 20
-13.0055552893
 30
0.0
 11
-101.4410860874
 21
15.1522163119
 31
0.0
  0
LINE
  5
2EC
100
AcDbEntity
  8
RACCORDO
100
AcDbLine
 62
250
  6
CONTINUOUS
 10
-52.5345838576
 20
-12.7620562606
 30
0.0
 11
-101.3021328741
 21
15.3957153407
 31
0.0
  0
LINE
  5
2ED
100
AcDbEntity
  8
RACCORDO
100
AcDbLine
 62
7
  6
CONTINUOUS
 10
-101.2544377261
 20
15.6139035728
 30
0.0
 11
-52.7773523836
 21
-12.3761579434
 31
0.0
  0
LINE
  5
2EE
100
AcDbEntity
  8
RACCORDO
100
AcDbLine
 62
250
  6
CONTINUOUS
 10
-101.2958542504
 20
15.705450945
 30
0.0
 11
-52.8187689078
 21
-12.2846105712
 31
0.0
  0
LINE
  5
2EF
100
AcDbEntity
  8
RACCORDO
100
AcDbLine
 62
7
  6
CONTINUOUS
 10
-52.4974854203
 20
-12.3651761747
 30
0.0
 11
-52.2372163548
 21
-12.5154522712
 31
0.0
  0
LINE
  5
2F0
100
AcDbEntity
  8
RACCORDO
100
AcDbLine
 62
7
  6
CONTINUOUS
 10
-52.2372163548
 20
-12.3136990374
 30
0.0
 11
-52.3078693832
 21
-12.2729048643
 31
0.0
  0
LINE
  5
2F1
100
AcDbEntity
  8
RACCORDO
100
AcDbLine
 62
7
  6
CONTINUOUS
 10
-52.2961419726
 20
-12.2569001843
 30
0.0
 11
-52.2372163548
 21
-12.2909198097
 31
0.0
  0
LWPOLYLINE
  5
2F2
100
AcDbEntity
  8
RACCORDO
100
AcDbPolyline
 62
250
  6
CONTINUOUS
 90
25
 70
0
 10
-101.3021328251
 20
15.395715369
 10
-101.3249348884
 20
15.4095338269
 10
-101.3477681043
 20
15.4250815484
 10
-101.3705375901
 20
15.4423222453
 10
-101.3931884236
 20
15.4612451397
 10
-101.4155762814
 20
15.4817665417
 10
-101.4374751859
 20
15.5037042353
 10
-101.4587638145
 20
15.5269366547
 10
-101.4793783153
 20
15.5513902076
 10
-101.4991920589
 20
15.5769169642
 10
-101.5181204082
 20
15.6034016661
 10
-101.5360873278
 20
15.6307278273
 10
-101.5529929976
 20
15.6587310762
 10
-101.5687851813
 20
15.6873122925
 10
-101.5833907833
 20
15.7163202896
 10
-101.5967053661
 20
15.7455028443
 10
-101.6086248256
 20
15.7745463686
 10
-101.6192115837
 20
15.8035126274
 10
-101.6285808329
 20
15.832715113
 10
-101.636686122
 20
15.8621177504
 10
-101.6434304539
 20
15.8915086555
 10
-101.6487790156
 20
15.9209259149
 10
-101.6526541218
 20
15.950279057
 10
-101.6549636136
 20
15.979356028
 10
-101.6556323642
 20
16.0079945388
  0
LWPOLYLINE
  5
2F3
100
AcDbEntity
  8
RACCORDO
100
AcDbPolyline
 62
250
  6
CONTINUOUS
 90
25
 70
0
 10
-101.4410860874
 20
15.1522163119
 10
-101.473016793
 20
15.1717947128
 10
-101.5047356281
 20
15.1936620216
 10
-101.5362425924
 20
15.2178182381
 10
-101.5677312097
 20
15.2444166721
 10
-101.5990079562
 20
15.2733040139
 10
-101.6294922618
 20
15.3040203347
 10
-101.6591298965
 20
15.3365800376
 10
-101.6879750901
 20
15.3709687194
 10
-101.7156099616
 20
15.4066832429
 10
-101.7420078362
 20
15.4437448503
 10
-101.7671953886
 20
15.4821322993
 10
-101.7908347615
 20
15.5212787255
 10
-101.8129044566
 20
15.5612291275
 10
-101.833425972
 20
15.6019385067
 10
-101.8521259453
 20
15.6427050031
 10
-101.868904898
 20
15.6832657757
 10
-101.8838623084
 20
15.7238836654
 10
-101.8970232493
 20
15.7646453344
 10
-101.9084822906
 20
15.8056908144
 10
-101.9181448624
 20
15.8468800737
 10
-101.9257523276
 20
15.8878796798
 10
-101.931218474
 20
15.9285784886
 10
-101.9346295138
 20
15.9690876443
 10
-101.9359854472
 20
16.0094071468
  0
LWPOLYLINE
  5
2F4
100
AcDbEntity
  8
RACCORDO
100
AcDbPolyline
 62
250
  6
CONTINUOUS
 90
9
 70
0
 10
-101.3665541589
 20
15.8279067785
 10
-101.3804154251
 20
15.8367849738
 10
-101.3926129514
 20
15.846442921
 10
-101.4030160489
 20
15.8567771424
 10
-101.4115132551
 20
15.8676769146
 10
-101.4180135276
 20
15.8790254543
 10
-101.4224472195
 20
15.8907011705
 10
-101.4247668259
 20
15.9025789662
 10
-101.4251328027
 20
15.9095616972
  0
LWPOLYLINE
  5
2F5
100
AcDbEntity
  8
RACCORDO
100
AcDbPolyline
 62
250
  6
CONTINUOUS
 90
9
 70
0
 10
-52.178637711
 20
-12.71986183
 10
-52.1924991536
 20
-12.7109835094
 10
-52.2046967844
 20
-12.7013254391
 10
-52.2150999224
 20
-12.6909911052
 10
-52.2235971137
 20
-12.6800912394
 10
-52.2300973287
 20
-12.6687426299
 10
-52.2345309345
 20
-12.65706687
 10
-52.2368504392
 20
-12.6451890599
 10
-52.237216346
 20
-12.638241137
  0
LWPOLYLINE
  5
2F6
100
AcDbEntity
  8
RACCORDO
100
AcDbPolyline
 62
7
  6
CONTINUOUS
 90
22
 70
0
 10
-25.3560892599
 20
39.0090988731
 10
-25.357526466
 20
39.0546707456
 10
-25.3617579645
 20
39.100636223
 10
-25.3686685596
 20
39.1468354094
 10
-25.3781640914
 20
39.1931776904
 10
-25.3901425741
 20
39.2394805449
 10
-25.4044551448
 20
39.2854293685
 10
-25.4209553927
 20
39.3307936854
 10
-25.4395568585
 20
39.3755093584
 10
-25.4601737701
 20
39.4194732213
 10
-25.4826982533
 20
39.4625215571
 10
-25.5070392417
 20
39.5045223624
 10
-25.5331486059
 20
39.5454014282
 10
-25.5609543176
 20
39.5850255334
 10
-25.5903585268
 20
39.62322128
 10
-25.6212947404
 20
39.6598552895
 10
-25.6537160883
 20
39.6948046179
 10
-25.6875167102
 20
39.7278749465
 10
-25.722566561
 20
39.7588581109
 10
-25.7587855458
 20
39.7875966338
 10
-25.7961217173
 20
39.8139459972
 10
-25.8344969425
 20
39.8377308648
  0
LWPOLYLINE
  5
2F7
100
AcDbEntity
  8
0
100
AcDbPolyline
 62
7
  6
CONTINUOUS
 90
28
 70
0
 10
-26.1456233337
 20
37.8820323296
 10
-26.1473983676
 20
37.9542223915
 10
-26.1527759376
 20
38.0283325572
 10
-26.1617448683
 20
38.1041254101
 10
-26.1742977526
 20
38.1814766521
 10
-26.190394281
 20
38.2600157973
 10
-26.2099114326
 20
38.3391111885
 10
-26.2326888367
 20
38.4182863052
 10
-26.2586592411
 20
38.4974737292
 10
-26.2878084961
 20
38.5766473926
 10
-26.320036779
 20
38.6555481009
 10
-26.3552329354
 20
38.7339100111
 10
-26.3934031179
 20
38.8116950927
 10
-26.434566781
 20
38.8888554604
 10
-26.478493489
 20
38.9648930132
 10
-26.5247817502
 20
39.0391106304
 10
-26.5731381292
 20
39.1110888921
 10
-26.6234923887
 20
39.180787417
 10
-26.675740065
 20
39.2481055067
 10
-26.7296541354
 20
39.3127669262
 10
-26.7851005263
 20
39.3746238985
 10
-26.8421341863
 20
39.4337366925
 10
-26.9007564897
 20
39.4900364655
 10
-26.9606135952
 20
39.5431199982
 10
-27.0212239708
 20
39.5925653729
 10
-27.082289153
 20
39.6381512429
 10
-27.1437055477
 20
39.6798066749
 10
-27.205273992
 20
39.7174011061
  0
LINE
  5
2F8
100
AcDbEntity
  8
0
100
AcDbLine
 62
7
  6
CONTINUOUS
 10
-28.16087766
 20
-32.6843599622
 30
0.0
 11
-28.16087766
 21
35.2476454832
 31
0.0
  0
LINE
  5
2F9
100
AcDbEntity
  8
RACCORDO
100
AcDbLine
 62
250
  6
CONTINUOUS
 10
-27.9954011922
 20
35.3508961349
 30
0.0
 11
-27.9954011922
 21
-32.5728906741
 31
0.0
  0
LINE
  5
2FA
100
AcDbEntity
  8
0
100
AcDbLine
 62
7
  6
CONTINUOUS
 10
-26.1456233337
 20
-31.6835665495
 30
0.0
 11
-26.1456233337
 21
37.8820323296
 31
0.0
  0
LINE
  5
2FB
100
AcDbEntity
  8
RACCORDO
100
AcDbLine
 62
250
  6
CONTINUOUS
 10
-25.4122212999
 20
38.9288814657
 30
0.0
 11
-25.4122212999
 21
-30.6320525997
 31
0.0
  0
LINE
  5
2FC
100
AcDbEntity
  8
RACCORDO
100
AcDbLine
 62
7
  6
CONTINUOUS
 10
-25.3560892599
 20
39.0090988731
 30
0.0
 11
-25.3560892599
 21
-30.5518351923
 31
0.0
  0
LINE
  5
2FD
100
AcDbEntity
  8
0
100
AcDbLine
 62
7
  6
CONTINUOUS
 10
-24.9435418056
 20
34.2733760886
 30
0.0
 11
-24.9435418056
 21
-23.2316849705
 31
0.0
  0
LWPOLYLINE
  5
2FE
100
AcDbEntity
  8
0
100
AcDbPolyline
 62
7
  6
CONTINUOUS
 90
14
 70
0
 10
-24.9435418056
 20
-23.2316849705
 10
-24.9463218289
 20
-23.4127756666
 10
-24.9545842816
 20
-23.5900594493
 10
-24.9683291639
 20
-23.7635363185
 10
-24.9875907906
 20
-23.9334288188
 10
-25.0123348467
 20
-24.0995144056
 10
-25.0424583879
 20
-24.2611254453
 10
-25.0779678008
 20
-24.4181947272
 10
-25.1188566986
 20
-24.570789462
 10
-25.165002977
 20
-24.7184436479
 10
-25.2164503444
 20
-24.8612048414
 10
-25.2731550922
 20
-24.9990254861
 10
-25.3348639907
 20
-25.1312969106
 10
-25.3560892599
 20
-25.1715970507
  0
LWPOLYLINE
  5
2FF
100
AcDbEntity
  8
RACCORDO
100
AcDbPolyline
 62
250
  6
CONTINUOUS
 90
16
 70
0
 10
-27.9954011922
 20
-32.5728906741
 10
-27.9970713161
 20
-32.6360902707
 10
-28.0017214238
 20
-32.6983054513
 10
-28.0094508891
 20
-32.7592728339
 10
-28.0203131565
 20
-32.8185993615
 10
-28.0344158833
 20
-32.8761332507
 10
-28.0519765335
 20
-32.9319114881
 10
-28.0732533206
 20
-32.9859183235
 10
-28.0982324469
 20
-33.0374068475
 10
-28.1266278017
 20
-33.0853992683
 10
-28.1582796246
 20
-33.1295391264
 10
-28.1931962095
 20
-33.1697748215
 10
-28.231168707
 20
-33.2057936786
 10
-28.2721362862
 20
-33.2374972254
 10
-28.3159044913
 20
-33.2647014319
 10
-28.3405465545
 20
-33.277429702
  0
LWPOLYLINE
  5
300
100
AcDbEntity
  8
RACCORDO
100
AcDbPolyline
 62
250
  6
CONTINUOUS
 90
12
 70
0
 10
-25.4122212999
 20
-30.6320525997
 10
-25.4136747985
 20
-30.6760669538
 10
-25.4180271661
 20
-30.7181567003
 10
-25.4252540629
 20
-30.7580864562
 10
-25.4353150714
 20
-30.7956329113
 10
-25.448153928
 20
-30.8305860983
 10
-25.4636988425
 20
-30.8627505619
 10
-25.4818628974
 20
-30.8919464359
 10
-25.5025445082
 20
-30.9180104201
 10
-25.5256279912
 20
-30.9407967236
 10
-25.5509842331
 20
-30.9601779099
 10
-25.5599448025
 20
-30.9658790496
  0
LWPOLYLINE
  5
301
100
AcDbEntity
  8
RACCORDO
100
AcDbPolyline
 62
250
  6
CONTINUOUS
 90
9
 70
0
 10
-25.3560892599
 20
39.0090988731
 10
-25.3562745741
 20
39.0041289346
 10
-25.3582347933
 20
38.9922295711
 10
-25.3623148861
 20
38.9805109506
 10
-25.368471137
 20
38.9690986298
 10
-25.376637586
 20
38.9581148839
 10
-25.3867267354
 20
38.9476773961
 10
-25.3986304868
 20
38.9378979969
 10
-25.4122212999
 20
38.9288814657
  0
LWPOLYLINE
  5
302
100
AcDbEntity
  8
0
100
AcDbPolyline
 62
7
  6
CONTINUOUS
 90
12
 70
0
 10
-74.1829309001
 20
-4.307848979
 10
-74.1966121297
 20
-4.3141120344
 10
-74.2116889225
 20
-4.3184637007
 10
-74.2277581533
 20
-4.3205503121
 10
-74.2448616471
 20
-4.32041322
 10
-74.2630866076
 20
-4.3183582708
 10
-74.282500313
 20
-4.3144444728
 10
-74.3030354851
 20
-4.3086128177
 10
-74.3245774933
 20
-4.3009921277
 10
-74.3470881273
 20
-4.2916253434
 10
-74.3706055973
 20
-4.2804695242
 10
-74.3951299033
 20
-4.26752467
  0
LWPOLYLINE
  5
303
100
AcDbEntity
  8
0
100
AcDbPolyline
 62
7
  6
CONTINUOUS
 90
7
 70
0
 10
-73.942876152
 20
-4.647356453
 10
-73.9355878956
 20
-4.6443301461
 10
-73.9282212967
 20
-4.6410704722
 10
-73.9207760353
 20
-4.6375993319
 10
-73.9132524315
 20
-4.6338948245
 10
-73.9056797494
 20
-4.6298383332
 10
-73.9013596162
 20
-4.6273985477
  0
LWPOLYLINE
  5
304
100
AcDbEntity
  8
RACCORDO
100
AcDbPolyline
 62
250
  6
CONTINUOUS
 90
3
 70
0
 10
-52.264815517
 20
-12.2625642501
 10
-52.2844984961
 20
-12.2563537919
 10
-52.2905945596
 20
-12.2539169651
  0
LWPOLYLINE
  5
305
100
AcDbEntity
  8
0
100
AcDbPolyline
 62
7
  6
CONTINUOUS
 90
10
 70
0
 10
-74.0126466771
 20
-4.6565822906
 10
-74.0055581522
 20
-4.6589409068
 10
-73.9985242192
 20
-4.6604312626
 10
-73.991544878
 20
-4.6610533578
 10
-73.9846481841
 20
-4.6606720131
 10
-73.9778060822
 20
-4.6594224079
 10
-73.9709344056
 20
-4.657710081
 10
-73.9640307896
 20
-4.6555761218
 10
-73.957097599
 20
-4.6529794409
 10
-73.942876152
 20
-4.647356453
  0
LWPOLYLINE
  5
306
100
AcDbEntity
  8
0
100
AcDbPolyline
 62
7
  6
CONTINUOUS
 90
4
 70
0
 10
-73.9914334737
 20
-4.6443340528
 10
-73.9840005265
 20
-4.6468118314
 10
-73.9765223147
 20
-4.6482986321
 10
-73.9689988384
 20
-4.6487944548
  0
LWPOLYLINE
  5
307
100
AcDbEntity
  8
0
100
AcDbPolyline
 62
7
  6
CONTINUOUS
 90
10
 70
0
 10
-74.5847755563
 20
-3.5732459146
 10
-74.5520600033
 20
-3.5858643281
 10
-74.5195227281
 20
-3.5996114174
 10
-74.4871637309
 20
-3.6144871824
 10
-74.4550210673
 20
-3.6304663967
 10
-74.4230566816
 20
-3.6475742869
 10
-74.3911564066
 20
-3.6658865325
 10
-74.3592821867
 20
-3.6854283601
 10
-74.3274720775
 20
-3.7061745433
 10
-74.2957260792
 20
-3.7281250819
  0
LWPOLYLINE
  5
308
100
AcDbEntity
  8
0
100
AcDbPolyline
 62
7
  6
CONTINUOUS
 90
10
 70
0
 10
-74.6059887598
 20
-3.5854941524
 10
-74.5727005313
 20
-3.5983777247
 10
-74.5397774148
 20
-3.6123090028
 10
-74.5072194103
 20
-3.6272879866
 10
-74.4751227938
 20
-3.643269876
 10
-74.4433912893
 20
-3.6602994712
 10
-74.4117360688
 20
-3.678511173
 10
-74.3800608561
 20
-3.6979497819
 10
-74.3484619274
 20
-3.7185704974
 10
-74.3169392826
 20
-3.7403733197
  0
LWPOLYLINE
  5
309
100
AcDbEntity
  8
RACCORDO
100
AcDbPolyline
 62
250
  6
CONTINUOUS
 90
8
 70
0
 10
-25.3562745741
 20
-30.5568051307
 10
-25.3582347933
 20
-30.5687044942
 10
-25.3623148861
 20
-30.5804231148
 10
-25.3684711369
 20
-30.5918354356
 10
-25.376637586
 20
-30.6028191815
 10
-25.3867267353
 20
-30.6132566693
 10
-25.3986304868
 20
-30.6230360685
 10
-25.4122212999
 20
-30.6320525997
  0
LWPOLYLINE
  5
30A
100
AcDbEntity
  8
RACCORDO
100
AcDbPolyline
 62
250
  6
CONTINUOUS
 90
10
 70
0
 10
-52.5334296654
 20
-12.3845057838
 10
-52.5208116974
 20
-12.3764351056
 10
-52.509596742
 20
-12.3666970757
 10
-52.4994339963
 20
-12.3550149135
 10
-52.4904178703
 20
-12.3413262869
 10
-52.4827309478
 20
-12.3257085398
 10
-52.4764991545
 20
-12.3082047002
 10
-52.4718447831
 20
-12.2888839207
 10
-52.4688826011
 20
-12.2678446545
 10
-52.467715969
 20
-12.2452098583
  0
LINE
  5
30B
100
AcDbEntity
  8
RACCORDO
100
AcDbLine
 62
250
  6
CONTINUOUS
 10
-52.5345838576
 20
-12.7620562606
 30
0.0
 11
-52.2372163548
 21
-12.5781597362
 31
0.0
  0
LINE
  5
30C
100
AcDbEntity
  8
RACCORDO
100
AcDbLine
 62
7
  6
CONTINUOUS
 10
-52.2812833314
 20
-12.7848707283
 30
0.0
 11
-52.281351546
 21
-12.7849128906
 31
0.0
  0
LWPOLYLINE
  5
30D
100
AcDbEntity
  8
RACCORDO
100
AcDbPolyline
 62
250
  6
CONTINUOUS
 90
14
 70
0
 10
-52.281351546
 20
-12.7849128906
 10
-52.2854714887
 20
-12.7873767597
 10
-52.3023119463
 20
-12.7958879454
 10
-52.3200853391
 20
-12.8024903617
 10
-52.3386303662
 20
-12.8071565521
 10
-52.3577261503
 20
-12.8098938432
 10
-52.3773906921
 20
-12.8107639176
 10
-52.3978401365
 20
-12.8097749845
 10
-52.4190686378
 20
-12.8068767838
 10
-52.4409390427
 20
-12.8020365072
 10
-52.4635011654
 20
-12.795185195
 10
-52.4867156596
 20
-12.7862558651
 10
-52.5104445373
 20
-12.7752217773
 10
-52.5345838067
 20
-12.7620562291
  0
LINE
  5
30E
100
AcDbEntity
  8
RACCORDO
100
AcDbLine
 62
250
  6
CONTINUOUS
 10
-52.467715969
 20
-12.2452098583
 30
0.0
 11
-52.2372163548
 21
-12.121254625
 31
0.0
  0
LINE
  5
30F
100
AcDbEntity
  8
RACCORDO
100
AcDbLine
 62
7
  6
CONTINUOUS
 10
-52.5335061301
 20
-12.3845469468
 30
0.0
 11
-52.2836240782
 21
-12.2501684658
 31
0.0
  0
LWPOLYLINE
  5
310
100
AcDbEntity
  8
RACCORDO
100
AcDbPolyline
 62
250
  6
CONTINUOUS
 90
3
 70
0
 10
-52.2372163548
 20
-12.2676757994
 10
-52.2466243234
 20
-12.2665547743
 10
-52.264815517
 20
-12.2625642501
  0
LWPOLYLINE
  5
311
100
AcDbEntity
  8
RACCORDO
100
AcDbPolyline
 62
250
  6
CONTINUOUS
 90
17
 70
0
 10
-52.5468919485
 20
32.5980576274
 10
-52.5156152019
 20
32.5691702856
 10
-52.4851308964
 20
32.5384539647
 10
-52.4554932617
 20
32.5058942619
 10
-52.426648068
 20
32.47150558
 10
-52.3990131966
 20
32.4357910565
 10
-52.372615322
 20
32.3987294491
 10
-52.3474277695
 20
32.3603420001
 10
-52.3237883967
 20
32.3211955739
 10
-52.3017187016
 20
32.2812451719
 10
-52.2811971861
 20
32.2405357927
 10
-52.2624972129
 20
32.1997692964
 10
-52.2457182602
 20
32.1592085238
 10
-52.2307608498
 20
32.1185906341
 10
-52.2175999089
 20
32.077828965
 10
-52.2061408676
 20
32.0367834851
 10
-52.1964782958
 20
31.9955942258
  0
LWPOLYLINE
  5
312
100
AcDbEntity
  8
RACCORDO
100
AcDbPolyline
 62
250
  6
CONTINUOUS
 90
10
 70
0
 10
-28.2527935283
 20
36.6653885056
 10
-28.2012678375
 20
36.5458945492
 10
-28.1552035125
 20
36.4191644471
 10
-28.1146005533
 20
36.2851981992
 10
-28.0790986003
 20
36.1432011952
 10
-28.049058013
 20
35.9939680455
 10
-28.0255598707
 20
35.8398825815
 10
-28.0089645329
 20
35.6817394136
 10
-27.9989116401
 20
35.5187439314
 10
-27.9954011922
 20
35.3508961349
  0
LINE
  5
313
100
AcDbEntity
  8
RACCORDO
100
AcDbLine
 62
250
  6
CONTINUOUS
 10
-28.4523270827
 20
36.6262480586
 30
0.0
 11
-28.4029398122
 21
36.5105010919
 31
0.0
  0
LWPOLYLINE
  5
314
100
AcDbEntity
  8
0
100
AcDbPolyline
 62
7
  6
CONTINUOUS
 90
14
 70
0
 10
-25.3560892599
 20
36.6895751959
 10
-25.3314432443
 20
36.6140092458
 10
-25.2702667796
 20
36.4114052806
 10
-25.2140544827
 20
36.2090422029
 10
-25.1630551851
 20
36.0078090886
 10
-25.1173118485
 20
35.8078027202
 10
-25.076781511
 20
35.6089263151
 10
-25.041584119
 20
35.4117786017
 10
-25.0117259398
 20
35.2163004972
 10
-24.9872007061
 20
35.0225510842
 10
-24.9681095615
 20
34.8313063393
 10
-24.9544862205
 20
34.6428249211
 10
-24.9462969685
 20
34.4568481709
 10
-24.9435418056
 20
34.2733760886
  0
LINE
  5
315
100
AcDbEntity
  8
RACCORDO
100
AcDbLine
 62
250
  6
CONTINUOUS
 10
-52.8187689078
 20
32.1370233545
 30
0.0
 11
-101.2958542504
 21
60.1270848707
 31
0.0
  0
LWPOLYLINE
  5
316
100
AcDbEntity
  8
RACCORDO
100
AcDbPolyline
 62
7
  6
CONTINUOUS
 90
24
 70
0
 10
-52.6320823434
 20
32.5986885741
 10
-52.6146082659
 20
32.5880898118
 10
-52.5906031328
 20
32.5719100834
 10
-52.5656607769
 20
32.5531410573
 10
-52.5401896663
 20
32.5319047319
 10
-52.5144233864
 20
32.5082461884
 10
-52.4885774131
 20
32.4822199871
 10
-52.4629980296
 20
32.4540516194
 10
-52.4379079344
 20
32.4238905751
 10
-52.4135164397
 20
32.3918982897
 10
-52.3901134668
 20
32.3583867163
 10
-52.3678805703
 20
32.323575089
 10
-52.3469887631
 20
32.2876980624
 10
-52.3276607342
 20
32.251135084
 10
-52.3100179871
 20
32.214148589
 10
-52.2941657053
 20
32.177007053
 10
-52.2802376455
 20
32.1401225803
 10
-52.2682732096
 20
32.103757367
 10
-52.2582951575
 20
32.068179481
 10
-52.2503332044
 20
32.0338067727
 10
-52.2443316865
 20
32.0008557602
 10
-52.2402177583
 20
31.9695524247
 10
-52.2379000644
 20
31.9403163411
 10
-52.2372163345
 20
31.9147741497
  0
LWPOLYLINE
  5
317
100
AcDbEntity
  8
RACCORDO
100
AcDbPolyline
 62
250
  6
CONTINUOUS
 90
5
 70
0
 10
-52.6735370708
 20
32.6902579875
 10
-52.6416063652
 20
32.6706795866
 10
-52.6098875301
 20
32.6488122779
 10
-52.5783805657
 20
32.6246560613
 10
-52.5468919485
 20
32.5980576274
  0
LWPOLYLINE
  5
318
100
AcDbEntity
  8
RACCORDO
100
AcDbPolyline
 62
250
  6
CONTINUOUS
 90
9
 70
0
 10
-101.3665541589
 20
60.0862715193
 10
-101.3804154403
 20
60.0951497253
 10
-101.3926129758
 20
60.1048076834
 10
-101.4030160773
 20
60.1151419151
 10
-101.4115132828
 20
60.1260416965
 10
-101.4180135507
 20
60.1373902438
 10
-101.422447235
 20
60.1490659653
 10
-101.4247668319
 20
60.1609437636
 10
-101.4251328027
 20
60.167926438
  0
LWPOLYLINE
  5
319
100
AcDbEntity
  8
RACCORDO
100
AcDbPolyline
 62
250
  6
CONTINUOUS
 90
9
 70
0
 10
-52.178637711
 20
31.8330671526
 10
-52.1924989924
 20
31.8419453586
 10
-52.2046965279
 20
31.8516033167
 10
-52.2150996294
 20
31.8619375484
 10
-52.223596835
 20
31.8728373298
 10
-52.2300971028
 20
31.8841858771
 10
-52.2345307871
 20
31.8958615986
 10
-52.236850384
 20
31.9077393969
 10
-52.2372163548
 20
31.9147220713
  0
LWPOLYLINE
  5
31A
100
AcDbEntity
  8
RACCORDO
100
AcDbPolyline
 62
250
  6
CONTINUOUS
 90
19
 70
0
 10
-114.8813263507
 20
86.9193649496
 10
-114.8932633826
 20
86.9291828391
 10
-114.9038465016
 20
86.9406860575
 10
-114.9129206169
 20
86.9537067348
 10
-114.9203521491
 20
86.9680547151
 10
-114.9260325759
 20
86.9835211076
 10
-114.9298804701
 20
86.999881548
 10
-114.9318401606
 20
87.0168982303
 10
-114.9318824495
 20
87.0343233081
 10
-114.9300069444
 20
87.0519034292
 10
-114.9262411163
 20
87.069382986
 10
-114.9206395404
 20
87.0865076378
 10
-114.9132834682
 20
87.1030281707
 10
-114.9042805811
 20
87.1187046317
 10
-114.8937615237
 20
87.1333088535
 10
-114.8818781024
 20
87.1466278025
 10
-114.8688035895
 20
87.1584679625
 10
-114.8547297432
 20
87.1686579185
 10
-114.839862423
 20
87.1770500369
  0
LWPOLYLINE
  5
31B
100
AcDbEntity
  8
0
100
AcDbPolyline
 62
7
  6
CONTINUOUS
 90
24
 70
0
 10
-28.4381622351
 20
36.5588713001
 10
-28.4652444453
 20
36.6089784333
 10
-28.4967397297
 20
36.6604722573
 10
-28.5327183885
 20
36.7132196647
 10
-28.5733629057
 20
36.7670905584
 10
-28.6186114002
 20
36.821903584
 10
-28.6681249314
 20
36.8774146748
 10
-28.7221198387
 20
36.9335035242
 10
-28.780388114
 20
36.9898731068
 10
-28.8418232445
 20
37.0459752222
 10
-28.9061496455
 20
37.1013549789
 10
-28.9733943869
 20
37.1560019211
 10
-29.0428075573
 20
37.2100298226
 10
-29.1143651636
 20
37.2632777335
 10
-29.1878304072
 20
37.315475125
 10
-29.2621001951
 20
37.3665932481
 10
-29.3369010212
 20
37.416401334
 10
-29.4121720864
 20
37.4647855849
 10
-29.487102455
 20
37.5119254703
 10
-29.5613921366
 20
37.5576298053
 10
-29.6350132707
 20
37.6018310761
 10
-29.7075793711
 20
37.6448923303
 10
-29.7792450979
 20
37.6869529545
 10
-29.982149141
 20
37.8036910765
  0
LWPOLYLINE
  5
31C
100
AcDbEntity
  8
RACCORDO
100
AcDbPolyline
 62
7
  6
CONTINUOUS
 90
13
 70
0
 10
-25.5599448025
 20
-30.9658790496
 10
-25.5312365393
 20
-30.9466310045
 10
-25.503940399
 20
-30.9244589205
 10
-25.4783108454
 20
-30.8994005357
 10
-25.4546485954
 20
-30.8715940599
 10
-25.4331130453
 20
-30.8410686708
 10
-25.4137642279
 20
-30.8076536601
 10
-25.3967528771
 20
-30.77118429
 10
-25.3824263279
 20
-30.7319080574
 10
-25.3710739132
 20
-30.6902215355
 10
-25.3628339484
 20
-30.6463117056
 10
-25.3577969812
 20
-30.6001539654
 10
-25.3560892599
 20
-30.5518351923
  0
LINE
  5
31D
100
AcDbEntity
  8
0
100
AcDbLine
 62
250
  6
CONTINUOUS
 10
-25.3560892599
 20
-23.4698847002
 30
0.0
 11
-24.9435418056
 21
-23.2316849705
 31
0.0
  0
LWPOLYLINE
  5
31E
100
AcDbEntity
  8
RACCORDO
100
AcDbPolyline
 62
250
  6
CONTINUOUS
 90
11
 70
0
 10
-101.1569010371
 20
60.3705838994
 10
-101.1758851351
 20
60.3803388263
 10
-101.1944812184
 20
60.3880255788
 10
-101.2125547792
 20
60.3936557655
 10
-101.2299076754
 20
60.397247251
 10
-101.2465116461
 20
60.3988740344
 10
-101.2624813767
 20
60.3985788591
 10
-101.277768167
 20
60.3963437284
 10
-101.2921857881
 20
60.3921757867
 10
-101.3056260799
 20
60.3861000122
 10
-101.3103881603
 20
60.3833406687
  0
LWPOLYLINE
  5
31F
100
AcDbEntity
  8
RACCORDO
100
AcDbPolyline
 62
250
  6
CONTINUOUS
 90
19
 70
0
 10
-101.2958542504
 20
60.1270848707
 10
-101.3021815676
 20
60.1303629796
 10
-101.3083046187
 20
60.1329640569
 10
-101.3142234037
 20
60.1348881026
 10
-101.3199509518
 20
60.1361258918
 10
-101.3254742338
 20
60.1366866495
 10
-101.3307541619
 20
60.1365980503
 10
-101.335812928
 20
60.1358611803
 10
-101.3406283401
 20
60.1344749534
 10
-101.3450947355
 20
60.1324637861
 10
-101.3491964533
 20
60.1298416866
 10
-101.3529491544
 20
60.1265946467
 10
-101.3562941576
 20
60.1227050582
 10
-101.3592537917
 20
60.1181510246
 10
-101.3618057281
 20
60.1129544423
 10
-101.3638242997
 20
60.1071633925
 10
-101.3652676175
 20
60.1007939023
 10
-101.3661775706
 20
60.0938299446
 10
-101.3665541589
 20
60.0862715193
  0
LWPOLYLINE
  5
320
100
AcDbEntity
  8
RACCORDO
100
AcDbPolyline
 62
250
  6
CONTINUOUS
 90
16
 70
0
 10
-52.7480689993
 20
32.0145675209
 10
-52.7326925047
 20
32.0065641995
 10
-52.7159655272
 20
31.9995215007
 10
-52.6980672837
 20
31.9935148826
 10
-52.6791895408
 20
31.9886087022
 10
-52.6595345597
 20
31.9848555264
 10
-52.639312929
 20
31.9822955682
 10
-52.6187413088
 20
31.9809562565
 10
-52.5980401098
 20
31.9808519418
 10
-52.577431131
 20
31.9819837423
 10
-52.5571351834
 20
31.9843395322
 10
-52.5373697244
 20
31.9878940715
 10
-52.5183465282
 20
31.9926092763
 10
-52.5002694159
 20
31.9984346268
 10
-52.4833320718
 20
32.0053077089
 10
-52.467715969
 20
32.0131548825
  0
LWPOLYLINE
  5
321
100
AcDbEntity
  8
RACCORDO
100
AcDbPolyline
 62
250
  6
CONTINUOUS
 90
16
 70
0
 10
-101.9359854472
 20
60.5623361294
 10
-101.9206089484
 20
60.5543328061
 10
-101.9038819661
 20
60.5472901059
 10
-101.8859837176
 20
60.541283487
 10
-101.8671059692
 20
60.5363773064
 10
-101.8474509826
 20
60.532624131
 10
-101.8272293472
 20
60.5300641739
 10
-101.8066577236
 20
60.5287248639
 10
-101.7859565224
 20
60.5286205512
 10
-101.7653475433
 20
60.5297523539
 10
-101.7450515974
 20
60.5321081457
 10
-101.725286142
 20
60.5356626865
 10
-101.7062629514
 20
60.5403778918
 10
-101.6881858464
 20
60.5462032416
 10
-101.6712485108
 20
60.5530763214
 10
-101.6556324168
 20
60.560923491
  0
LINE
  5
322
100
AcDbEntity
  8
RACCORDO
100
AcDbLine
 62
250
  6
CONTINUOUS
 10
-52.6798156946
 20
32.3805223832
 30
0.0
 11
-101.1569010371
 21
60.3705838994
 31
0.0
  0
LINE
  5
323
100
AcDbEntity
  8
RACCORDO
100
AcDbLine
 62
7
  6
CONTINUOUS
 10
-101.3996695632
 20
60.7564822165
 30
0.0
 11
-52.6321205465
 21
32.5987106152
 31
0.0
  0
LINE
  5
324
100
AcDbEntity
  8
RACCORDO
100
AcDbLine
 62
250
  6
CONTINUOUS
 10
-101.4410860874
 20
60.8480295887
 30
0.0
 11
-52.6735370708
 21
32.6902579875
 31
0.0
  0
LWPOLYLINE
  5
325
100
AcDbEntity
  8
RACCORDO
100
AcDbPolyline
 62
250
  6
CONTINUOUS
 90
11
 70
0
 10
-119.7838576809
 20
82.9853867376
 10
-119.818096459
 20
83.006897964
 10
-119.849074373
 20
83.029998388
 10
-119.8765711084
 20
83.0545237197
 10
-119.900391109
 20
83.0802995354
 10
-119.9203649674
 20
83.1071425181
 10
-119.9363506297
 20
83.1348617608
 10
-119.9482344064
 20
83.1632601248
 10
-119.95593178
 20
83.1921356414
 10
-119.9593880072
 20
83.2212829485
 10
-119.9595936122
 20
83.2303514936
  0
LWPOLYLINE
  5
326
100
AcDbEntity
  8
RACCORDO
100
AcDbPolyline
 62
250
  6
CONTINUOUS
 90
10
 70
0
 10
-29.6377073375
 20
37.700767685
 10
-29.6427480896
 20
37.7053648262
 10
-29.6472697257
 20
37.710690236
 10
-29.6512450416
 20
37.7167118742
 10
-29.6546501199
 20
37.7233935119
 10
-29.6574644743
 20
37.7306949495
 10
-29.6596711722
 20
37.7385722582
 10
-29.6612569372
 20
37.7469780446
 10
-29.6622122286
 20
37.7558617356
 10
-29.6625312989
 20
37.7651698832
  0
LINE
  5
327
100
AcDbEntity
  8
DRAFT
100
AcDbLine
 62
7
  6
CONTINUOUS
 10
-25.5599448025
 20
-30.9658790496
 30
0.0
 11
-26.1456233337
 21
-31.3209468856
 31
0.0
  0
LINE
  5
328
100
AcDbEntity
  8
RACCORDO
100
AcDbLine
 62
250
  6
CONTINUOUS
 10
-25.4122212999
 20
-30.6320525997
 30
0.0
 11
-26.1456233337
 21
-31.0705553075
 31
0.0
  0
LWPOLYLINE
  5
329
100
AcDbEntity
  8
0
100
AcDbPolyline
 62
7
  6
CONTINUOUS
 90
16
 70
0
 10
-26.489191293
 20
-32.3873474361
 10
-26.4778517005
 20
-32.3817181506
 10
-26.4339573097
 20
-32.3563400297
 10
-26.39282085
 20
-32.3266335202
 10
-26.3546593583
 20
-32.2928297503
 10
-26.3194719501
 20
-32.2550093734
 10
-26.2872918754
 20
-32.2132545737
 10
-26.258243565
 20
-32.1677594623
 10
-26.2323903768
 20
-32.1186570465
 10
-26.2097107281
 20
-32.0658876099
 10
-26.1902659482
 20
-32.0094322026
 10
-26.1742250081
 20
-31.949598278
 10
-26.1617096927
 20
-31.8868327442
 10
-26.1527628862
 20
-31.8214572324
 10
-26.1473959671
 20
-31.7536211155
 10
-26.1456233337
 20
-31.6835665495
  0
LWPOLYLINE
  5
32A
100
AcDbEntity
  8
RACCORDO
100
AcDbPolyline
 62
250
  6
CONTINUOUS
 90
16
 70
0
 10
-33.8642898224
 20
-35.8663875551
 10
-33.8491503262
 20
-35.859054637
 10
-33.8057011062
 20
-35.8342935772
 10
-33.7647142084
 20
-35.8051757484
 10
-33.7263614338
 20
-35.7718318041
 10
-33.6907320248
 20
-35.7343487226
 10
-33.6578579056
 20
-35.692733608
 10
-33.6278475682
 20
-35.6470508906
 10
-33.6008585107
 20
-35.5974609634
 10
-33.5770049828
 20
-35.5441057888
 10
-33.5563906597
 20
-35.487120715
 10
-33.5391220937
 20
-35.4266947706
 10
-33.5252910968
 20
-35.3630854896
 10
-33.5149637695
 20
-35.2965278687
 10
-33.5081931894
 20
-35.227220784
 10
-33.5050230448
 20
-35.1553971872
  0
LINE
  5
32B
100
AcDbEntity
  8
RACCORDO
100
AcDbLine
 62
250
  6
CONTINUOUS
 10
-27.9954011922
 20
-32.5728906741
 30
0.0
 11
-26.1456233337
 21
-31.6835665495
 31
0.0
  0
LINE
  5
32C
100
AcDbEntity
  8
RACCORDO
100
AcDbLine
 62
7
  6
CONTINUOUS
 10
-28.3409592872
 20
-33.2776283651
 30
0.0
 11
-26.4891912994
 21
-32.3873474392
 31
0.0
  0
LWPOLYLINE
  5
32D
100
AcDbEntity
  8
RACCORDO
100
AcDbPolyline
 62
250
  6
CONTINUOUS
 90
11
 70
0
 10
-27.9954011922
 20
-32.5728906741
 10
-28.0102571536
 20
-32.579800634
 10
-28.0265119024
 20
-32.585566022
 10
-28.043902525
 20
-32.59009359
 10
-28.0621477407
 20
-32.5933101114
 10
-28.0809524406
 20
-32.595163564
 10
-28.1000124593
 20
-32.5956239733
 10
-28.1190195139
 20
-32.5946838991
 10
-28.1376661834
 20
-32.5923585527
 10
-28.1556508696
 20
-32.5886855524
 10
-28.16087766
 20
-32.5871630285
  0
LINE
  5
32E
100
AcDbEntity
  8
RACCORDO
100
AcDbLine
 62
250
  6
CONTINUOUS
 10
-33.5050230448
 20
-35.1553971872
 30
0.0
 11
-28.16087766
 21
-32.6843599622
 31
0.0
  0
LINE
  5
32F
100
AcDbEntity
  8
RACCORDO
100
AcDbLine
 62
7
  6
CONTINUOUS
 10
-33.8648017513
 20
-35.8666246122
 30
0.0
 11
-28.5110663917
 21
-33.3911531543
 31
0.0
  0
LWPOLYLINE
  5
330
100
AcDbEntity
  8
RACCORDO
100
AcDbPolyline
 62
7
  6
CONTINUOUS
 90
3
 70
0
 10
-28.3647925548
 20
-33.2880139962
 10
-28.3531708318
 20
-33.2833313034
 10
-28.340581874
 20
-33.2774451865
  0
LWPOLYLINE
  5
331
100
AcDbEntity
  8
RACCORDO
100
AcDbPolyline
 62
250
  6
CONTINUOUS
 90
16
 70
0
 10
-118.7462739336
 20
84.0736144674
 10
-118.8093302879
 20
84.1064264361
 10
-118.8719432277
 20
84.1349326832
 10
-118.9338993515
 20
84.1590722477
 10
-118.9949288672
 20
84.1787856097
 10
-119.0548935732
 20
84.1940647654
 10
-119.1137766001
 20
84.2049117332
 10
-119.1714395394
 20
84.2112928632
 10
-119.2276193749
 20
84.2131710959
 10
-119.2821112499
 20
84.2105333206
 10
-119.3347243549
 20
84.2033914159
 10
-119.3852891954
 20
84.1917725245
 10
-119.433644567
 20
84.1757126669
 10
-119.479631529
 20
84.1552638559
 10
-119.5230923372
 20
84.1304961052
 10
-119.5417562485
 20
84.1179843212
  0
LWPOLYLINE
  5
332
100
AcDbEntity
  8
RACCORDO
100
AcDbPolyline
 62
250
  6
CONTINUOUS
 90
19
 70
0
 10
-34.3307654773
 20
33.645842278
 10
-34.2935096602
 20
33.626073397
 10
-34.2535014481
 20
33.6081872472
 10
-34.2110253663
 20
33.5923110389
 10
-34.166383492
 20
33.5785576888
 10
-34.1198933084
 20
33.5670250167
 10
-34.071885447
 20
33.5577950496
 10
-34.0227013315
 20
33.5509334378
 10
-33.9726907552
 20
33.5464889883
 10
-33.9222093953
 20
33.5444933176
 10
-33.8716162726
 20
33.5449606258
 10
-33.8212712066
 20
33.5478875961
 10
-33.7715322614
 20
33.5532534177
 10
-33.7227531823
 20
33.5610199343
 10
-33.6752808912
 20
33.5711319156
 10
-33.6294530261
 20
33.583517447
 10
-33.5855955231
 20
33.5980884447
 10
-33.5440202995
 20
33.6147412829
 10
-33.5050230448
 20
33.6333575289
  0
LWPOLYLINE
  5
333
100
AcDbEntity
  8
RACCORDO
100
AcDbPolyline
 62
250
  6
CONTINUOUS
 90
28
 70
0
 10
-119.1483337366
 20
83.3522593765
 10
-119.1856605617
 20
83.372496173
 10
-119.2225211914
 20
83.3900562467
 10
-119.2589156255
 20
83.4049395974
 10
-119.2949270898
 20
83.417160321
 10
-119.3304723586
 20
83.4267043218
 10
-119.3653017548
 20
83.4335293122
 10
-119.3994476893
 20
83.4376270453
 10
-119.4328777512
 20
83.4390057681
 10
-119.4652450301
 20
83.4376479342
 10
-119.4965332165
 20
83.4335249252
 10
-119.52675862
 20
83.4266653596
 10
-119.5556232579
 20
83.417137546
 10
-119.5831148642
 20
83.4049145599
 10
-119.609245705
 20
83.3900233258
 10
-119.6337545967
 20
83.3726129262
 10
-119.6566133428
 20
83.3526874437
 10
-119.6778501397
 20
83.3302427957
 10
-119.6972883933
 20
83.3054158167
 10
-119.7149381008
 20
83.2781682035
 10
-119.730789265
 20
83.2485382593
 10
-119.7446353004
 20
83.2167777283
 10
-119.7564567137
 20
83.1828441909
 10
-119.7662729981
 20
83.1467800668
 10
-119.7739360477
 20
83.108964359
 10
-119.7793964936
 20
83.0695234021
 10
-119.7827037047
 20
83.0283308616
 10
-119.7838576809
 20
82.9853867376
  0
LWPOLYLINE
  5
334
100
AcDbEntity
  8
0
100
AcDbPolyline
 62
7
  6
CONTINUOUS
 90
4
 70
0
 10
-114.8632235644
 20
86.811607081
 10
-114.9073650445
 20
86.8367950231
 10
-114.9509208354
 20
86.8621880316
 10
-115.0360618965
 20
86.9124236105
  0
LWPOLYLINE
  5
335
100
AcDbEntity
  8
0
100
AcDbPolyline
 62
7
  6
CONTINUOUS
 90
3
 70
0
 10
-29.982149141
 20
37.8036910765
 10
-30.205953445
 20
37.9312721572
 10
-30.2516652829
 20
37.9579537611
  0
LINE
  5
336
100
AcDbEntity
  8
0
100
AcDbLine
 62
7
  6
CONTINUOUS
 10
-66.8141363162
 20
63.97530395
 30
0.0
 11
-104.1710948761
 21
85.243654709
 31
0.0
  0
LWPOLYLINE
  5
337
100
AcDbEntity
  8
0
100
AcDbPolyline
 62
7
  6
CONTINUOUS
 90
11
 70
0
 10
-115.1600280723
 20
86.9848217216
 10
-115.1875142721
 20
87.0006250956
 10
-115.218994395
 20
87.0181227887
 10
-115.2472782355
 20
87.03329906
 10
-115.2724675039
 20
87.0461582862
 10
-115.2949801844
 20
87.0563548775
 10
-115.3146465147
 20
87.0638425506
 10
-115.3312758673
 20
87.068528656
 10
-115.3452358249
 20
87.0699760855
 10
-115.3563476371
 20
87.068160401
 10
-115.3615960809
 20
87.0654735442
  0
LINE
  5
338
100
AcDbEntity
  8
RACCORDO
100
AcDbLine
 62
250
  6
CONTINUOUS
 10
-34.9662894216
 20
34.7466020379
 30
0.0
 11
-119.1483337366
 21
83.3522593765
 31
0.0
  0
LINE
  5
339
100
AcDbEntity
  8
RACCORDO
100
AcDbLine
 62
250
  6
CONTINUOUS
 10
-34.5642296186
 20
35.4679571287
 30
0.0
 11
-118.7462739336
 21
84.0736144674
 31
0.0
  0
LINE
  5
33A
100
AcDbEntity
  8
0
100
AcDbLine
 62
7
  6
CONTINUOUS
 10
-30.2516652829
 20
37.9579537611
 30
0.0
 11
-114.8632235644
 21
86.811607081
 31
0.0
  0
LINE
  5
33B
100
AcDbEntity
  8
RACCORDO
100
AcDbLine
 62
250
  6
CONTINUOUS
 10
-114.8813210034
 20
86.9193618623
 30
0.0
 11
-29.6377153948
 21
37.7007723372
 31
0.0
  0
LINE
  5
33C
100
AcDbEntity
  8
RACCORDO
100
AcDbLine
 62
250
  6
CONTINUOUS
 10
-114.9061502015
 20
86.9837670841
 30
0.0
 11
-29.6625312125
 21
37.7651698333
 31
0.0
  0
LINE
  5
33D
100
AcDbEntity
  8
RACCORDO
100
AcDbLine
 62
250
  6
CONTINUOUS
 10
-114.6004125762
 20
86.8652798353
 30
0.0
 11
-29.968269036
 21
37.999740845
 31
0.0
  0
LINE
  5
33E
100
AcDbEntity
  8
RACCORDO
100
AcDbLine
 62
250
  6
CONTINUOUS
 10
-114.4989730937
 20
87.0462036978
 30
0.0
 11
-29.8668295535
 21
38.1806647076
 31
0.0
  0
LINE
  5
33F
100
AcDbEntity
  8
0
100
AcDbLine
 62
7
  6
CONTINUOUS
 10
-27.205273992
 20
39.7174011061
 30
0.0
 11
-112.0601067613
 21
88.7115180663
 31
0.0
  0
LINE
  5
340
100
AcDbEntity
  8
RACCORDO
100
AcDbLine
 62
250
  6
CONTINUOUS
 10
-110.7828264235
 20
88.8210071615
 30
0.0
 11
-25.9320336315
 21
39.8292228336
 31
0.0
  0
LINE
  5
341
100
AcDbEntity
  8
RACCORDO
100
AcDbLine
 62
7
  6
CONTINUOUS
 10
-110.6852897345
 20
88.8295151927
 30
0.0
 11
-25.8344969425
 21
39.8377308648
 31
0.0
  0
LINE
  5
342
100
AcDbEntity
  8
0
100
AcDbLine
 62
7
  6
CONTINUOUS
 10
-66.7878081923
 20
63.9600788399
 30
0.0
 11
-66.8141363162
 21
63.97530395
 31
0.0
  0
LINE
  5
343
100
AcDbEntity
  8
0
100
AcDbLine
 62
7
  6
CONTINUOUS
 10
-115.0360618965
 20
86.9124236105
 30
0.0
 11
-115.1600280723
 21
86.9848217216
 31
0.0
  0
LINE
  5
344
100
AcDbEntity
  8
0
100
AcDbLine
 62
7
  6
CONTINUOUS
 10
-66.7878081923
 20
63.9600788399
 30
0.0
 11
-29.4374316276
 21
42.0933741821
 31
0.0
  0
LWPOLYLINE
  5
345
100
AcDbEntity
  8
RACCORDO
100
AcDbPolyline
 62
250
  6
CONTINUOUS
 90
10
 70
0
 10
-29.968269036
 20
37.999740845
 10
-29.9365045076
 20
37.9808926016
 10
-29.9043312817
 20
37.9604351281
 10
-29.8717493581
 20
37.9383684246
 10
-29.8389492538
 20
37.9149519186
 10
-29.8057404519
 20
37.8899261826
 10
-29.7715514019
 20
37.8625129343
 10
-29.7361915869
 20
37.8324527463
 10
-29.6998515238
 20
37.8000050459
 10
-29.6625312125
 20
37.7651698333
  0
LWPOLYLINE
  5
346
100
AcDbEntity
  8
RACCORDO
100
AcDbPolyline
 62
250
  6
CONTINUOUS
 90
10
 70
0
 10
-29.8668295535
 20
38.1806647076
 10
-29.8317470123
 20
38.1595598158
 10
-29.7961296356
 20
38.1367452321
 10
-29.7600166582
 20
38.1121832526
 10
-29.7237272784
 20
38.0860532307
 10
-29.6870303459
 20
38.0581311456
 10
-29.6491548691
 20
38.0276865589
 10
-29.6098994933
 20
37.9943591211
 10
-29.5696229799
 20
37.9582635125
 10
-29.5284218714
 20
37.9192982985
  0
LWPOLYLINE
  5
347
100
AcDbEntity
  8
0
100
AcDbPolyline
 62
7
  6
CONTINUOUS
 90
9
 70
0
 10
-29.4374316276
 20
42.0933741821
 10
-29.2799358123
 20
41.9979871036
 10
-29.1230260515
 20
41.8966684335
 10
-28.9667023453
 20
41.7894181721
 10
-28.8107577807
 20
41.6760762523
 10
-28.6553992707
 20
41.5568027411
 10
-28.5012475542
 20
41.4320778389
 10
-28.3483569764
 20
41.301926125
 10
-28.3081672687
 20
41.2659971088
  0
LWPOLYLINE
  5
348
100
AcDbEntity
  8
RACCORDO
100
AcDbPolyline
 62
250
  6
CONTINUOUS
 90
4
 70
0
 10
-25.9320336315
 20
39.8292228336
 10
-25.8931880351
 20
39.8051155715
 10
-25.854559677
 20
39.7777865224
 10
-25.8163645823
 20
39.7473885206
  0
LWPOLYLINE
  5
349
100
AcDbEntity
  8
RACCORDO
100
AcDbPolyline
 62
250
  6
CONTINUOUS
 90
25
 70
0
 10
-29.6377153948
 20
37.7007723372
 10
-29.5805961015
 20
37.6649251937
 10
-29.5223919939
 20
37.6278173644
 10
-29.4631473052
 20
37.5893828862
 10
-29.4026299873
 20
37.549364693
 10
-29.3411800118
 20
37.5078627381
 10
-29.2797014789
 20
37.4653461191
 10
-29.2182672981
 20
37.4217274659
 10
-29.1569315219
 20
37.3769209168
 10
-29.0965573479
 20
37.331419499
 10
-29.0371544784
 20
37.285086171
 10
-28.9788425286
 20
37.2378965637
 10
-28.9226166731
 20
37.190561953
 10
-28.8686465091
 20
37.1431186408
 10
-28.8168547299
 20
37.0954330405
 10
-28.7678192278
 20
37.0480266007
 10
-28.721804124
 20
37.0011382628
 10
-28.6785895918
 20
36.9545017335
 10
-28.6380112394
 20
36.9079036004
 10
-28.6000163273
 20
36.861283466
 10
-28.5647253675
 20
36.8146519284
 10
-28.5322532498
 20
36.767881179
 10
-28.5026757256
 20
36.7208981599
 10
-28.4760168347
 20
36.6736991277
 10
-28.4523270827
 20
36.6262480586
  0
LWPOLYLINE
  5
34A
100
AcDbEntity
  8
RACCORDO
100
AcDbPolyline
 62
250
  6
CONTINUOUS
 90
25
 70
0
 10
-29.5284218714
 20
37.9192982985
 10
-29.4663440235
 20
37.8784234401
 10
-29.4029746597
 20
37.8356947478
 10
-29.3384592785
 20
37.791165141
 10
-29.272733312
 20
37.7448870596
 10
-29.2061751325
 20
37.6969493654
 10
-29.1395847852
 20
37.6475069657
 10
-29.0731001996
 20
37.5967404237
 10
-29.0068757531
 20
37.5447469486
 10
-28.9417015623
 20
37.4916121657
 10
-28.8776153928
 20
37.4374441442
 10
-28.8148373729
 20
37.3824880974
 10
-28.7543650119
 20
37.3270761397
 10
-28.6963643298
 20
37.2714697183
 10
-28.6407930363
 20
37.2158095094
 10
-28.5882564148
 20
37.1602611024
 10
-28.5390512478
 20
37.1052878559
 10
-28.4928867181
 20
37.0507909162
 10
-28.4495382778
 20
36.9960943576
 10
-28.4090894684
 20
36.941404314
 10
-28.3716208007
 20
36.8868864053
 10
-28.3370845672
 20
36.8318562132
 10
-28.3056265743
 20
36.7762703844
 10
-28.2774728293
 20
36.7206879415
 10
-28.2527935283
 20
36.6653885056
  0
LWPOLYLINE
  5
34B
100
AcDbEntity
  8
RACCORDO
100
AcDbPolyline
 62
250
  6
CONTINUOUS
 90
19
 70
0
 10
-25.8163645823
 20
39.7473885206
 10
-25.7788163603
 20
39.7140915701
 10
-25.7421249885
 20
39.6780818748
 10
-25.7064956401
 20
39.6395607927
 10
-25.6721275518
 20
39.598743721
 10
-25.6392129473
 20
39.5558589432
 10
-25.6079359369
 20
39.5111463378
 10
-25.5784714501
 20
39.4648559895
 10
-25.5509842406
 20
39.4172467468
 10
-25.5256280052
 20
39.3685848225
 10
-25.5025445394
 20
39.3191423339
 10
-25.4818629473
 20
39.2691958016
 10
-25.4636988969
 20
39.2190245656
 10
-25.4481539702
 20
39.1689092109
 10
-25.4353150969
 20
39.1191299961
 10
-25.4252540759
 20
39.0699653038
 10
-25.4180271718
 20
39.021690082
 10
-25.4136747999
 20
38.9745743059
 10
-25.4122212999
 20
38.9288814657
  0
LWPOLYLINE
  5
34C
100
AcDbEntity
  8
RACCORDO
100
AcDbPolyline
 62
250
  6
CONTINUOUS
 90
9
 70
0
 10
-25.8344969425
 20
39.8377308648
 10
-25.8388982473
 20
39.8400576567
 10
-25.850182844
 20
39.8443085888
 10
-25.8623708597
 20
39.8466333027
 10
-25.8753317081
 20
39.8470068906
 10
-25.8889265228
 20
39.8454253497
 10
-25.9030096447
 20
39.8419056253
 10
-25.917430183
 20
39.8364854287
 10
-25.9320336315
 20
39.8292228336
  0
LWPOLYLINE
  5
34D
100
AcDbEntity
  8
RACCORDO
100
AcDbPolyline
 62
7
  6
CONTINUOUS
 90
13
 70
0
 10
-110.6852897345
 20
88.8295151927
 10
-110.7281026337
 20
88.8522525514
 10
-110.7706457639
 20
88.8709811101
 10
-110.8127765122
 20
88.8857825874
 10
-110.8544391567
 20
88.8967583606
 10
-110.8954330916
 20
88.9039647361
 10
-110.9353623674
 20
88.9074761554
 10
-110.9738442795
 20
88.9074633705
 10
-111.0109437962
 20
88.9041327925
 10
-111.0468548218
 20
88.8975986726
 10
-111.08149048
 20
88.8879501421
 10
-111.1145444442
 20
88.8753567103
 10
-111.1458427714
 20
88.8599968314
  0
LWPOLYLINE
  5
34E
100
AcDbEntity
  8
0
100
AcDbPolyline
 62
7
  6
CONTINUOUS
 90
16
 70
0
 10
-112.0601067613
 20
88.7115180663
 10
-112.1216744273
 20
88.7450194966
 10
-112.1831468766
 20
88.7743098586
 10
-112.2443061109
 20
88.7992745255
 10
-112.3050224839
 20
88.8198447363
 10
-112.3649863837
 20
88.8358870485
 10
-112.4237266446
 20
88.8472734439
 10
-112.480904388
 20
88.8539959239
 10
-112.53648926
 20
88.856113024
 10
-112.5904850903
 20
88.8536398444
 10
-112.6427121751
 20
88.8465844217
 10
-112.6929864686
 20
88.8349701995
 10
-112.7412794365
 20
88.8187773892
 10
-112.7875371145
 20
88.7979542551
 10
-112.8314314352
 20
88.7725761748
 10
-112.8414880952
 20
88.7658855958
  0
LWPOLYLINE
  5
34F
100
AcDbEntity
  8
RACCORDO
100
AcDbPolyline
 62
250
  6
CONTINUOUS
 90
8
 70
0
 10
-110.6896910393
 20
88.8318419846
 10
-110.700975636
 20
88.8360929167
 10
-110.7131636517
 20
88.8384176306
 10
-110.7261245001
 20
88.8387912184
 10
-110.7397193148
 20
88.8372096776
 10
-110.7538024367
 20
88.8336899532
 10
-110.768222975
 20
88.8282697566
 10
-110.7828264235
 20
88.8210071615
  0
LWPOLYLINE
  5
350
100
AcDbEntity
  8
RACCORDO
100
AcDbPolyline
 62
250
  6
CONTINUOUS
 90
10
 70
0
 10
-114.8398562157
 20
87.177048877
 10
-114.8025746433
 20
87.1692868902
 10
-114.7653438425
 20
87.1598409009
 10
-114.7282313859
 20
87.148788475
 10
-114.6917498675
 20
87.1363694268
 10
-114.6555180896
 20
87.12253795
 10
-114.6182274244
 20
87.1067728904
 10
-114.5794524668
 20
87.0887642269
 10
-114.5396851832
 20
87.0686031904
 10
-114.4989730937
 20
87.0462036978
  0
LWPOLYLINE
  5
351
100
AcDbEntity
  8
RACCORDO
100
AcDbPolyline
 62
250
  6
CONTINUOUS
 90
10
 70
0
 10
-114.9061502015
 20
86.9837670841
 10
-114.8725897019
 20
86.9765977256
 10
-114.8391947528
 20
86.9680487774
 10
-114.8059653542
 20
86.9581202396
 10
-114.7732590227
 20
86.9469712895
 10
-114.7407182416
 20
86.9344427498
 10
-114.7072704614
 20
86.9200570878
 10
-114.6725581655
 20
86.9036551259
 10
-114.6369388704
 20
86.8853960417
 10
-114.6004125762
 20
86.8652798353
  0
LWPOLYLINE
  5
352
100
AcDbEntity
  8
0
100
AcDbPolyline
 62
7
  6
CONTINUOUS
 90
9
 70
0
 10
-105.300359235
 20
85.7203238114
 10
-105.2601695273
 20
85.7098427605
 10
-105.1072789496
 20
85.6634402675
 10
-104.9531272331
 20
85.6101546315
 10
-104.7977687231
 20
85.5500240295
 10
-104.6418241585
 20
85.483285075
 10
-104.4855004523
 20
85.4100166389
 10
-104.3285906915
 20
85.3301398503
 10
-104.1710948761
 20
85.243654709
  0
LWPOLYLINE
  5
353
100
AcDbEntity
  8
RACCORDO
100
AcDbPolyline
 62
250
  6
CONTINUOUS
 90
9
 70
0
 10
-115.0731349143
 20
86.9869490699
 10
-115.0559969572
 20
86.9858720344
 10
-115.0368625097
 20
86.9824390559
 10
-115.0156629026
 20
86.9767225315
 10
-114.9923408988
 20
86.9688239152
 10
-114.9672519859
 20
86.9590469104
 10
-114.9404827813
 20
86.9475394394
 10
-114.9118521988
 20
86.934291547
 10
-114.8813210034
 20
86.9193618623
  0
ELLIPSE
  5
354
100
AcDbEntity
  8
0
100
AcDbEllipse
 62
7
  6
CONTINUOUS
 10
-31.472410474
 20
33.5260391461
 30
0.0
 11
2.4087873736
 21
3.7455255811
 31
0.0
 40
0.6067084637
 41
-0.7562804351
 42
-0.3441436833
  0
ELLIPSE
  5
355
100
AcDbEntity
  8
0
100
AcDbEllipse
 62
7
  6
CONTINUOUS
 10
-29.2229934246
 20
-32.0677484954
 30
0.0
 11
-0.752093153
 21
1.3025803154
 31
0.0
 40
0.5757524875
 41
-3.1938070556
 42
-2.3576120761
  0
ENDSEC
  0
SECTION
  2
OBJECTS
  0
DICTIONARY
  5
C
100
AcDbDictionary
280
0
281
1
  3
ACAD_GROUP
350
D
  3
ACAD_MLINESTYLE
350
17
  3
ACAD_LAYOUT
350
1A
  3
ACAD_PLOTSETTINGS
350
19
  3
ACAD_PLOTSTYLENAME
350
E
  0
DICTIONARY
  5
D
102
{ACAD_REACTORS
330
C
102
}
100
AcDbDictionary
280
0
281
1
  0
ACDBDICTIONARYWDFLT
  5
E
102
{ACAD_REACTORS
330
C
102
}
100
AcDbDictionary
281
1
  3
Normal
350
F
100
AcDbDictionaryWithDefault
340
F
  0
DICTIONARY
  5
17
102
{ACAD_REACTORS
330
C
102
}
100
AcDbDictionary
280
0
281
1
  3
Standard
350
18
  0
DICTIONARY
  5
19
102
{ACAD_REACTORS
330
C
102
}
100
AcDbDictionary
281
1
  0
DICTIONARY
  5
1A
102
{ACAD_REACTORS
330
C
102
}
100
AcDbDictionary
281
1
  3
Model
350
356
  3
Layout1
350
357
  0
ACDBPLACEHOLDER
  5
F
102
{ACAD_REACTORS
330
E
102
}
  0
MLINESTYLE
  5
18
102
{ACAD_REACTORS
330
17
102
}
100
AcDbMlineStyle
  2
STANDARD
 70
0
  3

 62
256
 51
90.0
 52
90.0
 71
2
 49
0.5
 62
256
  6
BYLAYER
 49
-0.5
 62
256
  6
BYLAYER
  0
LAYOUT
  5
356
102
{ACAD_REACTORS
330
1A
102
}
100
AcDbPlotSettings
  1

  2
none_device
  4
ISO_A4_(297.00_x_210.00_MM)
  6

 40
0.0
 41
0.0
 42
0.0
 43
0.0
 44
297.0
 45
210.0
 46
0.0
 47
0.0
 48
0.0
 49
0.0
140
0.0
141
0.0
142
1.0
143
1.0
 70
1024
 72
1
 73
0
 74
0
  7

 75
0
147
1.0
148
0.0
149
0.0
100
AcDbLayout
  1
Model
 70
0
 71
0
 10
0.0
 20
0.0
 11
297.0
 21
210.0
 12
0.0
 22
0.0
 32
0.0
 14
0.0
 24
0.0
 34
0.0
 15
0.0
 25
0.0
 35
0.0
146
0.0
 13
0.0
 23
0.0
 33
0.0
 16
1.0
 26
0.0
 36
0.0
 17
0.0
 27
1.0
 37
0.0
 76
0
330
219
345
0
346
0
  0
LAYOUT
  5
357
102
{ACAD_REACTORS
330
1A
102
}
100
AcDbPlotSettings
  1

  2
none_device
  4
ISO_A4_(297.00_x_210.00_MM)
  6

 40
0.0
 41
0.0
 42
0.0
 43
0.0
 44
297.0
 45
210.0
 46
0.0
 47
0.0
 48
0.0
 49
0.0
140
0.0
141
0.0
142
1.0
143
1.0
 70
0
 72
1
 73
0
 74
0
  7

 75
0
147
1.0
148
0.0
149
0.0
100
AcDbLayout
  1
Layout1
 70
0
 71
1
 10
0.0
 20
0.0
 11
297.0
 21
210.0
 12
0.0
 22
0.0
 32
0.0
 14
0.0
 24
0.0
 34
0.0
 15
0.0
 25
0.0
 35
0.0
146
0.0
 13
0.0
 23
0.0
 33
0.0
 16
1.0
 26
0.0
 36
0.0
 17
0.0
 27
1.0
 37
0.0
 76
0
330
21A
345
0
346
0
  0
ENDSEC
  0
EOF
