  0
SECTION
  2
HEADER
  9
$ACADVER
  1
AC1024
  9
$DWGCODEPAGE
  3
ANSI_1252
  9
$EXTMAX
 10
297.0
 20
210.0
 30
0.0
  9
$EXTMIN
 10
0.0
 20
0.0
 30
0.0
  9
$LIMMIN
 10
0.0
 20
0.0
  9
$LIMMAX
 10
297.0
 20
210.0
  9
$VIEWCTR
 10
148.5
 20
105.0
  9
$VIEWSIZE
 40
210.0
  9
$CLAYER
  8
0
  9
$LTSCALE
 40
16.335
  9
$CELTYPE
  6
BYLAYER
  9
$DIMSCALE
 40
1.0
  9
$DIMASZ
 40
3.0
  9
$DIMEXO
 40
0.5
  9
$DIMDLI
 40
11.286
  9
$DIMEXE
 40
1.5
  9
$DIMCEN
 40
2.673
  9
$DIMLFAC
 40
1.0
  9
$DIMBLK
  1
_FILLED
  9
$DIMALT
 70
0
  9
$DIMALTF
 40
0.0393700787
  9
$DIMTXT
 40
3.0
  9
$DIMTOL
 70
1
  9
$DIMLIM
 70
0
  9
$DIMTFAC
 40
1.0
  9
$DIMTP
 40
0.01
  9
$DIMTM
 40
0.01
  9
$DIMGAP
 40
0.625
  9
$DIMDSEP
 70
44
  9
$AUNITS
 70
0
  9
$PDMODE
 70
3
  9
$PDSIZE
 40
3.0
  9
$HANDSEED
  5
357
  9
$TILEMODE
 70
1
  9
$MEASUREMENT
 70
1
  9
$INSUNITS
 70
4
  0
ENDSEC
  0
SECTION
  2
CLASSES
  0
CLASS
  1
ACDBDICTIONARYWDFLT
  2
AcDbDictionaryWithDefault
  3
AutoCAD 2000
 90
0
 91
1
280
0
281
0
  0
CLASS
  1
ACDBPLACEHOLDER
  2
AcDbPlaceHolder
  3
AutoCAD 2000
 90
0
 91
1
280
0
281
0
  0
CLASS
  1
LAYOUT
  2
AcDbLayout
  3
AutoCAD 2000
 90
0
 91
0
280
0
281
0
  0
ENDSEC
  0
SECTION
  2
TABLES
  0
TABLE
  2
VPORT
  5
8
100
AcDbSymbolTable
 70
2
  0
VPORT
  5
1F4
100
AcDbSymbolTableRecord
100
AcDbViewportTableRecord
  2
*ACTIVE
 70
0
 10
0.0
 20
0.0
 11
1.0
 21
1.0
 12
148.5
 22
105.0
 13
0.0
 23
0.0
 14
1.0
 24
1.0
 15
0.0
 25
0.0
 16
0.0
 26
0.0
 36
1.0
 17
0.0
 27
0.0
 37
0.0
 40
210.0
 41
1.4142857143
 42
50.0
 43
0.0
 44
0.0
 50
0.0
 51
0.0
 71
0
 72
100
 73
1
 74
1
 75
0
 76
0
 77
0
 78
0
  0
ENDTAB
  0
TABLE
  2
LTYPE
  5
5
100
AcDbSymbolTable
 70
6
  0
LTYPE
  5
14
100
AcDbSymbolTableRecord
100
AcDbLinetypeTableRecord
  2
BYBLOCK
 70
0
  3

 72
65
 73
0
 40
0.0
  0
LTYPE
  5
15
100
AcDbSymbolTableRecord
100
AcDbLinetypeTableRecord
  2
BYLAYER
 70
0
  3

 72
65
 73
0
 40
0.0
  0
LTYPE
  5
16
100
AcDbSymbolTableRecord
100
AcDbLinetypeTableRecord
  2
CONTINUOUS
 70
64
  3
Solid line
 72
65
 73
0
 40
0.0
  0
LTYPE
  5
1F5
100
AcDbSymbolTableRecord
100
AcDbLinetypeTableRecord
  2
CENTER
 70
64
  3
____ _ ____ _ ____ _ ____ _ ____ _ ____ _ ____
 72
65
 73
4
 40
0.6
 49
0.375
 74
0
 49
-0.075
 74
0
 49
0.075
 74
0
 49
-0.075
 74
0
  0
LTYPE
  5
1F6
100
AcDbSymbolTableRecord
100
AcDbLinetypeTableRecord
  2
HIDDEN
 70
64
  3
- - - - - - - - - - - - - - - - - - - -
 72
65
 73
2
 40
0.2
 49
0.1
 74
0
 49
-0.1
 74
0
  0
LTYPE
  5
1F7
100
AcDbSymbolTableRecord
100
AcDbLinetypeTableRecord
  2
PHANTOM
 70
64
  3
_____ _ _ _____ _ _ _____ _ _ _____
 72
65
 73
6
 40
0.8
 49
0.45
 74
0
 49
-0.05
 74
0
 49
0.1
 74
0
 49
-0.05
 74
0
 49
0.1
 74
0
 49
-0.05
 74
0
  0
LTYPE
  5
1F8
100
AcDbSymbolTableRecord
100
AcDbLinetypeTableRecord
  2
DOT
 70
64
  3
. . . . . . . . . . . . . . . . . . . .
 72
65
 73
2
 40
0.2
 49
0.1
 74
0
 49
-0.1
 74
0
  0
LTYPE
  5
1F9
100
AcDbSymbolTableRecord
100
AcDbLinetypeTableRecord
  2
DASHED
 70
64
  3
- - - - - - - - - - - - - - - - - - - -
 72
65
 73
2
 40
0.2
 49
0.1
 74
0
 49
-0.1
 74
0
  0
ENDTAB
  0
TABLE
  2
LAYER
  5
2
100
AcDbSymbolTable
 70
36
  0
LAYER
  5
10
100
AcDbSymbolTableRecord
100
AcDbLayerTableRecord
  2
0
 70
0
 62
7
  6
CONTINUOUS
370
-3
390
F
  0
LAYER
  5
1FA
100
AcDbSymbolTableRecord
100
AcDbLayerTableRecord
  2
DEFAULT_1
 70
0
 62
7
  6
CENTER
370
-3
390
F
  0
LAYER
  5
1FB
100
AcDbSymbolTableRecord
100
AcDbLayerTableRecord
  2
DEFAULT_2
 70
0
 62
7
  6
HIDDEN
370
-3
390
F
  0
LAYER
  5
1FC
100
AcDbSymbolTableRecord
100
AcDbLayerTableRecord
  2
DEFAULT_3
 70
0
 62
7
  6
PHANTOM
370
-3
390
F
  0
LAYER
  5
1FD
100
AcDbSymbolTableRecord
100
AcDbLayerTableRecord
  2
ASSI
 70
0
 62
7
  6
CONTINUOUS
370
-3
390
F
  0
LAYER
  5
1FE
100
AcDbSymbolTableRecord
100
AcDbLayerTableRecord
  2
COLOR5
 70
0
 62
7
  6
CONTINUOUS
370
-3
390
F
  0
LAYER
  5
1FF
100
AcDbSymbolTableRecord
100
AcDbLayerTableRecord
  2
COORDINATE
 70
0
 62
7
  6
CONTINUOUS
370
-3
390
F
  0
LAYER
  5
200
100
AcDbSymbolTableRecord
100
AcDbLayerTableRecord
  2
COORD_ORIGINE
 70
0
 62
7
  6
CONTINUOUS
370
-3
390
F
  0
LAYER
  5
201
100
AcDbSymbolTableRecord
100
AcDbLayerTableRecord
  2
COPY_PUBLISH
 70
0
 62
7
  6
CONTINUOUS
370
-3
390
F
  0
LAYER
  5
202
100
AcDbSymbolTableRecord
100
AcDbLayerTableRecord
  2
COSMETICI
 70
0
 62
7
  6
CONTINUOUS
370
-3
390
F
  0
LAYER
  5
203
100
AcDbSymbolTableRecord
100
AcDbLayerTableRecord
  2
CURVE
 70
0
 62
7
  6
CONTINUOUS
370
-3
390
F
  0
LAYER
  5
204
100
AcDbSymbolTableRecord
100
AcDbLayerTableRecord
  2
DRAFT
 70
0
 62
7
  6
CONTINUOUS
370
-3
390
F
  0
LAYER
  5
205
100
AcDbSymbolTableRecord
100
AcDbLayerTableRecord
  2
IMPORT_IGES
 70
0
 62
7
  6
CONTINUOUS
370
-3
390
F
  0
LAYER
  5
206
100
AcDbSymbolTableRecord
100
AcDbLayerTableRecord
  2
INTF_1
 70
0
 62
7
  6
CONTINUOUS
370
-3
390
F
  0
LAYER
  5
207
100
AcDbSymbolTableRecord
100
AcDbLayerTableRecord
  2
INTF_11
 70
0
 62
7
  6
CONTINUOUS
370
-3
390
F
  0
LAYER
  5
208
100
AcDbSymbolTableRecord
100
AcDbLayerTableRecord
  2
INTF_13
 70
0
 62
7
  6
CONTINUOUS
370
-3
390
F
  0
LAYER
  5
209
100
AcDbSymbolTableRecord
100
AcDbLayerTableRecord
  2
INTF_2
 70
0
 62
7
  6
CONTINUOUS
370
-3
390
F
  0
LAYER
  5
20A
100
AcDbSymbolTableRecord
100
AcDbLayerTableRecord
  2
INTF_8
 70
0
 62
7
  6
CONTINUOUS
370
-3
390
F
  0
LAYER
  5
20B
100
AcDbSymbolTableRecord
100
AcDbLayerTableRecord
  2
INTF_9
 70
0
 62
7
  6
CONTINUOUS
370
-3
390
F
  0
LAYER
  5
20C
100
AcDbSymbolTableRecord
100
AcDbLayerTableRecord
  2
NOTE
 70
0
 62
7
  6
CONTINUOUS
370
-3
390
F
  0
LAYER
  5
20D
100
AcDbSymbolTableRecord
100
AcDbLayerTableRecord
  2
PIANI
 70
0
 62
7
  6
CONTINUOUS
370
-3
390
F
  0
LAYER
  5
20E
100
AcDbSymbolTableRecord
100
AcDbLayerTableRecord
  2
PIANI_ORIGINE
 70
0
 62
7
  6
CONTINUOUS
370
-3
390
F
  0
LAYER
  5
20F
100
AcDbSymbolTableRecord
100
AcDbLayerTableRecord
  2
PUNTI
 70
0
 62
7
  6
CONTINUOUS
370
-3
390
F
  0
LAYER
  5
210
100
AcDbSymbolTableRecord
100
AcDbLayerTableRecord
  2
RACCORDO
 70
0
 62
7
  6
CONTINUOUS
370
-3
390
F
  0
LAYER
  5
211
100
AcDbSymbolTableRecord
100
AcDbLayerTableRecord
  2
RGB____0____0____0__
 70
0
 62
7
  6
CONTINUOUS
370
-3
390
F
  0
LAYER
  5
212
100
AcDbSymbolTableRecord
100
AcDbLayerTableRecord
  2
SIMBOLI
 70
0
 62
7
  6
CONTINUOUS
370
-3
390
F
  0
LAYER
  5
213
100
AcDbSymbolTableRecord
100
AcDbLayerTableRecord
  2
SMUSSO
 70
0
 62
7
  6
CONTINUOUS
370
-3
390
F
  0
LAYER
  5
214
100
AcDbSymbolTableRecord
100
AcDbLayerTableRecord
  2
SNAPLINE
 70
0
 62
7
  6
CONTINUOUS
370
-3
390
F
  0
LAYER
  5
215
100
AcDbSymbolTableRecord
100
AcDbLayerTableRecord
  2
SUPERFICI
 70
0
 62
7
  6
CONTINUOUS
370
-3
390
F
  0
LAYER
  5
216
100
AcDbSymbolTableRecord
100
AcDbLayerTableRecord
  2
TRASH
 70
0
 62
7
  6
CONTINUOUS
370
-3
390
F
  0
ENDTAB
  0
TABLE
  2
STYLE
  5
3
100
AcDbSymbolTable
 70
1
  0
STYLE
  5
11
100
AcDbSymbolTableRecord
100
AcDbTextStyleTableRecord
  2
STANDARD
 70
0
 40
0.0
 41
0.8
 50
0.0
 71
0
 42
0.2
  3
txt
  4

  0
STYLE
  5
217
100
AcDbSymbolTableRecord
100
AcDbTextStyleTableRecord
  2
TEXTSTYLE_1
 70
0
 40
0.0
 41
0.8
 50
0.0
 71
0
 42
0.2
  3
gdt
  4

  0
ENDTAB
  0
TABLE
  2
VIEW
  5
6
100
AcDbSymbolTable
 70
0
  0
ENDTAB
  0
TABLE
  2
UCS
  5
7
100
AcDbSymbolTable
 70
0
  0
ENDTAB
  0
TABLE
  2
APPID
  5
9
100
AcDbSymbolTable
 70
1
  0
APPID
  5
218
100
AcDbSymbolTableRecord
100
AcDbRegAppTableRecord
  2
ACAD
 70
0
  0
ENDTAB
  0
TABLE
  2
BLOCK_RECORD
  5
1
100
AcDbSymbolTable
 70
0
  0
BLOCK_RECORD
  5
219
100
AcDbSymbolTableRecord
100
AcDbBlockTableRecord
  2
*Model_Space
  0
BLOCK_RECORD
  5
21A
100
AcDbSymbolTableRecord
100
AcDbBlockTableRecord
  2
*Paper_Space
  0
BLOCK_RECORD
  5
21B
100
AcDbSymbolTableRecord
100
AcDbBlockTableRecord
  2
_FILLED
  0
ENDTAB
  0
TABLE
  2
DIMSTYLE
  5
A
100
AcDbSymbolTable
 70
1
100
AcDbDimStyleTable
 71
0
  0
DIMSTYLE
105
21C
100
AcDbSymbolTableRecord
100
AcDbDimStyleTableRecord
  2
STANDARD
 70
0
  3

  4

 40
1.0
 41
3.0
 42
0.5
 43
0.38
 44
1.5
 45
0.0
 46
0.0
 47
0.01
 48
0.01
140
3.0
141
0.0
142
0.0
143
25.4
144
1.0
145
0.0
146
1.0
147
0.625
 71
1
 72
0
 73
0
 74
0
 75
0
 76
0
 77
1
 78
8
 79
2
170
0
171
1
172
0
173
0
174
0
175
0
176
0
177
0
178
0
270
2
179
2
271
2
272
2
273
2
274
2
275
0
280
0
281
0
282
0
283
1
284
8
285
0
286
0
287
3
288
0
340
11
278
44
341
21B
342
21B
343
21B
344
21B
  0
ENDTAB
  0
ENDSEC
  0
SECTION
  2
BLOCKS
  0
BLOCK
  5
20
100
AcDbEntity
  8
0
100
AcDbBlockBegin
  2
*Model_Space
 70
0
 10
0.0
 20
0.0
 30
0.0
  3
*Model_Space
  1

  0
ENDBLK
  5
21
100
AcDbEntity
  8
0
100
AcDbBlockEnd
  0
BLOCK
  5
1C
100
AcDbEntity
  8
0
100
AcDbBlockBegin
  2
*Paper_Space
 70
0
 10
0.0
 20
0.0
 30
0.0
  3
*Paper_Space
  1

  0
ENDBLK
  5
1D
100
AcDbEntity
  8
0
100
AcDbBlockEnd
  0
BLOCK
  5
21D
100
AcDbEntity
  8
0
100
AcDbBlockBegin
  2
_FILLED
 70
64
 10
0.0
 20
0.0
 30
0.0
  3
_FILLED
  1

  0
SOLID
  5
21E
100
AcDbEntity
  8
0
  6
BYBLOCK
 62
0
100
AcDbTrace
 10
0.0
 20
0.0
 30
0.0
 11
-1.0
 21
0.3166666667
 31
0.0
 12
-1.0
 22
-0.3166666667
 32
0.0
 13
-1.0
 23
-0.3166666667
 33
0.0
  0
ENDBLK
  5
21F
100
AcDbEntity
  8
0
  6
BYBLOCK
 62
0
100
AcDbBlockEnd
  0
ENDSEC
  0
SECTION
  2
ENTITIES
  0
LWPOLYLINE
  5
220
100
AcDbEntity
  8
RACCORDO
100
AcDbPolyline
 62
250
  6
CONTINUOUS
 90
15
 70
0
 10
-131.3095899574
 20
96.7304075091
 10
-131.3201765641
 20
96.721863437
 10
-131.3304943268
 20
96.7122447991
 10
-131.3404363895
 20
96.7016512109
 10
-131.3498997874
 20
96.690192385
 10
-131.3587865126
 20
96.6779869947
 10
-131.3670045297
 20
96.6651614451
 10
-131.3744687289
 20
96.6518485642
 10
-131.3811018072
 20
96.6381862268
 10
-131.386835069
 20
96.6243159269
 10
-131.3916091377
 20
96.6103813125
 10
-131.3953745708
 20
96.5965266973
 10
-131.3980923716
 20
96.5828955667
 10
-131.399734393
 20
96.5696290916
 10
-131.4002836295
 20
96.5568646662
  0
LWPOLYLINE
  5
221
100
AcDbEntity
  8
RACCORDO
100
AcDbPolyline
 62
7
  6
CONTINUOUS
 90
8
 70
0
 10
-131.8995513204
 20
96.9155289804
 10
-131.9186768852
 20
96.9005864305
 10
-131.9371171061
 20
96.8817457024
 10
-131.9526000536
 20
96.8608863946
 10
-131.9651273213
 20
96.8383368844
 10
-131.9744655724
 20
96.8151743457
 10
-131.9809111814
 20
96.7919029938
 10
-131.9848907385
 20
96.7685300248
  0
LWPOLYLINE
  5
222
100
AcDbEntity
  8
RACCORDO
100
AcDbPolyline
 62
7
  6
CONTINUOUS
 90
15
 70
0
 10
-136.3481108769
 20
93.8049574922
 10
-136.4005199804
 20
93.7643644299
 10
-136.4506817598
 20
93.7192335361
 10
-136.4982541889
 20
93.6695698206
 10
-136.5428100029
 20
93.615520986
 10
-136.583893359
 20
93.5573731044
 10
-136.6212308755
 20
93.4952581357
 10
-136.6545410904
 20
93.4293957797
 10
-136.6835071724
 20
93.3602121926
 10
-136.7079751664
 20
93.2879044113
 10
-136.7278271919
 20
93.2126405362
 10
-136.7429285068
 20
93.1347380295
 10
-136.7532031868
 20
93.0543702004
 10
-136.758599697
 20
92.9716450311
 10
-136.7594646649
 20
92.9219517535
  0
LWPOLYLINE
  5
223
100
AcDbEntity
  8
RACCORDO
100
AcDbPolyline
 62
250
  6
CONTINUOUS
 90
16
 70
0
 10
-131.6397334757
 20
96.8686348682
 10
-131.6502619935
 20
96.8611110532
 10
-131.6599926786
 20
96.8522292059
 10
-131.6689671335
 20
96.8421265821
 10
-131.6773334656
 20
96.8309770763
 10
-131.6850733358
 20
96.8189120432
 10
-131.6919102571
 20
96.8059971007
 10
-131.6977489823
 20
96.7923571836
 10
-131.7026457449
 20
96.7781641623
 10
-131.7064711328
 20
96.7635403373
 10
-131.7091974999
 20
96.7486381656
 10
-131.7108380649
 20
96.7336209687
 10
-131.7113222582
 20
96.7186270571
 10
-131.710643406
 20
96.7038090328
 10
-131.7088610209
 20
96.6893323392
 10
-131.7060213666
 20
96.6753519795
  0
LINE
  5
224
100
AcDbEntity
  8
RACCORDO
100
AcDbLine
 62
7
  6
CONTINUOUS
 10
-136.3481108769
 20
93.8049574922
 30
0.0
 11
-132.1614844047
 21
96.7570461977
 31
0.0
  0
LINE
  5
225
100
AcDbEntity
  8
RACCORDO
100
AcDbLine
 62
250
  6
CONTINUOUS
 10
-135.5461449869
 20
93.7651992983
 30
0.0
 11
-131.6630946178
 21
96.5031919119
 31
0.0
  0
LINE
  5
226
100
AcDbEntity
  8
RACCORDO
100
AcDbLine
 62
7
  6
CONTINUOUS
 10
-136.3415577624
 20
93.8096180609
 30
0.0
 11
-136.3420800596
 21
93.8092502807
 31
0.0
  0
LWPOLYLINE
  5
227
100
AcDbEntity
  8
RACCORDO
100
AcDbPolyline
 62
250
  6
CONTINUOUS
 90
4
 70
0
 10
-131.9106257175
 20
96.6656375114
 10
-131.9003216579
 20
96.6727141784
 10
-131.8878251168
 20
96.6769949742
 10
-131.8730236942
 20
96.6785337673
  0
LINE
  5
228
100
AcDbEntity
  8
RACCORDO
100
AcDbLine
 62
7
  6
CONTINUOUS
 10
-131.8995725401
 20
96.915510006
 30
0.0
 11
-129.6413591544
 21
98.4574704228
 31
0.0
  0
LINE
  5
229
100
AcDbEntity
  8
RACCORDO
100
AcDbLine
 62
250
  6
CONTINUOUS
 10
-131.3095899574
 20
96.7304075091
 30
0.0
 11
-128.8599778146
 21
98.4031028973
 31
0.0
  0
LWPOLYLINE
  5
22A
100
AcDbEntity
  8
RACCORDO
100
AcDbPolyline
 62
250
  6
CONTINUOUS
 90
12
 70
0
 10
-131.8995061226
 20
96.9155554181
 10
-131.8971490956
 20
96.9170950728
 10
-131.8814493484
 20
96.9245076347
 10
-131.8632592192
 20
96.9287937845
 10
-131.8427737072
 20
96.9299969484
 10
-131.8198976442
 20
96.9284160666
 10
-131.7947974912
 20
96.9241839683
 10
-131.7676669557
 20
96.9173869845
 10
-131.7384572719
 20
96.9082914852
 10
-131.7072584823
 20
96.8970713321
 10
-131.6742992737
 20
96.8838072991
 10
-131.6397283765
 20
96.8686339111
  0
LINE
  5
22B
100
AcDbEntity
  8
RACCORDO
100
AcDbLine
 62
250
  6
CONTINUOUS
 10
-127.5826974768
 20
98.5125919925
 30
0.0
 11
-128.3291805258
 21
98.0966271951
 31
0.0
  0
LINE
  5
22C
100
AcDbEntity
  8
DRAFT
100
AcDbLine
 62
7
  6
CONTINUOUS
 10
-127.9457138248
 20
98.5515816624
 30
0.0
 11
-128.5460633617
 21
98.2218526264
 31
0.0
  0
LWPOLYLINE
  5
22D
100
AcDbEntity
  8
RACCORDO
100
AcDbPolyline
 62
250
  6
CONTINUOUS
 90
11
 70
0
 10
-135.9482047899
 20
22.7874570925
 10
-135.9466961106
 20
22.7470519065
 10
-135.9421808025
 20
22.7086762665
 10
-135.9346909782
 20
22.6726030993
 10
-135.9242799054
 20
22.6390889567
 10
-135.9110216274
 20
22.6083721908
 10
-135.8950104367
 20
22.5806712585
 10
-135.8763602048
 20
22.5561831684
 10
-135.8552035718
 20
22.5350820795
 10
-135.8316910032
 20
22.5175180622
 10
-135.8239552173
 20
22.5128149758
  0
LWPOLYLINE
  5
22E
100
AcDbEntity
  8
RACCORDO
100
AcDbPolyline
 62
7
  6
CONTINUOUS
 90
24
 70
0
 10
-136.7594645626
 20
24.133384514
 10
-136.7565602613
 20
24.0405322596
 10
-136.7489169906
 20
23.9550504718
 10
-136.7366647694
 20
23.8693247212
 10
-136.7199600345
 20
23.7835917446
 10
-136.6990327338
 20
23.6983738475
 10
-136.6740708125
 20
23.6138799227
 10
-136.6452008937
 20
23.5301879121
 10
-136.612660066
 20
23.4477164081
 10
-136.5766525972
 20
23.3667326829
 10
-136.5372687053
 20
23.2872784543
 10
-136.4946145691
 20
23.2094829115
 10
-136.4487960403
 20
23.1335204938
 10
-136.3999148298
 20
23.0595669918
 10
-136.3480303402
 20
22.9877756571
 10
-136.2931437025
 20
22.9182479562
 10
-136.2353775595
 20
22.8512834505
 10
-136.174958317
 20
22.7872684764
 10
-136.1118925921
 20
22.726359943
 10
-136.0462606586
 20
22.6688136094
 10
-135.9783593333
 20
22.6150641069
 10
-135.9083028849
 20
22.565365641
 10
-135.8360742576
 20
22.5198910917
 10
-135.8237812206
 20
22.5127146288
  0
LWPOLYLINE
  5
22F
100
AcDbEntity
  8
RACCORDO
100
AcDbPolyline
 62
250
  6
CONTINUOUS
 90
31
 70
0
 10
-136.5837287342
 20
23.8882168524
 10
-136.5827327048
 20
23.8485786146
 10
-136.5801152368
 20
23.8086899957
 10
-136.5758763305
 20
23.7685509957
 10
-136.5700052068
 20
23.7282088149
 10
-136.5625126446
 20
23.6876162531
 10
-136.5534309807
 20
23.6466317087
 10
-136.5427334735
 20
23.6050703229
 10
-136.5304468646
 20
23.5631169547
 10
-136.5166837157
 20
23.5211845791
 10
-136.5014404174
 20
23.4793097765
 10
-136.4847205792
 20
23.4374559667
 10
-136.4666475908
 20
23.3959263833
 10
-136.447210044
 20
23.3547174118
 10
-136.4264193469
 20
23.3138326669
 10
-136.4044331143
 20
23.2735862269
 10
-136.3812265837
 20
23.2339635353
 10
-136.3568245176
 20
23.1949791486
 10
-136.3314588177
 20
23.1569908155
 10
-136.3052729717
 20
23.1201672389
 10
-136.278123492
 20
23.0843397159
 10
-136.2498118173
 20
23.0493598864
 10
-136.2202442861
 20
23.0150587958
 10
-136.1895145599
 20
22.9816053987
 10
-136.1577050626
 20
22.9493581994
 10
-136.1247000443
 20
22.9182317019
 10
-136.0906152549
 20
22.8883114021
 10
-136.0558803674
 20
22.8602122921
 10
-136.0206386063
 20
22.8341393691
 10
-135.9847467471
 20
22.8098876359
 10
-135.9482047899
 20
22.7874570925
  0
LINE
  5
230
100
AcDbEntity
  8
RACCORDO
100
AcDbLine
 62
250
  6
CONTINUOUS
 10
-136.7592590271
 20
24.124112311
 30
0.0
 11
-136.7594646655
 21
24.1331815935
 31
0.0
  0
LINE
  5
231
100
AcDbEntity
  8
RACCORDO
100
AcDbLine
 62
7
  6
CONTINUOUS
 10
-136.7594646655
 20
92.9219363245
 30
0.0
 11
-136.7594646655
 21
24.1331815935
 31
0.0
  0
LINE
  5
232
100
AcDbEntity
  8
RACCORDO
100
AcDbLine
 62
250
  6
CONTINUOUS
 10
-136.5837287342
 20
92.6769715686
 30
0.0
 11
-136.5837287342
 21
23.8882168524
 31
0.0
  0
LWPOLYLINE
  5
233
100
AcDbEntity
  8
RACCORDO
100
AcDbPolyline
 62
250
  6
CONTINUOUS
 90
19
 70
0
 10
-135.9482047899
 20
93.0438442075
 10
-135.9466961308
 20
93.0859913312
 10
-135.9421808726
 20
93.1295809068
 10
-135.9346911208
 20
93.1743029322
 10
-135.9242801352
 20
93.2198393505
 10
-135.9110219514
 20
93.2658663107
 10
-135.8950108551
 20
93.3120564712
 10
-135.8763607103
 20
93.3580813303
 10
-135.8552041507
 20
93.4036135596
 10
-135.8316916379
 20
93.4483293301
 10
-135.8059903876
 20
93.4919106228
 10
-135.7782831832
 20
93.5340474846
 10
-135.7487670783
 20
93.5744402304
 10
-135.7176519885
 20
93.612801584
 10
-135.6851592029
 20
93.6488587148
 10
-135.6515198141
 20
93.6823551749
 10
-135.6169730672
 20
93.7130527319
 10
-135.5817646571
 20
93.7407330621
 10
-135.5461449869
 20
93.7651992983
  0
LWPOLYLINE
  5
234
100
AcDbEntity
  8
RACCORDO
100
AcDbPolyline
 62
7
  6
CONTINUOUS
 90
5
 70
0
 10
-131.9848907385
 20
96.7685300248
 10
-131.9867268325
 20
96.7453279683
 10
-131.9867688716
 20
96.7224824318
 10
-131.9853201461
 20
96.6996930913
 10
-131.9842066723
 20
96.6903830151
  0
LINE
  5
235
100
AcDbEntity
  8
RACCORDO
100
AcDbLine
 62
250
  6
CONTINUOUS
 10
-117.924470351
 20
70.2730319927
 30
0.0
 11
-117.9203916309
 21
70.2868899217
 31
0.0
  0
LINE
  5
236
100
AcDbEntity
  8
0
100
AcDbLine
 62
250
  6
CONTINUOUS
 10
-121.0640770892
 20
94.8136467711
 30
0.0
 11
-120.9709659295
 21
94.8674079878
 31
0.0
  0
LWPOLYLINE
  5
237
100
AcDbEntity
  8
RACCORDO
100
AcDbPolyline
 62
250
  6
CONTINUOUS
 90
12
 70
0
 10
-127.9254221133
 20
98.5615399655
 10
-127.8991390809
 20
98.5712704634
 10
-127.871489632
 20
98.5781837152
 10
-127.8426034667
 20
98.582245914
 10
-127.8126043096
 20
98.5834396466
 10
-127.7816206942
 20
98.5817598004
 10
-127.7497853414
 20
98.5772135883
 10
-127.7172345403
 20
98.5698204897
 10
-127.6841076358
 20
98.5596121593
 10
-127.6505464666
 20
98.5466323045
 10
-127.616694761
 20
98.5309365116
 10
-127.5826974768
 20
98.5125919925
  0
LWPOLYLINE
  5
238
100
AcDbEntity
  8
RACCORDO
100
AcDbPolyline
 62
250
  6
CONTINUOUS
 90
10
 70
0
 10
-131.7060213666
 20
96.6753519795
 10
-131.7057110052
 20
96.6661690539
 10
-131.7047709915
 20
96.6573242041
 10
-131.7031907798
 20
96.6488815747
 10
-131.7009467324
 20
96.6408534492
 10
-131.6980453998
 20
96.6333633964
 10
-131.6945656094
 20
96.6266039409
 10
-131.6905790798
 20
96.6206322837
 10
-131.6861080914
 20
96.6154124246
 10
-131.6811974051
 20
96.6109497813
  0
LWPOLYLINE
  5
239
100
AcDbEntity
  8
RACCORDO
100
AcDbPolyline
 62
250
  6
CONTINUOUS
 90
14
 70
0
 10
-118.526214098
 20
70.2933358084
 10
-118.5256249909
 20
70.3194106115
 10
-118.5235179714
 20
70.3445443743
 10
-118.5198989502
 20
70.368625155
 10
-118.5147751505
 20
70.3915690444
 10
-118.508167021
 20
70.41324538
 10
-118.5001240354
 20
70.4334924584
 10
-118.4907063032
 20
70.452203979
 10
-118.4799527323
 20
70.4693427736
 10
-118.4678975462
 20
70.4848686971
 10
-118.4545981461
 20
70.4987164474
 10
-118.4401112591
 20
70.5108348879
 10
-118.4244645294
 20
70.5211977626
 10
-118.4194057119
 20
70.5240359948
  0
LWPOLYLINE
  5
23A
100
AcDbEntity
  8
RACCORDO
100
AcDbPolyline
 62
250
  6
CONTINUOUS
 90
25
 70
0
 10
-118.8065671786
 20
70.2947484197
 10
-118.8054908573
 20
70.3316245748
 10
-118.8023382179
 20
70.3668701531
 10
-118.7971092604
 20
70.4004851545
 10
-118.7897509296
 20
70.4326291321
 10
-118.7803162806
 20
70.4631425328
 10
-118.7689644791
 20
70.4915466978
 10
-118.755683749
 20
70.5177629079
 10
-118.7404858664
 20
70.5418698822
 10
-118.7235653243
 20
70.563625119
 10
-118.7049174082
 20
70.5830099254
 10
-118.6845468326
 20
70.6000429943
 10
-118.6626622345
 20
70.6145379023
 10
-118.6392511629
 20
70.6264850639
 10
-118.6143260687
 20
70.6358940645
 10
-118.5881329416
 20
70.6426072377
 10
-118.5606247232
 20
70.6465983633
 10
-118.531848472
 20
70.6478936614
 10
-118.5021913534
 20
70.6464141253
 10
-118.4715919389
 20
70.6420839934
 10
-118.4401116571
 20
70.6349790273
 10
-118.4083219591
 20
70.625247505
 10
-118.3764133286
 20
70.6129388525
 10
-118.3441952818
 20
70.5980036439
 10
-118.3116678189
 20
70.580441879
  0
LWPOLYLINE
  5
23B
100
AcDbEntity
  8
RACCORDO
100
AcDbPolyline
 62
250
  6
CONTINUOUS
 90
16
 70
0
 10
-118.1487583123
 20
69.8492902961
 10
-118.1480006981
 20
69.8666076183
 10
-118.1457359725
 20
69.8846142745
 10
-118.1419883995
 20
69.9031173367
 10
-118.1367981312
 20
69.9219185576
 10
-118.1302207769
 20
69.9408164958
 10
-118.1223268074
 20
69.9596086734
 10
-118.1132008006
 20
69.9780937454
 10
-118.1029405345
 20
69.9960736569
 10
-118.0916559403
 20
70.0133557652
 10
-118.079467924
 20
70.0297549041
 10
-118.0665070715
 20
70.0450953675
 10
-118.0529122493
 20
70.059212792
 10
-118.0388291166
 20
70.0719559182
 10
-118.0244085644
 20
70.0831882116
 10
-118.0098050991
 20
70.0927893248
  0
LWPOLYLINE
  5
23C
100
AcDbEntity
  8
RACCORDO
100
AcDbPolyline
 62
250
  6
CONTINUOUS
 90
16
 70
0
 10
-118.3116678189
 20
24.8846286022
 10
-118.3109101812
 20
24.9019461997
 10
-118.308645393
 20
24.9199531034
 10
-118.3048977312
 20
24.9384563731
 10
-118.299707361
 20
24.9572577506
 10
-118.2931299042
 20
24.9761557897
 10
-118.2852358418
 20
24.9949480139
 10
-118.2761097622
 20
25.0134330768
 10
-118.2658494521
 20
25.0314129271
 10
-118.2545648446
 20
25.0486949357
 10
-118.2423768509
 20
25.065093942
 10
-118.2294160593
 20
25.0804342493
 10
-118.2158213286
 20
25.0945515131
 10
-118.2017383133
 20
25.1072944852
 10
-118.1873179048
 20
25.1185266371
 10
-118.1727146056
 20
25.128127631
  0
LWPOLYLINE
  5
23D
100
AcDbEntity
  8
RACCORDO
100
AcDbPolyline
 62
7
  6
CONTINUOUS
 90
13
 70
0
 10
-118.1632793331
 20
70.1055535336
 10
-118.1758350701
 20
70.0972250401
 10
-118.1920991326
 20
70.084549563
 10
-118.2073971382
 20
70.0702832698
 10
-118.2215485666
 20
70.0545046733
 10
-118.2343887866
 20
70.0373091854
 10
-118.2457821597
 20
70.0187928778
 10
-118.2556127064
 20
69.9990570501
 10
-118.2637520782
 20
69.9782720603
 10
-118.2701047055
 20
69.9566108254
 10
-118.2746202397
 20
69.9342017831
 10
-118.2772695657
 20
69.9111791022
 10
-118.2780368608
 20
69.8901543274
  0
LINE
  5
23E
100
AcDbEntity
  8
RACCORDO
100
AcDbLine
 62
7
  6
CONTINUOUS
 10
-118.1633908418
 20
70.1054851853
 30
0.0
 11
-117.9220821746
 21
70.2547140848
 31
0.0
  0
LINE
  5
23F
100
AcDbEntity
  8
RACCORDO
100
AcDbLine
 62
250
  6
CONTINUOUS
 10
-118.0098050991
 20
70.0927893248
 30
0.0
 11
-117.8043139586
 21
70.2198681285
 31
0.0
  0
LWPOLYLINE
  5
240
100
AcDbEntity
  8
RACCORDO
100
AcDbPolyline
 62
250
  6
CONTINUOUS
 90
9
 70
0
 10
-118.1487583123
 20
25.4276563704
 10
-118.1480006964
 20
25.4112139036
 10
-118.145735966
 20
25.3958224823
 10
-118.1419883861
 20
25.3816470149
 10
-118.1367981095
 20
25.3688393818
 10
-118.1302207463
 20
25.3575368077
 10
-118.1223267684
 20
25.3478603921
 10
-118.1132007545
 20
25.3399138109
 10
-118.1073417881
 20
25.3361089982
  0
LWPOLYLINE
  5
241
100
AcDbEntity
  8
RACCORDO
100
AcDbPolyline
 62
250
  6
CONTINUOUS
 90
9
 70
0
 10
-118.3116678189
 20
70.580441879
 10
-118.3109102029
 20
70.5639994122
 10
-118.3086454725
 20
70.5486079909
 10
-118.3048978926
 20
70.5344325235
 10
-118.299707616
 20
70.5216248903
 10
-118.2931302528
 20
70.5103223163
 10
-118.285236275
 20
70.5006459007
 10
-118.276110261
 20
70.4926993195
 10
-118.2702784047
 20
70.4889101683
  0
LWPOLYLINE
  5
242
100
AcDbEntity
  8
RACCORDO
100
AcDbPolyline
 62
250
  6
CONTINUOUS
 90
19
 70
0
 10
-118.2194582208
 20
25.550112204
 10
-118.2191484433
 20
25.5426658215
 10
-118.2183413164
 20
25.5351384226
 10
-118.21703684
 20
25.5275300073
 10
-118.2152191316
 20
25.5198026654
 10
-118.2129040737
 20
25.511994307
 10
-118.2101393141
 20
25.5042186635
 10
-118.2069149794
 20
25.4964576197
 10
-118.2032409431
 20
25.4887292908
 10
-118.1991944721
 20
25.4812017532
 10
-118.1947835636
 20
25.4738935098
 10
-118.1900002205
 20
25.4667860576
 10
-118.1848977188
 20
25.4599919648
 10
-118.1794541362
 20
25.4534886325
 10
-118.1736913949
 20
25.4472986595
 10
-118.1677285376
 20
25.4416024104
 10
-118.1616052451
 20
25.4364600066
 10
-118.1552818367
 20
25.4318113266
 10
-118.1487583123
 20
25.4276563704
  0
LWPOLYLINE
  5
243
100
AcDbEntity
  8
RACCORDO
100
AcDbPolyline
 62
7
  6
CONTINUOUS
 90
15
 70
0
 10
-118.2780368386
 20
25.6318259843
 10
-118.2770388298
 20
25.6074056153
 10
-118.273859361
 20
25.581568748
 10
-118.2684923879
 20
25.555567029
 10
-118.2609174173
 20
25.5294909918
 10
-118.2513526609
 20
25.5040441768
 10
-118.2397851865
 20
25.4791160364
 10
-118.2261932289
 20
25.4547598349
 10
-118.2110393251
 20
25.4318033651
 10
-118.1943885676
 20
25.4102501209
 10
-118.1761559554
 20
25.3900305835
 10
-118.1568262335
 20
25.371692982
 10
-118.1364664464
 20
25.3552621277
 10
-118.11505003
 20
25.340718179
 10
-118.1073200117
 20
25.3360964303
  0
LINE
  5
244
100
AcDbEntity
  8
RACCORDO
100
AcDbLine
 62
250
  6
CONTINUOUS
 10
-118.8065671786
 20
25.7418194371
 30
0.0
 11
-118.8065671786
 21
70.2947484197
 31
0.0
  0
LINE
  5
245
100
AcDbEntity
  8
RACCORDO
100
AcDbLine
 62
250
  6
CONTINUOUS
 10
-118.5262141483
 20
25.7404067987
 30
0.0
 11
-118.5262141483
 21
70.2933357813
 31
0.0
  0
LINE
  5
246
100
AcDbEntity
  8
RACCORDO
100
AcDbLine
 62
7
  6
CONTINUOUS
 10
-118.2780368646
 20
69.8901318635
 30
0.0
 11
-118.2780368646
 21
25.6317671227
 31
0.0
  0
LINE
  5
247
100
AcDbEntity
  8
RACCORDO
100
AcDbLine
 62
250
  6
CONTINUOUS
 10
-118.2194582208
 20
69.8084769448
 30
0.0
 11
-118.2194582208
 21
25.550112204
 31
0.0
  0
LINE
  5
248
100
AcDbEntity
  8
RACCORDO
100
AcDbLine
 62
7
  6
CONTINUOUS
 10
-118.1639782357
 20
70.4275337745
 30
0.0
 11
-118.1639782357
 21
70.1055441188
 31
0.0
  0
LINE
  5
249
100
AcDbEntity
  8
RACCORDO
100
AcDbLine
 62
250
  6
CONTINUOUS
 10
-118.1248068629
 20
70.4049167147
 30
0.0
 11
-118.124806864
 21
70.129346096
 31
0.0
  0
LINE
  5
24A
100
AcDbEntity
  8
RACCORDO
100
AcDbLine
 62
7
  6
CONTINUOUS
 10
-117.9341685318
 20
70.2948445317
 30
0.0
 11
-117.9341685318
 21
70.2527789184
 31
0.0
  0
LWPOLYLINE
  5
24B
100
AcDbEntity
  8
RACCORDO
100
AcDbPolyline
 62
250
  6
CONTINUOUS
 90
5
 70
0
 10
-117.9219662492
 20
70.2547857049
 10
-117.9149040593
 20
70.2587578036
 10
-117.9030853674
 20
70.26391302
 10
-117.8904546237
 20
70.2677605151
 10
-117.8880527463
 20
70.268217855
  0
LINE
  5
24C
100
AcDbEntity
  8
RACCORDO
100
AcDbLine
 62
7
  6
CONTINUOUS
 10
-118.4194057119
 20
70.5240359948
 30
0.0
 11
-118.4193347315
 21
70.5240741878
 31
0.0
  0
LINE
  5
24D
100
AcDbEntity
  8
RACCORDO
100
AcDbLine
 62
250
  6
CONTINUOUS
 10
-118.218321132
 20
70.4589106817
 30
0.0
 11
-118.5262141483
 21
70.2933357813
 31
0.0
  0
LWPOLYLINE
  5
24E
100
AcDbEntity
  8
RACCORDO
100
AcDbPolyline
 62
7
  6
CONTINUOUS
 90
13
 70
0
 10
-118.4194164187
 20
70.5240299535
 10
-118.4161104759
 20
70.5255982757
 10
-118.4110853216
 20
70.5272983533
 10
-118.4043587125
 20
70.528691551
 10
-118.3957312361
 20
70.5294852421
 10
-118.3851089675
 20
70.5293820051
 10
-118.3725006988
 20
70.5280919024
 10
-118.3579128927
 20
70.5253450173
 10
-118.3416397065
 20
70.5209642146
 10
-118.3242002706
 20
70.5149361938
 10
-118.3059075875
 20
70.5072919784
 10
-118.2868969963
 20
70.4980351834
 10
-118.2702784048
 20
70.4889101683
  0
LINE
  5
24F
100
AcDbEntity
  8
0
100
AcDbLine
 62
250
  6
CONTINUOUS
 10
-75.2191825881
 20
68.8197160478
 30
0.0
 11
-75.6316757728
 21
68.5815476528
 31
0.0
  0
LINE
  5
250
100
AcDbEntity
  8
0
100
AcDbLine
 62
250
  6
CONTINUOUS
 10
-75.1599446301
 20
68.7855127933
 30
0.0
 11
-75.5724378148
 21
68.5473443983
 31
0.0
  0
LINE
  5
251
100
AcDbEntity
  8
0
100
AcDbLine
 62
7
  6
CONTINUOUS
 10
-84.9665070411
 20
0.6948268366
 30
0.0
 11
-85.1317953725
 21
2.8312223915
 31
0.0
  0
LINE
  5
252
100
AcDbEntity
  8
0
100
AcDbLine
 62
7
  6
CONTINUOUS
 10
-85.4032557871
 20
2.2741529285
 30
0.0
 11
-85.3274511117
 21
0.9032314194
 31
0.0
  0
LINE
  5
253
100
AcDbEntity
  8
0
100
AcDbLine
 62
7
  6
CONTINUOUS
 10
-85.3820425837
 20
2.2864011663
 30
0.0
 11
-85.3062379083
 21
0.9154796572
 31
0.0
  0
LINE
  5
254
100
AcDbEntity
  8
0
100
AcDbLine
 62
7
  6
CONTINUOUS
 10
-87.3267262391
 20
4.0986704354
 30
0.0
 11
-87.3267262391
 21
2.0575878211
 31
0.0
  0
LINE
  5
255
100
AcDbEntity
  8
0
100
AcDbLine
 62
7
  6
CONTINUOUS
 10
-87.3055130356
 20
4.0864221976
 30
0.0
 11
-87.3055130356
 21
2.0698360589
 31
0.0
  0
LINE
  5
256
100
AcDbEntity
  8
0
100
AcDbLine
 62
7
  6
CONTINUOUS
 10
-86.9577628704
 20
1.8445529962
 30
0.0
 11
-86.9577628704
 21
3.8856356106
 31
0.0
  0
LINE
  5
257
100
AcDbEntity
  8
0
100
AcDbLine
 62
7
  6
CONTINUOUS
 10
-83.3465335356
 20
1.776589231
 30
0.0
 11
-83.3465335356
 21
-0.2405253833
 31
0.0
  0
LINE
  5
258
100
AcDbEntity
  8
0
100
AcDbLine
 62
7
  6
CONTINUOUS
 10
-83.3253203322
 20
1.7678542949
 30
0.0
 11
-83.3253203322
 21
-0.2282771455
 31
0.0
  0
LINE
  5
259
100
AcDbEntity
  8
0
100
AcDbLine
 62
7
  6
CONTINUOUS
 10
-82.991289117
 20
0.6873397614
 30
0.0
 11
-82.991289117
 21
1.247623018
 31
0.0
  0
LINE
  5
25A
100
AcDbEntity
  8
0
100
AcDbLine
 62
7
  6
CONTINUOUS
 10
-82.9790548497
 20
-0.452702971
 30
0.0
 11
-82.9790548497
 21
0.3460159514
 31
0.0
  0
LINE
  5
25B
100
AcDbEntity
  8
0
100
AcDbLine
 62
7
  6
CONTINUOUS
 10
-86.4061608912
 20
1.5260649266
 30
0.0
 11
-86.3265385463
 21
2.812800086
 31
0.0
  0
LINE
  5
25C
100
AcDbEntity
  8
0
100
AcDbLine
 62
7
  6
CONTINUOUS
 10
-86.5995362111
 20
3.6786775566
 30
0.0
 11
-86.7591386969
 21
1.7298698878
 31
0.0
  0
LINE
  5
25D
100
AcDbEntity
  8
0
100
AcDbLine
 62
7
  6
CONTINUOUS
 10
-86.5802386249
 20
3.6675353722
 30
0.0
 11
-86.7379254934
 21
1.7421181256
 31
0.0
  0
LINE
  5
25E
100
AcDbEntity
  8
0
100
AcDbLine
 62
7
  6
CONTINUOUS
 10
-87.8323606206
 20
4.3904949197
 30
0.0
 11
-88.1795861126
 21
3.1861222512
 31
0.0
  0
LINE
  5
25F
100
AcDbEntity
  8
0
100
AcDbLine
 62
7
  6
CONTINUOUS
 10
-87.8172019871
 20
4.3817425147
 30
0.0
 11
-88.1583729092
 21
3.198370489
 31
0.0
  0
LINE
  5
260
100
AcDbEntity
  8
0
100
AcDbLine
 62
7
  6
CONTINUOUS
 10
-88.0318205944
 20
2.4647004649
 30
0.0
 11
-87.4636496891
 21
4.1776058489
 31
0.0
  0
LINE
  5
261
100
AcDbEntity
  8
0
100
AcDbLine
 62
7
  6
CONTINUOUS
 10
-88.9173268809
 20
5.0169408406
 30
0.0
 11
-88.3569695056
 21
2.6524373712
 31
0.0
  0
LINE
  5
262
100
AcDbEntity
  8
0
100
AcDbLine
 62
7
  6
CONTINUOUS
 10
-88.8893880288
 20
5.0008092976
 30
0.0
 11
-88.3357563021
 21
2.664685609
 31
0.0
  0
LINE
  5
263
100
AcDbEntity
  8
0
100
AcDbLine
 62
7
  6
CONTINUOUS
 10
-88.1795861126
 20
3.1861222512
 30
0.0
 11
-88.5165189583
 21
4.7855193694
 31
0.0
  0
LINE
  5
264
100
AcDbEntity
  8
0
100
AcDbLine
 62
7
  6
CONTINUOUS
 10
-82.3979470344
 20
0.1644745868
 30
0.0
 11
-82.3979470344
 21
0.1765348798
 31
0.0
  0
LWPOLYLINE
  5
265
100
AcDbEntity
  8
0
100
AcDbPolyline
 62
7
  6
CONTINUOUS
 90
11
 70
0
 10
-82.4938196839
 20
0.7172714245
 10
-82.4946147496
 20
0.6892238679
 10
-82.4970013342
 20
0.6629852293
 10
-82.5009794377
 20
0.6385555087
 10
-82.506675385
 20
0.6157632002
 10
-82.5139628511
 20
0.5947798097
 10
-82.5224628614
 20
0.5761198553
 10
-82.532099121
 20
0.5599286983
 10
-82.5429479246
 20
0.5460609775
 10
-82.5548591827
 20
0.5345951275
 10
-82.568230807
 20
0.525268451
  0
LWPOLYLINE
  5
266
100
AcDbEntity
  8
0
100
AcDbPolyline
 62
7
  6
CONTINUOUS
 90
11
 70
0
 10
-82.4726064805
 20
0.7295196623
 10
-82.4734208101
 20
0.7010773295
 10
-82.4758818163
 20
0.6744835967
 10
-82.479989499
 20
0.6497384639
 10
-82.4859414668
 20
0.6265989106
 10
-82.4935401111
 20
0.6053079574
 10
-82.5021926065
 20
0.5865946654
 10
-82.5117547177
 20
0.570796679
 10
-82.52237068
 20
0.5575763539
 10
-82.533880373
 20
0.5466498185
 10
-82.5470074614
 20
0.5375225376
  0
LINE
  5
267
100
AcDbEntity
  8
0
100
AcDbLine
 62
7
  6
CONTINUOUS
 10
-84.3663254118
 20
1.0710191773
 30
0.0
 11
-84.1826127061
 21
1.7223721758
 31
0.0
  0
LINE
  5
268
100
AcDbEntity
  8
0
100
AcDbLine
 62
7
  6
CONTINUOUS
 10
-84.5436098098
 20
0.4506512754
 30
0.0
 11
-84.4417984541
 21
0.7993147357
 31
0.0
  0
LINE
  5
269
100
AcDbEntity
  8
0
100
AcDbLine
 62
7
  6
CONTINUOUS
 10
-84.3541440833
 20
2.3822162834
 30
0.0
 11
-84.9085695398
 21
0.6613744496
 31
0.0
  0
LINE
  5
26A
100
AcDbEntity
  8
0
100
AcDbLine
 62
7
  6
CONTINUOUS
 10
-84.339585331
 20
2.3738102423
 30
0.0
 11
-84.8873563364
 21
0.6736226874
 31
0.0
  0
LINE
  5
26B
100
AcDbEntity
  8
0
100
AcDbLine
 62
7
  6
CONTINUOUS
 10
-85.4968484407
 20
3.0419994579
 30
0.0
 11
-85.8658118093
 21
2.1218870279
 31
0.0
  0
LINE
  5
26C
100
AcDbEntity
  8
0
100
AcDbLine
 62
7
  6
CONTINUOUS
 10
-85.4828049449
 20
3.0363680422
 30
0.0
 11
-85.8445986059
 21
2.1341352657
 31
0.0
  0
LINE
  5
26D
100
AcDbEntity
  8
0
100
AcDbLine
 62
7
  6
CONTINUOUS
 10
-85.8419526123
 20
1.2002981376
 30
0.0
 11
-85.4032557871
 21
2.2741529285
 31
0.0
  0
LINE
  5
26E
100
AcDbEntity
  8
RACCORDO
100
AcDbLine
 62
250
  6
CONTINUOUS
 10
-118.5262141483
 20
25.7404067987
 30
0.0
 11
-118.2780368646
 21
25.8837007768
 31
0.0
  0
LINE
  5
26F
100
AcDbEntity
  8
RACCORDO
100
AcDbLine
 62
250
  6
CONTINUOUS
 10
-118.1727146056
 20
25.128127631
 30
0.0
 11
-117.9599223005
 21
25.2509908337
 31
0.0
  0
LINE
  5
270
100
AcDbEntity
  8
0
100
AcDbLine
 62
7
  6
CONTINUOUS
 10
-86.3265385463
 20
2.812800086
 30
0.0
 11
-85.8937001008
 21
1.2301764889
 31
0.0
  0
LINE
  5
271
100
AcDbEntity
  8
0
100
AcDbLine
 62
7
  6
CONTINUOUS
 10
-86.3053253429
 20
2.8250483238
 30
0.0
 11
-85.8724868973
 21
1.2424247267
 31
0.0
  0
LINE
  5
272
100
AcDbEntity
  8
0
100
AcDbLine
 62
7
  6
CONTINUOUS
 10
-85.8658118093
 20
2.1218870279
 30
0.0
 11
-86.2308783125
 21
3.4658191063
 31
0.0
  0
LWPOLYLINE
  5
273
100
AcDbEntity
  8
0
100
AcDbPolyline
 62
7
  6
CONTINUOUS
 90
6
 70
0
 10
-82.5753770477
 20
-0.0668956014
 10
-82.5568636821
 20
-0.1400347246
 10
-82.5386916147
 20
-0.21466056
 10
-82.5208608455
 20
-0.2907731075
 10
-82.5036308194
 20
-0.3683624783
 10
-82.4694163268
 20
-0.5280310226
  0
LWPOLYLINE
  5
274
100
AcDbEntity
  8
0
100
AcDbPolyline
 62
7
  6
CONTINUOUS
 90
6
 70
0
 10
-82.5541638443
 20
-0.0546473636
 10
-82.5356491541
 20
-0.1277928459
 10
-82.5174825919
 20
-0.2023938258
 10
-82.4996641576
 20
-0.2784503031
 10
-82.482461961
 20
-0.3559128894
 10
-82.4482976222
 20
-0.5153527201
  0
LINE
  5
275
100
AcDbEntity
  8
0
100
AcDbLine
 62
7
  6
CONTINUOUS
 10
-83.454878913
 20
-0.1779682994
 30
0.0
 11
-83.9972163791
 21
2.1761307003
 31
0.0
  0
LINE
  5
276
100
AcDbEntity
  8
0
100
AcDbLine
 62
7
  6
CONTINUOUS
 10
-82.4694163268
 20
-0.5280310226
 30
0.0
 11
-82.4140384759
 21
-0.7789363439
 31
0.0
  0
LINE
  5
277
100
AcDbEntity
  8
0
100
AcDbLine
 62
7
  6
CONTINUOUS
 10
-82.4482976222
 20
-0.5153527201
 30
0.0
 11
-82.3928252725
 21
-0.7666881061
 31
0.0
  0
LINE
  5
278
100
AcDbEntity
  8
0
100
AcDbLine
 62
7
  6
CONTINUOUS
 10
-83.9393319109
 20
0.5091968511
 30
0.0
 11
-83.8437508731
 21
0.0465614967
 31
0.0
  0
LINE
  5
279
100
AcDbEntity
  8
0
100
AcDbLine
 62
7
  6
CONTINUOUS
 10
-83.9181187075
 20
0.5214450889
 30
0.0
 11
-83.8225376696
 21
0.0588097345
 31
0.0
  0
LINE
  5
27A
100
AcDbEntity
  8
0
100
AcDbLine
 62
7
  6
CONTINUOUS
 10
-82.1418233961
 20
-0.5717637329
 30
0.0
 11
-82.1852722574
 21
-0.358621879
 31
0.0
  0
LINE
  5
27B
100
AcDbEntity
  8
0
100
AcDbLine
 62
7
  6
CONTINUOUS
 10
-82.0591386845
 20
-0.9838510355
 30
0.0
 11
-82.1418233961
 21
-0.5717637329
 31
0.0
  0
LINE
  5
27C
100
AcDbEntity
  8
0
100
AcDbLine
 62
7
  6
CONTINUOUS
 10
-84.1826127061
 20
1.7223721758
 30
0.0
 11
-84.013069006
 21
0.867053356
 31
0.0
  0
LINE
  5
27D
100
AcDbEntity
  8
0
100
AcDbLine
 62
7
  6
CONTINUOUS
 10
-84.1613995026
 20
1.7346204136
 30
0.0
 11
-83.9918558026
 21
0.8793015938
 31
0.0
  0
LWPOLYLINE
  5
27E
100
AcDbEntity
  8
0
100
AcDbPolyline
 62
7
  6
CONTINUOUS
 90
19
 70
0
 10
-82.1852722574
 20
-0.358621879
 10
-82.1928353066
 20
-0.3202273133
 10
-82.2008355818
 20
-0.2827213176
 10
-82.2092730831
 20
-0.2461038918
 10
-82.2180979723
 20
-0.2103159169
 10
-82.2273600875
 20
-0.175416512
 10
-82.2372089436
 20
-0.1415830342
 10
-82.2476842791
 20
-0.108845274
 10
-82.2587463556
 20
-0.0771734409
 10
-82.2704254724
 20
-0.0466555206
 10
-82.2827794215
 20
-0.0171971234
 10
-82.2957504108
 20
0.0111073609
 10
-82.309195364
 20
0.0378867784
 10
-82.3231252978
 20
0.0630662992
 10
-82.3375291954
 20
0.0867207532
 10
-82.3522309306
 20
0.1087034753
 10
-82.3671717944
 20
0.1289655775
 10
-82.3824104956
 20
0.147555948
 10
-82.3979470344
 20
0.1644745868
  0
LWPOLYLINE
  5
27F
100
AcDbEntity
  8
RACCORDO
100
AcDbPolyline
 62
250
  6
CONTINUOUS
 90
19
 70
0
 10
-52.3854126215
 20
31.9571837978
 10
-52.3864460781
 20
31.9790944125
 10
-52.3890741466
 20
32.0016302131
 10
-52.3932418834
 20
32.0246040949
 10
-52.3988668202
 20
32.047770403
 10
-52.4058839714
 20
32.0710100561
 10
-52.4142840787
 20
32.0943362636
 10
-52.4240351016
 20
32.1176398553
 10
-52.4350471521
 20
32.1406885762
 10
-52.4472433699
 20
32.1633149566
 10
-52.4604978875
 20
32.1852908752
 10
-52.4747482638
 20
32.206517956
 10
-52.4900244371
 20
32.2270073679
 10
-52.506284049
 20
32.246634179
 10
-52.523378483
 20
32.2651536698
 10
-52.5411828652
 20
32.2823776068
 10
-52.5595659997
 20
32.2981286806
 10
-52.5783919545
 20
32.3122403676
 10
-52.5975123471
 20
32.3245512984
  0
LWPOLYLINE
  5
280
100
AcDbEntity
  8
RACCORDO
100
AcDbPolyline
 62
250
  6
CONTINUOUS
 90
9
 70
0
 10
-52.7364655604
 20
-12.340581656
 10
-52.7357079462
 20
-12.3570241043
 10
-52.7334432205
 20
-12.3724155121
 10
-52.7296956476
 20
-12.3865909709
 10
-52.7245053793
 20
-12.3993986001
 10
-52.7179280249
 20
-12.4107011743
 10
-52.7100340555
 20
-12.4203775939
 10
-52.7009080486
 20
-12.428324182
 10
-52.6950490361
 20
-12.4321290282
  0
LWPOLYLINE
  5
281
100
AcDbEntity
  8
RACCORDO
100
AcDbPolyline
 62
250
  6
CONTINUOUS
 90
9
 70
0
 10
-52.5735560538
 20
32.6240800379
 10
-52.5727984161
 20
32.6076373415
 10
-52.5705336278
 20
32.5922457584
 10
-52.566785966
 20
32.5780701947
 10
-52.5615955958
 20
32.5652625266
 10
-52.555018139
 20
32.5539599697
 10
-52.5471240766
 20
32.5442836109
 10
-52.537997997
 20
32.536337116
 10
-52.5321395295
 20
32.5325326656
  0
LWPOLYLINE
  5
282
100
AcDbEntity
  8
RACCORDO
100
AcDbPolyline
 62
250
  6
CONTINUOUS
 90
19
 70
0
 10
-52.6657656518
 20
31.9585964362
 10
-52.6660754293
 20
31.9660428187
 10
-52.6668825563
 20
31.9735702176
 10
-52.6681870327
 20
31.9811786328
 10
-52.6700047411
 20
31.9889059748
 10
-52.6723197989
 20
31.9967143331
 10
-52.6750845586
 20
32.0044899767
 10
-52.6783088932
 20
32.0122510204
 10
-52.6819829296
 20
32.0199793493
 10
-52.6860294006
 20
32.027506887
 10
-52.690440309
 20
32.0348151304
 10
-52.6952236521
 20
32.0419225825
 10
-52.7003261538
 20
32.0487166753
 10
-52.7057697365
 20
32.0552200077
 10
-52.7115324778
 20
32.0614099806
 10
-52.7174953351
 20
32.0671062298
 10
-52.7236186275
 20
32.0722486336
 10
-52.7299420359
 20
32.0768973136
 10
-52.7364655604
 20
32.0810522697
  0
LINE
  5
283
100
AcDbEntity
  8
RACCORDO
100
AcDbLine
 62
250
  6
CONTINUOUS
 10
-52.6657656518
 20
-12.2997683046
 30
0.0
 11
-52.6657656518
 21
31.9585964362
 31
0.0
  0
LINE
  5
284
100
AcDbEntity
  8
RACCORDO
100
AcDbLine
 62
250
  6
CONTINUOUS
 10
-52.3854126215
 20
-12.301180943
 30
0.0
 11
-52.3854126215
 21
31.9571837978
 31
0.0
  0
LINE
  5
285
100
AcDbEntity
  8
RACCORDO
100
AcDbLine
 62
7
  6
CONTINUOUS
 10
-52.1372353378
 20
31.8485441217
 30
0.0
 11
-52.1372353378
 21
-12.704384861
 31
0.0
  0
LINE
  5
286
100
AcDbEntity
  8
RACCORDO
100
AcDbLine
 62
250
  6
CONTINUOUS
 10
-52.078656694
 20
31.766889203
 30
0.0
 11
-52.078656694
 21
-12.7860397796
 31
0.0
  0
LWPOLYLINE
  5
287
100
AcDbEntity
  8
RACCORDO
100
AcDbPolyline
 62
7
  6
CONTINUOUS
 90
13
 70
0
 10
-52.137235329
 20
-12.7044190846
 10
-52.1376312879
 20
-12.7231074605
 10
-52.1391096866
 20
-12.7442337289
 10
-52.1416285203
 20
-12.7639311137
 10
-52.1451233327
 20
-12.7820803008
 10
-52.149464473
 20
-12.7983940904
 10
-52.1543806364
 20
-12.8124278269
 10
-52.1595709219
 20
-12.8240145397
 10
-52.1647975124
 20
-12.8332836569
 10
-52.1698039106
 20
-12.8403717924
 10
-52.1743786883
 20
-12.8455090961
 10
-52.1783673808
 20
-12.8490159086
 10
-52.1813810832
 20
-12.8510971046
  0
LWPOLYLINE
  5
288
100
AcDbEntity
  8
RACCORDO
100
AcDbPolyline
 62
250
  6
CONTINUOUS
 90
4
 70
0
 10
-52.078656694
 20
-12.7860397796
 10
-52.079685148
 20
-12.8226790092
 10
-52.0828119616
 20
-12.8577888358
 10
-52.0880371348
 20
-12.8913692592
  0
LWPOLYLINE
  5
289
100
AcDbEntity
  8
RACCORDO
100
AcDbPolyline
 62
250
  6
CONTINUOUS
 90
16
 70
0
 10
-52.7364655604
 20
32.0810522697
 10
-52.7357079444
 20
32.0983696124
 10
-52.733443214
 20
32.1163762876
 10
-52.7296956342
 20
32.1348793663
 10
-52.7245053575
 20
32.1536806008
 10
-52.7179279943
 20
32.172578549
 10
-52.7100340165
 20
32.1913707324
 10
-52.7009080025
 20
32.2098558058
 10
-52.6906477313
 20
32.2278357144
 10
-52.6793631346
 20
32.245117816
 10
-52.6671751189
 20
32.2615169448
 10
-52.6542142705
 20
32.2768573955
 10
-52.6406194558
 20
32.2909748059
 10
-52.6265363339
 20
32.3037179177
 10
-52.6121157956
 20
32.3149501972
 10
-52.5975123471
 20
32.3245512984
  0
LWPOLYLINE
  5
28A
100
AcDbEntity
  8
RACCORDO
100
AcDbPolyline
 62
250
  6
CONTINUOUS
 90
16
 70
0
 10
-52.5735560538
 20
-13.0717332389
 10
-52.5727984379
 20
-13.0544158962
 10
-52.5705337075
 20
-13.036409221
 10
-52.5667861276
 20
-13.0179061423
 10
-52.561595851
 20
-12.9991049077
 10
-52.5550184878
 20
-12.9802069596
 10
-52.54712451
 20
-12.9614147762
 10
-52.537998496
 20
-12.9429297028
 10
-52.5277382248
 20
-12.9249497942
 10
-52.516453628
 20
-12.9076676926
 10
-52.5042656124
 20
-12.8912685638
 10
-52.4913047639
 20
-12.875928113
 10
-52.4777099493
 20
-12.8618107026
 10
-52.4636268273
 20
-12.8490675909
 10
-52.4492062891
 20
-12.8378353113
 10
-52.4346028406
 20
-12.8282342101
  0
LWPOLYLINE
  5
28B
100
AcDbEntity
  8
RACCORDO
100
AcDbPolyline
 62
250
  6
CONTINUOUS
 90
10
 70
0
 10
-52.1372353378
 20
-12.2167643069
 10
-52.1373667361
 20
-12.217385073
 10
-52.1422665809
 20
-12.2328978248
 10
-52.1483905911
 20
-12.2472719049
 10
-52.1554767408
 20
-12.2604965408
 10
-52.1634636232
 20
-12.2725226184
 10
-52.1723360385
 20
-12.2832736535
 10
-52.1819431683
 20
-12.2926554013
 10
-52.1922204083
 20
-12.3006098579
 10
-52.2011812145
 20
-12.306064423
  0
LWPOLYLINE
  5
28C
100
AcDbEntity
  8
RACCORDO
100
AcDbPolyline
 62
250
  6
CONTINUOUS
 90
22
 70
0
 10
-52.0880371348
 20
-12.8913692592
 10
-52.0953990371
 20
-12.9236033906
 10
-52.1048592989
 20
-12.9543081189
 10
-52.116302812
 20
-12.9829341106
 10
-52.1297682257
 20
-13.0094131356
 10
-52.1452168906
 20
-13.0338134241
 10
-52.1624177506
 20
-13.0557903325
 10
-52.1813949993
 20
-13.0752939822
 10
-52.202124443
 20
-13.0923742519
 10
-52.2243024444
 20
-13.1068361338
 10
-52.2479760146
 20
-13.1186346261
 10
-52.2730981425
 20
-13.1278147305
 10
-52.2992241582
 20
-13.1343164443
 10
-52.326234232
 20
-13.1381162318
 10
-52.3542481935
 20
-13.1392376286
 10
-52.3831808616
 20
-13.1376912384
 10
-52.4130906311
 20
-13.1335056822
 10
-52.4439191072
 20
-13.126652339
 10
-52.4754059241
 20
-13.117055949
 10
-52.5074642932
 20
-13.1046914257
 10
-52.5401810031
 20
-13.0895838557
 10
-52.5735560538
 20
-13.0717332389
  0
LWPOLYLINE
  5
28D
100
AcDbEntity
  8
RACCORDO
100
AcDbPolyline
 62
250
  6
CONTINUOUS
 90
4
 70
0
 10
-29.5325911266
 20
37.8698628284
 10
-29.5230501502
 20
37.8769690798
 10
-29.511823708
 20
37.8845397315
 10
-29.4991391597
 20
37.8939358318
  0
LWPOLYLINE
  5
28E
100
AcDbEntity
  8
RACCORDO
100
AcDbPolyline
 62
250
  6
CONTINUOUS
 90
16
 70
0
 10
-29.8375592146
 20
38.1553142174
 10
-29.8483050508
 20
38.1479331784
 10
-29.8588916798
 20
38.1393890837
 10
-29.8692094609
 20
38.1297704213
 10
-29.8791515381
 20
38.1191768074
 10
-29.8886149458
 20
38.1077179564
 10
-29.8975016749
 20
38.0955125446
 10
-29.9057196903
 20
38.0826869788
 10
-29.9131838828
 20
38.0693740876
 10
-29.9198169498
 20
38.0557117483
 10
-29.925550197
 20
38.0418414555
 10
-29.9303242496
 20
38.0279068569
 10
-29.9340896665
 20
38.0140522668
 10
-29.936807453
 20
38.0004211698
 10
-29.9384494644
 20
37.987154735
 10
-29.9389986971
 20
37.9743903548
  0
LINE
  5
28F
100
AcDbEntity
  8
RACCORDO
100
AcDbLine
 62
250
  6
CONTINUOUS
 10
-52.5975123471
 20
32.3245512984
 30
0.0
 11
-52.4069857148
 21
32.4345586233
 31
0.0
  0
LINE
  5
290
100
AcDbEntity
  8
RACCORDO
100
AcDbLine
 62
250
  6
CONTINUOUS
 10
-52.3854126215
 20
31.9571837978
 30
0.0
 11
-52.1807796094
 21
32.0753359426
 31
0.0
  0
LINE
  5
291
100
AcDbEntity
  8
0
100
AcDbLine
 62
250
  6
CONTINUOUS
 10
-29.5012724484
 20
41.946430923
 30
0.0
 11
-29.4081612888
 21
42.0001921397
 31
0.0
  0
LINE
  5
292
100
AcDbEntity
  8
RACCORDO
100
AcDbLine
 62
250
  6
CONTINUOUS
 10
-27.1760036531
 20
39.6920506159
 30
0.0
 11
-29.8375592146
 21
38.1553142174
 31
0.0
  0
LINE
  5
293
100
AcDbEntity
  8
RACCORDO
100
AcDbLine
 62
250
  6
CONTINUOUS
 10
-34.5349592798
 20
35.4426066385
 30
0.0
 11
-30.222394944
 21
37.9326032709
 31
0.0
  0
LINE
  5
294
100
AcDbEntity
  8
0
100
AcDbLine
 62
7
  6
CONTINUOUS
 10
-88.1795861126
 20
3.1861222512
 30
0.0
 11
-88.1583729092
 21
3.198370489
 31
0.0
  0
LINE
  5
295
100
AcDbEntity
  8
RACCORDO
100
AcDbLine
 62
250
  6
CONTINUOUS
 10
-25.9027632926
 20
39.8038723434
 30
0.0
 11
-26.7434215039
 21
39.335430062
 31
0.0
  0
LWPOLYLINE
  5
296
100
AcDbEntity
  8
RACCORDO
100
AcDbPolyline
 62
250
  6
CONTINUOUS
 90
19
 70
0
 10
-34.3014951384
 20
-35.1682629284
 10
-34.2642390017
 20
-35.1880319698
 10
-34.2242304714
 20
-35.2059182291
 10
-34.1817540875
 20
-35.2217944995
 10
-34.1371119412
 20
-35.2355478693
 10
-34.0906215268
 20
-35.2470805248
 10
-34.0426134832
 20
-35.2563104459
 10
-33.9934292428
 20
-35.2631719895
 10
-33.943418603
 20
-35.2676163566
 10
-33.8929372387
 20
-35.2696119389
 10
-33.8423441723
 20
-35.2691445437
 10
-33.791999221
 20
-35.2662174952
 10
-33.7422604371
 20
-35.2608516106
 10
-33.6934815619
 20
-35.2530850519
 10
-33.64600951
 20
-35.2429730547
 10
-33.6001819018
 20
-35.2305875353
 10
-33.5563246623
 20
-35.2160165795
 10
-33.5147497035
 20
-35.1993638154
 10
-33.4757527059
 20
-35.1807476775
  0
LWPOLYLINE
  5
297
100
AcDbEntity
  8
RACCORDO
100
AcDbPolyline
 62
250
  6
CONTINUOUS
 90
31
 70
0
 10
-34.9370190827
 20
-35.5351355673
 10
-34.9031883188
 20
-35.5535189477
 10
-34.869951509
 20
-35.5696871708
 10
-34.8373086534
 20
-35.5836402367
 10
-34.8053060201
 20
-35.5953389849
 10
-34.7738973409
 20
-35.6048225758
 10
-34.7429438116
 20
-35.6122084913
 10
-34.7122987067
 20
-35.6175505714
 10
-34.6821087517
 20
-35.6207949762
 10
-34.6526753188
 20
-35.621897668
 10
-34.6240318934
 20
-35.6208351452
 10
-34.5961449901
 20
-35.6176309094
 10
-34.5692155248
 20
-35.612311428
 10
-34.5432460716
 20
-35.6048620421
 10
-34.5182340563
 20
-35.5952974105
 10
-34.4943726728
 20
-35.5836879775
 10
-34.4716616965
 20
-35.5700052806
 10
-34.4501013518
 20
-35.5542777822
 10
-34.4298855061
 20
-35.5366613144
 10
-34.4110885143
 20
-35.5172786256
 10
-34.3936360214
 20
-35.4960069673
 10
-34.37749883
 20
-35.4726339266
 10
-34.3625774516
 20
-35.4471087992
 10
-34.3489713745
 20
-35.4194822893
 10
-34.3369498668
 20
-35.3896940969
 10
-34.3264967648
 20
-35.3576199023
 10
-34.3176282322
 20
-35.3233840252
 10
-34.3106620273
 20
-35.2872991235
 10
-34.3057040698
 20
-35.2494694164
 10
-34.3026484402
 20
-35.2097906847
 10
-34.3014951384
 20
-35.1682629284
  0
LWPOLYLINE
  5
298
100
AcDbEntity
  8
RACCORDO
100
AcDbPolyline
 62
7
  6
CONTINUOUS
 90
16
 70
0
 10
-34.8127531062
 20
-35.8097871544
 10
-34.7717510189
 20
-35.8325724315
 10
-34.6971745157
 20
-35.8695605313
 10
-34.622205531
 20
-35.9011025186
 10
-34.5469598773
 20
-35.9271959165
 10
-34.4716237996
 20
-35.9478221007
 10
-34.3965434251
 20
-35.962936399
 10
-34.3219253054
 20
-35.9725633462
 10
-34.2480207986
 20
-35.9767361028
 10
-34.1753647603
 20
-35.9755143855
 10
-34.1042901519
 20
-35.9690426345
 10
-34.0350480608
 20
-35.9574936028
 10
-33.9681144497
 20
-35.9411186844
 10
-33.9038295517
 20
-35.9202217179
 10
-33.8423701095
 20
-35.8951009278
 10
-33.8349332711
 20
-35.8916968175
  0
LINE
  5
299
100
AcDbEntity
  8
RACCORDO
100
AcDbLine
 62
7
  6
CONTINUOUS
 10
-135.8239552173
 20
22.5128149758
 30
0.0
 11
-34.8127694972
 21
-35.8097776914
 31
0.0
  0
LINE
  5
29A
100
AcDbEntity
  8
RACCORDO
100
AcDbLine
 62
250
  6
CONTINUOUS
 10
-135.9482047899
 20
22.7874570925
 30
0.0
 11
-34.9370190827
 21
-35.5351355673
 31
0.0
  0
LWPOLYLINE
  5
29B
100
AcDbEntity
  8
RACCORDO
100
AcDbPolyline
 62
250
  6
CONTINUOUS
 90
10
 70
0
 10
-136.5837287342
 20
23.8882168524
 10
-136.6179673231
 20
23.9097279463
 10
-136.648945109
 20
23.9328282385
 10
-136.6764417732
 20
23.9573534454
 10
-136.7002617536
 20
23.9831291488
 10
-136.7202356353
 20
24.0099720361
 10
-136.7362213559
 20
24.0376912035
 10
-136.7481052171
 20
24.0660895158
 10
-136.755802692
 20
24.094965006
 10
-136.7591442698
 20
24.1231445622
  0
LWPOLYLINE
  5
29C
100
AcDbEntity
  8
0
100
AcDbPolyline
 62
7
  6
CONTINUOUS
 90
19
 70
0
 10
-82.6810264364
 20
1.1049920885
 10
-82.6606422042
 20
1.0894102174
 10
-82.6410522195
 20
1.0727561961
 10
-82.6222564823
 20
1.0550300247
 10
-82.6040864239
 20
1.0359710979
 10
-82.5867106129
 20
1.0158400209
 10
-82.5706347555
 20
0.9954186094
 10
-82.556104956
 20
0.9750451769
 10
-82.54287511
 20
0.95438141
 10
-82.5307126107
 20
0.9331941841
 10
-82.5195279501
 20
0.9113914496
 10
-82.5094106361
 20
0.8890652562
 10
-82.5003965852
 20
0.8662586292
 10
-82.4923846644
 20
0.8426116934
 10
-82.4854760066
 20
0.818484324
 10
-82.4800099277
 20
0.7949991712
 10
-82.4760995331
 20
0.7725304516
 10
-82.4736317173
 20
0.7507039487
 10
-82.4726064805
 20
0.7295196623
  0
LWPOLYLINE
  5
29D
100
AcDbEntity
  8
0
100
AcDbPolyline
 62
7
  6
CONTINUOUS
 90
19
 70
0
 10
-82.7022396398
 20
1.0927438507
 10
-82.6819650114
 20
1.077232619
 10
-82.6625083926
 20
1.0607113187
 10
-82.6438697834
 20
1.0431799497
 10
-82.625947392
 20
1.024481577
 10
-82.6088430102
 20
1.0047731357
 10
-82.5928620132
 20
0.9845254311
 10
-82.5781045553
 20
0.963884252
 10
-82.5644704823
 20
0.9427038096
 10
-82.5519647062
 20
0.9210175428
 10
-82.5405670533
 20
0.8987474928
 10
-82.5302976973
 20
0.8759716184
 10
-82.521222072
 20
0.8529572357
 10
-82.5132933905
 20
0.8295388378
 10
-82.5065584398
 20
0.8058819315
 10
-82.5012230143
 20
0.7827503534
 10
-82.4973557122
 20
0.7603987156
 10
-82.4948879354
 20
0.738572406
 10
-82.4938196839
 20
0.7172714245
  0
LWPOLYLINE
  5
29E
100
AcDbEntity
  8
0
100
AcDbPolyline
 62
7
  6
CONTINUOUS
 90
16
 70
0
 10
-82.4359885806
 20
1.2293638495
 10
-82.4807110128
 20
1.2718464416
 10
-82.5278456492
 20
1.3133775024
 10
-82.5773924897
 20
1.353957032
 10
-82.6294342695
 20
1.3935260023
 10
-82.6838882534
 20
1.4321434413
 10
-82.7405062359
 20
1.4699864329
 10
-82.7992019996
 20
1.5071250512
 10
-82.8600617618
 20
1.543489222
 10
-82.9230959687
 20
1.5790458071
 10
-82.9883248398
 20
1.6137382237
 10
-83.0557281556
 20
1.6476230546
 10
-83.1252557042
 20
1.6808369098
 10
-83.1968907485
 20
1.7134253259
 10
-83.2706500256
 20
1.7453427663
 10
-83.3465335356
 20
1.776589231
  0
LWPOLYLINE
  5
29F
100
AcDbEntity
  8
RACCORDO
100
AcDbPolyline
 62
250
  6
CONTINUOUS
 90
11
 70
0
 10
-34.9370190827
 20
-35.5351355673
 10
-34.9355104183
 20
-35.5755405262
 10
-34.9309951555
 20
-35.6139159922
 10
-34.9235053996
 20
-35.6499890376
 10
-34.9130944104
 20
-35.6835031085
 10
-34.8998362237
 20
-35.7142198488
 10
-34.8838251251
 20
-35.7419207952
 10
-34.8651749786
 20
-35.7664089337
 10
-34.844018418
 20
-35.7875100977
 10
-34.8205059049
 20
-35.8050742076
 10
-34.8127694972
 20
-35.8097776914
  0
LWPOLYLINE
  5
2A0
100
AcDbEntity
  8
RACCORDO
100
AcDbPolyline
 62
250
  6
CONTINUOUS
 90
19
 70
0
 10
-34.9370190827
 20
34.7212515476
 10
-34.9355104034
 20
34.7633989187
 10
-34.9309950953
 20
34.8069887234
 10
-34.923505271
 20
34.8517109519
 10
-34.9130941982
 20
34.8972475404
 10
-34.8998359202
 20
34.9432746335
 10
-34.8838247295
 20
34.9894648874
 10
-34.8651744977
 20
35.0354897977
 10
-34.8440178646
 20
35.0810220362
 10
-34.820505296
 20
35.1257377784
 10
-34.7948040128
 20
35.1693190066
 10
-34.7670968021
 20
35.211455772
 10
-34.7375807172
 20
35.2518483986
 10
-34.7064656757
 20
35.2902096148
 10
-34.6739729675
 20
35.3262665963
 10
-34.64033368
 20
35.3597629065
 10
-34.6057870553
 20
35.3904603201
 10
-34.5705787884
 20
35.4181405178
 10
-34.5349592798
 20
35.4426066385
  0
LWPOLYLINE
  5
2A1
100
AcDbEntity
  8
RACCORDO
100
AcDbPolyline
 62
250
  6
CONTINUOUS
 90
12
 70
0
 10
-29.63326096
 20
37.7398193929
 10
-29.6296044872
 20
37.750091222
 10
-29.6245462206
 20
37.7606042369
 10
-29.6182892323
 20
37.7713890024
 10
-29.6114604289
 20
37.7827422203
 10
-29.6039246999
 20
37.7943686648
 10
-29.5950115827
 20
37.8056628758
 10
-29.5856712597
 20
37.8173289591
 10
-29.5761878195
 20
37.8290383502
 10
-29.5655502222
 20
37.8395162832
 10
-29.5532488084
 20
37.8499658984
 10
-29.5325911266
 20
37.8698628284
  0
LWPOLYLINE
  5
2A2
100
AcDbEntity
  8
RACCORDO
100
AcDbPolyline
 62
250
  6
CONTINUOUS
 90
13
 70
0
 10
-29.5589885831
 20
37.8121498457
 10
-29.5811749915
 20
37.7723767282
 10
-29.5873362427
 20
37.7595251299
 10
-29.5930236192
 20
37.7471734212
 10
-29.5981769125
 20
37.7354763002
 10
-29.6023553943
 20
37.7243877001
 10
-29.6058332584
 20
37.7141617195
 10
-29.6085204493
 20
37.7048897465
 10
-29.6102272989
 20
37.6965915156
 10
-29.6111399558
 20
37.6894564171
 10
-29.611253245
 20
37.6835696813
 10
-29.6103775327
 20
37.6788927152
 10
-29.6084369975
 20
37.6754171939
  0
LWPOLYLINE
  5
2A3
100
AcDbEntity
  8
RACCORDO
100
AcDbPolyline
 62
250
  6
CONTINUOUS
 90
8
 70
0
 10
-29.4991391597
 20
37.8939358318
 10
-29.5079746502
 20
37.8821927319
 10
-29.5166486475
 20
37.8721192427
 10
-29.5246377521
 20
37.8624000899
 10
-29.5323108701
 20
37.851147853
 10
-29.5409016277
 20
37.8380966771
 10
-29.5503895427
 20
37.8250103326
 10
-29.5589885831
 20
37.8121498457
  0
LWPOLYLINE
  5
2A4
100
AcDbEntity
  8
RACCORDO
100
AcDbPolyline
 62
250
  6
CONTINUOUS
 90
16
 70
0
 10
-28.2235231895
 20
36.6400380153
 10
-28.2344767475
 20
36.630134259
 10
-28.2463703483
 20
36.6209976483
 10
-28.2590802868
 20
36.6127232054
 10
-28.2724743673
 20
36.6053969857
 10
-28.2864132819
 20
36.5990951803
 10
-28.3007520597
 20
36.593883325
 10
-28.3153415683
 20
36.5898156211
 10
-28.33003007
 20
36.5869343692
 10
-28.3446648033
 20
36.5852695303
 10
-28.3590935609
 20
36.5848384154
 10
-28.3731662795
 20
36.5856455043
 10
-28.3867366052
 20
36.5876824003
 10
-28.3996634048
 20
36.5909279173
 10
-28.4118122344
 20
36.5953482985
 10
-28.4230567437
 20
36.6008975683
  0
LINE
  5
2A5
100
AcDbEntity
  8
RACCORDO
100
AcDbLine
 62
250
  6
CONTINUOUS
 10
-25.382950961
 20
38.9035309755
 30
0.0
 11
-26.2089122071
 21
38.4096869087
 31
0.0
  0
LWPOLYLINE
  5
2A6
100
AcDbEntity
  8
0
100
AcDbPolyline
 62
7
  6
CONTINUOUS
 90
46
 70
0
 10
-82.2865754373
 20
0.2056577052
 10
-82.2842509345
 20
0.207026613
 10
-82.2766032964
 20
0.2117082981
 10
-82.268951315
 20
0.2169149681
 10
-82.2612910577
 20
0.222653034
 10
-82.253626457
 20
0.2289160848
 10
-82.2460171104
 20
0.2358576457
 10
-82.2384629875
 20
0.2435052421
 10
-82.2309641187
 20
0.2518313486
 10
-82.2235801922
 20
0.2609069145
 10
-82.2163029108
 20
0.270717129
 10
-82.2091405717
 20
0.2812768029
 10
-82.2021777545
 20
0.2927013177
 10
-82.1953978016
 20
0.3049629685
 10
-82.1888173707
 20
0.3180894601
 10
-82.1825710137
 20
0.3322792884
 10
-82.17664716
 20
0.3475376922
 10
-82.1710573801
 20
0.3638594327
 10
-82.1659709384
 20
0.3814272886
 10
-82.1613801139
 20
0.4002586448
 10
-82.1572926276
 20
0.4203361164
 10
-82.1539009055
 20
0.4417903276
 10
-82.1512017138
 20
0.4646123938
 10
-82.1491982864
 20
0.4888111995
 10
-82.1480927514
 20
0.5145440224
 10
-82.1478311735
 20
0.5418064869
 10
-82.148467488
 20
0.5706029685
 10
-82.1503656295
 20
0.6011038712
 10
-82.1534611125
 20
0.6333957543
 10
-82.1578184225
 20
0.6673920585
 10
-82.1639949513
 20
0.7030035106
 10
-82.1721141043
 20
0.7405310397
 10
-82.1820524761
 20
0.7796737167
 10
-82.1939972423
 20
0.8194394807
 10
-82.2081654528
 20
0.8599506995
 10
-82.2243400577
 20
0.9010850054
 10
-82.2420570831
 20
0.9414832341
 10
-82.2614597617
 20
0.9810688801
 10
-82.2824048609
 20
1.0199184489
 10
-82.3039987084
 20
1.0569022921
 10
-82.3262919167
 20
1.0919402297
 10
-82.3492338734
 20
1.1251124416
 10
-82.371779069
 20
1.1555298204
 10
-82.3935790006
 20
1.1828959967
 10
-82.4149821711
 20
1.2075073397
 10
-82.4359885806
 20
1.2293638495
  0
LINE
  5
2A7
100
AcDbEntity
  8
0
100
AcDbLine
 62
7
  6
CONTINUOUS
 10
-88.3569695056
 20
2.6524373712
 30
0.0
 11
-88.3357563021
 21
2.664685609
 31
0.0
  0
LINE
  5
2A8
100
AcDbEntity
  8
RACCORDO
100
AcDbLine
 62
250
  6
CONTINUOUS
 10
-33.4757527059
 20
33.6080070387
 30
0.0
 11
-28.4088918962
 21
36.5335208099
 31
0.0
  0
LINE
  5
2A9
100
AcDbEntity
  8
RACCORDO
100
AcDbLine
 62
250
  6
CONTINUOUS
 10
-26.1163529948
 20
37.8566818393
 30
0.0
 11
-28.2235231895
 21
36.6400380153
 31
0.0
  0
LINE
  5
2AA
100
AcDbEntity
  8
0
100
AcDbLine
 62
7
  6
CONTINUOUS
 10
-86.3265385463
 20
2.812800086
 30
0.0
 11
-86.3053253429
 21
2.8250483238
 31
0.0
  0
LINE
  5
2AB
100
AcDbEntity
  8
0
100
AcDbLine
 62
7
  6
CONTINUOUS
 10
-87.3267262391
 20
2.0575878211
 30
0.0
 11
-87.3055130356
 21
2.0698360589
 31
0.0
  0
LINE
  5
2AC
100
AcDbEntity
  8
0
100
AcDbLine
 62
7
  6
CONTINUOUS
 10
-86.7591386969
 20
1.7298698878
 30
0.0
 11
-86.7379254934
 21
1.7421181256
 31
0.0
  0
LINE
  5
2AD
100
AcDbEntity
  8
0
100
AcDbLine
 62
7
  6
CONTINUOUS
 10
-85.8658118093
 20
2.1218870279
 30
0.0
 11
-85.8445986059
 21
2.1341352657
 31
0.0
  0
LINE
  5
2AE
100
AcDbEntity
  8
0
100
AcDbLine
 62
7
  6
CONTINUOUS
 10
-85.4032557871
 20
2.2741529285
 30
0.0
 11
-85.3820425837
 21
2.2864011663
 31
0.0
  0
LINE
  5
2AF
100
AcDbEntity
  8
0
100
AcDbLine
 62
7
  6
CONTINUOUS
 10
-85.8937001008
 20
1.2301764889
 30
0.0
 11
-85.8724868973
 21
1.2424247267
 31
0.0
  0
LINE
  5
2B0
100
AcDbEntity
  8
0
100
AcDbLine
 62
7
  6
CONTINUOUS
 10
-84.1826127061
 20
1.7223721758
 30
0.0
 11
-84.1613995026
 21
1.7346204136
 31
0.0
  0
LINE
  5
2B1
100
AcDbEntity
  8
0
100
AcDbLine
 62
7
  6
CONTINUOUS
 10
-85.3274511117
 20
0.9032314194
 30
0.0
 11
-85.3062379083
 21
0.9154796572
 31
0.0
  0
LINE
  5
2B2
100
AcDbEntity
  8
0
100
AcDbLine
 62
7
  6
CONTINUOUS
 10
-84.9085695398
 20
0.6613744496
 30
0.0
 11
-84.8873563364
 21
0.6736226874
 31
0.0
  0
LINE
  5
2B3
100
AcDbEntity
  8
0
100
AcDbLine
 62
7
  6
CONTINUOUS
 10
-84.4417984541
 20
0.7993147357
 30
0.0
 11
-84.4205852506
 21
0.8115629735
 31
0.0
  0
LINE
  5
2B4
100
AcDbEntity
  8
0
100
AcDbLine
 62
7
  6
CONTINUOUS
 10
-84.013069006
 20
0.867053356
 30
0.0
 11
-83.9918558026
 21
0.8793015938
 31
0.0
  0
LINE
  5
2B5
100
AcDbEntity
  8
0
100
AcDbLine
 62
7
  6
CONTINUOUS
 10
-82.991289117
 20
1.247623018
 30
0.0
 11
-82.9700759136
 21
1.2598712558
 31
0.0
  0
LINE
  5
2B6
100
AcDbEntity
  8
0
100
AcDbLine
 62
7
  6
CONTINUOUS
 10
-83.9393319109
 20
0.5091968511
 30
0.0
 11
-83.9181187075
 21
0.5214450889
 31
0.0
  0
LINE
  5
2B7
100
AcDbEntity
  8
0
100
AcDbLine
 62
250
  6
CONTINUOUS
 10
-82.7022396398
 20
1.0927438507
 30
0.0
 11
-82.6810264364
 21
1.1049920885
 31
0.0
  0
LINE
  5
2B8
100
AcDbEntity
  8
0
100
AcDbLine
 62
250
  6
CONTINUOUS
 10
-25.326818921
 20
33.9419943165
 30
0.0
 11
-24.9142714667
 21
34.1801940462
 31
0.0
  0
LINE
  5
2B9
100
AcDbEntity
  8
0
100
AcDbLine
 62
7
  6
CONTINUOUS
 10
-83.8437508731
 20
0.0465614967
 30
0.0
 11
-83.8225376696
 21
0.0588097345
 31
0.0
  0
LINE
  5
2BA
100
AcDbEntity
  8
0
100
AcDbLine
 62
250
  6
CONTINUOUS
 10
-82.4938196839
 20
0.7172714245
 30
0.0
 11
-82.4726064805
 21
0.7295196623
 31
0.0
  0
LINE
  5
2BB
100
AcDbEntity
  8
0
100
AcDbLine
 62
7
  6
CONTINUOUS
 10
-82.9790548497
 20
0.3460159514
 30
0.0
 11
-82.9578416462
 21
0.3582641892
 31
0.0
  0
LINE
  5
2BC
100
AcDbEntity
  8
0
100
AcDbLine
 62
250
  6
CONTINUOUS
 10
-82.7812255542
 20
0.2317917956
 30
0.0
 11
-82.7600123508
 21
0.2440400334
 31
0.0
  0
LINE
  5
2BD
100
AcDbEntity
  8
0
100
AcDbLine
 62
7
  6
CONTINUOUS
 10
-83.3465335356
 20
-0.2405253833
 30
0.0
 11
-83.3253203322
 21
-0.2282771455
 31
0.0
  0
LINE
  5
2BE
100
AcDbEntity
  8
0
100
AcDbLine
 62
7
  6
CONTINUOUS
 10
-82.3979470344
 20
0.1765348798
 30
0.0
 11
-82.3767338309
 21
0.1887831176
 31
0.0
  0
LINE
  5
2BF
100
AcDbEntity
  8
0
100
AcDbLine
 62
250
  6
CONTINUOUS
 10
-82.5753770477
 20
-0.0668956014
 30
0.0
 11
-82.5541638443
 21
-0.0546473636
 31
0.0
  0
LINE
  5
2C0
100
AcDbEntity
  8
0
100
AcDbLine
 62
7
  6
CONTINUOUS
 10
-82.4140384759
 20
-0.7789363439
 30
0.0
 11
-82.3928252725
 21
-0.7666881061
 31
0.0
  0
LWPOLYLINE
  5
2C1
100
AcDbEntity
  8
RACCORDO
100
AcDbPolyline
 62
250
  6
CONTINUOUS
 90
13
 70
0
 10
-27.9661308533
 20
35.3255456447
 10
-27.9778955957
 20
35.319929467
 10
-27.9905880093
 20
35.3150327596
 10
-28.0040766452
 20
35.3109062351
 10
-28.0182218082
 20
35.3075926301
 10
-28.0328770038
 20
35.3051262618
 10
-28.0478904556
 20
35.3035326732
 10
-28.0631066766
 20
35.3028283683
 10
-28.0783680801
 20
35.3030206412
 10
-28.0935166111
 20
35.3041075007
 10
-28.108395384
 20
35.3060776906
 10
-28.1228503065
 20
35.3089108068
 10
-28.1330289738
 20
35.3115994558
  0
LWPOLYLINE
  5
2C2
100
AcDbEntity
  8
0
100
AcDbPolyline
 62
7
  6
CONTINUOUS
 90
12
 70
0
 10
-82.568230807
 20
0.525268451
 10
-82.5817869575
 20
0.5190460087
 10
-82.5968175934
 20
0.514687237
 10
-82.6128407341
 20
0.5125791206
 10
-82.6298993962
 20
0.5126858564
 10
-82.6480956965
 20
0.5147130167
 10
-82.6674984102
 20
0.5186003674
 10
-82.6880387621
 20
0.5244081424
 10
-82.709612544
 20
0.5320226159
 10
-82.7321850196
 20
0.541405879
 10
-82.7557909251
 20
0.5525958405
 10
-82.7804302605
 20
0.5655925004
  0
LWPOLYLINE
  5
2C3
100
AcDbEntity
  8
RACCORDO
100
AcDbPolyline
 62
250
  6
CONTINUOUS
 90
19
 70
0
 10
-52.7364655604
 20
-12.340581656
 10
-52.7301714999
 20
-12.3438580789
 10
-52.7240559737
 20
-12.3464571472
 10
-52.7181189818
 20
-12.3483788608
 10
-52.7123356337
 20
-12.3496192522
 10
-52.70673082
 20
-12.350182289
 10
-52.7013792117
 20
-12.3500798739
 10
-52.6962700572
 20
-12.3493068147
 10
-52.6914141081
 20
-12.3478683037
 10
-52.6869182903
 20
-12.3457918209
 10
-52.6827946293
 20
-12.3430796568
 10
-52.6790310996
 20
-12.3397295208
 10
-52.6756985505
 20
-12.3357620212
 10
-52.6727883725
 20
-12.3311568162
 10
-52.670309175
 20
-12.3259342476
 10
-52.6683576364
 20
-12.3201759488
 10
-52.6669659827
 20
-12.313909131
 10
-52.6661019879
 20
-12.3071065829
 10
-52.6657656518
 20
-12.2997683046
  0
LWPOLYLINE
  5
2C4
100
AcDbEntity
  8
RACCORDO
100
AcDbPolyline
 62
250
  6
CONTINUOUS
 90
16
 70
0
 10
-52.6657656518
 20
-12.2997683046
 10
-52.6503891386
 20
-12.3077716348
 10
-52.6336621423
 20
-12.3148143389
 10
-52.615763881
 20
-12.3208209594
 10
-52.5968861222
 20
-12.3257271393
 10
-52.577231128
 20
-12.3294803125
 10
-52.557009488
 20
-12.3320402663
 10
-52.5364378632
 20
-12.3333795724
 10
-52.5157366641
 20
-12.3334838813
 10
-52.4951276899
 20
-12.3323520753
 10
-52.4748317513
 20
-12.3299962809
 10
-52.4550663053
 20
-12.3264417388
 10
-52.436043125
 20
-12.3217265334
 10
-52.4179660306
 20
-12.315901185
 10
-52.4010287055
 20
-12.3090281082
 10
-52.3854126215
 20
-12.301180943
  0
LWPOLYLINE
  5
2C5
100
AcDbEntity
  8
RACCORDO
100
AcDbPolyline
 62
7
  6
CONTINUOUS
 90
13
 70
0
 10
-52.6950279936
 20
-12.4321411728
 10
-52.6766227641
 20
-12.4418997536
 10
-52.6553526993
 20
-12.4511390482
 10
-52.6336780352
 20
-12.4584534182
 10
-52.6117278101
 20
-12.4638010335
 10
-52.5896380314
 20
-12.4671617025
 10
-52.5676096817
 20
-12.4685295963
 10
-52.5458558723
 20
-12.4679296261
 10
-52.5245218647
 20
-12.4654119009
 10
-52.503759532
 20
-12.46104762
 10
-52.4837349305
 20
-12.4549313199
 10
-52.4646069995
 20
-12.447179703
 10
-52.4511124309
 20
-12.4404693098
  0
LINE
  5
2C6
100
AcDbEntity
  8
0
100
AcDbLine
 62
7
  6
CONTINUOUS
 10
-88.3569695056
 20
2.6524373712
 30
0.0
 11
-88.0318205944
 21
2.4647004649
 31
0.0
  0
LINE
  5
2C7
100
AcDbEntity
  8
0
100
AcDbLine
 62
7
  6
CONTINUOUS
 10
-87.3267262391
 20
2.0575878211
 30
0.0
 11
-86.9577628704
 21
1.8445529962
 31
0.0
  0
LINE
  5
2C8
100
AcDbEntity
  8
0
100
AcDbLine
 62
7
  6
CONTINUOUS
 10
-86.7591386969
 20
1.7298698878
 30
0.0
 11
-86.4061608912
 21
1.5260649266
 31
0.0
  0
LINE
  5
2C9
100
AcDbEntity
  8
0
100
AcDbLine
 62
7
  6
CONTINUOUS
 10
-85.8937001008
 20
1.2301764889
 30
0.0
 11
-85.8419526123
 21
1.2002981376
 31
0.0
  0
LINE
  5
2CA
100
AcDbEntity
  8
0
100
AcDbLine
 62
7
  6
CONTINUOUS
 10
-85.3274511117
 20
0.9032314194
 30
0.0
 11
-84.9665070411
 21
0.6948268366
 31
0.0
  0
LINE
  5
2CB
100
AcDbEntity
  8
0
100
AcDbLine
 62
7
  6
CONTINUOUS
 10
-84.9085695398
 20
0.6613744496
 30
0.0
 11
-84.5436098098
 21
0.4506512754
 31
0.0
  0
LINE
  5
2CC
100
AcDbEntity
  8
0
100
AcDbLine
 62
7
  6
CONTINUOUS
 10
-83.8437508731
 20
0.0465614967
 30
0.0
 11
-83.454878913
 21
-0.1779682994
 31
0.0
  0
LINE
  5
2CD
100
AcDbEntity
  8
0
100
AcDbLine
 62
7
  6
CONTINUOUS
 10
-83.3465335356
 20
-0.2405253833
 30
0.0
 11
-82.9790548497
 21
-0.452702971
 31
0.0
  0
LINE
  5
2CE
100
AcDbEntity
  8
0
100
AcDbLine
 62
7
  6
CONTINUOUS
 10
-82.4140384759
 20
-0.7789363439
 30
0.0
 11
-82.0591386845
 21
-0.9838510355
 31
0.0
  0
LINE
  5
2CF
100
AcDbEntity
  8
0
100
AcDbLine
 62
7
  6
CONTINUOUS
 10
-88.3357563021
 20
2.664685609
 30
0.0
 11
-88.0250011644
 21
2.4852594871
 31
0.0
  0
LINE
  5
2D0
100
AcDbEntity
  8
0
100
AcDbLine
 62
7
  6
CONTINUOUS
 10
-87.3055130356
 20
2.0698360589
 30
0.0
 11
-86.9577628704
 21
1.8690494718
 31
0.0
  0
LINE
  5
2D1
100
AcDbEntity
  8
0
100
AcDbLine
 62
7
  6
CONTINUOUS
 10
-86.7379254934
 20
1.7421181256
 30
0.0
 11
-86.4046973548
 21
1.5497163746
 31
0.0
  0
LINE
  5
2D2
100
AcDbEntity
  8
0
100
AcDbLine
 62
7
  6
CONTINUOUS
 10
-85.8724868973
 20
1.2424247267
 30
0.0
 11
-85.8313449856
 21
1.2186699024
 31
0.0
  0
LINE
  5
2D3
100
AcDbEntity
  8
0
100
AcDbLine
 62
7
  6
CONTINUOUS
 10
-85.3062379083
 20
0.9154796572
 30
0.0
 11
-84.9684909022
 21
0.7204687688
 31
0.0
  0
LINE
  5
2D4
100
AcDbEntity
  8
0
100
AcDbLine
 62
7
  6
CONTINUOUS
 10
-84.8873563364
 20
0.6736226874
 30
0.0
 11
-84.5374887366
 21
0.4716135201
 31
0.0
  0
LINE
  5
2D5
100
AcDbEntity
  8
0
100
AcDbLine
 62
7
  6
CONTINUOUS
 10
-83.8225376696
 20
0.0588097345
 30
0.0
 11
-83.4613882789
 21
-0.1497133974
 31
0.0
  0
LINE
  5
2D6
100
AcDbEntity
  8
0
100
AcDbLine
 62
7
  6
CONTINUOUS
 10
-83.3253203322
 20
-0.2282771455
 30
0.0
 11
-82.9790548497
 21
-0.4282064954
 31
0.0
  0
LINE
  5
2D7
100
AcDbEntity
  8
0
100
AcDbLine
 62
7
  6
CONTINUOUS
 10
-82.3928252725
 20
-0.7666881061
 30
0.0
 11
-82.0647467546
 21
-0.9561165305
 31
0.0
  0
LINE
  5
2D8
100
AcDbEntity
  8
0
100
AcDbLine
 62
7
  6
CONTINUOUS
 10
-84.4417984541
 20
0.7993147357
 30
0.0
 11
-83.9393319109
 21
0.5091968511
 31
0.0
  0
LINE
  5
2D9
100
AcDbEntity
  8
0
100
AcDbLine
 62
7
  6
CONTINUOUS
 10
-84.4205852506
 20
0.8115629735
 30
0.0
 11
-83.9181187075
 21
0.5214450889
 31
0.0
  0
LINE
  5
2DA
100
AcDbEntity
  8
0
100
AcDbLine
 62
7
  6
CONTINUOUS
 10
-84.013069006
 20
0.867053356
 30
0.0
 11
-84.3663254118
 21
1.0710191773
 31
0.0
  0
LINE
  5
2DB
100
AcDbEntity
  8
0
100
AcDbLine
 62
7
  6
CONTINUOUS
 10
-82.9790548497
 20
0.3460159514
 30
0.0
 11
-82.7812255542
 21
0.2317917956
 31
0.0
  0
LINE
  5
2DC
100
AcDbEntity
  8
0
100
AcDbLine
 62
7
  6
CONTINUOUS
 10
-82.9578416462
 20
0.3582641892
 30
0.0
 11
-82.7600123508
 21
0.2440400334
 31
0.0
  0
LINE
  5
2DD
100
AcDbEntity
  8
0
100
AcDbLine
 62
7
  6
CONTINUOUS
 10
-82.7804302605
 20
0.5655925004
 30
0.0
 11
-82.991289117
 21
0.6873397614
 31
0.0
  0
LINE
  5
2DE
100
AcDbEntity
  8
0
100
AcDbLine
 62
7
  6
CONTINUOUS
 10
-83.9972163791
 20
2.1761307003
 30
0.0
 11
-84.3541440833
 21
2.3822162834
 31
0.0
  0
LINE
  5
2DF
100
AcDbEntity
  8
0
100
AcDbLine
 62
7
  6
CONTINUOUS
 10
-85.1317953725
 20
2.8312223915
 30
0.0
 11
-85.4968484407
 21
3.0419994579
 31
0.0
  0
LINE
  5
2E0
100
AcDbEntity
  8
0
100
AcDbLine
 62
7
  6
CONTINUOUS
 10
-86.2308783125
 20
3.4658191063
 30
0.0
 11
-86.5995362111
 21
3.6786775566
 31
0.0
  0
LINE
  5
2E1
100
AcDbEntity
  8
0
100
AcDbLine
 62
7
  6
CONTINUOUS
 10
-87.4636496891
 20
4.1776058489
 30
0.0
 11
-87.8323606206
 21
4.3904949197
 31
0.0
  0
LINE
  5
2E2
100
AcDbEntity
  8
0
100
AcDbLine
 62
7
  6
CONTINUOUS
 10
-88.5165189583
 20
4.7855193694
 30
0.0
 11
-88.9173268809
 21
5.0169408406
 31
0.0
  0
LINE
  5
2E3
100
AcDbEntity
  8
0
100
AcDbLine
 62
7
  6
CONTINUOUS
 10
-86.9577628704
 20
3.8856356106
 30
0.0
 11
-87.3267262391
 21
4.0986704354
 31
0.0
  0
LINE
  5
2E4
100
AcDbEntity
  8
RACCORDO
100
AcDbLine
 62
250
  6
CONTINUOUS
 10
-52.5735560538
 20
-13.0717332389
 30
0.0
 11
-118.3116678189
 21
24.8846286022
 31
0.0
  0
LINE
  5
2E5
100
AcDbEntity
  8
RACCORDO
100
AcDbLine
 62
250
  6
CONTINUOUS
 10
-52.4346028406
 20
-12.8282342101
 30
0.0
 11
-118.1727146056
 21
25.128127631
 31
0.0
  0
LINE
  5
2E6
100
AcDbEntity
  8
RACCORDO
100
AcDbLine
 62
7
  6
CONTINUOUS
 10
-118.1073417881
 20
25.3361089982
 30
0.0
 11
-52.6950490361
 21
-12.4321290282
 31
0.0
  0
LINE
  5
2E7
100
AcDbEntity
  8
RACCORDO
100
AcDbLine
 62
250
  6
CONTINUOUS
 10
-118.1487583123
 20
25.4276563704
 30
0.0
 11
-52.7364655604
 21
-12.340581656
 31
0.0
  0
LINE
  5
2E8
100
AcDbEntity
  8
RACCORDO
100
AcDbLine
 62
7
  6
CONTINUOUS
 10
-52.4151820728
 20
-12.4211472595
 30
0.0
 11
-52.1372353378
 21
-12.5816302208
 31
0.0
  0
LINE
  5
2E9
100
AcDbEntity
  8
RACCORDO
100
AcDbLine
 62
7
  6
CONTINUOUS
 10
-52.2264736093
 20
-12.3196659547
 30
0.0
 11
-52.1372353378
 21
-12.3711910143
 31
0.0
  0
LINE
  5
2EA
100
AcDbEntity
  8
RACCORDO
100
AcDbLine
 62
7
  6
CONTINUOUS
 10
-52.2138386252
 20
-12.3128712691
 30
0.0
 11
-52.1372353378
 21
-12.3570967728
 31
0.0
  0
LWPOLYLINE
  5
2EB
100
AcDbEntity
  8
RACCORDO
100
AcDbPolyline
 62
250
  6
CONTINUOUS
 90
25
 70
0
 10
-118.1727145558
 20
25.1281276597
 10
-118.1957420348
 20
25.1420916135
 10
-118.218756618
 20
25.1577867847
 10
-118.2416617662
 20
25.1751666794
 10
-118.2643905662
 20
25.1942010703
 10
-118.2868108369
 20
25.2148054151
 10
-118.3087309217
 20
25.2368224094
 10
-118.3300393092
 20
25.2601394821
 10
-118.3506619355
 20
25.2846715453
 10
-118.3704747654
 20
25.3102717545
 10
-118.3893889476
 20
25.3368170582
 10
-118.4073336202
 20
25.3641961539
 10
-118.424223281
 20
25.3922677654
 10
-118.4400041728
 20
25.4209342638
 10
-118.4546002129
 20
25.4500438725
 10
-118.4679139443
 20
25.4793665823
 10
-118.4798573143
 20
25.5086438352
 10
-118.4904611486
 20
25.5378808758
 10
-118.4997910032
 20
25.567244796
 10
-118.5078068783
 20
25.596676978
 10
-118.5144340732
 20
25.6259884645
 10
-118.5196421636
 20
25.6551446745
 10
-118.5233786134
 20
25.6840414054
 10
-118.5255845591
 20
25.7125090986
 10
-118.5262140972
 20
25.7404068283
  0
LWPOLYLINE
  5
2EC
100
AcDbEntity
  8
RACCORDO
100
AcDbPolyline
 62
250
  6
CONTINUOUS
 90
25
 70
0
 10
-118.3116678189
 20
24.8846286022
 10
-118.3439136215
 20
24.9044344427
 10
-118.3758841607
 20
24.9265042484
 10
-118.4075794364
 20
24.9508380193
 10
-118.4391772194
 20
24.9775827018
 10
-118.4704997388
 20
25.0065913495
 10
-118.5010136831
 20
25.0374231235
 10
-118.5306792877
 20
25.0700996913
 10
-118.5595363172
 20
25.1045993855
 10
-118.5871707525
 20
25.1404163645
 10
-118.6135514942
 20
25.1775606074
 10
-118.6387096418
 20
25.2160221352
 10
-118.6623244748
 20
25.2552651691
 10
-118.6843805272
 20
25.2953350608
 10
-118.7048932649
 20
25.3361864586
 10
-118.7235883659
 20
25.3771475281
 10
-118.7403855266
 20
25.4180335401
 10
-118.7553650505
 20
25.4590292238
 10
-118.7684935263
 20
25.5000169323
 10
-118.7798249417
 20
25.5410952639
 10
-118.7893053089
 20
25.5821656203
 10
-118.7967392537
 20
25.62281456
 10
-118.8020616512
 20
25.6629042691
 10
-118.8053376262
 20
25.7025725615
 10
-118.8065671786
 20
25.7418194371
  0
LWPOLYLINE
  5
2ED
100
AcDbEntity
  8
0
100
AcDbPolyline
 62
7
  6
CONTINUOUS
 90
16
 70
0
 10
-82.7812255542
 20
0.2317917956
 10
-82.7627542209
 20
0.2201340979
 10
-82.7450285206
 20
0.207395442
 10
-82.7280484532
 20
0.1935758281
 10
-82.7118483992
 20
0.1787018375
 10
-82.6963939782
 20
0.1627468887
 10
-82.681582049
 20
0.1456312376
 10
-82.6674398405
 20
0.1274385721
 10
-82.6539401239
 20
0.1080852042
 10
-82.640898072
 20
0.0872403255
 10
-82.6281228173
 20
0.064685641
 10
-82.6158052274
 20
0.0406394457
 10
-82.604333078
 20
0.0154258161
 10
-82.5938356275
 20
-0.0108472221
 10
-82.5841836174
 20
-0.0382876946
 10
-82.5753770477
 20
-0.0668956014
  0
LWPOLYLINE
  5
2EE
100
AcDbEntity
  8
0
100
AcDbPolyline
 62
7
  6
CONTINUOUS
 90
16
 70
0
 10
-82.7600123508
 20
0.2440400334
 10
-82.7416984867
 20
0.2324629752
 10
-82.7241632355
 20
0.2198893805
 10
-82.7074065972
 20
0.2063192495
 10
-82.6915136841
 20
0.191842463
 10
-82.6763993838
 20
0.17636914
 10
-82.6618083601
 20
0.1596296375
 10
-82.6477074376
 20
0.1416779005
 10
-82.6341297915
 20
0.1224599839
 10
-82.6209196115
 20
0.1015444092
 10
-82.6078360663
 20
0.0785719633
 10
-82.5951199872
 20
0.0539018593
 10
-82.5833380571
 20
0.0281802585
 10
-82.5726791704
 20
0.0016225479
 10
-82.5629544328
 20
-0.0259866594
 10
-82.5541638443
 20
-0.0546473636
  0
LWPOLYLINE
  5
2EF
100
AcDbEntity
  8
RACCORDO
100
AcDbPolyline
 62
250
  6
CONTINUOUS
 90
9
 70
0
 10
-118.2194582208
 20
25.550112204
 10
-118.2333194871
 20
25.5589903992
 10
-118.2455170133
 20
25.5686483464
 10
-118.2559201109
 20
25.5789825679
 10
-118.2644173171
 20
25.58988234
 10
-118.2709175895
 20
25.6012308798
 10
-118.2753512815
 20
25.612906596
 10
-118.2776708879
 20
25.6247843916
 10
-118.2780368646
 20
25.6317671227
  0
LWPOLYLINE
  5
2F0
100
AcDbEntity
  8
RACCORDO
100
AcDbPolyline
 62
250
  6
CONTINUOUS
 90
9
 70
0
 10
-52.078656694
 20
-12.7860397796
 10
-52.0925181633
 20
-12.7771614399
 10
-52.1047158101
 20
-12.7675033509
 10
-52.115118954
 20
-12.7571690001
 10
-52.1236161431
 20
-12.7462691202
 10
-52.1301163492
 20
-12.7349205004
 10
-52.134549942
 20
-12.7232447341
 10
-52.1368694314
 20
-12.7113669221
 10
-52.137235329
 20
-12.7044190845
  0
LWPOLYLINE
  5
2F1
100
AcDbEntity
  8
RACCORDO
100
AcDbPolyline
 62
250
  6
CONTINUOUS
 90
5
 70
0
 10
-52.0959185637
 20
31.9265430198
 10
-52.0884846189
 20
31.8858940801
 10
-52.0831622215
 20
31.8458043711
 10
-52.0798862465
 20
31.8061360787
 10
-52.078656694
 20
31.766889203
  0
LWPOLYLINE
  5
2F2
100
AcDbEntity
  8
RACCORDO
100
AcDbPolyline
 62
250
  6
CONTINUOUS
 90
31
 70
0
 10
-33.4757527059
 20
33.6080070387
 10
-33.4784363994
 20
33.6730184084
 10
-33.4839522247
 20
33.738927328
 10
-33.4921988707
 20
33.8055107984
 10
-33.5030193835
 20
33.8722874671
 10
-33.5163336543
 20
33.9393078594
 10
-33.5322382181
 20
34.0071908602
 10
-33.5507927631
 20
34.0760928413
 10
-33.5718902006
 20
34.1455197146
 10
-33.5954407015
 20
34.2151394448
 10
-33.6213548208
 20
34.2847084405
 10
-33.6495789187
 20
34.3541094222
 10
-33.680056541
 20
34.4231973723
 10
-33.7127133075
 20
34.4918023761
 10
-33.7474589196
 20
34.5597370079
 10
-33.7842091335
 20
34.626830999
 10
-33.8228922723
 20
34.6929446278
 10
-33.8633874391
 20
34.7578683362
 10
-33.9055226071
 20
34.8213358774
 10
-33.9489554053
 20
34.8828773344
 10
-33.9937824162
 20
34.9426647829
 10
-34.0405308767
 20
35.0013385959
 10
-34.0892920937
 20
35.0588731063
 10
-34.1398149831
 20
35.1148224941
 10
-34.1921568827
 20
35.1690965809
 10
-34.2463588459
 20
35.2215636187
 10
-34.3021512057
 20
35.2717945081
 10
-34.3591019812
 20
35.3192682558
 10
-34.4169533724
 20
35.3636749586
 10
-34.4756323564
 20
35.4048648306
 10
-34.5349592798
 20
35.4426066385
  0
LWPOLYLINE
  5
2F3
100
AcDbEntity
  8
RACCORDO
100
AcDbPolyline
 62
7
  6
CONTINUOUS
 90
22
 70
0
 10
-25.326818921
 20
38.9837483829
 10
-25.3282561273
 20
39.0293202582
 10
-25.3324876259
 20
39.0752857355
 10
-25.3393982212
 20
39.1214849217
 10
-25.3488937531
 20
39.1678272026
 10
-25.3608722358
 20
39.2141300569
 10
-25.3751848066
 20
39.2600788804
 10
-25.3916850545
 20
39.3054431971
 10
-25.4102865204
 20
39.3501588699
 10
-25.430903432
 20
39.3941227326
 10
-25.4534279152
 20
39.4371710683
 10
-25.4777689036
 20
39.4791718734
 10
-25.5038782677
 20
39.5200509391
 10
-25.5316839794
 20
39.5596750441
 10
-25.5610881885
 20
39.5978707905
 10
-25.5920244021
 20
39.6345047998
 10
-25.6244457498
 20
39.6694541281
 10
-25.6582463717
 20
39.7025244566
 10
-25.6932962223
 20
39.7335076209
 10
-25.7295152071
 20
39.7622461437
 10
-25.7668513785
 20
39.788595507
 10
-25.8052266036
 20
39.8123803746
  0
LWPOLYLINE
  5
2F4
100
AcDbEntity
  8
RACCORDO
100
AcDbPolyline
 62
250
  6
CONTINUOUS
 90
31
 70
0
 10
-34.3014951384
 20
33.6204917878
 10
-34.3024911679
 20
33.6601300255
 10
-34.3051086358
 20
33.7000186444
 10
-34.3093475422
 20
33.7401576445
 10
-34.3152186659
 20
33.7804998252
 10
-34.3227112281
 20
33.8210923871
 10
-34.3317928919
 20
33.8620769315
 10
-34.3424903991
 20
33.9036383172
 10
-34.3547770081
 20
33.9455916855
 10
-34.368540157
 20
33.9875240611
 10
-34.3837834552
 20
34.0293988636
 10
-34.4005032934
 20
34.0712526735
 10
-34.4185762818
 20
34.1127822568
 10
-34.4380138287
 20
34.1539912284
 10
-34.4588045258
 20
34.1948759733
 10
-34.4807907584
 20
34.2351224132
 10
-34.503997289
 20
34.2747451049
 10
-34.5283993551
 20
34.3137294916
 10
-34.553765055
 20
34.3517178246
 10
-34.579950901
 20
34.3885414012
 10
-34.6071003807
 20
34.4243689243
 10
-34.6354120553
 20
34.4593487537
 10
-34.6649795866
 20
34.4936498444
 10
-34.6957093127
 20
34.5271032414
 10
-34.7275188101
 20
34.5593504408
 10
-34.7605238283
 20
34.5904769383
 10
-34.7946086178
 20
34.6203972381
 10
-34.8293435052
 20
34.6484963481
 10
-34.8645852663
 20
34.674569271
 10
-34.9004771255
 20
34.6988210042
 10
-34.9370190827
 20
34.7212515476
  0
LWPOLYLINE
  5
2F5
100
AcDbEntity
  8
0
100
AcDbPolyline
 62
7
  6
CONTINUOUS
 90
28
 70
0
 10
-26.1163529948
 20
37.8566818393
 10
-26.1181280287
 20
37.9288719012
 10
-26.1235055987
 20
38.0029820669
 10
-26.1324745294
 20
38.0787749198
 10
-26.1450274138
 20
38.1561261618
 10
-26.1611239421
 20
38.234665307
 10
-26.1806410937
 20
38.3137606983
 10
-26.2034184979
 20
38.3929358149
 10
-26.2293889022
 20
38.4721232389
 10
-26.2585381572
 20
38.5512969023
 10
-26.2907664401
 20
38.6301976107
 10
-26.3259625965
 20
38.7085595209
 10
-26.364132779
 20
38.7863446024
 10
-26.4052964421
 20
38.8635049701
 10
-26.4492231501
 20
38.939542523
 10
-26.4955114113
 20
39.0137601401
 10
-26.5438677903
 20
39.0857384019
 10
-26.5942220498
 20
39.1554369267
 10
-26.6464697261
 20
39.2227550165
 10
-26.7003837965
 20
39.2874164359
 10
-26.7558301874
 20
39.3492734082
 10
-26.8128638474
 20
39.4083862023
 10
-26.8714861509
 20
39.4646859753
 10
-26.9313432563
 20
39.517769508
 10
-26.991953632
 20
39.5672148827
 10
-27.0530188141
 20
39.6128007526
 10
-27.1144352088
 20
39.6544561847
 10
-27.1760036531
 20
39.6920506159
  0
LINE
  5
2F6
100
AcDbEntity
  8
RACCORDO
100
AcDbLine
 62
250
  6
CONTINUOUS
 10
-34.3014951384
 20
-35.1682629284
 30
0.0
 11
-34.3014951384
 21
33.6204917878
 31
0.0
  0
LINE
  5
2F7
100
AcDbEntity
  8
RACCORDO
100
AcDbLine
 62
250
  6
CONTINUOUS
 10
-33.4757527059
 20
-35.1807476775
 30
0.0
 11
-33.4757527059
 21
33.6080070387
 31
0.0
  0
LINE
  5
2F8
100
AcDbEntity
  8
ASSI
100
AcDbLine
 62
7
  6
CONTINUOUS
 10
-28.1316073212
 20
-32.7097104525
 30
0.0
 11
-28.1316073212
 21
35.2222949929
 31
0.0
  0
LINE
  5
2F9
100
AcDbEntity
  8
RACCORDO
100
AcDbLine
 62
250
  6
CONTINUOUS
 10
-27.9661308533
 20
35.3255456447
 30
0.0
 11
-27.9661308533
 21
-32.5982411643
 31
0.0
  0
LINE
  5
2FA
100
AcDbEntity
  8
0
100
AcDbLine
 62
7
  6
CONTINUOUS
 10
-26.1163529948
 20
-31.7089170398
 30
0.0
 11
-26.1163529948
 21
37.8566818393
 31
0.0
  0
LINE
  5
2FB
100
AcDbEntity
  8
RACCORDO
100
AcDbLine
 62
250
  6
CONTINUOUS
 10
-25.382950961
 20
38.9035309755
 30
0.0
 11
-25.382950961
 21
-30.6574030899
 31
0.0
  0
LINE
  5
2FC
100
AcDbEntity
  8
RACCORDO
100
AcDbLine
 62
7
  6
CONTINUOUS
 10
-25.326818921
 20
38.9837483829
 30
0.0
 11
-25.326818921
 21
-30.5771856825
 31
0.0
  0
LINE
  5
2FD
100
AcDbEntity
  8
0
100
AcDbLine
 62
7
  6
CONTINUOUS
 10
-24.9142714667
 20
34.1801940462
 30
0.0
 11
-24.9142714668
 21
-23.2570354607
 31
0.0
  0
LWPOLYLINE
  5
2FE
100
AcDbEntity
  8
0
100
AcDbPolyline
 62
7
  6
CONTINUOUS
 90
15
 70
0
 10
-24.9142714668
 20
-23.2570354607
 10
-24.9167086734
 20
-23.4268388049
 10
-24.9239703349
 20
-23.5933473594
 10
-24.9360564511
 20
-23.7565611242
 10
-24.9529966322
 20
-23.9166814299
 10
-24.974761268
 20
-24.0735069459
 10
-25.0012615285
 20
-24.2264336806
 10
-25.0324938572
 20
-24.3753687651
 10
-25.0684618106
 20
-24.5204050683
 10
-25.1090872278
 20
-24.6612172047
 10
-25.1544163225
 20
-24.7978871453
 10
-25.2044028809
 20
-24.9303329191
 10
-25.258830101
 20
-25.0579832283
 10
-25.3176698296
 20
-25.1807292214
 10
-25.326818921
 20
-25.1977825323
  0
LWPOLYLINE
  5
2FF
100
AcDbEntity
  8
RACCORDO
100
AcDbPolyline
 62
250
  6
CONTINUOUS
 90
16
 70
0
 10
-27.9661308533
 20
-32.5982411643
 10
-27.9678787972
 20
-32.6629594318
 10
-27.9727360062
 20
-32.7264661242
 10
-27.9807845506
 20
-32.7884974464
 10
-27.9920678899
 20
-32.8486982147
 10
-28.0066697362
 20
-32.9068828305
 10
-28.0247529285
 20
-32.962998517
 10
-28.0465315715
 20
-33.0170273728
 10
-28.0719616497
 20
-33.0682870504
 10
-28.1007066335
 20
-33.1158349217
 10
-28.1325326246
 20
-33.1593142663
 10
-28.1674485714
 20
-33.1987771542
 10
-28.205337123
 20
-33.2340691215
 10
-28.2461225494
 20
-33.2650933884
 10
-28.2896225773
 20
-33.2916890031
 10
-28.3112691545
 20
-33.3027767907
  0
LWPOLYLINE
  5
300
100
AcDbEntity
  8
RACCORDO
100
AcDbPolyline
 62
250
  6
CONTINUOUS
 90
12
 70
0
 10
-25.382950961
 20
-30.6574030899
 10
-25.3840639194
 20
-30.6960159845
 10
-25.387398029
 20
-30.7331783175
 10
-25.3929390127
 20
-30.768730954
 10
-25.4006631433
 20
-30.8025216508
 10
-25.4105373452
 20
-30.8344057118
 10
-25.4225193371
 20
-30.8642466072
 10
-25.4365578128
 20
-30.8919165558
 10
-25.4525926569
 20
-30.9172970661
 10
-25.470555202
 20
-30.9402794483
 10
-25.4903685284
 20
-30.9607652886
 10
-25.5119477923
 20
-30.9786668647
  0
LWPOLYLINE
  5
301
100
AcDbEntity
  8
RACCORDO
100
AcDbPolyline
 62
250
  6
CONTINUOUS
 90
10
 70
0
 10
-25.326818921
 20
38.9837483829
 10
-25.3274203328
 20
38.9747997524
 10
-25.3294981578
 20
38.9649100038
 10
-25.3330445472
 20
38.9551604603
 10
-25.3380331069
 20
38.9456236831
 10
-25.3444267093
 20
38.9363706499
 10
-25.3521777701
 20
38.9274702265
 10
-25.3612286017
 20
38.9189886547
 10
-25.3715118431
 20
38.9109890586
 10
-25.382950961
 20
38.9035309755
  0
LWPOLYLINE
  5
302
100
AcDbEntity
  8
RACCORDO
100
AcDbPolyline
 62
250
  6
CONTINUOUS
 90
10
 70
0
 10
-25.326818921
 20
-30.5771856825
 10
-25.3274203328
 20
-30.586134313
 10
-25.3294981578
 20
-30.5960240615
 10
-25.3330445472
 20
-30.605773605
 10
-25.3380331068
 20
-30.6153103822
 10
-25.3444267093
 20
-30.6245634155
 10
-25.3521777701
 20
-30.6334638388
 10
-25.3612286017
 20
-30.6419454107
 10
-25.371511843
 20
-30.6499450068
 10
-25.382950961
 20
-30.6574030899
  0
LWPOLYLINE
  5
303
100
AcDbEntity
  8
0
100
AcDbPolyline
 62
7
  6
CONTINUOUS
 90
7
 70
0
 10
-82.3288264731
 20
0.1854695445
 10
-82.3215907116
 20
0.1884444535
 10
-82.314272252
 20
0.1916493797
 10
-82.3068694909
 20
0.1950612177
 10
-82.2993840317
 20
0.1987030728
 10
-82.2918464291
 20
0.2026971545
 10
-82.2865754373
 20
0.2056577052
  0
LWPOLYLINE
  5
304
100
AcDbEntity
  8
RACCORDO
100
AcDbPolyline
 62
250
  6
CONTINUOUS
 90
3
 70
0
 10
-52.1833640084
 20
-12.3182938104
 10
-52.2030790039
 20
-12.3120085271
 10
-52.2083161236
 20
-12.3099014465
  0
LWPOLYLINE
  5
305
100
AcDbEntity
  8
0
100
AcDbPolyline
 62
7
  6
CONTINUOUS
 90
10
 70
0
 10
-82.3979470344
 20
0.1765348798
 10
-82.3909399826
 20
0.1741925012
 10
-82.3839832396
 20
0.1727039656
 10
-82.3770768053
 20
0.172069273
 10
-82.3702481202
 20
0.1724187959
 10
-82.3634697438
 20
0.1736221618
 10
-82.356659355
 20
0.1752882529
 10
-82.3498149898
 20
0.1773818969
 10
-82.3429386122
 20
0.1799382662
 10
-82.3288264731
 20
0.1854695445
  0
LWPOLYLINE
  5
306
100
AcDbEntity
  8
0
100
AcDbPolyline
 62
7
  6
CONTINUOUS
 90
5
 70
0
 10
-82.3767338309
 20
0.1887831176
 10
-82.3697787043
 20
0.1864014929
 10
-82.3627758714
 20
0.1849126404
 10
-82.3557253323
 20
0.1843165601
 10
-82.3486323149
 20
0.1847469464
  0
LWPOLYLINE
  5
307
100
AcDbEntity
  8
0
100
AcDbPolyline
 62
7
  6
CONTINUOUS
 90
10
 70
0
 10
-82.9700759136
 20
1.2598712558
 10
-82.9373348338
 20
1.2472409961
 10
-82.9047805921
 20
1.2334858191
 10
-82.8724131884
 20
1.2186057248
 10
-82.8402735829
 20
1.202627002
 10
-82.8083208154
 20
1.1855233619
 10
-82.7764320051
 20
1.1672159372
 10
-82.7445661917
 20
1.1476784389
 10
-82.7127643354
 20
1.126937156
 10
-82.6810264364
 20
1.1049920885
  0
LWPOLYLINE
  5
308
100
AcDbEntity
  8
0
100
AcDbPolyline
 62
7
  6
CONTINUOUS
 90
10
 70
0
 10
-82.991289117
 20
1.247623018
 10
-82.9579608552
 20
1.2347208418
 10
-82.9250109484
 20
1.2207767544
 10
-82.8924393967
 20
1.2057907557
 10
-82.8603467891
 20
1.1898091708
 10
-82.8286325366
 20
1.1727856746
 10
-82.7969948721
 20
1.154581292
 10
-82.7653332066
 20
1.135149698
 10
-82.7337481292
 20
1.1145372175
 10
-82.7022396398
 20
1.0927438507
  0
LWPOLYLINE
  5
309
100
AcDbEntity
  8
RACCORDO
100
AcDbPolyline
 62
250
  6
CONTINUOUS
 90
16
 70
0
 10
-118.8065671786
 20
25.7418194371
 10
-118.7911906654
 20
25.733816107
 10
-118.7744636691
 20
25.7267734028
 10
-118.7565654078
 20
25.7207667824
 10
-118.737687649
 20
25.7158606024
 10
-118.7180326548
 20
25.7121074292
 10
-118.6978110148
 20
25.7095474755
 10
-118.67723939
 20
25.7082081693
 10
-118.6565381909
 20
25.7081038604
 10
-118.6359292167
 20
25.7092356665
 10
-118.6156332781
 20
25.7115914609
 10
-118.5958678321
 20
25.715146003
 10
-118.5768446518
 20
25.7198612083
 10
-118.5587675574
 20
25.7256865567
 10
-118.5418302323
 20
25.7325596336
 10
-118.5262141483
 20
25.7404067987
  0
LWPOLYLINE
  5
30A
100
AcDbEntity
  8
RACCORDO
100
AcDbPolyline
 62
250
  6
CONTINUOUS
 90
10
 70
0
 10
-52.4511201587
 20
-12.4404735491
 10
-52.4375056226
 20
-12.4316446777
 10
-52.4262477193
 20
-12.4216081237
 10
-52.4161416272
 20
-12.4096623832
 10
-52.4072743628
 20
-12.3958047223
 10
-52.3997835507
 20
-12.3801272753
 10
-52.3937697683
 20
-12.3627164218
 10
-52.3893209705
 20
-12.3436744207
 10
-52.3865134029
 20
-12.3231169476
 10
-52.3854126215
 20
-12.301180943
  0
LINE
  5
30B
100
AcDbEntity
  8
RACCORDO
100
AcDbLine
 62
250
  6
CONTINUOUS
 10
-52.4346028406
 20
-12.8282342101
 30
0.0
 11
-52.1372353378
 21
-12.6443376858
 31
0.0
  0
LINE
  5
30C
100
AcDbEntity
  8
RACCORDO
100
AcDbLine
 62
7
  6
CONTINUOUS
 10
-52.1813023302
 20
-12.8510486877
 30
0.0
 11
-52.1813707733
 21
-12.851090991
 31
0.0
  0
LWPOLYLINE
  5
30D
100
AcDbEntity
  8
RACCORDO
100
AcDbPolyline
 62
250
  6
CONTINUOUS
 90
14
 70
0
 10
-52.1813707733
 20
-12.851090991
 10
-52.186139941
 20
-12.853928573
 10
-52.2030587049
 20
-12.862381507
 10
-52.2209236569
 20
-12.8689200174
 10
-52.2395885687
 20
-12.8735160049
 10
-52.258871642
 20
-12.8761727659
 10
-52.2787590777
 20
-12.8769338611
 10
-52.2993663832
 20
-12.8758082934
 10
-52.3206630008
 20
-12.8727675201
 10
-52.3425208986
 20
-12.867799211
 10
-52.3649281921
 20
-12.8608750983
 10
-52.3878212542
 20
-12.851971258
 10
-52.4110797938
 20
-12.841089177
 10
-52.4346027912
 20
-12.8282341796
  0
LINE
  5
30E
100
AcDbEntity
  8
RACCORDO
100
AcDbLine
 62
250
  6
CONTINUOUS
 10
-52.3854126215
 20
-12.301180943
 30
0.0
 11
-52.1372353378
 21
-12.1677192312
 31
0.0
  0
LINE
  5
30F
100
AcDbEntity
  8
RACCORDO
100
AcDbLine
 62
7
  6
CONTINUOUS
 10
-52.4512027818
 20
-12.4405180311
 30
0.0
 11
-52.201320672
 21
-12.3061395189
 31
0.0
  0
LWPOLYLINE
  5
310
100
AcDbEntity
  8
RACCORDO
100
AcDbPolyline
 62
250
  6
CONTINUOUS
 90
4
 70
0
 10
-52.1372353378
 20
-12.3246845686
 10
-52.1476446105
 20
-12.3245385761
 10
-52.1649860298
 20
-12.3224007659
 10
-52.1833640084
 20
-12.3182938104
  0
LWPOLYLINE
  5
311
100
AcDbEntity
  8
RACCORDO
100
AcDbPolyline
 62
250
  6
CONTINUOUS
 90
17
 70
0
 10
-52.4460466533
 20
32.5311259384
 10
-52.4147241338
 20
32.5021172907
 10
-52.3842101896
 20
32.4712855167
 10
-52.3545445849
 20
32.4386089488
 10
-52.3256875555
 20
32.4041092547
 10
-52.2980531201
 20
32.3682922757
 10
-52.2716723784
 20
32.3311480327
 10
-52.2465142308
 20
32.2926865049
 10
-52.2228993978
 20
32.2534434711
 10
-52.2008433455
 20
32.2133735793
 10
-52.1803306077
 20
32.1725221815
 10
-52.1616355067
 20
32.131561112
 10
-52.1448383461
 20
32.0906751
 10
-52.1298588222
 20
32.0496794163
 10
-52.1167303464
 20
32.0086917078
 10
-52.105398931
 20
31.9676133762
 10
-52.0959185637
 20
31.9265430198
  0
LWPOLYLINE
  5
312
100
AcDbEntity
  8
RACCORDO
100
AcDbPolyline
 62
250
  6
CONTINUOUS
 90
10
 70
0
 10
-28.2235231895
 20
36.6400380153
 10
-28.1712540161
 20
36.5181093447
 10
-28.12471001
 20
36.3896550092
 10
-28.0838911709
 20
36.254675009
 10
-28.0485410469
 20
36.11251047
 10
-28.01891609
 20
35.9638202662
 10
-27.9957856566
 20
35.8105810196
 10
-27.9794061987
 20
35.6534516041
 10
-27.9695212643
 20
35.4917731458
 10
-27.9661308533
 20
35.3255456447
  0
LINE
  5
313
100
AcDbEntity
  8
RACCORDO
100
AcDbLine
 62
250
  6
CONTINUOUS
 10
-28.4230567438
 20
36.6008975684
 30
0.0
 11
-28.3728013291
 21
36.4829382873
 31
0.0
  0
LWPOLYLINE
  5
314
100
AcDbEntity
  8
0
100
AcDbPolyline
 62
7
  6
CONTINUOUS
 90
15
 70
0
 10
-25.326818921
 20
36.5970984338
 10
-25.3141455125
 20
36.5586832532
 10
-25.2558124914
 20
36.3688555023
 10
-25.2018566179
 20
36.1792292028
 10
-25.1523055418
 20
35.9899437734
 10
-25.1073722636
 20
35.8018097771
 10
-25.067102187
 20
35.6149607343
 10
-25.0314499084
 20
35.4292631246
 10
-25.000492217
 20
35.2451269495
 10
-24.974225617
 20
35.0624565053
 10
-24.9526536042
 20
34.8813474957
 10
-24.9358634551
 20
34.7024970337
 10
-24.9238842619
 20
34.5261374903
 10
-24.9166869325
 20
34.3520364945
 10
-24.9142714667
 20
34.1801940462
  0
LINE
  5
315
100
AcDbEntity
  8
RACCORDO
100
AcDbLine
 62
250
  6
CONTINUOUS
 10
-52.7364655604
 20
32.0810522697
 30
0.0
 11
-118.1487583123
 21
69.8492902961
 31
0.0
  0
LWPOLYLINE
  5
316
100
AcDbEntity
  8
RACCORDO
100
AcDbPolyline
 62
7
  6
CONTINUOUS
 90
24
 70
0
 10
-52.5321014029
 20
32.5325106686
 10
-52.5146616456
 20
32.521933673
 10
-52.490664035
 20
32.50576192
 10
-52.465726654
 20
32.4870002277
 10
-52.4402589975
 20
32.4657708754
 10
-52.4144946539
 20
32.4421185294
 10
-52.3886490452
 20
32.4160974934
 10
-52.3630693331
 20
32.387933866
 10
-52.3379781511
 20
32.3577769118
 10
-52.313584904
 20
32.3257881423
 10
-52.2901804952
 20
32.2922806883
 10
-52.2679466896
 20
32.2574743651
 10
-52.2470539411
 20
32.2216033361
 10
-52.2277246467
 20
32.1850465158
 10
-52.2100804126
 20
32.1480667652
 10
-52.1942259479
 20
32.1109317515
 10
-52.180294319
 20
32.074051258
 10
-52.1683251546
 20
32.0376874952
 10
-52.1583416814
 20
32.0021090249
 10
-52.1503736323
 20
31.9677321846
 10
-52.1443656206
 20
31.9347736156
 10
-52.1402455047
 20
31.9034595103
 10
-52.1379225556
 20
31.874207537
 10
-52.1372353175
 20
31.8485961003
  0
LWPOLYLINE
  5
317
100
AcDbEntity
  8
RACCORDO
100
AcDbPolyline
 62
250
  6
CONTINUOUS
 90
5
 70
0
 10
-52.5735560538
 20
32.6240800379
 10
-52.5413102512
 20
32.6042741975
 10
-52.509339712
 20
32.5822043918
 10
-52.4776444362
 20
32.5578706209
 10
-52.4460466533
 20
32.5311259384
  0
LWPOLYLINE
  5
318
100
AcDbEntity
  8
RACCORDO
100
AcDbPolyline
 62
250
  6
CONTINUOUS
 90
9
 70
0
 10
-118.2194582208
 20
69.8084769448
 10
-118.2333195022
 20
69.8173551508
 10
-118.2455170377
 20
69.8270131088
 10
-118.2559201393
 20
69.8373473406
 10
-118.2644173448
 20
69.8482471219
 10
-118.2709176126
 20
69.8595956693
 10
-118.2753512969
 20
69.8712713907
 10
-118.2776708938
 20
69.8831491891
 10
-118.2780368646
 20
69.8901318635
  0
LWPOLYLINE
  5
319
100
AcDbEntity
  8
RACCORDO
100
AcDbPolyline
 62
250
  6
CONTINUOUS
 90
9
 70
0
 10
-52.078656694
 20
31.766889203
 10
-52.0925179754
 20
31.775767409
 10
-52.1047155109
 20
31.7854253671
 10
-52.1151186124
 20
31.7957595988
 10
-52.123615818
 20
31.8066593802
 10
-52.1301160858
 20
31.8180079275
 10
-52.1345497701
 20
31.829683649
 10
-52.136869367
 20
31.8415614474
 10
-52.1372353378
 20
31.8485441217
  0
LWPOLYLINE
  5
31A
100
AcDbEntity
  8
RACCORDO
100
AcDbPolyline
 62
250
  6
CONTINUOUS
 90
22
 70
0
 10
-131.6811974042
 20
96.6109497807
 10
-131.6915082843
 20
96.6192583762
 10
-131.7008414893
 20
96.6288216934
 10
-131.7090964375
 20
96.6395371125
 10
-131.7161837189
 20
96.6512895233
 10
-131.7220272674
 20
96.663953155
 10
-131.726565521
 20
96.6773930896
 10
-131.7297501394
 20
96.6914657519
 10
-131.7315465496
 20
96.7060204532
 10
-131.7319357944
 20
96.7209017265
 10
-131.7309137758
 20
96.7359505305
 10
-131.7284912596
 20
96.7510059216
 10
-131.7246941414
 20
96.7659069521
 10
-131.7195631659
 20
96.780494412
 10
-131.7131531141
 20
96.7946123328
 10
-131.7055322613
 20
96.8081096638
 10
-131.696782598
 20
96.8208423846
 10
-131.6869974796
 20
96.8326743001
 10
-131.676280603
 20
96.8434784728
 10
-131.6647468317
 20
96.8531395606
 10
-131.6525206212
 20
96.8615548755
 10
-131.6397334757
 20
96.8686348682
  0
LWPOLYLINE
  5
31B
100
AcDbEntity
  8
ASSI
100
AcDbPolyline
 62
7
  6
CONTINUOUS
 90
24
 70
0
 10
-28.4088918962
 20
36.5335208099
 10
-28.4359725274
 20
36.5836264934
 10
-28.4674697444
 20
36.6351232345
 10
-28.5034546227
 20
36.687878322
 10
-28.5441174131
 20
36.7417698449
 10
-28.5893908703
 20
36.7966090531
 10
-28.6389132411
 20
36.8521273622
 10
-28.6928832476
 20
36.9081886166
 10
-28.7511029538
 20
36.9645100062
 10
-28.8124838241
 20
37.0205636441
 10
-28.8767521089
 20
37.0758978504
 10
-28.943933689
 20
37.1305001306
 10
-29.0132968685
 20
37.1844968692
 10
-29.084827883
 20
37.2377326128
 10
-29.1582837418
 20
37.2899308457
 10
-29.232555898
 20
37.3410577567
 10
-29.30737181
 20
37.3908815784
 10
-29.3826712211
 20
37.4392881512
 10
-29.4576359598
 20
37.4864532072
 10
-29.5319659078
 20
37.5321850168
 10
-29.6056334911
 20
37.5764153617
 10
-29.6782448423
 20
37.619504069
 10
-29.7499540783
 20
37.6615911053
 10
-29.9529556365
 20
37.778384863
  0
LWPOLYLINE
  5
31C
100
AcDbEntity
  8
RACCORDO
100
AcDbPolyline
 62
7
  6
CONTINUOUS
 90
13
 70
0
 10
-25.5306744636
 20
-30.9912295398
 10
-25.5019662004
 20
-30.9719814948
 10
-25.4746700601
 20
-30.9498094107
 10
-25.4490405065
 20
-30.9247510259
 10
-25.4253782566
 20
-30.8969445501
 10
-25.4038427064
 20
-30.8664191611
 10
-25.384493889
 20
-30.8330041504
 10
-25.3674825382
 20
-30.7965347803
 10
-25.3531559891
 20
-30.7572585477
 10
-25.3418035744
 20
-30.7155720258
 10
-25.3335636095
 20
-30.6716621959
 10
-25.3285266423
 20
-30.6255044557
 10
-25.326818921
 20
-30.5771856825
  0
LINE
  5
31D
100
AcDbEntity
  8
DRAFT
100
AcDbLine
 62
7
  6
CONTINUOUS
 10
-25.5306744636
 20
-30.9912295398
 30
0.0
 11
-26.1163529948
 21
-31.3462973758
 31
0.0
  0
LINE
  5
31E
100
AcDbEntity
  8
RACCORDO
100
AcDbLine
 62
250
  6
CONTINUOUS
 10
-25.382950961
 20
-30.6574030899
 30
0.0
 11
-26.1163529948
 21
-31.0959057977
 31
0.0
  0
LINE
  5
31F
100
AcDbEntity
  8
0
100
AcDbLine
 62
250
  6
CONTINUOUS
 10
-25.326818921
 20
-23.4952351904
 30
0.0
 11
-24.9142714668
 21
-23.2570354607
 31
0.0
  0
LWPOLYLINE
  5
320
100
AcDbEntity
  8
RACCORDO
100
AcDbPolyline
 62
250
  6
CONTINUOUS
 90
11
 70
0
 10
-118.0098050991
 20
70.0927893248
 10
-118.0286777382
 20
70.1024928326
 10
-118.0472520426
 20
70.1101828482
 10
-118.0653905637
 20
70.1158434518
 10
-118.0829182965
 20
70.1194688213
 10
-118.0997646736
 20
70.1210932483
 10
-118.1159474962
 20
70.1207377012
 10
-118.1313864438
 20
70.1183928
 10
-118.1459230342
 20
70.1140708295
 10
-118.1594507446
 20
70.1077990327
 10
-118.1632954245
 20
70.1055441188
  0
LWPOLYLINE
  5
321
100
AcDbEntity
  8
RACCORDO
100
AcDbPolyline
 62
250
  6
CONTINUOUS
 90
16
 70
0
 10
-52.6657656518
 20
31.9585964362
 10
-52.6503891572
 20
31.9505931148
 10
-52.6336621797
 20
31.943550416
 10
-52.6157639362
 20
31.9375437978
 10
-52.5968861934
 20
31.9326376175
 10
-52.5772312122
 20
31.9288844416
 10
-52.5570095815
 20
31.9263244835
 10
-52.5364379613
 20
31.9249851718
 10
-52.5157367624
 20
31.924880857
 10
-52.4951277836
 20
31.9260126575
 10
-52.4748318359
 20
31.9283684475
 10
-52.455066377
 20
31.9319229868
 10
-52.4360431807
 20
31.9366381915
 10
-52.4179660684
 20
31.942463542
 10
-52.4010287243
 20
31.9493366241
 10
-52.3854126215
 20
31.9571837978
  0
LWPOLYLINE
  5
322
100
AcDbEntity
  8
RACCORDO
100
AcDbPolyline
 62
250
  6
CONTINUOUS
 90
19
 70
0
 10
-118.1487583123
 20
69.8492902961
 10
-118.1550523728
 20
69.852566719
 10
-118.161167899
 20
69.8551657873
 10
-118.1671048909
 20
69.857087501
 10
-118.1728882389
 20
69.8583278924
 10
-118.1784930527
 20
69.8588909291
 10
-118.183844661
 20
69.8587885141
 10
-118.1889538155
 20
69.8580154549
 10
-118.1938097645
 20
69.8565769439
 10
-118.1983055823
 20
69.8545004611
 10
-118.2024292433
 20
69.8517882969
 10
-118.206192773
 20
69.848438161
 10
-118.2095253221
 20
69.8444706614
 10
-118.2124355002
 20
69.8398654564
 10
-118.2149146976
 20
69.8346428878
 10
-118.2168662362
 20
69.828884589
 10
-118.2182578899
 20
69.8226177711
 10
-118.2191218848
 20
69.8158152231
 10
-118.2194582208
 20
69.8084769448
  0
LWPOLYLINE
  5
323
100
AcDbEntity
  8
RACCORDO
100
AcDbPolyline
 62
250
  6
CONTINUOUS
 90
16
 70
0
 10
-118.8065671786
 20
70.2947484197
 10
-118.7911906846
 20
70.2867450986
 10
-118.7744637071
 20
70.2797023998
 10
-118.7565654628
 20
70.2736957814
 10
-118.737687718
 20
70.2687896006
 10
-118.7180327341
 20
70.2650364244
 10
-118.6978111004
 20
70.2624764663
 10
-118.6772394773
 20
70.261137155
 10
-118.6565382755
 20
70.261032841
 10
-118.6359292949
 20
70.2621646424
 10
-118.6156333466
 20
70.2645204334
 10
-118.595867888
 20
70.2680749737
 10
-118.5768446939
 20
70.272790179
 10
-118.5587675852
 20
70.2786155292
 10
-118.5418302459
 20
70.2854886101
 10
-118.5262141483
 20
70.2933357813
  0
LWPOLYLINE
  5
324
100
AcDbEntity
  8
RACCORDO
100
AcDbPolyline
 62
250
  6
CONTINUOUS
 90
19
 70
0
 10
-34.3014951384
 20
33.6204917878
 10
-34.264239226
 20
33.6007228587
 10
-34.2242309191
 20
33.5828366761
 10
-34.1817547472
 20
33.5669604492
 10
-34.137112792
 20
33.5532070931
 10
-34.0906225398
 20
33.5416744258
 10
-34.0426146242
 20
33.5324444724
 10
-33.9934304717
 20
33.5255828808
 10
-33.9434198767
 20
33.5211384559
 10
-33.8929385157
 20
33.5191428115
 10
-33.84234541
 20
33.5196101455
 10
-33.7920003783
 20
33.5225371391
 10
-33.7422614812
 20
33.5279029795
 10
-33.6934824628
 20
33.5356695087
 10
-33.6460102429
 20
33.5457814948
 10
-33.6001824542
 20
33.5581670228
 10
-33.5563250294
 20
33.5727380082
 10
-33.5147498844
 20
33.5893908245
 10
-33.4757527059
 20
33.6080070387
  0
LINE
  5
325
100
AcDbEntity
  8
RACCORDO
100
AcDbLine
 62
250
  6
CONTINUOUS
 10
-52.5975123471
 20
32.3245512984
 30
0.0
 11
-118.0098050991
 21
70.0927893248
 31
0.0
  0
LINE
  5
326
100
AcDbEntity
  8
RACCORDO
100
AcDbLine
 62
7
  6
CONTINUOUS
 10
-118.2702512946
 20
70.4888945068
 30
0.0
 11
-52.5321395295
 21
32.5325326656
 31
0.0
  0
LINE
  5
327
100
AcDbEntity
  8
RACCORDO
100
AcDbLine
 62
250
  6
CONTINUOUS
 10
-118.3116678189
 20
70.580441879
 30
0.0
 11
-52.5735560538
 21
32.6240800379
 31
0.0
  0
LINE
  5
328
100
AcDbEntity
  8
RACCORDO
100
AcDbLine
 62
250
  6
CONTINUOUS
 10
-34.9370190827
 20
34.7212515476
 30
0.0
 11
-135.9482047899
 21
93.0438442075
 31
0.0
  0
LINE
  5
329
100
AcDbEntity
  8
RACCORDO
100
AcDbLine
 62
250
  6
CONTINUOUS
 10
-34.5349592798
 20
35.4426066385
 30
0.0
 11
-135.5461449869
 21
93.7651992983
 31
0.0
  0
LWPOLYLINE
  5
32A
100
AcDbEntity
  8
RACCORDO
100
AcDbPolyline
 62
250
  6
CONTINUOUS
 90
11
 70
0
 10
-136.5837287342
 20
92.6769715686
 10
-136.6179675124
 20
92.698482795
 10
-136.6489454264
 20
92.7215832189
 10
-136.6764421618
 20
92.7461085507
 10
-136.7002621624
 20
92.7718843664
 10
-136.7202360207
 20
92.798727349
 10
-136.7362216831
 20
92.8264465917
 10
-136.7481054597
 20
92.8548449557
 10
-136.7558028334
 20
92.8837204723
 10
-136.7592590605
 20
92.9128677794
 10
-136.7594646655
 20
92.9219363245
  0
LWPOLYLINE
  5
32B
100
AcDbEntity
  8
RACCORDO
100
AcDbPolyline
 62
250
  6
CONTINUOUS
 90
22
 70
0
 10
-25.8013529195
 20
39.7337864277
 10
-25.7682259364
 20
39.7057405524
 10
-25.7356750619
 20
39.6755447065
 10
-25.7038396808
 20
39.6433281897
 10
-25.6728561142
 20
39.6092289534
 10
-25.6428570425
 20
39.5733930188
 10
-25.6139709338
 20
39.5359738494
 10
-25.5863214835
 20
39.4971316817
 10
-25.5600270896
 20
39.4570328433
 10
-25.5352003526
 20
39.4158490511
 10
-25.5119475935
 20
39.3737566811
 10
-25.490368371
 20
39.3309359607
 10
-25.4705550659
 20
39.2875702018
 10
-25.4525925066
 20
39.2438450491
 10
-25.4365576423
 20
39.1999477925
 10
-25.4225191737
 20
39.1560665119
 10
-25.4105372209
 20
39.1123891677
 10
-25.4006630649
 20
39.0691027372
 10
-25.3929389701
 20
39.0263925195
 10
-25.3873980098
 20
38.9844413867
 10
-25.3840639146
 20
38.9434289986
 10
-25.382950961
 20
38.9035309755
  0
LWPOLYLINE
  5
32C
100
AcDbEntity
  8
RACCORDO
100
AcDbPolyline
 62
250
  6
CONTINUOUS
 90
10
 70
0
 10
-29.6084369986
 20
37.6754171947
 10
-29.6134777507
 20
37.680014336
 10
-29.6179993869
 20
37.6853397457
 10
-29.6219747027
 20
37.6913613839
 10
-29.6253797811
 20
37.6980430217
 10
-29.6281941354
 20
37.7053444592
 10
-29.6304008333
 20
37.7132217679
 10
-29.6319865983
 20
37.7216275543
 10
-29.6329418897
 20
37.7305112454
 10
-29.63326096
 20
37.7398193929
  0
LWPOLYLINE
  5
32D
100
AcDbEntity
  8
RACCORDO
100
AcDbPolyline
 62
250
  6
CONTINUOUS
 90
17
 70
0
 10
-33.8349562675
 20
-35.8917087244
 10
-33.8068456574
 20
-35.8775756814
 10
-33.768931171
 20
-35.8547641151
 10
-33.7329533287
 20
-35.8285524523
 10
-33.6990566924
 20
-35.7990544075
 10
-33.6674770334
 20
-35.7665342069
 10
-33.6381136204
 20
-35.7309484307
 10
-33.6106755005
 20
-35.6918473153
 10
-33.5852305615
 20
-35.649064021
 10
-33.5620393532
 20
-35.6027374371
 10
-33.5412086465
 20
-35.5527425621
 10
-33.5228730712
 20
-35.4989437694
 10
-33.5072694042
 20
-35.4415069056
 10
-33.4946328416
 20
-35.3808068224
 10
-33.4851028632
 20
-35.3170717396
 10
-33.4787726764
 20
-35.2503343442
 10
-33.4757527059
 20
-35.1807476775
  0
LWPOLYLINE
  5
32E
100
AcDbEntity
  8
0
100
AcDbPolyline
 62
7
  6
CONTINUOUS
 90
16
 70
0
 10
-26.4599209541
 20
-32.4126979264
 10
-26.4485813616
 20
-32.4070686408
 10
-26.4046869709
 20
-32.38169052
 10
-26.3635505111
 20
-32.3519840104
 10
-26.3253890194
 20
-32.3181802405
 10
-26.2902016112
 20
-32.2803598637
 10
-26.2580215365
 20
-32.238605064
 10
-26.2289732261
 20
-32.1931099526
 10
-26.203120038
 20
-32.1440075368
 10
-26.1804403893
 20
-32.0912381002
 10
-26.1609956094
 20
-32.0347826929
 10
-26.1449546693
 20
-31.9749487682
 10
-26.1324393538
 20
-31.9121832344
 10
-26.1234925473
 20
-31.8468077227
 10
-26.1181256282
 20
-31.7789716058
 10
-26.1163529948
 20
-31.7089170398
  0
LINE
  5
32F
100
AcDbEntity
  8
RACCORDO
100
AcDbLine
 62
7
  6
CONTINUOUS
 10
-28.3116878485
 20
-33.3029783266
 30
0.0
 11
-26.4599209605
 21
-32.4126979294
 31
0.0
  0
LWPOLYLINE
  5
330
100
AcDbEntity
  8
RACCORDO
100
AcDbPolyline
 62
250
  6
CONTINUOUS
 90
13
 70
0
 10
-26.1163529948
 20
-31.7089170398
 10
-27.9778956804
 20
-32.6038573784
 10
-27.9905881822
 20
-32.608754109
 10
-28.0040769054
 20
-32.6128806439
 10
-28.018222153
 20
-32.6161942481
 10
-28.0328774253
 20
-32.6186606049
 10
-28.0478909359
 20
-32.6202541723
 10
-28.0631071948
 20
-32.6209584494
 10
-28.0783686143
 20
-32.6207661453
 10
-28.0935171339
 20
-32.6196792551
 10
-28.1083958682
 20
-32.6177090391
 10
-28.1228507283
 20
-32.6148759054
 10
-28.1316073212
 20
-32.612562874
  0
LINE
  5
331
100
AcDbEntity
  8
RACCORDO
100
AcDbLine
 62
250
  6
CONTINUOUS
 10
-33.4757527059
 20
-35.1807476775
 30
0.0
 11
-28.1316073212
 21
-32.7097104525
 31
0.0
  0
LINE
  5
332
100
AcDbEntity
  8
RACCORDO
100
AcDbLine
 62
7
  6
CONTINUOUS
 10
-33.8355308418
 20
-35.8919748386
 30
0.0
 11
-28.4817960528
 21
-33.4165036446
 31
0.0
  0
LWPOLYLINE
  5
333
100
AcDbEntity
  8
RACCORDO
100
AcDbPolyline
 62
7
  6
CONTINUOUS
 90
3
 70
0
 10
-28.3355216931
 20
-33.3133639261
 10
-28.3238870321
 20
-33.3086755148
 10
-28.3113052573
 20
-33.3027924536
  0
LWPOLYLINE
  5
334
100
AcDbEntity
  8
RACCORDO
100
AcDbPolyline
 62
250
  6
CONTINUOUS
 90
10
 70
0
 10
-25.8052266036
 20
39.8123803746
 10
-25.8132813835
 20
39.8163357768
 10
-25.8228845178
 20
39.8194802461
 10
-25.8331005208
 20
39.8212828124
 10
-25.8438533599
 20
39.82173006
 10
-25.8550630067
 20
39.8208186603
 10
-25.8666460333
 20
39.8185553963
 10
-25.8785162325
 20
39.8149571126
 10
-25.8905852603
 20
39.8100505893
 10
-25.9027632926
 20
39.8038723434
  0
LWPOLYLINE
  5
335
100
AcDbEntity
  8
RACCORDO
100
AcDbPolyline
 62
250
  6
CONTINUOUS
 90
18
 70
0
 10
-135.5461449869
 20
93.7651992983
 10
-135.6033825934
 20
93.7951486854
 10
-135.6598344702
 20
93.8213742515
 10
-135.7153533292
 20
93.8439079347
 10
-135.7695863163
 20
93.8627272313
 10
-135.8226296585
 20
93.8779801993
 10
-135.8749965245
 20
93.8898516695
 10
-135.9267836521
 20
93.8983285772
 10
-135.9775996039
 20
93.9033085642
 10
-136.0272061389
 20
93.9047577951
 10
-136.0754324536
 20
93.9026809292
 10
-136.1221969039
 20
93.8970927624
 10
-136.1674063578
 20
93.8880047071
 10
-136.2109483012
 20
93.8754376829
 10
-136.2527008069
 20
93.8594255556
 10
-136.2925602495
 20
93.8400057664
 10
-136.3304427686
 20
93.8172126577
 10
-136.3415577624
 20
93.8096180609
  0
LWPOLYLINE
  5
336
100
AcDbEntity
  8
RACCORDO
100
AcDbPolyline
 62
250
  6
CONTINUOUS
 90
31
 70
0
 10
-135.9482047899
 20
93.0438442075
 10
-135.9820355538
 20
93.0622275878
 10
-136.0152723636
 20
93.078395811
 10
-136.0479152192
 20
93.0923488769
 10
-136.0799178526
 20
93.104047625
 10
-136.1113265318
 20
93.1135312159
 10
-136.1422800611
 20
93.1209171315
 10
-136.172925166
 20
93.1262592116
 10
-136.203115121
 20
93.1295036163
 10
-136.2325485539
 20
93.1306063081
 10
-136.2611919793
 20
93.1295437853
 10
-136.2890788826
 20
93.1263395496
 10
-136.3160083479
 20
93.1210200682
 10
-136.3419778011
 20
93.1135706823
 10
-136.3669898163
 20
93.1040060507
 10
-136.3908511999
 20
93.0923966177
 10
-136.4135621762
 20
93.0787139207
 10
-136.4351225208
 20
93.0629864224
 10
-136.4553383665
 20
93.0453699546
 10
-136.4741353583
 20
93.0259872657
 10
-136.4915878512
 20
93.0047156075
 10
-136.5077250426
 20
92.9813425668
 10
-136.5226464211
 20
92.9558174394
 10
-136.5362524981
 20
92.9281909295
 10
-136.5482740058
 20
92.898402737
 10
-136.5587271078
 20
92.8663285425
 10
-136.5675956405
 20
92.8320926654
 10
-136.5745618453
 20
92.7960077636
 10
-136.5795198028
 20
92.7581780566
 10
-136.5825754325
 20
92.7184993249
 10
-136.5837287342
 20
92.6769715686
  0
LWPOLYLINE
  5
337
100
AcDbEntity
  8
0
100
AcDbPolyline
 62
7
  6
CONTINUOUS
 90
16
 70
0
 10
-128.8599778146
 20
98.4031028973
 10
-128.9215454806
 20
98.4366043276
 10
-128.9830179299
 20
98.4658946896
 10
-129.0441771642
 20
98.4908593565
 10
-129.1048935372
 20
98.5114295673
 10
-129.164857437
 20
98.5274718794
 10
-129.2235976979
 20
98.5388582749
 10
-129.2807754414
 20
98.5455807548
 10
-129.3363603134
 20
98.547697855
 10
-129.3903561437
 20
98.5452246753
 10
-129.4425832284
 20
98.5381692526
 10
-129.4928575219
 20
98.5265550305
 10
-129.5411504898
 20
98.5103622201
 10
-129.5874081679
 20
98.4895390861
 10
-129.6313024886
 20
98.4641610057
 10
-129.6413591485
 20
98.4574704268
  0
LWPOLYLINE
  5
338
100
AcDbEntity
  8
ASSI
100
AcDbPolyline
 62
7
  6
CONTINUOUS
 90
4
 70
0
 10
-131.6630946178
 20
96.5031919119
 10
-131.7071995091
 20
96.5283553972
 10
-131.7507311134
 20
96.5537348322
 10
-131.8358636551
 20
96.6039690888
  0
LWPOLYLINE
  5
339
100
AcDbEntity
  8
ASSI
100
AcDbPolyline
 62
7
  6
CONTINUOUS
 90
3
 70
0
 10
-29.9529556365
 20
37.778384863
 10
-30.1767268074
 20
37.9059435877
 10
-30.222394944
 20
37.9326032709
  0
LINE
  5
33A
100
AcDbEntity
  8
0
100
AcDbLine
 62
7
  6
CONTINUOUS
 10
-75.1994366734
 20
68.8084211204
 30
0.0
 11
-120.9709659295
 21
94.8674079878
 31
0.0
  0
LWPOLYLINE
  5
33B
100
AcDbEntity
  8
ASSI
100
AcDbPolyline
 62
7
  6
CONTINUOUS
 90
11
 70
0
 10
-131.9598982319
 20
96.6764069816
 10
-131.987388995
 20
96.6922126779
 10
-132.0188871228
 20
96.7097195592
 10
-132.0471848012
 20
96.7249026191
 10
-132.0723844353
 20
96.7377657059
 10
-132.0949030317
 20
96.7479616481
 10
-132.1145707769
 20
96.7554449878
 10
-132.1311973653
 20
96.7601236952
 10
-132.1451509275
 20
96.7615605224
 10
-132.1562539563
 20
96.7597324054
 10
-132.1614680778
 20
96.7570577099
  0
LINE
  5
33C
100
AcDbEntity
  8
ASSI
100
AcDbLine
 62
7
  6
CONTINUOUS
 10
-30.222394944
 20
37.9326032709
 30
0.0
 11
-131.6630946178
 21
96.5031919119
 31
0.0
  0
LINE
  5
33D
100
AcDbEntity
  8
RACCORDO
100
AcDbLine
 62
250
  6
CONTINUOUS
 10
-131.6811926337
 20
96.6109470264
 30
0.0
 11
-29.6084451419
 21
37.6754218966
 31
0.0
  0
LINE
  5
33E
100
AcDbEntity
  8
RACCORDO
100
AcDbLine
 62
250
  6
CONTINUOUS
 10
-131.7060209845
 20
96.6753517589
 30
0.0
 11
-29.6332609282
 21
37.7398193745
 31
0.0
  0
LINE
  5
33F
100
AcDbEntity
  8
RACCORDO
100
AcDbLine
 62
250
  6
CONTINUOUS
 10
-131.4002836295
 20
96.5568646662
 30
0.0
 11
-29.9389986971
 21
37.9743903548
 31
0.0
  0
LINE
  5
340
100
AcDbEntity
  8
RACCORDO
100
AcDbLine
 62
250
  6
CONTINUOUS
 10
-131.298844147
 20
96.7377885288
 30
0.0
 11
-29.8375592146
 21
38.1553142174
 31
0.0
  0
LINE
  5
341
100
AcDbEntity
  8
0
100
AcDbLine
 62
7
  6
CONTINUOUS
 10
-27.1760036531
 20
39.6920506159
 30
0.0
 11
-128.8599778146
 21
98.4031028973
 31
0.0
  0
LINE
  5
342
100
AcDbEntity
  8
RACCORDO
100
AcDbLine
 62
250
  6
CONTINUOUS
 10
-127.5826974768
 20
98.5125919925
 30
0.0
 11
-25.9027632926
 21
39.8038723434
 31
0.0
  0
LINE
  5
343
100
AcDbEntity
  8
RACCORDO
100
AcDbLine
 62
7
  6
CONTINUOUS
 10
-127.4851607878
 20
98.5211000237
 30
0.0
 11
-25.8052266036
 21
39.8123803746
 31
0.0
  0
LINE
  5
344
100
AcDbEntity
  8
0
100
AcDbLine
 62
7
  6
CONTINUOUS
 10
-75.1731085495
 20
68.7931960102
 30
0.0
 11
-75.1994366734
 21
68.8084211204
 31
0.0
  0
LINE
  5
345
100
AcDbEntity
  8
ASSI
100
AcDbLine
 62
7
  6
CONTINUOUS
 10
-131.8358636551
 20
96.6039690888
 30
0.0
 11
-131.9598982319
 21
96.6764069816
 31
0.0
  0
LINE
  5
346
100
AcDbEntity
  8
0
100
AcDbLine
 62
7
  6
CONTINUOUS
 10
-75.1731085495
 20
68.7931960102
 30
0.0
 11
-29.4081612888
 21
42.0001921397
 31
0.0
  0
LWPOLYLINE
  5
347
100
AcDbEntity
  8
RACCORDO
100
AcDbPolyline
 62
250
  6
CONTINUOUS
 90
10
 70
0
 10
-29.9389986971
 20
37.9743903548
 10
-29.9072146872
 20
37.9555330437
 10
-29.8750084229
 20
37.9350526154
 10
-29.8423799042
 20
37.9129490697
 10
-29.8094950764
 20
37.8894602941
 10
-29.7761879943
 20
37.8643484011
 10
-29.741960822
 20
37.8368997289
 10
-29.7066476142
 20
37.8068763901
 10
-29.6704143163
 20
37.7745162719
 10
-29.6332609282
 20
37.7398193745
  0
LWPOLYLINE
  5
348
100
AcDbEntity
  8
RACCORDO
100
AcDbPolyline
 62
250
  6
CONTINUOUS
 90
10
 70
0
 10
-29.8375592146
 20
38.1553142174
 10
-29.8024574472
 20
38.1341975571
 10
-29.7668046841
 20
38.1113588377
 10
-29.7306402867
 20
38.0867585438
 10
-29.6942558568
 20
38.0605534788
 10
-29.6574486603
 20
38.0325366645
 10
-29.6195311569
 20
38.0020443015
 10
-29.5803286195
 20
37.9687473424
 10
-29.5401705005
 20
37.9327463247
 10
-29.4991510523
 20
37.8939473425
  0
LWPOLYLINE
  5
349
100
AcDbEntity
  8
0
100
AcDbPolyline
 62
7
  6
CONTINUOUS
 90
8
 70
0
 10
-29.4081612888
 20
42.0001921397
 10
-29.2605648785
 20
41.9109929001
 10
-29.1134369814
 20
41.8165463737
 10
-28.9667775975
 20
41.7168525603
 10
-28.8204002363
 20
41.611768687
 10
-28.6744913882
 20
41.5014375267
 10
-28.5296105249
 20
41.386287399
 10
-28.5261749639
 20
41.3834218563
  0
LWPOLYLINE
  5
34A
100
AcDbEntity
  8
RACCORDO
100
AcDbPolyline
 62
250
  6
CONTINUOUS
 90
4
 70
0
 10
-25.9027632926
 20
39.8038723434
 10
-25.8687659347
 20
39.7829576027
 10
-25.8349141575
 20
39.7595622367
 10
-25.8013529195
 20
39.7337864277
  0
LWPOLYLINE
  5
34B
100
AcDbEntity
  8
RACCORDO
100
AcDbPolyline
 62
250
  6
CONTINUOUS
 90
25
 70
0
 10
-29.6084451419
 20
37.6754218966
 10
-29.5512044098
 20
37.6394979671
 10
-29.4928776954
 20
37.6023100858
 10
-29.4335095009
 20
37.5637918929
 10
-29.3728699715
 20
37.5236872021
 10
-29.3112975393
 20
37.4820941542
 10
-29.2496911122
 20
37.4394772259
 10
-29.1881122623
 20
37.3957395148
 10
-29.126627663
 20
37.3508029628
 10
-29.0661307987
 20
37.3051826633
 10
-29.0066549774
 20
37.2587604375
 10
-28.9482958723
 20
37.2114937255
 10
-28.8920079992
 20
37.1640598157
 10
-28.8379478694
 20
37.1164829411
 10
-28.7860536338
 20
37.0686387226
 10
-28.7369067709
 20
37.0210446749
 10
-28.6907410851
 20
36.9739006211
 10
-28.6473713887
 20
36.9269744566
 10
-28.6067299429
 20
36.8801641961
 10
-28.5687687321
 20
36.8334004499
 10
-28.5335980013
 20
36.7867098536
 10
-28.5013923286
 20
36.7401303545
 10
-28.4722338242
 20
36.6936591704
 10
-28.4461101051
 20
36.6472551563
 10
-28.4230567438
 20
36.6008975684
  0
LWPOLYLINE
  5
34C
100
AcDbEntity
  8
RACCORDO
100
AcDbPolyline
 62
250
  6
CONTINUOUS
 90
25
 70
0
 10
-29.4991510523
 20
37.8939473425
 10
-29.4369375621
 20
37.8529832598
 10
-29.3734310159
 20
37.810158986
 10
-29.3087777372
 20
37.7655280957
 10
-29.2429166444
 20
37.7191465174
 10
-29.176224207
 20
37.67110137
 10
-29.1094937586
 20
37.6215397244
 10
-29.0428512711
 20
37.5706324835
 10
-28.9764668011
 20
37.5184868511
 10
-28.9111635441
 20
37.4652114494
 10
-28.847004863
 20
37.4109394557
 10
-28.7841816408
 20
37.3558961674
 10
-28.7236444002
 20
37.3003685083
 10
-28.6655507386
 20
37.2446067317
 10
-28.6098752568
 20
37.1887634821
 10
-28.5572206527
 20
37.1329925929
 10
-28.5078488319
 20
37.0777108809
 10
-28.4615188781
 20
37.0228712997
 10
-28.4181156047
 20
36.9679324652
 10
-28.3776970571
 20
36.9130579471
 10
-28.3403486723
 20
36.8584551443
 10
-28.3061267324
 20
36.8036845888
 10
-28.2751631654
 20
36.7487621705
 10
-28.2475897065
 20
36.6941326358
 10
-28.2235231895
 20
36.6400380153
  0
LWPOLYLINE
  5
34D
100
AcDbEntity
  8
RACCORDO
100
AcDbPolyline
 62
250
  6
CONTINUOUS
 90
10
 70
0
 10
-127.4851607878
 20
98.5211000237
 10
-127.4932155678
 20
98.5250554259
 10
-127.502818702
 20
98.5281998952
 10
-127.5130347051
 20
98.5300024615
 10
-127.5237875441
 20
98.5304497091
 10
-127.534997191
 20
98.5295383094
 10
-127.5465802175
 20
98.5272750454
 10
-127.5584504168
 20
98.5236767616
 10
-127.5705194446
 20
98.5187702383
 10
-127.5826974768
 20
98.5125919925
  0
LWPOLYLINE
  5
34E
100
AcDbEntity
  8
RACCORDO
100
AcDbPolyline
 62
7
  6
CONTINUOUS
 90
13
 70
0
 10
-127.4851607878
 20
98.5211000237
 10
-127.5279736894
 20
98.5438373835
 10
-127.5705168194
 20
98.5625659419
 10
-127.6126475675
 20
98.577367419
 10
-127.6543102117
 20
98.588343192
 10
-127.6953041464
 20
98.5955495672
 10
-127.7352334219
 20
98.5990609865
 10
-127.7737153338
 20
98.5990482014
 10
-127.8108148503
 20
98.5957176234
 10
-127.8467258757
 20
98.5891835035
 10
-127.8813615337
 20
98.5795349729
 10
-127.9144154978
 20
98.5669415412
 10
-127.9457138248
 20
98.5515816624
  0
LWPOLYLINE
  5
34F
100
AcDbEntity
  8
0
100
AcDbPolyline
 62
7
  6
CONTINUOUS
 90
8
 70
0
 10
-121.8529522544
 20
95.2691334046
 10
-121.8495166933
 20
95.2680316475
 10
-121.70463583
 20
95.2158769859
 10
-121.5587269819
 20
95.1577162657
 10
-121.4123496207
 20
95.0937672314
 10
-121.2656902368
 20
95.0241024643
 10
-121.1185623397
 20
94.9486493831
 10
-120.9709659295
 20
94.8674079878
  0
LWPOLYLINE
  5
350
100
AcDbEntity
  8
RACCORDO
100
AcDbPolyline
 62
250
  6
CONTINUOUS
 90
10
 70
0
 10
-131.6397283765
 20
96.8686339111
 10
-131.6024931208
 20
96.8608828208
 10
-131.5652923177
 20
96.85144722
 10
-131.5281927806
 20
96.8404021791
 10
-131.4916987525
 20
96.82798229
 10
-131.4554362277
 20
96.8141416362
 10
-131.4181198521
 20
96.7983671942
 10
-131.3793322977
 20
96.7803533574
 10
-131.3395578589
 20
96.7601889283
 10
-131.298844147
 20
96.7377885288
  0
LWPOLYLINE
  5
351
100
AcDbEntity
  8
RACCORDO
100
AcDbPolyline
 62
250
  6
CONTINUOUS
 90
10
 70
0
 10
-131.7060209845
 20
96.6753517589
 10
-131.6725024254
 20
96.6681957248
 10
-131.6391341318
 20
96.6596554399
 10
-131.6059161036
 20
96.6497309041
 10
-131.5731994473
 20
96.6385795159
 10
-131.5406330565
 20
96.6260438768
 10
-131.5071636113
 20
96.6116517918
 10
-131.4724400051
 20
96.5952458626
 10
-131.4368133445
 20
96.5769834874
 10
-131.4002836295
 20
96.5568646662
  0
LWPOLYLINE
  5
352
100
AcDbEntity
  8
RACCORDO
100
AcDbPolyline
 62
250
  6
CONTINUOUS
 90
9
 70
0
 10
-131.8730236942
 20
96.6785337673
 10
-131.855886901
 20
96.6774592751
 10
-131.836753252
 20
96.6740283479
 10
-131.8155546126
 20
96.6683137673
 10
-131.7922331805
 20
96.6604166413
 10
-131.7671427146
 20
96.6506398627
 10
-131.7403692647
 20
96.6391310695
 10
-131.7117323171
 20
96.6258805801
 10
-131.6811926337
 20
96.6109470264
  0
ELLIPSE
  5
353
100
AcDbEntity
  8
ASSI
100
AcDbEllipse
 62
7
  6
CONTINUOUS
 10
-31.4431401352
 20
33.5006886559
 30
0.0
 11
2.4087873736
 21
3.7455255811
 31
0.0
 40
0.6067084637
 41
-0.7562804351
 42
-0.3441436833
  0
ELLIPSE
  5
354
100
AcDbEntity
  8
0
100
AcDbEllipse
 62
7
  6
CONTINUOUS
 10
-29.1937230857
 20
-32.0930989857
 30
0.0
 11
-0.752093153
 21
1.3025803154
 31
0.0
 40
0.5757524875
 41
-3.1938070556
 42
-2.3576120761
  0
ENDSEC
  0
SECTION
  2
OBJECTS
  0
DICTIONARY
  5
C
100
AcDbDictionary
280
0
281
1
  3
ACAD_GROUP
350
D
  3
ACAD_MLINESTYLE
350
17
  3
ACAD_LAYOUT
350
1A
  3
ACAD_PLOTSETTINGS
350
19
  3
ACAD_PLOTSTYLENAME
350
E
  0
DICTIONARY
  5
D
102
{ACAD_REACTORS
330
C
102
}
100
AcDbDictionary
280
0
281
1
  0
ACDBDICTIONARYWDFLT
  5
E
102
{ACAD_REACTORS
330
C
102
}
100
AcDbDictionary
281
1
  3
Normal
350
F
100
AcDbDictionaryWithDefault
340
F
  0
DICTIONARY
  5
17
102
{ACAD_REACTORS
330
C
102
}
100
AcDbDictionary
280
0
281
1
  3
Standard
350
18
  0
DICTIONARY
  5
19
102
{ACAD_REACTORS
330
C
102
}
100
AcDbDictionary
281
1
  0
DICTIONARY
  5
1A
102
{ACAD_REACTORS
330
C
102
}
100
AcDbDictionary
281
1
  3
Model
350
355
  3
Layout1
350
356
  0
ACDBPLACEHOLDER
  5
F
102
{ACAD_REACTORS
330
E
102
}
  0
MLINESTYLE
  5
18
102
{ACAD_REACTORS
330
17
102
}
100
AcDbMlineStyle
  2
STANDARD
 70
0
  3

 62
256
 51
90.0
 52
90.0
 71
2
 49
0.5
 62
256
  6
BYLAYER
 49
-0.5
 62
256
  6
BYLAYER
  0
LAYOUT
  5
355
102
{ACAD_REACTORS
330
1A
102
}
100
AcDbPlotSettings
  1

  2
none_device
  4
ISO_A4_(297.00_x_210.00_MM)
  6

 40
0.0
 41
0.0
 42
0.0
 43
0.0
 44
297.0
 45
210.0
 46
0.0
 47
0.0
 48
0.0
 49
0.0
140
0.0
141
0.0
142
1.0
143
1.0
 70
1024
 72
1
 73
0
 74
0
  7

 75
0
147
1.0
148
0.0
149
0.0
100
AcDbLayout
  1
Model
 70
0
 71
0
 10
0.0
 20
0.0
 11
297.0
 21
210.0
 12
0.0
 22
0.0
 32
0.0
 14
0.0
 24
0.0
 34
0.0
 15
0.0
 25
0.0
 35
0.0
146
0.0
 13
0.0
 23
0.0
 33
0.0
 16
1.0
 26
0.0
 36
0.0
 17
0.0
 27
1.0
 37
0.0
 76
0
330
219
345
0
346
0
  0
LAYOUT
  5
356
102
{ACAD_REACTORS
330
1A
102
}
100
AcDbPlotSettings
  1

  2
none_device
  4
ISO_A4_(297.00_x_210.00_MM)
  6

 40
0.0
 41
0.0
 42
0.0
 43
0.0
 44
297.0
 45
210.0
 46
0.0
 47
0.0
 48
0.0
 49
0.0
140
0.0
141
0.0
142
1.0
143
1.0
 70
0
 72
1
 73
0
 74
0
  7

 75
0
147
1.0
148
0.0
149
0.0
100
AcDbLayout
  1
Layout1
 70
0
 71
1
 10
0.0
 20
0.0
 11
297.0
 21
210.0
 12
0.0
 22
0.0
 32
0.0
 14
0.0
 24
0.0
 34
0.0
 15
0.0
 25
0.0
 35
0.0
146
0.0
 13
0.0
 23
0.0
 33
0.0
 16
1.0
 26
0.0
 36
0.0
 17
0.0
 27
1.0
 37
0.0
 76
0
330
21A
345
0
346
0
  0
ENDSEC
  0
EOF
