  0
SECTION
  2
HEADER
  9
$ACADVER
  1
AC1024
  9
$DWGCODEPAGE
  3
ANSI_1252
  9
$EXTMAX
 10
420.0
 20
297.0
 30
0.0
  9
$EXTMIN
 10
0.0
 20
-0.0
 30
0.0
  9
$LIMMIN
 10
0.0
 20
-0.0
  9
$LIMMAX
 10
420.0
 20
297.0
  9
$VIEWCTR
 10
210.0
 20
148.5
  9
$VIEWSIZE
 40
297.0
  9
$CLAYER
  8
0
  9
$LTSCALE
 40
23.1
  9
$CELTYPE
  6
BYLAYER
  9
$DIMSCALE
 40
1.0
  9
$DIMASZ
 40
3.0
  9
$DIMEXO
 40
0.5
  9
$DIMDLI
 40
15.96
  9
$DIMEXE
 40
1.5
  9
$DIMCEN
 40
3.78
  9
$DIMLFAC
 40
1.0
  9
$DIMBLK
  1
_FILLED
  9
$DIMALT
 70
0
  9
$DIMALTF
 40
0.0393700787
  9
$DIMTXT
 40
3.0
  9
$DIMTOL
 70
1
  9
$DIMLIM
 70
0
  9
$DIMTFAC
 40
1.0
  9
$DIMTP
 40
0.01
  9
$DIMTM
 40
0.01
  9
$DIMGAP
 40
0.625
  9
$DIMDSEP
 70
44
  9
$AUNITS
 70
0
  9
$PDMODE
 70
3
  9
$PDSIZE
 40
3.0
  9
$HANDSEED
  5
2BE
  9
$TILEMODE
 70
1
  9
$MEASUREMENT
 70
1
  9
$INSUNITS
 70
4
  0
ENDSEC
  0
SECTION
  2
CLASSES
  0
CLASS
  1
ACDBDICTIONARYWDFLT
  2
AcDbDictionaryWithDefault
  3
AutoCAD 2000
 90
0
 91
1
280
0
281
0
  0
CLASS
  1
ACDBPLACEHOLDER
  2
AcDbPlaceHolder
  3
AutoCAD 2000
 90
0
 91
1
280
0
281
0
  0
CLASS
  1
LAYOUT
  2
AcDbLayout
  3
AutoCAD 2000
 90
0
 91
0
280
0
281
0
  0
ENDSEC
  0
SECTION
  2
TABLES
  0
TABLE
  2
VPORT
  5
8
100
AcDbSymbolTable
 70
2
  0
VPORT
  5
1F4
100
AcDbSymbolTableRecord
100
AcDbViewportTableRecord
  2
*ACTIVE
 70
0
 10
0.0
 20
0.0
 11
1.0
 21
1.0
 12
210.0
 22
148.5
 13
0.0
 23
0.0
 14
1.0
 24
1.0
 15
0.0
 25
0.0
 16
0.0
 26
0.0
 36
1.0
 17
0.0
 27
0.0
 37
0.0
 40
297.0
 41
1.4141414141
 42
50.0
 43
0.0
 44
0.0
 50
0.0
 51
0.0
 71
0
 72
100
 73
1
 74
1
 75
0
 76
0
 77
0
 78
0
  0
ENDTAB
  0
TABLE
  2
LTYPE
  5
5
100
AcDbSymbolTable
 70
6
  0
LTYPE
  5
14
100
AcDbSymbolTableRecord
100
AcDbLinetypeTableRecord
  2
BYBLOCK
 70
0
  3

 72
65
 73
0
 40
0.0
  0
LTYPE
  5
15
100
AcDbSymbolTableRecord
100
AcDbLinetypeTableRecord
  2
BYLAYER
 70
0
  3

 72
65
 73
0
 40
0.0
  0
LTYPE
  5
16
100
AcDbSymbolTableRecord
100
AcDbLinetypeTableRecord
  2
CONTINUOUS
 70
64
  3
Solid line
 72
65
 73
0
 40
0.0
  0
LTYPE
  5
1F5
100
AcDbSymbolTableRecord
100
AcDbLinetypeTableRecord
  2
CENTER
 70
64
  3
____ _ ____ _ ____ _ ____ _ ____ _ ____ _ ____
 72
65
 73
4
 40
0.6
 49
0.375
 74
0
 49
-0.075
 74
0
 49
0.075
 74
0
 49
-0.075
 74
0
  0
LTYPE
  5
1F6
100
AcDbSymbolTableRecord
100
AcDbLinetypeTableRecord
  2
HIDDEN
 70
64
  3
- - - - - - - - - - - - - - - - - - - -
 72
65
 73
2
 40
0.2
 49
0.1
 74
0
 49
-0.1
 74
0
  0
LTYPE
  5
1F7
100
AcDbSymbolTableRecord
100
AcDbLinetypeTableRecord
  2
PHANTOM
 70
64
  3
_____ _ _ _____ _ _ _____ _ _ _____
 72
65
 73
6
 40
0.8
 49
0.45
 74
0
 49
-0.05
 74
0
 49
0.1
 74
0
 49
-0.05
 74
0
 49
0.1
 74
0
 49
-0.05
 74
0
  0
LTYPE
  5
1F8
100
AcDbSymbolTableRecord
100
AcDbLinetypeTableRecord
  2
DOT
 70
64
  3
. . . . . . . . . . . . . . . . . . . .
 72
65
 73
2
 40
0.2
 49
0.1
 74
0
 49
-0.1
 74
0
  0
LTYPE
  5
1F9
100
AcDbSymbolTableRecord
100
AcDbLinetypeTableRecord
  2
DASHED
 70
64
  3
- - - - - - - - - - - - - - - - - - - -
 72
65
 73
2
 40
0.2
 49
0.1
 74
0
 49
-0.1
 74
0
  0
ENDTAB
  0
TABLE
  2
LAYER
  5
2
100
AcDbSymbolTable
 70
36
  0
LAYER
  5
10
100
AcDbSymbolTableRecord
100
AcDbLayerTableRecord
  2
0
 70
0
 62
7
  6
CONTINUOUS
370
-3
390
F
  0
LAYER
  5
1FA
100
AcDbSymbolTableRecord
100
AcDbLayerTableRecord
  2
DEFAULT_1
 70
0
 62
7
  6
CENTER
370
-3
390
F
  0
LAYER
  5
1FB
100
AcDbSymbolTableRecord
100
AcDbLayerTableRecord
  2
DEFAULT_2
 70
0
 62
7
  6
HIDDEN
370
-3
390
F
  0
LAYER
  5
1FC
100
AcDbSymbolTableRecord
100
AcDbLayerTableRecord
  2
DEFAULT_3
 70
0
 62
7
  6
PHANTOM
370
-3
390
F
  0
LAYER
  5
1FD
100
AcDbSymbolTableRecord
100
AcDbLayerTableRecord
  2
9
 70
0
 62
7
  6
CONTINUOUS
370
-3
390
F
  0
LAYER
  5
1FE
100
AcDbSymbolTableRecord
100
AcDbLayerTableRecord
  2
ASSI
 70
0
 62
7
  6
CONTINUOUS
370
-3
390
F
  0
LAYER
  5
1FF
100
AcDbSymbolTableRecord
100
AcDbLayerTableRecord
  2
COORDINATE
 70
0
 62
7
  6
CONTINUOUS
370
-3
390
F
  0
LAYER
  5
200
100
AcDbSymbolTableRecord
100
AcDbLayerTableRecord
  2
COPY_PUBLISH
 70
0
 62
7
  6
CONTINUOUS
370
-3
390
F
  0
LAYER
  5
201
100
AcDbSymbolTableRecord
100
AcDbLayerTableRecord
  2
COSMETICI
 70
0
 62
7
  6
CONTINUOUS
370
-3
390
F
  0
LAYER
  5
202
100
AcDbSymbolTableRecord
100
AcDbLayerTableRecord
  2
CURVE
 70
0
 62
7
  6
CONTINUOUS
370
-3
390
F
  0
LAYER
  5
203
100
AcDbSymbolTableRecord
100
AcDbLayerTableRecord
  2
DRAFT
 70
0
 62
7
  6
CONTINUOUS
370
-3
390
F
  0
LAYER
  5
204
100
AcDbSymbolTableRecord
100
AcDbLayerTableRecord
  2
IMPORT_IGES
 70
0
 62
7
  6
CONTINUOUS
370
-3
390
F
  0
LAYER
  5
205
100
AcDbSymbolTableRecord
100
AcDbLayerTableRecord
  2
INTF_1
 70
0
 62
7
  6
CONTINUOUS
370
-3
390
F
  0
LAYER
  5
206
100
AcDbSymbolTableRecord
100
AcDbLayerTableRecord
  2
INTF_10
 70
0
 62
7
  6
CONTINUOUS
370
-3
390
F
  0
LAYER
  5
207
100
AcDbSymbolTableRecord
100
AcDbLayerTableRecord
  2
INTF_17
 70
0
 62
7
  6
CONTINUOUS
370
-3
390
F
  0
LAYER
  5
208
100
AcDbSymbolTableRecord
100
AcDbLayerTableRecord
  2
INTF_2
 70
0
 62
7
  6
CONTINUOUS
370
-3
390
F
  0
LAYER
  5
209
100
AcDbSymbolTableRecord
100
AcDbLayerTableRecord
  2
INTF_3
 70
0
 62
7
  6
CONTINUOUS
370
-3
390
F
  0
LAYER
  5
20A
100
AcDbSymbolTableRecord
100
AcDbLayerTableRecord
  2
INTF_4
 70
0
 62
7
  6
CONTINUOUS
370
-3
390
F
  0
LAYER
  5
20B
100
AcDbSymbolTableRecord
100
AcDbLayerTableRecord
  2
INTF_5
 70
0
 62
7
  6
CONTINUOUS
370
-3
390
F
  0
LAYER
  5
20C
100
AcDbSymbolTableRecord
100
AcDbLayerTableRecord
  2
INTF_6
 70
0
 62
7
  6
CONTINUOUS
370
-3
390
F
  0
LAYER
  5
20D
100
AcDbSymbolTableRecord
100
AcDbLayerTableRecord
  2
INTF_7
 70
0
 62
7
  6
CONTINUOUS
370
-3
390
F
  0
LAYER
  5
20E
100
AcDbSymbolTableRecord
100
AcDbLayerTableRecord
  2
INTF_9
 70
0
 62
7
  6
CONTINUOUS
370
-3
390
F
  0
LAYER
  5
20F
100
AcDbSymbolTableRecord
100
AcDbLayerTableRecord
  2
INTF_BLANK
 70
0
 62
7
  6
CONTINUOUS
370
-3
390
F
  0
LAYER
  5
210
100
AcDbSymbolTableRecord
100
AcDbLayerTableRecord
  2
INTF_RED
 70
0
 62
7
  6
CONTINUOUS
370
-3
390
F
  0
LAYER
  5
211
100
AcDbSymbolTableRecord
100
AcDbLayerTableRecord
  2
NOTE
 70
0
 62
7
  6
CONTINUOUS
370
-3
390
F
  0
LAYER
  5
212
100
AcDbSymbolTableRecord
100
AcDbLayerTableRecord
  2
PIANI
 70
0
 62
7
  6
CONTINUOUS
370
-3
390
F
  0
LAYER
  5
213
100
AcDbSymbolTableRecord
100
AcDbLayerTableRecord
  2
PUNTI
 70
0
 62
7
  6
CONTINUOUS
370
-3
390
F
  0
LAYER
  5
214
100
AcDbSymbolTableRecord
100
AcDbLayerTableRecord
  2
RACCORDO
 70
0
 62
7
  6
CONTINUOUS
370
-3
390
F
  0
LAYER
  5
215
100
AcDbSymbolTableRecord
100
AcDbLayerTableRecord
  2
RGB____0____0____0__
 70
0
 62
7
  6
CONTINUOUS
370
-3
390
F
  0
LAYER
  5
216
100
AcDbSymbolTableRecord
100
AcDbLayerTableRecord
  2
SIMBOLI
 70
0
 62
7
  6
CONTINUOUS
370
-3
390
F
  0
LAYER
  5
217
100
AcDbSymbolTableRecord
100
AcDbLayerTableRecord
  2
SMUSSO
 70
0
 62
7
  6
CONTINUOUS
370
-3
390
F
  0
LAYER
  5
218
100
AcDbSymbolTableRecord
100
AcDbLayerTableRecord
  2
SUPERFICI
 70
0
 62
7
  6
CONTINUOUS
370
-3
390
F
  0
LAYER
  5
219
100
AcDbSymbolTableRecord
100
AcDbLayerTableRecord
  2
TRASH
 70
0
 62
7
  6
CONTINUOUS
370
-3
390
F
  0
ENDTAB
  0
TABLE
  2
STYLE
  5
3
100
AcDbSymbolTable
 70
1
  0
STYLE
  5
11
100
AcDbSymbolTableRecord
100
AcDbTextStyleTableRecord
  2
STANDARD
 70
0
 40
0.0
 41
0.8
 50
0.0
 71
0
 42
0.2
  3
txt
  4

  0
STYLE
  5
21A
100
AcDbSymbolTableRecord
100
AcDbTextStyleTableRecord
  2
TEXTSTYLE_1
 70
0
 40
0.0
 41
0.8
 50
0.0
 71
0
 42
0.2
  3
gdt
  4

  0
ENDTAB
  0
TABLE
  2
VIEW
  5
6
100
AcDbSymbolTable
 70
0
  0
ENDTAB
  0
TABLE
  2
UCS
  5
7
100
AcDbSymbolTable
 70
0
  0
ENDTAB
  0
TABLE
  2
APPID
  5
9
100
AcDbSymbolTable
 70
1
  0
APPID
  5
21B
100
AcDbSymbolTableRecord
100
AcDbRegAppTableRecord
  2
ACAD
 70
0
  0
ENDTAB
  0
TABLE
  2
BLOCK_RECORD
  5
1
100
AcDbSymbolTable
 70
0
  0
BLOCK_RECORD
  5
21C
100
AcDbSymbolTableRecord
100
AcDbBlockTableRecord
  2
*Model_Space
  0
BLOCK_RECORD
  5
21D
100
AcDbSymbolTableRecord
100
AcDbBlockTableRecord
  2
*Paper_Space
  0
BLOCK_RECORD
  5
21E
100
AcDbSymbolTableRecord
100
AcDbBlockTableRecord
  2
_FILLED
  0
ENDTAB
  0
TABLE
  2
DIMSTYLE
  5
A
100
AcDbSymbolTable
 70
1
100
AcDbDimStyleTable
 71
0
  0
DIMSTYLE
105
21F
100
AcDbSymbolTableRecord
100
AcDbDimStyleTableRecord
  2
STANDARD
 70
0
  3

  4

 40
1.0
 41
3.0
 42
0.5
 43
0.38
 44
1.5
 45
0.0
 46
0.0
 47
0.01
 48
0.01
140
3.0
141
0.09
142
0.0
143
25.4
144
1.0
145
0.0
146
1.0
147
0.625
 71
1
 72
0
 73
0
 74
0
 75
0
 76
0
 77
1
 78
8
 79
2
170
0
171
1
172
0
173
0
174
0
175
0
176
0
177
0
178
0
270
2
179
2
271
2
272
2
273
2
274
2
275
0
280
0
281
0
282
0
283
1
284
8
285
0
286
0
287
3
288
0
340
11
278
44
341
21E
342
21E
343
21E
344
21E
  0
ENDTAB
  0
ENDSEC
  0
SECTION
  2
BLOCKS
  0
BLOCK
  5
20
100
AcDbEntity
  8
0
100
AcDbBlockBegin
  2
*Model_Space
 70
0
 10
0.0
 20
0.0
 30
0.0
  3
*Model_Space
  1

  0
ENDBLK
  5
21
100
AcDbEntity
  8
0
100
AcDbBlockEnd
  0
BLOCK
  5
1C
100
AcDbEntity
  8
0
100
AcDbBlockBegin
  2
*Paper_Space
 70
0
 10
0.0
 20
0.0
 30
0.0
  3
*Paper_Space
  1

  0
ENDBLK
  5
1D
100
AcDbEntity
  8
0
100
AcDbBlockEnd
  0
BLOCK
  5
220
100
AcDbEntity
  8
0
100
AcDbBlockBegin
  2
_FILLED
 70
64
 10
0.0
 20
0.0
  3
_FILLED
  1

  0
SOLID
  5
221
100
AcDbEntity
  8
0
  6
BYBLOCK
 62
0
100
AcDbTrace
 10
0.0
 20
0.0
 11
-1.0
 21
0.3166666667
 12
-1.0
 22
-0.3166666667
 13
-1.0
 23
-0.3166666667
  0
ENDBLK
  5
222
100
AcDbEntity
  8
0
  6
BYBLOCK
 62
0
100
AcDbBlockEnd
  0
ENDSEC
  0
SECTION
  2
ENTITIES
  0
LINE
  5
223
100
AcDbEntity
  8
RACCORDO
100
AcDbLine
 62
7
  6
CONTINUOUS
 10
13.8369857704
 20
84.1271663486
 11
14.882608578
 21
84.795830012
  0
LINE
  5
224
100
AcDbEntity
  8
RACCORDO
100
AcDbLine
 62
250
  6
CONTINUOUS
 10
14.0971047716
 20
84.1086843875
 11
15.1390031788
 21
84.77496634
  0
LWPOLYLINE
  5
225
100
AcDbEntity
  8
RACCORDO
100
AcDbPolyline
 62
250
  6
CONTINUOUS
 90
11
 70
0
 10
13.8369891702
 20
84.1271685227
 10
13.8437540182
 20
84.1312712005
 10
13.8665851743
 20
84.1421911748
 10
13.8912378907
 20
84.1497855346
 10
13.9175293983
 20
84.1539991877
 10
13.9452853516
 20
84.1547991124
 10
13.9742707342
 20
84.1521737175
 10
14.004188162
 20
84.1461622754
 10
14.0347778402
 20
84.1368448727
 10
14.0658287774
 20
84.1243128816
 10
14.0971047716
 20
84.1086843875
  0
LINE
  5
226
100
AcDbEntity
  8
RACCORDO
100
AcDbLine
 62
250
  6
CONTINUOUS
 10
45.9731533507
 20
66.9717144734
 11
44.8752215167
 21
66.3377855193
  0
LINE
  5
227
100
AcDbEntity
  8
RACCORDO
100
AcDbLine
 62
250
  6
CONTINUOUS
 10
46.3265855874
 20
66.3595518831
 11
45.2286537534
 21
65.725622929
  0
LWPOLYLINE
  5
228
100
AcDbEntity
  8
RACCORDO
100
AcDbPolyline
 62
250
  6
CONTINUOUS
 90
19
 70
0
 10
45.2286537534
 20
65.725622929
 10
45.1962528915
 20
65.7093386317
 10
45.1615505387
 20
65.6947200859
 10
45.1248027872
 20
65.6818752317
 10
45.0862807288
 20
65.6708988936
 10
45.0462687703
 20
65.6618721733
 10
45.0050625723
 20
65.6548617956
 10
44.9629635616
 20
65.6499192522
 10
44.9202851549
 20
65.6470815448
 10
44.8773510922
 20
65.6463695468
 10
44.834484156
 20
65.6477868801
 10
44.7919944319
 20
65.6513215591
 10
44.7501860563
 20
65.6569476603
 10
44.7093318207
 20
65.6646314152
 10
44.6697706178
 20
65.6743120985
 10
44.6318847044
 20
65.6858878253
 10
44.5959684476
 20
65.6992483181
 10
44.5622382787
 20
65.7142917424
 10
44.5309230749
 20
65.7308966677
  0
LWPOLYLINE
  5
229
100
AcDbEntity
  8
RACCORDO
100
AcDbPolyline
 62
250
  6
CONTINUOUS
 90
19
 70
0
 10
44.8752215167
 20
66.3377855193
 10
44.8449640447
 20
66.3178977177
 10
44.814997352
 20
66.2951923506
 10
44.7855419689
 20
66.2698365112
 10
44.7568146631
 20
66.2420167977
 10
44.7290268442
 20
66.2119379406
 10
44.7023830079
 20
66.1798212958
 10
44.6770792312
 20
66.1459032157
 10
44.6533017292
 20
66.1104333097
 10
44.631225485
 20
66.0736726074
 10
44.6110129616
 20
66.0358916375
 10
44.5928129068
 20
65.9973684372
 10
44.5767592583
 20
65.958386506
 10
44.5629701578
 20
65.9192327191
 10
44.5515470819
 20
65.8801952165
 10
44.542574095
 20
65.8415612824
 10
44.5361172311
 20
65.8036152311
 10
44.5322240074
 20
65.7666363147
 10
44.5309230749
 20
65.7308966677
  0
LWPOLYLINE
  5
22A
100
AcDbEntity
  8
RACCORDO
100
AcDbPolyline
 62
250
  6
CONTINUOUS
 90
16
 70
0
 10
45.2286537534
 20
53.416294656
 10
45.1895490278
 20
53.3969766716
 10
45.1472122523
 20
53.3800819242
 10
45.1020919593
 20
53.3657894028
 10
45.0546661708
 20
53.3542505276
 10
45.0054373335
 20
53.345587545
 10
44.9549269957
 20
53.3398922328
 10
44.9036702827
 20
53.3372249285
 10
44.8522102271
 20
53.3376138902
 10
44.8010920144
 20
53.3410549963
 10
44.7508572096
 20
53.3475117899
 10
44.7020380182
 20
53.356915865
 10
44.6551516469
 20
53.3691675916
 10
44.6106948265
 20
53.3841371703
 10
44.5691385485
 20
53.4016660071
 10
44.5309230749
 20
53.4215683947
  0
LINE
  5
22B
100
AcDbEntity
  8
RACCORDO
100
AcDbLine
 62
7
  6
CONTINUOUS
 10
47.5055186231
 20
47.9024331125
 11
46.3265855874
 21
47.4714621312
  0
LINE
  5
22C
100
AcDbEntity
  8
RACCORDO
100
AcDbLine
 62
250
  6
CONTINUOUS
 10
47.598743869
 20
47.8895832406
 11
46.3265855874
 21
47.4245328209
  0
LINE
  5
22D
100
AcDbEntity
  8
RACCORDO
100
AcDbLine
 62
250
  6
CONTINUOUS
 10
47.9915000988
 20
47.6628107159
 11
46.3265855874
 21
47.0265419295
  0
LINE
  5
22E
100
AcDbEntity
  8
RACCORDO
100
AcDbLine
 62
250
  6
CONTINUOUS
 10
48.1095926279
 20
47.4068789914
 11
46.3265855874
 21
46.7254796054
  0
LINE
  5
22F
100
AcDbEntity
  8
RACCORDO
100
AcDbLine
 62
250
  6
CONTINUOUS
 10
13.3507463108
 20
58.1590603546
 11
13.4272032618
 21
59.302260301
  0
LINE
  5
230
100
AcDbEntity
  8
RACCORDO
100
AcDbLine
 62
250
  6
CONTINUOUS
 10
13.2661835428
 20
56.9890368558
 11
13.3507463108
 21
58.1590603546
  0
LINE
  5
231
100
AcDbEntity
  8
RACCORDO
100
AcDbLine
 62
250
  6
CONTINUOUS
 10
13.1728964234
 20
55.7752869225
 11
13.2661835428
 21
56.9890368558
  0
LINE
  5
232
100
AcDbEntity
  8
RACCORDO
100
AcDbLine
 62
250
  6
CONTINUOUS
 10
13.0336431704
 20
54.0589368956
 11
13.1728964234
 21
55.7752869225
  0
LINE
  5
233
100
AcDbEntity
  8
RACCORDO
100
AcDbLine
 62
7
  6
CONTINUOUS
 10
11.7697559654
 20
40.974758069
 11
12.8494338159
 21
53.8118453492
  0
LINE
  5
234
100
AcDbEntity
  8
RACCORDO
100
AcDbLine
 62
250
  6
CONTINUOUS
 10
11.916380244
 20
40.7725061338
 11
13.0336431704
 21
54.0589368956
  0
LWPOLYLINE
  5
235
100
AcDbEntity
  8
RACCORDO
100
AcDbPolyline
 62
250
  6
CONTINUOUS
 90
7
 70
0
 10
48.2833585387
 20
47.2677559272
 10
48.3003471099
 20
47.2791313608
 10
48.3146348838
 20
47.2916838975
 10
48.3259800248
 20
47.3052011908
 10
48.3341904772
 20
47.3194545663
 10
48.3391272045
 20
47.3342028669
 10
48.3407084052
 20
47.3486188566
  0
LWPOLYLINE
  5
236
100
AcDbEntity
  8
RACCORDO
100
AcDbPolyline
 62
250
  6
CONTINUOUS
 90
7
 70
0
 10
48.2833585387
 20
45.5507691606
 10
48.3003479782
 20
45.5621452661
 10
48.3146361638
 20
45.5746984466
 10
48.3259813256
 20
45.5882162902
 10
48.3341914928
 20
45.6024700622
 10
48.3391277412
 20
45.617218575
 10
48.3407084489
 20
45.6317084056
  0
LWPOLYLINE
  5
237
100
AcDbEntity
  8
RACCORDO
100
AcDbPolyline
 62
250
  6
CONTINUOUS
 90
16
 70
0
 10
44.4291665625
 20
35.8131892591
 10
44.3902624582
 20
35.7983698203
 10
44.3481235778
 20
35.7859264019
 10
44.303196439
 20
35.7759908588
 10
44.2559571047
 20
35.768668471
 10
44.2069061385
 20
35.7640368291
 10
44.1565633007
 20
35.7621450116
 10
44.1054620409
 20
35.7630130646
 10
44.0541438447
 20
35.7666317902
 10
44.003152497
 20
35.7729628429
 10
43.953028319
 20
35.7819391369
 10
43.904302443
 20
35.7934655565
 10
43.8574911847
 20
35.8074199638
 10
43.8130905717
 20
35.8236544933
 10
43.7715710876
 20
35.8419971185
 10
43.7333726866
 20
35.8622534749
  0
LINE
  5
238
100
AcDbEntity
  8
RACCORDO
100
AcDbLine
 62
7
  6
CONTINUOUS
 10
46.3265855874
 20
37.0436286427
 11
47.1890960387
 21
37.3602334676
  0
LWPOLYLINE
  5
239
100
AcDbEntity
  8
RACCORDO
100
AcDbPolyline
 62
250
  6
CONTINUOUS
 90
9
 70
0
 10
12.8494338159
 20
53.8118453492
 10
12.8501037912
 20
53.7834531195
 10
12.8561927368
 20
53.756826744
 10
12.8674895872
 20
53.7303393349
 10
12.8838746364
 20
53.7042715614
 10
12.9051742628
 20
53.678899645
 10
12.9311627681
 20
53.6544924344
 10
12.9615647694
 20
53.6313085575
 10
12.9960581167
 20
53.6095936786
  0
LWPOLYLINE
  5
23A
100
AcDbEntity
  8
RACCORDO
100
AcDbPolyline
 62
250
  6
CONTINUOUS
 90
11
 70
0
 10
13.6063597205
 20
83.7059328326
 10
13.6064173395
 20
83.7015501734
 10
13.6089221647
 20
83.6767426086
 10
13.6151160916
 20
83.6521405915
 10
13.6249372606
 20
83.6279696691
 10
13.638299045
 20
83.6044058437
 10
13.6550884657
 20
83.5816210902
 10
13.675127221
 20
83.5598201095
 10
13.6982217656
 20
83.5391653699
 10
13.7241864798
 20
83.5197814529
 10
13.7528063299
 20
83.5017955359
  0
LINE
  5
23B
100
AcDbEntity
  8
RACCORDO
100
AcDbLine
 62
7
  6
CONTINUOUS
 10
13.6063597205
 20
71.3966045595
 11
13.6063597205
 21
83.7059328326
  0
LINE
  5
23C
100
AcDbEntity
  8
RACCORDO
100
AcDbLine
 62
250
  6
CONTINUOUS
 10
13.7510771308
 20
70.0052067357
 11
13.7528063299
 21
83.5017955359
  0
LWPOLYLINE
  5
23D
100
AcDbEntity
  8
RACCORDO
100
AcDbPolyline
 62
7
  6
CONTINUOUS
 90
10
 70
0
 10
13.6063597206
 20
71.3966106783
 10
13.6018322266
 20
69.5152947571
 10
13.5848336928
 20
67.5709809236
 10
13.549890533
 20
65.6209949359
 10
13.4919408455
 20
63.6625984975
 10
13.4064876296
 20
61.6935775983
 10
13.2938960107
 20
59.7141130732
 10
13.1590343658
 20
57.7272124393
 10
13.0071323806
 20
55.7357998221
 10
12.8494338344
 20
53.8118455695
  0
LINE
  5
23E
100
AcDbEntity
  8
RACCORDO
100
AcDbLine
 62
250
  6
CONTINUOUS
 10
13.7459958051
 20
68.9145129048
 11
13.7510771308
 21
70.0052067357
  0
LINE
  5
23F
100
AcDbEntity
  8
RACCORDO
100
AcDbLine
 62
250
  6
CONTINUOUS
 10
13.7376532011
 20
67.915613741
 11
13.7459958051
 21
68.9145129048
  0
LINE
  5
240
100
AcDbEntity
  8
RACCORDO
100
AcDbLine
 62
250
  6
CONTINUOUS
 10
13.7261281432
 20
66.9925032601
 11
13.7376532011
 21
67.915613741
  0
LINE
  5
241
100
AcDbEntity
  8
RACCORDO
100
AcDbLine
 62
250
  6
CONTINUOUS
 10
13.7115340939
 20
66.1306921391
 11
13.7261281432
 21
66.9925032601
  0
LINE
  5
242
100
AcDbEntity
  8
RACCORDO
100
AcDbLine
 62
250
  6
CONTINUOUS
 10
13.6940659461
 20
65.3205932258
 11
13.7115340939
 21
66.1306921391
  0
LWPOLYLINE
  5
243
100
AcDbEntity
  8
RACCORDO
100
AcDbPolyline
 62
250
  6
CONTINUOUS
 90
11
 70
0
 10
11.7697559654
 20
40.974758069
 10
11.7693645052
 20
40.9593994118
 10
11.771923702
 20
40.9372286481
 10
11.7781392268
 20
40.9150291062
 10
11.787965452
 20
40.8929608035
 10
11.8013408677
 20
40.8711709072
 10
11.8181610391
 20
40.8498361888
 10
11.8382585762
 20
40.8291546785
 10
11.8614499802
 20
40.8092873038
 10
11.8875596522
 20
40.7903604319
 10
11.916380244
 20
40.7725061338
  0
LINE
  5
244
100
AcDbEntity
  8
RACCORDO
100
AcDbLine
 62
250
  6
CONTINUOUS
 10
13.6737112177
 20
64.5476690876
 11
13.6940659461
 21
65.3205932258
  0
LINE
  5
245
100
AcDbEntity
  8
RACCORDO
100
AcDbLine
 62
250
  6
CONTINUOUS
 10
13.6502453034
 20
63.7972174312
 11
13.6737112177
 21
64.5476690876
  0
LWPOLYLINE
  5
246
100
AcDbEntity
  8
RACCORDO
100
AcDbPolyline
 62
250
  6
CONTINUOUS
 90
19
 70
0
 10
13.7528063299
 20
83.5017955359
 10
13.7541072624
 20
83.5375351828
 10
13.758000486
 20
83.5745140993
 10
13.7644573499
 20
83.6124601506
 10
13.7734303368
 20
83.6510940847
 10
13.7848534127
 20
83.6901315873
 10
13.7986425132
 20
83.7292853741
 10
13.8146961618
 20
83.7682673054
 10
13.8328962165
 20
83.8067905057
 10
13.8531087399
 20
83.8445714756
 10
13.8751849842
 20
83.8813321779
 10
13.8989624861
 20
83.9168020839
 10
13.9242662628
 20
83.950720164
 10
13.9509100992
 20
83.9828368088
 10
13.9786979181
 20
84.0129156659
 10
14.0074252239
 20
84.0407353794
 10
14.036880607
 20
84.0660912188
 10
14.0668472997
 20
84.0887965858
 10
14.0971047716
 20
84.1086843875
  0
LINE
  5
247
100
AcDbEntity
  8
RACCORDO
100
AcDbLine
 62
250
  6
CONTINUOUS
 10
13.6233900994
 20
63.0595436386
 11
13.6502453034
 21
63.7972174312
  0
LINE
  5
248
100
AcDbEntity
  8
RACCORDO
100
AcDbLine
 62
250
  6
CONTINUOUS
 10
13.5923871521
 20
62.3180154547
 11
13.6233900994
 21
63.0595436386
  0
LINE
  5
249
100
AcDbEntity
  8
RACCORDO
100
AcDbLine
 62
250
  6
CONTINUOUS
 10
13.5569600286
 20
61.5693040178
 11
13.5923871521
 21
62.3180154547
  0
LINE
  5
24A
100
AcDbEntity
  8
RACCORDO
100
AcDbLine
 62
250
  6
CONTINUOUS
 10
13.5172719058
 20
60.8136621498
 11
13.5569600286
 21
61.5693040178
  0
LINE
  5
24B
100
AcDbEntity
  8
RACCORDO
100
AcDbLine
 62
250
  6
CONTINUOUS
 10
13.473962012
 20
60.0586123681
 11
13.5172719058
 21
60.8136621498
  0
LINE
  5
24C
100
AcDbEntity
  8
RACCORDO
100
AcDbLine
 62
250
  6
CONTINUOUS
 10
13.4272032618
 20
59.302260301
 11
13.473962012
 21
60.0586123681
  0
LWPOLYLINE
  5
24D
100
AcDbEntity
  8
RACCORDO
100
AcDbPolyline
 62
250
  6
CONTINUOUS
 90
19
 70
0
 10
48.1095926279
 20
45.2074524696
 10
48.1282052841
 20
45.2233950974
 10
48.1459336007
 20
45.2403721006
 10
48.1627775778
 20
45.2583834793
 10
48.1788813201
 20
45.2777593916
 10
48.1941007229
 20
45.2981696793
 10
48.2080034714
 20
45.3186238682
 10
48.2204180512
 20
45.3389639406
 10
48.2315159768
 20
45.3593479142
 10
48.2413794766
 20
45.3792593684
 10
48.2499255284
 20
45.3983893352
 10
48.2572371544
 20
45.4170467825
 10
48.2636456511
 20
45.4356421934
 10
48.2692775601
 20
45.4541629028
 10
48.2740063398
 20
45.4726215757
 10
48.2777836604
 20
45.4914666902
 10
48.2805934122
 20
45.5108477388
 10
48.2824517049
 20
45.530615229
 10
48.2833585387
 20
45.5507691606
  0
LWPOLYLINE
  5
24E
100
AcDbEntity
  8
RACCORDO
100
AcDbPolyline
 62
7
  6
CONTINUOUS
 90
15
 70
0
 10
48.0911117398
 20
45.1316053658
 10
48.1233008771
 20
45.1591237596
 10
48.1523642654
 20
45.187659633
 10
48.1799296794
 20
45.2184255345
 10
48.2058544823
 20
45.2512318704
 10
48.22991261
 20
45.2857339444
 10
48.2520204369
 20
45.3217927748
 10
48.2720601574
 20
45.3592305944
 10
48.2897708266
 20
45.397594468
 10
48.3050604648
 20
45.4367145082
 10
48.3178233792
 20
45.4764338488
 10
48.3278796596
 20
45.5163699138
 10
48.3351219728
 20
45.5563545167
 10
48.339444102
 20
45.5963247467
 10
48.3407084432
 20
45.6317358863
  0
LINE
  5
24F
100
AcDbEntity
  8
RACCORDO
100
AcDbLine
 62
250
  6
CONTINUOUS
 10
46.3265855874
 20
43.7936268916
 11
48.1095926279
 21
45.2074524696
  0
LINE
  5
250
100
AcDbEntity
  8
RACCORDO
100
AcDbLine
 62
7
  6
CONTINUOUS
 10
46.3265855874
 20
43.7324338995
 11
48.0912061618
 21
45.1316800308
  0
LINE
  5
251
100
AcDbEntity
  8
DRAFT
100
AcDbLine
 62
7
  6
CONTINUOUS
 10
47.1730876226
 20
36.8526796602
 11
46.3265855874
 21
36.4494335894
  0
LINE
  5
252
100
AcDbEntity
  8
DRAFT
100
AcDbLine
 62
7
  6
CONTINUOUS
 10
47.9075418538
 20
36.8299911503
 11
47.7307651585
 21
36.7457804753
  0
LWPOLYLINE
  5
253
100
AcDbEntity
  8
RACCORDO
100
AcDbPolyline
 62
250
  6
CONTINUOUS
 90
9
 70
0
 10
13.6063597205
 20
71.3966045595
 10
13.6074019113
 20
71.3779744865
 10
13.6133617019
 20
71.3484594674
 10
13.6245444939
 20
71.319454515
 10
13.6408318125
 20
71.2912669184
 10
13.6620511041
 20
71.2641953073
 10
13.6879775637
 20
71.2385264882
 10
13.7183365169
 20
71.214532406
 10
13.7528063299
 20
71.1924672629
  0
LINE
  5
254
100
AcDbEntity
  8
DRAFT
100
AcDbLine
 62
7
  6
CONTINUOUS
 10
47.1730876226
 20
34.5471319157
 11
46.3265855874
 21
33.9728586545
  0
LINE
  5
255
100
AcDbEntity
  8
DRAFT
100
AcDbLine
 62
7
  6
CONTINUOUS
 10
47.9075418538
 20
34.6014005753
 11
47.7307651585
 21
34.4814739537
  0
LWPOLYLINE
  5
256
100
AcDbEntity
  8
RACCORDO
100
AcDbPolyline
 62
250
  6
CONTINUOUS
 90
19
 70
0
 10
43.2914234785
 20
23.0096278395
 10
43.2591650704
 20
22.9970910985
 10
43.2245959978
 20
22.9861940448
 10
43.1879710839
 20
22.9770179033
 10
43.1495539669
 20
22.969630135
 10
43.1096343322
 20
22.9640877907
 10
43.0685280854
 20
22.9604339649
 10
43.0265580557
 20
22.9586938754
 10
42.9840182663
 20
22.9588763108
 10
42.9411913607
 20
22.9609800337
 10
42.898361964
 20
22.9649952764
 10
42.8558789778
 20
22.97089355
 10
42.8141187387
 20
22.9786204525
 10
42.7733854123
 20
22.9881133077
 10
42.733977483
 20
22.9992960109
 10
42.696239762
 20
23.0120588615
 10
42.6604533465
 20
23.0262875837
 10
42.6268416307
 20
23.0418732242
 10
42.5956296026
 20
23.0586920554
  0
LWPOLYLINE
  5
257
100
AcDbEntity
  8
RACCORDO
100
AcDbPolyline
 62
7
  6
CONTINUOUS
 90
6
 70
0
 10
45.1672103639
 20
23.3817516484
 10
45.196788764
 20
23.3916176725
 10
45.2264044296
 20
23.4027011939
 10
45.2560184788
 20
23.4150093339
 10
45.2856060827
 20
23.4285533648
 10
45.3123333392
 20
23.4418822573
  0
LWPOLYLINE
  5
258
100
AcDbEntity
  8
RACCORDO
100
AcDbPolyline
 62
250
  6
CONTINUOUS
 90
10
 70
0
 10
45.3605360405
 20
23.6490464558
 10
45.3677712636
 20
23.6513689232
 10
45.3750283991
 20
23.653870234
 10
45.3823074469
 20
23.6565503881
 10
45.3896104241
 20
23.6594101331
 10
45.3969353137
 20
23.6624487214
 10
45.4042760648
 20
23.6656639103
 10
45.4116306606
 20
23.6690549519
 10
45.4190011179
 20
23.6726225941
 10
45.4263874368
 20
23.6763668368
  0
LINE
  5
259
100
AcDbEntity
  8
RACCORDO
100
AcDbLine
 62
250
  6
CONTINUOUS
 10
43.2914234785
 20
23.0096278395
 11
45.3605360405
 21
23.6490464558
  0
LINE
  5
25A
100
AcDbEntity
  8
RACCORDO
100
AcDbLine
 62
7
  6
CONTINUOUS
 10
43.0948729269
 20
22.7413293955
 11
45.1672103639
 21
23.3817516484
  0
LINE
  5
25B
100
AcDbEntity
  8
0
100
AcDbLine
 62
7
  6
CONTINUOUS
 10
27.3702935818
 20
41.8218952826
 11
27.2365177304
 21
40.2750082843
  0
LINE
  5
25C
100
AcDbEntity
  8
0
100
AcDbLine
 62
7
  6
CONTINUOUS
 10
28.6507312927
 20
39.4584590976
 11
28.7845071442
 21
41.0053460959
  0
LINE
  5
25D
100
AcDbEntity
  8
RACCORDO
100
AcDbLine
 62
250
  6
CONTINUOUS
 10
45.4263874368
 20
23.6763668368
 11
46.3265855874
 21
24.1430798571
  0
LINE
  5
25E
100
AcDbEntity
  8
RACCORDO
100
AcDbLine
 62
7
  6
CONTINUOUS
 10
45.3123468164
 20
23.4418892439
 11
46.2164697
 21
23.9106370652
  0
LWPOLYLINE
  5
25F
100
AcDbEntity
  8
RACCORDO
100
AcDbPolyline
 62
250
  6
CONTINUOUS
 90
5
 70
0
 10
45.27720557
 20
23.4573058302
 10
45.2511167531
 20
23.430572144
 10
45.2224736335
 20
23.4084940926
 10
45.1915878644
 20
23.3913118987
 10
45.1639871091
 20
23.3807485124
  0
LWPOLYLINE
  5
260
100
AcDbEntity
  8
RACCORDO
100
AcDbPolyline
 62
250
  6
CONTINUOUS
 90
3
 70
0
 10
45.3206157343
 20
23.5235291018
 10
45.3004562237
 20
23.4884042727
 10
45.27720557
 20
23.4573058302
  0
LINE
  5
261
100
AcDbEntity
  8
RACCORDO
100
AcDbLine
 62
250
  6
CONTINUOUS
 10
44.4489043969
 20
46.8236141929
 11
44.4245844458
 21
46.0789364825
  0
LINE
  5
262
100
AcDbEntity
  8
RACCORDO
100
AcDbLine
 62
250
  6
CONTINUOUS
 10
44.4245844458
 20
46.0789364825
 11
44.3961355333
 21
45.3318878554
  0
LINE
  5
263
100
AcDbEntity
  8
RACCORDO
100
AcDbLine
 62
250
  6
CONTINUOUS
 10
44.3961355333
 20
45.3318878554
 11
44.3636246362
 21
44.5900026853
  0
LWPOLYLINE
  5
264
100
AcDbEntity
  8
RACCORDO
100
AcDbPolyline
 62
250
  6
CONTINUOUS
 90
11
 70
0
 10
42.5956296026
 20
23.0586920554
 10
42.593701377
 20
23.01775008
 10
42.5951488971
 20
22.9787300668
 10
42.5999583415
 20
22.9420045898
 10
42.6080837882
 20
22.9079243143
 10
42.6194476534
 20
22.8768146484
 10
42.6339414314
 20
22.848972636
 10
42.6514267316
 20
22.8246641206
 10
42.6717365993
 20
22.8041212067
 10
42.6946771104
 20
22.7875400436
 10
42.6972341106
 20
22.7860331477
  0
LINE
  5
265
100
AcDbEntity
  8
RACCORDO
100
AcDbLine
 62
250
  6
CONTINUOUS
 10
44.3636246362
 20
44.5900026853
 11
44.326798279
 21
43.8480270921
  0
LINE
  5
266
100
AcDbEntity
  8
RACCORDO
100
AcDbLine
 62
250
  6
CONTINUOUS
 10
45.0608111164
 20
44.5624016763
 11
45.023907248
 21
43.817650254
  0
LINE
  5
267
100
AcDbEntity
  8
RACCORDO
100
AcDbLine
 62
250
  6
CONTINUOUS
 10
44.326798279
 20
43.8480270921
 11
44.2855577044
 21
43.0998254069
  0
LINE
  5
268
100
AcDbEntity
  8
RACCORDO
100
AcDbLine
 62
250
  6
CONTINUOUS
 10
45.023907248
 20
43.817650254
 11
44.9824955808
 21
43.0667703945
  0
LINE
  5
269
100
AcDbEntity
  8
RACCORDO
100
AcDbLine
 62
250
  6
CONTINUOUS
 10
44.2855577044
 20
43.0998254069
 11
44.2391424366
 21
42.3299649386
  0
LINE
  5
26A
100
AcDbEntity
  8
RACCORDO
100
AcDbLine
 62
250
  6
CONTINUOUS
 10
44.9824955808
 20
43.0667703945
 11
44.935958068
 21
42.2943776874
  0
LINE
  5
26B
100
AcDbEntity
  8
RACCORDO
100
AcDbLine
 62
250
  6
CONTINUOUS
 10
44.2391424366
 20
42.3299649386
 11
44.1865224723
 21
41.5233267525
  0
LINE
  5
26C
100
AcDbEntity
  8
RACCORDO
100
AcDbLine
 62
250
  6
CONTINUOUS
 10
44.935958068
 20
42.2943776874
 11
44.883156869
 21
41.4852682893
  0
LINE
  5
26D
100
AcDbEntity
  8
RACCORDO
100
AcDbLine
 62
250
  6
CONTINUOUS
 10
44.1865224723
 20
41.5233267525
 11
44.1267972324
 21
40.6697888266
  0
LINE
  5
26E
100
AcDbEntity
  8
RACCORDO
100
AcDbLine
 62
250
  6
CONTINUOUS
 10
44.883156869
 20
41.4852682893
 11
44.8232682014
 21
40.6293570457
  0
LINE
  5
26F
100
AcDbEntity
  8
RACCORDO
100
AcDbLine
 62
250
  6
CONTINUOUS
 10
44.8232682014
 20
40.6293570457
 11
44.7548895932
 21
39.7114433255
  0
LINE
  5
270
100
AcDbEntity
  8
RACCORDO
100
AcDbLine
 62
250
  6
CONTINUOUS
 10
44.1267972324
 20
40.6697888266
 11
44.0585721284
 21
39.7541488082
  0
LINE
  5
271
100
AcDbEntity
  8
RACCORDO
100
AcDbLine
 62
250
  6
CONTINUOUS
 10
44.0585721284
 20
39.7541488082
 11
43.9803526039
 21
38.7611446363
  0
LINE
  5
272
100
AcDbEntity
  8
RACCORDO
100
AcDbLine
 62
250
  6
CONTINUOUS
 10
44.7548895932
 20
39.7114433255
 11
44.6764822088
 21
38.7163235414
  0
LINE
  5
273
100
AcDbEntity
  8
RACCORDO
100
AcDbLine
 62
250
  6
CONTINUOUS
 10
43.9803526039
 20
38.7611446363
 11
43.8910747147
 21
37.6805968313
  0
LINE
  5
274
100
AcDbEntity
  8
RACCORDO
100
AcDbLine
 62
250
  6
CONTINUOUS
 10
44.6764822088
 20
38.7163235414
 11
44.5870677366
 21
37.6338952064
  0
LINE
  5
275
100
AcDbEntity
  8
RACCORDO
100
AcDbLine
 62
250
  6
CONTINUOUS
 10
43.8910747147
 20
37.6805968313
 11
43.789078832
 21
36.4940469985
  0
LINE
  5
276
100
AcDbEntity
  8
RACCORDO
100
AcDbLine
 62
250
  6
CONTINUOUS
 10
44.5870677366
 20
37.6338952064
 11
44.4849073462
 21
36.445694639
  0
LINE
  5
277
100
AcDbEntity
  8
RACCORDO
100
AcDbLine
 62
250
  6
CONTINUOUS
 10
43.789078832
 20
36.4940469985
 11
42.5956296026
 21
23.0586920554
  0
LINE
  5
278
100
AcDbEntity
  8
RACCORDO
100
AcDbLine
 62
250
  6
CONTINUOUS
 10
44.4849073462
 20
36.445694639
 11
43.2914234785
 21
23.0096278395
  0
LWPOLYLINE
  5
279
100
AcDbEntity
  8
RACCORDO
100
AcDbPolyline
 62
250
  6
CONTINUOUS
 90
12
 70
0
 10
43.2914234785
 20
23.0096278395
 10
43.2835707167
 20
22.9721026666
 10
43.2731694432
 20
22.9364493442
 10
43.2602985959
 20
22.9029379528
 10
43.2450559157
 20
22.8718224958
 10
43.2275569418
 20
22.843338422
 10
43.207934006
 20
22.8177010026
 10
43.1863343661
 20
22.7951031893
 10
43.1629228627
 20
22.775717948
 10
43.1378813096
 20
22.759694643
 10
43.1114033242
 20
22.7471541704
 10
43.0948729269
 20
22.7413293955
  0
LWPOLYLINE
  5
27A
100
AcDbEntity
  8
RACCORDO
100
AcDbPolyline
 62
250
  6
CONTINUOUS
 90
4
 70
0
 10
45.3605360405
 20
23.6490464558
 10
45.3508199615
 20
23.6042895536
 10
45.3374647557
 20
23.5622981387
 10
45.3206157343
 20
23.5235291018
  0
LWPOLYLINE
  5
27B
100
AcDbEntity
  8
RACCORDO
100
AcDbPolyline
 62
250
  6
CONTINUOUS
 90
19
 70
0
 10
45.2286537534
 20
65.725622929
 10
45.2265087775
 20
65.7616205094
 10
45.2217475719
 20
65.7989497877
 10
45.2144053811
 20
65.8373257775
 10
45.2045348598
 20
65.8764636703
 10
45.1922117524
 20
65.9160559894
 10
45.1775394744
 20
65.9557742412
 10
45.1606431562
 20
65.9952937475
 10
45.1416478715
 20
66.034334152
 10
45.120680822
 20
66.0726342698
 10
45.0978776987
 20
66.1099342917
 10
45.0734292442
 20
66.1459112051
 10
45.0475691793
 20
66.1802262216
 10
45.020499947
 20
66.2126250801
 10
44.9924332155
 20
66.242868129
 10
44.9636419865
 20
66.2706837083
 10
44.9343695737
 20
66.2958704754
 10
44.9048219149
 20
66.3182841615
 10
44.8752215152
 20
66.3377855184
  0
LINE
  5
27C
100
AcDbEntity
  8
RACCORDO
100
AcDbLine
 62
7
  6
CONTINUOUS
 10
46.3265855874
 20
66.3595518831
 11
46.3265855874
 21
24.1430798571
  0
LINE
  5
27D
100
AcDbEntity
  8
DRAFT
100
AcDbLine
 62
7
  6
CONTINUOUS
 10
47.1730876226
 20
36.8526796602
 11
47.1730876226
 21
34.5471319157
  0
LINE
  5
27E
100
AcDbEntity
  8
DRAFT
100
AcDbLine
 62
7
  6
CONTINUOUS
 10
47.7307651585
 20
36.7457804753
 11
47.7307651585
 21
34.4814739537
  0
LINE
  5
27F
100
AcDbEntity
  8
RACCORDO
100
AcDbLine
 62
7
  6
CONTINUOUS
 10
47.9075418538
 20
37.0804572179
 11
47.9075418538
 21
36.8299911503
  0
LINE
  5
280
100
AcDbEntity
  8
DRAFT
100
AcDbLine
 62
7
  6
CONTINUOUS
 10
47.9075418538
 20
36.8299911503
 11
47.9075418538
 21
34.6014005753
  0
LINE
  5
281
100
AcDbEntity
  8
RACCORDO
100
AcDbLine
 62
250
  6
CONTINUOUS
 10
48.2833585387
 20
45.5507691606
 11
48.2833585387
 21
47.2677559272
  0
LINE
  5
282
100
AcDbEntity
  8
RACCORDO
100
AcDbLine
 62
7
  6
CONTINUOUS
 10
48.3407084489
 20
45.6317084056
 11
48.3407084489
 21
47.3486951469
  0
LINE
  5
283
100
AcDbEntity
  8
RACCORDO
100
AcDbLine
 62
250
  6
CONTINUOUS
 10
44.5309230749
 20
65.7308966677
 11
44.5300037489
 21
52.569795516
  0
LINE
  5
284
100
AcDbEntity
  8
RACCORDO
100
AcDbLine
 62
250
  6
CONTINUOUS
 10
45.2286537534
 20
65.725622929
 11
45.2277488068
 21
52.563518164
  0
LINE
  5
285
100
AcDbEntity
  8
RACCORDO
100
AcDbLine
 62
250
  6
CONTINUOUS
 10
44.5300037489
 20
52.569795516
 11
44.5250519031
 21
51.3472601362
  0
LINE
  5
286
100
AcDbEntity
  8
RACCORDO
100
AcDbLine
 62
250
  6
CONTINUOUS
 10
45.2277488068
 20
52.563518164
 11
45.2227876333
 21
51.3391950441
  0
LINE
  5
287
100
AcDbEntity
  8
RACCORDO
100
AcDbLine
 62
250
  6
CONTINUOUS
 10
44.5250519031
 20
51.3472601362
 11
44.5191389212
 21
50.5629831066
  0
LINE
  5
288
100
AcDbEntity
  8
RACCORDO
100
AcDbLine
 62
250
  6
CONTINUOUS
 10
45.2227876333
 20
51.3391950441
 11
45.216844055
 21
50.5534897152
  0
LINE
  5
289
100
AcDbEntity
  8
RACCORDO
100
AcDbLine
 62
250
  6
CONTINUOUS
 10
44.5191389212
 20
50.5629831066
 11
44.5108734365
 21
49.7980794644
  0
LINE
  5
28A
100
AcDbEntity
  8
RACCORDO
100
AcDbLine
 62
250
  6
CONTINUOUS
 10
45.216844055
 20
50.5534897152
 11
45.2085682236
 21
49.7869682309
  0
LINE
  5
28B
100
AcDbEntity
  8
RACCORDO
100
AcDbLine
 62
250
  6
CONTINUOUS
 10
45.2085682236
 20
49.7869682309
 11
45.197684265
 21
49.0339775498
  0
LINE
  5
28C
100
AcDbEntity
  8
RACCORDO
100
AcDbLine
 62
250
  6
CONTINUOUS
 10
44.5108734365
 20
49.7980794644
 11
44.5000054402
 21
49.04689723
  0
LINE
  5
28D
100
AcDbEntity
  8
RACCORDO
100
AcDbLine
 62
250
  6
CONTINUOUS
 10
44.5000054402
 20
49.04689723
 11
44.4862534869
 21
48.3037517775
  0
LINE
  5
28E
100
AcDbEntity
  8
RACCORDO
100
AcDbLine
 62
250
  6
CONTINUOUS
 10
45.197684265
 20
49.0339775498
 11
45.1838844773
 21
48.2888376156
  0
LINE
  5
28F
100
AcDbEntity
  8
RACCORDO
100
AcDbLine
 62
250
  6
CONTINUOUS
 10
44.4862534869
 20
48.3037517775
 11
44.4693517219
 21
47.5648494335
  0
LINE
  5
290
100
AcDbEntity
  8
RACCORDO
100
AcDbLine
 62
250
  6
CONTINUOUS
 10
45.1838844773
 20
48.2888376156
 11
45.1669367383
 21
47.5477743265
  0
LINE
  5
291
100
AcDbEntity
  8
RACCORDO
100
AcDbLine
 62
250
  6
CONTINUOUS
 10
44.4693517219
 20
47.5648494335
 11
44.4489043969
 21
46.8236141929
  0
LINE
  5
292
100
AcDbEntity
  8
RACCORDO
100
AcDbLine
 62
250
  6
CONTINUOUS
 10
45.1669367383
 20
47.5477743265
 11
45.1464405198
 21
46.8041979708
  0
LINE
  5
293
100
AcDbEntity
  8
RACCORDO
100
AcDbLine
 62
250
  6
CONTINUOUS
 10
45.1464405198
 20
46.8041979708
 11
45.1220036769
 21
46.0569558615
  0
LINE
  5
294
100
AcDbEntity
  8
RACCORDO
100
AcDbLine
 62
250
  6
CONTINUOUS
 10
45.1220036769
 20
46.0569558615
 11
45.0934750054
 21
45.3071891515
  0
LINE
  5
295
100
AcDbEntity
  8
RACCORDO
100
AcDbLine
 62
250
  6
CONTINUOUS
 10
45.0934750054
 20
45.3071891515
 11
45.0608111164
 21
44.5624016763
  0
LWPOLYLINE
  5
296
100
AcDbEntity
  8
RACCORDO
100
AcDbPolyline
 62
250
  6
CONTINUOUS
 90
9
 70
0
 10
45.4263874368
 20
23.6763668368
 10
45.423512014
 20
23.6343306418
 10
45.4169004752
 20
23.5950469545
 10
45.4066251949
 20
23.5589458
 10
45.392798653
 20
23.5264223655
 10
45.375572204
 20
23.4978326739
 10
45.35513442
 20
23.473489687
 10
45.3317090264
 20
23.4536598792
 10
45.3123468164
 20
23.4418892439
  0
LWPOLYLINE
  5
297
100
AcDbEntity
  8
RACCORDO
100
AcDbPolyline
 62
250
  6
CONTINUOUS
 90
13
 70
0
 10
48.1095926279
 20
47.4068789914
 10
48.1115487327
 20
47.4304053174
 10
48.1110353502
 20
47.4549121026
 10
48.1080612477
 20
47.4799808368
 10
48.1026772148
 20
47.5051834127
 10
48.0949751966
 20
47.530089438
 10
48.0850867227
 20
47.5542735841
 10
48.073180662
 20
47.5773228506
 10
48.0594603382
 20
47.5988436175
 10
48.0441600571
 20
47.6184683674
 10
48.0275411064
 20
47.6358619621
 10
48.0098872937
 20
47.6507273654
 10
47.9915000988
 20
47.6628107159
  0
LWPOLYLINE
  5
298
100
AcDbEntity
  8
RACCORDO
100
AcDbPolyline
 62
250
  6
CONTINUOUS
 90
10
 70
0
 10
12.0154277518
 20
40.501354122
 10
11.9924872407
 20
40.5179352851
 10
11.9721773729
 20
40.538478199
 10
11.9546920728
 20
40.5627867144
 10
11.9401982948
 20
40.5906287267
 10
11.9288344296
 20
40.6217383927
 10
11.9207089829
 20
40.6558186682
 10
11.9158995385
 20
40.6925441452
 10
11.9144520184
 20
40.7315641584
 10
11.916380244
 20
40.7725061338
  0
LWPOLYLINE
  5
299
100
AcDbEntity
  8
RACCORDO
100
AcDbPolyline
 62
250
  6
CONTINUOUS
 90
7
 70
0
 10
48.1095926279
 20
45.2074524696
 10
48.1115486977
 20
45.1890389896
 10
48.1110354546
 20
45.1723219425
 10
48.1080616067
 20
45.1575868351
 10
48.1026778794
 20
45.1450853361
 10
48.0949761566
 20
45.1350309903
 10
48.0912061618
 20
45.1316800308
  0
LWPOLYLINE
  5
29A
100
AcDbEntity
  8
RACCORDO
100
AcDbPolyline
 62
250
  6
CONTINUOUS
 90
16
 70
0
 10
48.2833585387
 20
47.2677559272
 10
48.2823338165
 20
47.290227079
 10
48.2796475178
 20
47.3110355307
 10
48.2752996425
 20
47.3301812824
 10
48.2692446459
 20
47.3477410605
 10
48.2615280728
 20
47.3636381386
 10
48.2522865574
 20
47.3776423369
 10
48.2415008152
 20
47.3897850033
 10
48.2291901307
 20
47.4000347898
 10
48.2155489907
 20
47.4080674735
 10
48.2005147774
 20
47.4138556086
 10
48.1841501087
 20
47.4174266407
 10
48.1668373253
 20
47.4185386837
 10
48.1487038742
 20
47.4171111088
 10
48.1296223084
 20
47.4132245446
 10
48.1095926279
 20
47.4068789914
  0
LWPOLYLINE
  5
29B
100
AcDbEntity
  8
RACCORDO
100
AcDbPolyline
 62
7
  6
CONTINUOUS
 90
11
 70
0
 10
48.3407084052
 20
47.3486188566
 10
48.3405182288
 20
47.3621441513
 10
48.3373587452
 20
47.4043808047
 10
48.3303328073
 20
47.4449840021
 10
48.3194353111
 20
47.4837203075
 10
48.3046933844
 20
47.5203020453
 10
48.2861541906
 20
47.5544883705
 10
48.2639597792
 20
47.5858787133
 10
48.2385244682
 20
47.6138913034
 10
48.2102926353
 20
47.6381916969
 10
48.1791013178
 20
47.6589173506
  0
LINE
  5
29C
100
AcDbEntity
  8
RACCORDO
100
AcDbLine
 62
7
  6
CONTINUOUS
 10
42.6972341106
 20
22.7860331477
 11
12.017984752
 21
40.499847226
  0
LINE
  5
29D
100
AcDbEntity
  8
RACCORDO
100
AcDbLine
 62
250
  6
CONTINUOUS
 10
42.5956296026
 20
23.0586920554
 11
11.916380244
 21
40.7725061338
  0
LINE
  5
29E
100
AcDbEntity
  8
RACCORDO
100
AcDbLine
 62
250
  6
CONTINUOUS
 10
12.017984752
 20
40.499847226
 11
12.0154277518
 21
40.501354122
  0
LINE
  5
29F
100
AcDbEntity
  8
0
100
AcDbLine
 62
7
  6
CONTINUOUS
 10
27.2997964167
 20
40.1482426584
 11
28.5725886229
 21
39.4133483904
  0
LINE
  5
2A0
100
AcDbEntity
  8
0
100
AcDbLine
 62
7
  6
CONTINUOUS
 10
28.7212284578
 20
41.1321117218
 11
27.4484362517
 21
41.8670059898
  0
LINE
  5
2A1
100
AcDbEntity
  8
DRAFT
100
AcDbLine
 62
7
  6
CONTINUOUS
 10
47.7307651585
 20
34.4814739537
 11
47.1730876226
 21
34.5471319157
  0
LINE
  5
2A2
100
AcDbEntity
  8
DRAFT
100
AcDbLine
 62
7
  6
CONTINUOUS
 10
47.7307651585
 20
36.7457804753
 11
47.1730876226
 21
36.8526796602
  0
LINE
  5
2A3
100
AcDbEntity
  8
RACCORDO
100
AcDbLine
 62
250
  6
CONTINUOUS
 10
12.9960581167
 20
53.6095936786
 11
43.7333726866
 21
35.8622534749
  0
LINE
  5
2A4
100
AcDbEntity
  8
RACCORDO
100
AcDbLine
 62
250
  6
CONTINUOUS
 10
47.9075418538
 20
36.9454118582
 11
47.1890960387
 21
37.3602334676
  0
LINE
  5
2A5
100
AcDbEntity
  8
RACCORDO
100
AcDbLine
 62
7
  6
CONTINUOUS
 10
47.9075418538
 20
37.0805062712
 11
47.4336596898
 21
37.3541198936
  0
LWPOLYLINE
  5
2A6
100
AcDbEntity
  8
RACCORDO
100
AcDbPolyline
 62
250
  6
CONTINUOUS
 90
8
 70
0
 10
47.7591467142
 20
47.8978871819
 10
47.7398713148
 20
47.9034015729
 10
47.7197797077
 20
47.9068361454
 10
47.6989457553
 20
47.9082102351
 10
47.6764926099
 20
47.9074644279
 10
47.652107767
 20
47.9042824588
 10
47.6261625455
 20
47.8984038658
 10
47.598743869
 20
47.8895832406
  0
LINE
  5
2A7
100
AcDbEntity
  8
RACCORDO
100
AcDbLine
 62
250
  6
CONTINUOUS
 10
47.7772368642
 20
47.890396227
 11
47.7683021129
 21
47.89512717
  0
LWPOLYLINE
  5
2A8
100
AcDbEntity
  8
RACCORDO
100
AcDbPolyline
 62
250
  6
CONTINUOUS
 90
7
 70
0
 10
47.598743869
 20
47.8895832406
 10
47.5802494537
 20
47.8987948682
 10
47.5616514961
 20
47.9048607817
 10
47.5432675996
 20
47.9076773918
 10
47.5254117121
 20
47.9071965981
 10
47.5083887644
 20
47.9034266115
 10
47.5055262184
 20
47.9024358887
  0
LWPOLYLINE
  5
2A9
100
AcDbEntity
  8
RACCORDO
100
AcDbPolyline
 62
7
  6
CONTINUOUS
 90
10
 70
0
 10
47.7888541328
 20
47.8842448935
 10
47.7683021129
 20
47.89512717
 10
47.7391571
 20
47.9073258423
 10
47.7083666454
 20
47.9165847397
 10
47.6762540284
 20
47.9226852956
 10
47.6432586948
 20
47.9254817037
 10
47.609649992
 20
47.9249249236
 10
47.5756565991
 20
47.9209951991
 10
47.5415941581
 20
47.91373744
 10
47.5055262186
 20
47.9024358887
  0
LWPOLYLINE
  5
2AA
100
AcDbEntity
  8
RACCORDO
100
AcDbPolyline
 62
250
  6
CONTINUOUS
 90
8
 70
0
 10
48.1791310508
 20
47.6589052562
 10
48.1687159553
 20
47.6644324315
 10
48.143549825
 20
47.6742383103
 10
48.1163142309
 20
47.6801578763
 10
48.0872438039
 20
47.6820496056
 10
48.0565826454
 20
47.6798208649
 10
48.024575906
 20
47.6734143725
 10
47.9915001271
 20
47.6628106995
  0
LINE
  5
2AB
100
AcDbEntity
  8
RACCORDO
100
AcDbLine
 62
250
  6
CONTINUOUS
 10
47.598743869
 20
47.8895832406
 11
47.9915000988
 21
47.6628107159
  0
LINE
  5
2AC
100
AcDbEntity
  8
RACCORDO
100
AcDbLine
 62
7
  6
CONTINUOUS
 10
47.7883497237
 20
47.8845374969
 11
48.179130903
 21
47.6589053416
  0
LINE
  5
2AD
100
AcDbEntity
  8
RACCORDO
100
AcDbLine
 62
250
  6
CONTINUOUS
 10
13.7528063299
 20
71.1924672629
 11
44.5309230749
 21
53.4215683947
  0
LINE
  5
2AE
100
AcDbEntity
  8
RACCORDO
100
AcDbLine
 62
250
  6
CONTINUOUS
 10
44.5309230749
 20
65.7308966677
 11
13.7528063299
 21
83.5017955359
  0
LINE
  5
2AF
100
AcDbEntity
  8
RACCORDO
100
AcDbLine
 62
250
  6
CONTINUOUS
 10
44.8752215167
 20
66.3377855193
 11
14.0971047716
 21
84.1086843875
  0
LINE
  5
2B0
100
AcDbEntity
  8
RACCORDO
100
AcDbLine
 62
7
  6
CONTINUOUS
 10
15.1390031788
 20
84.77496634
 11
45.9731533507
 21
66.9717144734
  0
ARC
  5
2B1
100
AcDbEntity
  8
RACCORDO
100
AcDbCircle
 62
7
  6
CONTINUOUS
 10
12.2679968321
 20
40.9328529533
 40
0.5
100
AcDbArc
 50
175.1839975092
 51
239.9984015652
  0
ARC
  5
2B2
100
AcDbEntity
  8
RACCORDO
100
AcDbCircle
 62
7
  6
CONTINUOUS
 10
14.1063597205
 20
83.7059328326
 40
0.5
100
AcDbArc
 50
122.5979811578
 51
179.9999235613
  0
ARC
  5
2B3
100
AcDbEntity
  8
RACCORDO
100
AcDbCircle
 62
7
  6
CONTINUOUS
 10
42.9472461907
 20
23.2190388749
 40
0.5
100
AcDbArc
 50
239.9984015652
 51
287.1696386884
  0
ELLIPSE
  5
2B4
100
AcDbEntity
  8
RACCORDO
100
AcDbEllipse
 62
7
  6
CONTINUOUS
 10
47.1547159818
 20
36.9378189257
 30
0.0
 11
0.2984123604
 21
0.4035436801
 31
0.0
 40
0.639288975
 41
0.0724911956
 42
0.7706710139
  0
ELLIPSE
  5
2B5
100
AcDbEntity
  8
0
100
AcDbEllipse
 62
7
  6
CONTINUOUS
 10
28.7137964661
 20
41.0461735552
 30
0.0
 11
-0.0410913081
 21
0.0915059701
 31
0.0
 40
0.634096402
 41
-2.2917126361
 42
-0.7209163093
  0
ELLIPSE
  5
2B6
100
AcDbEntity
  8
RACCORDO
100
AcDbEllipse
 62
7
  6
CONTINUOUS
 10
45.9729110014
 20
24.3475669625
 30
0.0
 11
-0.2501834304
 21
0.4333025529
 31
0.0
 40
0.5769361983
 41
-3.16775339
 42
-2.3565853618
  0
ELLIPSE
  5
2B7
100
AcDbEntity
  8
RACCORDO
100
AcDbEllipse
 62
7
  6
CONTINUOUS
 10
45.9729110014
 20
66.5634793246
 30
0.0
 11
-0.2500121049
 21
0.4330057129
 31
0.0
 40
0.5777274115
 41
-2.3559002616
 42
-0.7857891675
  0
ELLIPSE
  5
2B8
100
AcDbEntity
  8
RACCORDO
100
AcDbEllipse
 62
7
  6
CONTINUOUS
 10
15.1392455282
 20
84.3664513322
 30
0.0
 11
-0.2501834304
 21
0.4333025529
 31
0.0
 40
0.5769361983
 41
-0.7851038024
 42
0.0261607363
  0
ELLIPSE
  5
2B9
100
AcDbEntity
  8
0
100
AcDbEllipse
 62
7
  6
CONTINUOUS
 10
27.44100426
 20
41.7810678232
 30
0.0
 11
-0.0410913081
 21
0.0915059701
 31
0.0
 40
0.634096402
 41
5.5622689978
 42
7.1330653246
  0
ELLIPSE
  5
2BA
100
AcDbEntity
  8
0
100
AcDbEllipse
 62
7
  6
CONTINUOUS
 10
27.3072284085
 20
40.234180825
 30
0.0
 11
-0.0410913081
 21
0.0915059701
 31
0.0
 40
0.634096402
 41
0.8498800174
 42
2.4206763442
  0
ELLIPSE
  5
2BB
100
AcDbEntity
  8
0
100
AcDbEllipse
 62
7
  6
CONTINUOUS
 10
28.5800206146
 20
39.499286557
 30
0.0
 11
-0.0410913081
 21
0.0915059701
 31
0.0
 40
0.634096402
 41
-3.8625089629
 42
-2.2917126361
  0
ENDSEC
  0
SECTION
  2
OBJECTS
  0
DICTIONARY
  5
C
100
AcDbDictionary
280
0
281
1
  3
ACAD_GROUP
350
D
  3
ACAD_MLINESTYLE
350
17
  3
ACAD_LAYOUT
350
1A
  3
ACAD_PLOTSETTINGS
350
19
  3
ACAD_PLOTSTYLENAME
350
E
  0
DICTIONARY
  5
D
102
{ACAD_REACTORS
330
C
102
}
100
AcDbDictionary
280
0
281
1
  0
ACDBDICTIONARYWDFLT
  5
E
102
{ACAD_REACTORS
330
C
102
}
100
AcDbDictionary
281
1
  3
Normal
350
F
100
AcDbDictionaryWithDefault
340
F
  0
DICTIONARY
  5
17
102
{ACAD_REACTORS
330
C
102
}
100
AcDbDictionary
280
0
281
1
  3
Standard
350
18
  0
DICTIONARY
  5
19
102
{ACAD_REACTORS
330
C
102
}
100
AcDbDictionary
281
1
  0
DICTIONARY
  5
1A
102
{ACAD_REACTORS
330
C
102
}
100
AcDbDictionary
281
1
  3
Model
350
2BC
  3
Layout1
350
2BD
  0
ACDBPLACEHOLDER
  5
F
102
{ACAD_REACTORS
330
E
102
}
  0
MLINESTYLE
  5
18
102
{ACAD_REACTORS
330
17
102
}
100
AcDbMlineStyle
  2
STANDARD
 70
0
  3

 62
256
 51
90.0
 52
90.0
 71
2
 49
0.5
 62
256
  6
BYLAYER
 49
-0.5
 62
256
  6
BYLAYER
  0
LAYOUT
  5
2BC
102
{ACAD_REACTORS
330
1A
102
}
100
AcDbPlotSettings
  1

  2
none_device
  4
ISO_A3_(420.00_x_297.00_MM)
  6

 40
0.0
 41
0.0
 42
0.0
 43
0.0
 44
420.0
 45
297.0
 46
0.0
 47
0.0
 48
0.0
 49
0.0
140
0.0
141
0.0
142
1.0
143
1.0
 70
1024
 72
1
 73
0
 74
0
  7

 75
0
147
1.0
148
0.0
149
0.0
100
AcDbLayout
  1
Model
 70
0
 71
0
 10
0.0
 20
0.0
 11
420.0
 21
297.0
 12
0.0
 22
0.0
 32
0.0
 14
0.0
 24
0.0
 34
0.0
 15
0.0
 25
0.0
 35
0.0
146
0.0
 13
0.0
 23
0.0
 33
0.0
 16
1.0
 26
0.0
 36
0.0
 17
0.0
 27
1.0
 37
0.0
 76
0
330
21C
345
0
346
0
  0
LAYOUT
  5
2BD
102
{ACAD_REACTORS
330
1A
102
}
100
AcDbPlotSettings
  1

  2
none_device
  4
ISO_A3_(420.00_x_297.00_MM)
  6

 40
0.0
 41
0.0
 42
0.0
 43
0.0
 44
420.0
 45
297.0
 46
0.0
 47
0.0
 48
0.0
 49
0.0
140
0.0
141
0.0
142
1.0
143
1.0
 70
0
 72
1
 73
0
 74
0
  7

 75
0
147
1.0
148
0.0
149
0.0
100
AcDbLayout
  1
Layout1
 70
0
 71
1
 10
0.0
 20
0.0
 11
420.0
 21
297.0
 12
0.0
 22
0.0
 32
0.0
 14
0.0
 24
0.0
 34
0.0
 15
0.0
 25
0.0
 35
0.0
146
0.0
 13
0.0
 23
0.0
 33
0.0
 16
1.0
 26
0.0
 36
0.0
 17
0.0
 27
1.0
 37
0.0
 76
0
330
21D
345
0
346
0
  0
ENDSEC
  0
EOF
